  0
SECTION
  2
HEADER
  9
$ACADVER
  1
AC1018
  9
$ACADMAINTVER
 70
   104
  9
$DWGCODEPAGE
  3
ANSI_932
  9
$INSBASE
 10
0.0
 20
0.0
 30
0.0
  9
$EXTMIN
 10
-0.0000000000000058
 20
-0.0000000000000008
 30
0.0
  9
$EXTMAX
 10
50.03957113889422
 20
26.12482461520072
 30
0.0
  9
$LIMMIN
 10
-15.9747532712704
 20
-4.001522764257515
  9
$LIMMAX
 10
64.55359106689479
 20
32.35909424697343
  9
$ORTHOMODE
 70
     0
  9
$REGENMODE
 70
     1
  9
$FILLMODE
 70
     1
  9
$QTEXTMODE
 70
     0
  9
$MIRRTEXT
 70
     0
  9
$LTSCALE
 40
1.0
  9
$ATTMODE
 70
     1
  9
$TEXTSIZE
 40
2.5
  9
$TRACEWID
 40
1.0
  9
$TEXTSTYLE
  7
Standard
  9
$CLAYER
  8
0
  9
$CELTYPE
  6
ByLayer
  9
$CECOLOR
 62
   256
  9
$CELTSCALE
 40
1.0
  9
$DISPSILH
 70
     0
  9
$DIMSCALE
 40
1.0
  9
$DIMASZ
 40
2.5
  9
$DIMEXO
 40
0.625
  9
$DIMDLI
 40
3.75
  9
$DIMRND
 40
0.0
  9
$DIMDLE
 40
0.0
  9
$DIMEXE
 40
1.25
  9
$DIMTP
 40
0.0
  9
$DIMTM
 40
0.0
  9
$DIMTXT
 40
2.5
  9
$DIMCEN
 40
2.5
  9
$DIMTSZ
 40
0.0
  9
$DIMTOL
 70
     0
  9
$DIMLIM
 70
     0
  9
$DIMTIH
 70
     0
  9
$DIMTOH
 70
     0
  9
$DIMSE1
 70
     0
  9
$DIMSE2
 70
     0
  9
$DIMTAD
 70
     1
  9
$DIMZIN
 70
     8
  9
$DIMBLK
  1

  9
$DIMASO
 70
     1
  9
$DIMSHO
 70
     1
  9
$DIMPOST
  1

  9
$DIMAPOST
  1

  9
$DIMALT
 70
     0
  9
$DIMALTD
 70
     3
  9
$DIMALTF
 40
0.03937007874016
  9
$DIMLFAC
 40
1.0
  9
$DIMTOFL
 70
     1
  9
$DIMTVP
 40
0.0
  9
$DIMTIX
 70
     0
  9
$DIMSOXD
 70
     0
  9
$DIMSAH
 70
     0
  9
$DIMBLK1
  1

  9
$DIMBLK2
  1

  9
$DIMSTYLE
  2
ISO-25
  9
$DIMCLRD
 70
     0
  9
$DIMCLRE
 70
     0
  9
$DIMCLRT
 70
     0
  9
$DIMTFAC
 40
1.0
  9
$DIMGAP
 40
0.625
  9
$DIMJUST
 70
     0
  9
$DIMSD1
 70
     0
  9
$DIMSD2
 70
     0
  9
$DIMTOLJ
 70
     0
  9
$DIMTZIN
 70
     8
  9
$DIMALTZ
 70
     0
  9
$DIMALTTZ
 70
     0
  9
$DIMUPT
 70
     0
  9
$DIMDEC
 70
     2
  9
$DIMTDEC
 70
     2
  9
$DIMALTU
 70
     2
  9
$DIMALTTD
 70
     3
  9
$DIMTXSTY
  7
Standard
  9
$DIMAUNIT
 70
     0
  9
$DIMADEC
 70
     0
  9
$DIMALTRND
 40
0.0
  9
$DIMAZIN
 70
     0
  9
$DIMDSEP
 70
    44
  9
$DIMATFIT
 70
     3
  9
$DIMFRAC
 70
     0
  9
$DIMLDRBLK
  1

  9
$DIMLUNIT
 70
     2
  9
$DIMLWD
 70
    -2
  9
$DIMLWE
 70
    -2
  9
$DIMTMOVE
 70
     0
  9
$LUNITS
 70
     2
  9
$LUPREC
 70
     4
  9
$SKETCHINC
 40
1.0
  9
$FILLETRAD
 40
0.0
  9
$AUNITS
 70
     0
  9
$AUPREC
 70
     0
  9
$MENU
  1
.
  9
$ELEVATION
 40
0.0
  9
$PELEVATION
 40
0.0
  9
$THICKNESS
 40
0.0
  9
$LIMCHECK
 70
     0
  9
$CHAMFERA
 40
0.0
  9
$CHAMFERB
 40
0.0
  9
$CHAMFERC
 40
0.0
  9
$CHAMFERD
 40
0.0
  9
$SKPOLY
 70
     0
  9
$TDCREATE
 40
2459619.406574074
  9
$TDUCREATE
 40
2459619.073240741
  9
$TDUPDATE
 40
2459619.562002315
  9
$TDUUPDATE
 40
2459619.228668982
  9
$TDINDWG
 40
0.1028587963
  9
$TDUSRTIMER
 40
0.1028587963
  9
$USRTIMER
 70
     1
  9
$ANGBASE
 50
0.0
  9
$ANGDIR
 70
     0
  9
$PDMODE
 70
     0
  9
$PDSIZE
 40
0.0
  9
$PLINEWID
 40
0.0
  9
$SPLFRAME
 70
     0
  9
$SPLINETYPE
 70
     6
  9
$SPLINESEGS
 70
     8
  9
$HANDSEED
  5
1E6
  9
$SURFTAB1
 70
     6
  9
$SURFTAB2
 70
     6
  9
$SURFTYPE
 70
     6
  9
$SURFU
 70
     6
  9
$SURFV
 70
     6
  9
$UCSBASE
  2

  9
$UCSNAME
  2

  9
$UCSORG
 10
0.0
 20
0.0
 30
0.0
  9
$UCSXDIR
 10
1.0
 20
0.0
 30
0.0
  9
$UCSYDIR
 10
0.0
 20
1.0
 30
0.0
  9
$UCSORTHOREF
  2

  9
$UCSORTHOVIEW
 70
     0
  9
$UCSORGTOP
 10
0.0
 20
0.0
 30
0.0
  9
$UCSORGBOTTOM
 10
0.0
 20
0.0
 30
0.0
  9
$UCSORGLEFT
 10
0.0
 20
0.0
 30
0.0
  9
$UCSORGRIGHT
 10
0.0
 20
0.0
 30
0.0
  9
$UCSORGFRONT
 10
0.0
 20
0.0
 30
0.0
  9
$UCSORGBACK
 10
0.0
 20
0.0
 30
0.0
  9
$PUCSBASE
  2

  9
$PUCSNAME
  2

  9
$PUCSORG
 10
0.0
 20
0.0
 30
0.0
  9
$PUCSXDIR
 10
1.0
 20
0.0
 30
0.0
  9
$PUCSYDIR
 10
0.0
 20
1.0
 30
0.0
  9
$PUCSORTHOREF
  2

  9
$PUCSORTHOVIEW
 70
     0
  9
$PUCSORGTOP
 10
0.0
 20
0.0
 30
0.0
  9
$PUCSORGBOTTOM
 10
0.0
 20
0.0
 30
0.0
  9
$PUCSORGLEFT
 10
0.0
 20
0.0
 30
0.0
  9
$PUCSORGRIGHT
 10
0.0
 20
0.0
 30
0.0
  9
$PUCSORGFRONT
 10
0.0
 20
0.0
 30
0.0
  9
$PUCSORGBACK
 10
0.0
 20
0.0
 30
0.0
  9
$USERI1
 70
     0
  9
$USERI2
 70
     0
  9
$USERI3
 70
     0
  9
$USERI4
 70
     0
  9
$USERI5
 70
     0
  9
$USERR1
 40
0.0
  9
$USERR2
 40
0.0
  9
$USERR3
 40
0.0
  9
$USERR4
 40
0.0
  9
$USERR5
 40
0.0
  9
$WORLDVIEW
 70
     1
  9
$SHADEDGE
 70
     3
  9
$SHADEDIF
 70
    70
  9
$TILEMODE
 70
     1
  9
$MAXACTVP
 70
    64
  9
$PINSBASE
 10
0.0
 20
0.0
 30
0.0
  9
$PLIMCHECK
 70
     0
  9
$PEXTMIN
 10
0.0
 20
0.0
 30
0.0
  9
$PEXTMAX
 10
0.0
 20
0.0
 30
0.0
  9
$PLIMMIN
 10
0.0
 20
0.0
  9
$PLIMMAX
 10
12.0
 20
9.0
  9
$UNITMODE
 70
     0
  9
$VISRETAIN
 70
     1
  9
$PLINEGEN
 70
     0
  9
$PSLTSCALE
 70
     1
  9
$TREEDEPTH
 70
  3020
  9
$CMLSTYLE
  2
Standard
  9
$CMLJUST
 70
     0
  9
$CMLSCALE
 40
20.0
  9
$PROXYGRAPHICS
 70
     1
  9
$MEASUREMENT
 70
     1
  9
$CELWEIGHT
370
    -1
  9
$ENDCAPS
280
     0
  9
$JOINSTYLE
280
     0
  9
$LWDISPLAY
290
     0
  9
$INSUNITS
 70
     4
  9
$HYPERLINKBASE
  1

  9
$STYLESHEET
  1

  9
$XEDIT
290
     1
  9
$CEPSNTYPE
380
     0
  9
$PSTYLEMODE
290
     1
  9
$FINGERPRINTGUID
  2
{54D4CE4A-6E73-6945-BD8D-70DA13F0D83D}
  9
$VERSIONGUID
  2
{E1F8A035-6EC2-D345-BA12-3B7B055B13BB}
  9
$EXTNAMES
290
     1
  9
$PSVPSCALE
 40
0.0
  9
$OLESTARTUP
290
     0
  9
$SORTENTS
280
   127
  9
$INDEXCTL
280
     0
  9
$HIDETEXT
280
     1
  9
$XCLIPFRAME
290
     0
  9
$HALOGAP
280
     0
  9
$OBSCOLOR
 70
   257
  9
$OBSLTYPE
280
     0
  9
$INTERSECTIONDISPLAY
280
     0
  9
$INTERSECTIONCOLOR
 70
   257
  9
$DIMASSOC
280
     2
  9
$PROJECTNAME
  1

  0
ENDSEC
  0
SECTION
  2
CLASSES
  0
CLASS
  1
ACDBDICTIONARYWDFLT
  2
AcDbDictionaryWithDefault
  3
ObjectDBX Classes
 90
        0
 91
        1
280
     0
281
     0
  0
CLASS
  1
DICTIONARYVAR
  2
AcDbDictionaryVar
  3
ObjectDBX Classes
 90
        0
 91
       16
280
     0
281
     0
  0
CLASS
  1
TABLESTYLE
  2
AcDbTableStyle
  3
ObjectDBX Classes
 90
     4095
 91
        1
280
     0
281
     0
  0
CLASS
  1
MATERIAL
  2
AcDbMaterial
  3
ObjectDBX Classes
 90
     1153
 91
        3
280
     0
281
     0
  0
CLASS
  1
VISUALSTYLE
  2
AcDbVisualStyle
  3
ObjectDBX Classes
 90
     4095
 91
        3
280
     0
281
     0
  0
CLASS
  1
SCALE
  2
AcDbScale
  3
ObjectDBX Classes
 90
     1153
 91
       17
280
     0
281
     0
  0
CLASS
  1
MLEADERSTYLE
  2
AcDbMLeaderStyle
  3
ACDB_MLEADERSTYLE_CLASS
 90
     4095
 91
        0
280
     0
281
     0
  0
CLASS
  1
CELLSTYLEMAP
  2
AcDbCellStyleMap
  3
ObjectDBX Classes
 90
     1152
 91
        1
280
     0
281
     0
  0
CLASS
  1
EXACXREFPANELOBJECT
  2
ExAcXREFPanelObject
  3
EXAC_ESW
 90
     1025
 91
        0
280
     1
281
     0
  0
CLASS
  1
NPOCOLLECTION
  2
AcDbImpNonPersistentObjectsCollection
  3
ObjectDBX Classes
 90
     1153
 91
        0
280
     0
281
     0
  0
CLASS
  1
LAYER_INDEX
  2
AcDbLayerIndex
  3
ObjectDBX Classes
 90
        0
 91
        0
280
     0
281
     0
  0
CLASS
  1
SPATIAL_INDEX
  2
AcDbSpatialIndex
  3
ObjectDBX Classes
 90
        0
 91
        0
280
     0
281
     0
  0
CLASS
  1
IDBUFFER
  2
AcDbIdBuffer
  3
ObjectDBX Classes
 90
        0
 91
        0
280
     0
281
     0
  0
CLASS
  1
ACDBSECTIONVIEWSTYLE
  2
AcDbSectionViewStyle
  3
ObjectDBX Classes
 90
     1025
 91
        0
280
     0
281
     0
  0
CLASS
  1
ACDBDETAILVIEWSTYLE
  2
AcDbDetailViewStyle
  3
ObjectDBX Classes
 90
     1025
 91
        0
280
     0
281
     0
  0
CLASS
  1
SORTENTSTABLE
  2
AcDbSortentsTable
  3
ObjectDBX Classes
 90
        0
 91
        2
280
     0
281
     0
  0
CLASS
  1
DIMASSOC
  2
AcDbDimAssoc
  3
"AcDbDimAssoc|Product Desc:     AcDim ARX App For Dimension|Company:          Autodesk, Inc.|WEB Address:      www.autodesk.com"
 90
        0
 91
        0
280
     0
281
     0
  0
CLASS
  1
SOLID_BACKGROUND
  2
AcDbSolidBackground
  3
SCENEOE
 90
     4095
 91
        0
280
     0
281
     0
  0
ENDSEC
  0
SECTION
  2
TABLES
  0
TABLE
  2
VPORT
  5
29
330
0
100
AcDbSymbolTable
 70
     1
  0
VPORT
  5
2A
330
29
100
AcDbSymbolTableRecord
100
AcDbViewportTableRecord
  2
*Active
 70
     0
 10
0.0
 20
0.0
 11
1.0
 21
1.0
 12
36.61430370004746
 22
9.648901504637123
 13
0.0
 23
0.0
 14
10.0
 24
10.0
 15
10.0
 25
10.0
 16
0.0
 26
0.0
 36
1.0
 17
0.0
 27
0.0
 37
0.0
 40
35.53392306952142
 41
2.294802867383512
 42
50.0
 43
0.0
 44
0.0
 50
0.0
 51
0.0
 71
     0
 72
  1000
 73
     1
 74
     3
 75
     0
 76
     1
 77
     0
 78
     0
281
     0
 65
     1
110
0.0
120
0.0
130
0.0
111
1.0
121
0.0
131
0.0
112
0.0
122
1.0
132
0.0
 79
     0
146
0.0
1001
ACAD_NAV_VCDISPLAY
1070
     3
  0
ENDTAB
  0
TABLE
  2
LTYPE
  5
24
330
0
100
AcDbSymbolTable
 70
     1
  0
LTYPE
  5
25
330
24
100
AcDbSymbolTableRecord
100
AcDbLinetypeTableRecord
  2
ByBlock
 70
     0
  3

 72
    65
 73
     0
 40
0.0
  0
LTYPE
  5
26
330
24
100
AcDbSymbolTableRecord
100
AcDbLinetypeTableRecord
  2
ByLayer
 70
     0
  3

 72
    65
 73
     0
 40
0.0
  0
LTYPE
  5
14
330
24
100
AcDbSymbolTableRecord
100
AcDbLinetypeTableRecord
  2
Continuous
 70
     0
  3
Solid line
 72
    65
 73
     0
 40
0.0
  0
ENDTAB
  0
TABLE
  2
LAYER
  5
1E
102
{ACAD_XDICTIONARY
360
1F
102
}
330
0
100
AcDbSymbolTable
 70
     1
  0
LAYER
  5
6
102
{ACAD_XDICTIONARY
360
7
102
}
330
1E
100
AcDbSymbolTableRecord
100
AcDbLayerTableRecord
  2
0
 70
     0
 62
     7
  6
Continuous
370
    -3
390
8
  0
ENDTAB
  0
TABLE
  2
STYLE
  5
21
330
0
100
AcDbSymbolTable
 70
     1
  0
STYLE
  5
22
330
21
100
AcDbSymbolTableRecord
100
AcDbTextStyleTableRecord
  2
Standard
 70
     0
 40
0.0
 41
1.0
 50
0.0
 71
     0
 42
2.5
  3
arial.ttf
  4

1001
ACAD
1000
Arial
1071
       34
  0
ENDTAB
  0
TABLE
  2
VIEW
  5
27
330
0
100
AcDbSymbolTable
 70
     0
  0
ENDTAB
  0
TABLE
  2
UCS
  5
28
330
0
100
AcDbSymbolTable
 70
     0
  0
ENDTAB
  0
TABLE
  2
APPID
  5
2E
330
0
100
AcDbSymbolTable
 70
     3
  0
APPID
  5
13
330
2E
100
AcDbSymbolTableRecord
100
AcDbRegAppTableRecord
  2
ACAD
 70
     0
  0
APPID
  5
19
330
2E
100
AcDbSymbolTableRecord
100
AcDbRegAppTableRecord
  2
ACAD_PSEXT
 70
     0
  0
APPID
  5
2D
330
2E
100
AcDbSymbolTableRecord
100
AcDbRegAppTableRecord
  2
ACAD_NAV_VCDISPLAY
 70
     0
  0
ENDTAB
  0
TABLE
  2
DIMSTYLE
  5
2F
330
0
100
AcDbSymbolTable
 70
     1
100
AcDbDimStyleTable
 71
     1
340
30
  0
DIMSTYLE
105
30
330
2F
100
AcDbSymbolTableRecord
100
AcDbDimStyleTableRecord
  2
ISO-25
 70
     0
 41
2.5
 42
0.625
 43
3.75
 44
1.25
 73
     0
 74
     0
 77
     1
 78
     8
140
2.5
141
2.5
143
0.03937007874016
147
0.625
171
     3
172
     1
271
     2
272
     2
274
     3
278
    44
283
     0
284
     8
340
22
  0
ENDTAB
  0
TABLE
  2
BLOCK_RECORD
  5
1
330
0
100
AcDbSymbolTable
 70
     0
  0
BLOCK_RECORD
  5
2
102
{ACAD_XDICTIONARY
360
3
102
}
330
1
100
AcDbSymbolTableRecord
100
AcDbBlockTableRecord
  2
*Model_Space
340
16
  0
BLOCK_RECORD
  5
1A
330
1
100
AcDbSymbolTableRecord
100
AcDbBlockTableRecord
  2
*Paper_Space
340
1D
  0
ENDTAB
  0
ENDSEC
  0
SECTION
  2
BLOCKS
  0
BLOCK
  5
5
330
2
100
AcDbEntity
  8
0
100
AcDbBlockBegin
  2
*Model_Space
 70
     0
 10
0.0
 20
0.0
 30
0.0
  3
*Model_Space
  1

  0
ENDBLK
  5
15
330
2
100
AcDbEntity
  8
0
100
AcDbBlockEnd
  0
BLOCK
  5
1B
330
1A
100
AcDbEntity
 67
     1
  8
0
100
AcDbBlockBegin
  2
*Paper_Space
 70
     0
 10
0.0
 20
0.0
 30
0.0
  3
*Paper_Space
  1

  0
ENDBLK
  5
1C
330
1A
100
AcDbEntity
 67
     1
  8
0
100
AcDbBlockEnd
  0
ENDSEC
  0
SECTION
  2
ENTITIES
  0
LINE
  5
61
330
2
100
AcDbEntity
  8
0
100
AcDbLine
 10
41.36003998857893
 20
0.4720276939036695
 30
0.0
 11
41.43584873301098
 21
0.331477376227713
 31
0.0
  0
LINE
  5
62
330
2
100
AcDbEntity
  8
0
100
AcDbLine
 10
42.48037974983289
 20
3.612558626353062
 30
0.0
 11
42.36289129503854
 21
3.579747578275329
 31
0.0
  0
LINE
  5
63
330
2
100
AcDbEntity
  8
0
100
AcDbLine
 10
7.314492679168984
 20
5.55942813626411
 30
0.0
 11
7.39030142360104
 21
5.418877818588142
 31
0.0
  0
LINE
  5
64
330
2
100
AcDbEntity
  8
0
100
AcDbLine
 10
8.434832440422976
 20
8.699959068713491
 30
0.0
 11
8.3173439856286
 21
8.667148020635764
 31
0.0
  0
LINE
  5
65
330
2
100
AcDbEntity
  8
0
100
AcDbLine
 10
43.36806725205503
 20
4.942361219387753
 30
0.0
 11
43.69998946919959
 21
12.42038304891971
 31
0.0
  0
LINE
  5
66
330
2
100
AcDbEntity
  8
0
100
AcDbLine
 10
43.54060901985594
 20
12.37587238708063
 30
0.0
 11
43.21734639963062
 21
5.09294229842316
 31
0.0
  0
LINE
  5
67
330
2
100
AcDbEntity
  8
0
100
AcDbLine
 10
43.4519143599021
 20
4.15251554000023
 30
0.0
 11
43.48617724927055
 21
4.924442724832139
 31
0.0
  0
LINE
  5
68
330
2
100
AcDbEntity
  8
0
100
AcDbLine
 10
43.01453637706716
 20
4.945377657746737
 30
0.0
 11
42.98027348762008
 21
4.173450472836202
 31
0.0
  0
LINE
  5
69
330
2
100
AcDbEntity
  8
0
100
AcDbLine
 10
43.2897416156041
 20
4.920487187283516
 30
0.0
 11
43.2965943105816
 21
5.074872676818456
 31
0.0
  0
LINE
  5
6A
330
2
100
AcDbEntity
  8
0
100
AcDbLine
 10
43.13949906926012
 20
5.081844652726052
 30
0.0
 11
43.13264637428263
 21
4.927459163269749
 31
0.0
  0
SPLINE
  5
6B
330
2
100
AcDbEntity
  8
0
100
AcDbSpline
210
0.0
220
0.0
230
1.0
 70
     8
 71
     3
 72
    12
 73
     8
 74
     0
 42
0.000000001
 43
0.0000000001
 40
0.0
 40
0.0
 40
0.0
 40
0.0
 40
0.1307120931244931
 40
0.2551852672411605
 40
0.4700071178605246
 40
0.8052781704177458
 40
1.0
 40
1.0
 40
1.0
 40
1.0
 10
43.1715312168942
 20
2.68667120978839
 30
0.0
 10
43.18108697266351
 20
2.686052368871999
 30
0.0
 10
43.19974238572758
 20
2.684844224461989
 30
0.0
 10
43.23347374488387
 20
2.695130592248407
 30
0.0
 10
43.27759788809441
 20
2.727430212349648
 30
0.0
 10
43.31018328302405
 20
2.779241019450802
 30
0.0
 10
43.32460871305209
 20
2.822075115954929
 30
0.0
 10
43.32990868258426
 20
2.837812560590251
 30
0.0
  0
SPLINE
  5
6C
330
2
100
AcDbEntity
  8
0
100
AcDbSpline
210
0.0
220
0.0
230
1.0
 70
     8
 71
     3
 72
    11
 73
     7
 74
     0
 42
0.000000001
 43
0.0000000001
 40
0.0
 40
0.0
 40
0.0
 40
0.0
 40
0.1339501845610287
 40
0.4392335894648113
 40
0.7604650079569169
 40
1.0
 40
1.0
 40
1.0
 40
1.0
 10
43.40911734745289
 20
3.499467692384858
 30
0.0
 10
43.40800222245555
 20
3.529055896943216
 30
0.0
 10
43.40434563656205
 20
3.626078034960987
 30
0.0
 10
43.37134625752575
 20
3.77119233944506
 30
0.0
 10
43.33438131387154
 20
3.938604708754501
 30
0.0
 10
43.33597111831713
 20
4.066525691976892
 30
0.0
 10
43.33665021354845
 20
4.121167965698442
 30
0.0
  0
SPLINE
  5
6D
330
2
100
AcDbEntity
  8
0
100
AcDbSpline
210
0.0
220
0.0
230
1.0
 70
     8
 71
     3
 72
    18
 73
    14
 74
     0
 42
0.000000001
 43
0.0000000001
 40
0.0
 40
0.0
 40
0.0
 40
0.0
 40
0.0042792135574917
 40
0.0447195238101594
 40
0.0867037374605934
 40
0.1244474153404739
 40
0.2016730342616426
 40
0.3056320442856943
 40
0.431439638507735
 40
0.5874637630099102
 40
0.7107170636530953
 40
0.8476997531032719
 40
1.0
 40
1.0
 40
1.0
 40
1.0
 10
43.20378450750716
 20
2.842606875547834
 30
0.0
 10
43.20402385825691
 20
2.842743432018092
 30
0.0
 10
43.20652517103543
 20
2.844170502726527
 30
0.0
 10
43.20146005212507
 20
2.857133014779135
 30
0.0
 10
43.1938004609524
 20
2.881723587645113
 30
0.0
 10
43.18078628303962
 20
2.925225198792589
 30
0.0
 10
43.16466211460962
 20
3.001034891824344
 30
0.0
 10
43.15314276732515
 20
3.116374123508234
 30
0.0
 10
43.15911105433271
 20
3.275655069686441
 30
0.0
 10
43.18260442277819
 20
3.443371431535063
 30
0.0
 10
43.20917882892586
 20
3.614877651719113
 30
0.0
 10
43.23278462041418
 20
3.785602814174796
 30
0.0
 10
43.24239439705153
 20
3.905101617378068
 30
0.0
 10
43.24745370463798
 20
3.968014755157808
 30
0.0
  0
SPLINE
  5
6E
330
2
100
AcDbEntity
  8
0
100
AcDbSpline
210
0.0
220
0.0
230
1.0
 70
     8
 71
     3
 72
    17
 73
    13
 74
     0
 42
0.000000001
 43
0.0000000001
 40
0.0
 40
0.0
 40
0.0
 40
0.0
 40
0.1966764173899571
 40
0.3691938020742034
 40
0.5172110193308857
 40
0.6411493233172468
 40
0.7392675839503866
 40
0.811620659473883
 40
0.8957722823642846
 40
0.9444532572179081
 40
0.9711750263835153
 40
1.0
 40
1.0
 40
1.0
 40
1.0
 10
43.09035702705998
 20
3.974539182859869
 30
0.0
 10
43.0818209746382
 20
3.880840161207087
 30
0.0
 10
43.06579740816243
 20
3.704951772992047
 30
0.0
 10
43.02508139743578
 20
3.459932030051608
 30
0.0
 10
42.99854390162814
 20
3.247478499501206
 30
0.0
 10
42.99758877851687
 20
3.072787422834517
 30
0.0
 10
43.01478449259486
 20
2.94554127455685
 30
0.0
 10
43.03872947190955
 20
2.84434349888434
 30
0.0
 10
43.0717944151412
 20
2.763624929476505
 30
0.0
 10
43.11233078243089
 20
2.715626909948864
 30
0.0
 10
43.14362423781868
 20
2.693776857204521
 30
0.0
 10
43.16199700365425
 20
2.689098801735562
 30
0.0
 10
43.1715312168942
 20
2.68667120978839
 30
0.0
  0
SPLINE
  5
6F
330
2
100
AcDbEntity
  8
0
100
AcDbSpline
210
0.0
220
0.0
230
1.0
 70
     8
 71
     3
 72
     9
 73
     5
 74
     0
 42
0.000000001
 43
0.0000000001
 40
0.0
 40
0.0
 40
0.0
 40
0.0
 40
0.3302154910926487
 40
1.0
 40
1.0
 40
1.0
 40
1.0
 10
43.22217275918624
 20
3.717274230689844
 30
0.0
 10
43.22643357691537
 20
3.697034781822718
 30
0.0
 10
43.23933671999629
 20
3.63574314223255
 30
0.0
 10
43.24612285013003
 20
3.568309952030575
 30
0.0
 10
43.25066809496905
 20
3.523144245847091
 30
0.0
  0
SPLINE
  5
70
330
2
100
AcDbEntity
  8
0
100
AcDbSpline
210
0.0
220
0.0
230
1.0
 70
     8
 71
     3
 72
     9
 73
     5
 74
     0
 42
0.000000001
 43
0.0000000001
 40
0.0
 40
0.0
 40
0.0
 40
0.0
 40
0.6266734747706307
 40
1.0
 40
1.0
 40
1.0
 40
1.0
 10
43.20781571773038
 20
2.961686691013515
 30
0.0
 10
43.20378442856394
 20
2.946816399846584
 30
0.0
 10
43.19735159020578
 20
2.923087469605246
 30
0.0
 10
43.19160674803568
 20
2.903957062272518
 30
0.0
 10
43.18946204607036
 20
2.896815173776776
 30
0.0
  0
LINE
  5
71
330
2
100
AcDbEntity
  8
0
100
AcDbLine
 10
43.24745501581409
 20
3.967790677822135
 30
0.0
 11
43.25413255646887
 21
4.118230697874066
 31
0.0
  0
LINE
  5
72
330
2
100
AcDbEntity
  8
0
100
AcDbLine
 10
43.09726519157992
 20
4.130335144707408
 30
0.0
 11
43.09035977449261
 21
3.974763785376789
 31
0.0
  0
LINE
  5
73
330
2
100
AcDbEntity
  8
0
100
AcDbLine
 10
9.322519435357762
 20
10.02976173754251
 30
0.0
 11
9.607758033647233
 21
16.45603081575981
 31
0.0
  0
LINE
  5
74
330
2
100
AcDbEntity
  8
0
100
AcDbLine
 10
9.451391156866453
 20
16.47939659510417
 30
0.0
 11
9.171799090220675
 21
10.18034274078359
 31
0.0
  0
LINE
  5
75
330
2
100
AcDbEntity
  8
0
100
AcDbLine
 10
9.406367557779509
 20
9.239915906566336
 30
0.0
 11
9.440630447226585
 21
10.01184309139824
 31
0.0
  0
LINE
  5
76
330
2
100
AcDbEntity
  8
0
100
AcDbLine
 10
8.968988053003901
 20
10.03277825169582
 30
0.0
 11
8.934725163556823
 21
9.260851066785294
 31
0.0
  0
LINE
  5
77
330
2
100
AcDbEntity
  8
0
100
AcDbLine
 10
9.244193798828185
 20
10.0078877055169
 30
0.0
 11
9.251046493884297
 21
10.16227319497322
 31
0.0
  0
LINE
  5
78
330
2
100
AcDbEntity
  8
0
100
AcDbLine
 10
9.093951759850199
 20
10.16924509508648
 30
0.0
 11
9.087099064872701
 21
10.01485960555155
 31
0.0
  0
SPLINE
  5
79
330
2
100
AcDbEntity
  8
0
100
AcDbSpline
210
0.0
220
0.0
230
1.0
 70
     8
 71
     3
 72
    12
 73
     8
 74
     0
 42
0.000000001
 43
0.0000000001
 40
0.0
 40
0.0
 40
0.0
 40
0.0
 40
0.1307141831113246
 40
0.2551849005609227
 40
0.4700048715049208
 40
0.8052779044248808
 40
1.0
 40
1.0
 40
1.0
 40
1.0
 10
9.125985429438529
 20
7.774071424722935
 30
0.0
 10
9.135541667172178
 20
7.773452464815094
 30
0.0
 10
9.15419769605724
 20
7.772244109158664
 30
0.0
 10
9.187927071363693
 20
7.782531058970207
 30
0.0
 10
9.232049361102376
 20
7.814831319544637
 30
0.0
 10
9.264638464036725
 20
7.86664087498945
 30
0.0
 10
9.279063567953052
 20
7.909475211943839
 30
0.0
 10
9.284363402446771
 20
7.925212699716635
 30
0.0
  0
SPLINE
  5
7A
330
2
100
AcDbEntity
  8
0
100
AcDbSpline
210
0.0
220
0.0
230
1.0
 70
     8
 71
     3
 72
    11
 73
     7
 74
     0
 42
0.000000001
 43
0.0000000001
 40
0.0
 40
0.0
 40
0.0
 40
0.0
 40
0.1339501764708848
 40
0.4392335821856067
 40
0.7604650066544084
 40
1.0
 40
1.0
 40
1.0
 40
1.0
 10
9.363571559997195
 20
8.586867907319419
 30
0.0
 10
9.362455879000208
 20
8.61645619519329
 30
0.0
 10
9.358797469778142
 20
8.713478610661391
 30
0.0
 10
9.325797649877712
 20
8.85859297638783
 30
0.0
 10
9.288836753291747
 20
9.026004739043996
 30
0.0
 10
9.290424276177114
 20
9.15392606440821
 30
0.0
 10
9.291102396820091
 20
9.208568483865681
 30
0.0
  0
SPLINE
  5
7B
330
2
100
AcDbEntity
  8
0
100
AcDbSpline
210
0.0
220
0.0
230
1.0
 70
     8
 71
     3
 72
    18
 73
    14
 74
     0
 42
0.000000001
 43
0.0000000001
 40
0.0
 40
0.0
 40
0.0
 40
0.0
 40
0.0042797493665795
 40
0.0447200376623161
 40
0.0867045229078331
 40
0.1244478859665643
 40
0.2016734509565667
 40
0.305632417317066
 40
0.4314399432322944
 40
0.587463980899774
 40
0.7107172214790764
 40
0.8476998359545378
 40
1.0
 40
1.0
 40
1.0
 40
1.0
 10
9.158237198096905
 20
7.930007317906895
 30
0.0
 10
9.158476909136323
 20
7.930143815843896
 30
0.0
 10
9.160981702242585
 20
7.931570112657236
 30
0.0
 10
9.155911577044843
 20
7.944533851368856
 30
0.0
 10
9.148257678541972
 20
7.969123055043717
 30
0.0
 10
9.135235689102133
 20
8.012626433215425
 30
0.0
 10
9.119114603372583
 20
8.088435285414862
 30
0.0
 10
9.107595440352344
 20
8.203774590833372
 30
0.0
 10
9.113564210790107
 20
8.363055429694957
 30
0.0
 10
9.137054999249718
 20
8.530772200764255
 30
0.0
 10
9.163635426888541
 20
8.702277502582836
 30
0.0
 10
9.187238899177728
 20
8.873003020896465
 30
0.0
 10
9.196848632429466
 20
8.992501829415035
 30
0.0
 10
9.201907917182401
 20
9.055414970092369
 30
0.0
  0
SPLINE
  5
7C
330
2
100
AcDbEntity
  8
0
100
AcDbSpline
210
0.0
220
0.0
230
1.0
 70
     8
 71
     3
 72
    17
 73
    13
 74
     0
 42
0.000000001
 43
0.0000000001
 40
0.0
 40
0.0
 40
0.0
 40
0.0
 40
0.1966764179176195
 40
0.3691938052858869
 40
0.5172110196384327
 40
0.6411493371754569
 40
0.7392675983127733
 40
0.8116206219624771
 40
0.8957721819825358
 40
0.9444532580867274
 40
0.9711752517246587
 40
1.0
 40
1.0
 40
1.0
 40
1.0
 10
9.044811746922468
 20
9.061939321986253
 30
0.0
 10
9.036275039790703
 20
8.968240397290649
 30
0.0
 10
9.020250244220566
 20
8.792352190021938
 30
0.0
 10
8.979537198901027
 20
8.547332015144279
 30
0.0
 10
8.952996402571033
 20
8.334878955142926
 30
0.0
 10
8.952044882452046
 20
8.160187358164023
 30
0.0
 10
8.969240815809087
 20
8.032941215899201
 30
0.0
 10
8.993183217595758
 20
7.931743788235801
 30
0.0
 10
9.026248227762025
 20
7.851025124902684
 30
0.0
 10
9.066784463985744
 20
7.803027118853905
 30
0.0
 10
9.098079776073735
 20
7.781176961870093
 30
0.0
 10
9.116451718087654
 20
7.776498966528469
 30
0.0
 10
9.125985429438529
 20
7.774071424722935
 30
0.0
  0
SPLINE
  5
7D
330
2
100
AcDbEntity
  8
0
100
AcDbSpline
210
0.0
220
0.0
230
1.0
 70
     8
 71
     3
 72
     9
 73
     5
 74
     0
 42
0.000000001
 43
0.0000000001
 40
0.0
 40
0.0
 40
0.0
 40
0.0
 40
0.3302154886234923
 40
1.0
 40
1.0
 40
1.0
 40
1.0
 10
9.176626464412423
 20
8.804674521432566
 30
0.0
 10
9.180886901856622
 20
8.784435129349731
 30
0.0
 10
9.193788893407688
 20
8.723143661262598
 30
0.0
 10
9.200575029436468
 20
8.655710470643626
 30
0.0
 10
9.205120278240656
 20
8.610544764014324
 30
0.0
  0
SPLINE
  5
7E
330
2
100
AcDbEntity
  8
0
100
AcDbSpline
210
0.0
220
0.0
230
1.0
 70
     8
 71
     3
 72
     9
 73
     5
 74
     0
 42
0.000000001
 43
0.0000000001
 40
0.0
 40
0.0
 40
0.0
 40
0.0
 40
0.6266661009422304
 40
1.0
 40
1.0
 40
1.0
 40
1.0
 10
9.162270437592946
 20
8.049086830139893
 30
0.0
 10
9.158237380350035
 20
8.034216683090486
 30
0.0
 10
9.151801644897284
 20
8.010487703611561
 30
0.0
 10
9.146060969353301
 20
7.99135721950804
 30
0.0
 10
9.143917780569276
 20
7.98421516128681
 30
0.0
  0
LINE
  5
7F
330
2
100
AcDbEntity
  8
0
100
AcDbLine
 10
9.201907199038176
 20
9.055191195976899
 30
0.0
 11
9.208584739692939
 21
9.205631216107455
 31
0.0
  0
LINE
  5
80
330
2
100
AcDbEntity
  8
0
100
AcDbLine
 10
9.051717882169951
 20
9.217735587067849
 30
0.0
 11
9.044812465082692
 21
9.062164227737218
 31
0.0
  0
ARC
  5
81
330
2
100
AcDbEntity
  8
0
100
AcDbCircle
 10
45.4327482929128
 20
19.85125371277254
 30
0.0
 40
0.2762925360010866
100
AcDbArc
 50
86.32442402230031
 51
245.0807453029993
  0
ARC
  5
82
330
2
100
AcDbEntity
  8
0
100
AcDbCircle
 10
44.81981551348333
 20
15.60195301611729
 30
0.0
 40
0.276292536001077
100
AcDbArc
 50
5.783210238699914
 51
75.64307347369979
  0
ARC
  5
83
330
2
100
AcDbEntity
  8
0
100
AcDbCircle
 10
44.81981551348333
 20
15.60195301611729
 30
0.0
 40
0.2762925360010712
100
AcDbArc
 50
267.3593651192998
 51
349.1338260102001
  0
ARC
  5
84
330
2
100
AcDbEntity
  8
0
100
AcDbCircle
 10
41.66128654772214
 20
12.13660193364499
 30
0.0
 40
0.276292536001077
100
AcDbArc
 50
5.783210238699914
 51
75.64307347369979
  0
ARC
  5
85
330
2
100
AcDbEntity
  8
0
100
AcDbCircle
 10
41.66128654772214
 20
12.13660193364499
 30
0.0
 40
0.2762925360010812
100
AcDbArc
 50
267.3593651192998
 51
349.1338260102001
  0
ARC
  5
86
330
2
100
AcDbEntity
  8
0
100
AcDbCircle
 10
12.74902384989297
 20
24.73515799191659
 30
0.0
 40
0.2762925360010815
100
AcDbArc
 50
86.32442402230031
 51
245.0807453029993
  0
ARC
  5
87
330
2
100
AcDbEntity
  8
0
100
AcDbCircle
 10
48.36424484594289
 20
14.092414068839
 30
0.0
 40
0.276292536001077
100
AcDbArc
 50
5.783210238699914
 51
75.64307347369979
  0
ARC
  5
88
330
2
100
AcDbEntity
  8
0
100
AcDbCircle
 10
48.36424484594289
 20
14.092414068839
 30
0.0
 40
0.2762925360010723
100
AcDbArc
 50
267.3593651192998
 51
349.1338260102001
  0
ARC
  5
89
330
2
100
AcDbEntity
  8
0
100
AcDbCircle
 10
49.76468325718284
 20
19.18646606768741
 30
0.0
 40
0.2762925360010716
100
AcDbArc
 50
5.783210238699914
 51
75.64307347369979
  0
ARC
  5
8A
330
2
100
AcDbEntity
  8
0
100
AcDbCircle
 10
49.76468325718284
 20
19.18646606768741
 30
0.0
 40
0.2762925360010757
100
AcDbArc
 50
267.3593651192998
 51
349.1338260102001
  0
ARC
  5
8B
330
2
100
AcDbEntity
  8
0
100
AcDbCircle
 10
29.09088607136358
 20
22.29320585230525
 30
0.0
 40
0.2762925360010822
100
AcDbArc
 50
86.32442402230031
 51
245.0807453029993
  0
SPLINE
  5
8C
330
2
100
AcDbEntity
  8
0
100
AcDbSpline
210
0.0
220
0.0
230
1.0
 70
     8
 71
     3
 72
    17
 73
    13
 74
     0
 42
0.000000001
 43
0.0000000001
 40
0.0
 40
0.0
 40
0.0
 40
0.0
 40
0.0616299577170088
 40
0.178428182363239
 40
0.2961152646172618
 40
0.4151664077114254
 40
0.5360243222276338
 40
0.6586275255134061
 40
0.7645149648305758
 40
0.8639853648768051
 40
0.9594260807721251
 40
1.0
 40
1.0
 40
1.0
 40
1.0
 10
49.97076678642773
 20
16.37788841941078
 30
0.0
 10
49.97163833014081
 20
16.40580760708264
 30
0.0
 10
49.97416158289523
 20
16.48663793852992
 30
0.0
 10
49.9680678001241
 20
16.61733271285987
 30
0.0
 10
49.94785636276791
 20
16.76489034148412
 30
0.0
 10
49.91337715656252
 20
16.90227424499807
 30
0.0
 10
49.86416765331222
 20
17.02686663941328
 30
0.0
 10
49.80202732961742
 20
17.13035316140523
 30
0.0
 10
49.72954093360898
 20
17.21118837659604
 30
0.0
 10
49.65028212659473
 20
17.26697214600627
 30
0.0
 10
49.580510992023
 20
17.29942312415582
 30
0.0
 10
49.53711616932904
 20
17.30379993170184
 30
0.0
 10
49.52417125329625
 20
17.30510555764191
 30
0.0
  0
LINE
  5
8D
330
2
100
AcDbEntity
  8
0
100
AcDbLine
 10
49.52016700787883
 20
17.30886420046398
 30
0.0
 11
49.4716876832566
 21
17.31610842936083
 31
0.0
  0
SPLINE
  5
8E
330
2
100
AcDbEntity
  8
0
100
AcDbSpline
210
0.0
220
0.0
230
1.0
 70
     8
 71
     3
 72
    20
 73
    16
 74
     0
 42
0.000000001
 43
0.0000000001
 40
0.0
 40
0.0
 40
0.0
 40
0.0
 40
0.0465520410954897
 40
0.1221082950608481
 40
0.1981576083267146
 40
0.2778929031338939
 40
0.3628662046733923
 40
0.4520955994985249
 40
0.5429211592467974
 40
0.6332483602491952
 40
0.7228239560212291
 40
0.8118263842954803
 40
0.9005261416381536
 40
0.9845633873748884
 40
1.0
 40
1.0
 40
1.0
 40
1.0
 10
49.20242723659932
 20
15.21306396312525
 30
0.0
 10
49.22170397575499
 20
15.20962492071003
 30
0.0
 10
49.27226781135146
 20
15.20060414318702
 30
0.0
 10
49.3558991834914
 20
15.21395414770218
 30
0.0
 10
49.44782432602659
 20
15.24782510167917
 30
0.0
 10
49.53617004261978
 20
15.30425821471577
 30
0.0
 10
49.62101333505214
 20
15.38247495124334
 30
0.0
 10
49.70098443491411
 20
15.48284975954474
 30
0.0
 10
49.77355455176198
 20
15.60281712158615
 30
0.0
 10
49.83649960119589
 20
15.73827606195901
 30
0.0
 10
49.88848215824632
 20
15.88505209120766
 30
0.0
 10
49.92879475670227
 20
16.03969695724181
 30
0.0
 10
49.95625752983417
 20
16.19605070502731
 30
0.0
 10
49.96741132727078
 20
16.30940377529176
 30
0.0
 10
49.97031602747832
 20
16.36868846650001
 30
0.0
 10
49.97076678642773
 20
16.37788841941078
 30
0.0
  0
LINE
  5
8F
330
2
100
AcDbEntity
  8
0
100
AcDbLine
 10
49.15795215732376
 20
15.21654954916889
 30
0.0
 11
49.20643148202461
 21
15.20930532027205
 31
0.0
  0
LINE
  5
90
330
2
100
AcDbEntity
  8
0
100
AcDbLine
 10
49.94103044463287
 20
19.97201261363224
 30
0.0
 11
9.086374789451751
 21
26.07689297771724
 31
0.0
  0
LINE
  5
91
330
2
100
AcDbEntity
  8
0
100
AcDbLine
 10
47.57229221790734
 20
13.5018114764661
 30
0.0
 11
48.59617393085162
 21
13.34881360479461
 31
0.0
  0
LINE
  5
92
330
2
100
AcDbEntity
  8
0
100
AcDbLine
 10
0.2356706574535691
 20
17.81832712001735
 30
0.0
 11
0.3378075033038141
 21
17.80306488823195
 31
0.0
  0
LINE
  5
93
330
2
100
AcDbEntity
  8
0
100
AcDbLine
 10
9.061197410568462
 20
26.10907288603503
 30
0.0
 11
8.959060564718173
 21
26.12433511782044
 31
0.0
  0
LINE
  5
94
330
2
100
AcDbEntity
  8
0
100
AcDbLine
 10
45.20098213105646
 20
12.66602324303157
 30
0.0
 11
45.20783482611259
 21
12.82040873248787
 31
0.0
  0
LINE
  5
95
330
2
100
AcDbEntity
  8
0
100
AcDbLine
 10
44.57645320777257
 20
15.98296662415148
 30
0.0
 11
3.93987527754149
 21
22.05525979836689
 31
0.0
  0
LINE
  5
96
330
2
100
AcDbEntity
  8
0
100
AcDbLine
 10
40.9942795156506
 20
13.76677490213038
 30
0.0
 11
0.3498304742226418
 21
19.8402442505521
 31
0.0
  0
LINE
  5
97
330
2
100
AcDbEntity
  8
0
100
AcDbLine
 10
0.3436291893488565
 20
17.8403623618605
 30
0.0
 11
41.19828484460866
 21
11.73548199785413
 31
0.0
  0
LWPOLYLINE
  5
98
330
2
100
AcDbEntity
  8
0
100
AcDbPolyline
 90
       13
 70
   128
 43
0.0
 10
43.00237453875314
 20
0.99947985627796
 10
43.03248365050884
 20
1.090096239896897
 10
43.03501541873705
 20
1.178349935528379
 10
43.009804511714
 20
1.258228378233538
 10
42.95856777922858
 20
1.32428664755062
 10
42.88479166734215
 20
1.372023211899157
 10
42.79350532350814
 20
1.39818601304352
 10
42.69093524703019
 20
1.4009910305161
 10
42.58406550371873
 20
1.380248239996226
 10
42.48018057303267
 20
1.337369683676332
 10
42.38636246089184
 20
1.275277657542155
 10
42.30900329143692
 20
1.198205363956628
 10
42.25336998773345
 20
1.111403041169171
  0
LWPOLYLINE
  5
99
330
2
100
AcDbEntity
  8
0
100
AcDbPolyline
 90
       13
 70
   128
 43
0.0
 10
42.25336998773345
 20
1.111403041169171
 10
42.22326522738984
 20
1.020787314067498
 10
42.22072940062698
 20
0.932533093222201
 10
42.24594030765001
 20
0.8526557822427262
 10
42.29718109874871
 20
0.7865969064137702
 10
42.37095721055653
 20
0.7388592104181803
 10
42.46223949585589
 20
0.7126970157070653
 10
42.56481363094713
 20
0.7098913918012438
 10
42.67168337425854
 20
0.7306353139681643
 10
42.77556424633138
 20
0.7735144767213004
 10
42.86938235847222
 20
0.8356053712084301
 10
42.94674558646175
 20
0.912678190007762
 10
43.00237453875314
 20
0.99947985627796
  0
ARC
  5
9A
330
2
100
AcDbEntity
  8
0
100
AcDbCircle
 10
42.97179088578787
 20
0.6336803701542724
 30
0.0
 40
0.4931318916556688
100
AcDbArc
 50
263.6543678766993
 51
332.2777150282997
  0
LINE
  5
9B
330
2
100
AcDbEntity
  8
0
100
AcDbLine
 10
42.91728704100818
 20
0.1435697770387918
 30
0.0
 11
41.5554664879176
 21
0.3470655946204577
 31
0.0
  0
ARC
  5
9C
330
2
100
AcDbEntity
  8
0
100
AcDbCircle
 10
41.57459172794516
 20
0.5880503135257694
 30
0.0
 40
0.2417424446961328
100
AcDbArc
 50
149.8344727820996
 51
265.4623530247999
  0
LINE
  5
9D
330
2
100
AcDbEntity
  8
0
100
AcDbLine
 10
42.04361863745357
 20
2.1125802560619
 30
0.0
 11
41.36558669925029
 21
0.7095258564370393
 31
0.0
  0
LINE
  5
9E
330
2
100
AcDbEntity
  8
0
100
AcDbLine
 10
44.08634946701087
 20
1.807336529728714
 30
0.0
 11
43.4083175288076
 21
0.4042821301038535
 31
0.0
  0
LINE
  5
9F
330
2
100
AcDbEntity
  8
0
100
AcDbLine
 10
44.2455176321676
 20
2.013508943481505
 30
0.0
 11
44.28839676928901
 21
2.979553298646018
 31
0.0
  0
ARC
  5
A0
330
2
100
AcDbEntity
  8
0
100
AcDbCircle
 10
43.33721734721865
 20
2.048503148651909
 30
0.0
 40
0.9089741481613678
100
AcDbArc
 50
335.1691079610999
 51
357.7936491564002
  0
LINE
  5
A1
330
2
100
AcDbEntity
  8
0
100
AcDbLine
 10
43.48412598028355
 20
0.2637328127714955
 30
0.0
 11
44.16215791848682
 21
1.666787212474977
 31
0.0
  0
ARC
  5
A2
330
2
100
AcDbEntity
  8
0
100
AcDbCircle
 10
43.67387500989758
 20
1.998195180831005
 30
0.0
 40
0.4544911467518546
100
AcDbArc
 50
335.1692506578002
 51
357.7935031010998
  0
LINE
  5
A3
330
2
100
AcDbEntity
  8
0
100
AcDbLine
 10
44.12802917737322
 20
1.980696763756725
 30
0.0
 11
44.17090831449463
 21
2.946742250568285
 31
0.0
  0
ARC
  5
A4
330
2
100
AcDbEntity
  8
0
100
AcDbCircle
 10
43.04760178650567
 20
0.4931285673340599
 30
0.0
 40
0.4931285673340607
100
AcDbArc
 50
263.6540385961997
 51
332.2778382876999
  0
LINE
  5
A5
330
2
100
AcDbEntity
  8
0
100
AcDbLine
 10
42.99309549248419
 20
0.0030215914321071
 30
0.0
 11
41.63127493939355
 21
0.206517409013773
 31
0.0
  0
ARC
  5
A6
330
2
100
AcDbEntity
  8
0
100
AcDbCircle
 10
42.5976442482711
 20
0.8295613769407419
 30
0.0
 40
0.303376495054691
100
AcDbArc
 50
152.2423220855001
 51
188.1704530235998
  0
LWPOLYLINE
  5
A7
330
2
100
AcDbEntity
  8
0
100
AcDbPolyline
 90
        9
 70
   128
 43
0.0
 10
43.03420606772136
 20
1.18388856262461
 10
42.96060011881809
 20
1.231473894566799
 10
42.8693137749841
 20
1.257636695711156
 10
42.76674369850613
 20
1.260441713183736
 10
42.65987395519468
 20
1.239698922663862
 10
42.55598902450862
 20
1.1968203664226
 10
42.46217091236776
 20
1.134728340209797
 10
42.38481174291288
 20
1.057656046702896
 10
42.32917873208684
 20
0.9708538551402622
  0
ARC
  5
A8
330
2
100
AcDbEntity
  8
0
100
AcDbCircle
 10
43.87507268543808
 20
3.011705904809121
 30
0.0
 40
0.4145727781391951
100
AcDbArc
 50
355.5519017542
 51
77.46167530600011
  0
ARC
  5
A9
330
2
100
AcDbEntity
  8
0
100
AcDbCircle
 10
43.75758423064371
 20
2.97889485681002
 30
0.0
 40
0.4145727781391544
100
AcDbArc
 50
355.5519017542
 51
77.46167530600011
  0
LWPOLYLINE
  5
AA
330
2
100
AcDbEntity
  8
0
100
AcDbPolyline
 90
       10
 70
   128
 43
0.0
 10
43.12041953156102
 20
2.443225763044134
 10
43.20265452786643
 20
2.447339966346955
 10
43.27641472608909
 20
2.483543900486804
 10
43.33280470178489
 20
2.547472841386728
 10
43.36502678941018
 20
2.631414556751475
 10
43.36919153856634
 20
2.725245257826949
 10
43.34479662517702
 20
2.817647033837994
 10
43.29478777511014
 20
2.897475071035104
 10
43.22519203316623
 20
2.955101706745901
 10
43.17235662627839
 20
2.977509546820946
  0
ARC
  5
AB
330
2
100
AcDbEntity
  8
0
100
AcDbCircle
 10
43.17805285800825
 20
2.72453284036565
 30
0.0
 40
0.2871502604428664
100
AcDbArc
 50
124.9731857549006
 51
258.4216417089992
  0
LINE
  5
AC
330
2
100
AcDbEntity
  8
0
100
AcDbLine
 10
42.12817748485871
 20
3.251985976901476
 30
0.0
 11
42.08529834781589
 21
2.28594049008991
 31
0.0
  0
ARC
  5
AD
330
2
100
AcDbEntity
  8
0
100
AcDbCircle
 10
42.45307742625938
 20
3.263615671496264
 30
0.0
 40
0.3251080154393513
100
AcDbArc
 50
84.22963129890028
 51
182.0500097695999
  0
LINE
  5
AE
330
2
100
AcDbEntity
  8
0
100
AcDbLine
 10
43.84758491382298
 20
3.383580494526289
 30
0.0
 11
43.18880588529546
 21
3.482021347608707
 31
0.0
  0
LINE
  5
AF
330
2
100
AcDbEntity
  8
0
100
AcDbLine
 10
43.03334736280459
 20
3.505251397317227
 30
0.0
 11
42.48576436073238
 21
3.587076312107961
 31
0.0
  0
ARC
  5
B0
330
2
100
AcDbEntity
  8
0
100
AcDbCircle
 10
41.65720101071464
 20
0.4623579974583432
 30
0.0
 40
0.2571508660077558
100
AcDbArc
 50
210.5948696565994
 51
264.2135812296007
  0
LINE
  5
B1
330
2
100
AcDbEntity
  8
0
100
AcDbLine
 10
43.96507336861737
 20
3.416391542604023
 30
0.0
 11
43.19620223788962
 21
3.531283375407717
 31
0.0
  0
LINE
  5
B2
330
2
100
AcDbEntity
  8
0
100
AcDbLine
 10
43.04058949068894
 20
3.554536470837605
 30
0.0
 11
42.60325281552671
 21
3.619887360185682
 31
0.0
  0
ARC
  5
B3
330
2
100
AcDbEntity
  8
0
100
AcDbCircle
 10
41.63114418034028
 20
2.30343890716419
 30
0.0
 40
0.454491146752418
100
AcDbArc
 50
335.1692506578002
 51
357.7935031010998
  0
LINE
  5
B4
330
2
100
AcDbEntity
  8
0
100
AcDbLine
 10
43.23790798635539
 20
2.476037942768914
 30
0.0
 11
43.26265243888902
 21
2.473801435118264
 31
0.0
  0
ARC
  5
B5
330
2
100
AcDbEntity
  8
0
100
AcDbCircle
 10
43.30355132497196
 20
2.763110168441738
 30
0.0
 40
0.2944817662108882
100
AcDbArc
 50
156.9915210011
 51
257.1199095317997
  0
LWPOLYLINE
  5
B6
330
2
100
AcDbEntity
  8
0
100
AcDbPolyline
 90
        3
 70
   128
 43
0.0
 10
42.48037974983289
 20
3.612558626353062
 10
42.53650550036958
 20
3.622395801451562
 10
42.60325281552671
 20
3.619887360185682
  0
LWPOLYLINE
  5
B7
330
2
100
AcDbEntity
  8
0
100
AcDbPolyline
 90
       13
 70
   128
 43
0.0
 10
8.956827229343195
 20
6.086880298638395
 10
8.986936341098894
 20
6.177496682257321
 10
8.989471153208434
 20
6.265749923044217
 10
8.964259231610704
 20
6.345628517338028
 10
8.913019455165319
 20
6.411687241578333
 10
8.83924385064483
 20
6.459423730053921
 10
8.747959536038868
 20
6.485586227942344
 10
8.645387937620238
 20
6.488391472797903
 10
8.538518701596135
 20
6.467648606562327
 10
8.434634785563382
 20
6.424769898653782
 10
8.340816166135185
 20
6.362677948235307
 10
8.263455474661016
 20
6.285605882111392
 10
8.207825722204809
 20
6.198803028606389
  0
LWPOLYLINE
  5
B8
330
2
100
AcDbEntity
  8
0
100
AcDbPolyline
 90
       13
 70
   128
 43
0.0
 10
8.207825722204809
 20
6.198803028606389
 10
8.177717410692565
 20
6.108187832222256
 10
8.175183105870331
 20
6.019933383915359
 10
8.200394520180756
 20
5.940055997141556
 10
8.25163429662612
 20
5.873997272901251
 10
8.325409901146587
 20
5.826259652778615
 10
8.416693708465242
 20
5.800097230605889
 10
8.519265814171221
 20
5.797291909956006
 10
8.626135050195324
 20
5.818035907917256
 10
8.730018966228033
 20
5.860914615825795
 10
8.82383809294358
 20
5.923005358724268
 10
8.901198277051806
 20
6.000078632368191
 10
8.956827229343195
 20
6.086880298638395
  0
ARC
  5
B9
330
2
100
AcDbEntity
  8
0
100
AcDbCircle
 10
8.926242597341676
 20
5.721088007472096
 30
0.0
 40
0.4931390114447533
100
AcDbArc
 50
263.6548115476998
 51
332.2771456824999
  0
LINE
  5
BA
330
2
100
AcDbEntity
  8
0
100
AcDbLine
 10
8.871741760826255
 20
5.230969916143281
 30
0.0
 11
7.50992019316094
 21
5.434465885313609
 31
0.0
  0
ARC
  5
BB
330
2
100
AcDbEntity
  8
0
100
AcDbCircle
 10
7.529046754793176
 20
5.675451614547883
 30
0.0
 40
0.241743556360004
100
AcDbArc
 50
149.8348820846004
 51
265.4620597211998
  0
LINE
  5
BC
330
2
100
AcDbEntity
  8
0
100
AcDbLine
 10
7.99807183533095
 20
7.199980622628006
 30
0.0
 11
7.320039897127671
 21
5.796926223003151
 31
0.0
  0
LINE
  5
BD
330
2
100
AcDbEntity
  8
0
100
AcDbLine
 10
10.04080520148226
 20
6.894736517244552
 30
0.0
 11
9.362773263278979
 21
5.491682117619691
 31
0.0
  0
LINE
  5
BE
330
2
100
AcDbEntity
  8
0
100
AcDbLine
 10
10.19997336671761
 20
7.100908930997343
 30
0.0
 11
10.24285250376042
 21
8.066953286161856
 31
0.0
  0
ARC
  5
BF
330
2
100
AcDbEntity
  8
0
100
AcDbCircle
 10
9.291673081768676
 20
7.135903136167753
 30
0.0
 40
0.9089741481601491
100
AcDbArc
 50
335.1691079610999
 51
357.7936491564002
  0
LINE
  5
C0
330
2
100
AcDbEntity
  8
0
100
AcDbLine
 10
9.438581714754953
 20
5.351132800287333
 30
0.0
 11
10.11661365295823
 21
6.754187199912195
 31
0.0
  0
ARC
  5
C1
330
2
100
AcDbEntity
  8
0
100
AcDbCircle
 10
9.628330744368986
 20
7.085595168346843
 30
0.0
 40
0.4544911467515388
100
AcDbArc
 50
335.1692506578002
 51
357.7935031010998
  0
LINE
  5
C2
330
2
100
AcDbEntity
  8
0
100
AcDbLine
 10
10.08248491192324
 20
7.068096751272569
 30
0.0
 11
10.12536404896604
 21
8.034142238084134
 31
0.0
  0
ARC
  5
C3
330
2
100
AcDbEntity
  8
0
100
AcDbCircle
 10
9.002053498138062
 20
5.580536204494637
 30
0.0
 40
0.4931356869552563
100
AcDbArc
 50
263.6544822619998
 51
332.2772689473999
  0
LINE
  5
C4
330
2
100
AcDbEntity
  8
0
100
AcDbLine
 10
8.947550212302228
 20
5.090421730536608
 30
0.0
 11
7.585728644636936
 21
5.293917699706924
 31
0.0
  0
ARC
  5
C5
330
2
100
AcDbEntity
  8
0
100
AcDbCircle
 10
8.552107698746592
 20
5.91695599037142
 30
0.0
 40
0.3033858260133212
100
AcDbArc
 50
152.2421026206
 51
188.1691023705999
  0
LWPOLYLINE
  5
C6
330
2
100
AcDbEntity
  8
0
100
AcDbPolyline
 90
        9
 70
   128
 43
0.0
 10
8.988661294905416
 20
6.271288625934782
 10
8.915052302120825
 20
6.318874412721557
 10
8.82376798751482
 20
6.345036910688612
 10
8.721196389096212
 20
6.347842155544171
 10
8.614327153072087
 20
6.327099289229969
 10
8.510443237039355
 20
6.284220581321424
 10
8.416624617611159
 20
6.222128630981575
 10
8.339263926136966
 20
6.145056564857655
 10
8.283634466636865
 20
6.058253842656101
  0
LWPOLYLINE
  5
C7
330
2
100
AcDbEntity
  8
0
100
AcDbPolyline
 90
       10
 70
   128
 43
0.0
 10
9.074873744091735
 20
7.530625978021584
 10
9.157106711169161
 20
7.534740484501713
 10
9.23086792396649
 20
7.570944267052911
 10
9.287260436256287
 20
7.634872828902566
 10
9.31948150930688
 20
7.718814695855976
 10
9.323646258463046
 20
7.812645397010076
 10
9.299252359727033
 20
7.905047021353843
 10
9.24924097298755
 20
7.984875437601217
 10
9.179644216390325
 20
8.042502224900664
 10
9.126809316868449
 20
8.064909989181375
  0
ARC
  5
C8
330
2
100
AcDbEntity
  8
0
100
AcDbCircle
 10
9.132505176545651
 20
7.811932663162488
 30
0.0
 40
0.2871494961460479
100
AcDbArc
 50
124.9728312331996
 51
258.4219962306004
  0
ARC
  5
C9
330
2
100
AcDbEntity
  8
0
100
AcDbCircle
 10
9.712034406576108
 20
8.066290661563998
 30
0.0
 40
0.4145779955937089
100
AcDbArc
 50
355.5525376579999
 51
77.46119234210009
  0
LINE
  5
CA
330
2
100
AcDbEntity
  8
0
100
AcDbLine
 10
8.082630682814754
 20
8.339386343467582
 30
0.0
 11
8.039751545771929
 21
7.373340856656017
 31
0.0
  0
ARC
  5
CB
330
2
100
AcDbEntity
  8
0
100
AcDbCircle
 10
8.407532456409617
 20
8.351014059075614
 30
0.0
 40
0.3251097757346731
100
AcDbArc
 50
84.22989733759973
 51
182.0496496803998
  0
LINE
  5
CC
330
2
100
AcDbEntity
  8
0
100
AcDbLine
 10
9.802039633641046
 20
8.470980633630786
 30
0.0
 11
9.143258575885543
 21
8.569421789969142
 31
0.0
  0
LINE
  5
CD
330
2
100
AcDbEntity
  8
0
100
AcDbLine
 10
8.98779903874133
 20
8.59265199134494
 30
0.0
 11
8.440218065975731
 21
8.674476602879733
 31
0.0
  0
ARC
  5
CE
330
2
100
AcDbEntity
  8
0
100
AcDbCircle
 10
9.829522861370485
 20
8.099101709641725
 30
0.0
 40
0.4145779955936993
100
AcDbArc
 50
355.5525376579999
 51
77.46119234210009
  0
ARC
  5
CF
330
2
100
AcDbEntity
  8
0
100
AcDbCircle
 10
7.611658665597308
 20
5.54976610361598
 30
0.0
 40
0.2571590398020529
100
AcDbArc
 50
210.5957765211995
 51
264.2128812841999
  0
LINE
  5
D0
330
2
100
AcDbEntity
  8
0
100
AcDbLine
 10
9.919528088435422
 20
8.503791681708518
 30
0.0
 11
9.150654421192342
 21
8.618683893562481
 31
0.0
  0
LINE
  5
D1
330
2
100
AcDbEntity
  8
0
100
AcDbLine
 10
8.995043195932337
 20
8.641936761530757
 30
0.0
 11
8.557706520770107
 21
8.707287650878841
 31
0.0
  0
ARC
  5
D2
330
2
100
AcDbEntity
  8
0
100
AcDbCircle
 10
7.585597378217678
 20
7.390839273730292
 30
0.0
 40
0.4544911467532075
100
AcDbArc
 50
335.1692506578002
 51
357.7935031010998
  0
LINE
  5
D3
330
2
100
AcDbEntity
  8
0
100
AcDbLine
 10
9.074873744091735
 20
7.530625978021584
 30
0.0
 11
9.192362198886112
 21
7.563438157746364
 31
0.0
  0
LINE
  5
D4
330
2
100
AcDbEntity
  8
0
100
AcDbLine
 10
9.192362198886112
 20
7.563438157746364
 30
0.0
 11
9.217105129479119
 21
7.561201877478693
 31
0.0
  0
ARC
  5
D5
330
2
100
AcDbEntity
  8
0
100
AcDbCircle
 10
9.258002927237212
 20
7.850509050178094
 30
0.0
 40
0.2944798847325993
100
AcDbArc
 50
156.9910837376998
 51
257.1203467950997
  0
LWPOLYLINE
  5
D6
330
2
100
AcDbEntity
  8
0
100
AcDbPolyline
 90
        3
 70
   128
 43
0.0
 10
8.434832440422976
 20
8.699959068713491
 10
8.490957683672331
 20
8.709796319606319
 10
8.557706520770107
 20
8.707287650878841
  0
ARC
  5
D7
330
2
100
AcDbEntity
  8
0
100
AcDbCircle
 10
43.31354173450061
 20
5.046260477010134
 30
0.0
 40
0.1173374953202735
100
AcDbArc
 50
258.5346892001
 51
297.6901374656999
  0
LWPOLYLINE
  5
D8
330
2
100
AcDbEntity
  8
0
100
AcDbPolyline
 90
       10
 70
   128
 43
0.0
 10
43.13277728744054
 20
4.902074241983874
 10
43.20978873028915
 20
4.89360633662466
 10
43.2916888344682
 20
4.890121281357807
 10
43.36860804898623
 20
4.892037201331703
 10
43.43126202055598
 20
4.89912462222163
 10
43.47209612788453
 20
4.910529068339947
 10
43.48618554544717
 20
4.924873453853891
 10
43.47182807416835
 20
4.940428780103025
 10
43.43076237019529
 20
4.955318412791656
 10
43.36793228036247
 20
4.967746747028249
  0
ARC
  5
D9
330
2
100
AcDbEntity
  8
0
100
AcDbCircle
 10
43.24304680513473
 20
4.649547230822843
 30
0.0
 40
0.5391346372736557
100
AcDbArc
 50
254.4498207845994
 51
292.7935996876001
  0
ARC
  5
DA
330
2
100
AcDbEntity
  8
0
100
AcDbCircle
 10
43.16697513301036
 20
4.96021677013508
 30
0.0
 40
0.0474502317438997
100
AcDbArc
 50
223.6583873312005
 51
276.1142805755997
  0
ARC
  5
DB
330
2
100
AcDbEntity
  8
0
100
AcDbCircle
 10
43.22145528616577
 20
5.065745960479707
 30
0.0
 40
0.160508984068537
100
AcDbArc
 50
252.0652452727993
 51
295.1782754632002
  0
LWPOLYLINE
  5
DC
330
2
100
AcDbEntity
  8
0
100
AcDbPolyline
 90
        8
 70
   128
 43
0.0
 10
43.13488763700521
 20
4.977957870346816
 10
43.13210587030755
 20
4.97778331255062
 10
43.06945189865913
 20
4.9706958916607
 10
43.02861779140924
 20
4.959291445542382
 10
43.01452837384659
 20
4.944947060028433
 10
43.02888178651213
 20
4.929392340212547
 10
43.06995154901984
 20
4.914502101090668
 10
43.13277728744054
 20
4.902074241983874
  0
LWPOLYLINE
  5
DD
330
2
100
AcDbEntity
  8
0
100
AcDbPolyline
 90
        5
 70
   128
 43
0.0
 10
42.98027348762008
 20
4.173450472836202
 10
42.98026519152207
 20
4.17301974381445
 10
42.99461860418761
 20
4.157465024077184
 10
43.03568865965142
 20
4.142574916258766
 10
43.09851439799349
 20
4.130147057151965
  0
LWPOLYLINE
  5
DE
330
2
100
AcDbEntity
  8
0
100
AcDbPolyline
 90
        9
 70
   128
 43
0.0
 10
43.17888184242805
 20
5.067421952015391
 10
43.15580712014245
 20
5.072148270308759
 10
43.14220587945622
 20
5.07781999499631
 10
43.14015037833096
 20
5.083573469134151
 10
43.14995444475311
 20
5.088533637616698
 10
43.17012403603084
 20
5.091944893503442
 10
43.19759039409723
 20
5.093286938454855
 10
43.22817047843909
 20
5.092356681176749
 10
43.25720747895763
 20
5.089295984040997
  0
LWPOLYLINE
  5
DF
330
2
100
AcDbEntity
  8
0
100
AcDbPolyline
 90
        9
 70
   128
 43
0.0
 10
43.25720747895763
 20
5.089295984040997
 10
43.28028625977788
 20
5.084569059235754
 10
43.29388344192947
 20
5.078897940981449
 10
43.29593894297609
 20
5.073144466922236
 10
43.28613487663258
 20
5.068184298439689
 10
43.26596528535485
 20
5.064773042552944
 10
43.23849892728848
 20
5.0634309975229
 10
43.20792290140262
 20
5.064360648367769
 10
43.17888184242805
 20
5.067421952015391
  0
LINE
  5
E0
330
2
100
AcDbEntity
  8
0
100
AcDbLine
 10
43.09035977449261
 20
3.974763785376789
 30
0.0
 11
43.09036546252669
 21
3.974406936089728
 31
0.0
  0
ARC
  5
E1
330
2
100
AcDbEntity
  8
0
100
AcDbCircle
 10
9.267999794536985
 20
10.13362089178855
 30
0.0
 40
0.1172992547524614
100
AcDbArc
 50
258.5289830528
 51
297.6966983927001
  0
LWPOLYLINE
  5
E2
330
2
100
AcDbEntity
  8
0
100
AcDbPolyline
 90
       10
 70
   128
 43
0.0
 10
9.087231499971265
 20
9.989474456961325
 10
9.164240913591871
 20
9.981006854779424
 10
9.246143554286271
 20
9.977521420540924
 10
9.323060739576277
 20
9.979437643692138
 10
9.385714711146034
 20
9.986525064582059
 10
9.426548818474582
 20
9.997929510700377
 10
9.440638236037228
 20
10.01227389621432
 10
9.426282794065061
 20
10.02782891928615
 10
9.385214553498016
 20
10.04271893094641
 10
9.322386492893212
 20
10.05514696192707
  0
ARC
  5
E3
330
2
100
AcDbEntity
  8
0
100
AcDbCircle
 10
9.197499872652151
 20
9.736952692670492
 30
0.0
 40
0.5391393851992072
100
AcDbArc
 50
254.4500874990994
 51
292.7934026804005
  0
ARC
  5
E4
330
2
100
AcDbEntity
  8
0
100
AcDbCircle
 10
9.12142972435546
 20
10.04762112541699
 30
0.0
 40
0.0474543081541957
100
AcDbArc
 50
223.6602209571003
 51
276.1132934218001
  0
ARC
  5
E5
330
2
100
AcDbEntity
  8
0
100
AcDbCircle
 10
9.175910357908547
 20
10.1531080920311
 30
0.0
 40
0.1604730163464603
100
AcDbArc
 50
252.0607662898001
 51
295.1831730088992
  0
LWPOLYLINE
  5
E6
330
2
100
AcDbEntity
  8
0
100
AcDbPolyline
 90
        8
 70
   128
 43
0.0
 10
9.089340327595291
 20
10.06535831270725
 10
9.086558053531632
 20
10.06518383070538
 10
9.023904081961875
 20
10.05809640981546
 10
8.983069974633327
 20
10.04669196369714
 10
8.968980557070681
 20
10.0323475781832
 10
8.983335999042846
 20
10.01679255518999
 10
9.024403732322564
 20
10.00190261924543
 10
9.087231499971265
 20
9.989474456961325
  0
LWPOLYLINE
  5
E7
330
2
100
AcDbEntity
  8
0
100
AcDbPolyline
 90
        5
 70
   128
 43
0.0
 10
8.934725163556823
 20
9.260851066785294
 10
8.934717374746158
 20
9.260420261969214
 10
8.949072816796963
 20
9.244865238976007
 10
8.990140842875511
 20
9.229975434413525
 10
9.052968610602848
 20
9.217547272050795
  0
LWPOLYLINE
  5
E8
330
2
100
AcDbEntity
  8
0
100
AcDbPolyline
 90
        9
 70
   128
 43
0.0
 10
9.21166169148835
 20
10.17669619893982
 10
9.234737935714617
 20
10.17196965326347
 10
9.248339176400875
 20
10.16629792849729
 10
9.250393662872799
 20
10.16054460602672
 10
9.24059010381663
 20
10.15558436174985
 10
9.220420005172915
 20
10.15217318165744
 10
9.192954661759838
 20
10.15083098503874
 10
9.162374577417999
 20
10.15176124239548
 10
9.133336054958773
 20
10.15482216691421
  0
LWPOLYLINE
  5
E9
330
2
100
AcDbEntity
  8
0
100
AcDbPolyline
 90
        9
 70
   128
 43
0.0
 10
9.133336054958773
 20
10.15482216691421
 10
9.110260318019856
 20
10.15954863679624
 10
9.096659077333619
 20
10.16522036156242
 10
9.094604083574347
 20
10.1709737598273
 10
9.10440814999648
 20
10.17593392830985
 10
9.124577741274208
 20
10.17934518419659
 10
9.152043591974635
 20
10.18068730502097
 10
9.182623676395111
 20
10.17975704766422
 10
9.21166169148835
 20
10.17669619893982
  0
LINE
  5
EA
330
2
100
AcDbEntity
  8
0
100
AcDbLine
 10
9.044812465082692
 20
9.062164227737218
 30
0.0
 11
9.044820182344766
 21
9.061807075272843
 31
0.0
  0
ARC
  5
EB
330
2
100
AcDbEntity
  8
0
100
AcDbCircle
 10
44.55782062226969
 20
20.01467571734214
 30
0.0
 40
0.9681954728134556
100
AcDbArc
 50
347.8193767406998
 51
352.4692248582001
  0
ARC
  5
EC
330
2
100
AcDbEntity
  8
0
100
AcDbCircle
 10
44.38561812521144
 20
13.82279689094629
 30
0.0
 40
6.169733726493258
100
AcDbArc
 50
79.42724577330024
 51
81.04154358170003
  0
ARC
  5
ED
330
2
100
AcDbEntity
  8
0
100
AcDbCircle
 10
45.74179129648818
 20
19.82817540590271
 30
0.0
 40
0.405345336558685
100
AcDbArc
 50
144.9962914278998
 51
167.3028796716
  0
ARC
  5
EE
330
2
100
AcDbEntity
  8
0
100
AcDbCircle
 10
45.32940003992488
 20
19.76491437075127
 30
0.0
 40
0.306502988891939
100
AcDbArc
 50
74.79901632569931
 51
81.41881574159988
  0
LWPOLYLINE
  5
EF
330
2
100
AcDbEntity
  8
0
100
AcDbPolyline
 90
       10
 70
   128
 43
0.0
 10
45.46820597788112
 20
20.12508654601233
 10
45.54687978273128
 20
20.09657046795712
 10
45.61038590811906
 20
20.03882259520931
 10
45.65106533502836
 20
19.95880789969875
 10
45.66401564577264
 20
19.86617695395552
 10
45.64767199294223
 20
19.77210265329166
 10
45.60400559554939
 20
19.68793189949818
 10
45.53828623325656
 20
19.62381624587644
 10
45.45843641847782
 20
19.58748994305251
 10
45.37408653564105
 20
19.58333442051911
  0
ARC
  5
F0
330
2
100
AcDbEntity
  8
0
100
AcDbCircle
 10
45.3576852696866
 20
20.01740247418362
 30
0.0
 40
0.3400455168549288
100
AcDbArc
 50
261.5821151761995
 51
267.5623998055995
  0
ARC
  5
F1
330
2
100
AcDbEntity
  8
0
100
AcDbCircle
 10
45.78106016265391
 20
19.78692613475104
 30
0.0
 40
0.4512645865657641
100
AcDbArc
 50
173.2615899241
 51
194.0118684644001
  0
ARC
  5
F2
330
2
100
AcDbEntity
  8
0
100
AcDbCircle
 10
44.37226601411175
 20
13.74594700142708
 30
0.0
 40
6.169182465391679
100
AcDbArc
 50
79.42717364400056
 51
81.04161571109946
  0
ARC
  5
F3
330
2
100
AcDbEntity
  8
0
100
AcDbCircle
 10
45.4534006034036
 20
19.8508959145625
 30
0.0
 40
0.286339880752322
100
AcDbArc
 50
162.2603821125
 51
178.0282194864001
  0
ARC
  5
F4
330
2
100
AcDbEntity
  8
0
100
AcDbCircle
 10
45.10071573644595
 20
18.80343015835475
 30
0.0
 40
1.059408036186921
100
AcDbArc
 50
81.08897598539952
 51
86.4003387622
  0
ARC
  5
F5
330
2
100
AcDbEntity
  8
0
100
AcDbCircle
 10
45.71296588810091
 20
19.7971014108121
 30
0.0
 40
0.4512645865643161
100
AcDbArc
 50
173.2615899241
 51
194.0118684644001
  0
ARC
  5
F6
330
2
100
AcDbEntity
  8
0
100
AcDbCircle
 10
45.3496380008312
 20
19.96377889631305
 30
0.0
 40
0.2858216096454932
100
AcDbArc
 50
254.8892505757006
 51
261.6042699840995
  0
LINE
  5
F7
330
2
100
AcDbEntity
  8
0
100
AcDbLine
 10
45.46820597788112
 20
20.12508654601233
 30
0.0
 11
45.45045910267628
 21
20.1269781111616
 31
0.0
  0
LINE
  5
F8
330
2
100
AcDbEntity
  8
0
100
AcDbLine
 10
45.316336656545
 20
19.60068305447837
 30
0.0
 11
45.37408653564105
 21
19.58333442051911
 31
0.0
  0
ARC
  5
F9
330
2
100
AcDbEntity
  8
0
100
AcDbCircle
 10
45.33596769335008
 20
19.80899207054505
 30
0.0
 40
0.2619387691529952
100
AcDbArc
 50
81.40071959910052
 51
88.75202315940022
  0
ARC
  5
FA
330
2
100
AcDbEntity
  8
0
100
AcDbCircle
 10
45.6736970220138
 20
19.83835068196377
 30
0.0
 40
0.4053453365589584
100
AcDbArc
 50
144.9962914278998
 51
167.3028796714997
  0
ARC
  5
FB
330
2
100
AcDbEntity
  8
0
100
AcDbCircle
 10
45.11415534447038
 20
18.8807684896374
 30
0.0
 40
1.059463191039693
100
AcDbArc
 50
81.08911433719956
 51
86.4002004104007
  0
ARC
  5
FC
330
2
100
AcDbEntity
  8
0
100
AcDbCircle
 10
45.04197805558726
 20
15.59893759076051
 30
0.0
 40
0.1768078748790322
100
AcDbArc
 50
99.00056401280014
 51
112.2062522865998
  0
ARC
  5
FD
330
2
100
AcDbEntity
  8
0
100
AcDbCircle
 10
44.72169401201685
 20
15.57446059140666
 30
0.0
 40
0.315675070007866
100
AcDbArc
 50
4.650977251700006
 51
36.59041241299963
  0
ARC
  5
FE
330
2
100
AcDbEntity
  8
0
100
AcDbCircle
 10
44.89818020044564
 20
16.42597527431845
 30
0.0
 40
0.8373921969312268
100
AcDbArc
 50
269.5128029817001
 51
279.4958256499008
  0
ARC
  5
FF
330
2
100
AcDbEntity
  8
0
100
AcDbCircle
 10
43.83265714070531
 20
15.59599201703157
 30
0.0
 40
1.058428358758974
100
AcDbArc
 50
357.4815123140998
 51
359.6005682787001
  0
LWPOLYLINE
  5
100
330
2
100
AcDbEntity
  8
0
100
AcDbPolyline
 90
        7
 70
   128
 43
0.0
 10
44.70413145587975
 20
15.56047754638681
 10
44.71649946333522
 20
15.65519126726228
 10
44.74390790030414
 20
15.74309810902297
 10
44.78305168004023
 20
15.81359538549704
 10
44.82920924993634
 20
15.85818013063047
 10
44.87681316147417
 20
15.87147470282794
 10
44.88832648582976
 20
15.86961674106242
  0
ARC
  5
101
330
2
100
AcDbEntity
  8
0
100
AcDbCircle
 10
44.80526900493986
 20
15.61648519041236
 30
0.0
 40
0.2808787097595143
100
AcDbArc
 50
357.4867623735999
 51
0.0242673988001207
  0
LWPOLYLINE
  5
102
330
2
100
AcDbEntity
  8
0
100
AcDbPolyline
 90
        6
 70
   128
 43
0.0
 10
45.07549213025625
 20
15.61099422513241
 10
45.08280482383911
 20
15.6145451458273
 10
45.08840856643979
 20
15.61826576978605
 10
45.09226611607515
 20
15.62213216054668
 10
45.0943506910082
 20
15.62611937045343
 10
45.09470366071072
 20
15.62979354451889
  0
ARC
  5
103
330
2
100
AcDbEntity
  8
0
100
AcDbCircle
 10
44.76087092857699
 20
15.58540289136126
 30
0.0
 40
0.3156602871394173
100
AcDbArc
 50
4.650209374700059
 51
36.59118028990038
  0
ARC
  5
104
330
2
100
AcDbEntity
  8
0
100
AcDbCircle
 10
44.95653261008787
 20
15.46214208759719
 30
0.0
 40
0.0815642007604102
100
AcDbArc
 50
271.1698122257998
 51
300.0370040736004
  0
ARC
  5
105
330
2
100
AcDbEntity
  8
0
100
AcDbCircle
 10
44.82340304936434
 20
15.5736249681428
 30
0.0
 40
0.2518314220786689
100
AcDbArc
 50
313.6909917442005
 51
350.9013095058003
  0
LWPOLYLINE
  5
106
330
2
100
AcDbEntity
  8
0
100
AcDbPolyline
 90
        9
 70
   128
 43
0.0
 10
45.0720657827282
 20
15.53380148036495
 10
45.07937847638966
 20
15.53735240113846
 10
45.08498221891175
 20
15.5410730250972
 10
45.0888397685471
 20
15.54493941585784
 10
45.09092434348011
 20
15.54892662568596
 10
45.09122715392753
 20
15.55300778604276
 10
45.08973828011014
 20
15.55715738183713
 10
45.08647391119311
 20
15.56134733009127
 10
45.08145550852907
 20
15.56554993080889
  0
ARC
  5
107
330
2
100
AcDbEntity
  8
0
100
AcDbCircle
 10
44.80488467533422
 20
15.61678120295772
 30
0.0
 40
0.2812757881840168
100
AcDbArc
 50
349.5056285023001
 51
357.4299556500001
  0
LWPOLYLINE
  5
108
330
2
100
AcDbEntity
  8
0
100
AcDbPolyline
 90
        6
 70
   128
 43
0.0
 10
44.70413145587975
 20
15.56047754638681
 10
44.70829591215847
 20
15.4703807258867
 10
44.72849138672735
 20
15.39576845632349
 10
44.76228094924661
 20
15.34563948058144
 10
44.8055891852614
 20
15.32604021952613
 10
44.8070870773458
 20
15.32595376359404
  0
ARC
  5
109
330
2
100
AcDbEntity
  8
0
100
AcDbCircle
 10
43.91240907332117
 20
15.5927833379182
 30
0.0
 40
0.9786125095800134
100
AcDbArc
 50
355.2308717465002
 51
357.4640146913
  0
ARC
  5
10A
330
2
100
AcDbEntity
  8
0
100
AcDbCircle
 10
44.89475141468325
 20
16.34881348060501
 30
0.0
 40
0.837423126122448
100
AcDbArc
 50
269.5129878048005
 51
279.4956408267997
  0
ARC
  5
10B
330
2
100
AcDbEntity
  8
0
100
AcDbCircle
 10
44.78423541525063
 20
15.5626907659944
 30
0.0
 40
0.251836890747097
100
AcDbArc
 50
313.6914105828002
 51
350.9008906671001
  0
ARC
  5
10C
330
2
100
AcDbEntity
  8
0
100
AcDbCircle
 10
41.88345369024296
 20
12.13357050357683
 30
0.0
 40
0.1768245271132129
100
AcDbArc
 50
99.00118859460043
 51
112.2056277047998
  0
ARC
  5
10D
330
2
100
AcDbEntity
  8
0
100
AcDbCircle
 10
41.56315946326433
 20
12.10910755919602
 30
0.0
 40
0.3156808723671866
100
AcDbArc
 50
4.651220767100152
 51
36.59010316619966
  0
ARC
  5
10E
330
2
100
AcDbEntity
  8
0
100
AcDbCircle
 10
41.73965349506941
 20
12.96061721900388
 30
0.0
 40
0.8373851019202286
100
AcDbArc
 50
269.5126504472002
 51
279.4957563882996
  0
ARC
  5
10F
330
2
100
AcDbEntity
  8
0
100
AcDbCircle
 10
40.6741868398324
 20
12.13063991990594
 30
0.0
 40
1.058369778717821
100
AcDbArc
 50
357.4814507760998
 51
359.6006087286002
  0
LWPOLYLINE
  5
110
330
2
100
AcDbEntity
  8
0
100
AcDbPolyline
 90
        7
 70
   128
 43
0.0
 10
41.54560258163782
 20
12.09512632191808
 10
41.55797000318115
 20
12.18984006307875
 10
41.58537902598363
 20
12.27774716744635
 10
41.62452280571971
 20
12.34824444392042
 10
41.67068037561583
 20
12.39282918905385
 10
41.71828428715364
 20
12.40612347835921
 10
41.72979761158781
 20
12.4042657994858
  0
ARC
  5
111
330
2
100
AcDbEntity
  8
0
100
AcDbCircle
 10
41.64671577713129
 20
12.1511344976833
 30
0.0
 40
0.2809030631531834
100
AcDbArc
 50
357.4868718381001
 51
0.0242145415001296
  0
LWPOLYLINE
  5
112
330
2
100
AcDbEntity
  8
0
100
AcDbPolyline
 90
        6
 70
   128
 43
0.0
 10
41.91696325593571
 20
12.14564300066368
 10
41.92427594959721
 20
12.14919392135857
 10
41.92987910636435
 20
12.15291428271041
 10
41.93373724175464
 20
12.15678121897006
 10
41.93582181676626
 20
12.1607684288768
 10
41.93617420055663
 20
12.16444205736463
  0
ARC
  5
113
330
2
100
AcDbEntity
  8
0
100
AcDbCircle
 10
41.60234170697058
 20
12.12005186361183
 30
0.0
 40
0.3156606174098804
100
AcDbArc
 50
4.650168669099786
 51
36.59115526419997
  0
ARC
  5
114
330
2
100
AcDbEntity
  8
0
100
AcDbCircle
 10
41.79800168908461
 20
11.99679819198393
 30
0.0
 40
0.0815715699348734
100
AcDbArc
 50
271.1711444540007
 51
300.0356718454004
  0
ARC
  5
115
330
2
100
AcDbEntity
  8
0
100
AcDbCircle
 10
41.66487143740616
 20
12.10827518117167
 30
0.0
 40
0.2518343525460727
100
AcDbArc
 50
313.6912161874993
 51
350.9010850625001
  0
LWPOLYLINE
  5
116
330
2
100
AcDbEntity
  8
0
100
AcDbPolyline
 90
        9
 70
   128
 43
0.0
 10
41.91353690840768
 20
12.06845025589621
 10
41.92084960206912
 20
12.07200117666972
 10
41.92645275883628
 20
12.07572153794294
 10
41.93031089422657
 20
12.07958847428121
 10
41.93239546923821
 20
12.08357568410934
 10
41.93269827960702
 20
12.08765684446615
 10
41.93120881995606
 20
12.0918058947615
 10
41.92794503687259
 20
12.09599610562254
 10
41.92292663420855
 20
12.10019870634016
  0
ARC
  5
117
330
2
100
AcDbEntity
  8
0
100
AcDbCircle
 10
41.64634361086417
 20
12.15143137431544
 30
0.0
 40
0.2812880286122516
100
AcDbArc
 50
349.5058011938
 51
357.4297829586001
  0
LWPOLYLINE
  5
118
330
2
100
AcDbEntity
  8
0
100
AcDbPolyline
 90
        6
 70
   128
 43
0.0
 10
41.54560258163782
 20
12.09512632191808
 10
41.5497670378379
 20
12.00503006720218
 10
41.5699625124068
 20
11.93041723185475
 10
41.60375207500472
 20
11.88028825611271
 10
41.64706031094087
 20
11.8606892779495
 10
41.64855820302529
 20
11.8606025391253
  0
ARC
  5
119
330
2
100
AcDbEntity
  8
0
100
AcDbCircle
 10
40.75392929721379
 20
12.12742833552681
 30
0.0
 40
0.9785632672872999
100
AcDbArc
 50
355.2308531695
 51
357.4641415719002
  0
ARC
  5
11A
330
2
100
AcDbEntity
  8
0
100
AcDbCircle
 10
41.73622497859704
 20
12.88343130508226
 30
0.0
 40
0.837392196930557
100
AcDbArc
 50
269.5128029817001
 51
279.4958256499008
  0
ARC
  5
11B
330
2
100
AcDbEntity
  8
0
100
AcDbCircle
 10
41.62570304865142
 20
12.09734137529238
 30
0.0
 40
0.2518406290778385
100
AcDbArc
 50
313.6916968860004
 51
350.9006043639998
  0
ARC
  5
11C
330
2
100
AcDbEntity
  8
0
100
AcDbCircle
 10
11.87259369453242
 20
24.89884106753198
 30
0.0
 40
0.969720979906706
100
AcDbArc
 50
347.8230361762997
 51
352.4655654226002
  0
ARC
  5
11D
330
2
100
AcDbEntity
  8
0
100
AcDbCircle
 10
11.70180435260094
 20
18.70616658113918
 30
0.0
 40
6.170275693994849
100
AcDbArc
 50
79.42732481459977
 51
81.04150939620065
  0
ARC
  5
11E
330
2
100
AcDbEntity
  8
0
100
AcDbCircle
 10
13.05806555482219
 20
24.71207987909281
 30
0.0
 40
0.4053453365583529
100
AcDbArc
 50
144.9962914278998
 51
167.3028796716
  0
ARC
  5
11F
330
2
100
AcDbEntity
  8
0
100
AcDbCircle
 10
12.64568326895789
 20
24.64886150773502
 30
0.0
 40
0.3064594656571786
100
AcDbArc
 50
74.7985433498002
 51
81.41909216710013
  0
LWPOLYLINE
  5
120
330
2
100
AcDbEntity
  8
0
100
AcDbPolyline
 90
       10
 70
   128
 43
0.0
 10
12.78448125078983
 20
25.00899086753516
 10
12.86315302641197
 20
24.98047509281452
 10
12.92666016637446
 20
24.92272706839941
 10
12.96734162259038
 20
24.84271206963292
 10
12.98029193333466
 20
24.7500811238897
 10
12.96394828050426
 20
24.65600682322584
 10
12.92028188311141
 20
24.57183606943236
 10
12.8545604915119
 20
24.50772071906655
 10
12.77470966215851
 20
24.47139456783127
 10
12.6903618085497
 20
24.46723874212057
  0
ARC
  5
121
330
2
100
AcDbEntity
  8
0
100
AcDbCircle
 10
12.673954946395
 20
24.90125887482138
 30
0.0
 40
0.3399972929609093
100
AcDbArc
 50
261.5818658836992
 51
267.5628266341003
  0
ARC
  5
122
330
2
100
AcDbEntity
  8
0
100
AcDbCircle
 10
13.0973344209093
 20
24.67083060794115
 30
0.0
 40
0.4512645865658455
100
AcDbArc
 50
173.2615899241
 51
194.0118684642998
  0
ARC
  5
123
330
2
100
AcDbEntity
  8
0
100
AcDbCircle
 10
11.68845225423846
 20
18.62931676686392
 30
0.0
 40
6.169724356573907
100
AcDbArc
 50
79.42725268659922
 51
81.04158152410006
  0
ARC
  5
124
330
2
100
AcDbEntity
  8
0
100
AcDbCircle
 10
12.7697105039416
 20
24.73479419557619
 30
0.0
 40
0.286375714995815
100
AcDbArc
 50
162.2613749010999
 51
178.0272266978
  0
ARC
  5
125
330
2
100
AcDbEntity
  8
0
100
AcDbCircle
 10
12.4169772096764
 20
23.68721580066324
 30
0.0
 40
1.059527435304232
100
AcDbArc
 50
81.08912191789928
 51
86.40005220700016
  0
ARC
  5
126
330
2
100
AcDbEntity
  8
0
100
AcDbCircle
 10
13.02924319031624
 20
24.68100542915762
 30
0.0
 40
0.4512645865650001
100
AcDbArc
 50
173.2615899241
 51
194.0118684644001
  0
ARC
  5
127
330
2
100
AcDbEntity
  8
0
100
AcDbCircle
 10
12.66590415326064
 20
24.84762948052241
 30
0.0
 40
0.2857671165544482
100
AcDbArc
 50
254.8886159497996
 51
261.6045058913999
  0
LINE
  5
128
330
2
100
AcDbEntity
  8
0
100
AcDbLine
 10
12.78448125078983
 20
25.00899086753516
 30
0.0
 11
12.76673640489161
 21
25.01088212942849
 31
0.0
  0
LINE
  5
129
330
2
100
AcDbEntity
  8
0
100
AcDbLine
 10
12.63261091480039
 20
24.48458752758986
 30
0.0
 11
12.6903618085497
 21
24.46723874212057
 31
0.0
  0
ARC
  5
12A
330
2
100
AcDbEntity
  8
0
100
AcDbCircle
 10
12.6522492445294
 20
24.69294574133007
 30
0.0
 40
0.2618890359385739
100
AcDbArc
 50
81.4004633860001
 51
88.75271594999999
  0
ARC
  5
12B
330
2
100
AcDbEntity
  8
0
100
AcDbCircle
 10
12.98997432422913
 20
24.7222547003093
 30
0.0
 40
0.4053453365587023
100
AcDbArc
 50
144.9962914278998
 51
167.3028796716
  0
ARC
  5
12C
330
2
100
AcDbEntity
  8
0
100
AcDbCircle
 10
12.4304168170718
 20
23.7645541265994
 30
0.0
 40
1.059582595562843
100
AcDbArc
 50
81.08926025650015
 51
86.39991386839993
  0
ARC
  5
12D
330
2
100
AcDbEntity
  8
0
100
AcDbCircle
 10
48.58640283661316
 20
14.08941592120806
 30
0.0
 40
0.1767901323186201
100
AcDbArc
 50
98.99991381240008
 51
112.2070368616001
  0
ARC
  5
12E
330
2
100
AcDbEntity
  8
0
100
AcDbCircle
 10
48.26613095622399
 20
14.06492447729517
 30
0.0
 40
0.3156671616974935
100
AcDbArc
 50
4.65056647409982
 51
36.59082319059955
  0
ARC
  5
12F
330
2
100
AcDbEntity
  8
0
100
AcDbCircle
 10
48.44260866818942
 20
14.91645102956724
 30
0.0
 40
0.8374068892307597
100
AcDbArc
 50
269.5128747589001
 51
279.4957114492001
  0
ARC
  5
130
330
2
100
AcDbEntity
  8
0
100
AcDbCircle
 10
47.37630532172757
 20
14.0864690860225
 30
0.0
 40
1.05920966230223
100
AcDbArc
 50
357.4825076678
 51
359.5999966253001
  0
LWPOLYLINE
  5
131
330
2
100
AcDbEntity
  8
0
100
AcDbPolyline
 90
        7
 70
   128
 43
0.0
 10
48.24856070130163
 20
14.05093853526516
 10
48.26092856227906
 20
14.14565247345964
 10
48.28833729212547
 20
14.23355944644516
 10
48.32748107186154
 20
14.30405672299785
 10
48.37363849535822
 20
14.34864111950882
 10
48.42124226041801
 20
14.3619356261332
 10
48.43275558477359
 20
14.36007766428905
  0
ARC
  5
132
330
2
100
AcDbEntity
  8
0
100
AcDbCircle
 10
48.348799502138
 20
14.106972339184
 30
0.0
 40
0.2817777409461299
100
AcDbArc
 50
357.4894617802
 51
0.0188398696998097
  0
LWPOLYLINE
  5
133
330
2
100
AcDbEntity
  8
0
100
AcDbPolyline
 90
        6
 70
   128
 43
0.0
 10
48.61992166855561
 20
14.10145534531422
 10
48.627234069261
 20
14.10500613478428
 10
48.63283766538363
 20
14.10872669309129
 10
48.63669536141845
 20
14.11259343239577
 10
48.6387800829081
 20
14.1165801420914
 10
48.63913275965455
 20
14.12025446774551
  0
ARC
  5
134
330
2
100
AcDbEntity
  8
0
100
AcDbCircle
 10
48.30529377448879
 20
14.07586149326866
 30
0.0
 40
0.3156671616976086
100
AcDbArc
 50
4.65056647409982
 51
36.59082319059955
  0
ARC
  5
135
330
2
100
AcDbEntity
  8
0
100
AcDbCircle
 10
48.50096196259677
 20
13.95260293880349
 30
0.0
 40
0.0815640609139598
100
AcDbArc
 50
271.1697390057993
 51
300.0372116682002
  0
ARC
  5
136
330
2
100
AcDbEntity
  8
0
100
AcDbCircle
 10
48.36782842746718
 20
14.06408827283664
 30
0.0
 40
0.2518358753743674
100
AcDbArc
 50
313.6913328180999
 51
350.9009684319
  0
LWPOLYLINE
  5
137
330
2
100
AcDbEntity
  8
0
100
AcDbPolyline
 90
        9
 70
   128
 43
0.0
 10
48.61649532102756
 20
14.02426260062538
 10
48.62380772173293
 20
14.02781339001681
 10
48.62941131785558
 20
14.03153394832383
 10
48.6332691603684
 20
14.03540075328003
 10
48.63535373538005
 20
14.03938739732393
 10
48.63565669222687
 20
14.04346862333246
 10
48.63416737905398
 20
14.04761830506376
 10
48.63090315661501
 20
14.05180831896962
 10
48.62588475387234
 20
14.05601091968725
  0
ARC
  5
138
330
2
100
AcDbEntity
  8
0
100
AcDbCircle
 10
48.34932969635477
 20
14.1072403854308
 30
0.0
 40
0.2812599473834996
100
AcDbArc
 50
349.5054049934997
 51
357.4301791589002
  0
LWPOLYLINE
  5
139
330
2
100
AcDbEntity
  8
0
100
AcDbPolyline
 90
        6
 70
   128
 43
0.0
 10
48.24856070130163
 20
14.05093853526516
 10
48.2527254504578
 20
13.9608418460685
 10
48.27292063214924
 20
13.88622944528046
 10
48.3067101946685
 20
13.83610046953842
 10
48.35001872356076
 20
13.8165010567372
 10
48.35151646916712
 20
13.81641481812411
  0
ARC
  5
13A
330
2
100
AcDbEntity
  8
0
100
AcDbCircle
 10
47.45590577269642
 20
14.0833040064954
 30
0.0
 40
0.9795470699062999
100
AcDbArc
 50
355.2319371729001
 51
357.4629492649
  0
ARC
  5
13B
330
2
100
AcDbEntity
  8
0
100
AcDbCircle
 10
48.43918253011787
 20
14.83926052081107
 30
0.0
 40
0.8374090600568827
100
AcDbArc
 50
269.5128717098997
 51
279.4956720745996
  0
ARC
  5
13C
330
2
100
AcDbEntity
  8
0
100
AcDbCircle
 10
48.32866703073914
 20
14.05315051039909
 30
0.0
 40
0.2518343536904531
100
AcDbArc
 50
313.6912162752005
 51
350.9010849747999
  0
ARC
  5
13D
330
2
100
AcDbEntity
  8
0
100
AcDbCircle
 10
49.98685153685451
 20
19.18343325374377
 30
0.0
 40
0.1768261572957539
100
AcDbArc
 50
99.00145092869919
 51
112.2058837145001
  0
ARC
  5
13E
330
2
100
AcDbEntity
  8
0
100
AcDbCircle
 10
49.66656679635368
 20
19.15897562558026
 30
0.0
 40
0.3156697261479819
100
AcDbArc
 50
4.650686237999982
 51
36.59067700760016
  0
ARC
  5
13F
330
2
100
AcDbEntity
  8
0
100
AcDbCircle
 10
49.84304811837777
 20
20.0104938794742
 30
0.0
 40
0.8373976680642527
100
AcDbArc
 50
269.5128036344006
 51
279.4957401501002
  0
ARC
  5
140
330
2
100
AcDbEntity
  8
0
100
AcDbCircle
 10
48.77680482972152
 20
19.18052269149049
 30
0.0
 40
1.059148655529963
100
AcDbArc
 50
357.4822849362001
 51
359.5998910378999
  0
LWPOLYLINE
  5
141
330
2
100
AcDbEntity
  8
0
100
AcDbPolyline
 90
        7
 70
   128
 43
0.0
 10
49.6489990805413
 20
19.14499056564212
 10
49.66136694151872
 20
19.23970422086586
 10
49.68877567136511
 20
19.32761119393001
 10
49.72791941454065
 20
19.39810845397149
 10
49.77407687459789
 20
19.44269314988578
 10
49.8216807312556
 20
19.45598762671135
 10
49.83319403729158
 20
19.4541297982149
  0
ARC
  5
142
330
2
100
AcDbEntity
  8
0
100
AcDbCircle
 10
49.74918748892133
 20
19.2010271176557
 30
0.0
 40
0.2818281874835477
100
AcDbArc
 50
357.4893505519
 51
0.0183115720001633
  0
LWPOLYLINE
  5
143
330
2
100
AcDbEntity
  8
0
100
AcDbPolyline
 90
        6
 70
   128
 43
0.0
 10
50.0203600111561
 20
19.19550735925859
 10
50.0276724119401
 20
19.19905800720396
 10
50.03327604462329
 20
19.20277872338962
 10
50.03713381393643
 20
19.20664521266716
 10
50.03921851702788
 20
19.21063233844535
 10
50.03957113889422
 20
19.21430635659779
  0
ARC
  5
144
330
2
100
AcDbEntity
  8
0
100
AcDbCircle
 10
49.70572999162447
 20
19.16991294724706
 30
0.0
 40
0.3156693256004489
100
AcDbArc
 50
4.650636501799943
 51
36.59069387810053
  0
ARC
  5
145
330
2
100
AcDbEntity
  8
0
100
AcDbCircle
 10
49.90140050529742
 20
19.04665423631849
 30
0.0
 40
0.0815633406121795
100
AcDbArc
 50
271.1696087719003
 51
300.0373419021002
  0
ARC
  5
146
330
2
100
AcDbEntity
  8
0
100
AcDbCircle
 10
49.76826905655606
 20
19.15813910599343
 30
0.0
 40
0.2518334421250912
100
AcDbArc
 50
313.6911422509003
 51
350.9011882226999
  0
LWPOLYLINE
  5
147
330
2
100
AcDbEntity
  8
0
100
AcDbPolyline
 90
        9
 70
   128
 43
0.0
 10
50.01693370026721
 20
19.11831477236977
 10
50.02424610105121
 20
19.12186542039376
 10
50.029849752054
 20
19.12558600331036
 10
50.03370752128848
 20
19.12945249250927
 10
50.03579220613901
 20
19.13343961011048
 10
50.03609503482736
 20
19.13752077872288
 10
50.03460577661322
 20
19.1416703436177
 10
50.03134160905435
 20
19.14586024068707
 10
50.02632315143157
 20
19.15006295824119
  0
ARC
  5
148
330
2
100
AcDbEntity
  8
0
100
AcDbCircle
 10
49.74979830408633
 20
19.2012887037727
 30
0.0
 40
0.2812295649570404
100
AcDbArc
 50
349.5050291906998
 51
357.4306566902001
  0
LWPOLYLINE
  5
149
330
2
100
AcDbEntity
  8
0
100
AcDbPolyline
 90
        6
 70
   128
 43
0.0
 10
49.6489990805413
 20
19.14499056564212
 10
49.65316386633664
 20
19.05489403424548
 10
49.67335897474973
 20
18.98028145922483
 10
49.70714857390817
 20
18.93015249983675
 10
49.75045713943957
 20
18.9105532449928
 10
49.75195488504591
 20
18.91046686485503
  0
ARC
  5
14A
330
2
100
AcDbEntity
  8
0
100
AcDbCircle
 10
48.85651624783186
 20
19.17734488983832
 30
0.0
 40
0.979374643085255
100
AcDbArc
 50
355.2317501620998
 51
357.4631633519
  0
ARC
  5
14B
330
2
100
AcDbEntity
  8
0
100
AcDbCircle
 10
49.83962180748886
 20
19.93330115113931
 30
0.0
 40
0.8373976680652551
100
AcDbArc
 50
269.5128036344006
 51
279.4957401501002
  0
ARC
  5
14C
330
2
100
AcDbEntity
  8
0
100
AcDbCircle
 10
49.72910637643511
 20
19.14720205699752
 30
0.0
 40
0.2518333229313139
100
AcDbArc
 50
313.6911247057995
 51
350.9011588696003
  0
ARC
  5
14D
330
2
100
AcDbEntity
  8
0
100
AcDbCircle
 10
28.21513886267982
 20
22.45677026985638
 30
0.0
 40
0.9690280020881186
100
AcDbArc
 50
347.8213752680999
 51
352.4672263307999
  0
ARC
  5
14E
330
2
100
AcDbEntity
  8
0
100
AcDbCircle
 10
28.04365728895191
 20
16.26416439234749
 30
0.0
 40
6.170326583861507
100
AcDbArc
 50
79.42732875810031
 51
81.04149050089924
  0
ARC
  5
14F
330
2
100
AcDbEntity
  8
0
100
AcDbCircle
 10
29.39992842565518
 20
22.27012764245846
 30
0.0
 40
0.4053453365586999
100
AcDbArc
 50
144.9962914278998
 51
167.3028796716
  0
ARC
  5
150
330
2
100
AcDbEntity
  8
0
100
AcDbCircle
 10
28.98753716901326
 20
22.20686660730701
 30
0.0
 40
0.3065029888940339
100
AcDbArc
 50
74.79901632580042
 51
81.41881574159988
  0
LWPOLYLINE
  5
151
330
2
100
AcDbEntity
  8
0
100
AcDbPolyline
 90
       10
 70
   128
 43
0.0
 10
29.12634310704815
 20
22.56703878256807
 10
29.20501488259164
 20
22.53852300784743
 10
29.26852303720745
 20
22.48077483184366
 10
29.30920449342337
 20
22.40075983307718
 10
29.32215480416765
 20
22.30812888725532
 10
29.30581115141588
 20
22.21405458659148
 10
29.26214475402304
 20
22.129883832798
 10
29.19642336234491
 20
22.06576848243219
 10
29.11657151833819
 20
22.02944248286419
 10
29.03222366480802
 20
22.02528665707486
  0
ARC
  5
152
330
2
100
AcDbEntity
  8
0
100
AcDbCircle
 10
29.0158223988536
 20
22.45935471081799
 30
0.0
 40
0.3400455168556434
100
AcDbArc
 50
261.5821151761995
 51
267.5623998055995
  0
ARC
  5
153
330
2
100
AcDbEntity
  8
0
100
AcDbCircle
 10
29.43919729174231
 20
22.2288783713854
 30
0.0
 40
0.4512645865650215
100
AcDbArc
 50
173.2615899241
 51
194.0118684644001
  0
ARC
  5
154
330
2
100
AcDbEntity
  8
0
100
AcDbCircle
 10
28.03030519389168
 20
16.18731459709944
 30
0.0
 40
6.169775227064334
100
AcDbArc
 50
79.42725662919949
 51
81.0415626297998
  0
ARC
  5
155
330
2
100
AcDbEntity
  8
0
100
AcDbCircle
 10
29.11153773249198
 20
22.29284815119688
 30
0.0
 40
0.2863398807518078
100
AcDbArc
 50
162.2603821124003
 51
178.0282194864001
  0
ARC
  5
156
330
2
100
AcDbEntity
  8
0
100
AcDbCircle
 10
28.75884644660392
 20
21.24532237232882
 30
0.0
 40
1.059468343384367
100
AcDbArc
 50
81.08902488839975
 51
86.40019610969996
  0
ARC
  5
157
330
2
100
AcDbEntity
  8
0
100
AcDbCircle
 10
29.37110504657456
 20
22.23905334419053
 30
0.0
 40
0.4512645865640236
100
AcDbArc
 50
173.2615899241
 51
194.0118684644001
  0
ARC
  5
158
330
2
100
AcDbEntity
  8
0
100
AcDbCircle
 10
29.00777222803469
 20
22.40570728336589
 30
0.0
 40
0.2857975920523235
100
AcDbArc
 50
254.8889744284999
 51
261.6041474127
  0
LINE
  5
159
330
2
100
AcDbEntity
  8
0
100
AcDbLine
 10
29.12634310704815
 20
22.56703878256807
 30
0.0
 11
29.10859826107129
 21
22.56893004446141
 31
0.0
  0
LINE
  5
15A
330
2
100
AcDbEntity
  8
0
100
AcDbLine
 10
28.97447378571202
 20
22.04263529103412
 30
0.0
 11
29.03222366480802
 21
22.02528665707486
 31
0.0
  0
ARC
  5
15B
330
2
100
AcDbEntity
  8
0
100
AcDbCircle
 10
28.9941087032024
 20
22.2509658233335
 30
0.0
 40
0.2619169145086077
100
AcDbArc
 50
81.40085521249995
 51
88.75232412360057
  0
ARC
  5
15C
330
2
100
AcDbEntity
  8
0
100
AcDbCircle
 10
29.33183618040881
 20
22.28030261526358
 30
0.0
 40
0.40534533655903
100
AcDbArc
 50
144.9962914278998
 51
167.3028796714997
  0
ARC
  5
15D
330
2
100
AcDbEntity
  8
0
100
AcDbCircle
 10
28.77228605494284
 20
21.32266070683507
 30
0.0
 40
1.059523494988853
100
AcDbArc
 50
81.08916321930008
 51
86.40005777889971
  0
LINE
  5
15E
330
2
100
AcDbEntity
  8
0
100
AcDbLine
 10
28.99037455829038
 20
22.27482207138919
 30
0.0
 11
28.92295769994425
 21
22.29200315805581
 31
0.0
  0
LINE
  5
15F
330
2
100
AcDbEntity
  8
0
100
AcDbLine
 10
0.5166506592925903
 20
19.81531623563598
 30
0.0
 11
3.563723360189547
 21
21.69628272156854
 31
0.0
  0
LWPOLYLINE
  5
160
330
2
100
AcDbEntity
  8
0
100
AcDbPolyline
 90
       19
 70
   128
 43
0.0
 10
49.96248459047134
 20
16.36915349629346
 10
49.96248459047134
 20
16.52654129790161
 10
49.94833750671288
 20
16.67519589599849
 10
49.92047317047955
 20
16.81060077610044
 10
49.87973824655469
 20
16.92864130419785
 10
49.82737042171478
 20
17.02573150385441
 10
49.76496087678789
 20
17.09892086841989
 10
49.69440592145944
 20
17.14598584800731
 10
49.61784932941327
 20
17.16549623077841
 10
49.53761713170088
 20
17.15685918754642
 10
49.45614728385113
 20
17.12033725390169
 10
49.3759151594171
 20
17.05704010943621
 10
49.2993585673709
 20
16.96889096406006
 10
49.2288035754033
 20
16.85856812560673
 10
49.16639406703694
 20
16.72942391020233
 10
49.11402620563652
 20
16.5853819868684
 10
49.07329131835082
 20
16.43081954155883
 10
49.04542698203886
 20
16.27043218100421
 10
49.03127989835901
 20
16.10909365462999
  0
LWPOLYLINE
  5
161
330
2
100
AcDbEntity
  8
0
100
AcDbPolyline
 90
       12
 70
   128
 43
0.0
 10
49.4716876832566
 20
17.31610842936083
 10
49.4045765396015
 20
17.317064171774
 10
49.3172574731027
 20
17.2926783413599
 10
49.22987191823138
 20
17.24029635100048
 10
49.14480357074104
 20
17.16134722231145
 10
49.06437271342248
 20
17.05798411662306
 10
48.9907734623319
 20
16.93302677980252
 10
48.92601335595962
 20
16.78988381792284
 10
48.87185894929133
 20
16.63245955814231
 10
48.82978719182545
 20
16.4650479423853
 10
48.80094603315671
 20
16.2922161275401
 10
48.78612191043327
 20
16.11867815777923
  0
LWPOLYLINE
  5
162
330
2
100
AcDbEntity
  8
0
100
AcDbPolyline
 90
       19
 70
   128
 43
0.0
 10
49.03127989835901
 20
16.10909365462999
 10
49.03127989835901
 20
15.95170585302183
 10
49.04542698203886
 20
15.80305125492496
 10
49.07329131835082
 20
15.66764637482301
 10
49.11402620563652
 20
15.54960583029301
 10
49.16639406703694
 20
15.45251564706903
 10
49.2288035754033
 20
15.37932598317886
 10
49.2993585673709
 20
15.33226130291614
 10
49.3759151594171
 20
15.31275063725293
 10
49.45614728385113
 20
15.32138764761974
 10
49.53761713170088
 20
15.35790958126448
 10
49.61784932941327
 20
15.42120675859514
 10
49.69440592145944
 20
15.50935618694201
 10
49.76496087678789
 20
15.61967872599202
 10
49.82737042171478
 20
15.74882324072112
 10
49.87973824655469
 20
15.89286514762246
 10
49.92047317047955
 20
16.04742760936461
 10
49.94833750671288
 20
16.20781496991924
 10
49.96248459047134
 20
16.36915349629346
  0
LWPOLYLINE
  5
163
330
2
100
AcDbEntity
  8
0
100
AcDbPolyline
 90
       10
 70
   128
 43
0.0
 10
48.78612191043327
 20
16.11867815777923
 10
48.78571931895494
 20
15.94916754540998
 10
48.79974924260922
 20
15.78830844819319
 10
48.82782900700025
 20
15.64048829013523
 10
48.86919253149642
 20
15.50973956943302
 10
48.92271156430092
 20
15.39962885437887
 10
48.98692636350779
 20
15.3131590667815
 10
49.06008516581898
 20
15.25268956785491
 10
49.14019258798425
 20
15.21986930203901
 10
49.15795215732376
 20
15.21654954916889
  0
LINE
  5
164
330
2
100
AcDbEntity
  8
0
100
AcDbLine
 10
49.93522052494958
 20
19.97110476883118
 30
0.0
 11
49.40312407171419
 21
19.78113636420674
 31
0.0
  0
LWPOLYLINE
  5
165
330
2
100
AcDbEntity
  8
0
100
AcDbPolyline
 90
        9
 70
   128
 43
0.0
 10
49.9548767334912
 20
19.9419435270998
 10
49.95449904320137
 20
19.94918240133182
 10
49.95338049362878
 20
19.95580439842511
 10
49.95156406338085
 20
19.96155513099405
 10
49.94911956335774
 20
19.96621352970733
 10
49.9461409276556
 20
19.96960067293388
 10
49.94274262992567
 20
19.97158631386117
 10
49.93905526245794
 20
19.97209418405381
 10
49.93522052494958
 20
19.97110476883118
  0
LINE
  5
166
330
2
100
AcDbEntity
  8
0
100
AcDbLine
 10
49.9548767334912
 20
19.38687566580997
 30
0.0
 11
49.9548767334912
 21
19.9419435270998
 31
0.0
  0
ARC
  5
167
330
2
100
AcDbEntity
  8
0
100
AcDbCircle
 10
5.315560030775086
 20
22.55303577502061
 30
0.0
 40
0.1541251901124867
100
AcDbArc
 50
141.8469487842999
 51
195.8866848518002
  0
LINE
  5
168
330
2
100
AcDbEntity
  8
0
100
AcDbLine
 10
46.15264202157854
 20
16.95811102018712
 30
0.0
 11
5.556401024293381
 21
23.02437667686239
 31
0.0
  0
LINE
  5
169
330
2
100
AcDbEntity
  8
0
100
AcDbLine
 10
5.556401024293381
 20
23.02437667686239
 30
0.0
 11
5.194361628407841
 21
22.64824880722656
 31
0.0
  0
ARC
  5
16A
330
2
100
AcDbEntity
  8
0
100
AcDbCircle
 10
6.165249158399448
 20
22.44969655319417
 30
0.0
 40
0.8372295353894662
100
AcDbArc
 50
122.3098780020994
 51
136.6536480369996
  0
LINE
  5
16B
330
2
100
AcDbEntity
  8
0
100
AcDbLine
 10
46.35708295487389
 20
17.08459296744944
 30
0.0
 11
5.717751589542981
 21
23.15729758539397
 31
0.0
  0
LINE
  5
16C
330
2
100
AcDbEntity
  8
0
100
AcDbLine
 10
8.547757354520443
 20
24.90426812309771
 30
0.0
 11
5.717751589542981
 21
23.15729758539397
 31
0.0
  0
LWPOLYLINE
  5
16D
330
2
100
AcDbEntity
  8
0
100
AcDbPolyline
 90
        9
 70
   128
 43
0.0
 10
8.615287967965624
 20
25.79375154156567
 10
8.60937603202637
 20
25.79769516698212
 10
8.604988019670475
 20
25.80583058039489
 10
8.60265320166617
 20
25.81717644040701
 10
8.60265320166617
 20
25.83036425873129
 10
8.604988019670475
 20
25.84380345932188
 10
8.60937603202637
 20
25.85587298627748
 10
8.615287967965624
 20
25.86511717910668
 10
8.622010798404462
 20
25.87042096636311
  0
LINE
  5
16E
330
2
100
AcDbEntity
  8
0
100
AcDbLine
 10
9.080564869768457
 20
26.07598513291618
 30
0.0
 11
8.622010798404462
 21
25.87042096636311
 31
0.0
  0
LINE
  5
16F
330
2
100
AcDbEntity
  8
0
100
AcDbLine
 10
8.615287967965624
 20
25.79375154156567
 30
0.0
 11
8.69860001220349
 21
25.772519531447
 31
0.0
  0
LINE
  5
170
330
2
100
AcDbEntity
  8
0
100
AcDbLine
 10
8.649267183460544
 20
25.3331241823335
 30
0.0
 11
12.47399926265452
 21
24.76159735406141
 31
0.0
  0
LINE
  5
171
330
2
100
AcDbEntity
  8
0
100
AcDbLine
 10
12.97266258787635
 20
24.68708246967356
 30
0.0
 11
28.8158611188342
 21
22.31964526909432
 31
0.0
  0
LINE
  5
172
330
2
100
AcDbEntity
  8
0
100
AcDbLine
 10
29.31452444405607
 20
22.24513038470648
 30
0.0
 11
45.15772398974582
 21
19.87769303245995
 31
0.0
  0
LINE
  5
173
330
2
100
AcDbEntity
  8
0
100
AcDbLine
 10
45.65638528566104
 20
19.80317845132805
 30
0.0
 11
49.25260837697706
 21
19.26178953809312
 31
0.0
  0
LINE
  5
174
330
2
100
AcDbEntity
  8
0
100
AcDbLine
 10
8.649267183460544
 20
25.3331241823335
 30
0.0
 11
8.595080997111253
 21
25.02122807638909
 31
0.0
  0
LINE
  5
175
330
2
100
AcDbEntity
  8
0
100
AcDbLine
 10
8.65464545507654
 20
25.36408139401145
 30
0.0
 11
12.47877788414464
 21
24.79264417098866
 31
0.0
  0
LINE
  5
176
330
2
100
AcDbEntity
  8
0
100
AcDbLine
 10
8.709100267687935
 20
25.67752376753404
 30
0.0
 11
8.65464545507654
 21
25.36408139401145
 31
0.0
  0
LINE
  5
177
330
2
100
AcDbEntity
  8
0
100
AcDbLine
 10
45.66176355727706
 20
19.834135663006
 30
0.0
 11
49.25660228434001
 21
19.29458440349831
 31
0.0
  0
LINE
  5
178
330
2
100
AcDbEntity
  8
0
100
AcDbLine
 10
29.31990271567205
 20
22.27608759630581
 30
0.0
 11
45.16250159658262
 21
19.90874000097587
 31
0.0
  0
LINE
  5
179
330
2
100
AcDbEntity
  8
0
100
AcDbLine
 10
12.97804085949237
 20
24.71803968135152
 30
0.0
 11
28.82064075505622
 21
22.3506919343543
 31
0.0
  0
LWPOLYLINE
  5
17A
330
2
100
AcDbEntity
  8
0
100
AcDbPolyline
 90
        3
 70
   128
 43
0.0
 10
9.080564869768457
 20
26.07598513291618
 10
9.0843996072768
 20
26.07697454813882
 10
9.086374789451751
 20
26.07689297771724
  0
LINE
  5
17B
330
2
100
AcDbEntity
  8
0
100
AcDbLine
 10
8.659344637428082
 20
25.34671983373844
 30
0.0
 11
8.649267183460544
 21
25.3331241823335
 31
0.0
  0
LINE
  5
17C
330
2
100
AcDbEntity
  8
0
100
AcDbLine
 10
8.65464545507654
 20
25.36408139401145
 30
0.0
 11
8.659344637428082
 21
25.34671983373844
 31
0.0
  0
LINE
  5
17D
330
2
100
AcDbEntity
  8
0
100
AcDbLine
 10
49.99893079889957
 20
14.20379304967103
 30
0.0
 11
49.99893079889957
 21
19.03995444818377
 31
0.0
  0
ARC
  5
17E
330
2
100
AcDbEntity
  8
0
100
AcDbCircle
 10
49.67629780624299
 20
14.17421597509792
 30
0.0
 40
0.3239858812572305
100
AcDbArc
 50
309.1833861138
 51
5.2378958341999
  0
LINE
  5
17F
330
2
100
AcDbEntity
  8
0
100
AcDbLine
 10
48.60198390085481
 20
13.34972118926889
 30
0.0
 11
49.8809935659695
 21
13.92308553645985
 31
0.0
  0
ARC
  5
180
330
2
100
AcDbEntity
  8
0
100
AcDbCircle
 10
48.59765078482086
 20
13.35960138613984
 30
0.0
 40
0.010788613684525
100
AcDbArc
 50
207.5429395761996
 51
293.6806110418002
  0
LINE
  5
181
330
2
100
AcDbEntity
  8
0
100
AcDbLine
 10
48.34871829755773
 20
13.70972824792366
 30
0.0
 11
48.58808490364603
 21
13.35461258831563
 31
0.0
  0
ARC
  5
182
330
2
100
AcDbEntity
  8
0
100
AcDbCircle
 10
48.3390535322253
 20
13.70459360058424
 30
0.0
 40
0.0109440527936835
100
AcDbArc
 50
27.98058752909966
 51
103.3189805346
  0
LINE
  5
183
330
2
100
AcDbEntity
  8
0
100
AcDbLine
 10
49.21210123710206
 20
18.92917636522003
 30
0.0
 11
8.564919590335779
 21
25.00305404471709
 31
0.0
  0
LINE
  5
184
330
2
100
AcDbEntity
  8
0
100
AcDbLine
 10
8.564919590335779
 20
25.00305404471709
 30
0.0
 11
8.547757354520443
 21
24.90426812309771
 31
0.0
  0
LINE
  5
185
330
2
100
AcDbEntity
  8
0
100
AcDbLine
 10
8.69860001220349
 20
25.772519531447
 30
0.0
 11
8.687274876200378
 21
25.70733188350321
 31
0.0
  0
LINE
  5
186
330
2
100
AcDbEntity
  8
0
100
AcDbLine
 10
8.694323631447447
 20
25.68128953495604
 30
0.0
 11
49.29525204488491
 21
19.61194621984218
 31
0.0
  0
LWPOLYLINE
  5
187
330
2
100
AcDbEntity
  8
0
100
AcDbPolyline
 90
        9
 70
   128
 43
0.0
 10
8.687274876200378
 20
25.70733188350321
 10
8.686700864921089
 20
25.70274800799017
 10
8.686574844585784
 20
25.69823177671311
 10
8.686901611465863
 20
25.69395664790009
 10
8.687668607447619
 20
25.69008702668142
 10
8.688846359466353
 20
25.6867716017146
 10
8.690389614455892
 20
25.68413777076314
 10
8.692239060052543
 20
25.68228668316572
 10
8.694323631447447
 20
25.68128953495604
  0
LINE
  5
188
330
2
100
AcDbEntity
  8
0
100
AcDbLine
 10
8.694323631447447
 20
25.68128953495604
 30
0.0
 11
8.709100267687935
 21
25.67752376753404
 31
0.0
  0
ARC
  5
189
330
2
100
AcDbEntity
  8
0
100
AcDbCircle
 10
9.051400559782029
 20
26.04145778125616
 30
0.0
 40
0.0670298596169264
100
AcDbArc
 50
28.36787489169997
 51
111.9565124543994
  0
LINE
  5
18A
330
2
100
AcDbEntity
  8
0
100
AcDbLine
 10
0.4074527470420831
 20
17.8078991849015
 30
0.0
 11
0.4609304809012161
 21
17.82283443641905
 31
0.0
  0
LWPOLYLINE
  5
18B
330
2
100
AcDbEntity
  8
0
100
AcDbPolyline
 90
        9
 70
   128
 43
0.0
 10
0.4074527470420831
 20
17.8078991849015
 10
0.3465745946634485
 20
17.802007754866
 10
0.2887830253849386
 20
17.81881745451611
 10
0.236059216917287
 20
17.85775146197103
 10
0.1902109496773218
 20
17.917475083936
 10
0.1528105124423298
 20
17.99594034721931
 10
0.1251408084159392
 20
18.09045689937247
 10
0.1081496629635414
 20
18.19778327944915
 10
0.1024205333504689
 20
18.31423940339194
  0
LINE
  5
18C
330
2
100
AcDbEntity
  8
0
100
AcDbLine
 10
0.1024205333504689
 20
19.69888103666725
 30
0.0
 11
0.1024205333504689
 21
18.31423940339194
 31
0.0
  0
ARC
  5
18D
330
2
100
AcDbEntity
  8
0
100
AcDbCircle
 10
0.2170522217805244
 20
19.70695071100209
 30
0.0
 40
0.1149153759303074
100
AcDbArc
 50
133.2968452403998
 51
184.0267816638998
  0
LINE
  5
18E
330
2
100
AcDbEntity
  8
0
100
AcDbLine
 10
8.317616008954729
 20
24.86468059501299
 30
0.0
 11
0.13824575287633
 21
19.79058733037449
 31
0.0
  0
ARC
  5
18F
330
2
100
AcDbEntity
  8
0
100
AcDbCircle
 10
8.253908168128447
 20
24.93862500419424
 30
0.0
 40
0.0976036097409707
100
AcDbArc
 50
310.7470033735
 51
354.5464419047001
  0
LINE
  5
190
330
2
100
AcDbEntity
  8
0
100
AcDbLine
 10
8.505861849844661
 20
25.82033198368679
 30
0.0
 11
8.351069981001979
 21
24.9293488656284
 31
0.0
  0
ARC
  5
191
330
2
100
AcDbEntity
  8
0
100
AcDbCircle
 10
8.59607291551231
 20
25.81376372673745
 30
0.0
 40
0.0904498666010432
100
AcDbArc
 50
126.0817833549005
 51
175.8356495532999
  0
LINE
  5
192
330
2
100
AcDbEntity
  8
0
100
AcDbLine
 10
9.026337910788354
 20
26.10362582540567
 30
0.0
 11
8.54280342216559
 21
25.88686324412504
 31
0.0
  0
LINE
  5
193
330
2
100
AcDbEntity
  8
0
100
AcDbLine
 10
8.21547916310444
 20
24.879942826877
 30
0.0
 11
0.036108907026085
 21
19.80584956215989
 31
0.0
  0
ARC
  5
194
330
2
100
AcDbEntity
  8
0
100
AcDbCircle
 10
0.1149153759302793
 20
19.7222129428661
 30
0.0
 40
0.1149153759302851
100
AcDbArc
 50
133.2968452403998
 51
184.0267816638998
  0
LINE
  5
195
330
2
100
AcDbEntity
  8
0
100
AcDbLine
 10
0.0002836875002239
 20
19.71414326845264
 30
0.0
 11
0.0002836875002239
 21
18.32950163517734
 31
0.0
  0
LWPOLYLINE
  5
196
330
2
100
AcDbEntity
  8
0
100
AcDbPolyline
 90
        8
 70
   128
 43
0.0
 10
0.2356706574535691
 20
17.81832712001735
 10
0.1866461795346936
 20
17.8340796863015
 10
0.1339223710670196
 20
17.87301369375641
 10
0.0880741038270545
 20
17.9327373157214
 10
0.0506736665920402
 20
18.0112025790047
 10
0.0230039625656495
 20
18.10571913123649
 10
0.0060128170346366
 20
18.21304551123455
 10
0.0002836875002239
 20
18.32950163517734
  0
LINE
  5
197
330
2
100
AcDbEntity
  8
0
100
AcDbLine
 10
8.403725003915756
 20
25.83559421547218
 30
0.0
 11
8.248933135151711
 21
24.9446110974138
 31
0.0
  0
ARC
  5
198
330
2
100
AcDbEntity
  8
0
100
AcDbCircle
 10
8.151771322199564
 20
24.95388723605826
 30
0.0
 40
0.0976036097409496
100
AcDbArc
 50
310.7470033735
 51
354.5464419047001
  0
ARC
  5
199
330
2
100
AcDbEntity
  8
0
100
AcDbCircle
 10
8.493936069583405
 20
25.82902595852285
 30
0.0
 40
0.0904498666011517
100
AcDbArc
 50
126.0817833549005
 51
175.8356495531999
  0
LINE
  5
19A
330
2
100
AcDbEntity
  8
0
100
AcDbLine
 10
8.924201064859451
 20
26.11888805719106
 30
0.0
 11
8.440666576315301
 21
25.90212547598907
 31
0.0
  0
LWPOLYLINE
  5
19B
330
2
100
AcDbEntity
  8
0
100
AcDbPolyline
 90
        3
 70
   128
 43
0.0
 10
8.924201064859451
 20
26.11888805719106
 10
8.947209480553153
 20
26.12482461520072
 10
8.959060564718173
 20
26.12433511782044
  0
ARC
  5
19C
330
2
100
AcDbEntity
  8
0
100
AcDbCircle
 10
44.61732676074555
 20
13.622412691001
 30
0.0
 40
0.9463825518179675
100
AcDbArc
 50
260.6196019351998
 51
280.1950479462003
  0
ARC
  5
19D
330
2
100
AcDbEntity
  8
0
100
AcDbCircle
 10
44.61047365919912
 20
13.46802034868388
 30
0.0
 40
0.9463757243977221
100
AcDbArc
 50
260.6195585956996
 51
280.1951833229002
  0
LWPOLYLINE
  5
19E
330
2
100
AcDbEntity
  8
0
100
AcDbPolyline
 90
        9
 70
   128
 43
0.0
 10
44.86149165742378
 20
12.76346369354432
 10
44.87620022556187
 20
12.77090327414385
 10
44.87311465184716
 20
12.77953478887152
 10
44.85271482004579
 20
12.78804207276485
 10
44.81809838512666
 20
12.79513202537401
 10
44.77454317738354
 20
12.79972320238109
 10
44.72867508009878
 20
12.80111828512095
 10
44.68747380656999
 20
12.79910452048821
 10
44.65722100960454
 20
12.79398770227051
  0
LWPOLYLINE
  5
19F
330
2
100
AcDbEntity
  8
0
100
AcDbPolyline
 90
        9
 70
   128
 43
0.0
 10
44.65722100960454
 20
12.79398770227051
 10
44.64251244138783
 20
12.78654812174961
 10
44.64559801518113
 20
12.77791717280615
 10
44.66599784690387
 20
12.76940932304998
 10
44.70061022328837
 20
12.76232054281553
 10
44.74416948964477
 20
12.75772819351236
 10
44.79003758692954
 20
12.75633367663535
 10
44.83123886037966
 20
12.75834687532662
 10
44.86149165742378
 20
12.76346369354432
  0
LINE
  5
1A0
330
2
100
AcDbEntity
  8
0
100
AcDbLine
 10
44.46307735599478
 20
12.68868518492686
 30
0.0
 11
43.84772476316359
 21
12.78063685852432
 31
0.0
  0
LINE
  5
1A1
330
2
100
AcDbEntity
  8
0
100
AcDbLine
 10
44.13640724931388
 20
13.00612633233768
 30
0.0
 11
44.09995439158451
 21
13.01083948183836
 31
0.0
  0
LINE
  5
1A2
330
2
100
AcDbEntity
  8
0
100
AcDbLine
 10
44.13640724931388
 20
13.00612633233768
 30
0.0
 11
45.0896824481528
 21
12.86367913872027
 31
0.0
  0
LWPOLYLINE
  5
1A3
330
2
100
AcDbEntity
  8
0
100
AcDbPolyline
 90
        9
 70
   128
 43
0.0
 10
45.17646434830019
 20
12.80034338475006
 10
45.19546093956473
 20
12.80733139178696
 10
45.20587742612035
 20
12.81522315238236
 10
45.20731318045813
 20
12.82371651465033
 10
45.19971439576026
 20
12.83248440318701
 10
45.18337090780611
 20
12.84119053829518
 10
45.15891067362288
 20
12.84950014326974
 10
45.12727562997004
 20
12.85709354311087
 10
45.0896824481528
 20
12.86367913872027
  0
LINE
  5
1A4
330
2
100
AcDbEntity
  8
0
100
AcDbLine
 10
45.17646434830019
 20
12.80034338475006
 30
0.0
 11
44.78483616573089
 21
12.69097265875916
 31
0.0
  0
LINE
  5
1A5
330
2
100
AcDbEntity
  8
0
100
AcDbLine
 10
44.45622466101728
 20
12.53429969547055
 30
0.0
 11
43.87054003486098
 21
12.62181810718397
 31
0.0
  0
LINE
  5
1A6
330
2
100
AcDbEntity
  8
0
100
AcDbLine
 10
45.16961223907762
 20
12.64595815790065
 30
0.0
 11
44.77798405650831
 21
12.53658743190975
 31
0.0
  0
LWPOLYLINE
  5
1A7
330
2
100
AcDbEntity
  8
0
100
AcDbPolyline
 90
        4
 70
   128
 43
0.0
 10
45.20098213105646
 20
12.66602324303157
 10
45.19902473106422
 20
12.66083766292604
 10
45.1886082445086
 20
12.65294590225203
 10
45.16961223907762
 20
12.64595815790065
  0
LINE
  5
1A8
330
2
100
AcDbEntity
  8
0
100
AcDbLine
 10
3.541001913535656
 20
21.81185772214203
 30
0.0
 11
3.932351840896828
 21
22.05343923276786
 31
0.0
  0
LINE
  5
1A9
330
2
100
AcDbEntity
  8
0
100
AcDbLine
 10
3.541001913535656
 20
21.81185772214203
 30
0.0
 11
44.18196706921254
 21
15.73890896813901
 31
0.0
  0
ARC
  5
1AA
330
2
100
AcDbEntity
  8
0
100
AcDbCircle
 10
3.565457113135685
 20
21.78627379396417
 30
0.0
 40
0.0353920070917419
100
AcDbArc
 50
133.7078028437996
 51
186.3343900290998
  0
LINE
  5
1AB
330
2
100
AcDbEntity
  8
0
100
AcDbLine
 10
3.533364831552191
 20
21.71566041693401
 30
0.0
 11
3.530281177383888
 21
21.78236896242766
 31
0.0
  0
LWPOLYLINE
  5
1AC
330
2
100
AcDbEntity
  8
0
100
AcDbPolyline
 90
        8
 70
   128
 43
0.0
 10
3.533364831552191
 20
21.71566041693401
 10
3.533791294312526
 20
21.7114618090207
 10
3.534652421188295
 20
21.70770306436772
 10
3.5359159929857
 20
21.7045287406059
 10
3.537532802596285
 20
21.70206106780372
 10
3.539440755045315
 20
21.70039471394138
 10
3.541567211061868
 20
21.69959387445572
 10
3.54162754853595
 20
21.69958442634681
  0
ARC
  5
1AD
330
2
100
AcDbEntity
  8
0
100
AcDbCircle
 10
3.938571079905788
 20
22.04419387943629
 30
0.0
 40
0.0111425083744135
100
AcDbArc
 50
83.27829057920062
 51
123.9282516819995
  0
LINE
  5
1AE
330
2
100
AcDbEntity
  8
0
100
AcDbLine
 10
5.16732165998069
 20
22.51084620683015
 30
0.0
 11
4.333910514669594
 21
21.99637915887042
 31
0.0
  0
LINE
  5
1AF
330
2
100
AcDbEntity
  8
0
100
AcDbLine
 10
45.49767116202146
 20
12.92242680721139
 30
0.0
 11
48.3365323276664
 21
13.71524328692343
 31
0.0
  0
LINE
  5
1B0
330
2
100
AcDbEntity
  8
0
100
AcDbLine
 10
45.49767116202146
 20
12.92242680721139
 30
0.0
 11
45.49373843148926
 21
12.92301447216264
 31
0.0
  0
LINE
  5
1B1
330
2
100
AcDbEntity
  8
0
100
AcDbLine
 10
45.49374014731873
 20
12.92132887754854
 30
0.0
 11
45.19215331968392
 21
12.83710432275549
 31
0.0
  0
LINE
  5
1B2
330
2
100
AcDbEntity
  8
0
100
AcDbLine
 10
44.22930778148555
 20
12.56820803076771
 30
0.0
 11
41.7605028388906
 21
11.87873810446836
 31
0.0
  0
LINE
  5
1B3
330
2
100
AcDbEntity
  8
0
100
AcDbLine
 10
41.71003494841908
 20
11.8646440044831
 30
0.0
 11
41.26383299907305
 21
11.74003171850894
 31
0.0
  0
LWPOLYLINE
  5
1B4
330
2
100
AcDbEntity
  8
0
100
AcDbPolyline
 90
        9
 70
   128
 43
0.0
 10
40.97674385687679
 20
12.21658721828315
 10
40.98213615107243
 20
12.10698151517353
 10
40.99812733496177
 20
12.00596836850714
 10
41.02416968500282
 20
11.91701188679771
 10
41.05936985536192
 20
11.84316208592039
 10
41.10252109679307
 20
11.78695135421738
 10
41.1521436770296
 20
11.75030732691817
 10
41.20653584555054
 20
11.73448661257019
 10
41.26383299907305
 20
11.74003171850894
  0
LINE
  5
1B5
330
2
100
AcDbEntity
  8
0
100
AcDbLine
 10
40.97674385687679
 20
12.21658721828315
 30
0.0
 11
40.97674385687679
 21
13.65154050609724
 31
0.0
  0
ARC
  5
1B6
330
2
100
AcDbEntity
  8
0
100
AcDbCircle
 10
41.01109775573386
 20
13.65396992587961
 30
0.0
 40
0.0344396929550862
100
AcDbArc
 50
133.2284518740001
 51
184.0450767830997
  0
LINE
  5
1B7
330
2
100
AcDbEntity
  8
0
100
AcDbLine
 10
40.98750969969541
 20
13.67906367138324
 30
0.0
 11
49.28517096339578
 21
18.81259704671622
 31
0.0
  0
ARC
  5
1B8
330
2
100
AcDbEntity
  8
0
100
AcDbCircle
 10
0.1564421005527268
 20
19.75885028996461
 30
0.0
 40
0.0344396929552383
100
AcDbArc
 50
133.2284518741004
 51
184.0450767829998
  0
LINE
  5
1B9
330
2
100
AcDbEntity
  8
0
100
AcDbLine
 10
0.1220882016170368
 20
18.32146758236815
 30
0.0
 11
0.1220882016170368
 21
19.75642087010361
 31
0.0
  0
LINE
  5
1BA
330
2
100
AcDbEntity
  8
0
100
AcDbLine
 10
0.1328540445142474
 20
19.78394403538962
 30
0.0
 11
0.1603726119779876
 21
19.80093147564731
 31
0.0
  0
LWPOLYLINE
  5
1BB
330
2
100
AcDbEntity
  8
0
100
AcDbPolyline
 90
        3
 70
   128
 43
0.0
 10
0.1648867911472184
 20
19.802023754387
 10
0.1628124713282611
 20
19.80194799756333
 10
0.1603726119779876
 20
19.80093147564731
  0
LINE
  5
1BC
330
2
100
AcDbEntity
  8
0
100
AcDbLine
 10
0.261728411984085
 20
19.78755294133983
 30
0.0
 11
0.3453162950533886
 21
19.83915197181242
 31
0.0
  0
LWPOLYLINE
  5
1BD
330
2
100
AcDbEntity
  8
0
100
AcDbPolyline
 90
        3
 70
   128
 43
0.0
 10
0.3453162950533886
 20
19.83915197181242
 10
0.3476284498460926
 20
19.84013982027824
 10
0.3498304742226418
 20
19.8402442505521
  0
LWPOLYLINE
  5
1BE
330
2
100
AcDbEntity
  8
0
100
AcDbPolyline
 90
        8
 70
   128
 43
0.0
 10
0.1220882016170368
 20
18.32146758236815
 10
0.1274804958912857
 20
18.21186187925853
 10
0.1434716797806517
 20
18.11084873251351
 10
0.1695140298216782
 20
18.0218922508827
 10
0.2047142001021597
 20
17.94804244992676
 10
0.2478654415333109
 20
17.89183171830237
 10
0.2974880218484747
 20
17.85518769092455
 10
0.3436291893488565
 20
17.8403623618605
  0
SPLINE
  5
1BF
330
2
100
AcDbEntity
  8
0
100
AcDbSpline
210
0.0
220
0.0
230
1.0
 70
     8
 71
     3
 72
    15
 73
    11
 74
     0
 42
0.000000001
 43
0.0000000001
 40
0.0
 40
0.0
 40
0.0
 40
0.0
 40
0.3800816546893617
 40
0.6159710381959016
 40
0.7940853583136251
 40
0.9080548056709703
 40
0.9414301482412369
 40
0.9631477796895865
 40
0.9829488203990004
 40
1.0
 40
1.0
 40
1.0
 40
1.0
 10
9.196245177940001
 20
8.027621690971537
 30
0.0
 10
9.191755179923724
 20
8.012581048263506
 30
0.0
 10
9.184478562635094
 20
7.988205758928448
 30
0.0
 10
9.172349085841123
 20
7.959867585170464
 30
0.0
 10
9.163360917386356
 20
7.942785149816643
 30
0.0
 10
9.157093979371188
 20
7.93398492756641
 30
0.0
 10
9.153591239081608
 20
7.930770921838378
 30
0.0
 10
9.152000224695402
 20
7.92978747587317
 30
0.0
 10
9.150751587808725
 20
7.929459700071435
 30
0.0
 10
9.150000676539713
 20
7.929560124839357
 30
0.0
 10
9.149653236879274
 20
7.929606590445472
 30
0.0
  0
LINE
  5
1C0
330
2
100
AcDbEntity
  8
0
100
AcDbLine
 10
48.32791419390833
 20
13.71283698946407
 30
0.0
 11
48.34871829755773
 21
13.70972824792366
 31
0.0
  0
LINE
  5
1C1
330
2
100
AcDbEntity
  8
0
100
AcDbLine
 10
49.51767789292262
 20
19.8703074159345
 30
0.0
 11
8.809159810253561
 21
25.95335055283996
 31
0.0
  0
LINE
  5
1C2
330
2
100
AcDbEntity
  8
0
100
AcDbLine
 10
8.595080997111253
 20
25.02122807638909
 30
0.0
 11
8.564919590335779
 21
25.00305404471709
 31
0.0
  0
ELLIPSE
  5
1C3
330
2
100
AcDbEntity
  8
0
100
AcDbEllipse
 10
49.52737736424992
 20
16.23432276931811
 30
0.0
 11
0.1036948957417804
 21
0.6599922901183234
 31
0.0
210
0.0
220
0.0
230
1.0
 40
0.4679649140546593
 41
0.0
 42
6.283185307179586
  0
LINE
  5
1C4
330
2
100
AcDbEntity
  8
0
100
AcDbLine
 10
49.40312407171419
 20
19.78113636420674
 30
0.0
 11
49.28517096339578
 21
18.81259704671622
 31
0.0
  0
LINE
  5
1C5
330
2
100
AcDbEntity
  8
0
100
AcDbLine
 10
40.83574581190257
 20
12.21287856314012
 30
0.0
 11
40.83574581190257
 21
13.64783185095421
 31
0.0
  0
ARC
  5
1C6
330
2
100
AcDbEntity
  8
0
100
AcDbCircle
 10
40.87009971075964
 20
13.65026127073658
 30
0.0
 40
0.0344396929550862
100
AcDbArc
 50
133.2284518740001
 51
184.0450767830997
  0
ARC
  5
1C7
330
2
100
AcDbEntity
  8
0
100
AcDbCircle
 10
41.3540761061505
 20
12.23173267120532
 30
0.0
 40
0.5186730871426519
100
AcDbArc
 50
182.0831982439012
 51
253.4735982975833
  0
LINE
  5
1C8
330
2
100
AcDbEntity
  8
0
100
AcDbLine
 10
40.84651165472119
 20
13.67535501624022
 30
0.0
 11
49.20179342322112
 21
18.84453660317061
 31
0.0
  0
LINE
  5
1C9
330
2
100
AcDbEntity
  8
0
100
AcDbLine
 10
49.31783564644801
 20
19.79738521637419
 30
0.0
 11
49.20179342322112
 21
18.84453660317061
 31
0.0
  0
LINE
  5
1CA
330
2
100
AcDbEntity
  8
0
100
AcDbLine
 10
49.83544848741725
 20
19.98626153031681
 30
0.0
 11
49.31783564644801
 21
19.79738521637419
 31
0.0
  0
LINE
  5
1CB
330
2
100
AcDbEntity
  8
0
100
AcDbLine
 10
0.1603726119779876
 20
19.80093147564731
 30
0.0
 11
40.83802637770033
 21
13.66280693761035
 31
0.0
  0
ENDSEC
  0
SECTION
  2
OBJECTS
  0
DICTIONARY
  5
A
330
0
100
AcDbDictionary
281
     1
  3
ACAD_COLOR
350
3B
  3
ACAD_GROUP
350
32
  3
ACAD_LAYOUT
350
17
  3
ACAD_MATERIAL
350
C
  3
ACAD_MLEADERSTYLE
350
3E
  3
ACAD_MLINESTYLE
350
33
  3
ACAD_PLOTSETTINGS
350
34
  3
ACAD_PLOTSTYLENAME
350
9
  3
ACAD_SCALELIST
350
3C
  3
ACAD_TABLESTYLE
350
3D
  3
ACAD_VISUALSTYLE
350
2C
  3
ACDB_RECOMPOSE_DATA
350
1D3
  3
AcDbVariableDictionary
350
3F
  3
AcDsDecomposeData
350
1D9
  0
DICTIONARY
  5
1F
330
1E
100
AcDbDictionary
280
     1
281
     1
  3
ACAD_LAYERSTATES
360
20
  0
DICTIONARY
  5
7
330
6
100
AcDbDictionary
280
     1
281
     1
  0
DICTIONARY
  5
3
330
2
100
AcDbDictionary
280
     1
281
     1
  3
ACAD_SORTENTS
360
1CC
  0
DICTIONARY
  5
3B
102
{ACAD_REACTORS
330
A
102
}
330
A
100
AcDbDictionary
281
     1
  0
DICTIONARY
  5
32
102
{ACAD_REACTORS
330
A
102
}
330
A
100
AcDbDictionary
281
     1
  0
DICTIONARY
  5
17
102
{ACAD_REACTORS
330
A
102
}
330
A
100
AcDbDictionary
281
     1
  3
Model
350
16
  3
布局1
350
1D
  0
DICTIONARY
  5
C
102
{ACAD_REACTORS
330
A
102
}
330
A
100
AcDbDictionary
281
     1
  3
ByBlock
350
38
  3
ByLayer
350
35
  3
Global
350
B
  0
DICTIONARY
  5
3E
102
{ACAD_REACTORS
330
A
102
}
330
A
100
AcDbDictionary
281
     1
  0
DICTIONARY
  5
33
102
{ACAD_REACTORS
330
A
102
}
330
A
100
AcDbDictionary
281
     1
  3
Standard
350
4B
  0
DICTIONARY
  5
34
102
{ACAD_REACTORS
330
A
102
}
330
A
100
AcDbDictionary
281
     1
  0
ACDBDICTIONARYWDFLT
  5
9
102
{ACAD_REACTORS
330
A
102
}
330
A
100
AcDbDictionary
281
     1
  3
Normal
350
8
100
AcDbDictionaryWithDefault
340
8
  0
DICTIONARY
  5
3C
102
{ACAD_REACTORS
330
A
102
}
330
A
100
AcDbDictionary
281
     1
  3
A0
350
50
  3
A1
350
51
  3
A2
350
52
  3
A3
350
53
  3
A4
350
54
  3
A5
350
55
  3
A6
350
56
  3
A7
350
57
  3
A8
350
58
  3
A9
350
59
  3
B0
350
5A
  3
B1
350
5B
  3
B2
350
5C
  3
B3
350
5D
  3
B4
350
5E
  3
B5
350
5F
  3
B6
350
60
  0
DICTIONARY
  5
3D
102
{ACAD_REACTORS
330
A
102
}
330
A
100
AcDbDictionary
281
     1
  3
Standard
350
4C
  0
DICTIONARY
  5
2C
102
{ACAD_REACTORS
330
A
102
}
330
A
100
AcDbDictionary
281
     1
  3
2dWireframe
350
2B
  3
Realistic
350
4E
  3
Wireframe
350
4F
  0
XRECORD
  5
1D3
102
{ACAD_REACTORS
330
A
102
}
330
A
100
AcDbXrecord
280
     1
 90
        1
330
4C
  0
DICTIONARY
  5
3F
102
{ACAD_REACTORS
330
A
102
}
330
A
100
AcDbDictionary
281
     1
  3
CANNOSCALE
350
40
  3
CENTEREXE
350
41
  3
CENTERLTYPEFILE
350
42
  3
CMLEADERSTYLE
350
43
  3
CTABLESTYLE
350
44
  3
CVIEWDETAILSTYLE
350
45
  3
CVIEWSECTIONSTYLE
350
46
  3
DIMASSOC
350
47
  3
HIDETEXT
350
48
  3
LAYEREVAL
350
49
  3
LAYERNOTIFY
350
4A
  3
LIGHTINGUNITS
350
1CE
  3
MSLTSCALE
350
1CD
  3
PSOLHEIGHT
350
1D0
  3
PSOLWIDTH
350
1CF
  3
XCLIPFRAME
350
1D1
  0
DICTIONARY
  5
1D9
102
{ACAD_REACTORS
330
A
102
}
330
A
100
AcDbDictionary
281
     1
  3
AcDsRecords
350
1DB
  3
AcDsSchemas
350
1DA
1001
ACAD
1070
     2
  0
DICTIONARY
  5
20
102
{ACAD_REACTORS
330
1F
102
}
330
1F
100
AcDbDictionary
281
     1
  0
SORTENTSTABLE
  5
1CC
102
{ACAD_REACTORS
330
3
102
}
330
3
100
AcDbSortentsTable
330
2
  0
LAYOUT
  5
16
102
{ACAD_XDICTIONARY
360
18
102
}
102
{ACAD_REACTORS
330
17
102
}
330
17
100
AcDbPlotSettings
  1

  2
none_device
  4
ISO_A4_(210.00_x_297.00_MM)
  6

 40
7.5
 41
20.0
 42
7.5
 43
20.0
 44
210.0
 45
297.0
 46
11.54999923706054
 47
-13.65000009536743
 48
0.0
 49
0.0
140
0.0
141
0.0
142
1.0
143
8.704084754739808
 70
 11952
 72
     1
 73
     0
 74
     0
  7

 75
     0
147
0.1148885871608098
 76
     0
 77
     2
 78
   300
148
0.0
149
0.0
100
AcDbLayout
  1
Model
 70
     1
 71
     0
 10
0.0
 20
0.0
 11
12.0
 21
9.0
 12
0.0
 22
0.0
 32
0.0
 14
0.0
 24
0.0
 34
0.0
 15
0.0
 25
0.0
 35
0.0
146
0.0
 13
0.0
 23
0.0
 33
0.0
 16
1.0
 26
0.0
 36
0.0
 17
0.0
 27
1.0
 37
0.0
 76
     0
330
2
331
2A
1001
ACAD_PSEXT
1000
None
1000
None
1000
Not applicable
1000
The layout will not be plotted unless a new plotter configuration name is selected.
1070
     0
  0
LAYOUT
  5
1D
102
{ACAD_REACTORS
330
17
102
}
330
17
100
AcDbPlotSettings
  1

  2
C:\Documents and Settings\basas\Application Data\Autodesk\AutoCAD 2005\R16.1\enu\plotters\Default Windows System Printer.pc3
  4

  6

 40
0.0
 41
0.0
 42
0.0
 43
0.0
 44
0.0
 45
0.0
 46
0.0
 47
0.0
 48
0.0
 49
0.0
140
0.0
141
0.0
142
1.0
143
1.0
 70
   688
 72
     0
 73
     0
 74
     5
  7

 75
    16
147
1.0
 76
     0
 77
     2
 78
   300
148
0.0
149
0.0
100
AcDbLayout
  1
布局1
 70
     1
 71
     1
 10
0.0
 20
0.0
 11
12.0
 21
9.0
 12
0.0
 22
0.0
 32
0.0
 14
0.0
 24
0.0
 34
0.0
 15
0.0
 25
0.0
 35
0.0
146
0.0
 13
0.0
 23
0.0
 33
0.0
 16
1.0
 26
0.0
 36
0.0
 17
0.0
 27
1.0
 37
0.0
 76
     0
330
1A
  0
MATERIAL
  5
38
102
{ACAD_XDICTIONARY
360
39
102
}
102
{ACAD_REACTORS
330
C
102
}
330
C
100
AcDbMaterial
  1
ByBlock
  0
MATERIAL
  5
35
102
{ACAD_XDICTIONARY
360
36
102
}
102
{ACAD_REACTORS
330
C
102
}
330
C
100
AcDbMaterial
  1
ByLayer
  0
MATERIAL
  5
B
102
{ACAD_XDICTIONARY
360
D
102
}
102
{ACAD_REACTORS
330
C
102
}
330
C
100
AcDbMaterial
  1
Global
 43
0.0007999999797903
 43
0.0
 43
0.0
 43
0.0
 43
0.0
 43
0.0007999999797903
 43
0.0
 43
0.0
 43
0.0
 43
0.0
 43
1.0
 43
0.0
 43
0.0
 43
0.0
 43
0.0
 43
1.0
 49
0.0007999999797903
 49
0.0
 49
0.0
 49
0.0
 49
0.0
 49
0.0007999999797903
 49
0.0
 49
0.0
 49
0.0
 49
0.0
 49
1.0
 49
0.0
 49
0.0
 49
0.0
 49
0.0
 49
1.0
142
0.0007999999797903
142
0.0
142
0.0
142
0.0
142
0.0
142
0.0007999999797903
142
0.0
142
0.0
142
0.0
142
0.0
142
1.0
142
0.0
142
0.0
142
0.0
142
0.0
142
1.0
144
0.0007999999797903
144
0.0
144
0.0
144
0.0
144
0.0
144
0.0007999999797903
144
0.0
144
0.0
144
0.0
144
0.0
144
1.0
144
0.0
144
0.0
144
0.0
144
0.0
144
1.0
1001
ACAD
1070
    -1
1070
     3
1070
     0
1000

1071
        0
1070
     0
  0
MLINESTYLE
  5
4B
102
{ACAD_REACTORS
330
33
102
}
330
33
100
AcDbMlineStyle
  2
STANDARD
 70
     0
  3

 62
   256
 51
90.0
 52
90.0
 71
     2
 49
0.5
 62
   256
  6
BYLAYER
 49
-0.5
 62
   256
  6
BYLAYER
  0
ACDBPLACEHOLDER
  5
8
102
{ACAD_REACTORS
330
9
102
}
330
9
  0
SCALE
  5
50
102
{ACAD_REACTORS
330
3C
102
}
330
3C
100
AcDbScale
 70
     0
300
1:1
140
1.0
141
1.0
290
     1
  0
SCALE
  5
51
102
{ACAD_REACTORS
330
3C
102
}
330
3C
100
AcDbScale
 70
     0
300
1:2
140
1.0
141
2.0
290
     0
  0
SCALE
  5
52
102
{ACAD_REACTORS
330
3C
102
}
330
3C
100
AcDbScale
 70
     0
300
1:4
140
1.0
141
4.0
290
     0
  0
SCALE
  5
53
102
{ACAD_REACTORS
330
3C
102
}
330
3C
100
AcDbScale
 70
     0
300
1:5
140
1.0
141
5.0
290
     0
  0
SCALE
  5
54
102
{ACAD_REACTORS
330
3C
102
}
330
3C
100
AcDbScale
 70
     0
300
1:8
140
1.0
141
8.0
290
     0
  0
SCALE
  5
55
102
{ACAD_REACTORS
330
3C
102
}
330
3C
100
AcDbScale
 70
     0
300
1:10
140
1.0
141
10.0
290
     0
  0
SCALE
  5
56
102
{ACAD_REACTORS
330
3C
102
}
330
3C
100
AcDbScale
 70
     0
300
1:16
140
1.0
141
16.0
290
     0
  0
SCALE
  5
57
102
{ACAD_REACTORS
330
3C
102
}
330
3C
100
AcDbScale
 70
     0
300
1:20
140
1.0
141
20.0
290
     0
  0
SCALE
  5
58
102
{ACAD_REACTORS
330
3C
102
}
330
3C
100
AcDbScale
 70
     0
300
1:30
140
1.0
141
30.0
290
     0
  0
SCALE
  5
59
102
{ACAD_REACTORS
330
3C
102
}
330
3C
100
AcDbScale
 70
     0
300
1:40
140
1.0
141
40.0
290
     0
  0
SCALE
  5
5A
102
{ACAD_REACTORS
330
3C
102
}
330
3C
100
AcDbScale
 70
     0
300
1:50
140
1.0
141
50.0
290
     0
  0
SCALE
  5
5B
102
{ACAD_REACTORS
330
3C
102
}
330
3C
100
AcDbScale
 70
     0
300
1:100
140
1.0
141
100.0
290
     0
  0
SCALE
  5
5C
102
{ACAD_REACTORS
330
3C
102
}
330
3C
100
AcDbScale
 70
     0
300
2:1
140
2.0
141
1.0
290
     0
  0
SCALE
  5
5D
102
{ACAD_REACTORS
330
3C
102
}
330
3C
100
AcDbScale
 70
     0
300
4:1
140
4.0
141
1.0
290
     0
  0
SCALE
  5
5E
102
{ACAD_REACTORS
330
3C
102
}
330
3C
100
AcDbScale
 70
     0
300
8:1
140
8.0
141
1.0
290
     0
  0
SCALE
  5
5F
102
{ACAD_REACTORS
330
3C
102
}
330
3C
100
AcDbScale
 70
     0
300
10:1
140
10.0
141
1.0
290
     0
  0
SCALE
  5
60
102
{ACAD_REACTORS
330
3C
102
}
330
3C
100
AcDbScale
 70
     0
300
100:1
140
100.0
141
1.0
290
     0
  0
TABLESTYLE
  5
4C
102
{ACAD_XDICTIONARY
360
4D
102
}
102
{ACAD_REACTORS
330
3D
102
}
330
3D
100
AcDbTableStyle
  3
Standard
 70
     0
 71
     0
 40
1.5
 41
1.5
280
     0
281
     0
  7
Standard
140
4.5
170
     2
 62
     0
 63
     7
283
     0
274
    -2
284
     1
 64
     0
275
    -2
285
     1
 65
     0
276
    -2
286
     1
 66
     0
277
    -2
287
     1
 67
     0
278
    -2
288
     1
 68
     0
279
    -2
289
     1
 69
     0
  7
Standard
140
6.0
170
     5
 62
     0
 63
     7
283
     0
274
    -2
284
     1
 64
     0
275
    -2
285
     1
 65
     0
276
    -2
286
     1
 66
     0
277
    -2
287
     1
 67
     0
278
    -2
288
     1
 68
     0
279
    -2
289
     1
 69
     0
  7
Standard
140
4.5
170
     5
 62
     0
 63
     7
283
     0
274
    -2
284
     1
 64
     0
275
    -2
285
     1
 65
     0
276
    -2
286
     1
 66
     0
277
    -2
287
     1
 67
     0
278
    -2
288
     1
 68
     0
279
    -2
289
     1
 69
     0
  0
VISUALSTYLE
  5
2B
102
{ACAD_XDICTIONARY
360
1DD
102
}
102
{ACAD_REACTORS
330
2C
102
}
330
2C
100
AcDbVisualStyle
  2
2dWireframe
 70
     4
 71
     0
 72
     2
 73
     1
 90
        0
 40
-0.6
 41
-30.0
 62
     5
 63
     7
421
 16777215
 74
     1
 91
        4
 64
     7
 65
   257
 75
     1
175
     1
 42
1.0
 92
        0
 66
   257
 43
1.0
 76
     1
 77
     6
 78
     2
 67
     7
 79
     5
170
     0
171
     0
290
     0
174
     0
 93
        1
 44
0.0
173
     0
291
     0
 45
0.0
1001
ACAD
1000
AcDbSavedByObjectVersion
1070
     0
  0
VISUALSTYLE
  5
4E
102
{ACAD_XDICTIONARY
360
1E2
102
}
102
{ACAD_REACTORS
330
2C
102
}
330
2C
100
AcDbVisualStyle
  2
Realistic
 70
     8
 71
     2
 72
     3
 73
     0
 90
        2
 40
-0.6
 41
30.0
 62
     5
 63
     7
421
 16777215
 74
     0
 91
        0
 64
     7
 65
   257
 75
     1
175
     1
 42
1.0
 92
        8
 66
   257
 43
1.0
 76
     1
 77
     6
 78
     2
 67
     7
 79
     3
170
     0
171
     0
290
     0
174
     0
 93
       13
 44
0.0
173
     0
291
     0
 45
0.0
1001
ACAD
1000
AcDbSavedByObjectVersion
1070
     0
  0
VISUALSTYLE
  5
4F
102
{ACAD_XDICTIONARY
360
1E4
102
}
102
{ACAD_REACTORS
330
2C
102
}
330
2C
100
AcDbVisualStyle
  2
Wireframe
 70
     5
 71
     0
 72
     2
 73
     0
 90
        0
 40
-0.6
 41
-30.0
 62
     5
 63
     7
421
 16777215
 74
     1
 91
        4
 64
     7
 65
   257
 75
     1
175
     1
 42
1.0
 92
        0
 66
   257
 43
1.0
 76
     1
 77
     6
 78
     2
 67
     7
 79
     3
170
     0
171
     0
290
     0
174
     0
 93
        1
 44
0.0
173
     0
291
     0
 45
0.0
1001
ACAD
1000
AcDbSavedByObjectVersion
1070
     0
  0
DICTIONARYVAR
  5
40
102
{ACAD_REACTORS
330
3F
102
}
330
3F
100
DictionaryVariables
280
     0
  1
1:1
  0
DICTIONARYVAR
  5
41
102
{ACAD_REACTORS
330
3F
102
}
330
3F
100
DictionaryVariables
280
     0
  1
3.500000
  0
DICTIONARYVAR
  5
42
102
{ACAD_REACTORS
330
3F
102
}
330
3F
100
DictionaryVariables
280
     0
  1
acadiso.lin
  0
DICTIONARYVAR
  5
43
102
{ACAD_REACTORS
330
3F
102
}
330
3F
100
DictionaryVariables
280
     0
  1
STANDARD
  0
DICTIONARYVAR
  5
44
102
{ACAD_REACTORS
330
3F
102
}
330
3F
100
DictionaryVariables
280
     0
  1
STANDARD
  0
DICTIONARYVAR
  5
45
102
{ACAD_REACTORS
330
3F
102
}
330
3F
100
DictionaryVariables
280
     0
  1

  0
DICTIONARYVAR
  5
46
102
{ACAD_REACTORS
330
3F
102
}
330
3F
100
DictionaryVariables
280
     0
  1

  0
DICTIONARYVAR
  5
47
102
{ACAD_REACTORS
330
3F
102
}
330
3F
100
DictionaryVariables
280
     0
  1
2
  0
DICTIONARYVAR
  5
48
102
{ACAD_REACTORS
330
3F
102
}
330
3F
100
DictionaryVariables
280
     0
  1
1
  0
DICTIONARYVAR
  5
49
102
{ACAD_REACTORS
330
3F
102
}
330
3F
100
DictionaryVariables
280
     0
  1
0
  0
DICTIONARYVAR
  5
4A
102
{ACAD_REACTORS
330
3F
102
}
330
3F
100
DictionaryVariables
280
     0
  1
0
  0
DICTIONARYVAR
  5
1CE
102
{ACAD_REACTORS
330
3F
102
}
330
3F
100
DictionaryVariables
280
     0
  1
2
  0
DICTIONARYVAR
  5
1CD
102
{ACAD_REACTORS
330
3F
102
}
330
3F
100
DictionaryVariables
280
     0
  1
1
  0
DICTIONARYVAR
  5
1D0
102
{ACAD_REACTORS
330
3F
102
}
330
3F
100
DictionaryVariables
280
     0
  1
80.000000
  0
DICTIONARYVAR
  5
1CF
102
{ACAD_REACTORS
330
3F
102
}
330
3F
100
DictionaryVariables
280
     0
  1
5.000000
  0
DICTIONARYVAR
  5
1D1
102
{ACAD_REACTORS
330
3F
102
}
330
3F
100
DictionaryVariables
280
     0
  1
2
  0
DICTIONARY
  5
1DB
102
{ACAD_REACTORS
330
1D9
102
}
330
1D9
100
AcDbDictionary
281
     1
  0
DICTIONARY
  5
1DA
102
{ACAD_REACTORS
330
1D9
102
}
330
1D9
100
AcDbDictionary
281
     1
  3
2366874853056
350
1D4
  3
2366874853072
350
1D5
  3
2366874853088
350
1D6
  3
2366874853104
350
1D7
  3
2366874853120
350
1D8
  0
DICTIONARY
  5
18
330
16
100
AcDbDictionary
280
     1
281
     1
  0
DICTIONARY
  5
39
330
38
100
AcDbDictionary
280
     1
281
     1
  3
ACAD_XREC_ROUNDTRIP
360
1E0
  3
FBXASSET
360
3A
  0
DICTIONARY
  5
36
330
35
100
AcDbDictionary
280
     1
281
     1
  3
ACAD_XREC_ROUNDTRIP
360
1DF
  3
FBXASSET
360
37
  0
DICTIONARY
  5
D
330
B
100
AcDbDictionary
280
     1
281
     1
  3
ACAD_XREC_ROUNDTRIP
360
1DC
  3
BUMPTILE
360
E
  3
DIFFUSETILE
360
F
  3
FBXASSET
360
10
  3
OPACITYTILE
360
11
  3
REFLECTIONTILE
360
12
  0
DICTIONARY
  5
4D
330
4C
100
AcDbDictionary
280
     1
281
     1
  3
ACAD_ROUNDTRIP_2008_TABLESTYLE_CELLSTYLEMAP
360
1D2
  3
ACAD_XREC_ROUNDTRIP
360
1E1
  0
DICTIONARY
  5
1DD
330
2B
100
AcDbDictionary
280
     1
281
     1
  3
ACAD_XREC_ROUNDTRIP
360
1DE
  0
DICTIONARY
  5
1E2
330
4E
100
AcDbDictionary
280
     1
281
     1
  3
ACAD_XREC_ROUNDTRIP
360
1E3
  0
DICTIONARY
  5
1E4
330
4F
100
AcDbDictionary
280
     1
281
     1
  3
ACAD_XREC_ROUNDTRIP
360
1E5
  0
XRECORD
  5
1D4
102
{ACAD_REACTORS
330
1DA
102
}
330
1DA
100
AcDbXrecord
280
     1
  1
AcDb_Thumbnail_Schema
102
{ATTRRECORD
341
1D5
  2
AcDbDs::TreatedAsObjectData
280
     1
291
     1
102
ATTRRECORD}
102
{ATTRRECORD
341
1D6
  2
AcDbDs::Legacy
280
     1
291
     1
102
ATTRRECORD}
  2
AcDbDs::ID
280
    10
 91
        8
102
{ATTRRECORD
341
1D7
  2
AcDs:Indexable
280
     1
291
     1
102
ATTRRECORD}
102
{ATTRRECORD
341
1D8
  2
AcDbDs::HandleAttribute
280
     7
282
     1
102
ATTRRECORD}
  2
Thumbnail_Data
280
    15
 91
        0
  0
XRECORD
  5
1D5
102
{ACAD_REACTORS
330
1DA
102
}
330
1DA
100
AcDbXrecord
280
     1
  1
AcDbDs::TreatedAsObjectDataSchema
  2
AcDbDs::TreatedAsObjectData
280
     1
 91
        0
  0
XRECORD
  5
1D6
102
{ACAD_REACTORS
330
1DA
102
}
330
1DA
100
AcDbXrecord
280
     1
  1
AcDbDs::LegacySchema
  2
AcDbDs::Legacy
280
     1
 91
        0
  0
XRECORD
  5
1D7
102
{ACAD_REACTORS
330
1DA
102
}
330
1DA
100
AcDbXrecord
280
     1
  1
AcDbDs::IndexedPropertySchema
  2
AcDs:Indexable
280
     1
 91
        0
  0
XRECORD
  5
1D8
102
{ACAD_REACTORS
330
1DA
102
}
330
1DA
100
AcDbXrecord
280
     1
  1
AcDbDs::HandleAttributeSchema
  2
AcDbDs::HandleAttribute
280
     7
 91
        1
284
     1
  0
XRECORD
  5
1E0
102
{ACAD_REACTORS
330
39
102
}
330
39
100
AcDbXrecord
280
     1
102
MATERIAL
148
0.0
149
0.0
149
0.0
 93
        0
 94
       63
282
     0
 72
     1
 77
     1
171
     1
175
     1
179
     1
273
     0
  0
XRECORD
  5
3A
102
{ACAD_REACTORS
330
39
102
}
330
39
100
AcDbXrecord
280
     1
 70
     1
 90
429727718
  1
D62C5603-E3A1-4AEA-B7FB-FE5D8D0755AF
310
504B03040A0000080000CC70623B3DEE336E79000000790000001B0000006175746F6465736B2D64657369676E2D7061636B6167652E786D6C3C3F786D6C2076657273696F6E3D22312E302220656E636F64696E673D227574662D3822203F3E3C666F726D6174733E3C666F726D61743E687474703A2F2F736368656D612E
310
6175746F6465736B2E636F6D2F64657369676E2D7061636B6167652F323030393C2F666F726D61743E3C2F666F726D6174733E504B0304140006080800CC70623BD486FD9CA0000000F4000000130000005B436F6E74656E745F54797065735D2E786D6C7D8EC10E82300C865F65E91D8A1E8C310C0EEA1BF002731658846E
310
D98AC1B77784ABF1D8FE5FBFBF75BBCE937A534CCEB38643598122B6FEE978D0B0485F9C41B54DDD7D022595594E1A469170414C76A4D9A4D207E29CF43ECE46F218070CC6BECC4078ACAA135ACF422C856C0E68EA1BF5669944DDD7BCDE7B1F8E415D77AECB980613C2E4AC91FC167A2B244592486606FC29C8FD7F045B9A
310
EF7053A7E60B504B0304140006080800CC70623B853B8169EB0000007C01000008000000636F72652E786D6C8D90416EC3201045AF62CDB6C206821CC7C244919D9CA01740401C94182C03558F5F9C3852BBEB6A467FFE9B197D7EFC9E1EC5975982F5AE035262288C535E5B377690E21535501C055FBC8FBF6C503839990E
310
5619041F179FE64D52DE45E362569DD7661365082642A11EB9E920A89B99642953CC8E702F67A9EE7234257977194EC9EAE275C4EABCCF5EAD5940D4AC6F0E35A568B8F43562CD7046CD199FD07E60174276A7BE677B5EADB0E0D14EEFFB6A31321A0D82627C4084204C3F096B71DD52F6819B16635EADF63F509AF53FA164
310
5DDCD1EDDD17164090FCC8732078B56691CB33A85CD7DCC40F504B0304140006080800CC70623B55019EA25F0000007C00000007000000636E782E786D6C4DCB3B0E80201045D1AD90E915ED2CF8AC45050C11660C8261F98AB1B07AC9C97D42D718D865D3E909258CFD00CCE24AC6E326A164D74DC0B4128928FF32603847
310
2BA13128B1252AC747C6BAB984FC68F0B87FE8960A5C09FE86CFB69FBA01504B0304140006080800CC70623BDBABAAF470010000D40300000C0000006662782F636F72652E786D6CC553D16E823014FD95A6AF4B694182CC941A83FA05FB810A9511A125A5257EFE2E82712ECEB8A7F100CD39F7F69E734AF9FADC366850B6
310
AF8DCE7018308C942E4C59EB2AC3DE1D498AD15A706B8CFB56869196ADCAF00863C12B6B7C374385D14E6907A836A59A41D9F7CA615434B0C8705F7CAA5606D23BA8E84F41278B93AC54100640439DE0BDB320004D43C63716C7C399D30917DCFBBA9CD9BA8469F5B156168B24CED3F7248AC8769F27244EB73B92EED8862C
310
B7F13E0C179B3C8F979C8ECD82BBBABDAA2BAC924E9558448CBD9330242CFA08E3154B5651FCC6D215639C8EE5774DBE2B5F6CF2B5768B68963BB5F5588420E442FC700B1139D4CB01F450C1E918227C2E09DF070D8140C84E1E9AAB8F1340832A9CB13130A5F1376A908D57309505ECF2A0DF179C4E9D30F5B239B87E3823
310
7A79C6F31DE1A8A5AEC08474B03C7837EAE4938639B44E5932B833D2C6B6B279CDC613877FA26EE21F4A2A4C63EC7F29A2F301D1F9F7A0E37D145F504B0304140006080800CC70623B9C113CC27E0000009D0000000B0000006662782F636E782E786D6C4DCCDF0A83201C86E15B91DFB94BFB330DD428C8FB886521330DA7
310
6397BF1A1DECE883878F57749FCDA1B7892F1BBC047A23808C7F84D9FA55424E0BE6803A256208E9EF06C84F9B91703228B1C690F78B66B34CD9A5439DF5CF0BFBF65E35BCA1B8D6A5C6F540381E886698B5741C695F9503EBA150A2F8958E3DC3EA0B504B0304140006080800CC70623B7DF2F77C2A010000120200003100
310
00006662782F41393633353835312D344632462D344230382D423046372D3739314545314133324237412F636F72652E786D6C8D51DB8EC22014FC15C2939B0D2DB4B45643319AE817EC0F6041255A68B86CFCFC856D4D76DF7CE190393373060EDB3DC707F856CE6B6B7A480A0C81328395DA5C7B18C3057510EC3873D686
310
3F34088C18550F330C39BB3A1BA7051AAC09CA84841A2BD5020AEF55806078A44B0FFD7053A328440C89E1EFC52486BBB8AA8214A99D789CF9E05200300FC927E4FB4D5B375D43103D5527440FB843077C5AA3F5861C8F645F5787F59E95B390B318B55CE45AA638FAA2957BD7248B390B7A7CC51F9C124149C82B8C378810
310
84AB2F42B7B8DD56F413775B8C5999E9FF4471926F8AA236A1AE96B8B3CC434E5839373893369E1FAF30EA395917409EB7F26AF8801C171837A4A6AC9C89E9F9C9B1A58BA30FD6A5EF5DDDCF894B9AD9B6A59C957943A9FCAE2FD5BC4DFE03504B0304140006080800CC70623BAD7543B64E01000033030000300000006662
310
782F41393633353835312D344632462D344230382D423046372D3739314545314133324237412F636E782E786D6CD593CD6EC32010845F0571AD6CE3D48AD20813A9873E410FBD12D82434182C7EAAE6EDBB2424CD25871E7B41D6EC30B3FA84F9E67BB2E40B4234DE8DB46F1925E094D7C6ED479AD3AE5951B2113C789FEE
310
6C943839C1488B4C05DF079FE72A69D8C96C13AAD6B8631503449F83828872B949AC57D26200B826A308D316B4064D6E46FCDA41C05550DC9E483A00797BFD207EFB092A45DE9514C1BBD22178396BD39D891265658C238DEA00936C654E5E433CB65A26D9F6EDB5EBC14EBF49A45CB856E66048291F6939A9A81BB5C89177
310
38143CA680F4AA299D66A042CEB3354A2684DC9D8D178FE0D9B8B41CAAD720F880EE7EF93C0C18769E099ECC04D5A102C8049A8A05632F4DDF376CF1DE0F6BB65C2F8627B65A33C6BB62177CEBBDAD973006829F89F22E814B54F4BC2BE347F8AA8F681390B50FA73F804400B5F542E796F19FF974E7F78DB802FE05E20750
310
4B0304140006080800CC70623BE75B7789680500003C100000340000006662782F41393633353835312D344632462D344230382D423046372D3739314545314133324237412F6F626A656374732E786D6CAD575B8F9B3818FD2B887D06C22499CB8AA1CA655245D5B455A356FB305264C061D8018C6C3393D95FBFC7600890
310
A4CD5EF210B0B1BFEBF98E3F7B1FF6596ABC522E1296DF9BAE3D320D9A872C4AF2F8DE2CE5CEBA358D0FBEC719939D65A691938CDE9B6ADAF4BD98B3B2D05311DD91329583D9D5FC0F438434A7A611A644887B5384CF34233629258BA878B12322891DEFF6B66BD70BFB62634E8AE781D082709A4B588AF91C528CDA28B73F
310
1C998EEF39EABBEFA97FBD6A7C7E9553F9D3D79FE442923C3C523610337627CB87ABE99D359D4CC6D6E4FACAB5E6ABF9D2726FC6A3C5F56271377BB88362213924694B38DD99FE47C48627A1E7D49F5A8BB5E1A74C0A599ED3B0F21F1E56366B89112D681E218F0915D0D6F17AD41FBA2A369DCF6335D62ABBD39779D5DDD1
310
11D4D8DE3CBB96B2E04FB8202E41051754A1AA8E8F76B4C6DFE810B580B1547F4B84911149794252234D024EF8BBE963A95AE27B3D310A9D5C215C7960FAEE415ED75694C6AFB17BCACA5D99A60A9AA65F217B0BFC53292ACB92BF283FAD0D3621576592CB5BED907C2FA8E9DF794E35E97BEA31BED21FEB401ABB94C44839
310
DCACBF0E1C5DA8DA5B2F4DFFD32AD86F543D9E565E7056502E157C00AD2671CD534549AB752FCA9CDA00677A313F04E51B22FF19E57B300579E3C97EB29F682D92935CEC18CF901B7B54FD8C51F362B56FC72FE0B3C1EAE335EDCCBF5AEC39ADB17DC238973F804BA5E6F6BFE7AF1FB32E523BE9F3BD571418E3631DCA4D48
310
5250CF639223210A9446CA30052EDF057BD35F8329C1ECD84552BF0DC8D18BE7BCE23BFE6BD960AB4A7DE79923A103BEBD80F911CBAA2C60DB19B01CF164A5583B772EE6D3FFA56666CBCDA74DC97724A48F9A58967497E489C4D979006FD7A05E227A1EBDD0F737C623387A9C844D3709995625106D157315F8B8392CD4E0
310
A0B9A720C4BE9829CEF37EA1E13111214D53925356365ADA634861B52519DD27A00AEB808EAF0628E6F435519D446F45CF2C9CF5214F0A15B2F6D06B79DA3EE3CBF7F56780D2F4E7EF73A0F5E5B02A38D07DC852C6B7C1FBB6664213E0C39E3EBA7FF4E1AD23EA2829407C85E586727488B751B2DB9502BC7B228A3FD68B6E
310
A65A22397E690AA8D158D7E404EC8CDA235CC3B7D1898680131CEC2CDF2638C65196279577750F15884AEE19F94199155B92B13297978469D4F8D358DF0AEF7631E28DC8F0D9F437D5D39A83B2231A1D52D543813A824EF8D44BCFF2FA6A31BD1E8DAD87F1CCB526B3879935BF59CDADD5C37479BB1CDD4CA7B3556B516589
310
EF352754B706114D9C885EC9131DE6EFEB43D99AFE2391C2F958179413D7CFEF6B1B6DB1E7600F00DE6E5C67454A339A4BA2E0FBA85ED26F045D454F463DBFCE484C2F90F2E5E3666003662ED8F755951A7D1BECD5B30B550B2785C8E7320B7292A4838DDA71BBC863ED7613CAF659337A3354231D4FF4A182A54904C2898C
310
98B28C4AD0CE056CCF332A80986E571EE9DBC305BB5FEB7E509220A58D25CF042D712A806AC0AD0C657FDEF80D2D9CEAA2EE4D1C76F60BFE74219A06527D6F82DF6412526107381E55E353090704D085B52408A8913C4ED159D79BDA71BB4BC506F4831350EB6F975CD22D69BF7AC49B91A2C0A9DDA3D5CA36AD20FC478E37
310
E61844E2352865EBCB61A275A65283CAAA9DD27703B4102F5AF51EF5F573B75CBB5AD38BC845F7A49F82A0966A49C2E3EA5EA0ECD326CD965F1DB402C6FA8B51A4658C5C5E2EC9E214602E55810345408596591009A82E7E7FFACA19EEA299B14A0081A705CB3296EBC14CDF658DCD336EA6D1136881AAEB87B81AB9EE53D5
310
F5EB8BC8362082DA24122F98680A4E7930C01A0079749CEA14382A0783E5EBA5A10F8C098456A03D6A4AEB6BB881E2513747552A5DB22C7EDAF83BD5528081A365F7FF06504B0304140006080000CC70623B000000000000000000000000350000006662782F41393633353835312D344632462D344230382D423046372D37
310
39314545314133324237412F76657274696365732E62696E504B0304140006080800CC70623BF270F1330600000004000000360000006662782F41393633353835312D344632462D344230382D423046372D3739314545314133324237412F747269616E676C65732E62696E636660600000504B0304140006080000CC7062
310
3B000000000000000000000000370000006662782F41393633353835312D344632462D344230382D423046372D3739314545314133324237412F617474726962757465732E62696E504B0304140006080800CC70623B08DA0BD19000000041010000360000006662782F41393633353835312D344632462D344230382D4230
310
46372D3739314545314133324237412F6469726563746F72792E786D6C858F410AC3201045AF22B36F53E9A60B35CBEEBAE80D244E44489C6234F4F835464A48035D0DF398FF9F8AF63D0E6CC63039F212F8F9020C7D47C6792B21C5FE7403D62A1188E2E60C98D7234A5830286103A55745067B9D86B8A3CF9C7F90C11DE6
310
07FB144396D7B6A82D282E9A152AD114D5EF2CB866EEE831B8EEA07A7BB5A8D7D61A2BAAEB7FD5F70921FF497D00504B0304140006080800CC70623BEDD1DC58FD000000A00100003B0000006662782F41393633353835312D344632462D344230382D423046372D3739314545314133324237412F7265736F75726365732F
310
636F72652E786D6C8D504B6E833010BD0A9A6D65B00922041947112427E8052C33A156828DFCA97AFC9A40A576D7CDCCE87D344F8F9FBFE667F689CE6B6B3A6039850C8DB2A336530731DC4903D95970676DF82583CCC8193B5861107C72362E3BA4AC096842428D1D7107A5F7182053CF7474E0D507CE32973124857FE48B
310
540F3961CEF244279DE03EB81420DB9EAC1384436FA353E879B1B182C7A8C75DA3C7F453DF353A1075D537A7BA6464B8F535A99AE14A9A2BBD90E350DD183B5CFABE3AF262350B1EF4FC9351399401471025A527C218A1E53BAB5A5AB765F5469B96525EACF23FA6B88CFF34456DC2A1DCE36E360F82A5202F42F062ED2BAD
310
579969AFDD8A6F504B010214000A0000080000CC70623B3DEE336E79000000790000001B00000000000000000000000000000000006175746F6465736B2D64657369676E2D7061636B6167652E786D6C504B01021400140006080800CC70623BD486FD9CA0000000F40000001300000000000000000000000000B20000005B
310
436F6E74656E745F54797065735D2E786D6C504B01021400140006080800CC70623B853B8169EB0000007C010000080000000000000000000000000083010000636F72652E786D6C504B01021400140006080800CC70623B55019EA25F0000007C000000070000000000000000000000000094020000636E782E786D6C504B
310
01021400140006080800CC70623BDBABAAF470010000D40300000C00000000000000000000000000180300006662782F636F72652E786D6C504B01021400140006080800CC70623B9C113CC27E0000009D0000000B00000000000000000000000000B20400006662782F636E782E786D6C504B01021400140006080800CC70
310
623B7DF2F77C2A010000120200003100000000000000000000000000590500006662782F41393633353835312D344632462D344230382D423046372D3739314545314133324237412F636F72652E786D6C504B01021400140006080800CC70623BAD7543B64E010000330300003000000000000000000000000000D2060000
310
6662782F41393633353835312D344632462D344230382D423046372D3739314545314133324237412F636E782E786D6C504B01021400140006080800CC70623BE75B7789680500003C10000034000000000000000000000000006E0800006662782F41393633353835312D344632462D344230382D423046372D3739314545
310
314133324237412F6F626A656374732E786D6C504B01021400140006080000CC70623B0000000000000000000000003500000000000000000000000000280E00006662782F41393633353835312D344632462D344230382D423046372D3739314545314133324237412F76657274696365732E62696E504B01021400140006
310
080800CC70623BF270F133060000000400000036000000000000000000000000007B0E00006662782F41393633353835312D344632462D344230382D423046372D3739314545314133324237412F747269616E676C65732E62696E504B01021400140006080000CC70623B0000000000000000000000003700000000000000
310
000000000000D50E00006662782F41393633353835312D344632462D344230382D423046372D3739314545314133324237412F617474726962757465732E62696E504B01021400140006080800CC70623B08DA0BD1900000004101000036000000000000000000000000002A0F00006662782F41393633353835312D344632
310
462D344230382D423046372D3739314545314133324237412F6469726563746F72792E786D6C504B01021400140006080800CC70623BEDD1DC58FD000000A00100003B000000000000000000000000000E1000006662782F41393633353835312D344632462D344230382D423046372D3739314545314133324237412F7265
310
736F75726365732F636F72652E786D6C504B0506000000000E000E0080040000641100000000
  0
XRECORD
  5
1DF
102
{ACAD_REACTORS
330
36
102
}
330
36
100
AcDbXrecord
280
     1
102
MATERIAL
148
0.0
149
0.0
149
0.0
 93
        0
 94
       63
282
     0
 72
     1
 77
     1
171
     1
175
     1
179
     1
273
     0
  0
XRECORD
  5
37
102
{ACAD_REACTORS
330
36
102
}
330
36
100
AcDbXrecord
280
     1
 70
     1
 90
429727718
  1
30362254-06B7-45E0-A893-8CFA70E3D6BC
310
504B03040A0000080000CC70623B3DEE336E79000000790000001B0000006175746F6465736B2D64657369676E2D7061636B6167652E786D6C3C3F786D6C2076657273696F6E3D22312E302220656E636F64696E673D227574662D3822203F3E3C666F726D6174733E3C666F726D61743E687474703A2F2F736368656D612E
310
6175746F6465736B2E636F6D2F64657369676E2D7061636B6167652F323030393C2F666F726D61743E3C2F666F726D6174733E504B0304140006080800CC70623BD486FD9CA0000000F4000000130000005B436F6E74656E745F54797065735D2E786D6C7D8EC10E82300C865F65E91D8A1E8C310C0EEA1BF002731658846E
310
D98AC1B77784ABF1D8FE5FBFBF75BBCE937A534CCEB38643598122B6FEE978D0B0485F9C41B54DDD7D022595594E1A469170414C76A4D9A4D207E29CF43ECE46F218070CC6BECC4078ACAA135ACF422C856C0E68EA1BF5669944DDD7BCDE7B1F8E415D77AECB980613C2E4AC91FC167A2B244592486606FC29C8FD7F045B9A
310
EF7053A7E60B504B0304140006080800CC70623B1EC5D7A3EB0000007C01000008000000636F72652E786D6C8D90416EC3201045AF82665B6103C6756C6122AB4D4ED00B204C5C94182C03558F5F9C3852BBEB6A467FFE9B197D71FC9E6FE8CBACC17AD7032D0820E3B41FAD9B7A48F1820F808E52ACDEC75F36404ECDA687
310
4D0629A6D5A76597B477D1B89855E747B38B2A041301E95B6E7A08FAD3CCAA50296647B8168BD2573599823EBB0CA76447F43862C7BCCF5EAC59410E4DDD9C7973C2755553CCCFA4C603E3040F1565ED3B1FDE4E432BCA0D9622DAF9795FAF464533826484B498524CD807E51D79ED187F21878E10516EF63F505AC67F42C9
310
BA58B1FDDD071640D2FCC87D2045B96591CB3DA85CB7DCE40F504B0304140006080800CC70623B55019EA25F0000007C00000007000000636E782E786D6C4DCB3B0E80201045D1AD90E915ED2CF8AC45050C11660C8261F98AB1B07AC9C97D42D718D865D3E909258CFD00CCE24AC6E326A164D74DC0B4128928FF32603847
310
2BA13128B1252AC747C6BAB984FC68F0B87FE8960A5C09FE86CFB69FBA01504B0304140006080800CC70623B8C9102E971010000D40300000C0000006662782F636F72652E786D6CC5535B6E833010BC8AE5DF0A6C08340F1947A84D4ED00B38C6A128602363A31CBFCB234A53A551FA553EC09AD9F5CE8C31DB9E9B1AF5CA
310
7695D1198E428A91D2D214952E33ECDD315861B4E5CC1AE3BE9561A445A3323CC098B3D21ADFCE9034DA29ED00D5A6503328BA4E398C640D8B0C77F253352214DE4145770A5B214FA2546114020D759C75CE8200340D19DE981F0F6746269C33EFAB6266AB02A655C74A59CCF365BADC27CB5D902ED22848F6340DF238A141
310
BE88E2F57B92BFEDF23523433367AE6A2EEAA455C2A902F398D2751045018D3FA264435F3771F242571B4A1919CA6F9A7C5B3CD9E42BED16F12C776AEB308F40C848FC700B1139D4891EF410CEC810227CC6846F8386402064270EF5C5C709A05E49676C024C61FC95EA45ED154CA5211D1FF4FB8291A913A68E9B83EBBB33
310
E2A7673CDE118E5AE8124C0807CB8377834E366998436B950D7A7746DAD846D4CFD978E0F04FD455FC5D49D2D4C6FE9722321F10997F0F32DC47FE05504B0304140006080800CC70623BFFEA85907E0000009D0000000B0000006662782F636E782E786D6C4DCCD10A83201886E15B91FFDC95D95A811AB6F23E625948A6C3
310
E9D8E5AF46073BFAE0E1E365ED67B3E8ADC3CB78C7815C7240DA3DFC64DCC221C519D7805AC182F7F1EF06C88D9BE6703008B6049F9E274D7A1E938DBB5AE3D6131B2589BA0D3D965551E0B2EA732C9B9A624AAEB41E3A557677029960D9AFB4EF11165F504B0304140006080800CC70623B4FEEA4082C0100001202000031
310
0000006662782F39464131463745442D413632322D343644302D413938332D3331353338454246344243312F636F72652E786D6C8D515B6EC32010BC0AE2AB55850DD871ED0813254D72825EC00192A2C460F1A872FC42ED48ED5F7E00CDCECCCEB26C731F6FE05B39AFADE921293004CA082BB5B9F43086336A21D870E6AC
310
0D7F68109861543DCC30E4ECE26C9C164858139409093556AA051CBC570102714B8F1E7AF1A5C6A11862480C7F2DA6415C878B2A4891CA89C7990F2E050073937C42DE1DB7E4F87ED8A36D4329AA9B3D46DBAEAD504556557BD81DEBDD0761E52CE42C462D17B996298E3E6BE59E35C962CE821E1FF18553435012728A7187
310
0841987E927A8D9B35ADDF70BBC6989599FE4F1427F9A4286A132ABAC49D651EF234CD5CE04CDA78BA3DC2A8FB645D00B9DF8B57E215725C60BCA2A463E54C4CE327C7A65E1C7DB02E7DEFCBF594B864C5CA6CDBD49C957943E9FA5D5FBAF336F90F504B0304140006080800CC70623BAD7543B64E01000033030000300000
310
006662782F39464131463745442D413632322D343644302D413938332D3331353338454246344243312F636E782E786D6CD593CD6EC32010845F0571AD6CE3D48AD20813A9873E410FBD12D82434182C7EAAE6EDBB2424CD25871E7B41D6EC30B3FA84F9E67BB2E40B4234DE8DB46F1925E094D7C6ED479AD3AE5951B2113C
310
789FEE6C943839C1488B4C05DF079FE72A69D8C96C13AAD6B8631503449F83828872B949AC57D26200B826A308D316B4064D6E46FCDA41C05550DC9E483A00797BFD207EFB092A45DE9514C1BBD22178396BD39D891265658C238DEA00936C654E5E433CB65A26D9F6EDB5EBC14EBF49A45CB856E66048291F6939A9A81BB5
310
C8917738143CA680F4AA299D66A042CEB3354A2684DC9D8D178FE0D9B8B41CAAD720F880EE7EF93C0C18769E099ECC04D5A102C8049A8A05632F4DDF376CF1DE0F6BB65C2F8627B65A33C6BB62177CEBBDAD973006829F89F22E814B54F4BC2BE347F8AA8F681390B50FA73F804400B5F542E796F19FF974E7F78DB802FE05
310
E207504B0304140006080800CC70623B16AB87BA640500003C100000340000006662782F39464131463745442D413632322D343644302D413938332D3331353338454246344243312F6F626A656374732E786D6CAD575B6FA33818FD2B887DE6924B3BED8A326A92B68A663B534DD4D13E548A0C38942D60649B369D5FBFC7
310
600890A493BDE42160637FD7F31D7FF63E6FB3D478A55C242CBF3247B66B1A340F5994E4F19559CA8D75611A9F7D8F33263BCB4C232719BD32D5B4E97B316765A1A722BA21652A07B3B7B33F0D11D29C9A46981221AE4C113ED38CD8A4942CA2E2C58E882476BCD9DA23BB5ED8171B73523C0F841684D35CC252CCE79062D4
310
468DFA43D7747CCF51DF7D4FFDEB5593E3AB9CCA9FBEFE241792E4E19EB28198C968BAB8199F5D5A67D3E9C49A9E8F47D6EC76B6B0469F26EEFC7C3EBFBCBEB98462213924694B38DD98FE1D62C393D073EA4FADC5DAF04326852CCF6958F90F0F2B9BB5C48816348F90C7840A68EB78EDF68723159BCEE7891A6B95DDE9D3
310
BCEAEEE8086A6C6F9E5D4B59F0175C10A7A0820BAA5055C7473B5AE3CFDD452D602CD5DF12616444529E90D448938013FE6EFA58AA96F85E4F8C42275708571E98FE6827AF6B2B4AE3D7D83D64E5A64C53054DD3AF90BD06FEA9149565C94FCA0F6B834DC85599E4F2423B24DF0B6AFA979E534DFA9E7A4CC6FA631D486393
310
921829879BF5D781A373557BCB85E97FB90DB62B558F8795179C15944B051F40AB495CF35451D26A4727654E6D8033BD98EF82F21D91FF8AF2DD9982BCF1643BDD4EB516C9492E368C67C88DED563FC36D5EACF66DFF057C3658BDBFA69DF9578B3DA735B64F18C7F20770A9D45CFCF7FCF563D6456A277DBEF78A02637CA2
310
43B90A490AEAB94F72244481D24819A6C0E59B606BFA4B3025981DBB48EAB701D97BF19C577CC77F2D1B6C55A9EF3C732474C0B727303F625995056C3B02963D9EAC146BE78EC5FCEC7FA999EBC5EACBAAE41B12D27B4D2C0BBA49F244E2ECDC81B76B502F113D8F5EE8FB1BE3111CDD4FC2AA9B844CAB1288B68AB90A7CDC
310
1C166AB0D3DC5310625FCC14E779BFD0709F8890A629C9292B1B2DED31A4B0DA928CEE135085754027E3018A397D4D5427D15BD1330B677DC8934285AC3DF45A9EB68FF8F2B8FC0A509AFEECFD0FF2DE25CC6047F7214B195F07EFEB9A094D800F7BFAE8FED187B78EA8A3A400F115961BCAD1215E47C966530AF0EE8128FE
310
58CEBB996A8964FFA529A046635D9353B0336A8F700DDF46271A024E70B0B37C9DE01847591E54DED53D54202AB947E4076556AC49C6CA5C9E1226B7F1A7B1BE15DEED62C41B91E1B3E9AFAAA735036547343A925075041DF0A9979E893B391F8FCFA6967B3EFB644DCF6E5CEBFAE272625DCC6FAF3FB93793C5F90CE1EF57
310
407342756B10D1C489E8953CD1617E5CEECAD6F4EF8914CE5D5D504E5C3F1F9736DA62CFC11E00BCDDB8CC8A9466349744C1F75EBDA4DF09BA8A9E8C7A7E9991989E20E5DBDD6A6003664ED8F7A04A8DBE0DF6EAD9B9AA858342E47399053949D2C146EDB85DE4B176BB0965FBAC19BD19AA918E27FA50C1D22402E144464C
310
59462568E704B6E71915404CB72B8FF4EDE184DDAF753F284990D2C6926782963815403548A70C657FDEF80D2D9CEAA2AE4C1C76F60BFE74219A06527D6582DF6412526107381E55E353090704D085B52408D0933C4ED159D79BDA71BB4BC506F4831350EB6F979CD22D69BF7AC49B91A2C0A9DDA3D5CA36AD20FC478E37E6
310
1844E2352865EBCB6EA275A652E3836BE04EFB400BF1A2556F515F1FBB35B2AB35BD889C744FFA1004B5544B121E57F70215746DD2F5E2C1412B602CBF19455AC6C8E5E9922C4E01E65215385004546899059180EAFCF7A707CE7017CD8CDB0410789AB32C63B91E5CEBBBACB17AC6CD347A022D5075FD106377347AAABA7E
310
7D11590744509B44E205134DC1290F06580320F78E537D3D73540E06CB970B431F185308AD40BBD794D6D77003C5A36E8EAA54BA64597CD8F83BD552A080A365F7FF06504B0304140006080000CC70623B000000000000000000000000350000006662782F39464131463745442D413632322D343644302D413938332D3331
310
353338454246344243312F76657274696365732E62696E504B0304140006080800CC70623BF270F1330600000004000000360000006662782F39464131463745442D413632322D343644302D413938332D3331353338454246344243312F747269616E676C65732E62696E636660600000504B0304140006080000CC70623B
310
000000000000000000000000370000006662782F39464131463745442D413632322D343644302D413938332D3331353338454246344243312F617474726962757465732E62696E504B0304140006080800CC70623B08DA0BD19000000041010000360000006662782F39464131463745442D413632322D343644302D413938
310
332D3331353338454246344243312F6469726563746F72792E786D6C858F410AC3201045AF22B36F53E9A60B35CBEEBAE80D244E44489C6234F4F835464A48035D0DF398FF9F8AF63D0E6CC63039F212F8F9020C7D47C6792B21C5FE7403D62A1188E2E60C98D7234A5830286103A55745067B9D86B8A3CF9C7F90C11DE607
310
FB144396D7B6A82D282E9A152AD114D5EF2CB866EEE831B8EEA07A7BB5A8D7D61A2BAAEB7FD5F70921FF497D00504B0304140006080800CC70623B0D6EF93BFE000000A00100003B0000006662782F39464131463745442D413632322D343644302D413938332D3331353338454246344243312F7265736F75726365732F63
310
6F72652E786D6C8D50596E833010BD0A9ADFCA60B334011947A8694ED00B586642AC041B79A97AFC9A40A5F6AF3F33A3B7689E1E3F7DCD8FEC139DD7D6F4C0720A191A65476DA61E62B892236427C19DB5E1970C322367EC618541F0C9D9B8EC90B226A009093576C41D94DE63804C3DD2D18357379C652E63480A7FCF17A9
310
EE72C29CE5894E3AC17D702940B63D59270887DE46A7D0F36263058F518FBB468FE9A7BE6A7420864373B8D4873369AA8691FA421B3294352543C5CAF65C0F6FEF43CB8BD52C78D0F34F46E550061C419494B6843142CB0F5677F4B52BEB177AEC28E5C52AFF638ACBF84F53D42654E51E77B379102C05791282176B5F693D
310
CB4C7BED567C03504B010214000A0000080000CC70623B3DEE336E79000000790000001B00000000000000000000000000000000006175746F6465736B2D64657369676E2D7061636B6167652E786D6C504B01021400140006080800CC70623BD486FD9CA0000000F40000001300000000000000000000000000B20000005B
310
436F6E74656E745F54797065735D2E786D6C504B01021400140006080800CC70623B1EC5D7A3EB0000007C010000080000000000000000000000000083010000636F72652E786D6C504B01021400140006080800CC70623B55019EA25F0000007C000000070000000000000000000000000094020000636E782E786D6C504B
310
01021400140006080800CC70623B8C9102E971010000D40300000C00000000000000000000000000180300006662782F636F72652E786D6C504B01021400140006080800CC70623BFFEA85907E0000009D0000000B00000000000000000000000000B30400006662782F636E782E786D6C504B01021400140006080800CC70
310
623B4FEEA4082C0100001202000031000000000000000000000000005A0500006662782F39464131463745442D413632322D343644302D413938332D3331353338454246344243312F636F72652E786D6C504B01021400140006080800CC70623BAD7543B64E010000330300003000000000000000000000000000D5060000
310
6662782F39464131463745442D413632322D343644302D413938332D3331353338454246344243312F636E782E786D6C504B01021400140006080800CC70623B16AB87BA640500003C1000003400000000000000000000000000710800006662782F39464131463745442D413632322D343644302D413938332D3331353338
310
454246344243312F6F626A656374732E786D6C504B01021400140006080000CC70623B0000000000000000000000003500000000000000000000000000270E00006662782F39464131463745442D413632322D343644302D413938332D3331353338454246344243312F76657274696365732E62696E504B01021400140006
310
080800CC70623BF270F133060000000400000036000000000000000000000000007A0E00006662782F39464131463745442D413632322D343644302D413938332D3331353338454246344243312F747269616E676C65732E62696E504B01021400140006080000CC70623B0000000000000000000000003700000000000000
310
000000000000D40E00006662782F39464131463745442D413632322D343644302D413938332D3331353338454246344243312F617474726962757465732E62696E504B01021400140006080800CC70623B08DA0BD190000000410100003600000000000000000000000000290F00006662782F39464131463745442D413632
310
322D343644302D413938332D3331353338454246344243312F6469726563746F72792E786D6C504B01021400140006080800CC70623B0D6EF93BFE000000A00100003B000000000000000000000000000D1000006662782F39464131463745442D413632322D343644302D413938332D3331353338454246344243312F7265
310
736F75726365732F636F72652E786D6C504B0506000000000E000E0080040000641100000000
  0
XRECORD
  5
1DC
102
{ACAD_REACTORS
330
D
102
}
330
D
100
AcDbXrecord
280
     1
102
MATERIAL
148
0.0
149
0.0
149
0.0
 93
        0
 94
       63
282
     0
 72
     1
 77
     1
171
     1
175
     1
179
     1
273
     0
  0
XRECORD
  5
E
102
{ACAD_REACTORS
330
D
102
}
330
D
100
AcDbXrecord
280
     1
270
     1
271
     1
  0
XRECORD
  5
F
102
{ACAD_REACTORS
330
D
102
}
330
D
100
AcDbXrecord
280
     1
270
     1
271
     1
  0
XRECORD
  5
10
102
{ACAD_REACTORS
330
D
102
}
330
D
100
AcDbXrecord
280
     1
 70
     0
 90
1673772943
  1
ECE7A1D2-D628-4531-984C-D00F80459256
310
504B03040A0000080000CC70623B3DEE336E79000000790000001B0000006175746F6465736B2D64657369676E2D7061636B6167652E786D6C3C3F786D6C2076657273696F6E3D22312E302220656E636F64696E673D227574662D3822203F3E3C666F726D6174733E3C666F726D61743E687474703A2F2F736368656D612E
310
6175746F6465736B2E636F6D2F64657369676E2D7061636B6167652F323030393C2F666F726D61743E3C2F666F726D6174733E504B0304140006080800CC70623BD486FD9CA0000000F4000000130000005B436F6E74656E745F54797065735D2E786D6C7D8EC10E82300C865F65E91D8A1E8C310C0EEA1BF002731658846E
310
D98AC1B77784ABF1D8FE5FBFBF75BBCE937A534CCEB38643598122B6FEE978D0B0485F9C41B54DDD7D022595594E1A469170414C76A4D9A4D207E29CF43ECE46F218070CC6BECC4078ACAA135ACF422C856C0E68EA1BF5669944DDD7BCDE7B1F8E415D77AECB980613C2E4AC91FC167A2B244592486606FC29C8FD7F045B9A
310
EF7053A7E60B504B0304140006080800CC70623BD9DDAED0EC0000007C01000008000000636F72652E786D6C8D90416EC3201045AF82665B61836D9CD8C2444DD39CA01740405C94182C03558F5F9C3852BBEB6A467FFE9B197D7EF89E6EE8CB2CC17A37002D0820E394D7D68D03A478C17B4007C117EFE32F1B20272733C0
310
2A83E0E3E2D3BC49CABB685CCCAAF3DA6CA20CC14440EA969B0182FA34932C648AD911AEC52CD5558EA6A0CF2EC329598D1E47ACCEFBECC59A050463A7EA5833865FEBDD0E37353BE3EE8DBDE3F6786A48D375FBF6CC78B9C282473B3DEFABC5C86834888A900E538A49F5419B9EB47DD5BC907D4F082F57FB1F28CDFA9F50
310
B22ED6D5F6EE030B20687EE43E10BC5CB3C8E51E54AE6B6EE207504B0304140006080800CC70623B55019EA25F0000007C00000007000000636E782E786D6C4DCB3B0E80201045D1AD90E915ED2CF8AC45050C11660C8261F98AB1B07AC9C97D42D718D865D3E909258CFD00CCE24AC6E326A164D74DC0B4128928FF326038
310
472BA13128B1252AC747C6BAB984FC68F0B87FE8960A5C09FE86CFB69FBA01504B0304140006080800CC70623BA24EB22D72010000D40300000C0000006662782F636F72652E786D6CC5535B6E833010BC8AE5DF0A6C5E49888CA3A6694ED00B38E05014B091B1518EDFE511A5A9D228FD2A1F60CDEC7A67C6986DCE4D8D7A
310
69BA4AAB0C073EC548AA5C17952A33ECECD15B61B4E1CC686DBF9561A44423333CC098B3D268D7CE50AE9595CA02AA74216750749DB418E5352C32DCE59FB211BE70162ABA93DF8AFC244AE9073ED050C759670D0840D390E18DF9F1706664C23973AE2A66B62A605A75ACA4C13C4976E1364A12EF355A2EBD384AF65EFA96
310
BC7B8BED2EA6719AAE16FB8491A199335B351775B991C2CA02F390D2D40B028F861F41BCA68B7518BFD0D59A524686F29B26D7164F36B94AD9289CE54E6D1DE6010819891F6E21228B3AD1831EC219194284CF98F06DD01008846CC5A1BEF83801D4CBDC6A1303536877A57A513B0953A94FC707FDBE6064EA84A9E3E6E0FA
310
EE8CF0E9198F7784A316AA0413C2C2F2E0ECA0934D1AE6D05A69BCDE9E91D2A611F573361E38FC1375157F5752AE6B6DFE4B11990F88CCBF0719EE23FF02504B0304140006080800CC70623B408A7D3B7C0000009D0000000B0000006662782F636E782E786D6C4DCCD10A83201886E15B91FFDC552A92A0064DBC8F581632
310
D3703A76F9ABD1C18E3E78F878E5F0D9027ABBFCF2292AE86E2D20171F69F6715550CB827B40839639A5F2770314A7CD293819B45C73AAFB45B35BA61ACAA1C1C7E7855C58C15BC331339661262CC762340413D68D77DA5B42298546CBE6573AF60CEB2F504B0304140006080800CC70623B449FB9BD290100001202000031
310
0000006662782F36394639363044362D344446342D343946362D394244322D3234314243333846323333332F636F72652E786D6C8D515B6EC32010BC0AE22B55850D98B871848994463E412FE002495162B07854397EA176A4F62F3F2C9A9D991D587EB84F37F0AD7D30CEF6905418026DA553C65E7A98E219ED203808EE9D
310
8B7F6810D871D23D2C3014FCE25D9A57483A1BB58D19B54EE9151C43D0110279CB971E06F9A5A7B11A53CC8C70ADE6515EC78BAE4895DB992778883E0700CB907242D17643D7E2538BD869608875438BBAE38922CAC8F1BDD90DB4691A5E2F42C153326A951B95E398B3D1FE599322163C9AE9115F7A3D46ADA0A018778810
310
84E907617BDCEE297BC5BB3DC6BC2EF47FA234AB2745C9D8D8D035EE220B50105E2F0DC1954B9FB747187D9F9D8FA0CCDB042D5FA0C015C65B42DF78BD10F3F3B363CB56C7109DCFDFBBB97E662ED92EB62D13BC2E1BCAE5777DB9966D8A1F504B0304140006080800CC70623BAD7543B64E01000033030000300000006662
310
782F36394639363044362D344446342D343946362D394244322D3234314243333846323333332F636E782E786D6CD593CD6EC32010845F0571AD6CE3D48AD20813A9873E410FBD12D82434182C7EAAE6EDBB2424CD25871E7B41D6EC30B3FA84F9E67BB2E40B4234DE8DB46F1925E094D7C6ED479AD3AE5951B2113C789FEE
310
6C943839C1488B4C05DF079FE72A69D8C96C13AAD6B8631503449F83828872B949AC57D26200B826A308D316B4064D6E46FCDA41C05550DC9E483A00797BFD207EFB092A45DE9514C1BBD22178396BD39D891265658C238DEA00936C654E5E433CB65A26D9F6EDB5EBC14EBF49A45CB856E66048291F6939A9A81BB5C89177
310
38143CA680F4AA299D66A042CEB3354A2684DC9D8D178FE0D9B8B41CAAD720F880EE7EF93C0C18769E099ECC04D5A102C8049A8A05632F4DDF376CF1DE0F6BB65C2F8627B65A33C6BB62177CEBBDAD973006829F89F22E814B54F4BC2BE347F8AA8F681390B50FA73F804400B5F542E796F19FF974E7F78DB802FE05E20750
310
4B0304140006080800CC70623B8D05915C650500003B100000340000006662782F36394639363044362D344446342D343946362D394244322D3234314243333846323333332F6F626A656374732E786D6CAD575B6FA33814FE2B887D06429276DA1565D4266D158D3A339A6846FB502932E050B66023DB74D2FDF5FB190C01
310
9276B2973C046C8ECFF53B17071F77456EBD502133CEAE6CDF9DD81665314F32965ED995DA3A17B6F5310C04E7AA47665B8C14F4CAD6DB7618A48257A5D94AE89654B91AEDDEDDFC61C998326A5B714EA4BCB265FC440BE2924AF184CA6737218AB8E976E7FA6E4338649B0A523E8D98964450A6A029F619B8588D52FE7039
310
B1BD30F0F4F730D0FF866AF6369557DB33949F31A9088B0F848DD8CCFCF9F2767A76E99CCDE733677E3EF59D9BBB9BA5E37F984D16E78BC5E5F5ED25044B25C0C96822E8D60EEFE11B91C581D77CEA34368A1F5329E68CD1B8B61F16D63A1B8E092D294B10C78C4A48EB593D192E7DED9BDEE7995E1B91FDEDD3ACEA9FE831
310
6A756F9F7D4D79F4274C90A7A04248AA51D5F8C718DAE06FB2F75AC4796EBE65D22A88A22223B995679120E2D50E41AA49C260C046A35368846B0BECD0DFF3EBEB8AD4F835768F69B9ADF25C43D30E6B646F807FAA64AD59F61715C7A54127C4AACA98BA3006A9D792DAE165E0D59B61A01FB3A9F9D838D2DAE62445C86166
310
F37564E842E7DE6A69879FEEA2DD5AE7E371E1A5E025154AC307D06A03D73EB5978C58FFA4C8E9033066E0F3BD53BEC1F39F91BE7B55103791EDE6BBB991A2046172CB4581D8B893FA674DDA17A77B3B7C413D1B511FD2743BFF8A38F03A658705E3ADF8015C3A3417FF3D7E439FF591DA0B5F18BC20C1B8981957AE6392A3
310
F43C640C01D1A0B4728E2DD4F26DB4B3C3152A252A3B4E913CEC1C72F012782FF88EFF8637AA552DBEF76408E8A8DE9E50F9E1CB3A2DA0DB1B6039A893B56063DC5B3E3FFB5F72E67AB9FEB4AEC496C4F4C1149625DD662C53E89D7BF0F6151A046260D1337DFDC94502430F83B0EE07A130A224BCAD7DAE1D9FB6CD422FF6
310
920702629C4BB9AE79C12F243C6432A6794E18E5552BA56B431AAB5D91317302B2B071E86C3A42B1A02F999E24061403B5D0EB639195DA655DD3EBEAB4FB862DDF579F014AD0E73C22F99E28DA57FB98E75C6CA2D74D53086D600F4786E0FE3144B771A8A7B900F03594DB8A633CBC49B2EDB69228BB479CF863B5E807AAAB
310
23872F6DFEB4129B949CA33823F58830E86D65621E10047D9DB34D862E8EAC3C2ABC2F7B2C40D67CDFE01F5545B92105AF983AC54D93D69E56FB8E797F88913F898A9FEC705D3F9D1B54EC8426FB500D40A03BD0119B06E1B95DDC7EB8F6975367793EBD70E66733DFB9BC982F9CE564727731999F5D4ECFCE3B8D6A4DC2A0
310
6D50FD148437D110834A64C6CDDF57FBACB5C307A2A477DFE4939736CFEF2B175371E0E10CF0DD1D5C15654E0BCA14D1E87DD02FF93782A162C0A3D95F1524A52770F972BF1EE9809D13CE7DD599467F8ECE9ADD85CE85A34CD45355448C64F9E8A031DC2D596ACC6E5DD93D9B82DE2EF5CAF81363A8E47996A0DE24564A79
310
4115AACE09C55E14540231FDA13C319787134EBF34E3A022514E5B4D9E0826E25C02D5805B15ABE1BEF51B26383D445DD9E875EE33FE4C22DA16427D65A3BCA92CA6D28DD01DF5DC53330704308475351050232CCD31583787BA75774AFB06E5070DD0C8EF484E19968C5D83BA5B90B244D31E54D55A372320FE4786B7EA58
310
44E135AA5467CB7EA333A61683CC6A8C3257034C10CF46F40EF9F5BE59BE5BD30C3C72D235E95D10345C1D45445A5F0BB47E46A5EBE5570F9380B5FA629579952296A773720405982B9DE04011506178964401AA8BDF1FBF0A8EAB6861DD6580C0E38217056766716DAEB2D6FA0917D3E4116581EADB879C4E7CFFB11EFACD
310
3D641311495D92C8676CB409A72D18610D803CE8A626049E8EC1887CB5B44CC39883690DDA8399B4B9855B481E7D71D4A9D22F96E5BB73BF5793020C02137BF837504B0304140006080000CC70623B000000000000000000000000350000006662782F36394639363044362D344446342D343946362D394244322D32343142
310
43333846323333332F76657274696365732E62696E504B0304140006080800CC70623BF270F1330600000004000000360000006662782F36394639363044362D344446342D343946362D394244322D3234314243333846323333332F747269616E676C65732E62696E636660600000504B0304140006080000CC70623B0000
310
00000000000000000000370000006662782F36394639363044362D344446342D343946362D394244322D3234314243333846323333332F617474726962757465732E62696E504B0304140006080800CC70623B08DA0BD19000000041010000360000006662782F36394639363044362D344446342D343946362D394244322D
310
3234314243333846323333332F6469726563746F72792E786D6C858F410AC3201045AF22B36F53E9A60B35CBEEBAE80D244E44489C6234F4F835464A48035D0DF398FF9F8AF63D0E6CC63039F212F8F9020C7D47C6792B21C5FE7403D62A1188E2E60C98D7234A5830286103A55745067B9D86B8A3CF9C7F90C11DE607FB14
310
4396D7B6A82D282E9A152AD114D5EF2CB866EEE831B8EEA07A7BB5A8D7D61A2BAAEB7FD5F70921FF497D00504B0304140006080800CC70623BCA768048FE000000A00100003B0000006662782F36394639363044362D344446342D343946362D394244322D3234314243333846323333332F7265736F75726365732F636F72
310
652E786D6C8D50596E833010BD0A9ADFCA60D600328E9AA639412F609909B1126CE4A5EAF16B0295DABFFECC8CDEA2797AECF8353F924FB44E193D409E5248504B332A3D0D10FC95B4901C39B3C6F85F3248B49871801506CE266BC2B243D2688FDA47549B11775038871E12F988C7004EDE7016A9083E2ADC3D5D84BC8B09
310
D33C8D74D471E6BC8D0192EDC93A815B742658898E651BCB59086ADC356A8C3FD555A1055ED7E7E254D615792D0F075295F585746FF53B694EE78A565DD736979A65AB9933AFE69F8CD2A2F038022F28ED489E135A7CE4554F9BBEA85E68DB53CAB255FEC71496F19FA6A0B42F8B3DEE6673C0F318E4497096AD7DC5F52C33
310
EEB55BFE0D504B010214000A0000080000CC70623B3DEE336E79000000790000001B00000000000000000000000000000000006175746F6465736B2D64657369676E2D7061636B6167652E786D6C504B01021400140006080800CC70623BD486FD9CA0000000F40000001300000000000000000000000000B20000005B436F
310
6E74656E745F54797065735D2E786D6C504B01021400140006080800CC70623BD9DDAED0EC0000007C010000080000000000000000000000000083010000636F72652E786D6C504B01021400140006080800CC70623B55019EA25F0000007C000000070000000000000000000000000095020000636E782E786D6C504B0102
310
1400140006080800CC70623BA24EB22D72010000D40300000C00000000000000000000000000190300006662782F636F72652E786D6C504B01021400140006080800CC70623B408A7D3B7C0000009D0000000B00000000000000000000000000B50400006662782F636E782E786D6C504B01021400140006080800CC70623B
310
449FB9BD290100001202000031000000000000000000000000005A0500006662782F36394639363044362D344446342D343946362D394244322D3234314243333846323333332F636F72652E786D6C504B01021400140006080800CC70623BAD7543B64E010000330300003000000000000000000000000000D20600006662
310
782F36394639363044362D344446342D343946362D394244322D3234314243333846323333332F636E782E786D6C504B01021400140006080800CC70623B8D05915C650500003B10000034000000000000000000000000006E0800006662782F36394639363044362D344446342D343946362D394244322D32343142433338
310
46323333332F6F626A656374732E786D6C504B01021400140006080000CC70623B0000000000000000000000003500000000000000000000000000250E00006662782F36394639363044362D344446342D343946362D394244322D3234314243333846323333332F76657274696365732E62696E504B010214001400060808
310
00CC70623BF270F13306000000040000003600000000000000000000000000780E00006662782F36394639363044362D344446342D343946362D394244322D3234314243333846323333332F747269616E676C65732E62696E504B01021400140006080000CC70623B00000000000000000000000037000000000000000000
310
00000000D20E00006662782F36394639363044362D344446342D343946362D394244322D3234314243333846323333332F617474726962757465732E62696E504B01021400140006080800CC70623B08DA0BD190000000410100003600000000000000000000000000270F00006662782F36394639363044362D344446342D
310
343946362D394244322D3234314243333846323333332F6469726563746F72792E786D6C504B01021400140006080800CC70623BCA768048FE000000A00100003B000000000000000000000000000B1000006662782F36394639363044362D344446342D343946362D394244322D3234314243333846323333332F7265736F
310
75726365732F636F72652E786D6C504B0506000000000E000E0080040000621100000000
  0
XRECORD
  5
11
102
{ACAD_REACTORS
330
D
102
}
330
D
100
AcDbXrecord
280
     1
270
     1
271
     1
  0
XRECORD
  5
12
102
{ACAD_REACTORS
330
D
102
}
330
D
100
AcDbXrecord
280
     1
270
     1
271
     1
  0
CELLSTYLEMAP
  5
1D2
102
{ACAD_REACTORS
330
4D
102
}
330
4D
100
AcDbCellStyleMap
 90
        3
300
CELLSTYLE
  1
TABLEFORMAT_BEGIN
 90
        5
170
     1
 91
        0
 92
    32768
 62
   257
 93
        1
300
CONTENTFORMAT
  1
CONTENTFORMAT_BEGIN
 90
        0
 91
        0
 92
      512
 93
        0
300

 40
0.0
140
1.0
 94
        5
 62
     0
340
22
144
6.0
309
CONTENTFORMAT_END
171
     1
301
MARGIN
  1
CELLMARGIN_BEGIN
 40
1.5
 40
1.5
 40
1.5
 40
1.5
 40
4.5
 40
4.5
309
CELLMARGIN_END
 94
        6
 95
        1
302
GRIDFORMAT
  1
GRIDFORMAT_BEGIN
 90
        0
 91
        1
 62
     0
 92
       -2
340
25
 93
        0
 40
1.125
309
GRIDFORMAT_END
 95
        2
302
GRIDFORMAT
  1
GRIDFORMAT_BEGIN
 90
        0
 91
        1
 62
     0
 92
       -2
340
25
 93
        0
 40
1.125
309
GRIDFORMAT_END
 95
        4
302
GRIDFORMAT
  1
GRIDFORMAT_BEGIN
 90
        0
 91
        1
 62
     0
 92
       -2
340
25
 93
        0
 40
1.125
309
GRIDFORMAT_END
 95
        8
302
GRIDFORMAT
  1
GRIDFORMAT_BEGIN
 90
        0
 91
        1
 62
     0
 92
       -2
340
25
 93
        0
 40
1.125
309
GRIDFORMAT_END
 95
       16
302
GRIDFORMAT
  1
GRIDFORMAT_BEGIN
 90
        0
 91
        1
 62
     0
 92
       -2
340
25
 93
        0
 40
1.125
309
GRIDFORMAT_END
 95
       32
302
GRIDFORMAT
  1
GRIDFORMAT_BEGIN
 90
        0
 91
        1
 62
     0
 92
       -2
340
25
 93
        0
 40
1.125
309
GRIDFORMAT_END
309
TABLEFORMAT_END
  1
CELLSTYLE_BEGIN
 90
        1
 91
        1
300
_TITLE
309
CELLSTYLE_END
300
CELLSTYLE
  1
TABLEFORMAT_BEGIN
 90
        5
170
     1
 91
        0
 92
        0
 62
   257
 93
        1
300
CONTENTFORMAT
  1
CONTENTFORMAT_BEGIN
 90
        0
 91
        0
 92
      512
 93
        0
300

 40
0.0
140
1.0
 94
        5
 62
     0
340
22
144
4.5
309
CONTENTFORMAT_END
171
     1
301
MARGIN
  1
CELLMARGIN_BEGIN
 40
1.5
 40
1.5
 40
1.5
 40
1.5
 40
4.5
 40
4.5
309
CELLMARGIN_END
 94
        6
 95
        1
302
GRIDFORMAT
  1
GRIDFORMAT_BEGIN
 90
        0
 91
        1
 62
     0
 92
       -2
340
25
 93
        0
 40
1.125
309
GRIDFORMAT_END
 95
        2
302
GRIDFORMAT
  1
GRIDFORMAT_BEGIN
 90
        0
 91
        1
 62
     0
 92
       -2
340
25
 93
        0
 40
1.125
309
GRIDFORMAT_END
 95
        4
302
GRIDFORMAT
  1
GRIDFORMAT_BEGIN
 90
        0
 91
        1
 62
     0
 92
       -2
340
25
 93
        0
 40
1.125
309
GRIDFORMAT_END
 95
        8
302
GRIDFORMAT
  1
GRIDFORMAT_BEGIN
 90
        0
 91
        1
 62
     0
 92
       -2
340
25
 93
        0
 40
1.125
309
GRIDFORMAT_END
 95
       16
302
GRIDFORMAT
  1
GRIDFORMAT_BEGIN
 90
        0
 91
        1
 62
     0
 92
       -2
340
25
 93
        0
 40
1.125
309
GRIDFORMAT_END
 95
       32
302
GRIDFORMAT
  1
GRIDFORMAT_BEGIN
 90
        0
 91
        1
 62
     0
 92
       -2
340
25
 93
        0
 40
1.125
309
GRIDFORMAT_END
309
TABLEFORMAT_END
  1
CELLSTYLE_BEGIN
 90
        2
 91
        1
300
_HEADER
309
CELLSTYLE_END
300
CELLSTYLE
  1
TABLEFORMAT_BEGIN
 90
        5
170
     1
 91
        0
 92
        0
 62
   257
 93
        1
300
CONTENTFORMAT
  1
CONTENTFORMAT_BEGIN
 90
        0
 91
        0
 92
      512
 93
        0
300

 40
0.0
140
1.0
 94
        2
 62
     0
340
22
144
4.5
309
CONTENTFORMAT_END
171
     1
301
MARGIN
  1
CELLMARGIN_BEGIN
 40
1.5
 40
1.5
 40
1.5
 40
1.5
 40
4.5
 40
4.5
309
CELLMARGIN_END
 94
        6
 95
        1
302
GRIDFORMAT
  1
GRIDFORMAT_BEGIN
 90
        0
 91
        1
 62
     0
 92
       -2
340
25
 93
        0
 40
1.125
309
GRIDFORMAT_END
 95
        2
302
GRIDFORMAT
  1
GRIDFORMAT_BEGIN
 90
        0
 91
        1
 62
     0
 92
       -2
340
25
 93
        0
 40
1.125
309
GRIDFORMAT_END
 95
        4
302
GRIDFORMAT
  1
GRIDFORMAT_BEGIN
 90
        0
 91
        1
 62
     0
 92
       -2
340
25
 93
        0
 40
1.125
309
GRIDFORMAT_END
 95
        8
302
GRIDFORMAT
  1
GRIDFORMAT_BEGIN
 90
        0
 91
        1
 62
     0
 92
       -2
340
25
 93
        0
 40
1.125
309
GRIDFORMAT_END
 95
       16
302
GRIDFORMAT
  1
GRIDFORMAT_BEGIN
 90
        0
 91
        1
 62
     0
 92
       -2
340
25
 93
        0
 40
1.125
309
GRIDFORMAT_END
 95
       32
302
GRIDFORMAT
  1
GRIDFORMAT_BEGIN
 90
        0
 91
        1
 62
     0
 92
       -2
340
25
 93
        0
 40
1.125
309
GRIDFORMAT_END
309
TABLEFORMAT_END
  1
CELLSTYLE_BEGIN
 90
        3
 91
        2
300
_DATA
309
CELLSTYLE_END
  0
XRECORD
  5
1E1
102
{ACAD_REACTORS
330
4D
102
}
330
4D
100
AcDbXrecord
280
     1
102
ACAD_ROUNDTRIP_PRE2007_TABLESTYLE
 90
      512
 91
        0
  1

 92
      512
 93
        0
  2

 94
      512
 95
        0
  3

  0
XRECORD
  5
1DE
102
{ACAD_REACTORS
330
1DD
102
}
330
1DD
100
AcDbXrecord
280
     1
102
RTVSPost2010Prop28
280
     1
102
RTVSPost2010PropOp28
 70
     1
102
RTVSPost2010Prop29
280
     1
102
RTVSPost2010PropOp29
 70
     1
102
RTVSPost2010Prop30
280
     0
102
RTVSPost2010PropOp30
 70
     1
102
RTVSPost2010Prop31
280
     0
102
RTVSPost2010PropOp31
 70
     1
102
RTVSPost2010Prop32
280
     0
102
RTVSPost2010PropOp32
 70
     1
102
RTVSPost2010Prop33
280
     0
102
RTVSPost2010PropOp33
 70
     1
102
RTVSPost2010Prop34
280
     0
102
RTVSPost2010PropOp34
 70
     1
102
RTVSPost2010Prop35
280
     0
102
RTVSPost2010PropOp35
 70
     1
102
RTVSPost2010Prop36
280
     0
102
RTVSPost2010PropOp36
 70
     1
102
RTVSPost2010Prop37
 90
       50
102
RTVSPost2010PropOp37
 70
     1
102
RTVSPost2010Prop38
140
0.0
102
RTVSPost2010PropOp38
 70
     1
102
RTVSPost2010Prop39
140
1.0
102
RTVSPost2010PropOp39
 70
     1
102
RTVSPost2010Prop40
 90
        0
102
RTVSPost2010PropOp40
 70
     1
102
RTVSPost2010Prop41ColorIndex
 90
       18
102
RTVSPost2010Prop41ColorRGB
 90
        0
102
RTVSPost2010PropOp41
 70
     1
102
RTVSPost2010Prop42
 90
       50
102
RTVSPost2010PropOp42
 70
     1
102
RTVSPost2010Prop43
 90
        3
102
RTVSPost2010PropOp43
 70
     1
102
RTVSPost2010Prop44ColorIndex
 90
        5
102
RTVSPost2010Prop44ColorRGB
 90
      255
102
RTVSPost2010PropOp44
 70
     1
102
RTVSPost2010Prop45
280
     0
102
RTVSPost2010PropOp45
 70
     1
102
RTVSPost2010Prop46
 90
       50
102
RTVSPost2010PropOp46
 70
     1
102
RTVSPost2010Prop47
 90
       50
102
RTVSPost2010PropOp47
 70
     1
102
RTVSPost2010Prop48
 90
       50
102
RTVSPost2010PropOp48
 70
     1
102
RTVSPost2010Prop49
280
     0
102
RTVSPost2010PropOp49
 70
     1
102
RTVSPost2010Prop50
 90
       50
102
RTVSPost2010PropOp50
 70
     1
102
RTVSPost2010Prop51ColorIndex
 90
      256
102
RTVSPost2010Prop51ColorRGB
 90
-16777216
102
RTVSPost2010PropOp51
 70
     0
102
RTVSPost2010Prop52
140
1.0
102
RTVSPost2010PropOp52
 70
     0
102
RTVSPost2010Prop53
 90
        2
102
RTVSPost2010PropOp53
 70
     1
102
RTVSPost2010Prop54
  1
strokes_ogs.tif
102
RTVSPost2010PropOp54
 70
     1
102
RTVSPost2010Prop55
280
     0
102
RTVSPost2010PropOp55
 70
     1
102
RTVSPost2010Prop56
140
1.0
102
RTVSPost2010PropOp56
 70
     1
102
RTVSPost2010Prop57
140
1.0
102
RTVSPost2010PropOp57
 70
     1
102
RTVSPropertyOp0
 70
     1
102
RTVSPropertyOp1
 70
     1
102
RTVSPropertyOp2
 70
     1
102
RTVSPropertyOp3
 70
     1
102
RTVSPropertyOp4
 70
     1
102
RTVSPropertyOp5
 70
     1
102
RTVSPropertyOp6
 70
     1
102
RTVSPropertyOp7
 70
     1
102
RTVSPropertyOp8
 70
     1
102
RTVSPropertyOp9
 70
     1
102
RTVSPropertyOp10
 70
     1
102
RTVSPropertyOp11
 70
     1
102
RTVSPropertyOp12
 70
     1
102
RTVSPropertyOp13
 70
     1
102
RTVSPropertyOp14
 70
     1
102
RTVSPropertyOp15
 70
     1
102
RTVSPropertyOp16
 70
     1
102
RTVSPropertyOp17
 70
     1
102
RTVSPropertyOp18
 70
     1
102
RTVSPropertyOp19
 70
     1
102
RTVSPropertyOp20
 70
     1
102
RTVSPropertyOp21
 70
     1
102
RTVSPropertyOp22
 70
     1
102
RTVSPropertyOp23
 70
     1
102
RTVSPropertyOp24
 70
     1
102
RTVSPropertyOp25
 70
     1
102
RTVSPropertyOp26
 70
     1
102
RTVSPropertyOp27
 70
     1
102
RTVSPropertyOp28
 70
     1
102
RTVSPropertyOp29
 70
     1
102
RTVSPropertyOp30
 70
     1
102
RTVSPropertyOp31
 70
     1
102
RTVSPropertyOp32
 70
     1
102
RTVSPropertyOp33
 70
     1
102
RTVSPropertyOp34
 70
     1
102
RTVSPropertyOp35
 70
     1
102
RTVSPropertyOp36
 70
     1
102
RTVSPropertyOp37
 70
     1
102
RTVSPropertyOp38
 70
     1
102
RTVSPropertyOp39
 70
     1
102
RTVSPropertyOp40
 70
     1
102
RTVSPropertyOp41
 70
     1
102
RTVSPropertyOp42
 70
     1
102
RTVSPropertyOp43
 70
     1
102
RTVSPropertyOp44
 70
     1
102
RTVSPropertyOp45
 70
     1
102
RTVSPropertyOp46
 70
     1
102
RTVSPropertyOp47
 70
     1
102
RTVSPropertyOp48
 70
     1
102
RTVSPropertyOp49
 70
     1
102
RTVSPropertyOp50
 70
     1
102
RTVSPropertyOp51
 70
     0
102
RTVSPropertyOp52
 70
     0
102
RTVSPropertyOp53
 70
     1
102
RTVSPropertyOp54
 70
     1
102
RTVSPropertyOp55
 70
     1
102
RTVSPropertyOp56
 70
     1
102
RTVSPropertyOp57
 70
     1
102
RTVSPropertyOp58
 70
     1
102
RTVSPropertyOp59
 70
     1
102
RTVSPropertyOp60
 70
     1
102
RTVSPropertyOp61
 70
     1
102
RTVSPropertyOp62
 70
     1
  0
XRECORD
  5
1E3
102
{ACAD_REACTORS
330
1E2
102
}
330
1E2
100
AcDbXrecord
280
     1
102
RTVSPost2010Prop28
280
     0
102
RTVSPost2010PropOp28
 70
     1
102
RTVSPost2010Prop29
280
     1
102
RTVSPost2010PropOp29
 70
     1
102
RTVSPost2010Prop30
280
     1
102
RTVSPost2010PropOp30
 70
     1
102
RTVSPost2010Prop31
280
     0
102
RTVSPost2010PropOp31
 70
     1
102
RTVSPost2010Prop32
280
     0
102
RTVSPost2010PropOp32
 70
     1
102
RTVSPost2010Prop33
280
     0
102
RTVSPost2010PropOp33
 70
     1
102
RTVSPost2010Prop34
280
     0
102
RTVSPost2010PropOp34
 70
     1
102
RTVSPost2010Prop35
280
     0
102
RTVSPost2010PropOp35
 70
     1
102
RTVSPost2010Prop36
280
     0
102
RTVSPost2010PropOp36
 70
     1
102
RTVSPost2010Prop37
 90
       50
102
RTVSPost2010PropOp37
 70
     1
102
RTVSPost2010Prop38
140
0.0
102
RTVSPost2010PropOp38
 70
     1
102
RTVSPost2010Prop39
140
1.0
102
RTVSPost2010PropOp39
 70
     1
102
RTVSPost2010Prop40
 90
        0
102
RTVSPost2010PropOp40
 70
     1
102
RTVSPost2010Prop41ColorIndex
 90
       18
102
RTVSPost2010Prop41ColorRGB
 90
        0
102
RTVSPost2010PropOp41
 70
     1
102
RTVSPost2010Prop42
 90
       50
102
RTVSPost2010PropOp42
 70
     1
102
RTVSPost2010Prop43
 90
        3
102
RTVSPost2010PropOp43
 70
     1
102
RTVSPost2010Prop44ColorIndex
 90
        5
102
RTVSPost2010Prop44ColorRGB
 90
      255
102
RTVSPost2010PropOp44
 70
     1
102
RTVSPost2010Prop45
280
     0
102
RTVSPost2010PropOp45
 70
     1
102
RTVSPost2010Prop46
 90
       50
102
RTVSPost2010PropOp46
 70
     1
102
RTVSPost2010Prop47
 90
       50
102
RTVSPost2010PropOp47
 70
     1
102
RTVSPost2010Prop48
 90
       50
102
RTVSPost2010PropOp48
 70
     1
102
RTVSPost2010Prop49
280
     0
102
RTVSPost2010PropOp49
 70
     1
102
RTVSPost2010Prop50
 90
       50
102
RTVSPost2010PropOp50
 70
     1
102
RTVSPost2010Prop51ColorIndex
 90
      256
102
RTVSPost2010Prop51ColorRGB
 90
-16777216
102
RTVSPost2010PropOp51
 70
     0
102
RTVSPost2010Prop52
140
1.0
102
RTVSPost2010PropOp52
 70
     0
102
RTVSPost2010Prop53
 90
        2
102
RTVSPost2010PropOp53
 70
     1
102
RTVSPost2010Prop54
  1
strokes_ogs.tif
102
RTVSPost2010PropOp54
 70
     1
102
RTVSPost2010Prop55
280
     0
102
RTVSPost2010PropOp55
 70
     1
102
RTVSPost2010Prop56
140
1.0
102
RTVSPost2010PropOp56
 70
     1
102
RTVSPost2010Prop57
140
1.0
102
RTVSPost2010PropOp57
 70
     1
102
RTVSPropertyOp0
 70
     1
102
RTVSPropertyOp1
 70
     1
102
RTVSPropertyOp2
 70
     1
102
RTVSPropertyOp3
 70
     1
102
RTVSPropertyOp4
 70
     1
102
RTVSPropertyOp5
 70
     1
102
RTVSPropertyOp6
 70
     1
102
RTVSPropertyOp7
 70
     1
102
RTVSPropertyOp8
 70
     1
102
RTVSPropertyOp9
 70
     1
102
RTVSPropertyOp10
 70
     1
102
RTVSPropertyOp11
 70
     1
102
RTVSPropertyOp12
 70
     1
102
RTVSPropertyOp13
 70
     1
102
RTVSPropertyOp14
 70
     1
102
RTVSPropertyOp15
 70
     1
102
RTVSPropertyOp16
 70
     1
102
RTVSPropertyOp17
 70
     1
102
RTVSPropertyOp18
 70
     1
102
RTVSPropertyOp19
 70
     1
102
RTVSPropertyOp20
 70
     1
102
RTVSPropertyOp21
 70
     1
102
RTVSPropertyOp22
 70
     1
102
RTVSPropertyOp23
 70
     1
102
RTVSPropertyOp24
 70
     1
102
RTVSPropertyOp25
 70
     1
102
RTVSPropertyOp26
 70
     1
102
RTVSPropertyOp27
 70
     1
102
RTVSPropertyOp28
 70
     1
102
RTVSPropertyOp29
 70
     1
102
RTVSPropertyOp30
 70
     1
102
RTVSPropertyOp31
 70
     1
102
RTVSPropertyOp32
 70
     1
102
RTVSPropertyOp33
 70
     1
102
RTVSPropertyOp34
 70
     1
102
RTVSPropertyOp35
 70
     1
102
RTVSPropertyOp36
 70
     1
102
RTVSPropertyOp37
 70
     1
102
RTVSPropertyOp38
 70
     1
102
RTVSPropertyOp39
 70
     1
102
RTVSPropertyOp40
 70
     1
102
RTVSPropertyOp41
 70
     1
102
RTVSPropertyOp42
 70
     1
102
RTVSPropertyOp43
 70
     1
102
RTVSPropertyOp44
 70
     1
102
RTVSPropertyOp45
 70
     1
102
RTVSPropertyOp46
 70
     1
102
RTVSPropertyOp47
 70
     1
102
RTVSPropertyOp48
 70
     1
102
RTVSPropertyOp49
 70
     1
102
RTVSPropertyOp50
 70
     1
102
RTVSPropertyOp51
 70
     0
102
RTVSPropertyOp52
 70
     0
102
RTVSPropertyOp53
 70
     1
102
RTVSPropertyOp54
 70
     1
102
RTVSPropertyOp55
 70
     1
102
RTVSPropertyOp56
 70
     1
102
RTVSPropertyOp57
 70
     1
102
RTVSPropertyOp58
 70
     1
102
RTVSPropertyOp59
 70
     1
102
RTVSPropertyOp60
 70
     1
102
RTVSPropertyOp61
 70
     1
102
RTVSPropertyOp62
 70
     1
  0
XRECORD
  5
1E5
102
{ACAD_REACTORS
330
1E4
102
}
330
1E4
100
AcDbXrecord
280
     1
102
RTVSPost2010Prop28
280
     0
102
RTVSPost2010PropOp28
 70
     1
102
RTVSPost2010Prop29
280
     1
102
RTVSPost2010PropOp29
 70
     1
102
RTVSPost2010Prop30
280
     1
102
RTVSPost2010PropOp30
 70
     1
102
RTVSPost2010Prop31
280
     0
102
RTVSPost2010PropOp31
 70
     1
102
RTVSPost2010Prop32
280
     0
102
RTVSPost2010PropOp32
 70
     1
102
RTVSPost2010Prop33
280
     0
102
RTVSPost2010PropOp33
 70
     1
102
RTVSPost2010Prop34
280
     0
102
RTVSPost2010PropOp34
 70
     1
102
RTVSPost2010Prop35
280
     0
102
RTVSPost2010PropOp35
 70
     1
102
RTVSPost2010Prop36
280
     0
102
RTVSPost2010PropOp36
 70
     1
102
RTVSPost2010Prop37
 90
       50
102
RTVSPost2010PropOp37
 70
     1
102
RTVSPost2010Prop38
140
0.0
102
RTVSPost2010PropOp38
 70
     1
102
RTVSPost2010Prop39
140
1.0
102
RTVSPost2010PropOp39
 70
     1
102
RTVSPost2010Prop40
 90
        0
102
RTVSPost2010PropOp40
 70
     1
102
RTVSPost2010Prop41ColorIndex
 90
       18
102
RTVSPost2010Prop41ColorRGB
 90
        0
102
RTVSPost2010PropOp41
 70
     1
102
RTVSPost2010Prop42
 90
       50
102
RTVSPost2010PropOp42
 70
     1
102
RTVSPost2010Prop43
 90
        3
102
RTVSPost2010PropOp43
 70
     1
102
RTVSPost2010Prop44ColorIndex
 90
        5
102
RTVSPost2010Prop44ColorRGB
 90
      255
102
RTVSPost2010PropOp44
 70
     1
102
RTVSPost2010Prop45
280
     0
102
RTVSPost2010PropOp45
 70
     1
102
RTVSPost2010Prop46
 90
       50
102
RTVSPost2010PropOp46
 70
     1
102
RTVSPost2010Prop47
 90
       50
102
RTVSPost2010PropOp47
 70
     1
102
RTVSPost2010Prop48
 90
       50
102
RTVSPost2010PropOp48
 70
     1
102
RTVSPost2010Prop49
280
     0
102
RTVSPost2010PropOp49
 70
     1
102
RTVSPost2010Prop50
 90
       50
102
RTVSPost2010PropOp50
 70
     1
102
RTVSPost2010Prop51ColorIndex
 90
      256
102
RTVSPost2010Prop51ColorRGB
 90
-16777216
102
RTVSPost2010PropOp51
 70
     0
102
RTVSPost2010Prop52
140
1.0
102
RTVSPost2010PropOp52
 70
     0
102
RTVSPost2010Prop53
 90
        2
102
RTVSPost2010PropOp53
 70
     1
102
RTVSPost2010Prop54
  1
strokes_ogs.tif
102
RTVSPost2010PropOp54
 70
     1
102
RTVSPost2010Prop55
280
     0
102
RTVSPost2010PropOp55
 70
     1
102
RTVSPost2010Prop56
140
1.0
102
RTVSPost2010PropOp56
 70
     1
102
RTVSPost2010Prop57
140
1.0
102
RTVSPost2010PropOp57
 70
     1
102
RTVSPropertyOp0
 70
     1
102
RTVSPropertyOp1
 70
     1
102
RTVSPropertyOp2
 70
     1
102
RTVSPropertyOp3
 70
     1
102
RTVSPropertyOp4
 70
     1
102
RTVSPropertyOp5
 70
     1
102
RTVSPropertyOp6
 70
     1
102
RTVSPropertyOp7
 70
     1
102
RTVSPropertyOp8
 70
     1
102
RTVSPropertyOp9
 70
     1
102
RTVSPropertyOp10
 70
     1
102
RTVSPropertyOp11
 70
     1
102
RTVSPropertyOp12
 70
     1
102
RTVSPropertyOp13
 70
     1
102
RTVSPropertyOp14
 70
     1
102
RTVSPropertyOp15
 70
     1
102
RTVSPropertyOp16
 70
     1
102
RTVSPropertyOp17
 70
     1
102
RTVSPropertyOp18
 70
     1
102
RTVSPropertyOp19
 70
     1
102
RTVSPropertyOp20
 70
     1
102
RTVSPropertyOp21
 70
     1
102
RTVSPropertyOp22
 70
     1
102
RTVSPropertyOp23
 70
     1
102
RTVSPropertyOp24
 70
     1
102
RTVSPropertyOp25
 70
     1
102
RTVSPropertyOp26
 70
     1
102
RTVSPropertyOp27
 70
     1
102
RTVSPropertyOp28
 70
     1
102
RTVSPropertyOp29
 70
     1
102
RTVSPropertyOp30
 70
     1
102
RTVSPropertyOp31
 70
     1
102
RTVSPropertyOp32
 70
     1
102
RTVSPropertyOp33
 70
     1
102
RTVSPropertyOp34
 70
     1
102
RTVSPropertyOp35
 70
     1
102
RTVSPropertyOp36
 70
     1
102
RTVSPropertyOp37
 70
     1
102
RTVSPropertyOp38
 70
     1
102
RTVSPropertyOp39
 70
     1
102
RTVSPropertyOp40
 70
     1
102
RTVSPropertyOp41
 70
     1
102
RTVSPropertyOp42
 70
     1
102
RTVSPropertyOp43
 70
     1
102
RTVSPropertyOp44
 70
     1
102
RTVSPropertyOp45
 70
     1
102
RTVSPropertyOp46
 70
     1
102
RTVSPropertyOp47
 70
     1
102
RTVSPropertyOp48
 70
     1
102
RTVSPropertyOp49
 70
     1
102
RTVSPropertyOp50
 70
     1
102
RTVSPropertyOp51
 70
     0
102
RTVSPropertyOp52
 70
     0
102
RTVSPropertyOp53
 70
     1
102
RTVSPropertyOp54
 70
     1
102
RTVSPropertyOp55
 70
     1
102
RTVSPropertyOp56
 70
     1
102
RTVSPropertyOp57
 70
     1
102
RTVSPropertyOp58
 70
     1
102
RTVSPropertyOp59
 70
     1
102
RTVSPropertyOp60
 70
     1
102
RTVSPropertyOp61
 70
     1
102
RTVSPropertyOp62
 70
     1
  0
ENDSEC
  0
EOF
