  0
SECTION
  2
HEADER
  9
$ACADVER
  1
AC1032
  9
$ACADMAINTVER
 90
        4
  9
$DWGCODEPAGE
  3
ANSI_932
  9
$REQUIREDVERSIONS
160
                 0
  9
$INSBASE
 10
0.0
 20
0.0
 30
0.0
  9
$EXTMIN
 10
387.7330646432255
 20
217.29887938901
 30
0.0
  9
$EXTMAX
 10
437.7330646432255
 20
232.6000202569141
 30
0.0
  9
$LIMMIN
 10
0.0
 20
0.0
  9
$LIMMAX
 10
420.0
 20
297.0
  9
$ORTHOMODE
 70
     0
  9
$REGENMODE
 70
     1
  9
$FILLMODE
 70
     1
  9
$QTEXTMODE
 70
     0
  9
$MIRRTEXT
 70
     0
  9
$LTSCALE
 40
1.0
  9
$ATTMODE
 70
     1
  9
$TEXTSIZE
 40
2.5
  9
$TRACEWID
 40
1.0
  9
$TEXTSTYLE
  7
Standard
  9
$CLAYER
  8
0
  9
$CELTYPE
  6
ByLayer
  9
$CECOLOR
 62
   256
  9
$CELTSCALE
 40
1.0
  9
$DISPSILH
 70
     0
  9
$DIMSCALE
 40
1.0
  9
$DIMASZ
 40
2.5
  9
$DIMEXO
 40
0.625
  9
$DIMDLI
 40
3.75
  9
$DIMRND
 40
0.0
  9
$DIMDLE
 40
0.0
  9
$DIMEXE
 40
1.25
  9
$DIMTP
 40
0.0
  9
$DIMTM
 40
0.0
  9
$DIMTXT
 40
2.5
  9
$DIMCEN
 40
2.5
  9
$DIMTSZ
 40
0.0
  9
$DIMTOL
 70
     0
  9
$DIMLIM
 70
     0
  9
$DIMTIH
 70
     0
  9
$DIMTOH
 70
     0
  9
$DIMSE1
 70
     0
  9
$DIMSE2
 70
     0
  9
$DIMTAD
 70
     1
  9
$DIMZIN
 70
     8
  9
$DIMBLK
  1

  9
$DIMASO
 70
     1
  9
$DIMSHO
 70
     1
  9
$DIMPOST
  1

  9
$DIMAPOST
  1

  9
$DIMALT
 70
     0
  9
$DIMALTD
 70
     3
  9
$DIMALTF
 40
0.03937007874016
  9
$DIMLFAC
 40
1.0
  9
$DIMTOFL
 70
     1
  9
$DIMTVP
 40
0.0
  9
$DIMTIX
 70
     0
  9
$DIMSOXD
 70
     0
  9
$DIMSAH
 70
     0
  9
$DIMBLK1
  1

  9
$DIMBLK2
  1

  9
$DIMSTYLE
  2
ISO-25
  9
$DIMCLRD
 70
     0
  9
$DIMCLRE
 70
     0
  9
$DIMCLRT
 70
     0
  9
$DIMTFAC
 40
1.0
  9
$DIMGAP
 40
0.625
  9
$DIMJUST
 70
     0
  9
$DIMSD1
 70
     0
  9
$DIMSD2
 70
     0
  9
$DIMTOLJ
 70
     0
  9
$DIMTZIN
 70
     8
  9
$DIMALTZ
 70
     0
  9
$DIMALTTZ
 70
     0
  9
$DIMUPT
 70
     0
  9
$DIMDEC
 70
     2
  9
$DIMTDEC
 70
     2
  9
$DIMALTU
 70
     2
  9
$DIMALTTD
 70
     3
  9
$DIMTXSTY
  7
Standard
  9
$DIMAUNIT
 70
     0
  9
$DIMADEC
 70
     0
  9
$DIMALTRND
 40
0.0
  9
$DIMAZIN
 70
     0
  9
$DIMDSEP
 70
    44
  9
$DIMATFIT
 70
     3
  9
$DIMFRAC
 70
     0
  9
$DIMLDRBLK
  1

  9
$DIMLUNIT
 70
     2
  9
$DIMLWD
 70
    -2
  9
$DIMLWE
 70
    -2
  9
$DIMTMOVE
 70
     0
  9
$DIMFXL
 40
1.0
  9
$DIMFXLON
 70
     0
  9
$DIMJOGANG
 40
0.7853981633974483
  9
$DIMTFILL
 70
     0
  9
$DIMTFILLCLR
 70
     0
  9
$DIMARCSYM
 70
     0
  9
$DIMLTYPE
  6

  9
$DIMLTEX1
  6

  9
$DIMLTEX2
  6

  9
$DIMTXTDIRECTION
 70
     0
  9
$LUNITS
 70
     2
  9
$LUPREC
 70
     4
  9
$SKETCHINC
 40
1.0
  9
$FILLETRAD
 40
0.0
  9
$AUNITS
 70
     0
  9
$AUPREC
 70
     0
  9
$MENU
  1
.
  9
$ELEVATION
 40
0.0
  9
$PELEVATION
 40
0.0
  9
$THICKNESS
 40
0.0
  9
$LIMCHECK
 70
     0
  9
$CHAMFERA
 40
0.0
  9
$CHAMFERB
 40
0.0
  9
$CHAMFERC
 40
0.0
  9
$CHAMFERD
 40
0.0
  9
$SKPOLY
 70
     0
  9
$TDCREATE
 40
2459093.429143519
  9
$TDUCREATE
 40
2459093.095810185
  9
$TDUPDATE
 40
2459093.429143519
  9
$TDUUPDATE
 40
2459093.095810185
  9
$TDINDWG
 40
0.0002314815
  9
$TDUSRTIMER
 40
0.0002314815
  9
$USRTIMER
 70
     1
  9
$ANGBASE
 50
0.0
  9
$ANGDIR
 70
     0
  9
$PDMODE
 70
     0
  9
$PDSIZE
 40
0.0
  9
$PLINEWID
 40
0.0
  9
$SPLFRAME
 70
     0
  9
$SPLINETYPE
 70
     6
  9
$SPLINESEGS
 70
     8
  9
$HANDSEED
  5
26A
  9
$SURFTAB1
 70
     6
  9
$SURFTAB2
 70
     6
  9
$SURFTYPE
 70
     6
  9
$SURFU
 70
     6
  9
$SURFV
 70
     6
  9
$UCSBASE
  2

  9
$UCSNAME
  2

  9
$UCSORG
 10
0.0
 20
0.0
 30
0.0
  9
$UCSXDIR
 10
1.0
 20
0.0
 30
0.0
  9
$UCSYDIR
 10
0.0
 20
1.0
 30
0.0
  9
$UCSORTHOREF
  2

  9
$UCSORTHOVIEW
 70
     0
  9
$UCSORGTOP
 10
0.0
 20
0.0
 30
0.0
  9
$UCSORGBOTTOM
 10
0.0
 20
0.0
 30
0.0
  9
$UCSORGLEFT
 10
0.0
 20
0.0
 30
0.0
  9
$UCSORGRIGHT
 10
0.0
 20
0.0
 30
0.0
  9
$UCSORGFRONT
 10
0.0
 20
0.0
 30
0.0
  9
$UCSORGBACK
 10
0.0
 20
0.0
 30
0.0
  9
$PUCSBASE
  2

  9
$PUCSNAME
  2

  9
$PUCSORG
 10
0.0
 20
0.0
 30
0.0
  9
$PUCSXDIR
 10
1.0
 20
0.0
 30
0.0
  9
$PUCSYDIR
 10
0.0
 20
1.0
 30
0.0
  9
$PUCSORTHOREF
  2

  9
$PUCSORTHOVIEW
 70
     0
  9
$PUCSORGTOP
 10
0.0
 20
0.0
 30
0.0
  9
$PUCSORGBOTTOM
 10
0.0
 20
0.0
 30
0.0
  9
$PUCSORGLEFT
 10
0.0
 20
0.0
 30
0.0
  9
$PUCSORGRIGHT
 10
0.0
 20
0.0
 30
0.0
  9
$PUCSORGFRONT
 10
0.0
 20
0.0
 30
0.0
  9
$PUCSORGBACK
 10
0.0
 20
0.0
 30
0.0
  9
$USERI1
 70
     0
  9
$USERI2
 70
     0
  9
$USERI3
 70
     0
  9
$USERI4
 70
     0
  9
$USERI5
 70
     0
  9
$USERR1
 40
0.0
  9
$USERR2
 40
0.0
  9
$USERR3
 40
0.0
  9
$USERR4
 40
0.0
  9
$USERR5
 40
0.0
  9
$WORLDVIEW
 70
     1
  9
$SHADEDGE
 70
     3
  9
$SHADEDIF
 70
    70
  9
$TILEMODE
 70
     1
  9
$MAXACTVP
 70
    64
  9
$PINSBASE
 10
0.0
 20
0.0
 30
0.0
  9
$PLIMCHECK
 70
     0
  9
$PEXTMIN
 10
0.0
 20
0.0
 30
0.0
  9
$PEXTMAX
 10
0.0
 20
0.0
 30
0.0
  9
$PLIMMIN
 10
0.0
 20
0.0
  9
$PLIMMAX
 10
12.0
 20
9.0
  9
$UNITMODE
 70
     0
  9
$VISRETAIN
 70
     1
  9
$PLINEGEN
 70
     0
  9
$PSLTSCALE
 70
     1
  9
$TREEDEPTH
 70
  3020
  9
$CMLSTYLE
  2
Standard
  9
$CMLJUST
 70
     0
  9
$CMLSCALE
 40
20.0
  9
$PROXYGRAPHICS
 70
     1
  9
$MEASUREMENT
 70
     1
  9
$CELWEIGHT
370
    -1
  9
$ENDCAPS
280
     0
  9
$JOINSTYLE
280
     0
  9
$LWDISPLAY
290
     0
  9
$INSUNITS
 70
     4
  9
$HYPERLINKBASE
  1

  9
$STYLESHEET
  1

  9
$XEDIT
290
     1
  9
$CEPSNTYPE
380
     0
  9
$PSTYLEMODE
290
     1
  9
$FINGERPRINTGUID
  2
{8ED87D66-A6C1-0B48-876C-B9F43CFD1E3C}
  9
$VERSIONGUID
  2
{0884754D-1740-0B47-BF07-D960D6583E1A}
  9
$EXTNAMES
290
     1
  9
$PSVPSCALE
 40
0.0
  9
$OLESTARTUP
290
     0
  9
$SORTENTS
280
   127
  9
$INDEXCTL
280
     0
  9
$HIDETEXT
280
     1
  9
$XCLIPFRAME
280
     2
  9
$HALOGAP
280
     0
  9
$OBSCOLOR
 70
   257
  9
$OBSLTYPE
280
     0
  9
$INTERSECTIONDISPLAY
280
     0
  9
$INTERSECTIONCOLOR
 70
   257
  9
$DIMASSOC
280
     2
  9
$PROJECTNAME
  1

  9
$CAMERADISPLAY
290
     0
  9
$LENSLENGTH
 40
50.0
  9
$CAMERAHEIGHT
 40
0.0
  9
$STEPSPERSEC
 40
2.0
  9
$STEPSIZE
 40
6.0
  9
$3DDWFPREC
 40
2.0
  9
$PSOLWIDTH
 40
5.0
  9
$PSOLHEIGHT
 40
80.0
  9
$LOFTANG1
 40
1.570796326794896
  9
$LOFTANG2
 40
1.570796326794896
  9
$LOFTMAG1
 40
0.0
  9
$LOFTMAG2
 40
0.0
  9
$LOFTPARAM
 70
     7
  9
$LOFTNORMALS
280
     1
  9
$LATITUDE
 40
37.795
  9
$LONGITUDE
 40
-122.394
  9
$NORTHDIRECTION
 40
0.0
  9
$TIMEZONE
 70
 -8000
  9
$LIGHTGLYPHDISPLAY
280
     1
  9
$TILEMODELIGHTSYNCH
280
     1
  9
$CMATERIAL
347
38
  9
$SOLIDHIST
280
     0
  9
$SHOWHIST
280
     1
  9
$DWFFRAME
280
     2
  9
$DGNFRAME
280
     0
  9
$REALWORLDSCALE
290
     1
  9
$INTERFERECOLOR
 62
     1
  9
$INTERFEREOBJVS
345
45
  9
$INTERFEREVPVS
346
46
  9
$CSHADOW
280
     0
  9
$SHADOWPLANELOCATION
 40
0.0
  0
ENDSEC
  0
SECTION
  2
CLASSES
  0
CLASS
  1
ACDBDICTIONARYWDFLT
  2
AcDbDictionaryWithDefault
  3
ObjectDBX Classes
 90
        0
 91
        1
280
     0
281
     0
  0
CLASS
  1
DICTIONARYVAR
  2
AcDbDictionaryVar
  3
ObjectDBX Classes
 90
        0
 91
        5
280
     0
281
     0
  0
CLASS
  1
TABLESTYLE
  2
AcDbTableStyle
  3
ObjectDBX Classes
 90
     4095
 91
        1
280
     0
281
     0
  0
CLASS
  1
MATERIAL
  2
AcDbMaterial
  3
ObjectDBX Classes
 90
     1153
 91
        3
280
     0
281
     0
  0
CLASS
  1
VISUALSTYLE
  2
AcDbVisualStyle
  3
ObjectDBX Classes
 90
     4095
 91
        3
280
     0
281
     0
  0
CLASS
  1
SCALE
  2
AcDbScale
  3
ObjectDBX Classes
 90
     1153
 91
       17
280
     0
281
     0
  0
CLASS
  1
MLEADERSTYLE
  2
AcDbMLeaderStyle
  3
ACDB_MLEADERSTYLE_CLASS
 90
     4095
 91
        0
280
     0
281
     0
  0
CLASS
  1
CELLSTYLEMAP
  2
AcDbCellStyleMap
  3
ObjectDBX Classes
 90
     1152
 91
        1
280
     0
281
     0
  0
CLASS
  1
EXACXREFPANELOBJECT
  2
ExAcXREFPanelObject
  3
EXAC_ESW
 90
     1025
 91
        0
280
     1
281
     0
  0
CLASS
  1
NPOCOLLECTION
  2
AcDbImpNonPersistentObjectsCollection
  3
ObjectDBX Classes
 90
     1153
 91
        0
280
     0
281
     0
  0
CLASS
  1
LAYER_INDEX
  2
AcDbLayerIndex
  3
ObjectDBX Classes
 90
        0
 91
        0
280
     0
281
     0
  0
CLASS
  1
SPATIAL_INDEX
  2
AcDbSpatialIndex
  3
ObjectDBX Classes
 90
        0
 91
        0
280
     0
281
     0
  0
CLASS
  1
IDBUFFER
  2
AcDbIdBuffer
  3
ObjectDBX Classes
 90
        0
 91
        0
280
     0
281
     0
  0
CLASS
  1
ACDBSECTIONVIEWSTYLE
  2
AcDbSectionViewStyle
  3
ObjectDBX Classes
 90
     1025
 91
        0
280
     0
281
     0
  0
CLASS
  1
ACDBDETAILVIEWSTYLE
  2
AcDbDetailViewStyle
  3
ObjectDBX Classes
 90
     1025
 91
        0
280
     0
281
     0
  0
ENDSEC
  0
SECTION
  2
TABLES
  0
TABLE
  2
VPORT
  5
28
330
0
100
AcDbSymbolTable
 70
     1
  0
VPORT
  5
29
330
28
100
AcDbSymbolTableRecord
100
AcDbViewportTableRecord
  2
*Active
 70
     0
 10
0.0
 20
0.0
 11
1.0
 21
1.0
 12
426.6439216794833
 22
223.5970535198899
 13
0.0
 23
0.0
 14
10.0
 24
10.0
 15
10.0
 25
10.0
 16
0.0
 26
0.0
 36
1.0
 17
0.0
 27
0.0
 37
0.0
 40
62.67310176844254
 41
2.070631970260222
 42
50.0
 43
0.0
 44
0.0
 50
0.0
 51
0.0
 71
     0
 72
  1000
 73
     1
 74
     3
 75
     0
 76
     1
 77
     0
 78
     0
281
     0
 65
     1
110
0.0
120
0.0
130
0.0
111
1.0
121
0.0
131
0.0
112
0.0
122
1.0
132
0.0
 79
     0
146
0.0
348
2A
 60
     3
 61
     5
292
     1
282
     1
141
0.0
142
0.0
 63
   250
421
  3355443
1001
ACAD_NAV_VCDISPLAY
1070
     3
  0
ENDTAB
  0
TABLE
  2
LTYPE
  5
23
330
0
100
AcDbSymbolTable
 70
     1
  0
LTYPE
  5
24
330
23
100
AcDbSymbolTableRecord
100
AcDbLinetypeTableRecord
  2
ByBlock
 70
     0
  3

 72
    65
 73
     0
 40
0.0
  0
LTYPE
  5
25
330
23
100
AcDbSymbolTableRecord
100
AcDbLinetypeTableRecord
  2
ByLayer
 70
     0
  3

 72
    65
 73
     0
 40
0.0
  0
LTYPE
  5
13
330
23
100
AcDbSymbolTableRecord
100
AcDbLinetypeTableRecord
  2
Continuous
 70
     0
  3
Solid line
 72
    65
 73
     0
 40
0.0
  0
ENDTAB
  0
TABLE
  2
LAYER
  5
1D
102
{ACAD_XDICTIONARY
360
1E
102
}
330
0
100
AcDbSymbolTable
 70
     1
  0
LAYER
  5
5
102
{ACAD_XDICTIONARY
360
6
102
}
330
1D
100
AcDbSymbolTableRecord
100
AcDbLayerTableRecord
  2
0
 70
     0
 62
     7
  6
Continuous
370
    -3
390
7
347
A
348
0
  0
ENDTAB
  0
TABLE
  2
STYLE
  5
20
330
0
100
AcDbSymbolTable
 70
     1
  0
STYLE
  5
21
330
20
100
AcDbSymbolTableRecord
100
AcDbTextStyleTableRecord
  2
Standard
 70
     0
 40
0.0
 41
1.0
 50
0.0
 71
     0
 42
2.5
  3
arial.ttf
  4

1001
ACAD
1000
Arial
1071
       34
  0
ENDTAB
  0
TABLE
  2
VIEW
  5
26
330
0
100
AcDbSymbolTable
 70
     0
  0
ENDTAB
  0
TABLE
  2
UCS
  5
27
330
0
100
AcDbSymbolTable
 70
     0
  0
ENDTAB
  0
TABLE
  2
APPID
  5
2D
330
0
100
AcDbSymbolTable
 70
     6
  0
APPID
  5
12
330
2D
100
AcDbSymbolTableRecord
100
AcDbRegAppTableRecord
  2
ACAD
 70
     0
  0
APPID
  5
18
330
2D
100
AcDbSymbolTableRecord
100
AcDbRegAppTableRecord
  2
ACAD_PSEXT
 70
     0
  0
APPID
  5
31
330
2D
100
AcDbSymbolTableRecord
100
AcDbRegAppTableRecord
  2
AcadAnnotative
 70
     0
  0
APPID
  5
32
330
2D
100
AcDbSymbolTableRecord
100
AcDbRegAppTableRecord
  2
ACAD_DSTYLE_DIMJAG
 70
     0
  0
APPID
  5
33
330
2D
100
AcDbSymbolTableRecord
100
AcDbRegAppTableRecord
  2
ACAD_DSTYLE_DIMTALN
 70
     0
  0
APPID
  5
2C
330
2D
100
AcDbSymbolTableRecord
100
AcDbRegAppTableRecord
  2
ACAD_NAV_VCDISPLAY
 70
     0
  0
ENDTAB
  0
TABLE
  2
DIMSTYLE
  5
2E
330
0
100
AcDbSymbolTable
 70
     2
100
AcDbDimStyleTable
 71
     2
340
2F
340
30
  0
DIMSTYLE
105
30
330
2E
100
AcDbSymbolTableRecord
100
AcDbDimStyleTableRecord
  2
Annotative
 70
     0
 40
0.0
 41
2.5
 42
0.625
 43
3.75
 44
1.25
 73
     0
 74
     0
 77
     1
 78
     8
140
2.5
141
2.5
143
0.03937007874016
147
0.625
171
     3
172
     1
271
     2
272
     2
274
     3
278
    44
283
     0
284
     8
340
21
1001
AcadAnnotative
1000
AnnotativeData
1002
{
1070
     1
1070
     1
1002
}
1001
ACAD_DSTYLE_DIMJAG
1070
   388
1040
1.5
1001
ACAD_DSTYLE_DIMTALN
1070
   392
1070
     0
  0
DIMSTYLE
105
2F
330
2E
100
AcDbSymbolTableRecord
100
AcDbDimStyleTableRecord
  2
ISO-25
 70
     0
 41
2.5
 42
0.625
 43
3.75
 44
1.25
 73
     0
 74
     0
 77
     1
 78
     8
140
2.5
141
2.5
143
0.03937007874016
147
0.625
171
     3
172
     1
271
     2
272
     2
274
     3
278
    44
283
     0
284
     8
340
21
  0
ENDTAB
  0
TABLE
  2
BLOCK_RECORD
  5
1
330
0
100
AcDbSymbolTable
 70
     0
  0
BLOCK_RECORD
  5
2
102
{ACAD_XDICTIONARY
360
3
102
}
330
1
100
AcDbSymbolTableRecord
100
AcDbBlockTableRecord
  2
*Model_Space
340
15
 70
     0
280
     1
281
     0
  0
BLOCK_RECORD
  5
19
330
1
100
AcDbSymbolTableRecord
100
AcDbBlockTableRecord
  2
*Paper_Space
340
1C
 70
     0
280
     1
281
     0
  0
ENDTAB
  0
ENDSEC
  0
SECTION
  2
BLOCKS
  0
BLOCK
  5
4
330
2
100
AcDbEntity
  8
0
100
AcDbBlockBegin
  2
*Model_Space
 70
     0
 10
0.0
 20
0.0
 30
0.0
  3
*Model_Space
  1

  0
ENDBLK
  5
14
330
2
100
AcDbEntity
  8
0
100
AcDbBlockEnd
  0
BLOCK
  5
1A
330
19
100
AcDbEntity
 67
     1
  8
0
100
AcDbBlockBegin
  2
*Paper_Space
 70
     0
 10
0.0
 20
0.0
 30
0.0
  3
*Paper_Space
  1

  0
ENDBLK
  5
1B
330
19
100
AcDbEntity
 67
     1
  8
0
100
AcDbBlockEnd
  0
ENDSEC
  0
SECTION
  2
ENTITIES
  0
LINE
  5
58
330
2
100
AcDbEntity
  8
0
100
AcDbLine
 10
400.4189352081572
 20
222.3068026301576
 30
0.0
 11
399.9693830873106
 21
222.1770281111673
 31
0.0
  0
LINE
  5
59
330
2
100
AcDbEntity
  8
0
100
AcDbLine
 10
430.3890666726577
 20
230.9584343645038
 30
0.0
 11
429.9395145518401
 21
230.8286598455135
 31
0.0
  0
LINE
  5
5A
330
2
100
AcDbEntity
  8
0
100
AcDbLine
 10
397.7582651476227
 20
221.3596843108053
 30
0.0
 11
397.6840761710347
 21
221.3382677979807
 31
0.0
  0
LINE
  5
5B
330
2
100
AcDbEntity
  8
0
100
AcDbLine
 10
398.2844943193662
 20
219.9989050381834
 30
0.0
 11
398.359418680412
 21
220.0205338381926
 31
0.0
  0
LINE
  5
5C
330
2
100
AcDbEntity
  8
0
100
AcDbLine
 10
432.6159007300605
 20
231.203295406548
 30
0.0
 11
397.7570704481986
 21
221.1404178831333
 31
0.0
  0
LINE
  5
5D
330
2
100
AcDbEntity
  8
0
100
AcDbLine
 10
432.6242176170571
 20
231.4246584289279
 30
0.0
 11
430.3787931430592
 21
230.7764602166781
 31
0.0
  0
LINE
  5
5E
330
2
100
AcDbEntity
  8
0
100
AcDbLine
 10
429.9292405564087
 20
230.6466855632097
 30
0.0
 11
400.4086616785585
 21
222.1248284823283
 31
0.0
  0
LINE
  5
5F
330
2
100
AcDbEntity
  8
0
100
AcDbLine
 10
399.9591105805367
 20
221.9950542586188
 30
0.0
 11
397.7589653747055
 21
221.359927045186
 31
0.0
  0
LINE
  5
60
330
2
100
AcDbEntity
  8
0
100
AcDbLine
 10
398.359418680412
 20
220.020658139007
 30
0.0
 11
433.2246709227637
 21
230.0853895227489
 31
0.0
  0
LINE
  5
61
330
2
100
AcDbEntity
  8
0
100
AcDbLine
 10
400.397200130239
 20
221.945584634503
 30
0.0
 11
400.4561191756892
 21
221.9364757970678
 31
0.0
  0
LINE
  5
62
330
2
100
AcDbEntity
  8
0
100
AcDbLine
 10
400.397200130239
 20
221.9630291974294
 30
0.0
 11
400.397200130239
 21
221.945584634503
 31
0.0
  0
LINE
  5
63
330
2
100
AcDbEntity
  8
0
100
AcDbLine
 10
400.4521579136706
 20
221.9545327694135
 30
0.0
 11
400.397200130239
 21
221.9630291974294
 31
0.0
  0
LINE
  5
64
330
2
100
AcDbEntity
  8
0
100
AcDbLine
 10
400.4554812665957
 20
221.9908867328542
 30
0.0
 11
400.4561191756892
 21
221.989379248232
 31
0.0
  0
LWPOLYLINE
  5
65
330
2
100
AcDbEntity
  8
0
100
AcDbPolyline
 90
        3
 70
   128
 43
0.0
 10
400.4561191756892
 20
221.9554719337049
 10
400.4551406509162
 20
221.9549018572371
 10
400.4521579136706
 20
221.9545327694135
  0
LINE
  5
66
330
2
100
AcDbEntity
  8
0
100
AcDbLine
 10
400.4172061041815
 20
222.0777642893128
 30
0.0
 11
400.4554812665957
 21
221.9908867328542
 31
0.0
  0
ARC
  5
67
330
2
100
AcDbEntity
  8
0
100
AcDbCircle
 10
400.5077652333248
 20
222.1180631622949
 30
0.0
 40
0.099120911189868
100
AcDbArc
 50
181.072238260701
 51
203.9890959520989
  0
LINE
  5
68
330
2
100
AcDbEntity
  8
0
100
AcDbLine
 10
400.4086616785585
 20
222.2824508939817
 30
0.0
 11
400.4086616785585
 21
222.1162083130862
 31
0.0
  0
LWPOLYLINE
  5
69
330
2
100
AcDbEntity
  8
0
100
AcDbPolyline
 90
        9
 70
   128
 43
0.0
 10
400.4317327101059
 20
222.3024309701308
 10
400.4272317594363
 20
222.3055610873982
 10
400.4229038024335
 20
222.3070352406011
 10
400.4189151182039
 20
222.3067968268162
 10
400.4154190401875
 20
222.3048549638825
 10
400.4125498594105
 20
222.3012843160997
 10
400.4104178555939
 20
222.2962220934393
 10
400.4091049731259
 20
222.2898628299381
 10
400.4086616785585
 20
222.2824508939817
  0
LINE
  5
6A
330
2
100
AcDbEntity
  8
0
100
AcDbLine
 10
400.4789539625311
 20
222.2615361659438
 30
0.0
 11
400.4317327101059
 21
222.3024309701308
 31
0.0
  0
ARC
  5
6B
330
2
100
AcDbEntity
  8
0
100
AcDbCircle
 10
400.4251736979987
 20
222.2088929257441
 30
0.0
 40
0.0752570766791573
100
AcDbArc
 50
13.2397705445976
 51
44.3878775561966
  0
ARC
  5
6C
330
2
100
AcDbEntity
  8
0
100
AcDbCircle
 10
400.6265251427167
 20
222.2545408412511
 30
0.0
 40
0.1312078255255671
100
AcDbArc
 50
192.5060257775983
 51
225.3962690924038
  0
LINE
  5
6D
330
2
100
AcDbEntity
  8
0
100
AcDbLine
 10
399.9476480094214
 20
221.8332546784392
 30
0.0
 11
399.9476480094214
 21
221.8158101155127
 31
0.0
  0
LINE
  5
6E
330
2
100
AcDbEntity
  8
0
100
AcDbLine
 10
399.9476480094214
 20
221.8332546784392
 30
0.0
 11
400.397200130239
 21
221.9630291974294
 31
0.0
  0
LINE
  5
6F
330
2
100
AcDbEntity
  8
0
100
AcDbLine
 10
399.9476480094214
 20
221.8158101155127
 30
0.0
 11
400.397200130239
 21
221.945584634503
 31
0.0
  0
LINE
  5
70
330
2
100
AcDbEntity
  8
0
100
AcDbLine
 10
399.9476480094214
 20
221.8158101155127
 30
0.0
 11
400.0065670548427
 21
221.8067012780775
 31
0.0
  0
LINE
  5
71
330
2
100
AcDbEntity
  8
0
100
AcDbLine
 10
399.967653983335
 20
221.9479897703226
 30
0.0
 11
400.005929145778
 21
221.8611122138639
 31
0.0
  0
ARC
  5
72
330
2
100
AcDbEntity
  8
0
100
AcDbCircle
 10
400.0582131124783
 20
221.9882886433046
 30
0.0
 40
0.0991209111891908
100
AcDbArc
 50
181.0722382606
 51
203.9890959522039
  0
LINE
  5
73
330
2
100
AcDbEntity
  8
0
100
AcDbLine
 10
400.005929145778
 20
221.8611122138639
 30
0.0
 11
400.0065670548427
 21
221.8596047292417
 31
0.0
  0
LINE
  5
74
330
2
100
AcDbEntity
  8
0
100
AcDbLine
 10
399.959109557712
 20
222.1526763749914
 30
0.0
 11
399.959109557712
 21
221.9864337940959
 31
0.0
  0
LWPOLYLINE
  5
75
330
2
100
AcDbEntity
  8
0
100
AcDbPolyline
 90
        7
 70
   128
 43
0.0
 10
399.9693830873106
 20
222.1770281111673
 10
399.9693629973863
 20
222.177022307826
 10
399.9658669193699
 20
222.175080444921
 10
399.962997738564
 20
222.1715097971094
 10
399.9608657347475
 20
222.166447574449
 10
399.9595528522795
 20
222.1600883109766
 10
399.959109557712
 20
222.1526763749914
  0
LINE
  5
76
330
2
100
AcDbEntity
  8
0
100
AcDbLine
 10
429.917779473922
 20
230.467441849859
 30
0.0
 11
429.9766985193722
 21
230.4583330124237
 31
0.0
  0
LINE
  5
77
330
2
100
AcDbEntity
  8
0
100
AcDbLine
 10
429.917779473922
 20
230.467441849859
 30
0.0
 11
430.3673315947685
 21
230.5972163688493
 31
0.0
  0
LINE
  5
78
330
2
100
AcDbEntity
  8
0
100
AcDbLine
 10
430.3673315947685
 20
230.5972163688493
 30
0.0
 11
430.4262506401898
 21
230.588107531414
 31
0.0
  0
LINE
  5
79
330
2
100
AcDbEntity
  8
0
100
AcDbLine
 10
429.917779473922
 20
230.4848864127854
 30
0.0
 11
429.917779473922
 21
230.467441849859
 31
0.0
  0
LINE
  5
7A
330
2
100
AcDbEntity
  8
0
100
AcDbLine
 10
429.917779473922
 20
230.4848864127854
 30
0.0
 11
430.3673315947685
 21
230.6146609317758
 31
0.0
  0
LINE
  5
7B
330
2
100
AcDbEntity
  8
0
100
AcDbLine
 10
430.3673315947685
 20
230.6146609317758
 30
0.0
 11
430.3673315947685
 21
230.5972163688493
 31
0.0
  0
LINE
  5
7C
330
2
100
AcDbEntity
  8
0
100
AcDbLine
 10
430.4222893781711
 20
230.6061645037599
 30
0.0
 11
430.3673315947685
 21
230.6146609317758
 31
0.0
  0
LINE
  5
7D
330
2
100
AcDbEntity
  8
0
100
AcDbLine
 10
430.4256127311252
 20
230.6425184672005
 30
0.0
 11
430.4262506401898
 21
230.6410109825783
 31
0.0
  0
LWPOLYLINE
  5
7E
330
2
100
AcDbEntity
  8
0
100
AcDbPolyline
 90
        3
 70
   128
 43
0.0
 10
430.4262506401898
 20
230.6071036680513
 10
430.4252721154457
 20
230.6065335915834
 10
430.4222893781711
 20
230.6061645037599
  0
LINE
  5
7F
330
2
100
AcDbEntity
  8
0
100
AcDbLine
 10
430.3873375686821
 20
230.7293960236592
 30
0.0
 11
430.4256127311252
 21
230.6425184672005
 31
0.0
  0
ARC
  5
80
330
2
100
AcDbEntity
  8
0
100
AcDbCircle
 10
430.4778966978544
 20
230.7696948966123
 30
0.0
 40
0.0991209111894377
100
AcDbArc
 50
181.0722382606
 51
203.9890959520989
  0
LINE
  5
81
330
2
100
AcDbEntity
  8
0
100
AcDbLine
 10
430.3787931430592
 20
230.934082628328
 30
0.0
 11
430.3787931430592
 21
230.7678400474325
 31
0.0
  0
LWPOLYLINE
  5
82
330
2
100
AcDbEntity
  8
0
100
AcDbPolyline
 90
        9
 70
   128
 43
0.0
 10
430.4018641746353
 20
230.9540627044771
 10
430.3973632239658
 20
230.9571928217445
 10
430.3930352669629
 20
230.9586669749474
 10
430.3890465827334
 20
230.9584285611625
 10
430.3855505047169
 20
230.9564866982288
 10
430.3826813239111
 20
230.952916050446
 10
430.3805493200946
 20
230.9478538277855
 10
430.3792364376265
 20
230.9414945642844
 10
430.3787931430592
 20
230.934082628328
  0
LINE
  5
83
330
2
100
AcDbEntity
  8
0
100
AcDbLine
 10
430.4490854270605
 20
230.9131679002901
 30
0.0
 11
430.4018641746353
 21
230.9540627044771
 31
0.0
  0
ARC
  5
84
330
2
100
AcDbEntity
  8
0
100
AcDbCircle
 10
430.3953051625281
 20
230.8605246600904
 30
0.0
 40
0.0752570766791878
100
AcDbArc
 50
13.2397705445976
 51
44.3878775561966
  0
ARC
  5
85
330
2
100
AcDbEntity
  8
0
100
AcDbCircle
 10
430.5966566072174
 20
230.9061725755973
 30
0.0
 40
0.1312078255213172
100
AcDbArc
 50
192.5060257771028
 51
225.3962690928978
  0
LINE
  5
86
330
2
100
AcDbEntity
  8
0
100
AcDbLine
 10
429.9377854478644
 20
230.5996215046688
 30
0.0
 11
429.9760606102787
 21
230.5127439482102
 31
0.0
  0
LINE
  5
87
330
2
100
AcDbEntity
  8
0
100
AcDbLine
 10
429.9760606102787
 20
230.5127439482102
 30
0.0
 11
430.4256127311252
 21
230.6425184672005
 31
0.0
  0
ARC
  5
88
330
2
100
AcDbEntity
  8
0
100
AcDbCircle
 10
430.0283445770078
 20
230.6399203776509
 30
0.0
 40
0.099120911190429
100
AcDbArc
 50
181.072238260701
 51
203.9890959520989
  0
LINE
  5
89
330
2
100
AcDbEntity
  8
0
100
AcDbLine
 10
429.9760606102787
 20
230.5127439482102
 30
0.0
 11
429.9766985193722
 21
230.511236463588
 31
0.0
  0
LINE
  5
8A
330
2
100
AcDbEntity
  8
0
100
AcDbLine
 10
429.9292410222415
 20
230.8043081093377
 30
0.0
 11
429.9292410222415
 21
230.6380655284422
 31
0.0
  0
LWPOLYLINE
  5
8B
330
2
100
AcDbEntity
  8
0
100
AcDbPolyline
 90
        7
 70
   128
 43
0.0
 10
429.9395145518401
 20
230.8286598455135
 10
429.9394944618868
 20
230.8286540421722
 10
429.9359983838993
 20
230.8267121792385
 10
429.9331292030935
 20
230.8231415314557
 10
429.9309971992768
 20
230.8180793087952
 10
429.9296843168089
 20
230.8117200452941
 10
429.9292410222415
 20
230.8043081093377
  0
ARC
  5
8C
330
2
100
AcDbEntity
  8
0
100
AcDbCircle
 10
398.3522868251318
 20
220.0526457136869
 30
0.0
 40
0.0327113865211626
100
AcDbArc
 50
219.8769850016982
 51
286.4843374547019
  0
LINE
  5
8D
330
2
100
AcDbEntity
  8
0
100
AcDbLine
 10
398.2854379465728
 20
220.068128523579
 30
0.0
 11
398.3271833628354
 21
220.0316730889029
 31
0.0
  0
LINE
  5
8E
330
2
100
AcDbEntity
  8
0
100
AcDbLine
 10
397.7506534604937
 20
221.3381185274622
 30
0.0
 11
397.7506691188218
 21
221.1264827014907
 31
0.0
  0
ARC
  5
8F
330
2
100
AcDbEntity
  8
0
100
AcDbCircle
 10
397.8948667439529
 20
220.6112013058968
 30
0.0
 40
0.2190925294377925
100
AcDbArc
 50
179.5440859339991
 51
222.4544297568996
  0
LINE
  5
90
330
2
100
AcDbEntity
  8
0
100
AcDbLine
 10
397.6757289382969
 20
221.3184736791315
 30
0.0
 11
397.6757811506328
 21
220.6129446509191
 31
0.0
  0
LINE
  5
91
330
2
100
AcDbEntity
  8
0
100
AcDbLine
 10
398.2522590017897
 20
220.0100442888937
 30
0.0
 11
398.3271833628354
 21
220.0316730889029
 31
0.0
  0
LINE
  5
92
330
2
100
AcDbEntity
  8
0
100
AcDbLine
 10
397.7332171131852
 20
220.4633130598299
 30
0.0
 11
398.2522590017897
 21
220.0100442888937
 31
0.0
  0
LWPOLYLINE
  5
93
330
2
100
AcDbEntity
  8
0
100
AcDbPolyline
 90
        7
 70
   128
 43
0.0
 10
397.6840761710347
 20
221.3382677979807
 10
397.684058364045
 20
221.3382626317455
 10
397.6812175723564
 20
221.3366838526915
 10
397.678886414993
 20
221.333781276675
 10
397.6771544640539
 20
221.329666522084
 10
397.6760883009946
 20
221.3244977647919
 10
397.6757289382969
 20
221.3184736791315
  0
ARC
  5
94
330
2
100
AcDbEntity
  8
0
100
AcDbCircle
 10
398.2778521651679
 20
220.0318953498035
 30
0.0
 40
0.0336523234492375
100
AcDbArc
 50
220.490205170696
 51
281.3835446286018
  0
ARC
  5
95
330
2
100
AcDbEntity
  8
0
100
AcDbCircle
 10
397.9696210142428
 20
220.6313731840131
 30
0.0
 40
0.2189278663162163
100
AcDbArc
 50
179.5350945264024
 51
222.5096489592002
  0
LINE
  5
96
330
2
100
AcDbEntity
  8
0
100
AcDbLine
 10
432.1214016197841
 20
230.9773710284426
 30
0.0
 11
431.9315905589252
 21
230.9225772949095
 31
0.0
  0
LINE
  5
97
330
2
100
AcDbEntity
  8
0
100
AcDbLine
 10
431.9315905589252
 20
230.9225772949095
 30
0.0
 11
431.9316153490502
 21
230.6827947957038
 31
0.0
  0
LINE
  5
98
330
2
100
AcDbEntity
  8
0
100
AcDbLine
 10
431.9316153490502
 20
230.6827947957038
 30
0.0
 11
432.1214264099092
 21
230.7375885292657
 31
0.0
  0
LINE
  5
99
330
2
100
AcDbEntity
  8
0
100
AcDbLine
 10
432.1214264099092
 20
230.7375885292657
 30
0.0
 11
432.1214016197841
 21
230.9773710284426
 31
0.0
  0
LINE
  5
9A
330
2
100
AcDbEntity
  8
0
100
AcDbLine
 10
398.245164043266
 20
221.1981435864851
 30
0.0
 11
398.4349751041249
 21
221.2529373200181
 31
0.0
  0
LINE
  5
9B
330
2
100
AcDbEntity
  8
0
100
AcDbLine
 10
398.2451888333622
 20
220.9583610872794
 30
0.0
 11
398.245164043266
 21
221.1981435864851
 31
0.0
  0
LINE
  5
9C
330
2
100
AcDbEntity
  8
0
100
AcDbLine
 10
398.4349998942211
 20
221.0131548208124
 30
0.0
 11
398.2451888333622
 21
220.9583610872794
 31
0.0
  0
LINE
  5
9D
330
2
100
AcDbEntity
  8
0
100
AcDbLine
 10
398.4349751041249
 20
221.2529373200181
 30
0.0
 11
398.4349998942211
 21
221.0131548208124
 31
0.0
  0
LINE
  5
9E
330
2
100
AcDbEntity
  8
0
100
AcDbLine
 10
397.7506495123506
 20
221.1251980116613
 30
0.0
 11
397.7507003549025
 21
220.6331495739703
 31
0.0
  0
LINE
  5
9F
330
2
100
AcDbEntity
  8
0
100
AcDbLine
 10
397.8082353705019
 20
220.4834404809327
 30
0.0
 11
398.3272824158823
 21
220.0317110490315
 31
0.0
  0
LWPOLYLINE
  5
A0
330
2
100
AcDbEntity
  8
0
100
AcDbPolyline
 90
        9
 70
   128
 43
0.0
 10
397.7570704481986
 20
221.1404178831333
 10
397.756286833376
 20
221.1401245992602
 10
397.7548697142362
 20
221.13919785577
 10
397.7536269853957
 20
221.137818265619
 10
397.7525798648078
 20
221.1360094143371
 10
397.7517462668864
 20
221.1338022143183
 10
397.7511404533554
 20
221.1312344163508
 10
397.750772764616
 20
221.1283499118043
 10
397.7506495123506
 20
221.1251980116613
  0
LINE
  5
A1
330
2
100
AcDbEntity
  8
0
100
AcDbLine
 10
397.7837827263405
 20
221.2639671737045
 30
0.0
 11
397.7837827263405
 21
221.1481290226108
 31
0.0
  0
LWPOLYLINE
  5
A2
330
2
100
AcDbEntity
  8
0
100
AcDbPolyline
 90
        8
 70
   128
 43
0.0
 10
397.7589653747055
 20
221.359927045186
 10
397.7561084680845
 20
221.3583445776243
 10
397.7520450374799
 20
221.3513303514529
 10
397.7506181419677
 20
221.3401412504463
 10
397.7520450374799
 20
221.3264806953472
 10
397.7561084680845
 20
221.3124284002042
 10
397.7621898626126
 20
221.3001236549205
 10
397.7693633383248
 20
221.2914397929731
  0
LINE
  5
A3
330
2
100
AcDbEntity
  8
0
100
AcDbLine
 10
397.7693633383248
 20
221.2914397929731
 30
0.0
 11
397.77513108278
 21
221.2864447797613
 31
0.0
  0
ARC
  5
A4
330
2
100
AcDbEntity
  8
0
100
AcDbCircle
 10
397.7509800180509
 20
221.2642452066548
 30
0.0
 40
0.0328038865648889
100
AcDbArc
 50
359.5143775071004
 51
42.58911111579792
  0
ARC
  5
A5
330
2
100
AcDbEntity
  8
0
100
AcDbCircle
 10
398.3527837813564
 20
220.053611658613
 30
0.0
 40
0.0336148232323531
100
AcDbArc
 50
220.6560319038991
 51
281.3837993315001
  0
LINE
  5
A6
330
2
100
AcDbEntity
  8
0
100
AcDbLine
 10
397.8082353705019
 20
220.4834404809327
 30
0.0
 11
432.6715107089381
 21
230.5476011816697
 31
0.0
  0
LINE
  5
A7
330
2
100
AcDbEntity
  8
0
100
AcDbLine
 10
430.3959200232433
 20
230.7099154353847
 30
0.0
 11
432.6159019818651
 21
231.3507690260643
 31
0.0
  0
LINE
  5
A8
330
2
100
AcDbEntity
  8
0
100
AcDbLine
 10
397.77513108278
 20
221.2864447797613
 30
0.0
 11
399.9788400747851
 21
221.9226007696414
 31
0.0
  0
LINE
  5
A9
330
2
100
AcDbEntity
  8
0
100
AcDbLine
 10
400.4283916629166
 20
222.0523751348524
 30
0.0
 11
429.9489700506572
 21
230.5742320742324
 31
0.0
  0
LINE
  5
AA
330
2
100
AcDbEntity
  8
0
100
AcDbLine
 10
397.3114954344014
 20
220.9742997684138
 30
0.0
 11
397.3209256702816
 21
220.9661329445982
 31
0.0
  0
LINE
  5
AB
330
2
100
AcDbEntity
  8
0
100
AcDbLine
 10
397.4133242070866
 20
221.0559632310995
 30
0.0
 11
397.3370641857883
 21
221.1220063468324
 31
0.0
  0
LINE
  5
AC
330
2
100
AcDbEntity
  8
0
100
AcDbLine
 10
397.0148426745575
 20
219.9705520411035
 30
0.0
 11
397.0647922485883
 21
219.9849712411192
 31
0.0
  0
LINE
  5
AD
330
2
100
AcDbEntity
  8
0
100
AcDbLine
 10
397.2588329511565
 20
220.4469973170096
 30
0.0
 11
396.8644182885438
 21
220.3331396111748
 31
0.0
  0
LINE
  5
AE
330
2
100
AcDbEntity
  8
0
100
AcDbLine
 10
396.6559606173021
 20
220.2729630648867
 30
0.0
 11
390.3259350886889
 21
218.4456420934324
 31
0.0
  0
LINE
  5
AF
330
2
100
AcDbEntity
  8
0
100
AcDbLine
 10
390.3659272705668
 20
218.3071051158843
 30
0.0
 11
396.7859361663492
 21
220.160402047973
 31
0.0
  0
LINE
  5
B0
330
2
100
AcDbEntity
  8
0
100
AcDbLine
 10
396.9044104704217
 20
220.1946026336553
 30
0.0
 11
397.288708386771
 21
220.305539886377
 31
0.0
  0
LINE
  5
B1
330
2
100
AcDbEntity
  8
0
100
AcDbLine
 10
397.2477024461497
 20
220.5736547702088
 30
0.0
 11
396.8505740065356
 21
220.459013664458
 31
0.0
  0
LINE
  5
B2
330
2
100
AcDbEntity
  8
0
100
AcDbLine
 10
396.5951023444936
 20
220.3852653480444
 30
0.0
 11
390.3259350886889
 21
218.5755126466558
 31
0.0
  0
LINE
  5
B3
330
2
100
AcDbEntity
  8
0
100
AcDbLine
 10
389.5343326891326
 20
217.8096204482185
 30
0.0
 11
390.4034082365499
 21
218.1672101252674
 31
0.0
  0
SPLINE
  5
B4
330
2
100
AcDbEntity
  8
0
100
AcDbSpline
210
0.0
220
0.0
230
1.0
 70
     8
 71
     3
 72
    11
 73
     7
 74
     0
 42
0.000000001
 43
0.0000000001
 40
0.0
 40
0.0
 40
0.0
 40
0.0
 40
0.288480915054196
 40
0.5824362261441614
 40
0.8794350738355911
 40
1.0
 40
1.0
 40
1.0
 40
1.0
 10
390.3105037221475
 20
218.6839628829083
 30
0.0
 10
390.305079668367
 20
218.6881005368955
 30
0.0
 10
390.294128630536
 20
218.6964543636047
 30
0.0
 10
390.276894715314
 20
218.703200075187
 30
0.0
 10
390.2630719524659
 20
218.7059203745823
 30
0.0
 10
390.2556878064694
 20
218.7046212416557
 30
0.0
 10
390.2535557512659
 20
218.7042461375994
 30
0.0
  0
LINE
  5
B5
330
2
100
AcDbEntity
  8
0
100
AcDbLine
 10
390.2507587144745
 20
218.7044771013157
 30
0.0
 11
389.3815134629715
 21
218.5602775704897
 31
0.0
  0
SPLINE
  5
B6
330
2
100
AcDbEntity
  8
0
100
AcDbSpline
210
0.0
220
0.0
230
1.0
 70
     8
 71
     3
 72
    11
 73
     7
 74
     0
 42
0.000000001
 43
0.0000000001
 40
0.0
 40
0.0
 40
0.0
 40
0.0
 40
0.1584937289214008
 40
0.4445013613025068
 40
0.7258217437545471
 40
1.0
 40
1.0
 40
1.0
 40
1.0
 10
390.4063259947148
 20
218.1703346807858
 30
0.0
 10
390.4104648881701
 20
218.1722365477312
 30
0.0
 10
390.4220725636772
 20
218.1775704019595
 30
0.0
 10
390.4362464542081
 20
218.1988617985354
 30
0.0
 10
390.4479164369101
 20
218.2305083399489
 30
0.0
 10
390.4496834035881
 20
218.2566618044073
 30
0.0
 10
390.4505555278543
 20
218.2695704072023
 30
0.0
  0
LINE
  5
B7
330
2
100
AcDbEntity
  8
0
100
AcDbLine
 10
390.3687475871604
 20
218.6335419423573
 30
0.0
 11
390.3109258540167
 21
218.6836170321509
 31
0.0
  0
LINE
  5
B8
330
2
100
AcDbEntity
  8
0
100
AcDbLine
 10
390.3990624821897
 20
218.596622718466
 30
0.0
 11
390.3681842414021
 21
218.6340104089616
 31
0.0
  0
LINE
  5
B9
330
2
100
AcDbEntity
  8
0
100
AcDbLine
 10
390.4507301296828
 20
218.26981965915
 30
0.0
 11
390.4507301296828
 21
218.3315855790779
 31
0.0
  0
LINE
  5
BA
330
2
100
AcDbEntity
  8
0
100
AcDbLine
 10
387.9124072168937
 20
217.29887938901
 30
0.0
 11
389.171153155235
 21
217.662248042177
 31
0.0
  0
LINE
  5
BB
330
2
100
AcDbEntity
  8
0
100
AcDbLine
 10
389.3893488179583
 20
217.7499651656347
 30
0.0
 11
389.4892479660482
 21
217.7910698507282
 31
0.0
  0
LINE
  5
BC
330
2
100
AcDbEntity
  8
0
100
AcDbLine
 10
389.2894221747232
 20
217.7088500067226
 30
0.0
 11
389.3893488179583
 21
217.7499651656347
 31
0.0
  0
LINE
  5
BD
330
2
100
AcDbEntity
  8
0
100
AcDbLine
 10
389.171153155235
 20
217.662248042177
 30
0.0
 11
389.2894466926403
 21
217.7088596676051
 31
0.0
  0
LINE
  5
BE
330
2
100
AcDbEntity
  8
0
100
AcDbLine
 10
389.3364287398579
 20
218.5527985141965
 30
0.0
 11
389.2365295917969
 21
218.5362263411168
 31
0.0
  0
LINE
  5
BF
330
2
100
AcDbEntity
  8
0
100
AcDbLine
 10
389.2365295917969
 20
218.5362263411168
 30
0.0
 11
389.136627466479
 21
218.5196533085552
 31
0.0
  0
LINE
  5
C0
330
2
100
AcDbEntity
  8
0
100
AcDbLine
 10
389.136627466479
 20
218.5196533085552
 30
0.0
 11
389.0537355093089
 21
218.5068571996056
 31
0.0
  0
LINE
  5
C1
330
2
100
AcDbEntity
  8
0
100
AcDbLine
 10
389.0431781758332
 20
218.505168119288
 30
0.0
 11
387.7844322375211
 21
218.1417994661209
 31
0.0
  0
SPLINE
  5
C2
330
2
100
AcDbEntity
  8
0
100
AcDbSpline
210
0.0
220
0.0
230
1.0
 70
     8
 71
     3
 72
     9
 73
     5
 74
     0
 42
0.000000001
 43
0.0000000001
 40
0.0
 40
0.0
 40
0.0
 40
0.0
 40
0.4646578829423549
 40
1.0
 40
1.0
 40
1.0
 40
1.0
 10
397.2949818006441
 20
220.4275579934503
 30
0.0
 10
397.2974415228584
 20
220.4215806477749
 30
0.0
 10
397.3027351427555
 20
220.4087166764635
 30
0.0
 10
397.3105537481363
 20
220.4004407317774
 30
0.0
 10
397.3147393768934
 20
220.3960102700285
 30
0.0
  0
SPLINE
  5
C3
330
2
100
AcDbEntity
  8
0
100
AcDbSpline
210
0.0
220
0.0
230
1.0
 70
     8
 71
     3
 72
    10
 73
     6
 74
     0
 42
0.000000001
 43
0.0000000001
 40
0.0
 40
0.0
 40
0.0
 40
0.0
 40
0.4121679544340319
 40
0.9576086483930687
 40
1.0
 40
1.0
 40
1.0
 40
1.0
 10
397.2877611721652
 20
220.4646040498833
 30
0.0
 10
397.2880528166023
 20
220.4596806686202
 30
0.0
 10
397.2887304074546
 20
220.4482419518876
 30
0.0
 10
397.2916128467034
 20
220.4346486208303
 30
0.0
 10
397.2947551912994
 20
220.428034937467
 30
0.0
 10
397.2949818006441
 20
220.4275579934503
 30
0.0
  0
LINE
  5
C4
330
2
100
AcDbEntity
  8
0
100
AcDbLine
 10
397.2877611721654
 20
220.9407064891301
 30
0.0
 11
397.2877611721654
 21
220.4646040498928
 31
0.0
  0
LINE
  5
C5
330
2
100
AcDbEntity
  8
0
100
AcDbLine
 10
397.3147393768858
 20
220.3960102700272
 30
0.0
 11
397.8367211370746
 21
219.9417752138096
 31
0.0
  0
LINE
  5
C6
330
2
100
AcDbEntity
  8
0
100
AcDbLine
 10
397.6757428682308
 20
221.131716977299
 30
0.0
 11
397.3331147521071
 21
221.0328087597583
 31
0.0
  0
LINE
  5
C7
330
2
100
AcDbEntity
  8
0
100
AcDbLine
 10
397.3209257565384
 20
221.0125938073321
 30
0.0
 11
397.3209257565384
 21
220.956533164399
 31
0.0
  0
SPLINE
  5
C8
330
2
100
AcDbEntity
  8
0
100
AcDbSpline
210
0.0
220
0.0
230
1.0
 70
     8
 71
     3
 72
    12
 73
     8
 74
     0
 42
0.000000001
 43
0.0000000001
 40
0.0
 40
0.0
 40
0.0
 40
0.0
 40
0.0968518077387146
 40
0.3216093722615387
 40
0.5378526795031668
 40
0.7939299202436443
 40
1.0
 40
1.0
 40
1.0
 40
1.0
 10
397.3332080226386
 20
221.0325323951552
 30
0.0
 10
397.3323828807447
 20
221.0323676579289
 30
0.0
 10
397.3296428868015
 20
221.0318206259508
 30
0.0
 10
397.3259695935784
 20
221.0286496955538
 30
0.0
 10
397.3227724025687
 20
221.0238045982158
 30
0.0
 10
397.321177826516
 20
221.0183895826274
 30
0.0
 10
397.3210034918409
 20
221.0143811535999
 30
0.0
 10
397.3209257565412
 20
221.01259380733
 30
0.0
  0
LINE
  5
C9
330
2
100
AcDbEntity
  8
0
100
AcDbLine
 10
397.8603466186862
 20
219.9349742227245
 30
0.0
 11
398.2194985552483
 21
220.0386524563537
 31
0.0
  0
SPLINE
  5
CA
330
2
100
AcDbEntity
  8
0
100
AcDbSpline
210
0.0
220
0.0
230
1.0
 70
     8
 71
     3
 72
    10
 73
     6
 74
     0
 42
0.000000001
 43
0.0000000001
 40
0.0
 40
0.0
 40
0.0
 40
0.0
 40
0.4979108748729176
 40
0.9042729628983835
 40
1.0
 40
1.0
 40
1.0
 40
1.0
 10
397.8367211370701
 20
219.9417752138128
 30
0.0
 10
397.840254678732
 20
219.9392771642921
 30
0.0
 10
397.846672064552
 20
219.9347403711515
 30
0.0
 10
397.8560539668666
 20
219.9331783282842
 30
0.0
 10
397.8599542395954
 20
219.9351866596213
 30
0.0
 10
397.8606978556857
 20
219.9355695629724
 30
0.0
  0
SPLINE
  5
CB
330
2
100
AcDbEntity
  8
0
100
AcDbSpline
210
0.0
220
0.0
230
1.0
 70
     8
 71
     3
 72
    12
 73
     8
 74
     0
 42
0.000000001
 43
0.0000000001
 40
0.0
 40
0.0
 40
0.0
 40
0.0
 40
0.1348112637584273
 40
0.3707574349550936
 40
0.6161089759815713
 40
0.8571646013278815
 40
1.0
 40
1.0
 40
1.0
 40
1.0
 10
397.2712561128068
 20
220.6774297648153
 30
0.0
 10
397.267020896643
 20
220.6682239240981
 30
0.0
 10
397.2553732209398
 20
220.6429060552807
 30
0.0
 10
397.2461772747187
 20
220.5933370815408
 30
0.0
 10
397.2454443705607
 20
220.527830902915
 30
0.0
 10
397.2535098826903
 20
220.4660382547975
 30
0.0
 10
397.2630680567836
 20
220.4283150555155
 30
0.0
 10
397.2666243931442
 20
220.4142792800702
 30
0.0
  0
SPLINE
  5
CC
330
2
100
AcDbEntity
  8
0
100
AcDbSpline
210
0.0
220
0.0
230
1.0
 70
     8
 71
     3
 72
    10
 73
     6
 74
     0
 42
0.000000001
 43
0.0000000001
 40
0.0
 40
0.0
 40
0.0
 40
0.0
 40
0.0359904585941298
 40
0.5212060736319195
 40
1.0
 40
1.0
 40
1.0
 40
1.0
 10
397.2638349554202
 20
220.4264143409449
 30
0.0
 10
397.2638508318608
 20
220.4261235235391
 30
0.0
 10
397.2640807510575
 20
220.4219119684722
 30
0.0
 10
397.2676707965452
 20
220.4147530982275
 30
0.0
 10
397.272833383692
 20
220.4095090911429
 30
0.0
 10
397.2753974821415
 20
220.4069045539115
 30
0.0
  0
LINE
  5
CD
330
2
100
AcDbEntity
  8
0
100
AcDbLine
 10
397.2717101778308
 20
220.4100698296568
 30
0.0
 11
397.2813189804414
 21
220.4017483625155
 31
0.0
  0
SPLINE
  5
CE
330
2
100
AcDbEntity
  8
0
100
AcDbSpline
210
0.0
220
0.0
230
1.0
 70
     8
 71
     3
 72
    10
 73
     6
 74
     0
 42
0.000000001
 43
0.0000000001
 40
0.0
 40
0.0
 40
0.0
 40
0.0
 40
0.3132085475553744
 40
0.8337010188864573
 40
1.0
 40
1.0
 40
1.0
 40
1.0
 10
397.2877622099609
 20
220.6938394921611
 30
0.0
 10
397.2858829719291
 20
220.6925169012539
 30
0.0
 10
397.2808808010938
 20
220.6889964181903
 30
0.0
 10
397.2757209406708
 20
220.6831556069475
 30
0.0
 10
397.2731740362563
 20
220.6784706400426
 30
0.0
 10
397.2725573314217
 20
220.6773362269396
 30
0.0
  0
SPLINE
  5
CF
330
2
100
AcDbEntity
  8
0
100
AcDbSpline
210
0.0
220
0.0
230
1.0
 70
     8
 71
     3
 72
    11
 73
     7
 74
     0
 42
0.000000001
 43
0.0000000001
 40
0.0
 40
0.0
 40
0.0
 40
0.0
 40
0.1183509333362215
 40
0.4102560141028624
 40
0.7216221583246396
 40
1.0
 40
1.0
 40
1.0
 40
1.0
 10
397.273206362954
 20
220.3757130049469
 30
0.0
 10
397.272949543992
 20
220.3707010144388
 30
0.0
 10
397.2720592973266
 20
220.3533272668004
 30
0.0
 10
397.2805646491757
 20
220.3206967918036
 30
0.0
 10
397.2958686362776
 20
220.2837314636127
 30
0.0
 10
397.313186124447
 20
220.2664500752308
 30
0.0
 10
397.3213605273999
 20
220.258292712521
 30
0.0
  0
LINE
  5
D0
330
2
100
AcDbEntity
  8
0
100
AcDbLine
 10
397.2721148902749
 20
220.3861194969356
 30
0.0
 11
397.2721148902749
 21
220.3761294239662
 31
0.0
  0
LINE
  5
D1
330
2
100
AcDbEntity
  8
0
100
AcDbLine
 10
397.3208720559488
 20
220.2576039172322
 30
0.0
 11
397.3857592885804
 21
220.2014099253776
 31
0.0
  0
LINE
  5
D2
330
2
100
AcDbEntity
  8
0
100
AcDbLine
 10
397.5059023433384
 20
220.166917355355
 30
0.0
 11
397.5600409291717
 21
220.1825458188935
 31
0.0
  0
SPLINE
  5
D3
330
2
100
AcDbEntity
  8
0
100
AcDbSpline
210
0.0
220
0.0
230
1.0
 70
     8
 71
     3
 72
    11
 73
     7
 74
     0
 42
0.000000001
 43
0.0000000001
 40
0.0
 40
0.0
 40
0.0
 40
0.0
 40
0.2286195946440973
 40
0.5732397815957268
 40
0.8889128612086658
 40
1.0
 40
1.0
 40
1.0
 40
1.0
 10
397.3857592885918
 20
220.2014099253799
 30
0.0
 10
397.3938462011852
 20
220.1949690374648
 30
0.0
 10
397.4141232908018
 20
220.178819182998
 30
0.0
 10
397.4494868024917
 20
220.1644940558428
 30
0.0
 10
397.4848137360236
 20
220.1596906317352
 30
0.0
 10
397.5020116376673
 20
220.1673504776742
 30
0.0
 10
397.5064883100574
 20
220.1693443616687
 30
0.0
  0
LINE
  5
D4
330
2
100
AcDbEntity
  8
0
100
AcDbLine
 10
397.2721148902749
 20
220.690815815496
 30
0.0
 11
397.2721148902749
 21
220.6808257657995
 31
0.0
  0
SPLINE
  5
D5
330
2
100
AcDbEntity
  8
0
100
AcDbSpline
210
0.0
220
0.0
230
1.0
 70
     8
 71
     3
 72
    10
 73
     6
 74
     0
 42
0.000000001
 43
0.0000000001
 40
0.0
 40
0.0
 40
0.0
 40
0.0
 40
0.1210707881488531
 40
0.5392088557760869
 40
1.0
 40
1.0
 40
1.0
 40
1.0
 10
397.2877615091359
 20
220.7467279050917
 30
0.0
 10
397.2862676437396
 20
220.7448359755015
 30
0.0
 10
397.2796144661776
 20
220.7364099529637
 30
0.0
 10
397.2737736222121
 20
220.7173956426842
 30
0.0
 10
397.2729986495765
 20
220.6998886336098
 30
0.0
 10
397.2725923591466
 20
220.6907103350226
 30
0.0
  0
ARC
  5
D6
330
2
100
AcDbEntity
  8
0
100
AcDbCircle
 10
397.3353201472799
 20
221.00164649491
 30
0.0
 40
0.0360618056490749
100
AcDbArc
 50
177.0843668929017
 51
246.4746773033022
  0
LINE
  5
D7
330
2
100
AcDbEntity
  8
0
100
AcDbLine
 10
397.2993050230795
 20
221.0034807944466
 30
0.0
 11
397.2993050230795
 21
221.0534310117837
 31
0.0
  0
ARC
  5
D8
330
2
100
AcDbEntity
  8
0
100
AcDbCircle
 10
397.2810069933276
 20
221.0541451626001
 30
0.0
 40
0.0183119606784565
100
AcDbArc
 50
357.7649467339011
 51
111.3836952750979
  0
LINE
  5
D9
330
2
100
AcDbEntity
  8
0
100
AcDbLine
 10
397.2993050230795
 20
221.0784061207837
 30
0.0
 11
397.2743302360641
 21
221.0711965207902
 31
0.0
  0
LINE
  5
DA
330
2
100
AcDbEntity
  8
0
100
AcDbLine
 10
397.2993050230795
 20
221.1283563373711
 30
0.0
 11
397.2993050230795
 21
221.0784061207837
 31
0.0
  0
ARC
  5
DB
330
2
100
AcDbEntity
  8
0
100
AcDbCircle
 10
397.3126589277367
 20
221.0942541694752
 30
0.0
 40
0.0366235528862791
100
AcDbArc
 50
357.764067805403
 51
111.3845764181963
  0
LINE
  5
DC
330
2
100
AcDbEntity
  8
0
100
AcDbLine
 10
397.3492545971101
 20
221.0428751027704
 30
0.0
 11
397.3492545971101
 21
221.0928253207995
 31
0.0
  0
LWPOLYLINE
  5
DD
330
2
100
AcDbEntity
  8
0
100
AcDbPolyline
 90
        3
 70
   128
 43
0.0
 10
397.3492545971101
 20
221.0428751027704
 10
397.349735425396
 20
221.0381415042534
 10
397.3498470728246
 20
221.0376389559605
  0
LINE
  5
DE
330
2
100
AcDbEntity
  8
0
100
AcDbLine
 10
397.119579495128
 20
221.1763744747505
 30
0.0
 11
396.6700288629388
 21
221.0466003854868
 31
0.0
  0
ARC
  5
DF
330
2
100
AcDbEntity
  8
0
100
AcDbCircle
 10
396.6805392940747
 20
221.012660492146
 30
0.0
 40
0.0355300650532683
100
AcDbArc
 50
107.206591938602
 51
177.1691313051044
  0
LINE
  5
E0
330
2
100
AcDbEntity
  8
0
100
AcDbLine
 10
396.6450525872951
 20
221.0144152467378
 30
0.0
 11
396.6450525872951
 21
220.3900375343081
 31
0.0
  0
LINE
  5
E1
330
2
100
AcDbEntity
  8
0
100
AcDbLine
 10
396.5951030132647
 20
220.3756183342925
 30
0.0
 11
396.5951030132647
 21
221.0249711557511
 31
0.0
  0
ARC
  5
E2
330
2
100
AcDbEntity
  8
0
100
AcDbCircle
 10
396.6660766404331
 20
221.0214615453143
 30
0.0
 40
0.0710603484446715
100
AcDbArc
 50
107.2092307659917
 51
177.1690582601009
  0
LINE
  5
E3
330
2
100
AcDbEntity
  8
0
100
AcDbLine
 10
396.6450525872951
 20
221.0893405723252
 30
0.0
 11
397.119579495128
 21
221.2263246913378
 31
0.0
  0
ARC
  5
E4
330
2
100
AcDbEntity
  8
0
100
AcDbCircle
 10
396.75439478387
 20
220.3891106654846
 30
0.0
 40
0.1093461249447914
100
AcDbArc
 50
179.5143284029021
 51
222.5890966166057
  0
LINE
  5
E5
330
2
100
AcDbEntity
  8
0
100
AcDbLine
 10
397.0776341471618
 20
220.6397886266742
 30
0.0
 11
397.0776341471618
 21
220.5245602849827
 31
0.0
  0
LINE
  5
E6
330
2
100
AcDbEntity
  8
0
100
AcDbLine
 10
397.0776341471618
 20
220.2446080037871
 30
0.0
 11
397.0776341471618
 21
220.0154109142445
 31
0.0
  0
LWPOLYLINE
  5
E7
330
2
100
AcDbEntity
  8
0
100
AcDbPolyline
 90
        9
 70
   128
 43
0.0
 10
397.0776341471618
 20
220.0154109142445
 10
397.0770800222261
 20
220.0061459797499
 10
397.0754389325657
 20
219.9981969149298
 10
397.0727739412192
 20
219.9918691220549
 10
397.0691874719387
 20
219.9874058181231
 10
397.0648173341376
 20
219.9849784981941
 10
397.0598314989798
 20
219.984680480956
 10
397.0544215460285
 20
219.9865231869944
 10
397.0487953711307
 20
219.990435801582
  0
LINE
  5
E8
330
2
100
AcDbEntity
  8
0
100
AcDbLine
 10
396.673891336449
 20
220.315112219593
 30
0.0
 11
397.0487953711307
 21
219.990435801582
 31
0.0
  0
ARC
  5
E9
330
2
100
AcDbEntity
  8
0
100
AcDbCircle
 10
396.7044452098395
 20
220.3746914654687
 30
0.0
 40
0.1093461249447935
100
AcDbArc
 50
179.5143284029021
 51
222.5890966166057
  0
LINE
  5
EA
330
2
100
AcDbEntity
  8
0
100
AcDbLine
 10
396.6239417624186
 20
220.3006930195773
 30
0.0
 11
396.9988457971
 21
219.9760166015949
 31
0.0
  0
ARC
  5
EB
330
2
100
AcDbEntity
  8
0
100
AcDbCircle
 10
397.147775486064
 20
221.1374541637594
 30
0.0
 40
0.0932361763120511
100
AcDbArc
 50
57.1363594145004
 51
107.602693898998
  0
ARC
  5
EC
330
2
100
AcDbEntity
  8
0
100
AcDbCircle
 10
397.147775486064
 20
221.0875039471725
 30
0.0
 40
0.0932361763120492
100
AcDbArc
 50
57.1363594145004
 51
107.602693898998
  0
LWPOLYLINE
  5
ED
330
2
100
AcDbEntity
  8
0
100
AcDbPolyline
 90
        9
 70
   128
 43
0.0
 10
397.2184871318848
 20
220.9551755778268
 10
397.1902956616278
 20
220.9712498844725
 10
397.1519464135637
 20
220.9807057679123
 10
397.1092777696608
 20
220.9821036585708
 10
397.0687886860926
 20
220.9752316271521
 10
397.0366414367307
 20
220.961135355392
 10
397.0177298210817
 20
220.9419607749929
 10
397.0149332675492
 20
220.9206271217837
 10
397.0286775596544
 20
220.9003822739914
  0
LWPOLYLINE
  5
EE
330
2
100
AcDbEntity
  8
0
100
AcDbPolyline
 90
        9
 70
   128
 43
0.0
 10
397.0286775596544
 20
220.9003822739914
 10
397.0568705252305
 20
220.8843083912466
 10
397.0952197682766
 20
220.8748525121904
 10
397.1378869277327
 20
220.8734541881429
 10
397.1783760140405
 20
220.8803262171967
 10
397.2105232606625
 20
220.8944224913507
 10
397.2294363607586
 20
220.9135975050811
 10
397.2322329193091
 20
220.9349311539646
 10
397.2184871318848
 20
220.9551755778268
  0
LINE
  5
EF
330
2
100
AcDbEntity
  8
0
100
AcDbLine
 10
397.2993050230795
 20
221.0784061207837
 30
0.0
 11
397.1983693069696
 21
221.1658190150743
 31
0.0
  0
LINE
  5
F0
330
2
100
AcDbEntity
  8
0
100
AcDbLine
 10
397.2765407524263
 20
220.7221831267479
 30
0.0
 11
397.1026104228059
 21
220.671973765452
 31
0.0
  0
LINE
  5
F1
330
2
100
AcDbEntity
  8
0
100
AcDbLine
 10
397.2993050230795
 20
221.1283563373711
 30
0.0
 11
397.1983693069696
 21
221.2157692316615
 31
0.0
  0
ARC
  5
F2
330
2
100
AcDbEntity
  8
0
100
AcDbCircle
 10
397.113120853942
 20
220.6380338721113
 30
0.0
 40
0.0355300650532969
100
AcDbArc
 50
107.2065919386973
 51
177.1691313049983
  0
LINE
  5
F3
330
2
100
AcDbEntity
  8
0
100
AcDbLine
 10
397.0286775596544
 20
220.9503324905787
 30
0.0
 11
397.0260403343058
 21
220.9527539087108
 31
0.0
  0
ARC
  5
F4
330
2
100
AcDbEntity
  8
0
100
AcDbCircle
 10
397.0118907937013
 20
219.9880575439586
 30
0.0
 40
0.0177526400829013
100
AcDbArc
 50
222.7079836638038
 51
279.5715081717046
  0
LWPOLYLINE
  5
F5
330
2
100
AcDbEntity
  8
0
100
AcDbPolyline
 90
        8
 70
   128
 43
0.0
 10
390.3259350886889
 20
218.4456420934324
 10
390.3204410695657
 20
218.4425988750829
 10
390.3126267437821
 20
218.4291099924311
 10
390.3098827154572
 20
218.4075924903823
 10
390.3126267437821
 20
218.3813221918751
 10
390.3204410695657
 20
218.3542984999628
 10
390.3321360290373
 20
218.3306355819635
 10
390.345931178806
 20
218.3139358470098
  0
LWPOLYLINE
  5
F6
330
2
100
AcDbEntity
  8
0
100
AcDbPolyline
 90
        3
 70
   128
 43
0.0
 10
390.345931178806
 20
218.3139358470098
 10
390.3597263302184
 20
218.3067416802292
 10
390.3659272705668
 20
218.3071051158843
  0
LWPOLYLINE
  5
F7
330
2
100
AcDbEntity
  8
0
100
AcDbPolyline
 90
        8
 70
   128
 43
0.0
 10
390.3259350886889
 20
218.5755126466558
 10
390.3204410695657
 20
218.5724694283063
 10
390.3126267437821
 20
218.5589805456834
 10
390.3098827154572
 20
218.5374630668786
 10
390.3126267437821
 20
218.5111927683714
 10
390.3204410695657
 20
218.4841690764881
 10
390.3321360290373
 20
218.4605061584599
 10
390.3400635218219
 20
218.449720620759
  0
SPLINE
  5
F8
330
2
100
AcDbEntity
  8
0
100
AcDbSpline
210
0.0
220
0.0
230
1.0
 70
     8
 71
     3
 72
    12
 73
     8
 74
     0
 42
0.000000001
 43
0.0000000001
 40
0.0
 40
0.0
 40
0.0
 40
0.0
 40
0.2420661671115245
 40
0.3688257324002824
 40
0.4990830844946328
 40
0.7491133167360427
 40
1.0
 40
1.0
 40
1.0
 40
1.0
 10
390.2951618758702
 20
218.232484366987
 30
0.0
 10
390.2841147388855
 20
218.2440737617237
 30
0.0
 10
390.26728269483
 20
218.2617320204252
 30
0.0
 10
390.2467891869369
 20
218.2978783808771
 30
0.0
 10
390.2284914412436
 20
218.3381957203883
 30
0.0
 10
390.2106879534401
 20
218.394946401651
 30
0.0
 10
390.2072977960531
 20
218.4363803591506
 30
0.0
 10
390.2055998191707
 20
218.457132759099
 30
0.0
  0
SPLINE
  5
F9
330
2
100
AcDbEntity
  8
0
100
AcDbSpline
210
0.0
220
0.0
230
1.0
 70
     8
 71
     3
 72
    13
 73
     9
 74
     0
 42
0.000000001
 43
0.0000000001
 40
0.0
 40
0.0
 40
0.0
 40
0.0
 40
0.135927094370268
 40
0.2701046652905584
 40
0.4994908148675381
 40
0.7292546459188231
 40
0.8636343039135178
 40
1.0
 40
1.0
 40
1.0
 40
1.0
 10
389.4279798689812
 20
217.8756739068163
 30
0.0
 10
389.4218029384693
 20
217.8816489598236
 30
0.0
 10
389.4095285809826
 20
217.8935221606751
 30
0.0
 10
389.3879476668676
 20
217.9253169020179
 30
0.0
 10
389.3653135973875
 20
217.9718856042758
 30
0.0
 10
389.3499672590298
 20
218.024649138944
 30
0.0
 10
389.3425229871102
 20
218.0686166343255
 30
0.0
 10
389.3418184213542
 20
218.090535431515
 30
0.0
 10
389.3414635543237
 20
218.1015752221929
 30
0.0
  0
LINE
  5
FA
330
2
100
AcDbEntity
  8
0
100
AcDbLine
 10
390.2055998728927
 20
218.4571327125888
 30
0.0
 11
389.3414635543233
 21
218.1015752221979
 31
0.0
  0
SPLINE
  5
FB
330
2
100
AcDbEntity
  8
0
100
AcDbSpline
210
0.0
220
0.0
230
1.0
 70
     8
 71
     3
 72
    11
 73
     7
 74
     0
 42
0.000000001
 43
0.0000000001
 40
0.0
 40
0.0
 40
0.0
 40
0.0
 40
0.279478541878792
 40
0.5590403864101669
 40
0.779493085037061
 40
1.0
 40
1.0
 40
1.0
 40
1.0
 10
390.3170924094776
 20
218.2636041072842
 30
0.0
 10
390.3064780021269
 20
218.2751885103128
 30
0.0
 10
390.285246023647
 20
218.2983607692702
 30
0.0
 10
390.2615701891847
 20
218.3526933804397
 30
0.0
 10
390.2474966323396
 20
218.4063054804968
 30
0.0
 10
390.2458292676705
 20
218.436670737359
 30
0.0
 10
390.2449954828343
 20
218.4518552325061
 30
0.0
  0
ARC
  5
FC
330
2
100
AcDbEntity
  8
0
100
AcDbCircle
 10
390.2196993305008
 20
218.4127036708944
 30
0.0
 40
0.046612660294927
100
AcDbArc
 50
57.13315856589073
 51
107.6067655583046
  0
LINE
  5
FD
330
2
100
AcDbEntity
  8
0
100
AcDbLine
 10
390.2055998728927
 20
218.4571327125888
 30
0.0
 11
390.2055998728927
 21
218.6108657885121
 31
0.0
  0
LINE
  5
FE
330
2
100
AcDbEntity
  8
0
100
AcDbLine
 10
389.3414635543233
 20
218.1015752221979
 30
0.0
 11
389.3414635543233
 21
218.467514066835
 31
0.0
  0
LINE
  5
FF
330
2
100
AcDbEntity
  8
0
100
AcDbLine
 10
389.3414635543233
 20
218.467514066835
 30
0.0
 11
390.2055998728927
 21
218.6108657885121
 31
0.0
  0
LINE
  5
100
330
2
100
AcDbEntity
  8
0
100
AcDbLine
 10
390.3747699514632
 20
218.6190136538059
 30
0.0
 11
390.3170924094651
 21
218.6689638703931
 31
0.0
  0
SPLINE
  5
101
330
2
100
AcDbEntity
  8
0
100
AcDbSpline
210
0.0
220
0.0
230
1.0
 70
     8
 71
     3
 72
    11
 73
     7
 74
     0
 42
0.000000001
 43
0.0000000001
 40
0.0
 40
0.0
 40
0.0
 40
0.0
 40
0.2797803801779591
 40
0.559416581391658
 40
0.7797283260275995
 40
1.0
 40
1.0
 40
1.0
 40
1.0
 10
390.446866881464
 20
218.2770294729954
 30
0.0
 10
390.4455179082649
 20
218.2597961863235
 30
0.0
 10
390.4428206570328
 20
218.2253384937932
 30
0.0
 10
390.423585812656
 20
218.2006221301176
 30
0.0
 10
390.3997988255489
 20
218.1964083314318
 30
0.0
 10
390.3831124036202
 20
218.2079057195005
 30
0.0
 10
390.3747699514635
 20
218.2136538906965
 30
0.0
  0
LINE
  5
102
330
2
100
AcDbEntity
  8
0
100
AcDbLine
 10
390.3170924094651
 20
218.2636041072923
 30
0.0
 11
390.3747699514632
 21
218.2136538907051
 31
0.0
  0
LINE
  5
103
330
2
100
AcDbEntity
  8
0
100
AcDbLine
 10
390.2449954828255
 20
218.6055883084467
 30
0.0
 11
390.2449954828255
 21
218.4518552324945
 31
0.0
  0
SPLINE
  5
104
330
2
100
AcDbEntity
  8
0
100
AcDbSpline
210
0.0
220
0.0
230
1.0
 70
     8
 71
     3
 72
    11
 73
     7
 74
     0
 42
0.000000001
 43
0.0000000001
 40
0.0
 40
0.0
 40
0.0
 40
0.0
 40
0.2797802974193668
 40
0.5594164014320372
 40
0.7797282911455384
 40
1.0
 40
1.0
 40
1.0
 40
1.0
 10
390.2449954828343
 20
218.6055883084486
 30
0.0
 10
390.2463444558218
 20
218.6228215893814
 30
0.0
 10
390.2490417065615
 20
218.6572792695437
 30
0.0
 10
390.2682765583134
 20
218.681995590365
 30
0.0
 10
390.2920635235213
 20
218.6862094795151
 30
0.0
 10
390.3087499547552
 20
218.6747120572501
 30
0.0
 10
390.3170924094776
 20
218.6689638703953
 30
0.0
  0
LINE
  5
105
330
2
100
AcDbEntity
  8
0
100
AcDbLine
 10
390.3528394182824
 20
218.1825343361059
 30
0.0
 11
390.2951618758805
 21
218.2324845530682
 31
0.0
  0
LINE
  5
106
330
2
100
AcDbEntity
  8
0
100
AcDbLine
 10
389.4856574113808
 20
217.8257236898707
 30
0.0
 11
389.4279798689788
 21
217.875673906804
 31
0.0
  0
ARC
  5
107
330
2
100
AcDbEntity
  8
0
100
AcDbCircle
 10
390.2196993305008
 20
218.5664367468177
 30
0.0
 40
0.0466126602949504
100
AcDbArc
 50
57.13315856600637
 51
107.6067655583046
  0
SPLINE
  5
108
330
2
100
AcDbEntity
  8
0
100
AcDbSpline
210
0.0
220
0.0
230
1.0
 70
     8
 71
     3
 72
    10
 73
     6
 74
     0
 42
0.000000001
 43
0.0000000001
 40
0.0
 40
0.0
 40
0.0
 40
0.0
 40
0.3272742700641808
 40
0.6612973532336735
 40
1.0
 40
1.0
 40
1.0
 40
1.0
 10
389.5359763638069
 20
217.8132802491756
 30
0.0
 10
389.5312753006254
 20
217.8109041724717
 30
0.0
 10
389.5217762323404
 20
217.8061030213304
 30
0.0
 10
389.5040309540703
 20
217.8118683089956
 30
0.0
 10
389.4918102618316
 20
217.8210838614002
 30
0.0
 10
389.485657411387
 20
217.8257236898652
 30
0.0
  0
SPLINE
  5
109
330
2
100
AcDbEntity
  8
0
100
AcDbSpline
210
0.0
220
0.0
230
1.0
 70
     8
 71
     3
 72
    11
 73
     7
 74
     0
 42
0.000000001
 43
0.0000000001
 40
0.0
 40
0.0
 40
0.0
 40
0.0
 40
0.206233389007813
 40
0.409659613626325
 40
0.7573147546304182
 40
1.0
 40
1.0
 40
1.0
 40
1.0
 10
389.3414635543237
 20
218.4675140668216
 30
0.0
 10
389.3418141076791
 20
218.4779507059458
 30
0.0
 10
389.3425104428013
 20
218.4986819249389
 30
0.0
 10
389.3500398269023
 20
218.5294422844162
 30
0.0
 10
389.3630829424996
 20
218.554434864133
 30
0.0
 10
389.3783449359941
 20
218.5572388819738
 30
0.0
 10
389.3846190461878
 20
218.5583915961935
 30
0.0
  0
LWPOLYLINE
  5
10A
330
2
100
AcDbEntity
  8
0
100
AcDbPolyline
 90
        3
 70
   128
 43
0.0
 10
390.4507301296828
 20
218.26981965915
 10
390.4506680103351
 20
218.268876479723
 10
390.4505457709448
 20
218.2681916367692
  0
SPLINE
  5
10B
330
2
100
AcDbEntity
  8
0
100
AcDbSpline
210
0.0
220
0.0
230
1.0
 70
     8
 71
     3
 72
    13
 73
     9
 74
     0
 42
0.000000001
 43
0.0000000001
 40
0.0
 40
0.0
 40
0.0
 40
0.0
 40
0.0261444067125467
 40
0.1773696141308454
 40
0.4358997911136169
 40
0.6948557305687726
 40
0.8463087887478002
 40
1.0
 40
1.0
 40
1.0
 40
1.0
 10
389.3627858807798
 20
218.5456932506647
 30
0.0
 10
389.3617377888025
 20
218.5464355917381
 30
0.0
 10
389.3546272939428
 20
218.5514718027798
 30
0.0
 10
389.3380519395133
 20
218.5543739129883
 30
0.0
 10
389.3153422140589
 20
218.5478056270493
 30
0.0
 10
389.3000174637743
 20
218.5213952785368
 30
0.0
 10
389.292569897191
 20
218.4903564204973
 30
0.0
 10
389.2918656894734
 20
218.4696541730987
 30
0.0
 10
389.2915110030253
 20
218.4592271266253
 30
0.0
  0
SPLINE
  5
10C
330
2
100
AcDbEntity
  8
0
100
AcDbSpline
210
0.0
220
0.0
230
1.0
 70
     8
 71
     3
 72
    11
 73
     7
 74
     0
 42
0.000000001
 43
0.0000000001
 40
0.0
 40
0.0
 40
0.0
 40
0.0
 40
0.2176594492320444
 40
0.4325172390221895
 40
0.799831986393934
 40
1.0
 40
1.0
 40
1.0
 40
1.0
 10
389.4357048600885
 20
217.8051704646027
 30
0.0
 10
389.4418918102619
 20
217.8004261785058
 30
0.0
 10
389.4541860736922
 20
217.7909986736071
 30
0.0
 10
389.4755843178708
 20
217.7857900754479
 30
0.0
 10
389.4952067762214
 20
217.7898283819
 30
0.0
 10
389.5035900518971
 20
217.8065489516705
 30
0.0
 10
389.5065470820571
 20
217.8124467929222
 30
0.0
  0
LINE
  5
10D
330
2
100
AcDbEntity
  8
0
100
AcDbLine
 10
389.4357048600932
 20
217.805170464598
 30
0.0
 11
389.3780273176911
 21
217.8551206815601
 31
0.0
  0
SPLINE
  5
10E
330
2
100
AcDbEntity
  8
0
100
AcDbSpline
210
0.0
220
0.0
230
1.0
 70
     8
 71
     3
 72
    13
 73
     9
 74
     0
 42
0.000000001
 43
0.0000000001
 40
0.0
 40
0.0
 40
0.0
 40
0.0
 40
0.1362988817081376
 40
0.2707423281577096
 40
0.5005061554835156
 40
0.7298921882934596
 40
0.8640066081475815
 40
1.0
 40
1.0
 40
1.0
 40
1.0
 10
389.2915110030253
 20
218.0810220434503
 30
0.0
 10
389.2918665221791
 20
218.0699872253729
 30
0.0
 10
389.2925727208084
 20
218.0480678060822
 30
0.0
 10
389.3000116647545
 20
218.0041021885206
 30
0.0
 10
389.3153613537961
 20
217.9513315908657
 30
0.0
 10
389.337993103063
 20
217.9047708141834
 30
0.0
 10
389.3595723848549
 20
217.8729682139881
 30
0.0
 10
389.3718472106316
 20
217.8610973850225
 30
0.0
 10
389.3780273176828
 20
217.8551206815538
 30
0.0
  0
LINE
  5
10F
330
2
100
AcDbEntity
  8
0
100
AcDbLine
 10
389.2915110030356
 20
218.4592271266242
 30
0.0
 11
389.2915110030356
 21
218.0810220434421
 31
0.0
  0
SPLINE
  5
110
330
2
100
AcDbEntity
  8
0
100
AcDbSpline
210
0.0
220
0.0
230
1.0
 70
     8
 71
     3
 72
    10
 73
     6
 74
     0
 42
0.000000001
 43
0.0000000001
 40
0.0
 40
0.0
 40
0.0
 40
0.0
 40
0.6948556413874469
 40
0.8463086888677885
 40
1.0
 40
1.0
 40
1.0
 40
1.0
 10
389.238152790353
 20
218.5362106453412
 30
0.0
 10
389.2154430689448
 20
218.5312334469482
 30
0.0
 10
389.2001183143372
 20
218.5048231168069
 30
0.0
 10
389.1926707477746
 20
218.4737842524933
 30
0.0
 10
389.191966541039
 20
218.4530819964525
 30
0.0
 10
389.1916118549581
 20
218.4426549418979
 30
0.0
  0
SPLINE
  5
111
330
2
100
AcDbEntity
  8
0
100
AcDbSpline
210
0.0
220
0.0
230
1.0
 70
     8
 71
     3
 72
     8
 73
     4
 74
     0
 42
0.000000001
 43
0.0000000001
 40
0.0
 40
0.0
 40
0.0
 40
0.0
 40
1.0
 40
1.0
 40
1.0
 40
1.0
 10
389.3358057120216
 20
217.7640658260421
 30
0.0
 10
389.3419926621951
 20
217.7593215399451
 30
0.0
 10
389.3542869256254
 20
217.7498940350467
 30
0.0
 10
389.3756851698035
 20
217.7446854368873
 30
0.0
  0
LINE
  5
112
330
2
100
AcDbEntity
  8
0
100
AcDbLine
 10
389.3358057120321
 20
217.7640658260504
 30
0.0
 11
389.2781281696299
 21
217.8140160429836
 31
0.0
  0
SPLINE
  5
113
330
2
100
AcDbEntity
  8
0
100
AcDbSpline
210
0.0
220
0.0
230
1.0
 70
     8
 71
     3
 72
    13
 73
     9
 74
     0
 42
0.000000001
 43
0.0000000001
 40
0.0
 40
0.0
 40
0.0
 40
0.0
 40
0.1362988817081376
 40
0.2707423281577096
 40
0.5005061554835156
 40
0.7298921882934596
 40
0.8640066081475815
 40
1.0
 40
1.0
 40
1.0
 40
1.0
 10
389.1916118549581
 20
218.0399174048897
 30
0.0
 10
389.1919673741124
 20
218.0288825868125
 30
0.0
 10
389.1926735727416
 20
218.0069631675215
 30
0.0
 10
389.2001125166878
 20
217.96299754996
 30
0.0
 10
389.2154622057291
 20
217.9102269523051
 30
0.0
 10
389.2380939549963
 20
217.8636661756228
 30
0.0
 10
389.259673236788
 20
217.8318635754274
 30
0.0
 10
389.2719480625646
 20
217.819992746462
 30
0.0
 10
389.278128169616
 20
217.8140160429935
 30
0.0
  0
LINE
  5
114
330
2
100
AcDbEntity
  8
0
100
AcDbLine
 10
389.1916118549459
 20
218.4426549418937
 30
0.0
 11
389.1916118549459
 21
218.0399174048945
 31
0.0
  0
SPLINE
  5
115
330
2
100
AcDbEntity
  8
0
100
AcDbSpline
210
0.0
220
0.0
230
1.0
 70
     8
 71
     3
 72
    10
 73
     6
 74
     0
 42
0.000000001
 43
0.0000000001
 40
0.0
 40
0.0
 40
0.0
 40
0.0
 40
0.6948556895309089
 40
0.8463087947036889
 40
1.0
 40
1.0
 40
1.0
 40
1.0
 10
389.1382536473579
 20
218.519006696433
 30
0.0
 10
389.1155439156504
 20
218.5146612983755
 30
0.0
 10
389.1002191656734
 20
218.4882509422406
 30
0.0
 10
389.0927716019353
 20
218.4572120769741
 30
0.0
 10
389.092067393593
 20
218.436509826597
 30
0.0
 10
389.0917127068915
 20
218.4260827804302
 30
0.0
  0
SPLINE
  5
116
330
2
100
AcDbEntity
  8
0
100
AcDbSpline
210
0.0
220
0.0
230
1.0
 70
     8
 71
     3
 72
     8
 73
     4
 74
     0
 42
0.000000001
 43
0.0000000001
 40
0.0
 40
0.0
 40
0.0
 40
0.0
 40
1.0
 40
1.0
 40
1.0
 40
1.0
 10
389.2359065639548
 20
217.7229611874818
 30
0.0
 10
389.2420935138887
 20
217.7182169020865
 30
0.0
 10
389.2543877768432
 20
217.708789398583
 30
0.0
 10
389.2757860302295
 20
217.703580786447
 30
0.0
  0
LINE
  5
117
330
2
100
AcDbEntity
  8
0
100
AcDbLine
 10
389.2359065639421
 20
217.7229611874739
 30
0.0
 11
389.1782290215404
 21
217.772911404436
 31
0.0
  0
SPLINE
  5
118
330
2
100
AcDbEntity
  8
0
100
AcDbSpline
210
0.0
220
0.0
230
1.0
 70
     8
 71
     3
 72
    13
 73
     9
 74
     0
 42
0.000000001
 43
0.0000000001
 40
0.0
 40
0.0
 40
0.0
 40
0.0
 40
0.1362988885199829
 40
0.2707423416886706
 40
0.5005060174724936
 40
0.7298921747942102
 40
0.8640066013510036
 40
1.0
 40
1.0
 40
1.0
 40
1.0
 10
389.0917127068915
 20
217.9988127663291
 30
0.0
 10
389.0920682262917
 20
217.98777794839
 30
0.0
 10
389.0927744254103
 20
217.9658585293737
 30
0.0
 10
389.1002133624485
 20
217.9218929236161
 30
0.0
 10
389.1155630765863
 20
217.8691223471331
 30
0.0
 10
389.1381947989768
 20
217.8225615402532
 30
0.0
 10
389.1597740893228
 20
217.7907589376527
 30
0.0
 10
389.1720489146991
 20
217.7788881081645
 30
0.0
 10
389.1782290215492
 20
217.7729114044328
 30
0.0
  0
LINE
  5
119
330
2
100
AcDbEntity
  8
0
100
AcDbLine
 10
389.0917127068848
 20
218.426082780436
 30
0.0
 11
389.0917127068848
 21
217.9988127663181
 31
0.0
  0
LINE
  5
11A
330
2
100
AcDbEntity
  8
0
100
AcDbLine
 10
387.8235532975637
 20
217.6259130367389
 30
0.0
 11
388.2231558443509
 21
217.7412683557136
 31
0.0
  0
ARC
  5
11B
330
2
100
AcDbEntity
  8
0
100
AcDbCircle
 10
388.594126717686
 20
217.7619904609174
 30
0.0
 40
0.3715491818133254
100
AcDbArc
 50
180.037201671502
 51
183.1971690681004
  0
LINE
  5
11C
330
2
100
AcDbEntity
  8
0
100
AcDbLine
 10
388.2225776142109
 20
217.761749217155
 30
0.0
 11
388.4023984625205
 21
217.8136590247627
 31
0.0
  0
ARC
  5
11D
330
2
100
AcDbEntity
  8
0
100
AcDbCircle
 10
388.780171830998
 20
217.8140328895556
 30
0.0
 40
0.3777735534784234
100
AcDbArc
 50
180.0567029594985
 51
183.966608793902
  0
LINE
  5
11E
330
2
100
AcDbEntity
  8
0
100
AcDbLine
 10
388.4033032212349
 20
217.7879003680767
 30
0.0
 11
388.902804916112
 21
217.9320940870826
 31
0.0
  0
ARC
  5
11F
330
2
100
AcDbEntity
  8
0
100
AcDbCircle
 10
389.2796735258747
 20
217.9582266085617
 30
0.0
 40
0.3777735534688665
100
AcDbArc
 50
180.0567029594985
 51
183.9666087939983
  0
LINE
  5
120
330
2
100
AcDbEntity
  8
0
100
AcDbLine
 10
388.9019001573975
 20
217.9578527437687
 30
0.0
 11
388.9918105815667
 21
217.9838076475437
 31
0.0
  0
ARC
  5
121
330
2
100
AcDbEntity
  8
0
100
AcDbCircle
 10
389.4869012166858
 20
217.9930346294943
 30
0.0
 40
0.4951766090911633
100
AcDbArc
 50
181.0676952661989
 51
208.9822175832002
  0
LWPOLYLINE
  5
122
330
2
100
AcDbEntity
  8
0
100
AcDbPolyline
 90
        8
 70
   128
 43
0.0
 10
387.7330646432255
 20
217.6204389943767
 10
387.7387105186094
 20
217.5538076536486
 10
387.7550955104716
 20
217.4839196735326
 10
387.7806157143252
 20
217.4176162855237
 10
387.8127730490955
 20
217.3613875550334
 10
387.848419727193
 20
217.3207377064756
 10
387.8840664105392
 20
217.2996456929275
 10
387.9124072168937
 20
217.29887938901
  0
LINE
  5
123
330
2
100
AcDbEntity
  8
0
100
AcDbLine
 10
387.7330646432255
 20
217.6204389943767
 30
0.0
 11
387.8229750673951
 21
217.6463938981805
 31
0.0
  0
ARC
  5
124
330
2
100
AcDbEntity
  8
0
100
AcDbCircle
 10
388.1945241708986
 20
217.6466351419429
 30
0.0
 40
0.3715491818205713
100
AcDbArc
 50
180.037201671502
 51
183.1971690679993
  0
LINE
  5
125
330
2
100
AcDbEntity
  8
0
100
AcDbLine
 10
388.9918105815667
 20
218.3834093802411
 30
0.0
 11
388.9918105815667
 21
217.9838076475437
 31
0.0
  0
LWPOLYLINE
  5
126
330
2
100
AcDbEntity
  8
0
100
AcDbPolyline
 90
        9
 70
   128
 43
0.0
 10
388.9918105815667
 20
218.3834093802411
 10
388.9928781278202
 20
218.4096042062417
 10
388.9960609855188
 20
218.4334651472793
 10
389.0013002546161
 20
218.454550591211
 10
389.0084989636188
 20
218.4724702721161
 10
389.0175238690114
 20
218.4868925040385
 10
389.0282079396006
 20
218.4975503566086
 10
389.0403534185016
 20
218.5042465627391
 10
389.0537355093089
 20
218.5068571996056
  0
LINE
  5
127
330
2
100
AcDbEntity
  8
0
100
AcDbLine
 10
389.1605958251048
 20
217.6605589240518
 30
0.0
 11
389.0537355093089
 21
217.753102672174
 31
0.0
  0
LINE
  5
128
330
2
100
AcDbEntity
  8
0
100
AcDbLine
 10
388.9019001573975
 20
217.9578527437687
 30
0.0
 11
388.9019001573975
 21
218.3574544764661
 31
0.0
  0
LINE
  5
129
330
2
100
AcDbEntity
  8
0
100
AcDbLine
 10
388.9918105815667
 20
218.3834093802411
 30
0.0
 11
388.9019001573975
 21
218.3574544764661
 31
0.0
  0
ARC
  5
12A
330
2
100
AcDbEntity
  8
0
100
AcDbCircle
 10
388.5422815351116
 20
218.1616090191633
 30
0.0
 40
0.3197040250685319
100
AcDbArc
 50
176.5531804226984
 51
180.0462499101013
  0
LINE
  5
12B
330
2
100
AcDbEntity
  8
0
100
AcDbLine
 10
388.2231558443509
 20
218.1808302872836
 30
0.0
 11
387.8235532975637
 21
218.0654749683092
 31
0.0
  0
ARC
  5
12C
330
2
100
AcDbEntity
  8
0
100
AcDbCircle
 10
388.1426789883244
 20
218.0462537001599
 30
0.0
 40
0.3197040250744663
100
AcDbArc
 50
176.5531804228012
 51
180.0462499101013
  0
LINE
  5
12D
330
2
100
AcDbEntity
  8
0
100
AcDbLine
 10
387.8229750673951
 20
218.0459956308779
 30
0.0
 11
387.7330646432255
 21
218.0200407270741
 31
0.0
  0
LWPOLYLINE
  5
12E
330
2
100
AcDbEntity
  8
0
100
AcDbPolyline
 90
        5
 70
   128
 43
0.0
 10
387.7844322375211
 20
218.1417994661209
 10
387.7806157143252
 20
218.1405025997549
 10
387.7550955104716
 20
218.1184014432812
 10
387.7387105186094
 20
218.076893124804
 10
387.7330646432255
 20
218.0200407270741
  0
LINE
  5
12F
330
2
100
AcDbEntity
  8
0
100
AcDbLine
 10
388.902804916112
 20
218.3816460450766
 30
0.0
 11
388.4033032212349
 21
218.2374523260993
 31
0.0
  0
ARC
  5
130
330
2
100
AcDbEntity
  8
0
100
AcDbCircle
 10
388.7154109420615
 20
218.2136668709783
 30
0.0
 40
0.3130127429927644
100
AcDbArc
 50
175.6419628812999
 51
180.074337536903
  0
LINE
  5
131
330
2
100
AcDbEntity
  8
0
100
AcDbLine
 10
388.4023984625205
 20
218.2132607574601
 30
0.0
 11
388.2225776142109
 21
218.1613509498525
 31
0.0
  0
ARC
  5
132
330
2
100
AcDbEntity
  8
0
100
AcDbCircle
 10
389.2149126369093
 20
218.3578605899555
 30
0.0
 40
0.3130127429758964
100
AcDbArc
 50
175.6419628811006
 51
180.0743375369991
  0
LINE
  5
133
330
2
100
AcDbEntity
  8
0
100
AcDbLine
 10
388.4023984625205
 20
217.8136590247627
 30
0.0
 11
388.4023984625205
 21
218.2132607574601
 31
0.0
  0
LINE
  5
134
330
2
100
AcDbEntity
  8
0
100
AcDbLine
 10
388.2225776142109
 20
218.0914206483781
 30
0.0
 11
387.8229750673951
 21
217.9760653294034
 31
0.0
  0
LINE
  5
135
330
2
100
AcDbEntity
  8
0
100
AcDbLine
 10
388.2225776142109
 20
218.0914206483781
 30
0.0
 11
388.2225776142109
 21
218.1613509498525
 31
0.0
  0
LINE
  5
136
330
2
100
AcDbEntity
  8
0
100
AcDbLine
 10
388.2225776142109
 20
217.8316795419022
 30
0.0
 11
388.2225776142109
 21
217.761749217155
 31
0.0
  0
LINE
  5
137
330
2
100
AcDbEntity
  8
0
100
AcDbLine
 10
387.8229750673951
 20
217.7163242229279
 30
0.0
 11
388.2225776142109
 21
217.8316795419022
 31
0.0
  0
LINE
  5
138
330
2
100
AcDbEntity
  8
0
100
AcDbLine
 10
387.8229750673951
 20
217.7163242229279
 30
0.0
 11
387.8229750673951
 21
217.6463938981805
 31
0.0
  0
LINE
  5
139
330
2
100
AcDbEntity
  8
0
100
AcDbLine
 10
387.7330646432255
 20
217.6204389943767
 30
0.0
 11
387.7330646432255
 21
217.7153444317867
 31
0.0
  0
LINE
  5
13A
330
2
100
AcDbEntity
  8
0
100
AcDbLine
 10
387.7330646432255
 20
217.7153444317867
 30
0.0
 11
388.3536342240516
 21
217.8944874080215
 31
0.0
  0
LINE
  5
13B
330
2
100
AcDbEntity
  8
0
100
AcDbLine
 10
388.3574417618074
 20
218.1053774616947
 30
0.0
 11
387.7330646432255
 21
217.9251353129658
 31
0.0
  0
LINE
  5
13C
330
2
100
AcDbEntity
  8
0
100
AcDbLine
 10
387.7330646432255
 20
217.9251353129658
 30
0.0
 11
387.7330646432255
 21
218.0200407270741
 31
0.0
  0
LINE
  5
13D
330
2
100
AcDbEntity
  8
0
100
AcDbLine
 10
387.8229750673951
 20
217.9760653294034
 30
0.0
 11
387.8229750673951
 21
218.0459956308779
 31
0.0
  0
LINE
  5
13E
330
2
100
AcDbEntity
  8
0
100
AcDbLine
 10
388.3536342240516
 20
217.8944874080215
 30
0.0
 11
388.3536342240516
 21
218.0010478607824
 31
0.0
  0
LINE
  5
13F
330
2
100
AcDbEntity
  8
0
100
AcDbLine
 10
388.3574417618074
 20
218.1053774616947
 30
0.0
 11
388.3536342240516
 21
218.0010478607824
 31
0.0
  0
LINE
  5
140
330
2
100
AcDbEntity
  8
0
100
AcDbLine
 10
387.7330646432255
 20
217.9251353129658
 30
0.0
 11
387.7792066795005
 21
217.8352249120406
 31
0.0
  0
LINE
  5
141
330
2
100
AcDbEntity
  8
0
100
AcDbLine
 10
388.3536342240516
 20
218.0010478607824
 30
0.0
 11
387.7792066795005
 21
217.8352249120406
 31
0.0
  0
LINE
  5
142
330
2
100
AcDbEntity
  8
0
100
AcDbLine
 10
387.7792066795005
 20
217.8352249120406
 30
0.0
 11
387.7792066795005
 21
217.7286644593087
 31
0.0
  0
ARC
  5
143
330
2
100
AcDbEntity
  8
0
100
AcDbCircle
 10
397.4029877662564
 20
220.4687017870998
 30
0.0
 40
0.1094622127232956
100
AcDbArc
 50
179.5302861382969
 51
222.5112535116998
  0
LINE
  5
144
330
2
100
AcDbEntity
  8
0
100
AcDbLine
 10
397.675747528634
 20
221.0589613717097
 30
0.0
 11
397.293529231886
 21
220.9486244534407
 31
0.0
  0
LINE
  5
145
330
2
100
AcDbEntity
  8
0
100
AcDbLine
 10
397.8442800442051
 20
219.9404993751759
 30
0.0
 11
397.3222982840163
 21
220.3947343383596
 31
0.0
  0
SPLINE
  5
146
330
2
100
AcDbEntity
  8
0
100
AcDbSpline
210
0.0
220
0.0
230
1.0
 70
     8
 71
     3
 72
    10
 73
     6
 74
     0
 42
0.000000001
 43
0.0000000001
 40
0.0
 40
0.0
 40
0.0
 40
0.0
 40
0.388940421579443
 40
0.7058517750153737
 40
1.0
 40
1.0
 40
1.0
 40
1.0
 10
397.287881642183
 20
220.9406966998896
 30
0.0
 10
397.2879927417366
 20
220.94205587939
 30
0.0
 10
397.2881943659773
 20
220.9445225277752
 30
0.0
 10
397.2904227901516
 20
220.9473245417018
 30
0.0
 10
397.292519790378
 20
220.948202045757
 30
0.0
 10
397.2935292318731
 20
220.9486244534393
 30
0.0
  0
ARC
  5
147
330
2
100
AcDbEntity
  8
0
100
AcDbCircle
 10
397.5196381205369
 20
220.3992508879205
 30
0.0
 40
0.2186923099517406
100
AcDbArc
 50
179.5143497843013
 51
222.5891110121082
  0
LINE
  5
148
330
2
100
AcDbEntity
  8
0
100
AcDbLine
 10
397.3009536665949
 20
220.4110946174426
 30
0.0
 11
397.3009536665949
 21
220.401104544473
 31
0.0
  0
ARC
  5
149
330
2
100
AcDbEntity
  8
0
100
AcDbCircle
 10
397.2971050186226
 20
220.677099619333
 30
0.0
 40
0.0252663943316047
100
AcDbArc
 50
111.7042586347997
 51
171.5194071389
  0
LINE
  5
14A
330
2
100
AcDbEntity
  8
0
100
AcDbLine
 10
397.3586312186576
 20
220.2512539150429
 30
0.0
 11
397.4235184512894
 21
220.195059923217
 31
0.0
  0
LWPOLYLINE
  5
14B
330
2
100
AcDbEntity
  8
0
100
AcDbPolyline
 90
        7
 70
   128
 43
0.0
 10
397.3009536665949
 20
220.4110946174426
 10
397.2917632167924
 20
220.4078016992262
 10
397.2840333650186
 20
220.4036753161215
 10
397.2780627993881
 20
220.3988744953516
 10
397.2740795725211
 20
220.393583338787
 10
397.2722391222226
 20
220.3880058615862
 10
397.2721148902749
 20
220.3861194969356
  0
LINE
  5
14C
330
2
100
AcDbEntity
  8
0
100
AcDbLine
 10
397.2993053393253
 20
221.0495674468993
 30
0.0
 11
397.2743302360641
 21
221.0711965207902
 31
0.0
  0
LINE
  5
14D
330
2
100
AcDbEntity
  8
0
100
AcDbLine
 10
397.3492545971101
 20
221.0428751027704
 30
0.0
 11
397.3539373509122
 21
221.0388197189906
 31
0.0
  0
LINE
  5
14E
330
2
100
AcDbEntity
  8
0
100
AcDbLine
 10
397.3971955082398
 20
221.0513072738799
 30
0.0
 11
397.3492545971101
 21
221.0928253207995
 31
0.0
  0
LINE
  5
14F
330
2
100
AcDbEntity
  8
0
100
AcDbLine
 10
390.345931178806
 20
218.3139358470098
 30
0.0
 11
396.775020732651
 21
220.1698541392875
 31
0.0
  0
LINE
  5
150
330
2
100
AcDbEntity
  8
0
100
AcDbLine
 10
390.3747699514632
 20
218.6190136538059
 30
0.0
 11
390.393789295323
 21
218.5951004659991
 31
0.0
  0
LINE
  5
151
330
2
100
AcDbEntity
  8
0
100
AcDbLine
 10
390.446866881477
 20
218.2770294729829
 30
0.0
 11
390.446866881477
 21
218.3304703553856
 31
0.0
  0
SPLINE
  5
152
330
2
100
AcDbEntity
  8
0
100
AcDbSpline
210
0.0
220
0.0
230
1.0
 70
     8
 71
     3
 72
    10
 73
     6
 74
     0
 42
0.000000001
 43
0.0000000001
 40
0.0
 40
0.0
 40
0.0
 40
0.0
 40
0.0820161916443068
 40
0.3975071034994657
 40
1.0
 40
1.0
 40
1.0
 40
1.0
 10
390.4031401293368
 20
218.1678343714834
 30
0.0
 10
390.4020368399838
 20
218.167164212911
 30
0.0
 10
390.3966895378694
 20
218.1639161616705
 30
0.0
 10
390.3803509699569
 20
218.1642261443561
 30
0.0
 10
390.3637409430455
 20
218.1752795545951
 30
0.0
 10
390.3528394182759
 20
218.1825341500358
 30
0.0
  0
SPLINE
  5
153
330
2
100
AcDbEntity
  8
0
100
AcDbSpline
210
0.0
220
0.0
230
1.0
 70
     8
 71
     3
 72
    11
 73
     7
 74
     0
 42
0.000000001
 43
0.0000000001
 40
0.0
 40
0.0
 40
0.0
 40
0.0
 40
0.3666401583948299
 40
0.7330041225198432
 40
0.9236095829702895
 40
1.0
 40
1.0
 40
1.0
 40
1.0
 10
390.2055998191707
 20
218.6108658350416
 30
0.0
 10
390.2072801985711
 20
218.6296396119996
 30
0.0
 10
390.2106396915223
 20
218.6671730234126
 30
0.0
 10
390.2286025773974
 20
218.6942890840152
 30
0.0
 10
390.2439277961988
 20
218.704070164643
 30
0.0
 10
390.2514711639749
 20
218.7040196025537
 30
0.0
 10
390.2536294033294
 20
218.7040051361913
 30
0.0
  0
ARC
  5
154
330
2
100
AcDbEntity
  8
0
100
AcDbCircle
 10
390.4411656704608
 20
218.2693346495882
 30
0.0
 40
0.0095767486385513
100
AcDbArc
 50
2.90295745140432
 51
53.46469381219407
  0
LINE
  5
155
330
2
100
AcDbEntity
  8
0
100
AcDbLine
 10
397.7029609598492
 20
220.5046221875298
 30
0.0
 11
397.3222982840163
 21
220.3947343383596
 31
0.0
  0
LINE
  5
156
330
2
100
AcDbEntity
  8
0
100
AcDbLine
 10
397.8442800442051
 20
219.9404993751759
 30
0.0
 11
398.2107515866579
 21
220.0462905970282
 31
0.0
  0
LWPOLYLINE
  5
157
330
2
100
AcDbEntity
  8
0
100
AcDbPolyline
 90
        7
 70
   128
 43
0.0
 10
397.2877617939006
 20
220.464600073603
 10
397.2877860091536
 20
220.4649813309554
 10
397.2881549977718
 20
220.4660970795711
 10
397.2889516350877
 20
220.4671553178804
 10
397.290145447806
 20
220.4681153984135
 10
397.2916914289002
 20
220.4689406657367
 10
397.293529231886
 20
220.4695991541197
  0
ARC
  5
158
330
2
100
AcDbEntity
  8
0
100
AcDbCircle
 10
397.3196770057299
 20
220.4022275554124
 30
0.0
 40
0.0079384760206687
100
AcDbArc
 50
231.5523391911963
 51
289.2808655548034
  0
ARC
  5
159
330
2
100
AcDbEntity
  8
0
100
AcDbCircle
 10
397.8416594150506
 20
219.9480029325144
 30
0.0
 40
0.0079480230145561
100
AcDbArc
 50
231.5872945265952
 51
289.2518348976011
  0
ARC
  5
15A
330
2
100
AcDbEntity
  8
0
100
AcDbCircle
 10
397.8570262741639
 20
219.9514415511534
 30
0.0
 40
0.0167987378536812
100
AcDbArc
 50
220.6448933196042
 51
281.3998283459966
  0
ARC
  5
15B
330
2
100
AcDbEntity
  8
0
100
AcDbCircle
 10
397.700642076959
 20
220.5698722850396
 30
0.0
 40
0.4258577226135341
100
AcDbArc
 50
165.8189615261001
 51
194.1810384738998
  0
SPLINE
  5
15C
330
2
100
AcDbEntity
  8
0
100
AcDbSpline
210
0.0
220
0.0
230
1.0
 70
     8
 71
     3
 72
     9
 73
     5
 74
     0
 42
0.000000001
 43
0.0000000001
 40
0.0
 40
0.0
 40
0.0
 40
0.0
 40
0.3257220231323902
 40
1.0
 40
1.0
 40
1.0
 40
1.0
 10
397.2877624076728
 20
220.6919227100798
 30
0.0
 10
397.2850708752301
 20
220.6906774700507
 30
0.0
 10
397.2768075947284
 20
220.6868544555154
 30
0.0
 10
397.2723865436251
 20
220.678496020564
 30
0.0
 10
397.2694055262316
 20
220.6728601119551
 30
0.0
  0
SPLINE
  5
15D
330
2
100
AcDbEntity
  8
0
100
AcDbSpline
210
0.0
220
0.0
230
1.0
 70
     8
 71
     3
 72
    10
 73
     6
 74
     0
 42
0.000000001
 43
0.0000000001
 40
0.0
 40
0.0
 40
0.0
 40
0.0
 40
0.1432595026834423
 40
0.9836018662979979
 40
1.0
 40
1.0
 40
1.0
 40
1.0
 10
397.2754832362758
 20
220.4072908916232
 30
0.0
 10
397.2757080511066
 20
220.4069596141021
 30
0.0
 10
397.2772516016759
 20
220.4046851039873
 30
0.0
 10
397.2802855892478
 20
220.4034351018844
 30
0.0
 10
397.2831295634017
 20
220.402905174131
 30
0.0
 10
397.2831839974673
 20
220.4028950312391
 30
0.0
  0
LINE
  5
15E
330
2
100
AcDbEntity
  8
0
100
AcDbLine
 10
397.3009536665949
 20
220.401104544473
 30
0.0
 11
397.3087823847709
 21
220.4033645007269
 31
0.0
  0
ARC
  5
15F
330
2
100
AcDbEntity
  8
0
100
AcDbCircle
 10
397.4907002642347
 20
220.2570707651773
 30
0.0
 40
0.0914261478431179
100
AcDbArc
 50
222.7079443727046
 51
279.5714346314073
  0
ARC
  5
160
330
2
100
AcDbEntity
  8
0
100
AcDbCircle
 10
397.2962209833339
 20
220.6877900495634
 30
0.0
 40
0.0242952460786731
100
AcDbArc
 50
110.3779434701
 51
172.8457223036975
  0
LINE
  5
161
330
2
100
AcDbEntity
  8
0
100
AcDbLine
 10
434.2783781724138
 20
231.4363935258552
 30
0.0
 11
433.8457966125465
 21
231.811020145919
 31
0.0
  0
LINE
  5
162
330
2
100
AcDbEntity
  8
0
100
AcDbLine
 10
434.2277785997597
 20
230.7130012349777
 30
0.0
 11
434.2777281738191
 21
230.7274204349646
 31
0.0
  0
LINE
  5
163
330
2
100
AcDbEntity
  8
0
100
AcDbLine
 10
433.3046732475942
 20
231.6554113325186
 30
0.0
 11
433.3046732475942
 21
231.6054611159316
 31
0.0
  0
LINE
  5
164
330
2
100
AcDbEntity
  8
0
100
AcDbLine
 10
436.4386532556018
 20
231.1858104451748
 30
0.0
 11
437.6624341943786
 21
231.5390855723941
 31
0.0
  0
SPLINE
  5
165
330
2
100
AcDbEntity
  8
0
100
AcDbSpline
210
0.0
220
0.0
230
1.0
 70
     8
 71
     3
 72
    10
 73
     6
 74
     0
 42
0.000000001
 43
0.0000000001
 40
0.0
 40
0.0
 40
0.0
 40
0.0
 40
0.3371176324390126
 40
0.6842581558894728
 40
1.0
 40
1.0
 40
1.0
 40
1.0
 10
437.5173042865328
 20
231.8790511202839
 30
0.0
 10
437.5117913237221
 20
231.8829765915934
 30
0.0
 10
437.5006014914402
 20
231.8909442429433
 30
0.0
 10
437.4802566326911
 20
231.8955995333086
 30
0.0
 10
437.4671549695306
 20
231.8928221638993
 30
0.0
 10
437.4609144305006
 20
231.891499256877
 30
0.0
  0
SPLINE
  5
166
330
2
100
AcDbEntity
  8
0
100
AcDbSpline
210
0.0
220
0.0
230
1.0
 70
     8
 71
     3
 72
    15
 73
    11
 74
     0
 42
0.000000001
 43
0.0000000001
 40
0.0
 40
0.0
 40
0.0
 40
0.0
 40
0.1378841385153275
 40
0.2692342515722202
 40
0.3860638599066777
 40
0.4991446197577001
 40
0.6226665460070404
 40
0.7819253620277561
 40
0.9479365699895479
 40
1.0
 40
1.0
 40
1.0
 40
1.0
 10
437.4984427701149
 20
231.7616219222979
 30
0.0
 10
437.5047592734638
 20
231.7639215791567
 30
0.0
 10
437.5170929549886
 20
231.7684119172037
 30
0.0
 10
437.5303564944531
 20
231.7821963883119
 30
0.0
 10
437.5387527689297
 20
231.7975419046096
 30
0.0
 10
437.5426985588691
 20
231.8142031223678
 30
0.0
 10
437.5424568571258
 20
231.8333295723546
 30
0.0
 10
437.5365311801203
 20
231.8545414958209
 30
0.0
 10
437.5267858244864
 20
231.8702251536234
 30
0.0
 10
437.519131653521
 20
231.877350100872
 30
0.0
 10
437.5173042865328
 20
231.8790511202839
 30
0.0
  0
LINE
  5
167
330
2
100
AcDbEntity
  8
0
100
AcDbLine
 10
437.4566486043221
 20
232.0901881906724
 30
0.0
 11
437.507469028353
 21
232.1048587834198
 31
0.0
  0
LINE
  5
168
330
2
100
AcDbEntity
  8
0
100
AcDbLine
 10
437.4864686027629
 20
232.5982001972997
 30
0.0
 11
436.2626876639858
 21
232.2449250700802
 31
0.0
  0
SPLINE
  5
169
330
2
100
AcDbEntity
  8
0
100
AcDbSpline
210
0.0
220
0.0
230
1.0
 70
     8
 71
     3
 72
    10
 73
     6
 74
     0
 42
0.000000001
 43
0.0000000001
 40
0.0
 40
0.0
 40
0.0
 40
0.0
 40
0.3371177587646955
 40
0.6842581648241153
 40
1.0
 40
1.0
 40
1.0
 40
1.0
 10
437.5173042865328
 20
232.3086229788677
 30
0.0
 10
437.5117913250095
 20
232.3125484629791
 30
0.0
 10
437.5006014993876
 20
232.3205161374317
 30
0.0
 10
437.4802566302708
 20
232.3251713753649
 30
0.0
 10
437.4671549648877
 20
232.3223940369903
 30
0.0
 10
437.4609144237861
 20
232.3210711445355
 30
0.0
  0
SPLINE
  5
16A
330
2
100
AcDbEntity
  8
0
100
AcDbSpline
210
0.0
220
0.0
230
1.0
 70
     8
 71
     3
 72
    11
 73
     7
 74
     0
 42
0.000000001
 43
0.0000000001
 40
0.0
 40
0.0
 40
0.0
 40
0.0
 40
0.1922123192932505
 40
0.4658948475947608
 40
0.7450208935537753
 40
1.0
 40
1.0
 40
1.0
 40
1.0
 10
436.1296870805195
 20
231.2016517784457
 30
0.0
 10
436.1483270280468
 20
231.1943724824312
 30
0.0
 10
436.1935075635307
 20
231.1767285222543
 30
0.0
 10
436.2715534813806
 20
231.1658200756717
 30
0.0
 10
436.3570785869109
 20
231.1662704453373
 30
0.0
 10
436.4118450862348
 20
231.1798609599865
 30
0.0
 10
436.4379903368429
 20
231.1863490031476
 30
0.0
  0
LINE
  5
16B
330
2
100
AcDbEntity
  8
0
100
AcDbLine
 10
437.4606703044459
 20
232.3214215996991
 30
0.0
 11
437.4562118501859
 21
232.3201345548093
 31
0.0
  0
LINE
  5
16C
330
2
100
AcDbEntity
  8
0
100
AcDbLine
 10
437.6414337687882
 20
232.0324269339316
 30
0.0
 11
437.4562121618468
 21
231.9789580616271
 31
0.0
  0
SPLINE
  5
16D
330
2
100
AcDbEntity
  8
0
100
AcDbSpline
210
0.0
220
0.0
230
1.0
 70
     8
 71
     3
 72
    15
 73
    11
 74
     0
 42
0.000000001
 43
0.0000000001
 40
0.0
 40
0.0
 40
0.0
 40
0.0
 40
0.1378840562115173
 40
0.2692343999666227
 40
0.3860638504108667
 40
0.4991447688471117
 40
0.6226665162750688
 40
0.7819254765144549
 40
0.9479366729528283
 40
1.0
 40
1.0
 40
1.0
 40
1.0
 10
437.4984427701149
 20
232.1911937808818
 30
0.0
 10
437.5047592772773
 20
232.193493426133
 30
0.0
 10
437.5170929804081
 20
232.1979837466702
 30
0.0
 10
437.5303564705178
 20
232.2117682648158
 30
0.0
 10
437.5387527820103
 20
232.2271137737856
 30
0.0
 10
437.5426985533254
 20
232.2437749888539
 30
0.0
 10
437.5424568557614
 20
232.2629014470993
 30
0.0
 10
437.5365311814204
 20
232.2841133667524
 30
0.0
 10
437.5267858372401
 20
232.299797044501
 30
0.0
 10
437.5191316538357
 20
232.3069219676746
 30
0.0
 10
437.5173042865328
 20
232.3086229788677
 30
0.0
  0
LINE
  5
16E
330
2
100
AcDbEntity
  8
0
100
AcDbLine
 10
437.4824945563725
 20
232.1860445691762
 30
0.0
 11
437.4984229238394
 21
232.1906426928066
 31
0.0
  0
SPLINE
  5
16F
330
2
100
AcDbEntity
  8
0
100
AcDbSpline
210
0.0
220
0.0
230
1.0
 70
     8
 71
     3
 72
    11
 73
     7
 74
     0
 42
0.000000001
 43
0.0000000001
 40
0.0
 40
0.0
 40
0.0
 40
0.0
 40
0.2613727078849699
 40
0.5429371975291995
 40
0.8072150795249372
 40
1.0
 40
1.0
 40
1.0
 40
1.0
 10
436.2626771748369
 20
232.243844921547
 30
0.0
 10
436.2364735344938
 20
232.235313392675
 30
0.0
 10
436.1820419483954
 20
232.2175912501687
 30
0.0
 10
436.1098287830274
 20
232.1721277828529
 30
0.0
 10
436.0505251271525
 20
232.1217045990632
 30
0.0
 10
436.0219627553088
 20
232.0837594938396
 30
0.0
 10
436.0099154074289
 20
232.067754594615
 30
0.0
  0
LINE
  5
170
330
2
100
AcDbEntity
  8
0
100
AcDbLine
 10
436.0880068532721
 20
231.1408984748377
 30
0.0
 11
436.1379564273317
 21
231.1491845090497
 31
0.0
  0
LINE
  5
171
330
2
100
AcDbEntity
  8
0
100
AcDbLine
 10
435.9881062165826
 20
231.1243258836247
 30
0.0
 11
436.038055790613
 21
231.1326119178367
 31
0.0
  0
LINE
  5
172
330
2
100
AcDbEntity
  8
0
100
AcDbLine
 10
435.888205579893
 20
231.1077532924405
 30
0.0
 11
435.9381551539235
 21
231.1160393266525
 31
0.0
  0
LINE
  5
173
330
2
100
AcDbEntity
  8
0
100
AcDbLine
 10
435.9591795061771
 20
232.107297116241
 30
0.0
 11
435.9092284435182
 21
232.0867443555898
 31
0.0
  0
LINE
  5
174
330
2
100
AcDbEntity
  8
0
100
AcDbLine
 10
435.1639278245926
 20
230.9876024271053
 30
0.0
 11
435.838254517234
 21
231.0994667354393
 31
0.0
  0
LINE
  5
175
330
2
100
AcDbEntity
  8
0
100
AcDbLine
 10
435.8592788694877
 20
232.06619205956
 30
0.0
 11
435.8093292954571
 21
232.045639728664
 31
0.0
  0
LINE
  5
176
330
2
100
AcDbEntity
  8
0
100
AcDbLine
 10
435.6594775960795
 20
231.9839819346049
 30
0.0
 11
434.9851509034671
 21
231.7065235105549
 31
0.0
  0
LINE
  5
177
330
2
100
AcDbEntity
  8
0
100
AcDbLine
 10
435.7593782327979
 20
232.0250869912857
 30
0.0
 11
435.7094286587674
 21
232.0045346603611
 31
0.0
  0
LINE
  5
178
330
2
100
AcDbEntity
  8
0
100
AcDbLine
 10
434.961585041228
 20
231.3245517544153
 30
0.0
 11
434.0629348324495
 21
231.0651337844688
 31
0.0
  0
LINE
  5
179
330
2
100
AcDbEntity
  8
0
100
AcDbLine
 10
433.8743459388487
 20
231.0106928602244
 30
0.0
 11
433.5584372870272
 21
230.9194978876224
 31
0.0
  0
LINE
  5
17A
330
2
100
AcDbEntity
  8
0
100
AcDbLine
 10
433.5984294638867
 20
230.7809609144286
 30
0.0
 11
434.0043214828774
 21
230.8981318476655
 31
0.0
  0
LINE
  5
17B
330
2
100
AcDbEntity
  8
0
100
AcDbLine
 10
434.1029270093092
 20
230.9265968112752
 30
0.0
 11
434.9741134375566
 21
231.1780866707104
 31
0.0
  0
LINE
  5
17C
330
2
100
AcDbEntity
  8
0
100
AcDbLine
 10
434.961585041228
 20
231.4544223076676
 30
0.0
 11
434.0629348324495
 21
231.1950043376921
 31
0.0
  0
LINE
  5
17D
330
2
100
AcDbEntity
  8
0
100
AcDbLine
 10
433.8080377825506
 20
231.1214218975077
 30
0.0
 11
433.5584372870272
 21
231.0493684408746
 31
0.0
  0
LINE
  5
17E
330
2
100
AcDbEntity
  8
0
100
AcDbLine
 10
433.162434607927
 20
231.2978277760378
 30
0.0
 11
433.1291675058172
 21
231.2933795793828
 31
0.0
  0
SPLINE
  5
17F
330
2
100
AcDbEntity
  8
0
100
AcDbSpline
210
0.0
220
0.0
230
1.0
 70
     8
 71
     3
 72
    10
 73
     6
 74
     0
 42
0.000000001
 43
0.0000000001
 40
0.0
 40
0.0
 40
0.0
 40
0.0
 40
0.4375239125216758
 40
0.8002162343547052
 40
1.0
 40
1.0
 40
1.0
 40
1.0
 10
433.1829754505707
 20
231.3732807492495
 30
0.0
 10
433.1810405858999
 20
231.3746583638717
 30
0.0
 10
433.177501784758
 20
231.3771779737804
 30
0.0
 10
433.1716874515968
 20
231.3783359608891
 30
0.0
 10
433.1686218830433
 20
231.3773578059605
 30
0.0
 10
433.1675330352805
 20
231.3770103787909
 30
0.0
  0
LINE
  5
180
330
2
100
AcDbEntity
  8
0
100
AcDbLine
 10
433.1674251658659
 20
231.3772830485257
 30
0.0
 11
432.7578324065299
 21
231.2590438035968
 31
0.0
  0
LINE
  5
181
330
2
100
AcDbEntity
  8
0
100
AcDbLine
 10
433.39582488951
 20
231.1889477279538
 30
0.0
 11
433.1829754505811
 21
231.3732807492526
 31
0.0
  0
LINE
  5
182
330
2
100
AcDbEntity
  8
0
100
AcDbLine
 10
432.6991972791289
 20
231.446266876551
 30
0.0
 11
432.6242729180831
 21
231.4246380765418
 31
0.0
  0
SPLINE
  5
183
330
2
100
AcDbEntity
  8
0
100
AcDbSpline
210
0.0
220
0.0
230
1.0
 70
     8
 71
     3
 72
    11
 73
     7
 74
     0
 42
0.000000001
 43
0.0000000001
 40
0.0
 40
0.0
 40
0.0
 40
0.0
 40
0.1945105074063493
 40
0.4401245690117079
 40
0.7430699896112603
 40
1.0
 40
1.0
 40
1.0
 40
1.0
 10
433.694965892318
 20
230.2821823513011
 30
0.0
 10
433.697467662174
 20
230.2831183237947
 30
0.0
 10
433.7031284894179
 20
230.285236175914
 30
0.0
 10
433.7090701669897
 20
230.2936238715894
 30
0.0
 10
433.7126683579112
 20
230.3040954453301
 30
0.0
 10
433.713078687945
 20
230.3129880251381
 30
0.0
 10
433.7132669907244
 20
230.3170688804428
 30
0.0
  0
LINE
  5
184
330
2
100
AcDbEntity
  8
0
100
AcDbLine
 10
433.2850642731091
 20
230.1633948581519
 30
0.0
 11
433.694657032445
 21
230.2816341030807
 31
0.0
  0
LINE
  5
185
330
2
100
AcDbEntity
  8
0
100
AcDbLine
 10
433.7132669907107
 20
230.3170688804329
 30
0.0
 11
433.7132669907107
 21
230.6407840140077
 31
0.0
  0
LINE
  5
186
330
2
100
AcDbEntity
  8
0
100
AcDbLine
 10
433.2246388540791
 20
230.0890858436967
 30
0.0
 11
433.2995632151248
 21
230.1107146437058
 31
0.0
  0
SPLINE
  5
187
330
2
100
AcDbEntity
  8
0
100
AcDbSpline
210
0.0
220
0.0
230
1.0
 70
     8
 71
     3
 72
    11
 73
     7
 74
     0
 42
0.000000001
 43
0.0000000001
 40
0.0
 40
0.0
 40
0.0
 40
0.0
 40
0.2362155331459947
 40
0.4820272013208676
 40
0.7373260840479499
 40
1.0
 40
1.0
 40
1.0
 40
1.0
 10
433.5033970058542
 20
231.126932305432
 30
0.0
 10
433.5001904539475
 20
231.1293176515866
 30
0.0
 10
433.493647085606
 20
231.1341852473615
 30
0.0
 10
433.4819602207044
 20
231.1385901286879
 30
0.0
 10
433.4690803409898
 20
231.1404996493651
 30
0.0
 10
433.4603931504299
 20
231.1388172888082
 30
0.0
 10
433.4559877098957
 20
231.1379641315835
 30
0.0
  0
LINE
  5
188
330
2
100
AcDbEntity
  8
0
100
AcDbLine
 10
433.5474977627169
 20
231.0887563946615
 30
0.0
 11
433.5012197635172
 21
231.1288343176094
 31
0.0
  0
LINE
  5
189
330
2
100
AcDbEntity
  8
0
100
AcDbLine
 10
433.4555342629295
 20
231.1378541588558
 30
0.0
 11
433.3056840521806
 21
231.0945961291107
 31
0.0
  0
SPLINE
  5
18A
330
2
100
AcDbEntity
  8
0
100
AcDbSpline
210
0.0
220
0.0
230
1.0
 70
     8
 71
     3
 72
    13
 73
     9
 74
     0
 42
0.000000001
 43
0.0000000001
 40
0.0
 40
0.0
 40
0.0
 40
0.0
 40
0.1246806583777975
 40
0.2992630251745492
 40
0.4817764542790173
 40
0.6913547237894893
 40
0.9211603274450348
 40
1.0
 40
1.0
 40
1.0
 40
1.0
 10
433.6609873111442
 20
230.6062999413196
 30
0.0
 10
433.6706079800593
 20
230.6092618733988
 30
0.0
 10
433.6936998575092
 20
230.6163712098899
 30
0.0
 10
433.7203739912463
 20
230.645380605353
 30
0.0
 10
433.7414103379452
 20
230.6849232812892
 30
0.0
 10
433.7531918099256
 20
230.7367771053634
 30
0.0
 10
433.7568978978324
 20
230.7852568855301
 30
0.0
 10
433.7529799284232
 20
230.8171421610073
 30
0.0
 10
433.7519791309084
 20
230.8252868658569
 30
0.0
  0
SPLINE
  5
18B
330
2
100
AcDbEntity
  8
0
100
AcDbSpline
210
0.0
220
0.0
230
1.0
 70
     8
 71
     3
 72
     9
 73
     5
 74
     0
 42
0.000000001
 43
0.0000000001
 40
0.0
 40
0.0
 40
0.0
 40
0.0
 40
0.6135885244915251
 40
1.0
 40
1.0
 40
1.0
 40
1.0
 10
433.6653697726141
 20
231.0802371944157
 30
0.0
 10
433.6558135228083
 20
231.0942446632139
 30
0.0
 10
433.640239160798
 20
231.1170734291359
 30
0.0
 10
433.6222284280963
 20
231.1335778643179
 30
0.0
 10
433.6152688742981
 20
231.1399553674692
 30
0.0
  0
LINE
  5
18C
330
2
100
AcDbEntity
  8
0
100
AcDbLine
 10
433.5100433929155
 20
230.5604175257756
 30
0.0
 11
433.6598936036645
 21
230.6036755555207
 31
0.0
  0
SPLINE
  5
18D
330
2
100
AcDbEntity
  8
0
100
AcDbSpline
210
0.0
220
0.0
230
1.0
 70
     8
 71
     3
 72
    11
 73
     7
 74
     0
 42
0.000000001
 43
0.0000000001
 40
0.0
 40
0.0
 40
0.0
 40
0.0
 40
0.1543660223893071
 40
0.5150852215213597
 40
0.8628718838183051
 40
1.0
 40
1.0
 40
1.0
 40
1.0
 10
433.5495588347721
 20
231.1950953437711
 30
0.0
 10
433.5469582499717
 20
231.1978663409029
 30
0.0
 10
433.5382806745752
 20
231.2071125445001
 30
0.0
 10
433.5177674907551
 20
231.2147853195172
 30
0.0
 10
433.4957020411665
 20
231.2179943472794
 30
0.0
 10
433.4841257814653
 20
231.213508922806
 30
0.0
 10
433.4808521532817
 20
231.2122404982587
 30
0.0
  0
LINE
  5
18E
330
2
100
AcDbEntity
  8
0
100
AcDbLine
 10
433.4806287307594
 20
231.2134284998665
 30
0.0
 11
433.3307785200101
 21
231.1701704701217
 31
0.0
  0
LINE
  5
18F
330
2
100
AcDbEntity
  8
0
100
AcDbLine
 10
433.6152688742955
 20
231.1399553674787
 30
0.0
 11
433.5503816416639
 21
231.1961493593046
 31
0.0
  0
LINE
  5
190
330
2
100
AcDbEntity
  8
0
100
AcDbLine
 10
433.8579885125259
 20
231.1324867281537
 30
0.0
 11
433.8579885125259
 21
231.7818395496125
 31
0.0
  0
LINE
  5
191
330
2
100
AcDbEntity
  8
0
100
AcDbLine
 10
434.2905700723638
 20
230.75786010809
 30
0.0
 11
434.2905700723638
 21
230.9807646783816
 31
0.0
  0
LINE
  5
192
330
2
100
AcDbEntity
  8
0
100
AcDbLine
 10
434.2905700723638
 20
231.2607169712284
 30
0.0
 11
434.2905700723638
 21
231.4072129295488
 31
0.0
  0
LWPOLYLINE
  5
193
330
2
100
AcDbEntity
  8
0
100
AcDbPolyline
 90
        9
 70
   128
 43
0.0
 10
434.2905700723638
 20
230.75786010809
 10
434.2900159474568
 20
230.7485951735953
 10
434.2883748577963
 20
230.7406461087752
 10
434.28570986645
 20
230.7343183159293
 10
434.2821233971693
 20
230.7298550119686
 10
434.2777532593682
 20
230.7274276920683
 10
434.2727674242106
 20
230.7271296748012
 10
434.2673574712302
 20
230.7289723808396
 10
434.2617312963612
 20
230.7328849954561
  0
LINE
  5
194
330
2
100
AcDbEntity
  8
0
100
AcDbLine
 10
433.8868272616795
 20
231.0575614134386
 30
0.0
 11
434.2617312963612
 21
230.7328849954561
 31
0.0
  0
ARC
  5
195
330
2
100
AcDbEntity
  8
0
100
AcDbCircle
 10
433.9673307091004
 20
231.1315598593301
 30
0.0
 40
0.1093461249449808
100
AcDbArc
 50
179.5143284029021
 51
222.5890966166057
  0
ARC
  5
196
330
2
100
AcDbEntity
  8
0
100
AcDbCircle
 10
433.9173811350704
 20
231.1171406593143
 30
0.0
 40
0.10934612494429
100
AcDbArc
 50
179.5143284027946
 51
222.5890966166922
  0
LINE
  5
197
330
2
100
AcDbEntity
  8
0
100
AcDbLine
 10
433.3335120306336
 20
231.6803864472001
 30
0.0
 11
433.8080389384954
 21
231.8173705661839
 31
0.0
  0
ARC
  5
198
330
2
100
AcDbEntity
  8
0
100
AcDbCircle
 10
433.8213924530504
 20
231.78326784989
 30
0.0
 40
0.036623921281146
100
AcDbArc
 50
357.7649488640071
 51
111.3836953595002
  0
ARC
  5
199
330
2
100
AcDbEntity
  8
0
100
AcDbCircle
 10
433.789740739056
 20
231.7431592999364
 30
0.0
 40
0.0183121266605513
100
AcDbArc
 50
357.7652534194966
 51
111.3879238778048
  0
LINE
  5
19A
330
2
100
AcDbEntity
  8
0
100
AcDbLine
 10
433.3335120306336
 20
231.6304362306128
 30
0.0
 11
433.7830626628224
 21
231.7602103198479
 31
0.0
  0
LINE
  5
19B
330
2
100
AcDbEntity
  8
0
100
AcDbLine
 10
433.8080389384954
 20
231.1180675281379
 30
0.0
 11
433.8080389384954
 21
231.7424452405677
 31
0.0
  0
LINE
  5
19C
330
2
100
AcDbEntity
  8
0
100
AcDbLine
 10
434.2117817223018
 20
230.7184657954404
 30
0.0
 11
434.2617312963612
 21
230.7328849954561
 31
0.0
  0
LINE
  5
19D
330
2
100
AcDbEntity
  8
0
100
AcDbLine
 10
433.8368776876491
 20
231.0431422134228
 30
0.0
 11
434.2117817223018
 21
230.7184657954404
 31
0.0
  0
ARC
  5
19E
330
2
100
AcDbEntity
  8
0
100
AcDbCircle
 10
434.2530782438537
 20
231.4086857640989
 30
0.0
 40
0.0375207469004131
100
AcDbArc
 50
357.7503409136978
 51
47.6008284993003
  0
LWPOLYLINE
  5
19F
330
2
100
AcDbEntity
  8
0
100
AcDbPolyline
 90
        8
 70
   128
 43
0.0
 10
433.8080388176321
 20
231.5541500264789
 10
433.7904533056144
 20
231.5573315832896
 10
433.74778615034
 20
231.5587299036745
 10
433.7072970667719
 20
231.5518578722847
 10
433.6751498174099
 20
231.5377616004957
 10
433.6562367131324
 20
231.5185865903701
 10
433.6534401595997
 20
231.497252937161
 10
433.6671859403336
 20
231.477008519124
  0
ARC
  5
1A0
330
2
100
AcDbEntity
  8
0
100
AcDbCircle
 10
433.7628501584909
 20
231.6249002387055
 30
0.0
 40
0.1761351849079068
100
AcDbArc
 50
237.1030660799134
 51
284.8658280506904
  0
LINE
  5
1A1
330
2
100
AcDbEntity
  8
0
100
AcDbLine
 10
433.7085202516056
 20
231.2479910656536
 30
0.0
 11
433.8080382308207
 21
231.1618059675162
 31
0.0
  0
LINE
  5
1A2
330
2
100
AcDbEntity
  8
0
100
AcDbLine
 10
433.4383102202535
 20
231.5108382171839
 30
0.0
 11
433.7266979268409
 21
231.2610871371605
 31
0.0
  0
LINE
  5
1A3
330
2
100
AcDbEntity
  8
0
100
AcDbLine
 10
433.4133354332382
 20
231.5036286171905
 30
0.0
 11
433.4383102202535
 21
231.5108382171839
 31
0.0
  0
LINE
  5
1A4
330
2
100
AcDbEntity
  8
0
100
AcDbLine
 10
433.4133354332382
 20
231.5036286171905
 30
0.0
 11
433.312399717128
 21
231.5910415114808
 31
0.0
  0
LWPOLYLINE
  5
1A5
330
2
100
AcDbEntity
  8
0
100
AcDbPolyline
 90
        9
 70
   128
 43
0.0
 10
433.312399717128
 20
231.5910415114808
 10
433.3077337370513
 20
231.5961910752152
 10
433.3051655700337
 20
231.6016966003738
 10
433.3047959976324
 20
231.6073470450302
 10
433.3066379097105
 20
231.6129249752304
 10
433.3106211499876
 20
231.6182161201441
 10
433.3165917022081
 20
231.6230169525649
 10
433.3243200653244
 20
231.6271429059429
 10
433.3335120306336
 20
231.6304362306128
  0
ARC
  5
1A6
330
2
100
AcDbEntity
  8
0
100
AcDbCircle
 10
434.2248267189321
 20
230.7305067378039
 30
0.0
 40
0.017752640082851
100
AcDbArc
 50
222.70798366379
 51
279.5715081718861
  0
LWPOLYLINE
  5
1A7
330
2
100
AcDbEntity
  8
0
100
AcDbPolyline
 90
        7
 70
   128
 43
0.0
 10
433.3335120306336
 20
231.6803864472001
 10
433.3243200653244
 20
231.6770931225302
 10
433.3165917022081
 20
231.6729671691521
 10
433.3106211499876
 20
231.6681663367311
 10
433.3066379097105
 20
231.6628751918176
 10
433.3047959976324
 20
231.6572972616173
 10
433.3046732475942
 20
231.6554113325186
  0
LINE
  5
1A8
330
2
100
AcDbEntity
  8
0
100
AcDbLine
 10
433.6671859403336
 20
231.5269587357112
 30
0.0
 11
433.664548714985
 21
231.5293801538146
 31
0.0
  0
LINE
  5
1A9
330
2
100
AcDbEntity
  8
0
100
AcDbLine
 10
433.1925682600747
 20
231.364973297408
 30
0.0
 11
433.3384110721923
 21
231.4070744908439
 31
0.0
  0
ARC
  5
1AA
330
2
100
AcDbEntity
  8
0
100
AcDbCircle
 10
433.3278990456088
 20
231.4410140043494
 30
0.0
 40
0.0355301742223771
100
AcDbArc
 50
287.2092307659917
 51
357.1690582599982
  0
LINE
  5
1AB
330
2
100
AcDbEntity
  8
0
100
AcDbLine
 10
433.3633858592076
 20
231.4392591991166
 30
0.0
 11
433.3633858592076
 21
231.4892094171745
 31
0.0
  0
ARC
  5
1AC
330
2
100
AcDbEntity
  8
0
100
AcDbCircle
 10
433.4312664076364
 20
231.4866618204492
 30
0.0
 40
0.067928338014825
100
AcDbArc
 50
138.189029135293
 51
177.8506646272996
  0
ARC
  5
1AD
330
2
100
AcDbEntity
  8
0
100
AcDbCircle
 10
433.4488222467504
 20
231.4768987037649
 30
0.0
 40
0.0355301741096121
100
AcDbArc
 50
107.2092307003992
 51
177.1690595791006
  0
LINE
  5
1AE
330
2
100
AcDbEntity
  8
0
100
AcDbLine
 10
433.4133354332382
 20
231.4287032908531
 30
0.0
 11
433.4133354332382
 21
231.4786535081613
 31
0.0
  0
ARC
  5
1AF
330
2
100
AcDbEntity
  8
0
100
AcDbCircle
 10
433.3423618060694
 20
231.4322129012611
 30
0.0
 40
0.0710603484445498
100
AcDbArc
 50
287.2092307658964
 51
357.1690582602019
  0
LINE
  5
1B0
330
2
100
AcDbEntity
  8
0
100
AcDbLine
 10
433.3633858592076
 20
231.3643338742504
 30
0.0
 11
433.2358264311295
 21
231.3275106391709
 31
0.0
  0
ARC
  5
1B1
330
2
100
AcDbEntity
  8
0
100
AcDbCircle
 10
433.6307495126284
 20
231.1824618212379
 30
0.0
 40
0.0710603484447879
100
AcDbArc
 50
287.2092307659917
 51
357.1690582599982
  0
LINE
  5
1B2
330
2
100
AcDbEntity
  8
0
100
AcDbLine
 10
433.6517735657953
 20
231.1145827942271
 30
0.0
 11
433.6418696939317
 21
231.1117237926712
 31
0.0
  0
LINE
  5
1B3
330
2
100
AcDbEntity
  8
0
100
AcDbLine
 10
433.7017231398257
 20
231.1789522108013
 30
0.0
 11
433.7017231398257
 21
231.2289024281381
 31
0.0
  0
ARC
  5
1B4
330
2
100
AcDbEntity
  8
0
100
AcDbCircle
 10
433.7372099533379
 20
231.2271476237416
 30
0.0
 40
0.0355301741094426
100
AcDbArc
 50
107.2092307002082
 51
177.1690595792979
  0
LINE
  5
1B5
330
2
100
AcDbEntity
  8
0
100
AcDbLine
 10
437.5042340388939
 20
232.1048679710773
 30
0.0
 11
437.4755243030981
 21
232.1123269850589
 31
0.0
  0
LWPOLYLINE
  5
1B6
330
2
100
AcDbEntity
  8
0
100
AcDbPolyline
 90
        9
 70
   128
 43
0.0
 10
437.4755243030981
 20
232.1123269850589
 10
437.4714550173864
 20
232.1127557577478
 10
437.4677086612575
 20
232.111858635713
 10
437.4643741890246
 20
232.1096569250104
 10
437.461530805538
 20
232.1062029836688
 10
437.4592460457204
 20
232.1015787678426
 10
437.4575741765545
 20
232.0958940991206
 10
437.4565549079039
 20
232.0892840592013
 10
437.4562124390162
 20
232.0819055825641
  0
LINE
  5
1B7
330
2
100
AcDbEntity
  8
0
100
AcDbLine
 10
437.4562124390162
 20
231.9562548604462
 30
0.0
 11
437.4562124390162
 21
232.0819055825641
 31
0.0
  0
ARC
  5
1B8
330
2
100
AcDbEntity
  8
0
100
AcDbCircle
 10
437.9045156378098
 20
231.9524548469277
 30
0.0
 40
0.4483193037961458
100
AcDbArc
 50
179.5143476040019
 51
222.5891034482952
  0
LWPOLYLINE
  5
1B9
330
2
100
AcDbEntity
  8
0
100
AcDbPolyline
 90
        9
 70
   128
 43
0.0
 10
437.5744513985851
 20
231.6490610498146
 10
437.5975186532052
 20
231.6330193282118
 10
437.6196994488108
 20
231.6254642342012
 10
437.6401413892158
 20
231.626686072178
 10
437.658058906521
 20
231.6366380600027
 10
437.6727634379744
 20
231.6549375486216
 10
437.6836899004555
 20
231.6808814266424
 10
437.6904184029529
 20
231.7134725807426
 10
437.6926903648451
 20
231.7514586901332
  0
LINE
  5
1BA
330
2
100
AcDbEntity
  8
0
100
AcDbLine
 10
437.6926903447153
 20
231.8771097088001
 30
0.0
 11
437.6926903447153
 21
231.7514587075806
 31
0.0
  0
ARC
  5
1BB
330
2
100
AcDbEntity
  8
0
100
AcDbCircle
 10
437.5712489833834
 20
231.8752455803996
 30
0.0
 40
0.121455667698903
100
AcDbArc
 50
0.8794228102025424
 51
32.76696944519579
  0
LINE
  5
1BC
330
2
100
AcDbEntity
  8
0
100
AcDbLine
 10
437.6733784739139
 20
231.9409802468725
 30
0.0
 11
437.6446687532297
 21
231.983247940897
 31
0.0
  0
ARC
  5
1BD
330
2
100
AcDbEntity
  8
0
100
AcDbCircle
 10
437.6957334721939
 20
232.0161152653085
 30
0.0
 40
0.0607278069565567
100
AcDbArc
 50
180.879437487897
 51
212.7669758525
  0
LINE
  5
1BE
330
2
100
AcDbEntity
  8
0
100
AcDbLine
 10
437.6350128186653
 20
232.0151831859535
 30
0.0
 11
437.6350128186653
 21
232.0172071213486
 31
0.0
  0
LWPOLYLINE
  5
1BF
330
2
100
AcDbEntity
  8
0
100
AcDbPolyline
 90
        9
 70
   128
 43
0.0
 10
437.6350128186653
 20
232.0172071213486
 10
437.6351840531091
 20
232.0208963364229
 10
437.6356936899433
 20
232.0242013541764
 10
437.63652962369
 20
232.0270437125312
 10
437.6376720027769
 20
232.0293557979212
 10
437.6390936911606
 20
232.0310827714902
 10
437.6407609272625
 20
232.0321836268417
 10
437.6426341103736
 20
232.0326321835043
 10
437.6446687532297
 20
232.0324177971744
  0
LINE
  5
1C0
330
2
100
AcDbEntity
  8
0
100
AcDbLine
 10
437.6446687532297
 20
232.0324177971744
 30
0.0
 11
437.6733784739139
 21
232.0249587962569
 31
0.0
  0
LWPOLYLINE
  5
1C1
330
2
100
AcDbEntity
  8
0
100
AcDbPolyline
 90
        9
 70
   128
 43
0.0
 10
437.6733784739139
 20
232.0249587962569
 10
437.6774477596251
 20
232.0245300235969
 10
437.6811941291935
 20
232.0254271340095
 10
437.6845285947069
 20
232.0276288039919
 10
437.6873719781935
 20
232.0310827918506
 10
437.6896567312919
 20
232.0357070134729
 10
437.6913286004576
 20
232.041391635707
 10
437.6923478758278
 20
232.0480016697721
 10
437.6926903447153
 20
232.0553801464092
  0
LINE
  5
1C2
330
2
100
AcDbEntity
  8
0
100
AcDbLine
 10
437.6926903447153
 20
232.1811444698114
 30
0.0
 11
437.6926903447153
 21
232.0553801464092
 31
0.0
  0
ARC
  5
1C3
330
2
100
AcDbEntity
  8
0
100
AcDbCircle
 10
437.2443992804693
 20
232.1848369708042
 30
0.0
 40
0.4483062712412613
100
AcDbArc
 50
359.5280746003991
 51
42.58958053819735
  0
LWPOLYLINE
  5
1C4
330
2
100
AcDbEntity
  8
0
100
AcDbPolyline
 90
        9
 70
   128
 43
0.0
 10
437.5744513985851
 20
232.488224696635
 10
437.551384123807
 20
232.5042664473072
 10
437.5292033072353
 20
232.5118215362135
 10
437.5087613508825
 20
232.5105996131912
 10
437.4908438302036
 20
232.5006476515519
 10
437.476139288685
 20
232.4823480902304
 10
437.465212836269
 20
232.4564041802278
 10
437.4584843606203
 20
232.4238129098208
 10
437.4562124390162
 20
232.3858267422911
  0
LINE
  5
1C5
330
2
100
AcDbEntity
  8
0
100
AcDbLine
 10
437.4562124390162
 20
232.2601760201731
 30
0.0
 11
437.4562124390162
 21
232.3858267422911
 31
0.0
  0
ARC
  5
1C6
330
2
100
AcDbEntity
  8
0
100
AcDbCircle
 10
437.5776538260148
 20
232.2620401994743
 30
0.0
 40
0.1214556941413245
100
AcDbArc
 50
180.8794466264007
 51
212.7669606032966
  0
LINE
  5
1C7
330
2
100
AcDbEntity
  8
0
100
AcDbLine
 10
437.4755243030981
 20
232.1963055344721
 30
0.0
 11
437.5042340388939
 21
232.1540378273262
 31
0.0
  0
ARC
  5
1C8
330
2
100
AcDbEntity
  8
0
100
AcDbCircle
 10
437.4531692846598
 20
232.1211704843998
 30
0.0
 40
0.0607278466385852
100
AcDbArc
 50
0.8794509730963087
 51
32.76697255149633
  0
LINE
  5
1C9
330
2
100
AcDbEntity
  8
0
100
AcDbLine
 10
437.51388997764
 20
232.1221025786645
 30
0.0
 11
437.51388997764
 21
232.1200786432408
 31
0.0
  0
LWPOLYLINE
  5
1CA
330
2
100
AcDbEntity
  8
0
100
AcDbPolyline
 90
        9
 70
   128
 43
0.0
 10
437.51388997764
 20
232.1200786432408
 10
437.5137187431961
 20
232.1163893816781
 10
437.5132091088707
 20
232.113084361733
 10
437.5123731742879
 20
232.110242050616
 10
437.5112307943936
 20
232.1079299659758
 10
437.5098091026353
 20
232.1062029487738
 10
437.5081418665338
 20
232.1051021399394
 10
437.5062686817498
 20
232.1046535847473
 10
437.5042340388939
 20
232.1048679710773
  0
LWPOLYLINE
  5
1CB
330
2
100
AcDbEntity
  8
0
100
AcDbPolyline
 90
       13
 70
   128
 43
0.0
 10
437.4158381606354
 20
232.4307819427539
 10
437.4212427688109
 20
232.4972057820623
 10
437.437088300339
 20
232.5497418782961
 10
437.4622948944361
 20
232.5848099888973
 10
437.4951447812827
 20
232.6000202569141
 10
437.5333992696147
 20
232.5943361620836
 10
437.5744513985851
 20
232.5681450434513
 10
437.6155035266905
 20
232.5232317897026
 10
437.6537580192327
 20
232.4626571634841
 10
437.6866078960148
 20
232.390549231104
 10
437.7118144968317
 20
232.3118220130369
 10
437.727660028331
 20
232.2318406511668
 10
437.7330646432255
 20
232.1560557500678
  0
LINE
  5
1CC
330
2
100
AcDbEntity
  8
0
100
AcDbLine
 10
437.7330646432255
 20
231.706503792045
 30
0.0
 11
437.7330646432255
 21
232.1560557500678
 31
0.0
  0
LWPOLYLINE
  5
1CD
330
2
100
AcDbEntity
  8
0
100
AcDbPolyline
 90
       13
 70
   128
 43
0.0
 10
437.7330646432255
 20
231.706503792045
 10
437.727660028331
 20
231.6400799352889
 10
437.7118144968317
 20
231.5875439088451
 10
437.6866078960148
 20
231.5524757924472
 10
437.6537580192327
 20
231.537265448815
 10
437.6155035266905
 20
231.5429495454913
 10
437.5744513985851
 20
231.5691407451319
 10
437.5333992696147
 20
231.6140539179013
 10
437.4951447812827
 20
231.6746285422453
 10
437.4622948944361
 20
231.7467365502116
 10
437.437088300339
 20
231.8254637741041
 10
437.4212427688109
 20
231.9054450661843
 10
437.4158381606354
 20
231.9812299847308
  0
LINE
  5
1CE
330
2
100
AcDbEntity
  8
0
100
AcDbLine
 10
437.4158381606354
 20
232.4307819427539
 30
0.0
 11
437.4158381606354
 21
231.9812299847308
 31
0.0
  0
LINE
  5
1CF
330
2
100
AcDbEntity
  8
0
100
AcDbLine
 10
436.1920572218584
 20
231.6279542527625
 30
0.0
 11
436.2769732840815
 21
231.6524680132014
 31
0.0
  0
LINE
  5
1D0
330
2
100
AcDbEntity
  8
0
100
AcDbLine
 10
436.2769732840815
 20
231.6524680132014
 30
0.0
 11
436.6765743422401
 21
231.7678229024783
 31
0.0
  0
LINE
  5
1D1
330
2
100
AcDbEntity
  8
0
100
AcDbLine
 10
436.6765743422401
 20
231.7678229024783
 30
0.0
 11
437.4158381606354
 21
231.9812299847308
 31
0.0
  0
LINE
  5
1D2
330
2
100
AcDbEntity
  8
0
100
AcDbLine
 10
436.6765743422401
 20
231.7678229024783
 30
0.0
 11
436.6765743422401
 21
232.2173748604723
 31
0.0
  0
LINE
  5
1D3
330
2
100
AcDbEntity
  8
0
100
AcDbLine
 10
437.4158381606354
 20
232.4307819427539
 30
0.0
 11
436.6765743422401
 21
232.2173748604723
 31
0.0
  0
LINE
  5
1D4
330
2
100
AcDbEntity
  8
0
100
AcDbLine
 10
436.6765743422401
 20
232.2173748604723
 30
0.0
 11
436.2769732840815
 21
232.1020199712243
 31
0.0
  0
LINE
  5
1D5
330
2
100
AcDbEntity
  8
0
100
AcDbLine
 10
436.2769732840815
 20
232.1020199712243
 30
0.0
 11
436.1920572218584
 21
232.0775074435562
 31
0.0
  0
ARC
  5
1D6
330
2
100
AcDbEntity
  8
0
100
AcDbCircle
 10
436.3530809753275
 20
231.4934505060883
 30
0.0
 40
0.3683618609390484
100
AcDbArc
 50
176.1170780806996
 51
232.9259054029031
  0
ARC
  5
1D7
330
2
100
AcDbEntity
  8
0
100
AcDbCircle
 10
436.3086433724114
 20
231.1588413295123
 30
0.0
 40
0.483381339557263
100
AcDbArc
 50
103.9567131247121
 51
131.9415602769999
  0
LINE
  5
1D8
330
2
100
AcDbEntity
  8
0
100
AcDbLine
 10
436.2769732840815
 20
231.6524680132014
 30
0.0
 11
436.2769732840815
 21
232.1020199712243
 31
0.0
  0
LINE
  5
1D9
330
2
100
AcDbEntity
  8
0
100
AcDbLine
 10
436.1920572218584
 20
232.0775068155343
 30
0.0
 11
436.1920572218584
 21
231.6279548575115
 31
0.0
  0
LINE
  5
1DA
330
2
100
AcDbEntity
  8
0
100
AcDbLine
 10
435.9855645653154
 20
231.5183953057994
 30
0.0
 11
435.9855645653154
 21
231.9679472637933
 31
0.0
  0
ARC
  5
1DB
330
2
100
AcDbEntity
  8
0
100
AcDbCircle
 10
436.3086413706834
 20
231.6084063423856
 30
0.0
 40
0.4833729728140432
100
AcDbArc
 50
103.9567151057936
 51
131.9421324241007
  0
SPLINE
  5
1DC
330
2
100
AcDbEntity
  8
0
100
AcDbSpline
210
0.0
220
0.0
230
1.0
 70
     8
 71
     3
 72
    13
 73
     9
 74
     0
 42
0.000000001
 43
0.0000000001
 40
0.0
 40
0.0
 40
0.0
 40
0.0
 40
0.2419843082959984
 40
0.3688463119657643
 40
0.4993222481250302
 40
0.7091575939723726
 40
0.8445530618364928
 40
1.0
 40
1.0
 40
1.0
 40
1.0
 10
435.9932924963493
 20
231.260503839109
 30
0.0
 10
435.9859221517382
 20
231.2682632430239
 30
0.0
 10
435.9746878512717
 20
231.2800905699166
 30
0.0
 10
435.9612820355004
 20
231.3043709978002
 30
0.0
 10
435.9503202464594
 20
231.3294069561795
 30
0.0
 10
435.9418333089463
 20
231.3574345903458
 30
0.0
 10
435.9365277532138
 20
231.3868666401603
 30
0.0
 10
435.935932888932
 20
231.4026623991179
 30
0.0
 10
435.9356149510061
 20
231.4111047799916
 30
0.0
  0
LINE
  5
1DD
330
2
100
AcDbEntity
  8
0
100
AcDbLine
 10
435.9356149509978
 20
231.4111047799902
 30
0.0
 11
435.9356149509978
 21
232.0465451825083
 31
0.0
  0
SPLINE
  5
1DE
330
2
100
AcDbEntity
  8
0
100
AcDbSpline
210
0.0
220
0.0
230
1.0
 70
     8
 71
     3
 72
    13
 73
     9
 74
     0
 42
0.000000001
 43
0.0000000001
 40
0.0
 40
0.0
 40
0.0
 40
0.0
 40
0.1554252224336965
 40
0.290813182552121
 40
0.5006775711271933
 40
0.6311396391804776
 40
0.7579973492626563
 40
1.0
 40
1.0
 40
1.0
 40
1.0
 10
435.9356149510061
 20
232.0465451825202
 30
0.0
 10
435.9359327914831
 20
232.0544128237286
 30
0.0
 10
435.9365274967648
 20
232.0691338178062
 30
0.0
 10
435.9418324940728
 20
232.089283659853
 30
0.0
 10
435.9503193187514
 20
232.1028114764449
 30
0.0
 10
435.9612812437577
 20
232.1087940747985
 30
0.0
 10
435.974686847823
 20
232.1098417393425
 30
0.0
 10
435.9859215863796
 20
232.1022357710931
 30
0.0
 10
435.9932924963493
 20
232.0972456320776
 30
0.0
  0
LINE
  5
1DF
330
2
100
AcDbEntity
  8
0
100
AcDbLine
 10
436.0170646410426
 20
232.0766583508513
 30
0.0
 11
435.9932924963409
 21
232.0972456320886
 31
0.0
  0
SPLINE
  5
1E0
330
2
100
AcDbEntity
  8
0
100
AcDbSpline
210
0.0
220
0.0
230
1.0
 70
     8
 71
     3
 72
    13
 73
     9
 74
     0
 42
0.000000001
 43
0.0000000001
 40
0.0
 40
0.0
 40
0.0
 40
0.0
 40
0.0059434516331864
 40
0.165293850732045
 40
0.4123025123111349
 40
0.56585512983955
 40
0.7151650858828266
 40
1.0
 40
1.0
 40
1.0
 40
1.0
 10
436.164655364542
 20
231.1892843236615
 30
0.0
 10
436.1646370586023
 20
231.1890371338634
 30
0.0
 10
436.1641279505203
 20
231.1821625168735
 30
0.0
 10
436.1596871835997
 20
231.168870888684
 30
0.0
 10
436.1517078458299
 20
231.154982874963
 30
0.0
 10
436.1406241448309
 20
231.1490609993026
 30
0.0
 10
436.1272225235128
 20
231.1479901609031
 30
0.0
 10
436.1160063311419
 20
231.1556064737879
 30
0.0
 10
436.1086475820003
 20
231.1606034044799
 30
0.0
  0
LINE
  5
1E1
330
2
100
AcDbEntity
  8
0
100
AcDbLine
 10
435.9932924963409
 20
231.2605038390966
 30
0.0
 11
436.1086475820095
 21
231.1606034044802
 31
0.0
  0
SPLINE
  5
1E2
330
2
100
AcDbEntity
  8
0
100
AcDbSpline
210
0.0
220
0.0
230
1.0
 70
     8
 71
     3
 72
    13
 73
     9
 74
     0
 42
0.000000001
 43
0.0000000001
 40
0.0
 40
0.0
 40
0.0
 40
0.0
 40
0.2419844515531855
 40
0.3688465303265559
 40
0.4993225437289113
 40
0.7091580138009257
 40
0.8445535701249179
 40
1.0
 40
1.0
 40
1.0
 40
1.0
 10
435.89339185965
 20
231.2439312479102
 30
0.0
 10
435.8860215227509
 20
231.251690654042
 30
0.0
 10
435.8747872340385
 20
231.2635179843136
 30
0.0
 10
435.8613813614148
 20
231.2877983958538
 30
0.0
 10
435.8504197953808
 20
231.3128344183408
 30
0.0
 10
435.8419316798903
 20
231.3408617144075
 30
0.0
 10
435.8366295094461
 20
231.3702947007547
 30
0.0
 10
435.8360330853346
 20
231.38608998436
 30
0.0
 10
435.8357143143068
 20
231.3945320957532
 30
0.0
  0
LINE
  5
1E3
330
2
100
AcDbEntity
  8
0
100
AcDbLine
 10
435.8357143143077
 20
231.3945320957433
 30
0.0
 11
435.8357143143077
 21
232.0054401258561
 31
0.0
  0
SPLINE
  5
1E4
330
2
100
AcDbEntity
  8
0
100
AcDbSpline
210
0.0
220
0.0
230
1.0
 70
     8
 71
     3
 72
    13
 73
     9
 74
     0
 42
0.000000001
 43
0.0000000001
 40
0.0
 40
0.0
 40
0.0
 40
0.0
 40
0.1554252147781365
 40
0.2908131868673458
 40
0.5006775811249914
 40
0.6311396291927128
 40
0.7579973427098638
 40
1.0
 40
1.0
 40
1.0
 40
1.0
 10
435.8357143143068
 20
232.0054401258586
 30
0.0
 10
435.8360329859564
 20
232.0133080072923
 30
0.0
 10
435.836629246467
 20
232.0280294517945
 30
0.0
 10
435.8419308650733
 20
232.0481783151124
 30
0.0
 10
435.8504188661802
 20
232.0617064759951
 30
0.0
 10
435.8613805708152
 20
232.0676890000413
 30
0.0
 10
435.8747862303261
 20
232.0687366832864
 30
0.0
 10
435.8860209572879
 20
232.0611307111601
 30
0.0
 10
435.89339185965
 20
232.0561405696009
 30
0.0
  0
SPLINE
  5
1E5
330
2
100
AcDbEntity
  8
0
100
AcDbSpline
210
0.0
220
0.0
230
1.0
 70
     8
 71
     3
 72
    11
 73
     7
 74
     0
 42
0.000000001
 43
0.0000000001
 40
0.0
 40
0.0
 40
0.0
 40
0.0
 40
0.2521820895689171
 40
0.4475706398312883
 40
0.637561015062202
 40
1.0
 40
1.0
 40
1.0
 40
1.0
 10
436.0583520541183
 20
231.1521578268254
 30
0.0
 10
436.0556898228099
 20
231.1468996132892
 30
0.0
 10
436.0509649171977
 20
231.1375673803747
 30
0.0
 10
436.040691519312
 20
231.1325599268084
 30
0.0
 10
436.0273385656411
 20
231.1313801683405
 30
0.0
 10
436.0161122979667
 20
231.1390190682191
 30
0.0
 10
436.0087469453007
 20
231.144030813281
 30
0.0
  0
LINE
  5
1E6
330
2
100
AcDbEntity
  8
0
100
AcDbLine
 10
435.8933918596516
 20
231.2439312479123
 30
0.0
 11
436.0087469452915
 21
231.1440308132672
 31
0.0
  0
SPLINE
  5
1E7
330
2
100
AcDbEntity
  8
0
100
AcDbSpline
210
0.0
220
0.0
230
1.0
 70
     8
 71
     3
 72
    13
 73
     9
 74
     0
 42
0.000000001
 43
0.0000000001
 40
0.0
 40
0.0
 40
0.0
 40
0.0
 40
0.2419844494479604
 40
0.3688465271176515
 40
0.4993225393848871
 40
0.7091579936996234
 40
0.8445529830250757
 40
1.0
 40
1.0
 40
1.0
 40
1.0
 10
435.7934912229508
 20
231.2273586567115
 30
0.0
 10
435.7861208650246
 20
231.2351180567894
 30
0.0
 10
435.7748865442622
 20
231.2469453778333
 30
0.0
 10
435.7614808266529
 20
231.2712258340039
 30
0.0
 10
435.7505186528923
 20
231.2962616806789
 30
0.0
 10
435.7420337591135
 20
231.324289867105
 30
0.0
 10
435.7367282109329
 20
231.3537218982422
 30
0.0
 10
435.7361322188887
 20
231.3695172991597
 30
0.0
 10
435.7358136776077
 20
231.3779595045543
 30
0.0
  0
LINE
  5
1E8
330
2
100
AcDbEntity
  8
0
100
AcDbLine
 10
435.7358136776183
 20
231.3779595045591
 30
0.0
 11
435.7358136776183
 21
231.9643350692038
 31
0.0
  0
SPLINE
  5
1E9
330
2
100
AcDbEntity
  8
0
100
AcDbSpline
210
0.0
220
0.0
230
1.0
 70
     8
 71
     3
 72
    13
 73
     9
 74
     0
 42
0.000000001
 43
0.0000000001
 40
0.0
 40
0.0
 40
0.0
 40
0.0
 40
0.1554251469260927
 40
0.2908131239845181
 40
0.5006775259449273
 40
0.6311396258373369
 40
0.7579973267336877
 40
1.0
 40
1.0
 40
1.0
 40
1.0
 10
435.7358136776077
 20
231.9643350691968
 30
0.0
 10
435.7361323495299
 20
231.9722029463578
 30
0.0
 10
435.7367286106828
 20
231.9869243861099
 30
0.0
 10
435.7420302279034
 20
232.0070732482515
 30
0.0
 10
435.7505182326792
 20
232.0206014017233
 30
0.0
 10
435.7614799309329
 20
232.0265839482379
 30
0.0
 10
435.7748855958931
 20
232.0276316142248
 30
0.0
 10
435.7861203212327
 20
232.0200256497573
 30
0.0
 10
435.7934912229508
 20
232.0150355129391
 30
0.0
  0
SPLINE
  5
1EA
330
2
100
AcDbEntity
  8
0
100
AcDbSpline
210
0.0
220
0.0
230
1.0
 70
     8
 71
     3
 72
    11
 73
     7
 74
     0
 42
0.000000001
 43
0.0000000001
 40
0.0
 40
0.0
 40
0.0
 40
0.0
 40
0.2521820895689171
 40
0.4475706398312883
 40
0.637561015062202
 40
1.0
 40
1.0
 40
1.0
 40
1.0
 10
435.958451417419
 20
231.1355852356266
 30
0.0
 10
435.9557891861102
 20
231.1303270220905
 30
0.0
 10
435.9510642804986
 20
231.1209947891757
 30
0.0
 10
435.9407908826126
 20
231.1159873356096
 30
0.0
 10
435.9274379289415
 20
231.1148075771416
 30
0.0
 10
435.9162116612669
 20
231.12244647702
 30
0.0
 10
435.9088463086014
 20
231.1274582220822
 30
0.0
  0
LINE
  5
1EB
330
2
100
AcDbEntity
  8
0
100
AcDbLine
 10
435.793491222962
 20
231.2273586566993
 30
0.0
 11
435.9088463086022
 21
231.127458222083
 31
0.0
  0
ARC
  5
1EC
330
2
100
AcDbEntity
  8
0
100
AcDbCircle
 10
436.1435988505702
 20
231.9838960004882
 30
0.0
 40
0.1588369058326136
100
AcDbArc
 50
147.4321183995
 51
185.7627905993984
  0
SPLINE
  5
1ED
330
2
100
AcDbEntity
  8
0
100
AcDbSpline
210
0.0
220
0.0
230
1.0
 70
     8
 71
     3
 72
    13
 73
     9
 74
     0
 42
0.000000001
 43
0.0000000001
 40
0.0
 40
0.0
 40
0.0
 40
0.0
 40
0.2419843782498375
 40
0.3688464185934037
 40
0.4993223924712006
 40
0.7091577850468852
 40
0.8445527345356078
 40
1.0
 40
1.0
 40
1.0
 40
1.0
 10
435.6935905862515
 20
231.2107860655124
 30
0.0
 10
435.6862202283251
 20
231.218545465591
 30
0.0
 10
435.6749859075619
 20
231.2303727866358
 30
0.0
 10
435.6615801899548
 20
231.2546532428027
 30
0.0
 10
435.6506180161846
 20
231.2796890894926
 30
0.0
 10
435.6421331224579
 20
231.3077172758388
 30
0.0
 10
435.6368275710106
 20
231.3371493245009
 30
0.0
 10
435.6362315812496
 20
231.3529447395103
 30
0.0
 10
435.6359130409081
 20
231.361386959875
 30
0.0
  0
LINE
  5
1EE
330
2
100
AcDbEntity
  8
0
100
AcDbLine
 10
435.6359130409002
 20
231.361386959863
 30
0.0
 11
435.6359130409002
 21
231.9232300009008
 31
0.0
  0
SPLINE
  5
1EF
330
2
100
AcDbEntity
  8
0
100
AcDbSpline
210
0.0
220
0.0
230
1.0
 70
     8
 71
     3
 72
    13
 73
     9
 74
     0
 42
0.000000001
 43
0.0000000001
 40
0.0
 40
0.0
 40
0.0
 40
0.0
 40
0.1554252177894542
 40
0.290813184196929
 40
0.5006775685908073
 40
0.6311396153940936
 40
0.7579973486460087
 40
1.0
 40
1.0
 40
1.0
 40
1.0
 10
435.6359130409081
 20
231.923230000905
 30
0.0
 10
435.6362314729047
 20
231.9310978130793
 30
0.0
 10
435.6368272849882
 20
231.9458191275713
 30
0.0
 10
435.6421324646768
 20
231.9659690193942
 30
0.0
 10
435.6506161910909
 20
231.9794959476197
 30
0.0
 10
435.6615813345256
 20
231.9854794609266
 30
0.0
 10
435.6749863327109
 20
231.986526966881
 30
0.0
 10
435.6862202292021
 20
231.9789207478724
 30
0.0
 10
435.6935905862515
 20
231.9739304446472
 30
0.0
  0
SPLINE
  5
1F0
330
2
100
AcDbEntity
  8
0
100
AcDbSpline
210
0.0
220
0.0
230
1.0
 70
     8
 71
     3
 72
    11
 73
     7
 74
     0
 42
0.000000001
 43
0.0000000001
 40
0.0
 40
0.0
 40
0.0
 40
0.0
 40
0.2521815504375838
 40
0.4475702387495521
 40
0.6375607537384324
 40
1.0
 40
1.0
 40
1.0
 40
1.0
 10
435.8585507807196
 20
231.1190125513881
 30
0.0
 10
435.8558883083997
 20
231.1137543080882
 30
0.0
 10
435.8511629691752
 20
231.1044220107604
 30
0.0
 10
435.8408921840722
 20
231.0994153017035
 30
0.0
 10
435.8275387209819
 20
231.0982353994817
 30
0.0
 10
435.8163115905626
 20
231.105874049666
 30
0.0
 10
435.8089456719021
 20
231.1108856308833
 30
0.0
  0
LINE
  5
1F1
330
2
100
AcDbEntity
  8
0
100
AcDbLine
 10
435.6935905862436
 20
231.210786065515
 30
0.0
 11
435.8089456719122
 21
231.1108856308699
 31
0.0
  0
SPLINE
  5
1F2
330
2
100
AcDbEntity
  8
0
100
AcDbSpline
210
0.0
220
0.0
230
1.0
 70
     8
 71
     3
 72
    13
 73
     9
 74
     0
 42
0.000000001
 43
0.0000000001
 40
0.0
 40
0.0
 40
0.0
 40
0.0
 40
0.1554252170035766
 40
0.2908132524170067
 40
0.5006776357497463
 40
0.6311397289296476
 40
0.7579973924324479
 40
1.0
 40
1.0
 40
1.0
 40
1.0
 10
434.9615848596616
 20
231.2495222218016
 30
0.0
 10
434.9619032920519
 20
231.2410812435186
 30
0.0
 10
434.9624991050149
 20
231.2252874849808
 30
0.0
 10
434.9678042806166
 20
231.1958556985868
 30
0.0
 10
434.9762880138406
 20
231.1678264471514
 30
0.0
 10
434.9872531475171
 20
231.1427907801066
 30
0.0
 10
435.0006581561896
 20
231.118509728446
 30
0.0
 10
435.0118920492628
 20
231.1066815981099
 30
0.0
 10
435.0192624050045
 20
231.0989213739587
 30
0.0
  0
LINE
  5
1F3
330
2
100
AcDbEntity
  8
0
100
AcDbLine
 10
435.6935905862436
 20
231.210786065515
 30
0.0
 11
435.0192624050022
 21
231.0989213739715
 31
0.0
  0
LINE
  5
1F4
330
2
100
AcDbEntity
  8
0
100
AcDbLine
 10
434.9615848596591
 20
231.2495222218025
 30
0.0
 11
434.9615848596591
 21
231.6457711587466
 31
0.0
  0
SPLINE
  5
1F5
330
2
100
AcDbEntity
  8
0
100
AcDbSpline
210
0.0
220
0.0
230
1.0
 70
     8
 71
     3
 72
     9
 73
     5
 74
     0
 42
0.000000001
 43
0.0000000001
 40
0.0
 40
0.0
 40
0.0
 40
0.0
 40
0.7148411828112407
 40
1.0
 40
1.0
 40
1.0
 40
1.0
 10
436.058696519334
 20
231.1523169405347
 30
0.0
 10
436.0661165946262
 20
231.1470626642576
 30
0.0
 10
436.0764966279406
 20
231.1397123934515
 30
0.0
 10
436.0854078176211
 20
231.1409561263648
 30
0.0
 10
436.0879489219304
 20
231.1413107877713
 30
0.0
  0
LINE
  5
1F6
330
2
100
AcDbEntity
  8
0
100
AcDbLine
 10
435.0192624050022
 20
231.0989213739715
 30
0.0
 11
435.1346174906423
 21
230.9990209393263
 31
0.0
  0
SPLINE
  5
1F7
330
2
100
AcDbEntity
  8
0
100
AcDbSpline
210
0.0
220
0.0
230
1.0
 70
     8
 71
     3
 72
     9
 73
     5
 74
     0
 42
0.000000001
 43
0.0000000001
 40
0.0
 40
0.0
 40
0.0
 40
0.0
 40
0.7148411828112407
 40
1.0
 40
1.0
 40
1.0
 40
1.0
 10
435.9587958826346
 20
231.1357443493358
 30
0.0
 10
435.9662159579269
 20
231.1304900730588
 30
0.0
 10
435.976595991241
 20
231.1231398022528
 30
0.0
 10
435.9855071809218
 20
231.1243835351661
 30
0.0
 10
435.988048285231
 20
231.1247381965724
 30
0.0
  0
SPLINE
  5
1F8
330
2
100
AcDbEntity
  8
0
100
AcDbSpline
210
0.0
220
0.0
230
1.0
 70
     8
 71
     3
 72
     9
 73
     5
 74
     0
 42
0.000000001
 43
0.0000000001
 40
0.0
 40
0.0
 40
0.0
 40
0.0
 40
0.7148412813898908
 40
1.0
 40
1.0
 40
1.0
 40
1.0
 10
435.8588967345681
 20
231.1191720948286
 30
0.0
 10
435.8663161352093
 20
231.1139176659529
 30
0.0
 10
435.8766952233154
 20
231.1065671826884
 30
0.0
 10
435.8856065157887
 20
231.1078109377687
 30
0.0
 10
435.8881476485318
 20
231.1081656053735
 30
0.0
  0
SPLINE
  5
1F9
330
2
100
AcDbEntity
  8
0
100
AcDbSpline
210
0.0
220
0.0
230
1.0
 70
     8
 71
     3
 72
     9
 73
     5
 74
     0
 42
0.000000001
 43
0.0000000001
 40
0.0
 40
0.0
 40
0.0
 40
0.0
 40
0.1644559263865486
 40
1.0
 40
1.0
 40
1.0
 40
1.0
 10
435.9094068528839
 20
232.0863351649549
 30
0.0
 10
435.9070388646535
 20
232.0852525780828
 30
0.0
 10
435.8996286769645
 20
232.0818648197276
 30
0.0
 10
435.8919201329406
 20
232.0686242709425
 30
0.0
 10
435.8896016032367
 20
232.0586903461977
 30
0.0
  0
SPLINE
  5
1FA
330
2
100
AcDbEntity
  8
0
100
AcDbSpline
210
0.0
220
0.0
230
1.0
 70
     8
 71
     3
 72
     9
 73
     5
 74
     0
 42
0.000000001
 43
0.0000000001
 40
0.0
 40
0.0
 40
0.0
 40
0.0
 40
0.7148411828112407
 40
1.0
 40
1.0
 40
1.0
 40
1.0
 10
435.1346174906556
 20
230.9990209393295
 30
0.0
 10
435.1420375659473
 20
230.9937666630525
 30
0.0
 10
435.1524175992617
 20
230.9864163922465
 30
0.0
 10
435.1613287889424
 20
230.9876601251598
 30
0.0
 10
435.1638698932514
 20
230.988014786566
 30
0.0
  0
SPLINE
  5
1FB
330
2
100
AcDbEntity
  8
0
100
AcDbSpline
210
0.0
220
0.0
230
1.0
 70
     8
 71
     3
 72
     9
 73
     5
 74
     0
 42
0.000000001
 43
0.0000000001
 40
0.0
 40
0.0
 40
0.0
 40
0.0
 40
0.1644559299754905
 40
1.0
 40
1.0
 40
1.0
 40
1.0
 10
435.8095062161845
 20
232.045230108293
 30
0.0
 10
435.8071382278525
 20
232.0441475216254
 30
0.0
 10
435.7997280383915
 20
232.0407597632453
 30
0.0
 10
435.7920194977443
 20
232.0275192032958
 30
0.0
 10
435.7897009689605
 20
232.017585285743
 30
0.0
  0
SPLINE
  5
1FC
330
2
100
AcDbEntity
  8
0
100
AcDbSpline
210
0.0
220
0.0
230
1.0
 70
     8
 71
     3
 72
    11
 73
     7
 74
     0
 42
0.000000001
 43
0.0000000001
 40
0.0
 40
0.0
 40
0.0
 40
0.0
 40
0.1644558467303011
 40
0.514634975400699
 40
0.7405859283506758
 40
1.0
 40
1.0
 40
1.0
 40
1.0
 10
434.9853278242052
 20
231.7061138902
 30
0.0
 10
434.9829598355988
 20
231.7050313080887
 30
0.0
 10
434.97554964142
 20
231.7016435622028
 30
0.0
 10
434.9678411099663
 20
231.6884029850291
 30
0.0
 10
434.9624907317142
 20
231.6683888224169
 30
0.0
 10
434.9619003840348
 20
231.6536491191471
 30
0.0
 10
434.9615848596616
 20
231.6457711587538
 30
0.0
  0
SPLINE
  5
1FD
330
2
100
AcDbEntity
  8
0
100
AcDbSpline
210
0.0
220
0.0
230
1.0
 70
     8
 71
     3
 72
     9
 73
     5
 74
     0
 42
0.000000001
 43
0.0000000001
 40
0.0
 40
0.0
 40
0.0
 40
0.0
 40
0.1644559286237048
 40
1.0
 40
1.0
 40
1.0
 40
1.0
 10
435.7096055794849
 20
232.0041250516313
 30
0.0
 10
435.7072382271479
 20
232.0030426485288
 30
0.0
 10
435.6998300277946
 20
231.9996554645253
 30
0.0
 10
435.6921184416801
 20
231.9864140264487
 30
0.0
 10
435.6898003425663
 20
231.976480481631
 30
0.0
  0
ARC
  5
1FE
330
2
100
AcDbEntity
  8
0
100
AcDbCircle
 10
433.2309778886237
 20
230.8090116161541
 30
0.0
 40
0.0873836363536714
100
AcDbArc
 50
179.4982702635975
 51
222.6671292701973
  0
ARC
  5
1FF
330
2
100
AcDbEntity
  8
0
100
AcDbCircle
 10
433.1525430365496
 20
230.7504627266289
 30
0.0
 40
0.0141973779008527
100
AcDbArc
 50
287.228743015492
 51
357.2776669738932
  0
ARC
  5
200
330
2
100
AcDbEntity
  8
0
100
AcDbCircle
 10
433.2370650273738
 20
230.8109313883293
 30
0.0
 40
0.1092295698172456
100
AcDbArc
 50
179.4982617077016
 51
222.6671139942021
  0
LINE
  5
201
330
2
100
AcDbEntity
  8
0
100
AcDbLine
 10
433.1567481186997
 20
230.7369023865485
 30
0.0
 11
432.7471553593636
 21
230.6186631416197
 31
0.0
  0
ARC
  5
202
330
2
100
AcDbEntity
  8
0
100
AcDbCircle
 10
432.8274722680377
 20
230.6926921434007
 30
0.0
 40
0.1092295698172993
100
AcDbArc
 50
179.4982617077016
 51
222.6671139942021
  0
LWPOLYLINE
  5
203
330
2
100
AcDbEntity
  8
0
100
AcDbPolyline
 90
        9
 70
   128
 43
0.0
 10
433.688706151987
 20
230.2999244447334
 10
433.6931991526437
 20
230.29681766876
 10
433.6975178972742
 20
230.2953627166129
 10
433.7014969125557
 20
230.2956152956561
 10
433.7049837513508
 20
230.2975657763645
 10
433.7078448478415
 20
230.3011393781892
 10
433.7099705399755
 20
230.3061992166909
 10
433.711279447423
 20
230.3125514440509
 10
433.711721399084
 20
230.3199527154009
  0
LINE
  5
204
330
2
100
AcDbEntity
  8
0
100
AcDbLine
 10
433.1667243918271
 20
230.7497884108071
 30
0.0
 11
433.688706151987
 21
230.2999244447334
 31
0.0
  0
LINE
  5
205
330
2
100
AcDbEntity
  8
0
100
AcDbLine
 10
433.1435976026495
 20
231.2852191575726
 30
0.0
 11
433.1435976026495
 21
230.8097768105286
 31
0.0
  0
LINE
  5
206
330
2
100
AcDbEntity
  8
0
100
AcDbLine
 10
433.176762187022
 20
231.2896536541674
 30
0.0
 11
433.1435976026495
 21
231.2852191575726
 31
0.0
  0
LINE
  5
207
330
2
100
AcDbEntity
  8
0
100
AcDbLine
 10
433.1767624764471
 20
231.3636067507077
 30
0.0
 11
433.176762187022
 21
231.2896536541674
 31
0.0
  0
LINE
  5
208
330
2
100
AcDbEntity
  8
0
100
AcDbLine
 10
433.127839645645
 20
231.2930987422082
 30
0.0
 11
433.127839645645
 21
230.8118878978152
 31
0.0
  0
SPLINE
  5
209
330
2
100
AcDbEntity
  8
0
100
AcDbSpline
210
0.0
220
0.0
230
1.0
 70
     8
 71
     3
 72
    11
 73
     7
 74
     0
 42
0.000000001
 43
0.0000000001
 40
0.0
 40
0.0
 40
0.0
 40
0.0
 40
0.3170181536422792
 40
0.6037225098170264
 40
0.8092422990243026
 40
1.0
 40
1.0
 40
1.0
 40
1.0
 10
433.1435976026357
 20
231.2852191575776
 30
0.0
 10
433.142495360994
 20
231.2868323562306
 30
0.0
 10
433.1403962758705
 20
231.2899044968276
 30
0.0
 10
433.1357096031143
 20
231.2926528504954
 30
0.0
 10
433.1313336044603
 20
231.2937122844315
 30
0.0
 10
433.1289750112229
 20
231.2932981134006
 30
0.0
 10
433.12783964564
 20
231.2930987422135
 30
0.0
  0
LINE
  5
20A
330
2
100
AcDbEntity
  8
0
100
AcDbLine
 10
432.7182468863087
 20
230.6936486528864
 30
0.0
 11
432.7182468863087
 21
231.1748594972793
 31
0.0
  0
LINE
  5
20B
330
2
100
AcDbEntity
  8
0
100
AcDbLine
 10
432.7182468863087
 20
231.1748594972793
 30
0.0
 11
433.127839645645
 21
231.2930987422082
 31
0.0
  0
ARC
  5
20C
330
2
100
AcDbEntity
  8
0
100
AcDbCircle
 10
433.6745245839659
 20
230.3005989252821
 30
0.0
 40
0.0141975982495377
100
AcDbArc
 50
287.229366230699
 51
357.2770437592027
  0
LINE
  5
20D
330
2
100
AcDbEntity
  8
0
100
AcDbLine
 10
433.1567481186997
 20
230.7369023865485
 30
0.0
 11
433.6787298788599
 21
230.2870384204747
 31
0.0
  0
LINE
  5
20E
330
2
100
AcDbEntity
  8
0
100
AcDbLine
 10
433.2691371195525
 20
230.1687991755458
 30
0.0
 11
433.6787298788599
 21
230.2870384204747
 31
0.0
  0
LINE
  5
20F
330
2
100
AcDbEntity
  8
0
100
AcDbLine
 10
433.2691371195525
 20
230.1687991755458
 30
0.0
 11
432.7471553593636
 21
230.6186631416197
 31
0.0
  0
LWPOLYLINE
  5
210
330
2
100
AcDbEntity
  8
0
100
AcDbPolyline
 90
        7
 70
   128
 43
0.0
 10
432.7514114706813
 20
231.2438239553978
 10
432.7516885398689
 20
231.2484564052121
 10
432.7525090846994
 20
231.2524309492441
 10
432.7538415736386
 20
231.2555948515071
 10
432.7556348150128
 20
231.257826497662
 10
432.7578198637691
 20
231.2590401634231
 10
432.7578324065299
 20
231.2590438035968
  0
LINE
  5
211
330
2
100
AcDbEntity
  8
0
100
AcDbLine
 10
432.7514114706813
 20
231.1844333113949
 30
0.0
 11
432.7514114706813
 21
231.2438239553978
 31
0.0
  0
ARC
  5
212
330
2
100
AcDbEntity
  8
0
100
AcDbCircle
 10
433.2821006582755
 20
230.1808324878052
 30
0.0
 40
0.0176876776396027
100
AcDbArc
 50
222.868792844594
 51
279.6455473959895
  0
LWPOLYLINE
  5
213
330
2
100
AcDbEntity
  8
0
100
AcDbPolyline
 90
        9
 70
   128
 43
0.0
 10
432.6908500463911
 20
231.4264810818113
 10
432.691210241693
 20
231.4325032659873
 10
432.6922769419322
 20
231.437670182818
 10
432.6940091882956
 20
231.4417832394686
 10
432.6963403993855
 20
231.4446843857163
 10
432.6991809761968
 20
231.4462621420612
 10
432.7024217670362
 20
231.4464558669111
 10
432.7059382304304
 20
231.4452581157395
 10
432.7095952427485
 20
231.4427149067753
  0
LINE
  5
214
330
2
100
AcDbEntity
  8
0
100
AcDbLine
 10
432.7095952427485
 20
231.4427149067753
 30
0.0
 11
432.7888999698997
 21
231.3740349984483
 31
0.0
  0
LINE
  5
215
330
2
100
AcDbEntity
  8
0
100
AcDbLine
 10
432.7888999698997
 20
231.3740349984483
 30
0.0
 11
432.8807183749936
 21
231.294517927098
 31
0.0
  0
LINE
  5
216
330
2
100
AcDbEntity
  8
0
100
AcDbLine
 10
433.3252472808478
 20
230.1749946778247
 30
0.0
 11
433.3252470122435
 21
230.1715850581564
 31
0.0
  0
LWPOLYLINE
  5
217
330
2
100
AcDbEntity
  8
0
100
AcDbPolyline
 90
        9
 70
   128
 43
0.0
 10
433.3252470122435
 20
230.1715850581564
 10
433.3241437580255
 20
230.1531034766616
 10
433.320878177061
 20
230.1372377248001
 10
433.3155750794572
 20
230.1245943039941
 10
433.3084371639688
 20
230.1156564383104
 10
433.2997372293952
 20
230.1107656526287
 10
433.2898078070151
 20
230.1101089331003
 10
433.2790284032632
 20
230.1137114469469
 10
433.267811049691
 20
230.1214354723948
  0
LINE
  5
218
330
2
100
AcDbEntity
  8
0
100
AcDbLine
 10
433.267811049691
 20
230.1214354723948
 30
0.0
 11
432.7487691610867
 21
230.5671736238051
 31
0.0
  0
ARC
  5
219
330
2
100
AcDbEntity
  8
0
100
AcDbCircle
 10
432.9091302392158
 20
230.7152762722652
 30
0.0
 40
0.2182889595481849
100
AcDbArc
 50
179.4864985529047
 51
222.7242481616042
  0
LINE
  5
21A
330
2
100
AcDbEntity
  8
0
100
AcDbLine
 10
432.6908500463911
 20
230.7172326152324
 30
0.0
 11
432.6908500463911
 21
231.4264810818113
 31
0.0
  0
ARC
  5
21B
330
2
100
AcDbEntity
  8
0
100
AcDbCircle
 10
432.8342058781701
 20
230.6936474722559
 30
0.0
 40
0.2182889595481554
100
AcDbArc
 50
179.4864985529047
 51
222.7242481616042
  0
LINE
  5
21C
330
2
100
AcDbEntity
  8
0
100
AcDbLine
 10
432.6159256853454
 20
230.6956038152232
 30
0.0
 11
432.6159256853454
 21
231.4048522818021
 31
0.0
  0
LINE
  5
21D
330
2
100
AcDbEntity
  8
0
100
AcDbLine
 10
433.1928866886453
 20
230.0998066723856
 30
0.0
 11
432.673844800041
 21
230.545544823796
 31
0.0
  0
SPLINE
  5
21E
330
2
100
AcDbEntity
  8
0
100
AcDbSpline
210
0.0
220
0.0
230
1.0
 70
     8
 71
     3
 72
    11
 73
     7
 74
     0
 42
0.000000001
 43
0.0000000001
 40
0.0
 40
0.0
 40
0.0
 40
0.0
 40
0.3442726846099632
 40
0.6556267241645083
 40
0.878815444631537
 40
1.0
 40
1.0
 40
1.0
 40
1.0
 10
433.1767621870114
 20
231.2896536541584
 30
0.0
 10
433.1756593905841
 20
231.29126998589
 30
0.0
 10
433.1735592448521
 20
231.2943480990417
 30
0.0
 10
433.1688792359005
 20
231.2970586467845
 30
0.0
 10
433.1649947954507
 20
231.29808454879
 30
0.0
 10
433.1631014305409
 20
231.2977871634808
 30
0.0
 10
433.1624351576302
 20
231.2976825139363
 30
0.0
  0
LWPOLYLINE
  5
21F
330
2
100
AcDbEntity
  8
0
100
AcDbPolyline
 90
        7
 70
   128
 43
0.0
 10
432.6159256853454
 20
231.4048522818021
 10
432.6162858806473
 20
231.410874465978
 10
432.6173525808575
 20
231.4160413828086
 10
432.6190848272498
 20
231.4201544394593
 10
432.6214160383396
 20
231.4230555857072
 10
432.6242566151509
 20
231.4246333420519
 10
432.6242729180831
 20
231.4246380765418
  0
ARC
  5
220
330
2
100
AcDbEntity
  8
0
100
AcDbCircle
 10
433.2186948032473
 20
230.1238622228446
 30
0.0
 40
0.035280706994026
100
AcDbArc
 50
222.9870470339003
 51
279.6993844572949
  0
LWPOLYLINE
  5
221
330
2
100
AcDbEntity
  8
0
100
AcDbPolyline
 90
        6
 70
   128
 43
0.0
 10
433.1925585888773
 20
230.0964492479228
 10
433.2038311092018
 20
230.0885643106096
 10
433.2146745428993
 20
230.0848297736757
 10
433.2246709227637
 20
230.0853895227489
 10
433.2334348604333
 20
230.0902219959159
 10
433.2355382871329
 20
230.0922322079777
  0
LINE
  5
222
330
2
100
AcDbEntity
  8
0
100
AcDbLine
 10
432.8770519374728
 20
230.3710363988563
 30
0.0
 11
433.1925585888773
 21
230.0964492479228
 31
0.0
  0
LINE
  5
223
330
2
100
AcDbEntity
  8
0
100
AcDbLine
 10
432.6159256853454
 20
231.1899362105528
 30
0.0
 11
432.6159256853454
 21
231.1899350708446
 31
0.0
  0
LWPOLYLINE
  5
224
330
2
100
AcDbEntity
  8
0
100
AcDbPolyline
 90
        5
 70
   128
 43
0.0
 10
432.6249231819369
 20
231.4248257917956
 10
432.6213846411081
 20
231.4230827765157
 10
432.6173212105033
 20
231.4160685503733
 10
432.6158943149626
 20
231.4048794493377
 10
432.6159256853454
 20
231.4029744242718
  0
ARC
  5
225
330
2
100
AcDbEntity
  8
0
100
AcDbCircle
 10
433.8415376050088
 20
230.9983823680947
 30
0.0
 40
0.4131265264785864
100
AcDbArc
 50
160.847952446903
 51
199.152047553097
  0
ARC
  5
226
330
2
100
AcDbEntity
  8
0
100
AcDbCircle
 10
433.846038826128
 20
230.9949730543191
 30
0.0
 40
0.3385402798694376
100
AcDbArc
 50
163.278828864002
 51
196.7211711359979
  0
ARC
  5
227
330
2
100
AcDbEntity
  8
0
100
AcDbCircle
 10
433.6916873942886
 20
230.9551243383496
 30
0.0
 40
0.4131265264783078
100
AcDbArc
 50
160.847952446903
 51
199.152047553097
  0
ARC
  5
228
330
2
100
AcDbEntity
  8
0
100
AcDbCircle
 10
433.3592071948136
 20
230.8349163493204
 30
0.0
 40
0.0597790989545314
100
AcDbArc
 50
194.8581570078985
 51
209.7685167632943
  0
LINE
  5
229
330
2
100
AcDbEntity
  8
0
100
AcDbLine
 10
433.5596881740385
 20
231.0595753715414
 30
0.0
 11
433.5596881740385
 21
231.0497295330909
 31
0.0
  0
LINE
  5
22A
330
2
100
AcDbEntity
  8
0
100
AcDbLine
 10
433.5596881740385
 20
230.9430015394118
 30
0.0
 11
433.5596881740385
 21
230.9198589798389
 31
0.0
  0
LINE
  5
22B
330
2
100
AcDbEntity
  8
0
100
AcDbLine
 10
433.4555342629295
 20
231.1378541588558
 30
0.0
 11
433.4559856283734
 21
231.1379637245289
 31
0.0
  0
ARC
  5
22C
330
2
100
AcDbEntity
  8
0
100
AcDbCircle
 10
433.5221921465456
 20
231.0610481478949
 30
0.0
 40
0.0375249403613568
100
AcDbArc
 50
357.7506813323988
 51
47.59491480840687
  0
ARC
  5
22D
330
2
100
AcDbEntity
  8
0
100
AcDbCircle
 10
433.3079673983796
 20
231.0878553759896
 30
0.0
 40
0.0071169812600857
100
AcDbArc
 50
108.7131704375922
 51
156.7803074866952
  0
ARC
  5
22E
330
2
100
AcDbEntity
  8
0
100
AcDbCircle
 10
433.6430753484841
 20
230.8263799668596
 30
0.0
 40
0.1093459998455126
100
AcDbArc
 50
179.5143297805029
 51
222.5891429414996
  0
ARC
  5
22F
330
2
100
AcDbEntity
  8
0
100
AcDbCircle
 10
433.6736293808344
 20
230.836009088115
 30
0.0
 40
0.218692309951816
100
AcDbArc
 50
179.5143497842948
 51
222.5891110120978
  0
ARC
  5
230
330
2
100
AcDbEntity
  8
0
100
AcDbCircle
 10
433.5237791700854
 20
230.7927510583413
 30
0.0
 40
0.2186923099517522
100
AcDbArc
 50
179.5143497842948
 51
222.5891110120978
  0
ARC
  5
231
330
2
100
AcDbEntity
  8
0
100
AcDbCircle
 10
433.4831400195582
 20
230.7589859522943
 30
0.0
 40
0.0932324138934383
100
AcDbArc
 50
57.13527794769213
 51
107.6028483396021
  0
LINE
  5
232
330
2
100
AcDbEntity
  8
0
100
AcDbLine
 10
433.5337332769539
 20
230.8372969049612
 30
0.0
 11
433.5337332769539
 21
230.8273068319917
 31
0.0
  0
LINE
  5
233
330
2
100
AcDbEntity
  8
0
100
AcDbLine
 10
433.454944926892
 20
230.8378627446387
 30
0.0
 11
433.454944926892
 21
230.8478528176082
 31
0.0
  0
LINE
  5
234
330
2
100
AcDbEntity
  8
0
100
AcDbLine
 10
433.5337332769539
 20
231.1419932235216
 30
0.0
 11
433.5337332769539
 21
231.132003173825
 31
0.0
  0
LWPOLYLINE
  5
235
330
2
100
AcDbEntity
  8
0
100
AcDbPolyline
 90
        9
 70
   128
 43
0.0
 10
433.5337332769539
 20
231.1419932235216
 10
433.5342874086096
 20
231.1512581289756
 10
433.53592849827
 20
231.1592072170399
 10
433.5385934896163
 20
231.1655350098857
 10
433.5421799588968
 20
231.1699983138463
 10
433.5465500899783
 20
231.1724256163279
 10
433.5515359318557
 20
231.1727236510137
 10
433.5569458848071
 20
231.1708809449752
 10
433.5625720529857
 20
231.1669683361843
  0
LINE
  5
236
330
2
100
AcDbEntity
  8
0
100
AcDbLine
 10
433.6274592856173
 20
231.1107743443299
 30
0.0
 11
433.5625720529857
 21
231.1669683361843
 31
0.0
  0
ARC
  5
237
330
2
100
AcDbEntity
  8
0
100
AcDbCircle
 10
433.5169385099147
 20
230.9832493724694
 30
0.0
 40
0.1687526601762491
100
AcDbArc
 50
46.78664478690666
 51
49.08583912169668
  0
LINE
  5
238
330
2
100
AcDbEntity
  8
0
100
AcDbLine
 10
433.5625720529857
 20
230.7523815405495
 30
0.0
 11
433.6274592856173
 21
230.696187548695
 31
0.0
  0
LINE
  5
239
330
2
100
AcDbEntity
  8
0
100
AcDbLine
 10
433.6274592856173
 20
230.7561278004729
 30
0.0
 11
433.6274592856173
 21
230.78934109826
 31
0.0
  0
LINE
  5
23A
330
2
100
AcDbEntity
  8
0
100
AcDbLine
 10
433.6114730607983
 20
231.0646785461223
 30
0.0
 11
433.5337332769539
 21
231.132003173825
 31
0.0
  0
LINE
  5
23B
330
2
100
AcDbEntity
  8
0
100
AcDbLine
 10
433.6274592856173
 20
230.7561278004729
 30
0.0
 11
433.5986957293494
 21
230.7810377709077
 31
0.0
  0
LINE
  5
23C
330
2
100
AcDbEntity
  8
0
100
AcDbLine
 10
433.5581735462256
 20
230.8161310109222
 30
0.0
 11
433.5337332769539
 21
230.8372969049612
 31
0.0
  0
LINE
  5
23D
330
2
100
AcDbEntity
  8
0
100
AcDbLine
 10
433.3050947161722
 20
230.7946047148937
 30
0.0
 11
433.3050947161722
 21
230.8045947878632
 31
0.0
  0
LINE
  5
23E
330
2
100
AcDbEntity
  8
0
100
AcDbLine
 10
433.3050947161722
 20
230.8045947878632
 30
0.0
 11
433.454944926892
 21
230.8478528176082
 31
0.0
  0
LINE
  5
23F
330
2
100
AcDbEntity
  8
0
100
AcDbLine
 10
433.5775097115868
 20
230.6318181233828
 30
0.0
 11
433.5126224789551
 21
230.6880121152373
 31
0.0
  0
LINE
  5
240
330
2
100
AcDbEntity
  8
0
100
AcDbLine
 10
433.4276595007512
 20
230.5885600937244
 30
0.0
 11
433.5775097115868
 21
230.6318181233828
 31
0.0
  0
LINE
  5
241
330
2
100
AcDbEntity
  8
0
100
AcDbLine
 10
433.362772268235
 20
230.6447540854635
 30
0.0
 11
433.4276595007512
 21
230.5885600937244
 31
0.0
  0
ARC
  5
242
330
2
100
AcDbEntity
  8
0
100
AcDbCircle
 10
433.494841313783
 20
230.6505709356556
 30
0.0
 40
0.0914261478969113
100
AcDbArc
 50
222.7079443170953
 51
279.5714346238042
  0
LINE
  5
243
330
2
100
AcDbEntity
  8
0
100
AcDbLine
 10
433.454944926892
 20
231.1377111018263
 30
0.0
 11
433.454944926892
 21
231.1525491361685
 31
0.0
  0
LINE
  5
244
330
2
100
AcDbEntity
  8
0
100
AcDbLine
 10
433.3093166504316
 20
231.0956447543906
 30
0.0
 11
433.3050947161722
 21
231.0993010566983
 31
0.0
  0
LINE
  5
245
330
2
100
AcDbEntity
  8
0
100
AcDbLine
 10
433.3050947161722
 20
231.0993010566983
 30
0.0
 11
433.3050947161722
 21
231.1092911064236
 31
0.0
  0
LWPOLYLINE
  5
246
330
2
100
AcDbEntity
  8
0
100
AcDbPolyline
 90
        7
 70
   128
 43
0.0
 10
433.3307785200101
 20
231.1701704701217
 10
433.3307283421921
 20
231.1701559152515
 10
433.3219880867195
 20
231.1653012812189
 10
433.3148151414389
 20
231.1563746791518
 10
433.3094851587752
 20
231.143719116704
 10
433.3062029794537
 20
231.1278209173028
 10
433.3050947161722
 20
231.1092911064236
  0
LWPOLYLINE
  5
247
330
2
100
AcDbEntity
  8
0
100
AcDbPolyline
 90
       10
 70
   128
 43
0.0
 10
436.1920572218584
 20
231.6279548575115
 10
436.1974618300338
 20
231.5521700320278
 10
436.213307334684
 20
231.4721886701577
 10
436.2385139019322
 20
231.3934615625432
 10
436.2713637350814
 20
231.3213536011224
 10
436.3096181898447
 20
231.2607790058192
 10
436.350670281873
 20
231.2158657720267
 10
436.391722387311
 20
231.1896744989628
 10
436.4299768756717
 20
231.1839903128575
 10
436.4386532556018
 20
231.1858104451748
  0
LWPOLYLINE
  5
248
330
2
100
AcDbEntity
  8
0
100
AcDbPolyline
 90
        5
 70
   128
 43
0.0
 10
436.2626876639858
 20
232.2449250700802
 10
436.2385139019322
 20
232.2315347977135
 10
436.213307334684
 20
232.196466681287
 10
436.1974618300338
 20
232.143930608326
 10
436.1920572218584
 20
232.0775068155343
  0
LINE
  5
249
330
2
100
AcDbEntity
  8
0
100
AcDbLine
 10
437.6926903447153
 20
232.1811444698114
 30
0.0
 11
437.5133458587773
 21
232.1293721761932
 31
0.0
  0
LINE
  5
24A
330
2
100
AcDbEntity
  8
0
100
AcDbLine
 10
437.6926903447153
 20
231.8771097088001
 30
0.0
 11
437.5412845130515
 21
231.8334026099853
 31
0.0
  0
LINE
  5
24B
330
2
100
AcDbEntity
  8
0
100
AcDbLine
 10
437.4562130655093
 20
232.3191430732375
 30
0.0
 11
437.4607007616492
 21
232.3214303686756
 31
0.0
  0
LINE
  5
24C
330
2
100
AcDbEntity
  8
0
100
AcDbLine
 10
437.6446687532297
 20
231.983247940897
 30
0.0
 11
437.4571903794291
 21
231.9291275961345
 31
0.0
  0
LINE
  5
24D
330
2
100
AcDbEntity
  8
0
100
AcDbLine
 10
433.711721399084
 20
230.3199527154009
 30
0.0
 11
433.711721399084
 21
230.6392917346853
 31
0.0
  0
ARC
  5
24E
330
2
100
AcDbEntity
  8
0
100
AcDbCircle
 10
433.7094366927912
 20
230.3168730879584
 30
0.0
 40
0.0038345779272781
100
AcDbArc
 50
2.963485187298545
 51
53.42911190800418
  0
ARC
  5
24F
330
2
100
AcDbEntity
  8
0
100
AcDbCircle
 10
433.691260174279
 20
230.2978594437933
 30
0.0
 40
0.0165560517140764
100
AcDbArc
 50
220.8135243514979
 51
282.7434706010949
  0
ARC
  5
250
330
2
100
AcDbEntity
  8
0
100
AcDbCircle
 10
433.5095627290392
 20
230.8783828992721
 30
0.0
 40
0.0603210394161281
100
AcDbArc
 50
194.9265170211021
 51
209.7328453457989
  0
SPLINE
  5
251
330
2
100
AcDbEntity
  8
0
100
AcDbSpline
210
0.0
220
0.0
230
1.0
 70
     8
 71
     3
 72
    11
 73
     7
 74
     0
 42
0.000000001
 43
0.0000000001
 40
0.0
 40
0.0
 40
0.0
 40
0.0
 40
0.1247364298119644
 40
0.3076607208407356
 40
0.6542557904403628
 40
1.0
 40
1.0
 40
1.0
 40
1.0
 10
433.4860381454108
 20
230.851117533667
 30
0.0
 10
433.4883341937661
 20
230.8526312360485
 30
0.0
 10
433.4939973660494
 20
230.8563647625453
 30
0.0
 10
433.5046381291185
 20
230.8660565433415
 30
0.0
 10
433.5164409536726
 20
230.8806931572175
 30
0.0
 10
433.5200239808808
 20
230.8919490897089
 30
0.0
 10
433.5218132927795
 20
230.8975701393864
 30
0.0
  0
ARC
  5
252
330
2
100
AcDbEntity
  8
0
100
AcDbCircle
 10
433.4578176090999
 20
231.1311134057635
 30
0.0
 40
0.007116981260162
100
AcDbArc
 50
108.7131704376988
 51
156.7803074860926
  0
SPLINE
  5
253
330
2
100
AcDbEntity
  8
0
100
AcDbSpline
210
0.0
220
0.0
230
1.0
 70
     8
 71
     3
 72
     9
 73
     5
 74
     0
 42
0.000000001
 43
0.0000000001
 40
0.0
 40
0.0
 40
0.0
 40
0.0
 40
0.5151079187193878
 40
1.0
 40
1.0
 40
1.0
 40
1.0
 10
433.5218132927795
 20
231.0923759808804
 30
0.0
 10
433.52009303025
 20
231.0995936868569
 30
0.0
 10
433.5167534144781
 20
231.113605713685
 30
0.0
 10
433.5072258507351
 20
231.1228022735985
 30
0.0
 10
433.5026060105222
 20
231.1272616126756
 30
0.0
  0
LINE
  5
254
330
2
100
AcDbEntity
  8
0
100
AcDbLine
 10
433.6324863258709
 20
231.1062378375606
 30
0.0
 11
433.6575975318099
 21
231.0779935494977
 31
0.0
  0
LWPOLYLINE
  5
255
330
2
100
AcDbEntity
  8
0
100
AcDbPolyline
 90
        7
 70
   128
 43
0.0
 10
433.7463890279753
 20
230.8236731266495
 10
433.7471137830387
 20
230.7955026062315
 10
433.7406449858756
 20
230.7380979142508
 10
433.7233887946309
 20
230.6964553862457
 10
433.6969898509505
 20
230.6745438501441
 10
433.6639641536677
 20
230.6744516450651
 10
433.6274592856173
 20
230.696187548695
  0
ARC
  5
256
330
2
100
AcDbEntity
  8
0
100
AcDbCircle
 10
433.5899685552012
 20
231.1122483206069
 30
0.0
 40
0.0375196944901712
100
AcDbArc
 50
357.7485329004016
 51
47.62933066619928
  0
ARC
  5
257
330
2
100
AcDbEntity
  8
0
100
AcDbCircle
 10
433.6425030292542
 20
230.6876760793565
 30
0.0
 40
0.0856985565020943
100
AcDbArc
 50
220.6771318942942
 51
282.3891962826045
  0
LWPOLYLINE
  5
258
330
2
100
AcDbEntity
  8
0
100
AcDbPolyline
 90
        7
 70
   128
 43
0.0
 10
433.454944926892
 20
231.1525491361685
 10
433.4560531901741
 20
231.1710789470476
 10
433.4593353694954
 20
231.1869771464488
 10
433.4646653521879
 20
231.1996327088966
 10
433.4718382974686
 20
231.2085593109925
 10
433.4805785529123
 20
231.2134139449964
 10
433.4805885978887
 20
231.2134168757653
  0
ARC
  5
259
330
2
100
AcDbEntity
  8
0
100
AcDbCircle
 10
433.5250535772198
 20
231.1684370923843
 30
0.0
 40
0.0375472138675649
100
AcDbArc
 50
357.7581556821995
 51
47.28654694979879
  0
LWPOLYLINE
  5
25A
330
2
100
AcDbEntity
  8
0
100
AcDbPolyline
 90
        9
 70
   128
 43
0.0
 10
433.1854141199786
 20
231.3710992705255
 10
433.1837262702116
 20
231.3722730572261
 10
433.1821032829648
 20
231.3728258748718
 10
433.1806075230335
 20
231.3727364638661
 10
433.1792964937736
 20
231.3720082667511
 10
433.178220554342
 20
231.3706692767166
 10
433.1774210394647
 20
231.3687709563188
 10
433.176928728676
 20
231.3663862136059
 10
433.1767624764471
 20
231.3636067507077
  0
LINE
  5
25B
330
2
100
AcDbEntity
  8
0
100
AcDbLine
 10
433.5596881740385
 20
231.0497295330909
 30
0.0
 11
433.5596881740385
 21
230.9198589875987
 31
0.0
  0
LINE
  5
25C
330
2
100
AcDbEntity
  8
0
100
AcDbLine
 10
433.5596881740385
 20
230.9198589875987
 30
0.0
 11
433.5596881740385
 21
230.8148193047604
 31
0.0
  0
LINE
  5
25D
330
2
100
AcDbEntity
  8
0
100
AcDbLine
 10
433.5596881740385
 20
230.8148193047604
 30
0.0
 11
433.5986957293494
 21
230.7810377709077
 31
0.0
  0
LINE
  5
25E
330
2
100
AcDbEntity
  8
0
100
AcDbLine
 10
429.9766985193722
 20
230.4583330124237
 30
0.0
 11
430.4262506401898
 21
230.588107531414
 31
0.0
  0
LINE
  5
25F
330
2
100
AcDbEntity
  8
0
100
AcDbLine
 10
430.4262506401898
 20
230.588107531414
 30
0.0
 11
430.4259316856575
 21
230.6417647248894
 31
0.0
  0
LINE
  5
260
330
2
100
AcDbEntity
  8
0
100
AcDbLine
 10
400.0065670548427
 20
221.8067012780775
 30
0.0
 11
400.4561191756892
 21
221.9364757970678
 31
0.0
  0
LINE
  5
261
330
2
100
AcDbEntity
  8
0
100
AcDbLine
 10
400.4561191756892
 20
221.9364757970678
 30
0.0
 11
400.4561191756892
 21
221.989379248232
 31
0.0
  0
ENDSEC
  0
SECTION
  2
OBJECTS
  0
DICTIONARY
  5
9
330
0
100
AcDbDictionary
281
     1
  3
ACAD_COLOR
350
3E
  3
ACAD_GROUP
350
35
  3
ACAD_LAYOUT
350
16
  3
ACAD_MATERIAL
350
B
  3
ACAD_MLEADERSTYLE
350
41
  3
ACAD_MLINESTYLE
350
36
  3
ACAD_PLOTSETTINGS
350
37
  3
ACAD_PLOTSTYLENAME
350
8
  3
ACAD_SCALELIST
350
3F
  3
ACAD_TABLESTYLE
350
40
  3
ACAD_VISUALSTYLE
350
2B
  3
ACDB_RECOMPOSE_DATA
350
269
  3
AcDbVariableDictionary
350
262
  0
DICTIONARY
  5
1E
330
1D
100
AcDbDictionary
280
     1
281
     1
  3
ACAD_LAYERSTATES
360
1F
  0
DICTIONARY
  5
6
330
5
100
AcDbDictionary
280
     1
281
     1
  0
DICTIONARY
  5
3
330
2
100
AcDbDictionary
280
     1
281
     1
  0
DICTIONARY
  5
3E
102
{ACAD_REACTORS
330
9
102
}
330
9
100
AcDbDictionary
281
     1
  0
DICTIONARY
  5
35
102
{ACAD_REACTORS
330
9
102
}
330
9
100
AcDbDictionary
281
     1
  0
DICTIONARY
  5
16
102
{ACAD_REACTORS
330
9
102
}
330
9
100
AcDbDictionary
281
     1
  3
Model
350
15
  3
レイアウト1
350
1C
  0
DICTIONARY
  5
B
102
{ACAD_REACTORS
330
9
102
}
330
9
100
AcDbDictionary
281
     1
  3
ByBlock
350
3B
  3
ByLayer
350
38
  3
Global
350
A
  0
DICTIONARY
  5
41
102
{ACAD_REACTORS
330
9
102
}
330
9
100
AcDbDictionary
281
     1
  0
DICTIONARY
  5
36
102
{ACAD_REACTORS
330
9
102
}
330
9
100
AcDbDictionary
281
     1
  3
Standard
350
42
  0
DICTIONARY
  5
37
102
{ACAD_REACTORS
330
9
102
}
330
9
100
AcDbDictionary
281
     1
  0
ACDBDICTIONARYWDFLT
  5
8
102
{ACAD_REACTORS
330
9
102
}
330
9
100
AcDbDictionary
281
     1
  3
Normal
350
7
100
AcDbDictionaryWithDefault
340
7
  0
DICTIONARY
  5
3F
102
{ACAD_REACTORS
330
9
102
}
330
9
100
AcDbDictionary
281
     1
  3
A0
350
47
  3
A1
350
48
  3
A2
350
49
  3
A3
350
4A
  3
A4
350
4B
  3
A5
350
4C
  3
A6
350
4D
  3
A7
350
4E
  3
A8
350
4F
  3
A9
350
50
  3
B0
350
51
  3
B1
350
52
  3
B2
350
53
  3
B3
350
54
  3
B4
350
55
  3
B5
350
56
  3
B6
350
57
  0
DICTIONARY
  5
40
102
{ACAD_REACTORS
330
9
102
}
330
9
100
AcDbDictionary
281
     1
  3
Standard
350
43
  0
DICTIONARY
  5
2B
102
{ACAD_REACTORS
330
9
102
}
330
9
100
AcDbDictionary
281
     1
  3
2dWireframe
350
2A
  3
Realistic
350
45
  3
Wireframe
350
46
  0
XRECORD
  5
269
102
{ACAD_REACTORS
330
9
102
}
330
9
100
AcDbXrecord
280
     1
 90
        1
330
43
  0
DICTIONARY
  5
262
102
{ACAD_REACTORS
330
9
102
}
330
9
100
AcDbDictionary
281
     1
  3
CANNOSCALE
350
267
  3
CMLEADERSTYLE
350
264
  3
CTABLESTYLE
350
263
  3
CVIEWDETAILSTYLE
350
265
  3
CVIEWSECTIONSTYLE
350
266
  0
DICTIONARY
  5
1F
102
{ACAD_REACTORS
330
1E
102
}
330
1E
100
AcDbDictionary
281
     1
  0
LAYOUT
  5
15
102
{ACAD_XDICTIONARY
360
17
102
}
102
{ACAD_REACTORS
330
16
102
}
330
16
100
AcDbPlotSettings
  1

  2
none_device
  4
ISO_A4_(210.00_x_297.00_MM)
  6

 40
7.5
 41
20.0
 42
7.5
 43
20.0
 44
210.0
 45
297.0
 46
11.54999923706054
 47
-13.65000009536743
 48
0.0
 49
0.0
140
0.0
141
0.0
142
1.0
143
8.704084754739808
 70
 11952
 72
     1
 73
     0
 74
     0
  7

 75
     0
147
0.1148885871608098
 76
     0
 77
     2
 78
   300
148
0.0
149
0.0
100
AcDbLayout
  1
Model
 70
     1
 71
     0
 10
0.0
 20
0.0
 11
12.0
 21
9.0
 12
0.0
 22
0.0
 32
0.0
 14
0.0
 24
0.0
 34
0.0
 15
0.0
 25
0.0
 35
0.0
146
0.0
 13
0.0
 23
0.0
 33
0.0
 16
1.0
 26
0.0
 36
0.0
 17
0.0
 27
1.0
 37
0.0
 76
     0
330
2
331
29
1001
ACAD_PSEXT
1000
None
1000
None
1000
Not applicable
1000
The layout will not be plotted unless a new plotter configuration name is selected.
1070
     0
  0
LAYOUT
  5
1C
102
{ACAD_REACTORS
330
16
102
}
330
16
100
AcDbPlotSettings
  1

  2
C:\Documents and Settings\basas\Application Data\Autodesk\AutoCAD 2005\R16.1\enu\plotters\Default Windows System Printer.pc3
  4

  6

 40
0.0
 41
0.0
 42
0.0
 43
0.0
 44
0.0
 45
0.0
 46
0.0
 47
0.0
 48
0.0
 49
0.0
140
0.0
141
0.0
142
1.0
143
1.0
 70
   688
 72
     0
 73
     0
 74
     5
  7

 75
    16
147
1.0
 76
     0
 77
     2
 78
   300
148
0.0
149
0.0
100
AcDbLayout
  1
レイアウト1
 70
     1
 71
     1
 10
0.0
 20
0.0
 11
12.0
 21
9.0
 12
0.0
 22
0.0
 32
0.0
 14
0.0
 24
0.0
 34
0.0
 15
0.0
 25
0.0
 35
0.0
146
0.0
 13
0.0
 23
0.0
 33
0.0
 16
1.0
 26
0.0
 36
0.0
 17
0.0
 27
1.0
 37
0.0
 76
     0
330
19
  0
MATERIAL
  5
3B
102
{ACAD_XDICTIONARY
360
3C
102
}
102
{ACAD_REACTORS
330
B
102
}
330
B
100
AcDbMaterial
  1
ByBlock
 94
       63
  0
MATERIAL
  5
38
102
{ACAD_XDICTIONARY
360
39
102
}
102
{ACAD_REACTORS
330
B
102
}
330
B
100
AcDbMaterial
  1
ByLayer
 94
       63
  0
MATERIAL
  5
A
102
{ACAD_XDICTIONARY
360
C
102
}
102
{ACAD_REACTORS
330
B
102
}
330
B
100
AcDbMaterial
  1
Global
 43
0.0007999999797903
 43
0.0
 43
0.0
 43
0.0
 43
0.0
 43
0.0007999999797903
 43
0.0
 43
0.0
 43
0.0
 43
0.0
 43
1.0
 43
0.0
 43
0.0
 43
0.0
 43
0.0
 43
1.0
 49
0.0007999999797903
 49
0.0
 49
0.0
 49
0.0
 49
0.0
 49
0.0007999999797903
 49
0.0
 49
0.0
 49
0.0
 49
0.0
 49
1.0
 49
0.0
 49
0.0
 49
0.0
 49
0.0
 49
1.0
142
0.0007999999797903
142
0.0
142
0.0
142
0.0
142
0.0
142
0.0007999999797903
142
0.0
142
0.0
142
0.0
142
0.0
142
1.0
142
0.0
142
0.0
142
0.0
142
0.0
142
1.0
144
0.0007999999797903
144
0.0
144
0.0
144
0.0
144
0.0
144
0.0007999999797903
144
0.0
144
0.0
144
0.0
144
0.0
144
1.0
144
0.0
144
0.0
144
0.0
144
0.0
144
1.0
 94
       63
1001
ACAD
1070
    -1
1070
     3
1070
     0
1000

1071
        0
1070
     0
  0
MLINESTYLE
  5
42
102
{ACAD_REACTORS
330
36
102
}
330
36
100
AcDbMlineStyle
  2
STANDARD
 70
     0
  3

 62
   256
 51
90.0
 52
90.0
 71
     2
 49
0.5
 62
   256
  6
BYLAYER
 49
-0.5
 62
   256
  6
BYLAYER
  0
ACDBPLACEHOLDER
  5
7
102
{ACAD_REACTORS
330
8
102
}
330
8
  0
SCALE
  5
47
102
{ACAD_REACTORS
330
3F
102
}
330
3F
100
AcDbScale
 70
     0
300
1:1
140
1.0
141
1.0
290
     1
  0
SCALE
  5
48
102
{ACAD_REACTORS
330
3F
102
}
330
3F
100
AcDbScale
 70
     0
300
1:2
140
1.0
141
2.0
290
     0
  0
SCALE
  5
49
102
{ACAD_REACTORS
330
3F
102
}
330
3F
100
AcDbScale
 70
     0
300
1:4
140
1.0
141
4.0
290
     0
  0
SCALE
  5
4A
102
{ACAD_REACTORS
330
3F
102
}
330
3F
100
AcDbScale
 70
     0
300
1:5
140
1.0
141
5.0
290
     0
  0
SCALE
  5
4B
102
{ACAD_REACTORS
330
3F
102
}
330
3F
100
AcDbScale
 70
     0
300
1:8
140
1.0
141
8.0
290
     0
  0
SCALE
  5
4C
102
{ACAD_REACTORS
330
3F
102
}
330
3F
100
AcDbScale
 70
     0
300
1:10
140
1.0
141
10.0
290
     0
  0
SCALE
  5
4D
102
{ACAD_REACTORS
330
3F
102
}
330
3F
100
AcDbScale
 70
     0
300
1:16
140
1.0
141
16.0
290
     0
  0
SCALE
  5
4E
102
{ACAD_REACTORS
330
3F
102
}
330
3F
100
AcDbScale
 70
     0
300
1:20
140
1.0
141
20.0
290
     0
  0
SCALE
  5
4F
102
{ACAD_REACTORS
330
3F
102
}
330
3F
100
AcDbScale
 70
     0
300
1:30
140
1.0
141
30.0
290
     0
  0
SCALE
  5
50
102
{ACAD_REACTORS
330
3F
102
}
330
3F
100
AcDbScale
 70
     0
300
1:40
140
1.0
141
40.0
290
     0
  0
SCALE
  5
51
102
{ACAD_REACTORS
330
3F
102
}
330
3F
100
AcDbScale
 70
     0
300
1:50
140
1.0
141
50.0
290
     0
  0
SCALE
  5
52
102
{ACAD_REACTORS
330
3F
102
}
330
3F
100
AcDbScale
 70
     0
300
1:100
140
1.0
141
100.0
290
     0
  0
SCALE
  5
53
102
{ACAD_REACTORS
330
3F
102
}
330
3F
100
AcDbScale
 70
     0
300
2:1
140
2.0
141
1.0
290
     0
  0
SCALE
  5
54
102
{ACAD_REACTORS
330
3F
102
}
330
3F
100
AcDbScale
 70
     0
300
4:1
140
4.0
141
1.0
290
     0
  0
SCALE
  5
55
102
{ACAD_REACTORS
330
3F
102
}
330
3F
100
AcDbScale
 70
     0
300
8:1
140
8.0
141
1.0
290
     0
  0
SCALE
  5
56
102
{ACAD_REACTORS
330
3F
102
}
330
3F
100
AcDbScale
 70
     0
300
10:1
140
10.0
141
1.0
290
     0
  0
SCALE
  5
57
102
{ACAD_REACTORS
330
3F
102
}
330
3F
100
AcDbScale
 70
     0
300
100:1
140
100.0
141
1.0
290
     0
  0
TABLESTYLE
  5
43
102
{ACAD_XDICTIONARY
360
44
102
}
102
{ACAD_REACTORS
330
40
102
}
330
40
100
AcDbTableStyle
280
     0
  3
Standard
 70
     0
 71
     0
 40
1.5
 41
1.5
280
     0
281
     0
  7
Standard
140
4.5
170
     2
 62
     0
 63
     7
283
     0
 90
      512
 91
        0
  1

274
    -2
284
     1
 64
     0
275
    -2
285
     1
 65
     0
276
    -2
286
     1
 66
     0
277
    -2
287
     1
 67
     0
278
    -2
288
     1
 68
     0
279
    -2
289
     1
 69
     0
  7
Standard
140
6.0
170
     5
 62
     0
 63
     7
283
     0
 90
      512
 91
        0
  1

274
    -2
284
     1
 64
     0
275
    -2
285
     1
 65
     0
276
    -2
286
     1
 66
     0
277
    -2
287
     1
 67
     0
278
    -2
288
     1
 68
     0
279
    -2
289
     1
 69
     0
  7
Standard
140
4.5
170
     5
 62
     0
 63
     7
283
     0
 90
      512
 91
        0
  1

274
    -2
284
     1
 64
     0
275
    -2
285
     1
 65
     0
276
    -2
286
     1
 66
     0
277
    -2
287
     1
 67
     0
278
    -2
288
     1
 68
     0
279
    -2
289
     1
 69
     0
  0
VISUALSTYLE
  5
2A
102
{ACAD_REACTORS
330
2B
102
}
330
2B
100
AcDbVisualStyle
  2
2dWireframe
 70
     4
177
     3
291
     0
 70
    58
 90
        0
176
     1
 90
        2
176
     1
 90
        1
176
     1
 90
        0
176
     1
 40
0.6
176
     1
 40
30.0
176
     1
 62
     7
420
 16777215
176
     1
 90
        1
176
     1
 90
        4
176
     1
 62
     7
176
     1
 62
   257
176
     1
 90
        1
176
     1
 90
        1
176
     1
 40
1.0
176
     1
 90
        0
176
     1
 62
   257
176
     1
 40
1.0
176
     1
 90
        1
176
     1
 90
        6
176
     1
 90
        2
176
     1
 62
     7
176
     1
 90
        5
176
     1
 90
        0
176
     1
 90
        0
176
     1
290
     0
176
     1
 90
        1
176
     1
 40
0.0
176
     1
 90
        0
176
     1
290
     1
176
     1
290
     1
176
     1
290
     0
176
     1
290
     0
176
     1
290
     0
176
     1
290
     0
176
     1
290
     0
176
     1
290
     0
176
     1
290
     0
176
     1
 90
       50
176
     1
 40
0.0
176
     1
 40
1.0
176
     1
 90
        0
176
     1
 62
    18
420
        0
176
     1
 90
       50
176
     1
 90
        3
176
     1
 62
     5
420
      255
176
     1
290
     0
176
     1
 90
       50
176
     1
 90
       50
176
     1
 90
       50
176
     1
290
     0
176
     1
 90
       50
176
     1
 62
   256
176
     0
 40
1.0
176
     0
 90
        2
176
     1
  1
strokes_ogs.tif
176
     1
290
     0
176
     1
 40
1.0
176
     1
 40
1.0
176
     1
  0
VISUALSTYLE
  5
45
102
{ACAD_REACTORS
330
2B
102
}
330
2B
100
AcDbVisualStyle
  2
Realistic
 70
     8
177
     3
291
     0
 70
    58
 90
        2
176
     1
 90
        3
176
     1
 90
        0
176
     1
 90
        2
176
     1
 40
0.6
176
     1
 40
30.0
176
     1
 62
     7
420
 16777215
176
     1
 90
        0
176
     1
 90
        0
176
     1
 62
     7
176
     1
 62
   257
176
     1
 90
        1
176
     1
 90
        1
176
     1
 40
1.0
176
     1
 90
        8
176
     1
 62
   257
176
     1
 40
1.0
176
     1
 90
        1
176
     1
 90
        6
176
     1
 90
        2
176
     1
 62
     7
176
     1
 90
        3
176
     1
 90
        0
176
     1
 90
        0
176
     1
290
     0
176
     1
 90
       13
176
     1
 40
0.0
176
     1
 90
        0
176
     1
290
     0
176
     1
290
     1
176
     1
290
     1
176
     1
290
     0
176
     1
290
     0
176
     1
290
     0
176
     1
290
     0
176
     1
290
     0
176
     1
290
     0
176
     1
 90
       50
176
     1
 40
0.0
176
     1
 40
1.0
176
     1
 90
        0
176
     1
 62
    18
420
        0
176
     1
 90
       50
176
     1
 90
        3
176
     1
 62
     5
420
      255
176
     1
290
     0
176
     1
 90
       50
176
     1
 90
       50
176
     1
 90
       50
176
     1
290
     0
176
     1
 90
       50
176
     1
 62
   256
176
     0
 40
1.0
176
     0
 90
        2
176
     1
  1
strokes_ogs.tif
176
     1
290
     0
176
     1
 40
1.0
176
     1
 40
1.0
176
     1
  0
VISUALSTYLE
  5
46
102
{ACAD_REACTORS
330
2B
102
}
330
2B
100
AcDbVisualStyle
  2
Wireframe
 70
     5
177
     3
291
     0
 70
    58
 90
        0
176
     1
 90
        2
176
     1
 90
        0
176
     1
 90
        0
176
     1
 40
0.6
176
     1
 40
30.0
176
     1
 62
     7
420
 16777215
176
     1
 90
        1
176
     1
 90
        4
176
     1
 62
     7
176
     1
 62
   257
176
     1
 90
        1
176
     1
 90
        1
176
     1
 40
1.0
176
     1
 90
        0
176
     1
 62
   257
176
     1
 40
1.0
176
     1
 90
        1
176
     1
 90
        6
176
     1
 90
        2
176
     1
 62
     7
176
     1
 90
        3
176
     1
 90
        0
176
     1
 90
        0
176
     1
290
     0
176
     1
 90
        1
176
     1
 40
0.0
176
     1
 90
        0
176
     1
290
     0
176
     1
290
     1
176
     1
290
     1
176
     1
290
     0
176
     1
290
     0
176
     1
290
     0
176
     1
290
     0
176
     1
290
     0
176
     1
290
     0
176
     1
 90
       50
176
     1
 40
0.0
176
     1
 40
1.0
176
     1
 90
        0
176
     1
 62
    18
420
        0
176
     1
 90
       50
176
     1
 90
        3
176
     1
 62
     5
420
      255
176
     1
290
     0
176
     1
 90
       50
176
     1
 90
       50
176
     1
 90
       50
176
     1
290
     0
176
     1
 90
       50
176
     1
 62
   256
176
     0
 40
1.0
176
     0
 90
        2
176
     1
  1
strokes_ogs.tif
176
     1
290
     0
176
     1
 40
1.0
176
     1
 40
1.0
176
     1
  0
DICTIONARYVAR
  5
267
102
{ACAD_REACTORS
330
262
102
}
330
262
100
DictionaryVariables
280
     0
  1
1:1
  0
DICTIONARYVAR
  5
264
102
{ACAD_REACTORS
330
262
102
}
330
262
100
DictionaryVariables
280
     0
  1
STANDARD
  0
DICTIONARYVAR
  5
263
102
{ACAD_REACTORS
330
262
102
}
330
262
100
DictionaryVariables
280
     0
  1
STANDARD
  0
DICTIONARYVAR
  5
265
102
{ACAD_REACTORS
330
262
102
}
330
262
100
DictionaryVariables
280
     0
  1

  0
DICTIONARYVAR
  5
266
102
{ACAD_REACTORS
330
262
102
}
330
262
100
DictionaryVariables
280
     0
  1

  0
DICTIONARY
  5
17
330
15
100
AcDbDictionary
280
     1
281
     1
  0
DICTIONARY
  5
3C
330
3B
100
AcDbDictionary
280
     1
281
     1
  3
FBXASSET
360
3D
  0
DICTIONARY
  5
39
330
38
100
AcDbDictionary
280
     1
281
     1
  3
FBXASSET
360
3A
  0
DICTIONARY
  5
C
330
A
100
AcDbDictionary
280
     1
281
     1
  3
BUMPTILE
360
D
  3
DIFFUSETILE
360
E
  3
FBXASSET
360
F
  3
OPACITYTILE
360
10
  3
REFLECTIONTILE
360
11
  0
DICTIONARY
  5
44
330
43
100
AcDbDictionary
280
     1
281
     1
  3
ACAD_ROUNDTRIP_2008_TABLESTYLE_CELLSTYLEMAP
360
268
  0
XRECORD
  5
3D
102
{ACAD_REACTORS
330
3C
102
}
330
3C
100
AcDbXrecord
280
     1
 70
     1
 90
429727718
  1
D62C5603-E3A1-4AEA-B7FB-FE5D8D0755AF
310
504B03040A0000080000CC70623B3DEE336E79000000790000001B0000006175746F6465736B2D64657369676E2D7061636B6167652E786D6C3C3F786D6C2076657273696F6E3D22312E302220656E636F64696E673D227574662D3822203F3E3C666F726D6174733E3C666F726D61743E687474703A2F2F736368656D612E
310
6175746F6465736B2E636F6D2F64657369676E2D7061636B6167652F323030393C2F666F726D61743E3C2F666F726D6174733E504B0304140006080800CC70623BD486FD9CA0000000F4000000130000005B436F6E74656E745F54797065735D2E786D6C7D8EC10E82300C865F65E91D8A1E8C310C0EEA1BF002731658846E
310
D98AC1B77784ABF1D8FE5FBFBF75BBCE937A534CCEB38643598122B6FEE978D0B0485F9C41B54DDD7D022595594E1A469170414C76A4D9A4D207E29CF43ECE46F218070CC6BECC4078ACAA135ACF422C856C0E68EA1BF5669944DDD7BCDE7B1F8E415D77AECB980613C2E4AC91FC167A2B244592486606FC29C8FD7F045B9A
310
EF7053A7E60B504B0304140006080800CC70623B853B8169EB0000007C01000008000000636F72652E786D6C8D90416EC3201045AF62CDB6C206821CC7C244919D9CA01740401C94182C03558F5F9C3852BBEB6A467FFE9B197D7EFC9E1EC5975982F5AE035262288C535E5B377690E21535501C055FBC8FBF6C503839990E
310
5619041F179FE64D52DE45E362569DD7661365082642A11EB9E920A89B99642953CC8E702F67A9EE7234257977194EC9EAE275C4EABCCF5EAD5940D4AC6F0E35A568B8F43562CD7046CD199FD07E60174276A7BE677B5EADB0E0D14EEFFB6A31321A0D82627C4084204C3F096B71DD52F6819B16635EADF63F509AF53FA164
310
5DDCD1EDDD17164090FCC8732078B56691CB33A85CD7DCC40F504B0304140006080800CC70623B55019EA25F0000007C00000007000000636E782E786D6C4DCB3B0E80201045D1AD90E915ED2CF8AC45050C11660C8261F98AB1B07AC9C97D42D718D865D3E909258CFD00CCE24AC6E326A164D74DC0B4128928FF32603847
310
2BA13128B1252AC747C6BAB984FC68F0B87FE8960A5C09FE86CFB69FBA01504B0304140006080800CC70623BDBABAAF470010000D40300000C0000006662782F636F72652E786D6CC553D16E823014FD95A6AF4B694182CC941A83FA05FB810A9511A125A5257EFE2E82712ECEB8A7F100CD39F7F69E734AF9FADC366850B6
310
AF8DCE7018308C942E4C59EB2AC3DE1D498AD15A706B8CFB56869196ADCAF00863C12B6B7C374385D14E6907A836A59A41D9F7CA615434B0C8705F7CAA5606D23BA8E84F41278B93AC54100640439DE0BDB320004D43C63716C7C399D30917DCFBBA9CD9BA8469F5B156168B24CED3F7248AC8769F27244EB73B92EED8862C
310
B7F13E0C179B3C8F979C8ECD82BBBABDAA2BAC924E9558448CBD9330242CFA08E3154B5651FCC6D215639C8EE5774DBE2B5F6CF2B5768B68963BB5F5588420E442FC700B1139D4CB01F450C1E918227C2E09DF070D8140C84E1E9AAB8F1340832A9CB13130A5F1376A908D57309505ECF2A0DF179C4E9D30F5B239B87E3823
310
7A79C6F31DE1A8A5AEC08474B03C7837EAE4938639B44E5932B833D2C6B6B279CDC613877FA26EE21F4A2A4C63EC7F29A2F301D1F9F7A0E37D145F504B0304140006080800CC70623B9C113CC27E0000009D0000000B0000006662782F636E782E786D6C4DCCDF0A83201C86E15B91DFB94BFB330DD428C8FB886521330DA7
310
6397BF1A1DECE883878F57749FCDA1B7892F1BBC047A23808C7F84D9FA55424E0BE6803A256208E9EF06C84F9B91703228B1C690F78B66B34CD9A5439DF5CF0BFBF65E35BCA1B8D6A5C6F540381E886698B5741C695F9503EBA150A2F8958E3DC3EA0B504B0304140006080800CC70623B7DF2F77C2A010000120200003100
310
00006662782F41393633353835312D344632462D344230382D423046372D3739314545314133324237412F636F72652E786D6C8D51DB8EC22014FC15C2939B0D2DB4B45643319AE817EC0F6041255A68B86CFCFC856D4D76DF7CE190393373060EDB3DC707F856CE6B6B7A480A0C81328395DA5C7B18C3057510EC3873D686
310
3F34088C18550F330C39BB3A1BA7051AAC09CA84841A2BD5020AEF55806078A44B0FFD7053A328440C89E1EFC52486BBB8AA8214A99D789CF9E05200300FC927E4FB4D5B375D43103D5527440FB843077C5AA3F5861C8F645F5787F59E95B390B318B55CE45AA638FAA2957BD7248B390B7A7CC51F9C124149C82B8C378810
310
84AB2F42B7B8DD56F413775B8C5999E9FF4471926F8AA236A1AE96B8B3CC434E5839373893369E1FAF30EA395917409EB7F26AF8801C171837A4A6AC9C89E9F9C9B1A58BA30FD6A5EF5DDDCF894B9AD9B6A59C957943A9FCAE2FD5BC4DFE03504B0304140006080800CC70623BAD7543B64E01000033030000300000006662
310
782F41393633353835312D344632462D344230382D423046372D3739314545314133324237412F636E782E786D6CD593CD6EC32010845F0571AD6CE3D48AD20813A9873E410FBD12D82434182C7EAAE6EDBB2424CD25871E7B41D6EC30B3FA84F9E67BB2E40B4234DE8DB46F1925E094D7C6ED479AD3AE5951B2113C789FEE
310
6C943839C1488B4C05DF079FE72A69D8C96C13AAD6B8631503449F83828872B949AC57D26200B826A308D316B4064D6E46FCDA41C05550DC9E483A00797BFD207EFB092A45DE9514C1BBD22178396BD39D891265658C238DEA00936C654E5E433CB65A26D9F6EDB5EBC14EBF49A45CB856E66048291F6939A9A81BB5C89177
310
38143CA680F4AA299D66A042CEB3354A2684DC9D8D178FE0D9B8B41CAAD720F880EE7EF93C0C18769E099ECC04D5A102C8049A8A05632F4DDF376CF1DE0F6BB65C2F8627B65A33C6BB62177CEBBDAD973006829F89F22E814B54F4BC2BE347F8AA8F681390B50FA73F804400B5F542E796F19FF974E7F78DB802FE05E20750
310
4B0304140006080800CC70623BE75B7789680500003C100000340000006662782F41393633353835312D344632462D344230382D423046372D3739314545314133324237412F6F626A656374732E786D6CAD575B8F9B3818FD2B887D06C22499CB8AA1CA655245D5B455A356FB305264C061D8018C6C3393D95FBFC7600890
310
A4CD5EF210B0B1BFEBF98E3F7B1FF6596ABC522E1296DF9BAE3D320D9A872C4AF2F8DE2CE5CEBA358D0FBEC719939D65A691938CDE9B6ADAF4BD98B3B2D05311DD91329583D9D5FC0F438434A7A611A644887B5384CF34233629258BA878B12322891DEFF6B66BD70BFB62634E8AE781D082709A4B588AF91C528CDA28B73F
310
1C998EEF39EABBEFA97FBD6A7C7E9553F9D3D79FE442923C3C523610337627CB87ABE99D359D4CC6D6E4FACAB5E6ABF9D2726FC6A3C5F56271377BB88362213924694B38DD99FE47C48627A1E7D49F5A8BB5E1A74C0A599ED3B0F21F1E56366B89112D681E218F0915D0D6F17AD41FBA2A369DCF6335D62ABBD39779D5DDD1
310
11D4D8DE3CBB96B2E04FB8202E41051754A1AA8E8F76B4C6DFE810B580B1547F4B84911149794252234D024EF8BBE963A95AE27B3D310A9D5C215C7960FAEE415ED75694C6AFB17BCACA5D99A60A9AA65F217B0BFC53292ACB92BF283FAD0D3621576592CB5BED907C2FA8E9DF794E35E97BEA31BED21FEB401ABB94C44839
310
DCACBF0E1C5DA8DA5B2F4DFFD32AD86F543D9E565E7056502E157C00AD2671CD534549AB752FCA9CDA00677A313F04E51B22FF19E57B300579E3C97EB29F682D92935CEC18CF901B7B54FD8C51F362B56FC72FE0B3C1EAE335EDCCBF5AEC39ADB17DC238973F804BA5E6F6BFE7AF1FB32E523BE9F3BD571418E3631DCA4D48
310
5250CF639223210A9446CA30052EDF057BD35F8329C1ECD84552BF0DC8D18BE7BCE23BFE6BD960AB4A7DE79923A103BEBD80F911CBAA2C60DB19B01CF164A5583B772EE6D3FFA56666CBCDA74DC97724A48F9A58967497E489C4D979006FD7A05E227A1EBDD0F737C623387A9C844D3709995625106D157315F8B8392CD4E0
310
A0B9A720C4BE9829CEF37EA1E13111214D53925356365ADA634861B52519DD27A00AEB808EAF0628E6F435519D446F45CF2C9CF5214F0A15B2F6D06B79DA3EE3CBF7F56780D2F4E7EF73A0F5E5B02A38D07DC852C6B7C1FBB6664213E0C39E3EBA7FF4E1AD23EA2829407C85E586727488B751B2DB9502BC7B228A3FD68B6E
310
A65A22397E690AA8D158D7E404EC8CDA235CC3B7D1898680131CEC2CDF2638C65196279577750F15884AEE19F94199155B92B13297978469D4F8D358DF0AEF7631E28DC8F0D9F437D5D39A83B2231A1D52D543813A824EF8D44BCFF2FA6A31BD1E8DAD87F1CCB526B3879935BF59CDADD5C37479BB1CDD4CA7B3556B516589
310
EF352754B706114D9C885EC9131DE6EFEB43D99AFE2391C2F958179413D7CFEF6B1B6DB1E7600F00DE6E5C67454A339A4BA2E0FBA85ED26F045D454F463DBFCE484C2F90F2E5E3666003662ED8F755951A7D1BECD5B30B550B2785C8E7320B7292A4838DDA71BBC863ED7613CAF659337A3354231D4FF4A182A54904C2898C
310
98B28C4AD0CE056CCF332A80986E571EE9DBC305BB5FEB7E509220A58D25CF042D712A806AC0AD0C657FDEF80D2D9CEAA2EE4D1C76F60BFE74219A06527D6F82DF6412526107381E55E353090704D085B52408A8913C4ED159D79BDA71BB4BC506F4831350EB6F975CD22D69BF7AC49B91A2C0A9DDA3D5CA36AD20FC478E37
310
E61844E2352865EBCB61A275A65283CAAA9DD27703B4102F5AF51EF5F573B75CBB5AD38BC845F7A49F82A0966A49C2E3EA5EA0ECD326CD965F1DB402C6FA8B51A4658C5C5E2EC9E214602E55810345408596591009A82E7E7FFACA19EEA299B14A0081A705CB3296EBC14CDF658DCD336EA6D1136881AAEB87B81AB9EE53D5
310
F5EB8BC8362082DA24122F98680A4E7930C01A0079749CEA14382A0783E5EBA5A10F8C098456A03D6A4AEB6BB881E2513747552A5DB22C7EDAF83BD5528081A365F7FF06504B0304140006080000CC70623B000000000000000000000000350000006662782F41393633353835312D344632462D344230382D423046372D37
310
39314545314133324237412F76657274696365732E62696E504B0304140006080800CC70623BF270F1330600000004000000360000006662782F41393633353835312D344632462D344230382D423046372D3739314545314133324237412F747269616E676C65732E62696E636660600000504B0304140006080000CC7062
310
3B000000000000000000000000370000006662782F41393633353835312D344632462D344230382D423046372D3739314545314133324237412F617474726962757465732E62696E504B0304140006080800CC70623B08DA0BD19000000041010000360000006662782F41393633353835312D344632462D344230382D4230
310
46372D3739314545314133324237412F6469726563746F72792E786D6C858F410AC3201045AF22B36F53E9A60B35CBEEBAE80D244E44489C6234F4F835464A48035D0DF398FF9F8AF63D0E6CC63039F212F8F9020C7D47C6792B21C5FE7403D62A1188E2E60C98D7234A5830286103A55745067B9D86B8A3CF9C7F90C11DE6
310
07FB144396D7B6A82D282E9A152AD114D5EF2CB866EEE831B8EEA07A7BB5A8D7D61A2BAAEB7FD5F70921FF497D00504B0304140006080800CC70623BEDD1DC58FD000000A00100003B0000006662782F41393633353835312D344632462D344230382D423046372D3739314545314133324237412F7265736F75726365732F
310
636F72652E786D6C8D504B6E833010BD0A9A6D65B00922041947112427E8052C33A156828DFCA97AFC9A40A576D7CDCCE87D344F8F9FBFE667F689CE6B6B3A6039850C8DB2A336530731DC4903D95970676DF82583CCC8193B5861107C72362E3BA4AC096842428D1D7107A5F7182053CF7474E0D507CE32973124857FE48B
310
540F3961CEF244279DE03EB81420DB9EAC1384436FA353E879B1B182C7A8C75DA3C7F453DF353A1075D537A7BA6464B8F535A99AE14A9A2BBD90E350DD183B5CFABE3AF262350B1EF4FC9351399401471025A527C218A1E53BAB5A5AB765F5469B96525EACF23FA6B88CFF34456DC2A1DCE36E360F82A5202F42F062ED2BAD
310
579969AFDD8A6F504B010214000A0000080000CC70623B3DEE336E79000000790000001B00000000000000000000000000000000006175746F6465736B2D64657369676E2D7061636B6167652E786D6C504B01021400140006080800CC70623BD486FD9CA0000000F40000001300000000000000000000000000B20000005B
310
436F6E74656E745F54797065735D2E786D6C504B01021400140006080800CC70623B853B8169EB0000007C010000080000000000000000000000000083010000636F72652E786D6C504B01021400140006080800CC70623B55019EA25F0000007C000000070000000000000000000000000094020000636E782E786D6C504B
310
01021400140006080800CC70623BDBABAAF470010000D40300000C00000000000000000000000000180300006662782F636F72652E786D6C504B01021400140006080800CC70623B9C113CC27E0000009D0000000B00000000000000000000000000B20400006662782F636E782E786D6C504B01021400140006080800CC70
310
623B7DF2F77C2A010000120200003100000000000000000000000000590500006662782F41393633353835312D344632462D344230382D423046372D3739314545314133324237412F636F72652E786D6C504B01021400140006080800CC70623BAD7543B64E010000330300003000000000000000000000000000D2060000
310
6662782F41393633353835312D344632462D344230382D423046372D3739314545314133324237412F636E782E786D6C504B01021400140006080800CC70623BE75B7789680500003C10000034000000000000000000000000006E0800006662782F41393633353835312D344632462D344230382D423046372D3739314545
310
314133324237412F6F626A656374732E786D6C504B01021400140006080000CC70623B0000000000000000000000003500000000000000000000000000280E00006662782F41393633353835312D344632462D344230382D423046372D3739314545314133324237412F76657274696365732E62696E504B01021400140006
310
080800CC70623BF270F133060000000400000036000000000000000000000000007B0E00006662782F41393633353835312D344632462D344230382D423046372D3739314545314133324237412F747269616E676C65732E62696E504B01021400140006080000CC70623B0000000000000000000000003700000000000000
310
000000000000D50E00006662782F41393633353835312D344632462D344230382D423046372D3739314545314133324237412F617474726962757465732E62696E504B01021400140006080800CC70623B08DA0BD1900000004101000036000000000000000000000000002A0F00006662782F41393633353835312D344632
310
462D344230382D423046372D3739314545314133324237412F6469726563746F72792E786D6C504B01021400140006080800CC70623BEDD1DC58FD000000A00100003B000000000000000000000000000E1000006662782F41393633353835312D344632462D344230382D423046372D3739314545314133324237412F7265
310
736F75726365732F636F72652E786D6C504B0506000000000E000E0080040000641100000000
  0
XRECORD
  5
3A
102
{ACAD_REACTORS
330
39
102
}
330
39
100
AcDbXrecord
280
     1
 70
     1
 90
429727718
  1
30362254-06B7-45E0-A893-8CFA70E3D6BC
310
504B03040A0000080000CC70623B3DEE336E79000000790000001B0000006175746F6465736B2D64657369676E2D7061636B6167652E786D6C3C3F786D6C2076657273696F6E3D22312E302220656E636F64696E673D227574662D3822203F3E3C666F726D6174733E3C666F726D61743E687474703A2F2F736368656D612E
310
6175746F6465736B2E636F6D2F64657369676E2D7061636B6167652F323030393C2F666F726D61743E3C2F666F726D6174733E504B0304140006080800CC70623BD486FD9CA0000000F4000000130000005B436F6E74656E745F54797065735D2E786D6C7D8EC10E82300C865F65E91D8A1E8C310C0EEA1BF002731658846E
310
D98AC1B77784ABF1D8FE5FBFBF75BBCE937A534CCEB38643598122B6FEE978D0B0485F9C41B54DDD7D022595594E1A469170414C76A4D9A4D207E29CF43ECE46F218070CC6BECC4078ACAA135ACF422C856C0E68EA1BF5669944DDD7BCDE7B1F8E415D77AECB980613C2E4AC91FC167A2B244592486606FC29C8FD7F045B9A
310
EF7053A7E60B504B0304140006080800CC70623B1EC5D7A3EB0000007C01000008000000636F72652E786D6C8D90416EC3201045AF82665B6103C6756C6122AB4D4ED00B204C5C94182C03558F5F9C3852BBEB6A467FFE9B197D71FC9E6FE8CBACC17AD7032D0820E3B41FAD9B7A48F1820F808E52ACDEC75F36404ECDA687
310
4D0629A6D5A76597B477D1B89855E747B38B2A041301E95B6E7A08FAD3CCAA50296647B8168BD2573599823EBB0CA76447F43862C7BCCF5EAC59410E4DDD9C7973C2755553CCCFA4C603E3040F1565ED3B1FDE4E432BCA0D9622DAF9795FAF464533826484B498524CD807E51D79ED187F21878E10516EF63F505AC67F42C9
310
BA58B1FDDD071640D2FCC87D2045B96591CB3DA85CB7DCE40F504B0304140006080800CC70623B55019EA25F0000007C00000007000000636E782E786D6C4DCB3B0E80201045D1AD90E915ED2CF8AC45050C11660C8261F98AB1B07AC9C97D42D718D865D3E909258CFD00CCE24AC6E326A164D74DC0B4128928FF32603847
310
2BA13128B1252AC747C6BAB984FC68F0B87FE8960A5C09FE86CFB69FBA01504B0304140006080800CC70623B8C9102E971010000D40300000C0000006662782F636F72652E786D6CC5535B6E833010BC8AE5DF0A6C08340F1947A84D4ED00B38C6A128602363A31CBFCB234A53A551FA553EC09AD9F5CE8C31DB9E9B1AF5CA
310
7695D1198E428A91D2D214952E33ECDD315861B4E5CC1AE3BE9561A445A3323CC098B3D21ADFCE9034DA29ED00D5A6503328BA4E398C640D8B0C77F253352214DE4145770A5B214FA2546114020D759C75CE8200340D19DE981F0F6746269C33EFAB6266AB02A655C74A59CCF365BADC27CB5D902ED22848F6340DF238A141
310
BE88E2F57B92BFEDF23523433367AE6A2EEAA455C2A902F398D2751045018D3FA264435F3771F242571B4A1919CA6F9A7C5B3CD9E42BED16F12C776AEB308F40C848FC700B1139D4891EF410CEC810227CC6846F8386402064270EF5C5C709A05E49676C024C61FC95EA45ED154CA5211D1FF4FB8291A913A68E9B83EBBB33
310
E2A7673CDE118E5AE8124C0807CB8377834E366998436B950D7A7746DAD846D4CFD978E0F04FD455FC5D49D2D4C6FE9722321F10997F0F32DC47FE05504B0304140006080800CC70623BFFEA85907E0000009D0000000B0000006662782F636E782E786D6C4DCCD10A83201886E15B91FFDC95D95A811AB6F23E625948A6C3
310
E9D8E5AF46073BFAE0E1E365ED67B3E8ADC3CB78C7815C7240DA3DFC64DCC221C519D7805AC182F7F1EF06C88D9BE6703008B6049F9E274D7A1E938DBB5AE3D6131B2589BA0D3D965551E0B2EA732C9B9A624AAEB41E3A557677029960D9AFB4EF11165F504B0304140006080800CC70623B4FEEA4082C0100001202000031
310
0000006662782F39464131463745442D413632322D343644302D413938332D3331353338454246344243312F636F72652E786D6C8D515B6EC32010BC0AE2AB55850DD871ED0813254D72825EC00192A2C460F1A872FC42ED48ED5F7E00CDCECCCEB26C731F6FE05B39AFADE921293004CA082BB5B9F43086336A21D870E6AC
310
0D7F68109861543DCC30E4ECE26C9C164858139409093556AA051CBC570102714B8F1E7AF1A5C6A11862480C7F2DA6415C878B2A4891CA89C7990F2E050073937C42DE1DB7E4F87ED8A36D4329AA9B3D46DBAEAD504556557BD81DEBDD0761E52CE42C462D17B996298E3E6BE59E35C962CE821E1FF18553435012728A7187
310
0841987E927A8D9B35ADDF70BBC6989599FE4F1427F9A4286A132ABAC49D651EF234CD5CE04CDA78BA3DC2A8FB645D00B9DF8B57E215725C60BCA2A463E54C4CE327C7A65E1C7DB02E7DEFCBF594B864C5CA6CDBD49C957943E9FA5D5FBAF336F90F504B0304140006080800CC70623BAD7543B64E01000033030000300000
310
006662782F39464131463745442D413632322D343644302D413938332D3331353338454246344243312F636E782E786D6CD593CD6EC32010845F0571AD6CE3D48AD20813A9873E410FBD12D82434182C7EAAE6EDBB2424CD25871E7B41D6EC30B3FA84F9E67BB2E40B4234DE8DB46F1925E094D7C6ED479AD3AE5951B2113C
310
789FEE6C943839C1488B4C05DF079FE72A69D8C96C13AAD6B8631503449F83828872B949AC57D26200B826A308D316B4064D6E46FCDA41C05550DC9E483A00797BFD207EFB092A45DE9514C1BBD22178396BD39D891265658C238DEA00936C654E5E433CB65A26D9F6EDB5EBC14EBF49A45CB856E66048291F6939A9A81BB5
310
C8917738143CA680F4AA299D66A042CEB3354A2684DC9D8D178FE0D9B8B41CAAD720F880EE7EF93C0C18769E099ECC04D5A102C8049A8A05632F4DDF376CF1DE0F6BB65C2F8627B65A33C6BB62177CEBBDAD973006829F89F22E814B54F4BC2BE347F8AA8F681390B50FA73F804400B5F542E796F19FF974E7F78DB802FE05
310
E207504B0304140006080800CC70623B16AB87BA640500003C100000340000006662782F39464131463745442D413632322D343644302D413938332D3331353338454246344243312F6F626A656374732E786D6CAD575B6FA33818FD2B887DE6924B3BED8A326A92B68A663B534DD4D13E548A0C38942D60649B369D5FBFC7
310
600890A493BDE42160637FD7F31D7FF63E6FB3D478A55C242CBF3247B66B1A340F5994E4F19559CA8D75611A9F7D8F33263BCB4C232719BD32D5B4E97B316765A1A722BA21652A07B3B7B33F0D11D29C9A46981221AE4C113ED38CD8A4942CA2E2C58E882476BCD9DA23BB5ED8171B73523C0F841684D35CC252CCE79062D4
310
468DFA43D7747CCF51DF7D4FFDEB5593E3AB9CCA9FBEFE241792E4E19EB28198C968BAB8199F5D5A67D3E9C49A9E8F47D6EC76B6B0469F26EEFC7C3EBFBCBEB98462213924694B38DD98FE1D62C393D073EA4FADC5DAF04326852CCF6958F90F0F2B9BB5C48816348F90C7840A68EB78EDF68723159BCEE7891A6B95DDE9D3
310
BCEAEEE8086A6C6F9E5D4B59F0175C10A7A0820BAA5055C7473B5AE3CFDD452D602CD5DF12616444529E90D448938013FE6EFA58AA96F85E4F8C42275708571E98FE6827AF6B2B4AE3D7D83D64E5A64C53054DD3AF90BD06FEA9149565C94FCA0F6B834DC85599E4F2423B24DF0B6AFA979E534DFA9E7A4CC6FA631D486393
310
921829879BF5D781A373557BCB85E97FB90DB62B558F8795179C15944B051F40AB495CF35451D26A4727654E6D8033BD98EF82F21D91FF8AF2DD9982BCF1643BDD4EB516C9492E368C67C88DED563FC36D5EACF66DFF057C3658BDBFA69DF9578B3DA735B64F18C7F20770A9D45CFCF7FCF563D6456A277DBEF78A02637CA2
310
43B90A490AEAB94F72244481D24819A6C0E59B606BFA4B3025981DBB48EAB701D97BF19C577CC77F2D1B6C55A9EF3C732474C0B727303F625995056C3B02963D9EAC146BE78EC5FCEC7FA999EBC5EACBAAE41B12D27B4D2C0BBA49F244E2ECDC81B76B502F113D8F5EE8FB1BE3111CDD4FC2AA9B844CAB1288B68AB90A7CDC
310
1C166AB0D3DC5310625FCC14E779BFD0709F8890A629C9292B1B2DED31A4B0DA928CEE135085754027E3018A397D4D5427D15BD1330B677DC8934285AC3DF45A9EB68FF8F2B8FC0A509AFEECFD0FF2DE25CC6047F7214B195F07EFEB9A094D800F7BFAE8FED187B78EA8A3A400F115961BCAD1215E47C966530AF0EE8128FE
310
58CEBB996A8964FFA529A046635D9353B0336A8F700DDF46271A024E70B0B37C9DE01847591E54DED53D54202AB947E4076556AC49C6CA5C9E1226B7F1A7B1BE15DEED62C41B91E1B3E9AFAAA735036547343A925075041DF0A9979E893B391F8FCFA6967B3EFB644DCF6E5CEBFAE272625DCC6FAF3FB93793C5F90CE1EF57
310
407342756B10D1C489E8953CD1617E5CEECAD6F4EF8914CE5D5D504E5C3F1F9736DA62CFC11E00BCDDB8CC8A9466349744C1F75EBDA4DF09BA8A9E8C7A7E9991989E20E5DBDD6A6003664ED8F7A04A8DBE0DF6EAD9B9AA858342E47399053949D2C146EDB85DE4B176BB0965FBAC19BD19AA918E27FA50C1D22402E144464C
310
59462568E704B6E71915404CB72B8FF4EDE184DDAF753F284990D2C6926782963815403548A70C657FDEF80D2D9CEAA2AE4C1C76F60BFE74219A06527D6582DF6412526107381E55E353090704D085B52408D0933C4ED159D79BDA71BB4BC506F4831350EB6F979CD22D69BF7AC49B91A2C0A9DDA3D5CA36AD20FC478E37E6
310
1844E2352865EBCB6EA275A652E3836BE04EFB400BF1A2556F515F1FBB35B2AB35BD889C744FFA1004B5544B121E57F70215746DD2F5E2C1412B602CBF19455AC6C8E5E9922C4E01E65215385004546899059180EAFCF7A707CE7017CD8CDB0410789AB32C63B91E5CEBBBACB17AC6CD347A022D5075FD106377347AAABA7E
310
7D11590744509B44E205134DC1290F06580320F78E537D3D73540E06CB970B431F185308AD40BBD794D6D77003C5A36E8EAA54BA64597CD8F83BD552A080A365F7FF06504B0304140006080000CC70623B000000000000000000000000350000006662782F39464131463745442D413632322D343644302D413938332D3331
310
353338454246344243312F76657274696365732E62696E504B0304140006080800CC70623BF270F1330600000004000000360000006662782F39464131463745442D413632322D343644302D413938332D3331353338454246344243312F747269616E676C65732E62696E636660600000504B0304140006080000CC70623B
310
000000000000000000000000370000006662782F39464131463745442D413632322D343644302D413938332D3331353338454246344243312F617474726962757465732E62696E504B0304140006080800CC70623B08DA0BD19000000041010000360000006662782F39464131463745442D413632322D343644302D413938
310
332D3331353338454246344243312F6469726563746F72792E786D6C858F410AC3201045AF22B36F53E9A60B35CBEEBAE80D244E44489C6234F4F835464A48035D0DF398FF9F8AF63D0E6CC63039F212F8F9020C7D47C6792B21C5FE7403D62A1188E2E60C98D7234A5830286103A55745067B9D86B8A3CF9C7F90C11DE607
310
FB144396D7B6A82D282E9A152AD114D5EF2CB866EEE831B8EEA07A7BB5A8D7D61A2BAAEB7FD5F70921FF497D00504B0304140006080800CC70623B0D6EF93BFE000000A00100003B0000006662782F39464131463745442D413632322D343644302D413938332D3331353338454246344243312F7265736F75726365732F63
310
6F72652E786D6C8D50596E833010BD0A9ADFCA60B334011947A8694ED00B586642AC041B79A97AFC9A40A5F6AF3F33A3B7689E1E3F7DCD8FEC139DD7D6F4C0720A191A65476DA61E62B892236427C19DB5E1970C322367EC618541F0C9D9B8EC90B226A009093576C41D94DE63804C3DD2D18357379C652E63480A7FCF17A9
310
EE72C29CE5894E3AC17D702940B63D59270887DE46A7D0F36263058F518FBB468FE9A7BE6A7420864373B8D4873369AA8691FA421B3294352543C5CAF65C0F6FEF43CB8BD52C78D0F34F46E550061C419494B6843142CB0F5677F4B52BEB177AEC28E5C52AFF638ACBF84F53D42654E51E77B379102C05791282176B5F693D
310
CB4C7BED567C03504B010214000A0000080000CC70623B3DEE336E79000000790000001B00000000000000000000000000000000006175746F6465736B2D64657369676E2D7061636B6167652E786D6C504B01021400140006080800CC70623BD486FD9CA0000000F40000001300000000000000000000000000B20000005B
310
436F6E74656E745F54797065735D2E786D6C504B01021400140006080800CC70623B1EC5D7A3EB0000007C010000080000000000000000000000000083010000636F72652E786D6C504B01021400140006080800CC70623B55019EA25F0000007C000000070000000000000000000000000094020000636E782E786D6C504B
310
01021400140006080800CC70623B8C9102E971010000D40300000C00000000000000000000000000180300006662782F636F72652E786D6C504B01021400140006080800CC70623BFFEA85907E0000009D0000000B00000000000000000000000000B30400006662782F636E782E786D6C504B01021400140006080800CC70
310
623B4FEEA4082C0100001202000031000000000000000000000000005A0500006662782F39464131463745442D413632322D343644302D413938332D3331353338454246344243312F636F72652E786D6C504B01021400140006080800CC70623BAD7543B64E010000330300003000000000000000000000000000D5060000
310
6662782F39464131463745442D413632322D343644302D413938332D3331353338454246344243312F636E782E786D6C504B01021400140006080800CC70623B16AB87BA640500003C1000003400000000000000000000000000710800006662782F39464131463745442D413632322D343644302D413938332D3331353338
310
454246344243312F6F626A656374732E786D6C504B01021400140006080000CC70623B0000000000000000000000003500000000000000000000000000270E00006662782F39464131463745442D413632322D343644302D413938332D3331353338454246344243312F76657274696365732E62696E504B01021400140006
310
080800CC70623BF270F133060000000400000036000000000000000000000000007A0E00006662782F39464131463745442D413632322D343644302D413938332D3331353338454246344243312F747269616E676C65732E62696E504B01021400140006080000CC70623B0000000000000000000000003700000000000000
310
000000000000D40E00006662782F39464131463745442D413632322D343644302D413938332D3331353338454246344243312F617474726962757465732E62696E504B01021400140006080800CC70623B08DA0BD190000000410100003600000000000000000000000000290F00006662782F39464131463745442D413632
310
322D343644302D413938332D3331353338454246344243312F6469726563746F72792E786D6C504B01021400140006080800CC70623B0D6EF93BFE000000A00100003B000000000000000000000000000D1000006662782F39464131463745442D413632322D343644302D413938332D3331353338454246344243312F7265
310
736F75726365732F636F72652E786D6C504B0506000000000E000E0080040000641100000000
  0
XRECORD
  5
D
102
{ACAD_REACTORS
330
C
102
}
330
C
100
AcDbXrecord
280
     1
270
     1
271
     1
  0
XRECORD
  5
E
102
{ACAD_REACTORS
330
C
102
}
330
C
100
AcDbXrecord
280
     1
270
     1
271
     1
  0
XRECORD
  5
F
102
{ACAD_REACTORS
330
C
102
}
330
C
100
AcDbXrecord
280
     1
 70
     0
 90
1673772943
  1
ECE7A1D2-D628-4531-984C-D00F80459256
310
504B03040A0000080000CC70623B3DEE336E79000000790000001B0000006175746F6465736B2D64657369676E2D7061636B6167652E786D6C3C3F786D6C2076657273696F6E3D22312E302220656E636F64696E673D227574662D3822203F3E3C666F726D6174733E3C666F726D61743E687474703A2F2F736368656D612E
310
6175746F6465736B2E636F6D2F64657369676E2D7061636B6167652F323030393C2F666F726D61743E3C2F666F726D6174733E504B0304140006080800CC70623BD486FD9CA0000000F4000000130000005B436F6E74656E745F54797065735D2E786D6C7D8EC10E82300C865F65E91D8A1E8C310C0EEA1BF002731658846E
310
D98AC1B77784ABF1D8FE5FBFBF75BBCE937A534CCEB38643598122B6FEE978D0B0485F9C41B54DDD7D022595594E1A469170414C76A4D9A4D207E29CF43ECE46F218070CC6BECC4078ACAA135ACF422C856C0E68EA1BF5669944DDD7BCDE7B1F8E415D77AECB980613C2E4AC91FC167A2B244592486606FC29C8FD7F045B9A
310
EF7053A7E60B504B0304140006080800CC70623BD9DDAED0EC0000007C01000008000000636F72652E786D6C8D90416EC3201045AF82665B61836D9CD8C2444DD39CA01740405C94182C03558F5F9C3852BBEB6A467FFE9B197D7EF89E6EE8CB2CC17A37002D0820E394D7D68D03A478C17B4007C117EFE32F1B20272733C0
310
2A83E0E3E2D3BC49CABB685CCCAAF3DA6CA20CC14440EA969B0182FA34932C648AD911AEC52CD5558EA6A0CF2EC329598D1E47ACCEFBECC59A050463A7EA5833865FEBDD0E37353BE3EE8DBDE3F6786A48D375FBF6CC78B9C282473B3DEFABC5C86834888A900E538A49F5419B9EB47DD5BC907D4F082F57FB1F28CDFA9F50
310
B22ED6D5F6EE030B20687EE43E10BC5CB3C8E51E54AE6B6EE207504B0304140006080800CC70623B55019EA25F0000007C00000007000000636E782E786D6C4DCB3B0E80201045D1AD90E915ED2CF8AC45050C11660C8261F98AB1B07AC9C97D42D718D865D3E909258CFD00CCE24AC6E326A164D74DC0B4128928FF326038
310
472BA13128B1252AC747C6BAB984FC68F0B87FE8960A5C09FE86CFB69FBA01504B0304140006080800CC70623BA24EB22D72010000D40300000C0000006662782F636F72652E786D6CC5535B6E833010BC8AE5DF0A6C5E49888CA3A6694ED00B38E05014B091B1518EDFE511A5A9D228FD2A1F60CDEC7A67C6986DCE4D8D7A
310
69BA4AAB0C073EC548AA5C17952A33ECECD15B61B4E1CC686DBF9561A44423333CC098B3D268D7CE50AE9595CA02AA74216750749DB418E5352C32DCE59FB211BE70162ABA93DF8AFC244AE9073ED050C759670D0840D390E18DF9F1706664C23973AE2A66B62A605A75ACA4C13C4976E1364A12EF355A2EBD384AF65EFA96
310
BC7B8BED2EA6719AAE16FB8491A199335B351775B991C2CA02F390D2D40B028F861F41BCA68B7518BFD0D59A524686F29B26D7164F36B94AD9289CE54E6D1DE6010819891F6E21228B3AD1831EC219194284CF98F06DD01008846CC5A1BEF83801D4CBDC6A1303536877A57A513B0953A94FC707FDBE6064EA84A9E3E6E0FA
310
EE8CF0E9198F7784A316AA0413C2C2F2E0ECA0934D1AE6D05A69BCDE9E91D2A611F573361E38FC1375157F5752AE6B6DFE4B11990F88CCBF0719EE23FF02504B0304140006080800CC70623B408A7D3B7C0000009D0000000B0000006662782F636E782E786D6C4DCCD10A83201886E15B91FFDC552A92A0064DBC8F581632
310
D3703A76F9ABD1C18E3E78F878E5F0D9027ABBFCF2292AE86E2D20171F69F6715550CB827B40839639A5F2770314A7CD293819B45C73AAFB45B35BA61ACAA1C1C7E7855C58C15BC331339661262CC762340413D68D77DA5B42298546CBE6573AF60CEB2F504B0304140006080800CC70623B449FB9BD290100001202000031
310
0000006662782F36394639363044362D344446342D343946362D394244322D3234314243333846323333332F636F72652E786D6C8D515B6EC32010BC0AE22B55850D98B871848994463E412FE002495162B07854397EA176A4F62F3F2C9A9D991D587EB84F37F0AD7D30CEF6905418026DA553C65E7A98E219ED203808EE9D
310
8B7F6810D871D23D2C3014FCE25D9A57483A1BB58D19B54EE9151C43D0110279CB971E06F9A5A7B11A53CC8C70ADE6515EC78BAE4895DB992778883E0700CB907242D17643D7E2538BD869608875438BBAE38922CAC8F1BDD90DB4691A5E2F42C153326A951B95E398B3D1FE599322163C9AE9115F7A3D46ADA0A018778810
310
84E907617BDCEE297BC5BB3DC6BC2EF47FA234AB2745C9D8D8D035EE220B50105E2F0DC1954B9FB747187D9F9D8FA0CCDB042D5FA0C015C65B42DF78BD10F3F3B363CB56C7109DCFDFBBB97E662ED92EB62D13BC2E1BCAE5777DB9966D8A1F504B0304140006080800CC70623BAD7543B64E01000033030000300000006662
310
782F36394639363044362D344446342D343946362D394244322D3234314243333846323333332F636E782E786D6CD593CD6EC32010845F0571AD6CE3D48AD20813A9873E410FBD12D82434182C7EAAE6EDBB2424CD25871E7B41D6EC30B3FA84F9E67BB2E40B4234DE8DB46F1925E094D7C6ED479AD3AE5951B2113C789FEE
310
6C943839C1488B4C05DF079FE72A69D8C96C13AAD6B8631503449F83828872B949AC57D26200B826A308D316B4064D6E46FCDA41C05550DC9E483A00797BFD207EFB092A45DE9514C1BBD22178396BD39D891265658C238DEA00936C654E5E433CB65A26D9F6EDB5EBC14EBF49A45CB856E66048291F6939A9A81BB5C89177
310
38143CA680F4AA299D66A042CEB3354A2684DC9D8D178FE0D9B8B41CAAD720F880EE7EF93C0C18769E099ECC04D5A102C8049A8A05632F4DDF376CF1DE0F6BB65C2F8627B65A33C6BB62177CEBBDAD973006829F89F22E814B54F4BC2BE347F8AA8F681390B50FA73F804400B5F542E796F19FF974E7F78DB802FE05E20750
310
4B0304140006080800CC70623B8D05915C650500003B100000340000006662782F36394639363044362D344446342D343946362D394244322D3234314243333846323333332F6F626A656374732E786D6CAD575B6FA33814FE2B887D06429276DA1565D4266D158D3A339A6846FB502932E050B66023DB74D2FDF5FB190C01
310
9276B2973C046C8ECFF53B17071F77456EBD502133CEAE6CDF9DD81665314F32965ED995DA3A17B6F5310C04E7AA47665B8C14F4CAD6DB7618A48257A5D94AE89654B91AEDDEDDFC61C998326A5B714EA4BCB265FC440BE2924AF184CA6737218AB8E976E7FA6E4338649B0A523E8D98964450A6A029F619B8588D52FE7039
310
B1BD30F0F4F730D0FF866AF6369557DB33949F31A9088B0F848DD8CCFCF9F2767A76E99CCDE733677E3EF59D9BBB9BA5E37F984D16E78BC5E5F5ED25044B25C0C96822E8D60EEFE11B91C581D77CEA34368A1F5329E68CD1B8B61F16D63A1B8E092D294B10C78C4A48EB593D192E7DED9BDEE7995E1B91FDEDD3ACEA9FE831
310
6A756F9F7D4D79F4274C90A7A04248AA51D5F8C718DAE06FB2F75AC4796EBE65D22A88A22223B995679120E2D50E41AA49C260C046A35368846B0BECD0DFF3EBEB8AD4F835768F69B9ADF25C43D30E6B646F807FAA64AD59F61715C7A54127C4AACA98BA3006A9D792DAE165E0D59B61A01FB3A9F9D838D2DAE62445C86166
310
F37564E842E7DE6A69879FEEA2DD5AE7E371E1A5E025154AC307D06A03D73EB5978C58FFA4C8E9033066E0F3BD53BEC1F39F91BE7B55103791EDE6BBB991A2046172CB4581D8B893FA674DDA17A77B3B7C413D1B511FD2743BFF8A38F03A658705E3ADF8015C3A3417FF3D7E439FF591DA0B5F18BC20C1B8981957AE6392A3
310
F43C640C01D1A0B4728E2DD4F26DB4B3C3152A252A3B4E913CEC1C72F012782FF88EFF8637AA552DBEF76408E8A8DE9E50F9E1CB3A2DA0DB1B6039A893B56063DC5B3E3FFB5F72E67AB9FEB4AEC496C4F4C1149625DD662C53E89D7BF0F6151A046260D1337DFDC94502430F83B0EE07A130A224BCAD7DAE1D9FB6CD422FF6
310
920702629C4BB9AE79C12F243C6432A6794E18E5552BA56B431AAB5D91317302B2B071E86C3A42B1A02F999E24061403B5D0EB639195DA655DD3EBEAB4FB862DDF579F014AD0E73C22F99E28DA57FB98E75C6CA2D74D53086D600F4786E0FE3144B771A8A7B900F03594DB8A633CBC49B2EDB69228BB479CF863B5E807AAAB
310
23872F6DFEB4129B949CA33823F58830E86D65621E10047D9DB34D862E8EAC3C2ABC2F7B2C40D67CDFE01F5545B92105AF983AC54D93D69E56FB8E797F88913F898A9FEC705D3F9D1B54EC8426FB500D40A03BD0119B06E1B95DDC7EB8F6975367793EBD70E66733DFB9BC982F9CE564727731999F5D4ECFCE3B8D6A4DC2A0
310
6D50FD148437D110834A64C6CDDF57FBACB5C307A2A477DFE4939736CFEF2B175371E0E10CF0DD1D5C15654E0BCA14D1E87DD02FF93782A162C0A3D95F1524A52770F972BF1EE9809D13CE7DD599467F8ECE9ADD85CE85A34CD45355448C64F9E8A031DC2D596ACC6E5DD93D9B82DE2EF5CAF81363A8E47996A0DE24564A79
310
4115AACE09C55E14540231FDA13C319787134EBF34E3A022514E5B4D9E0826E25C02D5805B15ABE1BEF51B26383D445DD9E875EE33FE4C22DA16427D65A3BCA92CA6D28DD01DF5DC53330704308475351050232CCD31583787BA75774AFB06E5070DD0C8EF484E19968C5D83BA5B90B244D31E54D55A372320FE4786B7EA58
310
44E135AA5467CB7EA333A61683CC6A8C3257034C10CF46F40EF9F5BE59BE5BD30C3C72D235E95D10345C1D45445A5F0BB47E46A5EBE5570F9380B5FA629579952296A773720405982B9DE04011506178964401AA8BDF1FBF0A8EAB6861DD6580C0E38217056766716DAEB2D6FA0917D3E4116581EADB879C4E7CFFB11EFACD
310
3D641311495D92C8676CB409A72D18610D803CE8A626049E8EC1887CB5B44CC39883690DDA8399B4B9855B481E7D71D4A9D22F96E5BB73BF5793020C02137BF837504B0304140006080000CC70623B000000000000000000000000350000006662782F36394639363044362D344446342D343946362D394244322D32343142
310
43333846323333332F76657274696365732E62696E504B0304140006080800CC70623BF270F1330600000004000000360000006662782F36394639363044362D344446342D343946362D394244322D3234314243333846323333332F747269616E676C65732E62696E636660600000504B0304140006080000CC70623B0000
310
00000000000000000000370000006662782F36394639363044362D344446342D343946362D394244322D3234314243333846323333332F617474726962757465732E62696E504B0304140006080800CC70623B08DA0BD19000000041010000360000006662782F36394639363044362D344446342D343946362D394244322D
310
3234314243333846323333332F6469726563746F72792E786D6C858F410AC3201045AF22B36F53E9A60B35CBEEBAE80D244E44489C6234F4F835464A48035D0DF398FF9F8AF63D0E6CC63039F212F8F9020C7D47C6792B21C5FE7403D62A1188E2E60C98D7234A5830286103A55745067B9D86B8A3CF9C7F90C11DE607FB14
310
4396D7B6A82D282E9A152AD114D5EF2CB866EEE831B8EEA07A7BB5A8D7D61A2BAAEB7FD5F70921FF497D00504B0304140006080800CC70623BCA768048FE000000A00100003B0000006662782F36394639363044362D344446342D343946362D394244322D3234314243333846323333332F7265736F75726365732F636F72
310
652E786D6C8D50596E833010BD0A9ADFCA60D600328E9AA639412F609909B1126CE4A5EAF16B0295DABFFECC8CDEA2797AECF8353F924FB44E193D409E5248504B332A3D0D10FC95B4901C39B3C6F85F3248B49871801506CE266BC2B243D2688FDA47549B11775038871E12F988C7004EDE7016A9083E2ADC3D5D84BC8B09
310
D33C8D74D471E6BC8D0192EDC93A815B742658898E651BCB59086ADC356A8C3FD555A1055ED7E7E254D615792D0F075295F585746FF53B694EE78A565DD736979A65AB9933AFE69F8CD2A2F038022F28ED489E135A7CE4554F9BBEA85E68DB53CAB255FEC71496F19FA6A0B42F8B3DEE6673C0F318E4497096AD7DC5F52C33
310
EEB55BFE0D504B010214000A0000080000CC70623B3DEE336E79000000790000001B00000000000000000000000000000000006175746F6465736B2D64657369676E2D7061636B6167652E786D6C504B01021400140006080800CC70623BD486FD9CA0000000F40000001300000000000000000000000000B20000005B436F
310
6E74656E745F54797065735D2E786D6C504B01021400140006080800CC70623BD9DDAED0EC0000007C010000080000000000000000000000000083010000636F72652E786D6C504B01021400140006080800CC70623B55019EA25F0000007C000000070000000000000000000000000095020000636E782E786D6C504B0102
310
1400140006080800CC70623BA24EB22D72010000D40300000C00000000000000000000000000190300006662782F636F72652E786D6C504B01021400140006080800CC70623B408A7D3B7C0000009D0000000B00000000000000000000000000B50400006662782F636E782E786D6C504B01021400140006080800CC70623B
310
449FB9BD290100001202000031000000000000000000000000005A0500006662782F36394639363044362D344446342D343946362D394244322D3234314243333846323333332F636F72652E786D6C504B01021400140006080800CC70623BAD7543B64E010000330300003000000000000000000000000000D20600006662
310
782F36394639363044362D344446342D343946362D394244322D3234314243333846323333332F636E782E786D6C504B01021400140006080800CC70623B8D05915C650500003B10000034000000000000000000000000006E0800006662782F36394639363044362D344446342D343946362D394244322D32343142433338
310
46323333332F6F626A656374732E786D6C504B01021400140006080000CC70623B0000000000000000000000003500000000000000000000000000250E00006662782F36394639363044362D344446342D343946362D394244322D3234314243333846323333332F76657274696365732E62696E504B010214001400060808
310
00CC70623BF270F13306000000040000003600000000000000000000000000780E00006662782F36394639363044362D344446342D343946362D394244322D3234314243333846323333332F747269616E676C65732E62696E504B01021400140006080000CC70623B00000000000000000000000037000000000000000000
310
00000000D20E00006662782F36394639363044362D344446342D343946362D394244322D3234314243333846323333332F617474726962757465732E62696E504B01021400140006080800CC70623B08DA0BD190000000410100003600000000000000000000000000270F00006662782F36394639363044362D344446342D
310
343946362D394244322D3234314243333846323333332F6469726563746F72792E786D6C504B01021400140006080800CC70623BCA768048FE000000A00100003B000000000000000000000000000B1000006662782F36394639363044362D344446342D343946362D394244322D3234314243333846323333332F7265736F
310
75726365732F636F72652E786D6C504B0506000000000E000E0080040000621100000000
  0
XRECORD
  5
10
102
{ACAD_REACTORS
330
C
102
}
330
C
100
AcDbXrecord
280
     1
270
     1
271
     1
  0
XRECORD
  5
11
102
{ACAD_REACTORS
330
C
102
}
330
C
100
AcDbXrecord
280
     1
270
     1
271
     1
  0
CELLSTYLEMAP
  5
268
102
{ACAD_REACTORS
330
44
102
}
330
44
100
AcDbCellStyleMap
 90
        3
300
CELLSTYLE
  1
TABLEFORMAT_BEGIN
 90
        5
170
     1
 91
        0
 92
    32768
 62
   257
 93
        1
300
CONTENTFORMAT
  1
CONTENTFORMAT_BEGIN
 90
        0
 91
        0
 92
      512
 93
        0
300

 40
0.0
140
1.0
 94
        5
 62
     0
340
21
144
6.0
309
CONTENTFORMAT_END
171
     1
301
MARGIN
  1
CELLMARGIN_BEGIN
 40
1.5
 40
1.5
 40
1.5
 40
1.5
 40
4.5
 40
4.5
309
CELLMARGIN_END
 94
        6
 95
        1
302
GRIDFORMAT
  1
GRIDFORMAT_BEGIN
 90
        0
 91
        1
 62
     0
 92
       -2
340
24
 93
        0
 40
1.125
309
GRIDFORMAT_END
 95
        2
302
GRIDFORMAT
  1
GRIDFORMAT_BEGIN
 90
        0
 91
        1
 62
     0
 92
       -2
340
24
 93
        0
 40
1.125
309
GRIDFORMAT_END
 95
        4
302
GRIDFORMAT
  1
GRIDFORMAT_BEGIN
 90
        0
 91
        1
 62
     0
 92
       -2
340
24
 93
        0
 40
1.125
309
GRIDFORMAT_END
 95
        8
302
GRIDFORMAT
  1
GRIDFORMAT_BEGIN
 90
        0
 91
        1
 62
     0
 92
       -2
340
24
 93
        0
 40
1.125
309
GRIDFORMAT_END
 95
       16
302
GRIDFORMAT
  1
GRIDFORMAT_BEGIN
 90
        0
 91
        1
 62
     0
 92
       -2
340
24
 93
        0
 40
1.125
309
GRIDFORMAT_END
 95
       32
302
GRIDFORMAT
  1
GRIDFORMAT_BEGIN
 90
        0
 91
        1
 62
     0
 92
       -2
340
24
 93
        0
 40
1.125
309
GRIDFORMAT_END
309
TABLEFORMAT_END
  1
CELLSTYLE_BEGIN
 90
        1
 91
        1
300
_TITLE
309
CELLSTYLE_END
300
CELLSTYLE
  1
TABLEFORMAT_BEGIN
 90
        5
170
     1
 91
        0
 92
        0
 62
   257
 93
        1
300
CONTENTFORMAT
  1
CONTENTFORMAT_BEGIN
 90
        0
 91
        0
 92
      512
 93
        0
300

 40
0.0
140
1.0
 94
        5
 62
     0
340
21
144
4.5
309
CONTENTFORMAT_END
171
     1
301
MARGIN
  1
CELLMARGIN_BEGIN
 40
1.5
 40
1.5
 40
1.5
 40
1.5
 40
4.5
 40
4.5
309
CELLMARGIN_END
 94
        6
 95
        1
302
GRIDFORMAT
  1
GRIDFORMAT_BEGIN
 90
        0
 91
        1
 62
     0
 92
       -2
340
24
 93
        0
 40
1.125
309
GRIDFORMAT_END
 95
        2
302
GRIDFORMAT
  1
GRIDFORMAT_BEGIN
 90
        0
 91
        1
 62
     0
 92
       -2
340
24
 93
        0
 40
1.125
309
GRIDFORMAT_END
 95
        4
302
GRIDFORMAT
  1
GRIDFORMAT_BEGIN
 90
        0
 91
        1
 62
     0
 92
       -2
340
24
 93
        0
 40
1.125
309
GRIDFORMAT_END
 95
        8
302
GRIDFORMAT
  1
GRIDFORMAT_BEGIN
 90
        0
 91
        1
 62
     0
 92
       -2
340
24
 93
        0
 40
1.125
309
GRIDFORMAT_END
 95
       16
302
GRIDFORMAT
  1
GRIDFORMAT_BEGIN
 90
        0
 91
        1
 62
     0
 92
       -2
340
24
 93
        0
 40
1.125
309
GRIDFORMAT_END
 95
       32
302
GRIDFORMAT
  1
GRIDFORMAT_BEGIN
 90
        0
 91
        1
 62
     0
 92
       -2
340
24
 93
        0
 40
1.125
309
GRIDFORMAT_END
309
TABLEFORMAT_END
  1
CELLSTYLE_BEGIN
 90
        2
 91
        1
300
_HEADER
309
CELLSTYLE_END
300
CELLSTYLE
  1
TABLEFORMAT_BEGIN
 90
        5
170
     1
 91
        0
 92
        0
 62
   257
 93
        1
300
CONTENTFORMAT
  1
CONTENTFORMAT_BEGIN
 90
        0
 91
        0
 92
      512
 93
        0
300

 40
0.0
140
1.0
 94
        2
 62
     0
340
21
144
4.5
309
CONTENTFORMAT_END
171
     1
301
MARGIN
  1
CELLMARGIN_BEGIN
 40
1.5
 40
1.5
 40
1.5
 40
1.5
 40
4.5
 40
4.5
309
CELLMARGIN_END
 94
        6
 95
        1
302
GRIDFORMAT
  1
GRIDFORMAT_BEGIN
 90
        0
 91
        1
 62
     0
 92
       -2
340
24
 93
        0
 40
1.125
309
GRIDFORMAT_END
 95
        2
302
GRIDFORMAT
  1
GRIDFORMAT_BEGIN
 90
        0
 91
        1
 62
     0
 92
       -2
340
24
 93
        0
 40
1.125
309
GRIDFORMAT_END
 95
        4
302
GRIDFORMAT
  1
GRIDFORMAT_BEGIN
 90
        0
 91
        1
 62
     0
 92
       -2
340
24
 93
        0
 40
1.125
309
GRIDFORMAT_END
 95
        8
302
GRIDFORMAT
  1
GRIDFORMAT_BEGIN
 90
        0
 91
        1
 62
     0
 92
       -2
340
24
 93
        0
 40
1.125
309
GRIDFORMAT_END
 95
       16
302
GRIDFORMAT
  1
GRIDFORMAT_BEGIN
 90
        0
 91
        1
 62
     0
 92
       -2
340
24
 93
        0
 40
1.125
309
GRIDFORMAT_END
 95
       32
302
GRIDFORMAT
  1
GRIDFORMAT_BEGIN
 90
        0
 91
        1
 62
     0
 92
       -2
340
24
 93
        0
 40
1.125
309
GRIDFORMAT_END
309
TABLEFORMAT_END
  1
CELLSTYLE_BEGIN
 90
        3
 91
        2
300
_DATA
309
CELLSTYLE_END
  0
ENDSEC
  0
SECTION
  2
ACDSDATA
 70
     2
 71
     8
  0
ACDSSCHEMA
 90
        0
  1
AcDb_Thumbnail_Schema
  2
AcDbDs::ID
280
    10
 91
        8
  2
Thumbnail_Data
280
    15
 91
        0
101
ACDSRECORD
 95
        0
 90
        1
  2
AcDbDs::TreatedAsObjectData
280
     1
291
     1
101
ACDSRECORD
 95
        0
 90
        2
  2
AcDbDs::Legacy
280
     1
291
     1
101
ACDSRECORD
  1
AcDbDs::ID
 90
        3
  2
AcDs:Indexable
280
     1
291
     1
101
ACDSRECORD
  1
AcDbDs::ID
 90
        4
  2
AcDbDs::HandleAttribute
280
     7
282
     1
  0
ACDSSCHEMA
 90
        1
  1
AcDbDs::TreatedAsObjectDataSchema
  2
AcDbDs::TreatedAsObjectData
280
     1
 91
        0
  0
ACDSSCHEMA
 90
        2
  1
AcDbDs::LegacySchema
  2
AcDbDs::Legacy
280
     1
 91
        0
  0
ACDSSCHEMA
 90
        3
  1
AcDbDs::IndexedPropertySchema
  2
AcDs:Indexable
280
     1
 91
        0
  0
ACDSSCHEMA
 90
        4
  1
AcDbDs::HandleAttributeSchema
  2
AcDbDs::HandleAttribute
280
     7
 91
        1
284
     1
  0
ACDSRECORD
 90
        0
  2
AcDbDs::ID
280
    10
320
15
  2
Thumbnail_Data
280
    15
 94
      896
310
89504E470D0A1A0A0000000D49484452000001000000009108030000001BE1960600000300504C5445212830FFFFFF2128300000000000000000000000000000000000000000000000000000330000660000990000CC0000FF0033000033330033660033990033CC0033FF0066000066330066660066990066CC0066FF0099
310
000099330099660099990099CC0099FF00CC0000CC3300CC6600CC9900CCCC00CCFF00FF0000FF3300FF6600FF9900FFCC00FFFF3300003300333300663300993300CC3300FF3333003333333333663333993333CC3333FF3366003366333366663366993366CC3366FF3399003399333399663399993399CC3399FF33CC00
310
33CC3333CC6633CC9933CCCC33CCFF33FF0033FF3333FF6633FF9933FFCC33FFFF6600006600336600666600996600CC6600FF6633006633336633666633996633CC6633FF6666006666336666666666996666CC6666FF6699006699336699666699996699CC6699FF66CC0066CC3366CC6666CC9966CCCC66CCFF66FF0066
310
FF3366FF6666FF9966FFCC66FFFF9900009900339900669900999900CC9900FF9933009933339933669933999933CC9933FF9966009966339966669966999966CC9966FF9999009999339999669999999999CC9999FF99CC0099CC3399CC6699CC9999CCCC99CCFF99FF0099FF3399FF6699FF9999FFCC99FFFFCC0000CC00
310
33CC0066CC0099CC00CCCC00FFCC3300CC3333CC3366CC3399CC33CCCC33FFCC6600CC6633CC6666CC6699CC66CCCC66FFCC9900CC9933CC9966CC9999CC99CCCC99FFCCCC00CCCC33CCCC66CCCC99CCCCCCCCCCFFCCFF00CCFF33CCFF66CCFF99CCFFCCCCFFFFFF0000FF0033FF0066FF0099FF00CCFF00FFFF3300FF3333
310
FF3366FF3399FF33CCFF33FFFF6600FF6633FF6666FF6699FF66CCFF66FFFF9900FF9933FF9966FF9999FF99CCFF99FFFFCC00FFCC33FFCC66FFCC99FFCCCCFFCCFFFFFF00FFFF33FFFF66FFFF99FFFFCCFFFFFF0000000D0D0D1A1A1A2828283535354343435050505D5D5D6B6B6B787878868686939393A1A1A1AEAEAEBB
310
BBBBC9C9C9D6D6D6E4E4E4F1F1F1FFFFFF0000000000000000000000000000000000000000000000000000000000002E4550F10000003B4944415478DAEDC13101000000C2A0F54F6D0B2FA0000000000000000000000000000000000000000000000000000000000000000000000000CE06919100016C9A5B1B0000000049
310
454E44AE426082
  0
ENDSEC
  0
EOF
