  0
SECTION
  2
HEADER
  9
$ACADVER
  1
AC1032
  9
$ACADMAINTVER
 90
        4
  9
$DWGCODEPAGE
  3
ANSI_932
  9
$REQUIREDVERSIONS
160
                 0
  9
$INSBASE
 10
0.0
 20
0.0
 30
0.0
  9
$EXTMIN
 10
387.7330647325546
 20
207.4430252884616
 30
0.0
  9
$EXTMAX
 10
437.7354379059879
 20
222.6392061836329
 30
0.0
  9
$LIMMIN
 10
0.0
 20
0.0
  9
$LIMMAX
 10
420.0
 20
297.0
  9
$ORTHOMODE
 70
     0
  9
$REGENMODE
 70
     1
  9
$FILLMODE
 70
     1
  9
$QTEXTMODE
 70
     0
  9
$MIRRTEXT
 70
     0
  9
$LTSCALE
 40
1.0
  9
$ATTMODE
 70
     1
  9
$TEXTSIZE
 40
2.5
  9
$TRACEWID
 40
1.0
  9
$TEXTSTYLE
  7
Standard
  9
$CLAYER
  8
0
  9
$CELTYPE
  6
ByLayer
  9
$CECOLOR
 62
   256
  9
$CELTSCALE
 40
1.0
  9
$DISPSILH
 70
     0
  9
$DIMSCALE
 40
1.0
  9
$DIMASZ
 40
2.5
  9
$DIMEXO
 40
0.625
  9
$DIMDLI
 40
3.75
  9
$DIMRND
 40
0.0
  9
$DIMDLE
 40
0.0
  9
$DIMEXE
 40
1.25
  9
$DIMTP
 40
0.0
  9
$DIMTM
 40
0.0
  9
$DIMTXT
 40
2.5
  9
$DIMCEN
 40
2.5
  9
$DIMTSZ
 40
0.0
  9
$DIMTOL
 70
     0
  9
$DIMLIM
 70
     0
  9
$DIMTIH
 70
     0
  9
$DIMTOH
 70
     0
  9
$DIMSE1
 70
     0
  9
$DIMSE2
 70
     0
  9
$DIMTAD
 70
     1
  9
$DIMZIN
 70
     8
  9
$DIMBLK
  1

  9
$DIMASO
 70
     1
  9
$DIMSHO
 70
     1
  9
$DIMPOST
  1

  9
$DIMAPOST
  1

  9
$DIMALT
 70
     0
  9
$DIMALTD
 70
     3
  9
$DIMALTF
 40
0.03937007874016
  9
$DIMLFAC
 40
1.0
  9
$DIMTOFL
 70
     1
  9
$DIMTVP
 40
0.0
  9
$DIMTIX
 70
     0
  9
$DIMSOXD
 70
     0
  9
$DIMSAH
 70
     0
  9
$DIMBLK1
  1

  9
$DIMBLK2
  1

  9
$DIMSTYLE
  2
ISO-25
  9
$DIMCLRD
 70
     0
  9
$DIMCLRE
 70
     0
  9
$DIMCLRT
 70
     0
  9
$DIMTFAC
 40
1.0
  9
$DIMGAP
 40
0.625
  9
$DIMJUST
 70
     0
  9
$DIMSD1
 70
     0
  9
$DIMSD2
 70
     0
  9
$DIMTOLJ
 70
     0
  9
$DIMTZIN
 70
     8
  9
$DIMALTZ
 70
     0
  9
$DIMALTTZ
 70
     0
  9
$DIMUPT
 70
     0
  9
$DIMDEC
 70
     2
  9
$DIMTDEC
 70
     2
  9
$DIMALTU
 70
     2
  9
$DIMALTTD
 70
     3
  9
$DIMTXSTY
  7
Standard
  9
$DIMAUNIT
 70
     0
  9
$DIMADEC
 70
     0
  9
$DIMALTRND
 40
0.0
  9
$DIMAZIN
 70
     0
  9
$DIMDSEP
 70
    44
  9
$DIMATFIT
 70
     3
  9
$DIMFRAC
 70
     0
  9
$DIMLDRBLK
  1

  9
$DIMLUNIT
 70
     2
  9
$DIMLWD
 70
    -2
  9
$DIMLWE
 70
    -2
  9
$DIMTMOVE
 70
     0
  9
$DIMFXL
 40
1.0
  9
$DIMFXLON
 70
     0
  9
$DIMJOGANG
 40
0.7853981633974483
  9
$DIMTFILL
 70
     0
  9
$DIMTFILLCLR
 70
     0
  9
$DIMARCSYM
 70
     0
  9
$DIMLTYPE
  6

  9
$DIMLTEX1
  6

  9
$DIMLTEX2
  6

  9
$DIMTXTDIRECTION
 70
     0
  9
$LUNITS
 70
     2
  9
$LUPREC
 70
     4
  9
$SKETCHINC
 40
1.0
  9
$FILLETRAD
 40
0.0
  9
$AUNITS
 70
     0
  9
$AUPREC
 70
     0
  9
$MENU
  1
.
  9
$ELEVATION
 40
0.0
  9
$PELEVATION
 40
0.0
  9
$THICKNESS
 40
0.0
  9
$LIMCHECK
 70
     0
  9
$CHAMFERA
 40
0.0
  9
$CHAMFERB
 40
0.0
  9
$CHAMFERC
 40
0.0
  9
$CHAMFERD
 40
0.0
  9
$SKPOLY
 70
     0
  9
$TDCREATE
 40
2459093.400891204
  9
$TDUCREATE
 40
2459093.067557871
  9
$TDUPDATE
 40
2459093.400891204
  9
$TDUUPDATE
 40
2459093.067557871
  9
$TDINDWG
 40
0.0003819444
  9
$TDUSRTIMER
 40
0.0003819444
  9
$USRTIMER
 70
     1
  9
$ANGBASE
 50
0.0
  9
$ANGDIR
 70
     0
  9
$PDMODE
 70
     0
  9
$PDSIZE
 40
0.0
  9
$PLINEWID
 40
0.0
  9
$SPLFRAME
 70
     0
  9
$SPLINETYPE
 70
     6
  9
$SPLINESEGS
 70
     8
  9
$HANDSEED
  5
274
  9
$SURFTAB1
 70
     6
  9
$SURFTAB2
 70
     6
  9
$SURFTYPE
 70
     6
  9
$SURFU
 70
     6
  9
$SURFV
 70
     6
  9
$UCSBASE
  2

  9
$UCSNAME
  2

  9
$UCSORG
 10
0.0
 20
0.0
 30
0.0
  9
$UCSXDIR
 10
1.0
 20
0.0
 30
0.0
  9
$UCSYDIR
 10
0.0
 20
1.0
 30
0.0
  9
$UCSORTHOREF
  2

  9
$UCSORTHOVIEW
 70
     0
  9
$UCSORGTOP
 10
0.0
 20
0.0
 30
0.0
  9
$UCSORGBOTTOM
 10
0.0
 20
0.0
 30
0.0
  9
$UCSORGLEFT
 10
0.0
 20
0.0
 30
0.0
  9
$UCSORGRIGHT
 10
0.0
 20
0.0
 30
0.0
  9
$UCSORGFRONT
 10
0.0
 20
0.0
 30
0.0
  9
$UCSORGBACK
 10
0.0
 20
0.0
 30
0.0
  9
$PUCSBASE
  2

  9
$PUCSNAME
  2

  9
$PUCSORG
 10
0.0
 20
0.0
 30
0.0
  9
$PUCSXDIR
 10
1.0
 20
0.0
 30
0.0
  9
$PUCSYDIR
 10
0.0
 20
1.0
 30
0.0
  9
$PUCSORTHOREF
  2

  9
$PUCSORTHOVIEW
 70
     0
  9
$PUCSORGTOP
 10
0.0
 20
0.0
 30
0.0
  9
$PUCSORGBOTTOM
 10
0.0
 20
0.0
 30
0.0
  9
$PUCSORGLEFT
 10
0.0
 20
0.0
 30
0.0
  9
$PUCSORGRIGHT
 10
0.0
 20
0.0
 30
0.0
  9
$PUCSORGFRONT
 10
0.0
 20
0.0
 30
0.0
  9
$PUCSORGBACK
 10
0.0
 20
0.0
 30
0.0
  9
$USERI1
 70
     0
  9
$USERI2
 70
     0
  9
$USERI3
 70
     0
  9
$USERI4
 70
     0
  9
$USERI5
 70
     0
  9
$USERR1
 40
0.0
  9
$USERR2
 40
0.0
  9
$USERR3
 40
0.0
  9
$USERR4
 40
0.0
  9
$USERR5
 40
0.0
  9
$WORLDVIEW
 70
     1
  9
$SHADEDGE
 70
     3
  9
$SHADEDIF
 70
    70
  9
$TILEMODE
 70
     1
  9
$MAXACTVP
 70
    64
  9
$PINSBASE
 10
0.0
 20
0.0
 30
0.0
  9
$PLIMCHECK
 70
     0
  9
$PEXTMIN
 10
0.0
 20
0.0
 30
0.0
  9
$PEXTMAX
 10
0.0
 20
0.0
 30
0.0
  9
$PLIMMIN
 10
0.0
 20
0.0
  9
$PLIMMAX
 10
12.0
 20
9.0
  9
$UNITMODE
 70
     0
  9
$VISRETAIN
 70
     1
  9
$PLINEGEN
 70
     0
  9
$PSLTSCALE
 70
     1
  9
$TREEDEPTH
 70
  3020
  9
$CMLSTYLE
  2
Standard
  9
$CMLJUST
 70
     0
  9
$CMLSCALE
 40
20.0
  9
$PROXYGRAPHICS
 70
     1
  9
$MEASUREMENT
 70
     1
  9
$CELWEIGHT
370
    -1
  9
$ENDCAPS
280
     0
  9
$JOINSTYLE
280
     0
  9
$LWDISPLAY
290
     0
  9
$INSUNITS
 70
     4
  9
$HYPERLINKBASE
  1

  9
$STYLESHEET
  1

  9
$XEDIT
290
     1
  9
$CEPSNTYPE
380
     0
  9
$PSTYLEMODE
290
     1
  9
$FINGERPRINTGUID
  2
{39295F8C-F9A8-D048-805A-D2F66EF9E499}
  9
$VERSIONGUID
  2
{0884754D-1740-0B47-BF07-D960D6583E1A}
  9
$EXTNAMES
290
     1
  9
$PSVPSCALE
 40
0.0
  9
$OLESTARTUP
290
     0
  9
$SORTENTS
280
   127
  9
$INDEXCTL
280
     0
  9
$HIDETEXT
280
     1
  9
$XCLIPFRAME
280
     2
  9
$HALOGAP
280
     0
  9
$OBSCOLOR
 70
   257
  9
$OBSLTYPE
280
     0
  9
$INTERSECTIONDISPLAY
280
     0
  9
$INTERSECTIONCOLOR
 70
   257
  9
$DIMASSOC
280
     2
  9
$PROJECTNAME
  1

  9
$CAMERADISPLAY
290
     0
  9
$LENSLENGTH
 40
50.0
  9
$CAMERAHEIGHT
 40
0.0
  9
$STEPSPERSEC
 40
2.0
  9
$STEPSIZE
 40
6.0
  9
$3DDWFPREC
 40
2.0
  9
$PSOLWIDTH
 40
5.0
  9
$PSOLHEIGHT
 40
80.0
  9
$LOFTANG1
 40
1.570796326794896
  9
$LOFTANG2
 40
1.570796326794896
  9
$LOFTMAG1
 40
0.0
  9
$LOFTMAG2
 40
0.0
  9
$LOFTPARAM
 70
     7
  9
$LOFTNORMALS
280
     1
  9
$LATITUDE
 40
37.795
  9
$LONGITUDE
 40
-122.394
  9
$NORTHDIRECTION
 40
0.0
  9
$TIMEZONE
 70
 -8000
  9
$LIGHTGLYPHDISPLAY
280
     1
  9
$TILEMODELIGHTSYNCH
280
     1
  9
$CMATERIAL
347
38
  9
$SOLIDHIST
280
     0
  9
$SHOWHIST
280
     1
  9
$DWFFRAME
280
     2
  9
$DGNFRAME
280
     0
  9
$REALWORLDSCALE
290
     1
  9
$INTERFERECOLOR
 62
     1
  9
$INTERFEREOBJVS
345
45
  9
$INTERFEREVPVS
346
46
  9
$CSHADOW
280
     0
  9
$SHADOWPLANELOCATION
 40
0.0
  0
ENDSEC
  0
SECTION
  2
CLASSES
  0
CLASS
  1
ACDBDICTIONARYWDFLT
  2
AcDbDictionaryWithDefault
  3
ObjectDBX Classes
 90
        0
 91
        1
280
     0
281
     0
  0
CLASS
  1
DICTIONARYVAR
  2
AcDbDictionaryVar
  3
ObjectDBX Classes
 90
        0
 91
        5
280
     0
281
     0
  0
CLASS
  1
TABLESTYLE
  2
AcDbTableStyle
  3
ObjectDBX Classes
 90
     4095
 91
        1
280
     0
281
     0
  0
CLASS
  1
MATERIAL
  2
AcDbMaterial
  3
ObjectDBX Classes
 90
     1153
 91
        3
280
     0
281
     0
  0
CLASS
  1
VISUALSTYLE
  2
AcDbVisualStyle
  3
ObjectDBX Classes
 90
     4095
 91
        3
280
     0
281
     0
  0
CLASS
  1
SCALE
  2
AcDbScale
  3
ObjectDBX Classes
 90
     1153
 91
       17
280
     0
281
     0
  0
CLASS
  1
MLEADERSTYLE
  2
AcDbMLeaderStyle
  3
ACDB_MLEADERSTYLE_CLASS
 90
     4095
 91
        0
280
     0
281
     0
  0
CLASS
  1
CELLSTYLEMAP
  2
AcDbCellStyleMap
  3
ObjectDBX Classes
 90
     1152
 91
        1
280
     0
281
     0
  0
CLASS
  1
EXACXREFPANELOBJECT
  2
ExAcXREFPanelObject
  3
EXAC_ESW
 90
     1025
 91
        0
280
     1
281
     0
  0
CLASS
  1
NPOCOLLECTION
  2
AcDbImpNonPersistentObjectsCollection
  3
ObjectDBX Classes
 90
     1153
 91
        0
280
     0
281
     0
  0
CLASS
  1
LAYER_INDEX
  2
AcDbLayerIndex
  3
ObjectDBX Classes
 90
        0
 91
        0
280
     0
281
     0
  0
CLASS
  1
SPATIAL_INDEX
  2
AcDbSpatialIndex
  3
ObjectDBX Classes
 90
        0
 91
        0
280
     0
281
     0
  0
CLASS
  1
IDBUFFER
  2
AcDbIdBuffer
  3
ObjectDBX Classes
 90
        0
 91
        0
280
     0
281
     0
  0
CLASS
  1
ACDBSECTIONVIEWSTYLE
  2
AcDbSectionViewStyle
  3
ObjectDBX Classes
 90
     1025
 91
        0
280
     0
281
     0
  0
CLASS
  1
ACDBDETAILVIEWSTYLE
  2
AcDbDetailViewStyle
  3
ObjectDBX Classes
 90
     1025
 91
        0
280
     0
281
     0
  0
ENDSEC
  0
SECTION
  2
TABLES
  0
TABLE
  2
VPORT
  5
28
330
0
100
AcDbSymbolTable
 70
     1
  0
VPORT
  5
29
330
28
100
AcDbSymbolTableRecord
100
AcDbViewportTableRecord
  2
*Active
 70
     0
 10
0.0
 20
0.0
 11
1.0
 21
1.0
 12
426.0303166585567
 22
213.1192477712097
 13
0.0
 23
0.0
 14
10.0
 24
10.0
 15
10.0
 25
10.0
 16
0.0
 26
0.0
 36
1.0
 17
0.0
 27
0.0
 37
0.0
 40
62.40213213300103
 41
2.070631970260222
 42
50.0
 43
0.0
 44
0.0
 50
0.0
 51
0.0
 71
     0
 72
  1000
 73
     1
 74
     3
 75
     0
 76
     1
 77
     0
 78
     0
281
     0
 65
     1
110
0.0
120
0.0
130
0.0
111
1.0
121
0.0
131
0.0
112
0.0
122
1.0
132
0.0
 79
     0
146
0.0
348
2A
 60
     3
 61
     5
292
     1
282
     1
141
0.0
142
0.0
 63
   250
421
  3355443
1001
ACAD_NAV_VCDISPLAY
1070
     3
  0
ENDTAB
  0
TABLE
  2
LTYPE
  5
23
330
0
100
AcDbSymbolTable
 70
     1
  0
LTYPE
  5
24
330
23
100
AcDbSymbolTableRecord
100
AcDbLinetypeTableRecord
  2
ByBlock
 70
     0
  3

 72
    65
 73
     0
 40
0.0
  0
LTYPE
  5
25
330
23
100
AcDbSymbolTableRecord
100
AcDbLinetypeTableRecord
  2
ByLayer
 70
     0
  3

 72
    65
 73
     0
 40
0.0
  0
LTYPE
  5
13
330
23
100
AcDbSymbolTableRecord
100
AcDbLinetypeTableRecord
  2
Continuous
 70
     0
  3
Solid line
 72
    65
 73
     0
 40
0.0
  0
ENDTAB
  0
TABLE
  2
LAYER
  5
1D
102
{ACAD_XDICTIONARY
360
1E
102
}
330
0
100
AcDbSymbolTable
 70
     1
  0
LAYER
  5
5
102
{ACAD_XDICTIONARY
360
6
102
}
330
1D
100
AcDbSymbolTableRecord
100
AcDbLayerTableRecord
  2
0
 70
     0
 62
     7
  6
Continuous
370
    -3
390
7
347
A
348
0
  0
ENDTAB
  0
TABLE
  2
STYLE
  5
20
330
0
100
AcDbSymbolTable
 70
     1
  0
STYLE
  5
21
330
20
100
AcDbSymbolTableRecord
100
AcDbTextStyleTableRecord
  2
Standard
 70
     0
 40
0.0
 41
1.0
 50
0.0
 71
     0
 42
2.5
  3
arial.ttf
  4

1001
ACAD
1000
Arial
1071
       34
  0
ENDTAB
  0
TABLE
  2
VIEW
  5
26
330
0
100
AcDbSymbolTable
 70
     0
  0
ENDTAB
  0
TABLE
  2
UCS
  5
27
330
0
100
AcDbSymbolTable
 70
     0
  0
ENDTAB
  0
TABLE
  2
APPID
  5
2D
330
0
100
AcDbSymbolTable
 70
     6
  0
APPID
  5
12
330
2D
100
AcDbSymbolTableRecord
100
AcDbRegAppTableRecord
  2
ACAD
 70
     0
  0
APPID
  5
18
330
2D
100
AcDbSymbolTableRecord
100
AcDbRegAppTableRecord
  2
ACAD_PSEXT
 70
     0
  0
APPID
  5
31
330
2D
100
AcDbSymbolTableRecord
100
AcDbRegAppTableRecord
  2
AcadAnnotative
 70
     0
  0
APPID
  5
32
330
2D
100
AcDbSymbolTableRecord
100
AcDbRegAppTableRecord
  2
ACAD_DSTYLE_DIMJAG
 70
     0
  0
APPID
  5
33
330
2D
100
AcDbSymbolTableRecord
100
AcDbRegAppTableRecord
  2
ACAD_DSTYLE_DIMTALN
 70
     0
  0
APPID
  5
2C
330
2D
100
AcDbSymbolTableRecord
100
AcDbRegAppTableRecord
  2
ACAD_NAV_VCDISPLAY
 70
     0
  0
ENDTAB
  0
TABLE
  2
DIMSTYLE
  5
2E
330
0
100
AcDbSymbolTable
 70
     2
100
AcDbDimStyleTable
 71
     2
340
2F
340
30
  0
DIMSTYLE
105
30
330
2E
100
AcDbSymbolTableRecord
100
AcDbDimStyleTableRecord
  2
Annotative
 70
     0
 40
0.0
 41
2.5
 42
0.625
 43
3.75
 44
1.25
 73
     0
 74
     0
 77
     1
 78
     8
140
2.5
141
2.5
143
0.03937007874016
147
0.625
171
     3
172
     1
271
     2
272
     2
274
     3
278
    44
283
     0
284
     8
340
21
1001
AcadAnnotative
1000
AnnotativeData
1002
{
1070
     1
1070
     1
1002
}
1001
ACAD_DSTYLE_DIMJAG
1070
   388
1040
1.5
1001
ACAD_DSTYLE_DIMTALN
1070
   392
1070
     0
  0
DIMSTYLE
105
2F
330
2E
100
AcDbSymbolTableRecord
100
AcDbDimStyleTableRecord
  2
ISO-25
 70
     0
 41
2.5
 42
0.625
 43
3.75
 44
1.25
 73
     0
 74
     0
 77
     1
 78
     8
140
2.5
141
2.5
143
0.03937007874016
147
0.625
171
     3
172
     1
271
     2
272
     2
274
     3
278
    44
283
     0
284
     8
340
21
  0
ENDTAB
  0
TABLE
  2
BLOCK_RECORD
  5
1
330
0
100
AcDbSymbolTable
 70
     0
  0
BLOCK_RECORD
  5
2
102
{ACAD_XDICTIONARY
360
3
102
}
330
1
100
AcDbSymbolTableRecord
100
AcDbBlockTableRecord
  2
*Model_Space
340
15
 70
     0
280
     1
281
     0
  0
BLOCK_RECORD
  5
19
330
1
100
AcDbSymbolTableRecord
100
AcDbBlockTableRecord
  2
*Paper_Space
340
1C
 70
     0
280
     1
281
     0
  0
ENDTAB
  0
ENDSEC
  0
SECTION
  2
BLOCKS
  0
BLOCK
  5
4
330
2
100
AcDbEntity
  8
0
100
AcDbBlockBegin
  2
*Model_Space
 70
     0
 10
0.0
 20
0.0
 30
0.0
  3
*Model_Space
  1

  0
ENDBLK
  5
14
330
2
100
AcDbEntity
  8
0
100
AcDbBlockEnd
  0
BLOCK
  5
1A
330
19
100
AcDbEntity
 67
     1
  8
0
100
AcDbBlockBegin
  2
*Paper_Space
 70
     0
 10
0.0
 20
0.0
 30
0.0
  3
*Paper_Space
  1

  0
ENDBLK
  5
1B
330
19
100
AcDbEntity
 67
     1
  8
0
100
AcDbBlockEnd
  0
ENDSEC
  0
SECTION
  2
ENTITIES
  0
LINE
  5
58
330
2
100
AcDbEntity
  8
0
100
AcDbLine
 10
396.1448675819715
 20
210.6707890312196
 30
0.0
 11
396.1531492396645
 21
210.6636169052899
 31
0.0
  0
LINE
  5
59
330
2
100
AcDbEntity
  8
0
100
AcDbLine
 10
396.234293875161
 20
210.7425060966857
 30
0.0
 11
396.1673221259841
 21
210.8005053328047
 31
0.0
  0
LINE
  5
5A
330
2
100
AcDbEntity
  8
0
100
AcDbLine
 10
395.884346356215
 20
209.7892951647647
 30
0.0
 11
395.9282122021264
 21
209.8019581437456
 31
0.0
  0
LINE
  5
5B
330
2
100
AcDbEntity
  8
0
100
AcDbLine
 10
396.0986192521277
 20
210.2077106460511
 30
0.0
 11
395.7522432689266
 21
210.1077205124634
 31
0.0
  0
LINE
  5
5C
330
2
100
AcDbEntity
  8
0
100
AcDbLine
 10
395.569175199515
 20
210.0548733128992
 30
0.0
 11
390.0101303059063
 21
208.450115280024
 31
0.0
  0
LINE
  5
5D
330
2
100
AcDbEntity
  8
0
100
AcDbLine
 10
390.0452515441142
 20
208.328451745788
 30
0.0
 11
395.6833200649595
 21
209.9560219348968
 31
0.0
  0
LINE
  5
5E
330
2
100
AcDbEntity
  8
0
100
AcDbLine
 10
395.7873645071345
 20
209.9860569782527
 30
0.0
 11
396.1248559374375
 21
210.0834823623157
 31
0.0
  0
LINE
  5
5F
330
2
100
AcDbEntity
  8
0
100
AcDbLine
 10
396.0888444136627
 20
210.3189415510864
 30
0.0
 11
395.7400851844362
 21
210.2182634336537
 31
0.0
  0
LINE
  5
60
330
2
100
AcDbEntity
  8
0
100
AcDbLine
 10
395.5157293059461
 20
210.1534974702436
 30
0.0
 11
390.0101303059063
 21
208.5641679378629
 31
0.0
  0
LINE
  5
61
330
2
100
AcDbEntity
  8
0
100
AcDbLine
 10
389.3149430184095
 20
207.8915594159017
 30
0.0
 11
390.0781674259876
 21
208.2055956009407
 31
0.0
  0
SPLINE
  5
62
330
2
100
AcDbEntity
  8
0
100
AcDbSpline
210
0.0
220
0.0
230
1.0
 70
     8
 71
     3
 72
    11
 73
     7
 74
     0
 42
0.000000001
 43
0.0000000001
 40
0.0
 40
0.0
 40
0.0
 40
0.0
 40
0.288480915054196
 40
0.5824362261441614
 40
0.8794350738355911
 40
1.0
 40
1.0
 40
1.0
 40
1.0
 10
389.9965784396483
 20
208.65940921759
 30
0.0
 10
389.9918150215017
 20
208.6630429160901
 30
0.0
 10
389.9821977915776
 20
208.6703792684476
 30
0.0
 10
389.9670629223771
 20
208.6763033699154
 30
0.0
 10
389.954923736069
 20
208.6786923439242
 30
0.0
 10
389.948438959837
 20
208.6775514420069
 30
0.0
 10
389.9465665834085
 20
208.6772220246484
 30
0.0
  0
LINE
  5
63
330
2
100
AcDbEntity
  8
0
100
AcDbLine
 10
389.9441102184188
 20
208.6774248575852
 30
0.0
 11
389.180736776271
 21
208.5507884543233
 31
0.0
  0
SPLINE
  5
64
330
2
100
AcDbEntity
  8
0
100
AcDbSpline
210
0.0
220
0.0
230
1.0
 70
     8
 71
     3
 72
    11
 73
     7
 74
     0
 42
0.000000001
 43
0.0000000001
 40
0.0
 40
0.0
 40
0.0
 40
0.0
 40
0.1584937289214008
 40
0.4445013613025068
 40
0.7258217437545471
 40
1.0
 40
1.0
 40
1.0
 40
1.0
 10
390.0807298088018
 20
208.2083395937289
 30
0.0
 10
390.084364595806
 20
208.2100098182301
 30
0.0
 10
390.0945584866461
 20
208.2146940228952
 30
0.0
 10
390.107006034199
 20
208.2333921827806
 30
0.0
 10
390.11725464338
 20
208.2611842578125
 30
0.0
 10
390.1188063981153
 20
208.2841522983663
 30
0.0
 10
390.1195722999156
 20
208.2954886669365
 30
0.0
  0
LINE
  5
65
330
2
100
AcDbEntity
  8
0
100
AcDbLine
 10
390.0477283534867
 20
208.6151294163737
 30
0.0
 11
389.9969491569544
 21
208.6591054905547
 31
0.0
  0
LINE
  5
66
330
2
100
AcDbEntity
  8
0
100
AcDbLine
 10
390.0743509731983
 20
208.5827068578672
 30
0.0
 11
390.0472336217757
 21
208.6155408249648
 31
0.0
  0
LINE
  5
67
330
2
100
AcDbEntity
  8
0
100
AcDbLine
 10
390.1197256356958
 20
208.2957075606457
 30
0.0
 11
390.1197256356958
 21
208.3499505522769
 31
0.0
  0
LINE
  5
68
330
2
100
AcDbEntity
  8
0
100
AcDbLine
 10
387.890563847503
 20
207.4430252884616
 30
0.0
 11
388.9959978065379
 21
207.7621365853679
 31
0.0
  0
LINE
  5
69
330
2
100
AcDbEntity
  8
0
100
AcDbLine
 10
389.1876178054125
 20
207.839169991479
 30
0.0
 11
389.2753494972602
 21
207.8752682329063
 31
0.0
  0
LINE
  5
6A
330
2
100
AcDbEntity
  8
0
100
AcDbLine
 10
389.0998619672566
 20
207.8030625519171
 30
0.0
 11
389.1876178054125
 21
207.839169991479
 31
0.0
  0
LINE
  5
6B
330
2
100
AcDbEntity
  8
0
100
AcDbLine
 10
388.9959978065379
 20
207.7621365853679
 30
0.0
 11
389.0998834989552
 21
207.8030710361292
 31
0.0
  0
LINE
  5
6C
330
2
100
AcDbEntity
  8
0
100
AcDbLine
 10
389.1411432550961
 20
208.5442203276218
 30
0.0
 11
389.0534115632737
 21
208.5296666020929
 31
0.0
  0
LINE
  5
6D
330
2
100
AcDbEntity
  8
0
100
AcDbLine
 10
389.0534115632737
 20
208.5296666020929
 30
0.0
 11
388.9656772568165
 21
208.5151121217647
 31
0.0
  0
LINE
  5
6E
330
2
100
AcDbEntity
  8
0
100
AcDbLine
 10
388.9656772568165
 20
208.5151121217647
 30
0.0
 11
388.892881324297
 21
208.5038745455823
 31
0.0
  0
LINE
  5
6F
330
2
100
AcDbEntity
  8
0
100
AcDbLine
 10
388.8836098465624
 20
208.5023911908514
 30
0.0
 11
387.7781758875532
 21
208.1832798939451
 31
0.0
  0
LINE
  5
70
330
2
100
AcDbEntity
  8
0
100
AcDbLine
 10
398.8738292786355
 20
211.8409965123444
 30
0.0
 11
398.4790314361142
 21
211.7270281920191
 31
0.0
  0
SPLINE
  5
71
330
2
100
AcDbEntity
  8
0
100
AcDbSpline
210
0.0
220
0.0
230
1.0
 70
     8
 71
     3
 72
     9
 73
     5
 74
     0
 42
0.000000001
 43
0.0000000001
 40
0.0
 40
0.0
 40
0.0
 40
0.0
 40
0.4646578829423549
 40
1.0
 40
1.0
 40
1.0
 40
1.0
 10
396.1303652658279
 20
210.190638981509
 30
0.0
 10
396.1325254002782
 20
210.1853896609803
 30
0.0
 10
396.1371742710488
 20
210.1740924878952
 30
0.0
 10
396.1440405906427
 20
210.1668245317331
 30
0.0
 10
396.1477164207107
 20
210.1629336886946
 30
0.0
  0
SPLINE
  5
72
330
2
100
AcDbEntity
  8
0
100
AcDbSpline
210
0.0
220
0.0
230
1.0
 70
     8
 71
     3
 72
    10
 73
     6
 74
     0
 42
0.000000001
 43
0.0000000001
 40
0.0
 40
0.0
 40
0.0
 40
0.0
 40
0.4121679544340319
 40
0.9576086483930687
 40
1.0
 40
1.0
 40
1.0
 40
1.0
 10
396.1240240911055
 20
210.2231729246836
 30
0.0
 10
396.1242802140092
 20
210.2188491984449
 30
0.0
 10
396.1248752760591
 20
210.2088036876402
 30
0.0
 10
396.1274066417092
 20
210.1968659889279
 30
0.0
 10
396.1301662569116
 20
210.1910578349857
 30
0.0
 10
396.1303652658279
 20
210.190638981509
 30
0.0
  0
LINE
  5
73
330
2
100
AcDbEntity
  8
0
100
AcDbLine
 10
396.1240240911057
 20
210.6412873259236
 30
0.0
 11
396.1240240911057
 21
210.2231729246919
 31
0.0
  0
LINE
  5
74
330
2
100
AcDbEntity
  8
0
100
AcDbLine
 10
396.147716420704
 20
210.1629336886934
 30
0.0
 11
396.6061221609997
 21
209.7640232801413
 31
0.0
  0
LINE
  5
75
330
2
100
AcDbEntity
  8
0
100
AcDbLine
 10
396.5372219068752
 20
211.0092347393409
 30
0.0
 11
396.472068954553
 21
210.9904267020402
 31
0.0
  0
LINE
  5
76
330
2
100
AcDbEntity
  8
0
100
AcDbLine
 10
396.4647506263426
 20
210.8090332337531
 30
0.0
 11
396.1638537230466
 21
210.7221717796925
 31
0.0
  0
LINE
  5
77
330
2
100
AcDbEntity
  8
0
100
AcDbLine
 10
396.1531493154154
 20
210.7044189558609
 30
0.0
 11
396.1531493154154
 21
210.6551863533348
 31
0.0
  0
SPLINE
  5
78
330
2
100
AcDbEntity
  8
0
100
AcDbSpline
210
0.0
220
0.0
230
1.0
 70
     8
 71
     3
 72
    12
 73
     8
 74
     0
 42
0.000000001
 43
0.0000000001
 40
0.0
 40
0.0
 40
0.0
 40
0.0
 40
0.0968518077387146
 40
0.3216093722615387
 40
0.5378526795031668
 40
0.7939299202436443
 40
1.0
 40
1.0
 40
1.0
 40
1.0
 10
396.1639356334702
 20
210.7219290755788
 30
0.0
 10
396.1632109917114
 20
210.7217844029179
 30
0.0
 10
396.1608047218995
 20
210.7213039980111
 30
0.0
 10
396.1575788262308
 20
210.7185192786839
 30
0.0
 10
396.1547710447653
 20
210.7142643015919
 30
0.0
 10
396.1533706839258
 20
210.7095088208092
 30
0.0
 10
396.1532175827604
 20
210.7059886080049
 30
0.0
 10
396.1531493154179
 20
210.704418955859
 30
0.0
  0
LINE
  5
79
330
2
100
AcDbEntity
  8
0
100
AcDbLine
 10
396.9993577350522
 20
209.8141948405912
 30
0.0
 11
397.0651565039192
 21
209.8331893090499
 31
0.0
  0
LINE
  5
7A
330
2
100
AcDbEntity
  8
0
100
AcDbLine
 10
396.626870120438
 20
209.7580506320702
 30
0.0
 11
396.9422782858476
 21
209.849101126674
 31
0.0
  0
SPLINE
  5
7B
330
2
100
AcDbEntity
  8
0
100
AcDbSpline
210
0.0
220
0.0
230
1.0
 70
     8
 71
     3
 72
    10
 73
     6
 74
     0
 42
0.000000001
 43
0.0000000001
 40
0.0
 40
0.0
 40
0.0
 40
0.0
 40
0.4979108748729176
 40
0.9042729628983835
 40
1.0
 40
1.0
 40
1.0
 40
1.0
 10
396.6061221609956
 20
209.7640232801441
 30
0.0
 10
396.6092253264795
 20
209.7618294865536
 30
0.0
 10
396.6148610914083
 20
209.7578452630102
 30
0.0
 10
396.6231003024382
 20
209.7564734728988
 30
0.0
 10
396.6265255320993
 20
209.7582371947059
 30
0.0
 10
396.6271785776852
 20
209.7585734614253
 30
0.0
  0
LINE
  5
7C
330
2
100
AcDbEntity
  8
0
100
AcDbLine
 10
433.2415531554288
 20
221.4126050297983
 30
0.0
 11
396.5361727187316
 21
210.8166743919016
 31
0.0
  0
LINE
  5
7D
330
2
100
AcDbEntity
  8
0
100
AcDbLine
 10
430.88212070794
 20
220.9237886750957
 30
0.0
 11
398.8729891507102
 21
211.683548314548
 31
0.0
  0
LINE
  5
7E
330
2
100
AcDbEntity
  8
0
100
AcDbLine
 10
398.4700100939302
 20
211.56721828111
 30
0.0
 11
396.5378368481217
 21
211.0094479093057
 31
0.0
  0
LINE
  5
7F
330
2
100
AcDbEntity
  8
0
100
AcDbLine
 10
397.0651565039192
 20
209.8332984703487
 30
0.0
 11
433.7761544962657
 21
220.4308507568981
 31
0.0
  0
SPLINE
  5
80
330
2
100
AcDbEntity
  8
0
100
AcDbSpline
210
0.0
220
0.0
230
1.0
 70
     8
 71
     3
 72
    12
 73
     8
 74
     0
 42
0.000000001
 43
0.0000000001
 40
0.0
 40
0.0
 40
0.0
 40
0.0
 40
0.1348112637584273
 40
0.3707574349550936
 40
0.6161089759815713
 40
0.8571646013278815
 40
1.0
 40
1.0
 40
1.0
 40
1.0
 10
396.1095293050212
 20
210.4100770214323
 30
0.0
 10
396.1058099271636
 20
210.4019924281555
 30
0.0
 10
396.0955809080472
 20
210.3797582098683
 30
0.0
 10
396.0875050041427
 20
210.3362266081229
 30
0.0
 10
396.0868613658037
 20
210.2786989115688
 30
0.0
 10
396.093944519547
 20
210.2244324471719
 30
0.0
 10
396.1023385329116
 20
210.1913038353849
 30
0.0
 10
396.1054617167591
 20
210.1789775808597
 30
0.0
  0
SPLINE
  5
81
330
2
100
AcDbEntity
  8
0
100
AcDbSpline
210
0.0
220
0.0
230
1.0
 70
     8
 71
     3
 72
    10
 73
     6
 74
     0
 42
0.000000001
 43
0.0000000001
 40
0.0
 40
0.0
 40
0.0
 40
0.0
 40
0.0359904585941298
 40
0.5212060736319195
 40
1.0
 40
1.0
 40
1.0
 40
1.0
 10
396.1030120252902
 20
210.1896346229023
 30
0.0
 10
396.1030259680216
 20
210.1893792262996
 30
0.0
 10
396.1032278836586
 20
210.185680627679
 30
0.0
 10
396.1063806709492
 20
210.1793936891986
 30
0.0
 10
396.1109144684177
 20
210.1747883885289
 30
0.0
 10
396.1131662663492
 20
210.1725010771538
 30
0.0
  0
LINE
  5
82
330
2
100
AcDbEntity
  8
0
100
AcDbLine
 10
396.109928066107
 20
210.1752808305512
 30
0.0
 11
396.1183665415674
 21
210.1679728964505
 31
0.0
  0
SPLINE
  5
83
330
2
100
AcDbEntity
  8
0
100
AcDbSpline
210
0.0
220
0.0
230
1.0
 70
     8
 71
     3
 72
    10
 73
     6
 74
     0
 42
0.000000001
 43
0.0000000001
 40
0.0
 40
0.0
 40
0.0
 40
0.0
 40
0.3132085475553744
 40
0.8337010188864573
 40
1.0
 40
1.0
 40
1.0
 40
1.0
 10
396.1240250025003
 20
210.424488086695
 30
0.0
 10
396.12237465077
 20
210.4233265839181
 30
0.0
 10
396.1179817313239
 20
210.4202348865293
 30
0.0
 10
396.1134503284715
 20
210.4151054708947
 30
0.0
 10
396.1112136303861
 20
210.4109911207659
 30
0.0
 10
396.1106720385954
 20
210.4099948762264
 30
0.0
  0
SPLINE
  5
84
330
2
100
AcDbEntity
  8
0
100
AcDbSpline
210
0.0
220
0.0
230
1.0
 70
     8
 71
     3
 72
    11
 73
     7
 74
     0
 42
0.000000001
 43
0.0000000001
 40
0.0
 40
0.0
 40
0.0
 40
0.0
 40
0.1183509333362215
 40
0.4102560141028624
 40
0.7216221583246396
 40
1.0
 40
1.0
 40
1.0
 40
1.0
 10
396.1112420197762
 20
210.1451085776747
 30
0.0
 10
396.1110164806953
 20
210.1407070345664
 30
0.0
 10
396.1102346637569
 20
210.1254493641738
 30
0.0
 10
396.1177040858865
 20
210.0967931961083
 30
0.0
 10
396.1311440871893
 20
210.0643301486859
 30
0.0
 10
396.1463523503697
 20
210.0491535884328
 30
0.0
 10
396.1535311323175
 20
210.0419897712709
 30
0.0
  0
LINE
  5
85
330
2
100
AcDbEntity
  8
0
100
AcDbLine
 10
396.1102834856288
 20
210.1542475860229
 30
0.0
 11
396.1102834856288
 21
210.1454742779412
 31
0.0
  0
LINE
  5
86
330
2
100
AcDbEntity
  8
0
100
AcDbLine
 10
396.1531021554179
 20
210.0413848694556
 30
0.0
 11
396.210086291989
 21
209.9920351595597
 31
0.0
  0
LINE
  5
87
330
2
100
AcDbEntity
  8
0
100
AcDbLine
 10
396.3155962353591
 20
209.9617436947962
 30
0.0
 11
396.3631408823377
 21
209.97546865215
 31
0.0
  0
SPLINE
  5
88
330
2
100
AcDbEntity
  8
0
100
AcDbSpline
210
0.0
220
0.0
230
1.0
 70
     8
 71
     3
 72
    11
 73
     7
 74
     0
 42
0.000000001
 43
0.0000000001
 40
0.0
 40
0.0
 40
0.0
 40
0.0
 40
0.2286195946440973
 40
0.5732397815957268
 40
0.8889128612086658
 40
1.0
 40
1.0
 40
1.0
 40
1.0
 10
396.210086291999
 20
209.9920351595617
 30
0.0
 10
396.2171882396853
 20
209.9863787550317
 30
0.0
 10
396.2349956325594
 20
209.9721959108078
 30
0.0
 10
396.2660519605617
 20
209.9596155468578
 30
0.0
 10
396.2970761655305
 20
209.9553971673052
 30
0.0
 10
396.3121794075128
 20
209.9621240639442
 30
0.0
 10
396.3161108328566
 20
209.9638750980574
 30
0.0
  0
LINE
  5
89
330
2
100
AcDbEntity
  8
0
100
AcDbLine
 10
396.1102834856288
 20
210.4218326859783
 30
0.0
 11
396.1102834856288
 21
210.413059398335
 31
0.0
  0
SPLINE
  5
8A
330
2
100
AcDbEntity
  8
0
100
AcDbSpline
210
0.0
220
0.0
230
1.0
 70
     8
 71
     3
 72
    10
 73
     6
 74
     0
 42
0.000000001
 43
0.0000000001
 40
0.0
 40
0.0
 40
0.0
 40
0.0
 40
0.1210707881488531
 40
0.5392088557760869
 40
1.0
 40
1.0
 40
1.0
 40
1.0
 10
396.124024387034
 20
210.4709348285768
 30
0.0
 10
396.1227124705551
 20
210.4692733310868
 30
0.0
 10
396.1168696327047
 20
210.4618735761647
 30
0.0
 10
396.111740188333
 20
210.4451751593911
 30
0.0
 10
396.1110596053475
 20
210.4298004584586
 30
0.0
 10
396.1107028000345
 20
210.4217400527521
 30
0.0
  0
ARC
  5
8B
330
2
100
AcDbEntity
  8
0
100
AcDbCircle
 10
396.1657905068272
 20
210.6948049976005
 30
0.0
 40
0.0316695715746534
100
AcDbArc
 50
177.0843668928984
 51
246.4746773032956
  0
LINE
  5
8C
330
2
100
AcDbEntity
  8
0
100
AcDbLine
 10
396.1341619310222
 20
210.6964158842275
 30
0.0
 11
396.1341619310222
 21
210.7402822950922
 31
0.0
  0
ARC
  5
8D
330
2
100
AcDbEntity
  8
0
100
AcDbCircle
 10
396.118092553672
 20
210.7409094641978
 30
0.0
 40
0.0160816115261132
100
AcDbArc
 50
357.7649467339027
 51
111.3836952751015
  0
LINE
  5
8E
330
2
100
AcDbEntity
  8
0
100
AcDbLine
 10
396.1341619310222
 20
210.7622155008157
 30
0.0
 11
396.1122290080665
 21
210.7558840113379
 31
0.0
  0
LINE
  5
8F
330
2
100
AcDbEntity
  8
0
100
AcDbLine
 10
396.1341619310222
 20
210.806081911022
 30
0.0
 11
396.1341619310222
 21
210.7622155008157
 31
0.0
  0
ARC
  5
90
330
2
100
AcDbEntity
  8
0
100
AcDbCircle
 10
396.1458893648467
 20
210.7761332984223
 30
0.0
 40
0.0321628994603567
100
AcDbArc
 50
357.764067805403
 51
111.3845764181963
  0
LINE
  5
91
330
2
100
AcDbEntity
  8
0
100
AcDbLine
 10
396.1780277769335
 20
210.7310120683242
 30
0.0
 11
396.1780277769335
 21
210.7748784797967
 31
0.0
  0
LWPOLYLINE
  5
92
330
2
100
AcDbEntity
  8
0
100
AcDbPolyline
 90
        3
 70
   128
 43
0.0
 10
396.1780277769335
 20
210.7310120683242
 10
396.1784500415856
 20
210.726855009787
 10
396.178548090648
 20
210.7264136705682
  0
LINE
  5
93
330
2
100
AcDbEntity
  8
0
100
AcDbLine
 10
395.9763265046256
 20
210.8482515642396
 30
0.0
 11
395.9763265046256
 21
210.8921179744458
 31
0.0
  0
LINE
  5
94
330
2
100
AcDbEntity
  8
0
100
AcDbLine
 10
395.9763265046256
 20
210.8482515642396
 30
0.0
 11
395.5815299694468
 21
210.7342836213011
 31
0.0
  0
ARC
  5
95
330
2
100
AcDbEntity
  8
0
100
AcDbCircle
 10
395.5907602574246
 20
210.704477518638
 30
0.0
 40
0.0312025955995201
100
AcDbArc
 50
107.2065919386051
 51
177.1691313051028
  0
LINE
  5
96
330
2
100
AcDbEntity
  8
0
100
AcDbLine
 10
395.5595957391738
 20
210.7060185486874
 30
0.0
 11
395.5595957391738
 21
210.1576884166404
 31
0.0
  0
LINE
  5
97
330
2
100
AcDbEntity
  8
0
100
AcDbLine
 10
395.5157298932627
 20
210.1450254376596
 30
0.0
 11
395.5157298932627
 21
210.7152887754554
 31
0.0
  0
ARC
  5
98
330
2
100
AcDbEntity
  8
0
100
AcDbCircle
 10
395.5780591173564
 20
210.7122066264358
 30
0.0
 40
0.0624053829441584
100
AcDbArc
 50
107.2092307659953
 51
177.1690582600976
  0
LINE
  5
99
330
2
100
AcDbEntity
  8
0
100
AcDbLine
 10
395.5595957391738
 20
210.7718181646172
 30
0.0
 11
395.9763265046256
 21
210.8921179744458
 31
0.0
  0
ARC
  5
9A
330
2
100
AcDbEntity
  8
0
100
AcDbCircle
 10
395.6556203407775
 20
210.1568744380273
 30
0.0
 40
0.0960280515082556
100
AcDbArc
 50
179.5143284029005
 51
222.5890966166012
  0
LINE
  5
9B
330
2
100
AcDbEntity
  8
0
100
AcDbLine
 10
395.9394899908757
 20
210.3770204759528
 30
0.0
 11
395.9394899908757
 21
210.2758266463887
 31
0.0
  0
LINE
  5
9C
330
2
100
AcDbEntity
  8
0
100
AcDbLine
 10
395.9394899908757
 20
210.0299718244452
 30
0.0
 11
395.9394899908757
 21
209.8286903439058
 31
0.0
  0
LWPOLYLINE
  5
9D
330
2
100
AcDbEntity
  8
0
100
AcDbPolyline
 90
        9
 70
   128
 43
0.0
 10
395.9394899908757
 20
209.8286903439058
 10
395.939003356915
 20
209.8205538543199
 10
395.9375621477041
 20
209.8135729649069
 10
395.9352217453678
 20
209.8080158807356
 10
395.9320720987116
 20
209.8040961956066
 10
395.928234232321
 20
209.8019645169276
 10
395.9238556589095
 20
209.8017027974135
 10
395.9191046241479
 20
209.8033210666522
 10
395.91416370271
 20
209.8067571349659
  0
LINE
  5
9E
330
2
100
AcDbEntity
  8
0
100
AcDbLine
 10
395.5849220037358
 20
210.0918888102587
 30
0.0
 11
395.91416370271
 21
209.8067571349659
 31
0.0
  0
ARC
  5
9F
330
2
100
AcDbEntity
  8
0
100
AcDbCircle
 10
395.6117544948662
 20
210.1442114590463
 30
0.0
 40
0.0960280515082574
100
AcDbArc
 50
179.5143284029005
 51
222.5890966166012
  0
LINE
  5
A0
330
2
100
AcDbEntity
  8
0
100
AcDbLine
 10
395.5410561578246
 20
210.0792258312778
 30
0.0
 11
395.8702978567986
 21
209.7940941560102
 31
0.0
  0
ARC
  5
A1
330
2
100
AcDbEntity
  8
0
100
AcDbCircle
 10
396.0010882972479
 20
210.8140716458341
 30
0.0
 40
0.0818802526915968
100
AcDbArc
 50
57.13635941450402
 51
107.602693898998
  0
LINE
  5
A2
330
2
100
AcDbEntity
  8
0
100
AcDbLine
 10
396.0455199224415
 20
210.8828481422867
 30
0.0
 11
396.0455199224415
 21
210.8389817320805
 31
0.0
  0
ARC
  5
A3
330
2
100
AcDbEntity
  8
0
100
AcDbCircle
 10
396.0010882972479
 20
210.7702052356281
 30
0.0
 40
0.0818802526915952
100
AcDbArc
 50
57.13635941450402
 51
107.602693898998
  0
LWPOLYLINE
  5
A4
330
2
100
AcDbEntity
  8
0
100
AcDbPolyline
 90
        9
 70
   128
 43
0.0
 10
396.0631874486402
 20
210.6539941172739
 10
396.03842962609
 20
210.6681106152048
 10
396.0047512166332
 20
210.6764147966513
 10
395.9672795025093
 20
210.6776424278657
 10
395.9317218839437
 20
210.6716073919888
 10
395.9034900858884
 20
210.6592280094424
 10
395.8868818558065
 20
210.6423888430326
 10
395.884425915216
 20
210.6236535732618
 10
395.8964961883134
 20
210.6058744952418
  0
LWPOLYLINE
  5
A5
330
2
100
AcDbEntity
  8
0
100
AcDbPolyline
 90
        9
 70
   128
 43
0.0
 10
395.8964961883134
 20
210.6058744952418
 10
395.9212553240566
 20
210.5917583695819
 10
395.9549337291067
 20
210.583454191985
 10
395.9924041395855
 20
210.5822261801673
 10
396.0279617605571
 20
210.5882612139673
 10
396.0561935562062
 20
210.600640598616
 10
396.0728030899334
 20
210.6174801455785
 10
396.0752590349307
 20
210.6362154115504
 10
396.0631874486402
 20
210.6539941172739
  0
LINE
  5
A6
330
2
100
AcDbEntity
  8
0
100
AcDbLine
 10
396.1341619310222
 20
210.7622155008157
 30
0.0
 11
396.0455199224415
 21
210.8389817320805
 31
0.0
  0
LINE
  5
A7
330
2
100
AcDbEntity
  8
0
100
AcDbLine
 10
396.1141702892889
 20
210.4493795403556
 30
0.0
 11
395.961424221149
 21
210.4052855485918
 31
0.0
  0
LINE
  5
A8
330
2
100
AcDbEntity
  8
0
100
AcDbLine
 10
396.1341619310222
 20
210.806081911022
 30
0.0
 11
396.0455199224415
 21
210.8828481422867
 31
0.0
  0
ARC
  5
A9
330
2
100
AcDbEntity
  8
0
100
AcDbCircle
 10
395.9706545091269
 20
210.3754794459288
 30
0.0
 40
0.0312025955995452
100
AcDbArc
 50
107.2065919387008
 51
177.1691313050001
  0
LINE
  5
AA
330
2
100
AcDbEntity
  8
0
100
AcDbLine
 10
395.8964961883134
 20
210.6497409054481
 30
0.0
 11
395.8941801701487
 21
210.6518674011537
 31
0.0
  0
ARC
  5
AB
330
2
100
AcDbEntity
  8
0
100
AcDbCircle
 10
395.8817540067645
 20
209.8046685429314
 30
0.0
 40
0.0155904147234215
100
AcDbArc
 50
222.7079836637992
 51
279.5715081717011
  0
LWPOLYLINE
  5
AC
330
2
100
AcDbEntity
  8
0
100
AcDbPolyline
 90
        8
 70
   128
 43
0.0
 10
390.0101303059063
 20
208.450115280024
 10
390.0053054440137
 20
208.4474427177492
 10
389.9984428827731
 20
208.4355967458985
 10
389.9960330699567
 20
208.4167000195983
 10
389.9984428827731
 20
208.3936293750788
 10
390.0053054440137
 20
208.3698970985102
 10
390.0155759878587
 20
208.3491162623387
 10
390.0276909242885
 20
208.33445051164
  0
LWPOLYLINE
  5
AD
330
2
100
AcDbEntity
  8
0
100
AcDbPolyline
 90
        3
 70
   128
 43
0.0
 10
390.0276909242885
 20
208.33445051164
 10
390.0398058621618
 20
208.3281325756498
 10
390.0452515441142
 20
208.328451745788
  0
LWPOLYLINE
  5
AE
330
2
100
AcDbEntity
  8
0
100
AcDbPolyline
 90
        8
 70
   128
 43
0.0
 10
390.0101303059063
 20
208.5641679378629
 10
390.0053054440137
 20
208.5614953755882
 10
389.9984428827731
 20
208.5496494037628
 10
389.9960330699567
 20
208.5307526978755
 10
389.9984428827731
 20
208.5076820533561
 10
390.0053054440137
 20
208.4839497768129
 10
390.0155759878587
 20
208.4631689406159
 10
390.022537932654
 20
208.4536970533368
  0
SPLINE
  5
AF
330
2
100
AcDbEntity
  8
0
100
AcDbSpline
210
0.0
220
0.0
230
1.0
 70
     8
 71
     3
 72
    12
 73
     8
 74
     0
 42
0.000000001
 43
0.0000000001
 40
0.0
 40
0.0
 40
0.0
 40
0.0
 40
0.2420661671115245
 40
0.3688257324002824
 40
0.4990830844946328
 40
0.7491133167360427
 40
1.0
 40
1.0
 40
1.0
 40
1.0
 10
389.9831051903192
 20
208.2629196099002
 30
0.0
 10
389.9734035658682
 20
208.2730974465202
 30
0.0
 10
389.958621620972
 20
208.2886049752689
 30
0.0
 10
389.9406241690043
 20
208.3203488030914
 30
0.0
 10
389.9245550411151
 20
208.3557555955791
 30
0.0
 10
389.9089199717912
 20
208.4055941915621
 30
0.0
 10
389.9059427267508
 20
208.4419816008733
 30
0.0
 10
389.9044515590335
 20
208.4602064125177
 30
0.0
  0
SPLINE
  5
B0
330
2
100
AcDbEntity
  8
0
100
AcDbSpline
210
0.0
220
0.0
230
1.0
 70
     8
 71
     3
 72
    13
 73
     9
 74
     0
 42
0.000000001
 43
0.0000000001
 40
0.0
 40
0.0
 40
0.0
 40
0.0
 40
0.135927094370268
 40
0.2701046652905584
 40
0.4994908148675381
 40
0.7292546459188231
 40
0.8636343039135178
 40
1.0
 40
1.0
 40
1.0
 40
1.0
 10
389.2215436949612
 20
207.9495677351514
 30
0.0
 10
389.2161190985097
 20
207.9548150422529
 30
0.0
 10
389.2053397258199
 20
207.9652421181417
 30
0.0
 10
389.186387310878
 20
207.9931643427372
 30
0.0
 10
389.1665100121536
 20
208.0340610982587
 30
0.0
 10
389.153032817868
 20
208.0803981717255
 30
0.0
 10
389.1464952388938
 20
208.1190105405984
 30
0.0
 10
389.1458764874132
 20
208.1382596853356
 30
0.0
 10
389.1455648422635
 20
208.1479548582408
 30
0.0
  0
LINE
  5
B1
330
2
100
AcDbEntity
  8
0
100
AcDbLine
 10
389.9044516062123
 20
208.4602063716723
 30
0.0
 11
389.1455648422631
 21
208.1479548582452
 31
0.0
  0
SPLINE
  5
B2
330
2
100
AcDbEntity
  8
0
100
AcDbSpline
210
0.0
220
0.0
230
1.0
 70
     8
 71
     3
 72
    11
 73
     7
 74
     0
 42
0.000000001
 43
0.0000000001
 40
0.0
 40
0.0
 40
0.0
 40
0.0
 40
0.279478541878792
 40
0.5590403864101669
 40
0.779493085037061
 40
1.0
 40
1.0
 40
1.0
 40
1.0
 10
390.0023646420091
 20
208.2902490468207
 30
0.0
 10
389.9930430418489
 20
208.3004224997097
 30
0.0
 10
389.97439706309
 20
208.3207724378337
 30
0.0
 10
389.953604883647
 20
208.3684874783676
 30
0.0
 10
389.9412454493981
 20
208.4155697641673
 30
0.0
 10
389.9397811654064
 20
208.4422366117716
 30
0.0
 10
389.9390489333932
 20
208.4555716749287
 30
0.0
  0
ARC
  5
B3
330
2
100
AcDbEntity
  8
0
100
AcDbCircle
 10
389.9168337865787
 20
208.4211886716263
 30
0.0
 40
0.0409353595840552
100
AcDbArc
 50
57.13315856589434
 51
107.6067655583046
  0
LINE
  5
B4
330
2
100
AcDbEntity
  8
0
100
AcDbLine
 10
389.9044516062123
 20
208.4602063716723
 30
0.0
 11
389.9044516062123
 21
208.5952151590504
 31
0.0
  0
LINE
  5
B5
330
2
100
AcDbEntity
  8
0
100
AcDbLine
 10
389.1455648422631
 20
208.1479548582452
 30
0.0
 11
389.1455648422631
 21
208.4693233039896
 31
0.0
  0
LINE
  5
B6
330
2
100
AcDbEntity
  8
0
100
AcDbLine
 10
389.1455648422631
 20
208.4693233039896
 30
0.0
 11
389.9044516062123
 21
208.5952151590504
 31
0.0
  0
LINE
  5
B7
330
2
100
AcDbEntity
  8
0
100
AcDbLine
 10
390.0530172094911
 20
208.6023706355569
 30
0.0
 11
390.0023646419981
 21
208.646237045763
 31
0.0
  0
SPLINE
  5
B8
330
2
100
AcDbEntity
  8
0
100
AcDbSpline
210
0.0
220
0.0
230
1.0
 70
     8
 71
     3
 72
    11
 73
     7
 74
     0
 42
0.000000001
 43
0.0000000001
 40
0.0
 40
0.0
 40
0.0
 40
0.0
 40
0.2797803801779591
 40
0.559416581391658
 40
0.7797283260275995
 40
1.0
 40
1.0
 40
1.0
 40
1.0
 10
390.1163329210557
 20
208.3020392379288
 30
0.0
 10
390.1151482492815
 20
208.2869049207226
 30
0.0
 10
390.1127795162296
 20
208.2566440854637
 30
0.0
 10
390.0958874258378
 20
208.2349381105575
 30
0.0
 10
390.0749976318527
 20
208.2312375415849
 30
0.0
 10
390.0603435726873
 20
208.2413345777097
 30
0.0
 10
390.0530172094914
 20
208.2463826366141
 30
0.0
  0
LINE
  5
B9
330
2
100
AcDbEntity
  8
0
100
AcDbLine
 10
390.0023646419981
 20
208.2902490468278
 30
0.0
 11
390.0530172094911
 21
208.2463826366216
 31
0.0
  0
LINE
  5
BA
330
2
100
AcDbEntity
  8
0
100
AcDbLine
 10
389.9390489333855
 20
208.5905804623219
 30
0.0
 11
389.9390489333855
 21
208.4555716749184
 31
0.0
  0
SPLINE
  5
BB
330
2
100
AcDbEntity
  8
0
100
AcDbSpline
210
0.0
220
0.0
230
1.0
 70
     8
 71
     3
 72
    11
 73
     7
 74
     0
 42
0.000000001
 43
0.0000000001
 40
0.0
 40
0.0
 40
0.0
 40
0.0
 40
0.2797802974193668
 40
0.5594164014320372
 40
0.7797282911455384
 40
1.0
 40
1.0
 40
1.0
 40
1.0
 10
389.9390489333932
 20
208.5905804623236
 30
0.0
 10
389.9402336049816
 20
208.6057147744897
 30
0.0
 10
389.942602337601
 20
208.635975598887
 30
0.0
 10
389.9594944344697
 20
208.6576815361584
 30
0.0
 10
389.9803842092227
 20
208.661382184577
 30
0.0
 10
389.99503827656
 20
208.6512851184209
 30
0.0
 10
390.0023646420091
 20
208.6462370457649
 30
0.0
  0
LINE
  5
BC
330
2
100
AcDbEntity
  8
0
100
AcDbLine
 10
390.0337577581759
 20
208.2190533627815
 30
0.0
 11
389.9831051903282
 21
208.2629197733171
 31
0.0
  0
LINE
  5
BD
330
2
100
AcDbEntity
  8
0
100
AcDbLine
 10
389.2721962628066
 20
207.9057013246305
 30
0.0
 11
389.221543694959
 21
207.9495677351406
 31
0.0
  0
ARC
  5
BE
330
2
100
AcDbEntity
  8
0
100
AcDbCircle
 10
389.9168337865787
 20
208.5561974590043
 30
0.0
 40
0.0409353595840758
100
AcDbArc
 50
57.13315856600275
 51
107.6067655583046
  0
SPLINE
  5
BF
330
2
100
AcDbEntity
  8
0
100
AcDbSpline
210
0.0
220
0.0
230
1.0
 70
     8
 71
     3
 72
    10
 73
     6
 74
     0
 42
0.000000001
 43
0.0000000001
 40
0.0
 40
0.0
 40
0.0
 40
0.0
 40
0.3272742700641808
 40
0.6612973532336735
 40
1.0
 40
1.0
 40
1.0
 40
1.0
 10
389.3163864977862
 20
207.8947734626271
 30
0.0
 10
389.3122580118654
 20
207.8926867858818
 30
0.0
 10
389.3039159053754
 20
207.8884704024541
 30
0.0
 10
389.2883319558151
 20
207.8935334930863
 30
0.0
 10
389.2775997120858
 20
207.9016266151922
 30
0.0
 10
389.2721962628121
 20
207.9057013246257
 30
0.0
  0
SPLINE
  5
C0
330
2
100
AcDbEntity
  8
0
100
AcDbSpline
210
0.0
220
0.0
230
1.0
 70
     8
 71
     3
 72
    11
 73
     7
 74
     0
 42
0.000000001
 43
0.0000000001
 40
0.0
 40
0.0
 40
0.0
 40
0.0
 40
0.206233389007813
 40
0.409659613626325
 40
0.7573147546304182
 40
1.0
 40
1.0
 40
1.0
 40
1.0
 10
389.1455648422635
 20
208.4693233039779
 30
0.0
 10
389.1458726991325
 20
208.4784887876189
 30
0.0
 10
389.1464842224491
 20
208.4966949980932
 30
0.0
 10
389.1530965471624
 20
208.5237088258424
 30
0.0
 10
389.1645510452257
 20
208.5456573743948
 30
0.0
 10
389.177954167633
 20
208.5481198701603
 30
0.0
 10
389.183464107534
 20
208.549132186788
 30
0.0
  0
LWPOLYLINE
  5
C1
330
2
100
AcDbEntity
  8
0
100
AcDbPolyline
 90
        3
 70
   128
 43
0.0
 10
390.1197256356958
 20
208.2957075606457
 10
390.119671082323
 20
208.2948792580182
 10
390.1195637313723
 20
208.2942778271538
  0
SPLINE
  5
C2
330
2
100
AcDbEntity
  8
0
100
AcDbSpline
210
0.0
220
0.0
230
1.0
 70
     8
 71
     3
 72
    13
 73
     9
 74
     0
 42
0.000000001
 43
0.0000000001
 40
0.0
 40
0.0
 40
0.0
 40
0.0
 40
0.0261444067125467
 40
0.1773696141308454
 40
0.4358997911136169
 40
0.6948557305687726
 40
0.8463087887478002
 40
1.0
 40
1.0
 40
1.0
 40
1.0
 10
389.1642901648501
 20
208.5379804666962
 30
0.0
 10
389.163369727748
 20
208.5386323925589
 30
0.0
 10
389.1571252726566
 20
208.5430552062028
 30
0.0
 10
389.142568753258
 20
208.5456038469409
 30
0.0
 10
389.1226250132601
 20
208.5398355611348
 30
0.0
 10
389.1091667776763
 20
208.5166419243362
 30
0.0
 10
389.10262630532
 20
208.4893835184248
 30
0.0
 10
389.1020078682696
 20
208.4712027508802
 30
0.0
 10
389.1016963817079
 20
208.4620456915301
 30
0.0
  0
SPLINE
  5
C3
330
2
100
AcDbEntity
  8
0
100
AcDbSpline
210
0.0
220
0.0
230
1.0
 70
     8
 71
     3
 72
    11
 73
     7
 74
     0
 42
0.000000001
 43
0.0000000001
 40
0.0
 40
0.0
 40
0.0
 40
0.0
 40
0.2176594492320444
 40
0.4325172390221895
 40
0.799831986393934
 40
1.0
 40
1.0
 40
1.0
 40
1.0
 10
389.2283278022565
 20
207.8876514287088
 30
0.0
 10
389.2337611980007
 20
207.8834849843111
 30
0.0
 10
389.244558052142
 20
207.8752057249733
 30
0.0
 10
389.2633500458702
 20
207.8706315205141
 30
0.0
 10
389.2805825398627
 20
207.8741779717503
 30
0.0
 10
389.2879447543792
 20
207.8888620196394
 30
0.0
 10
389.2905416259616
 20
207.8940415191762
 30
0.0
  0
LINE
  5
C4
330
2
100
AcDbEntity
  8
0
100
AcDbLine
 10
389.2283278022605
 20
207.8876514287047
 30
0.0
 11
389.1776752344128
 21
207.9315178392401
 31
0.0
  0
SPLINE
  5
C5
330
2
100
AcDbEntity
  8
0
100
AcDbSpline
210
0.0
220
0.0
230
1.0
 70
     8
 71
     3
 72
    13
 73
     9
 74
     0
 42
0.000000001
 43
0.0000000001
 40
0.0
 40
0.0
 40
0.0
 40
0.0
 40
0.1362988817081376
 40
0.2707423281577096
 40
0.5005061554835156
 40
0.7298921882934596
 40
0.8640066081475815
 40
1.0
 40
1.0
 40
1.0
 40
1.0
 10
389.1016963817079
 20
208.1299050031778
 30
0.0
 10
389.102008599554
 20
208.1202141972233
 30
0.0
 10
389.1026287850282
 20
208.1009645061552
 30
0.0
 10
389.1091616849622
 20
208.0623537863887
 30
0.0
 10
389.1226418218272
 20
208.0160105101886
 30
0.0
 10
389.1425170829342
 20
207.9751207149282
 30
0.0
 10
389.1614680643656
 20
207.9471915886679
 30
0.0
 10
389.1722478483089
 20
207.9367665957756
 30
0.0
 10
389.1776752344055
 20
207.9315178392346
 30
0.0
  0
LINE
  5
C6
330
2
100
AcDbEntity
  8
0
100
AcDbLine
 10
389.1016963817169
 20
208.4620456915291
 30
0.0
 11
389.1016963817169
 21
208.1299050031706
 31
0.0
  0
SPLINE
  5
C7
330
2
100
AcDbEntity
  8
0
100
AcDbSpline
210
0.0
220
0.0
230
1.0
 70
     8
 71
     3
 72
    10
 73
     6
 74
     0
 42
0.000000001
 43
0.0000000001
 40
0.0
 40
0.0
 40
0.0
 40
0.0
 40
0.6948556413874469
 40
0.8463086888677885
 40
1.0
 40
1.0
 40
1.0
 40
1.0
 10
389.0548370604701
 20
208.5296528180219
 30
0.0
 10
389.0348933240257
 20
208.5252818294396
 30
0.0
 10
389.0214350846455
 20
208.5020882087746
 30
0.0
 10
389.0148946123074
 20
208.4748297973534
 30
0.0
 10
389.0142761761193
 20
208.4566490222191
 30
0.0
 10
389.01396468988
 20
208.447491955772
 30
0.0
  0
SPLINE
  5
C8
330
2
100
AcDbEntity
  8
0
100
AcDbSpline
210
0.0
220
0.0
230
1.0
 70
     8
 71
     3
 72
     8
 73
     4
 74
     0
 42
0.000000001
 43
0.0000000001
 40
0.0
 40
0.0
 40
0.0
 40
0.0
 40
1.0
 40
1.0
 40
1.0
 40
1.0
 10
389.1405961104289
 20
207.8515532281469
 30
0.0
 10
389.1460295061732
 20
207.8473867837491
 30
0.0
 10
389.1568263603145
 20
207.8391075244116
 30
0.0
 10
389.1756183540424
 20
207.8345333199522
 30
0.0
  0
LINE
  5
C9
330
2
100
AcDbEntity
  8
0
100
AcDbLine
 10
389.140596110438
 20
207.8515532281542
 30
0.0
 11
389.0899435425902
 21
207.8954196386642
 31
0.0
  0
SPLINE
  5
CA
330
2
100
AcDbEntity
  8
0
100
AcDbSpline
210
0.0
220
0.0
230
1.0
 70
     8
 71
     3
 72
    13
 73
     9
 74
     0
 42
0.000000001
 43
0.0000000001
 40
0.0
 40
0.0
 40
0.0
 40
0.0
 40
0.1362988817081376
 40
0.2707423281577096
 40
0.5005061554835156
 40
0.7298921882934596
 40
0.8640066081475815
 40
1.0
 40
1.0
 40
1.0
 40
1.0
 10
389.01396468988
 20
208.0938068026159
 30
0.0
 10
389.0142769077265
 20
208.0841159966615
 30
0.0
 10
389.0148970932007
 20
208.0648663055932
 30
0.0
 10
389.0214299931346
 20
208.0262555858268
 30
0.0
 10
389.0349101299995
 20
207.9799123096267
 30
0.0
 10
389.0547853911067
 20
207.9390225143662
 30
0.0
 10
389.073736372538
 20
207.911093388106
 30
0.0
 10
389.0845161564812
 20
207.9006683952138
 30
0.0
 10
389.089943542578
 20
207.8954196386729
 30
0.0
  0
LINE
  5
CB
330
2
100
AcDbEntity
  8
0
100
AcDbLine
 10
389.0139646898693
 20
208.4474919557684
 30
0.0
 11
389.0139646898693
 21
208.0938068026201
 31
0.0
  0
SPLINE
  5
CC
330
2
100
AcDbEntity
  8
0
100
AcDbSpline
210
0.0
220
0.0
230
1.0
 70
     8
 71
     3
 72
    10
 73
     6
 74
     0
 42
0.000000001
 43
0.0000000001
 40
0.0
 40
0.0
 40
0.0
 40
0.0
 40
0.6948556895309089
 40
0.8463087947036889
 40
1.0
 40
1.0
 40
1.0
 40
1.0
 10
388.9671053730967
 20
208.5145442653161
 30
0.0
 10
388.9471616276072
 20
208.5107281254328
 30
0.0
 10
388.9337033922936
 20
208.4875344819401
 30
0.0
 10
388.927162922436
 20
208.4602760696821
 30
0.0
 10
388.926544484837
 20
208.4420952995217
 30
0.0
 10
388.9262329980527
 20
208.4329382404408
 30
0.0
  0
SPLINE
  5
CD
330
2
100
AcDbEntity
  8
0
100
AcDbSpline
210
0.0
220
0.0
230
1.0
 70
     8
 71
     3
 72
     8
 73
     4
 74
     0
 42
0.000000001
 43
0.0000000001
 40
0.0
 40
0.0
 40
0.0
 40
0.0
 40
1.0
 40
1.0
 40
1.0
 40
1.0
 10
389.0528644186013
 20
207.8154550275852
 30
0.0
 10
389.0582978141353
 20
207.8112885838037
 30
0.0
 10
389.0690946678587
 20
207.8030093256911
 30
0.0
 10
389.0878866696732
 20
207.7984351089575
 30
0.0
  0
LINE
  5
CE
330
2
100
AcDbEntity
  8
0
100
AcDbLine
 10
389.0528644185902
 20
207.8154550275783
 30
0.0
 11
389.0022118507427
 21
207.8593214381137
 31
0.0
  0
SPLINE
  5
CF
330
2
100
AcDbEntity
  8
0
100
AcDbSpline
210
0.0
220
0.0
230
1.0
 70
     8
 71
     3
 72
    13
 73
     9
 74
     0
 42
0.000000001
 43
0.0000000001
 40
0.0
 40
0.0
 40
0.0
 40
0.0
 40
0.1362988885199829
 40
0.2707423416886706
 40
0.5005060174724936
 40
0.7298921747942102
 40
0.8640066013510036
 40
1.0
 40
1.0
 40
1.0
 40
1.0
 10
388.9262329980527
 20
208.057708602054
 30
0.0
 10
388.9265452161152
 20
208.0480177962209
 30
0.0
 10
388.9271654020191
 20
208.0287681053938
 30
0.0
 10
388.9336982958864
 20
207.9901573959936
 30
0.0
 10
388.947178454791
 20
207.9438141383867
 30
0.0
 10
388.9670536922952
 20
207.9029243166067
 30
0.0
 10
388.9860046812389
 20
207.8749951882342
 30
0.0
 10
388.9967844648305
 20
207.8645701948829
 30
0.0
 10
389.0022118507504
 20
207.8593214381109
 30
0.0
  0
LINE
  5
D0
330
2
100
AcDbEntity
  8
0
100
AcDbLine
 10
388.9262329980468
 20
208.4329382404459
 30
0.0
 11
388.9262329980468
 21
208.0577086020443
 31
0.0
  0
LINE
  5
D1
330
2
100
AcDbEntity
  8
0
100
AcDbLine
 10
387.8125321042982
 20
207.7302270890275
 30
0.0
 11
388.1634641008832
 21
207.8315324303722
 31
0.0
  0
ARC
  5
D2
330
2
100
AcDbEntity
  8
0
100
AcDbCircle
 10
388.4892516873264
 20
207.8497306370931
 30
0.0
 40
0.3262954584539191
100
AcDbArc
 50
180.037201671502
 51
183.1971690680988
  0
LINE
  5
D3
330
2
100
AcDbEntity
  8
0
100
AcDbLine
 10
388.1629562976693
 20
207.8495187761931
 30
0.0
 11
388.3208754346525
 21
207.8951061043334
 31
0.0
  0
ARC
  5
D4
330
2
100
AcDbEntity
  8
0
100
AcDbCircle
 10
388.6526369900337
 20
207.8954344333676
 30
0.0
 40
0.3317617178496164
100
AcDbArc
 50
180.0567029594985
 51
183.966608793902
  0
LINE
  5
D5
330
2
100
AcDbEntity
  8
0
100
AcDbLine
 10
388.3216699961102
 20
207.8724847849929
 30
0.0
 11
388.760333684543
 21
207.9991160842992
 31
0.0
  0
ARC
  5
D6
330
2
100
AcDbEntity
  8
0
100
AcDbCircle
 10
389.0913006784664
 20
208.022065732674
 30
0.0
 40
0.3317617178412235
100
AcDbArc
 50
180.0567029594985
 51
183.9666087939983
  0
LINE
  5
D7
330
2
100
AcDbEntity
  8
0
100
AcDbLine
 10
388.7595391230852
 20
208.0217374036398
 30
0.0
 11
388.8384986915895
 21
208.0445310676847
 31
0.0
  0
ARC
  5
D8
330
2
100
AcDbEntity
  8
0
100
AcDbCircle
 10
389.2732885758627
 20
208.0526342272476
 30
0.0
 40
0.434865386839249
100
AcDbArc
 50
181.0676952662005
 51
208.9822175831974
  0
LWPOLYLINE
  5
D9
330
2
100
AcDbEntity
  8
0
100
AcDbPolyline
 90
        8
 70
   128
 43
0.0
 10
387.7330647325546
 20
207.7254197707784
 10
387.7380229550105
 20
207.6669039539378
 10
387.7524122975072
 20
207.605528147911
 10
387.7748242069496
 20
207.5473003400019
 10
387.803064862037
 20
207.4979201225457
 10
387.8343698675154
 20
207.4622213197479
 10
387.8656748776032
 20
207.4436982585563
 10
387.890563847503
 20
207.4430252884616
  0
LINE
  5
DA
330
2
100
AcDbEntity
  8
0
100
AcDbLine
 10
387.7330647325546
 20
207.7254197707784
 30
0.0
 11
387.8120243010591
 21
207.7482134348485
 31
0.0
  0
ARC
  5
DB
330
2
100
AcDbEntity
  8
0
100
AcDbCircle
 10
388.1383196907412
 20
207.7484252957485
 30
0.0
 40
0.3262954584602824
100
AcDbArc
 50
180.037201671502
 51
183.1971690679976
  0
LINE
  5
DC
330
2
100
AcDbEntity
  8
0
100
AcDbLine
 10
388.8384986915895
 20
208.3954623493339
 30
0.0
 11
388.8384986915895
 21
208.0445310676847
 31
0.0
  0
LWPOLYLINE
  5
DD
330
2
100
AcDbEntity
  8
0
100
AcDbPolyline
 90
        9
 70
   128
 43
0.0
 10
388.8384986915895
 20
208.3954623493339
 10
388.8394362134876
 20
208.4184667137017
 10
388.8422314074022
 20
208.4394214542208
 10
388.846832547159
 20
208.4579387459582
 10
388.8531544721404
 20
208.4736758563664
 10
388.8610801675442
 20
208.4863414979756
 10
388.8704629461417
 20
208.4957012518405
 10
388.8811291373222
 20
208.5015818774918
 10
388.892881324297
 20
208.5038745455823
  0
LINE
  5
DE
330
2
100
AcDbEntity
  8
0
100
AcDbLine
 10
388.9867263317412
 20
207.7606531974343
 30
0.0
 11
388.892881324297
 21
207.8419253578875
 31
0.0
  0
LINE
  5
DF
330
2
100
AcDbEntity
  8
0
100
AcDbLine
 10
388.7595391230852
 20
208.0217374036398
 30
0.0
 11
388.7595391230852
 21
208.372668685289
 31
0.0
  0
LINE
  5
E0
330
2
100
AcDbEntity
  8
0
100
AcDbLine
 10
388.8384986915895
 20
208.3954623493339
 30
0.0
 11
388.7595391230852
 21
208.372668685289
 31
0.0
  0
ARC
  5
E1
330
2
100
AcDbEntity
  8
0
100
AcDbCircle
 10
388.4437211130585
 20
208.2006766949828
 30
0.0
 40
0.2807649068696147
100
AcDbArc
 50
176.5531804227017
 51
180.0462499100997
  0
LINE
  5
E2
330
2
100
AcDbEntity
  8
0
100
AcDbLine
 10
388.1634641008832
 20
208.2175568626709
 30
0.0
 11
387.8125321042982
 21
208.1162515213264
 31
0.0
  0
ARC
  5
E3
330
2
100
AcDbEntity
  8
0
100
AcDbCircle
 10
388.0927891164735
 20
208.0993713536129
 30
0.0
 40
0.2807649068748263
100
AcDbArc
 50
176.5531804227996
 51
180.0462499100997
  0
LINE
  5
E4
330
2
100
AcDbEntity
  8
0
100
AcDbLine
 10
387.8120243010591
 20
208.0991447164978
 30
0.0
 11
387.7330647325546
 21
208.0763510524277
 31
0.0
  0
LWPOLYLINE
  5
E5
330
2
100
AcDbEntity
  8
0
100
AcDbPolyline
 90
        5
 70
   128
 43
0.0
 10
387.7781758875532
 20
208.1832798939451
 10
387.7748242069496
 20
208.1821409825273
 10
387.7524122975072
 20
208.1627316893921
 10
387.7380229550105
 20
208.1262789760768
 10
387.7330647325546
 20
208.0763510524277
  0
LINE
  5
E6
330
2
100
AcDbEntity
  8
0
100
AcDbLine
 10
388.760333684543
 20
208.3939137838032
 30
0.0
 11
388.3216699961102
 21
208.2672824845221
 31
0.0
  0
ARC
  5
E7
330
2
100
AcDbEntity
  8
0
100
AcDbCircle
 10
388.5957638088245
 20
208.2463940359313
 30
0.0
 40
0.274888605536097
100
AcDbArc
 50
175.6419628813015
 51
180.0743375369013
  0
LINE
  5
E8
330
2
100
AcDbEntity
  8
0
100
AcDbLine
 10
388.3208754346525
 20
208.2460373859827
 30
0.0
 11
388.1629562976693
 21
208.2004500578424
 31
0.0
  0
ARC
  5
E9
330
2
100
AcDbEntity
  8
0
100
AcDbCircle
 10
389.0344274972317
 20
208.3730253352124
 30
0.0
 40
0.2748886055212836
100
AcDbArc
 50
175.6419628811022
 51
180.0743375369974
  0
LINE
  5
EA
330
2
100
AcDbEntity
  8
0
100
AcDbLine
 10
388.3208754346525
 20
207.8951061043334
 30
0.0
 11
388.3208754346525
 21
208.2460373859827
 31
0.0
  0
LINE
  5
EB
330
2
100
AcDbEntity
  8
0
100
AcDbLine
 10
388.1629562976693
 20
208.1390370850886
 30
0.0
 11
387.8120243010591
 21
208.0377317437439
 31
0.0
  0
LINE
  5
EC
330
2
100
AcDbEntity
  8
0
100
AcDbLine
 10
388.1629562976693
 20
208.1390370850886
 30
0.0
 11
388.1629562976693
 21
208.2004500578424
 31
0.0
  0
LINE
  5
ED
330
2
100
AcDbEntity
  8
0
100
AcDbLine
 10
388.1629562976693
 20
207.9109317693852
 30
0.0
 11
388.1629562976693
 21
207.8495187761931
 31
0.0
  0
LINE
  5
EE
330
2
100
AcDbEntity
  8
0
100
AcDbLine
 10
387.8120243010591
 20
207.8096264280408
 30
0.0
 11
388.1629562976693
 21
207.9109317693852
 31
0.0
  0
LINE
  5
EF
330
2
100
AcDbEntity
  8
0
100
AcDbLine
 10
387.8120243010591
 20
207.8096264280408
 30
0.0
 11
387.8120243010591
 21
207.7482134348485
 31
0.0
  0
LINE
  5
F0
330
2
100
AcDbEntity
  8
0
100
AcDbLine
 10
387.7330647325546
 20
207.7254197707784
 30
0.0
 11
387.7330647325546
 21
207.8087659729106
 31
0.0
  0
LINE
  5
F1
330
2
100
AcDbEntity
  8
0
100
AcDbLine
 10
387.7330647325546
 20
207.8087659729106
 30
0.0
 11
388.2780505535163
 21
207.9660898008735
 31
0.0
  0
LINE
  5
F2
330
2
100
AcDbEntity
  8
0
100
AcDbLine
 10
388.281394343083
 20
208.1512939948669
 30
0.0
 11
387.7330647325546
 21
207.9930048707591
 31
0.0
  0
LINE
  5
F3
330
2
100
AcDbEntity
  8
0
100
AcDbLine
 10
387.7330647325546
 20
207.9930048707591
 30
0.0
 11
387.7330647325546
 21
208.0763510524277
 31
0.0
  0
LINE
  5
F4
330
2
100
AcDbEntity
  8
0
100
AcDbLine
 10
387.8120243010591
 20
208.0377317437439
 30
0.0
 11
387.8120243010591
 21
208.0991447164978
 31
0.0
  0
LINE
  5
F5
330
2
100
AcDbEntity
  8
0
100
AcDbLine
 10
388.2780505535163
 20
207.9660898008735
 30
0.0
 11
388.2780505535163
 21
208.0596714678199
 31
0.0
  0
LINE
  5
F6
330
2
100
AcDbEntity
  8
0
100
AcDbLine
 10
388.281394343083
 20
208.1512939948669
 30
0.0
 11
388.2780505535163
 21
208.0596714678199
 31
0.0
  0
LINE
  5
F7
330
2
100
AcDbEntity
  8
0
100
AcDbLine
 10
387.7330647325546
 20
207.9930048707591
 30
0.0
 11
387.7735867888995
 21
207.9140453226678
 31
0.0
  0
LINE
  5
F8
330
2
100
AcDbEntity
  8
0
100
AcDbLine
 10
388.2780505535163
 20
208.0596714678199
 30
0.0
 11
387.7735867888995
 21
207.9140453226678
 31
0.0
  0
LINE
  5
F9
330
2
100
AcDbEntity
  8
0
100
AcDbLine
 10
387.7735867888995
 20
207.9140453226678
 30
0.0
 11
387.7735867888995
 21
207.8204636557468
 31
0.0
  0
LINE
  5
FA
330
2
100
AcDbEntity
  8
0
100
AcDbLine
 10
398.8547414766406
 20
211.5237739284629
 30
0.0
 11
398.9064843356965
 21
211.5157745237208
 31
0.0
  0
LINE
  5
FB
330
2
100
AcDbEntity
  8
0
100
AcDbLine
 10
398.8547414766406
 20
211.5390937890258
 30
0.0
 11
398.8547414766406
 21
211.5237739284629
 31
0.0
  0
LINE
  5
FC
330
2
100
AcDbEntity
  8
0
100
AcDbLine
 10
398.9030055450822
 20
211.5316322038296
 30
0.0
 11
398.8547414766406
 21
211.5390937890258
 31
0.0
  0
LINE
  5
FD
330
2
100
AcDbEntity
  8
0
100
AcDbLine
 10
398.9059241222704
 20
211.5635583491373
 30
0.0
 11
398.9064843356965
 21
211.5622344722186
 31
0.0
  0
LWPOLYLINE
  5
FE
330
2
100
AcDbEntity
  8
0
100
AcDbPolyline
 90
        3
 70
   128
 43
0.0
 10
398.9064843356965
 20
211.5324569803546
 10
398.905624992694
 20
211.5319563377168
 10
398.9030055450822
 20
211.5316322038296
  0
LINE
  5
FF
330
2
100
AcDbEntity
  8
0
100
AcDbLine
 10
398.872310775024
 20
211.6398544453247
 30
0.0
 11
398.9059241222704
 21
211.5635583491373
 31
0.0
  0
ARC
  5
100
330
2
100
AcDbEntity
  8
0
100
AcDbCircle
 10
398.951840037925
 20
211.6752450204586
 30
0.0
 40
0.0870482421767584
100
AcDbArc
 50
181.0722382607026
 51
203.9890959521004
  0
LINE
  5
101
330
2
100
AcDbEntity
  8
0
100
AcDbLine
 10
398.8648070382044
 20
211.8196107542575
 30
0.0
 11
398.8648070382044
 21
211.6736160870559
 31
0.0
  0
LWPOLYLINE
  5
102
330
2
100
AcDbEntity
  8
0
100
AcDbPolyline
 90
        9
 70
   128
 43
0.0
 10
398.8850680781535
 20
211.8371573091314
 10
398.8811153315614
 20
211.8399061862619
 10
398.8773145084577
 20
211.8412007914415
 10
398.8738116355863
 20
211.8409914158351
 10
398.8707413707737
 20
211.8392860667527
 10
398.868221648748
 20
211.836150314577
 10
398.8663493174477
 20
211.8317046574619
 10
398.8651963406472
 20
211.8261199357045
 10
398.8648070382044
 20
211.8196107542575
  0
LINE
  5
103
330
2
100
AcDbEntity
  8
0
100
AcDbLine
 10
398.9265379049301
 20
211.8012433856625
 30
0.0
 11
398.8850680781535
 21
211.8371573091314
 31
0.0
  0
ARC
  5
104
330
2
100
AcDbEntity
  8
0
100
AcDbCircle
 10
398.8793079366505
 20
211.7550119551111
 30
0.0
 40
0.0660909606019824
100
AcDbArc
 50
13.23977054460077
 51
44.38787755620237
  0
ARC
  5
105
330
2
100
AcDbEntity
  8
0
100
AcDbCircle
 10
399.0561352994347
 20
211.7951000733115
 30
0.0
 40
0.1152270538550388
100
AcDbArc
 50
192.5060257775983
 51
225.3962690924003
  0
LINE
  5
106
330
2
100
AcDbEntity
  8
0
100
AcDbLine
 10
398.4599436341446
 20
211.4251254687003
 30
0.0
 11
398.4599436341446
 21
211.4098056081374
 31
0.0
  0
LINE
  5
107
330
2
100
AcDbEntity
  8
0
100
AcDbLine
 10
398.4599436341446
 20
211.4251254687003
 30
0.0
 11
398.8547414766406
 21
211.5390937890258
 31
0.0
  0
LINE
  5
108
330
2
100
AcDbEntity
  8
0
100
AcDbLine
 10
398.4599436341446
 20
211.4098056081374
 30
0.0
 11
398.8547414766406
 21
211.5237739284629
 31
0.0
  0
LINE
  5
109
330
2
100
AcDbEntity
  8
0
100
AcDbLine
 10
398.4599436341446
 20
211.4098056081374
 30
0.0
 11
398.5116864931751
 21
211.4018062033955
 31
0.0
  0
LINE
  5
10A
330
2
100
AcDbEntity
  8
0
100
AcDbLine
 10
398.4775129325027
 20
211.5258861249992
 30
0.0
 11
398.5111262797742
 21
211.4495900288118
 31
0.0
  0
LINE
  5
10B
330
2
100
AcDbEntity
  8
0
100
AcDbLine
 10
398.5111262797742
 20
211.4495900288118
 30
0.0
 11
398.9059241222704
 21
211.5635583491373
 31
0.0
  0
ARC
  5
10C
330
2
100
AcDbEntity
  8
0
100
AcDbCircle
 10
398.5570421954035
 20
211.561276700133
 30
0.0
 40
0.0870482421761637
100
AcDbArc
 50
181.0722382606
 51
203.9890959522039
  0
LINE
  5
10D
330
2
100
AcDbEntity
  8
0
100
AcDbLine
 10
398.5111262797742
 20
211.4495900288118
 30
0.0
 11
398.5116864931751
 21
211.4482661518931
 31
0.0
  0
LINE
  5
10E
330
2
100
AcDbEntity
  8
0
100
AcDbLine
 10
398.470009195683
 20
211.7056424339321
 30
0.0
 11
398.470009195683
 21
211.5596477667306
 31
0.0
  0
LWPOLYLINE
  5
10F
330
2
100
AcDbEntity
  8
0
100
AcDbPolyline
 90
        7
 70
   128
 43
0.0
 10
398.4790314361142
 20
211.7270281920191
 10
398.4790137930901
 20
211.7270230955095
 10
398.4759435282774
 20
211.7253177464526
 10
398.4734238062264
 20
211.7221819942517
 10
398.471551474926
 20
211.7177363371363
 10
398.4703984981259
 20
211.7121516154044
 10
398.470009195683
 20
211.7056424339321
  0
ARC
  5
110
330
2
100
AcDbEntity
  8
0
100
AcDbCircle
 10
397.058893290051
 20
209.8613900416828
 30
0.0
 40
0.0287272247767914
100
AcDbArc
 50
219.8769850016994
 51
286.4843374546983
  0
LINE
  5
111
330
2
100
AcDbEntity
  8
0
100
AcDbLine
 10
397.000186430921
 20
209.8749870856253
 30
0.0
 11
397.0368473641287
 21
209.8429718280145
 31
0.0
  0
LINE
  5
112
330
2
100
AcDbEntity
  8
0
100
AcDbLine
 10
396.5305373034285
 20
210.9902956122823
 30
0.0
 11
396.530551054613
 21
210.8044364791156
 31
0.0
  0
ARC
  5
113
330
2
100
AcDbEntity
  8
0
100
AcDbCircle
 10
396.6571857842885
 20
210.3519150164454
 30
0.0
 40
0.1924076295574754
100
AcDbArc
 50
179.5440859340007
 51
222.4544297568996
  0
LINE
  5
114
330
2
100
AcDbEntity
  8
0
100
AcDbLine
 10
396.4647383930384
 20
210.9730434553512
 30
0.0
 11
396.4647842460477
 21
210.3534460265812
 31
0.0
  0
LINE
  5
115
330
2
100
AcDbEntity
  8
0
100
AcDbLine
 10
396.9710485952617
 20
209.8239773595558
 30
0.0
 11
397.0368473641287
 21
209.8429718280145
 31
0.0
  0
LINE
  5
116
330
2
100
AcDbEntity
  8
0
100
AcDbLine
 10
396.5152246578427
 20
210.2220391738589
 30
0.0
 11
396.9710485952617
 21
209.8239773595558
 31
0.0
  0
ARC
  5
117
330
2
100
AcDbEntity
  8
0
100
AcDbCircle
 10
396.2252163859225
 20
210.2267715681718
 30
0.0
 40
0.0961300000974654
100
AcDbArc
 50
179.5302861382985
 51
222.511253511701
  0
LINE
  5
118
330
2
100
AcDbEntity
  8
0
100
AcDbLine
 10
396.4647547191209
 20
210.7451390715724
 30
0.0
 11
396.1290896161642
 21
210.6482409027883
 31
0.0
  0
LINE
  5
119
330
2
100
AcDbEntity
  8
0
100
AcDbLine
 10
396.6127604129144
 20
209.7629028353327
 30
0.0
 11
396.1543546726186
 21
210.1618131621822
 31
0.0
  0
SPLINE
  5
11A
330
2
100
AcDbEntity
  8
0
100
AcDbSpline
210
0.0
220
0.0
230
1.0
 70
     8
 71
     3
 72
    10
 73
     6
 74
     0
 42
0.000000001
 43
0.0000000001
 40
0.0
 40
0.0
 40
0.0
 40
0.0
 40
0.388940421579443
 40
0.7058517750153737
 40
1.0
 40
1.0
 40
1.0
 40
1.0
 10
396.1241298881886
 20
210.6412787289871
 30
0.0
 10
396.1242274561058
 20
210.6424723639617
 30
0.0
 10
396.1244045230387
 20
210.6446385809932
 30
0.0
 10
396.1263615309482
 20
210.647099316916
 30
0.0
 10
396.1282031220047
 20
210.6478699432611
 30
0.0
 10
396.1290896161528
 20
210.648240902787
 30
0.0
  0
LWPOLYLINE
  5
11B
330
2
100
AcDbEntity
  8
0
100
AcDbPolyline
 90
        7
 70
   128
 43
0.0
 10
396.472068954553
 20
210.9904267020402
 10
396.4720533164085
 20
210.9904221650389
 10
396.469558525754
 20
210.9890356771648
 10
396.4675112972905
 20
210.986486627353
 10
396.4659902934682
 20
210.9828730391622
 10
396.4650539862949
 20
210.9783338230562
 10
396.4647383930384
 20
210.9730434553512
  0
ARC
  5
11C
330
2
100
AcDbEntity
  8
0
100
AcDbCircle
 10
396.9935245779487
 20
209.8431670181159
 30
0.0
 40
0.0295535580358877
100
AcDbArc
 50
220.4902051706972
 51
281.383544628605
  0
ARC
  5
11D
330
2
100
AcDbEntity
  8
0
100
AcDbCircle
 10
396.7228351790109
 20
210.369630012306
 30
0.0
 40
0.1922630219755586
100
AcDbArc
 50
179.5350945264024
 51
222.5096489592048
  0
LINE
  5
11E
330
2
100
AcDbEntity
  8
0
100
AcDbLine
 10
396.964817784221
 20
210.8673692548207
 30
0.0
 11
397.1315103518652
 21
210.9154892542143
 31
0.0
  0
LINE
  5
11F
330
2
100
AcDbEntity
  8
0
100
AcDbLine
 10
396.964839554948
 20
210.6567916399657
 30
0.0
 11
396.964817784221
 21
210.8673692548207
 31
0.0
  0
LINE
  5
120
330
2
100
AcDbEntity
  8
0
100
AcDbLine
 10
397.1315321225923
 20
210.7049116393593
 30
0.0
 11
396.964839554948
 21
210.6567916399657
 31
0.0
  0
LINE
  5
121
330
2
100
AcDbEntity
  8
0
100
AcDbLine
 10
397.1315103518652
 20
210.9154892542143
 30
0.0
 11
397.1315321225923
 21
210.7049116393593
 31
0.0
  0
LINE
  5
122
330
2
100
AcDbEntity
  8
0
100
AcDbLine
 10
396.530533836159
 20
210.8033082611639
 30
0.0
 11
396.5305784862202
 21
210.3711900425897
 31
0.0
  0
LINE
  5
123
330
2
100
AcDbEntity
  8
0
100
AcDbLine
 10
396.581105886659
 20
210.2397151274546
 30
0.0
 11
397.036934352772
 21
209.8430051646982
 31
0.0
  0
LWPOLYLINE
  5
124
330
2
100
AcDbEntity
  8
0
100
AcDbPolyline
 90
        9
 70
   128
 43
0.0
 10
396.5361727187316
 20
210.8166743919016
 10
396.535484546155
 20
210.8164168292408
 10
396.5342400284382
 20
210.8156029606958
 10
396.5331486607363
 20
210.8143914010348
 10
396.5322290767108
 20
210.8128028631313
 10
396.5314970088467
 20
210.8108644943304
 10
396.5309649818272
 20
210.8086094474724
 10
396.5306420766191
 20
210.8060762680727
 10
396.530533836159
 20
210.8033082611639
  0
LINE
  5
125
330
2
100
AcDbEntity
  8
0
100
AcDbLine
 10
396.5596315109167
 20
210.9251757004277
 30
0.0
 11
396.5596315109167
 21
210.8234463346596
 31
0.0
  0
LWPOLYLINE
  5
126
330
2
100
AcDbEntity
  8
0
100
AcDbPolyline
 90
        8
 70
   128
 43
0.0
 10
396.5378368481217
 20
211.0094479093057
 10
396.5353279052919
 20
211.0080581821745
 10
396.5317593899595
 20
211.0018982704957
 10
396.5305062866071
 20
210.9920719728712
 10
396.5317593899595
 20
210.9800752378307
 10
396.5353279052919
 20
210.9677344756638
 10
396.5406686017937
 20
210.9569284163316
 10
396.5469683668337
 20
210.949302226169
  0
LINE
  5
127
330
2
100
AcDbEntity
  8
0
100
AcDbLine
 10
396.5469683668337
 20
210.949302226169
 30
0.0
 11
396.5520336150252
 21
210.9449155925664
 31
0.0
  0
ARC
  5
128
330
2
100
AcDbEntity
  8
0
100
AcDbCircle
 10
396.530824087125
 20
210.9254198696882
 30
0.0
 40
0.0288084585559303
100
AcDbArc
 50
359.5143775071004
 51
42.58911111580593
  0
ARC
  5
129
330
2
100
AcDbEntity
  8
0
100
AcDbCircle
 10
397.0593297183007
 20
209.8622383370307
 30
0.0
 40
0.0295206252478226
100
AcDbArc
 50
220.6560319039049
 51
281.3837993315001
  0
ARC
  5
12A
330
2
100
AcDbEntity
  8
0
100
AcDbCircle
 10
396.3276590306432
 20
210.1657796077613
 30
0.0
 40
0.1920561557632544
100
AcDbArc
 50
179.5143497843013
 51
222.5891110121037
  0
LINE
  5
12B
330
2
100
AcDbEntity
  8
0
100
AcDbLine
 10
396.1356097740482
 20
210.1761808018518
 30
0.0
 11
396.1356097740482
 21
210.1674074937699
 31
0.0
  0
ARC
  5
12C
330
2
100
AcDbEntity
  8
0
100
AcDbCircle
 10
396.1322298813825
 20
210.4097870868105
 30
0.0
 40
0.0221890132597589
100
AcDbArc
 50
111.7042586348033
 51
171.5194071388985
  0
LINE
  5
12D
330
2
100
AcDbEntity
  8
0
100
AcDbLine
 10
396.1862623503799
 20
210.0358082810066
 30
0.0
 11
396.2432464869512
 21
209.9864585711359
 31
0.0
  0
LWPOLYLINE
  5
12E
330
2
100
AcDbEntity
  8
0
100
AcDbPolyline
 90
        7
 70
   128
 43
0.0
 10
396.1356097740482
 20
210.1761808018518
 10
396.1275386971127
 20
210.1732889525041
 10
396.1207503211674
 20
210.1696651521223
 10
396.1155069548918
 20
210.1654490588277
 10
396.1120088746906
 20
210.160802351362
 10
396.1103925864485
 20
210.1559041963684
 10
396.1102834856288
 20
210.1542475860229
  0
LINE
  5
12F
330
2
100
AcDbEntity
  8
0
100
AcDbLine
 10
396.1341622087502
 20
210.7368893023556
 30
0.0
 11
396.1122290080665
 21
210.7558840113379
 31
0.0
  0
LINE
  5
130
330
2
100
AcDbEntity
  8
0
100
AcDbLine
 10
396.1780277769335
 20
210.7310120683242
 30
0.0
 11
396.1821401835097
 21
210.7274506197343
 31
0.0
  0
LINE
  5
131
330
2
100
AcDbEntity
  8
0
100
AcDbLine
 10
396.2201296098575
 20
210.7384172229379
 30
0.0
 11
396.1780277769335
 21
210.7748784797967
 31
0.0
  0
LINE
  5
132
330
2
100
AcDbEntity
  8
0
100
AcDbLine
 10
390.0276909242885
 20
208.33445051164
 30
0.0
 11
395.6737341026775
 21
209.964322786089
 31
0.0
  0
LINE
  5
133
330
2
100
AcDbEntity
  8
0
100
AcDbLine
 10
390.0530172094911
 20
208.6023706355569
 30
0.0
 11
390.0697200467681
 21
208.581370011789
 31
0.0
  0
LINE
  5
134
330
2
100
AcDbEntity
  8
0
100
AcDbLine
 10
390.1163329210671
 20
208.3020392379178
 30
0.0
 11
390.1163329210671
 21
208.3489711599279
 31
0.0
  0
SPLINE
  5
135
330
2
100
AcDbEntity
  8
0
100
AcDbSpline
210
0.0
220
0.0
230
1.0
 70
     8
 71
     3
 72
    10
 73
     6
 74
     0
 42
0.000000001
 43
0.0000000001
 40
0.0
 40
0.0
 40
0.0
 40
0.0
 40
0.0820161916443068
 40
0.3975071034994657
 40
1.0
 40
1.0
 40
1.0
 40
1.0
 10
390.0779319735353
 20
208.2061438155923
 30
0.0
 10
390.0769630619541
 20
208.2055552805899
 30
0.0
 10
390.0722670473205
 20
208.2027028335371
 30
0.0
 10
390.0579184744573
 20
208.2029750611384
 30
0.0
 10
390.0433315055949
 20
208.2126821947776
 30
0.0
 10
390.0337577581702
 20
208.2190531993743
 30
0.0
  0
SPLINE
  5
136
330
2
100
AcDbEntity
  8
0
100
AcDbSpline
210
0.0
220
0.0
230
1.0
 70
     8
 71
     3
 72
    11
 73
     7
 74
     0
 42
0.000000001
 43
0.0000000001
 40
0.0
 40
0.0
 40
0.0
 40
0.0
 40
0.3666401583948299
 40
0.7330041225198432
 40
0.9236095829702895
 40
1.0
 40
1.0
 40
1.0
 40
1.0
 10
389.9044515590335
 20
208.5952151999127
 30
0.0
 10
389.9059272725962
 20
208.6117023796974
 30
0.0
 10
389.9088775880493
 20
208.6446643192839
 30
0.0
 10
389.9246526411746
 20
208.6684777142768
 30
0.0
 10
389.9381112882112
 20
208.6770674847402
 30
0.0
 10
389.9447358934243
 20
208.6770230809817
 30
0.0
 10
389.9466312648423
 20
208.6770103765846
 30
0.0
  0
ARC
  5
137
330
2
100
AcDbEntity
  8
0
100
AcDbCircle
 10
390.1113261027149
 20
208.2952816239862
 30
0.0
 40
0.0084103255786041
100
AcDbArc
 50
2.902957451401067
 51
53.46469381219766
  0
LINE
  5
138
330
2
100
AcDbEntity
  8
0
100
AcDbLine
 10
396.5152246578427
 20
210.2220391738589
 30
0.0
 11
396.5799671114205
 21
210.2407287103379
 31
0.0
  0
LINE
  5
139
330
2
100
AcDbEntity
  8
0
100
AcDbLine
 10
396.4886536252391
 20
210.2583169573151
 30
0.0
 11
396.1543546726186
 21
210.1618131621822
 31
0.0
  0
LINE
  5
13A
330
2
100
AcDbEntity
  8
0
100
AcDbLine
 10
396.6127604129144
 20
209.7629028353327
 30
0.0
 11
396.9345966752669
 21
209.8558089616932
 31
0.0
  0
LWPOLYLINE
  5
13B
330
2
100
AcDbEntity
  8
0
100
AcDbPolyline
 90
        7
 70
   128
 43
0.0
 10
396.1240246371152
 20
210.2231694327039
 10
396.1240459030133
 20
210.2235042539031
 10
396.1243699497781
 20
210.2244841072412
 10
396.1250695587423
 20
210.2254134548786
 10
396.1261179681785
 20
210.2262566001014
 10
396.127475652799
 20
210.2269813520125
 10
396.1290896161642
 20
210.2275596382242
  0
ARC
  5
13C
330
2
100
AcDbEntity
  8
0
100
AcDbCircle
 10
396.1520526592055
 20
210.1683937248997
 30
0.0
 40
0.0069715903018485
100
AcDbArc
 50
231.5523391912009
 51
289.2808655548034
  0
ARC
  5
13D
330
2
100
AcDbEntity
  8
0
100
AcDbCircle
 10
396.6104589695705
 20
209.7694924789159
 30
0.0
 40
0.0069799744967272
100
AcDbArc
 50
231.5872945265952
 51
289.2518348976011
  0
ARC
  5
13E
330
2
100
AcDbEntity
  8
0
100
AcDbCircle
 10
396.6239541852372
 20
209.772512282754
 30
0.0
 40
0.0147526953031162
100
AcDbArc
 50
220.6448933195995
 51
281.3998283459966
  0
LINE
  5
13F
330
2
100
AcDbEntity
  8
0
100
AcDbLine
 10
396.581105886659
 20
210.2397151274546
 30
0.0
 11
433.2906881703888
 21
220.8368587341274
 31
0.0
  0
LINE
  5
140
330
2
100
AcDbEntity
  8
0
100
AcDbLine
 10
396.5469683668337
 20
210.949302226169
 30
0.0
 11
398.485050703188
 21
211.5087784054867
 31
0.0
  0
LINE
  5
141
330
2
100
AcDbEntity
  8
0
100
AcDbLine
 10
398.886977366631
 20
211.6248046391563
 30
0.0
 11
430.8971615786839
 21
220.8653488749835
 31
0.0
  0
ARC
  5
142
330
2
100
AcDbEntity
  8
0
100
AcDbCircle
 10
396.4866171762499
 20
210.3156197627666
 30
0.0
 40
0.3739893603268364
100
AcDbArc
 50
165.8189615260986
 51
194.1810384739014
  0
SPLINE
  5
143
330
2
100
AcDbEntity
  8
0
100
AcDbSpline
210
0.0
220
0.0
230
1.0
 70
     8
 71
     3
 72
    10
 73
     6
 74
     0
 42
0.000000001
 43
0.0000000001
 40
0.0
 40
0.0
 40
0.0
 40
0.0
 40
0.3207505941034391
 40
0.6665557628181091
 40
1.0
 40
1.0
 40
1.0
 40
1.0
 10
396.103254944543
 20
210.1886958091178
 30
0.0
 10
396.1039788077587
 20
210.1875957737036
 30
0.0
 10
396.1054830768286
 20
210.1853097765514
 30
0.0
 10
396.1162368059242
 20
210.1853400444783
 30
0.0
 10
396.1270704402432
 20
210.188027873276
 30
0.0
 10
396.1323886825559
 20
210.1893473312179
 30
0.0
  0
SPLINE
  5
144
330
2
100
AcDbEntity
  8
0
100
AcDbSpline
210
0.0
220
0.0
230
1.0
 70
     8
 71
     3
 72
     9
 73
     5
 74
     0
 42
0.000000001
 43
0.0000000001
 40
0.0
 40
0.0
 40
0.0
 40
0.0
 40
0.3257220231323902
 40
1.0
 40
1.0
 40
1.0
 40
1.0
 10
396.1240251761315
 20
210.4228047636826
 30
0.0
 10
396.1216614653354
 20
210.4217111906482
 30
0.0
 10
396.114404630893
 20
210.4183538093336
 30
0.0
 10
396.110522052308
 20
210.4110134100058
 30
0.0
 10
396.1079041150746
 20
210.4060639403976
 30
0.0
  0
SPLINE
  5
145
330
2
100
AcDbEntity
  8
0
100
AcDbSpline
210
0.0
220
0.0
230
1.0
 70
     8
 71
     3
 72
    10
 73
     6
 74
     0
 42
0.000000001
 43
0.0000000001
 40
0.0
 40
0.0
 40
0.0
 40
0.0
 40
0.1432595026834423
 40
0.9836018662979979
 40
1.0
 40
1.0
 40
1.0
 40
1.0
 10
396.1132415758531
 20
210.1728403599377
 30
0.0
 10
396.1134390088226
 20
210.1725494311565
 30
0.0
 10
396.1147945589498
 20
210.1705519504541
 30
0.0
 10
396.1174590147317
 20
210.1694541953541
 30
0.0
 10
396.1199566002352
 20
210.1689888114218
 30
0.0
 10
396.1200044043733
 20
210.1689799039078
 30
0.0
  0
LINE
  5
146
330
2
100
AcDbEntity
  8
0
100
AcDbLine
 10
396.1356097740482
 20
210.1674074937699
 30
0.0
 11
396.1424849747252
 21
210.1693921932338
 31
0.0
  0
LINE
  5
147
330
2
100
AcDbEntity
  8
0
100
AcDbLine
 10
396.2670142558502
 20
210.0591193481934
 30
0.0
 11
396.1862623503799
 21
210.0358082810066
 31
0.0
  0
LWPOLYLINE
  5
148
330
2
100
AcDbEntity
  8
0
100
AcDbPolyline
 90
        7
 70
   128
 43
0.0
 10
396.1102877804602
 20
210.1451339256843
 10
396.1103925864485
 20
210.1471308882867
 10
396.1120088746906
 20
210.1520290432803
 10
396.1155069548918
 20
210.1566757507459
 10
396.1207503211674
 20
210.1608918440406
 10
396.1275386971127
 20
210.1645156444223
 10
396.1356097740482
 20
210.1674074937699
  0
ARC
  5
149
330
2
100
AcDbEntity
  8
0
100
AcDbCircle
 10
396.1746652459927
 20
210.0681899166449
 30
0.0
 40
0.0343956851470635
100
AcDbArc
 50
230.9449083159957
 51
289.7043916077975
  0
LINE
  5
14A
330
2
100
AcDbEntity
  8
0
100
AcDbLine
 10
396.2432464869512
 20
209.9864585711359
 30
0.0
 11
396.3237931430495
 21
210.0097103879118
 31
0.0
  0
ARC
  5
14B
330
2
100
AcDbEntity
  8
0
100
AcDbCircle
 10
396.2317399955507
 20
210.0194161647662
 30
0.0
 40
0.0349084849685402
100
AcDbArc
 50
231.6620167386951
 51
289.2456372172
  0
ARC
  5
14C
330
2
100
AcDbEntity
  8
0
100
AcDbCircle
 10
396.3022457299256
 20
210.0409166539334
 30
0.0
 40
0.0802906809794407
100
AcDbArc
 50
222.7079443727
 51
279.571434631404
  0
ARC
  5
14D
330
2
100
AcDbEntity
  8
0
100
AcDbCircle
 10
396.1314535192912
 20
210.4191754504615
 30
0.0
 40
0.021336148336546
100
AcDbArc
 50
110.3779434700964
 51
172.8457223036991
  0
LINE
  5
14E
330
2
100
AcDbEntity
  8
0
100
AcDbLine
 10
434.7015232562331
 20
221.6173061599886
 30
0.0
 11
434.3216290045309
 21
221.9463042327233
 31
0.0
  0
LINE
  5
14F
330
2
100
AcDbEntity
  8
0
100
AcDbLine
 10
434.657086579839
 20
220.9820211674558
 30
0.0
 11
434.7009524257755
 21
220.9946841464114
 31
0.0
  0
LINE
  5
150
330
2
100
AcDbEntity
  8
0
100
AcDbLine
 10
433.8464130571144
 20
221.8096481678112
 30
0.0
 11
433.8464130571144
 21
221.7657817576052
 31
0.0
  0
LINE
  5
151
330
2
100
AcDbEntity
  8
0
100
AcDbLine
 10
436.5986824565712
 20
221.3972434463733
 30
0.0
 11
437.6734100619893
 21
221.7074905825231
 31
0.0
  0
SPLINE
  5
152
330
2
100
AcDbEntity
  8
0
100
AcDbSpline
210
0.0
220
0.0
230
1.0
 70
     8
 71
     3
 72
    10
 73
     6
 74
     0
 42
0.000000001
 43
0.0000000001
 40
0.0
 40
0.0
 40
0.0
 40
0.0
 40
0.3371176324390126
 40
0.6842581558894728
 40
1.0
 40
1.0
 40
1.0
 40
1.0
 10
437.5459565992074
 20
222.0060492114664
 30
0.0
 10
437.541115100919
 20
222.0094965705868
 30
0.0
 10
437.5312881610867
 20
222.0164937827387
 30
0.0
 10
437.5134212531843
 20
222.0205820708533
 30
0.0
 10
437.5019153384985
 20
222.0181429778097
 30
0.0
 10
437.4964348808809
 20
222.0169811974197
 30
0.0
  0
SPLINE
  5
153
330
2
100
AcDbEntity
  8
0
100
AcDbSpline
210
0.0
220
0.0
230
1.0
 70
     8
 71
     3
 72
    15
 73
    11
 74
     0
 42
0.000000001
 43
0.0000000001
 40
0.0
 40
0.0
 40
0.0
 40
0.0
 40
0.1378841385153275
 40
0.2692342515722202
 40
0.3860638599066777
 40
0.4991446197577001
 40
0.6226665460070404
 40
0.7819253620277561
 40
0.9479365699895479
 40
1.0
 40
1.0
 40
1.0
 40
1.0
 10
437.5293923664007
 20
221.9029225841766
 30
0.0
 10
437.5349395360809
 20
221.9049421488151
 30
0.0
 10
437.5457710072951
 20
221.9088855753744
 30
0.0
 10
437.5574190821724
 20
221.9209911337767
 30
0.0
 10
437.5647927122697
 20
221.9344676061272
 30
0.0
 10
437.5682579152637
 20
221.9490995309246
 30
0.0
 10
437.5680456521636
 20
221.9658964290811
 30
0.0
 10
437.5628417071954
 20
221.9845247954749
 30
0.0
 10
437.5542833105146
 20
221.998298224575
 30
0.0
 10
437.5475613976521
 20
222.0045553717919
 30
0.0
 10
437.5459565992074
 20
222.0060492114664
 30
0.0
  0
LINE
  5
154
330
2
100
AcDbEntity
  8
0
100
AcDbLine
 10
437.4926886212288
 20
222.1914703361822
 30
0.0
 11
437.5373192498769
 21
222.2043540889143
 31
0.0
  0
LINE
  5
155
330
2
100
AcDbEntity
  8
0
100
AcDbLine
 10
437.5188766214684
 20
222.6376078025426
 30
0.0
 11
436.44414901605
 21
222.3273606663927
 31
0.0
  0
SPLINE
  5
156
330
2
100
AcDbEntity
  8
0
100
AcDbSpline
210
0.0
220
0.0
230
1.0
 70
     8
 71
     3
 72
    10
 73
     6
 74
     0
 42
0.000000001
 43
0.0000000001
 40
0.0
 40
0.0
 40
0.0
 40
0.0
 40
0.3371177587646955
 40
0.6842581648241153
 40
1.0
 40
1.0
 40
1.0
 40
1.0
 10
437.5459565992074
 20
222.3833003356686
 30
0.0
 10
437.5411151020498
 20
222.3867477060316
 30
0.0
 10
437.5312881680661
 20
222.3937449384724
 30
0.0
 10
437.5134212510588
 20
222.397833180541
 30
0.0
 10
437.5019153344211
 20
222.3953941147521
 30
0.0
 10
437.4964348749841
 20
222.3942323471554
 30
0.0
  0
SPLINE
  5
157
330
2
100
AcDbEntity
  8
0
100
AcDbSpline
210
0.0
220
0.0
230
1.0
 70
     8
 71
     3
 72
    11
 73
     7
 74
     0
 42
0.000000001
 43
0.0000000001
 40
0.0
 40
0.0
 40
0.0
 40
0.0
 40
0.1922123192932505
 40
0.4658948475947608
 40
0.7450208935537753
 40
1.0
 40
1.0
 40
1.0
 40
1.0
 10
436.3273475575058
 20
221.4111553464801
 30
0.0
 10
436.343717207936
 20
221.4047626497753
 30
0.0
 10
436.3833948717839
 20
221.3892676780282
 30
0.0
 10
436.4519349999602
 20
221.3796878518492
 30
0.0
 10
436.5270433702226
 20
221.3800833676617
 30
0.0
 10
436.5751394524629
 20
221.392018592997
 30
0.0
 10
436.598100279592
 20
221.3977164093867
 30
0.0
  0
LINE
  5
158
330
2
100
AcDbEntity
  8
0
100
AcDbLine
 10
437.4962204887444
 20
222.3945401177922
 30
0.0
 11
437.4923050626098
 21
222.3934098316203
 31
0.0
  0
LINE
  5
159
330
2
100
AcDbEntity
  8
0
100
AcDbLine
 10
437.6549674335806
 20
222.1407442501842
 30
0.0
 11
437.4923053363111
 21
222.0937877473696
 31
0.0
  0
SPLINE
  5
15A
330
2
100
AcDbEntity
  8
0
100
AcDbSpline
210
0.0
220
0.0
230
1.0
 70
     8
 71
     3
 72
    15
 73
    11
 74
     0
 42
0.000000001
 43
0.0000000001
 40
0.0
 40
0.0
 40
0.0
 40
0.0
 40
0.1378840562115173
 40
0.2692343999666227
 40
0.3860638504108667
 40
0.4991447688471117
 40
0.6226665162750688
 40
0.7819254765144549
 40
0.9479366729528283
 40
1.0
 40
1.0
 40
1.0
 40
1.0
 10
437.5293923664007
 20
222.2801737083789
 30
0.0
 10
437.5349395394299
 20
222.2821932628235
 30
0.0
 10
437.5457710296188
 20
222.2861366740057
 30
0.0
 10
437.5574190611523
 20
222.2982422737164
 30
0.0
 10
437.564792723757
 20
222.3117187396316
 30
0.0
 10
437.5682579103951
 20
222.3263506620666
 30
0.0
 10
437.5680456509654
 20
222.3431475674758
 30
0.0
 10
437.5628417083372
 20
222.3617759305208
 30
0.0
 10
437.5542833217149
 20
222.3755493771377
 30
0.0
 10
437.5475613979287
 20
222.3818065032118
 30
0.0
 10
437.5459565992074
 20
222.3833003356686
 30
0.0
  0
LINE
  5
15B
330
2
100
AcDbEntity
  8
0
100
AcDbLine
 10
437.5153866035857
 20
222.2756516572578
 30
0.0
 11
437.5293749373498
 21
222.279689741397
 31
0.0
  0
SPLINE
  5
15C
330
2
100
AcDbEntity
  8
0
100
AcDbSpline
210
0.0
220
0.0
230
1.0
 70
     8
 71
     3
 72
    11
 73
     7
 74
     0
 42
0.000000001
 43
0.0000000001
 40
0.0
 40
0.0
 40
0.0
 40
0.0
 40
0.2613727078849699
 40
0.5429371975291995
 40
0.8072150795249372
 40
1.0
 40
1.0
 40
1.0
 40
1.0
 10
436.4441398044523
 20
222.3264120771397
 30
0.0
 10
436.4211276993059
 20
222.3189196662803
 30
0.0
 10
436.3733257387319
 20
222.3033560346081
 30
0.0
 10
436.3099079489654
 20
222.2634298992892
 30
0.0
 10
436.2578273240337
 20
222.2191481280548
 30
0.0
 10
436.2327437747448
 20
222.1858246378924
 30
0.0
 10
436.2221637624825
 20
222.1717690937393
 30
0.0
  0
LINE
  5
15D
330
2
100
AcDbEntity
  8
0
100
AcDbLine
 10
436.2907438734612
 20
221.3578016371364
 30
0.0
 11
436.3346097193977
 21
221.3650784539464
 31
0.0
  0
LINE
  5
15E
330
2
100
AcDbEntity
  8
0
100
AcDbLine
 10
436.2030108743211
 20
221.3432475444017
 30
0.0
 11
436.2468767202324
 21
221.3505243612117
 31
0.0
  0
LINE
  5
15F
330
2
100
AcDbEntity
  8
0
100
AcDbLine
 10
436.1152778751813
 20
221.3286934516923
 30
0.0
 11
436.1591437210925
 21
221.3359702685023
 31
0.0
  0
LINE
  5
160
330
2
100
AcDbEntity
  8
0
100
AcDbLine
 10
436.1776073619592
 20
222.2064954391438
 30
0.0
 11
436.1337402087305
 21
222.1884459512498
 31
0.0
  0
LINE
  5
161
330
2
100
AcDbEntity
  8
0
100
AcDbLine
 10
435.4792152654878
 20
221.2231766490531
 30
0.0
 11
436.0714107219527
 21
221.3214161757674
 31
0.0
  0
LINE
  5
162
330
2
100
AcDbEntity
  8
0
100
AcDbLine
 10
436.0898743628194
 20
222.1703968713874
 30
0.0
 11
436.0460085169081
 21
222.1523477609056
 31
0.0
  0
LINE
  5
163
330
2
100
AcDbEntity
  8
0
100
AcDbLine
 10
435.9144083645142
 20
222.0981997256937
 30
0.0
 11
435.3222129080746
 21
221.854535015586
 31
0.0
  0
LINE
  5
164
330
2
100
AcDbEntity
  8
0
100
AcDbLine
 10
436.0021413636794
 20
222.1342982934499
 30
0.0
 11
435.9582755177681
 21
222.1162491829428
 31
0.0
  0
LINE
  5
165
330
2
100
AcDbEntity
  8
0
100
AcDbLine
 10
435.3015173065243
 20
221.5190864252333
 30
0.0
 11
434.5123203543687
 21
221.291264888871
 31
0.0
  0
LINE
  5
166
330
2
100
AcDbEntity
  8
0
100
AcDbLine
 10
434.3467010971912
 20
221.2434547275129
 30
0.0
 11
434.0692692969849
 21
221.1633670652318
 31
0.0
  0
LINE
  5
167
330
2
100
AcDbEntity
  8
0
100
AcDbLine
 10
434.1043905307857
 20
221.0417035348199
 30
0.0
 11
434.4608459582287
 21
221.1446033533349
 31
0.0
  0
LINE
  5
168
330
2
100
AcDbEntity
  8
0
100
AcDbLine
 10
434.5474415881695
 20
221.1696013584592
 30
0.0
 11
435.3125197767861
 21
221.390460407537
 31
0.0
  0
LINE
  5
169
330
2
100
AcDbEntity
  8
0
100
AcDbLine
 10
435.3015173065243
 20
221.6331390830976
 30
0.0
 11
434.5123203543687
 21
221.4053175467098
 31
0.0
  0
LINE
  5
16A
330
2
100
AcDbEntity
  8
0
100
AcDbLine
 10
434.2884691017581
 20
221.3406972562359
 30
0.0
 11
434.0692692969849
 21
221.2774197230961
 31
0.0
  0
LINE
  5
16B
330
2
100
AcDbEntity
  8
0
100
AcDbLine
 10
431.2859407908674
 20
221.1975671656464
 30
0.0
 11
430.8911429483712
 21
221.0835988453208
 31
0.0
  0
LINE
  5
16C
330
2
100
AcDbEntity
  8
0
100
AcDbLine
 10
433.7214987135716
 20
221.4956173578709
 30
0.0
 11
433.6922834579186
 21
221.4917109399918
 31
0.0
  0
SPLINE
  5
16D
330
2
100
AcDbEntity
  8
0
100
AcDbSpline
210
0.0
220
0.0
230
1.0
 70
     8
 71
     3
 72
    10
 73
     6
 74
     0
 42
0.000000001
 43
0.0000000001
 40
0.0
 40
0.0
 40
0.0
 40
0.0
 40
0.4375239125216758
 40
0.8002162343547052
 40
1.0
 40
1.0
 40
1.0
 40
1.0
 10
433.7395377350406
 20
221.5618803553177
 30
0.0
 10
433.7378385318509
 20
221.5630901800642
 30
0.0
 10
433.7347307474781
 20
221.5653029080435
 30
0.0
 10
433.7296245849636
 20
221.5663198553361
 30
0.0
 10
433.7269323946816
 20
221.5654608371321
 30
0.0
 10
433.7259761657425
 20
221.5651557256876
 30
0.0
  0
LINE
  5
16E
330
2
100
AcDbEntity
  8
0
100
AcDbLine
 10
433.7258814345419
 20
221.5653951849583
 30
0.0
 11
433.3661760072962
 21
221.461557172335
 31
0.0
  0
LINE
  5
16F
330
2
100
AcDbEntity
  8
0
100
AcDbLine
 10
433.926462666274
 20
221.3999986162749
 30
0.0
 11
433.7395377350496
 21
221.5618803553204
 31
0.0
  0
LINE
  5
170
330
2
100
AcDbEntity
  8
0
100
AcDbLine
 10
433.3146824858103
 20
221.6259769622658
 30
0.0
 11
433.2488837169434
 21
221.6069824938072
 31
0.0
  0
SPLINE
  5
171
330
2
100
AcDbEntity
  8
0
100
AcDbSpline
210
0.0
220
0.0
230
1.0
 70
     8
 71
     3
 72
    11
 73
     7
 74
     0
 42
0.000000001
 43
0.0000000001
 40
0.0
 40
0.0
 40
0.0
 40
0.0
 40
0.1945105074063493
 40
0.4401245690117079
 40
0.7430699896112603
 40
1.0
 40
1.0
 40
1.0
 40
1.0
 10
434.1891690734775
 20
220.6036749025717
 30
0.0
 10
434.1913661342761
 20
220.6044968760515
 30
0.0
 10
434.1963374874947
 20
220.6063567792946
 30
0.0
 10
434.2015554842017
 20
220.6137228754663
 30
0.0
 10
434.2047154248336
 20
220.6229190387784
 30
0.0
 10
434.2050757777372
 20
220.6307285255095
 30
0.0
 10
434.2052411457281
 20
220.6343123432588
 30
0.0
  0
LINE
  5
172
330
2
100
AcDbEntity
  8
0
100
AcDbLine
 10
433.8291924046877
 20
220.4993554169344
 30
0.0
 11
434.1888978319334
 21
220.6031934295576
 31
0.0
  0
LINE
  5
173
330
2
100
AcDbEntity
  8
0
100
AcDbLine
 10
434.2052411457161
 20
220.6343123432501
 30
0.0
 11
434.2052411457161
 21
220.9185998160491
 31
0.0
  0
LINE
  5
174
330
2
100
AcDbEntity
  8
0
100
AcDbLine
 10
433.7761266444337
 20
220.4340970470449
 30
0.0
 11
433.8419254133005
 21
220.4530915155036
 31
0.0
  0
LINE
  5
175
330
2
100
AcDbEntity
  8
0
100
AcDbLine
 10
433.2488561673917
 20
221.6070063524076
 30
0.0
 11
431.2769185504362
 21
221.0377569954241
 31
0.0
  0
SPLINE
  5
176
330
2
100
AcDbEntity
  8
0
100
AcDbSpline
210
0.0
220
0.0
230
1.0
 70
     8
 71
     3
 72
    11
 73
     7
 74
     0
 42
0.000000001
 43
0.0000000001
 40
0.0
 40
0.0
 40
0.0
 40
0.0
 40
0.2362155331459947
 40
0.4820272013208676
 40
0.7373260840479499
 40
1.0
 40
1.0
 40
1.0
 40
1.0
 10
434.0209327788122
 20
221.3455365108163
 30
0.0
 10
434.0181167765825
 20
221.3476313280173
 30
0.0
 10
434.0123703734754
 20
221.3519060632952
 30
0.0
 10
434.0021069383028
 20
221.35577444154
 30
0.0
 10
433.9907957944167
 20
221.3574513875684
 30
0.0
 10
433.9831666810577
 20
221.3559739341489
 30
0.0
 10
433.9792978117151
 20
221.3552246892537
 30
0.0
  0
LINE
  5
177
330
2
100
AcDbEntity
  8
0
100
AcDbLine
 10
434.0596621782646
 20
221.3120103266219
 30
0.0
 11
434.0190207189253
 21
221.3472068628606
 31
0.0
  0
LINE
  5
178
330
2
100
AcDbEntity
  8
0
100
AcDbLine
 10
433.9788995934094
 20
221.3551281109181
 30
0.0
 11
433.847300748333
 21
221.3171387966136
 31
0.0
  0
SPLINE
  5
179
330
2
100
AcDbEntity
  8
0
100
AcDbSpline
210
0.0
220
0.0
230
1.0
 70
     8
 71
     3
 72
    13
 73
     9
 74
     0
 42
0.000000001
 43
0.0000000001
 40
0.0
 40
0.0
 40
0.0
 40
0.0
 40
0.1246806583777975
 40
0.2992630251745492
 40
0.4817764542790173
 40
0.6913547237894893
 40
0.9211603274450348
 40
1.0
 40
1.0
 40
1.0
 40
1.0
 10
434.159328995059
 20
220.8883158136669
 30
0.0
 10
434.1677778915385
 20
220.8909169901275
 30
0.0
 10
434.1880572384136
 20
220.8971604279366
 30
0.0
 10
434.2114825320829
 20
220.9226365545315
 30
0.0
 10
434.2299567065025
 20
220.9573630354516
 30
0.0
 10
434.2403032258579
 20
221.0029011987071
 30
0.0
 10
434.2435579219031
 20
221.0454762678218
 30
0.0
 10
434.240117150971
 20
221.0734779997298
 30
0.0
 10
434.239238247989
 20
221.0806307007259
 30
0.0
  0
SPLINE
  5
17A
330
2
100
AcDbEntity
  8
0
100
AcDbSpline
210
0.0
220
0.0
230
1.0
 70
     8
 71
     3
 72
     9
 73
     5
 74
     0
 42
0.000000001
 43
0.0000000001
 40
0.0
 40
0.0
 40
0.0
 40
0.0
 40
0.6135885244915251
 40
1.0
 40
1.0
 40
1.0
 40
1.0
 10
434.1631776841274
 20
221.3045287427942
 30
0.0
 10
434.154785360677
 20
221.3168301383483
 30
0.0
 10
434.1411079154261
 20
221.3368784199946
 30
0.0
 10
434.1252908430932
 20
221.3513726579255
 30
0.0
 10
434.1191789448348
 20
221.3569733977909
 30
0.0
  0
LINE
  5
17B
330
2
100
AcDbEntity
  8
0
100
AcDbLine
 10
434.0267696532271
 20
220.8480217569237
 30
0.0
 11
434.1583684983037
 21
220.8860110712282
 31
0.0
  0
SPLINE
  5
17C
330
2
100
AcDbEntity
  8
0
100
AcDbSpline
210
0.0
220
0.0
230
1.0
 70
     8
 71
     3
 72
    11
 73
     7
 74
     0
 42
0.000000001
 43
0.0000000001
 40
0.0
 40
0.0
 40
0.0
 40
0.0
 40
0.1543660223893071
 40
0.5150852215213597
 40
0.8628718838183051
 40
1.0
 40
1.0
 40
1.0
 40
1.0
 10
434.0614722171077
 20
221.4053974684853
 30
0.0
 10
434.0591883767676
 20
221.4078309653782
 30
0.0
 10
434.0515677074703
 20
221.4159510054412
 30
0.0
 10
434.0335529760525
 20
221.4226892564302
 30
0.0
 10
434.0141750407967
 20
221.4255074329627
 30
0.0
 10
434.0040087393989
 20
221.4215683215165
 30
0.0
 10
434.0011338306084
 20
221.4204543877778
 30
0.0
  0
LINE
  5
17D
330
2
100
AcDbEntity
  8
0
100
AcDbLine
 10
434.0009376203678
 20
221.4214976938817
 30
0.0
 11
433.8693387752911
 21
221.3835083795774
 31
0.0
  0
LINE
  5
17E
330
2
100
AcDbEntity
  8
0
100
AcDbLine
 10
434.1191789448326
 20
221.3569733977993
 30
0.0
 11
434.0621948082613
 21
221.4063231076699
 31
0.0
  0
LINE
  5
17F
330
2
100
AcDbEntity
  8
0
100
AcDbLine
 10
434.332335962823
 20
221.3504144193063
 30
0.0
 11
434.332335962823
 21
221.9206777571022
 31
0.0
  0
LINE
  5
180
330
2
100
AcDbEntity
  8
0
100
AcDbLine
 10
434.7122302144996
 20
221.0214163465717
 30
0.0
 11
434.7122302144996
 21
221.2171717203282
 31
0.0
  0
LINE
  5
181
330
2
100
AcDbEntity
  8
0
100
AcDbLine
 10
434.7122302144996
 20
221.4630265525036
 30
0.0
 11
434.7122302144996
 21
221.5916796843676
 31
0.0
  0
LWPOLYLINE
  5
182
330
2
100
AcDbEntity
  8
0
100
AcDbPolyline
 90
        9
 70
   128
 43
0.0
 10
434.7122302144996
 20
221.0214163465717
 10
434.7117435805641
 20
221.0132798569858
 10
434.7103023713532
 20
221.0062989675727
 10
434.707961969017
 20
221.0007418834268
 10
434.7048123223606
 20
220.9968221982724
 10
434.7009744559701
 20
220.9946905196188
 10
434.6965958825586
 20
220.9944288000792
 10
434.6918448477715
 20
220.9960470693179
 10
434.6869039263589
 20
220.9994831376569
  0
LINE
  5
183
330
2
100
AcDbEntity
  8
0
100
AcDbLine
 10
434.3576622273849
 20
221.2846148129246
 30
0.0
 11
434.6869039263589
 21
220.9994831376569
 31
0.0
  0
ARC
  5
184
330
2
100
AcDbEntity
  8
0
100
AcDbCircle
 10
434.4283605644264
 20
221.3496004406932
 30
0.0
 40
0.0960280515084032
100
AcDbArc
 50
179.5143284029005
 51
222.5890966166012
  0
ARC
  5
185
330
2
100
AcDbEntity
  8
0
100
AcDbCircle
 10
434.3844947185155
 20
221.3369374617122
 30
0.0
 40
0.0960280515077965
100
AcDbArc
 50
179.5143284027979
 51
222.5890966166968
  0
LINE
  5
186
330
2
100
AcDbEntity
  8
0
100
AcDbLine
 10
433.8717393514346
 20
221.8315813785242
 30
0.0
 11
434.2884701169118
 21
221.9518811883274
 31
0.0
  0
ARC
  5
187
330
2
100
AcDbEntity
  8
0
100
AcDbCircle
 10
434.3001972081477
 20
221.9219320941232
 30
0.0
 40
0.0321632229856813
100
AcDbArc
 50
357.7649488640054
 51
111.3836953594966
  0
ARC
  5
188
330
2
100
AcDbEntity
  8
0
100
AcDbCircle
 10
434.2724005905416
 20
221.8867086611683
 30
0.0
 40
0.0160817572920177
100
AcDbArc
 50
357.7652534194998
 51
111.3879238778048
  0
LINE
  5
189
330
2
100
AcDbEntity
  8
0
100
AcDbLine
 10
433.8717393514346
 20
221.7877149683179
 30
0.0
 11
434.2665358866132
 21
221.9016829112312
 31
0.0
  0
LINE
  5
18A
330
2
100
AcDbEntity
  8
0
100
AcDbLine
 10
434.2884701169118
 20
221.3377514403254
 30
0.0
 11
434.2884701169118
 21
221.8860815723723
 31
0.0
  0
LINE
  5
18B
330
2
100
AcDbEntity
  8
0
100
AcDbLine
 10
434.6430380804224
 20
220.9868201586761
 30
0.0
 11
434.6869039263589
 21
220.9994831376569
 31
0.0
  0
LINE
  5
18C
330
2
100
AcDbEntity
  8
0
100
AcDbLine
 10
434.3137963814736
 20
221.2719518339437
 30
0.0
 11
434.6430380804224
 21
220.9868201586761
 31
0.0
  0
ARC
  5
18D
330
2
100
AcDbEntity
  8
0
100
AcDbCircle
 10
434.6793047931267
 20
221.5929731315027
 30
0.0
 40
0.0329508175785795
100
AcDbArc
 50
357.7503409136994
 51
47.6008284993049
  0
LWPOLYLINE
  5
18E
330
2
100
AcDbEntity
  8
0
100
AcDbPolyline
 90
        8
 70
   128
 43
0.0
 10
434.2884700107694
 20
221.7207202253067
 10
434.2730263683479
 20
221.7235142767782
 10
434.2355559615414
 20
221.7247422853794
 10
434.1999983429759
 20
221.7187072495279
 10
434.1717665449204
 20
221.7063278669562
 10
434.1551570075211
 20
221.6894883231594
 10
434.1527010669304
 20
221.6707530533887
 10
434.1647726473454
 20
221.6529743527809
  0
ARC
  5
18F
330
2
100
AcDbEntity
  8
0
100
AcDbCircle
 10
434.2487852127046
 20
221.782853245817
 30
0.0
 40
0.154682377791523
100
AcDbArc
 50
237.1030660799062
 51
284.8658280506935
  0
LINE
  5
190
330
2
100
AcDbEntity
  8
0
100
AcDbLine
 10
434.2010725470802
 20
221.4518506291077
 30
0.0
 11
434.2884694954301
 21
221.3761626516201
 31
0.0
  0
LINE
  5
191
330
2
100
AcDbEntity
  8
0
100
AcDbLine
 10
433.9637733943043
 20
221.6826836816616
 30
0.0
 11
434.2170362287807
 21
221.4633516331886
 31
0.0
  0
LINE
  5
192
330
2
100
AcDbEntity
  8
0
100
AcDbLine
 10
433.9418404713486
 20
221.6763521921838
 30
0.0
 11
433.9637733943043
 21
221.6826836816616
 31
0.0
  0
LINE
  5
193
330
2
100
AcDbEntity
  8
0
100
AcDbLine
 10
433.9418404713486
 20
221.6763521921838
 30
0.0
 11
433.8531984627677
 21
221.7531184234484
 31
0.0
  0
LWPOLYLINE
  5
194
330
2
100
AcDbEntity
  8
0
100
AcDbPolyline
 90
        9
 70
   128
 43
0.0
 10
433.8531984627677
 20
221.7531184234484
 10
433.8491007869208
 20
221.7576407837221
 10
433.8468454159622
 20
221.7624757502449
 10
433.8465208565175
 20
221.7674379854478
 10
433.8481384284982
 20
221.7723365382667
 10
433.8516365204762
 20
221.7769832355005
 10
433.856879874975
 20
221.781199339027
 10
433.8636669435774
 20
221.7848227620216
 10
433.8717393514346
 20
221.7877149683179
  0
ARC
  5
195
330
2
100
AcDbEntity
  8
0
100
AcDbCircle
 10
434.6544942304137
 20
220.9973945455972
 30
0.0
 40
0.0155904147233743
100
AcDbArc
 50
222.7079836637946
 51
279.571508171896
  0
LWPOLYLINE
  5
196
330
2
100
AcDbEntity
  8
0
100
AcDbPolyline
 90
        7
 70
   128
 43
0.0
 10
433.8717393514346
 20
221.8315813785242
 10
433.8636669435774
 20
221.8286891722279
 10
433.856879874975
 20
221.8250657492331
 10
433.8516365204762
 20
221.8208496457065
 10
433.8481384284982
 20
221.8162029484728
 10
433.8465208565175
 20
221.8113043956539
 10
433.8464130571144
 20
221.8096481678112
  0
LINE
  5
197
330
2
100
AcDbEntity
  8
0
100
AcDbLine
 10
434.1647726473454
 20
221.6968407629872
 30
0.0
 11
434.1624566291807
 21
221.6989672586674
 31
0.0
  0
LINE
  5
198
330
2
100
AcDbEntity
  8
0
100
AcDbLine
 10
433.7479621653129
 20
221.5545847294897
 30
0.0
 11
433.8760417024818
 21
221.5915581071367
 31
0.0
  0
ARC
  5
199
330
2
100
AcDbEntity
  8
0
100
AcDbCircle
 10
433.8668100133778
 20
221.6213638762274
 30
0.0
 40
0.0312026914721094
100
AcDbArc
 50
287.2092307659954
 51
357.1690582599998
  0
LINE
  5
19A
330
2
100
AcDbEntity
  8
0
100
AcDbLine
 10
433.8979746254374
 20
221.6198228017049
 30
0.0
 11
433.8979746254374
 21
221.6636892132027
 31
0.0
  0
ARC
  5
19B
330
2
100
AcDbEntity
  8
0
100
AcDbCircle
 10
433.957587499732
 20
221.6614519071282
 30
0.0
 40
0.0596548432333564
100
AcDbArc
 50
138.1890291352976
 51
177.8506646272996
  0
ARC
  5
19C
330
2
100
AcDbEntity
  8
0
100
AcDbCircle
 10
433.9730050833321
 20
221.6528779126468
 30
0.0
 40
0.0312026913730789
100
AcDbArc
 50
107.2092307004059
 51
177.1690595791006
  0
LINE
  5
19D
330
2
100
AcDbEntity
  8
0
100
AcDbLine
 10
433.9418404713486
 20
221.6105525755954
 30
0.0
 11
433.9418404713486
 21
221.6544189864347
 31
0.0
  0
ARC
  5
19E
330
2
100
AcDbEntity
  8
0
100
AcDbCircle
 10
433.8795112472548
 20
221.6136347245897
 30
0.0
 40
0.0624053829440394
100
AcDbArc
 50
287.2092307658996
 51
357.1690582602003
  0
LINE
  5
19F
330
2
100
AcDbEntity
  8
0
100
AcDbLine
 10
433.8979746254374
 20
221.5540231864085
 30
0.0
 11
433.785951603716
 21
221.5216849255264
 31
0.0
  0
ARC
  5
1A0
330
2
100
AcDbEntity
  8
0
100
AcDbCircle
 10
434.132774081706
 20
221.3943026761169
 30
0.0
 40
0.0624053829442485
100
AcDbArc
 50
287.2092307659954
 51
357.1690582599998
  0
LINE
  5
1A1
330
2
100
AcDbEntity
  8
0
100
AcDbLine
 10
434.1512374599139
 20
221.3346911379356
 30
0.0
 11
434.1425398538677
 21
221.3321803553284
 31
0.0
  0
LINE
  5
1A2
330
2
100
AcDbEntity
  8
0
100
AcDbLine
 10
434.195103305825
 20
221.3912205270974
 30
0.0
 11
434.195103305825
 21
221.4350869379619
 31
0.0
  0
ARC
  5
1A3
330
2
100
AcDbEntity
  8
0
100
AcDbCircle
 10
434.2262679178086
 20
221.4335458641739
 30
0.0
 40
0.0312026913729301
100
AcDbArc
 50
107.209230700205
 51
177.1690595793011
  0
LINE
  5
1A4
330
2
100
AcDbEntity
  8
0
100
AcDbLine
 10
437.5344782737147
 20
222.204362157539
 30
0.0
 11
437.5092653090194
 21
222.2109126830303
 31
0.0
  0
LWPOLYLINE
  5
1A5
330
2
100
AcDbEntity
  8
0
100
AcDbPolyline
 90
        9
 70
   128
 43
0.0
 10
437.5092653090194
 20
222.2109126830303
 10
437.5056916517169
 20
222.2112892323216
 10
437.5024015920141
 20
222.2105013774158
 10
437.499473249821
 20
222.2085678293467
 10
437.4969761830429
 20
222.2055345690713
 10
437.4949697010249
 20
222.2014735706979
 10
437.4935014611722
 20
222.1964812798314
 10
437.4926063367906
 20
222.1906763255712
 10
437.492305579722
 20
222.1841965281853
  0
LINE
  5
1A6
330
2
100
AcDbEntity
  8
0
100
AcDbLine
 10
437.492305579722
 20
222.0738497370057
 30
0.0
 11
437.492305579722
 21
222.1841965281853
 31
0.0
  0
ARC
  5
1A7
330
2
100
AcDbEntity
  8
0
100
AcDbCircle
 10
437.8860066156462
 20
222.0705125552439
 30
0.0
 40
0.3937151793793299
100
AcDbArc
 50
179.5143476040003
 51
222.5891034482952
  0
LWPOLYLINE
  5
1A8
330
2
100
AcDbEntity
  8
0
100
AcDbPolyline
 90
        9
 70
   128
 43
0.0
 10
437.5961433417415
 20
221.8040713330134
 10
437.6164010647832
 20
221.7899834513521
 10
437.6358802972112
 20
221.7833485481292
 10
437.6538324624767
 20
221.7844215694203
 10
437.6695676728059
 20
221.7931614310288
 10
437.6824812305979
 20
221.8092320895598
 10
437.6920768783856
 20
221.8320160707585
 10
437.6979858667903
 20
221.8606377071103
 10
437.699981109637
 20
221.8939972072389
  0
LINE
  5
1A9
330
2
100
AcDbEntity
  8
0
100
AcDbLine
 10
437.699981091959
 20
222.0043442588487
 30
0.0
 11
437.699981091959
 21
221.8939972225613
 31
0.0
  0
ARC
  5
1AA
330
2
100
AcDbEntity
  8
0
100
AcDbCircle
 10
437.5933309723769
 20
222.0027071764358
 30
0.0
 40
0.1066626834709164
100
AcDbArc
 50
0.8794228101992858
 51
32.76696944519716
  0
LINE
  5
1AB
330
2
100
AcDbEntity
  8
0
100
AcDbLine
 10
437.6830213567605
 20
222.0604355316118
 30
0.0
 11
437.6578084053364
 21
222.0975551305091
 31
0.0
  0
ARC
  5
1AC
330
2
100
AcDbEntity
  8
0
100
AcDbCircle
 10
437.7026535744306
 20
222.1264193003471
 30
0.0
 40
0.053331318118048
100
AcDbArc
 50
180.8794374878987
 51
212.7669758525028
  0
LINE
  5
1AD
330
2
100
AcDbEntity
  8
0
100
AcDbLine
 10
437.6493285384717
 20
222.1256007458317
 30
0.0
 11
437.6493285384717
 21
222.1273781711631
 31
0.0
  0
LWPOLYLINE
  5
1AE
330
2
100
AcDbEntity
  8
0
100
AcDbPolyline
 90
        9
 70
   128
 43
0.0
 10
437.6493285384717
 20
222.1273781711631
 10
437.6494789170059
 20
222.1306180494428
 10
437.6499264814001
 20
222.1335205246356
 10
437.650660600592
 20
222.1360166911402
 10
437.6516638408793
 20
222.1380471705471
 10
437.6529123713178
 20
222.1395638032299
 10
437.6543765424016
 20
222.1405305772647
 10
437.6560215766851
 20
222.1409245008932
 10
437.6578084053364
 20
222.1407362262603
  0
LINE
  5
1AF
330
2
100
AcDbEntity
  8
0
100
AcDbLine
 10
437.6578084053364
 20
222.1407362262603
 30
0.0
 11
437.6830213567605
 21
222.1341857122419
 31
0.0
  0
LWPOLYLINE
  5
1B0
330
2
100
AcDbEntity
  8
0
100
AcDbPolyline
 90
        9
 70
   128
 43
0.0
 10
437.6830213567605
 20
222.1341857122419
 10
437.6865950140629
 20
222.133809162976
 10
437.689885085568
 20
222.1345970076752
 10
437.69281342186
 20
222.1365305199837
 10
437.695310488638
 20
222.1395638211105
 10
437.6973169647554
 20
222.1436248245741
 10
437.6987852046078
 20
222.1486170746147
 10
437.6996803348905
 20
222.1544220237338
 10
437.699981091959
 20
222.1609018211196
  0
LINE
  5
1B1
330
2
100
AcDbEntity
  8
0
100
AcDbLine
 10
437.699981091959
 20
222.2713483772427
 30
0.0
 11
437.699981091959
 21
222.1609018211196
 31
0.0
  0
ARC
  5
1B2
330
2
100
AcDbEntity
  8
0
100
AcDbCircle
 10
437.3062907126261
 20
222.2745911412246
 30
0.0
 40
0.3937037341557122
100
AcDbArc
 50
359.5280746004007
 51
42.58958053819616
  0
LWPOLYLINE
  5
1B3
330
2
100
AcDbEntity
  8
0
100
AcDbPolyline
 90
        9
 70
   128
 43
0.0
 10
437.5961433417415
 20
222.5410270316392
 10
437.575885600997
 20
222.5551149388294
 10
437.5564063501565
 20
222.5617498375696
 10
437.5384541708856
 20
222.5606767415913
 10
437.5227189575935
 20
222.5519369029789
 10
437.5098053909624
 20
222.5358661806004
 10
437.5002097520137
 20
222.513082171315
 10
437.4943007871876
 20
222.4844604328223
 10
437.492305579722
 20
222.4511008816358
  0
LINE
  5
1B4
330
2
100
AcDbEntity
  8
0
100
AcDbLine
 10
437.492305579722
 20
222.3407540904561
 30
0.0
 11
437.492305579722
 21
222.4511008816358
 31
0.0
  0
ARC
  5
1B5
330
2
100
AcDbEntity
  8
0
100
AcDbCircle
 10
437.5989557218447
 20
222.3423912175701
 30
0.0
 40
0.1066627066927198
100
AcDbArc
 50
180.8794466264007
 51
212.7669606032953
  0
LINE
  5
1B6
330
2
100
AcDbEntity
  8
0
100
AcDbLine
 10
437.5092653090194
 20
222.2846628636856
 30
0.0
 11
437.5344782737147
 21
222.2475432532651
 31
0.0
  0
ARC
  5
1B7
330
2
100
AcDbEntity
  8
0
100
AcDbCircle
 10
437.4896330736462
 20
222.2186790671673
 30
0.0
 40
0.0533313529669087
100
AcDbArc
 50
0.8794509730979369
 51
32.76697255149633
  0
LINE
  5
1B8
330
2
100
AcDbEntity
  8
0
100
AcDbLine
 10
437.5429581442518
 20
222.2194976347764
 30
0.0
 11
437.5429581442518
 21
222.2177202094199
 31
0.0
  0
LWPOLYLINE
  5
1B9
330
2
100
AcDbEntity
  8
0
100
AcDbPolyline
 90
        9
 70
   128
 43
0.0
 10
437.5429581442518
 20
222.2177202094199
 10
437.5428077657175
 20
222.214480290314
 10
437.5423602035265
 20
222.2115778131966
 10
437.5416260836004
 20
222.2090816881763
 10
437.540622842604
 20
222.2070512094279
 10
437.539374309202
 20
222.2055345384264
 10
437.5379101381184
 20
222.2045678052431
 10
437.5362651023659
 20
222.204173882906
 10
437.5344782737147
 20
222.204362157539
  0
LWPOLYLINE
  5
1BA
330
2
100
AcDbEntity
  8
0
100
AcDbPolyline
 90
       13
 70
   128
 43
0.0
 10
437.456848783371
 20
222.4905806556816
 10
437.4615951243365
 20
222.5489142442354
 10
437.4755107113637
 20
222.5950515806772
 10
437.4976472079019
 20
222.6258484866746
 10
437.526496064025
 20
222.6392061836329
 10
437.5600912552384
 20
222.6342143967595
 10
437.5961433417415
 20
222.6112132882121
 10
437.6321954274851
 20
222.5717703518798
 10
437.6657906223958
 20
222.5185735574846
 10
437.6946394696802
 20
222.4552481836019
 10
437.7167759721197
 20
222.3861097358017
 10
437.7306915591215
 20
222.3158698956498
 10
437.7354379059879
 20
222.2493153982686
  0
LINE
  5
1BB
330
2
100
AcDbEntity
  8
0
100
AcDbLine
 10
437.7354379059879
 20
221.8545176987393
 30
0.0
 11
437.7354379059879
 21
222.2493153982686
 31
0.0
  0
LWPOLYLINE
  5
1BC
330
2
100
AcDbEntity
  8
0
100
AcDbPolyline
 90
       13
 70
   128
 43
0.0
 10
437.7354379059879
 20
221.8545176987393
 10
437.7306915591215
 20
221.7961840948629
 10
437.7167759721197
 20
221.7500468197109
 10
437.6946394696802
 20
221.7192499086228
 10
437.6657906223958
 20
221.7058921452589
 10
437.6321954274851
 20
221.7108839337533
 10
437.5961433417415
 20
221.7338851134423
 10
437.5600912552384
 20
221.7733279786584
 10
437.526496064025
 20
221.8265247714074
 10
437.4976472079019
 20
221.8898502116701
 10
437.4755107113637
 20
221.9589886645862
 10
437.4615951243365
 20
222.0292284434485
 10
437.456848783371
 20
222.0957829561521
  0
LINE
  5
1BD
330
2
100
AcDbEntity
  8
0
100
AcDbLine
 10
437.456848783371
 20
222.4905806556816
 30
0.0
 11
437.456848783371
 21
222.0957829561521
 31
0.0
  0
LINE
  5
1BE
330
2
100
AcDbEntity
  8
0
100
AcDbLine
 10
436.3821211779527
 20
221.7855352889102
 30
0.0
 11
436.4566946847976
 21
221.8070633371266
 31
0.0
  0
LINE
  5
1BF
330
2
100
AcDbEntity
  8
0
100
AcDbLine
 10
436.4566946847976
 20
221.8070633371266
 30
0.0
 11
436.8076253740651
 21
221.9083683011096
 31
0.0
  0
LINE
  5
1C0
330
2
100
AcDbEntity
  8
0
100
AcDbLine
 10
436.8076253740651
 20
221.9083683011096
 30
0.0
 11
437.456848783371
 21
222.0957829561521
 31
0.0
  0
LINE
  5
1C1
330
2
100
AcDbEntity
  8
0
100
AcDbLine
 10
436.8076253740651
 20
221.9083683011096
 30
0.0
 11
436.8076253740651
 21
222.3031660006135
 31
0.0
  0
LINE
  5
1C2
330
2
100
AcDbEntity
  8
0
100
AcDbLine
 10
437.456848783371
 20
222.4905806556816
 30
0.0
 11
436.8076253740651
 21
222.3031660006135
 31
0.0
  0
LINE
  5
1C3
330
2
100
AcDbEntity
  8
0
100
AcDbLine
 10
436.8076253740651
 20
222.3031660006135
 30
0.0
 11
436.4566946847976
 21
222.2018610366559
 31
0.0
  0
LINE
  5
1C4
330
2
100
AcDbEntity
  8
0
100
AcDbLine
 10
436.4566946847976
 20
222.2018610366559
 30
0.0
 11
436.3821211779527
 21
222.1803340710621
 31
0.0
  0
ARC
  5
1C5
330
2
100
AcDbEntity
  8
0
100
AcDbCircle
 10
436.523532657326
 20
221.6674137485246
 30
0.0
 40
0.3234963449668171
100
AcDbArc
 50
176.117078080698
 51
232.9259054028986
  0
ARC
  5
1C6
330
2
100
AcDbEntity
  8
0
100
AcDbCircle
 10
436.4845074387926
 20
221.3735590988093
 30
0.0
 40
0.4245067504363945
100
AcDbArc
 50
103.9567131247086
 51
131.9415602770034
  0
LINE
  5
1C7
330
2
100
AcDbEntity
  8
0
100
AcDbLine
 10
436.4566946847976
 20
221.8070633371266
 30
0.0
 11
436.4566946847976
 21
222.2018610366559
 31
0.0
  0
LINE
  5
1C8
330
2
100
AcDbEntity
  8
0
100
AcDbLine
 10
436.3821211779527
 20
222.1803335195316
 30
0.0
 11
436.3821211779527
 21
221.7855358200023
 31
0.0
  0
LINE
  5
1C9
330
2
100
AcDbEntity
  8
0
100
AcDbLine
 10
436.2007787895636
 20
221.6893203365516
 30
0.0
 11
436.2007787895636
 21
222.0841180360555
 31
0.0
  0
ARC
  5
1CA
330
2
100
AcDbEntity
  8
0
100
AcDbCircle
 10
436.48450568087
 20
221.7683682631423
 30
0.0
 40
0.4244994027407238
100
AcDbArc
 50
103.9567151057967
 51
131.9421324241007
  0
SPLINE
  5
1CB
330
2
100
AcDbEntity
  8
0
100
AcDbSpline
210
0.0
220
0.0
230
1.0
 70
     8
 71
     3
 72
    13
 73
     9
 74
     0
 42
0.000000001
 43
0.0000000001
 40
0.0
 40
0.0
 40
0.0
 40
0.0
 40
0.2419843082959984
 40
0.3688463119657643
 40
0.4993222481250302
 40
0.7091575939723726
 40
0.8445530618364928
 40
1.0
 40
1.0
 40
1.0
 40
1.0
 10
436.2075654787101
 20
221.4628393793217
 30
0.0
 10
436.2010928228908
 20
221.4696537080342
 30
0.0
 10
436.1912268309828
 20
221.4800404972928
 30
0.0
 10
436.1794538086829
 20
221.5013636322519
 30
0.0
 10
436.1698271370181
 20
221.5233502760587
 30
0.0
 10
436.1623738864062
 20
221.5479642173276
 30
0.0
 10
436.1577145335539
 20
221.5738115200739
 30
0.0
 10
436.1571921221933
 20
221.5876833967001
 30
0.0
 10
436.1569129082793
 20
221.5950975175553
 30
0.0
  0
LINE
  5
1CC
330
2
100
AcDbEntity
  8
0
100
AcDbLine
 10
436.156912908272
 20
221.5950975175541
 30
0.0
 11
436.156912908272
 21
222.1531429328281
 31
0.0
  0
SPLINE
  5
1CD
330
2
100
AcDbEntity
  8
0
100
AcDbSpline
210
0.0
220
0.0
230
1.0
 70
     8
 71
     3
 72
    13
 73
     9
 74
     0
 42
0.000000001
 43
0.0000000001
 40
0.0
 40
0.0
 40
0.0
 40
0.0
 40
0.1554252224336965
 40
0.290813182552121
 40
0.5006775711271933
 40
0.6311396391804776
 40
0.7579973492626563
 40
1.0
 40
1.0
 40
1.0
 40
1.0
 10
436.1569129082793
 20
222.1531429328386
 30
0.0
 10
436.1571920366136
 20
222.1600523158239
 30
0.0
 10
436.1577143083396
 20
222.1729803311354
 30
0.0
 10
436.1623731707822
 20
222.1906759748624
 30
0.0
 10
436.1698263223026
 20
222.2025561386006
 30
0.0
 10
436.1794531133724
 20
222.2078100720449
 30
0.0
 10
436.1912259497517
 20
222.2087301337741
 30
0.0
 10
436.2010923263913
 20
222.2020505526623
 30
0.0
 10
436.2075654787101
 20
222.1976681995917
 30
0.0
  0
LINE
  5
1CE
330
2
100
AcDbEntity
  8
0
100
AcDbLine
 10
436.2284422380485
 20
222.1795883956388
 30
0.0
 11
436.2075654787027
 21
222.1976681996014
 31
0.0
  0
SPLINE
  5
1CF
330
2
100
AcDbEntity
  8
0
100
AcDbSpline
210
0.0
220
0.0
230
1.0
 70
     8
 71
     3
 72
    13
 73
     9
 74
     0
 42
0.000000001
 43
0.0000000001
 40
0.0
 40
0.0
 40
0.0
 40
0.0
 40
0.0059434516331864
 40
0.165293850732045
 40
0.4123025123111349
 40
0.56585512983955
 40
0.7151650858828266
 40
1.0
 40
1.0
 40
1.0
 40
1.0
 10
436.358056795542
 20
221.4002942155014
 30
0.0
 10
436.3580407192182
 20
221.4000771327774
 30
0.0
 10
436.3575936191755
 20
221.3940398262451
 30
0.0
 10
436.3536937261083
 20
221.3823670837766
 30
0.0
 10
436.3466862509121
 20
221.3701705939822
 30
0.0
 10
436.3369525158485
 20
221.3649699873651
 30
0.0
 10
436.3251831771282
 20
221.3640295742957
 30
0.0
 10
436.3153330877971
 20
221.3707182400932
 30
0.0
 10
436.3088706151492
 20
221.3751065576318
 30
0.0
  0
LINE
  5
1D0
330
2
100
AcDbEntity
  8
0
100
AcDbLine
 10
436.2075654787027
 20
221.4628393793108
 30
0.0
 11
436.3088706151575
 21
221.3751065576321
 31
0.0
  0
SPLINE
  5
1D1
330
2
100
AcDbEntity
  8
0
100
AcDbSpline
210
0.0
220
0.0
230
1.0
 70
     8
 71
     3
 72
    13
 73
     9
 74
     0
 42
0.000000001
 43
0.0000000001
 40
0.0
 40
0.0
 40
0.0
 40
0.0
 40
0.2419844515531855
 40
0.3688465303265559
 40
0.4993225437289113
 40
0.7091580138009257
 40
0.8445535701249179
 40
1.0
 40
1.0
 40
1.0
 40
1.0
 10
436.1198324795616
 20
221.4482852865994
 30
0.0
 10
436.113359830515
 20
221.4550996172588
 30
0.0
 10
436.1034938489297
 20
221.4654864094849
 30
0.0
 10
436.0917207767017
 20
221.4868095300912
 30
0.0
 10
436.0820943008824
 20
221.5087962301974
 30
0.0
 10
436.0746400157675
 20
221.5334098745464
 30
0.0
 10
436.0699836358842
 20
221.5592579997581
 30
0.0
 10
436.0694598546771
 20
221.5731294589287
 30
0.0
 10
436.0691799091308
 20
221.5805433431254
 30
0.0
  0
LINE
  5
1D2
330
2
100
AcDbEntity
  8
0
100
AcDbLine
 10
436.0691799091319
 20
221.5805433431168
 30
0.0
 11
436.0691799091319
 21
222.1170443650971
 31
0.0
  0
SPLINE
  5
1D3
330
2
100
AcDbEntity
  8
0
100
AcDbSpline
210
0.0
220
0.0
230
1.0
 70
     8
 71
     3
 72
    13
 73
     9
 74
     0
 42
0.000000001
 43
0.0000000001
 40
0.0
 40
0.0
 40
0.0
 40
0.0
 40
0.1554252147781365
 40
0.2908131868673458
 40
0.5006775811249914
 40
0.6311396291927128
 40
0.7579973427098637
 40
1.0
 40
1.0
 40
1.0
 40
1.0
 10
436.0691799091308
 20
222.1170443650993
 30
0.0
 10
436.069459767403
 20
222.1239539590511
 30
0.0
 10
436.0699834049351
 20
222.1368823699267
 30
0.0
 10
436.0746393001932
 20
222.1545771541314
 30
0.0
 10
436.0820934848559
 20
222.1664576202267
 30
0.0
 10
436.0917200823951
 20
222.171711488414
 30
0.0
 10
436.1034929674669
 20
222.1726315665666
 30
0.0
 10
436.1133593339237
 20
222.1659519820501
 30
0.0
 10
436.1198324795616
 20
222.1615696267456
 30
0.0
  0
SPLINE
  5
1D4
330
2
100
AcDbEntity
  8
0
100
AcDbSpline
210
0.0
220
0.0
230
1.0
 70
     8
 71
     3
 72
    11
 73
     7
 74
     0
 42
0.000000001
 43
0.0000000001
 40
0.0
 40
0.0
 40
0.0
 40
0.0
 40
0.2521820895689171
 40
0.4475706398312883
 40
0.637561015062202
 40
1.0
 40
1.0
 40
1.0
 40
1.0
 10
436.2647009516654
 20
221.3676896293554
 30
0.0
 10
436.2623629732016
 20
221.363071852543
 30
0.0
 10
436.2582135487962
 20
221.3548762613096
 30
0.0
 10
436.2491914240355
 20
221.3504787025554
 30
0.0
 10
436.2374648253696
 20
221.3494426355984
 30
0.0
 10
436.2276058878806
 20
221.3561511373526
 30
0.0
 10
436.2211376160004
 20
221.3605524649095
 30
0.0
  0
LINE
  5
1D5
330
2
100
AcDbEntity
  8
0
100
AcDbLine
 10
436.119832479563
 20
221.4482852866013
 30
0.0
 11
436.2211376159925
 21
221.3605524648974
 31
0.0
  0
SPLINE
  5
1D6
330
2
100
AcDbEntity
  8
0
100
AcDbSpline
210
0.0
220
0.0
230
1.0
 70
     8
 71
     3
 72
    13
 73
     9
 74
     0
 42
0.000000001
 43
0.0000000001
 40
0.0
 40
0.0
 40
0.0
 40
0.0
 40
0.2419844494479604
 40
0.3688465271176515
 40
0.4993225393848871
 40
0.7091579936996234
 40
0.8445529830250757
 40
1.0
 40
1.0
 40
1.0
 40
1.0
 10
436.0320994804133
 20
221.4337311938773
 30
0.0
 10
436.0256268129005
 20
221.4405455192201
 30
0.0
 10
436.0157608031687
 20
221.4509323033424
 30
0.0
 10
436.0039878670748
 20
221.4722554631432
 30
0.0
 10
435.9943608575484
 20
221.4942420088509
 30
0.0
 10
435.9869094017494
 20
221.5188564351158
 30
0.0
 10
435.9822500555292
 20
221.5447037214596
 30
0.0
 10
435.9817266537647
 20
221.5585752836541
 30
0.0
 10
435.9814469099825
 20
221.5659892504032
 30
0.0
  0
LINE
  5
1D7
330
2
100
AcDbEntity
  8
0
100
AcDbLine
 10
435.981446909992
 20
221.5659892504074
 30
0.0
 11
435.981446909992
 21
222.080945797366
 31
0.0
  0
SPLINE
  5
1D8
330
2
100
AcDbEntity
  8
0
100
AcDbSpline
210
0.0
220
0.0
230
1.0
 70
     8
 71
     3
 72
    13
 73
     9
 74
     0
 42
0.000000001
 43
0.0000000001
 40
0.0
 40
0.0
 40
0.0
 40
0.0
 40
0.1554251469260927
 40
0.2908131239845181
 40
0.5006775259449273
 40
0.6311396258373368
 40
0.7579973267336877
 40
1.0
 40
1.0
 40
1.0
 40
1.0
 10
435.9814469099825
 20
222.0809457973598
 30
0.0
 10
435.981726768494
 20
222.0878553875594
 30
0.0
 10
435.9822504065905
 20
222.1007837942633
 30
0.0
 10
435.9869063006315
 20
222.1184785774351
 30
0.0
 10
435.9943604885162
 20
222.130359037022
 30
0.0
 10
436.0039870804514
 20
222.1356129249412
 30
0.0
 10
436.0157599703085
 20
222.1365329879375
 30
0.0
 10
436.025626335341
 20
222.1298534101471
 30
0.0
 10
436.0320994804133
 20
222.1254710590061
 30
0.0
  0
SPLINE
  5
1D9
330
2
100
AcDbEntity
  8
0
100
AcDbSpline
210
0.0
220
0.0
230
1.0
 70
     8
 71
     3
 72
    11
 73
     7
 74
     0
 42
0.000000001
 43
0.0000000001
 40
0.0
 40
0.0
 40
0.0
 40
0.0
 40
0.2521820895689171
 40
0.4475706398312883
 40
0.637561015062202
 40
1.0
 40
1.0
 40
1.0
 40
1.0
 10
436.1769679525168
 20
221.3531355366331
 30
0.0
 10
436.174629974053
 20
221.3485177598208
 30
0.0
 10
436.1704805496478
 20
221.3403221685872
 30
0.0
 10
436.161458424887
 20
221.3359246098332
 30
0.0
 10
436.149731826221
 20
221.3348885428761
 30
0.0
 10
436.1398728887319
 20
221.3415970446302
 30
0.0
 10
436.133404616852
 20
221.3459983721873
 30
0.0
  0
LINE
  5
1DA
330
2
100
AcDbEntity
  8
0
100
AcDbLine
 10
436.032099480423
 20
221.4337311938666
 30
0.0
 11
436.1334046168527
 21
221.3459983721879
 31
0.0
  0
ARC
  5
1DB
330
2
100
AcDbEntity
  8
0
100
AcDbCircle
 10
436.3395649101707
 20
222.0981242581287
 30
0.0
 40
0.1394909840874955
100
AcDbArc
 50
147.4321183995
 51
185.7627905994
  0
SPLINE
  5
1DC
330
2
100
AcDbEntity
  8
0
100
AcDbSpline
210
0.0
220
0.0
230
1.0
 70
     8
 71
     3
 72
    13
 73
     9
 74
     0
 42
0.000000001
 43
0.0000000001
 40
0.0
 40
0.0
 40
0.0
 40
0.0
 40
0.2419843782498375
 40
0.3688464185934037
 40
0.4993223924712006
 40
0.7091577850468852
 40
0.8445527345356078
 40
1.0
 40
1.0
 40
1.0
 40
1.0
 10
435.9443664812647
 20
221.4191771011548
 30
0.0
 10
435.9378938137519
 20
221.4259914264983
 30
0.0
 10
435.9280278040195
 20
221.4363782106213
 30
0.0
 10
435.9162548679275
 20
221.4577013704188
 30
0.0
 10
435.9066278583927
 20
221.4796879161397
 30
0.0
 10
435.8991764026393
 20
221.5043023423344
 30
0.0
 10
435.8945170535501
 20
221.5301496440686
 30
0.0
 10
435.893993653791
 20
221.5440212186386
 30
0.0
 10
435.893713910834
 20
221.5514351985345
 30
0.0
  0
LINE
  5
1DD
330
2
100
AcDbEntity
  8
0
100
AcDbLine
 10
435.8937139108269
 20
221.5514351985239
 30
0.0
 11
435.8937139108269
 21
222.0448472194032
 31
0.0
  0
SPLINE
  5
1DE
330
2
100
AcDbEntity
  8
0
100
AcDbSpline
210
0.0
220
0.0
230
1.0
 70
     8
 71
     3
 72
    13
 73
     9
 74
     0
 42
0.000000001
 43
0.0000000001
 40
0.0
 40
0.0
 40
0.0
 40
0.0
 40
0.1554252177894542
 40
0.290813184196929
 40
0.5006775685908073
 40
0.6311396153940936
 40
0.7579973486460087
 40
1.0
 40
1.0
 40
1.0
 40
1.0
 10
435.893713910834
 20
222.0448472194068
 30
0.0
 10
435.8939935586421
 20
222.0517567525349
 30
0.0
 10
435.8945168023647
 20
222.0646850492352
 30
0.0
 10
435.8991758249741
 20
222.0823807366757
 30
0.0
 10
435.9066262555907
 20
222.0942601202482
 30
0.0
 10
435.9162558730927
 20
222.0995148572068
 30
0.0
 10
435.9280281773865
 20
222.1004347796622
 30
0.0
 10
435.9378938145221
 20
222.0937549783331
 30
0.0
 10
435.9443664812647
 20
222.0893724810531
 30
0.0
  0
SPLINE
  5
1DF
330
2
100
AcDbEntity
  8
0
100
AcDbSpline
210
0.0
220
0.0
230
1.0
 70
     8
 71
     3
 72
    11
 73
     7
 74
     0
 42
0.000000001
 43
0.0000000001
 40
0.0
 40
0.0
 40
0.0
 40
0.0
 40
0.2521815504375838
 40
0.4475702387495521
 40
0.6375607537384324
 40
1.0
 40
1.0
 40
1.0
 40
1.0
 10
436.0892349533681
 20
221.3385813622032
 30
0.0
 10
436.0868967632476
 20
221.3339635592522
 30
0.0
 10
436.0827469580427
 20
221.3257679114509
 30
0.0
 10
436.0737271278349
 20
221.3213710065268
 30
0.0
 10
436.0620000817954
 20
221.3203348133248
 30
0.0
 10
436.0521403866417
 20
221.3270430957969
 30
0.0
 10
436.0456716177036
 20
221.3314442794649
 30
0.0
  0
LINE
  5
1E0
330
2
100
AcDbEntity
  8
0
100
AcDbLine
 10
435.9443664812578
 20
221.4191771011571
 30
0.0
 11
436.0456716177126
 21
221.3314442794532
 31
0.0
  0
SPLINE
  5
1E1
330
2
100
AcDbEntity
  8
0
100
AcDbSpline
210
0.0
220
0.0
230
1.0
 70
     8
 71
     3
 72
    13
 73
     9
 74
     0
 42
0.000000001
 43
0.0000000001
 40
0.0
 40
0.0
 40
0.0
 40
0.0
 40
0.1554252170035766
 40
0.2908132524170067
 40
0.5006776357497463
 40
0.6311397289296475
 40
0.7579973924324479
 40
1.0
 40
1.0
 40
1.0
 40
1.0
 10
435.3015171470722
 20
221.4531952944218
 30
0.0
 10
435.3017967952261
 20
221.4457824053254
 30
0.0
 10
435.302320039721
 20
221.431912285473
 30
0.0
 10
435.3069790587414
 20
221.4060652140633
 30
0.0
 10
435.3144294953384
 20
221.3814498525044
 30
0.0
 10
435.3240591042706
 20
221.3594634645485
 30
0.0
 10
435.3358314177744
 20
221.3381397817868
 30
0.0
 10
435.3456970519083
 20
221.3277522869421
 30
0.0
 10
435.3521697175026
 20
221.3209372378958
 30
0.0
  0
LINE
  5
1E2
330
2
100
AcDbEntity
  8
0
100
AcDbLine
 10
435.9443664812578
 20
221.4191771011571
 30
0.0
 11
435.3521697175006
 21
221.3209372379071
 31
0.0
  0
LINE
  5
1E3
330
2
100
AcDbEntity
  8
0
100
AcDbLine
 10
435.30151714707
 20
221.4531952944226
 30
0.0
 11
435.30151714707
 21
221.8011821421153
 31
0.0
  0
SPLINE
  5
1E4
330
2
100
AcDbEntity
  8
0
100
AcDbSpline
210
0.0
220
0.0
230
1.0
 70
     8
 71
     3
 72
     9
 73
     5
 74
     0
 42
0.000000001
 43
0.0000000001
 40
0.0
 40
0.0
 40
0.0
 40
0.0
 40
0.7148411828112407
 40
1.0
 40
1.0
 40
1.0
 40
1.0
 10
436.2650034619143
 20
221.367829363429
 30
0.0
 10
436.2715197913471
 20
221.3632150443278
 30
0.0
 10
436.2806355636187
 20
221.3567600173762
 30
0.0
 10
436.2884613935881
 20
221.3578522668576
 30
0.0
 10
436.290692998006
 20
221.3581637314278
 30
0.0
  0
LINE
  5
1E5
330
2
100
AcDbEntity
  8
0
100
AcDbLine
 10
435.3521697175006
 20
221.3209372379071
 30
0.0
 11
435.4534748539304
 21
221.2332044162031
 31
0.0
  0
SPLINE
  5
1E6
330
2
100
AcDbEntity
  8
0
100
AcDbSpline
210
0.0
220
0.0
230
1.0
 70
     8
 71
     3
 72
     9
 73
     5
 74
     0
 42
0.000000001
 43
0.0000000001
 40
0.0
 40
0.0
 40
0.0
 40
0.0
 40
0.7148411828112407
 40
1.0
 40
1.0
 40
1.0
 40
1.0
 10
436.1772704627657
 20
221.3532752707067
 30
0.0
 10
436.1837867921986
 20
221.3486609516055
 30
0.0
 10
436.1929025644699
 20
221.3422059246541
 30
0.0
 10
436.2007283944397
 20
221.3432981741354
 30
0.0
 10
436.2029599988574
 20
221.3436096387055
 30
0.0
  0
SPLINE
  5
1E7
330
2
100
AcDbEntity
  8
0
100
AcDbSpline
210
0.0
220
0.0
230
1.0
 70
     8
 71
     3
 72
     9
 73
     5
 74
     0
 42
0.000000001
 43
0.0000000001
 40
0.0
 40
0.0
 40
0.0
 40
0.0
 40
0.7148412813898908
 40
1.0
 40
1.0
 40
1.0
 40
1.0
 10
436.0895387709383
 20
221.3387214736679
 30
0.0
 10
436.0960545078912
 20
221.3341070205542
 30
0.0
 10
436.1051694500782
 20
221.3276518070211
 30
0.0
 10
436.1129953703207
 20
221.3287440759696
 30
0.0
 10
436.115226999709
 20
221.3290555459832
 30
0.0
  0
SPLINE
  5
1E8
330
2
100
AcDbEntity
  8
0
100
AcDbSpline
210
0.0
220
0.0
230
1.0
 70
     8
 71
     3
 72
     9
 73
     5
 74
     0
 42
0.000000001
 43
0.0000000001
 40
0.0
 40
0.0
 40
0.0
 40
0.0
 40
0.1644559263865486
 40
1.0
 40
1.0
 40
1.0
 40
1.0
 10
436.1338968882998
 20
222.1880865989692
 30
0.0
 10
436.1318173148731
 20
222.1871358683606
 30
0.0
 10
436.1253096687592
 20
222.1841607301562
 30
0.0
 10
436.118540005335
 20
222.1725328457536
 30
0.0
 10
436.1165038665149
 20
222.1638088471889
 30
0.0
  0
SPLINE
  5
1E9
330
2
100
AcDbEntity
  8
0
100
AcDbSpline
210
0.0
220
0.0
230
1.0
 70
     8
 71
     3
 72
     9
 73
     5
 74
     0
 42
0.000000001
 43
0.0000000001
 40
0.0
 40
0.0
 40
0.0
 40
0.0
 40
0.7148411828112407
 40
1.0
 40
1.0
 40
1.0
 40
1.0
 10
435.4534748539418
 20
221.2332044162059
 30
0.0
 10
435.4599911833744
 20
221.2285900971048
 30
0.0
 10
435.469106955646
 20
221.2221350701533
 30
0.0
 10
435.4769327856155
 20
221.2232273196347
 30
0.0
 10
435.4791643900331
 20
221.2235387842047
 30
0.0
  0
SPLINE
  5
1EA
330
2
100
AcDbEntity
  8
0
100
AcDbSpline
210
0.0
220
0.0
230
1.0
 70
     8
 71
     3
 72
     9
 73
     5
 74
     0
 42
0.000000001
 43
0.0000000001
 40
0.0
 40
0.0
 40
0.0
 40
0.0
 40
0.1644559299754905
 40
1.0
 40
1.0
 40
1.0
 40
1.0
 10
436.0461638891513
 20
222.1519880312297
 30
0.0
 10
436.0440843156352
 20
222.1510373008007
 30
0.0
 10
436.037576667965
 20
222.1480621625743
 30
0.0
 10
436.0308070075066
 20
222.1364342683671
 30
0.0
 10
436.0287708694944
 20
222.1277102761185
 30
0.0
  0
SPLINE
  5
1EB
330
2
100
AcDbEntity
  8
0
100
AcDbSpline
210
0.0
220
0.0
230
1.0
 70
     8
 71
     3
 72
    11
 73
     7
 74
     0
 42
0.000000001
 43
0.0000000001
 40
0.0
 40
0.0
 40
0.0
 40
0.0
 40
0.1644558467303011
 40
0.514634975400699
 40
0.7405859283506758
 40
1.0
 40
1.0
 40
1.0
 40
1.0
 10
435.3223682803271
 20
221.8541752859243
 30
0.0
 10
435.3202887065704
 20
221.8532245594966
 30
0.0
 10
435.3137810547569
 20
221.8502494322428
 30
0.0
 10
435.3070114023721
 20
221.8386215229092
 30
0.0
 10
435.3023126862665
 20
221.8210450332148
 30
0.0
 10
435.301794241398
 20
221.808100587442
 30
0.0
 10
435.3015171470722
 20
221.8011821421217
 30
0.0
  0
SPLINE
  5
1EC
330
2
100
AcDbEntity
  8
0
100
AcDbSpline
210
0.0
220
0.0
230
1.0
 70
     8
 71
     3
 72
     9
 73
     5
 74
     0
 42
0.000000001
 43
0.0000000001
 40
0.0
 40
0.0
 40
0.0
 40
0.0
 40
0.1644559286237048
 40
1.0
 40
1.0
 40
1.0
 40
1.0
 10
435.9584308900027
 20
222.1158894634903
 30
0.0
 10
435.9563518750192
 20
222.1149388942686
 30
0.0
 10
435.9498459750666
 20
222.1119642604614
 30
0.0
 10
435.9430736400708
 20
222.1003355950807
 30
0.0
 10
435.9410378793961
 20
222.0916119301689
 30
0.0
  0
LINE
  5
1ED
330
2
100
AcDbEntity
  8
0
100
AcDbLine
 10
430.8720551463762
 20
220.7663762614394
 30
0.0
 11
430.923798005432
 21
220.7583768566973
 31
0.0
  0
LINE
  5
1EE
330
2
100
AcDbEntity
  8
0
100
AcDbLine
 10
430.8720551463762
 20
220.7663762614394
 30
0.0
 11
431.2668529888979
 21
220.8803445817649
 31
0.0
  0
LINE
  5
1EF
330
2
100
AcDbEntity
  8
0
100
AcDbLine
 10
431.2668529888979
 20
220.8803445817649
 30
0.0
 11
431.3185958479281
 21
220.8723451770227
 31
0.0
  0
LINE
  5
1F0
330
2
100
AcDbEntity
  8
0
100
AcDbLine
 10
430.8720551463762
 20
220.7816961220022
 30
0.0
 11
430.8720551463762
 21
220.7663762614394
 31
0.0
  0
LINE
  5
1F1
330
2
100
AcDbEntity
  8
0
100
AcDbLine
 10
430.8720551463762
 20
220.7816961220022
 30
0.0
 11
431.2668529888979
 21
220.8956644423277
 31
0.0
  0
LINE
  5
1F2
330
2
100
AcDbEntity
  8
0
100
AcDbLine
 10
431.2668529888979
 20
220.8956644423277
 30
0.0
 11
431.2668529888979
 21
220.8803445817649
 31
0.0
  0
LINE
  5
1F3
330
2
100
AcDbEntity
  8
0
100
AcDbLine
 10
431.315117057314
 20
220.8882028571315
 30
0.0
 11
431.2668529888979
 21
220.8956644423277
 31
0.0
  0
LINE
  5
1F4
330
2
100
AcDbEntity
  8
0
100
AcDbLine
 10
431.3180356345276
 20
220.9201290024391
 30
0.0
 11
431.3185958479281
 21
220.9188051255206
 31
0.0
  0
LWPOLYLINE
  5
1F5
330
2
100
AcDbEntity
  8
0
100
AcDbPolyline
 90
        3
 70
   128
 43
0.0
 10
431.3185958479281
 20
220.8890276336564
 10
431.3177365049513
 20
220.8885269910187
 10
431.315117057314
 20
220.8882028571315
  0
LINE
  5
1F6
330
2
100
AcDbEntity
  8
0
100
AcDbLine
 10
431.2844222872558
 20
220.9964250986267
 30
0.0
 11
431.3180356345276
 21
220.9201290024391
 31
0.0
  0
ARC
  5
1F7
330
2
100
AcDbEntity
  8
0
100
AcDbCircle
 10
431.3639515501821
 20
221.0318156737351
 30
0.0
 40
0.0870482421763806
100
AcDbArc
 50
181.0722382606
 51
203.9890959521004
  0
LINE
  5
1F8
330
2
100
AcDbEntity
  8
0
100
AcDbLine
 10
431.2769185504362
 20
221.1761814075594
 30
0.0
 11
431.2769185504362
 21
221.0301867403579
 31
0.0
  0
LWPOLYLINE
  5
1F9
330
2
100
AcDbEntity
  8
0
100
AcDbPolyline
 90
        9
 70
   128
 43
0.0
 10
431.2971795904105
 20
221.1937279624333
 10
431.2932268438187
 20
221.1964768395638
 10
431.2894260207147
 20
221.1977714447433
 10
431.2859231478436
 20
221.197562069137
 10
431.2828528830308
 20
221.1958567200547
 10
431.2803331609796
 20
221.1927209678789
 10
431.2784608296794
 20
221.1882753107637
 10
431.2773078528792
 20
221.1826905890065
 10
431.2769185504362
 20
221.1761814075594
  0
LINE
  5
1FA
330
2
100
AcDbEntity
  8
0
100
AcDbLine
 10
431.3386494171874
 20
221.1578140389643
 30
0.0
 11
431.2971795904105
 21
221.1937279624333
 31
0.0
  0
ARC
  5
1FB
330
2
100
AcDbEntity
  8
0
100
AcDbCircle
 10
431.2914194489076
 20
221.1115826084129
 30
0.0
 40
0.0660909606020092
100
AcDbArc
 50
13.23977054460077
 51
44.38787755620237
  0
ARC
  5
1FC
330
2
100
AcDbEntity
  8
0
100
AcDbCircle
 10
431.4682468116664
 20
221.1516707266133
 30
0.0
 40
0.1152270538513064
100
AcDbArc
 50
192.5060257770965
 51
225.3962690928978
  0
LINE
  5
1FD
330
2
100
AcDbEntity
  8
0
100
AcDbLine
 10
430.8896244447598
 20
220.8824567783011
 30
0.0
 11
430.9267920073042
 21
220.7974972926975
 31
0.0
  0
ARC
  5
1FE
330
2
100
AcDbEntity
  8
0
100
AcDbCircle
 10
430.9691537076607
 20
220.9178473534349
 30
0.0
 40
0.0870482421772511
100
AcDbArc
 50
181.0722382606961
 51
203.9890959521004
  0
LINE
  5
1FF
330
2
100
AcDbEntity
  8
0
100
AcDbLine
 10
430.9232377920061
 20
220.8061606821136
 30
0.0
 11
430.923798005432
 21
220.8048368051951
 31
0.0
  0
LINE
  5
200
330
2
100
AcDbEntity
  8
0
100
AcDbLine
 10
430.88212070794
 20
221.0622130872341
 30
0.0
 11
430.88212070794
 21
220.9162184200324
 31
0.0
  0
LWPOLYLINE
  5
201
330
2
100
AcDbEntity
  8
0
100
AcDbPolyline
 90
        7
 70
   128
 43
0.0
 10
430.8911429483712
 20
221.0835988453208
 10
430.8911253053221
 20
221.0835937488115
 10
430.8880550405347
 20
221.0818883997291
 10
430.8855353184837
 20
221.0787526475534
 10
430.8836629871833
 20
221.0743069904383
 10
430.8825100103829
 20
221.0687222686811
 10
430.88212070794
 20
221.0622130872341
  0
ARC
  5
202
330
2
100
AcDbEntity
  8
0
100
AcDbCircle
 10
433.7816936010687
 20
221.0663377340793
 30
0.0
 40
0.0767405368684453
100
AcDbArc
 50
179.4982702635991
 51
222.6671292701973
  0
ARC
  5
203
330
2
100
AcDbEntity
  8
0
100
AcDbCircle
 10
433.7128119098444
 20
221.0149199469203
 30
0.0
 40
0.0124681742222995
100
AcDbArc
 50
287.2287430154956
 51
357.2776669738949
  0
ARC
  5
204
330
2
100
AcDbEntity
  8
0
100
AcDbCircle
 10
433.7870393421612
 20
221.068023683
 30
0.0
 40
0.0959256924918824
100
AcDbArc
 50
179.4982617077016
 51
222.6671139942021
  0
LINE
  5
205
330
2
100
AcDbEntity
  8
0
100
AcDbLine
 10
433.7165048239326
 20
221.0030112209698
 30
0.0
 11
433.356799396687
 21
220.8991732083467
 31
0.0
  0
ARC
  5
206
330
2
100
AcDbEntity
  8
0
100
AcDbCircle
 10
433.4273339149155
 20
220.9641856703769
 30
0.0
 40
0.0959256924919296
100
AcDbArc
 50
179.4982617077016
 51
222.6671139942021
  0
LWPOLYLINE
  5
207
330
2
100
AcDbEntity
  8
0
100
AcDbPolyline
 90
        9
 70
   128
 43
0.0
 10
434.1836717532275
 20
220.6192560551991
 10
434.1876175180975
 20
220.6165276764536
 10
434.1914102508718
 20
220.6152499336914
 10
434.1949046324478
 20
220.6154717492645
 10
434.1979667833524
 20
220.6171846664989
 10
434.2004794057366
 20
220.6203230129219
 10
434.2023461941011
 20
220.6247665762627
 10
434.203495680028
 20
220.6303451188624
 10
434.2038838031269
 20
220.6368449346244
  0
LINE
  5
208
330
2
100
AcDbEntity
  8
0
100
AcDbLine
 10
433.7252660129571
 20
221.0143277610107
 30
0.0
 11
434.1836717532275
 21
220.6192560551991
 31
0.0
  0
LINE
  5
209
330
2
100
AcDbEntity
  8
0
100
AcDbLine
 10
433.7049560065121
 20
221.4845444363199
 30
0.0
 11
433.7049560065121
 21
221.0670097297706
 31
0.0
  0
LINE
  5
20A
330
2
100
AcDbEntity
  8
0
100
AcDbLine
 10
433.7340812308215
 20
221.4884388227706
 30
0.0
 11
433.7049560065121
 21
221.4845444363199
 31
0.0
  0
LINE
  5
20B
330
2
100
AcDbEntity
  8
0
100
AcDbLine
 10
433.7340814849953
 20
221.5533846246209
 30
0.0
 11
433.7340812308215
 21
221.4884388227706
 31
0.0
  0
LINE
  5
20C
330
2
100
AcDbEntity
  8
0
100
AcDbLine
 10
433.6911173276596
 20
221.4914643080541
 30
0.0
 11
433.6911173276596
 21
221.0688636921199
 31
0.0
  0
SPLINE
  5
20D
330
2
100
AcDbEntity
  8
0
100
AcDbSpline
210
0.0
220
0.0
230
1.0
 70
     8
 71
     3
 72
    11
 73
     7
 74
     0
 42
0.000000001
 43
0.0000000001
 40
0.0
 40
0.0
 40
0.0
 40
0.0
 40
0.3170181536422792
 40
0.6037225098170264
 40
0.8092422990243026
 40
1.0
 40
1.0
 40
1.0
 40
1.0
 10
433.7049560065001
 20
221.4845444363243
 30
0.0
 10
433.7039880150217
 20
221.4859611515799
 30
0.0
 10
433.7021445930032
 20
221.4886591134476
 30
0.0
 10
433.6980287447913
 20
221.4910727247915
 30
0.0
 10
433.6941857313845
 20
221.4920031224314
 30
0.0
 10
433.6921144086649
 20
221.4916393963542
 30
0.0
 10
433.6911173276551
 20
221.4914643080588
 30
0.0
  0
LINE
  5
20E
330
2
100
AcDbEntity
  8
0
100
AcDbLine
 10
433.3314119004137
 20
220.9650256794966
 30
0.0
 11
433.3314119004137
 21
221.3876262954308
 31
0.0
  0
LINE
  5
20F
330
2
100
AcDbEntity
  8
0
100
AcDbLine
 10
433.3314119004137
 20
221.3876262954308
 30
0.0
 11
433.6911173276596
 21
221.4914643080541
 31
0.0
  0
ARC
  5
210
330
2
100
AcDbEntity
  8
0
100
AcDbCircle
 10
434.1712174632826
 20
220.6198483857723
 30
0.0
 40
0.0124683677330881
100
AcDbArc
 50
287.2293662307022
 51
357.277043759201
  0
LINE
  5
211
330
2
100
AcDbEntity
  8
0
100
AcDbLine
 10
433.7165048239326
 20
221.0030112209698
 30
0.0
 11
434.1749105642032
 21
220.6079395151582
 31
0.0
  0
LINE
  5
212
330
2
100
AcDbEntity
  8
0
100
AcDbLine
 10
433.8152051369826
 20
220.5041015025349
 30
0.0
 11
434.1749105642032
 21
220.6079395151582
 31
0.0
  0
LINE
  5
213
330
2
100
AcDbEntity
  8
0
100
AcDbLine
 10
433.8152051369826
 20
220.5041015025349
 30
0.0
 11
433.356799396687
 21
220.8991732083467
 31
0.0
  0
LWPOLYLINE
  5
214
330
2
100
AcDbEntity
  8
0
100
AcDbPolyline
 90
        7
 70
   128
 43
0.0
 10
433.3605371247231
 20
221.4481910620358
 10
433.3607804476047
 20
221.4522592915191
 10
433.3615010522104
 20
221.455749746432
 10
433.3626712474647
 20
221.4585282936337
 10
433.3642460767065
 20
221.4604881310949
 10
433.3661649922112
 20
221.461553975525
 10
433.3661760072962
 20
221.461557172335
  0
LINE
  5
215
330
2
100
AcDbEntity
  8
0
100
AcDbLine
 10
433.3605371247231
 20
221.3960340439038
 30
0.0
 11
433.3605371247231
 21
221.4481910620358
 31
0.0
  0
ARC
  5
216
330
2
100
AcDbEntity
  8
0
100
AcDbCircle
 10
433.8265897504279
 20
220.5146691886787
 30
0.0
 40
0.0155333645366439
100
AcDbArc
 50
222.8687928445998
 51
279.6455473959895
  0
LWPOLYLINE
  5
217
330
2
100
AcDbEntity
  8
0
100
AcDbPolyline
 90
        9
 70
   128
 43
0.0
 10
433.3073519242956
 20
221.6086010258314
 10
433.3076682487472
 20
221.6138897236479
 10
433.3086050276735
 20
221.618427323456
 10
433.310126290938
 20
221.6220394205111
 10
433.3121735665845
 20
221.6245872146963
 10
433.3146681685328
 20
221.6259728044246
 10
433.3175142394823
 20
221.6261429340919
 10
433.320602406787
 20
221.6250910658958
 10
433.3238140045224
 20
221.6228576131646
  0
LINE
  5
218
330
2
100
AcDbEntity
  8
0
100
AcDbLine
 10
433.3238140045224
 20
221.6228576131646
 30
0.0
 11
433.3934596223033
 21
221.5625427389271
 31
0.0
  0
LINE
  5
219
330
2
100
AcDbEntity
  8
0
100
AcDbLine
 10
433.3934596223033
 20
221.5625427389271
 30
0.0
 11
433.4740947846214
 21
221.4927106399179
 31
0.0
  0
LINE
  5
21A
330
2
100
AcDbEntity
  8
0
100
AcDbLine
 10
433.8644812266634
 20
220.5095424087605
 30
0.0
 11
433.8644809907743
 21
220.506548071894
 31
0.0
  0
LWPOLYLINE
  5
21B
330
2
100
AcDbEntity
  8
0
100
AcDbPolyline
 90
        9
 70
   128
 43
0.0
 10
433.8644809907743
 20
220.506548071894
 10
433.8635121100486
 20
220.4903174989255
 10
433.8606442683467
 20
220.4763841543489
 10
433.8559870742294
 20
220.4652806692916
 10
433.8497185382705
 20
220.4574314123867
 10
433.8420782330858
 20
220.4531363116724
 10
433.8333581885094
 20
220.4525595788734
 10
433.8238916880803
 20
220.4557233159093
 10
433.8140405789791
 20
220.46250657516
  0
LINE
  5
21C
330
2
100
AcDbEntity
  8
0
100
AcDbLine
 10
433.8140405789791
 20
220.46250657516
 30
0.0
 11
433.3582166415603
 21
220.8539549797964
 31
0.0
  0
ARC
  5
21D
330
2
100
AcDbEntity
  8
0
100
AcDbCircle
 10
433.4990461577252
 20
220.9840191111227
 30
0.0
 40
0.1917019323890639
100
AcDbArc
 50
179.4864985529031
 51
222.7242481615995
  0
LINE
  5
21E
330
2
100
AcDbEntity
  8
0
100
AcDbLine
 10
433.3073519242956
 20
220.985737176608
 30
0.0
 11
433.3073519242956
 21
221.6086010258314
 31
0.0
  0
ARC
  5
21F
330
2
100
AcDbEntity
  8
0
100
AcDbCircle
 10
433.4332473888585
 20
220.9650246426639
 30
0.0
 40
0.1917019323890379
100
AcDbArc
 50
179.4864985529031
 51
222.7242481615995
  0
LINE
  5
220
330
2
100
AcDbEntity
  8
0
100
AcDbLine
 10
433.2415531554288
 20
220.9667427081493
 30
0.0
 11
433.2415531554288
 21
221.5896065573727
 31
0.0
  0
LINE
  5
221
330
2
100
AcDbEntity
  8
0
100
AcDbLine
 10
433.7482418101124
 20
220.4435121067013
 30
0.0
 11
433.2924178726935
 21
220.8349605113378
 31
0.0
  0
SPLINE
  5
222
330
2
100
AcDbEntity
  8
0
100
AcDbSpline
210
0.0
220
0.0
230
1.0
 70
     8
 71
     3
 72
    11
 73
     7
 74
     0
 42
0.000000001
 43
0.0000000001
 40
0.0
 40
0.0
 40
0.0
 40
0.0
 40
0.3442726846099632
 40
0.6556267241645083
 40
0.878815444631537
 40
1.0
 40
1.0
 40
1.0
 40
1.0
 10
433.7340812308122
 20
221.4884388227627
 30
0.0
 10
433.7331127521195
 20
221.489858289496
 30
0.0
 10
433.731268398672
 20
221.4925614964768
 30
0.0
 10
433.7271584026306
 20
221.494941906559
 30
0.0
 10
433.723747076918
 20
221.4958428563702
 30
0.0
 10
433.7220843189266
 20
221.4955816918177
 30
0.0
 10
433.7214991963224
 20
221.4954897883154
 30
0.0
  0
LWPOLYLINE
  5
223
330
2
100
AcDbEntity
  8
0
100
AcDbPolyline
 90
        7
 70
   128
 43
0.0
 10
433.2415531554288
 20
221.5896065573727
 10
433.2418694798804
 20
221.5948952551892
 10
433.2428062587811
 20
221.5994328549971
 10
433.2443275220712
 20
221.6030449520523
 10
433.2463747977176
 20
221.6055927462377
 10
433.248869399666
 20
221.6069783359658
 10
433.2488837169434
 20
221.6069824938072
  0
ARC
  5
224
330
2
100
AcDbEntity
  8
0
100
AcDbCircle
 10
433.7709065635235
 20
220.4646377537208
 30
0.0
 40
0.0309836087029138
100
AcDbArc
 50
222.9870470338957
 51
279.6993844572984
  0
LWPOLYLINE
  5
225
330
2
100
AcDbEntity
  8
0
100
AcDbPolyline
 90
        6
 70
   128
 43
0.0
 10
433.7479536720421
 20
220.4405636078002
 10
433.7578532287288
 20
220.4336390353306
 10
433.7673759604227
 20
220.4303593552757
 10
433.7761548072359
 20
220.4308509283686
 10
433.7838513201064
 20
220.4350948188808
 10
433.7856985549082
 20
220.4368601923452
  0
LINE
  5
226
330
2
100
AcDbEntity
  8
0
100
AcDbLine
 10
433.4708749096484
 20
220.6817067583842
 30
0.0
 11
433.7479536720421
 21
220.4405636078002
 31
0.0
  0
LINE
  5
227
330
2
100
AcDbEntity
  8
0
100
AcDbLine
 10
433.2415531554288
 20
221.4008667042659
 30
0.0
 11
433.2415531554288
 21
221.4008657033712
 31
0.0
  0
LWPOLYLINE
  5
228
330
2
100
AcDbEntity
  8
0
100
AcDbPolyline
 90
        5
 70
   128
 43
0.0
 10
433.2494547803522
 20
221.6071473458316
 10
433.2463472245872
 20
221.6056166252764
 10
433.2427787092546
 20
221.5994567136231
 10
433.241525605877
 20
221.5896304159732
 10
433.2415531554288
 20
221.5879574180023
  0
LINE
  5
229
330
2
100
AcDbEntity
  8
0
100
AcDbLine
 10
432.8072818499692
 20
221.2141973932014
 30
0.0
 11
432.640589282325
 21
221.1660773938079
 31
0.0
  0
LINE
  5
22A
330
2
100
AcDbEntity
  8
0
100
AcDbLine
 10
432.640589282325
 20
221.1660773938079
 30
0.0
 11
432.6406110530769
 21
220.9554997789529
 31
0.0
  0
LINE
  5
22B
330
2
100
AcDbEntity
  8
0
100
AcDbLine
 10
432.6406110530769
 20
220.9554997789529
 30
0.0
 11
432.8073036207215
 21
221.003619778372
 31
0.0
  0
LINE
  5
22C
330
2
100
AcDbEntity
  8
0
100
AcDbLine
 10
432.8073036207215
 20
221.003619778372
 30
0.0
 11
432.8072818499692
 21
221.2141973932014
 31
0.0
  0
ARC
  5
22D
330
2
100
AcDbEntity
  8
0
100
AcDbCircle
 10
434.3178887330267
 20
221.2326436212856
 30
0.0
 40
0.3628087907471329
100
AcDbArc
 50
160.8479524469019
 51
199.1520475530981
  0
ARC
  5
22E
330
2
100
AcDbEntity
  8
0
100
AcDbCircle
 10
434.3218417171285
 20
221.2296495530548
 30
0.0
 40
0.2973069548585208
100
AcDbArc
 50
163.278828864002
 51
196.7211711359979
  0
ARC
  5
22F
330
2
100
AcDbEntity
  8
0
100
AcDbCircle
 10
434.1862898879756
 20
221.1946543069811
 30
0.0
 40
0.3628087907468882
100
AcDbArc
 50
160.8479524469019
 51
199.1520475530981
  0
ARC
  5
230
330
2
100
AcDbEntity
  8
0
100
AcDbCircle
 10
433.8943049114912
 20
221.0890873381651
 30
0.0
 40
0.0524981602815836
100
AcDbArc
 50
194.8581570079001
 51
209.7685167632898
  0
LINE
  5
231
330
2
100
AcDbEntity
  8
0
100
AcDbLine
 10
434.0703678292138
 20
221.2863834761719
 30
0.0
 11
434.0703678292138
 21
221.2777368352202
 31
0.0
  0
LINE
  5
232
330
2
100
AcDbEntity
  8
0
100
AcDbLine
 10
434.0703678292138
 20
221.1840080334034
 30
0.0
 11
434.0703678292138
 21
221.1636841773561
 31
0.0
  0
LINE
  5
233
330
2
100
AcDbEntity
  8
0
100
AcDbLine
 10
433.9788995934094
 20
221.3551281109181
 30
0.0
 11
433.9792959837168
 21
221.3552243317773
 31
0.0
  0
ARC
  5
234
330
2
100
AcDbEntity
  8
0
100
AcDbCircle
 10
434.0374387202833
 20
221.2876768721986
 30
0.0
 40
0.0329545002868941
100
AcDbArc
 50
357.7506813324021
 51
47.59491480840687
  0
ARC
  5
235
330
2
100
AcDbEntity
  8
0
100
AcDbCircle
 10
433.8493059889074
 20
221.3112190496793
 30
0.0
 40
0.0062501514650997
100
AcDbArc
 50
108.7131704375922
 51
156.7803074866995
  0
ARC
  5
236
330
2
100
AcDbEntity
  8
0
100
AcDbCircle
 10
434.1435986628335
 20
221.0815906648714
 30
0.0
 40
0.0960279416457246
100
AcDbArc
 50
179.5143297805013
 51
222.5891429415008
  0
ARC
  5
237
330
2
100
AcDbEntity
  8
0
100
AcDbCircle
 10
434.1704312935626
 20
221.0900469842184
 30
0.0
 40
0.1920561557632832
100
AcDbArc
 50
179.5143497842948
 51
222.5891110120944
  0
ARC
  5
238
330
2
100
AcDbEntity
  8
0
100
AcDbCircle
 10
434.0388324484861
 20
221.0520576698888
 30
0.0
 40
0.1920561557632272
100
AcDbArc
 50
179.5143497842948
 51
222.5891110120944
  0
ARC
  5
239
330
2
100
AcDbEntity
  8
0
100
AcDbCircle
 10
434.0031430407267
 20
221.022405065882
 30
0.0
 40
0.0818769485257631
100
AcDbArc
 50
57.13527794769575
 51
107.6028483395985
  0
LINE
  5
23A
330
2
100
AcDbEntity
  8
0
100
AcDbLine
 10
434.0475741710445
 20
221.0911779483244
 30
0.0
 11
434.0475741710445
 21
221.0824046402427
 31
0.0
  0
LINE
  5
23B
330
2
100
AcDbEntity
  8
0
100
AcDbLine
 10
433.9783820369675
 20
221.0916748702018
 30
0.0
 11
433.9783820369675
 21
221.1004481782836
 31
0.0
  0
LINE
  5
23C
330
2
100
AcDbEntity
  8
0
100
AcDbLine
 10
434.0475741710445
 20
221.3587630482798
 30
0.0
 11
434.0475741710445
 21
221.3499897606364
 31
0.0
  0
LWPOLYLINE
  5
23D
330
2
100
AcDbEntity
  8
0
100
AcDbPolyline
 90
        9
 70
   128
 43
0.0
 10
434.0475741710445
 20
221.3587630482798
 10
434.0480608109067
 20
221.3668995123621
 10
434.0495020201175
 20
221.3738804221883
 10
434.0518424224536
 20
221.379437506334
 10
434.0549920691099
 20
221.3833571914884
 10
434.0588299295994
 20
221.3854888548449
 10
434.063208508912
 20
221.3857505896817
 10
434.0679595436737
 20
221.3841323204429
 10
434.0729004592106
 20
221.3806962572198
  0
LINE
  5
23E
330
2
100
AcDbEntity
  8
0
100
AcDbLine
 10
434.1298845957819
 20
221.3313465473241
 30
0.0
 11
434.0729004592106
 21
221.3806962572198
 31
0.0
  0
ARC
  5
23F
330
2
100
AcDbEntity
  8
0
100
AcDbCircle
 10
434.032824962921
 20
221.2193537851427
 30
0.0
 40
0.1481990253585914
100
AcDbArc
 50
46.78664478690317
 51
49.08583912170481
  0
LINE
  5
240
330
2
100
AcDbEntity
  8
0
100
AcDbLine
 10
434.0729004592106
 20
221.0166050542993
 30
0.0
 11
434.1298845957819
 21
220.9672553444034
 31
0.0
  0
LINE
  5
241
330
2
100
AcDbEntity
  8
0
100
AcDbLine
 10
434.1298845957819
 20
221.0198950295139
 30
0.0
 11
434.1298845957819
 21
221.0490630340707
 31
0.0
  0
LINE
  5
242
330
2
100
AcDbEntity
  8
0
100
AcDbLine
 10
434.1158454515403
 20
221.2908650973703
 30
0.0
 11
434.0475741710445
 21
221.3499897606364
 31
0.0
  0
LINE
  5
243
330
2
100
AcDbEntity
  8
0
100
AcDbLine
 10
434.1298845957819
 20
221.0198950295139
 30
0.0
 11
434.104624365808
 21
221.0417710303798
 31
0.0
  0
LINE
  5
244
330
2
100
AcDbEntity
  8
0
100
AcDbLine
 10
434.0690376791267
 20
221.0725900050935
 30
0.0
 11
434.0475741710445
 21
221.0911779483244
 31
0.0
  0
LINE
  5
245
330
2
100
AcDbEntity
  8
0
100
AcDbLine
 10
433.8467831919165
 20
221.0536855558974
 30
0.0
 11
433.8467831919165
 21
221.0624588639792
 31
0.0
  0
LINE
  5
246
330
2
100
AcDbEntity
  8
0
100
AcDbLine
 10
433.8467831919165
 20
221.0624588639792
 30
0.0
 11
433.9783820369675
 21
221.1004481782836
 31
0.0
  0
LINE
  5
247
330
2
100
AcDbEntity
  8
0
100
AcDbLine
 10
434.0860187498706
 20
220.9107259475679
 30
0.0
 11
434.0290346132993
 21
220.9600756574637
 31
0.0
  0
LINE
  5
248
330
2
100
AcDbEntity
  8
0
100
AcDbLine
 10
433.9544199047181
 20
220.8727366333395
 30
0.0
 11
434.0860187498706
 21
220.9107259475679
 31
0.0
  0
LINE
  5
249
330
2
100
AcDbEntity
  8
0
100
AcDbLine
 10
433.8974357682483
 20
220.922086343134
 30
0.0
 11
433.9544199047181
 21
220.8727366333395
 31
0.0
  0
ARC
  5
24A
330
2
100
AcDbEntity
  8
0
100
AcDbCircle
 10
434.0134191477686
 20
220.9271947161115
 30
0.0
 40
0.0802906810266666
100
AcDbArc
 50
222.7079443170965
 51
279.5714346238007
  0
LINE
  5
24B
330
2
100
AcDbEntity
  8
0
100
AcDbLine
 10
433.9783820369675
 20
221.3550024778624
 30
0.0
 11
433.9783820369675
 21
221.3680332782389
 31
0.0
  0
LINE
  5
24C
330
2
100
AcDbEntity
  8
0
100
AcDbLine
 10
433.850490905571
 20
221.3180597020635
 30
0.0
 11
433.8467831919165
 21
221.3212706762659
 31
0.0
  0
LINE
  5
24D
330
2
100
AcDbEntity
  8
0
100
AcDbLine
 10
433.8467831919165
 20
221.3212706762659
 30
0.0
 11
433.8467831919165
 21
221.3300439639346
 31
0.0
  0
LWPOLYLINE
  5
24E
330
2
100
AcDbEntity
  8
0
100
AcDbPolyline
 90
        7
 70
   128
 43
0.0
 10
433.8693387752911
 20
221.3835083795774
 10
433.8692947090006
 20
221.3834955974526
 10
433.8616189938975
 20
221.3792322452106
 10
433.8553196946839
 20
221.3713928800431
 10
433.8506388900369
 20
221.3602787321643
 10
433.8477564716147
 20
221.3463168920739
 10
433.8467831919165
 20
221.3300439639346
  0
LWPOLYLINE
  5
24F
330
2
100
AcDbEntity
  8
0
100
AcDbPolyline
 90
       10
 70
   128
 43
0.0
 10
436.3821211779527
 20
221.7855358200023
 10
436.3868675189182
 20
221.7189813890267
 10
436.4007830823411
 20
221.6487415488747
 10
436.4229195553007
 20
221.5796031980743
 10
436.4517683642664
 20
221.516277798688
 10
436.4853635259997
 20
221.4630810314427
 10
436.52141558006
 20
221.423638112636
 10
436.5574676458972
 20
221.4006368684664
 10
436.5910628371357
 20
221.3956450014352
 10
436.5986824565712
 20
221.3972434463733
  0
LWPOLYLINE
  5
250
330
2
100
AcDbEntity
  8
0
100
AcDbPolyline
 90
        5
 70
   128
 43
0.0
 10
436.44414901605
 20
222.3273606663927
 10
436.4229195553007
 20
222.3156012943511
 10
436.4007830823411
 20
222.2848043832378
 10
436.3868675189182
 20
222.2386670672343
 10
436.3821211779527
 20
222.1803335195316
  0
LINE
  5
251
330
2
100
AcDbEntity
  8
0
100
AcDbLine
 10
437.699981091959
 20
222.2713483772427
 30
0.0
 11
437.5424802976503
 21
222.2258818142458
 31
0.0
  0
LINE
  5
252
330
2
100
AcDbEntity
  8
0
100
AcDbLine
 10
437.699981091959
 20
222.0043442588487
 30
0.0
 11
437.5670160965465
 21
221.9659605709185
 31
0.0
  0
LINE
  5
253
330
2
100
AcDbEntity
  8
0
100
AcDbLine
 10
437.49230612991
 20
222.3925391099236
 30
0.0
 11
437.4962472363395
 21
222.3945478187302
 31
0.0
  0
LINE
  5
254
330
2
100
AcDbEntity
  8
0
100
AcDbLine
 10
437.6578084053364
 20
222.0975551305091
 30
0.0
 11
437.4931644095379
 21
222.0500265028863
 31
0.0
  0
LINE
  5
255
330
2
100
AcDbEntity
  8
0
100
AcDbLine
 10
434.2038838031269
 20
220.6368449346244
 30
0.0
 11
434.2038838031269
 21
220.9172892924644
 31
0.0
  0
ARC
  5
256
330
2
100
AcDbEntity
  8
0
100
AcDbCircle
 10
434.2018773681145
 20
220.6341403977894
 30
0.0
 40
0.0033675363155203
100
AcDbArc
 50
2.963485187298545
 51
53.42911190800418
  0
ARC
  5
257
330
2
100
AcDbEntity
  8
0
100
AcDbCircle
 10
434.1859147022514
 20
220.6174425659991
 30
0.0
 40
0.014539567703703
100
AcDbArc
 50
220.8135243514992
 51
282.7434706010949
  0
LINE
  5
258
330
2
100
AcDbEntity
  8
0
100
AcDbLine
 10
431.2919594211878
 20
220.9793171953042
 30
0.0
 11
433.2415533549239
 21
221.5421164865102
 31
0.0
  0
ARC
  5
259
330
2
100
AcDbEntity
  8
0
100
AcDbCircle
 10
434.0263475329601
 20
221.1272597754577
 30
0.0
 40
0.0529740938053997
100
AcDbArc
 50
194.9265170211021
 51
209.7328453457989
  0
SPLINE
  5
25A
330
2
100
AcDbEntity
  8
0
100
AcDbSpline
210
0.0
220
0.0
230
1.0
 70
     8
 71
     3
 72
    11
 73
     7
 74
     0
 42
0.000000001
 43
0.0000000001
 40
0.0
 40
0.0
 40
0.0
 40
0.0
 40
0.1247364298119644
 40
0.3076607208407356
 40
0.6542557904403628
 40
1.0
 40
1.0
 40
1.0
 40
1.0
 10
434.0056881823931
 20
221.1033152604231
 30
0.0
 10
434.0077045780343
 20
221.104644597794
 30
0.0
 10
434.0126779906724
 20
221.1079233904803
 30
0.0
 10
434.0220227364931
 20
221.1164347375992
 30
0.0
 10
434.0323880077344
 20
221.129288649998
 30
0.0
 10
434.0355346315537
 20
221.1391736392063
 30
0.0
 10
434.0371060099198
 20
221.1441100596624
 30
0.0
  0
ARC
  5
25B
330
2
100
AcDbEntity
  8
0
100
AcDbCircle
 10
433.9809048339587
 20
221.3492083640091
 30
0.0
 40
0.0062501514651667
100
AcDbArc
 50
108.7131704377019
 51
156.7803074860954
  0
SPLINE
  5
25C
330
2
100
AcDbEntity
  8
0
100
AcDbSpline
210
0.0
220
0.0
230
1.0
 70
     8
 71
     3
 72
     9
 73
     5
 74
     0
 42
0.000000001
 43
0.0000000001
 40
0.0
 40
0.0
 40
0.0
 40
0.0
 40
0.5151079187193878
 40
1.0
 40
1.0
 40
1.0
 40
1.0
 10
434.0371060099198
 20
221.3151890566596
 30
0.0
 10
434.0355952708893
 20
221.3215276648328
 30
0.0
 10
434.0326624116269
 20
221.3338330632606
 30
0.0
 10
434.0242952803516
 20
221.3419095061114
 30
0.0
 10
434.0202381246531
 20
221.3458257092947
 30
0.0
  0
LINE
  5
25D
330
2
100
AcDbEntity
  8
0
100
AcDbLine
 10
434.1342993556159
 20
221.3273625752727
 30
0.0
 11
434.1563520820252
 21
221.3025583679879
 31
0.0
  0
LWPOLYLINE
  5
25E
330
2
100
AcDbEntity
  8
0
100
AcDbPolyline
 90
        7
 70
   128
 43
0.0
 10
434.2343290050445
 20
221.0792135107541
 10
434.2349654868274
 20
221.0544740864071
 10
434.2292845723232
 20
221.0040611365095
 10
434.2141301402616
 20
220.9674905600376
 10
434.1909465192162
 20
220.9482477920066
 10
434.1619432659105
 20
220.9481668172663
 10
434.1298845957819
 20
220.9672553444034
  0
ARC
  5
25F
330
2
100
AcDbEntity
  8
0
100
AcDbCircle
 10
434.0969601387579
 20
221.3326409971267
 30
0.0
 40
0.0329498933491661
100
AcDbArc
 50
357.7485329004016
 51
47.62933066620388
  0
ARC
  5
260
330
2
100
AcDbEntity
  8
0
100
AcDbCircle
 10
434.1430960505961
 20
220.9597805498786
 30
0.0
 40
0.0752606953572401
100
AcDbArc
 50
220.6771318942954
 51
282.3891962826045
  0
LWPOLYLINE
  5
261
330
2
100
AcDbEntity
  8
0
100
AcDbPolyline
 90
        7
 70
   128
 43
0.0
 10
433.9783820369675
 20
221.3680332782389
 10
433.979355316666
 20
221.3843062063782
 10
433.9822377350881
 20
221.3982680464686
 10
433.9869185397604
 20
221.4093821943473
 10
433.9932178389739
 20
221.4172215595402
 10
434.0008935540519
 20
221.4214849117569
 10
434.0009023755765
 20
221.4214874855658
  0
ARC
  5
262
330
2
100
AcDbEntity
  8
0
100
AcDbCircle
 10
434.0399516361484
 20
221.3819861227372
 30
0.0
 40
0.0329740609380146
100
AcDbArc
 50
357.7581556821995
 51
47.28654694980339
  0
LINE
  5
263
330
2
100
AcDbEntity
  8
0
100
AcDbLine
 10
431.3185958479281
 20
220.8890276336564
 30
0.0
 11
431.3185958479281
 21
220.9188051255206
 31
0.0
  0
LINE
  5
264
330
2
100
AcDbEntity
  8
0
100
AcDbLine
 10
430.923798005432
 20
220.7583768566973
 30
0.0
 11
431.3185958479281
 21
220.8723451770227
 31
0.0
  0
LWPOLYLINE
  5
265
330
2
100
AcDbEntity
  8
0
100
AcDbPolyline
 90
        9
 70
   128
 43
0.0
 10
433.7416793808614
 20
221.5599645750248
 10
433.7401971068032
 20
221.5609953975601
 10
433.7387717951791
 20
221.5614808834553
 10
433.7374582149145
 20
221.5614023624774
 10
433.7363068656065
 20
221.5607628578759
 10
433.7353619727975
 20
221.5595869533427
 10
433.7346598367515
 20
221.5579198434288
 10
433.7342274881355
 20
221.5558255561718
 10
433.7340814849953
 20
221.5533846246209
  0
LINE
  5
266
330
2
100
AcDbEntity
  8
0
100
AcDbLine
 10
434.0703678292138
 20
221.2777368352202
 30
0.0
 11
434.0703678292138
 21
221.1636841841708
 31
0.0
  0
LINE
  5
267
330
2
100
AcDbEntity
  8
0
100
AcDbLine
 10
434.0703678292138
 20
221.1636841841708
 30
0.0
 11
434.0703678292138
 21
221.0714380613284
 31
0.0
  0
LINE
  5
268
330
2
100
AcDbEntity
  8
0
100
AcDbLine
 10
434.0703678292138
 20
221.0714380613284
 30
0.0
 11
434.104624365808
 21
221.0417710303798
 31
0.0
  0
LINE
  5
269
330
2
100
AcDbEntity
  8
0
100
AcDbLine
 10
431.3185958479281
 20
220.8890276336564
 30
0.0
 11
431.3185958479281
 21
220.8723451770227
 31
0.0
  0
LINE
  5
26A
330
2
100
AcDbEntity
  8
0
100
AcDbLine
 10
398.9064843356965
 20
211.5622344722186
 30
0.0
 11
398.9064843356965
 21
211.5157745237208
 31
0.0
  0
LINE
  5
26B
330
2
100
AcDbEntity
  8
0
100
AcDbLine
 10
398.5116864931751
 20
211.4018062033955
 30
0.0
 11
398.9064843356965
 21
211.5157745237208
 31
0.0
  0
ENDSEC
  0
SECTION
  2
OBJECTS
  0
DICTIONARY
  5
9
330
0
100
AcDbDictionary
281
     1
  3
ACAD_COLOR
350
3E
  3
ACAD_GROUP
350
35
  3
ACAD_LAYOUT
350
16
  3
ACAD_MATERIAL
350
B
  3
ACAD_MLEADERSTYLE
350
41
  3
ACAD_MLINESTYLE
350
36
  3
ACAD_PLOTSETTINGS
350
37
  3
ACAD_PLOTSTYLENAME
350
8
  3
ACAD_SCALELIST
350
3F
  3
ACAD_TABLESTYLE
350
40
  3
ACAD_VISUALSTYLE
350
2B
  3
ACDB_RECOMPOSE_DATA
350
273
  3
AcDbVariableDictionary
350
26C
  0
DICTIONARY
  5
1E
330
1D
100
AcDbDictionary
280
     1
281
     1
  3
ACAD_LAYERSTATES
360
1F
  0
DICTIONARY
  5
6
330
5
100
AcDbDictionary
280
     1
281
     1
  0
DICTIONARY
  5
3
330
2
100
AcDbDictionary
280
     1
281
     1
  0
DICTIONARY
  5
3E
102
{ACAD_REACTORS
330
9
102
}
330
9
100
AcDbDictionary
281
     1
  0
DICTIONARY
  5
35
102
{ACAD_REACTORS
330
9
102
}
330
9
100
AcDbDictionary
281
     1
  0
DICTIONARY
  5
16
102
{ACAD_REACTORS
330
9
102
}
330
9
100
AcDbDictionary
281
     1
  3
Model
350
15
  3
レイアウト1
350
1C
  0
DICTIONARY
  5
B
102
{ACAD_REACTORS
330
9
102
}
330
9
100
AcDbDictionary
281
     1
  3
ByBlock
350
3B
  3
ByLayer
350
38
  3
Global
350
A
  0
DICTIONARY
  5
41
102
{ACAD_REACTORS
330
9
102
}
330
9
100
AcDbDictionary
281
     1
  0
DICTIONARY
  5
36
102
{ACAD_REACTORS
330
9
102
}
330
9
100
AcDbDictionary
281
     1
  3
Standard
350
42
  0
DICTIONARY
  5
37
102
{ACAD_REACTORS
330
9
102
}
330
9
100
AcDbDictionary
281
     1
  0
ACDBDICTIONARYWDFLT
  5
8
102
{ACAD_REACTORS
330
9
102
}
330
9
100
AcDbDictionary
281
     1
  3
Normal
350
7
100
AcDbDictionaryWithDefault
340
7
  0
DICTIONARY
  5
3F
102
{ACAD_REACTORS
330
9
102
}
330
9
100
AcDbDictionary
281
     1
  3
A0
350
47
  3
A1
350
48
  3
A2
350
49
  3
A3
350
4A
  3
A4
350
4B
  3
A5
350
4C
  3
A6
350
4D
  3
A7
350
4E
  3
A8
350
4F
  3
A9
350
50
  3
B0
350
51
  3
B1
350
52
  3
B2
350
53
  3
B3
350
54
  3
B4
350
55
  3
B5
350
56
  3
B6
350
57
  0
DICTIONARY
  5
40
102
{ACAD_REACTORS
330
9
102
}
330
9
100
AcDbDictionary
281
     1
  3
Standard
350
43
  0
DICTIONARY
  5
2B
102
{ACAD_REACTORS
330
9
102
}
330
9
100
AcDbDictionary
281
     1
  3
2dWireframe
350
2A
  3
Realistic
350
45
  3
Wireframe
350
46
  0
XRECORD
  5
273
102
{ACAD_REACTORS
330
9
102
}
330
9
100
AcDbXrecord
280
     1
 90
        1
330
43
  0
DICTIONARY
  5
26C
102
{ACAD_REACTORS
330
9
102
}
330
9
100
AcDbDictionary
281
     1
  3
CANNOSCALE
350
271
  3
CMLEADERSTYLE
350
26E
  3
CTABLESTYLE
350
26D
  3
CVIEWDETAILSTYLE
350
26F
  3
CVIEWSECTIONSTYLE
350
270
  0
DICTIONARY
  5
1F
102
{ACAD_REACTORS
330
1E
102
}
330
1E
100
AcDbDictionary
281
     1
  0
LAYOUT
  5
15
102
{ACAD_XDICTIONARY
360
17
102
}
102
{ACAD_REACTORS
330
16
102
}
330
16
100
AcDbPlotSettings
  1

  2
none_device
  4
ISO_A4_(210.00_x_297.00_MM)
  6

 40
7.5
 41
20.0
 42
7.5
 43
20.0
 44
210.0
 45
297.0
 46
11.54999923706054
 47
-13.65000009536743
 48
0.0
 49
0.0
140
0.0
141
0.0
142
1.0
143
8.704084754739808
 70
 11952
 72
     1
 73
     0
 74
     0
  7

 75
     0
147
0.1148885871608098
 76
     0
 77
     2
 78
   300
148
0.0
149
0.0
100
AcDbLayout
  1
Model
 70
     1
 71
     0
 10
0.0
 20
0.0
 11
12.0
 21
9.0
 12
0.0
 22
0.0
 32
0.0
 14
0.0
 24
0.0
 34
0.0
 15
0.0
 25
0.0
 35
0.0
146
0.0
 13
0.0
 23
0.0
 33
0.0
 16
1.0
 26
0.0
 36
0.0
 17
0.0
 27
1.0
 37
0.0
 76
     0
330
2
331
29
1001
ACAD_PSEXT
1000
None
1000
None
1000
Not applicable
1000
The layout will not be plotted unless a new plotter configuration name is selected.
1070
     0
  0
LAYOUT
  5
1C
102
{ACAD_REACTORS
330
16
102
}
330
16
100
AcDbPlotSettings
  1

  2
C:\Documents and Settings\basas\Application Data\Autodesk\AutoCAD 2005\R16.1\enu\plotters\Default Windows System Printer.pc3
  4

  6

 40
0.0
 41
0.0
 42
0.0
 43
0.0
 44
0.0
 45
0.0
 46
0.0
 47
0.0
 48
0.0
 49
0.0
140
0.0
141
0.0
142
1.0
143
1.0
 70
   688
 72
     0
 73
     0
 74
     5
  7

 75
    16
147
1.0
 76
     0
 77
     2
 78
   300
148
0.0
149
0.0
100
AcDbLayout
  1
レイアウト1
 70
     1
 71
     1
 10
0.0
 20
0.0
 11
12.0
 21
9.0
 12
0.0
 22
0.0
 32
0.0
 14
0.0
 24
0.0
 34
0.0
 15
0.0
 25
0.0
 35
0.0
146
0.0
 13
0.0
 23
0.0
 33
0.0
 16
1.0
 26
0.0
 36
0.0
 17
0.0
 27
1.0
 37
0.0
 76
     0
330
19
  0
MATERIAL
  5
3B
102
{ACAD_XDICTIONARY
360
3C
102
}
102
{ACAD_REACTORS
330
B
102
}
330
B
100
AcDbMaterial
  1
ByBlock
 94
       63
  0
MATERIAL
  5
38
102
{ACAD_XDICTIONARY
360
39
102
}
102
{ACAD_REACTORS
330
B
102
}
330
B
100
AcDbMaterial
  1
ByLayer
 94
       63
  0
MATERIAL
  5
A
102
{ACAD_XDICTIONARY
360
C
102
}
102
{ACAD_REACTORS
330
B
102
}
330
B
100
AcDbMaterial
  1
Global
 43
0.0007999999797903
 43
0.0
 43
0.0
 43
0.0
 43
0.0
 43
0.0007999999797903
 43
0.0
 43
0.0
 43
0.0
 43
0.0
 43
1.0
 43
0.0
 43
0.0
 43
0.0
 43
0.0
 43
1.0
 49
0.0007999999797903
 49
0.0
 49
0.0
 49
0.0
 49
0.0
 49
0.0007999999797903
 49
0.0
 49
0.0
 49
0.0
 49
0.0
 49
1.0
 49
0.0
 49
0.0
 49
0.0
 49
0.0
 49
1.0
142
0.0007999999797903
142
0.0
142
0.0
142
0.0
142
0.0
142
0.0007999999797903
142
0.0
142
0.0
142
0.0
142
0.0
142
1.0
142
0.0
142
0.0
142
0.0
142
0.0
142
1.0
144
0.0007999999797903
144
0.0
144
0.0
144
0.0
144
0.0
144
0.0007999999797903
144
0.0
144
0.0
144
0.0
144
0.0
144
1.0
144
0.0
144
0.0
144
0.0
144
0.0
144
1.0
 94
       63
1001
ACAD
1070
    -1
1070
     3
1070
     0
1000

1071
        0
1070
     0
  0
MLINESTYLE
  5
42
102
{ACAD_REACTORS
330
36
102
}
330
36
100
AcDbMlineStyle
  2
STANDARD
 70
     0
  3

 62
   256
 51
90.0
 52
90.0
 71
     2
 49
0.5
 62
   256
  6
BYLAYER
 49
-0.5
 62
   256
  6
BYLAYER
  0
ACDBPLACEHOLDER
  5
7
102
{ACAD_REACTORS
330
8
102
}
330
8
  0
SCALE
  5
47
102
{ACAD_REACTORS
330
3F
102
}
330
3F
100
AcDbScale
 70
     0
300
1:1
140
1.0
141
1.0
290
     1
  0
SCALE
  5
48
102
{ACAD_REACTORS
330
3F
102
}
330
3F
100
AcDbScale
 70
     0
300
1:2
140
1.0
141
2.0
290
     0
  0
SCALE
  5
49
102
{ACAD_REACTORS
330
3F
102
}
330
3F
100
AcDbScale
 70
     0
300
1:4
140
1.0
141
4.0
290
     0
  0
SCALE
  5
4A
102
{ACAD_REACTORS
330
3F
102
}
330
3F
100
AcDbScale
 70
     0
300
1:5
140
1.0
141
5.0
290
     0
  0
SCALE
  5
4B
102
{ACAD_REACTORS
330
3F
102
}
330
3F
100
AcDbScale
 70
     0
300
1:8
140
1.0
141
8.0
290
     0
  0
SCALE
  5
4C
102
{ACAD_REACTORS
330
3F
102
}
330
3F
100
AcDbScale
 70
     0
300
1:10
140
1.0
141
10.0
290
     0
  0
SCALE
  5
4D
102
{ACAD_REACTORS
330
3F
102
}
330
3F
100
AcDbScale
 70
     0
300
1:16
140
1.0
141
16.0
290
     0
  0
SCALE
  5
4E
102
{ACAD_REACTORS
330
3F
102
}
330
3F
100
AcDbScale
 70
     0
300
1:20
140
1.0
141
20.0
290
     0
  0
SCALE
  5
4F
102
{ACAD_REACTORS
330
3F
102
}
330
3F
100
AcDbScale
 70
     0
300
1:30
140
1.0
141
30.0
290
     0
  0
SCALE
  5
50
102
{ACAD_REACTORS
330
3F
102
}
330
3F
100
AcDbScale
 70
     0
300
1:40
140
1.0
141
40.0
290
     0
  0
SCALE
  5
51
102
{ACAD_REACTORS
330
3F
102
}
330
3F
100
AcDbScale
 70
     0
300
1:50
140
1.0
141
50.0
290
     0
  0
SCALE
  5
52
102
{ACAD_REACTORS
330
3F
102
}
330
3F
100
AcDbScale
 70
     0
300
1:100
140
1.0
141
100.0
290
     0
  0
SCALE
  5
53
102
{ACAD_REACTORS
330
3F
102
}
330
3F
100
AcDbScale
 70
     0
300
2:1
140
2.0
141
1.0
290
     0
  0
SCALE
  5
54
102
{ACAD_REACTORS
330
3F
102
}
330
3F
100
AcDbScale
 70
     0
300
4:1
140
4.0
141
1.0
290
     0
  0
SCALE
  5
55
102
{ACAD_REACTORS
330
3F
102
}
330
3F
100
AcDbScale
 70
     0
300
8:1
140
8.0
141
1.0
290
     0
  0
SCALE
  5
56
102
{ACAD_REACTORS
330
3F
102
}
330
3F
100
AcDbScale
 70
     0
300
10:1
140
10.0
141
1.0
290
     0
  0
SCALE
  5
57
102
{ACAD_REACTORS
330
3F
102
}
330
3F
100
AcDbScale
 70
     0
300
100:1
140
100.0
141
1.0
290
     0
  0
TABLESTYLE
  5
43
102
{ACAD_XDICTIONARY
360
44
102
}
102
{ACAD_REACTORS
330
40
102
}
330
40
100
AcDbTableStyle
280
     0
  3
Standard
 70
     0
 71
     0
 40
1.5
 41
1.5
280
     0
281
     0
  7
Standard
140
4.5
170
     2
 62
     0
 63
     7
283
     0
 90
      512
 91
        0
  1

274
    -2
284
     1
 64
     0
275
    -2
285
     1
 65
     0
276
    -2
286
     1
 66
     0
277
    -2
287
     1
 67
     0
278
    -2
288
     1
 68
     0
279
    -2
289
     1
 69
     0
  7
Standard
140
6.0
170
     5
 62
     0
 63
     7
283
     0
 90
      512
 91
        0
  1

274
    -2
284
     1
 64
     0
275
    -2
285
     1
 65
     0
276
    -2
286
     1
 66
     0
277
    -2
287
     1
 67
     0
278
    -2
288
     1
 68
     0
279
    -2
289
     1
 69
     0
  7
Standard
140
4.5
170
     5
 62
     0
 63
     7
283
     0
 90
      512
 91
        0
  1

274
    -2
284
     1
 64
     0
275
    -2
285
     1
 65
     0
276
    -2
286
     1
 66
     0
277
    -2
287
     1
 67
     0
278
    -2
288
     1
 68
     0
279
    -2
289
     1
 69
     0
  0
VISUALSTYLE
  5
2A
102
{ACAD_REACTORS
330
2B
102
}
330
2B
100
AcDbVisualStyle
  2
2dWireframe
 70
     4
177
     3
291
     0
 70
    58
 90
        0
176
     1
 90
        2
176
     1
 90
        1
176
     1
 90
        0
176
     1
 40
0.6
176
     1
 40
30.0
176
     1
 62
     7
420
 16777215
176
     1
 90
        1
176
     1
 90
        4
176
     1
 62
     7
176
     1
 62
   257
176
     1
 90
        1
176
     1
 90
        1
176
     1
 40
1.0
176
     1
 90
        0
176
     1
 62
   257
176
     1
 40
1.0
176
     1
 90
        1
176
     1
 90
        6
176
     1
 90
        2
176
     1
 62
     7
176
     1
 90
        5
176
     1
 90
        0
176
     1
 90
        0
176
     1
290
     0
176
     1
 90
        1
176
     1
 40
0.0
176
     1
 90
        0
176
     1
290
     1
176
     1
290
     1
176
     1
290
     0
176
     1
290
     0
176
     1
290
     0
176
     1
290
     0
176
     1
290
     0
176
     1
290
     0
176
     1
290
     0
176
     1
 90
       50
176
     1
 40
0.0
176
     1
 40
1.0
176
     1
 90
        0
176
     1
 62
    18
420
        0
176
     1
 90
       50
176
     1
 90
        3
176
     1
 62
     5
420
      255
176
     1
290
     0
176
     1
 90
       50
176
     1
 90
       50
176
     1
 90
       50
176
     1
290
     0
176
     1
 90
       50
176
     1
 62
   256
176
     0
 40
1.0
176
     0
 90
        2
176
     1
  1
strokes_ogs.tif
176
     1
290
     0
176
     1
 40
1.0
176
     1
 40
1.0
176
     1
  0
VISUALSTYLE
  5
45
102
{ACAD_REACTORS
330
2B
102
}
330
2B
100
AcDbVisualStyle
  2
Realistic
 70
     8
177
     3
291
     0
 70
    58
 90
        2
176
     1
 90
        3
176
     1
 90
        0
176
     1
 90
        2
176
     1
 40
0.6
176
     1
 40
30.0
176
     1
 62
     7
420
 16777215
176
     1
 90
        0
176
     1
 90
        0
176
     1
 62
     7
176
     1
 62
   257
176
     1
 90
        1
176
     1
 90
        1
176
     1
 40
1.0
176
     1
 90
        8
176
     1
 62
   257
176
     1
 40
1.0
176
     1
 90
        1
176
     1
 90
        6
176
     1
 90
        2
176
     1
 62
     7
176
     1
 90
        3
176
     1
 90
        0
176
     1
 90
        0
176
     1
290
     0
176
     1
 90
       13
176
     1
 40
0.0
176
     1
 90
        0
176
     1
290
     0
176
     1
290
     1
176
     1
290
     1
176
     1
290
     0
176
     1
290
     0
176
     1
290
     0
176
     1
290
     0
176
     1
290
     0
176
     1
290
     0
176
     1
 90
       50
176
     1
 40
0.0
176
     1
 40
1.0
176
     1
 90
        0
176
     1
 62
    18
420
        0
176
     1
 90
       50
176
     1
 90
        3
176
     1
 62
     5
420
      255
176
     1
290
     0
176
     1
 90
       50
176
     1
 90
       50
176
     1
 90
       50
176
     1
290
     0
176
     1
 90
       50
176
     1
 62
   256
176
     0
 40
1.0
176
     0
 90
        2
176
     1
  1
strokes_ogs.tif
176
     1
290
     0
176
     1
 40
1.0
176
     1
 40
1.0
176
     1
  0
VISUALSTYLE
  5
46
102
{ACAD_REACTORS
330
2B
102
}
330
2B
100
AcDbVisualStyle
  2
Wireframe
 70
     5
177
     3
291
     0
 70
    58
 90
        0
176
     1
 90
        2
176
     1
 90
        0
176
     1
 90
        0
176
     1
 40
0.6
176
     1
 40
30.0
176
     1
 62
     7
420
 16777215
176
     1
 90
        1
176
     1
 90
        4
176
     1
 62
     7
176
     1
 62
   257
176
     1
 90
        1
176
     1
 90
        1
176
     1
 40
1.0
176
     1
 90
        0
176
     1
 62
   257
176
     1
 40
1.0
176
     1
 90
        1
176
     1
 90
        6
176
     1
 90
        2
176
     1
 62
     7
176
     1
 90
        3
176
     1
 90
        0
176
     1
 90
        0
176
     1
290
     0
176
     1
 90
        1
176
     1
 40
0.0
176
     1
 90
        0
176
     1
290
     0
176
     1
290
     1
176
     1
290
     1
176
     1
290
     0
176
     1
290
     0
176
     1
290
     0
176
     1
290
     0
176
     1
290
     0
176
     1
290
     0
176
     1
 90
       50
176
     1
 40
0.0
176
     1
 40
1.0
176
     1
 90
        0
176
     1
 62
    18
420
        0
176
     1
 90
       50
176
     1
 90
        3
176
     1
 62
     5
420
      255
176
     1
290
     0
176
     1
 90
       50
176
     1
 90
       50
176
     1
 90
       50
176
     1
290
     0
176
     1
 90
       50
176
     1
 62
   256
176
     0
 40
1.0
176
     0
 90
        2
176
     1
  1
strokes_ogs.tif
176
     1
290
     0
176
     1
 40
1.0
176
     1
 40
1.0
176
     1
  0
DICTIONARYVAR
  5
271
102
{ACAD_REACTORS
330
26C
102
}
330
26C
100
DictionaryVariables
280
     0
  1
1:1
  0
DICTIONARYVAR
  5
26E
102
{ACAD_REACTORS
330
26C
102
}
330
26C
100
DictionaryVariables
280
     0
  1
STANDARD
  0
DICTIONARYVAR
  5
26D
102
{ACAD_REACTORS
330
26C
102
}
330
26C
100
DictionaryVariables
280
     0
  1
STANDARD
  0
DICTIONARYVAR
  5
26F
102
{ACAD_REACTORS
330
26C
102
}
330
26C
100
DictionaryVariables
280
     0
  1

  0
DICTIONARYVAR
  5
270
102
{ACAD_REACTORS
330
26C
102
}
330
26C
100
DictionaryVariables
280
     0
  1

  0
DICTIONARY
  5
17
330
15
100
AcDbDictionary
280
     1
281
     1
  0
DICTIONARY
  5
3C
330
3B
100
AcDbDictionary
280
     1
281
     1
  3
FBXASSET
360
3D
  0
DICTIONARY
  5
39
330
38
100
AcDbDictionary
280
     1
281
     1
  3
FBXASSET
360
3A
  0
DICTIONARY
  5
C
330
A
100
AcDbDictionary
280
     1
281
     1
  3
BUMPTILE
360
D
  3
DIFFUSETILE
360
E
  3
FBXASSET
360
F
  3
OPACITYTILE
360
10
  3
REFLECTIONTILE
360
11
  0
DICTIONARY
  5
44
330
43
100
AcDbDictionary
280
     1
281
     1
  3
ACAD_ROUNDTRIP_2008_TABLESTYLE_CELLSTYLEMAP
360
272
  0
XRECORD
  5
3D
102
{ACAD_REACTORS
330
3C
102
}
330
3C
100
AcDbXrecord
280
     1
 70
     1
 90
429727718
  1
D62C5603-E3A1-4AEA-B7FB-FE5D8D0755AF
310
504B03040A0000080000CC70623B3DEE336E79000000790000001B0000006175746F6465736B2D64657369676E2D7061636B6167652E786D6C3C3F786D6C2076657273696F6E3D22312E302220656E636F64696E673D227574662D3822203F3E3C666F726D6174733E3C666F726D61743E687474703A2F2F736368656D612E
310
6175746F6465736B2E636F6D2F64657369676E2D7061636B6167652F323030393C2F666F726D61743E3C2F666F726D6174733E504B0304140006080800CC70623BD486FD9CA0000000F4000000130000005B436F6E74656E745F54797065735D2E786D6C7D8EC10E82300C865F65E91D8A1E8C310C0EEA1BF002731658846E
310
D98AC1B77784ABF1D8FE5FBFBF75BBCE937A534CCEB38643598122B6FEE978D0B0485F9C41B54DDD7D022595594E1A469170414C76A4D9A4D207E29CF43ECE46F218070CC6BECC4078ACAA135ACF422C856C0E68EA1BF5669944DDD7BCDE7B1F8E415D77AECB980613C2E4AC91FC167A2B244592486606FC29C8FD7F045B9A
310
EF7053A7E60B504B0304140006080800CC70623B853B8169EB0000007C01000008000000636F72652E786D6C8D90416EC3201045AF62CDB6C206821CC7C244919D9CA01740401C94182C03558F5F9C3852BBEB6A467FFE9B197D7EFC9E1EC5975982F5AE035262288C535E5B377690E21535501C055FBC8FBF6C503839990E
310
5619041F179FE64D52DE45E362569DD7661365082642A11EB9E920A89B99642953CC8E702F67A9EE7234257977194EC9EAE275C4EABCCF5EAD5940D4AC6F0E35A568B8F43562CD7046CD199FD07E60174276A7BE677B5EADB0E0D14EEFFB6A31321A0D82627C4084204C3F096B71DD52F6819B16635EADF63F509AF53FA164
310
5DDCD1EDDD17164090FCC8732078B56691CB33A85CD7DCC40F504B0304140006080800CC70623B55019EA25F0000007C00000007000000636E782E786D6C4DCB3B0E80201045D1AD90E915ED2CF8AC45050C11660C8261F98AB1B07AC9C97D42D718D865D3E909258CFD00CCE24AC6E326A164D74DC0B4128928FF32603847
310
2BA13128B1252AC747C6BAB984FC68F0B87FE8960A5C09FE86CFB69FBA01504B0304140006080800CC70623BDBABAAF470010000D40300000C0000006662782F636F72652E786D6CC553D16E823014FD95A6AF4B694182CC941A83FA05FB810A9511A125A5257EFE2E82712ECEB8A7F100CD39F7F69E734AF9FADC366850B6
310
AF8DCE7018308C942E4C59EB2AC3DE1D498AD15A706B8CFB56869196ADCAF00863C12B6B7C374385D14E6907A836A59A41D9F7CA615434B0C8705F7CAA5606D23BA8E84F41278B93AC54100640439DE0BDB320004D43C63716C7C399D30917DCFBBA9CD9BA8469F5B156168B24CED3F7248AC8769F27244EB73B92EED8862C
310
B7F13E0C179B3C8F979C8ECD82BBBABDAA2BAC924E9558448CBD9330242CFA08E3154B5651FCC6D215639C8EE5774DBE2B5F6CF2B5768B68963BB5F5588420E442FC700B1139D4CB01F450C1E918227C2E09DF070D8140C84E1E9AAB8F1340832A9CB13130A5F1376A908D57309505ECF2A0DF179C4E9D30F5B239B87E3823
310
7A79C6F31DE1A8A5AEC08474B03C7837EAE4938639B44E5932B833D2C6B6B279CDC613877FA26EE21F4A2A4C63EC7F29A2F301D1F9F7A0E37D145F504B0304140006080800CC70623B9C113CC27E0000009D0000000B0000006662782F636E782E786D6C4DCCDF0A83201C86E15B91DFB94BFB330DD428C8FB886521330DA7
310
6397BF1A1DECE883878F57749FCDA1B7892F1BBC047A23808C7F84D9FA55424E0BE6803A256208E9EF06C84F9B91703228B1C690F78B66B34CD9A5439DF5CF0BFBF65E35BCA1B8D6A5C6F540381E886698B5741C695F9503EBA150A2F8958E3DC3EA0B504B0304140006080800CC70623B7DF2F77C2A010000120200003100
310
00006662782F41393633353835312D344632462D344230382D423046372D3739314545314133324237412F636F72652E786D6C8D51DB8EC22014FC15C2939B0D2DB4B45643319AE817EC0F6041255A68B86CFCFC856D4D76DF7CE190393373060EDB3DC707F856CE6B6B7A480A0C81328395DA5C7B18C3057510EC3873D686
310
3F34088C18550F330C39BB3A1BA7051AAC09CA84841A2BD5020AEF55806078A44B0FFD7053A328440C89E1EFC52486BBB8AA8214A99D789CF9E05200300FC927E4FB4D5B375D43103D5527440FB843077C5AA3F5861C8F645F5787F59E95B390B318B55CE45AA638FAA2957BD7248B390B7A7CC51F9C124149C82B8C378810
310
84AB2F42B7B8DD56F413775B8C5999E9FF4471926F8AA236A1AE96B8B3CC434E5839373893369E1FAF30EA395917409EB7F26AF8801C171837A4A6AC9C89E9F9C9B1A58BA30FD6A5EF5DDDCF894B9AD9B6A59C957943A9FCAE2FD5BC4DFE03504B0304140006080800CC70623BAD7543B64E01000033030000300000006662
310
782F41393633353835312D344632462D344230382D423046372D3739314545314133324237412F636E782E786D6CD593CD6EC32010845F0571AD6CE3D48AD20813A9873E410FBD12D82434182C7EAAE6EDBB2424CD25871E7B41D6EC30B3FA84F9E67BB2E40B4234DE8DB46F1925E094D7C6ED479AD3AE5951B2113C789FEE
310
6C943839C1488B4C05DF079FE72A69D8C96C13AAD6B8631503449F83828872B949AC57D26200B826A308D316B4064D6E46FCDA41C05550DC9E483A00797BFD207EFB092A45DE9514C1BBD22178396BD39D891265658C238DEA00936C654E5E433CB65A26D9F6EDB5EBC14EBF49A45CB856E66048291F6939A9A81BB5C89177
310
38143CA680F4AA299D66A042CEB3354A2684DC9D8D178FE0D9B8B41CAAD720F880EE7EF93C0C18769E099ECC04D5A102C8049A8A05632F4DDF376CF1DE0F6BB65C2F8627B65A33C6BB62177CEBBDAD973006829F89F22E814B54F4BC2BE347F8AA8F681390B50FA73F804400B5F542E796F19FF974E7F78DB802FE05E20750
310
4B0304140006080800CC70623BE75B7789680500003C100000340000006662782F41393633353835312D344632462D344230382D423046372D3739314545314133324237412F6F626A656374732E786D6CAD575B8F9B3818FD2B887D06C22499CB8AA1CA655245D5B455A356FB305264C061D8018C6C3393D95FBFC7600890
310
A4CD5EF210B0B1BFEBF98E3F7B1FF6596ABC522E1296DF9BAE3D320D9A872C4AF2F8DE2CE5CEBA358D0FBEC719939D65A691938CDE9B6ADAF4BD98B3B2D05311DD91329583D9D5FC0F438434A7A611A644887B5384CF34233629258BA878B12322891DEFF6B66BD70BFB62634E8AE781D082709A4B588AF91C528CDA28B73F
310
1C998EEF39EABBEFA97FBD6A7C7E9553F9D3D79FE442923C3C523610337627CB87ABE99D359D4CC6D6E4FACAB5E6ABF9D2726FC6A3C5F56271377BB88362213924694B38DD99FE47C48627A1E7D49F5A8BB5E1A74C0A599ED3B0F21F1E56366B89112D681E218F0915D0D6F17AD41FBA2A369DCF6335D62ABBD39779D5DDD1
310
11D4D8DE3CBB96B2E04FB8202E41051754A1AA8E8F76B4C6DFE810B580B1547F4B84911149794252234D024EF8BBE963A95AE27B3D310A9D5C215C7960FAEE415ED75694C6AFB17BCACA5D99A60A9AA65F217B0BFC53292ACB92BF283FAD0D3621576592CB5BED907C2FA8E9DF794E35E97BEA31BED21FEB401ABB94C44839
310
DCACBF0E1C5DA8DA5B2F4DFFD32AD86F543D9E565E7056502E157C00AD2671CD534549AB752FCA9CDA00677A313F04E51B22FF19E57B300579E3C97EB29F682D92935CEC18CF901B7B54FD8C51F362B56FC72FE0B3C1EAE335EDCCBF5AEC39ADB17DC238973F804BA5E6F6BFE7AF1FB32E523BE9F3BD571418E3631DCA4D48
310
5250CF639223210A9446CA30052EDF057BD35F8329C1ECD84552BF0DC8D18BE7BCE23BFE6BD960AB4A7DE79923A103BEBD80F911CBAA2C60DB19B01CF164A5583B772EE6D3FFA56666CBCDA74DC97724A48F9A58967497E489C4D979006FD7A05E227A1EBDD0F737C623387A9C844D3709995625106D157315F8B8392CD4E0
310
A0B9A720C4BE9829CEF37EA1E13111214D53925356365ADA634861B52519DD27A00AEB808EAF0628E6F435519D446F45CF2C9CF5214F0A15B2F6D06B79DA3EE3CBF7F56780D2F4E7EF73A0F5E5B02A38D07DC852C6B7C1FBB6664213E0C39E3EBA7FF4E1AD23EA2829407C85E586727488B751B2DB9502BC7B228A3FD68B6E
310
A65A22397E690AA8D158D7E404EC8CDA235CC3B7D1898680131CEC2CDF2638C65196279577750F15884AEE19F94199155B92B13297978469D4F8D358DF0AEF7631E28DC8F0D9F437D5D39A83B2231A1D52D543813A824EF8D44BCFF2FA6A31BD1E8DAD87F1CCB526B3879935BF59CDADD5C37479BB1CDD4CA7B3556B516589
310
EF352754B706114D9C885EC9131DE6EFEB43D99AFE2391C2F958179413D7CFEF6B1B6DB1E7600F00DE6E5C67454A339A4BA2E0FBA85ED26F045D454F463DBFCE484C2F90F2E5E3666003662ED8F755951A7D1BECD5B30B550B2785C8E7320B7292A4838DDA71BBC863ED7613CAF659337A3354231D4FF4A182A54904C2898C
310
98B28C4AD0CE056CCF332A80986E571EE9DBC305BB5FEB7E509220A58D25CF042D712A806AC0AD0C657FDEF80D2D9CEAA2EE4D1C76F60BFE74219A06527D6F82DF6412526107381E55E353090704D085B52408A8913C4ED159D79BDA71BB4BC506F4831350EB6F975CD22D69BF7AC49B91A2C0A9DDA3D5CA36AD20FC478E37
310
E61844E2352865EBCB61A275A65283CAAA9DD27703B4102F5AF51EF5F573B75CBB5AD38BC845F7A49F82A0966A49C2E3EA5EA0ECD326CD965F1DB402C6FA8B51A4658C5C5E2EC9E214602E55810345408596591009A82E7E7FFACA19EEA299B14A0081A705CB3296EBC14CDF658DCD336EA6D1136881AAEB87B81AB9EE53D5
310
F5EB8BC8362082DA24122F98680A4E7930C01A0079749CEA14382A0783E5EBA5A10F8C098456A03D6A4AEB6BB881E2513747552A5DB22C7EDAF83BD5528081A365F7FF06504B0304140006080000CC70623B000000000000000000000000350000006662782F41393633353835312D344632462D344230382D423046372D37
310
39314545314133324237412F76657274696365732E62696E504B0304140006080800CC70623BF270F1330600000004000000360000006662782F41393633353835312D344632462D344230382D423046372D3739314545314133324237412F747269616E676C65732E62696E636660600000504B0304140006080000CC7062
310
3B000000000000000000000000370000006662782F41393633353835312D344632462D344230382D423046372D3739314545314133324237412F617474726962757465732E62696E504B0304140006080800CC70623B08DA0BD19000000041010000360000006662782F41393633353835312D344632462D344230382D4230
310
46372D3739314545314133324237412F6469726563746F72792E786D6C858F410AC3201045AF22B36F53E9A60B35CBEEBAE80D244E44489C6234F4F835464A48035D0DF398FF9F8AF63D0E6CC63039F212F8F9020C7D47C6792B21C5FE7403D62A1188E2E60C98D7234A5830286103A55745067B9D86B8A3CF9C7F90C11DE6
310
07FB144396D7B6A82D282E9A152AD114D5EF2CB866EEE831B8EEA07A7BB5A8D7D61A2BAAEB7FD5F70921FF497D00504B0304140006080800CC70623BEDD1DC58FD000000A00100003B0000006662782F41393633353835312D344632462D344230382D423046372D3739314545314133324237412F7265736F75726365732F
310
636F72652E786D6C8D504B6E833010BD0A9A6D65B00922041947112427E8052C33A156828DFCA97AFC9A40A576D7CDCCE87D344F8F9FBFE667F689CE6B6B3A6039850C8DB2A336530731DC4903D95970676DF82583CCC8193B5861107C72362E3BA4AC096842428D1D7107A5F7182053CF7474E0D507CE32973124857FE48B
310
540F3961CEF244279DE03EB81420DB9EAC1384436FA353E879B1B182C7A8C75DA3C7F453DF353A1075D537A7BA6464B8F535A99AE14A9A2BBD90E350DD183B5CFABE3AF262350B1EF4FC9351399401471025A527C218A1E53BAB5A5AB765F5469B96525EACF23FA6B88CFF34456DC2A1DCE36E360F82A5202F42F062ED2BAD
310
579969AFDD8A6F504B010214000A0000080000CC70623B3DEE336E79000000790000001B00000000000000000000000000000000006175746F6465736B2D64657369676E2D7061636B6167652E786D6C504B01021400140006080800CC70623BD486FD9CA0000000F40000001300000000000000000000000000B20000005B
310
436F6E74656E745F54797065735D2E786D6C504B01021400140006080800CC70623B853B8169EB0000007C010000080000000000000000000000000083010000636F72652E786D6C504B01021400140006080800CC70623B55019EA25F0000007C000000070000000000000000000000000094020000636E782E786D6C504B
310
01021400140006080800CC70623BDBABAAF470010000D40300000C00000000000000000000000000180300006662782F636F72652E786D6C504B01021400140006080800CC70623B9C113CC27E0000009D0000000B00000000000000000000000000B20400006662782F636E782E786D6C504B01021400140006080800CC70
310
623B7DF2F77C2A010000120200003100000000000000000000000000590500006662782F41393633353835312D344632462D344230382D423046372D3739314545314133324237412F636F72652E786D6C504B01021400140006080800CC70623BAD7543B64E010000330300003000000000000000000000000000D2060000
310
6662782F41393633353835312D344632462D344230382D423046372D3739314545314133324237412F636E782E786D6C504B01021400140006080800CC70623BE75B7789680500003C10000034000000000000000000000000006E0800006662782F41393633353835312D344632462D344230382D423046372D3739314545
310
314133324237412F6F626A656374732E786D6C504B01021400140006080000CC70623B0000000000000000000000003500000000000000000000000000280E00006662782F41393633353835312D344632462D344230382D423046372D3739314545314133324237412F76657274696365732E62696E504B01021400140006
310
080800CC70623BF270F133060000000400000036000000000000000000000000007B0E00006662782F41393633353835312D344632462D344230382D423046372D3739314545314133324237412F747269616E676C65732E62696E504B01021400140006080000CC70623B0000000000000000000000003700000000000000
310
000000000000D50E00006662782F41393633353835312D344632462D344230382D423046372D3739314545314133324237412F617474726962757465732E62696E504B01021400140006080800CC70623B08DA0BD1900000004101000036000000000000000000000000002A0F00006662782F41393633353835312D344632
310
462D344230382D423046372D3739314545314133324237412F6469726563746F72792E786D6C504B01021400140006080800CC70623BEDD1DC58FD000000A00100003B000000000000000000000000000E1000006662782F41393633353835312D344632462D344230382D423046372D3739314545314133324237412F7265
310
736F75726365732F636F72652E786D6C504B0506000000000E000E0080040000641100000000
  0
XRECORD
  5
3A
102
{ACAD_REACTORS
330
39
102
}
330
39
100
AcDbXrecord
280
     1
 70
     1
 90
429727718
  1
30362254-06B7-45E0-A893-8CFA70E3D6BC
310
504B03040A0000080000CC70623B3DEE336E79000000790000001B0000006175746F6465736B2D64657369676E2D7061636B6167652E786D6C3C3F786D6C2076657273696F6E3D22312E302220656E636F64696E673D227574662D3822203F3E3C666F726D6174733E3C666F726D61743E687474703A2F2F736368656D612E
310
6175746F6465736B2E636F6D2F64657369676E2D7061636B6167652F323030393C2F666F726D61743E3C2F666F726D6174733E504B0304140006080800CC70623BD486FD9CA0000000F4000000130000005B436F6E74656E745F54797065735D2E786D6C7D8EC10E82300C865F65E91D8A1E8C310C0EEA1BF002731658846E
310
D98AC1B77784ABF1D8FE5FBFBF75BBCE937A534CCEB38643598122B6FEE978D0B0485F9C41B54DDD7D022595594E1A469170414C76A4D9A4D207E29CF43ECE46F218070CC6BECC4078ACAA135ACF422C856C0E68EA1BF5669944DDD7BCDE7B1F8E415D77AECB980613C2E4AC91FC167A2B244592486606FC29C8FD7F045B9A
310
EF7053A7E60B504B0304140006080800CC70623B1EC5D7A3EB0000007C01000008000000636F72652E786D6C8D90416EC3201045AF82665B6103C6756C6122AB4D4ED00B204C5C94182C03558F5F9C3852BBEB6A467FFE9B197D71FC9E6FE8CBACC17AD7032D0820E3B41FAD9B7A48F1820F808E52ACDEC75F36404ECDA687
310
4D0629A6D5A76597B477D1B89855E747B38B2A041301E95B6E7A08FAD3CCAA50296647B8168BD2573599823EBB0CA76447F43862C7BCCF5EAC59410E4DDD9C7973C2755553CCCFA4C603E3040F1565ED3B1FDE4E432BCA0D9622DAF9795FAF464533826484B498524CD807E51D79ED187F21878E10516EF63F505AC67F42C9
310
BA58B1FDDD071640D2FCC87D2045B96591CB3DA85CB7DCE40F504B0304140006080800CC70623B55019EA25F0000007C00000007000000636E782E786D6C4DCB3B0E80201045D1AD90E915ED2CF8AC45050C11660C8261F98AB1B07AC9C97D42D718D865D3E909258CFD00CCE24AC6E326A164D74DC0B4128928FF32603847
310
2BA13128B1252AC747C6BAB984FC68F0B87FE8960A5C09FE86CFB69FBA01504B0304140006080800CC70623B8C9102E971010000D40300000C0000006662782F636F72652E786D6CC5535B6E833010BC8AE5DF0A6C08340F1947A84D4ED00B38C6A128602363A31CBFCB234A53A551FA553EC09AD9F5CE8C31DB9E9B1AF5CA
310
7695D1198E428A91D2D214952E33ECDD315861B4E5CC1AE3BE9561A445A3323CC098B3D21ADFCE9034DA29ED00D5A6503328BA4E398C640D8B0C77F253352214DE4145770A5B214FA2546114020D759C75CE8200340D19DE981F0F6746269C33EFAB6266AB02A655C74A59CCF365BADC27CB5D902ED22848F6340DF238A141
310
BE88E2F57B92BFEDF23523433367AE6A2EEAA455C2A902F398D2751045018D3FA264435F3771F242571B4A1919CA6F9A7C5B3CD9E42BED16F12C776AEB308F40C848FC700B1139D4891EF410CEC810227CC6846F8386402064270EF5C5C709A05E49676C024C61FC95EA45ED154CA5211D1FF4FB8291A913A68E9B83EBBB33
310
E2A7673CDE118E5AE8124C0807CB8377834E366998436B950D7A7746DAD846D4CFD978E0F04FD455FC5D49D2D4C6FE9722321F10997F0F32DC47FE05504B0304140006080800CC70623BFFEA85907E0000009D0000000B0000006662782F636E782E786D6C4DCCD10A83201886E15B91FFDC95D95A811AB6F23E625948A6C3
310
E9D8E5AF46073BFAE0E1E365ED67B3E8ADC3CB78C7815C7240DA3DFC64DCC221C519D7805AC182F7F1EF06C88D9BE6703008B6049F9E274D7A1E938DBB5AE3D6131B2589BA0D3D965551E0B2EA732C9B9A624AAEB41E3A557677029960D9AFB4EF11165F504B0304140006080800CC70623B4FEEA4082C0100001202000031
310
0000006662782F39464131463745442D413632322D343644302D413938332D3331353338454246344243312F636F72652E786D6C8D515B6EC32010BC0AE2AB55850DD871ED0813254D72825EC00192A2C460F1A872FC42ED48ED5F7E00CDCECCCEB26C731F6FE05B39AFADE921293004CA082BB5B9F43086336A21D870E6AC
310
0D7F68109861543DCC30E4ECE26C9C164858139409093556AA051CBC570102714B8F1E7AF1A5C6A11862480C7F2DA6415C878B2A4891CA89C7990F2E050073937C42DE1DB7E4F87ED8A36D4329AA9B3D46DBAEAD504556557BD81DEBDD0761E52CE42C462D17B996298E3E6BE59E35C962CE821E1FF18553435012728A7187
310
0841987E927A8D9B35ADDF70BBC6989599FE4F1427F9A4286A132ABAC49D651EF234CD5CE04CDA78BA3DC2A8FB645D00B9DF8B57E215725C60BCA2A463E54C4CE327C7A65E1C7DB02E7DEFCBF594B864C5CA6CDBD49C957943E9FA5D5FBAF336F90F504B0304140006080800CC70623BAD7543B64E01000033030000300000
310
006662782F39464131463745442D413632322D343644302D413938332D3331353338454246344243312F636E782E786D6CD593CD6EC32010845F0571AD6CE3D48AD20813A9873E410FBD12D82434182C7EAAE6EDBB2424CD25871E7B41D6EC30B3FA84F9E67BB2E40B4234DE8DB46F1925E094D7C6ED479AD3AE5951B2113C
310
789FEE6C943839C1488B4C05DF079FE72A69D8C96C13AAD6B8631503449F83828872B949AC57D26200B826A308D316B4064D6E46FCDA41C05550DC9E483A00797BFD207EFB092A45DE9514C1BBD22178396BD39D891265658C238DEA00936C654E5E433CB65A26D9F6EDB5EBC14EBF49A45CB856E66048291F6939A9A81BB5
310
C8917738143CA680F4AA299D66A042CEB3354A2684DC9D8D178FE0D9B8B41CAAD720F880EE7EF93C0C18769E099ECC04D5A102C8049A8A05632F4DDF376CF1DE0F6BB65C2F8627B65A33C6BB62177CEBBDAD973006829F89F22E814B54F4BC2BE347F8AA8F681390B50FA73F804400B5F542E796F19FF974E7F78DB802FE05
310
E207504B0304140006080800CC70623B16AB87BA640500003C100000340000006662782F39464131463745442D413632322D343644302D413938332D3331353338454246344243312F6F626A656374732E786D6CAD575B6FA33818FD2B887DE6924B3BED8A326A92B68A663B534DD4D13E548A0C38942D60649B369D5FBFC7
310
600890A493BDE42160637FD7F31D7FF63E6FB3D478A55C242CBF3247B66B1A340F5994E4F19559CA8D75611A9F7D8F33263BCB4C232719BD32D5B4E97B316765A1A722BA21652A07B3B7B33F0D11D29C9A46981221AE4C113ED38CD8A4942CA2E2C58E882476BCD9DA23BB5ED8171B73523C0F841684D35CC252CCE79062D4
310
468DFA43D7747CCF51DF7D4FFDEB5593E3AB9CCA9FBEFE241792E4E19EB28198C968BAB8199F5D5A67D3E9C49A9E8F47D6EC76B6B0469F26EEFC7C3EBFBCBEB98462213924694B38DD98FE1D62C393D073EA4FADC5DAF04326852CCF6958F90F0F2B9BB5C48816348F90C7840A68EB78EDF68723159BCEE7891A6B95DDE9D3
310
BCEAEEE8086A6C6F9E5D4B59F0175C10A7A0820BAA5055C7473B5AE3CFDD452D602CD5DF12616444529E90D448938013FE6EFA58AA96F85E4F8C42275708571E98FE6827AF6B2B4AE3D7D83D64E5A64C53054DD3AF90BD06FEA9149565C94FCA0F6B834DC85599E4F2423B24DF0B6AFA979E534DFA9E7A4CC6FA631D486393
310
921829879BF5D781A373557BCB85E97FB90DB62B558F8795179C15944B051F40AB495CF35451D26A4727654E6D8033BD98EF82F21D91FF8AF2DD9982BCF1643BDD4EB516C9492E368C67C88DED563FC36D5EACF66DFF057C3658BDBFA69DF9578B3DA735B64F18C7F20770A9D45CFCF7FCF563D6456A277DBEF78A02637CA2
310
43B90A490AEAB94F72244481D24819A6C0E59B606BFA4B3025981DBB48EAB701D97BF19C577CC77F2D1B6C55A9EF3C732474C0B727303F625995056C3B02963D9EAC146BE78EC5FCEC7FA999EBC5EACBAAE41B12D27B4D2C0BBA49F244E2ECDC81B76B502F113D8F5EE8FB1BE3111CDD4FC2AA9B844CAB1288B68AB90A7CDC
310
1C166AB0D3DC5310625FCC14E779BFD0709F8890A629C9292B1B2DED31A4B0DA928CEE135085754027E3018A397D4D5427D15BD1330B677DC8934285AC3DF45A9EB68FF8F2B8FC0A509AFEECFD0FF2DE25CC6047F7214B195F07EFEB9A094D800F7BFAE8FED187B78EA8A3A400F115961BCAD1215E47C966530AF0EE8128FE
310
58CEBB996A8964FFA529A046635D9353B0336A8F700DDF46271A024E70B0B37C9DE01847591E54DED53D54202AB947E4076556AC49C6CA5C9E1226B7F1A7B1BE15DEED62C41B91E1B3E9AFAAA735036547343A925075041DF0A9979E893B391F8FCFA6967B3EFB644DCF6E5CEBFAE272625DCC6FAF3FB93793C5F90CE1EF57
310
407342756B10D1C489E8953CD1617E5CEECAD6F4EF8914CE5D5D504E5C3F1F9736DA62CFC11E00BCDDB8CC8A9466349744C1F75EBDA4DF09BA8A9E8C7A7E9991989E20E5DBDD6A6003664ED8F7A04A8DBE0DF6EAD9B9AA858342E47399053949D2C146EDB85DE4B176BB0965FBAC19BD19AA918E27FA50C1D22402E144464C
310
59462568E704B6E71915404CB72B8FF4EDE184DDAF753F284990D2C6926782963815403548A70C657FDEF80D2D9CEAA2AE4C1C76F60BFE74219A06527D6582DF6412526107381E55E353090704D085B52408D0933C4ED159D79BDA71BB4BC506F4831350EB6F979CD22D69BF7AC49B91A2C0A9DDA3D5CA36AD20FC478E37E6
310
1844E2352865EBCB6EA275A652E3836BE04EFB400BF1A2556F515F1FBB35B2AB35BD889C744FFA1004B5544B121E57F70215746DD2F5E2C1412B602CBF19455AC6C8E5E9922C4E01E65215385004546899059180EAFCF7A707CE7017CD8CDB0410789AB32C63B91E5CEBBBACB17AC6CD347A022D5075FD106377347AAABA7E
310
7D11590744509B44E205134DC1290F06580320F78E537D3D73540E06CB970B431F185308AD40BBD794D6D77003C5A36E8EAA54BA64597CD8F83BD552A080A365F7FF06504B0304140006080000CC70623B000000000000000000000000350000006662782F39464131463745442D413632322D343644302D413938332D3331
310
353338454246344243312F76657274696365732E62696E504B0304140006080800CC70623BF270F1330600000004000000360000006662782F39464131463745442D413632322D343644302D413938332D3331353338454246344243312F747269616E676C65732E62696E636660600000504B0304140006080000CC70623B
310
000000000000000000000000370000006662782F39464131463745442D413632322D343644302D413938332D3331353338454246344243312F617474726962757465732E62696E504B0304140006080800CC70623B08DA0BD19000000041010000360000006662782F39464131463745442D413632322D343644302D413938
310
332D3331353338454246344243312F6469726563746F72792E786D6C858F410AC3201045AF22B36F53E9A60B35CBEEBAE80D244E44489C6234F4F835464A48035D0DF398FF9F8AF63D0E6CC63039F212F8F9020C7D47C6792B21C5FE7403D62A1188E2E60C98D7234A5830286103A55745067B9D86B8A3CF9C7F90C11DE607
310
FB144396D7B6A82D282E9A152AD114D5EF2CB866EEE831B8EEA07A7BB5A8D7D61A2BAAEB7FD5F70921FF497D00504B0304140006080800CC70623B0D6EF93BFE000000A00100003B0000006662782F39464131463745442D413632322D343644302D413938332D3331353338454246344243312F7265736F75726365732F63
310
6F72652E786D6C8D50596E833010BD0A9ADFCA60B334011947A8694ED00B586642AC041B79A97AFC9A40A5F6AF3F33A3B7689E1E3F7DCD8FEC139DD7D6F4C0720A191A65476DA61E62B892236427C19DB5E1970C322367EC618541F0C9D9B8EC90B226A009093576C41D94DE63804C3DD2D18357379C652E63480A7FCF17A9
310
EE72C29CE5894E3AC17D702940B63D59270887DE46A7D0F36263058F518FBB468FE9A7BE6A7420864373B8D4873369AA8691FA421B3294352543C5CAF65C0F6FEF43CB8BD52C78D0F34F46E550061C419494B6843142CB0F5677F4B52BEB177AEC28E5C52AFF638ACBF84F53D42654E51E77B379102C05791282176B5F693D
310
CB4C7BED567C03504B010214000A0000080000CC70623B3DEE336E79000000790000001B00000000000000000000000000000000006175746F6465736B2D64657369676E2D7061636B6167652E786D6C504B01021400140006080800CC70623BD486FD9CA0000000F40000001300000000000000000000000000B20000005B
310
436F6E74656E745F54797065735D2E786D6C504B01021400140006080800CC70623B1EC5D7A3EB0000007C010000080000000000000000000000000083010000636F72652E786D6C504B01021400140006080800CC70623B55019EA25F0000007C000000070000000000000000000000000094020000636E782E786D6C504B
310
01021400140006080800CC70623B8C9102E971010000D40300000C00000000000000000000000000180300006662782F636F72652E786D6C504B01021400140006080800CC70623BFFEA85907E0000009D0000000B00000000000000000000000000B30400006662782F636E782E786D6C504B01021400140006080800CC70
310
623B4FEEA4082C0100001202000031000000000000000000000000005A0500006662782F39464131463745442D413632322D343644302D413938332D3331353338454246344243312F636F72652E786D6C504B01021400140006080800CC70623BAD7543B64E010000330300003000000000000000000000000000D5060000
310
6662782F39464131463745442D413632322D343644302D413938332D3331353338454246344243312F636E782E786D6C504B01021400140006080800CC70623B16AB87BA640500003C1000003400000000000000000000000000710800006662782F39464131463745442D413632322D343644302D413938332D3331353338
310
454246344243312F6F626A656374732E786D6C504B01021400140006080000CC70623B0000000000000000000000003500000000000000000000000000270E00006662782F39464131463745442D413632322D343644302D413938332D3331353338454246344243312F76657274696365732E62696E504B01021400140006
310
080800CC70623BF270F133060000000400000036000000000000000000000000007A0E00006662782F39464131463745442D413632322D343644302D413938332D3331353338454246344243312F747269616E676C65732E62696E504B01021400140006080000CC70623B0000000000000000000000003700000000000000
310
000000000000D40E00006662782F39464131463745442D413632322D343644302D413938332D3331353338454246344243312F617474726962757465732E62696E504B01021400140006080800CC70623B08DA0BD190000000410100003600000000000000000000000000290F00006662782F39464131463745442D413632
310
322D343644302D413938332D3331353338454246344243312F6469726563746F72792E786D6C504B01021400140006080800CC70623B0D6EF93BFE000000A00100003B000000000000000000000000000D1000006662782F39464131463745442D413632322D343644302D413938332D3331353338454246344243312F7265
310
736F75726365732F636F72652E786D6C504B0506000000000E000E0080040000641100000000
  0
XRECORD
  5
D
102
{ACAD_REACTORS
330
C
102
}
330
C
100
AcDbXrecord
280
     1
270
     1
271
     1
  0
XRECORD
  5
E
102
{ACAD_REACTORS
330
C
102
}
330
C
100
AcDbXrecord
280
     1
270
     1
271
     1
  0
XRECORD
  5
F
102
{ACAD_REACTORS
330
C
102
}
330
C
100
AcDbXrecord
280
     1
 70
     0
 90
1673772943
  1
ECE7A1D2-D628-4531-984C-D00F80459256
310
504B03040A0000080000CC70623B3DEE336E79000000790000001B0000006175746F6465736B2D64657369676E2D7061636B6167652E786D6C3C3F786D6C2076657273696F6E3D22312E302220656E636F64696E673D227574662D3822203F3E3C666F726D6174733E3C666F726D61743E687474703A2F2F736368656D612E
310
6175746F6465736B2E636F6D2F64657369676E2D7061636B6167652F323030393C2F666F726D61743E3C2F666F726D6174733E504B0304140006080800CC70623BD486FD9CA0000000F4000000130000005B436F6E74656E745F54797065735D2E786D6C7D8EC10E82300C865F65E91D8A1E8C310C0EEA1BF002731658846E
310
D98AC1B77784ABF1D8FE5FBFBF75BBCE937A534CCEB38643598122B6FEE978D0B0485F9C41B54DDD7D022595594E1A469170414C76A4D9A4D207E29CF43ECE46F218070CC6BECC4078ACAA135ACF422C856C0E68EA1BF5669944DDD7BCDE7B1F8E415D77AECB980613C2E4AC91FC167A2B244592486606FC29C8FD7F045B9A
310
EF7053A7E60B504B0304140006080800CC70623BD9DDAED0EC0000007C01000008000000636F72652E786D6C8D90416EC3201045AF82665B61836D9CD8C2444DD39CA01740405C94182C03558F5F9C3852BBEB6A467FFE9B197D7EF89E6EE8CB2CC17A37002D0820E394D7D68D03A478C17B4007C117EFE32F1B20272733C0
310
2A83E0E3E2D3BC49CABB685CCCAAF3DA6CA20CC14440EA969B0182FA34932C648AD911AEC52CD5558EA6A0CF2EC329598D1E47ACCEFBECC59A050463A7EA5833865FEBDD0E37353BE3EE8DBDE3F6786A48D375FBF6CC78B9C282473B3DEFABC5C86834888A900E538A49F5419B9EB47DD5BC907D4F082F57FB1F28CDFA9F50
310
B22ED6D5F6EE030B20687EE43E10BC5CB3C8E51E54AE6B6EE207504B0304140006080800CC70623B55019EA25F0000007C00000007000000636E782E786D6C4DCB3B0E80201045D1AD90E915ED2CF8AC45050C11660C8261F98AB1B07AC9C97D42D718D865D3E909258CFD00CCE24AC6E326A164D74DC0B4128928FF326038
310
472BA13128B1252AC747C6BAB984FC68F0B87FE8960A5C09FE86CFB69FBA01504B0304140006080800CC70623BA24EB22D72010000D40300000C0000006662782F636F72652E786D6CC5535B6E833010BC8AE5DF0A6C5E49888CA3A6694ED00B38E05014B091B1518EDFE511A5A9D228FD2A1F60CDEC7A67C6986DCE4D8D7A
310
69BA4AAB0C073EC548AA5C17952A33ECECD15B61B4E1CC686DBF9561A44423333CC098B3D268D7CE50AE9595CA02AA74216750749DB418E5352C32DCE59FB211BE70162ABA93DF8AFC244AE9073ED050C759670D0840D390E18DF9F1706664C23973AE2A66B62A605A75ACA4C13C4976E1364A12EF355A2EBD384AF65EFA96
310
BC7B8BED2EA6719AAE16FB8491A199335B351775B991C2CA02F390D2D40B028F861F41BCA68B7518BFD0D59A524686F29B26D7164F36B94AD9289CE54E6D1DE6010819891F6E21228B3AD1831EC219194284CF98F06DD01008846CC5A1BEF83801D4CBDC6A1303536877A57A513B0953A94FC707FDBE6064EA84A9E3E6E0FA
310
EE8CF0E9198F7784A316AA0413C2C2F2E0ECA0934D1AE6D05A69BCDE9E91D2A611F573361E38FC1375157F5752AE6B6DFE4B11990F88CCBF0719EE23FF02504B0304140006080800CC70623B408A7D3B7C0000009D0000000B0000006662782F636E782E786D6C4DCCD10A83201886E15B91FFDC552A92A0064DBC8F581632
310
D3703A76F9ABD1C18E3E78F878E5F0D9027ABBFCF2292AE86E2D20171F69F6715550CB827B40839639A5F2770314A7CD293819B45C73AAFB45B35BA61ACAA1C1C7E7855C58C15BC331339661262CC762340413D68D77DA5B42298546CBE6573AF60CEB2F504B0304140006080800CC70623B449FB9BD290100001202000031
310
0000006662782F36394639363044362D344446342D343946362D394244322D3234314243333846323333332F636F72652E786D6C8D515B6EC32010BC0AE22B55850D98B871848994463E412FE002495162B07854397EA176A4F62F3F2C9A9D991D587EB84F37F0AD7D30CEF6905418026DA553C65E7A98E219ED203808EE9D
310
8B7F6810D871D23D2C3014FCE25D9A57483A1BB58D19B54EE9151C43D0110279CB971E06F9A5A7B11A53CC8C70ADE6515EC78BAE4895DB992778883E0700CB907242D17643D7E2538BD869608875438BBAE38922CAC8F1BDD90DB4691A5E2F42C153326A951B95E398B3D1FE599322163C9AE9115F7A3D46ADA0A018778810
310
84E907617BDCEE297BC5BB3DC6BC2EF47FA234AB2745C9D8D8D035EE220B50105E2F0DC1954B9FB747187D9F9D8FA0CCDB042D5FA0C015C65B42DF78BD10F3F3B363CB56C7109DCFDFBBB97E662ED92EB62D13BC2E1BCAE5777DB9966D8A1F504B0304140006080800CC70623BAD7543B64E01000033030000300000006662
310
782F36394639363044362D344446342D343946362D394244322D3234314243333846323333332F636E782E786D6CD593CD6EC32010845F0571AD6CE3D48AD20813A9873E410FBD12D82434182C7EAAE6EDBB2424CD25871E7B41D6EC30B3FA84F9E67BB2E40B4234DE8DB46F1925E094D7C6ED479AD3AE5951B2113C789FEE
310
6C943839C1488B4C05DF079FE72A69D8C96C13AAD6B8631503449F83828872B949AC57D26200B826A308D316B4064D6E46FCDA41C05550DC9E483A00797BFD207EFB092A45DE9514C1BBD22178396BD39D891265658C238DEA00936C654E5E433CB65A26D9F6EDB5EBC14EBF49A45CB856E66048291F6939A9A81BB5C89177
310
38143CA680F4AA299D66A042CEB3354A2684DC9D8D178FE0D9B8B41CAAD720F880EE7EF93C0C18769E099ECC04D5A102C8049A8A05632F4DDF376CF1DE0F6BB65C2F8627B65A33C6BB62177CEBBDAD973006829F89F22E814B54F4BC2BE347F8AA8F681390B50FA73F804400B5F542E796F19FF974E7F78DB802FE05E20750
310
4B0304140006080800CC70623B8D05915C650500003B100000340000006662782F36394639363044362D344446342D343946362D394244322D3234314243333846323333332F6F626A656374732E786D6CAD575B6FA33814FE2B887D06429276DA1565D4266D158D3A339A6846FB502932E050B66023DB74D2FDF5FB190C01
310
9276B2973C046C8ECFF53B17071F77456EBD502133CEAE6CDF9DD81665314F32965ED995DA3A17B6F5310C04E7AA47665B8C14F4CAD6DB7618A48257A5D94AE89654B91AEDDEDDFC61C998326A5B714EA4BCB265FC440BE2924AF184CA6737218AB8E976E7FA6E4338649B0A523E8D98964450A6A029F619B8588D52FE7039
310
B1BD30F0F4F730D0FF866AF6369557DB33949F31A9088B0F848DD8CCFCF9F2767A76E99CCDE733677E3EF59D9BBB9BA5E37F984D16E78BC5E5F5ED25044B25C0C96822E8D60EEFE11B91C581D77CEA34368A1F5329E68CD1B8B61F16D63A1B8E092D294B10C78C4A48EB593D192E7DED9BDEE7995E1B91FDEDD3ACEA9FE831
310
6A756F9F7D4D79F4274C90A7A04248AA51D5F8C718DAE06FB2F75AC4796EBE65D22A88A22223B995679120E2D50E41AA49C260C046A35368846B0BECD0DFF3EBEB8AD4F835768F69B9ADF25C43D30E6B646F807FAA64AD59F61715C7A54127C4AACA98BA3006A9D792DAE165E0D59B61A01FB3A9F9D838D2DAE62445C86166
310
F37564E842E7DE6A69879FEEA2DD5AE7E371E1A5E025154AC307D06A03D73EB5978C58FFA4C8E9033066E0F3BD53BEC1F39F91BE7B55103791EDE6BBB991A2046172CB4581D8B893FA674DDA17A77B3B7C413D1B511FD2743BFF8A38F03A658705E3ADF8015C3A3417FF3D7E439FF591DA0B5F18BC20C1B8981957AE6392A3
310
F43C640C01D1A0B4728E2DD4F26DB4B3C3152A252A3B4E913CEC1C72F012782FF88EFF8637AA552DBEF76408E8A8DE9E50F9E1CB3A2DA0DB1B6039A893B56063DC5B3E3FFB5F72E67AB9FEB4AEC496C4F4C1149625DD662C53E89D7BF0F6151A046260D1337DFDC94502430F83B0EE07A130A224BCAD7DAE1D9FB6CD422FF6
310
920702629C4BB9AE79C12F243C6432A6794E18E5552BA56B431AAB5D91317302B2B071E86C3A42B1A02F999E24061403B5D0EB639195DA655DD3EBEAB4FB862DDF579F014AD0E73C22F99E28DA57FB98E75C6CA2D74D53086D600F4786E0FE3144B771A8A7B900F03594DB8A633CBC49B2EDB69228BB479CF863B5E807AAAB
310
23872F6DFEB4129B949CA33823F58830E86D65621E10047D9DB34D862E8EAC3C2ABC2F7B2C40D67CDFE01F5545B92105AF983AC54D93D69E56FB8E797F88913F898A9FEC705D3F9D1B54EC8426FB500D40A03BD0119B06E1B95DDC7EB8F6975367793EBD70E66733DFB9BC982F9CE564727731999F5D4ECFCE3B8D6A4DC2A0
310
6D50FD148437D110834A64C6CDDF57FBACB5C307A2A477DFE4939736CFEF2B175371E0E10CF0DD1D5C15654E0BCA14D1E87DD02FF93782A162C0A3D95F1524A52770F972BF1EE9809D13CE7DD599467F8ECE9ADD85CE85A34CD45355448C64F9E8A031DC2D596ACC6E5DD93D9B82DE2EF5CAF81363A8E47996A0DE24564A79
310
4115AACE09C55E14540231FDA13C319787134EBF34E3A022514E5B4D9E0826E25C02D5805B15ABE1BEF51B26383D445DD9E875EE33FE4C22DA16427D65A3BCA92CA6D28DD01DF5DC53330704308475351050232CCD31583787BA75774AFB06E5070DD0C8EF484E19968C5D83BA5B90B244D31E54D55A372320FE4786B7EA58
310
44E135AA5467CB7EA333A61683CC6A8C3257034C10CF46F40EF9F5BE59BE5BD30C3C72D235E95D10345C1D45445A5F0BB47E46A5EBE5570F9380B5FA629579952296A773720405982B9DE04011506178964401AA8BDF1FBF0A8EAB6861DD6580C0E38217056766716DAEB2D6FA0917D3E4116581EADB879C4E7CFFB11EFACD
310
3D641311495D92C8676CB409A72D18610D803CE8A626049E8EC1887CB5B44CC39883690DDA8399B4B9855B481E7D71D4A9D22F96E5BB73BF5793020C02137BF837504B0304140006080000CC70623B000000000000000000000000350000006662782F36394639363044362D344446342D343946362D394244322D32343142
310
43333846323333332F76657274696365732E62696E504B0304140006080800CC70623BF270F1330600000004000000360000006662782F36394639363044362D344446342D343946362D394244322D3234314243333846323333332F747269616E676C65732E62696E636660600000504B0304140006080000CC70623B0000
310
00000000000000000000370000006662782F36394639363044362D344446342D343946362D394244322D3234314243333846323333332F617474726962757465732E62696E504B0304140006080800CC70623B08DA0BD19000000041010000360000006662782F36394639363044362D344446342D343946362D394244322D
310
3234314243333846323333332F6469726563746F72792E786D6C858F410AC3201045AF22B36F53E9A60B35CBEEBAE80D244E44489C6234F4F835464A48035D0DF398FF9F8AF63D0E6CC63039F212F8F9020C7D47C6792B21C5FE7403D62A1188E2E60C98D7234A5830286103A55745067B9D86B8A3CF9C7F90C11DE607FB14
310
4396D7B6A82D282E9A152AD114D5EF2CB866EEE831B8EEA07A7BB5A8D7D61A2BAAEB7FD5F70921FF497D00504B0304140006080800CC70623BCA768048FE000000A00100003B0000006662782F36394639363044362D344446342D343946362D394244322D3234314243333846323333332F7265736F75726365732F636F72
310
652E786D6C8D50596E833010BD0A9ADFCA60D600328E9AA639412F609909B1126CE4A5EAF16B0295DABFFECC8CDEA2797AECF8353F924FB44E193D409E5248504B332A3D0D10FC95B4901C39B3C6F85F3248B49871801506CE266BC2B243D2688FDA47549B11775038871E12F988C7004EDE7016A9083E2ADC3D5D84BC8B09
310
D33C8D74D471E6BC8D0192EDC93A815B742658898E651BCB59086ADC356A8C3FD555A1055ED7E7E254D615792D0F075295F585746FF53B694EE78A565DD736979A65AB9933AFE69F8CD2A2F038022F28ED489E135A7CE4554F9BBEA85E68DB53CAB255FEC71496F19FA6A0B42F8B3DEE6673C0F318E4497096AD7DC5F52C33
310
EEB55BFE0D504B010214000A0000080000CC70623B3DEE336E79000000790000001B00000000000000000000000000000000006175746F6465736B2D64657369676E2D7061636B6167652E786D6C504B01021400140006080800CC70623BD486FD9CA0000000F40000001300000000000000000000000000B20000005B436F
310
6E74656E745F54797065735D2E786D6C504B01021400140006080800CC70623BD9DDAED0EC0000007C010000080000000000000000000000000083010000636F72652E786D6C504B01021400140006080800CC70623B55019EA25F0000007C000000070000000000000000000000000095020000636E782E786D6C504B0102
310
1400140006080800CC70623BA24EB22D72010000D40300000C00000000000000000000000000190300006662782F636F72652E786D6C504B01021400140006080800CC70623B408A7D3B7C0000009D0000000B00000000000000000000000000B50400006662782F636E782E786D6C504B01021400140006080800CC70623B
310
449FB9BD290100001202000031000000000000000000000000005A0500006662782F36394639363044362D344446342D343946362D394244322D3234314243333846323333332F636F72652E786D6C504B01021400140006080800CC70623BAD7543B64E010000330300003000000000000000000000000000D20600006662
310
782F36394639363044362D344446342D343946362D394244322D3234314243333846323333332F636E782E786D6C504B01021400140006080800CC70623B8D05915C650500003B10000034000000000000000000000000006E0800006662782F36394639363044362D344446342D343946362D394244322D32343142433338
310
46323333332F6F626A656374732E786D6C504B01021400140006080000CC70623B0000000000000000000000003500000000000000000000000000250E00006662782F36394639363044362D344446342D343946362D394244322D3234314243333846323333332F76657274696365732E62696E504B010214001400060808
310
00CC70623BF270F13306000000040000003600000000000000000000000000780E00006662782F36394639363044362D344446342D343946362D394244322D3234314243333846323333332F747269616E676C65732E62696E504B01021400140006080000CC70623B00000000000000000000000037000000000000000000
310
00000000D20E00006662782F36394639363044362D344446342D343946362D394244322D3234314243333846323333332F617474726962757465732E62696E504B01021400140006080800CC70623B08DA0BD190000000410100003600000000000000000000000000270F00006662782F36394639363044362D344446342D
310
343946362D394244322D3234314243333846323333332F6469726563746F72792E786D6C504B01021400140006080800CC70623BCA768048FE000000A00100003B000000000000000000000000000B1000006662782F36394639363044362D344446342D343946362D394244322D3234314243333846323333332F7265736F
310
75726365732F636F72652E786D6C504B0506000000000E000E0080040000621100000000
  0
XRECORD
  5
10
102
{ACAD_REACTORS
330
C
102
}
330
C
100
AcDbXrecord
280
     1
270
     1
271
     1
  0
XRECORD
  5
11
102
{ACAD_REACTORS
330
C
102
}
330
C
100
AcDbXrecord
280
     1
270
     1
271
     1
  0
CELLSTYLEMAP
  5
272
102
{ACAD_REACTORS
330
44
102
}
330
44
100
AcDbCellStyleMap
 90
        3
300
CELLSTYLE
  1
TABLEFORMAT_BEGIN
 90
        5
170
     1
 91
        0
 92
    32768
 62
   257
 93
        1
300
CONTENTFORMAT
  1
CONTENTFORMAT_BEGIN
 90
        0
 91
        0
 92
      512
 93
        0
300

 40
0.0
140
1.0
 94
        5
 62
     0
340
21
144
6.0
309
CONTENTFORMAT_END
171
     1
301
MARGIN
  1
CELLMARGIN_BEGIN
 40
1.5
 40
1.5
 40
1.5
 40
1.5
 40
4.5
 40
4.5
309
CELLMARGIN_END
 94
        6
 95
        1
302
GRIDFORMAT
  1
GRIDFORMAT_BEGIN
 90
        0
 91
        1
 62
     0
 92
       -2
340
24
 93
        0
 40
1.125
309
GRIDFORMAT_END
 95
        2
302
GRIDFORMAT
  1
GRIDFORMAT_BEGIN
 90
        0
 91
        1
 62
     0
 92
       -2
340
24
 93
        0
 40
1.125
309
GRIDFORMAT_END
 95
        4
302
GRIDFORMAT
  1
GRIDFORMAT_BEGIN
 90
        0
 91
        1
 62
     0
 92
       -2
340
24
 93
        0
 40
1.125
309
GRIDFORMAT_END
 95
        8
302
GRIDFORMAT
  1
GRIDFORMAT_BEGIN
 90
        0
 91
        1
 62
     0
 92
       -2
340
24
 93
        0
 40
1.125
309
GRIDFORMAT_END
 95
       16
302
GRIDFORMAT
  1
GRIDFORMAT_BEGIN
 90
        0
 91
        1
 62
     0
 92
       -2
340
24
 93
        0
 40
1.125
309
GRIDFORMAT_END
 95
       32
302
GRIDFORMAT
  1
GRIDFORMAT_BEGIN
 90
        0
 91
        1
 62
     0
 92
       -2
340
24
 93
        0
 40
1.125
309
GRIDFORMAT_END
309
TABLEFORMAT_END
  1
CELLSTYLE_BEGIN
 90
        1
 91
        1
300
_TITLE
309
CELLSTYLE_END
300
CELLSTYLE
  1
TABLEFORMAT_BEGIN
 90
        5
170
     1
 91
        0
 92
        0
 62
   257
 93
        1
300
CONTENTFORMAT
  1
CONTENTFORMAT_BEGIN
 90
        0
 91
        0
 92
      512
 93
        0
300

 40
0.0
140
1.0
 94
        5
 62
     0
340
21
144
4.5
309
CONTENTFORMAT_END
171
     1
301
MARGIN
  1
CELLMARGIN_BEGIN
 40
1.5
 40
1.5
 40
1.5
 40
1.5
 40
4.5
 40
4.5
309
CELLMARGIN_END
 94
        6
 95
        1
302
GRIDFORMAT
  1
GRIDFORMAT_BEGIN
 90
        0
 91
        1
 62
     0
 92
       -2
340
24
 93
        0
 40
1.125
309
GRIDFORMAT_END
 95
        2
302
GRIDFORMAT
  1
GRIDFORMAT_BEGIN
 90
        0
 91
        1
 62
     0
 92
       -2
340
24
 93
        0
 40
1.125
309
GRIDFORMAT_END
 95
        4
302
GRIDFORMAT
  1
GRIDFORMAT_BEGIN
 90
        0
 91
        1
 62
     0
 92
       -2
340
24
 93
        0
 40
1.125
309
GRIDFORMAT_END
 95
        8
302
GRIDFORMAT
  1
GRIDFORMAT_BEGIN
 90
        0
 91
        1
 62
     0
 92
       -2
340
24
 93
        0
 40
1.125
309
GRIDFORMAT_END
 95
       16
302
GRIDFORMAT
  1
GRIDFORMAT_BEGIN
 90
        0
 91
        1
 62
     0
 92
       -2
340
24
 93
        0
 40
1.125
309
GRIDFORMAT_END
 95
       32
302
GRIDFORMAT
  1
GRIDFORMAT_BEGIN
 90
        0
 91
        1
 62
     0
 92
       -2
340
24
 93
        0
 40
1.125
309
GRIDFORMAT_END
309
TABLEFORMAT_END
  1
CELLSTYLE_BEGIN
 90
        2
 91
        1
300
_HEADER
309
CELLSTYLE_END
300
CELLSTYLE
  1
TABLEFORMAT_BEGIN
 90
        5
170
     1
 91
        0
 92
        0
 62
   257
 93
        1
300
CONTENTFORMAT
  1
CONTENTFORMAT_BEGIN
 90
        0
 91
        0
 92
      512
 93
        0
300

 40
0.0
140
1.0
 94
        2
 62
     0
340
21
144
4.5
309
CONTENTFORMAT_END
171
     1
301
MARGIN
  1
CELLMARGIN_BEGIN
 40
1.5
 40
1.5
 40
1.5
 40
1.5
 40
4.5
 40
4.5
309
CELLMARGIN_END
 94
        6
 95
        1
302
GRIDFORMAT
  1
GRIDFORMAT_BEGIN
 90
        0
 91
        1
 62
     0
 92
       -2
340
24
 93
        0
 40
1.125
309
GRIDFORMAT_END
 95
        2
302
GRIDFORMAT
  1
GRIDFORMAT_BEGIN
 90
        0
 91
        1
 62
     0
 92
       -2
340
24
 93
        0
 40
1.125
309
GRIDFORMAT_END
 95
        4
302
GRIDFORMAT
  1
GRIDFORMAT_BEGIN
 90
        0
 91
        1
 62
     0
 92
       -2
340
24
 93
        0
 40
1.125
309
GRIDFORMAT_END
 95
        8
302
GRIDFORMAT
  1
GRIDFORMAT_BEGIN
 90
        0
 91
        1
 62
     0
 92
       -2
340
24
 93
        0
 40
1.125
309
GRIDFORMAT_END
 95
       16
302
GRIDFORMAT
  1
GRIDFORMAT_BEGIN
 90
        0
 91
        1
 62
     0
 92
       -2
340
24
 93
        0
 40
1.125
309
GRIDFORMAT_END
 95
       32
302
GRIDFORMAT
  1
GRIDFORMAT_BEGIN
 90
        0
 91
        1
 62
     0
 92
       -2
340
24
 93
        0
 40
1.125
309
GRIDFORMAT_END
309
TABLEFORMAT_END
  1
CELLSTYLE_BEGIN
 90
        3
 91
        2
300
_DATA
309
CELLSTYLE_END
  0
ENDSEC
  0
SECTION
  2
ACDSDATA
 70
     2
 71
     8
  0
ACDSSCHEMA
 90
        0
  1
AcDb_Thumbnail_Schema
  2
AcDbDs::ID
280
    10
 91
        8
  2
Thumbnail_Data
280
    15
 91
        0
101
ACDSRECORD
 95
        0
 90
        1
  2
AcDbDs::TreatedAsObjectData
280
     1
291
     1
101
ACDSRECORD
 95
        0
 90
        2
  2
AcDbDs::Legacy
280
     1
291
     1
101
ACDSRECORD
  1
AcDbDs::ID
 90
        3
  2
AcDs:Indexable
280
     1
291
     1
101
ACDSRECORD
  1
AcDbDs::ID
 90
        4
  2
AcDbDs::HandleAttribute
280
     7
282
     1
  0
ACDSSCHEMA
 90
        1
  1
AcDbDs::TreatedAsObjectDataSchema
  2
AcDbDs::TreatedAsObjectData
280
     1
 91
        0
  0
ACDSSCHEMA
 90
        2
  1
AcDbDs::LegacySchema
  2
AcDbDs::Legacy
280
     1
 91
        0
  0
ACDSSCHEMA
 90
        3
  1
AcDbDs::IndexedPropertySchema
  2
AcDs:Indexable
280
     1
 91
        0
  0
ACDSSCHEMA
 90
        4
  1
AcDbDs::HandleAttributeSchema
  2
AcDbDs::HandleAttribute
280
     7
 91
        1
284
     1
  0
ACDSRECORD
 90
        0
  2
AcDbDs::ID
280
    10
320
15
  2
Thumbnail_Data
280
    15
 94
      896
310
89504E470D0A1A0A0000000D49484452000001000000009108030000001BE1960600000300504C5445212830FFFFFF2128300000000000000000000000000000000000000000000000000000330000660000990000CC0000FF0033000033330033660033990033CC0033FF0066000066330066660066990066CC0066FF0099
310
000099330099660099990099CC0099FF00CC0000CC3300CC6600CC9900CCCC00CCFF00FF0000FF3300FF6600FF9900FFCC00FFFF3300003300333300663300993300CC3300FF3333003333333333663333993333CC3333FF3366003366333366663366993366CC3366FF3399003399333399663399993399CC3399FF33CC00
310
33CC3333CC6633CC9933CCCC33CCFF33FF0033FF3333FF6633FF9933FFCC33FFFF6600006600336600666600996600CC6600FF6633006633336633666633996633CC6633FF6666006666336666666666996666CC6666FF6699006699336699666699996699CC6699FF66CC0066CC3366CC6666CC9966CCCC66CCFF66FF0066
310
FF3366FF6666FF9966FFCC66FFFF9900009900339900669900999900CC9900FF9933009933339933669933999933CC9933FF9966009966339966669966999966CC9966FF9999009999339999669999999999CC9999FF99CC0099CC3399CC6699CC9999CCCC99CCFF99FF0099FF3399FF6699FF9999FFCC99FFFFCC0000CC00
310
33CC0066CC0099CC00CCCC00FFCC3300CC3333CC3366CC3399CC33CCCC33FFCC6600CC6633CC6666CC6699CC66CCCC66FFCC9900CC9933CC9966CC9999CC99CCCC99FFCCCC00CCCC33CCCC66CCCC99CCCCCCCCCCFFCCFF00CCFF33CCFF66CCFF99CCFFCCCCFFFFFF0000FF0033FF0066FF0099FF00CCFF00FFFF3300FF3333
310
FF3366FF3399FF33CCFF33FFFF6600FF6633FF6666FF6699FF66CCFF66FFFF9900FF9933FF9966FF9999FF99CCFF99FFFFCC00FFCC33FFCC66FFCC99FFCCCCFFCCFFFFFF00FFFF33FFFF66FFFF99FFFFCCFFFFFF0000000D0D0D1A1A1A2828283535354343435050505D5D5D6B6B6B787878868686939393A1A1A1AEAEAEBB
310
BBBBC9C9C9D6D6D6E4E4E4F1F1F1FFFFFF0000000000000000000000000000000000000000000000000000000000002E4550F10000003B4944415478DAEDC13101000000C2A0F54F6D0B2FA0000000000000000000000000000000000000000000000000000000000000000000000000CE06919100016C9A5B1B0000000049
310
454E44AE426082
  0
ENDSEC
  0
EOF
