  0
SECTION
  2
HEADER
  9
$ACADVER
  1
AC1032
  9
$ACADMAINTVER
 90
        4
  9
$DWGCODEPAGE
  3
ANSI_932
  9
$REQUIREDVERSIONS
160
                 0
  9
$INSBASE
 10
0.0
 20
0.0
 30
0.0
  9
$EXTMIN
 10
384.4466464226897
 20
210.7231717940499
 30
0.0
  9
$EXTMAX
 10
434.4466464226897
 20
225.7664854683926
 30
0.0
  9
$LIMMIN
 10
0.0
 20
0.0
  9
$LIMMAX
 10
420.0
 20
297.0
  9
$ORTHOMODE
 70
     0
  9
$REGENMODE
 70
     1
  9
$FILLMODE
 70
     1
  9
$QTEXTMODE
 70
     0
  9
$MIRRTEXT
 70
     0
  9
$LTSCALE
 40
1.0
  9
$ATTMODE
 70
     1
  9
$TEXTSIZE
 40
2.5
  9
$TRACEWID
 40
1.0
  9
$TEXTSTYLE
  7
Standard
  9
$CLAYER
  8
0
  9
$CELTYPE
  6
ByLayer
  9
$CECOLOR
 62
   256
  9
$CELTSCALE
 40
1.0
  9
$DISPSILH
 70
     0
  9
$DIMSCALE
 40
1.0
  9
$DIMASZ
 40
2.5
  9
$DIMEXO
 40
0.625
  9
$DIMDLI
 40
3.75
  9
$DIMRND
 40
0.0
  9
$DIMDLE
 40
0.0
  9
$DIMEXE
 40
1.25
  9
$DIMTP
 40
0.0
  9
$DIMTM
 40
0.0
  9
$DIMTXT
 40
2.5
  9
$DIMCEN
 40
2.5
  9
$DIMTSZ
 40
0.0
  9
$DIMTOL
 70
     0
  9
$DIMLIM
 70
     0
  9
$DIMTIH
 70
     0
  9
$DIMTOH
 70
     0
  9
$DIMSE1
 70
     0
  9
$DIMSE2
 70
     0
  9
$DIMTAD
 70
     1
  9
$DIMZIN
 70
     8
  9
$DIMBLK
  1

  9
$DIMASO
 70
     1
  9
$DIMSHO
 70
     1
  9
$DIMPOST
  1

  9
$DIMAPOST
  1

  9
$DIMALT
 70
     0
  9
$DIMALTD
 70
     3
  9
$DIMALTF
 40
0.03937007874016
  9
$DIMLFAC
 40
1.0
  9
$DIMTOFL
 70
     1
  9
$DIMTVP
 40
0.0
  9
$DIMTIX
 70
     0
  9
$DIMSOXD
 70
     0
  9
$DIMSAH
 70
     0
  9
$DIMBLK1
  1

  9
$DIMBLK2
  1

  9
$DIMSTYLE
  2
ISO-25
  9
$DIMCLRD
 70
     0
  9
$DIMCLRE
 70
     0
  9
$DIMCLRT
 70
     0
  9
$DIMTFAC
 40
1.0
  9
$DIMGAP
 40
0.625
  9
$DIMJUST
 70
     0
  9
$DIMSD1
 70
     0
  9
$DIMSD2
 70
     0
  9
$DIMTOLJ
 70
     0
  9
$DIMTZIN
 70
     8
  9
$DIMALTZ
 70
     0
  9
$DIMALTTZ
 70
     0
  9
$DIMUPT
 70
     0
  9
$DIMDEC
 70
     2
  9
$DIMTDEC
 70
     2
  9
$DIMALTU
 70
     2
  9
$DIMALTTD
 70
     3
  9
$DIMTXSTY
  7
Standard
  9
$DIMAUNIT
 70
     0
  9
$DIMADEC
 70
     0
  9
$DIMALTRND
 40
0.0
  9
$DIMAZIN
 70
     0
  9
$DIMDSEP
 70
    44
  9
$DIMATFIT
 70
     3
  9
$DIMFRAC
 70
     0
  9
$DIMLDRBLK
  1

  9
$DIMLUNIT
 70
     2
  9
$DIMLWD
 70
    -2
  9
$DIMLWE
 70
    -2
  9
$DIMTMOVE
 70
     0
  9
$DIMFXL
 40
1.0
  9
$DIMFXLON
 70
     0
  9
$DIMJOGANG
 40
0.7853981633974483
  9
$DIMTFILL
 70
     0
  9
$DIMTFILLCLR
 70
     0
  9
$DIMARCSYM
 70
     0
  9
$DIMLTYPE
  6

  9
$DIMLTEX1
  6

  9
$DIMLTEX2
  6

  9
$DIMTXTDIRECTION
 70
     0
  9
$LUNITS
 70
     2
  9
$LUPREC
 70
     4
  9
$SKETCHINC
 40
1.0
  9
$FILLETRAD
 40
0.0
  9
$AUNITS
 70
     0
  9
$AUPREC
 70
     0
  9
$MENU
  1
.
  9
$ELEVATION
 40
0.0
  9
$PELEVATION
 40
0.0
  9
$THICKNESS
 40
0.0
  9
$LIMCHECK
 70
     0
  9
$CHAMFERA
 40
0.0
  9
$CHAMFERB
 40
0.0
  9
$CHAMFERC
 40
0.0
  9
$CHAMFERD
 40
0.0
  9
$SKPOLY
 70
     0
  9
$TDCREATE
 40
2459093.450601852
  9
$TDUCREATE
 40
2459093.117268519
  9
$TDUPDATE
 40
2459093.450601852
  9
$TDUUPDATE
 40
2459093.117268519
  9
$TDINDWG
 40
0.0001388889
  9
$TDUSRTIMER
 40
0.0001388889
  9
$USRTIMER
 70
     1
  9
$ANGBASE
 50
0.0
  9
$ANGDIR
 70
     0
  9
$PDMODE
 70
     0
  9
$PDSIZE
 40
0.0
  9
$PLINEWID
 40
0.0
  9
$SPLFRAME
 70
     0
  9
$SPLINETYPE
 70
     6
  9
$SPLINESEGS
 70
     8
  9
$HANDSEED
  5
279
  9
$SURFTAB1
 70
     6
  9
$SURFTAB2
 70
     6
  9
$SURFTYPE
 70
     6
  9
$SURFU
 70
     6
  9
$SURFV
 70
     6
  9
$UCSBASE
  2

  9
$UCSNAME
  2

  9
$UCSORG
 10
0.0
 20
0.0
 30
0.0
  9
$UCSXDIR
 10
1.0
 20
0.0
 30
0.0
  9
$UCSYDIR
 10
0.0
 20
1.0
 30
0.0
  9
$UCSORTHOREF
  2

  9
$UCSORTHOVIEW
 70
     0
  9
$UCSORGTOP
 10
0.0
 20
0.0
 30
0.0
  9
$UCSORGBOTTOM
 10
0.0
 20
0.0
 30
0.0
  9
$UCSORGLEFT
 10
0.0
 20
0.0
 30
0.0
  9
$UCSORGRIGHT
 10
0.0
 20
0.0
 30
0.0
  9
$UCSORGFRONT
 10
0.0
 20
0.0
 30
0.0
  9
$UCSORGBACK
 10
0.0
 20
0.0
 30
0.0
  9
$PUCSBASE
  2

  9
$PUCSNAME
  2

  9
$PUCSORG
 10
0.0
 20
0.0
 30
0.0
  9
$PUCSXDIR
 10
1.0
 20
0.0
 30
0.0
  9
$PUCSYDIR
 10
0.0
 20
1.0
 30
0.0
  9
$PUCSORTHOREF
  2

  9
$PUCSORTHOVIEW
 70
     0
  9
$PUCSORGTOP
 10
0.0
 20
0.0
 30
0.0
  9
$PUCSORGBOTTOM
 10
0.0
 20
0.0
 30
0.0
  9
$PUCSORGLEFT
 10
0.0
 20
0.0
 30
0.0
  9
$PUCSORGRIGHT
 10
0.0
 20
0.0
 30
0.0
  9
$PUCSORGFRONT
 10
0.0
 20
0.0
 30
0.0
  9
$PUCSORGBACK
 10
0.0
 20
0.0
 30
0.0
  9
$USERI1
 70
     0
  9
$USERI2
 70
     0
  9
$USERI3
 70
     0
  9
$USERI4
 70
     0
  9
$USERI5
 70
     0
  9
$USERR1
 40
0.0
  9
$USERR2
 40
0.0
  9
$USERR3
 40
0.0
  9
$USERR4
 40
0.0
  9
$USERR5
 40
0.0
  9
$WORLDVIEW
 70
     1
  9
$SHADEDGE
 70
     3
  9
$SHADEDIF
 70
    70
  9
$TILEMODE
 70
     1
  9
$MAXACTVP
 70
    64
  9
$PINSBASE
 10
0.0
 20
0.0
 30
0.0
  9
$PLIMCHECK
 70
     0
  9
$PEXTMIN
 10
0.0
 20
0.0
 30
0.0
  9
$PEXTMAX
 10
0.0
 20
0.0
 30
0.0
  9
$PLIMMIN
 10
0.0
 20
0.0
  9
$PLIMMAX
 10
12.0
 20
9.0
  9
$UNITMODE
 70
     0
  9
$VISRETAIN
 70
     1
  9
$PLINEGEN
 70
     0
  9
$PSLTSCALE
 70
     1
  9
$TREEDEPTH
 70
  3020
  9
$CMLSTYLE
  2
Standard
  9
$CMLJUST
 70
     0
  9
$CMLSCALE
 40
20.0
  9
$PROXYGRAPHICS
 70
     1
  9
$MEASUREMENT
 70
     1
  9
$CELWEIGHT
370
    -1
  9
$ENDCAPS
280
     0
  9
$JOINSTYLE
280
     0
  9
$LWDISPLAY
290
     0
  9
$INSUNITS
 70
     4
  9
$HYPERLINKBASE
  1

  9
$STYLESHEET
  1

  9
$XEDIT
290
     1
  9
$CEPSNTYPE
380
     0
  9
$PSTYLEMODE
290
     1
  9
$FINGERPRINTGUID
  2
{F516AB0A-2935-7347-9426-0CD1E71E4274}
  9
$VERSIONGUID
  2
{0884754D-1740-0B47-BF07-D960D6583E1A}
  9
$EXTNAMES
290
     1
  9
$PSVPSCALE
 40
0.0
  9
$OLESTARTUP
290
     0
  9
$SORTENTS
280
   127
  9
$INDEXCTL
280
     0
  9
$HIDETEXT
280
     1
  9
$XCLIPFRAME
280
     2
  9
$HALOGAP
280
     0
  9
$OBSCOLOR
 70
   257
  9
$OBSLTYPE
280
     0
  9
$INTERSECTIONDISPLAY
280
     0
  9
$INTERSECTIONCOLOR
 70
   257
  9
$DIMASSOC
280
     2
  9
$PROJECTNAME
  1

  9
$CAMERADISPLAY
290
     0
  9
$LENSLENGTH
 40
50.0
  9
$CAMERAHEIGHT
 40
0.0
  9
$STEPSPERSEC
 40
2.0
  9
$STEPSIZE
 40
6.0
  9
$3DDWFPREC
 40
2.0
  9
$PSOLWIDTH
 40
5.0
  9
$PSOLHEIGHT
 40
80.0
  9
$LOFTANG1
 40
1.570796326794896
  9
$LOFTANG2
 40
1.570796326794896
  9
$LOFTMAG1
 40
0.0
  9
$LOFTMAG2
 40
0.0
  9
$LOFTPARAM
 70
     7
  9
$LOFTNORMALS
280
     1
  9
$LATITUDE
 40
37.795
  9
$LONGITUDE
 40
-122.394
  9
$NORTHDIRECTION
 40
0.0
  9
$TIMEZONE
 70
 -8000
  9
$LIGHTGLYPHDISPLAY
280
     1
  9
$TILEMODELIGHTSYNCH
280
     1
  9
$CMATERIAL
347
38
  9
$SOLIDHIST
280
     0
  9
$SHOWHIST
280
     1
  9
$DWFFRAME
280
     2
  9
$DGNFRAME
280
     0
  9
$REALWORLDSCALE
290
     1
  9
$INTERFERECOLOR
 62
     1
  9
$INTERFEREOBJVS
345
45
  9
$INTERFEREVPVS
346
46
  9
$CSHADOW
280
     0
  9
$SHADOWPLANELOCATION
 40
0.0
  0
ENDSEC
  0
SECTION
  2
CLASSES
  0
CLASS
  1
ACDBDICTIONARYWDFLT
  2
AcDbDictionaryWithDefault
  3
ObjectDBX Classes
 90
        0
 91
        1
280
     0
281
     0
  0
CLASS
  1
DICTIONARYVAR
  2
AcDbDictionaryVar
  3
ObjectDBX Classes
 90
        0
 91
        5
280
     0
281
     0
  0
CLASS
  1
TABLESTYLE
  2
AcDbTableStyle
  3
ObjectDBX Classes
 90
     4095
 91
        1
280
     0
281
     0
  0
CLASS
  1
MATERIAL
  2
AcDbMaterial
  3
ObjectDBX Classes
 90
     1153
 91
        3
280
     0
281
     0
  0
CLASS
  1
VISUALSTYLE
  2
AcDbVisualStyle
  3
ObjectDBX Classes
 90
     4095
 91
        3
280
     0
281
     0
  0
CLASS
  1
SCALE
  2
AcDbScale
  3
ObjectDBX Classes
 90
     1153
 91
       17
280
     0
281
     0
  0
CLASS
  1
MLEADERSTYLE
  2
AcDbMLeaderStyle
  3
ACDB_MLEADERSTYLE_CLASS
 90
     4095
 91
        0
280
     0
281
     0
  0
CLASS
  1
CELLSTYLEMAP
  2
AcDbCellStyleMap
  3
ObjectDBX Classes
 90
     1152
 91
        1
280
     0
281
     0
  0
CLASS
  1
EXACXREFPANELOBJECT
  2
ExAcXREFPanelObject
  3
EXAC_ESW
 90
     1025
 91
        0
280
     1
281
     0
  0
CLASS
  1
NPOCOLLECTION
  2
AcDbImpNonPersistentObjectsCollection
  3
ObjectDBX Classes
 90
     1153
 91
        0
280
     0
281
     0
  0
CLASS
  1
LAYER_INDEX
  2
AcDbLayerIndex
  3
ObjectDBX Classes
 90
        0
 91
        0
280
     0
281
     0
  0
CLASS
  1
SPATIAL_INDEX
  2
AcDbSpatialIndex
  3
ObjectDBX Classes
 90
        0
 91
        0
280
     0
281
     0
  0
CLASS
  1
IDBUFFER
  2
AcDbIdBuffer
  3
ObjectDBX Classes
 90
        0
 91
        0
280
     0
281
     0
  0
CLASS
  1
ACDBSECTIONVIEWSTYLE
  2
AcDbSectionViewStyle
  3
ObjectDBX Classes
 90
     1025
 91
        0
280
     0
281
     0
  0
CLASS
  1
ACDBDETAILVIEWSTYLE
  2
AcDbDetailViewStyle
  3
ObjectDBX Classes
 90
     1025
 91
        0
280
     0
281
     0
  0
ENDSEC
  0
SECTION
  2
TABLES
  0
TABLE
  2
VPORT
  5
28
330
0
100
AcDbSymbolTable
 70
     1
  0
VPORT
  5
29
330
28
100
AcDbSymbolTableRecord
100
AcDbViewportTableRecord
  2
*Active
 70
     0
 10
0.0
 20
0.0
 11
1.0
 21
1.0
 12
421.8485627298369
 22
210.6221301029573
 13
0.0
 23
0.0
 14
10.0
 24
10.0
 15
10.0
 25
10.0
 16
0.0
 26
0.0
 36
1.0
 17
0.0
 27
0.0
 37
0.0
 40
62.40213863497229
 41
2.070631970260222
 42
50.0
 43
0.0
 44
0.0
 50
0.0
 51
0.0
 71
     0
 72
  1000
 73
     1
 74
     3
 75
     0
 76
     1
 77
     0
 78
     0
281
     0
 65
     1
110
0.0
120
0.0
130
0.0
111
1.0
121
0.0
131
0.0
112
0.0
122
1.0
132
0.0
 79
     0
146
0.0
348
2A
 60
     3
 61
     5
292
     1
282
     1
141
0.0
142
0.0
 63
   250
421
  3355443
1001
ACAD_NAV_VCDISPLAY
1070
     3
  0
ENDTAB
  0
TABLE
  2
LTYPE
  5
23
330
0
100
AcDbSymbolTable
 70
     1
  0
LTYPE
  5
24
330
23
100
AcDbSymbolTableRecord
100
AcDbLinetypeTableRecord
  2
ByBlock
 70
     0
  3

 72
    65
 73
     0
 40
0.0
  0
LTYPE
  5
25
330
23
100
AcDbSymbolTableRecord
100
AcDbLinetypeTableRecord
  2
ByLayer
 70
     0
  3

 72
    65
 73
     0
 40
0.0
  0
LTYPE
  5
13
330
23
100
AcDbSymbolTableRecord
100
AcDbLinetypeTableRecord
  2
Continuous
 70
     0
  3
Solid line
 72
    65
 73
     0
 40
0.0
  0
ENDTAB
  0
TABLE
  2
LAYER
  5
1D
102
{ACAD_XDICTIONARY
360
1E
102
}
330
0
100
AcDbSymbolTable
 70
     1
  0
LAYER
  5
5
102
{ACAD_XDICTIONARY
360
6
102
}
330
1D
100
AcDbSymbolTableRecord
100
AcDbLayerTableRecord
  2
0
 70
     0
 62
     7
  6
Continuous
370
    -3
390
7
347
A
348
0
  0
ENDTAB
  0
TABLE
  2
STYLE
  5
20
330
0
100
AcDbSymbolTable
 70
     1
  0
STYLE
  5
21
330
20
100
AcDbSymbolTableRecord
100
AcDbTextStyleTableRecord
  2
Standard
 70
     0
 40
0.0
 41
1.0
 50
0.0
 71
     0
 42
2.5
  3
arial.ttf
  4

1001
ACAD
1000
Arial
1071
       34
  0
ENDTAB
  0
TABLE
  2
VIEW
  5
26
330
0
100
AcDbSymbolTable
 70
     0
  0
ENDTAB
  0
TABLE
  2
UCS
  5
27
330
0
100
AcDbSymbolTable
 70
     0
  0
ENDTAB
  0
TABLE
  2
APPID
  5
2D
330
0
100
AcDbSymbolTable
 70
     6
  0
APPID
  5
12
330
2D
100
AcDbSymbolTableRecord
100
AcDbRegAppTableRecord
  2
ACAD
 70
     0
  0
APPID
  5
18
330
2D
100
AcDbSymbolTableRecord
100
AcDbRegAppTableRecord
  2
ACAD_PSEXT
 70
     0
  0
APPID
  5
31
330
2D
100
AcDbSymbolTableRecord
100
AcDbRegAppTableRecord
  2
AcadAnnotative
 70
     0
  0
APPID
  5
32
330
2D
100
AcDbSymbolTableRecord
100
AcDbRegAppTableRecord
  2
ACAD_DSTYLE_DIMJAG
 70
     0
  0
APPID
  5
33
330
2D
100
AcDbSymbolTableRecord
100
AcDbRegAppTableRecord
  2
ACAD_DSTYLE_DIMTALN
 70
     0
  0
APPID
  5
2C
330
2D
100
AcDbSymbolTableRecord
100
AcDbRegAppTableRecord
  2
ACAD_NAV_VCDISPLAY
 70
     0
  0
ENDTAB
  0
TABLE
  2
DIMSTYLE
  5
2E
330
0
100
AcDbSymbolTable
 70
     2
100
AcDbDimStyleTable
 71
     2
340
2F
340
30
  0
DIMSTYLE
105
30
330
2E
100
AcDbSymbolTableRecord
100
AcDbDimStyleTableRecord
  2
Annotative
 70
     0
 40
0.0
 41
2.5
 42
0.625
 43
3.75
 44
1.25
 73
     0
 74
     0
 77
     1
 78
     8
140
2.5
141
2.5
143
0.03937007874016
147
0.625
171
     3
172
     1
271
     2
272
     2
274
     3
278
    44
283
     0
284
     8
340
21
1001
AcadAnnotative
1000
AnnotativeData
1002
{
1070
     1
1070
     1
1002
}
1001
ACAD_DSTYLE_DIMJAG
1070
   388
1040
1.5
1001
ACAD_DSTYLE_DIMTALN
1070
   392
1070
     0
  0
DIMSTYLE
105
2F
330
2E
100
AcDbSymbolTableRecord
100
AcDbDimStyleTableRecord
  2
ISO-25
 70
     0
 41
2.5
 42
0.625
 43
3.75
 44
1.25
 73
     0
 74
     0
 77
     1
 78
     8
140
2.5
141
2.5
143
0.03937007874016
147
0.625
171
     3
172
     1
271
     2
272
     2
274
     3
278
    44
283
     0
284
     8
340
21
  0
ENDTAB
  0
TABLE
  2
BLOCK_RECORD
  5
1
330
0
100
AcDbSymbolTable
 70
     0
  0
BLOCK_RECORD
  5
2
102
{ACAD_XDICTIONARY
360
3
102
}
330
1
100
AcDbSymbolTableRecord
100
AcDbBlockTableRecord
  2
*Model_Space
340
15
 70
     0
280
     1
281
     0
  0
BLOCK_RECORD
  5
19
330
1
100
AcDbSymbolTableRecord
100
AcDbBlockTableRecord
  2
*Paper_Space
340
1C
 70
     0
280
     1
281
     0
  0
ENDTAB
  0
ENDSEC
  0
SECTION
  2
BLOCKS
  0
BLOCK
  5
4
330
2
100
AcDbEntity
  8
0
100
AcDbBlockBegin
  2
*Model_Space
 70
     0
 10
0.0
 20
0.0
 30
0.0
  3
*Model_Space
  1

  0
ENDBLK
  5
14
330
2
100
AcDbEntity
  8
0
100
AcDbBlockEnd
  0
BLOCK
  5
1A
330
19
100
AcDbEntity
 67
     1
  8
0
100
AcDbBlockBegin
  2
*Paper_Space
 70
     0
 10
0.0
 20
0.0
 30
0.0
  3
*Paper_Space
  1

  0
ENDBLK
  5
1B
330
19
100
AcDbEntity
 67
     1
  8
0
100
AcDbBlockEnd
  0
ENDSEC
  0
SECTION
  2
ENTITIES
  0
LINE
  5
58
330
2
100
AcDbEntity
  8
0
100
AcDbLine
 10
391.1779182134003
 20
213.3060848054041
 30
0.0
 11
391.1845453407602
 21
213.3003455447707
 31
0.0
  0
LINE
  5
59
330
2
100
AcDbEntity
  8
0
100
AcDbLine
 10
391.249478697576
 20
213.3634740557617
 30
0.0
 11
391.1958867323244
 21
213.4098860591051
 31
0.0
  0
LINE
  5
5A
330
2
100
AcDbEntity
  8
0
100
AcDbLine
 10
390.9694445711611
 20
212.6006979931866
 30
0.0
 11
391.00454678842
 21
212.610831130485
 31
0.0
  0
LINE
  5
5B
330
2
100
AcDbEntity
  8
0
100
AcDbLine
 10
391.1409094908211
 20
212.9355213808003
 30
0.0
 11
390.8637333697876
 21
212.855507526741
 31
0.0
  0
LINE
  5
5C
330
2
100
AcDbEntity
  8
0
100
AcDbLine
 10
390.7172390981705
 20
212.8132182731752
 30
0.0
 11
386.2687941279897
 21
211.5290628226754
 31
0.0
  0
LINE
  5
5D
330
2
100
AcDbEntity
  8
0
100
AcDbLine
 10
386.2968987571917
 20
211.431705534277
 30
0.0
 11
390.8085798162753
 21
212.734115671256
 31
0.0
  0
LINE
  5
5E
330
2
100
AcDbEntity
  8
0
100
AcDbLine
 10
390.8918379989895
 20
212.7581502383629
 30
0.0
 11
391.1619045453736
 21
212.8361117349863
 31
0.0
  0
LINE
  5
5F
330
2
100
AcDbEntity
  8
0
100
AcDbLine
 10
391.1330874940869
 20
213.0245302968106
 30
0.0
 11
390.8540042578927
 21
212.9439659060434
 31
0.0
  0
LINE
  5
60
330
2
100
AcDbEntity
  8
0
100
AcDbLine
 10
390.6744707591891
 20
212.8921390491491
 30
0.0
 11
386.2687941279897
 21
211.620329754641
 31
0.0
  0
LINE
  5
61
330
2
100
AcDbEntity
  8
0
100
AcDbLine
 10
385.7124930993807
 20
211.0820966491917
 30
0.0
 11
386.3232386216759
 21
211.3333938980047
 31
0.0
  0
SPLINE
  5
62
330
2
100
AcDbEntity
  8
0
100
AcDbSpline
210
0.0
220
0.0
230
1.0
 70
     8
 71
     3
 72
    11
 73
     7
 74
     0
 42
0.000000001
 43
0.0000000001
 40
0.0
 40
0.0
 40
0.0
 40
0.0
 40
0.288480915054196
 40
0.5824362261441614
 40
0.8794350738355911
 40
1.0
 40
1.0
 40
1.0
 40
1.0
 10
386.2579496875425
 20
211.6965434927676
 30
0.0
 10
386.2541379170135
 20
211.699451241873
 30
0.0
 10
386.2464420413907
 20
211.7053219193668
 30
0.0
 10
386.2343308542969
 20
211.7100624889937
 30
0.0
 10
386.2246168650581
 20
211.7119741877867
 30
0.0
 10
386.2194276336769
 20
211.7110612181143
 30
0.0
 10
386.2179293253046
 20
211.7107976125815
 30
0.0
  0
LINE
  5
63
330
2
100
AcDbEntity
  8
0
100
AcDbLine
 10
386.2159636990697
 20
211.7109599230457
 30
0.0
 11
385.6050989167047
 21
211.6096232578607
 31
0.0
  0
SPLINE
  5
64
330
2
100
AcDbEntity
  8
0
100
AcDbSpline
210
0.0
220
0.0
230
1.0
 70
     8
 71
     3
 72
    11
 73
     7
 74
     0
 42
0.000000001
 43
0.0000000001
 40
0.0
 40
0.0
 40
0.0
 40
0.0
 40
0.1584937289214008
 40
0.4445013613025068
 40
0.7258217437545471
 40
1.0
 40
1.0
 40
1.0
 40
1.0
 10
386.3252890852285
 20
211.3355896890354
 30
0.0
 10
386.3281977053738
 20
211.3369262318991
 30
0.0
 10
386.3363550351494
 20
211.3406746144145
 30
0.0
 10
386.3463157804505
 20
211.3556372090483
 30
0.0
 10
386.3545168967996
 20
211.3778769136653
 30
0.0
 10
386.3557586380842
 20
211.3962563415044
 30
0.0
 10
386.356371526103
 20
211.4053279019453
 30
0.0
  0
LINE
  5
65
330
2
100
AcDbEntity
  8
0
100
AcDbLine
 10
386.2988807433794
 20
211.6611100212323
 30
0.0
 11
386.258246342016
 21
211.6963004450808
 31
0.0
  0
LINE
  5
66
330
2
100
AcDbEntity
  8
0
100
AcDbLine
 10
386.3201846293914
 20
211.6351649227363
 30
0.0
 11
386.2984848504097
 21
211.6614392375839
 31
0.0
  0
LINE
  5
67
330
2
100
AcDbEntity
  8
0
100
AcDbLine
 10
386.3564942280767
 20
211.4055030645206
 30
0.0
 11
386.3564942280767
 21
211.4489092553155
 31
0.0
  0
LINE
  5
68
330
2
100
AcDbEntity
  8
0
100
AcDbLine
 10
384.5726799696585
 20
210.7231717940499
 30
0.0
 11
385.4572675614208
 21
210.9785302361598
 31
0.0
  0
LINE
  5
69
330
2
100
AcDbEntity
  8
0
100
AcDbLine
 10
385.610605236596
 20
211.0401737153022
 30
0.0
 11
385.6808096711337
 21
211.0690601595714
 31
0.0
  0
LINE
  5
6A
330
2
100
AcDbEntity
  8
0
100
AcDbLine
 10
385.54038147976
 20
211.0112799105246
 30
0.0
 11
385.610605236596
 21
211.0401737153022
 31
0.0
  0
LINE
  5
6B
330
2
100
AcDbEntity
  8
0
100
AcDbLine
 10
385.4572675614208
 20
210.9785302361598
 30
0.0
 11
385.5403987098019
 21
211.0112866997396
 31
0.0
  0
LINE
  5
6C
330
2
100
AcDbEntity
  8
0
100
AcDbLine
 10
385.5734154884372
 20
211.6043673279756
 30
0.0
 11
385.5032110539198
 21
211.5927211822139
 31
0.0
  0
LINE
  5
6D
330
2
100
AcDbEntity
  8
0
100
AcDbLine
 10
385.5032110539198
 20
211.5927211822139
 30
0.0
 11
385.4330045271258
 21
211.5810744324487
 31
0.0
  0
LINE
  5
6E
330
2
100
AcDbEntity
  8
0
100
AcDbLine
 10
385.4330045271258
 20
211.5810744324487
 30
0.0
 11
385.3747519484791
 21
211.5720819274047
 31
0.0
  0
LINE
  5
6F
330
2
100
AcDbEntity
  8
0
100
AcDbLine
 10
385.3673327498066
 20
211.5708949210002
 30
0.0
 11
384.4827451580648
 21
211.3155364788903
 31
0.0
  0
LINE
  5
70
330
2
100
AcDbEntity
  8
0
100
AcDbLine
 10
393.3616811017516
 20
214.2425053026486
 30
0.0
 11
393.0457569618295
 21
214.1513058590367
 31
0.0
  0
SPLINE
  5
71
330
2
100
AcDbEntity
  8
0
100
AcDbSpline
210
0.0
220
0.0
230
1.0
 70
     8
 71
     3
 72
     9
 73
     5
 74
     0
 42
0.000000001
 43
0.0000000001
 40
0.0
 40
0.0
 40
0.0
 40
0.0
 40
0.4646578829423549
 40
1.0
 40
1.0
 40
1.0
 40
1.0
 10
391.1663132063281
 20
212.921860336193
 30
0.0
 10
391.1680417837033
 20
212.9176597380778
 30
0.0
 10
391.1717618914183
 20
212.9086195425497
 30
0.0
 10
391.1772564404722
 20
212.9028035968879
 30
0.0
 10
391.1801979039952
 20
212.8996900762246
 30
0.0
  0
SPLINE
  5
72
330
2
100
AcDbEntity
  8
0
100
AcDbSpline
210
0.0
220
0.0
230
1.0
 70
     8
 71
     3
 72
    10
 73
     6
 74
     0
 42
0.000000001
 43
0.0000000001
 40
0.0
 40
0.0
 40
0.0
 40
0.0
 40
0.4121679544340319
 40
0.9576086483930687
 40
1.0
 40
1.0
 40
1.0
 40
1.0
 10
391.1612388873869
 20
212.947894566649
 30
0.0
 10
391.1614438414148
 20
212.9444346452764
 30
0.0
 10
391.1619200204769
 20
212.9363960518008
 30
0.0
 10
391.1639456635522
 20
212.9268432964609
 30
0.0
 10
391.166153955912
 20
212.9221955100722
 30
0.0
 10
391.1663132063281
 20
212.921860336193
 30
0.0
  0
LINE
  5
73
330
2
100
AcDbEntity
  8
0
100
AcDbLine
 10
391.161238887387
 20
213.2824770247426
 30
0.0
 11
391.161238887387
 21
212.9478945666557
 31
0.0
  0
LINE
  5
74
330
2
100
AcDbEntity
  8
0
100
AcDbLine
 10
391.1801979039897
 20
212.8996900762236
 30
0.0
 11
391.5470221964262
 21
212.580474989021
 31
0.0
  0
LINE
  5
75
330
2
100
AcDbEntity
  8
0
100
AcDbLine
 10
391.4918870077796
 20
213.5769149815918
 30
0.0
 11
391.439750475588
 21
213.5618644611282
 31
0.0
  0
LINE
  5
76
330
2
100
AcDbEntity
  8
0
100
AcDbLine
 10
391.433894221332
 20
213.4167102346256
 30
0.0
 11
391.1931112556199
 21
213.3472021795885
 31
0.0
  0
LINE
  5
77
330
2
100
AcDbEntity
  8
0
100
AcDbLine
 10
391.1845454013774
 20
213.3329960594021
 30
0.0
 11
391.1845454013774
 21
213.2935992696176
 31
0.0
  0
SPLINE
  5
78
330
2
100
AcDbEntity
  8
0
100
AcDbSpline
210
0.0
220
0.0
230
1.0
 70
     8
 71
     3
 72
    12
 73
     8
 74
     0
 42
0.000000001
 43
0.0000000001
 40
0.0
 40
0.0
 40
0.0
 40
0.0
 40
0.0968518077387146
 40
0.3216093722615387
 40
0.5378526795031668
 40
0.7939299202436443
 40
1.0
 40
1.0
 40
1.0
 40
1.0
 10
391.1931768017737
 20
213.347007963511
 30
0.0
 10
391.1925969307619
 20
213.346892193917
 30
0.0
 10
391.1906713915647
 20
213.3465077655066
 30
0.0
 10
391.1880899734189
 20
213.3442793843869
 30
0.0
 10
391.1858431375727
 20
213.3408744772841
 30
0.0
 10
391.1847225443319
 20
213.3370690583725
 30
0.0
 10
391.1846000301011
 20
213.3342521225062
 30
0.0
 10
391.1845454013794
 20
213.3329960594005
 30
0.0
  0
LINE
  5
79
330
2
100
AcDbEntity
  8
0
100
AcDbLine
 10
391.8616961817903
 20
212.6206231493617
 30
0.0
 11
391.9143495076787
 21
212.6358228552992
 31
0.0
  0
LINE
  5
7A
330
2
100
AcDbEntity
  8
0
100
AcDbLine
 10
391.5636250765201
 20
212.5756955715529
 30
0.0
 11
391.8160202080262
 21
212.648555770113
 31
0.0
  0
SPLINE
  5
7B
330
2
100
AcDbEntity
  8
0
100
AcDbSpline
210
0.0
220
0.0
230
1.0
 70
     8
 71
     3
 72
    10
 73
     6
 74
     0
 42
0.000000001
 43
0.0000000001
 40
0.0
 40
0.0
 40
0.0
 40
0.0
 40
0.4979108748729176
 40
0.9042729628983835
 40
1.0
 40
1.0
 40
1.0
 40
1.0
 10
391.5470221964231
 20
212.5804749890233
 30
0.0
 10
391.5495054037279
 20
212.5787194770154
 30
0.0
 10
391.5540152414124
 20
212.5755312316385
 30
0.0
 10
391.5606084022099
 20
212.5744335011942
 30
0.0
 10
391.5633493309035
 20
212.5758448622376
 30
0.0
 10
391.5638719094052
 20
212.5761139487489
 30
0.0
  0
LINE
  5
7C
330
2
100
AcDbEntity
  8
0
100
AcDbLine
 10
427.7247127950332
 20
223.8825830494124
 30
0.0
 11
391.4910474290733
 21
213.4228248230454
 31
0.0
  0
LINE
  5
7D
330
2
100
AcDbEntity
  8
0
100
AcDbLine
 10
427.5999675617223
 20
224.000448524585
 30
0.0
 11
393.3610088166891
 21
214.1165125004756
 31
0.0
  0
LINE
  5
7E
330
2
100
AcDbEntity
  8
0
100
AcDbLine
 10
393.0385379260003
 20
214.0234231727166
 30
0.0
 11
391.4923790945225
 21
213.5770855639267
 31
0.0
  0
LINE
  5
7F
330
2
100
AcDbEntity
  8
0
100
AcDbLine
 10
391.9143495076787
 20
212.6359102080801
 30
0.0
 11
428.4617158116057
 21
223.1862260949511
 31
0.0
  0
SPLINE
  5
80
330
2
100
AcDbEntity
  8
0
100
AcDbSpline
210
0.0
220
0.0
230
1.0
 70
     8
 71
     3
 72
    12
 73
     8
 74
     0
 42
0.000000001
 43
0.0000000001
 40
0.0
 40
0.0
 40
0.0
 40
0.0
 40
0.1348112637584273
 40
0.3707574349550936
 40
0.6161089759815713
 40
0.8571646013278815
 40
1.0
 40
1.0
 40
1.0
 40
1.0
 10
391.1496399059999
 20
213.097458494446
 30
0.0
 10
391.1466635947739
 20
213.0909890614793
 30
0.0
 10
391.138478154737
 20
213.0731968510549
 30
0.0
 10
391.1320156751581
 20
213.0383621018247
 30
0.0
 10
391.1315006244998
 20
212.99232743269
 30
0.0
 10
391.1371686880333
 20
212.9489024585774
 30
0.0
 10
391.1438857243671
 20
212.9223923638951
 30
0.0
 10
391.1463849507168
 20
212.9125286793965
 30
0.0
  0
SPLINE
  5
81
330
2
100
AcDbEntity
  8
0
100
AcDbSpline
210
0.0
220
0.0
230
1.0
 70
     8
 71
     3
 72
    10
 73
     6
 74
     0
 42
0.000000001
 43
0.0000000001
 40
0.0
 40
0.0
 40
0.0
 40
0.0
 40
0.0359904585941298
 40
0.5212060736319195
 40
1.0
 40
1.0
 40
1.0
 40
1.0
 10
391.1444246647501
 20
212.9210566308664
 30
0.0
 10
391.1444358219677
 20
212.9208522580372
 30
0.0
 10
391.1445973983926
 20
212.91789257472
 30
0.0
 10
391.1471203139353
 20
212.9128616565684
 30
0.0
 10
391.1507483379808
 20
212.9091764144104
 30
0.0
 10
391.1525502660772
 20
212.9073460678353
 30
0.0
  0
LINE
  5
82
330
2
100
AcDbEntity
  8
0
100
AcDbLine
 10
391.1499590015964
 20
212.9095704751311
 30
0.0
 11
391.1567116172769
 21
212.9037225384235
 31
0.0
  0
SPLINE
  5
83
330
2
100
AcDbEntity
  8
0
100
AcDbSpline
210
0.0
220
0.0
230
1.0
 70
     8
 71
     3
 72
    10
 73
     6
 74
     0
 42
0.000000001
 43
0.0000000001
 40
0.0
 40
0.0
 40
0.0
 40
0.0
 40
0.3132085475553744
 40
0.8337010188864573
 40
1.0
 40
1.0
 40
1.0
 40
1.0
 10
391.1612396167009
 20
213.108990480967
 30
0.0
 10
391.1599189763762
 20
213.1080610261264
 30
0.0
 10
391.1564036853885
 20
213.1055869957917
 30
0.0
 10
391.1527775775566
 20
213.1014823476702
 30
0.0
 10
391.1509877326214
 20
213.0981899727234
 30
0.0
 10
391.1505543413961
 20
213.0973927604153
 30
0.0
  0
SPLINE
  5
84
330
2
100
AcDbEntity
  8
0
100
AcDbSpline
210
0.0
220
0.0
230
1.0
 70
     8
 71
     3
 72
    11
 73
     7
 74
     0
 42
0.000000001
 43
0.0000000001
 40
0.0
 40
0.0
 40
0.0
 40
0.0
 40
0.1183509333362215
 40
0.4102560141028624
 40
0.7216221583246396
 40
1.0
 40
1.0
 40
1.0
 40
1.0
 10
391.1510104503079
 20
212.8854261105656
 30
0.0
 10
391.1508299699901
 20
212.8819039187726
 30
0.0
 10
391.1502043463992
 20
212.8696944640167
 30
0.0
 10
391.1561815086527
 20
212.8467632970383
 30
0.0
 10
391.1669364328058
 20
212.8207857986034
 30
0.0
 10
391.1791063510462
 20
212.8086412496001
 30
0.0
 10
391.1848509379417
 20
212.8029086377879
 30
0.0
  0
LINE
  5
85
330
2
100
AcDbEntity
  8
0
100
AcDbLine
 10
391.1502434145153
 20
212.8927393049177
 30
0.0
 11
391.1502434145153
 21
212.8857187503161
 31
0.0
  0
LINE
  5
86
330
2
100
AcDbEntity
  8
0
100
AcDbLine
 10
391.1845076631223
 20
212.8024245847736
 30
0.0
 11
391.2301073660501
 21
212.7629340836231
 31
0.0
  0
LINE
  5
87
330
2
100
AcDbEntity
  8
0
100
AcDbLine
 10
391.3145382684571
 20
212.7386943236202
 30
0.0
 11
391.3525843266845
 21
212.7496772745902
 31
0.0
  0
SPLINE
  5
88
330
2
100
AcDbEntity
  8
0
100
AcDbSpline
210
0.0
220
0.0
230
1.0
 70
     8
 71
     3
 72
    11
 73
     7
 74
     0
 42
0.000000001
 43
0.0000000001
 40
0.0
 40
0.0
 40
0.0
 40
0.0
 40
0.2286195946440973
 40
0.5732397815957268
 40
0.8889128612086658
 40
1.0
 40
1.0
 40
1.0
 40
1.0
 10
391.230107366058
 20
212.7629340836247
 30
0.0
 10
391.2357904688335
 20
212.7584077297704
 30
0.0
 10
391.2500402561222
 20
212.747058369717
 30
0.0
 10
391.2748920730689
 20
212.7369913424115
 30
0.0
 10
391.2997181846023
 20
212.7336157212999
 30
0.0
 10
391.3118040630428
 20
212.7389987016664
 30
0.0
 10
391.3149500583766
 20
212.7403999097952
 30
0.0
  0
LINE
  5
89
330
2
100
AcDbEntity
  8
0
100
AcDbLine
 10
391.1502434145153
 20
213.1068655828617
 30
0.0
 11
391.1502434145153
 21
213.0998450446153
 31
0.0
  0
SPLINE
  5
8A
330
2
100
AcDbEntity
  8
0
100
AcDbSpline
210
0.0
220
0.0
230
1.0
 70
     8
 71
     3
 72
    10
 73
     6
 74
     0
 42
0.000000001
 43
0.0000000001
 40
0.0
 40
0.0
 40
0.0
 40
0.0
 40
0.1210707881488531
 40
0.5392088557760869
 40
1.0
 40
1.0
 40
1.0
 40
1.0
 10
391.1612391241941
 20
213.1461579763299
 30
0.0
 10
391.1601893056777
 20
213.1448284169733
 30
0.0
 10
391.1555137646191
 20
213.1389070036381
 30
0.0
 10
391.1514090935018
 20
213.1255446384246
 30
0.0
 10
391.1508644790911
 20
213.1132415337834
 30
0.0
 10
391.1505789572379
 20
213.1067914561336
 30
0.0
  0
ARC
  5
8B
330
2
100
AcDbEntity
  8
0
100
AcDbCircle
 10
391.1946611038819
 20
213.3253028018218
 30
0.0
 40
0.0253425451809216
100
AcDbArc
 50
177.0843668928984
 51
246.4746773032956
  0
LINE
  5
8C
330
2
100
AcDbEntity
  8
0
100
AcDbLine
 10
391.169351364233
 20
213.3265918614805
 30
0.0
 11
391.169351364233
 21
213.3616945308249
 31
0.0
  0
ARC
  5
8D
330
2
100
AcDbEntity
  8
0
100
AcDbCircle
 10
391.1564923673702
 20
213.3621964025145
 30
0.0
 40
0.0128687868644467
100
AcDbArc
 50
357.7649467339027
 51
111.3836952751015
  0
LINE
  5
8E
330
2
100
AcDbEntity
  8
0
100
AcDbLine
 10
391.169351364233
 20
213.3792458657301
 30
0.0
 11
391.1518002556035
 21
213.374179297091
 31
0.0
  0
LINE
  5
8F
330
2
100
AcDbEntity
  8
0
100
AcDbLine
 10
391.169351364233
 20
213.4143485345476
 30
0.0
 11
391.169351364233
 21
213.3792458657301
 31
0.0
  0
ARC
  5
90
330
2
100
AcDbEntity
  8
0
100
AcDbCircle
 10
391.1787358619315
 20
213.3903831308438
 30
0.0
 40
0.0257373147850185
100
AcDbArc
 50
357.764067805403
 51
111.3845764181963
  0
LINE
  5
91
330
2
100
AcDbEntity
  8
0
100
AcDbLine
 10
391.2044535814918
 20
213.3542763331978
 30
0.0
 11
391.2044535814918
 21
213.3893790030286
 31
0.0
  0
LWPOLYLINE
  5
92
330
2
100
AcDbEntity
  8
0
100
AcDbPolyline
 90
        3
 70
   128
 43
0.0
 10
391.2044535814918
 20
213.3542763331978
 10
391.2047914850532
 20
213.3509497822355
 10
391.2048699456281
 20
213.3505966148721
  0
LINE
  5
93
330
2
100
AcDbEntity
  8
0
100
AcDbLine
 10
391.0430486949602
 20
213.4480934287408
 30
0.0
 11
391.0430486949602
 21
213.4831960975583
 31
0.0
  0
LINE
  5
94
330
2
100
AcDbEntity
  8
0
100
AcDbLine
 10
391.0430486949602
 20
213.4480934287408
 30
0.0
 11
390.7271256011963
 21
213.3568942871204
 31
0.0
  0
ARC
  5
95
330
2
100
AcDbEntity
  8
0
100
AcDbCircle
 10
390.7345118391049
 20
213.3330429223608
 30
0.0
 40
0.024968862836646
100
AcDbArc
 50
107.2065919386051
 51
177.1691313051028
  0
LINE
  5
96
330
2
100
AcDbEntity
  8
0
100
AcDbLine
 10
390.7095734464287
 20
213.3342760815641
 30
0.0
 11
390.7095734464287
 21
212.8954927177694
 31
0.0
  0
LINE
  5
97
330
2
100
AcDbEntity
  8
0
100
AcDbLine
 10
390.67447122917
 20
212.8853595804711
 30
0.0
 11
390.67447122917
 21
213.3416942791912
 31
0.0
  0
ARC
  5
98
330
2
100
AcDbEntity
  8
0
100
AcDbCircle
 10
390.7243481646368
 20
213.3392278896286
 30
0.0
 40
0.0499378791110899
100
AcDbArc
 50
107.2092307659953
 51
177.1690582600976
  0
LINE
  5
99
330
2
100
AcDbEntity
  8
0
100
AcDbLine
 10
390.7095734464287
 20
213.3869300852868
 30
0.0
 11
391.0430486949602
 21
213.4831960975583
 31
0.0
  0
ARC
  5
9A
330
2
100
AcDbEntity
  8
0
100
AcDbCircle
 10
390.7864140124239
 20
212.894841357844
 30
0.0
 40
0.0768433266691727
100
AcDbArc
 50
179.5143284029005
 51
222.5890966166012
  0
LINE
  5
9B
330
2
100
AcDbEntity
  8
0
100
AcDbLine
 10
391.0135714722636
 20
213.0710060684836
 30
0.0
 11
391.0135714722636
 21
212.9900289958474
 31
0.0
  0
LINE
  5
9C
330
2
100
AcDbEntity
  8
0
100
AcDbLine
 10
391.0135714722636
 20
212.7932916665039
 30
0.0
 11
391.0135714722636
 21
212.632222704689
 31
0.0
  0
LWPOLYLINE
  5
9D
330
2
100
AcDbEntity
  8
0
100
AcDbPolyline
 90
        9
 70
   128
 43
0.0
 10
391.0135714722636
 20
212.632222704689
 10
391.0131820592553
 20
212.6257117433879
 10
391.0120287784332
 20
212.6201255135605
 10
391.0101559475421
 20
212.6156786375945
 10
391.00763554519
 20
212.6125420369859
 10
391.0045644173671
 20
212.6108362304168
 10
391.0010606063274
 20
212.6106267978832
 10
390.9972587451995
 20
212.611921765237
 10
390.9933049334317
 20
212.6146713672099
  0
LINE
  5
9E
330
2
100
AcDbEntity
  8
0
100
AcDbLine
 10
390.7298399663725
 20
212.8428387216873
 30
0.0
 11
390.9933049334317
 21
212.6146713672099
 31
0.0
  0
ARC
  5
9F
330
2
100
AcDbEntity
  8
0
100
AcDbCircle
 10
390.7513117951651
 20
212.8847082205456
 30
0.0
 40
0.0768433266691741
100
AcDbArc
 50
179.5143284029005
 51
222.5890966166012
  0
LINE
  5
A0
330
2
100
AcDbEntity
  8
0
100
AcDbLine
 10
390.6947377491137
 20
212.8327055843889
 30
0.0
 11
390.9582027161728
 21
212.6045382299317
 31
0.0
  0
ARC
  5
A1
330
2
100
AcDbEntity
  8
0
100
AcDbCircle
 10
391.0628635145832
 20
213.4207420601115
 30
0.0
 40
0.065522010563693
100
AcDbArc
 50
57.13635941450402
 51
107.602693898998
  0
LINE
  5
A2
330
2
100
AcDbEntity
  8
0
100
AcDbLine
 10
391.0984184783211
 20
213.4757782157041
 30
0.0
 11
391.0984184783211
 21
213.4406755468867
 31
0.0
  0
ARC
  5
A3
330
2
100
AcDbEntity
  8
0
100
AcDbCircle
 10
391.0628635145832
 20
213.3856393912942
 30
0.0
 40
0.0655220105636917
100
AcDbArc
 50
57.13635941450402
 51
107.602693898998
  0
LWPOLYLINE
  5
A4
330
2
100
AcDbEntity
  8
0
100
AcDbPolyline
 90
        9
 70
   128
 43
0.0
 10
391.1125563418495
 20
213.2926452214654
 10
391.0927446991477
 20
213.3039414900546
 10
391.0657946467521
 20
213.310586641316
 10
391.0358091256043
 20
213.3115690132892
 10
391.0073552972063
 20
213.3067396720075
 10
390.9847637185338
 20
213.296833473537
 10
390.9714735222886
 20
213.2833584780025
 10
390.9695082356655
 20
213.2683661873892
 10
390.9791670793475
 20
213.254139058142
  0
LWPOLYLINE
  5
A5
330
2
100
AcDbEntity
  8
0
100
AcDbPolyline
 90
        9
 70
   128
 43
0.0
 10
390.9791670793475
 20
213.254139058142
 10
390.9989797728895
 20
213.2428430874506
 10
391.0259298217587
 20
213.2361979392698
 10
391.0559142997068
 20
213.2352152627312
 10
391.0843681300301
 20
213.2400446023509
 10
391.1069597067772
 20
213.2499508025037
 10
391.1202509462222
 20
213.2634261025631
 10
391.1222162363717
 20
213.2784183901364
 10
391.1125563418495
 20
213.2926452214654
  0
LINE
  5
A6
330
2
100
AcDbEntity
  8
0
100
AcDbLine
 10
391.169351364233
 20
213.3792458657301
 30
0.0
 11
391.0984184783211
 21
213.4406755468867
 31
0.0
  0
LINE
  5
A7
330
2
100
AcDbEntity
  8
0
100
AcDbLine
 10
391.1533537027972
 20
213.1289090576212
 30
0.0
 11
391.0311236270314
 21
213.0936242740601
 31
0.0
  0
LINE
  5
A8
330
2
100
AcDbEntity
  8
0
100
AcDbLine
 10
391.169351364233
 20
213.4143485345476
 30
0.0
 11
391.0984184783211
 21
213.4757782157041
 31
0.0
  0
ARC
  5
A9
330
2
100
AcDbEntity
  8
0
100
AcDbCircle
 10
391.0385098649399
 20
213.0697729093006
 30
0.0
 40
0.0249688628366661
100
AcDbArc
 50
107.2065919387008
 51
177.1691313050001
  0
LINE
  5
AA
330
2
100
AcDbEntity
  8
0
100
AcDbLine
 10
390.9791670793475
 20
213.2892417269595
 30
0.0
 11
390.9773137610971
 21
213.2909433860227
 31
0.0
  0
ARC
  5
AB
330
2
100
AcDbEntity
  8
0
100
AcDbCircle
 10
390.967370127782
 20
212.6130000393275
 30
0.0
 40
0.0124757225902555
100
AcDbArc
 50
222.7079836637992
 51
279.5715081717011
  0
LWPOLYLINE
  5
AC
330
2
100
AcDbEntity
  8
0
100
AcDbPolyline
 90
        8
 70
   128
 43
0.0
 10
386.2687941279897
 20
211.5290628226754
 10
386.2649331891003
 20
211.526924191591
 10
386.2594416475463
 20
211.5174448376903
 10
386.2575132731749
 20
211.5023233467379
 10
386.2594416475463
 20
211.4838618134105
 10
386.2649331891003
 20
211.4648708305433
 10
386.2731518579512
 20
211.4482416419124
 10
386.2828464420132
 20
211.4365058516502
  0
LWPOLYLINE
  5
AD
330
2
100
AcDbEntity
  8
0
100
AcDbPolyline
 90
        3
 70
   128
 43
0.0
 10
386.2828464420132
 20
211.4365058516502
 10
386.2925410272302
 20
211.431450128749
 10
386.2968987571917
 20
211.431705534277
  0
LWPOLYLINE
  5
AE
330
2
100
AcDbEntity
  8
0
100
AcDbPolyline
 90
        8
 70
   128
 43
0.0
 10
386.2687941279897
 20
211.620329754641
 10
386.2649331891003
 20
211.6181911235567
 10
386.2594416475463
 20
211.6087117696764
 10
386.2575132731749
 20
211.5935902950587
 10
386.2594416475463
 20
211.5751287617314
 10
386.2649331891003
 20
211.5561377788845
 10
386.2731518579512
 20
211.5395085902333
 10
386.2787229279642
 20
211.5319290203375
  0
SPLINE
  5
AF
330
2
100
AcDbEntity
  8
0
100
AcDbSpline
210
0.0
220
0.0
230
1.0
 70
     8
 71
     3
 72
    12
 73
     8
 74
     0
 42
0.000000001
 43
0.0000000001
 40
0.0
 40
0.0
 40
0.0
 40
0.0
 40
0.2420661671115245
 40
0.3688257324002824
 40
0.4990830844946328
 40
0.7491133167360427
 40
1.0
 40
1.0
 40
1.0
 40
1.0
 10
386.2471681577371
 20
211.379265572763
 30
0.0
 10
386.2394047481376
 20
211.3874100556707
 30
0.0
 10
386.2275759772458
 20
211.3998194514541
 30
0.0
 10
386.2131741013456
 20
211.4252214177835
 30
0.0
 10
386.2003153041058
 20
211.4535545525156
 30
0.0
 10
386.187803848123
 20
211.4934362688651
 30
0.0
 10
386.1854214045597
 20
211.5225541103336
 30
0.0
 10
386.1842281460669
 20
211.5371379234245
 30
0.0
  0
SPLINE
  5
B0
330
2
100
AcDbEntity
  8
0
100
AcDbSpline
210
0.0
220
0.0
230
1.0
 70
     8
 71
     3
 72
    13
 73
     9
 74
     0
 42
0.000000001
 43
0.0000000001
 40
0.0
 40
0.0
 40
0.0
 40
0.0
 40
0.135927094370268
 40
0.2701046652905584
 40
0.4994908148675381
 40
0.7292546459188231
 40
0.8636343039135178
 40
1.0
 40
1.0
 40
1.0
 40
1.0
 10
385.6377533268902
 20
211.1285159210151
 30
0.0
 10
385.6334124699154
 20
211.1327149079508
 30
0.0
 10
385.6247866273216
 20
211.1410588364814
 30
0.0
 10
385.609620573344
 20
211.163402689056
 30
0.0
 10
385.5937144111842
 20
211.1961289882456
 30
0.0
 10
385.5829297245555
 20
211.2332087250243
 30
0.0
 10
385.5776982394962
 20
211.2641070180561
 30
0.0
 10
385.5772031037374
 20
211.2795105204067
 30
0.0
 10
385.5769537198369
 20
211.2872687673665
 30
0.0
  0
LINE
  5
B1
330
2
100
AcDbEntity
  8
0
100
AcDbLine
 10
386.1842281838201
 20
211.5371378907393
 30
0.0
 11
385.5769537198366
 21
211.2872687673701
 31
0.0
  0
SPLINE
  5
B2
330
2
100
AcDbEntity
  8
0
100
AcDbSpline
210
0.0
220
0.0
230
1.0
 70
     8
 71
     3
 72
    11
 73
     7
 74
     0
 42
0.000000001
 43
0.0000000001
 40
0.0
 40
0.0
 40
0.0
 40
0.0
 40
0.279478541878792
 40
0.5590403864101669
 40
0.779493085037061
 40
1.0
 40
1.0
 40
1.0
 40
1.0
 10
386.2625799078917
 20
211.4011350662702
 30
0.0
 10
386.2551206003776
 20
211.4092760412397
 30
0.0
 10
386.240199761994
 20
211.4255604177151
 30
0.0
 10
386.2235614962788
 20
211.4637428278462
 30
0.0
 10
386.213671260785
 20
211.50141889657
 30
0.0
 10
386.2124995151195
 20
211.5227581745155
 30
0.0
 10
386.2119135702534
 20
211.5334291253287
 30
0.0
  0
ARC
  5
B3
330
2
100
AcDbEntity
  8
0
100
AcDbCircle
 10
386.1941366211551
 20
211.5059152446122
 30
0.0
 40
0.032757190835713
100
AcDbArc
 50
57.13315856589434
 51
107.6067655583046
  0
LINE
  5
B4
330
2
100
AcDbEntity
  8
0
100
AcDbLine
 10
386.1842281838201
 20
211.5371378907393
 30
0.0
 11
386.1842281838201
 21
211.6451742841551
 31
0.0
  0
LINE
  5
B5
330
2
100
AcDbEntity
  8
0
100
AcDbLine
 10
385.5769537198366
 20
211.2872687673701
 30
0.0
 11
385.5769537198366
 21
211.5444334194653
 31
0.0
  0
LINE
  5
B6
330
2
100
AcDbEntity
  8
0
100
AcDbLine
 10
385.5769537198366
 20
211.5444334194653
 30
0.0
 11
386.1842281838201
 21
211.6451742841551
 31
0.0
  0
LINE
  5
B7
330
2
100
AcDbEntity
  8
0
100
AcDbLine
 10
386.3031129784738
 20
211.6509002216289
 30
0.0
 11
386.262579907883
 21
211.6860028904463
 31
0.0
  0
SPLINE
  5
B8
330
2
100
AcDbEntity
  8
0
100
AcDbSpline
210
0.0
220
0.0
230
1.0
 70
     8
 71
     3
 72
    11
 73
     7
 74
     0
 42
0.000000001
 43
0.0000000001
 40
0.0
 40
0.0
 40
0.0
 40
0.0
 40
0.2797803801779591
 40
0.559416581391658
 40
0.7797283260275995
 40
1.0
 40
1.0
 40
1.0
 40
1.0
 10
386.3537793184717
 20
211.4105697834448
 30
0.0
 10
386.3528313233942
 20
211.3984590380665
 30
0.0
 10
386.3509358217689
 20
211.3742437883289
 30
0.0
 10
386.3374184755382
 20
211.3568742874988
 30
0.0
 10
386.3207020969589
 20
211.3539130274716
 30
0.0
 10
386.3089756624662
 20
211.3619928524096
 30
0.0
 10
386.3031129784741
 20
211.3660323974524
 30
0.0
  0
LINE
  5
B9
330
2
100
AcDbEntity
  8
0
100
AcDbLine
 10
386.262579907883
 20
211.4011350662758
 30
0.0
 11
386.3031129784738
 21
211.3660323974584
 31
0.0
  0
LINE
  5
BA
330
2
100
AcDbEntity
  8
0
100
AcDbLine
 10
386.2119135702473
 20
211.6414655187566
 30
0.0
 11
386.2119135702473
 21
211.5334291253205
 31
0.0
  0
SPLINE
  5
BB
330
2
100
AcDbEntity
  8
0
100
AcDbSpline
210
0.0
220
0.0
230
1.0
 70
     8
 71
     3
 72
    11
 73
     7
 74
     0
 42
0.000000001
 43
0.0000000001
 40
0.0
 40
0.0
 40
0.0
 40
0.0
 40
0.2797802974193668
 40
0.5594164014320372
 40
0.7797282911455384
 40
1.0
 40
1.0
 40
1.0
 40
1.0
 10
386.2119135702534
 20
211.641465518758
 30
0.0
 10
386.2128615651823
 20
211.6535762601031
 30
0.0
 10
386.2147570664615
 20
211.677791501149
 30
0.0
 10
386.2282744178751
 20
211.6951609718631
 30
0.0
 10
386.2449907810647
 20
211.6981222954644
 30
0.0
 10
386.2567172220966
 20
211.6900424464948
 30
0.0
 10
386.2625799078917
 20
211.6860028904478
 30
0.0
  0
LINE
  5
BC
330
2
100
AcDbEntity
  8
0
100
AcDbLine
 10
386.2877012286191
 20
211.344163034451
 30
0.0
 11
386.2471681577444
 21
211.379265703532
 31
0.0
  0
LINE
  5
BD
330
2
100
AcDbEntity
  8
0
100
AcDbLine
 10
385.6782863977632
 20
211.0934132519459
 30
0.0
 11
385.6377533268886
 21
211.1285159210065
 31
0.0
  0
ARC
  5
BE
330
2
100
AcDbEntity
  8
0
100
AcDbCircle
 10
386.1941366211551
 20
211.613951638028
 30
0.0
 40
0.0327571908357295
100
AcDbArc
 50
57.13315856600275
 51
107.6067655583046
  0
SPLINE
  5
BF
330
2
100
AcDbEntity
  8
0
100
AcDbSpline
210
0.0
220
0.0
230
1.0
 70
     8
 71
     3
 72
    10
 73
     6
 74
     0
 42
0.000000001
 43
0.0000000001
 40
0.0
 40
0.0
 40
0.0
 40
0.0
 40
0.3272742700641808
 40
0.6612973532336735
 40
1.0
 40
1.0
 40
1.0
 40
1.0
 10
385.7136481968291
 20
211.0846685856059
 30
0.0
 10
385.7103445101742
 20
211.0829987903713
 30
0.0
 10
385.7036690106296
 20
211.0796247665938
 30
0.0
 10
385.691198461576
 20
211.0836763402881
 30
0.0
 10
385.6826103324009
 20
211.090152598173
 30
0.0
 10
385.6782863977676
 20
211.093413251942
 30
0.0
  0
SPLINE
  5
C0
330
2
100
AcDbEntity
  8
0
100
AcDbSpline
210
0.0
220
0.0
230
1.0
 70
     8
 71
     3
 72
    11
 73
     7
 74
     0
 42
0.000000001
 43
0.0000000001
 40
0.0
 40
0.0
 40
0.0
 40
0.0
 40
0.206233389007813
 40
0.409659613626325
 40
0.7573147546304182
 40
1.0
 40
1.0
 40
1.0
 40
1.0
 10
385.5769537198369
 20
211.5444334194559
 30
0.0
 10
385.5772000722891
 20
211.5517677998005
 30
0.0
 10
385.5776894239445
 20
211.5663367279096
 30
0.0
 10
385.5829807218518
 20
211.5879536654368
 30
0.0
 10
385.5921468115795
 20
211.6055172779421
 30
0.0
 10
385.6028722245954
 20
211.607487810131
 30
0.0
 10
385.6072813748914
 20
211.6082978836053
 30
0.0
  0
LWPOLYLINE
  5
C1
330
2
100
AcDbEntity
  8
0
100
AcDbPolyline
 90
        3
 70
   128
 43
0.0
 10
386.3564942280767
 20
211.4055030645206
 10
386.3564505735134
 20
211.4048402422683
 10
386.3563646694047
 20
211.4043589667696
  0
SPLINE
  5
C2
330
2
100
AcDbEntity
  8
0
100
AcDbSpline
210
0.0
220
0.0
230
1.0
 70
     8
 71
     3
 72
    13
 73
     9
 74
     0
 42
0.000000001
 43
0.0000000001
 40
0.0
 40
0.0
 40
0.0
 40
0.0
 40
0.0261444067125467
 40
0.1773696141308454
 40
0.4358997911136169
 40
0.6948557305687726
 40
0.8463087887478002
 40
1.0
 40
1.0
 40
1.0
 40
1.0
 10
385.5919380505394
 20
211.5993740821068
 30
0.0
 10
385.5912015006688
 20
211.5998957645865
 30
0.0
 10
385.5862045784682
 20
211.6034349774342
 30
0.0
 10
385.5745561970031
 20
211.6054744443371
 30
0.0
 10
385.558596867374
 20
211.6008585611284
 30
0.0
 10
385.5478273518302
 20
211.5822986072278
 30
0.0
 10
385.5425935514359
 20
211.5604859539767
 30
0.0
 10
385.5420986672897
 20
211.545937385745
 30
0.0
 10
385.541849410294
 20
211.5386097466654
 30
0.0
  0
SPLINE
  5
C3
330
2
100
AcDbEntity
  8
0
100
AcDbSpline
210
0.0
220
0.0
230
1.0
 70
     8
 71
     3
 72
    11
 73
     7
 74
     0
 42
0.000000001
 43
0.0000000001
 40
0.0
 40
0.0
 40
0.0
 40
0.0
 40
0.2176594492320444
 40
0.4325172390221895
 40
0.799831986393934
 40
1.0
 40
1.0
 40
1.0
 40
1.0
 10
385.6431820882247
 20
211.0789694094762
 30
0.0
 10
385.6475299865476
 20
211.0756353477841
 30
0.0
 10
385.6561698181046
 20
211.06901013963
 30
0.0
 10
385.6712075002207
 20
211.0653497812036
 30
0.0
 10
385.6849972433676
 20
211.0681877135221
 30
0.0
 10
385.6908886162135
 20
211.0799381455161
 30
0.0
 10
385.6929666782817
 20
211.0840828716523
 30
0.0
  0
LINE
  5
C4
330
2
100
AcDbEntity
  8
0
100
AcDbLine
 10
385.6431820882279
 20
211.0789694094729
 30
0.0
 11
385.6026490173531
 21
211.1140720785538
 31
0.0
  0
SPLINE
  5
C5
330
2
100
AcDbEntity
  8
0
100
AcDbSpline
210
0.0
220
0.0
230
1.0
 70
     8
 71
     3
 72
    13
 73
     9
 74
     0
 42
0.000000001
 43
0.0000000001
 40
0.0
 40
0.0
 40
0.0
 40
0.0
 40
0.1362988817081376
 40
0.2707423281577096
 40
0.5005061554835156
 40
0.7298921882934596
 40
0.8640066081475815
 40
1.0
 40
1.0
 40
1.0
 40
1.0
 10
385.541849410294
 20
211.2728249575927
 30
0.0
 10
385.5420992524762
 20
211.2650702051433
 30
0.0
 10
385.5425955357418
 20
211.249666265609
 30
0.0
 10
385.5478232765512
 20
211.2187692922211
 30
0.0
 10
385.5586103178834
 20
211.1816845919066
 30
0.0
 10
385.5745148495061
 20
211.1489638624397
 30
0.0
 10
385.5896797563636
 20
211.1266144870323
 30
0.0
 10
385.5983059280496
 20
211.1182722253518
 30
0.0
 10
385.6026490173472
 20
211.1140720785494
 30
0.0
  0
LINE
  5
C6
330
2
100
AcDbEntity
  8
0
100
AcDbLine
 10
385.5418494103012
 20
211.5386097466646
 30
0.0
 11
385.5418494103012
 21
211.2728249575869
 31
0.0
  0
SPLINE
  5
C7
330
2
100
AcDbEntity
  8
0
100
AcDbSpline
210
0.0
220
0.0
230
1.0
 70
     8
 71
     3
 72
    10
 73
     6
 74
     0
 42
0.000000001
 43
0.0000000001
 40
0.0
 40
0.0
 40
0.0
 40
0.0
 40
0.6948556413874469
 40
0.8463086888677885
 40
1.0
 40
1.0
 40
1.0
 40
1.0
 10
385.5043517617131
 20
211.5927101519592
 30
0.0
 10
385.4883924349275
 20
211.5892124104324
 30
0.0
 10
385.4776229163458
 20
211.5706524694422
 30
0.0
 10
385.472389115966
 20
211.548839811782
 30
0.0
 10
385.4718942325098
 20
211.5342912374769
 30
0.0
 10
385.4716449757722
 20
211.5269635927182
 30
0.0
  0
SPLINE
  5
C8
330
2
100
AcDbEntity
  8
0
100
AcDbSpline
210
0.0
220
0.0
230
1.0
 70
     8
 71
     3
 72
     8
 73
     4
 74
     0
 42
0.000000001
 43
0.0000000001
 40
0.0
 40
0.0
 40
0.0
 40
0.0
 40
1.0
 40
1.0
 40
1.0
 40
1.0
 10
385.572977653703
 20
211.0500829979081
 30
0.0
 10
385.577325552026
 20
211.0467489362159
 30
0.0
 10
385.585965383583
 20
211.0401237280621
 30
0.0
 10
385.601003065699
 20
211.0364633696355
 30
0.0
  0
LINE
  5
C9
330
2
100
AcDbEntity
  8
0
100
AcDbLine
 10
385.5729776537105
 20
211.0500829979139
 30
0.0
 11
385.5324445828355
 21
211.0851856669745
 31
0.0
  0
SPLINE
  5
CA
330
2
100
AcDbEntity
  8
0
100
AcDbSpline
210
0.0
220
0.0
230
1.0
 70
     8
 71
     3
 72
    13
 73
     9
 74
     0
 42
0.000000001
 43
0.0000000001
 40
0.0
 40
0.0
 40
0.0
 40
0.0
 40
0.1362988817081376
 40
0.2707423281577096
 40
0.5005061554835156
 40
0.7298921882934596
 40
0.8640066081475815
 40
1.0
 40
1.0
 40
1.0
 40
1.0
 10
385.4716449757722
 20
211.2439385460247
 30
0.0
 10
385.4718948179547
 20
211.2361837935753
 30
0.0
 10
385.4723911012202
 20
211.2207798540409
 30
0.0
 10
385.4776188420297
 20
211.189882880653
 30
0.0
 10
385.4884058833616
 20
211.1527981803385
 30
0.0
 10
385.5043104149847
 20
211.1200774508716
 30
0.0
 10
385.5194753218421
 20
211.0977280754642
 30
0.0
 10
385.5281014935279
 20
211.0893858137838
 30
0.0
 10
385.5324445828258
 20
211.0851856669815
 30
0.0
  0
LINE
  5
CB
330
2
100
AcDbEntity
  8
0
100
AcDbLine
 10
385.4716449757636
 20
211.5269635927153
 30
0.0
 11
385.4716449757636
 21
211.243938546028
 31
0.0
  0
SPLINE
  5
CC
330
2
100
AcDbEntity
  8
0
100
AcDbSpline
210
0.0
220
0.0
230
1.0
 70
     8
 71
     3
 72
    10
 73
     6
 74
     0
 42
0.000000001
 43
0.0000000001
 40
0.0
 40
0.0
 40
0.0
 40
0.0
 40
0.6948556895309089
 40
0.8463087947036889
 40
1.0
 40
1.0
 40
1.0
 40
1.0
 10
385.4341473307558
 20
211.5806200237848
 30
0.0
 10
385.4181879967322
 20
211.5775662818931
 30
0.0
 10
385.4074184814047
 20
211.5590063226358
 30
0.0
 10
385.4021846830098
 20
211.537193664306
 30
0.0
 10
385.4016897984246
 20
211.5226450939811
 30
0.0
 10
385.4014405412508
 20
211.5153174551169
 30
0.0
  0
SPLINE
  5
CD
330
2
100
AcDbEntity
  8
0
100
AcDbSpline
210
0.0
220
0.0
230
1.0
 70
     8
 71
     3
 72
     8
 73
     4
 74
     0
 42
0.000000001
 43
0.0000000001
 40
0.0
 40
0.0
 40
0.0
 40
0.0
 40
1.0
 40
1.0
 40
1.0
 40
1.0
 10
385.5027732191815
 20
211.0211965863402
 30
0.0
 10
385.5071211173361
 20
211.0178625251412
 30
0.0
 10
385.5157609485587
 20
211.0112373179675
 30
0.0
 10
385.5307986371457
 20
211.0075769497189
 30
0.0
  0
LINE
  5
CE
330
2
100
AcDbEntity
  8
0
100
AcDbLine
 10
385.5027732191727
 20
211.0211965863347
 30
0.0
 11
385.462240148298
 21
211.0562992554156
 31
0.0
  0
SPLINE
  5
CF
330
2
100
AcDbEntity
  8
0
100
AcDbSpline
210
0.0
220
0.0
230
1.0
 70
     8
 71
     3
 72
    13
 73
     9
 74
     0
 42
0.000000001
 43
0.0000000001
 40
0.0
 40
0.0
 40
0.0
 40
0.0
 40
0.1362988885199829
 40
0.2707423416886706
 40
0.5005060174724936
 40
0.7298921747942102
 40
0.8640066013510036
 40
1.0
 40
1.0
 40
1.0
 40
1.0
 10
385.4014405412508
 20
211.2150521344566
 30
0.0
 10
385.4016903836062
 20
211.2072973821043
 30
0.0
 10
385.4021866672156
 20
211.1918934427629
 30
0.0
 10
385.4074144031704
 20
211.1609964776702
 30
0.0
 10
385.418201462139
 20
211.1239117922343
 30
0.0
 10
385.4341059748743
 20
211.0911910415461
 30
0.0
 10
385.4492708877434
 20
211.0688416644484
 30
0.0
 10
385.4578970591479
 20
211.0604994024006
 30
0.0
 10
385.4622401483041
 20
211.0562992554133
 30
0.0
  0
LINE
  5
D0
330
2
100
AcDbEntity
  8
0
100
AcDbLine
 10
385.4014405412461
 20
211.515317455121
 30
0.0
 11
385.4014405412461
 21
211.2150521344488
 31
0.0
  0
LINE
  5
D1
330
2
100
AcDbEntity
  8
0
100
AcDbLine
 10
384.5102376037095
 20
210.9529956989842
 30
0.0
 11
384.7910595263528
 21
211.034062005298
 31
0.0
  0
ARC
  5
D2
330
2
100
AcDbEntity
  8
0
100
AcDbCircle
 10
385.0517604521408
 20
211.0486245286636
 30
0.0
 40
0.2611073338553202
100
AcDbArc
 50
180.037201671502
 51
183.1971690680988
  0
LINE
  5
D3
330
2
100
AcDbEntity
  8
0
100
AcDbLine
 10
384.790653173338
 20
211.0484549938653
 30
0.0
 11
384.9170228292865
 21
211.0849347713183
 31
0.0
  0
ARC
  5
D4
330
2
100
AcDbEntity
  8
0
100
AcDbCircle
 10
385.1825042295234
 20
211.085197505955
 30
0.0
 40
0.2654815302469431
100
AcDbArc
 50
180.0567029594985
 51
183.966608793902
  0
LINE
  5
D5
330
2
100
AcDbEntity
  8
0
100
AcDbLine
 10
384.9176586512645
 20
211.0668327958594
 30
0.0
 11
385.2686850084457
 21
211.1681653767698
 31
0.0
  0
ARC
  5
D6
330
2
100
AcDbEntity
  8
0
100
AcDbCircle
 10
385.5335305867044
 20
211.1865300868655
 30
0.0
 40
0.265481530240227
100
AcDbArc
 50
180.0567029594985
 51
183.9666087939983
  0
LINE
  5
D7
330
2
100
AcDbEntity
  8
0
100
AcDbLine
 10
385.2680491864676
 20
211.1862673522288
 30
0.0
 11
385.3312340144522
 21
211.204507240935
 31
0.0
  0
ARC
  5
D8
330
2
100
AcDbEntity
  8
0
100
AcDbCircle
 10
385.6791604857788
 20
211.2109915309687
 30
0.0
 40
0.3479868898009632
100
AcDbArc
 50
181.0676952662005
 51
208.9822175831974
  0
LWPOLYLINE
  5
D9
330
2
100
AcDbEntity
  8
0
100
AcDbPolyline
 90
        8
 70
   128
 43
0.0
 10
384.4466464226897
 20
210.9491487988252
 10
384.4506140790349
 20
210.9023234185517
 10
384.4621286826186
 20
210.8532094249006
 10
384.4800630846137
 20
210.8066145144124
 10
384.5026617508383
 20
210.7670996005785
 10
384.5277125638516
 20
210.7385327940881
 10
384.5527633805533
 20
210.7237103164922
 10
384.5726799696585
 20
210.7231717940499
  0
LINE
  5
DA
330
2
100
AcDbEntity
  8
0
100
AcDbLine
 10
384.4466464226897
 20
210.9491487988252
 30
0.0
 11
384.5098312506744
 21
210.9673886875516
 31
0.0
  0
ARC
  5
DB
330
2
100
AcDbEntity
  8
0
100
AcDbCircle
 10
384.7709385294973
 20
210.9675582223499
 30
0.0
 40
0.2611073338604121
100
AcDbArc
 50
180.037201671502
 51
183.1971690679976
  0
LINE
  5
DC
330
2
100
AcDbEntity
  8
0
100
AcDbLine
 10
385.3312340144522
 20
211.4853285914743
 30
0.0
 11
385.3312340144522
 21
211.204507240935
 31
0.0
  0
LWPOLYLINE
  5
DD
330
2
100
AcDbEntity
  8
0
100
AcDbPolyline
 90
        9
 70
   128
 43
0.0
 10
385.3312340144522
 20
211.4853285914743
 10
385.3319842358754
 20
211.5037370862648
 10
385.3342209989432
 20
211.5205054361968
 10
385.3379029114659
 20
211.5353232969745
 10
385.3429618264276
 20
211.5479164080179
 10
385.3493041065366
 20
211.5580516759981
 10
385.3568123701066
 20
211.5655415147743
 10
385.3653476428767
 20
211.5702472942922
 10
385.3747519484791
 20
211.5720819274047
  0
LINE
  5
DE
330
2
100
AcDbEntity
  8
0
100
AcDbLine
 10
385.4498483650994
 20
210.9773432031859
 30
0.0
 11
385.3747519484791
 21
211.0423786077029
 31
0.0
  0
LINE
  5
DF
330
2
100
AcDbEntity
  8
0
100
AcDbLine
 10
385.2680491864676
 20
211.1862673522288
 30
0.0
 11
385.2680491864676
 21
211.467088702768
 31
0.0
  0
LINE
  5
E0
330
2
100
AcDbEntity
  8
0
100
AcDbLine
 10
385.3312340144522
 20
211.4853285914743
 30
0.0
 11
385.2680491864676
 21
211.467088702768
 31
0.0
  0
ARC
  5
E1
330
2
100
AcDbEntity
  8
0
100
AcDbCircle
 10
385.0153260901294
 20
211.329457703409
 30
0.0
 40
0.2246729899957081
100
AcDbArc
 50
176.5531804227017
 51
180.0462499100997
  0
LINE
  5
E2
330
2
100
AcDbEntity
  8
0
100
AcDbLine
 10
384.7910595263528
 20
211.3429655088837
 30
0.0
 11
384.5102376037095
 21
211.2618992025701
 31
0.0
  0
ARC
  5
E3
330
2
100
AcDbEntity
  8
0
100
AcDbCircle
 10
384.734504167486
 20
211.2483913970751
 30
0.0
 40
0.2246729899998785
100
AcDbArc
 50
176.5531804227996
 51
180.0462499100997
  0
LINE
  5
E4
330
2
100
AcDbEntity
  8
0
100
AcDbLine
 10
384.5098312506744
 20
211.2482100380909
 30
0.0
 11
384.4466464226897
 21
211.2299701493645
 31
0.0
  0
LWPOLYLINE
  5
E5
330
2
100
AcDbEntity
  8
0
100
AcDbPolyline
 90
        5
 70
   128
 43
0.0
 10
384.4827451580648
 20
211.3155364788903
 10
384.4800630846137
 20
211.3146251020504
 10
384.4621286826186
 20
211.2990934461501
 10
384.4506140790349
 20
211.2699233472751
 10
384.4466464226897
 20
211.2299701493645
  0
LINE
  5
E6
330
2
100
AcDbEntity
  8
0
100
AcDbLine
 10
385.2686850084457
 20
211.484089402247
 30
0.0
 11
384.9176586512645
 21
211.3827568213567
 31
0.0
  0
ARC
  5
E7
330
2
100
AcDbEntity
  8
0
100
AcDbCircle
 10
385.1369933150174
 20
211.3660415193855
 30
0.0
 40
0.2199706708724342
100
AcDbArc
 50
175.6419628813015
 51
180.0743375369013
  0
LINE
  5
E8
330
2
100
AcDbEntity
  8
0
100
AcDbLine
 10
384.9170228292865
 20
211.3657561218576
 30
0.0
 11
384.790653173338
 21
211.3292763444046
 31
0.0
  0
ARC
  5
E9
330
2
100
AcDbEntity
  8
0
100
AcDbCircle
 10
385.488019672178
 20
211.4673741002758
 30
0.0
 40
0.2199706708605803
100
AcDbArc
 50
175.6419628811022
 51
180.0743375369974
  0
LINE
  5
EA
330
2
100
AcDbEntity
  8
0
100
AcDbLine
 10
384.9170228292865
 20
211.0849347713183
 30
0.0
 11
384.9170228292865
 21
211.3657561218576
 31
0.0
  0
LINE
  5
EB
330
2
100
AcDbEntity
  8
0
100
AcDbLine
 10
384.790653173338
 20
211.2801326092884
 30
0.0
 11
384.5098312506744
 21
211.1990663029747
 31
0.0
  0
LINE
  5
EC
330
2
100
AcDbEntity
  8
0
100
AcDbLine
 10
384.790653173338
 20
211.2801326092884
 30
0.0
 11
384.790653173338
 21
211.3292763444046
 31
0.0
  0
LINE
  5
ED
330
2
100
AcDbEntity
  8
0
100
AcDbLine
 10
384.790653173338
 20
211.0975987453366
 30
0.0
 11
384.790653173338
 21
211.0484549938653
 31
0.0
  0
LINE
  5
EE
330
2
100
AcDbEntity
  8
0
100
AcDbLine
 10
384.5098312506744
 20
211.016532439023
 30
0.0
 11
384.790653173338
 21
211.0975987453366
 31
0.0
  0
LINE
  5
EF
330
2
100
AcDbEntity
  8
0
100
AcDbLine
 10
384.5098312506744
 20
211.016532439023
 30
0.0
 11
384.5098312506744
 21
210.9673886875516
 31
0.0
  0
LINE
  5
F0
330
2
100
AcDbEntity
  8
0
100
AcDbLine
 10
384.4466464226897
 20
210.9491487988252
 30
0.0
 11
384.4466464226897
 21
211.0158438877756
 31
0.0
  0
LINE
  5
F1
330
2
100
AcDbEntity
  8
0
100
AcDbLine
 10
384.4466464226897
 20
211.0158438877756
 30
0.0
 11
384.8827536102508
 21
211.1417371670322
 31
0.0
  0
LINE
  5
F2
330
2
100
AcDbEntity
  8
0
100
AcDbLine
 10
384.8854293691561
 20
211.2899408029075
 30
0.0
 11
384.4466464226897
 21
211.1632750767894
 31
0.0
  0
LINE
  5
F3
330
2
100
AcDbEntity
  8
0
100
AcDbLine
 10
384.4466464226897
 20
211.1632750767894
 30
0.0
 11
384.4466464226897
 21
211.2299701493645
 31
0.0
  0
LINE
  5
F4
330
2
100
AcDbEntity
  8
0
100
AcDbLine
 10
384.5098312506744
 20
211.1990663029747
 30
0.0
 11
384.5098312506744
 21
211.2482100380909
 31
0.0
  0
LINE
  5
F5
330
2
100
AcDbEntity
  8
0
100
AcDbLine
 10
384.8827536102508
 20
211.1417371670322
 30
0.0
 11
384.8827536102508
 21
211.2166228539795
 31
0.0
  0
LINE
  5
F6
330
2
100
AcDbEntity
  8
0
100
AcDbLine
 10
384.8854293691561
 20
211.2899408029075
 30
0.0
 11
384.8827536102508
 21
211.2166228539795
 31
0.0
  0
LINE
  5
F7
330
2
100
AcDbEntity
  8
0
100
AcDbLine
 10
384.4466464226897
 20
211.1632750767894
 30
0.0
 11
384.4790728810435
 21
211.1000902651398
 31
0.0
  0
LINE
  5
F8
330
2
100
AcDbEntity
  8
0
100
AcDbLine
 10
384.8827536102508
 20
211.2166228539795
 30
0.0
 11
384.4790728810435
 21
211.1000902651398
 31
0.0
  0
LINE
  5
F9
330
2
100
AcDbEntity
  8
0
100
AcDbLine
 10
384.4790728810435
 20
211.1000902651398
 30
0.0
 11
384.4790728810435
 21
211.0252045782128
 31
0.0
  0
LINE
  5
FA
330
2
100
AcDbEntity
  8
0
100
AcDbLine
 10
393.3464067086857
 20
213.9886582417411
 30
0.0
 11
393.3878122496581
 21
213.9822569781301
 31
0.0
  0
LINE
  5
FB
330
2
100
AcDbEntity
  8
0
100
AcDbLine
 10
393.3464067086857
 20
214.0009174621592
 30
0.0
 11
393.3464067086857
 21
213.9886582417411
 31
0.0
  0
LINE
  5
FC
330
2
100
AcDbEntity
  8
0
100
AcDbLine
 10
393.3850284605528
 20
213.9949465711571
 30
0.0
 11
393.3464067086857
 21
214.0009174621592
 31
0.0
  0
LINE
  5
FD
330
2
100
AcDbEntity
  8
0
100
AcDbLine
 10
393.3873639570744
 20
214.0204944311276
 30
0.0
 11
393.3878122496581
 21
214.0194350416582
 31
0.0
  0
LWPOLYLINE
  5
FE
330
2
100
AcDbEntity
  8
0
100
AcDbPolyline
 90
        3
 70
   128
 43
0.0
 10
393.3878122496581
 20
213.9956065717605
 10
393.3871245883548
 20
213.9952059487638
 10
393.3850284605528
 20
213.9949465711571
  0
LINE
  5
FF
330
2
100
AcDbEntity
  8
0
100
AcDbLine
 10
393.3604659685979
 20
214.081547901971
 30
0.0
 11
393.3873639570744
 21
214.0204944311276
 31
0.0
  0
ARC
  5
100
330
2
100
AcDbEntity
  8
0
100
AcDbCircle
 10
393.4241066760046
 20
214.1098680592928
 30
0.0
 40
0.0696575261551656
100
AcDbArc
 50
181.0722382607026
 51
203.9890959521004
  0
LINE
  5
101
330
2
100
AcDbEntity
  8
0
100
AcDbLine
 10
393.3544613471294
 20
214.2253920449189
 30
0.0
 11
393.3544613471294
 21
214.1085645582885
 31
0.0
  0
LWPOLYLINE
  5
102
330
2
100
AcDbEntity
  8
0
100
AcDbPolyline
 90
        9
 70
   128
 43
0.0
 10
393.3706745857302
 20
214.239433105077
 10
393.3675115287603
 20
214.241632804644
 10
393.3644700436237
 20
214.2426687703557
 10
393.361666983475
 20
214.2425012243327
 10
393.3592101038627
 20
214.2411365741647
 10
393.3571937782194
 20
214.2386272904189
 10
393.3556955059596
 20
214.235069797826
 10
393.3547728737544
 20
214.2306008057802
 10
393.3544613471294
 20
214.2253920449189
  0
LINE
  5
103
330
2
100
AcDbEntity
  8
0
100
AcDbLine
 10
393.403859466563
 20
214.2106941552624
 30
0.0
 11
393.3706745857302
 21
214.239433105077
 31
0.0
  0
ARC
  5
104
330
2
100
AcDbEntity
  8
0
100
AcDbCircle
 10
393.3660652197353
 20
214.1736989557926
 30
0.0
 40
0.0528871428259787
100
AcDbArc
 50
13.23977054460077
 51
44.38787755620237
  0
ARC
  5
105
330
2
100
AcDbEntity
  8
0
100
AcDbCircle
 10
393.507565568738
 20
214.205778169252
 30
0.0
 40
0.0922067042019267
100
AcDbArc
 50
192.5060257775983
 51
225.3962690924003
  0
LINE
  5
106
330
2
100
AcDbEntity
  8
0
100
AcDbLine
 10
393.0304825687837
 20
213.9097180185471
 30
0.0
 11
393.0304825687837
 21
213.897458798129
 31
0.0
  0
LINE
  5
107
330
2
100
AcDbEntity
  8
0
100
AcDbLine
 10
393.0304825687837
 20
213.9097180185471
 30
0.0
 11
393.3464067086857
 21
214.0009174621592
 31
0.0
  0
LINE
  5
108
330
2
100
AcDbEntity
  8
0
100
AcDbLine
 10
393.0304825687837
 20
213.897458798129
 30
0.0
 11
393.3464067086857
 21
213.9886582417411
 31
0.0
  0
LINE
  5
109
330
2
100
AcDbEntity
  8
0
100
AcDbLine
 10
393.0304825687837
 20
213.897458798129
 30
0.0
 11
393.0718881097359
 21
213.8910575345181
 31
0.0
  0
LINE
  5
10A
330
2
100
AcDbEntity
  8
0
100
AcDbLine
 10
393.0445418286758
 20
213.9903484583589
 30
0.0
 11
393.0714398171724
 21
213.9292949875154
 31
0.0
  0
LINE
  5
10B
330
2
100
AcDbEntity
  8
0
100
AcDbLine
 10
393.0714398171724
 20
213.9292949875154
 30
0.0
 11
393.3873639570744
 21
214.0204944311276
 31
0.0
  0
ARC
  5
10C
330
2
100
AcDbEntity
  8
0
100
AcDbCircle
 10
393.1081825360822
 20
214.0186686156806
 30
0.0
 40
0.0696575261546897
100
AcDbArc
 50
181.0722382606
 51
203.9890959522039
  0
LINE
  5
10D
330
2
100
AcDbEntity
  8
0
100
AcDbLine
 10
393.0714398171724
 20
213.9292949875154
 30
0.0
 11
393.0718881097359
 21
213.928235598046
 31
0.0
  0
LINE
  5
10E
330
2
100
AcDbEntity
  8
0
100
AcDbLine
 10
393.0385372072071
 20
214.1341926013069
 30
0.0
 11
393.0385372072071
 21
214.0173651146765
 31
0.0
  0
LWPOLYLINE
  5
10F
330
2
100
AcDbEntity
  8
0
100
AcDbPolyline
 90
        7
 70
   128
 43
0.0
 10
393.0457569618295
 20
214.1513058590367
 10
393.0457428435729
 20
214.1513017807205
 10
393.0432859639605
 20
214.1499371305729
 10
393.0412696382969
 20
214.147427846807
 10
393.0397713660371
 20
214.1438703542138
 10
393.0388487338321
 20
214.1394013621884
 10
393.0385372072071
 20
214.1341926013069
  0
ARC
  5
110
330
2
100
AcDbEntity
  8
0
100
AcDbCircle
 10
391.9093375743767
 20
212.6583895748773
 30
0.0
 40
0.0229880278017716
100
AcDbArc
 50
219.8769850016994
 51
286.4843374546983
  0
LINE
  5
111
330
2
100
AcDbEntity
  8
0
100
AcDbLine
 10
391.8623593187213
 20
212.669270167298
 30
0.0
 11
391.8916960387966
 21
212.6436509981037
 31
0.0
  0
LINE
  5
112
330
2
100
AcDbEntity
  8
0
100
AcDbLine
 10
391.4865378711655
 20
213.5617595608108
 30
0.0
 11
391.4865488751039
 21
213.413031831152
 31
0.0
  0
ARC
  5
113
330
2
100
AcDbEntity
  8
0
100
AcDbCircle
 10
391.5878842010557
 20
213.0509162406072
 30
0.0
 40
0.1539679510258016
100
AcDbArc
 50
179.5440859340007
 51
222.4544297568996
  0
LINE
  5
114
330
2
100
AcDbEntity
  8
0
100
AcDbLine
 10
391.4338844320281
 20
213.5479540830365
 30
0.0
 11
391.4339211244081
 21
213.0521413817004
 31
0.0
  0
LINE
  5
115
330
2
100
AcDbEntity
  8
0
100
AcDbLine
 10
391.8390427129083
 20
212.6284512921662
 30
0.0
 11
391.8916960387966
 21
212.6436509981037
 31
0.0
  0
LINE
  5
116
330
2
100
AcDbEntity
  8
0
100
AcDbLine
 10
391.4742844242982
 20
212.946987319406
 30
0.0
 11
391.8390427129083
 21
212.6284512921662
 31
0.0
  0
ARC
  5
117
330
2
100
AcDbEntity
  8
0
100
AcDbCircle
 10
391.2422147318916
 20
212.9507742641206
 30
0.0
 40
0.0769249077136807
100
AcDbArc
 50
179.5302861382985
 51
222.511253511701
  0
LINE
  5
118
330
2
100
AcDbEntity
  8
0
100
AcDbLine
 10
391.4338974964448
 20
213.3655810083257
 30
0.0
 11
391.1652924091518
 21
213.2880413985911
 31
0.0
  0
LINE
  5
119
330
2
100
AcDbEntity
  8
0
100
AcDbLine
 10
391.5523342417336
 20
212.5795783894849
 30
0.0
 11
391.1855099492971
 21
212.8987934113076
 31
0.0
  0
SPLINE
  5
11A
330
2
100
AcDbEntity
  8
0
100
AcDbSpline
210
0.0
220
0.0
230
1.0
 70
     8
 71
     3
 72
    10
 73
     6
 74
     0
 42
0.000000001
 43
0.0000000001
 40
0.0
 40
0.0
 40
0.0
 40
0.0
 40
0.388940421579443
 40
0.7058517750153737
 40
1.0
 40
1.0
 40
1.0
 40
1.0
 10
391.1613235480635
 20
213.2824701453236
 30
0.0
 10
391.1614016236177
 20
213.283425312911
 30
0.0
 10
391.1615433156749
 20
213.285158757674
 30
0.0
 10
391.1631093476387
 20
213.2871278816059
 30
0.0
 10
391.1645830210177
 20
213.2877445502881
 30
0.0
 10
391.1652924091427
 20
213.2880413985901
 30
0.0
  0
LWPOLYLINE
  5
11B
330
2
100
AcDbEntity
  8
0
100
AcDbPolyline
 90
        7
 70
   128
 43
0.0
 10
391.439750475588
 20
213.5618644611282
 10
391.4397379616712
 20
213.5618608305404
 10
391.4377415865473
 20
213.5607513386892
 10
391.4361033585178
 20
213.5587115444384
 10
391.4348862246517
 20
213.5558198879544
 10
391.4341369752726
 20
213.5521875278203
 10
391.4338844320281
 20
213.5479540830365
  0
ARC
  5
11C
330
2
100
AcDbEntity
  8
0
100
AcDbCircle
 10
391.8570283874347
 20
212.6438071926374
 30
0.0
 40
0.023649274131037
100
AcDbArc
 50
220.4902051706972
 51
281.383544628605
  0
ARC
  5
11D
330
2
100
AcDbEntity
  8
0
100
AcDbCircle
 10
391.6404179951405
 20
213.0650920901895
 30
0.0
 40
0.1538522335090808
100
AcDbArc
 50
179.5350945264024
 51
222.5096489592048
  0
LINE
  5
11E
330
2
100
AcDbEntity
  8
0
100
AcDbLine
 10
391.8340567089158
 20
213.4633917391762
 30
0.0
 11
391.967447017556
 21
213.501898204471
 31
0.0
  0
LINE
  5
11F
330
2
100
AcDbEntity
  8
0
100
AcDbLine
 10
391.8340741302324
 20
213.2948838480615
 30
0.0
 11
391.8340567089158
 21
213.4633917391762
 31
0.0
  0
LINE
  5
120
330
2
100
AcDbEntity
  8
0
100
AcDbLine
 10
391.9674644388728
 20
213.3333903133562
 30
0.0
 11
391.8340741302324
 21
213.2948838480615
 31
0.0
  0
LINE
  5
121
330
2
100
AcDbEntity
  8
0
100
AcDbLine
 10
391.967447017556
 20
213.501898204471
 30
0.0
 11
391.9674644388728
 21
213.3333903133562
 31
0.0
  0
LINE
  5
122
330
2
100
AcDbEntity
  8
0
100
AcDbLine
 10
391.4865350965958
 20
213.4121290114107
 30
0.0
 11
391.4865708263558
 21
213.0663404537126
 31
0.0
  0
LINE
  5
123
330
2
100
AcDbEntity
  8
0
100
AcDbLine
 10
391.5270037360804
 20
212.9611319266849
 30
0.0
 11
391.8917656486307
 21
212.6436776747012
 31
0.0
  0
LWPOLYLINE
  5
124
330
2
100
AcDbEntity
  8
0
100
AcDbPolyline
 90
        9
 70
   128
 43
0.0
 10
391.4910474290733
 20
213.4228248230454
 10
391.4904967413391
 20
213.4226187168986
 10
391.4895008564912
 20
213.4219674450517
 10
391.4886275249646
 20
213.4209979338167
 10
391.4878916577407
 20
213.4197267579974
 10
391.4873058442296
 20
213.4181756413744
 10
391.4868801069015
 20
213.4163711134303
 10
391.4866217125054
 20
213.4143440189609
 10
391.4865350965958
 20
213.4121290114107
  0
LINE
  5
125
330
2
100
AcDbEntity
  8
0
100
AcDbLine
 10
391.5098195649527
 20
213.5096494681793
 30
0.0
 11
391.5098195649527
 21
213.4282438501043
 31
0.0
  0
LWPOLYLINE
  5
126
330
2
100
AcDbEntity
  8
0
100
AcDbPolyline
 90
        8
 70
   128
 43
0.0
 10
391.4923790945225
 20
213.5770855639267
 10
391.4903713945802
 20
213.5759734799653
 10
391.487515806186
 20
213.5710442108825
 10
391.4865130509624
 20
213.5631810356285
 10
391.487515806186
 20
213.553581038386
 10
391.4903713945802
 20
213.5437057446188
 10
391.4946451133476
 20
213.535058546907
 10
391.4996862955366
 20
213.5289559361313
  0
LINE
  5
127
330
2
100
AcDbEntity
  8
0
100
AcDbLine
 10
391.4996862955366
 20
213.5289559361313
 30
0.0
 11
391.5037395957476
 21
213.5254456751856
 31
0.0
  0
ARC
  5
128
330
2
100
AcDbEntity
  8
0
100
AcDbCircle
 10
391.4867673604963
 20
213.5098448566929
 30
0.0
 40
0.0230530324928894
100
AcDbArc
 50
359.5143775071004
 51
42.58911111580593
  0
ARC
  5
129
330
2
100
AcDbEntity
  8
0
100
AcDbCircle
 10
391.9096868118968
 20
212.6590683956543
 30
0.0
 40
0.0236229207379225
100
AcDbArc
 50
220.6560319039049
 51
281.3837993315001
  0
ARC
  5
12A
330
2
100
AcDbEntity
  8
0
100
AcDbCircle
 10
391.3241911282621
 20
212.9019674304464
 30
0.0
 40
0.153686695547212
100
AcDbArc
 50
179.5143497843013
 51
222.5891110121037
  0
LINE
  5
12B
330
2
100
AcDbEntity
  8
0
100
AcDbLine
 10
391.17050995355
 20
212.9102906479094
 30
0.0
 11
391.17050995355
 21
212.9032700933077
 31
0.0
  0
ARC
  5
12C
330
2
100
AcDbEntity
  8
0
100
AcDbCircle
 10
391.1678053043133
 20
213.0972264836897
 30
0.0
 40
0.017756036570623
100
AcDbArc
 50
111.7042586348033
 51
171.5194071388985
  0
LINE
  5
12D
330
2
100
AcDbEntity
  8
0
100
AcDbLine
 10
391.2110430312138
 20
212.7979621011435
 30
0.0
 11
391.2566427341416
 21
212.7584716000132
 31
0.0
  0
LWPOLYLINE
  5
12E
330
2
100
AcDbEntity
  8
0
100
AcDbPolyline
 90
        7
 70
   128
 43
0.0
 10
391.17050995355
 20
212.9102906479094
 10
391.1640513365961
 20
212.9079765394732
 10
391.1586191594131
 20
212.9050767110153
 10
391.1544233259954
 20
212.9017029194073
 10
391.1516241010253
 20
212.8979845428068
 10
391.1503307188997
 20
212.8940649534958
 10
391.1502434145153
 20
212.8927393049177
  0
LINE
  5
12F
330
2
100
AcDbEntity
  8
0
100
AcDbLine
 10
391.1693515864758
 20
213.3589793986822
 30
0.0
 11
391.1518002556035
 21
213.374179297091
 31
0.0
  0
LINE
  5
130
330
2
100
AcDbEntity
  8
0
100
AcDbLine
 10
391.2044535814918
 20
213.3542763331978
 30
0.0
 11
391.2077444011738
 21
213.3514263997346
 31
0.0
  0
LINE
  5
131
330
2
100
AcDbEntity
  8
0
100
AcDbLine
 10
391.2381442046997
 20
213.3602020674607
 30
0.0
 11
391.2044535814918
 21
213.3893790030286
 31
0.0
  0
LINE
  5
132
330
2
100
AcDbEntity
  8
0
100
AcDbLine
 10
386.2828464420132
 20
211.4365058516502
 30
0.0
 11
390.8009089615667
 21
212.7407581575897
 31
0.0
  0
LINE
  5
133
330
2
100
AcDbEntity
  8
0
100
AcDbLine
 10
386.3031129784738
 20
211.6509002216289
 30
0.0
 11
386.3164788810515
 21
211.6340951551186
 31
0.0
  0
LINE
  5
134
330
2
100
AcDbEntity
  8
0
100
AcDbLine
 10
386.3537793184809
 20
211.410569783436
 30
0.0
 11
386.3537793184809
 21
211.448125528425
 31
0.0
  0
SPLINE
  5
135
330
2
100
AcDbEntity
  8
0
100
AcDbSpline
210
0.0
220
0.0
230
1.0
 70
     8
 71
     3
 72
    10
 73
     6
 74
     0
 42
0.000000001
 43
0.0000000001
 40
0.0
 40
0.0
 40
0.0
 40
0.0
 40
0.0820161916443068
 40
0.3975071034994657
 40
1.0
 40
1.0
 40
1.0
 40
1.0
 10
386.3230502085047
 20
211.333832588959
 30
0.0
 10
386.3222748685079
 20
211.3333616329546
 30
0.0
 10
386.3185170354491
 20
211.3310790549241
 30
0.0
 10
386.3070350564393
 20
211.3312968962129
 30
0.0
 10
386.2953623087806
 20
211.3390647143612
 30
0.0
 10
386.2877012286146
 20
211.3441629036897
 30
0.0
  0
SPLINE
  5
136
330
2
100
AcDbEntity
  8
0
100
AcDbSpline
210
0.0
220
0.0
230
1.0
 70
     8
 71
     3
 72
    11
 73
     7
 74
     0
 42
0.000000001
 43
0.0000000001
 40
0.0
 40
0.0
 40
0.0
 40
0.0
 40
0.3666401583948299
 40
0.7330041225198432
 40
0.9236095829702895
 40
1.0
 40
1.0
 40
1.0
 40
1.0
 10
386.1842281460669
 20
211.6451743168539
 30
0.0
 10
386.1854090378749
 20
211.6583676465336
 30
0.0
 10
386.1877699319114
 20
211.6847443672055
 30
0.0
 10
386.2003934053808
 20
211.7038002624548
 30
0.0
 10
386.2111632501763
 20
211.7106739470435
 30
0.0
 10
386.2164643751543
 20
211.7106384143791
 30
0.0
 10
386.2179810845194
 20
211.7106282480984
 30
0.0
  0
ARC
  5
137
330
2
100
AcDbEntity
  8
0
100
AcDbCircle
 10
386.3497727748493
 20
211.4051622225546
 30
0.0
 40
0.0067300896527637
100
AcDbArc
 50
2.902957451401067
 51
53.46469381219766
  0
LINE
  5
138
330
2
100
AcDbEntity
  8
0
100
AcDbLine
 10
391.4742844242982
 20
212.946987319406
 30
0.0
 11
391.5260924682136
 21
212.9619430134391
 31
0.0
  0
LINE
  5
139
330
2
100
AcDbEntity
  8
0
100
AcDbLine
 10
391.4530218191925
 20
212.9760174363476
 30
0.0
 11
391.1855099492971
 21
212.8987934113076
 31
0.0
  0
LINE
  5
13A
330
2
100
AcDbEntity
  8
0
100
AcDbLine
 10
391.5523342417336
 20
212.5795783894849
 30
0.0
 11
391.8098732488624
 21
212.6539234970379
 31
0.0
  0
LWPOLYLINE
  5
13B
330
2
100
AcDbEntity
  8
0
100
AcDbPolyline
 90
        7
 70
   128
 43
0.0
 10
391.1612393243134
 20
212.9478917723058
 10
391.1612563416571
 20
212.9481597020865
 10
391.161515649547
 20
212.9489437978686
 10
391.1620754888785
 20
212.9496874781054
 10
391.1629144444497
 20
212.9503621776621
 10
391.1640008874334
 20
212.9509421368197
 10
391.1652924091518
 20
212.9514048915625
  0
ARC
  5
13C
330
2
100
AcDbEntity
  8
0
100
AcDbCircle
 10
391.183667837894
 20
212.9040592927102
 30
0.0
 40
0.0055787885160049
100
AcDbArc
 50
231.5523391912009
 51
289.2808655548034
  0
ARC
  5
13D
330
2
100
AcDbEntity
  8
0
100
AcDbCircle
 10
391.5504925865099
 20
212.5848515375551
 30
0.0
 40
0.0055854976954145
100
AcDbArc
 50
231.5872945265952
 51
289.2518348976011
  0
ARC
  5
13E
330
2
100
AcDbEntity
  8
0
100
AcDbCircle
 10
391.5612916941629
 20
212.5872680374128
 30
0.0
 40
0.0118053648556086
100
AcDbArc
 50
220.6448933195995
 51
281.3998283459966
  0
LINE
  5
13F
330
2
100
AcDbEntity
  8
0
100
AcDbLine
 10
391.5270037360804
 20
212.9611319266849
 30
0.0
 11
428.1074149827781
 21
223.520987066857
 31
0.0
  0
LINE
  5
140
330
2
100
AcDbEntity
  8
0
100
AcDbLine
 10
391.4996862955366
 20
213.5289559361313
 30
0.0
 11
393.050573684639
 21
213.9766585619336
 31
0.0
  0
LINE
  5
141
330
2
100
AcDbEntity
  8
0
100
AcDbLine
 10
393.3722024317697
 20
214.0695047838035
 30
0.0
 11
427.6406955961209
 21
223.9619666603899
 31
0.0
  0
ARC
  5
142
330
2
100
AcDbEntity
  8
0
100
AcDbCircle
 10
391.4513922170869
 20
213.0218721436879
 30
0.0
 40
0.2992728284601229
100
AcDbArc
 50
165.8189615260986
 51
194.1810384739014
  0
SPLINE
  5
143
330
2
100
AcDbEntity
  8
0
100
AcDbSpline
210
0.0
220
0.0
230
1.0
 70
     8
 71
     3
 72
    10
 73
     6
 74
     0
 42
0.000000001
 43
0.0000000001
 40
0.0
 40
0.0
 40
0.0
 40
0.0
 40
0.3207505941034391
 40
0.6665557628181091
 40
1.0
 40
1.0
 40
1.0
 40
1.0
 10
391.1446190529856
 20
212.920305375653
 30
0.0
 10
391.1451983009937
 20
212.9194251080713
 30
0.0
 10
391.1464020434181
 20
212.9175958131603
 30
0.0
 10
391.1550073655591
 20
212.9176200340849
 30
0.0
 10
391.1636766292577
 20
212.919770881708
 30
0.0
 10
391.1679323797902
 20
212.9208267350349
 30
0.0
  0
SPLINE
  5
144
330
2
100
AcDbEntity
  8
0
100
AcDbSpline
210
0.0
220
0.0
230
1.0
 70
     8
 71
     3
 72
     9
 73
     5
 74
     0
 42
0.000000001
 43
0.0000000001
 40
0.0
 40
0.0
 40
0.0
 40
0.0
 40
0.3257220231323902
 40
1.0
 40
1.0
 40
1.0
 40
1.0
 10
391.1612397556437
 20
213.1076434564455
 30
0.0
 10
391.1593482729153
 20
213.1067683601731
 30
0.0
 10
391.1535412270483
 20
213.1040817249134
 30
0.0
 10
391.1504343197452
 20
213.0982078089631
 30
0.0
 10
391.1483394005746
 20
213.0942471567998
 30
0.0
  0
SPLINE
  5
145
330
2
100
AcDbEntity
  8
0
100
AcDbSpline
210
0.0
220
0.0
230
1.0
 70
     8
 71
     3
 72
    10
 73
     6
 74
     0
 42
0.000000001
 43
0.0000000001
 40
0.0
 40
0.0
 40
0.0
 40
0.0
 40
0.1432595026834423
 40
0.9836018662979979
 40
1.0
 40
1.0
 40
1.0
 40
1.0
 10
391.1526105300596
 20
212.9076175678542
 30
0.0
 10
391.1527685193756
 20
212.9073847615542
 30
0.0
 10
391.1538532543005
 20
212.9057863425535
 30
0.0
 10
391.1559853984274
 20
212.904907899719
 30
0.0
 10
391.1579840100385
 20
212.9045354913553
 30
0.0
 10
391.158022263746
 20
212.9045283634068
 30
0.0
  0
LINE
  5
146
330
2
100
AcDbEntity
  8
0
100
AcDbLine
 10
391.17050995355
 20
212.9032700933077
 30
0.0
 11
391.176011609402
 21
212.9048582845377
 31
0.0
  0
LINE
  5
147
330
2
100
AcDbEntity
  8
0
100
AcDbLine
 10
391.2756621185925
 20
212.816616024895
 30
0.0
 11
391.2110430312138
 21
212.7979621011435
 31
0.0
  0
LWPOLYLINE
  5
148
330
2
100
AcDbEntity
  8
0
100
AcDbPolyline
 90
        7
 70
   128
 43
0.0
 10
391.1502468513144
 20
212.8854463944863
 10
391.1503307188997
 20
212.8870443988943
 10
391.1516241010253
 20
212.8909639882053
 10
391.1544233259954
 20
212.8946823648057
 10
391.1586191594131
 20
212.8980561564138
 10
391.1640513365961
 20
212.9009559848716
 10
391.17050995355
 20
212.9032700933077
  0
ARC
  5
149
330
2
100
AcDbEntity
  8
0
100
AcDbCircle
 10
391.201762825411
 20
212.8238744524445
 30
0.0
 40
0.0275240289504217
100
AcDbArc
 50
230.9449083159957
 51
289.7043916077975
  0
LINE
  5
14A
330
2
100
AcDbEntity
  8
0
100
AcDbLine
 10
391.2566427341416
 20
212.7584716000132
 30
0.0
 11
391.3210975773823
 21
212.7770781105495
 31
0.0
  0
ARC
  5
14B
330
2
100
AcDbEntity
  8
0
100
AcDbCircle
 10
391.2474350384359
 20
212.7848448429749
 30
0.0
 40
0.0279343803381539
100
AcDbArc
 50
231.6620167386951
 51
289.2456372172
  0
ARC
  5
14C
330
2
100
AcDbEntity
  8
0
100
AcDbCircle
 10
391.3038549604642
 20
212.8020499105221
 30
0.0
 40
0.0642500074726922
100
AcDbArc
 50
222.7079443727
 51
279.571434631404
  0
ARC
  5
14D
330
2
100
AcDbEntity
  8
0
100
AcDbCircle
 10
391.1671840457866
 20
213.1047392165172
 30
0.0
 40
0.0170735591396039
100
AcDbArc
 50
110.3779434700964
 51
172.8457223036991
  0
LINE
  5
14E
330
2
100
AcDbEntity
  8
0
100
AcDbLine
 10
393.3878122496581
 20
214.0194350416582
 30
0.0
 11
393.3878122496581
 21
213.9822569781301
 31
0.0
  0
LINE
  5
14F
330
2
100
AcDbEntity
  8
0
100
AcDbLine
 10
393.0718881097359
 20
213.8910575345181
 30
0.0
 11
393.3878122496581
 21
213.9822569781301
 31
0.0
  0
LINE
  5
150
330
2
100
AcDbEntity
  8
0
100
AcDbLine
 10
430.850561232196
 20
224.7849377677315
 30
0.0
 11
427.7247127950332
 21
223.8825830494124
 31
0.0
  0
LINE
  5
151
330
2
100
AcDbEntity
  8
0
100
AcDbLine
 10
428.962502113339
 20
224.3937783696631
 30
0.0
 11
427.5999675617223
 21
224.000448524585
 31
0.0
  0
LINE
  5
152
330
2
100
AcDbEntity
  8
0
100
AcDbLine
 10
428.4617158116057
 20
223.1862260949511
 30
0.0
 11
431.2783585771017
 21
223.9993208243861
 31
0.0
  0
LINE
  5
153
330
2
100
AcDbEntity
  8
0
100
AcDbLine
 10
428.1074149827781
 20
223.520987066857
 30
0.0
 11
430.8898799307029
 21
224.3242155102045
 31
0.0
  0
LINE
  5
154
330
2
100
AcDbEntity
  8
0
100
AcDbLine
 10
427.6406955961209
 20
223.9619666603899
 30
0.0
 11
428.9745380812234
 21
224.3470138193055
 31
0.0
  0
LINE
  5
155
330
2
100
AcDbEntity
  8
0
100
AcDbLine
 10
432.0188548466267
 20
224.9487431930182
 30
0.0
 11
431.7148568207916
 21
225.2120132060988
 31
0.0
  0
LINE
  5
156
330
2
100
AcDbEntity
  8
0
100
AcDbLine
 10
431.9832958408299
 20
224.440377028731
 30
0.0
 11
432.018398058109
 21
224.4505101660092
 31
0.0
  0
LINE
  5
157
330
2
100
AcDbEntity
  8
0
100
AcDbLine
 10
431.3345807065505
 20
225.1026586323838
 30
0.0
 11
431.3345807065505
 21
225.0675559635665
 31
0.0
  0
LINE
  5
158
330
2
100
AcDbEntity
  8
0
100
AcDbLine
 10
433.5369948264063
 20
224.7726451599493
 30
0.0
 11
434.3970106568473
 21
225.0209103455579
 31
0.0
  0
SPLINE
  5
159
330
2
100
AcDbEntity
  8
0
100
AcDbSpline
210
0.0
220
0.0
230
1.0
 70
     8
 71
     3
 72
    10
 73
     6
 74
     0
 42
0.000000001
 43
0.0000000001
 40
0.0
 40
0.0
 40
0.0
 40
0.0
 40
0.3371176324390126
 40
0.6842581558894728
 40
1.0
 40
1.0
 40
1.0
 40
1.0
 10
434.2950201663414
 20
225.2598221832288
 30
0.0
 10
434.291145914717
 20
225.2625808203028
 30
0.0
 10
434.2832822255571
 20
225.2681801118714
 30
0.0
 10
434.2689848133015
 20
225.2714516315386
 30
0.0
 10
434.259777579093
 20
225.2694998266172
 30
0.0
 10
434.2553920210358
 20
225.2685701496257
 30
0.0
  0
SPLINE
  5
15A
330
2
100
AcDbEntity
  8
0
100
AcDbSpline
210
0.0
220
0.0
230
1.0
 70
     8
 71
     3
 72
    15
 73
    11
 74
     0
 42
0.000000001
 43
0.0000000001
 40
0.0
 40
0.0
 40
0.0
 40
0.0
 40
0.1378841385153275
 40
0.2692342515722202
 40
0.3860638599066777
 40
0.4991446197577001
 40
0.6226665460070404
 40
0.7819253620277561
 40
0.9479365699895479
 40
1.0
 40
1.0
 40
1.0
 40
1.0
 10
434.2817651774855
 20
225.1772984520413
 30
0.0
 10
434.2862041197022
 20
225.178914542994
 30
0.0
 10
434.2948716524466
 20
225.1820701419105
 30
0.0
 10
434.3041926457273
 20
225.1917572215108
 30
0.0
 10
434.3100931535205
 20
225.2025413304344
 30
0.0
 10
434.3128660695743
 20
225.2142500526185
 30
0.0
 10
434.3126962129285
 20
225.2276912243574
 30
0.0
 10
434.3085319251304
 20
225.2425979690182
 30
0.0
 10
434.3016833463916
 20
225.2536197079276
 30
0.0
 10
434.2963043541302
 20
225.258626786589
 30
0.0
 10
434.2950201663414
 20
225.2598221832288
 30
0.0
  0
LINE
  5
15B
330
2
100
AcDbEntity
  8
0
100
AcDbLine
 10
434.2523941985276
 20
225.4081994108629
 30
0.0
 11
434.2881084083109
 21
225.4185092151791
 31
0.0
  0
LINE
  5
15C
330
2
100
AcDbEntity
  8
0
100
AcDbLine
 10
434.2733502944351
 20
225.7652064158831
 30
0.0
 11
433.4133344639937
 21
225.5169412302744
 31
0.0
  0
SPLINE
  5
15D
330
2
100
AcDbEntity
  8
0
100
AcDbSpline
210
0.0
220
0.0
230
1.0
 70
     8
 71
     3
 72
    10
 73
     6
 74
     0
 42
0.000000001
 43
0.0000000001
 40
0.0
 40
0.0
 40
0.0
 40
0.0
 40
0.3371177587646955
 40
0.6842581648241153
 40
1.0
 40
1.0
 40
1.0
 40
1.0
 10
434.2950201663414
 20
225.5617051322011
 30
0.0
 10
434.2911459156219
 20
225.5644637782717
 30
0.0
 10
434.2832822311422
 20
225.5700630860758
 30
0.0
 10
434.2689848116006
 20
225.5733345688962
 30
0.0
 10
434.2597775758301
 20
225.5713827857845
 30
0.0
 10
434.2553920163171
 20
225.5704531190303
 30
0.0
  0
SPLINE
  5
15E
330
2
100
AcDbEntity
  8
0
100
AcDbSpline
210
0.0
220
0.0
230
1.0
 70
     8
 71
     3
 72
    11
 73
     7
 74
     0
 42
0.000000001
 43
0.0000000001
 40
0.0
 40
0.0
 40
0.0
 40
0.0
 40
0.1922123192932505
 40
0.4658948475947608
 40
0.7450208935537753
 40
1.0
 40
1.0
 40
1.0
 40
1.0
 10
433.3198678936178
 20
224.7837777057805
 30
0.0
 10
433.3329671742521
 20
224.7786621580476
 30
0.0
 10
433.3647179349584
 20
224.7662628105966
 30
0.0
 10
433.4195649445216
 20
224.7585968661049
 30
0.0
 10
433.4796679763025
 20
224.758913364777
 30
0.0
 10
433.5181553026727
 20
224.7684641408774
 30
0.0
 10
433.5365289582033
 20
224.7730236332263
 30
0.0
  0
LINE
  5
15F
330
2
100
AcDbEntity
  8
0
100
AcDbLine
 10
434.2552204606977
 20
225.5706994024779
 30
0.0
 11
434.2520872682109
 21
225.5697949277107
 31
0.0
  0
LINE
  5
160
330
2
100
AcDbEntity
  8
0
100
AcDbLine
 10
434.3822525429716
 20
225.3676075094782
 30
0.0
 11
434.2520874872315
 21
225.3300320944994
 31
0.0
  0
SPLINE
  5
161
330
2
100
AcDbEntity
  8
0
100
AcDbSpline
210
0.0
220
0.0
230
1.0
 70
     8
 71
     3
 72
    15
 73
    11
 74
     0
 42
0.000000001
 43
0.0000000001
 40
0.0
 40
0.0
 40
0.0
 40
0.0
 40
0.1378840562115173
 40
0.2692343999666227
 40
0.3860638504108667
 40
0.4991447688471117
 40
0.6226665162750688
 40
0.7819254765144549
 40
0.9479366729528283
 40
1.0
 40
1.0
 40
1.0
 40
1.0
 10
434.2817651774855
 20
225.4791814010138
 30
0.0
 10
434.2862041223822
 20
225.4807974838092
 30
0.0
 10
434.2948716703104
 20
225.4839530704206
 30
0.0
 10
434.3041926289067
 20
225.4936401830766
 30
0.0
 10
434.3100931627128
 20
225.5044242868505
 30
0.0
 10
434.3128660656784
 20
225.5161330071444
 30
0.0
 10
434.3126962119696
 20
225.5295741846869
 30
0.0
 10
434.3085319260441
 20
225.544480926668
 30
0.0
 10
434.3016833553542
 20
225.5555026795945
 30
0.0
 10
434.2963043543514
 20
225.5605097413371
 30
0.0
 10
434.2950201663414
 20
225.5617051322011
 30
0.0
  0
LINE
  5
162
330
2
100
AcDbEntity
  8
0
100
AcDbLine
 10
434.2705575210732
 20
225.4755627766009
 30
0.0
 11
434.2817512304542
 21
225.4787941221687
 31
0.0
  0
SPLINE
  5
163
330
2
100
AcDbEntity
  8
0
100
AcDbSpline
210
0.0
220
0.0
230
1.0
 70
     8
 71
     3
 72
    11
 73
     7
 74
     0
 42
0.000000001
 43
0.0000000001
 40
0.0
 40
0.0
 40
0.0
 40
0.0
 40
0.2613727078849699
 40
0.5429371975291995
 40
0.8072150795249372
 40
1.0
 40
1.0
 40
1.0
 40
1.0
 10
433.4133270927121
 20
225.5161821525601
 30
0.0
 10
433.3949124036151
 20
225.5101865943231
 30
0.0
 10
433.3566604385474
 20
225.497732303999
 30
0.0
 10
433.3059124137866
 20
225.4657827120749
 30
0.0
 10
433.2642365866517
 20
225.4303476640966
 30
0.0
 10
433.2441642917154
 20
225.4036816243293
 30
0.0
 10
433.2356979808234
 20
225.3924341320193
 30
0.0
  0
LINE
  5
164
330
2
100
AcDbEntity
  8
0
100
AcDbLine
 10
433.2905769853243
 20
224.7410831342286
 30
0.0
 11
433.3256792026033
 21
224.7469061703358
 31
0.0
  0
LINE
  5
165
330
2
100
AcDbEntity
  8
0
100
AcDbLine
 10
433.2203715046685
 20
224.7294366946224
 30
0.0
 11
433.2554737219272
 21
224.7352597307297
 31
0.0
  0
LINE
  5
166
330
2
100
AcDbEntity
  8
0
100
AcDbLine
 10
433.1501660240127
 20
224.7177902550365
 30
0.0
 11
433.1852682412715
 21
224.7236132911438
 31
0.0
  0
LINE
  5
167
330
2
100
AcDbEntity
  8
0
100
AcDbLine
 10
433.2000431696839
 20
225.4202227610921
 30
0.0
 11
433.1649399062868
 21
225.4057792451334
 31
0.0
  0
LINE
  5
168
330
2
100
AcDbEntity
  8
0
100
AcDbLine
 10
432.6411775968704
 20
224.6333538637223
 30
0.0
 11
433.1150627606158
 21
224.7119668515375
 31
0.0
  0
LINE
  5
169
330
2
100
AcDbEntity
  8
0
100
AcDbLine
 10
433.1298376890281
 20
225.3913360556886
 30
0.0
 11
433.0947354717695
 21
225.3768928417417
 31
0.0
  0
LINE
  5
16A
330
2
100
AcDbEntity
  8
0
100
AcDbLine
 10
432.9894267276964
 20
225.3335626367346
 30
0.0
 11
432.5155415639713
 21
225.1385778731945
 31
0.0
  0
LINE
  5
16B
330
2
100
AcDbEntity
  8
0
100
AcDbLine
 10
433.0596322083724
 20
225.362449342138
 30
0.0
 11
433.0245299911136
 21
225.3480061281709
 31
0.0
  0
LINE
  5
16C
330
2
100
AcDbEntity
  8
0
100
AcDbLine
 10
432.4989805815754
 20
224.8701460430749
 30
0.0
 11
431.8674513747624
 21
224.687839264316
 31
0.0
  0
LINE
  5
16D
330
2
100
AcDbEntity
  8
0
100
AcDbLine
 10
431.7349199479332
 20
224.6495807368373
 30
0.0
 11
431.5129141681969
 21
224.5854931884786
 31
0.0
  0
LINE
  5
16E
330
2
100
AcDbEntity
  8
0
100
AcDbLine
 10
431.5410187938723
 20
224.4881359031403
 30
0.0
 11
431.8262606625116
 21
224.5704781379785
 31
0.0
  0
LINE
  5
16F
330
2
100
AcDbEntity
  8
0
100
AcDbLine
 10
431.8955560004377
 20
224.5904819789779
 30
0.0
 11
432.507784950749
 21
224.7672172536144
 31
0.0
  0
LINE
  5
170
330
2
100
AcDbEntity
  8
0
100
AcDbLine
 10
432.4989805815754
 20
224.961412975061
 30
0.0
 11
431.8674513747624
 21
224.7791061962816
 31
0.0
  0
LINE
  5
171
330
2
100
AcDbEntity
  8
0
100
AcDbLine
 10
431.6883216865151
 20
224.7273959094191
 30
0.0
 11
431.5129141681969
 21
224.6767601204645
 31
0.0
  0
LINE
  5
172
330
2
100
AcDbEntity
  8
0
100
AcDbLine
 10
429.2856460078632
 20
224.6128607071046
 30
0.0
 11
428.9697218679613
 21
224.5216612634925
 31
0.0
  0
LINE
  5
173
330
2
100
AcDbEntity
  8
0
100
AcDbLine
 10
431.2346220636772
 20
224.8513656848189
 30
0.0
 11
431.211243505031
 21
224.8482397008957
 31
0.0
  0
SPLINE
  5
174
330
2
100
AcDbEntity
  8
0
100
AcDbSpline
210
0.0
220
0.0
230
1.0
 70
     8
 71
     3
 72
    10
 73
     6
 74
     0
 42
0.000000001
 43
0.0000000001
 40
0.0
 40
0.0
 40
0.0
 40
0.0
 40
0.4375239125216758
 40
0.8002162343547052
 40
1.0
 40
1.0
 40
1.0
 40
1.0
 10
431.2490572042197
 20
224.9043904945376
 30
0.0
 10
431.2476974721024
 20
224.9053586174636
 30
0.0
 10
431.2452105686818
 20
224.9071292811006
 30
0.0
 10
431.2411245281138
 20
224.907943060114
 30
0.0
 10
431.2389701903548
 20
224.9072556587201
 30
0.0
 10
431.2382049992299
 20
224.9070115032048
 30
0.0
  0
LINE
  5
175
330
2
100
AcDbEntity
  8
0
100
AcDbLine
 10
431.238129193666
 20
224.9072031227022
 30
0.0
 11
430.9502866183314
 21
224.8241101285264
 31
0.0
  0
LINE
  5
176
330
2
100
AcDbEntity
  8
0
100
AcDbLine
 10
431.3986378041357
 20
224.7748498951017
 30
0.0
 11
431.2490572042267
 21
224.9043904945397
 31
0.0
  0
LINE
  5
177
330
2
100
AcDbEntity
  8
0
100
AcDbLine
 10
430.9090806016441
 20
224.9556817206818
 30
0.0
 11
430.8564272757559
 21
224.9404820147443
 31
0.0
  0
SPLINE
  5
178
330
2
100
AcDbEntity
  8
0
100
AcDbSpline
210
0.0
220
0.0
230
1.0
 70
     8
 71
     3
 72
    11
 73
     7
 74
     0
 42
0.000000001
 43
0.0000000001
 40
0.0
 40
0.0
 40
0.0
 40
0.0
 40
0.1945105074063493
 40
0.4401245690117079
 40
0.7430699896112603
 40
1.0
 40
1.0
 40
1.0
 40
1.0
 10
431.6088600667948
 20
224.1376177290273
 30
0.0
 10
431.6106181932799
 20
224.138275486585
 30
0.0
 10
431.614596357091
 20
224.139763813696
 30
0.0
 10
431.6187718893362
 20
224.1456582927103
 30
0.0
 10
431.6213005291078
 20
224.1530172234644
 30
0.0
 10
431.6215888898051
 20
224.1592665113607
 30
0.0
 10
431.6217212201643
 20
224.1621343450166
 30
0.0
  0
LINE
  5
179
330
2
100
AcDbEntity
  8
0
100
AcDbLine
 10
431.3208004392316
 20
224.0541394517231
 30
0.0
 11
431.6086430145664
 21
224.1372324458989
 31
0.0
  0
LINE
  5
17A
330
2
100
AcDbEntity
  8
0
100
AcDbLine
 10
431.6217212201546
 20
224.1621343450097
 30
0.0
 11
431.6217212201546
 21
224.3896261538835
 31
0.0
  0
LINE
  5
17B
330
2
100
AcDbEntity
  8
0
100
AcDbLine
 10
431.2783362895785
 20
224.0019185625501
 30
0.0
 11
431.3309896154666
 21
224.0171182684876
 31
0.0
  0
LINE
  5
17C
330
2
100
AcDbEntity
  8
0
100
AcDbLine
 10
430.8564052301226
 20
224.9405011068137
 30
0.0
 11
429.2784262532411
 21
224.4849778132776
 31
0.0
  0
SPLINE
  5
17D
330
2
100
AcDbEntity
  8
0
100
AcDbSpline
210
0.0
220
0.0
230
1.0
 70
     8
 71
     3
 72
    11
 73
     7
 74
     0
 42
0.000000001
 43
0.0000000001
 40
0.0
 40
0.0
 40
0.0
 40
0.0
 40
0.2362155331459947
 40
0.4820272013208676
 40
0.7373260840479499
 40
1.0
 40
1.0
 40
1.0
 40
1.0
 10
431.4742344407873
 20
224.731268365589
 30
0.0
 10
431.471981026542
 20
224.7329446749587
 30
0.0
 10
431.4673826542517
 20
224.7363653929074
 30
0.0
 10
431.459169673885
 20
224.7394609368499
 30
0.0
 10
431.4501182986774
 20
224.7408028583973
 30
0.0
 10
431.4440133487088
 20
224.7396205743254
 30
0.0
 10
431.4409174117812
 20
224.7390210154533
 30
0.0
  0
LINE
  5
17E
330
2
100
AcDbEntity
  8
0
100
AcDbLine
 10
431.5052263837362
 20
224.7044401265115
 30
0.0
 11
431.4727043770177
 21
224.732605010515
 31
0.0
  0
LINE
  5
17F
330
2
100
AcDbEntity
  8
0
100
AcDbLine
 10
431.4405987505269
 20
224.7389437317797
 30
0.0
 11
431.3352910525922
 21
224.7085440179129
 31
0.0
  0
SPLINE
  5
180
330
2
100
AcDbEntity
  8
0
100
AcDbSpline
210
0.0
220
0.0
230
1.0
 70
     8
 71
     3
 72
    13
 73
     9
 74
     0
 42
0.000000001
 43
0.0000000001
 40
0.0
 40
0.0
 40
0.0
 40
0.0
 40
0.1246806583777975
 40
0.2992630251745492
 40
0.4817764542790173
 40
0.6913547237894893
 40
0.9211603274450348
 40
1.0
 40
1.0
 40
1.0
 40
1.0
 10
431.5849815140415
 20
224.3653923654086
 30
0.0
 10
431.5917424688039
 20
224.3674738723157
 30
0.0
 10
431.607970356927
 20
224.3724699804692
 30
0.0
 10
431.626715686708
 20
224.3928564226332
 30
0.0
 10
431.6414990442538
 20
224.4206451601479
 30
0.0
 10
431.6497785100374
 20
224.457085595
 30
0.0
 10
431.6523829747484
 20
224.4911549100861
 30
0.0
 10
431.6496296096578
 20
224.513562385803
 30
0.0
 10
431.6489262961166
 20
224.5192861022648
 30
0.0
  0
SPLINE
  5
181
330
2
100
AcDbEntity
  8
0
100
AcDbSpline
210
0.0
220
0.0
230
1.0
 70
     8
 71
     3
 72
     9
 73
     5
 74
     0
 42
0.000000001
 43
0.0000000001
 40
0.0
 40
0.0
 40
0.0
 40
0.0
 40
0.6135885244915251
 40
1.0
 40
1.0
 40
1.0
 40
1.0
 10
431.5880613023605
 20
224.6984532322545
 30
0.0
 10
431.5813456183256
 20
224.7082970241696
 30
0.0
 10
431.5704006873716
 20
224.7243400098545
 30
0.0
 10
431.5577435893972
 20
224.7359385525996
 30
0.0
 10
431.5528527414932
 20
224.7404203626156
 30
0.0
  0
LINE
  5
182
330
2
100
AcDbEntity
  8
0
100
AcDbLine
 10
431.4789052098008
 20
224.3331483563248
 30
0.0
 11
431.5842129077356
 21
224.3635480701915
 31
0.0
  0
SPLINE
  5
183
330
2
100
AcDbEntity
  8
0
100
AcDbSpline
210
0.0
220
0.0
230
1.0
 70
     8
 71
     3
 72
    11
 73
     7
 74
     0
 42
0.000000001
 43
0.0000000001
 40
0.0
 40
0.0
 40
0.0
 40
0.0
 40
0.1543660223893071
 40
0.5150852215213597
 40
0.8628718838183051
 40
1.0
 40
1.0
 40
1.0
 40
1.0
 10
431.506674808482
 20
224.7791701510845
 30
0.0
 10
431.50484723949
 20
224.7811174778682
 30
0.0
 10
431.4987490466072
 20
224.7876152759733
 30
0.0
 10
431.4843333433886
 20
224.7930073422893
 30
0.0
 10
431.4688267806118
 20
224.7952624964499
 30
0.0
 10
431.4606915283907
 20
224.7921103505624
 30
0.0
 10
431.4583909760848
 20
224.7912189612983
 30
0.0
  0
LINE
  5
184
330
2
100
AcDbEntity
  8
0
100
AcDbLine
 10
431.4582339652179
 20
224.7920538330935
 30
0.0
 11
431.3529262672829
 21
224.7616541192269
 31
0.0
  0
LINE
  5
185
330
2
100
AcDbEntity
  8
0
100
AcDbLine
 10
431.5528527414915
 20
224.7404203626223
 30
0.0
 11
431.5072530385637
 21
224.7799108637525
 31
0.0
  0
LINE
  5
186
330
2
100
AcDbEntity
  8
0
100
AcDbLine
 10
431.7234247161176
 20
224.7351717532937
 30
0.0
 11
431.7234247161176
 21
225.1915064520138
 31
0.0
  0
LINE
  5
187
330
2
100
AcDbEntity
  8
0
100
AcDbLine
 10
432.0274227419321
 20
224.4719017402132
 30
0.0
 11
432.0274227419321
 21
224.6285486147103
 31
0.0
  0
LINE
  5
188
330
2
100
AcDbEntity
  8
0
100
AcDbLine
 10
432.0274227419321
 20
224.8252859522416
 30
0.0
 11
432.0274227419321
 21
224.9282364389334
 31
0.0
  0
LWPOLYLINE
  5
189
330
2
100
AcDbEntity
  8
0
100
AcDbPolyline
 90
        9
 70
   128
 43
0.0
 10
432.0274227419321
 20
224.4719017402132
 10
432.0270333289441
 20
224.4653907789121
 10
432.0258800481219
 20
224.4598045490846
 10
432.0240072172311
 20
224.4553576731391
 10
432.0214868148788
 20
224.4522210725101
 10
432.018415687056
 20
224.4505152659612
 10
432.0149118760161
 20
224.4503058334073
 10
432.011110014868
 20
224.4516008007611
 10
432.0071562031203
 20
224.4543504027543
  0
LINE
  5
18A
330
2
100
AcDbEntity
  8
0
100
AcDbLine
 10
431.7436912360612
 20
224.6825177572116
 30
0.0
 11
432.0071562031203
 21
224.4543504027543
 31
0.0
  0
ARC
  5
18B
330
2
100
AcDbEntity
  8
0
100
AcDbCircle
 10
431.8002652821125
 20
224.7345203933683
 30
0.0
 40
0.0768433266692908
100
AcDbArc
 50
179.5143284029005
 51
222.5890966166
  0
ARC
  5
18C
330
2
100
AcDbEntity
  8
0
100
AcDbCircle
 10
431.7651630648541
 20
224.7243872560698
 30
0.0
 40
0.0768433266688053
100
AcDbArc
 50
179.5143284027963
 51
222.5890966166968
  0
LINE
  5
18D
330
2
100
AcDbEntity
  8
0
100
AcDbLine
 10
431.3548472503073
 20
225.1202099712816
 30
0.0
 11
431.688322498859
 21
225.2164759835328
 31
0.0
  0
ARC
  5
18E
330
2
100
AcDbEntity
  8
0
100
AcDbCircle
 10
431.6977067224121
 20
225.1925101944406
 30
0.0
 40
0.0257375736756428
100
AcDbArc
 50
357.7649488640054
 51
111.3836953594966
  0
ARC
  5
18F
330
2
100
AcDbEntity
  8
0
100
AcDbCircle
 10
431.6754633827478
 20
225.1643237872143
 30
0.0
 40
0.0128689035088734
100
AcDbArc
 50
357.7652534195014
 51
111.3879238778048
  0
LINE
  5
190
330
2
100
AcDbEntity
  8
0
100
AcDbLine
 10
431.3548472503073
 20
225.0851073024641
 30
0.0
 11
431.6707703440708
 21
225.1763064440645
 31
0.0
  0
LINE
  5
191
330
2
100
AcDbEntity
  8
0
100
AcDbLine
 10
431.688322498859
 20
224.7250386159953
 30
0.0
 11
431.688322498859
 21
225.1638219797898
 31
0.0
  0
LINE
  5
192
330
2
100
AcDbEntity
  8
0
100
AcDbLine
 10
431.9720539858413
 20
224.444217265456
 30
0.0
 11
432.0071562031203
 21
224.4543504027543
 31
0.0
  0
LINE
  5
193
330
2
100
AcDbEntity
  8
0
100
AcDbLine
 10
431.7085890188026
 20
224.6723846199131
 30
0.0
 11
431.9720539858413
 21
224.444217265456
 31
0.0
  0
ARC
  5
194
330
2
100
AcDbEntity
  8
0
100
AcDbCircle
 10
432.0010752437737
 20
224.9292714779576
 30
0.0
 40
0.0263678206465474
100
AcDbArc
 50
357.7503409136994
 51
47.6008284993049
  0
LWPOLYLINE
  5
195
330
2
100
AcDbEntity
  8
0
100
AcDbPolyline
 90
        8
 70
   128
 43
0.0
 10
431.6883224139218
 20
225.0314969371441
 10
431.6759641410952
 20
225.0337327860089
 10
431.6459796660857
 20
225.0347154599736
 10
431.6175258376876
 20
225.0298861187122
 10
431.594934259015
 20
225.0199799202215
 10
431.5816430166317
 20
225.0065046226953
 10
431.5796777300084
 20
224.9915123320821
 10
431.5893376198287
 20
224.9772855048468
  0
ARC
  5
196
330
2
100
AcDbEntity
  8
0
100
AcDbCircle
 10
431.6565659442904
 20
225.0812168670711
 30
0.0
 40
0.1237795446216725
100
AcDbArc
 50
237.1030660799062
 51
284.8658280506935
  0
LINE
  5
197
330
2
100
AcDbEntity
  8
0
100
AcDbLine
 10
431.6183854346034
 20
224.8163427828358
 30
0.0
 11
431.6883220015384
 21
224.755775939214
 31
0.0
  0
LINE
  5
198
330
2
100
AcDbEntity
  8
0
100
AcDbLine
 10
431.4284945013951
 20
225.0010594295328
 30
0.0
 11
431.6311598519584
 21
224.8255460874925
 31
0.0
  0
LINE
  5
199
330
2
100
AcDbEntity
  8
0
100
AcDbLine
 10
431.4109433927657
 20
224.9959928608937
 30
0.0
 11
431.4284945013951
 21
225.0010594295328
 31
0.0
  0
LINE
  5
19A
330
2
100
AcDbEntity
  8
0
100
AcDbLine
 10
431.4109433927657
 20
224.9959928608937
 30
0.0
 11
431.3400105068536
 21
225.0574225420502
 31
0.0
  0
LWPOLYLINE
  5
19B
330
2
100
AcDbEntity
  8
0
100
AcDbPolyline
 90
        9
 70
   128
 43
0.0
 10
431.3400105068536
 20
225.0574225420502
 10
431.3367314749588
 20
225.0610414138524
 10
431.3349266876638
 20
225.0649104386437
 10
431.3346669695185
 20
225.0688813060591
 10
431.3359613789142
 20
225.0728012137169
 10
431.3387606133084
 20
225.0765195821297
 10
431.3429564373022
 20
225.0798933819253
 10
431.3483875683263
 20
225.0827929083915
 10
431.3548472503073
 20
225.0851073024641
  0
ARC
  5
19C
330
2
100
AcDbEntity
  8
0
100
AcDbCircle
 10
431.9812213974708
 20
224.4526790748516
 30
0.0
 40
0.0124757225902177
100
AcDbArc
 50
222.7079836637934
 51
279.571508171896
  0
LWPOLYLINE
  5
19D
330
2
100
AcDbEntity
  8
0
100
AcDbPolyline
 90
        7
 70
   128
 43
0.0
 10
431.3548472503073
 20
225.1202099712816
 10
431.3483875683263
 20
225.117895577209
 10
431.3429564373022
 20
225.1149960507428
 10
431.3387606133084
 20
225.111622250947
 10
431.3359613789142
 20
225.1079038825343
 10
431.3346669695185
 20
225.1039839748765
 10
431.3345807065505
 20
225.1026586323838
  0
LINE
  5
19E
330
2
100
AcDbEntity
  8
0
100
AcDbLine
 10
431.5893376198287
 20
225.0123881736642
 30
0.0
 11
431.5874843015785
 21
225.0140898327071
 31
0.0
  0
LINE
  5
19F
330
2
100
AcDbEntity
  8
0
100
AcDbLine
 10
431.255798580695
 20
224.8985524071251
 30
0.0
 11
431.3582900668777
 21
224.9281391507064
 31
0.0
  0
ARC
  5
1A0
330
2
100
AcDbEntity
  8
0
100
AcDbCircle
 10
431.3509027077635
 20
224.9519902485356
 30
0.0
 40
0.0249689395555691
100
AcDbArc
 50
287.2092307659954
 51
357.1690582599998
  0
LINE
  5
1A1
330
2
100
AcDbEntity
  8
0
100
AcDbLine
 10
431.375841175507
 20
224.9507570537441
 30
0.0
 11
431.375841175507
 21
224.9858597235951
 31
0.0
  0
ARC
  5
1A2
330
2
100
AcDbEntity
  8
0
100
AcDbCircle
 10
431.4235444403464
 20
224.9840693921363
 30
0.0
 40
0.0477368491183537
100
AcDbArc
 50
138.1890291352988
 51
177.8506646272996
  0
ARC
  5
1A3
330
2
100
AcDbEntity
  8
0
100
AcDbCircle
 10
431.4358818604484
 20
224.9772083317644
 30
0.0
 40
0.0249689394763232
100
AcDbArc
 50
107.2092307004059
 51
177.1690595791022
  0
LINE
  5
1A4
330
2
100
AcDbEntity
  8
0
100
AcDbLine
 10
431.4109433927657
 20
224.943338856644
 30
0.0
 11
431.4109433927657
 21
224.978441525968
 31
0.0
  0
ARC
  5
1A5
330
2
100
AcDbEntity
  8
0
100
AcDbCircle
 10
431.361066457299
 20
224.9458052461863
 30
0.0
 40
0.0499378791109947
100
AcDbArc
 50
287.2092307658996
 51
357.1690582601986
  0
LINE
  5
1A6
330
2
100
AcDbEntity
  8
0
100
AcDbLine
 10
431.375841175507
 20
224.8981030505282
 30
0.0
 11
431.2861983938677
 21
224.8722254084658
 31
0.0
  0
ARC
  5
1A7
330
2
100
AcDbEntity
  8
0
100
AcDbCircle
 10
431.5637318078421
 20
224.7702919041462
 30
0.0
 40
0.049937879111162
100
AcDbArc
 50
287.2092307659954
 51
357.1690582599998
  0
LINE
  5
1A8
330
2
100
AcDbEntity
  8
0
100
AcDbLine
 10
431.5785065260704
 20
224.722589708488
 30
0.0
 11
431.571546549562
 21
224.7205805363237
 31
0.0
  0
LINE
  5
1A9
330
2
100
AcDbEntity
  8
0
100
AcDbLine
 10
431.6136087433289
 20
224.7678255145837
 30
0.0
 11
431.6136087433289
 21
224.8029281839279
 31
0.0
  0
ARC
  5
1AA
330
2
100
AcDbEntity
  8
0
100
AcDbCircle
 10
431.6385472110118
 20
224.8016949897242
 30
0.0
 40
0.0249689394762041
100
AcDbArc
 50
107.209230700205
 51
177.1690595793011
  0
LINE
  5
1AB
330
2
100
AcDbEntity
  8
0
100
AcDbLine
 10
434.2858350094878
 20
225.4185156718338
 30
0.0
 11
434.2656591540793
 21
225.4237575169226
 31
0.0
  0
LWPOLYLINE
  5
1AC
330
2
100
AcDbEntity
  8
0
100
AcDbPolyline
 90
        9
 70
   128
 43
0.0
 10
434.2656591540793
 20
225.4237575169226
 10
434.2627994509907
 20
225.4240588382526
 10
434.2601666876624
 20
225.4234283829747
 10
434.2578233770129
 20
225.4218811239856
 10
434.255825180495
 20
225.4194538560513
 10
434.254219558484
 20
225.4162041741125
 10
434.2530446472696
 20
225.4122092556292
 10
434.2523283530807
 20
225.4075640296821
 10
434.2520876820131
 20
225.4023787824606
  0
LINE
  5
1AD
330
2
100
AcDbEntity
  8
0
100
AcDbLine
 10
434.2520876820131
 20
225.3140773498236
 30
0.0
 11
434.2520876820131
 21
225.4023787824606
 31
0.0
  0
ARC
  5
1AE
330
2
100
AcDbEntity
  8
0
100
AcDbCircle
 10
434.5671341381096
 20
225.3114068785994
 30
0.0
 40
0.315057773936575
100
AcDbArc
 50
179.5143476040003
 51
222.5891034482952
  0
LWPOLYLINE
  5
1AF
330
2
100
AcDbEntity
  8
0
100
AcDbPolyline
 90
        9
 70
   128
 43
0.0
 10
434.3351804756514
 20
225.0981959516211
 10
434.3513910600048
 20
225.0869225822714
 10
434.3669786825507
 20
225.0816132166459
 10
434.3813443192396
 20
225.0824718670537
 10
434.3939359098065
 20
225.0894656572024
 10
434.4042695646531
 20
225.1023256792884
 10
434.4119481698728
 20
225.1205578196118
 10
434.4166766457624
 20
225.1434613537088
 10
434.4182732739918
 20
225.1701562092811
  0
LINE
  5
1B0
330
2
100
AcDbEntity
  8
0
100
AcDbLine
 10
434.4182732598455
 20
225.2584578503188
 30
0.0
 11
434.4182732598455
 21
225.1701562215423
 31
0.0
  0
ARC
  5
1B1
330
2
100
AcDbEntity
  8
0
100
AcDbCircle
 10
434.3329299684881
 20
225.257147828334
 30
0.0
 40
0.0853533452010276
100
AcDbArc
 50
0.8794228101992858
 51
32.76696944519716
  0
LINE
  5
1B2
330
2
100
AcDbEntity
  8
0
100
AcDbLine
 10
434.4047017830572
 20
225.303343068008
 30
0.0
 11
434.3845259382685
 21
225.3330468203918
 31
0.0
  0
ARC
  5
1B3
330
2
100
AcDbEntity
  8
0
100
AcDbCircle
 10
434.4204118270699
 20
225.3561444340271
 30
0.0
 40
0.042676653701449
100
AcDbArc
 50
180.8794374878987
 51
212.7669758525014
  0
LINE
  5
1B4
330
2
100
AcDbEntity
  8
0
100
AcDbLine
 10
434.3777402004621
 20
225.3554894123847
 30
0.0
 11
434.3777402004621
 21
225.356911739228
 31
0.0
  0
LWPOLYLINE
  5
1B5
330
2
100
AcDbEntity
  8
0
100
AcDbPolyline
 90
        9
 70
   128
 43
0.0
 10
434.3777402004621
 20
225.356911739228
 10
434.3778605359958
 20
225.3595043465037
 10
434.3782186848535
 20
225.361826957927
 10
434.378806139873
 20
225.3638244340303
 10
434.379608950301
 20
225.3654492591716
 10
434.3806080461988
 20
225.3666628951754
 10
434.3817797015135
 20
225.3674365246701
 10
434.3830960867241
 20
225.3677517492486
 10
434.3845259382685
 20
225.3676010885939
  0
LINE
  5
1B6
330
2
100
AcDbEntity
  8
0
100
AcDbLine
 10
434.3845259382685
 20
225.3676010885939
 30
0.0
 11
434.4047017830572
 21
225.362359252686
 31
0.0
  0
LWPOLYLINE
  5
1B7
330
2
100
AcDbEntity
  8
0
100
AcDbPolyline
 90
        9
 70
   128
 43
0.0
 10
434.4047017830572
 20
225.362359252686
 10
434.4075614861457
 20
225.3620579313762
 10
434.4101942589184
 20
225.3626883784866
 10
434.4125375648458
 20
225.3642356088594
 10
434.4145357613635
 20
225.3666629094837
 10
434.4161413786527
 20
225.3699125954959
 10
434.4173162898671
 20
225.3739074813095
 10
434.4180325887781
 20
225.3785527031426
 10
434.4182732598455
 20
225.3837379503641
  0
LINE
  5
1B8
330
2
100
AcDbEntity
  8
0
100
AcDbLine
 10
434.4182732598455
 20
225.472119216654
 30
0.0
 11
434.4182732598455
 21
225.3837379503641
 31
0.0
  0
ARC
  5
1B9
330
2
100
AcDbEntity
  8
0
100
AcDbCircle
 10
434.1032353313399
 20
225.4747141331191
 30
0.0
 40
0.3150486152684208
100
AcDbArc
 50
359.5280746004007
 51
42.58958053819616
  0
LWPOLYLINE
  5
1BA
330
2
100
AcDbEntity
  8
0
100
AcDbPolyline
 90
        9
 70
   128
 43
0.0
 10
434.3351804756514
 20
225.6879207934851
 10
434.318969877132
 20
225.6991941832634
 10
434.3033822398519
 20
225.7045035453018
 10
434.2890165919557
 20
225.7036448351279
 10
434.2764249990178
 20
225.6966510633813
 10
434.2660913370981
 20
225.6837909902032
 10
434.2584127389514
 20
225.6655588274044
 10
434.25368428193
 20
225.6426552115725
 10
434.2520876820131
 20
225.6159603151428
  0
LINE
  5
1BB
330
2
100
AcDbEntity
  8
0
100
AcDbLine
 10
434.2520876820131
 20
225.5276588825057
 30
0.0
 11
434.2520876820131
 21
225.6159603151428
 31
0.0
  0
ARC
  5
1BC
330
2
100
AcDbEntity
  8
0
100
AcDbCircle
 10
434.337430991408
 20
225.5289689402612
 30
0.0
 40
0.0853533637835209
100
AcDbArc
 50
180.8794466263991
 51
212.7669606032966
  0
LINE
  5
1BD
330
2
100
AcDbEntity
  8
0
100
AcDbLine
 10
434.2656591540793
 20
225.4827737016206
 30
0.0
 11
434.2858350094878
 21
225.4530699400158
 31
0.0
  0
ARC
  5
1BE
330
2
100
AcDbEntity
  8
0
100
AcDbCircle
 10
434.2499490959002
 20
225.429972313369
 30
0.0
 40
0.042676681588117
100
AcDbArc
 50
0.8794509730979369
 51
32.76697255149633
  0
LINE
  5
1BF
330
2
100
AcDbEntity
  8
0
100
AcDbLine
 10
434.2926207502329
 20
225.4306273454893
 30
0.0
 11
434.2926207502329
 21
225.4292050186259
 31
0.0
  0
LWPOLYLINE
  5
1C0
330
2
100
AcDbEntity
  8
0
100
AcDbPolyline
 90
        9
 70
   128
 43
0.0
 10
434.2926207502329
 20
225.4292050186259
 10
434.292500414699
 20
225.4266123786803
 10
434.2921422676045
 20
225.424289765717
 10
434.2915548119973
 20
225.4222923228102
 10
434.290752001002
 20
225.4206674981958
 10
434.2897529027328
 20
225.4194538315287
 10
434.2885812474184
 20
225.4186802347241
 10
434.2872648610321
 20
225.4183650111789
 10
434.2858350094878
 20
225.4185156718338
  0
LWPOLYLINE
  5
1C1
330
2
100
AcDbEntity
  8
0
100
AcDbPolyline
 90
       13
 70
   128
 43
0.0
 10
434.2237145333148
 20
225.6475527209677
 10
434.2275126383849
 20
225.6942322789783
 10
434.2386481345542
 20
225.7311521826956
 10
434.2563621463257
 20
225.7557964056157
 10
434.2794475056585
 20
225.7664854683926
 10
434.3063309653597
 20
225.7624909532135
 10
434.3351804756514
 20
225.7440850637874
 10
434.3640299853352
 20
225.7125221361452
 10
434.3909134479951
 20
225.6699531306801
 10
434.4139988002551
 20
225.6192790587263
 10
434.4317128167488
 20
225.5639532633335
 10
434.4428483128978
 20
225.5077461145139
 10
434.4466464226897
 20
225.4544880414484
  0
LINE
  5
1C2
330
2
100
AcDbEntity
  8
0
100
AcDbLine
 10
434.4466464226897
 20
225.1385640159509
 30
0.0
 11
434.4466464226897
 21
225.4544880414484
 31
0.0
  0
LWPOLYLINE
  5
1C3
330
2
100
AcDbEntity
  8
0
100
AcDbPolyline
 90
       13
 70
   128
 43
0.0
 10
434.4466464226897
 20
225.1385640159509
 10
434.4428483128978
 20
225.0918844456788
 10
434.4317128167488
 20
225.0549645910067
 10
434.4139988002551
 20
225.030320364013
 10
434.3909134479951
 20
225.0196312480971
 10
434.3640299853352
 20
225.0236257645735
 10
434.3351804756514
 20
225.0420317109282
 10
434.3063309653597
 20
225.0735945816619
 10
434.2794475056585
 20
225.1161635858098
 10
434.2563621463257
 20
225.1668377108821
 10
434.2386481345542
 20
225.2221635103687
 10
434.2275126383849
 20
225.2783706101432
 10
434.2237145333148
 20
225.33162869547
  0
LINE
  5
1C4
330
2
100
AcDbEntity
  8
0
100
AcDbLine
 10
434.2237145333148
 20
225.6475527209677
 30
0.0
 11
434.2237145333148
 21
225.33162869547
 31
0.0
  0
LINE
  5
1C5
330
2
100
AcDbEntity
  8
0
100
AcDbLine
 10
433.3636987028734
 20
225.0833630848722
 30
0.0
 11
433.4233737275913
 21
225.1005902056526
 31
0.0
  0
LINE
  5
1C6
330
2
100
AcDbEntity
  8
0
100
AcDbLine
 10
433.4233737275913
 20
225.1005902056526
 30
0.0
 11
433.7041946040963
 21
225.181656209995
 31
0.0
  0
LINE
  5
1C7
330
2
100
AcDbEntity
  8
0
100
AcDbLine
 10
433.7041946040963
 20
225.181656209995
 30
0.0
 11
434.2237145333148
 21
225.33162869547
 31
0.0
  0
LINE
  5
1C8
330
2
100
AcDbEntity
  8
0
100
AcDbLine
 10
433.7041946040963
 20
225.181656209995
 30
0.0
 11
433.7041946040963
 21
225.4975802354722
 31
0.0
  0
LINE
  5
1C9
330
2
100
AcDbEntity
  8
0
100
AcDbLine
 10
434.2237145333148
 20
225.6475527209677
 30
0.0
 11
433.7041946040963
 21
225.4975802354722
 31
0.0
  0
LINE
  5
1CA
330
2
100
AcDbEntity
  8
0
100
AcDbLine
 10
433.7041946040963
 20
225.4975802354722
 30
0.0
 11
433.4233737275913
 21
225.4165142311501
 31
0.0
  0
LINE
  5
1CB
330
2
100
AcDbEntity
  8
0
100
AcDbLine
 10
433.4233737275913
 20
225.4165142311501
 30
0.0
 11
433.3636987028734
 21
225.3992879767032
 31
0.0
  0
ARC
  5
1CC
330
2
100
AcDbEntity
  8
0
100
AcDbCircle
 10
433.4768586424284
 20
224.9888401619142
 30
0.0
 40
0.2588674342770706
100
AcDbArc
 50
176.117078080698
 51
232.9259054028986
  0
ARC
  5
1CD
330
2
100
AcDbEntity
  8
0
100
AcDbCircle
 10
433.4456299798763
 20
224.75369253071
 30
0.0
 40
0.3396977277441521
100
AcDbArc
 50
103.9567131247086
 51
131.9415602770034
  0
LINE
  5
1CE
330
2
100
AcDbEntity
  8
0
100
AcDbLine
 10
433.4233737275913
 20
225.1005902056526
 30
0.0
 11
433.4233737275913
 21
225.4165142311501
 31
0.0
  0
LINE
  5
1CF
330
2
100
AcDbEntity
  8
0
100
AcDbLine
 10
433.3636987028734
 20
225.3992875353588
 30
0.0
 11
433.3636987028734
 21
225.0833635098614
 31
0.0
  0
LINE
  5
1D0
330
2
100
AcDbEntity
  8
0
100
AcDbLine
 10
433.2185853513989
 20
225.006370196873
 30
0.0
 11
433.2185853513989
 21
225.3222942223502
 31
0.0
  0
ARC
  5
1D1
330
2
100
AcDbEntity
  8
0
100
AcDbCircle
 10
433.4456285731559
 20
225.069625730544
 30
0.0
 40
0.3396918479895406
100
AcDbArc
 50
103.9567151057967
 51
131.9421324241007
  0
SPLINE
  5
1D2
330
2
100
AcDbEntity
  8
0
100
AcDbSpline
210
0.0
220
0.0
230
1.0
 70
     8
 71
     3
 72
    13
 73
     9
 74
     0
 42
0.000000001
 43
0.0000000001
 40
0.0
 40
0.0
 40
0.0
 40
0.0
 40
0.2419843082959984
 40
0.3688463119657643
 40
0.4993222481250302
 40
0.7091575939723726
 40
0.8445530618364928
 40
1.0
 40
1.0
 40
1.0
 40
1.0
 10
433.2240161787757
 20
224.8251361729872
 30
0.0
 10
433.2188366463608
 20
224.8305891180283
 30
0.0
 10
433.2109417070467
 20
224.8389008084929
 30
0.0
 10
433.2015207286528
 20
224.8559639541001
 30
0.0
 10
433.1938172975838
 20
224.8735580510944
 30
0.0
 10
433.1878530760619
 20
224.893254557478
 30
0.0
 10
433.1841245804018
 20
224.9139380212915
 30
0.0
 10
433.1837065376923
 20
224.9250385396334
 30
0.0
 10
433.183483105834
 20
224.9309714488395
 30
0.0
  0
LINE
  5
1D3
330
2
100
AcDbEntity
  8
0
100
AcDbLine
 10
433.1834831058282
 20
224.9309714488386
 30
0.0
 11
433.1834831058282
 21
225.3775291522243
 31
0.0
  0
SPLINE
  5
1D4
330
2
100
AcDbEntity
  8
0
100
AcDbSpline
210
0.0
220
0.0
230
1.0
 70
     8
 71
     3
 72
    13
 73
     9
 74
     0
 42
0.000000001
 43
0.0000000001
 40
0.0
 40
0.0
 40
0.0
 40
0.0
 40
0.1554252224336965
 40
0.290813182552121
 40
0.5006775711271933
 40
0.6311396391804776
 40
0.7579973492626563
 40
1.0
 40
1.0
 40
1.0
 40
1.0
 10
433.183483105834
 20
225.3775291522327
 30
0.0
 10
433.1837064692099
 20
225.3830581613658
 30
0.0
 10
433.1841244001815
 20
225.3934033853723
 30
0.0
 10
433.187852503407
 20
225.4075637490388
 30
0.0
 10
433.1938166456342
 20
225.4170704638859
 30
0.0
 10
433.2015201722532
 20
225.421274753337
 30
0.0
 10
433.2109410018701
 20
225.4220110028276
 30
0.0
 10
433.2188362490533
 20
225.4166658851737
 30
0.0
 10
433.2240161787757
 20
225.4131590495846
 30
0.0
  0
LINE
  5
1D5
330
2
100
AcDbEntity
  8
0
100
AcDbLine
 10
433.2407221268029
 20
225.3986912741852
 30
0.0
 11
433.22401617877
 21
225.4131590495923
 31
0.0
  0
SPLINE
  5
1D6
330
2
100
AcDbEntity
  8
0
100
AcDbSpline
210
0.0
220
0.0
230
1.0
 70
     8
 71
     3
 72
    13
 73
     9
 74
     0
 42
0.000000001
 43
0.0000000001
 40
0.0
 40
0.0
 40
0.0
 40
0.0
 40
0.0059434516331864
 40
0.165293850732045
 40
0.4123025123111349
 40
0.56585512983955
 40
0.7151650858828266
 40
1.0
 40
1.0
 40
1.0
 40
1.0
 10
433.3444419631018
 20
224.7750864387737
 30
0.0
 10
433.3444290985464
 20
224.7749127253805
 30
0.0
 10
433.3440713212709
 20
224.7700815670806
 30
0.0
 10
433.3409505586163
 20
224.7607408343619
 30
0.0
 10
433.3353430543802
 20
224.7509809898711
 30
0.0
 10
433.3275539493065
 20
224.74681937348
 30
0.0
 10
433.3181359185775
 20
224.7460668384909
 30
0.0
 10
433.3102537047837
 20
224.7514192258693
 30
0.0
 10
433.3050823211205
 20
224.75493083433
 30
0.0
  0
LINE
  5
1D7
330
2
100
AcDbEntity
  8
0
100
AcDbLine
 10
433.22401617877
 20
224.8251361729784
 30
0.0
 11
433.3050823211271
 21
224.7549308343302
 31
0.0
  0
SPLINE
  5
1D8
330
2
100
AcDbEntity
  8
0
100
AcDbSpline
210
0.0
220
0.0
230
1.0
 70
     8
 71
     3
 72
    13
 73
     9
 74
     0
 42
0.000000001
 43
0.0000000001
 40
0.0
 40
0.0
 40
0.0
 40
0.0
 40
0.2419844515531855
 40
0.3688465303265559
 40
0.4993225437289113
 40
0.7091580138009257
 40
0.8445535701249179
 40
1.0
 40
1.0
 40
1.0
 40
1.0
 10
433.1538106981133
 20
224.8134897333909
 30
0.0
 10
433.1486311711177
 20
224.81894267999
 30
0.0
 10
433.140736240064
 20
224.8272543728292
 30
0.0
 10
433.1313152217167
 20
224.8443175069511
 30
0.0
 10
433.1236119473668
 20
224.8619116489972
 30
0.0
 10
433.1176468980176
 20
224.8816079177803
 30
0.0
 10
433.1139207813792
 20
224.902292039745
 30
0.0
 10
433.1135016424946
 20
224.9133922240315
 30
0.0
 10
433.1132776251713
 20
224.9193249438594
 30
0.0
  0
LINE
  5
1D9
330
2
100
AcDbEntity
  8
0
100
AcDbLine
 10
433.1132776251721
 20
224.9193249438526
 30
0.0
 11
433.1132776251721
 21
225.3486424468411
 31
0.0
  0
SPLINE
  5
1DA
330
2
100
AcDbEntity
  8
0
100
AcDbSpline
210
0.0
220
0.0
230
1.0
 70
     8
 71
     3
 72
    13
 73
     9
 74
     0
 42
0.000000001
 43
0.0000000001
 40
0.0
 40
0.0
 40
0.0
 40
0.0
 40
0.1554252147781365
 40
0.2908131868673458
 40
0.5006775811249914
 40
0.6311396291927128
 40
0.7579973427098638
 40
1.0
 40
1.0
 40
1.0
 40
1.0
 10
433.1132776251713
 20
225.3486424468428
 30
0.0
 10
433.1135015726565
 20
225.354171624795
 30
0.0
 10
433.1139205965698
 20
225.3645171653388
 30
0.0
 10
433.1176463254025
 20
225.3786768412005
 30
0.0
 10
433.1236112943682
 20
225.3881837979991
 30
0.0
 10
433.1313146661206
 20
225.3923880352304
 30
0.0
 10
433.1407355347021
 20
225.3931242978633
 30
0.0
 10
433.1486307737367
 20
225.3877791774849
 30
0.0
 10
433.1538106981133
 20
225.3842723401082
 30
0.0
  0
SPLINE
  5
1DB
330
2
100
AcDbEntity
  8
0
100
AcDbSpline
210
0.0
220
0.0
230
1.0
 70
     8
 71
     3
 72
    11
 73
     7
 74
     0
 42
0.000000001
 43
0.0000000001
 40
0.0
 40
0.0
 40
0.0
 40
0.0
 40
0.2521820895689171
 40
0.4475706398312883
 40
0.637561015062202
 40
1.0
 40
1.0
 40
1.0
 40
1.0
 10
433.2697369837254
 20
224.7489956785763
 30
0.0
 10
433.2678660924596
 20
224.7453004527906
 30
0.0
 10
433.264545650463
 20
224.7387421973173
 30
0.0
 10
433.2573259884024
 20
224.7352231938742
 30
0.0
 10
433.2479421590125
 20
224.7343941149709
 30
0.0
 10
433.240052864768
 20
224.7397623754288
 30
0.0
 10
433.2348768404576
 20
224.7432843947338
 30
0.0
  0
LINE
  5
1DC
330
2
100
AcDbEntity
  8
0
100
AcDbLine
 10
433.1538106981143
 20
224.8134897333925
 30
0.0
 11
433.2348768404513
 21
224.7432843947241
 31
0.0
  0
SPLINE
  5
1DD
330
2
100
AcDbEntity
  8
0
100
AcDbSpline
210
0.0
220
0.0
230
1.0
 70
     8
 71
     3
 72
    13
 73
     9
 74
     0
 42
0.000000001
 43
0.0000000001
 40
0.0
 40
0.0
 40
0.0
 40
0.0
 40
0.2419844494479604
 40
0.3688465271176515
 40
0.4993225393848871
 40
0.7091579936996234
 40
0.8445529830250757
 40
1.0
 40
1.0
 40
1.0
 40
1.0
 10
433.0836052174507
 20
224.8018432937949
 30
0.0
 10
433.0784256756782
 20
224.8072962361395
 30
0.0
 10
433.0705307221013
 20
224.8156079224938
 30
0.0
 10
433.0611098126909
 20
224.8326710879799
 30
0.0
 10
433.0534061112593
 20
224.8502651064736
 30
0.0
 10
433.0474433259778
 20
224.8699620009596
 30
0.0
 10
433.043714835625
 20
224.8906454516474
 30
0.0
 10
433.043296000377
 20
224.9017457183756
 30
0.0
 10
433.0430721445088
 20
224.9076785042633
 30
0.0
  0
LINE
  5
1DE
330
2
100
AcDbEntity
  8
0
100
AcDbLine
 10
433.0430721445164
 20
224.9076785042667
 30
0.0
 11
433.0430721445164
 21
225.3197557414578
 31
0.0
  0
SPLINE
  5
1DF
330
2
100
AcDbEntity
  8
0
100
AcDbSpline
210
0.0
220
0.0
230
1.0
 70
     8
 71
     3
 72
    13
 73
     9
 74
     0
 42
0.000000001
 43
0.0000000001
 40
0.0
 40
0.0
 40
0.0
 40
0.0
 40
0.1554251469260927
 40
0.2908131239845181
 40
0.5006775259449273
 40
0.6311396258373369
 40
0.7579973267336877
 40
1.0
 40
1.0
 40
1.0
 40
1.0
 10
433.0430721445088
 20
225.3197557414529
 30
0.0
 10
433.0432960921853
 20
225.3252849164024
 30
0.0
 10
433.0437151165504
 20
225.335630453608
 30
0.0
 10
433.0474408444092
 20
225.3497901286432
 30
0.0
 10
433.0534058159532
 20
225.3592970802337
 30
0.0
 10
433.061109183221
 20
225.3635013332546
 30
0.0
 10
433.0705300556321
 20
225.3642375837593
 30
0.0
 10
433.0784252935268
 20
225.3588924687632
 30
0.0
 10
433.0836052174507
 20
225.3553856347181
 30
0.0
  0
SPLINE
  5
1E0
330
2
100
AcDbEntity
  8
0
100
AcDbSpline
210
0.0
220
0.0
230
1.0
 70
     8
 71
     3
 72
    11
 73
     7
 74
     0
 42
0.000000001
 43
0.0000000001
 40
0.0
 40
0.0
 40
0.0
 40
0.0
 40
0.2521820895689171
 40
0.4475706398312883
 40
0.637561015062202
 40
1.0
 40
1.0
 40
1.0
 40
1.0
 10
433.1995315030627
 20
224.7373492389801
 30
0.0
 10
433.1976606117968
 20
224.7336540131945
 30
0.0
 10
433.1943401698005
 20
224.727095757721
 30
0.0
 10
433.1871205077398
 20
224.723576754278
 30
0.0
 10
433.1777366783497
 20
224.7227476753747
 30
0.0
 10
433.1698473841051
 20
224.7281159358324
 30
0.0
 10
433.1646713597951
 20
224.7316379551377
 30
0.0
  0
LINE
  5
1E1
330
2
100
AcDbEntity
  8
0
100
AcDbLine
 10
433.0836052174583
 20
224.8018432937863
 30
0.0
 11
433.1646713597956
 21
224.7316379551381
 31
0.0
  0
ARC
  5
1E2
330
2
100
AcDbEntity
  8
0
100
AcDbCircle
 10
433.3296444329427
 20
225.3335022462689
 30
0.0
 40
0.1116231256313502
100
AcDbArc
 50
147.4321183995
 51
185.7627905994
  0
SPLINE
  5
1E3
330
2
100
AcDbEntity
  8
0
100
AcDbSpline
210
0.0
220
0.0
230
1.0
 70
     8
 71
     3
 72
    13
 73
     9
 74
     0
 42
0.000000001
 43
0.0000000001
 40
0.0
 40
0.0
 40
0.0
 40
0.0
 40
0.2419843782498375
 40
0.3688464185934037
 40
0.4993223924712006
 40
0.7091577850468852
 40
0.8445527345356078
 40
1.0
 40
1.0
 40
1.0
 40
1.0
 10
433.0133997367879
 20
224.7901968541986
 30
0.0
 10
433.0082201950155
 20
224.7956497965438
 30
0.0
 10
433.0003252414381
 20
224.8039614828986
 30
0.0
 10
432.9909043320292
 20
224.8210246483821
 30
0.0
 10
432.9832006305909
 20
224.8386186668863
 30
0.0
 10
432.9772378453461
 20
224.8583155613161
 30
0.0
 10
432.9735093526974
 20
224.8789990243197
 30
0.0
 10
432.9730905190539
 20
224.8900993009508
 30
0.0
 10
432.9728666638461
 20
224.8960320973589
 30
0.0
  0
LINE
  5
1E4
330
2
100
AcDbEntity
  8
0
100
AcDbLine
 10
432.9728666638405
 20
224.8960320973504
 30
0.0
 11
432.9728666638405
 21
225.2908690278869
 31
0.0
  0
SPLINE
  5
1E5
330
2
100
AcDbEntity
  8
0
100
AcDbSpline
210
0.0
220
0.0
230
1.0
 70
     8
 71
     3
 72
    13
 73
     9
 74
     0
 42
0.000000001
 43
0.0000000001
 40
0.0
 40
0.0
 40
0.0
 40
0.0
 40
0.1554252177894542
 40
0.290813184196929
 40
0.5006775685908073
 40
0.6311396153940936
 40
0.7579973486460087
 40
1.0
 40
1.0
 40
1.0
 40
1.0
 10
432.9728666638461
 20
225.2908690278899
 30
0.0
 10
432.9730904429142
 20
225.2963981571698
 30
0.0
 10
432.9735091516942
 20
225.3067436063486
 30
0.0
 10
432.9772373830882
 20
225.3209040049953
 30
0.0
 10
432.9831993480006
 20
225.3304100955402
 30
0.0
 10
432.99090513638
 20
225.3346150279775
 30
0.0
 10
433.0003255402129
 20
225.3353511660187
 30
0.0
 10
433.008220195632
 20
225.3300058721432
 30
0.0
 10
433.0133997367879
 20
225.3264989211551
 30
0.0
  0
SPLINE
  5
1E6
330
2
100
AcDbEntity
  8
0
100
AcDbSpline
210
0.0
220
0.0
230
1.0
 70
     8
 71
     3
 72
    11
 73
     7
 74
     0
 42
0.000000001
 43
0.0000000001
 40
0.0
 40
0.0
 40
0.0
 40
0.0
 40
0.2521815504375838
 40
0.4475702387495521
 40
0.6375607537384324
 40
1.0
 40
1.0
 40
1.0
 40
1.0
 10
433.1293260224
 20
224.725702734
 30
0.0
 10
433.1274549617626
 20
224.7220074872978
 30
0.0
 10
433.1241342150437
 20
224.7154491865579
 30
0.0
 10
433.1169163891243
 20
224.711930706321
 30
0.0
 10
433.1075322017382
 20
224.7111015263943
 30
0.0
 10
433.0996423011973
 20
224.7164696113788
 30
0.0
 10
433.0944658791326
 20
224.7199915155414
 30
0.0
  0
LINE
  5
1E7
330
2
100
AcDbEntity
  8
0
100
AcDbLine
 10
433.0133997367824
 20
224.7901968542004
 30
0.0
 11
433.0944658791397
 21
224.719991515532
 31
0.0
  0
SPLINE
  5
1E8
330
2
100
AcDbEntity
  8
0
100
AcDbSpline
210
0.0
220
0.0
230
1.0
 70
     8
 71
     3
 72
    13
 73
     9
 74
     0
 42
0.000000001
 43
0.0000000001
 40
0.0
 40
0.0
 40
0.0
 40
0.0
 40
0.1554252170035766
 40
0.2908132524170067
 40
0.5006776357497463
 40
0.6311397289296476
 40
0.7579973924324479
 40
1.0
 40
1.0
 40
1.0
 40
1.0
 10
432.498980453979
 20
224.8174188075429
 30
0.0
 10
432.4992042333238
 20
224.8114868840117
 30
0.0
 10
432.4996229427219
 20
224.8003877714709
 30
0.0
 10
432.5033511712438
 20
224.7797044927771
 30
0.0
 10
432.5093131409418
 20
224.7600068498525
 30
0.0
 10
432.5170189224635
 20
224.7424129575946
 30
0.0
 10
432.5264393336663
 20
224.7253493736261
 30
0.0
 10
432.5343339866834
 20
224.7170371185393
 30
0.0
 10
432.5395135269205
 20
224.7115835970744
 30
0.0
  0
LINE
  5
1E9
330
2
100
AcDbEntity
  8
0
100
AcDbLine
 10
433.0133997367824
 20
224.7901968542004
 30
0.0
 11
432.539513526919
 21
224.7115835970834
 31
0.0
  0
LINE
  5
1EA
330
2
100
AcDbEntity
  8
0
100
AcDbLine
 10
432.4989804539772
 20
224.8174188075436
 30
0.0
 11
432.4989804539772
 21
225.0958839705228
 31
0.0
  0
SPLINE
  5
1EB
330
2
100
AcDbEntity
  8
0
100
AcDbSpline
210
0.0
220
0.0
230
1.0
 70
     8
 71
     3
 72
     9
 73
     5
 74
     0
 42
0.000000001
 43
0.0000000001
 40
0.0
 40
0.0
 40
0.0
 40
0.0
 40
0.7148411828112407
 40
1.0
 40
1.0
 40
1.0
 40
1.0
 10
433.2699790577185
 20
224.7491074962264
 30
0.0
 10
433.2751935385231
 20
224.7454150373618
 30
0.0
 10
433.2824881389603
 20
224.740249611875
 30
0.0
 10
433.2887505050017
 20
224.7411236490171
 30
0.0
 10
433.290536273895
 20
224.7413728884148
 30
0.0
  0
LINE
  5
1EC
330
2
100
AcDbEntity
  8
0
100
AcDbLine
 10
432.539513526919
 20
224.7115835970834
 30
0.0
 11
432.6205796692561
 21
224.6413782584149
 31
0.0
  0
SPLINE
  5
1ED
330
2
100
AcDbEntity
  8
0
100
AcDbSpline
210
0.0
220
0.0
230
1.0
 70
     8
 71
     3
 72
     9
 73
     5
 74
     0
 42
0.000000001
 43
0.0000000001
 40
0.0
 40
0.0
 40
0.0
 40
0.0
 40
0.7148411828112407
 40
1.0
 40
1.0
 40
1.0
 40
1.0
 10
433.1997735770557
 20
224.7374610566302
 30
0.0
 10
433.2049880578605
 20
224.7337685977655
 30
0.0
 10
433.2122826582973
 20
224.728603172279
 30
0.0
 10
433.2185450243392
 20
224.729477209421
 30
0.0
 10
433.2203307932324
 20
224.7297264488186
 30
0.0
  0
SPLINE
  5
1EE
330
2
100
AcDbEntity
  8
0
100
AcDbSpline
210
0.0
220
0.0
230
1.0
 70
     8
 71
     3
 72
     9
 73
     5
 74
     0
 42
0.000000001
 43
0.0000000001
 40
0.0
 40
0.0
 40
0.0
 40
0.0
 40
0.7148412813898908
 40
1.0
 40
1.0
 40
1.0
 40
1.0
 10
433.1295691425345
 20
224.7258148536451
 30
0.0
 10
433.134783149226
 20
224.7221222875413
 30
0.0
 10
433.142077085415
 20
224.7169567127488
 30
0.0
 10
433.1483395236946
 20
224.7178307654688
 30
0.0
 10
433.1501253125698
 20
224.7180800092223
 30
0.0
  0
SPLINE
  5
1EF
330
2
100
AcDbEntity
  8
0
100
AcDbSpline
210
0.0
220
0.0
230
1.0
 70
     8
 71
     3
 72
     9
 73
     5
 74
     0
 42
0.000000001
 43
0.0000000001
 40
0.0
 40
0.0
 40
0.0
 40
0.0
 40
0.1644559263865486
 40
1.0
 40
1.0
 40
1.0
 40
1.0
 10
433.165065284019
 20
225.4054916851522
 30
0.0
 10
433.1634011729843
 20
225.4047308938877
 30
0.0
 10
433.1581936407235
 20
225.4023501362514
 30
0.0
 10
433.1527764376274
 20
225.3930452997418
 30
0.0
 10
433.1511470837246
 20
225.3860642034784
 30
0.0
  0
SPLINE
  5
1F0
330
2
100
AcDbEntity
  8
0
100
AcDbSpline
210
0.0
220
0.0
230
1.0
 70
     8
 71
     3
 72
     9
 73
     5
 74
     0
 42
0.000000001
 43
0.0000000001
 40
0.0
 40
0.0
 40
0.0
 40
0.0
 40
0.7148411828112407
 40
1.0
 40
1.0
 40
1.0
 40
1.0
 10
432.6205796692653
 20
224.6413782584173
 30
0.0
 10
432.6257941500697
 20
224.6376857995526
 30
0.0
 10
432.6330887505068
 20
224.632520374066
 30
0.0
 10
432.6393511165484
 20
224.6333944112082
 30
0.0
 10
432.6411368854416
 20
224.6336436506055
 30
0.0
  0
SPLINE
  5
1F1
330
2
100
AcDbEntity
  8
0
100
AcDbSpline
210
0.0
220
0.0
230
1.0
 70
     8
 71
     3
 72
     9
 73
     5
 74
     0
 42
0.000000001
 43
0.0000000001
 40
0.0
 40
0.0
 40
0.0
 40
0.0
 40
0.1644559299754905
 40
1.0
 40
1.0
 40
1.0
 40
1.0
 10
433.0948598033565
 20
225.3766049797622
 30
0.0
 10
433.0931956922502
 20
225.3758441886414
 30
0.0
 10
433.0879881587439
 20
225.3734634309876
 30
0.0
 10
433.0825709580211
 20
225.3641585866321
 30
0.0
 10
433.0809416047649
 20
225.357177495423
 30
0.0
  0
SPLINE
  5
1F2
330
2
100
AcDbEntity
  8
0
100
AcDbSpline
210
0.0
220
0.0
230
1.0
 70
     8
 71
     3
 72
    11
 73
     7
 74
     0
 42
0.000000001
 43
0.0000000001
 40
0.0
 40
0.0
 40
0.0
 40
0.0
 40
0.1644558467303011
 40
0.514634975400699
 40
0.7405859283506758
 40
1.0
 40
1.0
 40
1.0
 40
1.0
 10
432.5156658955658
 20
225.1382900112264
 30
0.0
 10
432.5140017842668
 20
225.1375292233075
 30
0.0
 10
432.5087942474452
 20
225.1351484744341
 30
0.0
 10
432.503377053183
 20
225.1258436179742
 30
0.0
 10
432.4996170583589
 20
225.1117786034491
 30
0.0
 10
432.4992021897058
 20
225.1014202315
 30
0.0
 10
432.498980453979
 20
225.0958839705279
 30
0.0
  0
SPLINE
  5
1F3
330
2
100
AcDbEntity
  8
0
100
AcDbSpline
210
0.0
220
0.0
230
1.0
 70
     8
 71
     3
 72
     9
 73
     5
 74
     0
 42
0.000000001
 43
0.0000000001
 40
0.0
 40
0.0
 40
0.0
 40
0.0
 40
0.1644559286237048
 40
1.0
 40
1.0
 40
1.0
 40
1.0
 10
433.0246543226937
 20
225.3477182743722
 30
0.0
 10
433.022990658535
 20
225.3469576122524
 30
0.0
 10
433.0177845235829
 20
225.3445772582435
 30
0.0
 10
433.0123651826484
 20
225.3352717967816
 30
0.0
 10
433.0107361313443
 20
225.3282909675131
 30
0.0
  0
LINE
  5
1F4
330
2
100
AcDbEntity
  8
0
100
AcDbLine
 10
428.9544474748953
 20
224.2678142025851
 30
0.0
 11
428.9958530158677
 21
224.261412938974
 31
0.0
  0
LINE
  5
1F5
330
2
100
AcDbEntity
  8
0
100
AcDbLine
 10
428.9544474748953
 20
224.2678142025851
 30
0.0
 11
429.2703716148177
 21
224.3590136461972
 31
0.0
  0
LINE
  5
1F6
330
2
100
AcDbEntity
  8
0
100
AcDbLine
 10
429.2703716148177
 20
224.3590136461972
 30
0.0
 11
429.3117771557696
 21
224.352612382586
 31
0.0
  0
LINE
  5
1F7
330
2
100
AcDbEntity
  8
0
100
AcDbLine
 10
428.9544474748953
 20
224.280073423003
 30
0.0
 11
428.9544474748953
 21
224.2678142025851
 31
0.0
  0
LINE
  5
1F8
330
2
100
AcDbEntity
  8
0
100
AcDbLine
 10
428.9544474748953
 20
224.280073423003
 30
0.0
 11
429.2703716148177
 21
224.3712728666152
 31
0.0
  0
LINE
  5
1F9
330
2
100
AcDbEntity
  8
0
100
AcDbLine
 10
429.2703716148177
 20
224.3712728666152
 30
0.0
 11
429.2703716148177
 21
224.3590136461972
 31
0.0
  0
LINE
  5
1FA
330
2
100
AcDbEntity
  8
0
100
AcDbLine
 10
429.3089933666645
 20
224.3653019756131
 30
0.0
 11
429.2703716148177
 21
224.3712728666152
 31
0.0
  0
LINE
  5
1FB
330
2
100
AcDbEntity
  8
0
100
AcDbLine
 10
429.3113288632064
 20
224.3908498355833
 30
0.0
 11
429.3117771557696
 21
224.3897904461141
 31
0.0
  0
LWPOLYLINE
  5
1FC
330
2
100
AcDbEntity
  8
0
100
AcDbPolyline
 90
        3
 70
   128
 43
0.0
 10
429.3117771557696
 20
224.3659619762164
 10
429.3110894944867
 20
224.3655613532197
 10
429.3089933666645
 20
224.3653019756131
  0
LINE
  5
1FD
330
2
100
AcDbEntity
  8
0
100
AcDbLine
 10
429.2844308747095
 20
224.451903306427
 30
0.0
 11
429.3113288632064
 21
224.3908498355833
 31
0.0
  0
ARC
  5
1FE
330
2
100
AcDbEntity
  8
0
100
AcDbCircle
 10
429.3480715821364
 20
224.4802234637284
 30
0.0
 40
0.0696575261548633
100
AcDbArc
 50
181.0722382605983
 51
203.9890959521004
  0
LINE
  5
1FF
330
2
100
AcDbEntity
  8
0
100
AcDbLine
 10
429.2784262532411
 20
224.5957474493749
 30
0.0
 11
429.2784262532411
 21
224.4789199627445
 31
0.0
  0
LWPOLYLINE
  5
200
330
2
100
AcDbEntity
  8
0
100
AcDbPolyline
 90
        9
 70
   128
 43
0.0
 10
429.294639491862
 20
224.609788509533
 10
429.2914764348924
 20
224.6119882090999
 10
429.2884349497555
 20
224.6130241748114
 10
429.285631889607
 20
224.6128566287887
 10
429.2831750099946
 20
224.6114919786207
 10
429.2811586843309
 20
224.6089826948749
 10
429.279660412071
 20
224.6054252022819
 10
429.2787377798661
 20
224.6009562102363
 10
429.2784262532411
 20
224.5957474493749
  0
LINE
  5
201
330
2
100
AcDbEntity
  8
0
100
AcDbLine
 10
429.327824372695
 20
224.5810495597182
 30
0.0
 11
429.294639491862
 21
224.609788509533
 31
0.0
  0
ARC
  5
202
330
2
100
AcDbEntity
  8
0
100
AcDbCircle
 10
429.2900301258673
 20
224.5440543602485
 30
0.0
 40
0.0528871428260002
100
AcDbArc
 50
13.23977054460077
 51
44.38787755620121
  0
ARC
  5
203
330
2
100
AcDbEntity
  8
0
100
AcDbCircle
 10
429.4315304748496
 20
224.5761335737079
 30
0.0
 40
0.0922067041989399
100
AcDbArc
 50
192.5060257770965
 51
225.3962690928978
  0
LINE
  5
204
330
2
100
AcDbEntity
  8
0
100
AcDbLine
 10
428.9685067348076
 20
224.3607038628148
 30
0.0
 11
428.9982488685408
 21
224.2927177962088
 31
0.0
  0
ARC
  5
205
330
2
100
AcDbEntity
  8
0
100
AcDbCircle
 10
429.0321474422141
 20
224.3890240201366
 30
0.0
 40
0.0696575261555599
100
AcDbArc
 50
181.0722382606961
 51
203.9890959521004
  0
LINE
  5
206
330
2
100
AcDbEntity
  8
0
100
AcDbLine
 10
428.9954047232842
 20
224.2996503919713
 30
0.0
 11
428.9958530158677
 21
224.2985910025021
 31
0.0
  0
LINE
  5
207
330
2
100
AcDbEntity
  8
0
100
AcDbLine
 10
428.962502113339
 20
224.5045480057629
 30
0.0
 11
428.962502113339
 21
224.3877205191324
 31
0.0
  0
LWPOLYLINE
  5
208
330
2
100
AcDbEntity
  8
0
100
AcDbPolyline
 90
        7
 70
   128
 43
0.0
 10
428.9697218679613
 20
224.5216612634925
 10
428.9697077496846
 20
224.5216571851766
 10
428.9672508700926
 20
224.5202925350085
 10
428.9652345444289
 20
224.5177832512628
 10
428.963736272169
 20
224.5142257586698
 10
428.9628136399639
 20
224.5097567666242
 10
428.962502113339
 20
224.5045480057629
  0
ARC
  5
209
330
2
100
AcDbEntity
  8
0
100
AcDbCircle
 10
431.2827910656626
 20
224.5078486203224
 30
0.0
 40
0.061409120051162
100
AcDbArc
 50
179.4982702636008
 51
222.6671292701973
  0
ARC
  5
20A
330
2
100
AcDbEntity
  8
0
100
AcDbCircle
 10
431.2276707313734
 20
224.4667032075684
 30
0.0
 40
0.0099772511228133
100
AcDbArc
 50
287.2287430154956
 51
357.2776669738949
  0
ARC
  5
20B
330
2
100
AcDbEntity
  8
0
100
AcDbCircle
 10
431.2870688211996
 20
224.5091977461416
 30
0.0
 40
0.0767614171936688
100
AcDbArc
 50
179.4982617077016
 51
222.6671139942021
  0
LINE
  5
20C
330
2
100
AcDbEntity
  8
0
100
AcDbLine
 10
431.2306258658282
 20
224.4571736367393
 30
0.0
 11
430.9427832904935
 21
224.3740806425636
 31
0.0
  0
ARC
  5
20D
330
2
100
AcDbEntity
  8
0
100
AcDbCircle
 10
430.9992262458648
 20
224.426104751966
 30
0.0
 40
0.0767614171937066
100
AcDbArc
 50
179.4982617077016
 51
222.6671139942021
  0
LWPOLYLINE
  5
20E
330
2
100
AcDbEntity
  8
0
100
AcDbPolyline
 90
        9
 70
   128
 43
0.0
 10
431.6044610149643
 20
224.1500860399263
 10
431.607618485038
 20
224.1479027435257
 10
431.6106534961515
 20
224.1468802714154
 10
431.6134497614171
 20
224.1470577721172
 10
431.6159001481381
 20
224.1484284784529
 10
431.6179107925243
 20
224.1509398381608
 10
431.6194046292299
 20
224.1544956552789
 10
431.6203244679771
 20
224.1589597026545
 10
431.6206350508704
 20
224.1641609689309
  0
LINE
  5
20F
330
2
100
AcDbEntity
  8
0
100
AcDbLine
 10
431.2376367225481
 20
224.4662293300442
 30
0.0
 11
431.6044610149643
 21
224.1500860399263
 31
0.0
  0
LINE
  5
210
330
2
100
AcDbEntity
  8
0
100
AcDbLine
 10
431.2213843001008
 20
224.8425049392913
 30
0.0
 11
431.2213843001008
 21
224.50838636303
 31
0.0
  0
LINE
  5
211
330
2
100
AcDbEntity
  8
0
100
AcDbLine
 10
431.2446908140909
 20
224.845621295455
 30
0.0
 11
431.2213843001008
 21
224.8425049392913
 31
0.0
  0
LINE
  5
212
330
2
100
AcDbEntity
  8
0
100
AcDbLine
 10
431.2446910174853
 20
224.8975920622152
 30
0.0
 11
431.2446908140909
 21
224.845621295455
 31
0.0
  0
LINE
  5
213
330
2
100
AcDbEntity
  8
0
100
AcDbLine
 10
431.2103103471982
 20
224.8480423417047
 30
0.0
 11
431.2103103471982
 21
224.5098699361339
 31
0.0
  0
SPLINE
  5
214
330
2
100
AcDbEntity
  8
0
100
AcDbSpline
210
0.0
220
0.0
230
1.0
 70
     8
 71
     3
 72
    11
 73
     7
 74
     0
 42
0.000000001
 43
0.0000000001
 40
0.0
 40
0.0
 40
0.0
 40
0.0
 40
0.3170181536422792
 40
0.6037225098170264
 40
0.8092422990243026
 40
1.0
 40
1.0
 40
1.0
 40
1.0
 10
431.2213843000911
 20
224.8425049392948
 30
0.0
 10
431.2206096963768
 20
224.8436386196255
 30
0.0
 10
431.2191345578299
 20
224.8457975759083
 30
0.0
 10
431.2158409840908
 20
224.8477289899279
 30
0.0
 10
431.2127657375355
 20
224.8484735103951
 30
0.0
 10
431.2111082288609
 20
224.8481824504253
 30
0.0
 10
431.2103103471947
 20
224.8480423417085
 30
0.0
  0
LINE
  5
215
330
2
100
AcDbEntity
  8
0
100
AcDbLine
 10
430.9224677718632
 20
224.4267769419581
 30
0.0
 11
430.9224677718632
 21
224.7649493475289
 31
0.0
  0
LINE
  5
216
330
2
100
AcDbEntity
  8
0
100
AcDbLine
 10
430.9224677718632
 20
224.7649493475289
 30
0.0
 11
431.2103103471982
 21
224.8480423417047
 31
0.0
  0
ARC
  5
217
330
2
100
AcDbEntity
  8
0
100
AcDbCircle
 10
431.5944948742832
 20
224.1505600332129
 30
0.0
 40
0.0099774059735315
100
AcDbArc
 50
287.2293662307022
 51
357.2770437592027
  0
LINE
  5
218
330
2
100
AcDbEntity
  8
0
100
AcDbLine
 10
431.2306258658282
 20
224.4571736367393
 30
0.0
 11
431.5974501582446
 21
224.1410303466214
 31
0.0
  0
LINE
  5
219
330
2
100
AcDbEntity
  8
0
100
AcDbLine
 10
431.3096075829299
 20
224.0579373524456
 30
0.0
 11
431.5974501582446
 21
224.1410303466214
 31
0.0
  0
LINE
  5
21A
330
2
100
AcDbEntity
  8
0
100
AcDbLine
 10
431.3096075829299
 20
224.0579373524456
 30
0.0
 11
430.9427832904935
 21
224.3740806425636
 31
0.0
  0
LWPOLYLINE
  5
21B
330
2
100
AcDbEntity
  8
0
100
AcDbPolyline
 90
        7
 70
   128
 43
0.0
 10
430.9457742858534
 20
224.8134143332469
 10
430.9459689970798
 20
224.8166698016463
 10
430.946545637491
 20
224.8194629247274
 10
430.9474820482042
 20
224.8216863668043
 10
430.9487422541124
 20
224.8232546630248
 10
430.9502778038676
 20
224.824107570383
 10
430.9502866183314
 20
224.8241101285264
  0
LINE
  5
21C
330
2
100
AcDbEntity
  8
0
100
AcDbLine
 10
430.9457742858534
 20
224.7716773749367
 30
0.0
 11
430.9457742858534
 21
224.8134143332469
 31
0.0
  0
ARC
  5
21D
330
2
100
AcDbEntity
  8
0
100
AcDbCircle
 10
431.3187177497637
 20
224.0663937997621
 30
0.0
 40
0.0124300700327972
100
AcDbArc
 50
222.868792844601
 51
279.6455473959895
  0
LWPOLYLINE
  5
21E
330
2
100
AcDbEntity
  8
0
100
AcDbPolyline
 90
        9
 70
   128
 43
0.0
 10
430.903214558084
 20
224.9417771923837
 10
430.9034676864437
 20
224.9460093008934
 10
430.9042173133279
 20
224.9496403676377
 10
430.9054346548043
 20
224.9525308308889
 10
430.9070729205902
 20
224.9545696203653
 10
430.9090691447083
 20
224.9556783935045
 10
430.9113466204693
 20
224.9558145342405
 10
430.913817825969
 20
224.9549728109092
 10
430.9163878026584
 20
224.9531855629632
  0
LINE
  5
21F
330
2
100
AcDbEntity
  8
0
100
AcDbLine
 10
430.9163878026584
 20
224.9531855629632
 30
0.0
 11
430.9721194443418
 21
224.9049205454891
 31
0.0
  0
LINE
  5
220
330
2
100
AcDbEntity
  8
0
100
AcDbLine
 10
430.9721194443418
 20
224.9049205454891
 30
0.0
 11
431.0366451118078
 21
224.8490396782646
 31
0.0
  0
LINE
  5
221
330
2
100
AcDbEntity
  8
0
100
AcDbLine
 10
431.3490391718963
 20
224.062291260787
 30
0.0
 11
431.3490389831337
 21
224.0598951400454
 31
0.0
  0
LWPOLYLINE
  5
222
330
2
100
AcDbEntity
  8
0
100
AcDbPolyline
 90
        9
 70
   128
 43
0.0
 10
431.3490389831337
 20
224.0598951400454
 10
431.3482636678281
 20
224.046907151629
 10
431.3459687707301
 20
224.0357574455579
 10
431.3422420025274
 20
224.0268722425779
 10
431.3372258103955
 20
224.0205911298928
 10
431.331111904532
 20
224.0171541151656
 10
431.3241339723192
 20
224.0166926034908
 10
431.3165587130751
 20
224.0192242812113
 10
431.3086756832435
 20
224.0246523639256
  0
LINE
  5
223
330
2
100
AcDbEntity
  8
0
100
AcDbLine
 10
431.3086756832435
 20
224.0246523639256
 30
0.0
 11
430.9439173946334
 21
224.3378962250595
 31
0.0
  0
ARC
  5
224
330
2
100
AcDbEntity
  8
0
100
AcDbCircle
 10
431.0566116370487
 20
224.441975818204
 30
0.0
 40
0.1534032398066315
100
AcDbArc
 50
179.4864985529047
 51
222.7242481615983
  0
LINE
  5
225
330
2
100
AcDbEntity
  8
0
100
AcDbLine
 10
430.903214558084
 20
224.4433506442601
 30
0.0
 11
430.903214558084
 21
224.9417771923837
 31
0.0
  0
ARC
  5
226
330
2
100
AcDbEntity
  8
0
100
AcDbCircle
 10
431.0039583111607
 20
224.4267761122664
 30
0.0
 40
0.1534032398066107
100
AcDbArc
 50
179.4864985529047
 51
222.7242481615983
  0
LINE
  5
227
330
2
100
AcDbEntity
  8
0
100
AcDbLine
 10
430.850561232196
 20
224.4281509383225
 30
0.0
 11
430.850561232196
 21
224.9265774864461
 31
0.0
  0
LINE
  5
228
330
2
100
AcDbEntity
  8
0
100
AcDbLine
 10
431.2560223573555
 20
224.0094526579881
 30
0.0
 11
430.8912640687454
 21
224.322696519122
 31
0.0
  0
SPLINE
  5
229
330
2
100
AcDbEntity
  8
0
100
AcDbSpline
210
0.0
220
0.0
230
1.0
 70
     8
 71
     3
 72
    11
 73
     7
 74
     0
 42
0.000000001
 43
0.0000000001
 40
0.0
 40
0.0
 40
0.0
 40
0.0
 40
0.3442726846099632
 40
0.6556267241645083
 40
0.878815444631537
 40
1.0
 40
1.0
 40
1.0
 40
1.0
 10
431.2446908140834
 20
224.8456212954486
 30
0.0
 10
431.2439158204917
 20
224.8467571775599
 30
0.0
 10
431.2424399365991
 20
224.8489203310741
 30
0.0
 10
431.239151045869
 20
224.8508251768631
 30
0.0
 10
431.2364212433585
 20
224.8515461326627
 30
0.0
 10
431.2350906753264
 20
224.8513371442192
 30
0.0
 10
431.2346224499828
 20
224.8512636014289
 30
0.0
  0
LWPOLYLINE
  5
22A
330
2
100
AcDbEntity
  8
0
100
AcDbPolyline
 90
        7
 70
   128
 43
0.0
 10
430.850561232196
 20
224.9265774864461
 10
430.8508143605556
 20
224.9308095949559
 10
430.8515639874194
 20
224.9344406617
 10
430.8527813289161
 20
224.9373311249513
 10
430.8544195947021
 20
224.9393699144279
 10
430.8564158188201
 20
224.9404786875669
 10
430.8564272757559
 20
224.9404820147443
  0
ARC
  5
22B
330
2
100
AcDbEntity
  8
0
100
AcDbCircle
 10
431.2741590895174
 20
224.0263577702915
 30
0.0
 40
0.0247936256911674
100
AcDbArc
 50
222.9870470338945
 51
279.6993844572984
  0
LWPOLYLINE
  5
22C
330
2
100
AcDbEntity
  8
0
100
AcDbPolyline
 90
        6
 70
   128
 43
0.0
 10
431.2557917842311
 20
224.0070932175883
 10
431.2637135826682
 20
224.0015520535642
 10
431.2713338391542
 20
223.9989275962116
 10
431.2783588259455
 20
223.9993209615999
 10
431.2845177101823
 20
224.0027169970276
 10
431.2859958997849
 20
224.0041296797561
  0
LINE
  5
22D
330
2
100
AcDbEntity
  8
0
100
AcDbLine
 10
431.034068511528
 20
224.200060185087
 30
0.0
 11
431.2557917842311
 21
224.0070932175883
 31
0.0
  0
LINE
  5
22E
330
2
100
AcDbEntity
  8
0
100
AcDbLine
 10
430.850561232196
 20
224.7755445542979
 30
0.0
 11
430.850561232196
 21
224.7755437533644
 31
0.0
  0
LWPOLYLINE
  5
22F
330
2
100
AcDbEntity
  8
0
100
AcDbPolyline
 90
        5
 70
   128
 43
0.0
 10
430.8568842506856
 20
224.940613932218
 10
430.8543975302008
 20
224.9393890228524
 10
430.8515419418063
 20
224.9344597537899
 10
430.8505391865625
 20
224.9265965785156
 10
430.850561232196
 20
224.925257816273
  0
LINE
  5
230
330
2
100
AcDbEntity
  8
0
100
AcDbLine
 10
430.5030497367074
 20
224.6261685061125
 30
0.0
 11
430.3696594280672
 21
224.5876620408179
 31
0.0
  0
LINE
  5
231
330
2
100
AcDbEntity
  8
0
100
AcDbLine
 10
430.3696594280672
 20
224.5876620408179
 30
0.0
 11
430.3696768494036
 21
224.4191541497031
 31
0.0
  0
LINE
  5
232
330
2
100
AcDbEntity
  8
0
100
AcDbLine
 10
430.3696768494036
 20
224.4191541497031
 30
0.0
 11
430.5030671580443
 21
224.4576606150183
 31
0.0
  0
LINE
  5
233
330
2
100
AcDbEntity
  8
0
100
AcDbLine
 10
430.5030671580443
 20
224.4576606150183
 30
0.0
 11
430.5030497367074
 21
224.6261685061125
 31
0.0
  0
ARC
  5
234
330
2
100
AcDbEntity
  8
0
100
AcDbCircle
 10
431.7118637901042
 20
224.6409295005118
 30
0.0
 40
0.2903259410968329
100
AcDbArc
 50
160.8479524469004
 51
199.1520475530996
  0
ARC
  5
235
330
2
100
AcDbEntity
  8
0
100
AcDbCircle
 10
431.7150270371334
 20
224.6385335947373
 30
0.0
 40
0.2379102261722576
100
AcDbArc
 50
163.278828864002
 51
196.7211711359979
  0
ARC
  5
236
330
2
100
AcDbEntity
  8
0
100
AcDbCircle
 10
431.6065560921898
 20
224.6105297866451
 30
0.0
 40
0.2903259410966371
100
AcDbArc
 50
160.8479524469004
 51
199.1520475530996
  0
ARC
  5
237
330
2
100
AcDbEntity
  8
0
100
AcDbCircle
 10
431.3729046062118
 20
224.5260532514786
 30
0.0
 40
0.042009946225989
100
AcDbArc
 50
194.8581570079001
 51
209.7685167632884
  0
LINE
  5
238
330
2
100
AcDbEntity
  8
0
100
AcDbLine
 10
431.5137932329034
 20
224.6839330724819
 30
0.0
 11
431.5137932329034
 21
224.6770138791336
 31
0.0
  0
LINE
  5
239
330
2
100
AcDbEntity
  8
0
100
AcDbLine
 10
431.5137932329034
 20
224.6020104522891
 30
0.0
 11
431.5137932329034
 21
224.5857469471479
 31
0.0
  0
LINE
  5
23A
330
2
100
AcDbEntity
  8
0
100
AcDbLine
 10
431.4405987505269
 20
224.7389437317797
 30
0.0
 11
431.4409159489852
 21
224.7390207293945
 31
0.0
  0
ARC
  5
23B
330
2
100
AcDbEntity
  8
0
100
AcDbCircle
 10
431.4874427838969
 20
224.6849680706083
 30
0.0
 40
0.0263707676141637
100
AcDbArc
 50
357.7506813324021
 51
47.59491480840687
  0
ARC
  5
23C
330
2
100
AcDbEntity
  8
0
100
AcDbCircle
 10
431.3368956811783
 20
224.7038069328599
 30
0.0
 40
0.0050014805384568
100
AcDbArc
 50
108.7131704375922
 51
156.780307486701
  0
ARC
  5
23D
330
2
100
AcDbEntity
  8
0
100
AcDbCircle
 10
431.5723938270185
 20
224.520054282367
 30
0.0
 40
0.0768432387552535
100
AcDbArc
 50
179.5143297805029
 51
222.5891429414996
  0
ARC
  5
23E
330
2
100
AcDbEntity
  8
0
100
AcDbCircle
 10
431.5938657675206
 20
224.5268211770378
 30
0.0
 40
0.153686695547235
100
AcDbArc
 50
179.5143497842948
 51
222.5891110120933
  0
ARC
  5
23F
330
2
100
AcDbEntity
  8
0
100
AcDbCircle
 10
431.4885580695857
 20
224.4964214631509
 30
0.0
 40
0.1536866955471903
100
AcDbArc
 50
179.5143497842948
 51
222.5891110120933
  0
ARC
  5
240
330
2
100
AcDbEntity
  8
0
100
AcDbCircle
 10
431.4599987811693
 20
224.4726929307013
 30
0.0
 40
0.065519366512392
100
AcDbArc
 50
57.13527794769575
 51
107.6028483395985
  0
LINE
  5
241
330
2
100
AcDbEntity
  8
0
100
AcDbLine
 10
431.4955533488989
 20
224.5277261942998
 30
0.0
 11
431.4955533488989
 21
224.5207056396983
 31
0.0
  0
LINE
  5
242
330
2
100
AcDbEntity
  8
0
100
AcDbLine
 10
431.4401845928083
 20
224.5281238398789
 30
0.0
 11
431.4401845928083
 21
224.5351443944805
 31
0.0
  0
LINE
  5
243
330
2
100
AcDbEntity
  8
0
100
AcDbLine
 10
431.4955533488989
 20
224.7418524722438
 30
0.0
 11
431.4955533488989
 21
224.7348319339974
 31
0.0
  0
LWPOLYLINE
  5
244
330
2
100
AcDbEntity
  8
0
100
AcDbPolyline
 90
        9
 70
   128
 43
0.0
 10
431.4955533488989
 20
224.7418524722438
 10
431.4959427666297
 20
224.7483634131365
 10
431.4970960474517
 20
224.7539496592989
 10
431.4989688783425
 20
224.7583965352442
 10
431.5014892806948
 20
224.7615331358733
 10
431.5045604037955
 20
224.7632389301811
 10
431.5080642195574
 20
224.7634483749761
 10
431.5118660806852
 20
224.7621534076222
 10
431.5158198877311
 20
224.7594038097229
  0
LINE
  5
245
330
2
100
AcDbEntity
  8
0
100
AcDbLine
 10
431.5614195906587
 20
224.7199133085726
 30
0.0
 11
431.5158198877311
 21
224.7594038097229
 31
0.0
  0
ARC
  5
246
330
2
100
AcDbEntity
  8
0
100
AcDbCircle
 10
431.4837507745455
 20
224.6302947411464
 30
0.0
 40
0.1185914525892906
100
AcDbArc
 50
46.78664478690206
 51
49.08583912170481
  0
LINE
  5
247
330
2
100
AcDbEntity
  8
0
100
AcDbLine
 10
431.5158198877311
 20
224.4680516599712
 30
0.0
 11
431.5614195906587
 21
224.4285611588208
 31
0.0
  0
LINE
  5
248
330
2
100
AcDbEntity
  8
0
100
AcDbLine
 10
431.5614195906587
 20
224.4706843556906
 30
0.0
 11
431.5614195906587
 21
224.4940251031831
 31
0.0
  0
LINE
  5
249
330
2
100
AcDbEntity
  8
0
100
AcDbLine
 10
431.550185221845
 20
224.6875193441634
 30
0.0
 11
431.4955533488989
 21
224.7348319339974
 31
0.0
  0
LINE
  5
24A
330
2
100
AcDbEntity
  8
0
100
AcDbLine
 10
431.5614195906587
 20
224.4706843556906
 30
0.0
 11
431.5412059127476
 21
224.4881899142681
 31
0.0
  0
LINE
  5
24B
330
2
100
AcDbEntity
  8
0
100
AcDbLine
 10
431.5127288235349
 20
224.5128517969611
 30
0.0
 11
431.4955533488989
 21
224.5277261942998
 31
0.0
  0
LINE
  5
24C
330
2
100
AcDbEntity
  8
0
100
AcDbLine
 10
431.334876894894
 20
224.4977241260122
 30
0.0
 11
431.334876894894
 21
224.5047446806138
 31
0.0
  0
LINE
  5
24D
330
2
100
AcDbEntity
  8
0
100
AcDbLine
 10
431.334876894894
 20
224.5047446806138
 30
0.0
 11
431.4401845928083
 21
224.5351443944805
 31
0.0
  0
LINE
  5
24E
330
2
100
AcDbEntity
  8
0
100
AcDbLine
 10
431.5263173734001
 20
224.3833253465846
 30
0.0
 11
431.4807176704722
 21
224.4228158477349
 31
0.0
  0
LINE
  5
24F
330
2
100
AcDbEntity
  8
0
100
AcDbLine
 10
431.4210096754043
 20
224.3529256327787
 30
0.0
 11
431.5263173734001
 21
224.3833253465846
 31
0.0
  0
LINE
  5
250
330
2
100
AcDbEntity
  8
0
100
AcDbLine
 10
431.3754099725578
 20
224.392416133848
 30
0.0
 11
431.4210096754043
 21
224.3529256327787
 31
0.0
  0
ARC
  5
251
330
2
100
AcDbEntity
  8
0
100
AcDbCircle
 10
431.4682219017878
 20
224.3965039432671
 30
0.0
 40
0.0642500075104832
100
AcDbArc
 50
222.7079443170953
 51
279.5714346238007
  0
LINE
  5
252
330
2
100
AcDbEntity
  8
0
100
AcDbLine
 10
431.4401845928083
 20
224.7388431980108
 30
0.0
 11
431.4401845928083
 21
224.7492706724244
 31
0.0
  0
LINE
  5
253
330
2
100
AcDbEntity
  8
0
100
AcDbLine
 10
431.3378438722206
 20
224.7092809425637
 30
0.0
 11
431.334876894894
 21
224.7118504202911
 31
0.0
  0
LINE
  5
254
330
2
100
AcDbEntity
  8
0
100
AcDbLine
 10
431.334876894894
 20
224.7118504202911
 30
0.0
 11
431.334876894894
 21
224.7188709585578
 31
0.0
  0
LWPOLYLINE
  5
255
330
2
100
AcDbEntity
  8
0
100
AcDbPolyline
 90
        7
 70
   128
 43
0.0
 10
431.3529262672829
 20
224.7616541192269
 10
431.3528910046664
 20
224.761643890747
 10
431.346748763167
 20
224.7582322817027
 10
431.3417079537403
 20
224.7519590845589
 10
431.3379622919789
 20
224.7430653490025
 10
431.3356557303343
 20
224.7318928403229
 10
431.334876894894
 20
224.7188709585578
  0
LWPOLYLINE
  5
256
330
2
100
AcDbEntity
  8
0
100
AcDbPolyline
 90
       10
 70
   128
 43
0.0
 10
433.3636987028734
 20
225.0833635098614
 10
433.3674968079434
 20
225.0301054899348
 10
433.3786322852246
 20
224.9738983411151
 10
433.3963462781277
 20
224.9185726233432
 10
433.4194315997244
 20
224.867898530981
 10
433.4463150358352
 20
224.8253295472417
 10
433.4751645201656
 20
224.7937666336238
 10
433.5040140139198
 20
224.7753606356705
 10
433.5308974736413
 20
224.7713660563476
 10
433.5369948264063
 20
224.7726451599493
  0
LWPOLYLINE
  5
257
330
2
100
AcDbEntity
  8
0
100
AcDbPolyline
 90
        5
 70
   128
 43
0.0
 10
433.4133344639937
 20
225.5169412302744
 10
433.3963462781277
 20
225.5075311750558
 10
433.3786322852246
 20
225.4828869480419
 10
433.3674968079434
 20
225.4459670606797
 10
433.3636987028734
 20
225.3992875353588
  0
LINE
  5
258
330
2
100
AcDbEntity
  8
0
100
AcDbLine
 10
434.4182732598455
 20
225.472119216654
 30
0.0
 11
434.2922383690232
 21
225.4357360775814
 31
0.0
  0
LINE
  5
259
330
2
100
AcDbEntity
  8
0
100
AcDbLine
 10
434.4182732598455
 20
225.2584578503188
 30
0.0
 11
434.3118723445133
 21
225.2277425517778
 31
0.0
  0
LINE
  5
25A
330
2
100
AcDbEntity
  8
0
100
AcDbLine
 10
434.2520881222831
 20
225.5690981609771
 30
0.0
 11
434.2552418645913
 21
225.5707055649033
 31
0.0
  0
LINE
  5
25B
330
2
100
AcDbEntity
  8
0
100
AcDbLine
 10
434.3845259382685
 20
225.3330468203918
 30
0.0
 11
434.2527749326556
 21
225.2950135811331
 31
0.0
  0
LINE
  5
25C
330
2
100
AcDbEntity
  8
0
100
AcDbLine
 10
431.6206350508704
 20
224.1641609689309
 30
0.0
 11
431.6206350508704
 21
224.3885774499856
 31
0.0
  0
ARC
  5
25D
330
2
100
AcDbEntity
  8
0
100
AcDbCircle
 10
431.6190294664742
 20
224.1619967512441
 30
0.0
 40
0.0026947614691691
100
AcDbArc
 50
2.963485187298545
 51
53.42911190800514
  0
ARC
  5
25E
330
2
100
AcDbEntity
  8
0
100
AcDbCircle
 10
431.60625586201
 20
224.1486348541446
 30
0.0
 40
0.0116348164222425
100
AcDbArc
 50
220.8135243514979
 51
282.7434706010949
  0
LINE
  5
25F
330
2
100
AcDbEntity
  8
0
100
AcDbLine
 10
429.2904622211318
 20
224.4382132629138
 30
0.0
 11
430.8505613918353
 21
224.8885751009816
 31
0.0
  0
ARC
  5
260
330
2
100
AcDbEntity
  8
0
100
AcDbCircle
 10
431.4785674217787
 20
224.5565995035639
 30
0.0
 40
0.0423907965574181
100
AcDbArc
 50
194.9265170211021
 51
209.7328453458003
  0
SPLINE
  5
261
330
2
100
AcDbEntity
  8
0
100
AcDbSpline
210
0.0
220
0.0
230
1.0
 70
     8
 71
     3
 72
    11
 73
     7
 74
     0
 42
0.000000001
 43
0.0000000001
 40
0.0
 40
0.0
 40
0.0
 40
0.0
 40
0.1247364298119644
 40
0.3076607208407356
 40
0.6542557904403628
 40
1.0
 40
1.0
 40
1.0
 40
1.0
 10
431.4620354480538
 20
224.5374386837634
 30
0.0
 10
431.4636490031194
 20
224.5385024427822
 30
0.0
 10
431.4676288149141
 20
224.5411261900468
 30
0.0
 10
431.4751066439908
 20
224.5479371189034
 30
0.0
 10
431.4834011153613
 20
224.5582230444629
 30
0.0
 10
431.4859190987866
 20
224.566133185749
 30
0.0
 10
431.4871765432438
 20
224.5700833957524
 30
0.0
  0
ARC
  5
262
330
2
100
AcDbEntity
  8
0
100
AcDbCircle
 10
431.4422033790929
 20
224.734206646747
 30
0.0
 40
0.0050014805385104
100
AcDbArc
 50
108.7131704377024
 51
156.7803074860954
  0
SPLINE
  5
263
330
2
100
AcDbEntity
  8
0
100
AcDbSpline
210
0.0
220
0.0
230
1.0
 70
     8
 71
     3
 72
     9
 73
     5
 74
     0
 42
0.000000001
 43
0.0000000001
 40
0.0
 40
0.0
 40
0.0
 40
0.0
 40
0.5151079187193878
 40
1.0
 40
1.0
 40
1.0
 40
1.0
 10
431.4871765432438
 20
224.7069838018942
 30
0.0
 10
431.4859676234436
 20
224.7120560670379
 30
0.0
 10
431.4836206981564
 20
224.7219030621225
 30
0.0
 10
431.4769251733407
 20
224.7283659729757
 30
0.0
 10
431.4736785663774
 20
224.7314997872705
 30
0.0
  0
LINE
  5
264
330
2
100
AcDbEntity
  8
0
100
AcDbLine
 10
431.5649523587068
 20
224.7167252644441
 30
0.0
 11
431.5825993361558
 21
224.6968765038662
 31
0.0
  0
LWPOLYLINE
  5
265
330
2
100
AcDbEntity
  8
0
100
AcDbPolyline
 90
        7
 70
   128
 43
0.0
 10
431.6449978340332
 20
224.518152042058
 10
431.6455071578902
 20
224.4983551219201
 10
431.6409611907257
 20
224.4580137975207
 10
431.6288343490882
 20
224.428749382486
 10
431.6102824099685
 20
224.4133509828871
 10
431.5870734993092
 20
224.4132861854834
 10
431.5614195906587
 20
224.4285611588208
  0
ARC
  5
266
330
2
100
AcDbEntity
  8
0
100
AcDbCircle
 10
431.5350728641892
 20
224.7209491499489
 30
0.0
 40
0.026367081062003
100
AcDbArc
 50
357.7485329004
 51
47.62933066620498
  0
ARC
  5
267
330
2
100
AcDbEntity
  8
0
100
AcDbCircle
 10
431.5719916279138
 20
224.4225796974828
 30
0.0
 40
0.0602249249865108
100
AcDbArc
 50
220.6771318942954
 51
282.3891962826045
  0
LWPOLYLINE
  5
268
330
2
100
AcDbEntity
  8
0
100
AcDbPolyline
 90
        7
 70
   128
 43
0.0
 10
431.4401845928083
 20
224.7492706724244
 10
431.440963428249
 20
224.7622925541895
 10
431.4432699898936
 20
224.7734650628693
 10
431.4470156516752
 20
224.7823587984254
 10
431.4520564611016
 20
224.7886319955895
 10
431.458198702581
 20
224.7920436046137
 10
431.4582057617194
 20
224.7920456642206
  0
ARC
  5
269
330
2
100
AcDbEntity
  8
0
100
AcDbCircle
 10
431.4894536631314
 20
224.760435982674
 30
0.0
 40
0.0263864203893716
100
AcDbArc
 50
357.7581556821995
 51
47.28654694980339
  0
LINE
  5
26A
330
2
100
AcDbEntity
  8
0
100
AcDbLine
 10
429.3117771557696
 20
224.3659619762164
 30
0.0
 11
429.3117771557696
 21
224.3897904461141
 31
0.0
  0
LINE
  5
26B
330
2
100
AcDbEntity
  8
0
100
AcDbLine
 10
428.9958530158677
 20
224.261412938974
 30
0.0
 11
429.3117771557696
 21
224.352612382586
 31
0.0
  0
LWPOLYLINE
  5
26C
330
2
100
AcDbEntity
  8
0
100
AcDbPolyline
 90
        9
 70
   128
 43
0.0
 10
431.2507709866699
 20
224.9028574536338
 10
431.2495848450386
 20
224.9036823358591
 10
431.2484442857437
 20
224.9040708301652
 10
431.2473931358367
 20
224.9040079963051
 10
431.2464718059797
 20
224.9034962535358
 10
431.2457156862245
 20
224.9025552741579
 10
431.2451538246778
 20
224.9012212236415
 10
431.2448078517522
 20
224.8995453383423
 10
431.2446910174853
 20
224.8975920622152
  0
LINE
  5
26D
330
2
100
AcDbEntity
  8
0
100
AcDbLine
 10
431.5137932329034
 20
224.6770138791336
 30
0.0
 11
431.5137932329034
 21
224.585746952601
 31
0.0
  0
LINE
  5
26E
330
2
100
AcDbEntity
  8
0
100
AcDbLine
 10
431.5137932329034
 20
224.585746952601
 30
0.0
 11
431.5137932329034
 21
224.5119299914089
 31
0.0
  0
LINE
  5
26F
330
2
100
AcDbEntity
  8
0
100
AcDbLine
 10
431.5137932329034
 20
224.5119299914089
 30
0.0
 11
431.5412059127476
 21
224.4881899142681
 31
0.0
  0
LINE
  5
270
330
2
100
AcDbEntity
  8
0
100
AcDbLine
 10
429.3117771557696
 20
224.3659619762164
 30
0.0
 11
429.3117771557696
 21
224.352612382586
 31
0.0
  0
ENDSEC
  0
SECTION
  2
OBJECTS
  0
DICTIONARY
  5
9
330
0
100
AcDbDictionary
281
     1
  3
ACAD_COLOR
350
3E
  3
ACAD_GROUP
350
35
  3
ACAD_LAYOUT
350
16
  3
ACAD_MATERIAL
350
B
  3
ACAD_MLEADERSTYLE
350
41
  3
ACAD_MLINESTYLE
350
36
  3
ACAD_PLOTSETTINGS
350
37
  3
ACAD_PLOTSTYLENAME
350
8
  3
ACAD_SCALELIST
350
3F
  3
ACAD_TABLESTYLE
350
40
  3
ACAD_VISUALSTYLE
350
2B
  3
ACDB_RECOMPOSE_DATA
350
278
  3
AcDbVariableDictionary
350
271
  0
DICTIONARY
  5
1E
330
1D
100
AcDbDictionary
280
     1
281
     1
  3
ACAD_LAYERSTATES
360
1F
  0
DICTIONARY
  5
6
330
5
100
AcDbDictionary
280
     1
281
     1
  0
DICTIONARY
  5
3
330
2
100
AcDbDictionary
280
     1
281
     1
  0
DICTIONARY
  5
3E
102
{ACAD_REACTORS
330
9
102
}
330
9
100
AcDbDictionary
281
     1
  0
DICTIONARY
  5
35
102
{ACAD_REACTORS
330
9
102
}
330
9
100
AcDbDictionary
281
     1
  0
DICTIONARY
  5
16
102
{ACAD_REACTORS
330
9
102
}
330
9
100
AcDbDictionary
281
     1
  3
Model
350
15
  3
レイアウト1
350
1C
  0
DICTIONARY
  5
B
102
{ACAD_REACTORS
330
9
102
}
330
9
100
AcDbDictionary
281
     1
  3
ByBlock
350
3B
  3
ByLayer
350
38
  3
Global
350
A
  0
DICTIONARY
  5
41
102
{ACAD_REACTORS
330
9
102
}
330
9
100
AcDbDictionary
281
     1
  0
DICTIONARY
  5
36
102
{ACAD_REACTORS
330
9
102
}
330
9
100
AcDbDictionary
281
     1
  3
Standard
350
42
  0
DICTIONARY
  5
37
102
{ACAD_REACTORS
330
9
102
}
330
9
100
AcDbDictionary
281
     1
  0
ACDBDICTIONARYWDFLT
  5
8
102
{ACAD_REACTORS
330
9
102
}
330
9
100
AcDbDictionary
281
     1
  3
Normal
350
7
100
AcDbDictionaryWithDefault
340
7
  0
DICTIONARY
  5
3F
102
{ACAD_REACTORS
330
9
102
}
330
9
100
AcDbDictionary
281
     1
  3
A0
350
47
  3
A1
350
48
  3
A2
350
49
  3
A3
350
4A
  3
A4
350
4B
  3
A5
350
4C
  3
A6
350
4D
  3
A7
350
4E
  3
A8
350
4F
  3
A9
350
50
  3
B0
350
51
  3
B1
350
52
  3
B2
350
53
  3
B3
350
54
  3
B4
350
55
  3
B5
350
56
  3
B6
350
57
  0
DICTIONARY
  5
40
102
{ACAD_REACTORS
330
9
102
}
330
9
100
AcDbDictionary
281
     1
  3
Standard
350
43
  0
DICTIONARY
  5
2B
102
{ACAD_REACTORS
330
9
102
}
330
9
100
AcDbDictionary
281
     1
  3
2dWireframe
350
2A
  3
Realistic
350
45
  3
Wireframe
350
46
  0
XRECORD
  5
278
102
{ACAD_REACTORS
330
9
102
}
330
9
100
AcDbXrecord
280
     1
 90
        1
330
43
  0
DICTIONARY
  5
271
102
{ACAD_REACTORS
330
9
102
}
330
9
100
AcDbDictionary
281
     1
  3
CANNOSCALE
350
276
  3
CMLEADERSTYLE
350
273
  3
CTABLESTYLE
350
272
  3
CVIEWDETAILSTYLE
350
274
  3
CVIEWSECTIONSTYLE
350
275
  0
DICTIONARY
  5
1F
102
{ACAD_REACTORS
330
1E
102
}
330
1E
100
AcDbDictionary
281
     1
  0
LAYOUT
  5
15
102
{ACAD_XDICTIONARY
360
17
102
}
102
{ACAD_REACTORS
330
16
102
}
330
16
100
AcDbPlotSettings
  1

  2
none_device
  4
ISO_A4_(210.00_x_297.00_MM)
  6

 40
7.5
 41
20.0
 42
7.5
 43
20.0
 44
210.0
 45
297.0
 46
11.54999923706054
 47
-13.65000009536743
 48
0.0
 49
0.0
140
0.0
141
0.0
142
1.0
143
8.704084754739808
 70
 11952
 72
     1
 73
     0
 74
     0
  7

 75
     0
147
0.1148885871608098
 76
     0
 77
     2
 78
   300
148
0.0
149
0.0
100
AcDbLayout
  1
Model
 70
     1
 71
     0
 10
0.0
 20
0.0
 11
12.0
 21
9.0
 12
0.0
 22
0.0
 32
0.0
 14
0.0
 24
0.0
 34
0.0
 15
0.0
 25
0.0
 35
0.0
146
0.0
 13
0.0
 23
0.0
 33
0.0
 16
1.0
 26
0.0
 36
0.0
 17
0.0
 27
1.0
 37
0.0
 76
     0
330
2
331
29
1001
ACAD_PSEXT
1000
None
1000
None
1000
Not applicable
1000
The layout will not be plotted unless a new plotter configuration name is selected.
1070
     0
  0
LAYOUT
  5
1C
102
{ACAD_REACTORS
330
16
102
}
330
16
100
AcDbPlotSettings
  1

  2
C:\Documents and Settings\basas\Application Data\Autodesk\AutoCAD 2005\R16.1\enu\plotters\Default Windows System Printer.pc3
  4

  6

 40
0.0
 41
0.0
 42
0.0
 43
0.0
 44
0.0
 45
0.0
 46
0.0
 47
0.0
 48
0.0
 49
0.0
140
0.0
141
0.0
142
1.0
143
1.0
 70
   688
 72
     0
 73
     0
 74
     5
  7

 75
    16
147
1.0
 76
     0
 77
     2
 78
   300
148
0.0
149
0.0
100
AcDbLayout
  1
レイアウト1
 70
     1
 71
     1
 10
0.0
 20
0.0
 11
12.0
 21
9.0
 12
0.0
 22
0.0
 32
0.0
 14
0.0
 24
0.0
 34
0.0
 15
0.0
 25
0.0
 35
0.0
146
0.0
 13
0.0
 23
0.0
 33
0.0
 16
1.0
 26
0.0
 36
0.0
 17
0.0
 27
1.0
 37
0.0
 76
     0
330
19
  0
MATERIAL
  5
3B
102
{ACAD_XDICTIONARY
360
3C
102
}
102
{ACAD_REACTORS
330
B
102
}
330
B
100
AcDbMaterial
  1
ByBlock
 94
       63
  0
MATERIAL
  5
38
102
{ACAD_XDICTIONARY
360
39
102
}
102
{ACAD_REACTORS
330
B
102
}
330
B
100
AcDbMaterial
  1
ByLayer
 94
       63
  0
MATERIAL
  5
A
102
{ACAD_XDICTIONARY
360
C
102
}
102
{ACAD_REACTORS
330
B
102
}
330
B
100
AcDbMaterial
  1
Global
 43
0.0007999999797903
 43
0.0
 43
0.0
 43
0.0
 43
0.0
 43
0.0007999999797903
 43
0.0
 43
0.0
 43
0.0
 43
0.0
 43
1.0
 43
0.0
 43
0.0
 43
0.0
 43
0.0
 43
1.0
 49
0.0007999999797903
 49
0.0
 49
0.0
 49
0.0
 49
0.0
 49
0.0007999999797903
 49
0.0
 49
0.0
 49
0.0
 49
0.0
 49
1.0
 49
0.0
 49
0.0
 49
0.0
 49
0.0
 49
1.0
142
0.0007999999797903
142
0.0
142
0.0
142
0.0
142
0.0
142
0.0007999999797903
142
0.0
142
0.0
142
0.0
142
0.0
142
1.0
142
0.0
142
0.0
142
0.0
142
0.0
142
1.0
144
0.0007999999797903
144
0.0
144
0.0
144
0.0
144
0.0
144
0.0007999999797903
144
0.0
144
0.0
144
0.0
144
0.0
144
1.0
144
0.0
144
0.0
144
0.0
144
0.0
144
1.0
 94
       63
1001
ACAD
1070
    -1
1070
     3
1070
     0
1000

1071
        0
1070
     0
  0
MLINESTYLE
  5
42
102
{ACAD_REACTORS
330
36
102
}
330
36
100
AcDbMlineStyle
  2
STANDARD
 70
     0
  3

 62
   256
 51
90.0
 52
90.0
 71
     2
 49
0.5
 62
   256
  6
BYLAYER
 49
-0.5
 62
   256
  6
BYLAYER
  0
ACDBPLACEHOLDER
  5
7
102
{ACAD_REACTORS
330
8
102
}
330
8
  0
SCALE
  5
47
102
{ACAD_REACTORS
330
3F
102
}
330
3F
100
AcDbScale
 70
     0
300
1:1
140
1.0
141
1.0
290
     1
  0
SCALE
  5
48
102
{ACAD_REACTORS
330
3F
102
}
330
3F
100
AcDbScale
 70
     0
300
1:2
140
1.0
141
2.0
290
     0
  0
SCALE
  5
49
102
{ACAD_REACTORS
330
3F
102
}
330
3F
100
AcDbScale
 70
     0
300
1:4
140
1.0
141
4.0
290
     0
  0
SCALE
  5
4A
102
{ACAD_REACTORS
330
3F
102
}
330
3F
100
AcDbScale
 70
     0
300
1:5
140
1.0
141
5.0
290
     0
  0
SCALE
  5
4B
102
{ACAD_REACTORS
330
3F
102
}
330
3F
100
AcDbScale
 70
     0
300
1:8
140
1.0
141
8.0
290
     0
  0
SCALE
  5
4C
102
{ACAD_REACTORS
330
3F
102
}
330
3F
100
AcDbScale
 70
     0
300
1:10
140
1.0
141
10.0
290
     0
  0
SCALE
  5
4D
102
{ACAD_REACTORS
330
3F
102
}
330
3F
100
AcDbScale
 70
     0
300
1:16
140
1.0
141
16.0
290
     0
  0
SCALE
  5
4E
102
{ACAD_REACTORS
330
3F
102
}
330
3F
100
AcDbScale
 70
     0
300
1:20
140
1.0
141
20.0
290
     0
  0
SCALE
  5
4F
102
{ACAD_REACTORS
330
3F
102
}
330
3F
100
AcDbScale
 70
     0
300
1:30
140
1.0
141
30.0
290
     0
  0
SCALE
  5
50
102
{ACAD_REACTORS
330
3F
102
}
330
3F
100
AcDbScale
 70
     0
300
1:40
140
1.0
141
40.0
290
     0
  0
SCALE
  5
51
102
{ACAD_REACTORS
330
3F
102
}
330
3F
100
AcDbScale
 70
     0
300
1:50
140
1.0
141
50.0
290
     0
  0
SCALE
  5
52
102
{ACAD_REACTORS
330
3F
102
}
330
3F
100
AcDbScale
 70
     0
300
1:100
140
1.0
141
100.0
290
     0
  0
SCALE
  5
53
102
{ACAD_REACTORS
330
3F
102
}
330
3F
100
AcDbScale
 70
     0
300
2:1
140
2.0
141
1.0
290
     0
  0
SCALE
  5
54
102
{ACAD_REACTORS
330
3F
102
}
330
3F
100
AcDbScale
 70
     0
300
4:1
140
4.0
141
1.0
290
     0
  0
SCALE
  5
55
102
{ACAD_REACTORS
330
3F
102
}
330
3F
100
AcDbScale
 70
     0
300
8:1
140
8.0
141
1.0
290
     0
  0
SCALE
  5
56
102
{ACAD_REACTORS
330
3F
102
}
330
3F
100
AcDbScale
 70
     0
300
10:1
140
10.0
141
1.0
290
     0
  0
SCALE
  5
57
102
{ACAD_REACTORS
330
3F
102
}
330
3F
100
AcDbScale
 70
     0
300
100:1
140
100.0
141
1.0
290
     0
  0
TABLESTYLE
  5
43
102
{ACAD_XDICTIONARY
360
44
102
}
102
{ACAD_REACTORS
330
40
102
}
330
40
100
AcDbTableStyle
280
     0
  3
Standard
 70
     0
 71
     0
 40
1.5
 41
1.5
280
     0
281
     0
  7
Standard
140
4.5
170
     2
 62
     0
 63
     7
283
     0
 90
      512
 91
        0
  1

274
    -2
284
     1
 64
     0
275
    -2
285
     1
 65
     0
276
    -2
286
     1
 66
     0
277
    -2
287
     1
 67
     0
278
    -2
288
     1
 68
     0
279
    -2
289
     1
 69
     0
  7
Standard
140
6.0
170
     5
 62
     0
 63
     7
283
     0
 90
      512
 91
        0
  1

274
    -2
284
     1
 64
     0
275
    -2
285
     1
 65
     0
276
    -2
286
     1
 66
     0
277
    -2
287
     1
 67
     0
278
    -2
288
     1
 68
     0
279
    -2
289
     1
 69
     0
  7
Standard
140
4.5
170
     5
 62
     0
 63
     7
283
     0
 90
      512
 91
        0
  1

274
    -2
284
     1
 64
     0
275
    -2
285
     1
 65
     0
276
    -2
286
     1
 66
     0
277
    -2
287
     1
 67
     0
278
    -2
288
     1
 68
     0
279
    -2
289
     1
 69
     0
  0
VISUALSTYLE
  5
2A
102
{ACAD_REACTORS
330
2B
102
}
330
2B
100
AcDbVisualStyle
  2
2dWireframe
 70
     4
177
     3
291
     0
 70
    58
 90
        0
176
     1
 90
        2
176
     1
 90
        1
176
     1
 90
        0
176
     1
 40
0.6
176
     1
 40
30.0
176
     1
 62
     7
420
 16777215
176
     1
 90
        1
176
     1
 90
        4
176
     1
 62
     7
176
     1
 62
   257
176
     1
 90
        1
176
     1
 90
        1
176
     1
 40
1.0
176
     1
 90
        0
176
     1
 62
   257
176
     1
 40
1.0
176
     1
 90
        1
176
     1
 90
        6
176
     1
 90
        2
176
     1
 62
     7
176
     1
 90
        5
176
     1
 90
        0
176
     1
 90
        0
176
     1
290
     0
176
     1
 90
        1
176
     1
 40
0.0
176
     1
 90
        0
176
     1
290
     1
176
     1
290
     1
176
     1
290
     0
176
     1
290
     0
176
     1
290
     0
176
     1
290
     0
176
     1
290
     0
176
     1
290
     0
176
     1
290
     0
176
     1
 90
       50
176
     1
 40
0.0
176
     1
 40
1.0
176
     1
 90
        0
176
     1
 62
    18
420
        0
176
     1
 90
       50
176
     1
 90
        3
176
     1
 62
     5
420
      255
176
     1
290
     0
176
     1
 90
       50
176
     1
 90
       50
176
     1
 90
       50
176
     1
290
     0
176
     1
 90
       50
176
     1
 62
   256
176
     0
 40
1.0
176
     0
 90
        2
176
     1
  1
strokes_ogs.tif
176
     1
290
     0
176
     1
 40
1.0
176
     1
 40
1.0
176
     1
  0
VISUALSTYLE
  5
45
102
{ACAD_REACTORS
330
2B
102
}
330
2B
100
AcDbVisualStyle
  2
Realistic
 70
     8
177
     3
291
     0
 70
    58
 90
        2
176
     1
 90
        3
176
     1
 90
        0
176
     1
 90
        2
176
     1
 40
0.6
176
     1
 40
30.0
176
     1
 62
     7
420
 16777215
176
     1
 90
        0
176
     1
 90
        0
176
     1
 62
     7
176
     1
 62
   257
176
     1
 90
        1
176
     1
 90
        1
176
     1
 40
1.0
176
     1
 90
        8
176
     1
 62
   257
176
     1
 40
1.0
176
     1
 90
        1
176
     1
 90
        6
176
     1
 90
        2
176
     1
 62
     7
176
     1
 90
        3
176
     1
 90
        0
176
     1
 90
        0
176
     1
290
     0
176
     1
 90
       13
176
     1
 40
0.0
176
     1
 90
        0
176
     1
290
     0
176
     1
290
     1
176
     1
290
     1
176
     1
290
     0
176
     1
290
     0
176
     1
290
     0
176
     1
290
     0
176
     1
290
     0
176
     1
290
     0
176
     1
 90
       50
176
     1
 40
0.0
176
     1
 40
1.0
176
     1
 90
        0
176
     1
 62
    18
420
        0
176
     1
 90
       50
176
     1
 90
        3
176
     1
 62
     5
420
      255
176
     1
290
     0
176
     1
 90
       50
176
     1
 90
       50
176
     1
 90
       50
176
     1
290
     0
176
     1
 90
       50
176
     1
 62
   256
176
     0
 40
1.0
176
     0
 90
        2
176
     1
  1
strokes_ogs.tif
176
     1
290
     0
176
     1
 40
1.0
176
     1
 40
1.0
176
     1
  0
VISUALSTYLE
  5
46
102
{ACAD_REACTORS
330
2B
102
}
330
2B
100
AcDbVisualStyle
  2
Wireframe
 70
     5
177
     3
291
     0
 70
    58
 90
        0
176
     1
 90
        2
176
     1
 90
        0
176
     1
 90
        0
176
     1
 40
0.6
176
     1
 40
30.0
176
     1
 62
     7
420
 16777215
176
     1
 90
        1
176
     1
 90
        4
176
     1
 62
     7
176
     1
 62
   257
176
     1
 90
        1
176
     1
 90
        1
176
     1
 40
1.0
176
     1
 90
        0
176
     1
 62
   257
176
     1
 40
1.0
176
     1
 90
        1
176
     1
 90
        6
176
     1
 90
        2
176
     1
 62
     7
176
     1
 90
        3
176
     1
 90
        0
176
     1
 90
        0
176
     1
290
     0
176
     1
 90
        1
176
     1
 40
0.0
176
     1
 90
        0
176
     1
290
     0
176
     1
290
     1
176
     1
290
     1
176
     1
290
     0
176
     1
290
     0
176
     1
290
     0
176
     1
290
     0
176
     1
290
     0
176
     1
290
     0
176
     1
 90
       50
176
     1
 40
0.0
176
     1
 40
1.0
176
     1
 90
        0
176
     1
 62
    18
420
        0
176
     1
 90
       50
176
     1
 90
        3
176
     1
 62
     5
420
      255
176
     1
290
     0
176
     1
 90
       50
176
     1
 90
       50
176
     1
 90
       50
176
     1
290
     0
176
     1
 90
       50
176
     1
 62
   256
176
     0
 40
1.0
176
     0
 90
        2
176
     1
  1
strokes_ogs.tif
176
     1
290
     0
176
     1
 40
1.0
176
     1
 40
1.0
176
     1
  0
DICTIONARYVAR
  5
276
102
{ACAD_REACTORS
330
271
102
}
330
271
100
DictionaryVariables
280
     0
  1
1:1
  0
DICTIONARYVAR
  5
273
102
{ACAD_REACTORS
330
271
102
}
330
271
100
DictionaryVariables
280
     0
  1
STANDARD
  0
DICTIONARYVAR
  5
272
102
{ACAD_REACTORS
330
271
102
}
330
271
100
DictionaryVariables
280
     0
  1
STANDARD
  0
DICTIONARYVAR
  5
274
102
{ACAD_REACTORS
330
271
102
}
330
271
100
DictionaryVariables
280
     0
  1

  0
DICTIONARYVAR
  5
275
102
{ACAD_REACTORS
330
271
102
}
330
271
100
DictionaryVariables
280
     0
  1

  0
DICTIONARY
  5
17
330
15
100
AcDbDictionary
280
     1
281
     1
  0
DICTIONARY
  5
3C
330
3B
100
AcDbDictionary
280
     1
281
     1
  3
FBXASSET
360
3D
  0
DICTIONARY
  5
39
330
38
100
AcDbDictionary
280
     1
281
     1
  3
FBXASSET
360
3A
  0
DICTIONARY
  5
C
330
A
100
AcDbDictionary
280
     1
281
     1
  3
BUMPTILE
360
D
  3
DIFFUSETILE
360
E
  3
FBXASSET
360
F
  3
OPACITYTILE
360
10
  3
REFLECTIONTILE
360
11
  0
DICTIONARY
  5
44
330
43
100
AcDbDictionary
280
     1
281
     1
  3
ACAD_ROUNDTRIP_2008_TABLESTYLE_CELLSTYLEMAP
360
277
  0
XRECORD
  5
3D
102
{ACAD_REACTORS
330
3C
102
}
330
3C
100
AcDbXrecord
280
     1
 70
     1
 90
429727718
  1
D62C5603-E3A1-4AEA-B7FB-FE5D8D0755AF
310
504B03040A0000080000CC70623B3DEE336E79000000790000001B0000006175746F6465736B2D64657369676E2D7061636B6167652E786D6C3C3F786D6C2076657273696F6E3D22312E302220656E636F64696E673D227574662D3822203F3E3C666F726D6174733E3C666F726D61743E687474703A2F2F736368656D612E
310
6175746F6465736B2E636F6D2F64657369676E2D7061636B6167652F323030393C2F666F726D61743E3C2F666F726D6174733E504B0304140006080800CC70623BD486FD9CA0000000F4000000130000005B436F6E74656E745F54797065735D2E786D6C7D8EC10E82300C865F65E91D8A1E8C310C0EEA1BF002731658846E
310
D98AC1B77784ABF1D8FE5FBFBF75BBCE937A534CCEB38643598122B6FEE978D0B0485F9C41B54DDD7D022595594E1A469170414C76A4D9A4D207E29CF43ECE46F218070CC6BECC4078ACAA135ACF422C856C0E68EA1BF5669944DDD7BCDE7B1F8E415D77AECB980613C2E4AC91FC167A2B244592486606FC29C8FD7F045B9A
310
EF7053A7E60B504B0304140006080800CC70623B853B8169EB0000007C01000008000000636F72652E786D6C8D90416EC3201045AF62CDB6C206821CC7C244919D9CA01740401C94182C03558F5F9C3852BBEB6A467FFE9B197D7EFC9E1EC5975982F5AE035262288C535E5B377690E21535501C055FBC8FBF6C503839990E
310
5619041F179FE64D52DE45E362569DD7661365082642A11EB9E920A89B99642953CC8E702F67A9EE7234257977194EC9EAE275C4EABCCF5EAD5940D4AC6F0E35A568B8F43562CD7046CD199FD07E60174276A7BE677B5EADB0E0D14EEFFB6A31321A0D82627C4084204C3F096B71DD52F6819B16635EADF63F509AF53FA164
310
5DDCD1EDDD17164090FCC8732078B56691CB33A85CD7DCC40F504B0304140006080800CC70623B55019EA25F0000007C00000007000000636E782E786D6C4DCB3B0E80201045D1AD90E915ED2CF8AC45050C11660C8261F98AB1B07AC9C97D42D718D865D3E909258CFD00CCE24AC6E326A164D74DC0B4128928FF32603847
310
2BA13128B1252AC747C6BAB984FC68F0B87FE8960A5C09FE86CFB69FBA01504B0304140006080800CC70623BDBABAAF470010000D40300000C0000006662782F636F72652E786D6CC553D16E823014FD95A6AF4B694182CC941A83FA05FB810A9511A125A5257EFE2E82712ECEB8A7F100CD39F7F69E734AF9FADC366850B6
310
AF8DCE7018308C942E4C59EB2AC3DE1D498AD15A706B8CFB56869196ADCAF00863C12B6B7C374385D14E6907A836A59A41D9F7CA615434B0C8705F7CAA5606D23BA8E84F41278B93AC54100640439DE0BDB320004D43C63716C7C399D30917DCFBBA9CD9BA8469F5B156168B24CED3F7248AC8769F27244EB73B92EED8862C
310
B7F13E0C179B3C8F979C8ECD82BBBABDAA2BAC924E9558448CBD9330242CFA08E3154B5651FCC6D215639C8EE5774DBE2B5F6CF2B5768B68963BB5F5588420E442FC700B1139D4CB01F450C1E918227C2E09DF070D8140C84E1E9AAB8F1340832A9CB13130A5F1376A908D57309505ECF2A0DF179C4E9D30F5B239B87E3823
310
7A79C6F31DE1A8A5AEC08474B03C7837EAE4938639B44E5932B833D2C6B6B279CDC613877FA26EE21F4A2A4C63EC7F29A2F301D1F9F7A0E37D145F504B0304140006080800CC70623B9C113CC27E0000009D0000000B0000006662782F636E782E786D6C4DCCDF0A83201C86E15B91DFB94BFB330DD428C8FB886521330DA7
310
6397BF1A1DECE883878F57749FCDA1B7892F1BBC047A23808C7F84D9FA55424E0BE6803A256208E9EF06C84F9B91703228B1C690F78B66B34CD9A5439DF5CF0BFBF65E35BCA1B8D6A5C6F540381E886698B5741C695F9503EBA150A2F8958E3DC3EA0B504B0304140006080800CC70623B7DF2F77C2A010000120200003100
310
00006662782F41393633353835312D344632462D344230382D423046372D3739314545314133324237412F636F72652E786D6C8D51DB8EC22014FC15C2939B0D2DB4B45643319AE817EC0F6041255A68B86CFCFC856D4D76DF7CE190393373060EDB3DC707F856CE6B6B7A480A0C81328395DA5C7B18C3057510EC3873D686
310
3F34088C18550F330C39BB3A1BA7051AAC09CA84841A2BD5020AEF55806078A44B0FFD7053A328440C89E1EFC52486BBB8AA8214A99D789CF9E05200300FC927E4FB4D5B375D43103D5527440FB843077C5AA3F5861C8F645F5787F59E95B390B318B55CE45AA638FAA2957BD7248B390B7A7CC51F9C124149C82B8C378810
310
84AB2F42B7B8DD56F413775B8C5999E9FF4471926F8AA236A1AE96B8B3CC434E5839373893369E1FAF30EA395917409EB7F26AF8801C171837A4A6AC9C89E9F9C9B1A58BA30FD6A5EF5DDDCF894B9AD9B6A59C957943A9FCAE2FD5BC4DFE03504B0304140006080800CC70623BAD7543B64E01000033030000300000006662
310
782F41393633353835312D344632462D344230382D423046372D3739314545314133324237412F636E782E786D6CD593CD6EC32010845F0571AD6CE3D48AD20813A9873E410FBD12D82434182C7EAAE6EDBB2424CD25871E7B41D6EC30B3FA84F9E67BB2E40B4234DE8DB46F1925E094D7C6ED479AD3AE5951B2113C789FEE
310
6C943839C1488B4C05DF079FE72A69D8C96C13AAD6B8631503449F83828872B949AC57D26200B826A308D316B4064D6E46FCDA41C05550DC9E483A00797BFD207EFB092A45DE9514C1BBD22178396BD39D891265658C238DEA00936C654E5E433CB65A26D9F6EDB5EBC14EBF49A45CB856E66048291F6939A9A81BB5C89177
310
38143CA680F4AA299D66A042CEB3354A2684DC9D8D178FE0D9B8B41CAAD720F880EE7EF93C0C18769E099ECC04D5A102C8049A8A05632F4DDF376CF1DE0F6BB65C2F8627B65A33C6BB62177CEBBDAD973006829F89F22E814B54F4BC2BE347F8AA8F681390B50FA73F804400B5F542E796F19FF974E7F78DB802FE05E20750
310
4B0304140006080800CC70623BE75B7789680500003C100000340000006662782F41393633353835312D344632462D344230382D423046372D3739314545314133324237412F6F626A656374732E786D6CAD575B8F9B3818FD2B887D06C22499CB8AA1CA655245D5B455A356FB305264C061D8018C6C3393D95FBFC7600890
310
A4CD5EF210B0B1BFEBF98E3F7B1FF6596ABC522E1296DF9BAE3D320D9A872C4AF2F8DE2CE5CEBA358D0FBEC719939D65A691938CDE9B6ADAF4BD98B3B2D05311DD91329583D9D5FC0F438434A7A611A644887B5384CF34233629258BA878B12322891DEFF6B66BD70BFB62634E8AE781D082709A4B588AF91C528CDA28B73F
310
1C998EEF39EABBEFA97FBD6A7C7E9553F9D3D79FE442923C3C523610337627CB87ABE99D359D4CC6D6E4FACAB5E6ABF9D2726FC6A3C5F56271377BB88362213924694B38DD99FE47C48627A1E7D49F5A8BB5E1A74C0A599ED3B0F21F1E56366B89112D681E218F0915D0D6F17AD41FBA2A369DCF6335D62ABBD39779D5DDD1
310
11D4D8DE3CBB96B2E04FB8202E41051754A1AA8E8F76B4C6DFE810B580B1547F4B84911149794252234D024EF8BBE963A95AE27B3D310A9D5C215C7960FAEE415ED75694C6AFB17BCACA5D99A60A9AA65F217B0BFC53292ACB92BF283FAD0D3621576592CB5BED907C2FA8E9DF794E35E97BEA31BED21FEB401ABB94C44839
310
DCACBF0E1C5DA8DA5B2F4DFFD32AD86F543D9E565E7056502E157C00AD2671CD534549AB752FCA9CDA00677A313F04E51B22FF19E57B300579E3C97EB29F682D92935CEC18CF901B7B54FD8C51F362B56FC72FE0B3C1EAE335EDCCBF5AEC39ADB17DC238973F804BA5E6F6BFE7AF1FB32E523BE9F3BD571418E3631DCA4D48
310
5250CF639223210A9446CA30052EDF057BD35F8329C1ECD84552BF0DC8D18BE7BCE23BFE6BD960AB4A7DE79923A103BEBD80F911CBAA2C60DB19B01CF164A5583B772EE6D3FFA56666CBCDA74DC97724A48F9A58967497E489C4D979006FD7A05E227A1EBDD0F737C623387A9C844D3709995625106D157315F8B8392CD4E0
310
A0B9A720C4BE9829CEF37EA1E13111214D53925356365ADA634861B52519DD27A00AEB808EAF0628E6F435519D446F45CF2C9CF5214F0A15B2F6D06B79DA3EE3CBF7F56780D2F4E7EF73A0F5E5B02A38D07DC852C6B7C1FBB6664213E0C39E3EBA7FF4E1AD23EA2829407C85E586727488B751B2DB9502BC7B228A3FD68B6E
310
A65A22397E690AA8D158D7E404EC8CDA235CC3B7D1898680131CEC2CDF2638C65196279577750F15884AEE19F94199155B92B13297978469D4F8D358DF0AEF7631E28DC8F0D9F437D5D39A83B2231A1D52D543813A824EF8D44BCFF2FA6A31BD1E8DAD87F1CCB526B3879935BF59CDADD5C37479BB1CDD4CA7B3556B516589
310
EF352754B706114D9C885EC9131DE6EFEB43D99AFE2391C2F958179413D7CFEF6B1B6DB1E7600F00DE6E5C67454A339A4BA2E0FBA85ED26F045D454F463DBFCE484C2F90F2E5E3666003662ED8F755951A7D1BECD5B30B550B2785C8E7320B7292A4838DDA71BBC863ED7613CAF659337A3354231D4FF4A182A54904C2898C
310
98B28C4AD0CE056CCF332A80986E571EE9DBC305BB5FEB7E509220A58D25CF042D712A806AC0AD0C657FDEF80D2D9CEAA2EE4D1C76F60BFE74219A06527D6F82DF6412526107381E55E353090704D085B52408A8913C4ED159D79BDA71BB4BC506F4831350EB6F975CD22D69BF7AC49B91A2C0A9DDA3D5CA36AD20FC478E37
310
E61844E2352865EBCB61A275A65283CAAA9DD27703B4102F5AF51EF5F573B75CBB5AD38BC845F7A49F82A0966A49C2E3EA5EA0ECD326CD965F1DB402C6FA8B51A4658C5C5E2EC9E214602E55810345408596591009A82E7E7FFACA19EEA299B14A0081A705CB3296EBC14CDF658DCD336EA6D1136881AAEB87B81AB9EE53D5
310
F5EB8BC8362082DA24122F98680A4E7930C01A0079749CEA14382A0783E5EBA5A10F8C098456A03D6A4AEB6BB881E2513747552A5DB22C7EDAF83BD5528081A365F7FF06504B0304140006080000CC70623B000000000000000000000000350000006662782F41393633353835312D344632462D344230382D423046372D37
310
39314545314133324237412F76657274696365732E62696E504B0304140006080800CC70623BF270F1330600000004000000360000006662782F41393633353835312D344632462D344230382D423046372D3739314545314133324237412F747269616E676C65732E62696E636660600000504B0304140006080000CC7062
310
3B000000000000000000000000370000006662782F41393633353835312D344632462D344230382D423046372D3739314545314133324237412F617474726962757465732E62696E504B0304140006080800CC70623B08DA0BD19000000041010000360000006662782F41393633353835312D344632462D344230382D4230
310
46372D3739314545314133324237412F6469726563746F72792E786D6C858F410AC3201045AF22B36F53E9A60B35CBEEBAE80D244E44489C6234F4F835464A48035D0DF398FF9F8AF63D0E6CC63039F212F8F9020C7D47C6792B21C5FE7403D62A1188E2E60C98D7234A5830286103A55745067B9D86B8A3CF9C7F90C11DE6
310
07FB144396D7B6A82D282E9A152AD114D5EF2CB866EEE831B8EEA07A7BB5A8D7D61A2BAAEB7FD5F70921FF497D00504B0304140006080800CC70623BEDD1DC58FD000000A00100003B0000006662782F41393633353835312D344632462D344230382D423046372D3739314545314133324237412F7265736F75726365732F
310
636F72652E786D6C8D504B6E833010BD0A9A6D65B00922041947112427E8052C33A156828DFCA97AFC9A40A576D7CDCCE87D344F8F9FBFE667F689CE6B6B3A6039850C8DB2A336530731DC4903D95970676DF82583CCC8193B5861107C72362E3BA4AC096842428D1D7107A5F7182053CF7474E0D507CE32973124857FE48B
310
540F3961CEF244279DE03EB81420DB9EAC1384436FA353E879B1B182C7A8C75DA3C7F453DF353A1075D537A7BA6464B8F535A99AE14A9A2BBD90E350DD183B5CFABE3AF262350B1EF4FC9351399401471025A527C218A1E53BAB5A5AB765F5469B96525EACF23FA6B88CFF34456DC2A1DCE36E360F82A5202F42F062ED2BAD
310
579969AFDD8A6F504B010214000A0000080000CC70623B3DEE336E79000000790000001B00000000000000000000000000000000006175746F6465736B2D64657369676E2D7061636B6167652E786D6C504B01021400140006080800CC70623BD486FD9CA0000000F40000001300000000000000000000000000B20000005B
310
436F6E74656E745F54797065735D2E786D6C504B01021400140006080800CC70623B853B8169EB0000007C010000080000000000000000000000000083010000636F72652E786D6C504B01021400140006080800CC70623B55019EA25F0000007C000000070000000000000000000000000094020000636E782E786D6C504B
310
01021400140006080800CC70623BDBABAAF470010000D40300000C00000000000000000000000000180300006662782F636F72652E786D6C504B01021400140006080800CC70623B9C113CC27E0000009D0000000B00000000000000000000000000B20400006662782F636E782E786D6C504B01021400140006080800CC70
310
623B7DF2F77C2A010000120200003100000000000000000000000000590500006662782F41393633353835312D344632462D344230382D423046372D3739314545314133324237412F636F72652E786D6C504B01021400140006080800CC70623BAD7543B64E010000330300003000000000000000000000000000D2060000
310
6662782F41393633353835312D344632462D344230382D423046372D3739314545314133324237412F636E782E786D6C504B01021400140006080800CC70623BE75B7789680500003C10000034000000000000000000000000006E0800006662782F41393633353835312D344632462D344230382D423046372D3739314545
310
314133324237412F6F626A656374732E786D6C504B01021400140006080000CC70623B0000000000000000000000003500000000000000000000000000280E00006662782F41393633353835312D344632462D344230382D423046372D3739314545314133324237412F76657274696365732E62696E504B01021400140006
310
080800CC70623BF270F133060000000400000036000000000000000000000000007B0E00006662782F41393633353835312D344632462D344230382D423046372D3739314545314133324237412F747269616E676C65732E62696E504B01021400140006080000CC70623B0000000000000000000000003700000000000000
310
000000000000D50E00006662782F41393633353835312D344632462D344230382D423046372D3739314545314133324237412F617474726962757465732E62696E504B01021400140006080800CC70623B08DA0BD1900000004101000036000000000000000000000000002A0F00006662782F41393633353835312D344632
310
462D344230382D423046372D3739314545314133324237412F6469726563746F72792E786D6C504B01021400140006080800CC70623BEDD1DC58FD000000A00100003B000000000000000000000000000E1000006662782F41393633353835312D344632462D344230382D423046372D3739314545314133324237412F7265
310
736F75726365732F636F72652E786D6C504B0506000000000E000E0080040000641100000000
  0
XRECORD
  5
3A
102
{ACAD_REACTORS
330
39
102
}
330
39
100
AcDbXrecord
280
     1
 70
     1
 90
429727718
  1
30362254-06B7-45E0-A893-8CFA70E3D6BC
310
504B03040A0000080000CC70623B3DEE336E79000000790000001B0000006175746F6465736B2D64657369676E2D7061636B6167652E786D6C3C3F786D6C2076657273696F6E3D22312E302220656E636F64696E673D227574662D3822203F3E3C666F726D6174733E3C666F726D61743E687474703A2F2F736368656D612E
310
6175746F6465736B2E636F6D2F64657369676E2D7061636B6167652F323030393C2F666F726D61743E3C2F666F726D6174733E504B0304140006080800CC70623BD486FD9CA0000000F4000000130000005B436F6E74656E745F54797065735D2E786D6C7D8EC10E82300C865F65E91D8A1E8C310C0EEA1BF002731658846E
310
D98AC1B77784ABF1D8FE5FBFBF75BBCE937A534CCEB38643598122B6FEE978D0B0485F9C41B54DDD7D022595594E1A469170414C76A4D9A4D207E29CF43ECE46F218070CC6BECC4078ACAA135ACF422C856C0E68EA1BF5669944DDD7BCDE7B1F8E415D77AECB980613C2E4AC91FC167A2B244592486606FC29C8FD7F045B9A
310
EF7053A7E60B504B0304140006080800CC70623B1EC5D7A3EB0000007C01000008000000636F72652E786D6C8D90416EC3201045AF82665B6103C6756C6122AB4D4ED00B204C5C94182C03558F5F9C3852BBEB6A467FFE9B197D71FC9E6FE8CBACC17AD7032D0820E3B41FAD9B7A48F1820F808E52ACDEC75F36404ECDA687
310
4D0629A6D5A76597B477D1B89855E747B38B2A041301E95B6E7A08FAD3CCAA50296647B8168BD2573599823EBB0CA76447F43862C7BCCF5EAC59410E4DDD9C7973C2755553CCCFA4C603E3040F1565ED3B1FDE4E432BCA0D9622DAF9795FAF464533826484B498524CD807E51D79ED187F21878E10516EF63F505AC67F42C9
310
BA58B1FDDD071640D2FCC87D2045B96591CB3DA85CB7DCE40F504B0304140006080800CC70623B55019EA25F0000007C00000007000000636E782E786D6C4DCB3B0E80201045D1AD90E915ED2CF8AC45050C11660C8261F98AB1B07AC9C97D42D718D865D3E909258CFD00CCE24AC6E326A164D74DC0B4128928FF32603847
310
2BA13128B1252AC747C6BAB984FC68F0B87FE8960A5C09FE86CFB69FBA01504B0304140006080800CC70623B8C9102E971010000D40300000C0000006662782F636F72652E786D6CC5535B6E833010BC8AE5DF0A6C08340F1947A84D4ED00B38C6A128602363A31CBFCB234A53A551FA553EC09AD9F5CE8C31DB9E9B1AF5CA
310
7695D1198E428A91D2D214952E33ECDD315861B4E5CC1AE3BE9561A445A3323CC098B3D21ADFCE9034DA29ED00D5A6503328BA4E398C640D8B0C77F253352214DE4145770A5B214FA2546114020D759C75CE8200340D19DE981F0F6746269C33EFAB6266AB02A655C74A59CCF365BADC27CB5D902ED22848F6340DF238A141
310
BE88E2F57B92BFEDF23523433367AE6A2EEAA455C2A902F398D2751045018D3FA264435F3771F242571B4A1919CA6F9A7C5B3CD9E42BED16F12C776AEB308F40C848FC700B1139D4891EF410CEC810227CC6846F8386402064270EF5C5C709A05E49676C024C61FC95EA45ED154CA5211D1FF4FB8291A913A68E9B83EBBB33
310
E2A7673CDE118E5AE8124C0807CB8377834E366998436B950D7A7746DAD846D4CFD978E0F04FD455FC5D49D2D4C6FE9722321F10997F0F32DC47FE05504B0304140006080800CC70623BFFEA85907E0000009D0000000B0000006662782F636E782E786D6C4DCCD10A83201886E15B91FFDC95D95A811AB6F23E625948A6C3
310
E9D8E5AF46073BFAE0E1E365ED67B3E8ADC3CB78C7815C7240DA3DFC64DCC221C519D7805AC182F7F1EF06C88D9BE6703008B6049F9E274D7A1E938DBB5AE3D6131B2589BA0D3D965551E0B2EA732C9B9A624AAEB41E3A557677029960D9AFB4EF11165F504B0304140006080800CC70623B4FEEA4082C0100001202000031
310
0000006662782F39464131463745442D413632322D343644302D413938332D3331353338454246344243312F636F72652E786D6C8D515B6EC32010BC0AE2AB55850DD871ED0813254D72825EC00192A2C460F1A872FC42ED48ED5F7E00CDCECCCEB26C731F6FE05B39AFADE921293004CA082BB5B9F43086336A21D870E6AC
310
0D7F68109861543DCC30E4ECE26C9C164858139409093556AA051CBC570102714B8F1E7AF1A5C6A11862480C7F2DA6415C878B2A4891CA89C7990F2E050073937C42DE1DB7E4F87ED8A36D4329AA9B3D46DBAEAD504556557BD81DEBDD0761E52CE42C462D17B996298E3E6BE59E35C962CE821E1FF18553435012728A7187
310
0841987E927A8D9B35ADDF70BBC6989599FE4F1427F9A4286A132ABAC49D651EF234CD5CE04CDA78BA3DC2A8FB645D00B9DF8B57E215725C60BCA2A463E54C4CE327C7A65E1C7DB02E7DEFCBF594B864C5CA6CDBD49C957943E9FA5D5FBAF336F90F504B0304140006080800CC70623BAD7543B64E01000033030000300000
310
006662782F39464131463745442D413632322D343644302D413938332D3331353338454246344243312F636E782E786D6CD593CD6EC32010845F0571AD6CE3D48AD20813A9873E410FBD12D82434182C7EAAE6EDBB2424CD25871E7B41D6EC30B3FA84F9E67BB2E40B4234DE8DB46F1925E094D7C6ED479AD3AE5951B2113C
310
789FEE6C943839C1488B4C05DF079FE72A69D8C96C13AAD6B8631503449F83828872B949AC57D26200B826A308D316B4064D6E46FCDA41C05550DC9E483A00797BFD207EFB092A45DE9514C1BBD22178396BD39D891265658C238DEA00936C654E5E433CB65A26D9F6EDB5EBC14EBF49A45CB856E66048291F6939A9A81BB5
310
C8917738143CA680F4AA299D66A042CEB3354A2684DC9D8D178FE0D9B8B41CAAD720F880EE7EF93C0C18769E099ECC04D5A102C8049A8A05632F4DDF376CF1DE0F6BB65C2F8627B65A33C6BB62177CEBBDAD973006829F89F22E814B54F4BC2BE347F8AA8F681390B50FA73F804400B5F542E796F19FF974E7F78DB802FE05
310
E207504B0304140006080800CC70623B16AB87BA640500003C100000340000006662782F39464131463745442D413632322D343644302D413938332D3331353338454246344243312F6F626A656374732E786D6CAD575B6FA33818FD2B887DE6924B3BED8A326A92B68A663B534DD4D13E548A0C38942D60649B369D5FBFC7
310
600890A493BDE42160637FD7F31D7FF63E6FB3D478A55C242CBF3247B66B1A340F5994E4F19559CA8D75611A9F7D8F33263BCB4C232719BD32D5B4E97B316765A1A722BA21652A07B3B7B33F0D11D29C9A46981221AE4C113ED38CD8A4942CA2E2C58E882476BCD9DA23BB5ED8171B73523C0F841684D35CC252CCE79062D4
310
468DFA43D7747CCF51DF7D4FFDEB5593E3AB9CCA9FBEFE241792E4E19EB28198C968BAB8199F5D5A67D3E9C49A9E8F47D6EC76B6B0469F26EEFC7C3EBFBCBEB98462213924694B38DD98FE1D62C393D073EA4FADC5DAF04326852CCF6958F90F0F2B9BB5C48816348F90C7840A68EB78EDF68723159BCEE7891A6B95DDE9D3
310
BCEAEEE8086A6C6F9E5D4B59F0175C10A7A0820BAA5055C7473B5AE3CFDD452D602CD5DF12616444529E90D448938013FE6EFA58AA96F85E4F8C42275708571E98FE6827AF6B2B4AE3D7D83D64E5A64C53054DD3AF90BD06FEA9149565C94FCA0F6B834DC85599E4F2423B24DF0B6AFA979E534DFA9E7A4CC6FA631D486393
310
921829879BF5D781A373557BCB85E97FB90DB62B558F8795179C15944B051F40AB495CF35451D26A4727654E6D8033BD98EF82F21D91FF8AF2DD9982BCF1643BDD4EB516C9492E368C67C88DED563FC36D5EACF66DFF057C3658BDBFA69DF9578B3DA735B64F18C7F20770A9D45CFCF7FCF563D6456A277DBEF78A02637CA2
310
43B90A490AEAB94F72244481D24819A6C0E59B606BFA4B3025981DBB48EAB701D97BF19C577CC77F2D1B6C55A9EF3C732474C0B727303F625995056C3B02963D9EAC146BE78EC5FCEC7FA999EBC5EACBAAE41B12D27B4D2C0BBA49F244E2ECDC81B76B502F113D8F5EE8FB1BE3111CDD4FC2AA9B844CAB1288B68AB90A7CDC
310
1C166AB0D3DC5310625FCC14E779BFD0709F8890A629C9292B1B2DED31A4B0DA928CEE135085754027E3018A397D4D5427D15BD1330B677DC8934285AC3DF45A9EB68FF8F2B8FC0A509AFEECFD0FF2DE25CC6047F7214B195F07EFEB9A094D800F7BFAE8FED187B78EA8A3A400F115961BCAD1215E47C966530AF0EE8128FE
310
58CEBB996A8964FFA529A046635D9353B0336A8F700DDF46271A024E70B0B37C9DE01847591E54DED53D54202AB947E4076556AC49C6CA5C9E1226B7F1A7B1BE15DEED62C41B91E1B3E9AFAAA735036547343A925075041DF0A9979E893B391F8FCFA6967B3EFB644DCF6E5CEBFAE272625DCC6FAF3FB93793C5F90CE1EF57
310
407342756B10D1C489E8953CD1617E5CEECAD6F4EF8914CE5D5D504E5C3F1F9736DA62CFC11E00BCDDB8CC8A9466349744C1F75EBDA4DF09BA8A9E8C7A7E9991989E20E5DBDD6A6003664ED8F7A04A8DBE0DF6EAD9B9AA858342E47399053949D2C146EDB85DE4B176BB0965FBAC19BD19AA918E27FA50C1D22402E144464C
310
59462568E704B6E71915404CB72B8FF4EDE184DDAF753F284990D2C6926782963815403548A70C657FDEF80D2D9CEAA2AE4C1C76F60BFE74219A06527D6582DF6412526107381E55E353090704D085B52408D0933C4ED159D79BDA71BB4BC506F4831350EB6F979CD22D69BF7AC49B91A2C0A9DDA3D5CA36AD20FC478E37E6
310
1844E2352865EBCB6EA275A652E3836BE04EFB400BF1A2556F515F1FBB35B2AB35BD889C744FFA1004B5544B121E57F70215746DD2F5E2C1412B602CBF19455AC6C8E5E9922C4E01E65215385004546899059180EAFCF7A707CE7017CD8CDB0410789AB32C63B91E5CEBBBACB17AC6CD347A022D5075FD106377347AAABA7E
310
7D11590744509B44E205134DC1290F06580320F78E537D3D73540E06CB970B431F185308AD40BBD794D6D77003C5A36E8EAA54BA64597CD8F83BD552A080A365F7FF06504B0304140006080000CC70623B000000000000000000000000350000006662782F39464131463745442D413632322D343644302D413938332D3331
310
353338454246344243312F76657274696365732E62696E504B0304140006080800CC70623BF270F1330600000004000000360000006662782F39464131463745442D413632322D343644302D413938332D3331353338454246344243312F747269616E676C65732E62696E636660600000504B0304140006080000CC70623B
310
000000000000000000000000370000006662782F39464131463745442D413632322D343644302D413938332D3331353338454246344243312F617474726962757465732E62696E504B0304140006080800CC70623B08DA0BD19000000041010000360000006662782F39464131463745442D413632322D343644302D413938
310
332D3331353338454246344243312F6469726563746F72792E786D6C858F410AC3201045AF22B36F53E9A60B35CBEEBAE80D244E44489C6234F4F835464A48035D0DF398FF9F8AF63D0E6CC63039F212F8F9020C7D47C6792B21C5FE7403D62A1188E2E60C98D7234A5830286103A55745067B9D86B8A3CF9C7F90C11DE607
310
FB144396D7B6A82D282E9A152AD114D5EF2CB866EEE831B8EEA07A7BB5A8D7D61A2BAAEB7FD5F70921FF497D00504B0304140006080800CC70623B0D6EF93BFE000000A00100003B0000006662782F39464131463745442D413632322D343644302D413938332D3331353338454246344243312F7265736F75726365732F63
310
6F72652E786D6C8D50596E833010BD0A9ADFCA60B334011947A8694ED00B586642AC041B79A97AFC9A40A5F6AF3F33A3B7689E1E3F7DCD8FEC139DD7D6F4C0720A191A65476DA61E62B892236427C19DB5E1970C322367EC618541F0C9D9B8EC90B226A009093576C41D94DE63804C3DD2D18357379C652E63480A7FCF17A9
310
EE72C29CE5894E3AC17D702940B63D59270887DE46A7D0F36263058F518FBB468FE9A7BE6A7420864373B8D4873369AA8691FA421B3294352543C5CAF65C0F6FEF43CB8BD52C78D0F34F46E550061C419494B6843142CB0F5677F4B52BEB177AEC28E5C52AFF638ACBF84F53D42654E51E77B379102C05791282176B5F693D
310
CB4C7BED567C03504B010214000A0000080000CC70623B3DEE336E79000000790000001B00000000000000000000000000000000006175746F6465736B2D64657369676E2D7061636B6167652E786D6C504B01021400140006080800CC70623BD486FD9CA0000000F40000001300000000000000000000000000B20000005B
310
436F6E74656E745F54797065735D2E786D6C504B01021400140006080800CC70623B1EC5D7A3EB0000007C010000080000000000000000000000000083010000636F72652E786D6C504B01021400140006080800CC70623B55019EA25F0000007C000000070000000000000000000000000094020000636E782E786D6C504B
310
01021400140006080800CC70623B8C9102E971010000D40300000C00000000000000000000000000180300006662782F636F72652E786D6C504B01021400140006080800CC70623BFFEA85907E0000009D0000000B00000000000000000000000000B30400006662782F636E782E786D6C504B01021400140006080800CC70
310
623B4FEEA4082C0100001202000031000000000000000000000000005A0500006662782F39464131463745442D413632322D343644302D413938332D3331353338454246344243312F636F72652E786D6C504B01021400140006080800CC70623BAD7543B64E010000330300003000000000000000000000000000D5060000
310
6662782F39464131463745442D413632322D343644302D413938332D3331353338454246344243312F636E782E786D6C504B01021400140006080800CC70623B16AB87BA640500003C1000003400000000000000000000000000710800006662782F39464131463745442D413632322D343644302D413938332D3331353338
310
454246344243312F6F626A656374732E786D6C504B01021400140006080000CC70623B0000000000000000000000003500000000000000000000000000270E00006662782F39464131463745442D413632322D343644302D413938332D3331353338454246344243312F76657274696365732E62696E504B01021400140006
310
080800CC70623BF270F133060000000400000036000000000000000000000000007A0E00006662782F39464131463745442D413632322D343644302D413938332D3331353338454246344243312F747269616E676C65732E62696E504B01021400140006080000CC70623B0000000000000000000000003700000000000000
310
000000000000D40E00006662782F39464131463745442D413632322D343644302D413938332D3331353338454246344243312F617474726962757465732E62696E504B01021400140006080800CC70623B08DA0BD190000000410100003600000000000000000000000000290F00006662782F39464131463745442D413632
310
322D343644302D413938332D3331353338454246344243312F6469726563746F72792E786D6C504B01021400140006080800CC70623B0D6EF93BFE000000A00100003B000000000000000000000000000D1000006662782F39464131463745442D413632322D343644302D413938332D3331353338454246344243312F7265
310
736F75726365732F636F72652E786D6C504B0506000000000E000E0080040000641100000000
  0
XRECORD
  5
D
102
{ACAD_REACTORS
330
C
102
}
330
C
100
AcDbXrecord
280
     1
270
     1
271
     1
  0
XRECORD
  5
E
102
{ACAD_REACTORS
330
C
102
}
330
C
100
AcDbXrecord
280
     1
270
     1
271
     1
  0
XRECORD
  5
F
102
{ACAD_REACTORS
330
C
102
}
330
C
100
AcDbXrecord
280
     1
 70
     0
 90
1673772943
  1
ECE7A1D2-D628-4531-984C-D00F80459256
310
504B03040A0000080000CC70623B3DEE336E79000000790000001B0000006175746F6465736B2D64657369676E2D7061636B6167652E786D6C3C3F786D6C2076657273696F6E3D22312E302220656E636F64696E673D227574662D3822203F3E3C666F726D6174733E3C666F726D61743E687474703A2F2F736368656D612E
310
6175746F6465736B2E636F6D2F64657369676E2D7061636B6167652F323030393C2F666F726D61743E3C2F666F726D6174733E504B0304140006080800CC70623BD486FD9CA0000000F4000000130000005B436F6E74656E745F54797065735D2E786D6C7D8EC10E82300C865F65E91D8A1E8C310C0EEA1BF002731658846E
310
D98AC1B77784ABF1D8FE5FBFBF75BBCE937A534CCEB38643598122B6FEE978D0B0485F9C41B54DDD7D022595594E1A469170414C76A4D9A4D207E29CF43ECE46F218070CC6BECC4078ACAA135ACF422C856C0E68EA1BF5669944DDD7BCDE7B1F8E415D77AECB980613C2E4AC91FC167A2B244592486606FC29C8FD7F045B9A
310
EF7053A7E60B504B0304140006080800CC70623BD9DDAED0EC0000007C01000008000000636F72652E786D6C8D90416EC3201045AF82665B61836D9CD8C2444DD39CA01740405C94182C03558F5F9C3852BBEB6A467FFE9B197D7EF89E6EE8CB2CC17A37002D0820E394D7D68D03A478C17B4007C117EFE32F1B20272733C0
310
2A83E0E3E2D3BC49CABB685CCCAAF3DA6CA20CC14440EA969B0182FA34932C648AD911AEC52CD5558EA6A0CF2EC329598D1E47ACCEFBECC59A050463A7EA5833865FEBDD0E37353BE3EE8DBDE3F6786A48D375FBF6CC78B9C282473B3DEFABC5C86834888A900E538A49F5419B9EB47DD5BC907D4F082F57FB1F28CDFA9F50
310
B22ED6D5F6EE030B20687EE43E10BC5CB3C8E51E54AE6B6EE207504B0304140006080800CC70623B55019EA25F0000007C00000007000000636E782E786D6C4DCB3B0E80201045D1AD90E915ED2CF8AC45050C11660C8261F98AB1B07AC9C97D42D718D865D3E909258CFD00CCE24AC6E326A164D74DC0B4128928FF326038
310
472BA13128B1252AC747C6BAB984FC68F0B87FE8960A5C09FE86CFB69FBA01504B0304140006080800CC70623BA24EB22D72010000D40300000C0000006662782F636F72652E786D6CC5535B6E833010BC8AE5DF0A6C5E49888CA3A6694ED00B38E05014B091B1518EDFE511A5A9D228FD2A1F60CDEC7A67C6986DCE4D8D7A
310
69BA4AAB0C073EC548AA5C17952A33ECECD15B61B4E1CC686DBF9561A44423333CC098B3D268D7CE50AE9595CA02AA74216750749DB418E5352C32DCE59FB211BE70162ABA93DF8AFC244AE9073ED050C759670D0840D390E18DF9F1706664C23973AE2A66B62A605A75ACA4C13C4976E1364A12EF355A2EBD384AF65EFA96
310
BC7B8BED2EA6719AAE16FB8491A199335B351775B991C2CA02F390D2D40B028F861F41BCA68B7518BFD0D59A524686F29B26D7164F36B94AD9289CE54E6D1DE6010819891F6E21228B3AD1831EC219194284CF98F06DD01008846CC5A1BEF83801D4CBDC6A1303536877A57A513B0953A94FC707FDBE6064EA84A9E3E6E0FA
310
EE8CF0E9198F7784A316AA0413C2C2F2E0ECA0934D1AE6D05A69BCDE9E91D2A611F573361E38FC1375157F5752AE6B6DFE4B11990F88CCBF0719EE23FF02504B0304140006080800CC70623B408A7D3B7C0000009D0000000B0000006662782F636E782E786D6C4DCCD10A83201886E15B91FFDC552A92A0064DBC8F581632
310
D3703A76F9ABD1C18E3E78F878E5F0D9027ABBFCF2292AE86E2D20171F69F6715550CB827B40839639A5F2770314A7CD293819B45C73AAFB45B35BA61ACAA1C1C7E7855C58C15BC331339661262CC762340413D68D77DA5B42298546CBE6573AF60CEB2F504B0304140006080800CC70623B449FB9BD290100001202000031
310
0000006662782F36394639363044362D344446342D343946362D394244322D3234314243333846323333332F636F72652E786D6C8D515B6EC32010BC0AE22B55850D98B871848994463E412FE002495162B07854397EA176A4F62F3F2C9A9D991D587EB84F37F0AD7D30CEF6905418026DA553C65E7A98E219ED203808EE9D
310
8B7F6810D871D23D2C3014FCE25D9A57483A1BB58D19B54EE9151C43D0110279CB971E06F9A5A7B11A53CC8C70ADE6515EC78BAE4895DB992778883E0700CB907242D17643D7E2538BD869608875438BBAE38922CAC8F1BDD90DB4691A5E2F42C153326A951B95E398B3D1FE599322163C9AE9115F7A3D46ADA0A018778810
310
84E907617BDCEE297BC5BB3DC6BC2EF47FA234AB2745C9D8D8D035EE220B50105E2F0DC1954B9FB747187D9F9D8FA0CCDB042D5FA0C015C65B42DF78BD10F3F3B363CB56C7109DCFDFBBB97E662ED92EB62D13BC2E1BCAE5777DB9966D8A1F504B0304140006080800CC70623BAD7543B64E01000033030000300000006662
310
782F36394639363044362D344446342D343946362D394244322D3234314243333846323333332F636E782E786D6CD593CD6EC32010845F0571AD6CE3D48AD20813A9873E410FBD12D82434182C7EAAE6EDBB2424CD25871E7B41D6EC30B3FA84F9E67BB2E40B4234DE8DB46F1925E094D7C6ED479AD3AE5951B2113C789FEE
310
6C943839C1488B4C05DF079FE72A69D8C96C13AAD6B8631503449F83828872B949AC57D26200B826A308D316B4064D6E46FCDA41C05550DC9E483A00797BFD207EFB092A45DE9514C1BBD22178396BD39D891265658C238DEA00936C654E5E433CB65A26D9F6EDB5EBC14EBF49A45CB856E66048291F6939A9A81BB5C89177
310
38143CA680F4AA299D66A042CEB3354A2684DC9D8D178FE0D9B8B41CAAD720F880EE7EF93C0C18769E099ECC04D5A102C8049A8A05632F4DDF376CF1DE0F6BB65C2F8627B65A33C6BB62177CEBBDAD973006829F89F22E814B54F4BC2BE347F8AA8F681390B50FA73F804400B5F542E796F19FF974E7F78DB802FE05E20750
310
4B0304140006080800CC70623B8D05915C650500003B100000340000006662782F36394639363044362D344446342D343946362D394244322D3234314243333846323333332F6F626A656374732E786D6CAD575B6FA33814FE2B887D06429276DA1565D4266D158D3A339A6846FB502932E050B66023DB74D2FDF5FB190C01
310
9276B2973C046C8ECFF53B17071F77456EBD502133CEAE6CDF9DD81665314F32965ED995DA3A17B6F5310C04E7AA47665B8C14F4CAD6DB7618A48257A5D94AE89654B91AEDDEDDFC61C998326A5B714EA4BCB265FC440BE2924AF184CA6737218AB8E976E7FA6E4338649B0A523E8D98964450A6A029F619B8588D52FE7039
310
B1BD30F0F4F730D0FF866AF6369557DB33949F31A9088B0F848DD8CCFCF9F2767A76E99CCDE733677E3EF59D9BBB9BA5E37F984D16E78BC5E5F5ED25044B25C0C96822E8D60EEFE11B91C581D77CEA34368A1F5329E68CD1B8B61F16D63A1B8E092D294B10C78C4A48EB593D192E7DED9BDEE7995E1B91FDEDD3ACEA9FE831
310
6A756F9F7D4D79F4274C90A7A04248AA51D5F8C718DAE06FB2F75AC4796EBE65D22A88A22223B995679120E2D50E41AA49C260C046A35368846B0BECD0DFF3EBEB8AD4F835768F69B9ADF25C43D30E6B646F807FAA64AD59F61715C7A54127C4AACA98BA3006A9D792DAE165E0D59B61A01FB3A9F9D838D2DAE62445C86166
310
F37564E842E7DE6A69879FEEA2DD5AE7E371E1A5E025154AC307D06A03D73EB5978C58FFA4C8E9033066E0F3BD53BEC1F39F91BE7B55103791EDE6BBB991A2046172CB4581D8B893FA674DDA17A77B3B7C413D1B511FD2743BFF8A38F03A658705E3ADF8015C3A3417FF3D7E439FF591DA0B5F18BC20C1B8981957AE6392A3
310
F43C640C01D1A0B4728E2DD4F26DB4B3C3152A252A3B4E913CEC1C72F012782FF88EFF8637AA552DBEF76408E8A8DE9E50F9E1CB3A2DA0DB1B6039A893B56063DC5B3E3FFB5F72E67AB9FEB4AEC496C4F4C1149625DD662C53E89D7BF0F6151A046260D1337DFDC94502430F83B0EE07A130A224BCAD7DAE1D9FB6CD422FF6
310
920702629C4BB9AE79C12F243C6432A6794E18E5552BA56B431AAB5D91317302B2B071E86C3A42B1A02F999E24061403B5D0EB639195DA655DD3EBEAB4FB862DDF579F014AD0E73C22F99E28DA57FB98E75C6CA2D74D53086D600F4786E0FE3144B771A8A7B900F03594DB8A633CBC49B2EDB69228BB479CF863B5E807AAAB
310
23872F6DFEB4129B949CA33823F58830E86D65621E10047D9DB34D862E8EAC3C2ABC2F7B2C40D67CDFE01F5545B92105AF983AC54D93D69E56FB8E797F88913F898A9FEC705D3F9D1B54EC8426FB500D40A03BD0119B06E1B95DDC7EB8F6975367793EBD70E66733DFB9BC982F9CE564727731999F5D4ECFCE3B8D6A4DC2A0
310
6D50FD148437D110834A64C6CDDF57FBACB5C307A2A477DFE4939736CFEF2B175371E0E10CF0DD1D5C15654E0BCA14D1E87DD02FF93782A162C0A3D95F1524A52770F972BF1EE9809D13CE7DD599467F8ECE9ADD85CE85A34CD45355448C64F9E8A031DC2D596ACC6E5DD93D9B82DE2EF5CAF81363A8E47996A0DE24564A79
310
4115AACE09C55E14540231FDA13C319787134EBF34E3A022514E5B4D9E0826E25C02D5805B15ABE1BEF51B26383D445DD9E875EE33FE4C22DA16427D65A3BCA92CA6D28DD01DF5DC53330704308475351050232CCD31583787BA75774AFB06E5070DD0C8EF484E19968C5D83BA5B90B244D31E54D55A372320FE4786B7EA58
310
44E135AA5467CB7EA333A61683CC6A8C3257034C10CF46F40EF9F5BE59BE5BD30C3C72D235E95D10345C1D45445A5F0BB47E46A5EBE5570F9380B5FA629579952296A773720405982B9DE04011506178964401AA8BDF1FBF0A8EAB6861DD6580C0E38217056766716DAEB2D6FA0917D3E4116581EADB879C4E7CFFB11EFACD
310
3D641311495D92C8676CB409A72D18610D803CE8A626049E8EC1887CB5B44CC39883690DDA8399B4B9855B481E7D71D4A9D22F96E5BB73BF5793020C02137BF837504B0304140006080000CC70623B000000000000000000000000350000006662782F36394639363044362D344446342D343946362D394244322D32343142
310
43333846323333332F76657274696365732E62696E504B0304140006080800CC70623BF270F1330600000004000000360000006662782F36394639363044362D344446342D343946362D394244322D3234314243333846323333332F747269616E676C65732E62696E636660600000504B0304140006080000CC70623B0000
310
00000000000000000000370000006662782F36394639363044362D344446342D343946362D394244322D3234314243333846323333332F617474726962757465732E62696E504B0304140006080800CC70623B08DA0BD19000000041010000360000006662782F36394639363044362D344446342D343946362D394244322D
310
3234314243333846323333332F6469726563746F72792E786D6C858F410AC3201045AF22B36F53E9A60B35CBEEBAE80D244E44489C6234F4F835464A48035D0DF398FF9F8AF63D0E6CC63039F212F8F9020C7D47C6792B21C5FE7403D62A1188E2E60C98D7234A5830286103A55745067B9D86B8A3CF9C7F90C11DE607FB14
310
4396D7B6A82D282E9A152AD114D5EF2CB866EEE831B8EEA07A7BB5A8D7D61A2BAAEB7FD5F70921FF497D00504B0304140006080800CC70623BCA768048FE000000A00100003B0000006662782F36394639363044362D344446342D343946362D394244322D3234314243333846323333332F7265736F75726365732F636F72
310
652E786D6C8D50596E833010BD0A9ADFCA60D600328E9AA639412F609909B1126CE4A5EAF16B0295DABFFECC8CDEA2797AECF8353F924FB44E193D409E5248504B332A3D0D10FC95B4901C39B3C6F85F3248B49871801506CE266BC2B243D2688FDA47549B11775038871E12F988C7004EDE7016A9083E2ADC3D5D84BC8B09
310
D33C8D74D471E6BC8D0192EDC93A815B742658898E651BCB59086ADC356A8C3FD555A1055ED7E7E254D615792D0F075295F585746FF53B694EE78A565DD736979A65AB9933AFE69F8CD2A2F038022F28ED489E135A7CE4554F9BBEA85E68DB53CAB255FEC71496F19FA6A0B42F8B3DEE6673C0F318E4497096AD7DC5F52C33
310
EEB55BFE0D504B010214000A0000080000CC70623B3DEE336E79000000790000001B00000000000000000000000000000000006175746F6465736B2D64657369676E2D7061636B6167652E786D6C504B01021400140006080800CC70623BD486FD9CA0000000F40000001300000000000000000000000000B20000005B436F
310
6E74656E745F54797065735D2E786D6C504B01021400140006080800CC70623BD9DDAED0EC0000007C010000080000000000000000000000000083010000636F72652E786D6C504B01021400140006080800CC70623B55019EA25F0000007C000000070000000000000000000000000095020000636E782E786D6C504B0102
310
1400140006080800CC70623BA24EB22D72010000D40300000C00000000000000000000000000190300006662782F636F72652E786D6C504B01021400140006080800CC70623B408A7D3B7C0000009D0000000B00000000000000000000000000B50400006662782F636E782E786D6C504B01021400140006080800CC70623B
310
449FB9BD290100001202000031000000000000000000000000005A0500006662782F36394639363044362D344446342D343946362D394244322D3234314243333846323333332F636F72652E786D6C504B01021400140006080800CC70623BAD7543B64E010000330300003000000000000000000000000000D20600006662
310
782F36394639363044362D344446342D343946362D394244322D3234314243333846323333332F636E782E786D6C504B01021400140006080800CC70623B8D05915C650500003B10000034000000000000000000000000006E0800006662782F36394639363044362D344446342D343946362D394244322D32343142433338
310
46323333332F6F626A656374732E786D6C504B01021400140006080000CC70623B0000000000000000000000003500000000000000000000000000250E00006662782F36394639363044362D344446342D343946362D394244322D3234314243333846323333332F76657274696365732E62696E504B010214001400060808
310
00CC70623BF270F13306000000040000003600000000000000000000000000780E00006662782F36394639363044362D344446342D343946362D394244322D3234314243333846323333332F747269616E676C65732E62696E504B01021400140006080000CC70623B00000000000000000000000037000000000000000000
310
00000000D20E00006662782F36394639363044362D344446342D343946362D394244322D3234314243333846323333332F617474726962757465732E62696E504B01021400140006080800CC70623B08DA0BD190000000410100003600000000000000000000000000270F00006662782F36394639363044362D344446342D
310
343946362D394244322D3234314243333846323333332F6469726563746F72792E786D6C504B01021400140006080800CC70623BCA768048FE000000A00100003B000000000000000000000000000B1000006662782F36394639363044362D344446342D343946362D394244322D3234314243333846323333332F7265736F
310
75726365732F636F72652E786D6C504B0506000000000E000E0080040000621100000000
  0
XRECORD
  5
10
102
{ACAD_REACTORS
330
C
102
}
330
C
100
AcDbXrecord
280
     1
270
     1
271
     1
  0
XRECORD
  5
11
102
{ACAD_REACTORS
330
C
102
}
330
C
100
AcDbXrecord
280
     1
270
     1
271
     1
  0
CELLSTYLEMAP
  5
277
102
{ACAD_REACTORS
330
44
102
}
330
44
100
AcDbCellStyleMap
 90
        3
300
CELLSTYLE
  1
TABLEFORMAT_BEGIN
 90
        5
170
     1
 91
        0
 92
    32768
 62
   257
 93
        1
300
CONTENTFORMAT
  1
CONTENTFORMAT_BEGIN
 90
        0
 91
        0
 92
      512
 93
        0
300

 40
0.0
140
1.0
 94
        5
 62
     0
340
21
144
6.0
309
CONTENTFORMAT_END
171
     1
301
MARGIN
  1
CELLMARGIN_BEGIN
 40
1.5
 40
1.5
 40
1.5
 40
1.5
 40
4.5
 40
4.5
309
CELLMARGIN_END
 94
        6
 95
        1
302
GRIDFORMAT
  1
GRIDFORMAT_BEGIN
 90
        0
 91
        1
 62
     0
 92
       -2
340
24
 93
        0
 40
1.125
309
GRIDFORMAT_END
 95
        2
302
GRIDFORMAT
  1
GRIDFORMAT_BEGIN
 90
        0
 91
        1
 62
     0
 92
       -2
340
24
 93
        0
 40
1.125
309
GRIDFORMAT_END
 95
        4
302
GRIDFORMAT
  1
GRIDFORMAT_BEGIN
 90
        0
 91
        1
 62
     0
 92
       -2
340
24
 93
        0
 40
1.125
309
GRIDFORMAT_END
 95
        8
302
GRIDFORMAT
  1
GRIDFORMAT_BEGIN
 90
        0
 91
        1
 62
     0
 92
       -2
340
24
 93
        0
 40
1.125
309
GRIDFORMAT_END
 95
       16
302
GRIDFORMAT
  1
GRIDFORMAT_BEGIN
 90
        0
 91
        1
 62
     0
 92
       -2
340
24
 93
        0
 40
1.125
309
GRIDFORMAT_END
 95
       32
302
GRIDFORMAT
  1
GRIDFORMAT_BEGIN
 90
        0
 91
        1
 62
     0
 92
       -2
340
24
 93
        0
 40
1.125
309
GRIDFORMAT_END
309
TABLEFORMAT_END
  1
CELLSTYLE_BEGIN
 90
        1
 91
        1
300
_TITLE
309
CELLSTYLE_END
300
CELLSTYLE
  1
TABLEFORMAT_BEGIN
 90
        5
170
     1
 91
        0
 92
        0
 62
   257
 93
        1
300
CONTENTFORMAT
  1
CONTENTFORMAT_BEGIN
 90
        0
 91
        0
 92
      512
 93
        0
300

 40
0.0
140
1.0
 94
        5
 62
     0
340
21
144
4.5
309
CONTENTFORMAT_END
171
     1
301
MARGIN
  1
CELLMARGIN_BEGIN
 40
1.5
 40
1.5
 40
1.5
 40
1.5
 40
4.5
 40
4.5
309
CELLMARGIN_END
 94
        6
 95
        1
302
GRIDFORMAT
  1
GRIDFORMAT_BEGIN
 90
        0
 91
        1
 62
     0
 92
       -2
340
24
 93
        0
 40
1.125
309
GRIDFORMAT_END
 95
        2
302
GRIDFORMAT
  1
GRIDFORMAT_BEGIN
 90
        0
 91
        1
 62
     0
 92
       -2
340
24
 93
        0
 40
1.125
309
GRIDFORMAT_END
 95
        4
302
GRIDFORMAT
  1
GRIDFORMAT_BEGIN
 90
        0
 91
        1
 62
     0
 92
       -2
340
24
 93
        0
 40
1.125
309
GRIDFORMAT_END
 95
        8
302
GRIDFORMAT
  1
GRIDFORMAT_BEGIN
 90
        0
 91
        1
 62
     0
 92
       -2
340
24
 93
        0
 40
1.125
309
GRIDFORMAT_END
 95
       16
302
GRIDFORMAT
  1
GRIDFORMAT_BEGIN
 90
        0
 91
        1
 62
     0
 92
       -2
340
24
 93
        0
 40
1.125
309
GRIDFORMAT_END
 95
       32
302
GRIDFORMAT
  1
GRIDFORMAT_BEGIN
 90
        0
 91
        1
 62
     0
 92
       -2
340
24
 93
        0
 40
1.125
309
GRIDFORMAT_END
309
TABLEFORMAT_END
  1
CELLSTYLE_BEGIN
 90
        2
 91
        1
300
_HEADER
309
CELLSTYLE_END
300
CELLSTYLE
  1
TABLEFORMAT_BEGIN
 90
        5
170
     1
 91
        0
 92
        0
 62
   257
 93
        1
300
CONTENTFORMAT
  1
CONTENTFORMAT_BEGIN
 90
        0
 91
        0
 92
      512
 93
        0
300

 40
0.0
140
1.0
 94
        2
 62
     0
340
21
144
4.5
309
CONTENTFORMAT_END
171
     1
301
MARGIN
  1
CELLMARGIN_BEGIN
 40
1.5
 40
1.5
 40
1.5
 40
1.5
 40
4.5
 40
4.5
309
CELLMARGIN_END
 94
        6
 95
        1
302
GRIDFORMAT
  1
GRIDFORMAT_BEGIN
 90
        0
 91
        1
 62
     0
 92
       -2
340
24
 93
        0
 40
1.125
309
GRIDFORMAT_END
 95
        2
302
GRIDFORMAT
  1
GRIDFORMAT_BEGIN
 90
        0
 91
        1
 62
     0
 92
       -2
340
24
 93
        0
 40
1.125
309
GRIDFORMAT_END
 95
        4
302
GRIDFORMAT
  1
GRIDFORMAT_BEGIN
 90
        0
 91
        1
 62
     0
 92
       -2
340
24
 93
        0
 40
1.125
309
GRIDFORMAT_END
 95
        8
302
GRIDFORMAT
  1
GRIDFORMAT_BEGIN
 90
        0
 91
        1
 62
     0
 92
       -2
340
24
 93
        0
 40
1.125
309
GRIDFORMAT_END
 95
       16
302
GRIDFORMAT
  1
GRIDFORMAT_BEGIN
 90
        0
 91
        1
 62
     0
 92
       -2
340
24
 93
        0
 40
1.125
309
GRIDFORMAT_END
 95
       32
302
GRIDFORMAT
  1
GRIDFORMAT_BEGIN
 90
        0
 91
        1
 62
     0
 92
       -2
340
24
 93
        0
 40
1.125
309
GRIDFORMAT_END
309
TABLEFORMAT_END
  1
CELLSTYLE_BEGIN
 90
        3
 91
        2
300
_DATA
309
CELLSTYLE_END
  0
ENDSEC
  0
SECTION
  2
ACDSDATA
 70
     2
 71
     8
  0
ACDSSCHEMA
 90
        0
  1
AcDb_Thumbnail_Schema
  2
AcDbDs::ID
280
    10
 91
        8
  2
Thumbnail_Data
280
    15
 91
        0
101
ACDSRECORD
 95
        0
 90
        1
  2
AcDbDs::TreatedAsObjectData
280
     1
291
     1
101
ACDSRECORD
 95
        0
 90
        2
  2
AcDbDs::Legacy
280
     1
291
     1
101
ACDSRECORD
  1
AcDbDs::ID
 90
        3
  2
AcDs:Indexable
280
     1
291
     1
101
ACDSRECORD
  1
AcDbDs::ID
 90
        4
  2
AcDbDs::HandleAttribute
280
     7
282
     1
  0
ACDSSCHEMA
 90
        1
  1
AcDbDs::TreatedAsObjectDataSchema
  2
AcDbDs::TreatedAsObjectData
280
     1
 91
        0
  0
ACDSSCHEMA
 90
        2
  1
AcDbDs::LegacySchema
  2
AcDbDs::Legacy
280
     1
 91
        0
  0
ACDSSCHEMA
 90
        3
  1
AcDbDs::IndexedPropertySchema
  2
AcDs:Indexable
280
     1
 91
        0
  0
ACDSSCHEMA
 90
        4
  1
AcDbDs::HandleAttributeSchema
  2
AcDbDs::HandleAttribute
280
     7
 91
        1
284
     1
  0
ACDSRECORD
 90
        0
  2
AcDbDs::ID
280
    10
320
15
  2
Thumbnail_Data
280
    15
 94
      896
310
89504E470D0A1A0A0000000D49484452000001000000009108030000001BE1960600000300504C5445212830FFFFFF2128300000000000000000000000000000000000000000000000000000330000660000990000CC0000FF0033000033330033660033990033CC0033FF0066000066330066660066990066CC0066FF0099
310
000099330099660099990099CC0099FF00CC0000CC3300CC6600CC9900CCCC00CCFF00FF0000FF3300FF6600FF9900FFCC00FFFF3300003300333300663300993300CC3300FF3333003333333333663333993333CC3333FF3366003366333366663366993366CC3366FF3399003399333399663399993399CC3399FF33CC00
310
33CC3333CC6633CC9933CCCC33CCFF33FF0033FF3333FF6633FF9933FFCC33FFFF6600006600336600666600996600CC6600FF6633006633336633666633996633CC6633FF6666006666336666666666996666CC6666FF6699006699336699666699996699CC6699FF66CC0066CC3366CC6666CC9966CCCC66CCFF66FF0066
310
FF3366FF6666FF9966FFCC66FFFF9900009900339900669900999900CC9900FF9933009933339933669933999933CC9933FF9966009966339966669966999966CC9966FF9999009999339999669999999999CC9999FF99CC0099CC3399CC6699CC9999CCCC99CCFF99FF0099FF3399FF6699FF9999FFCC99FFFFCC0000CC00
310
33CC0066CC0099CC00CCCC00FFCC3300CC3333CC3366CC3399CC33CCCC33FFCC6600CC6633CC6666CC6699CC66CCCC66FFCC9900CC9933CC9966CC9999CC99CCCC99FFCCCC00CCCC33CCCC66CCCC99CCCCCCCCCCFFCCFF00CCFF33CCFF66CCFF99CCFFCCCCFFFFFF0000FF0033FF0066FF0099FF00CCFF00FFFF3300FF3333
310
FF3366FF3399FF33CCFF33FFFF6600FF6633FF6666FF6699FF66CCFF66FFFF9900FF9933FF9966FF9999FF99CCFF99FFFFCC00FFCC33FFCC66FFCC99FFCCCCFFCCFFFFFF00FFFF33FFFF66FFFF99FFFFCCFFFFFF0000000D0D0D1A1A1A2828283535354343435050505D5D5D6B6B6B787878868686939393A1A1A1AEAEAEBB
310
BBBBC9C9C9D6D6D6E4E4E4F1F1F1FFFFFF0000000000000000000000000000000000000000000000000000000000002E4550F10000003B4944415478DAEDC13101000000C2A0F54F6D0B2FA0000000000000000000000000000000000000000000000000000000000000000000000000CE06919100016C9A5B1B0000000049
310
454E44AE426082
  0
ENDSEC
  0
EOF
