  0
SECTION
  2
HEADER
  9
$ACADVER
  1
AC1032
  9
$ACADMAINTVER
 90
      174
  9
$DWGCODEPAGE
  3
ANSI_932
  9
$LASTSAVEDBY
  1
c23053
  9
$REQUIREDVERSIONS
160
                 0
  9
$INSBASE
 10
0.0
 20
0.0
 30
0.0
  9
$EXTMIN
 10
377.4583623786673
 20
208.9550180246064
 30
-0.0015258207003583
  9
$EXTMAX
 10
427.4878364059829
 20
246.7507330548842
 30
0.0000000349246037
  9
$LIMMIN
 10
364.7383072615828
 20
194.6138286068915
  9
$LIMMAX
 10
436.8409567354379
 20
258.1065884882902
  9
$ORTHOMODE
 70
     0
  9
$REGENMODE
 70
     1
  9
$FILLMODE
 70
     1
  9
$QTEXTMODE
 70
     0
  9
$MIRRTEXT
 70
     0
  9
$LTSCALE
 40
1.0
  9
$ATTMODE
 70
     1
  9
$TEXTSIZE
 40
2.5
  9
$TRACEWID
 40
1.0
  9
$TEXTSTYLE
  7
Standard
  9
$CLAYER
  8
0
  9
$CELTYPE
  6
ByLayer
  9
$CECOLOR
 62
   256
  9
$CELTSCALE
 40
1.0
  9
$DISPSILH
 70
     0
  9
$DIMSCALE
 40
1.0
  9
$DIMASZ
 40
2.5
  9
$DIMEXO
 40
0.625
  9
$DIMDLI
 40
3.75
  9
$DIMRND
 40
0.0
  9
$DIMDLE
 40
0.0
  9
$DIMEXE
 40
1.25
  9
$DIMTP
 40
0.0
  9
$DIMTM
 40
0.0
  9
$DIMTXT
 40
2.5
  9
$DIMCEN
 40
2.5
  9
$DIMTSZ
 40
0.0
  9
$DIMTOL
 70
     0
  9
$DIMLIM
 70
     0
  9
$DIMTIH
 70
     0
  9
$DIMTOH
 70
     0
  9
$DIMSE1
 70
     0
  9
$DIMSE2
 70
     0
  9
$DIMTAD
 70
     1
  9
$DIMZIN
 70
     8
  9
$DIMBLK
  1

  9
$DIMASO
 70
     1
  9
$DIMSHO
 70
     1
  9
$DIMPOST
  1

  9
$DIMAPOST
  1

  9
$DIMALT
 70
     0
  9
$DIMALTD
 70
     3
  9
$DIMALTF
 40
0.03937007874016
  9
$DIMLFAC
 40
1.0
  9
$DIMTOFL
 70
     1
  9
$DIMTVP
 40
0.0
  9
$DIMTIX
 70
     0
  9
$DIMSOXD
 70
     0
  9
$DIMSAH
 70
     0
  9
$DIMBLK1
  1

  9
$DIMBLK2
  1

  9
$DIMSTYLE
  2
ISO-25
  9
$DIMCLRD
 70
     0
  9
$DIMCLRE
 70
     0
  9
$DIMCLRT
 70
     0
  9
$DIMTFAC
 40
1.0
  9
$DIMGAP
 40
0.625
  9
$DIMJUST
 70
     0
  9
$DIMSD1
 70
     0
  9
$DIMSD2
 70
     0
  9
$DIMTOLJ
 70
     0
  9
$DIMTZIN
 70
     8
  9
$DIMALTZ
 70
     0
  9
$DIMALTTZ
 70
     0
  9
$DIMUPT
 70
     0
  9
$DIMDEC
 70
     2
  9
$DIMTDEC
 70
     2
  9
$DIMALTU
 70
     2
  9
$DIMALTTD
 70
     3
  9
$DIMTXSTY
  7
Standard
  9
$DIMAUNIT
 70
     0
  9
$DIMADEC
 70
     0
  9
$DIMALTRND
 40
0.0
  9
$DIMAZIN
 70
     0
  9
$DIMDSEP
 70
    44
  9
$DIMATFIT
 70
     3
  9
$DIMFRAC
 70
     0
  9
$DIMLDRBLK
  1

  9
$DIMLUNIT
 70
     2
  9
$DIMLWD
 70
    -2
  9
$DIMLWE
 70
    -2
  9
$DIMTMOVE
 70
     0
  9
$DIMFXL
 40
1.0
  9
$DIMFXLON
 70
     0
  9
$DIMJOGANG
 40
0.7853981633974483
  9
$DIMTFILL
 70
     0
  9
$DIMTFILLCLR
 70
     0
  9
$DIMARCSYM
 70
     0
  9
$DIMLTYPE
  6

  9
$DIMLTEX1
  6

  9
$DIMLTEX2
  6

  9
$DIMTXTDIRECTION
 70
     0
  9
$LUNITS
 70
     2
  9
$LUPREC
 70
     4
  9
$SKETCHINC
 40
1.0
  9
$FILLETRAD
 40
0.0
  9
$AUNITS
 70
     0
  9
$AUPREC
 70
     0
  9
$MENU
  1
.
  9
$ELEVATION
 40
0.0
  9
$PELEVATION
 40
0.0
  9
$THICKNESS
 40
0.0
  9
$LIMCHECK
 70
     0
  9
$CHAMFERA
 40
0.0
  9
$CHAMFERB
 40
0.0
  9
$CHAMFERC
 40
0.0
  9
$CHAMFERD
 40
0.0
  9
$SKPOLY
 70
     0
  9
$TDCREATE
 40
2459625.390185185
  9
$TDUCREATE
 40
2459625.056851852
  9
$TDUPDATE
 40
2459625.390717593
  9
$TDUUPDATE
 40
2459625.057384259
  9
$TDINDWG
 40
0.0003819444
  9
$TDUSRTIMER
 40
0.0003819444
  9
$USRTIMER
 70
     1
  9
$ANGBASE
 50
0.0
  9
$ANGDIR
 70
     0
  9
$PDMODE
 70
     0
  9
$PDSIZE
 40
0.0
  9
$PLINEWID
 40
0.0
  9
$SPLFRAME
 70
     0
  9
$SPLINETYPE
 70
     6
  9
$SPLINESEGS
 70
     8
  9
$HANDSEED
  5
31F
  9
$SURFTAB1
 70
     6
  9
$SURFTAB2
 70
     6
  9
$SURFTYPE
 70
     6
  9
$SURFU
 70
     6
  9
$SURFV
 70
     6
  9
$UCSBASE
  2

  9
$UCSNAME
  2

  9
$UCSORG
 10
0.0
 20
0.0
 30
0.0
  9
$UCSXDIR
 10
1.0
 20
0.0
 30
0.0
  9
$UCSYDIR
 10
0.0
 20
1.0
 30
0.0
  9
$UCSORTHOREF
  2

  9
$UCSORTHOVIEW
 70
     0
  9
$UCSORGTOP
 10
0.0
 20
0.0
 30
0.0
  9
$UCSORGBOTTOM
 10
0.0
 20
0.0
 30
0.0
  9
$UCSORGLEFT
 10
0.0
 20
0.0
 30
0.0
  9
$UCSORGRIGHT
 10
0.0
 20
0.0
 30
0.0
  9
$UCSORGFRONT
 10
0.0
 20
0.0
 30
0.0
  9
$UCSORGBACK
 10
0.0
 20
0.0
 30
0.0
  9
$PUCSBASE
  2

  9
$PUCSNAME
  2

  9
$PUCSORG
 10
0.0
 20
0.0
 30
0.0
  9
$PUCSXDIR
 10
1.0
 20
0.0
 30
0.0
  9
$PUCSYDIR
 10
0.0
 20
1.0
 30
0.0
  9
$PUCSORTHOREF
  2

  9
$PUCSORTHOVIEW
 70
     0
  9
$PUCSORGTOP
 10
0.0
 20
0.0
 30
0.0
  9
$PUCSORGBOTTOM
 10
0.0
 20
0.0
 30
0.0
  9
$PUCSORGLEFT
 10
0.0
 20
0.0
 30
0.0
  9
$PUCSORGRIGHT
 10
0.0
 20
0.0
 30
0.0
  9
$PUCSORGFRONT
 10
0.0
 20
0.0
 30
0.0
  9
$PUCSORGBACK
 10
0.0
 20
0.0
 30
0.0
  9
$USERI1
 70
     0
  9
$USERI2
 70
     0
  9
$USERI3
 70
     0
  9
$USERI4
 70
     0
  9
$USERI5
 70
     0
  9
$USERR1
 40
0.0
  9
$USERR2
 40
0.0
  9
$USERR3
 40
0.0
  9
$USERR4
 40
0.0
  9
$USERR5
 40
0.0
  9
$WORLDVIEW
 70
     1
  9
$SHADEDGE
 70
     3
  9
$SHADEDIF
 70
    70
  9
$TILEMODE
 70
     1
  9
$MAXACTVP
 70
    64
  9
$PINSBASE
 10
0.0
 20
0.0
 30
0.0
  9
$PLIMCHECK
 70
     0
  9
$PEXTMIN
 10
0.0
 20
0.0
 30
0.0
  9
$PEXTMAX
 10
0.0
 20
0.0
 30
0.0
  9
$PLIMMIN
 10
0.0
 20
0.0
  9
$PLIMMAX
 10
12.0
 20
9.0
  9
$UNITMODE
 70
     0
  9
$VISRETAIN
 70
     1
  9
$PLINEGEN
 70
     0
  9
$PSLTSCALE
 70
     1
  9
$TREEDEPTH
 70
  3020
  9
$CMLSTYLE
  2
Standard
  9
$CMLJUST
 70
     0
  9
$CMLSCALE
 40
20.0
  9
$PROXYGRAPHICS
 70
     1
  9
$MEASUREMENT
 70
     1
  9
$CELWEIGHT
370
    -1
  9
$ENDCAPS
280
     0
  9
$JOINSTYLE
280
     0
  9
$LWDISPLAY
290
     0
  9
$INSUNITS
 70
     4
  9
$HYPERLINKBASE
  1

  9
$STYLESHEET
  1

  9
$XEDIT
290
     1
  9
$CEPSNTYPE
380
     0
  9
$PSTYLEMODE
290
     1
  9
$FINGERPRINTGUID
  2
{13C2193C-3AE9-E947-AA55-165AC62F3B32}
  9
$VERSIONGUID
  2
{729D423E-9430-2241-BF2E-F35449DB2EDB}
  9
$EXTNAMES
290
     1
  9
$PSVPSCALE
 40
0.0
  9
$OLESTARTUP
290
     0
  9
$SORTENTS
280
   127
  9
$INDEXCTL
280
     0
  9
$HIDETEXT
280
     1
  9
$XCLIPFRAME
280
     2
  9
$HALOGAP
280
     0
  9
$OBSCOLOR
 70
   257
  9
$OBSLTYPE
280
     0
  9
$INTERSECTIONDISPLAY
280
     0
  9
$INTERSECTIONCOLOR
 70
   257
  9
$DIMASSOC
280
     2
  9
$PROJECTNAME
  1

  9
$CAMERADISPLAY
290
     0
  9
$LENSLENGTH
 40
50.0
  9
$CAMERAHEIGHT
 40
0.0
  9
$STEPSPERSEC
 40
2.0
  9
$STEPSIZE
 40
6.0
  9
$3DDWFPREC
 40
2.0
  9
$PSOLWIDTH
 40
5.0
  9
$PSOLHEIGHT
 40
80.0
  9
$LOFTANG1
 40
1.570796326794896
  9
$LOFTANG2
 40
1.570796326794896
  9
$LOFTMAG1
 40
0.0
  9
$LOFTMAG2
 40
0.0
  9
$LOFTPARAM
 70
     7
  9
$LOFTNORMALS
280
     1
  9
$LATITUDE
 40
37.795
  9
$LONGITUDE
 40
-122.394
  9
$NORTHDIRECTION
 40
0.0
  9
$TIMEZONE
 70
 -8000
  9
$LIGHTGLYPHDISPLAY
280
     1
  9
$TILEMODELIGHTSYNCH
280
     1
  9
$CMATERIAL
347
38
  9
$SOLIDHIST
280
     0
  9
$SHOWHIST
280
     1
  9
$DWFFRAME
280
     2
  9
$DGNFRAME
280
     0
  9
$REALWORLDSCALE
290
     1
  9
$INTERFERECOLOR
 62
     1
  9
$INTERFEREOBJVS
345
51
  9
$INTERFEREVPVS
346
52
  9
$CSHADOW
280
     0
  9
$SHADOWPLANELOCATION
 40
0.0
  0
ENDSEC
  0
SECTION
  2
CLASSES
  0
CLASS
  1
ACDBDICTIONARYWDFLT
  2
AcDbDictionaryWithDefault
  3
ObjectDBX Classes
 90
        0
 91
        1
280
     0
281
     0
  0
CLASS
  1
DICTIONARYVAR
  2
AcDbDictionaryVar
  3
ObjectDBX Classes
 90
        0
 91
       11
280
     0
281
     0
  0
CLASS
  1
TABLESTYLE
  2
AcDbTableStyle
  3
ObjectDBX Classes
 90
     4095
 91
        1
280
     0
281
     0
  0
CLASS
  1
MATERIAL
  2
AcDbMaterial
  3
ObjectDBX Classes
 90
     1153
 91
        3
280
     0
281
     0
  0
CLASS
  1
VISUALSTYLE
  2
AcDbVisualStyle
  3
ObjectDBX Classes
 90
     4095
 91
       24
280
     0
281
     0
  0
CLASS
  1
SCALE
  2
AcDbScale
  3
ObjectDBX Classes
 90
     1153
 91
       17
280
     0
281
     0
  0
CLASS
  1
MLEADERSTYLE
  2
AcDbMLeaderStyle
  3
ACDB_MLEADERSTYLE_CLASS
 90
     4095
 91
        1
280
     0
281
     0
  0
CLASS
  1
CELLSTYLEMAP
  2
AcDbCellStyleMap
  3
ObjectDBX Classes
 90
     1152
 91
        2
280
     0
281
     0
  0
CLASS
  1
EXACXREFPANELOBJECT
  2
ExAcXREFPanelObject
  3
EXAC_ESW
 90
     1025
 91
        0
280
     1
281
     0
  0
CLASS
  1
NPOCOLLECTION
  2
AcDbImpNonPersistentObjectsCollection
  3
ObjectDBX Classes
 90
     1153
 91
        0
280
     0
281
     0
  0
CLASS
  1
LAYER_INDEX
  2
AcDbLayerIndex
  3
ObjectDBX Classes
 90
        0
 91
        0
280
     0
281
     0
  0
CLASS
  1
SPATIAL_INDEX
  2
AcDbSpatialIndex
  3
ObjectDBX Classes
 90
        0
 91
        0
280
     0
281
     0
  0
CLASS
  1
IDBUFFER
  2
AcDbIdBuffer
  3
ObjectDBX Classes
 90
        0
 91
        0
280
     0
281
     0
  0
CLASS
  1
ACDBSECTIONVIEWSTYLE
  2
AcDbSectionViewStyle
  3
ObjectDBX Classes
 90
     1025
 91
        1
280
     0
281
     0
  0
CLASS
  1
ACDBDETAILVIEWSTYLE
  2
AcDbDetailViewStyle
  3
ObjectDBX Classes
 90
     1025
 91
        1
280
     0
281
     0
  0
ENDSEC
  0
SECTION
  2
TABLES
  0
TABLE
  2
VPORT
  5
28
330
0
100
AcDbSymbolTable
 70
     1
  0
VPORT
  5
29
330
28
100
AcDbSymbolTableRecord
100
AcDbViewportTableRecord
  2
*Active
 70
     0
 10
0.0
 20
0.0
 11
1.0
 21
1.0
 12
400.7896319985103
 22
226.3602085475909
 13
0.0
 23
0.0
 14
10.0
 24
10.0
 15
10.0
 25
10.0
 16
0.0
 26
0.0
 36
1.0
 17
0.0
 27
0.0
 37
0.0
 40
63.86698047009059
 41
1.845624385447394
 42
50.0
 43
0.0
 44
0.0
 50
0.0
 51
0.0
 71
     0
 72
  1000
 73
     1
 74
     3
 75
     0
 76
     1
 77
     0
 78
     0
281
     0
 65
     1
110
0.0
120
0.0
130
0.0
111
1.0
121
0.0
131
0.0
112
0.0
122
1.0
132
0.0
 79
     0
146
0.0
348
2A
 60
     3
 61
     5
292
     1
282
     1
141
0.0
142
0.0
 63
   250
421
  3355443
1001
ACAD_NAV_VCDISPLAY
1070
     3
  0
ENDTAB
  0
TABLE
  2
LTYPE
  5
23
330
0
100
AcDbSymbolTable
 70
     1
  0
LTYPE
  5
24
330
23
100
AcDbSymbolTableRecord
100
AcDbLinetypeTableRecord
  2
ByBlock
 70
     0
  3

 72
    65
 73
     0
 40
0.0
  0
LTYPE
  5
25
330
23
100
AcDbSymbolTableRecord
100
AcDbLinetypeTableRecord
  2
ByLayer
 70
     0
  3

 72
    65
 73
     0
 40
0.0
  0
LTYPE
  5
13
330
23
100
AcDbSymbolTableRecord
100
AcDbLinetypeTableRecord
  2
Continuous
 70
     0
  3
Solid line
 72
    65
 73
     0
 40
0.0
  0
ENDTAB
  0
TABLE
  2
LAYER
  5
1D
102
{ACAD_XDICTIONARY
360
1E
102
}
330
0
100
AcDbSymbolTable
 70
     1
  0
LAYER
  5
5
102
{ACAD_XDICTIONARY
360
6
102
}
330
1D
100
AcDbSymbolTableRecord
100
AcDbLayerTableRecord
  2
0
 70
     0
 62
     7
  6
Continuous
370
    -3
390
7
347
A
348
0
  0
ENDTAB
  0
TABLE
  2
STYLE
  5
20
330
0
100
AcDbSymbolTable
 70
     1
  0
STYLE
  5
21
330
20
100
AcDbSymbolTableRecord
100
AcDbTextStyleTableRecord
  2
Standard
 70
     0
 40
0.0
 41
1.0
 50
0.0
 71
     0
 42
2.5
  3
arial.ttf
  4

1001
ACAD
1000
Arial
1071
       34
  0
ENDTAB
  0
TABLE
  2
VIEW
  5
26
330
0
100
AcDbSymbolTable
 70
     0
  0
ENDTAB
  0
TABLE
  2
UCS
  5
27
330
0
100
AcDbSymbolTable
 70
     0
  0
ENDTAB
  0
TABLE
  2
APPID
  5
2D
330
0
100
AcDbSymbolTable
 70
     6
  0
APPID
  5
12
330
2D
100
AcDbSymbolTableRecord
100
AcDbRegAppTableRecord
  2
ACAD
 70
     0
  0
APPID
  5
18
330
2D
100
AcDbSymbolTableRecord
100
AcDbRegAppTableRecord
  2
ACAD_PSEXT
 70
     0
  0
APPID
  5
31
330
2D
100
AcDbSymbolTableRecord
100
AcDbRegAppTableRecord
  2
AcadAnnotative
 70
     0
  0
APPID
  5
32
330
2D
100
AcDbSymbolTableRecord
100
AcDbRegAppTableRecord
  2
ACAD_DSTYLE_DIMJAG
 70
     0
  0
APPID
  5
33
330
2D
100
AcDbSymbolTableRecord
100
AcDbRegAppTableRecord
  2
ACAD_DSTYLE_DIMTALN
 70
     0
  0
APPID
  5
2C
330
2D
100
AcDbSymbolTableRecord
100
AcDbRegAppTableRecord
  2
ACAD_NAV_VCDISPLAY
 70
     0
  0
ENDTAB
  0
TABLE
  2
DIMSTYLE
  5
2E
330
0
100
AcDbSymbolTable
 70
     2
100
AcDbDimStyleTable
 71
     2
340
2F
340
30
  0
DIMSTYLE
105
30
330
2E
100
AcDbSymbolTableRecord
100
AcDbDimStyleTableRecord
  2
Annotative
 70
     0
 40
0.0
 41
2.5
 42
0.625
 43
3.75
 44
1.25
 73
     0
 74
     0
 77
     1
 78
     8
140
2.5
141
2.5
143
0.03937007874016
147
0.625
171
     3
172
     1
271
     2
272
     2
274
     3
278
    44
283
     0
284
     8
340
21
1001
AcadAnnotative
1000
AnnotativeData
1002
{
1070
     1
1070
     1
1002
}
1001
ACAD_DSTYLE_DIMJAG
1070
   388
1040
1.5
1001
ACAD_DSTYLE_DIMTALN
1070
   392
1070
     0
  0
DIMSTYLE
105
2F
330
2E
100
AcDbSymbolTableRecord
100
AcDbDimStyleTableRecord
  2
ISO-25
 70
     0
 41
2.5
 42
0.625
 43
3.75
 44
1.25
 73
     0
 74
     0
 77
     1
 78
     8
140
2.5
141
2.5
143
0.03937007874016
147
0.625
171
     3
172
     1
271
     2
272
     2
274
     3
278
    44
283
     0
284
     8
340
21
  0
ENDTAB
  0
TABLE
  2
BLOCK_RECORD
  5
1
330
0
100
AcDbSymbolTable
 70
     0
  0
BLOCK_RECORD
  5
2
102
{ACAD_XDICTIONARY
360
3
102
}
330
1
100
AcDbSymbolTableRecord
100
AcDbBlockTableRecord
  2
*Model_Space
340
15
 70
     0
280
     1
281
     0
  0
BLOCK_RECORD
  5
19
330
1
100
AcDbSymbolTableRecord
100
AcDbBlockTableRecord
  2
*Paper_Space
340
1C
 70
     0
280
     1
281
     0
  0
ENDTAB
  0
ENDSEC
  0
SECTION
  2
BLOCKS
  0
BLOCK
  5
4
330
2
100
AcDbEntity
  8
0
100
AcDbBlockBegin
  2
*Model_Space
 70
     0
 10
0.0
 20
0.0
 30
0.0
  3
*Model_Space
  1

  0
ENDBLK
  5
14
330
2
100
AcDbEntity
  8
0
100
AcDbBlockEnd
  0
BLOCK
  5
1A
330
19
100
AcDbEntity
 67
     1
  8
0
100
AcDbBlockBegin
  2
*Paper_Space
 70
     0
 10
0.0
 20
0.0
 30
0.0
  3
*Paper_Space
  1

  0
ENDBLK
  5
1B
330
19
100
AcDbEntity
 67
     1
  8
0
100
AcDbBlockEnd
  0
ENDSEC
  0
SECTION
  2
ENTITIES
  0
LINE
  5
64
330
2
100
AcDbEntity
  8
0
100
AcDbLine
 10
398.848508991882
 20
236.091278189836
 30
0.0
 11
385.1455287702227
 21
229.2397880790063
 31
0.0
  0
LINE
  5
65
330
2
100
AcDbEntity
  8
0
100
AcDbLine
 10
414.5399338495998
 20
232.6741589778151
 30
0.0
 11
400.2437640215571
 21
239.8222438918619
 31
0.0
  0
LINE
  5
66
330
2
100
AcDbEntity
  8
0
100
AcDbLine
 10
400.015698478947
 20
239.8222438918619
 30
0.0
 11
386.673322796664
 21
233.1510560507204
 31
0.0
  0
SPLINE
  5
67
330
2
100
AcDbEntity
  8
0
100
AcDbSpline
210
0.0
220
0.0
230
1.0
 70
     8
 71
     3
 72
    11
 73
     7
 74
     0
 42
0.000000001
 43
0.0000000001
 40
0.0
 40
0.0
 40
0.0
 40
0.0
 40
0.2499947894706125
 40
0.4999776216940111
 40
0.7499739358194184
 40
1.0
 40
1.0
 40
1.0
 40
1.0
 10
406.5095181107821
 20
234.9030468768006
 30
0.0
 10
406.4676765000625
 20
234.9196663903331
 30
0.0
 10
406.3839952799061
 20
234.9529046224875
 30
0.0
 10
406.2230663747575
 20
234.9671615568504
 30
0.0
 10
406.0621012254046
 20
234.9529573703023
 30
0.0
 10
405.9783983938379
 20
234.9197225184469
 30
0.0
 10
405.9365444880024
 20
234.9031041038245
 30
0.0
  0
LINE
  5
68
330
2
100
AcDbEntity
  8
0
100
AcDbLine
 10
407.7933873204645
 20
234.2611799337794
 30
0.0
 11
406.5078458995241
 21
234.903950644275
 31
0.0
  0
SPLINE
  5
69
330
2
100
AcDbEntity
  8
0
100
AcDbSpline
210
0.0
220
0.0
230
1.0
 70
     8
 71
     3
 72
     9
 73
     5
 74
     0
 42
0.000000001
 43
0.0000000001
 40
0.0
 40
0.0
 40
0.0
 40
0.0
 40
0.4983490030227312
 40
1.0
 40
1.0
 40
1.0
 40
1.0
 10
408.1825869679176
 20
234.2162358291014
 30
0.0
 10
408.1424870891425
 20
234.2035146744465
 30
0.0
 10
408.0187915077915
 20
234.17096827249
 30
0.0
 10
407.8698867261875
 20
234.2303913834555
 30
0.0
 10
407.7951884940412
 20
234.2602010463147
 30
0.0
  0
LINE
  5
6A
330
2
100
AcDbEntity
  8
0
100
AcDbLine
 10
409.0171359143076
 20
234.5403862500325
 30
0.0
 11
408.1825869679176
 21
234.2162358291014
 31
0.0
  0
SPLINE
  5
6B
330
2
100
AcDbEntity
  8
0
100
AcDbSpline
210
0.0
220
0.0
230
1.0
 70
     8
 71
     3
 72
     9
 73
     5
 74
     0
 42
0.000000001
 43
0.0000000001
 40
0.0
 40
0.0
 40
0.0
 40
0.0
 40
0.4984616108634253
 40
1.0
 40
1.0
 40
1.0
 40
1.0
 10
409.3969750475785
 20
234.5287124435672
 30
0.0
 10
409.3331412727395
 20
234.5475414235125
 30
0.0
 10
409.2050797060156
 20
234.5853156061876
 30
0.0
 10
409.0941132381133
 20
234.5577297459545
 30
0.0
 10
409.0384592945532
 20
234.5438943780505
 30
0.0
  0
LINE
  5
6C
330
2
100
AcDbEntity
  8
0
100
AcDbLine
 10
414.2383621088103
 20
232.7236694701669
 30
0.0
 11
409.3936865087115
 21
234.5301307277519
 31
0.0
  0
SPLINE
  5
6D
330
2
100
AcDbEntity
  8
0
100
AcDbSpline
210
0.0
220
0.0
230
1.0
 70
     8
 71
     3
 72
    14
 73
    10
 74
     0
 42
0.000000001
 43
0.0000000001
 40
0.0
 40
0.0
 40
0.0
 40
0.0
 40
0.1581490914643501
 40
0.2854972890117258
 40
0.3820236874440157
 40
0.4526123169775463
 40
0.5800302231417433
 40
0.7625296656747329
 40
1.0
 40
1.0
 40
1.0
 40
1.0
 10
415.1896773908313
 20
229.5669648332796
 30
0.0
 10
415.1373883303257
 20
229.6594408335809
 30
0.0
 10
415.042993952963
 20
229.8263823388413
 30
0.0
 10
414.9321403313431
 20
230.0580694965331
 30
0.0
 10
414.8539089999355
 20
230.2388697968561
 30
0.0
 10
414.7818031351811
 20
230.4212296632518
 30
0.0
 10
414.6984606225411
 20
230.6582829780773
 30
0.0
 10
414.5985595370453
 20
231.0010930107473
 30
0.0
 10
414.5538979611314
 20
231.2591936092017
 30
0.0
 10
414.5286442406299
 20
231.4051356240366
 30
0.0
  0
SPLINE
  5
6E
330
2
100
AcDbEntity
  8
0
100
AcDbSpline
210
0.0
220
0.0
230
1.0
 70
     8
 71
     3
 72
     9
 73
     5
 74
     0
 42
0.000000001
 43
0.0000000001
 40
0.0
 40
0.0
 40
0.0
 40
0.0
 40
0.4999022084440341
 40
1.0
 40
1.0
 40
1.0
 40
1.0
 10
415.6842948587498
 20
228.7645747630882
 30
0.0
 10
415.5906883821619
 20
228.8922241981072
 30
0.0
 10
415.4034388061318
 20
229.1475730100608
 30
0.0
 10
415.2536012180417
 20
229.4409315394178
 30
0.0
 10
415.1786677711458
 20
229.5876394920833
 30
0.0
  0
SPLINE
  5
6F
330
2
100
AcDbEntity
  8
0
100
AcDbSpline
210
0.0
220
0.0
230
1.0
 70
     8
 71
     3
 72
    11
 73
     7
 74
     0
 42
0.000000001
 43
0.0000000001
 40
0.0
 40
0.0
 40
0.0
 40
0.0
 40
0.2500723769246893
 40
0.5002549994646927
 40
0.7503165931568035
 40
1.0
 40
1.0
 40
1.0
 40
1.0
 10
416.7693313256354
 20
227.8501715563759
 30
0.0
 10
416.6726819502207
 20
227.9020757870476
 30
0.0
 10
416.4793405910477
 20
228.005907130622
 30
0.0
 10
416.1973203794198
 20
228.2201316624742
 30
0.0
 10
415.9260159720362
 20
228.4711829301864
 30
0.0
 10
415.7610342899265
 20
228.6717112134902
 30
0.0
 10
415.6786058746112
 20
228.771899479286
 30
0.0
  0
SPLINE
  5
70
330
2
100
AcDbEntity
  8
0
100
AcDbSpline
210
0.0
220
0.0
230
1.0
 70
     8
 71
     3
 72
    15
 73
    11
 74
     0
 42
0.000000001
 43
0.0000000001
 40
0.0
 40
0.0
 40
0.0
 40
0.0
 40
0.1658388034618294
 40
0.3105283303744246
 40
0.4336277640494762
 40
0.5348224611685711
 40
0.6201902241454894
 40
0.7242235521183366
 40
0.8510549484266341
 40
1.0
 40
1.0
 40
1.0
 40
1.0
 10
414.4786408857293
 20
231.4839881532007
 30
0.0
 10
414.4352421767043
 20
231.5166142689936
 30
0.0
 10
414.3539793577941
 20
231.5777057207674
 30
0.0
 10
414.2596577320511
 20
231.7134342095419
 30
0.0
 10
414.2012171932447
 20
231.8402517114712
 30
0.0
 10
414.1712945145672
 20
231.948977568831
 30
0.0
 10
414.1595459595659
 20
232.046625976843
 30
0.0
 10
414.1647901726176
 20
232.1374510129611
 30
0.0
 10
414.1910552219991
 20
232.222963847865
 30
0.0
 10
414.228984765814
 20
232.2534072841606
 30
0.0
 10
414.249470263771
 20
232.2698495845236
 30
0.0
  0
SPLINE
  5
71
330
2
100
AcDbEntity
  8
0
100
AcDbSpline
210
0.0
220
0.0
230
1.0
 70
     8
 71
     3
 72
    11
 73
     7
 74
     0
 42
0.000000001
 43
0.0000000001
 40
0.0
 40
0.0
 40
0.0
 40
0.0
 40
0.2056255620960199
 40
0.4876537345234225
 40
0.7754294594139074
 40
1.0
 40
1.0
 40
1.0
 40
1.0
 10
414.5270558548721
 20
231.4114957077972
 30
0.0
 10
414.5258344329667
 20
231.4169971514634
 30
0.0
 10
414.5229377553959
 20
231.4300441652765
 30
0.0
 10
414.5118295599833
 20
231.4508377396378
 30
0.0
 10
414.4973127462224
 20
231.4699600641564
 30
0.0
 10
414.4861097267003
 20
231.4780853387331
 30
0.0
 10
414.4811992426782
 20
231.481646792045
 30
0.0
  0
LINE
  5
72
330
2
100
AcDbEntity
  8
0
100
AcDbLine
 10
395.4455510221497
 20
228.0369040302144
 30
0.0
 11
397.6620305050346
 21
225.6576757588452
 31
0.0
  0
LINE
  5
73
330
2
100
AcDbEntity
  8
0
100
AcDbLine
 10
414.3215421256885
 20
232.062742921473
 30
0.0
 11
414.2387552759521
 21
232.0257825358488
 31
0.0
  0
LINE
  5
74
330
2
100
AcDbEntity
  8
0
100
AcDbLine
 10
414.4101461158409
 20
232.6814650916517
 30
0.0
 11
414.2418047307791
 21
232.7221766383479
 31
0.0
  0
SPLINE
  5
75
330
2
100
AcDbEntity
  8
0
100
AcDbSpline
210
0.0
220
0.0
230
1.0
 70
     8
 71
     3
 72
    11
 73
     7
 74
     0
 42
0.000000001
 43
0.0000000001
 40
0.0
 40
0.0
 40
0.0
 40
0.0
 40
0.255742828340978
 40
0.5110317684250854
 40
0.7608934615978209
 40
1.0
 40
1.0
 40
1.0
 40
1.0
 10
414.468504112497
 20
232.2727129546008
 30
0.0
 10
414.4745949873018
 20
232.2766240500441
 30
0.0
 10
414.4867659269253
 20
232.2844392995812
 30
0.0
 10
414.5008061219948
 20
232.3014539542612
 30
0.0
 10
414.5110156305348
 20
232.3207986101868
 30
0.0
 10
414.5138308577326
 20
232.3347198193801
 30
0.0
 10
414.5152075100111
 20
232.341527321229
 30
0.0
  0
LINE
  5
76
330
2
100
AcDbEntity
  8
0
100
AcDbLine
 10
414.5154078381897
 20
232.3434691762973
 30
0.0
 11
414.5384365098823
 21
232.4853011434052
 31
0.0
  0
SPLINE
  5
77
330
2
100
AcDbEntity
  8
0
100
AcDbSpline
210
0.0
220
0.0
230
1.0
 70
     8
 71
     3
 72
    15
 73
    11
 74
     0
 42
0.000000001
 43
0.0000000001
 40
0.0
 40
0.0
 40
0.0
 40
0.0
 40
0.1224826387926923
 40
0.2457258480779047
 40
0.3697408954761306
 40
0.4945094740932809
 40
0.6199416930331358
 40
0.7459906210943902
 40
0.8726644921266398
 40
1.0
 40
1.0
 40
1.0
 40
1.0
 10
414.5384822175988
 20
232.4857713480196
 30
0.0
 10
414.539523898831
 20
232.4948042532542
 30
0.0
 10
414.5416137297391
 20
232.5129261546213
 30
0.0
 10
414.5365055502618
 20
232.5447001621455
 30
0.0
 10
414.5255254339598
 20
232.5772518505428
 30
0.0
 10
414.508738400471
 20
232.608750275137
 30
0.0
 10
414.4873577872813
 20
232.6368903960908
 30
0.0
 10
414.4627800686136
 20
232.6594731054204
 30
0.0
 10
414.4364693792836
 20
232.6756379602166
 30
0.0
 10
414.4194388589904
 20
232.6793531156018
 30
0.0
 10
414.4109014185216
 20
232.681215531863
 30
0.0
  0
SPLINE
  5
78
330
2
100
AcDbEntity
  8
0
100
AcDbSpline
210
0.0
220
0.0
230
1.0
 70
     8
 71
     3
 72
    11
 73
     7
 74
     0
 42
0.000000001
 43
0.0000000001
 40
0.0
 40
0.0
 40
0.0
 40
0.0
 40
0.2492431914582016
 40
0.4991096209770485
 40
0.7494312958079681
 40
1.0
 40
1.0
 40
1.0
 40
1.0
 10
417.8908705737438
 20
227.6644718599989
 30
0.0
 10
417.8021602046658
 20
227.6513947894134
 30
0.0
 10
417.6245176442884
 20
227.6252079487413
 30
0.0
 10
417.3400744697384
 20
227.6523975158368
 30
0.0
 10
417.0488335508887
 20
227.7233128570651
 30
0.0
 10
416.8533077437301
 20
227.8124559022067
 30
0.0
 10
416.7554966253948
 20
227.8570494065828
 30
0.0
  0
SPLINE
  5
79
330
2
100
AcDbEntity
  8
0
100
AcDbSpline
210
0.0
220
0.0
230
1.0
 70
     8
 71
     3
 72
     9
 73
     5
 74
     0
 42
0.000000001
 43
0.0000000001
 40
0.0
 40
0.0
 40
0.0
 40
0.0
 40
0.6729041240975337
 40
1.0
 40
1.0
 40
1.0
 40
1.0
 10
414.7077410821776
 20
232.8410674411399
 30
0.0
 10
414.6810110157254
 20
232.7992688426659
 30
0.0
 10
414.6412875759445
 20
232.7371521205698
 30
0.0
 10
414.5853943581346
 20
232.7016544670842
 30
0.0
 10
414.5671119170981
 20
232.6900433310247
 30
0.0
  0
SPLINE
  5
7A
330
2
100
AcDbEntity
  8
0
100
AcDbSpline
210
0.0
220
0.0
230
1.0
 70
     8
 71
     3
 72
    10
 73
     6
 74
     0
 42
0.000000001
 43
0.0000000001
 40
0.0
 40
0.0
 40
0.0
 40
0.0
 40
0.0525980868632692
 40
0.3597106018199444
 40
1.0
 40
1.0
 40
1.0
 40
1.0
 10
394.9515705742929
 20
228.6627488825161
 30
0.0
 10
394.9532050771702
 20
228.65832920245
 30
0.0
 10
394.9643832026252
 20
228.6281036586836
 30
0.0
 10
395.0080711954385
 20
228.5464782620186
 30
0.0
 10
395.0581409197344
 20
228.479047791302
 30
0.0
 10
395.0919798989382
 20
228.4334757749116
 30
0.0
  0
LINE
  5
7B
330
2
100
AcDbEntity
  8
0
100
AcDbLine
 10
415.2751313087035
 20
233.3775133915881
 30
0.0
 11
415.2652807377455
 21
233.3725881061346
 31
0.0
  0
LINE
  5
7C
330
2
100
AcDbEntity
  8
0
100
AcDbLine
 10
394.9638698170379
 20
229.3124727889936
 30
0.0
 11
394.9414916325908
 21
228.7929104102818
 31
0.0
  0
LINE
  5
7D
330
2
100
AcDbEntity
  8
0
100
AcDbLine
 10
414.8122055890985
 20
232.9709741653847
 30
0.0
 11
414.7186676823674
 21
232.851167228913
 31
0.0
  0
LINE
  5
7E
330
2
100
AcDbEntity
  8
0
100
AcDbLine
 10
415.2755795870541
 20
233.3776700491098
 30
0.0
 11
415.2307418106977
 21
233.3462427244381
 31
0.0
  0
LINE
  5
7F
330
2
100
AcDbEntity
  8
0
100
AcDbLine
 10
418.1963895350726
 20
227.7692455081608
 30
0.0
 11
417.8846527097962
 21
227.6632132037001
 31
0.0
  0
SPLINE
  5
80
330
2
100
AcDbEntity
  8
0
100
AcDbSpline
210
0.0
220
0.0
230
1.0
 70
     8
 71
     3
 72
     9
 73
     5
 74
     0
 42
0.000000001
 43
0.0000000001
 40
0.0
 40
0.0
 40
0.0
 40
0.0
 40
0.3830400617005164
 40
1.0
 40
1.0
 40
1.0
 40
1.0
 10
397.6957546858675
 20
225.6303450197529
 30
0.0
 10
397.7208794430494
 20
225.6055111799355
 30
0.0
 10
397.7864724702392
 20
225.5406776486675
 30
0.0
 10
397.8805727561891
 20
225.4894411308023
 30
0.0
 10
397.9386288628029
 20
225.4578302519017
 30
0.0
  0
SPLINE
  5
81
330
2
100
AcDbEntity
  8
0
100
AcDbSpline
210
0.0
220
0.0
230
1.0
 70
     8
 71
     3
 72
     9
 73
     5
 74
     0
 42
0.000000001
 43
0.0000000001
 40
0.0
 40
0.0
 40
0.0
 40
0.0
 40
0.4834896452658109
 40
1.0
 40
1.0
 40
1.0
 40
1.0
 10
395.0939304538435
 20
228.4296661675978
 30
0.0
 10
395.1578763633709
 20
228.3586210168164
 30
0.0
 10
395.290135472027
 20
228.2116785714566
 30
0.0
 10
395.4015830469743
 20
228.0867955654207
 30
0.0
 10
395.4591468734447
 20
228.0222921996728
 30
0.0
  0
SPLINE
  5
82
330
2
100
AcDbEntity
  8
0
100
AcDbSpline
210
0.0
220
0.0
230
1.0
 70
     8
 71
     3
 72
    11
 73
     7
 74
     0
 42
0.000000001
 43
0.0000000001
 40
0.0
 40
0.0
 40
0.0
 40
0.0
 40
0.2435812080437468
 40
0.4929932450552067
 40
0.7457921267618845
 40
1.0
 40
1.0
 40
1.0
 40
1.0
 10
395.109453754302
 20
229.4895582539141
 30
0.0
 10
395.0884308055488
 20
229.4772668844785
 30
0.0
 10
395.0458816622474
 20
229.4523899157137
 30
0.0
 10
395.0000801194842
 20
229.4041422217233
 30
0.0
 10
394.9693612143951
 20
229.3508032040768
 30
0.0
 10
394.9652666786335
 20
229.3137342922469
 30
0.0
 10
394.9632137213153
 20
229.2951483283566
 30
0.0
  0
LINE
  5
83
330
2
100
AcDbEntity
  8
0
100
AcDbLine
 10
397.929933041866
 20
225.4622673084489
 30
0.0
 11
413.1615503138738
 21
217.8464586724704
 31
0.0
  0
SPLINE
  5
84
330
2
100
AcDbEntity
  8
0
100
AcDbSpline
210
0.0
220
0.0
230
1.0
 70
     8
 71
     3
 72
    11
 73
     7
 74
     0
 42
0.000000001
 43
0.0000000001
 40
0.0
 40
0.0
 40
0.0
 40
0.0
 40
0.2446988549344674
 40
0.4955401953834307
 40
0.7484170578828992
 40
1.0
 40
1.0
 40
1.0
 40
1.0
 10
419.1581197660195
 20
229.1443519176285
 30
0.0
 10
419.1520814067728
 20
229.1462677899972
 30
0.0
 10
419.1398531120314
 20
229.150147627392
 30
0.0
 10
419.1205303696166
 20
229.1510495299599
 30
0.0
 10
419.1015055528596
 20
229.1484368259139
 30
0.0
 10
419.0900290403029
 20
229.1434241600789
 30
0.0
 10
419.0843055024358
 20
229.1409242558109
 30
0.0
  0
LINE
  5
85
330
2
100
AcDbEntity
  8
0
100
AcDbLine
 10
419.086248534522
 20
229.1418552612502
 30
0.0
 11
419.0537758254338
 21
229.1272771462245
 31
0.0
  0
SPLINE
  5
86
330
2
100
AcDbEntity
  8
0
100
AcDbSpline
210
0.0
220
0.0
230
1.0
 70
     8
 71
     3
 72
     9
 73
     5
 74
     0
 42
0.000000001
 43
0.0000000001
 40
0.0
 40
0.0
 40
0.0
 40
0.0
 40
0.4940792328512272
 40
1.0
 40
1.0
 40
1.0
 40
1.0
 10
419.2938482962346
 20
229.1392869800327
 30
0.0
 10
419.2748982957549
 20
229.1333733911035
 30
0.0
 10
419.2365441225385
 20
229.1214044830099
 30
0.0
 10
419.1871033212081
 20
229.1354450350782
 30
0.0
 10
419.162090193071
 20
229.1425484419517
 30
0.0
  0
LINE
  5
87
330
2
100
AcDbEntity
  8
0
100
AcDbLine
 10
419.1887343431881
 20
229.3258634134213
 30
0.0
 11
419.2686807645037
 21
229.3702696297414
 31
0.0
  0
LINE
  5
88
330
2
100
AcDbEntity
  8
0
100
AcDbLine
 10
424.2271955245307
 20
227.1134739288698
 30
0.0
 11
419.3647103976466
 21
230.1605930656297
 31
0.0
  0
LINE
  5
89
330
2
100
AcDbEntity
  8
0
100
AcDbLine
 10
419.36535682123
 20
230.1601734998826
 30
0.0
 11
419.3139046218375
 21
230.1988586110351
 31
0.0
  0
SPLINE
  5
8A
330
2
100
AcDbEntity
  8
0
100
AcDbSpline
210
0.0
220
0.0
230
1.0
 70
     8
 71
     3
 72
     9
 73
     5
 74
     0
 42
0.000000001
 43
0.0000000001
 40
0.0
 40
0.0
 40
0.0
 40
0.0
 40
0.6337799181928724
 40
1.0
 40
1.0
 40
1.0
 40
1.0
 10
424.6921379594152
 20
222.633881580811
 30
0.0
 10
424.7000362706514
 20
222.6389579954539
 30
0.0
 10
424.7124985008507
 20
222.646967739053
 30
0.0
 10
424.7281492796029
 20
222.6557841008339
 30
0.0
 10
424.7338809090781
 20
222.6590128295665
 30
0.0
  0
LINE
  5
8B
330
2
100
AcDbEntity
  8
0
100
AcDbLine
 10
425.4284923179207
 20
225.6131085054647
 30
0.0
 11
424.5725039252111
 21
226.7825297402001
 31
0.0
  0
SPLINE
  5
8C
330
2
100
AcDbEntity
  8
0
100
AcDbSpline
210
0.0
220
0.0
230
1.0
 70
     8
 71
     3
 72
     9
 73
     5
 74
     0
 42
0.000000001
 43
0.0000000001
 40
0.0
 40
0.0
 40
0.0
 40
0.0
 40
0.4993922211517371
 40
1.0
 40
1.0
 40
1.0
 40
1.0
 10
424.5719762544371
 20
226.7830910381799
 30
0.0
 10
424.5189046244793
 20
226.849392410096
 30
0.0
 10
424.4126321842808
 20
226.9821565363832
 30
0.0
 10
424.2894166147523
 20
227.0694347983167
 30
0.0
 10
424.2277339421709
 20
227.1131269751652
 30
0.0
  0
LINE
  5
8D
330
2
100
AcDbEntity
  8
0
100
AcDbLine
 10
424.4868052476411
 20
222.5178494197119
 30
0.0
 11
424.6983571666921
 21
222.6384916585516
 31
0.0
  0
LINE
  5
8E
330
2
100
AcDbEntity
  8
0
100
AcDbLine
 10
415.2245796960668
 20
217.8856819229381
 30
0.0
 11
424.4790513888848
 21
222.5129177692961
 31
0.0
  0
SPLINE
  5
8F
330
2
100
AcDbEntity
  8
0
100
AcDbSpline
210
0.0
220
0.0
230
1.0
 70
     8
 71
     3
 72
     9
 73
     5
 74
     0
 42
0.000000001
 43
0.0000000001
 40
0.0
 40
0.0
 40
0.0
 40
0.0
 40
0.4990891998783578
 40
1.0
 40
1.0
 40
1.0
 40
1.0
 10
425.8613725737055
 20
225.2271100864289
 30
0.0
 10
425.7842335649711
 20
225.273204374872
 30
0.0
 10
425.6296740017638
 20
225.3655611889533
 30
0.0
 10
425.4952998856306
 20
225.530853484318
 30
0.0
 10
425.4279904396025
 20
225.6136501802432
 30
0.0
  0
LINE
  5
90
330
2
100
AcDbEntity
  8
0
100
AcDbLine
 10
427.1451106717162
 20
224.5853182581791
 30
0.0
 11
425.8595692507758
 21
225.2280889686237
 31
0.0
  0
LINE
  5
91
330
2
100
AcDbEntity
  8
0
100
AcDbLine
 10
427.315065798449
 20
223.8755487380093
 30
0.0
 11
427.2924866477051
 21
224.4073288113771
 31
0.0
  0
SPLINE
  5
92
330
2
100
AcDbEntity
  8
0
100
AcDbSpline
210
0.0
220
0.0
230
1.0
 70
     8
 71
     3
 72
    11
 73
     7
 74
     0
 42
0.000000001
 43
0.0000000001
 40
0.0
 40
0.0
 40
0.0
 40
0.0
 40
0.5881656957003935
 40
0.8231908417340774
 40
0.9181764736023307
 40
1.0
 40
1.0
 40
1.0
 40
1.0
 10
427.1246733699912
 20
223.5165945521978
 30
0.0
 10
427.1733340408042
 20
223.5881085193753
 30
0.0
 10
427.2414390303659
 20
223.6881987546046
 30
0.0
 10
427.2978832611832
 20
223.8113393859189
 30
0.0
 10
427.3050460399479
 20
223.829699567136
 30
0.0
 10
427.307533596082
 20
223.8574134303599
 30
0.0
 10
427.3131109447756
 20
223.8755002324292
 30
0.0
  0
SPLINE
  5
93
330
2
100
AcDbEntity
  8
0
100
AcDbSpline
210
0.0
220
0.0
230
1.0
 70
     8
 71
     3
 72
    11
 73
     7
 74
     0
 42
0.000000001
 43
0.0000000001
 40
0.0
 40
0.0
 40
0.0
 40
0.0
 40
0.2982054662071407
 40
0.5637537786061241
 40
0.7977432485418299
 40
1.0
 40
1.0
 40
1.0
 40
1.0
 10
426.3557012197889
 20
222.9056212189462
 30
0.0
 10
426.4383923743512
 20
222.9508761443003
 30
0.0
 10
426.594718988463
 20
223.0364300259698
 30
0.0
 10
426.8115250429366
 20
223.1991945086613
 30
0.0
 10
426.9967253100585
 20
223.363837783729
 30
0.0
 10
427.1013745274829
 20
223.4847095227173
 30
0.0
 10
427.1498930239669
 20
223.5407492637441
 30
0.0
  0
SPLINE
  5
94
330
2
100
AcDbEntity
  8
0
100
AcDbSpline
210
0.0
220
0.0
230
1.0
 70
     8
 71
     3
 72
    11
 73
     7
 74
     0
 42
0.000000001
 43
0.0000000001
 40
0.0
 40
0.0
 40
0.0
 40
0.0
 40
0.2542296326501443
 40
0.507028929174576
 40
0.756428267034985
 40
1.0
 40
1.0
 40
1.0
 40
1.0
 10
427.2931379073549
 20
224.3899030616108
 30
0.0
 10
427.2910824054998
 20
224.4085001667402
 30
0.0
 10
427.2869829663674
 20
224.4455897467435
 30
0.0
 10
427.2562317250113
 20
224.4989558609461
 30
0.0
 10
427.210395085101
 20
224.5472254472654
 30
0.0
 10
427.1678220586849
 20
224.5721159558561
 30
0.0
 10
427.1467871817209
 20
224.5844140899062
 30
0.0
  0
LINE
  5
95
330
2
100
AcDbEntity
  8
0
100
AcDbLine
 10
416.8540614425429
 20
218.1544499747224
 30
0.0
 11
426.3449468379978
 21
222.8998926724753
 31
0.0
  0
LINE
  5
96
330
2
100
AcDbEntity
  8
0
100
AcDbLine
 10
414.5244927625973
 20
217.6913989802604
 30
0.0
 11
416.335851126463
 21
217.9800931759071
 31
0.0
  0
LINE
  5
97
330
2
100
AcDbEntity
  8
0
100
AcDbLine
 10
416.3327130436312
 20
217.9795858702205
 30
0.0
 11
416.3572405998998
 21
217.9858292948072
 31
0.0
  0
LINE
  5
98
330
2
100
AcDbEntity
  8
0
100
AcDbLine
 10
392.2964679828613
 20
223.0738686232907
 30
0.0
 11
392.3332399728995
 21
222.7103369569174
 31
0.0
  0
LINE
  5
99
330
2
100
AcDbEntity
  8
0
100
AcDbLine
 10
412.6140848982228
 20
216.8685396034318
 30
0.0
 11
412.6508563509035
 21
217.2320715384585
 31
0.0
  0
LINE
  5
9A
330
2
100
AcDbEntity
  8
0
100
AcDbLine
 10
403.8358199605584
 20
228.8435446121393
 30
0.0
 11
403.8725914132392
 21
228.4800126771127
 31
0.0
  0
LINE
  5
9B
330
2
100
AcDbEntity
  8
0
100
AcDbLine
 10
424.1534376819823
 20
222.6382159953114
 30
0.0
 11
424.1902080599985
 21
223.0017473929804
 31
0.0
  0
LINE
  5
9C
330
2
100
AcDbEntity
  8
0
100
AcDbLine
 10
398.0661441060365
 20
225.958706684904
 30
0.0
 11
398.1029155587171
 21
225.5951747498261
 31
0.0
  0
LINE
  5
9D
330
2
100
AcDbEntity
  8
0
100
AcDbLine
 10
418.383760752745
 20
219.7533775307184
 30
0.0
 11
418.4205322054256
 21
220.116909465745
 31
0.0
  0
LINE
  5
9E
330
2
100
AcDbEntity
  8
0
100
AcDbLine
 10
380.7571160051129
 20
217.304192634442
 30
0.0
 11
380.7938879951512
 21
216.9406609680686
 31
0.0
  0
LINE
  5
9F
330
2
100
AcDbEntity
  8
0
100
AcDbLine
 10
401.0747331891789
 20
211.09886374891
 30
0.0
 11
401.1115046418593
 21
211.4623956839364
 31
0.0
  0
LINE
  5
A0
330
2
100
AcDbEntity
  8
0
100
AcDbLine
 10
386.5267918596348
 20
220.1890305616776
 30
0.0
 11
386.5635639840509
 21
219.8254989624675
 31
0.0
  0
LINE
  5
A1
330
2
100
AcDbEntity
  8
0
100
AcDbLine
 10
406.8444090437008
 20
213.9837016761962
 30
0.0
 11
406.8811804963815
 21
214.3472336112229
 31
0.0
  0
SPLINE
  5
A2
330
2
100
AcDbEntity
  8
0
100
AcDbSpline
210
0.0
220
0.0
230
1.0
 70
     8
 71
     3
 72
    11
 73
     7
 74
     0
 42
0.000000001
 43
0.0000000001
 40
0.0
 40
0.0
 40
0.0
 40
0.0
 40
0.2499950959447318
 40
0.4999777661593244
 40
0.7499729192254513
 40
1.0
 40
1.0
 40
1.0
 40
1.0
 10
394.9701669390774
 20
229.1333712909481
 30
0.0
 10
394.9283248992333
 20
229.1499905805915
 30
0.0
 10
394.8446428992575
 20
229.1832283338349
 30
0.0
 10
394.6837144314266
 20
229.19748539901
 30
0.0
 10
394.52274903494
 20
229.1832815007792
 30
0.0
 10
394.4390462875999
 20
229.1500465280587
 30
0.0
 10
394.3971922416117
 20
229.1334279806292
 30
0.0
  0
LINE
  5
A3
330
2
100
AcDbEntity
  8
0
100
AcDbLine
 10
378.1365229212261
 20
219.3823899797526
 30
0.0
 11
380.3530024041111
 21
217.0031617083834
 31
0.0
  0
SPLINE
  5
A4
330
2
100
AcDbEntity
  8
0
100
AcDbSpline
210
0.0
220
0.0
230
1.0
 70
     8
 71
     3
 72
    10
 73
     6
 74
     0
 42
0.000000001
 43
0.0000000001
 40
0.0
 40
0.0
 40
0.0
 40
0.0
 40
0.0525981184442353
 40
0.3597108415825294
 40
1.0
 40
1.0
 40
1.0
 40
1.0
 10
377.6425424733784
 20
220.0082348320588
 30
0.0
 10
377.6441769733217
 20
220.0038151504245
 30
0.0
 10
377.6553550794513
 20
219.9735895939352
 30
0.0
 10
377.6990441354988
 20
219.8919648283004
 30
0.0
 10
377.7491132455154
 20
219.8245339802891
 30
0.0
 10
377.7829517980235
 20
219.7789617244541
 30
0.0
  0
LINE
  5
A5
330
2
100
AcDbEntity
  8
0
100
AcDbLine
 10
377.654842253472
 20
220.6579590071851
 30
0.0
 11
377.6324635316673
 21
220.13839635982
 31
0.0
  0
SPLINE
  5
A6
330
2
100
AcDbEntity
  8
0
100
AcDbSpline
210
0.0
220
0.0
230
1.0
 70
     8
 71
     3
 72
     9
 73
     5
 74
     0
 42
0.000000001
 43
0.0000000001
 40
0.0
 40
0.0
 40
0.0
 40
0.0
 40
0.3830397823955761
 40
1.0
 40
1.0
 40
1.0
 40
1.0
 10
380.3867265849532
 20
216.9758309692956
 30
0.0
 10
380.4118515642203
 20
216.9509972319874
 30
0.0
 10
380.4774452190363
 20
216.8861639210643
 30
0.0
 10
380.5715452955494
 20
216.8349273785405
 30
0.0
 10
380.6296012992314
 20
216.8033164701157
 30
0.0
  0
SPLINE
  5
A7
330
2
100
AcDbEntity
  8
0
100
AcDbSpline
210
0.0
220
0.0
230
1.0
 70
     8
 71
     3
 72
     9
 73
     5
 74
     0
 42
0.000000001
 43
0.0000000001
 40
0.0
 40
0.0
 40
0.0
 40
0.0
 40
0.4834895833576102
 40
1.0
 40
1.0
 40
1.0
 40
1.0
 10
377.7849028902722
 20
219.7751523858119
 30
0.0
 10
377.8488485805107
 20
219.7041071203148
 30
0.0
 10
377.9811072525471
 20
219.557164418874
 30
0.0
 10
378.0925549011279
 20
219.4322814852785
 30
0.0
 10
378.1501187725301
 20
219.3677781492156
 30
0.0
  0
SPLINE
  5
A8
330
2
100
AcDbEntity
  8
0
100
AcDbSpline
210
0.0
220
0.0
230
1.0
 70
     8
 71
     3
 72
    11
 73
     7
 74
     0
 42
0.000000001
 43
0.0000000001
 40
0.0
 40
0.0
 40
0.0
 40
0.0
 40
0.2435812080437468
 40
0.4929932450552067
 40
0.7457921267618845
 40
1.0
 40
1.0
 40
1.0
 40
1.0
 10
377.8004256533876
 20
220.8350442034566
 30
0.0
 10
377.7794027046341
 20
220.8227528340212
 30
0.0
 10
377.736853561333
 20
220.7978758652564
 30
0.0
 10
377.6910520185695
 20
220.7496281712661
 30
0.0
 10
377.6603331134806
 20
220.6962891536195
 30
0.0
 10
377.656238577719
 20
220.6592202417896
 30
0.0
 10
377.6541856204008
 20
220.6406342778994
 30
0.0
  0
SPLINE
  5
A9
330
2
100
AcDbEntity
  8
0
100
AcDbSpline
210
0.0
220
0.0
230
1.0
 70
     8
 71
     3
 72
     9
 73
     5
 74
     0
 42
0.000000001
 43
0.0000000001
 40
0.0
 40
0.0
 40
0.0
 40
0.0
 40
0.6337617473736449
 40
1.0
 40
1.0
 40
1.0
 40
1.0
 10
413.1527862503673
 20
216.8642057262871
 30
0.0
 10
413.1606842438233
 20
216.8692819961079
 30
0.0
 10
413.1731463299129
 20
216.8772917408455
 30
0.0
 10
413.1887968452846
 20
216.8861078938864
 30
0.0
 10
413.1945286626874
 20
216.8893367063711
 30
0.0
  0
LINE
  5
AA
330
2
100
AcDbEntity
  8
0
100
AcDbLine
 10
380.6209049409424
 20
216.8077532579871
 30
0.0
 11
395.8525222129503
 21
209.1919446220086
 31
0.0
  0
LINE
  5
AB
330
2
100
AcDbEntity
  8
0
100
AcDbLine
 10
412.9474535385972
 20
216.7481735651898
 30
0.0
 11
413.1590054576482
 21
216.8688158040295
 31
0.0
  0
LINE
  5
AC
330
2
100
AcDbEntity
  8
0
100
AcDbLine
 10
397.915552132501
 20
209.2311681411297
 30
0.0
 11
412.9396996798411
 21
216.7432419147742
 31
0.0
  0
LINE
  5
AD
330
2
100
AcDbEntity
  8
0
100
AcDbLine
 10
415.5853211235894
 20
217.7469184289969
 30
0.0
 11
415.663934934395
 21
217.8730030708914
 31
0.0
  0
SPLINE
  5
AE
330
2
100
AcDbEntity
  8
0
100
AcDbSpline
210
0.0
220
0.0
230
1.0
 70
     8
 71
     3
 72
    11
 73
     7
 74
     0
 42
0.000000001
 43
0.0000000001
 40
0.0
 40
0.0
 40
0.0
 40
0.0
 40
0.2982061222452392
 40
0.5637537578433896
 40
0.7977438341850343
 40
1.0
 40
1.0
 40
1.0
 40
1.0
 10
414.8163495107412
 20
217.1359453644222
 30
0.0
 10
414.8990408476201
 20
217.1812003332902
 30
0.0
 10
415.0553674567309
 20
217.2667541058568
 30
0.0
 10
415.2721736423938
 20
217.4295190716607
 30
0.0
 10
415.4573738899203
 20
217.5941617734197
 30
0.0
 10
415.5620230075156
 20
217.7150337315334
 30
0.0
 10
415.6105413149194
 20
217.7710734092202
 30
0.0
  0
LINE
  5
AF
330
2
100
AcDbEntity
  8
0
100
AcDbLine
 10
399.5450338789772
 20
209.4999361929649
 30
0.0
 11
414.8055951289538
 21
217.1302168179534
 31
0.0
  0
LINE
  5
B0
330
2
100
AcDbEntity
  8
0
100
AcDbLine
 10
397.2154646616739
 20
209.0368849297986
 30
0.0
 11
399.0268230255395
 21
209.3255791254451
 31
0.0
  0
LINE
  5
B1
330
2
100
AcDbEntity
  8
0
100
AcDbLine
 10
399.0236854800652
 20
209.3250720884121
 30
0.0
 11
399.2056099209472
 21
209.3713795872989
 31
0.0
  0
SPLINE
  5
B2
330
2
100
AcDbEntity
  8
0
100
AcDbSpline
210
0.0
220
0.0
230
1.0
 70
     8
 71
     3
 72
     9
 73
     5
 74
     0
 42
0.000000001
 43
0.0000000001
 40
0.0
 40
0.0
 40
0.0
 40
0.0
 40
0.2501983828761699
 40
1.0
 40
1.0
 40
1.0
 40
1.0
 10
399.2056099209472
 20
209.3713795872989
 30
0.0
 10
399.2350334732543
 20
209.3782396634333
 30
0.0
 10
399.3526343624719
 20
209.4056582104899
 30
0.0
 10
399.4688920806122
 20
209.4628998663156
 30
0.0
 10
399.5560623056769
 20
209.5058197524204
 30
0.0
  0
LINE
  5
B3
330
2
100
AcDbEntity
  8
0
100
AcDbLine
 10
424.6880509289582
 20
226.9018911897044
 30
0.0
 11
424.5350951837714
 21
226.8254133170856
 31
0.0
  0
LINE
  5
B4
330
2
100
AcDbEntity
  8
0
100
AcDbLine
 10
427.2858913003293
 20
224.4288608374752
 30
0.0
 11
427.4350340599621
 21
224.5034322172405
 31
0.0
  0
LINE
  5
B5
330
2
100
AcDbEntity
  8
0
100
AcDbLine
 10
406.3648041317618
 20
236.0336498519362
 30
0.0
 11
377.6246059657442
 21
221.6635507689018
 31
0.0
  0
LINE
  5
B6
330
2
100
AcDbEntity
  8
0
100
AcDbLine
 10
408.9331916614622
 20
234.507780825594
 30
0.0
 11
408.9994718395285
 21
234.5409209146526
 31
0.0
  0
LINE
  5
B7
330
2
100
AcDbEntity
  8
0
100
AcDbLine
 10
418.2184869578332
 20
228.5773631642251
 30
0.0
 11
418.6512135335306
 21
228.7937264520738
 31
0.0
  0
LINE
  5
B8
330
2
100
AcDbEntity
  8
0
100
AcDbLine
 10
418.280106760516
 20
244.7788548468434
 30
0.0
 11
414.6740590827416
 21
246.581878685756
 31
0.0
  0
SPLINE
  5
B9
330
2
100
AcDbEntity
  8
0
100
AcDbSpline
210
0.0
220
0.0
230
1.0
 70
     8
 71
     3
 72
    12
 73
     8
 74
     0
 42
0.000000001
 43
0.0000000001
 40
0.0
 40
0.0
 40
0.0
 40
0.0
 40
0.1524736914285708
 40
0.4353506313513254
 40
0.7135323394350977
 40
0.9804333518383728
 40
1.0
 40
1.0
 40
1.0
 40
1.0
 10
418.5373395470668
 20
232.287598091591
 30
0.0
 10
418.5149902449122
 20
232.2978557125646
 30
0.0
 10
418.4511773817741
 20
232.3271437931849
 30
0.0
 10
418.3440098145145
 20
232.3523657189469
 30
0.0
 10
418.223955298125
 20
232.346424928812
 30
0.0
 10
418.1429195803501
 20
232.3265412227306
 30
0.0
 10
418.1099802284975
 20
232.3022759711875
 30
0.0
 10
418.1077303664811
 20
232.3006185776842
 30
0.0
  0
LINE
  5
BA
330
2
100
AcDbEntity
  8
0
100
AcDbLine
 10
418.1199772182996
 20
232.3083100650576
 30
0.0
 11
417.5430084506863
 21
232.0198256812255
 31
0.0
  0
SPLINE
  5
BB
330
2
100
AcDbEntity
  8
0
100
AcDbSpline
210
0.0
220
0.0
230
1.0
 70
     8
 71
     3
 72
    20
 73
    16
 74
     0
 42
0.000000001
 43
0.0000000001
 40
0.0
 40
0.0
 40
0.0
 40
0.0
 40
0.0708558343046446
 40
0.1469744590075163
 40
0.2247101546467784
 40
0.3051353620306564
 40
0.3875649684232806
 40
0.470727530683794
 40
0.5538141763576962
 40
0.6367759107569079
 40
0.7197606523609479
 40
0.8029443937179598
 40
0.8865239543424634
 40
0.9706915428950308
 40
1.0
 40
1.0
 40
1.0
 40
1.0
 10
418.8757207911153
 20
230.8290081204853
 30
0.0
 10
418.9045087282194
 20
230.8473678192922
 30
0.0
 10
418.9642228156101
 20
230.885450876618
 30
0.0
 10
419.0318057126615
 20
230.9748406495842
 30
0.0
 10
419.0812959886
 20
231.0845887841562
 30
0.0
 10
419.1083087121123
 20
231.2134269917121
 30
0.0
 10
419.1119301913666
 20
231.3569202028993
 30
0.0
 10
419.091519038845
 20
231.5095188477201
 30
0.0
 10
419.0480358554516
 20
231.6645493466476
 30
0.0
 10
418.9834326242655
 20
231.8158090068071
 30
0.0
 10
418.9002037832208
 20
231.9576050717883
 30
0.0
 10
418.8012743627856
 20
232.0847710568896
 30
0.0
 10
418.6898339664766
 20
232.1920637671337
 30
0.0
 10
418.5957459402041
 20
232.2580135281041
 30
0.0
 10
418.5400395740757
 20
232.286058891081
 30
0.0
 10
418.5256518005797
 20
232.2933024138265
 30
0.0
  0
SPLINE
  5
BC
330
2
100
AcDbEntity
  8
0
100
AcDbSpline
210
0.0
220
0.0
230
1.0
 70
     8
 71
     3
 72
    21
 73
    17
 74
     0
 42
0.000000001
 43
0.0000000001
 40
0.0
 40
0.0
 40
0.0
 40
0.0
 40
0.0101088869235536
 40
0.0857631515081357
 40
0.1606996173713908
 40
0.2370395474978716
 40
0.3160124748323337
 40
0.3970680327013588
 40
0.4789648083552079
 40
0.5608095149618407
 40
0.6425244111144043
 40
0.724244710627107
 40
0.8061470144207943
 40
0.8884185955098031
 40
0.9712563381891284
 40
1.0
 40
1.0
 40
1.0
 40
1.0
 10
417.5609116430805
 20
232.0260724748834
 30
0.0
 10
417.5561718442251
 20
232.0246825855575
 30
0.0
 10
417.5159596932312
 20
232.0128908532188
 30
0.0
 10
417.4531435607266
 20
231.9617662531639
 30
0.0
 10
417.3798638905002
 20
231.8764091440176
 30
0.0
 10
417.3289404000034
 20
231.7672772826811
 30
0.0
 10
417.2996785357156
 20
231.6403607719242
 30
0.0
 10
417.2938853688564
 20
231.4979212497392
 30
0.0
 10
417.3120902983725
 20
231.3459005626296
 30
0.0
 10
417.3535232534349
 20
231.1908128123616
 30
0.0
 10
417.4162736580029
 20
231.0389637145499
 30
0.0
 10
417.4979057884971
 20
230.8960712063144
 30
0.0
 10
417.595516828802
 20
230.7673397301298
 30
0.0
 10
417.7059457320263
 20
230.6580500992359
 30
0.0
 10
417.7994277082243
 20
230.5902861422728
 30
0.0
 10
417.8548643645456
 20
230.5610711547133
 30
0.0
 10
417.8691449922945
 20
230.5535452974609
 30
0.0
  0
LINE
  5
BD
330
2
100
AcDbEntity
  8
0
100
AcDbLine
 10
418.2865051717002
 20
230.5328322493456
 30
0.0
 11
418.863473939314
 21
230.8213166331266
 31
0.0
  0
LINE
  5
BE
330
2
100
AcDbEntity
  8
0
100
AcDbLine
 10
417.1989883297608
 20
232.0587771033413
 30
0.0
 11
417.0547482872241
 21
231.986657082073
 31
0.0
  0
LINE
  5
BF
330
2
100
AcDbEntity
  8
0
100
AcDbLine
 10
418.0223081518549
 20
230.4121372637317
 30
0.0
 11
418.2098236460984
 21
230.5058950108789
 31
0.0
  0
LINE
  5
C0
330
2
100
AcDbEntity
  8
0
100
AcDbLine
 10
417.4754496650472
 20
231.9746430327502
 30
0.0
 11
417.2879341707526
 21
231.880885285603
 31
0.0
  0
SPLINE
  5
C1
330
2
100
AcDbEntity
  8
0
100
AcDbSpline
210
0.0
220
0.0
230
1.0
 70
     8
 71
     3
 72
    11
 73
     7
 74
     0
 42
0.000000001
 43
0.0000000001
 40
0.0
 40
0.0
 40
0.0
 40
0.0
 40
0.1616296185634133
 40
0.4614962264164775
 40
0.7563831064542276
 40
1.0
 40
1.0
 40
1.0
 40
1.0
 10
417.8691449922945
 20
230.5535452974609
 30
0.0
 10
417.8915126077241
 20
230.5432511682693
 30
0.0
 10
417.9553781925492
 20
230.5138586483927
 30
0.0
 10
418.0618655932099
 20
230.4899167970352
 30
0.0
 10
418.1791895428063
 20
230.4906470506018
 30
0.0
 10
418.2465033099238
 20
230.518085897135
 30
0.0
 10
418.2769557814614
 20
230.5304991185139
 30
0.0
  0
LINE
  5
C2
330
2
100
AcDbEntity
  8
0
100
AcDbLine
 10
417.9670142190145
 20
230.1621252903983
 30
0.0
 11
418.1112542615509
 21
230.2342453116667
 31
0.0
  0
ARC
  5
C3
330
2
100
AcDbEntity
  8
0
100
AcDbCircle
 10
399.1000763216569
 20
232.5440875333029
 30
0.0
 40
0.3046877661728893
100
AcDbArc
 50
181.5050021959005
 51
231.3492102806042
  0
ARC
  5
C4
330
2
100
AcDbEntity
  8
0
100
AcDbCircle
 10
399.0152474971687
 20
232.502518640285
 30
0.0
 40
0.1476538044632931
100
AcDbArc
 50
180.9678375737993
 51
239.2422000691028
  0
ARC
  5
C5
330
2
100
AcDbEntity
  8
0
100
AcDbCircle
 10
385.39707093221
 20
225.6925849142338
 30
0.0
 40
0.3046622787803438
100
AcDbArc
 50
181.502774978901
 51
231.3514374975031
  0
LWPOLYLINE
  5
C6
330
2
100
AcDbEntity
  8
0
100
AcDbPolyline
 90
        9
 70
   128
 43
0.0
 10
396.0548973891521
 20
232.0490846646421
 10
396.0439183980245
 20
232.1111998091674
 10
396.012650411798
 20
232.1528783047315
 10
395.9658553637453
 20
232.167775757418
 10
395.910656271951
 20
232.1536235795272
 10
395.8554571801569
 20
232.1125766656239
 10
395.8086610573888
 20
232.0508836275269
 10
395.7773941458777
 20
231.9779376830938
 10
395.766414080035
 20
231.9048430100838
  0
LWPOLYLINE
  5
C7
330
2
100
AcDbEntity
  8
0
100
AcDbPolyline
 90
        9
 70
   128
 43
0.0
 10
395.766414080035
 20
231.9048430100838
 10
395.7773941458777
 20
231.8427283207088
 10
395.8086610573888
 20
231.8010492877359
 10
395.8554571801569
 20
231.7861524547165
 10
395.910656271951
 20
231.8003045503488
 10
395.9658553637453
 20
231.8413515465106
 10
396.012650411798
 20
231.9030439649405
 10
396.0439183980245
 20
231.9759904467821
 10
396.0548973891521
 20
232.0490846646421
  0
LWPOLYLINE
  5
C8
330
2
100
AcDbEntity
  8
0
100
AcDbPolyline
 90
        9
 70
   128
 43
0.0
 10
396.0548973891521
 20
233.7273501971672
 10
396.0439183980245
 20
233.7894651771244
 10
396.012650411798
 20
233.8311438372566
 10
395.9658553637453
 20
233.8460412899431
 10
395.910656271951
 20
233.8318891942599
 10
395.8554571801569
 20
233.790842198149
 10
395.8086610573888
 20
233.7291491600522
 10
395.7773941458777
 20
233.6562030510509
 10
395.766414080035
 20
233.5831085426089
  0
LWPOLYLINE
  5
C9
330
2
100
AcDbEntity
  8
0
100
AcDbPolyline
 90
        9
 70
   128
 43
0.0
 10
395.766414080035
 20
233.5831085426089
 10
395.7773941458777
 20
233.5209937709244
 10
395.8086610573888
 20
233.4793149025195
 10
395.8554571801569
 20
233.4644179871907
 10
395.910656271951
 20
233.4785700828738
 10
395.9658553637453
 20
233.5196170789848
 10
396.012650411798
 20
233.5813095797241
 10
396.0439183980245
 20
233.6542558969977
 10
396.0548973891521
 20
233.7273501971672
  0
LWPOLYLINE
  5
CA
330
2
100
AcDbEntity
  8
0
100
AcDbPolyline
 90
        9
 70
   128
 43
0.0
 10
388.1215933578312
 20
228.0824326490328
 10
388.1106135606929
 20
228.144547390476
 10
388.0793458431707
 20
228.1862260204178
 10
388.032550392087
 20
228.2011232716143
 10
387.9773514346193
 20
228.1869711608361
 10
387.9221524771517
 20
228.1459243141469
 10
387.8753570260681
 20
228.0842316119176
 10
387.844089308546
 20
228.0112852644024
 10
387.8331095114075
 20
227.93819072577
  0
LWPOLYLINE
  5
CB
330
2
100
AcDbEntity
  8
0
100
AcDbPolyline
 90
        9
 70
   128
 43
0.0
 10
387.8331095114075
 20
227.93819072577
 10
387.844089308546
 20
227.8760759020174
 10
387.8753570260681
 20
227.8343972720754
 10
387.9221524771517
 20
227.8195001031884
 10
387.9773514346193
 20
227.8336521316573
 10
388.032550392087
 20
227.874699060656
 10
388.0793458431707
 20
227.9363916806267
 10
388.1106135606929
 20
228.0093380281419
 10
388.1215933578312
 20
228.0824326490328
  0
LWPOLYLINE
  5
CC
330
2
100
AcDbEntity
  8
0
100
AcDbPolyline
 90
        9
 70
   128
 43
0.0
 10
388.1215933578312
 20
229.760698181507
 10
388.1106135606929
 20
229.8228127584839
 10
388.0793458431707
 20
229.8644915529428
 10
388.032550392087
 20
229.8793888040884
 10
387.9773514346193
 20
229.8652367756194
 10
387.9221524771517
 20
229.824189846621
 10
387.8753570260681
 20
229.7624971443915
 10
387.844089308546
 20
229.6895506324106
 10
387.8331095114075
 20
229.6164562582951
  0
LWPOLYLINE
  5
CD
330
2
100
AcDbEntity
  8
0
100
AcDbPolyline
 90
        9
 70
   128
 43
0.0
 10
387.8331095114075
 20
229.6164562582951
 10
387.844089308546
 20
229.5543413522839
 10
387.8753570260681
 20
229.5126628868591
 10
387.9221524771517
 20
229.4977656357135
 10
387.9773514346193
 20
229.5119176641824
 10
388.032550392087
 20
229.5529645931811
 10
388.0793458431707
 20
229.6146572954103
 10
388.1106135606929
 20
229.6876034783575
 10
388.1215933578312
 20
229.760698181507
  0
LINE
  5
CE
330
2
100
AcDbEntity
  8
0
100
AcDbLine
 10
385.0925134401696
 20
225.6845950350225
 30
0.0
 11
385.0925134401696
 21
229.1294556722348
 31
0.0
  0
LINE
  5
CF
330
2
100
AcDbEntity
  8
0
100
AcDbLine
 10
398.7954936618801
 20
232.5360851458522
 30
0.0
 11
398.7954936618801
 21
235.9809457830645
 31
0.0
  0
LINE
  5
D0
330
2
100
AcDbEntity
  8
0
100
AcDbLine
 10
398.8676147578127
 20
232.5000245978349
 30
0.0
 11
398.8676147578127
 21
235.9448852350984
 31
0.0
  0
LINE
  5
D1
330
2
100
AcDbEntity
  8
0
100
AcDbLine
 10
398.9942546693937
 20
232.3483748847881
 30
0.0
 11
398.9397358537451
 21
232.3756342925867
 31
0.0
  0
ARC
  5
D2
330
2
100
AcDbEntity
  8
0
100
AcDbCircle
 10
385.20536607034
 20
229.1431326435636
 30
0.0
 40
0.1136783870202243
100
AcDbArc
 50
121.7607584152007
 51
186.9101586995028
  0
LWPOLYLINE
  5
D3
330
2
100
AcDbEntity
  8
0
100
AcDbPolyline
 90
        9
 70
   128
 43
0.0
 10
398.9397358537451
 20
236.0854842427993
 10
398.911595203504
 20
236.0961600467772
 10
398.884536761951
 20
236.0996363384827
 10
398.8595992130301
 20
236.0957800853634
 10
398.8377411765405
 20
236.0847391544494
 10
398.8198030568666
 20
236.066938025273
 10
398.8064737276717
 20
236.0430605546981
 10
398.7982652768039
 20
236.0140247635911
 10
398.7954936618801
 20
235.9809457830645
  0
LWPOLYLINE
  5
D4
330
2
100
AcDbEntity
  8
0
100
AcDbPolyline
 90
        9
 70
   128
 43
0.0
 10
398.9397358537451
 20
235.9971546294828
 10
398.9256655286244
 20
236.002492531446
 10
398.912136307848
 20
236.0042305127818
 10
398.8996672647088
 20
236.0023025205744
 10
398.8887382464641
 20
235.9967822196345
 10
398.8797694553058
 20
235.9878813562025
 10
398.8731047907338
 20
235.9759426208893
 10
398.869000565249
 20
235.9614248898786
 10
398.8676147578127
 20
235.9448852350984
  0
LWPOLYLINE
  5
D5
330
2
100
AcDbEntity
  8
0
100
AcDbPolyline
 90
        6
 70
   128
 43
0.0
 10
398.8676147578127
 20
232.513394251087
 10
398.8930724546908
 20
232.5088953472598
 10
398.9757958644048
 20
232.4812584560018
 10
399.0310699155227
 20
232.4398966168183
 10
399.0504800862125
 20
232.3911073547395
 10
399.0485698320085
 20
232.3755327380125
  0
LWPOLYLINE
  5
D6
330
2
100
AcDbEntity
  8
0
100
AcDbPolyline
 90
        8
 70
   128
 43
0.0
 10
401.3557877320321
 20
233.8515565923403
 10
401.4385114103994
 20
233.8791938865784
 10
401.5360902032102
 20
233.8888985689432
 10
401.6336687274188
 20
233.8791934835983
 10
401.7163921370817
 20
233.8515565923403
 10
401.7716661882507
 20
233.8101947532077
 10
401.7910763588894
 20
233.761405491078
 10
401.7891661047364
 20
233.7458308744019
  0
LINE
  5
D7
330
2
100
AcDbEntity
  8
0
100
AcDbLine
 10
401.3557877320321
 20
233.8515565923403
 30
0.0
 11
400.5075671690203
 21
233.426691881325
 31
0.0
  0
LWPOLYLINE
  5
D8
330
2
100
AcDbEntity
  8
0
100
AcDbPolyline
 90
        8
 70
   128
 43
0.0
 10
400.7017870912807
 20
233.2021413676484
 10
400.6648055374783
 20
233.2012200931592
 10
400.5650346540616
 20
233.2126350037688
 10
400.4822779290927
 20
233.2427463592899
 10
400.429869527934
 20
233.2867032962351
 10
400.416252988914
 20
233.3374232315468
 10
400.4436222833648
 20
233.3867345223093
 10
400.5075671690203
 20
233.426691881325
  0
LINE
  5
D9
330
2
100
AcDbEntity
  8
0
100
AcDbLine
 10
400.0554817388843
 20
232.878988691476
 30
0.0
 11
399.9133690370677
 21
232.9500450423588
 31
0.0
  0
LWPOLYLINE
  5
DA
330
2
100
AcDbEntity
  8
0
100
AcDbPolyline
 90
        9
 70
   128
 43
0.0
 10
399.552763557303
 20
232.7697423024765
 10
399.4974897748382
 20
232.8111040073334
 10
399.4780806788638
 20
232.8598938067699
 10
399.4974900435425
 20
232.9086832031753
 10
399.552763557303
 20
232.9500445050012
 10
399.6354872356701
 20
232.9776817992392
 10
399.7330660285321
 20
232.9873864815529
 10
399.8306456274049
 20
232.9776819335656
 10
399.9133690370677
 20
232.9500450423588
  0
LINE
  5
DB
330
2
100
AcDbEntity
  8
0
100
AcDbLine
 10
399.552763557303
 20
232.7697423024765
 30
0.0
 11
399.6948762591198
 21
232.6986859515937
 31
0.0
  0
LWPOLYLINE
  5
DC
330
2
100
AcDbEntity
  8
0
100
AcDbPolyline
 90
        9
 70
   128
 43
0.0
 10
400.1297317875587
 20
233.5991335625363
 10
400.0470078405383
 20
233.5714964026252
 10
399.949429585034
 20
233.5617914516579
 10
399.851849717508
 20
233.5714961339718
 10
399.769126307845
 20
233.5991330252298
 10
399.7138525253802
 20
233.6404947300357
 10
399.6944431607015
 20
233.6892846637988
 10
399.7138525253802
 20
233.7380740602553
 10
399.7691273825092
 20
233.7794357650612
  0
LINE
  5
DD
330
2
100
AcDbEntity
  8
0
100
AcDbLine
 10
400.1297317875587
 20
233.5991335625363
 30
0.0
 11
400.995182789625
 21
234.0318590635695
 31
0.0
  0
LWPOLYLINE
  5
DE
330
2
100
AcDbEntity
  8
0
100
AcDbPolyline
 90
        9
 70
   128
 43
0.0
 10
400.6345783845246
 20
234.2121612660942
 10
400.7173017942383
 20
234.2397986946587
 10
400.8148805871003
 20
234.2495033770235
 10
400.9124593799111
 20
234.2397981573522
 10
400.995182789625
 20
234.2121612660942
 10
401.0504565720898
 20
234.1707995612373
 10
401.0698670114327
 20
234.1220101648318
 10
401.0504571094474
 20
234.0732210370798
 10
400.995182789625
 20
234.0318590635695
  0
LINE
  5
DF
330
2
100
AcDbEntity
  8
0
100
AcDbLine
 10
400.6345783845246
 20
234.2121612660942
 30
0.0
 11
399.7691273825092
 21
233.7794357650612
 31
0.0
  0
LINE
  5
E0
330
2
100
AcDbEntity
  8
0
100
AcDbLine
 10
399.4085224401022
 20
233.9597382362902
 30
0.0
 11
400.2739734421171
 21
234.3924637373234
 31
0.0
  0
LWPOLYLINE
  5
E1
330
2
100
AcDbEntity
  8
0
100
AcDbPolyline
 90
        9
 70
   128
 43
0.0
 10
399.9133684997103
 20
234.5727662085014
 10
399.9960924467306
 20
234.6004033684126
 10
400.0936712395925
 20
234.6101080507265
 10
400.1912494950968
 20
234.6004030997592
 10
400.2739734421171
 20
234.5727659398481
 10
400.3292472245822
 20
234.5314042349912
 10
400.3486571266185
 20
234.4826151072391
 10
400.3292477619397
 20
234.4338257108336
 10
400.2739734421171
 20
234.3924637373234
  0
LINE
  5
E2
330
2
100
AcDbEntity
  8
0
100
AcDbLine
 10
399.9133684997103
 20
234.5727662085014
 30
0.0
 11
399.0651479366984
 21
234.1479014974861
 31
0.0
  0
LWPOLYLINE
  5
E3
330
2
100
AcDbEntity
  8
0
100
AcDbPolyline
 90
        9
 70
   128
 43
0.0
 10
399.4085224401022
 20
233.9597382362902
 10
399.3230972700692
 20
233.931550568557
 10
399.222386842514
 20
233.922429440667
 10
399.122615690444
 20
233.9338444856032
 10
399.0398589654752
 20
233.9639558410731
 10
398.9874508329695
 20
234.0079126436919
 10
398.9738340252961
 20
234.0586327133303
 10
399.0012035884004
 20
234.1079438697661
 10
399.0651479366984
 20
234.1479014974861
  0
LWPOLYLINE
  5
E4
330
2
100
AcDbEntity
  8
0
100
AcDbPolyline
 90
        9
 70
   128
 43
0.0
 10
399.1921596896111
 20
233.3106497161127
 10
399.2474334720757
 20
233.2692880112559
 10
399.2668428367035
 20
233.2204980774926
 10
399.2474329347183
 20
233.1717089497406
 10
399.1921586148958
 20
233.1303469762304
 10
399.1094357425395
 20
233.1027103536257
 10
399.0118574870353
 20
233.0930054026585
 10
398.9142776195092
 20
233.1027100849724
 10
398.8676147578127
 20
233.1153645114452
  0
LINE
  5
E5
330
2
100
AcDbEntity
  8
0
100
AcDbLine
 10
399.1921596896111
 20
233.3106497161127
 30
0.0
 11
398.86761529517
 21
233.4729219133078
 31
0.0
  0
LINE
  5
E6
330
2
100
AcDbEntity
  8
0
100
AcDbLine
 10
398.9397358537451
 20
235.9971546294828
 30
0.0
 11
402.6157747343216
 21
234.1591351891943
 31
0.0
  0
LINE
  5
E7
330
2
100
AcDbEntity
  8
0
100
AcDbLine
 10
398.9397358537451
 20
236.0854842427993
 30
0.0
 11
402.7041045116964
 21
234.2032999138748
 31
0.0
  0
LWPOLYLINE
  5
E8
330
2
100
AcDbEntity
  8
0
100
AcDbPolyline
 90
        3
 70
   128
 43
0.0
 10
396.0416438252921
 20
231.968486509709
 10
396.0250238078799
 20
231.9427022522814
 10
395.9960309317437
 20
231.8772601092689
  0
LWPOLYLINE
  5
E9
330
2
100
AcDbEntity
  8
0
100
AcDbPolyline
 90
        3
 70
   128
 43
0.0
 10
396.0416438252921
 20
233.6467518776662
 10
396.0250238078799
 20
233.6209677848064
 10
395.9960309317437
 20
233.5555255595354
  0
LINE
  5
EA
330
2
100
AcDbEntity
  8
0
100
AcDbLine
 10
396.0015139791687
 20
231.89310096949
 30
0.0
 11
396.0054140143132
 21
231.8911509519435
 31
0.0
  0
LWPOLYLINE
  5
EB
330
2
100
AcDbEntity
  8
0
100
AcDbPolyline
 90
        3
 70
   128
 43
0.0
 10
388.1083393909912
 20
228.0018342925587
 10
388.09171977661
 20
227.9760502366209
 10
388.0627260944119
 20
227.9106076906284
  0
LWPOLYLINE
  5
EC
330
2
100
AcDbEntity
  8
0
100
AcDbPolyline
 90
        3
 70
   128
 43
0.0
 10
388.1083393909912
 20
229.6800996605157
 10
388.09171977661
 20
229.6543157691463
 10
388.0627260944119
 20
229.588873140895
  0
LINE
  5
ED
330
2
100
AcDbEntity
  8
0
100
AcDbLine
 10
388.0855710284
 20
229.6258902621423
 30
0.0
 11
388.0767041308966
 21
229.6251934962522
 31
0.0
  0
LWPOLYLINE
  5
EE
330
2
100
AcDbEntity
  8
0
100
AcDbPolyline
 90
        3
 70
   128
 43
0.0
 10
399.9494290476764
 20
235.6211599702285
 10
399.947350605175
 20
235.5963506827143
 10
399.9442453002913
 20
235.5832298297169
  0
LINE
  5
EF
330
2
100
AcDbEntity
  8
0
100
AcDbLine
 10
399.9494290476764
 20
235.6211599702285
 30
0.0
 11
399.9494290476764
 21
239.6843290935849
 31
0.0
  0
LWPOLYLINE
  5
F0
330
2
100
AcDbEntity
  8
0
100
AcDbPolyline
 90
        7
 70
   128
 43
0.0
 10
392.0521851613928
 20
233.7482873953977
 10
392.0658793464229
 20
233.5313316931754
 10
392.1066550787723
 20
233.3329164112183
 10
392.173602636809
 20
233.1574737989258
 10
392.2652260577913
 20
233.0089231769559
 10
392.3794786023493
 20
232.8905827143428
 10
392.405913188727
 20
232.8699801653806
  0
ARC
  5
F1
330
2
100
AcDbEntity
  8
0
100
AcDbCircle
 10
391.9504434437245
 20
235.0407811759226
 30
0.0
 40
2.55471817206437
100
AcDbArc
 50
329.4516880087938
 51
358.5098076754988
  0
LWPOLYLINE
  5
F2
330
2
100
AcDbEntity
  8
0
100
AcDbPolyline
 90
       22
 70
   128
 43
0.0
 10
394.5042975875954
 20
234.9743436085246
 10
394.4906034025653
 20
235.1912993107467
 10
394.4498271328582
 20
235.3897143239994
 10
394.3828795748217
 20
235.5651569363431
 10
394.2912561538904
 20
235.713707558262
 10
394.1770041466391
 20
235.8320482895795
 10
394.042674857483
 20
235.9175350910696
 10
393.8912693467307
 20
235.9682581770912
 10
393.7261696508974
 20
235.9830852825396
 10
393.5510646293922
 20
235.9616844738505
 10
393.3698645267466
 20
235.9045340789212
 10
393.1866176848838
 20
235.8129106579897
 10
393.005418119596
 20
235.688861218978
 10
392.8303125607333
 20
235.5351567374575
 10
392.6652134022575
 20
235.3552302048799
 10
392.5138078915052
 20
235.1531016080553
 10
392.3794786023493
 20
234.93328551746
 10
392.2652260577913
 20
234.700692510238
 10
392.173602636809
 20
234.4605184673367
 10
392.1066550787723
 20
234.2181282970075
 10
392.0658793464229
 20
233.9789372827013
 10
392.0521851613928
 20
233.7482873953977
  0
LINE
  5
F3
330
2
100
AcDbEntity
  8
0
100
AcDbLine
 10
386.6070533654442
 20
229.9705502537136
 30
0.0
 11
386.6070533654442
 21
233.0131412524433
 31
0.0
  0
ARC
  5
F4
330
2
100
AcDbEntity
  8
0
100
AcDbCircle
 10
401.0481982999532
 20
236.3844337251198
 30
0.0
 40
0.7382701840889033
100
AcDbArc
 50
180.9678886643996
 51
239.2421012963009
  0
LINE
  5
F5
330
2
100
AcDbEntity
  8
0
100
AcDbLine
 10
409.1448499744166
 20
234.5594652397235
 30
0.0
 11
409.1448499744166
 21
234.6044475810916
 31
0.0
  0
LWPOLYLINE
  5
F6
330
2
100
AcDbEntity
  8
0
100
AcDbPolyline
 90
        8
 70
   128
 43
0.0
 10
408.8033430064329
 20
234.8741100938978
 10
408.8370545597004
 20
234.9144919461642
 10
408.8955489071748
 20
234.9331135756147
 10
408.964547771892
 20
234.9154228801885
 10
409.033546367956
 20
234.8641148451734
 10
409.0920407153796
 20
234.7869988683501
 10
409.1311254294708
 20
234.6958155302114
 10
409.1448499744166
 20
234.6044475810916
  0
LWPOLYLINE
  5
F7
330
2
100
AcDbEntity
  8
0
100
AcDbPolyline
 90
        8
 70
   128
 43
0.0
 10
409.5135271512811
 20
234.4854439826493
 10
409.5191794617695
 20
234.5017885140874
 10
409.5582641758611
 20
234.5538871380836
 10
409.6167585232849
 20
234.5725087675341
 10
409.6857571193997
 20
234.5548182064344
 10
409.7547559841171
 20
234.5035100370928
 10
409.8132500628871
 20
234.4263941945962
 10
409.8433592690287
 20
234.3624579601587
  0
LWPOLYLINE
  5
F8
330
2
100
AcDbEntity
  8
0
100
AcDbPolyline
 90
        5
 70
   128
 43
0.0
 10
410.2857816609196
 20
234.1974893337915
 10
410.3379678707926
 20
234.2119040937805
 10
410.4069667355097
 20
234.194213398405
 10
410.4759653316246
 20
234.1429053633899
 10
410.4981492665666
 20
234.1183024381876
  0
LWPOLYLINE
  5
F9
330
2
100
AcDbEntity
  8
0
100
AcDbPolyline
 90
        7
 70
   128
 43
0.0
 10
408.0821333902719
 20
235.2347149019784
 10
408.1158450779168
 20
235.2750966870813
 10
408.1743394253406
 20
235.293718316532
 10
408.2433381557309
 20
235.2760276882689
 10
408.3123368861724
 20
235.2247195860905
 10
408.3708312335962
 20
235.1476036092672
 10
408.4045429211901
 20
235.0735101365192
  0
LWPOLYLINE
  5
FA
330
2
100
AcDbEntity
  8
0
100
AcDbPolyline
 90
        7
 70
   128
 43
0.0
 10
407.3609239084884
 20
235.5953196428954
 10
407.3946355960823
 20
235.6357014279986
 10
407.4531299435061
 20
235.6543230573982
 10
407.5221286739475
 20
235.6366324291862
 10
407.591127404338
 20
235.5853243270076
 10
407.649621617435
 20
235.5082084173478
 10
407.6833334393556
 20
235.4341148774363
  0
LWPOLYLINE
  5
FB
330
2
100
AcDbEntity
  8
0
100
AcDbPolyline
 90
        7
 70
   128
 43
0.0
 10
406.6397144098758
 20
235.9559243921763
 10
406.6734261142479
 20
235.9963061689157
 10
406.7319204113375
 20
236.0149278235081
 10
406.800919158506
 20
235.9972371868814
 10
406.8699178889476
 20
235.9459290847031
 10
406.9284121692078
 20
235.8688131414358
 10
406.962123890409
 20
235.7947196519096
  0
LINE
  5
FC
330
2
100
AcDbEntity
  8
0
100
AcDbLine
 10
405.8994072391008
 20
236.227168948724
 30
0.0
 11
405.8994072391008
 21
235.8009512117906
 31
0.0
  0
LINE
  5
FD
330
2
100
AcDbEntity
  8
0
100
AcDbLine
 10
406.2600120135742
 20
235.9812538498827
 30
0.0
 11
406.2600120135742
 21
236.0468665614874
 31
0.0
  0
LWPOLYLINE
  5
FE
330
2
100
AcDbEntity
  8
0
100
AcDbPolyline
 90
        9
 70
   128
 43
0.0
 10
405.8994072391008
 20
236.227168948724
 10
405.9131319855366
 20
236.3048122521786
 10
405.9522165988576
 20
236.3569109266109
 10
406.0107109127248
 20
236.3755325728398
 10
406.0797096431156
 20
236.3578419445766
 10
406.1487083735571
 20
236.3065338423983
 10
406.2072026873736
 20
236.2294178823531
 10
406.2462873175236
 20
236.1382345861848
 10
406.2600120135742
 20
236.0468665614874
  0
LINE
  5
FF
330
2
100
AcDbEntity
  8
0
100
AcDbLine
 10
405.1781977572663
 20
236.5877736896414
 30
0.0
 11
405.1781977572663
 21
235.4403465601695
 31
0.0
  0
LINE
  5
100
330
2
100
AcDbEntity
  8
0
100
AcDbLine
 10
405.5388024981835
 20
235.6206492150395
 30
0.0
 11
405.5388024981835
 21
236.4074713191826
 31
0.0
  0
LWPOLYLINE
  5
101
330
2
100
AcDbEntity
  8
0
100
AcDbPolyline
 90
        9
 70
   128
 43
0.0
 10
405.1781977572663
 20
236.5877736896414
 10
405.1919224365388
 20
236.6654170267029
 10
405.2310071506303
 20
236.7175156506992
 10
405.2895013637273
 20
236.7361373473132
 10
405.3585000941688
 20
236.71844671905
 10
405.4274988917227
 20
236.6671385833154
 10
405.4859931719828
 20
236.5900226400484
 10
405.5250778189113
 20
236.4988393355166
 10
405.5388024981835
 20
236.4074713191826
  0
LINE
  5
102
330
2
100
AcDbEntity
  8
0
100
AcDbLine
 10
404.4569882754831
 20
236.9483784305585
 30
0.0
 11
404.4569882754831
 21
235.0797419084975
 31
0.0
  0
LINE
  5
103
330
2
100
AcDbEntity
  8
0
100
AcDbLine
 10
404.8175930835125
 20
235.2600445298115
 30
0.0
 11
404.8175930835125
 21
236.7680760265439
 31
0.0
  0
LWPOLYLINE
  5
104
330
2
100
AcDbEntity
  8
0
100
AcDbPolyline
 90
        9
 70
   128
 43
0.0
 10
404.4569882754831
 20
236.9483784305585
 10
404.4707129547554
 20
237.02602176762
 10
404.5097976688471
 20
237.0781203916163
 10
404.5682918819441
 20
237.0967420882303
 10
404.6372906123345
 20
237.0790514599671
 10
404.7062893427249
 20
237.0277433577887
 10
404.7647836901484
 20
236.9506273809654
 10
404.8038682699136
 20
236.8594441099899
 10
404.8175930835125
 20
236.7680760265439
  0
LINE
  5
105
330
2
100
AcDbEntity
  8
0
100
AcDbLine
 10
403.7357787936485
 20
237.3089831714756
 30
0.0
 11
403.7357787936485
 21
235.1007392186216
 31
0.0
  0
LINE
  5
106
330
2
100
AcDbEntity
  8
0
100
AcDbLine
 10
404.0963834674025
 20
234.9204368817191
 30
0.0
 11
404.0954957768216
 21
234.898995673803
 31
0.0
  0
ARC
  5
107
330
2
100
AcDbEntity
  8
0
100
AcDbCircle
 10
404.1111148409345
 20
235.1089722984911
 30
0.0
 40
0.3754263336351788
100
AcDbArc
 50
181.2565941838025
 51
235.3582119215965
  0
LINE
  5
108
330
2
100
AcDbEntity
  8
0
100
AcDbLine
 10
404.0963834674025
 20
234.9204368817191
 30
0.0
 11
404.0963834674025
 21
237.1286808345733
 31
0.0
  0
LWPOLYLINE
  5
109
330
2
100
AcDbEntity
  8
0
100
AcDbPolyline
 90
        9
 70
   128
 43
0.0
 10
403.7357787936485
 20
237.3089831714756
 10
403.7495036072478
 20
237.386626441323
 10
403.788588052686
 20
237.4387251996968
 10
403.8470824001096
 20
237.4573468291473
 10
403.9160812648266
 20
237.4396561337212
 10
403.9850798609416
 20
237.3883480987058
 10
404.0435742083651
 20
237.3112321218828
 10
404.0826589224567
 20
237.2200487837438
 10
404.0963834674025
 20
237.1286808345733
  0
LINE
  5
10A
330
2
100
AcDbEntity
  8
0
100
AcDbLine
 10
403.0145691774874
 20
237.6695879795561
 30
0.0
 11
403.0145691774874
 21
235.461344026651
 31
0.0
  0
LWPOLYLINE
  5
10B
330
2
100
AcDbEntity
  8
0
100
AcDbPolyline
 90
        9
 70
   128
 43
0.0
 10
403.3751741198948
 20
235.281041555473
 10
403.3614493062956
 20
235.2033979565408
 10
403.322364592204
 20
235.1512996615784
 10
403.2638705134338
 20
235.1326782268861
 10
403.1948716487168
 20
235.1503682641426
 10
403.1258730526018
 20
235.2016769572767
 10
403.0673787051783
 20
235.278792605066
 10
403.0282939910866
 20
235.3699756141198
 10
403.0145691774874
 20
235.461344026651
  0
LINE
  5
10C
330
2
100
AcDbEntity
  8
0
100
AcDbLine
 10
403.3751741198948
 20
235.281041555473
 30
0.0
 11
403.3751741198948
 21
237.4892855083272
 31
0.0
  0
LWPOLYLINE
  5
10D
330
2
100
AcDbEntity
  8
0
100
AcDbPolyline
 90
        9
 70
   128
 43
0.0
 10
403.0145691774874
 20
237.6695879795561
 10
403.0282939910866
 20
237.7472312494033
 10
403.0673787051783
 20
237.7993298734507
 10
403.1258730526018
 20
237.8179515028503
 10
403.1948716487168
 20
237.8002609418015
 10
403.2638705134338
 20
237.7489527724597
 10
403.322364592204
 20
237.6718369299122
 10
403.3614493062956
 20
237.5806535918243
 10
403.3751741198948
 20
237.4892855083272
  0
LINE
  5
10E
330
2
100
AcDbEntity
  8
0
100
AcDbLine
 10
402.2933598300309
 20
238.0301926532591
 30
0.0
 11
402.2933598300309
 21
235.8219487004049
 31
0.0
  0
LWPOLYLINE
  5
10F
330
2
100
AcDbEntity
  8
0
100
AcDbPolyline
 90
        9
 70
   128
 43
0.0
 10
402.6539645037338
 20
235.6416463635535
 10
402.640239958839
 20
235.5640026302944
 10
402.6011552447473
 20
235.5119043353322
 10
402.5426608972728
 20
235.4932830349667
 10
402.4736620325557
 20
235.5109730722229
 10
402.4046634364918
 20
235.5622817653573
 10
402.3461690890683
 20
235.6393974131465
 10
402.3070843749766
 20
235.7305804222003
 10
402.2933598300309
 20
235.8219487004049
  0
LINE
  5
110
330
2
100
AcDbEntity
  8
0
100
AcDbLine
 10
402.6539645037338
 20
235.6416463635535
 30
0.0
 11
402.6539645037338
 21
237.8498903164077
 31
0.0
  0
LWPOLYLINE
  5
111
330
2
100
AcDbEntity
  8
0
100
AcDbPolyline
 90
        9
 70
   128
 43
0.0
 10
402.2933598300309
 20
238.0301926532591
 10
402.3070843749766
 20
238.1078360574838
 10
402.3461690890683
 20
238.159934681531
 10
402.4046634364918
 20
238.1785563109308
 10
402.4736620325557
 20
238.1608657498821
 10
402.5426608972728
 20
238.1095575805403
 10
402.6011552447473
 20
238.0324416036661
 10
402.640239958839
 20
237.9412582655782
 10
402.6539645037338
 20
237.8498903164077
  0
LINE
  5
112
330
2
100
AcDbEntity
  8
0
100
AcDbLine
 10
401.5721504825233
 20
238.390797327013
 30
0.0
 11
401.5721504825233
 21
236.1825533741586
 31
0.0
  0
LWPOLYLINE
  5
113
330
2
100
AcDbEntity
  8
0
100
AcDbPolyline
 90
        9
 70
   128
 43
0.0
 10
401.9327548876238
 20
236.0022511716338
 10
401.9190300739738
 20
235.9246075727017
 10
401.8799458972398
 20
235.8725090090352
 10
401.8214512811628
 20
235.8538878429963
 10
401.7524526850478
 20
235.871577745977
 10
401.6834540889842
 20
235.9228864391111
 10
401.6249594729071
 20
236.0000022212271
 10
401.5858747588156
 20
236.0911852302806
 10
401.5721504825233
 20
236.1825533741586
  0
LINE
  5
114
330
2
100
AcDbEntity
  8
0
100
AcDbLine
 10
401.9327548876238
 20
236.0022511716338
 30
0.0
 11
401.9327548876238
 21
238.2104951244883
 31
0.0
  0
LWPOLYLINE
  5
115
330
2
100
AcDbEntity
  8
0
100
AcDbPolyline
 90
        9
 70
   128
 43
0.0
 10
401.5721504825233
 20
238.390797327013
 10
401.5858747588156
 20
238.4684408655644
 10
401.6249594729071
 20
238.5205394896116
 10
401.6834540889842
 20
238.5391609846847
 10
401.7524526850478
 20
238.521470423585
 10
401.8214512811628
 20
238.4701623886208
 10
401.8799458972398
 20
238.3930462774199
 10
401.9190300739738
 20
238.3018632079854
 10
401.9327548876238
 20
238.2104951244883
  0
LINE
  5
116
330
2
100
AcDbEntity
  8
0
100
AcDbLine
 10
400.8509405977088
 20
238.7514022694201
 30
0.0
 11
400.8509405977088
 21
236.5431583165659
 31
0.0
  0
LWPOLYLINE
  5
117
330
2
100
AcDbEntity
  8
0
100
AcDbPolyline
 90
        9
 70
   128
 43
0.0
 10
401.2115455401159
 20
236.3628558453367
 10
401.1978207265168
 20
236.2852122464556
 10
401.1587360124253
 20
236.2331139514424
 10
401.1002419336549
 20
236.2144925167502
 10
401.0312433375913
 20
236.2321824197306
 10
400.9622442041696
 20
236.2834913815182
 10
400.9037501253994
 20
236.3606068949807
 10
400.8646654113078
 20
236.4517899040347
 10
400.8509405977088
 20
236.5431583165659
  0
LINE
  5
118
330
2
100
AcDbEntity
  8
0
100
AcDbLine
 10
401.2115455401159
 20
236.3628558453367
 30
0.0
 11
401.2115455401159
 21
238.5710997982419
 31
0.0
  0
LWPOLYLINE
  5
119
330
2
100
AcDbEntity
  8
0
100
AcDbPolyline
 90
        9
 70
   128
 43
0.0
 10
400.8509405977088
 20
238.7514022694201
 10
400.8646654113078
 20
238.8290455393183
 10
400.9037501253994
 20
238.8811441633145
 10
400.9622442041696
 20
238.8997659270917
 10
401.0312433375913
 20
238.8820750973389
 10
401.1002419336549
 20
238.8307670623238
 10
401.1587360124253
 20
238.7536512198271
 10
401.1978207265168
 20
238.6624678816884
 10
401.2115455401159
 20
238.5710997982419
  0
LINE
  5
11A
330
2
100
AcDbEntity
  8
0
100
AcDbLine
 10
403.2340831757411
 20
234.468289248957
 30
0.0
 11
400.6706383951841
 21
235.7500116392355
 31
0.0
  0
LINE
  5
11B
330
2
100
AcDbEntity
  8
0
100
AcDbLine
 10
400.3100334527768
 20
236.3719628352185
 30
0.0
 11
400.3100334527768
 21
239.6843290935849
 31
0.0
  0
LWPOLYLINE
  5
11C
330
2
100
AcDbEntity
  8
0
100
AcDbPolyline
 90
        9
 70
   128
 43
0.0
 10
400.1297312502521
 20
239.815002190157
 10
400.1649067943747
 20
239.8283471397981
 10
400.1987303836735
 20
239.8326923617908
 10
400.2299016481275
 20
239.8278720386475
 10
400.2572244623928
 20
239.8140712561326
 10
400.2796467089926
 20
239.7918189027691
 10
400.2963086391777
 20
239.7619723634321
 10
400.3065697400947
 20
239.7256776464137
 10
400.3100334527768
 20
239.6843290935849
  0
LWPOLYLINE
  5
11D
330
2
100
AcDbEntity
  8
0
100
AcDbPolyline
 90
        9
 70
   128
 43
0.0
 10
400.1297312502521
 20
239.815002190157
 10
400.0945562434361
 20
239.8283468711447
 10
400.0607326541373
 20
239.8326920931377
 10
400.0295608523256
 20
239.8278720386475
 10
400.002238575418
 20
239.8140709874791
 10
399.9798152541541
 20
239.7918191714734
 10
399.9631538613264
 20
239.7619723634321
 10
399.9528932977162
 20
239.7256773777603
 10
399.9494290476764
 20
239.6843290935849
  0
ARC
  5
11E
330
2
100
AcDbEntity
  8
0
100
AcDbCircle
 10
386.7481125436382
 20
233.0302398747183
 30
0.0
 40
0.1420917120573956
100
AcDbArc
 50
121.7590620974003
 51
186.911443304797
  0
LINE
  5
11F
330
2
100
AcDbEntity
  8
0
100
AcDbLine
 10
396.0371646688095
 20
231.9620504462625
 30
0.0
 11
396.0391829289392
 21
231.9610413161722
 31
0.0
  0
LINE
  5
120
330
2
100
AcDbEntity
  8
0
100
AcDbLine
 10
400.5234942826631
 20
233.4346696787866
 30
0.0
 11
400.5263967406255
 21
233.4332184498308
 31
0.0
  0
SPLINE
  5
121
330
2
100
AcDbEntity
  8
0
100
AcDbSpline
210
0.0
220
0.0
230
1.0
 70
     8
 71
     3
 72
    18
 73
    14
 74
     0
 42
0.000000001
 43
0.0000000001
 40
0.0
 40
0.0
 40
0.0
 40
0.0
 40
0.074634973280284
 40
0.1548395850927068
 40
0.2406008372030098
 40
0.315883889312307
 40
0.3994563295106652
 40
0.4913123997800141
 40
0.5696424792990711
 40
0.6543508911656382
 40
0.7454330970958286
 40
0.8711928359543136
 40
1.0
 40
1.0
 40
1.0
 40
1.0
 10
409.1050479074996
 20
231.0713279149938
 30
0.0
 10
409.0660714357029
 20
231.0880770963347
 30
0.0
 10
408.9852098709951
 20
231.1228253674936
 30
0.0
 10
408.8419653101563
 20
231.1666246722189
 30
0.0
 10
408.6877977139861
 20
231.2015039309454
 30
0.0
 10
408.5228541061676
 20
231.2270184555555
 30
0.0
 10
408.3480074602308
 20
231.2430332377826
 30
0.0
 10
408.16762775873
 20
231.2475124592454
 30
0.0
 10
407.9867065402825
 20
231.2405012412335
 30
0.0
 10
407.8090230570276
 20
231.2226086538633
 30
0.0
 10
407.6059924294053
 20
231.1874640978276
 30
0.0
 10
407.3863137265473
 20
231.1297699867441
 30
0.0
 10
407.2509443079032
 20
231.0695180609848
 30
0.0
 10
407.1824493436513
 20
231.0390314596364
 30
0.0
  0
LINE
  5
122
330
2
100
AcDbEntity
  8
0
100
AcDbLine
 10
407.0439970220154
 20
231.2203045794536
 30
0.0
 11
407.2501529432313
 21
231.3419194200492
 31
0.0
  0
SPLINE
  5
123
330
2
100
AcDbEntity
  8
0
100
AcDbSpline
210
0.0
220
0.0
230
1.0
 70
     8
 71
     3
 72
    15
 73
    11
 74
     0
 42
0.000000001
 43
0.0000000001
 40
0.0
 40
0.0
 40
0.0
 40
0.0
 40
0.0963475207268331
 40
0.1952109513069479
 40
0.3009518173790063
 40
0.4195984062302386
 40
0.5552985891358424
 40
0.7004171432700783
 40
0.8498821223579577
 40
1.0
 40
1.0
 40
1.0
 40
1.0
 10
407.2501529432171
 20
231.3419194200658
 30
0.0
 10
407.2642194940129
 20
231.3527278773668
 30
0.0
 10
407.2927199135534
 20
231.3746270317608
 30
0.0
 10
407.3173662220724
 20
231.4238940452044
 30
0.0
 10
407.3245116336741
 20
231.4833923228193
 30
0.0
 10
407.3095447350381
 20
231.5520838883106
 30
0.0
 10
407.2704824679481
 20
231.6241424538052
 30
0.0
 10
407.2087870102077
 20
231.692082142381
 30
0.0
 10
407.1303155126413
 20
231.7506778531963
 30
0.0
 10
407.069393026109
 20
231.7771169724008
 30
0.0
 10
407.0388653968625
 20
231.7903653421672
 30
0.0
  0
SPLINE
  5
124
330
2
100
AcDbEntity
  8
0
100
AcDbSpline
210
0.0
220
0.0
230
1.0
 70
     8
 71
     3
 72
     9
 73
     5
 74
     0
 42
0.000000001
 43
0.0000000001
 40
0.0
 40
0.0
 40
0.0
 40
0.0
 40
0.5612221945333655
 40
1.0
 40
1.0
 40
1.0
 40
1.0
 10
407.0388653968625
 20
231.7903653421672
 30
0.0
 10
407.0231143211851
 20
231.7972145668468
 30
0.0
 10
406.9950486533786
 20
231.809418689824
 30
0.0
 10
406.9670540837861
 20
231.8217833795554
 30
0.0
 10
406.9547706879753
 20
231.8272087309811
 30
0.0
  0
SPLINE
  5
125
330
2
100
AcDbEntity
  8
0
100
AcDbSpline
210
0.0
220
0.0
230
1.0
 70
     8
 71
     3
 72
    10
 73
     6
 74
     0
 42
0.000000001
 43
0.0000000001
 40
0.0
 40
0.0
 40
0.0
 40
0.0
 40
0.0931003305508836
 40
0.4988338644387458
 40
1.0
 40
1.0
 40
1.0
 40
1.0
 10
406.9547706879753
 20
231.8272087309811
 30
0.0
 10
406.9419618901486
 20
231.8326065664039
 30
0.0
 10
406.8733320358721
 20
231.8615283015652
 30
0.0
 10
406.7258512134175
 20
231.9002476387473
 30
0.0
 10
406.603079647852
 20
231.8913376529213
 30
0.0
 10
406.5352342696431
 20
231.8864138633176
 30
0.0
  0
LWPOLYLINE
  5
126
330
2
100
AcDbEntity
  8
0
100
AcDbPolyline
 90
        3
 70
   128
 43
0.0
 10
407.2202632416892
 20
233.5390268413907
 10
408.2757418162763
 20
232.1571152603558
 10
409.1050479075233
 20
231.0713279149886
  0
SPLINE
  5
127
330
2
100
AcDbEntity
  8
0
100
AcDbSpline
210
0.0
220
0.0
230
1.0
 70
     8
 71
     3
 72
    13
 73
     9
 74
     0
 42
0.000000001
 43
0.0000000001
 40
0.0
 40
0.0
 40
0.0
 40
0.0
 40
0.1876607149631836
 40
0.4151297927283082
 40
0.545096606878614
 40
0.6858129211864341
 40
0.8374121023843779
 40
1.0
 40
1.0
 40
1.0
 40
1.0
 10
405.9104623985929
 20
234.4104155902862
 30
0.0
 10
405.9444270450994
 20
234.4224579437364
 30
0.0
 10
406.0195612396328
 20
234.4490971883574
 30
0.0
 10
406.1433935479642
 20
234.4412554363589
 30
0.0
 10
406.2557690551242
 20
234.4142958074508
 30
0.0
 10
406.3484515683416
 20
234.3775502550256
 30
0.0
 10
406.4415292201695
 20
234.3249428654426
 30
0.0
 10
406.493363828551
 20
234.2777926373619
 30
0.0
 10
406.5201875923808
 20
234.253392981957
 30
0.0
  0
LINE
  5
128
330
2
100
AcDbEntity
  8
0
100
AcDbLine
 10
405.7817467311976
 20
234.2682122511797
 30
0.0
 11
405.9075736429197
 21
234.4077284558204
 31
0.0
  0
LINE
  5
129
330
2
100
AcDbEntity
  8
0
100
AcDbLine
 10
424.3360192933051
 20
223.4558422221232
 30
0.0
 11
409.1050479075233
 21
231.0713279149886
 31
0.0
  0
LINE
  5
12A
330
2
100
AcDbEntity
  8
0
100
AcDbLine
 10
415.1650551278907
 20
229.56663089829
 30
0.0
 11
407.2202632416892
 21
233.5390268413907
 31
0.0
  0
SPLINE
  5
12B
330
2
100
AcDbEntity
  8
0
100
AcDbSpline
210
0.0
220
0.0
230
1.0
 70
     8
 71
     3
 72
     9
 73
     5
 74
     0
 42
0.000000001
 43
0.0000000001
 40
0.0
 40
0.0
 40
0.0
 40
0.0
 40
0.5605510692889616
 40
1.0
 40
1.0
 40
1.0
 40
1.0
 10
415.1650551278788
 20
229.5666308983082
 30
0.0
 10
415.250750116285
 20
229.40063162351
 30
0.0
 10
415.4036264429946
 20
229.1044957602626
 30
0.0
 10
415.5938224198008
 20
228.8471164977045
 30
0.0
 10
415.6774038384338
 20
228.7340114559863
 30
0.0
  0
SPLINE
  5
12C
330
2
100
AcDbEntity
  8
0
100
AcDbSpline
210
0.0
220
0.0
230
1.0
 70
     8
 71
     3
 72
    11
 73
     7
 74
     0
 42
0.000000001
 43
0.0000000001
 40
0.0
 40
0.0
 40
0.0
 40
0.0
 40
0.2321831357726201
 40
0.5119447514735805
 40
0.7540671361049946
 40
1.0
 40
1.0
 40
1.0
 40
1.0
 10
415.6774038384338
 20
228.7340114559863
 30
0.0
 10
415.7539330526252
 20
228.6411115637652
 30
0.0
 10
415.9226736866477
 20
228.4362749287666
 30
0.0
 10
416.1962967370945
 20
228.1837035940516
 30
0.0
 10
416.4864032066841
 20
227.9645265906345
 30
0.0
 10
416.6772431738498
 20
227.8605074964071
 30
0.0
 10
416.7734081465908
 20
227.8080918860426
 30
0.0
  0
SPLINE
  5
12D
330
2
100
AcDbEntity
  8
0
100
AcDbSpline
210
0.0
220
0.0
230
1.0
 70
     8
 71
     3
 72
    11
 73
     7
 74
     0
 42
0.000000001
 43
0.0000000001
 40
0.0
 40
0.0
 40
0.0
 40
0.0
 40
0.2321830571517506
 40
0.5119447026484076
 40
0.7540673377793841
 40
1.0
 40
1.0
 40
1.0
 40
1.0
 10
417.9394087623418
 20
227.6030089940324
 30
0.0
 10
417.8527602672286
 20
227.5916979541462
 30
0.0
 10
417.661707403123
 20
227.5667580337995
 30
0.0
 10
417.3666418661353
 20
227.5985309799039
 30
0.0
 10
417.062811977208
 20
227.676322256726
 30
0.0
 10
416.8703768415021
 20
227.7639406771363
 30
0.0
 10
416.7734081465908
 20
227.8080918860426
 30
0.0
  0
SPLINE
  5
12E
330
2
100
AcDbEntity
  8
0
100
AcDbSpline
210
0.0
220
0.0
230
1.0
 70
     8
 71
     3
 72
     9
 73
     5
 74
     0
 42
0.000000001
 43
0.0000000001
 40
0.0
 40
0.0
 40
0.0
 40
0.0
 40
0.5605511942085096
 40
1.0
 40
1.0
 40
1.0
 40
1.0
 10
418.5585299349388
 20
227.8698934947783
 30
0.0
 10
418.4500235882024
 20
227.8009948998106
 30
0.0
 10
418.2564527817227
 20
227.6780826739876
 30
0.0
 10
418.0361990164582
 20
227.6259282106589
 30
0.0
 10
417.9394087623418
 20
227.6030089940324
 30
0.0
  0
LINE
  5
12F
330
2
100
AcDbEntity
  8
0
100
AcDbLine
 10
418.5585299349617
 20
227.8698934947799
 30
0.0
 11
426.503321149479
 21
223.8974978874958
 31
0.0
  0
LWPOLYLINE
  5
130
330
2
100
AcDbEntity
  8
0
100
AcDbPolyline
 90
        3
 70
   128
 43
0.0
 10
426.503321149479
 20
223.8974978874958
 10
425.2896321530001
 20
223.6501700919685
 10
424.3360192933051
 20
223.4558422221232
  0
SPLINE
  5
131
330
2
100
AcDbEntity
  8
0
100
AcDbSpline
210
0.0
220
0.0
230
1.0
 70
     8
 71
     3
 72
    10
 73
     6
 74
     0
 42
0.000000001
 43
0.0000000001
 40
0.0
 40
0.0
 40
0.0
 40
0.0
 40
0.2659514380688183
 40
0.5477099651340738
 40
1.0
 40
1.0
 40
1.0
 40
1.0
 10
405.7817467312071
 20
234.2682122511963
 30
0.0
 10
405.7359153667245
 20
234.2228693907768
 30
0.0
 10
405.641528604896
 20
234.1294886718013
 30
0.0
 10
405.4596481622831
 20
233.9877035035449
 30
0.0
 10
405.322942776721
 20
233.9123316323025
 30
0.0
 10
405.2387106334971
 20
233.8658906363792
 30
0.0
  0
LINE
  5
132
330
2
100
AcDbEntity
  8
0
100
AcDbLine
 10
406.520187592373
 20
234.2533929819629
 30
0.0
 11
407.2202632416892
 21
233.5390268413907
 31
0.0
  0
LINE
  5
133
330
2
100
AcDbEntity
  8
0
100
AcDbLine
 10
395.7478252380693
 20
229.1204479386361
 30
0.0
 11
405.2387106334731
 21
233.8658906363889
 31
0.0
  0
SPLINE
  5
134
330
2
100
AcDbEntity
  8
0
100
AcDbSpline
210
0.0
220
0.0
230
1.0
 70
     8
 71
     3
 72
    10
 73
     6
 74
     0
 42
0.000000001
 43
0.0000000001
 40
0.0
 40
0.0
 40
0.0
 40
0.0
 40
0.2659501103488943
 40
0.5477091470485658
 40
1.0
 40
1.0
 40
1.0
 40
1.0
 10
395.2011137145703
 20
228.9778957428778
 30
0.0
 10
395.2475752845856
 20
228.9786993278542
 30
0.0
 10
395.3432602491462
 20
228.9803542654718
 30
0.0
 10
395.5265689875555
 20
229.0211639765425
 30
0.0
 10
395.663471582594
 20
229.0825960582515
 30
0.0
 10
395.7478252380529
 20
229.120447938657
 30
0.0
  0
SPLINE
  5
135
330
2
100
AcDbEntity
  8
0
100
AcDbSpline
210
0.0
220
0.0
230
1.0
 70
     8
 71
     3
 72
    10
 73
     6
 74
     0
 42
0.000000001
 43
0.0000000001
 40
0.0
 40
0.0
 40
0.0
 40
0.0
 40
0.5641998008955583
 40
0.8529040772700021
 40
1.0
 40
1.0
 40
1.0
 40
1.0
 10
395.2011137145703
 20
228.9778957428778
 30
0.0
 10
395.1763592971211
 20
228.9798082544894
 30
0.0
 10
395.1389379021837
 20
228.9826994092696
 30
0.0
 10
395.0962699650343
 20
228.9899353307869
 30
0.0
 10
395.0767871189922
 20
228.9902004393994
 30
0.0
 10
395.0702110613818
 20
228.9902899216806
 30
0.0
  0
LINE
  5
136
330
2
100
AcDbEntity
  8
0
100
AcDbLine
 10
397.3040569310347
 20
227.2944421737589
 30
0.0
 11
406.4075825412776
 21
231.8462049788804
 31
0.0
  0
SPLINE
  5
137
330
2
100
AcDbEntity
  8
0
100
AcDbSpline
210
0.0
220
0.0
230
1.0
 70
     8
 71
     3
 72
     9
 73
     5
 74
     0
 42
0.000000001
 43
0.0000000001
 40
0.0
 40
0.0
 40
0.0
 40
0.0
 40
0.5599469775660139
 40
1.0
 40
1.0
 40
1.0
 40
1.0
 10
397.2044695502484
 20
227.22103150362
 30
0.0
 10
397.2209031666332
 20
227.2368034598728
 30
0.0
 10
397.2502516889811
 20
227.2649703343891
 30
0.0
 10
397.2876150646531
 20
227.2854361359466
 30
0.0
 10
397.3040569310459
 20
227.2944421737784
 30
0.0
  0
SPLINE
  5
138
330
2
100
AcDbEntity
  8
0
100
AcDbSpline
210
0.0
220
0.0
230
1.0
 70
     8
 71
     3
 72
     9
 73
     5
 74
     0
 42
0.000000001
 43
0.0000000001
 40
0.0
 40
0.0
 40
0.0
 40
0.0
 40
0.5599417561616015
 40
1.0
 40
1.0
 40
1.0
 40
1.0
 10
406.5352342696431
 20
231.8864138633176
 30
0.0
 10
406.5098230156943
 20
231.8812633846246
 30
0.0
 10
406.4644410564646
 20
231.8720651445647
 30
0.0
 10
406.42495757348
 20
231.8541074225272
 30
0.0
 10
406.4075825412968
 20
231.8462049789041
 30
0.0
  0
LINE
  5
139
330
2
100
AcDbEntity
  8
0
100
AcDbLine
 10
407.7933873204645
 20
234.2611799337794
 30
0.0
 11
407.7945286369111
 21
234.2605772676402
 31
0.0
  0
LINE
  5
13A
330
2
100
AcDbEntity
  8
0
100
AcDbLine
 10
395.1111297269408
 20
229.4904627731023
 30
0.0
 11
395.1094236630774
 21
229.4895408054081
 31
0.0
  0
LWPOLYLINE
  5
13B
330
2
100
AcDbEntity
  8
0
100
AcDbPolyline
 90
        9
 70
   128
 43
0.0
 10
403.0642481451492
 20
228.2673973964136
 10
403.002094760925
 20
228.3139076527252
 10
402.9802689650264
 20
228.3687698305159
 10
403.002094760925
 20
228.4236320082555
 10
403.0642486825067
 20
228.4701419959138
 10
403.1572686577722
 20
228.5012189566792
 10
403.2669930133025
 20
228.5121318546539
 10
403.3767173688331
 20
228.5012189566792
 10
403.4697368067918
 20
228.4701417272095
  0
LINE
  5
13C
330
2
100
AcDbEntity
  8
0
100
AcDbLine
 10
418.7866153592433
 20
220.406213789392
 30
0.0
 11
403.0642481451492
 21
228.2673973964136
 31
0.0
  0
LWPOLYLINE
  5
13D
330
2
100
AcDbEntity
  8
0
100
AcDbPolyline
 90
        9
 70
   128
 43
0.0
 10
419.1921040208349
 20
220.6089581201879
 10
419.254258479774
 20
220.5624484012342
 10
419.2760842756729
 20
220.5075862234433
 10
419.254258479774
 20
220.4527240457037
 10
419.1921040208349
 20
220.4062143267497
 10
419.099084582927
 20
220.37513709728
 10
418.9893602273967
 20
220.3642241993052
 10
418.879635871866
 20
220.37513709728
 10
418.7866153592433
 20
220.406213789392
  0
LINE
  5
13E
330
2
100
AcDbEntity
  8
0
100
AcDbLine
 10
403.4697368067918
 20
228.4701417272095
 30
0.0
 11
419.1921040208349
 21
220.6089581201879
 31
0.0
  0
LWPOLYLINE
  5
13F
330
2
100
AcDbEntity
  8
0
100
AcDbPolyline
 90
       10
 70
   128
 43
0.0
 10
424.2193890061546
 20
222.5083123027644
 10
424.3624382967198
 20
222.5935520894636
 10
424.4737112746626
 20
222.6899170245879
 10
424.5498259033663
 20
222.7944791264267
 10
424.5884716083096
 20
222.9040626980827
 10
424.5884694589301
 20
223.0153346013105
 10
424.5498259033663
 20
223.1249170983026
 10
424.4737123493267
 20
223.2294797374989
 10
424.3624393714347
 20
223.3258446726231
 10
424.2193890061546
 20
223.4110849966801
  0
LINE
  5
140
330
2
100
AcDbEntity
  8
0
100
AcDbLine
 10
424.2193890061546
 20
223.4110849966801
 30
0.0
 11
409.0739900223671
 21
230.9837844885738
 31
0.0
  0
ARC
  5
141
330
2
100
AcDbEntity
  8
0
100
AcDbCircle
 10
408.1712178984474
 20
228.9588079793341
 30
0.0
 40
2.217098863550808
100
AcDbArc
 50
65.97179980819817
 51
114.0282172434019
  0
LINE
  5
142
330
2
100
AcDbEntity
  8
0
100
AcDbLine
 10
407.2684451718936
 20
230.9837842198692
 30
0.0
 11
403.8066400890668
 21
229.2528816784813
 31
0.0
  0
LWPOLYLINE
  5
143
330
2
100
AcDbEntity
  8
0
100
AcDbPolyline
 90
       10
 70
   128
 43
0.0
 10
403.8066400890668
 20
229.2528816784813
 10
403.6635897238372
 20
229.1676413544244
 10
403.552317283252
 20
229.0712761505958
 10
403.4762021171396
 20
228.9667143174613
 10
403.4375580242694
 20
228.8571320891228
 10
403.4375580242694
 20
228.7458591112308
 10
403.4762021171396
 20
228.6362763455854
 10
403.5523167458944
 20
228.5317142437468
 10
403.6635897238372
 20
228.4353493086225
 10
403.806639551709
 20
228.350109253219
  0
LINE
  5
144
330
2
100
AcDbEntity
  8
0
100
AcDbLine
 10
403.806639551709
 20
228.350109253219
 30
0.0
 11
418.9520385354962
 21
220.7774097613253
 31
0.0
  0
LINE
  5
145
330
2
100
AcDbEntity
  8
0
100
AcDbLine
 10
418.9520385354962
 20
220.7774097613253
 30
0.0
 11
419.095834732768
 21
220.7154858225367
 31
0.0
  0
LINE
  5
146
330
2
100
AcDbEntity
  8
0
100
AcDbLine
 10
420.6137877260557
 20
220.7154858225367
 30
0.0
 11
420.7575839233275
 21
220.7774097613253
 31
0.0
  0
LINE
  5
147
330
2
100
AcDbEntity
  8
0
100
AcDbLine
 10
420.7575839233275
 20
220.7774097613253
 30
0.0
 11
424.2193890061546
 21
222.5083123027644
 31
0.0
  0
LINE
  5
148
330
2
100
AcDbEntity
  8
0
100
AcDbLine
 10
413.1823626809743
 20
217.8925718340897
 30
0.0
 11
413.3261583408882
 21
217.8306476265968
 31
0.0
  0
LINE
  5
149
330
2
100
AcDbEntity
  8
0
100
AcDbLine
 10
414.8441107968693
 20
217.8306473579435
 30
0.0
 11
414.9879080688056
 21
217.8925718340897
 31
0.0
  0
LINE
  5
14A
330
2
100
AcDbEntity
  8
0
100
AcDbLine
 10
414.9879080688056
 20
217.8925718340897
 30
0.0
 11
418.4497131516325
 21
219.6234743754778
 31
0.0
  0
LWPOLYLINE
  5
14B
330
2
100
AcDbEntity
  8
0
100
AcDbPolyline
 90
       10
 70
   128
 43
0.0
 10
418.4497131516325
 20
219.6234743754778
 10
418.5927624421976
 20
219.7087141621771
 10
418.7040354200896
 20
219.8050790973523
 10
418.7801511235595
 20
219.9096417364978
 10
418.8187946790724
 20
220.0192242334897
 10
418.8187946790724
 20
220.1304972113817
 10
418.7801500488442
 20
220.240079171067
 10
418.7040354200896
 20
220.3446412728549
 10
418.5927624421976
 20
220.4410062080301
 10
418.4497120769682
 20
220.5262465320868
  0
LINE
  5
14C
330
2
100
AcDbEntity
  8
0
100
AcDbLine
 10
418.4497120769682
 20
220.5262465320868
 30
0.0
 11
403.3043130931812
 21
228.0989460239805
 31
0.0
  0
ARC
  5
14D
330
2
100
AcDbEntity
  8
0
100
AcDbCircle
 10
402.4015409039337
 20
226.0739705661506
 30
0.0
 40
2.21709792981922
100
AcDbArc
 50
65.97178720280638
 51
114.0281957455935
  0
LINE
  5
14E
330
2
100
AcDbEntity
  8
0
100
AcDbLine
 10
401.4987693173718
 20
228.0989462926338
 30
0.0
 11
398.0369642345447
 21
226.3680437511948
 31
0.0
  0
LWPOLYLINE
  5
14F
330
2
100
AcDbEntity
  8
0
100
AcDbPolyline
 90
       10
 70
   128
 43
0.0
 10
398.0369642345447
 20
226.3680437511948
 10
397.8939138692645
 20
226.2828034271379
 10
397.7826414287298
 20
226.1864382233603
 10
397.7065262626179
 20
226.081876390226
 10
397.6678810950831
 20
225.9722936245296
 10
397.6678821697474
 20
225.8610211839443
 10
397.7065262626179
 20
225.7514384182991
 10
397.7826414287298
 20
225.6468765851646
 10
397.8939138692645
 20
225.550511381336
 10
398.036963697187
 20
225.4652713259834
  0
LINE
  5
150
330
2
100
AcDbEntity
  8
0
100
AcDbLine
 10
398.036963697187
 20
225.4652713259834
 30
0.0
 11
413.1823626809743
 21
217.8925718340897
 31
0.0
  0
LINE
  5
151
330
2
100
AcDbEntity
  8
0
100
AcDbLine
 10
397.9486986696472
 20
226.4221561226284
 30
0.0
 11
407.1824493436631
 21
231.0390314596618
 31
0.0
  0
LINE
  5
152
330
2
100
AcDbEntity
  8
0
100
AcDbLine
 10
407.0439970220154
 20
231.2203045794536
 30
0.0
 11
397.7894920139931
 21
226.5930520754168
 31
0.0
  0
ARC
  5
153
330
2
100
AcDbEntity
  8
0
100
AcDbCircle
 10
409.0362827723643
 20
234.4905504679309
 30
0.0
 40
0.053387333253728
100
AcDbArc
 50
87.6686831390972
 51
111.0167257983067
  0
LINE
  5
154
330
2
100
AcDbEntity
  8
0
100
AcDbLine
 10
414.2383621088103
 20
232.7236694701669
 30
0.0
 11
414.2413050186286
 21
232.722419883017
 31
0.0
  0
SPLINE
  5
155
330
2
100
AcDbEntity
  8
0
100
AcDbSpline
210
0.0
220
0.0
230
1.0
 70
     8
 71
     3
 72
    12
 73
     8
 74
     0
 42
0.000000001
 43
0.0000000001
 40
0.0
 40
0.0
 40
0.0
 40
0.0
 40
0.1520352835698023
 40
0.3640229798679412
 40
0.5760097149382127
 40
0.7880039854549532
 40
1.0
 40
1.0
 40
1.0
 40
1.0
 10
419.1936397469881
 20
229.3289925100573
 30
0.0
 10
419.1919262277815
 20
229.3280780882169
 30
0.0
 10
419.187823493515
 20
229.3258886585306
 30
0.0
 10
419.1796577991643
 20
229.3260919932586
 30
0.0
 10
419.1701602830772
 20
229.3291668536999
 30
0.0
 10
419.160441080269
 20
229.3352095669666
 30
0.0
 10
419.1545740246264
 20
229.3413002409834
 30
0.0
 10
419.1516404847384
 20
229.3443455905185
 30
0.0
  0
LINE
  5
156
330
2
100
AcDbEntity
  8
0
100
AcDbLine
 10
414.2293774324794
 20
231.8437191979278
 30
0.0
 11
414.2293774324794
 21
231.9999050336896
 31
0.0
  0
SPLINE
  5
157
330
2
100
AcDbEntity
  8
0
100
AcDbSpline
210
0.0
220
0.0
230
1.0
 70
     8
 71
     3
 72
    15
 73
    11
 74
     0
 42
0.000000001
 43
0.0000000001
 40
0.0
 40
0.0
 40
0.0
 40
0.0
 40
0.1249999101432328
 40
0.2500000379905438
 40
0.3749997592085448
 40
0.5000000884276707
 40
0.6249999323764712
 40
0.7499998323578608
 40
0.8750001959417737
 40
1.0
 40
1.0
 40
1.0
 40
1.0
 10
414.2293774324569
 20
231.8437191979247
 30
0.0
 10
414.2297088067472
 20
231.8397928877532
 30
0.0
 10
414.2303715559048
 20
231.8319402605719
 30
0.0
 10
414.2343585857613
 20
231.8193804662123
 30
0.0
 10
414.2402440504844
 20
231.8073163223854
 30
0.0
 10
414.2478496179141
 20
231.7964641284131
 30
0.0
 10
414.2566022005515
 20
231.787570302185
 30
0.0
 10
414.2658949105326
 20
231.7813127469351
 30
0.0
 10
414.2752010651909
 20
231.7778262477086
 30
0.0
 10
414.2807069762408
 20
231.7782326629299
 30
0.0
 10
414.2834599256043
 20
231.7784358700856
 30
0.0
  0
LINE
  5
158
330
2
100
AcDbEntity
  8
0
100
AcDbLine
 10
414.4479824479486
 20
231.8125096080485
 30
0.0
 11
414.283459925615
 21
231.7784358700778
 31
0.0
  0
SPLINE
  5
159
330
2
100
AcDbEntity
  8
0
100
AcDbSpline
210
0.0
220
0.0
230
1.0
 70
     8
 71
     3
 72
    11
 73
     7
 74
     0
 42
0.000000001
 43
0.0000000001
 40
0.0
 40
0.0
 40
0.0
 40
0.0
 40
0.139681963386795
 40
0.4264541868208477
 40
0.7132273431369109
 40
1.0
 40
1.0
 40
1.0
 40
1.0
 10
414.2441892908506
 20
232.0277313237782
 30
0.0
 10
414.2429328896023
 20
232.0272670613094
 30
0.0
 10
414.2390970502451
 20
232.0258496508675
 30
0.0
 10
414.2344064920082
 20
232.0201014178822
 30
0.0
 10
414.2303595793512
 20
232.011260368437
 30
0.0
 10
414.2297048145649
 20
232.0036901430603
 30
0.0
 10
414.2293774324569
 20
231.999905033668
 30
0.0
  0
SPLINE
  5
15A
330
2
100
AcDbEntity
  8
0
100
AcDbSpline
210
0.0
220
0.0
230
1.0
 70
     8
 71
     3
 72
    11
 73
     7
 74
     0
 42
0.000000001
 43
0.0000000001
 40
0.0
 40
0.0
 40
0.0
 40
0.0
 40
0.2707613654105031
 40
0.5405319659518577
 40
0.764814714015523
 40
1.0
 40
1.0
 40
1.0
 40
1.0
 10
414.3798280512093
 20
232.1995204722102
 30
0.0
 10
414.3924617318225
 20
232.1962756740033
 30
0.0
 10
414.4176828641238
 20
232.1897979508938
 30
0.0
 10
414.4472700224421
 20
232.2022618179553
 30
0.0
 10
414.4680768398377
 20
232.2261981690421
 30
0.0
 10
414.4736090130344
 20
232.2492648193977
 30
0.0
 10
414.476440735024
 20
232.2610718143542
 30
0.0
  0
ARC
  5
15B
330
2
100
AcDbEntity
  8
0
100
AcDbCircle
 10
414.4031352646972
 20
233.1198811088573
 30
0.0
 40
0.4681213570537257
100
AcDbArc
 50
277.6151174066989
 51
309.4525329365966
  0
ARC
  5
15C
330
2
100
AcDbEntity
  8
0
100
AcDbCircle
 10
418.5982849919615
 20
231.8334291531348
 30
0.0
 40
4.082003519083842
100
AcDbArc
 50
185.1947147580933
 51
192.6408619168008
  0
LWPOLYLINE
  5
15D
330
2
100
AcDbEntity
  8
0
100
AcDbPolyline
 90
        8
 70
   128
 43
0.0
 10
418.176298550829
 20
227.7573335381228
 10
418.2831217918164
 20
227.812905757653
 10
418.4685652916972
 20
227.9454298688429
 10
418.6320513466298
 20
228.1131431803419
 10
418.7714870058139
 20
228.3138995211175
 10
418.8850882907733
 20
228.5451298902628
 10
418.9714016886936
 20
228.8038751456483
 10
419.0184374663861
 20
229.0190834735622
  0
LINE
  5
15E
330
2
100
AcDbEntity
  8
0
100
AcDbLine
 10
416.9307236237803
 20
227.7833346120869
 30
0.0
 11
416.7584109048812
 21
227.8563925522128
 31
0.0
  0
LINE
  5
15F
330
2
100
AcDbEntity
  8
0
100
AcDbLine
 10
404.5440145931195
 20
227.6988978593206
 30
0.0
 11
405.4815869598224
 21
227.2301116759945
 31
0.0
  0
LINE
  5
160
330
2
100
AcDbEntity
  8
0
100
AcDbLine
 10
406.9240059234404
 20
226.5089021942113
 30
0.0
 11
407.8615783236996
 21
226.0401159940561
 31
0.0
  0
LINE
  5
161
330
2
100
AcDbEntity
  8
0
100
AcDbLine
 10
409.303997388088
 20
225.3189064618873
 30
0.0
 11
410.2415696204132
 21
224.8501203457247
 31
0.0
  0
LINE
  5
162
330
2
100
AcDbEntity
  8
0
100
AcDbLine
 10
412.6215609506831
 20
223.6601246805644
 30
0.0
 11
411.6839885840311
 21
224.1289108638903
 31
0.0
  0
LINE
  5
163
330
2
100
AcDbEntity
  8
0
100
AcDbLine
 10
415.0015522809529
 20
222.4701290154039
 30
0.0
 11
414.0639801830052
 21
222.9389150644033
 31
0.0
  0
LINE
  5
164
330
2
100
AcDbEntity
  8
0
100
AcDbLine
 10
417.3815441486315
 20
221.2801330815901
 30
0.0
 11
416.4439715132751
 21
221.7489193992938
 31
0.0
  0
SPLINE
  5
165
330
2
100
AcDbEntity
  8
0
100
AcDbSpline
210
0.0
220
0.0
230
1.0
 70
     8
 71
     3
 72
     9
 73
     5
 74
     0
 42
0.000000001
 43
0.0000000001
 40
0.0
 40
0.0
 40
0.0
 40
0.0
 40
0.5851179223589708
 40
1.0
 40
1.0
 40
1.0
 40
1.0
 10
414.8509953690671
 20
232.9189202044229
 30
0.0
 10
414.8227853089381
 20
232.8829007740119
 30
0.0
 10
414.7745727024681
 20
232.8213415070088
 30
0.0
 10
414.7222892002186
 20
232.7768707309867
 30
0.0
 10
414.7005977121791
 20
232.7584206030365
 30
0.0
  0
ARC
  5
166
330
2
100
AcDbEntity
  8
0
100
AcDbCircle
 10
415.9814096181884
 20
232.2830013162484
 30
0.0
 40
1.297007789864692
100
AcDbArc
 50
122.9935057054036
 51
150.6399027138
  0
LINE
  5
167
330
2
100
AcDbEntity
  8
0
100
AcDbLine
 10
414.5286414531639
 20
231.4051539869995
 30
0.0
 11
414.5285624637343
 21
231.4058271942681
 31
0.0
  0
ARC
  5
168
330
2
100
AcDbEntity
  8
0
100
AcDbCircle
 10
416.7384772094536
 20
227.8329106596727
 30
0.0
 40
0.0316340019417625
100
AcDbArc
 50
41.38399072469597
 51
88.6813531256946
  0
SPLINE
  5
169
330
2
100
AcDbEntity
  8
0
100
AcDbSpline
210
0.0
220
0.0
230
1.0
 70
     8
 71
     3
 72
    15
 73
    11
 74
     0
 42
0.000000001
 43
0.0000000001
 40
0.0
 40
0.0
 40
0.0
 40
0.0
 40
0.1249997300565463
 40
0.2499995774697653
 40
0.374999784855969
 40
0.4999999668833912
 40
0.6249998681922672
 40
0.7500001684451753
 40
0.8750002222906147
 40
1.0
 40
1.0
 40
1.0
 40
1.0
 10
414.3568388070633
 20
231.8165369295757
 30
0.0
 10
414.3540859250506
 20
231.8163337553376
 30
0.0
 10
414.3485801584406
 20
231.8159274066711
 30
0.0
 10
414.3392729968788
 20
231.8194134043192
 30
0.0
 10
414.3299841194337
 20
231.8256728411793
 30
0.0
 10
414.3212302348364
 20
231.8345660192708
 30
0.0
 10
414.3136259447108
 20
231.8454189137151
 30
0.0
 10
414.3077366774089
 20
231.8574810865302
 30
0.0
 10
414.3037506288351
 20
231.8700414252662
 30
0.0
 10
414.3030877743676
 20
231.8778939717286
 30
0.0
 10
414.3027563475
 20
231.8818202406228
 30
0.0
  0
LINE
  5
16A
330
2
100
AcDbEntity
  8
0
100
AcDbLine
 10
414.5175847152049
 20
231.8498284956632
 30
0.0
 11
414.3568388070603
 21
231.8165369295837
 31
0.0
  0
LINE
  5
16B
330
2
100
AcDbEntity
  8
0
100
AcDbLine
 10
414.3027563474808
 20
231.8818202406046
 30
0.0
 11
414.3027563474808
 21
232.0326651184462
 31
0.0
  0
SPLINE
  5
16C
330
2
100
AcDbEntity
  8
0
100
AcDbSpline
210
0.0
220
0.0
230
1.0
 70
     8
 71
     3
 72
    15
 73
    11
 74
     0
 42
0.000000001
 43
0.0000000001
 40
0.0
 40
0.0
 40
0.0
 40
0.0
 40
0.1249997777093851
 40
0.2499998315548246
 40
0.3750001318077328
 40
0.500000033116609
 40
0.625000215144031
 40
0.7500004225302348
 40
0.8750002699434537
 40
1.0
 40
1.0
 40
1.0
 40
1.0
 10
414.3027563475
 20
232.0326651184569
 30
0.0
 10
414.3030877743676
 20
232.0364414384337
 30
0.0
 10
414.3037506288351
 20
232.0439940867298
 30
0.0
 10
414.3077366774089
 20
232.0529670961757
 30
0.0
 10
414.3136259447108
 20
232.0593993880659
 30
0.0
 10
414.3212302348364
 20
232.0627334802439
 30
0.0
 10
414.3299841194337
 20
232.0627872861087
 30
0.0
 10
414.3392729968788
 20
232.0594984591503
 30
0.0
 10
414.3485801584406
 20
232.0532785753419
 30
0.0
 10
414.3540859250506
 20
232.0470035040923
 30
0.0
 10
414.3568388070633
 20
232.0438659699405
 30
0.0
  0
LINE
  5
16D
330
2
100
AcDbEntity
  8
0
100
AcDbLine
 10
414.3568388070603
 20
232.0438659699385
 30
0.0
 11
414.5175847152049
 21
231.8498284956632
 31
0.0
  0
LINE
  5
16E
330
2
100
AcDbEntity
  8
0
100
AcDbLine
 10
414.4479824479486
 20
231.8125096080485
 30
0.0
 11
414.5175847152049
 21
231.8498284956632
 31
0.0
  0
LINE
  5
16F
330
2
100
AcDbEntity
  8
0
100
AcDbLine
 10
397.664446398948
 20
225.6598354353676
 30
0.0
 11
397.6960658074261
 21
225.6307047404371
 31
0.0
  0
SPLINE
  5
170
330
2
100
AcDbEntity
  8
0
100
AcDbSpline
210
0.0
220
0.0
230
1.0
 70
     8
 71
     3
 72
     9
 73
     5
 74
     0
 42
0.000000001
 43
0.0000000001
 40
0.0
 40
0.0
 40
0.0
 40
0.0
 40
0.4981678188521986
 40
1.0
 40
1.0
 40
1.0
 40
1.0
 10
397.1322630167688
 20
226.9159548953776
 30
0.0
 10
397.1240878899087
 20
226.972922830857
 30
0.0
 10
397.107677502584
 20
227.0872777396321
 30
0.0
 10
397.1721268124866
 20
227.1763381324422
 30
0.0
 10
397.2044695502484
 20
227.22103150362
 30
0.0
  0
SPLINE
  5
171
330
2
100
AcDbEntity
  8
0
100
AcDbSpline
210
0.0
220
0.0
230
1.0
 70
     8
 71
     3
 72
     9
 73
     5
 74
     0
 42
0.000000001
 43
0.0000000001
 40
0.0
 40
0.0
 40
0.0
 40
0.0
 40
0.5612185062266503
 40
1.0
 40
1.0
 40
1.0
 40
1.0
 10
397.1504203723639
 20
226.8461428299179
 30
0.0
 10
397.1470028139211
 20
226.8591588754391
 30
0.0
 10
397.1409132812259
 20
226.8823513492737
 30
0.0
 10
397.1349010656847
 20
226.9057069083001
 30
0.0
 10
397.1322630167688
 20
226.9159548953776
 30
0.0
  0
SPLINE
  5
172
330
2
100
AcDbEntity
  8
0
100
AcDbSpline
210
0.0
220
0.0
230
1.0
 70
     8
 71
     3
 72
    15
 73
    11
 74
     0
 42
0.000000001
 43
0.0000000001
 40
0.0
 40
0.0
 40
0.0
 40
0.0
 40
0.0963510748672348
 40
0.195213627739082
 40
0.3009519600197121
 40
0.4195975216536896
 40
0.5548843223627226
 40
0.7004195833249578
 40
0.8483502627077152
 40
1.0
 40
1.0
 40
1.0
 40
1.0
 10
397.5792899003799
 20
226.506487898647
 30
0.0
 10
397.5634896933832
 20
226.5023627805638
 30
0.0
 10
397.5314774326885
 20
226.4940050194598
 30
0.0
 10
397.4724578212477
 20
226.5014394971258
 30
0.0
 10
397.4078408782761
 20
226.5250573237013
 30
0.0
 10
397.3394004241013
 20
226.5669255951325
 30
0.0
 10
397.2727358755285
 20
226.6251666761541
 30
0.0
 10
397.2153339650081
 20
226.694913779691
 30
0.0
 10
397.170897374076
 20
226.7706340901714
 30
0.0
 10
397.1573022970376
 20
226.8207658012661
 30
0.0
 10
397.1504203723639
 20
226.8461428299179
 30
0.0
  0
LINE
  5
173
330
2
100
AcDbEntity
  8
0
100
AcDbLine
 10
397.7894920139931
 20
226.5930520754168
 30
0.0
 11
397.5792899003867
 21
226.5064878986525
 31
0.0
  0
LINE
  5
174
330
2
100
AcDbEntity
  8
0
100
AcDbLine
 10
414.5152031777057
 20
232.3414960750154
 30
0.0
 11
414.5154060246268
 21
232.3434625655286
 31
0.0
  0
SPLINE
  5
175
330
2
100
AcDbEntity
  8
0
100
AcDbSpline
210
0.0
220
0.0
230
1.0
 70
     8
 71
     3
 72
    10
 73
     6
 74
     0
 42
0.000000001
 43
0.0000000001
 40
0.0
 40
0.0
 40
0.0
 40
0.0
 40
0.4714198770714109
 40
0.9520264603805836
 40
1.0
 40
1.0
 40
1.0
 40
1.0
 10
414.7291646768891
 20
232.858004858334
 30
0.0
 10
414.7248253281901
 20
232.8554041805701
 30
0.0
 10
414.7160620685503
 20
232.8501521448234
 30
0.0
 10
414.7085018044881
 20
232.8428032713186
 30
0.0
 10
414.7061118809904
 20
232.8379832027981
 30
0.0
 10
414.7058949733077
 20
232.8375457369568
 30
0.0
  0
SPLINE
  5
176
330
2
100
AcDbEntity
  8
0
100
AcDbSpline
210
0.0
220
0.0
230
1.0
 70
     8
 71
     3
 72
    12
 73
     8
 74
     0
 42
0.000000001
 43
0.0000000001
 40
0.0
 40
0.0
 40
0.0
 40
0.0
 40
0.2620656486917677
 40
0.5797217483267269
 40
0.7612186986700271
 40
0.9577283047974864
 40
1.0
 40
1.0
 40
1.0
 40
1.0
 10
395.0702110613818
 20
228.9902899216806
 30
0.0
 10
395.0417945317857
 20
228.9711275441075
 30
0.0
 10
394.9789336406269
 20
228.928737986055
 30
0.0
 10
394.9420761868143
 20
228.8407831554287
 30
0.0
 10
394.9404240403471
 20
228.7562373815344
 30
0.0
 10
394.9492954527966
 20
228.7029169830689
 30
0.0
 10
394.9648624756708
 20
228.6733932684429
 30
0.0
 10
394.9676183214697
 20
228.6681666553916
 30
0.0
  0
SPLINE
  5
177
330
2
100
AcDbEntity
  8
0
100
AcDbSpline
210
0.0
220
0.0
230
1.0
 70
     8
 71
     3
 72
    10
 73
     6
 74
     0
 42
0.000000001
 43
0.0000000001
 40
0.0
 40
0.0
 40
0.0
 40
0.0
 40
0.381555857730953
 40
0.7538359721219186
 40
1.0
 40
1.0
 40
1.0
 40
1.0
 10
414.7291646768891
 20
232.858004858334
 30
0.0
 10
414.7854622127178
 20
232.9411032533826
 30
0.0
 10
414.896688673509
 20
233.1052798952665
 30
0.0
 10
415.0816523051204
 20
233.2728209741353
 30
0.0
 10
415.2151141116103
 20
233.3401092573558
 30
0.0
 10
415.2682369299991
 20
233.366892524743
 30
0.0
  0
SPLINE
  5
178
330
2
100
AcDbEntity
  8
0
100
AcDbSpline
210
0.0
220
0.0
230
1.0
 70
     8
 71
     3
 72
    10
 73
     6
 74
     0
 42
0.000000001
 43
0.0000000001
 40
0.0
 40
0.0
 40
0.0
 40
0.0
 40
0.2635132080035328
 40
0.5336375405975323
 40
1.0
 40
1.0
 40
1.0
 40
1.0
 10
418.552458496956
 20
227.875347746422
 30
0.0
 10
418.5529102848034
 20
227.874683186204
 30
0.0
 10
418.5538251951323
 20
227.8733373930156
 30
0.0
 10
418.5559099065527
 20
227.8713728692785
 30
0.0
 10
418.5575141111516
 20
227.87046707017
 30
0.0
 10
418.5585299349388
 20
227.8698934947783
 30
0.0
  0
LINE
  5
179
330
2
100
AcDbEntity
  8
0
100
AcDbLine
 10
427.192861115575
 20
223.9170562203874
 30
0.0
 11
426.503321149479
 21
223.8974978874958
 31
0.0
  0
SPLINE
  5
17A
330
2
100
AcDbEntity
  8
0
100
AcDbSpline
210
0.0
220
0.0
230
1.0
 70
     8
 71
     3
 72
    12
 73
     8
 74
     0
 42
0.000000001
 43
0.0000000001
 40
0.0
 40
0.0
 40
0.0
 40
0.0
 40
0.1922861638147322
 40
0.4003797152313642
 40
0.6033663724266215
 40
0.8150648019353928
 40
1.0
 40
1.0
 40
1.0
 40
1.0
 10
418.552458496956
 20
227.875347746422
 30
0.0
 10
418.6136111327038
 20
227.9270270210359
 30
0.0
 10
418.7409436167506
 20
228.0346340003569
 30
0.0
 10
418.8981385982514
 20
228.247891176175
 30
0.0
 10
419.0289537116423
 20
228.504543731392
 30
0.0
 10
419.1233352818292
 20
228.7849666454142
 30
0.0
 10
419.1578379074591
 20
228.9930944227653
 30
0.0
 10
419.1739251715262
 20
229.0901365015288
 30
0.0
  0
SPLINE
  5
17B
330
2
100
AcDbEntity
  8
0
100
AcDbSpline
210
0.0
220
0.0
230
1.0
 70
     8
 71
     3
 72
    12
 73
     8
 74
     0
 42
0.000000001
 43
0.0000000001
 40
0.0
 40
0.0
 40
0.0
 40
0.0
 40
0.2119695651648757
 40
0.4226686334076041
 40
0.6867867837236484
 40
0.8442665402241541
 40
1.0
 40
1.0
 40
1.0
 40
1.0
 10
419.1739251715262
 20
229.0901365015288
 30
0.0
 10
419.174223411945
 20
229.0915568783646
 30
0.0
 10
419.1748181051986
 20
229.0943891186234
 30
0.0
 10
419.1772387091234
 20
229.0975496401504
 30
0.0
 10
419.1803316341708
 20
229.0990638957744
 30
0.0
 10
419.1836595890481
 20
229.0991584756562
 30
0.0
 10
419.185604143917
 20
229.0985529450802
 30
0.0
 10
419.1865710004917
 20
229.0982518678372
 30
0.0
  0
LINE
  5
17C
330
2
100
AcDbEntity
  8
0
100
AcDbLine
 10
419.1880599778237
 20
229.4252804233033
 30
0.0
 11
419.2225015114656
 21
229.3837055773811
 31
0.0
  0
SPLINE
  5
17D
330
2
100
AcDbEntity
  8
0
100
AcDbSpline
210
0.0
220
0.0
230
1.0
 70
     8
 71
     3
 72
    15
 73
    11
 74
     0
 42
0.000000001
 43
0.0000000001
 40
0.0
 40
0.0
 40
0.0
 40
0.0
 40
0.1249992948406139
 40
0.2500006956511155
 40
0.3749980889258645
 40
0.499996383877414
 40
0.6250000838998241
 40
0.7499970052754187
 40
0.8749979884604808
 40
1.0
 40
1.0
 40
1.0
 40
1.0
 10
419.276584004621
 20
229.5457512898963
 30
0.0
 10
419.2764341598754
 20
229.549768267613
 30
0.0
 10
419.2761344678593
 20
229.5578022907236
 30
0.0
 10
419.2725465662236
 20
229.5705619226014
 30
0.0
 10
419.2669172080082
 20
229.5827538279216
 30
0.0
 10
419.2593983748641
 20
229.5936495449819
 30
0.0
 10
419.2505589598813
 20
229.6024997529475
 30
0.0
 10
419.2410106668151
 20
229.6086296502597
 30
0.0
 10
419.2313047702864
 20
229.6119162399711
 30
0.0
 10
419.2254359391246
 20
229.61132849262
 30
0.0
 10
419.2225015114736
 20
229.6110346177354
 30
0.0
  0
LINE
  5
17E
330
2
100
AcDbEntity
  8
0
100
AcDbLine
 10
419.2765840046014
 20
229.3949064120443
 30
0.0
 11
419.2765840046014
 21
229.5457512898859
 31
0.0
  0
SPLINE
  5
17F
330
2
100
AcDbEntity
  8
0
100
AcDbSpline
210
0.0
220
0.0
230
1.0
 70
     8
 71
     3
 72
    15
 73
    11
 74
     0
 42
0.000000001
 43
0.0000000001
 40
0.0
 40
0.0
 40
0.0
 40
0.0
 40
0.1250020115395191
 40
0.2500029947245813
 40
0.3749999161001759
 40
0.5000036161225862
 40
0.6250019110741355
 40
0.7499993043488847
 40
0.8750007051593861
 40
1.0
 40
1.0
 40
1.0
 40
1.0
 10
419.2225015114736
 20
229.3837055773706
 30
0.0
 10
419.2254359391246
 20
229.380658752651
 30
0.0
 10
419.2313047702864
 20
229.374565128277
 30
0.0
 10
419.2410106668151
 20
229.3685445361634
 30
0.0
 10
419.2505589598813
 20
229.3653855405821
 30
0.0
 10
419.2593983748641
 20
229.3654818125337
 30
0.0
 10
419.2669172080082
 20
229.3687732136064
 30
0.0
 10
419.2725465662236
 20
229.3750763634966
 30
0.0
 10
419.2761344678593
 20
229.3838493870926
 30
0.0
 10
419.2764341598754
 20
229.3912207577707
 30
0.0
 10
419.276584004621
 20
229.3949064120623
 30
0.0
  0
SPLINE
  5
180
330
2
100
AcDbEntity
  8
0
100
AcDbSpline
210
0.0
220
0.0
230
1.0
 70
     8
 71
     3
 72
    17
 73
    13
 74
     0
 42
0.000000001
 43
0.0000000001
 40
0.0
 40
0.0
 40
0.0
 40
0.0
 40
0.08665562494746
 40
0.1716046876645119
 40
0.2548449965920317
 40
0.3472379413165199
 40
0.4319632327023847
 40
0.5090201121839807
 40
0.6372655979181223
 40
0.7595658100877467
 40
0.8780802182737319
 40
1.0
 40
1.0
 40
1.0
 40
1.0
 10
424.3076540336859
 20
222.4764291146191
 30
0.0
 10
424.3494587640165
 20
222.4990241048204
 30
0.0
 10
424.4322449385511
 20
222.5437691082591
 30
0.0
 10
424.5318023288962
 20
222.6198923391221
 30
0.0
 10
424.6142283101306
 20
222.7032099516462
 30
0.0
 10
424.6733218029933
 20
222.7916229657367
 30
0.0
 10
424.7073673381853
 20
222.8811933930463
 30
0.0
 10
424.7207945147174
 20
222.9852300566486
 30
0.0
 10
424.6992727719201
 20
223.1036954167159
 30
0.0
 10
424.6238846261928
 20
223.2328857000357
 30
0.0
 10
424.506517904548
 20
223.3532238868629
 30
0.0
 10
424.3933862744612
 20
223.421314644062
 30
0.0
 10
424.3360192932863
 20
223.4558422221005
 30
0.0
  0
SPLINE
  5
181
330
2
100
AcDbEntity
  8
0
100
AcDbSpline
210
0.0
220
0.0
230
1.0
 70
     8
 71
     3
 72
    11
 73
     7
 74
     0
 42
0.000000001
 43
0.0000000001
 40
0.0
 40
0.0
 40
0.0
 40
0.0
 40
0.2553584735644556
 40
0.5164135846664589
 40
0.773718890086172
 40
1.0
 40
1.0
 40
1.0
 40
1.0
 10
427.0566607982293
 20
223.5285190903894
 30
0.0
 10
427.0202531631296
 20
223.5540465224699
 30
0.0
 10
426.9466256970469
 20
223.6056708626531
 30
0.0
 10
426.8212950547657
 20
223.7015768826018
 30
0.0
 10
426.6788594634228
 20
223.8010665560646
 30
0.0
 10
426.5592766666623
 20
223.8667589285742
 30
0.0
 10
426.503321149469
 20
223.897497887513
 30
0.0
  0
SPLINE
  5
182
330
2
100
AcDbEntity
  8
0
100
AcDbSpline
210
0.0
220
0.0
230
1.0
 70
     8
 71
     3
 72
     9
 73
     5
 74
     0
 42
0.000000001
 43
0.0000000001
 40
0.0
 40
0.0
 40
0.0
 40
0.0
 40
0.4981672810161585
 40
1.0
 40
1.0
 40
1.0
 40
1.0
 10
425.1240886119017
 20
222.7425497690179
 30
0.0
 10
425.1322643891324
 20
222.7280312715304
 30
0.0
 10
425.1486760997001
 20
222.6988874516919
 30
0.0
 10
425.0842265721157
 20
222.6517461836376
 30
0.0
 10
425.0518836904508
 20
222.6280891529136
 30
0.0
  0
SPLINE
  5
183
330
2
100
AcDbEntity
  8
0
100
AcDbSpline
210
0.0
220
0.0
230
1.0
 70
     8
 71
     3
 72
     9
 73
     5
 74
     0
 42
0.000000001
 43
0.0000000001
 40
0.0
 40
0.0
 40
0.0
 40
0.0
 40
0.5612323624269592
 40
1.0
 40
1.0
 40
1.0
 40
1.0
 10
425.1059328683353
 20
222.7568316064307
 30
0.0
 10
425.1093502728048
 20
222.7540966014672
 30
0.0
 10
425.1154393808078
 20
222.7492233882549
 30
0.0
 10
425.1214509360222
 20
222.7445849608516
 30
0.0
 10
425.1240886119017
 20
222.7425497690179
 30
0.0
  0
SPLINE
  5
184
330
2
100
AcDbEntity
  8
0
100
AcDbSpline
210
0.0
220
0.0
230
1.0
 70
     8
 71
     3
 72
    15
 73
    11
 74
     0
 42
0.000000001
 43
0.0000000001
 40
0.0
 40
0.0
 40
0.0
 40
0.0
 40
0.0963469978399123
 40
0.1952095666984696
 40
0.3009512487399121
 40
0.419595635044932
 40
0.5548834405559532
 40
0.7004203209140361
 40
0.8483516193562028
 40
1.0
 40
1.0
 40
1.0
 40
1.0
 10
424.6770644150053
 20
222.6284636841717
 30
0.0
 10
424.6928639946343
 20
222.6384052468065
 30
0.0
 10
424.7248756728652
 20
222.6585479412108
 30
0.0
 10
424.783894199129
 20
222.6906309206813
 30
0.0
 10
424.8485122111493
 20
222.7213915756593
 30
0.0
 10
424.9169527813118
 20
222.748307089903
 30
0.0
 10
424.9836160581629
 20
222.7675470022207
 30
0.0
 10
425.0410188039861
 20
222.7758112139925
 30
0.0
 10
425.085454904087
 20
222.7730757862664
 30
0.0
 10
425.0990506497982
 20
222.7622909379459
 30
0.0
 10
425.1059328683353
 20
222.7568316064307
 30
0.0
  0
LINE
  5
185
330
2
100
AcDbEntity
  8
0
100
AcDbLine
 10
424.4668612267061
 20
222.5088724771081
 30
0.0
 11
424.6770644150281
 21
222.6284636841508
 31
0.0
  0
LINE
  5
186
330
2
100
AcDbEntity
  8
0
100
AcDbLine
 10
424.5719719556919
 20
226.7830954740559
 30
0.0
 11
424.5725039252111
 21
226.7825297402001
 31
0.0
  0
LINE
  5
187
330
2
100
AcDbEntity
  8
0
100
AcDbLine
 10
424.3076540336944
 20
222.4764291146207
 30
0.0
 11
415.0739033597294
 21
217.8595537776382
 31
0.0
  0
LINE
  5
188
330
2
100
AcDbEntity
  8
0
100
AcDbLine
 10
415.2123562186837
 20
217.8816199730716
 30
0.0
 11
424.4668612267061
 21
222.5088724771081
 31
0.0
  0
LWPOLYLINE
  5
189
330
2
100
AcDbEntity
  8
0
100
AcDbPolyline
 90
        3
 70
   128
 43
0.0
 10
424.4790513888848
 20
222.5129177692961
 10
424.4819809826173
 20
222.5145225422407
 10
424.4868374881811
 20
222.5178744311927
  0
SPLINE
  5
18A
330
2
100
AcDbEntity
  8
0
100
AcDbSpline
210
0.0
220
0.0
230
1.0
 70
     8
 71
     3
 72
     9
 73
     5
 74
     0
 42
0.000000001
 43
0.0000000001
 40
0.0
 40
0.0
 40
0.0
 40
0.0
 40
0.5599468356280765
 40
1.0
 40
1.0
 40
1.0
 40
1.0
 10
415.7211189710558
 20
217.9627067932163
 30
0.0
 10
415.7465301640126
 20
217.9739899646693
 30
0.0
 10
415.7919116026419
 20
217.9941403981306
 30
0.0
 10
415.8313952556236
 20
218.0135460428892
 30
0.0
 10
415.8487701620591
 20
218.0220855582718
 30
0.0
  0
LINE
  5
18B
330
2
100
AcDbEntity
  8
0
100
AcDbLine
 10
424.9522957723069
 20
222.5738483634168
 30
0.0
 11
415.8487701620639
 21
218.0220855582952
 31
0.0
  0
SPLINE
  5
18C
330
2
100
AcDbEntity
  8
0
100
AcDbSpline
210
0.0
220
0.0
230
1.0
 70
     8
 71
     3
 72
     9
 73
     5
 74
     0
 42
0.000000001
 43
0.0000000001
 40
0.0
 40
0.0
 40
0.0
 40
0.0
 40
0.5599416142293188
 40
1.0
 40
1.0
 40
1.0
 40
1.0
 10
425.0518836904508
 20
222.6280891529136
 30
0.0
 10
425.0354500063702
 20
222.6184498858054
 30
0.0
 10
425.0061010820127
 20
222.6012351140091
 30
0.0
 10
424.9687377985278
 20
222.5822173082852
 30
0.0
 10
424.9522957723104
 20
222.5738483633973
 30
0.0
  0
LINE
  5
18D
330
2
100
AcDbEntity
  8
0
100
AcDbLine
 10
427.1451106717162
 20
224.5853182581791
 30
0.0
 11
427.146817272937
 21
224.5843965591382
 31
0.0
  0
SPLINE
  5
18E
330
2
100
AcDbEntity
  8
0
100
AcDbSpline
210
0.0
220
0.0
230
1.0
 70
     8
 71
     3
 72
    11
 73
     7
 74
     0
 42
0.000000001
 43
0.0000000001
 40
0.0
 40
0.0
 40
0.0
 40
0.0
 40
0.0841316328003151
 40
0.3674403815267576
 40
0.6726562418083421
 40
1.0
 40
1.0
 40
1.0
 40
1.0
 10
427.3131109447756
 20
223.8755002324292
 30
0.0
 10
427.3135542638244
 20
223.877840357965
 30
0.0
 10
427.3154904359288
 20
223.8880607303863
 30
0.0
 10
427.2983001070065
 20
223.9019614791573
 30
0.0
 10
427.2602047222358
 20
223.9157909940934
 30
0.0
 10
427.2158264575221
 20
223.9166247561893
 30
0.0
 10
427.1928611155539
 20
223.9170562203703
 30
0.0
  0
SPLINE
  5
18F
330
2
100
AcDbEntity
  8
0
100
AcDbSpline
210
0.0
220
0.0
230
1.0
 70
     8
 71
     3
 72
     9
 73
     5
 74
     0
 42
0.000000001
 43
0.0000000001
 40
0.0
 40
0.0
 40
0.0
 40
0.0
 40
0.6314830777057478
 40
1.0
 40
1.0
 40
1.0
 40
1.0
 10
427.0561578452291
 20
223.5289880411533
 30
0.0
 10
427.0770274470454
 20
223.519088998987
 30
0.0
 10
427.1100759998148
 20
223.5034131360606
 30
0.0
 10
427.1198080635842
 20
223.5169071025361
 30
0.0
 10
427.1233944937717
 20
223.5218798575314
 30
0.0
  0
LWPOLYLINE
  5
190
330
2
100
AcDbEntity
  8
0
100
AcDbPolyline
 90
        3
 70
   128
 43
0.0
 10
416.8540614425429
 20
218.1544499747224
 10
416.8381335228382
 20
218.1472099940204
 10
416.7893524552466
 20
218.1329616896985
  0
SPLINE
  5
191
330
2
100
AcDbEntity
  8
0
100
AcDbSpline
210
0.0
220
0.0
230
1.0
 70
     8
 71
     3
 72
    10
 73
     6
 74
     0
 42
0.000000001
 43
0.0000000001
 40
0.0
 40
0.0
 40
0.0
 40
0.0
 40
0.1648334739578397
 40
0.5774176683350154
 40
1.0
 40
1.0
 40
1.0
 40
1.0
 10
414.5242068961398
 20
217.6931339703306
 30
0.0
 10
414.5582132177503
 20
217.6984199974358
 30
0.0
 10
414.6773386020643
 20
217.7169371430887
 30
0.0
 10
414.8696887099064
 20
217.7692962547356
 30
0.0
 10
415.005290693239
 20
217.8292287773389
 30
0.0
 10
415.0739033597049
 20
217.8595537776287
 30
0.0
  0
LINE
  5
192
330
2
100
AcDbEntity
  8
0
100
AcDbLine
 10
415.2123562186837
 20
217.8816199730716
 30
0.0
 11
415.0062013721832
 21
217.7930321627541
 31
0.0
  0
SPLINE
  5
193
330
2
100
AcDbEntity
  8
0
100
AcDbSpline
210
0.0
220
0.0
230
1.0
 70
     8
 71
     3
 72
    13
 73
     9
 74
     0
 42
0.000000001
 43
0.0000000001
 40
0.0
 40
0.0
 40
0.0
 40
0.0
 40
0.0630436074516056
 40
0.2604291428657377
 40
0.4861921371082218
 40
0.7276208810992743
 40
0.9762826425899872
 40
1.0
 40
1.0
 40
1.0
 40
1.0
 10
414.9378459756047
 20
217.7659072157962
 30
0.0
 10
414.9367439866796
 20
217.7652300796481
 30
0.0
 10
414.9321917403407
 20
217.7624328731788
 30
0.0
 10
414.9479062544826
 20
217.7635232248831
 30
0.0
 10
414.9854225694123
 20
217.7685132539868
 30
0.0
 10
415.0481568828105
 20
217.7792167666969
 30
0.0
 10
415.1008919885472
 20
217.788432831072
 30
0.0
 10
415.1335880319333
 20
217.7952332192745
 30
0.0
 10
415.1364350333849
 20
217.7958253617198
 30
0.0
  0
SPLINE
  5
194
330
2
100
AcDbEntity
  8
0
100
AcDbSpline
210
0.0
220
0.0
230
1.0
 70
     8
 71
     3
 72
     9
 73
     5
 74
     0
 42
0.000000001
 43
0.0000000001
 40
0.0
 40
0.0
 40
0.0
 40
0.0
 40
0.5612286742246725
 40
1.0
 40
1.0
 40
1.0
 40
1.0
 10
415.2174878438366
 20
217.8126090941814
 30
0.0
 10
415.2332387027493
 20
217.8160407985026
 30
0.0
 10
415.2613036602895
 20
217.8221554260667
 30
0.0
 10
415.2892978798599
 20
217.8285084212814
 30
0.0
 10
415.301580940695
 20
217.8312959334144
 30
0.0
  0
SPLINE
  5
195
330
2
100
AcDbEntity
  8
0
100
AcDbSpline
210
0.0
220
0.0
230
1.0
 70
     8
 71
     3
 72
    10
 73
     6
 74
     0
 42
0.000000001
 43
0.0000000001
 40
0.0
 40
0.0
 40
0.0
 40
0.0
 40
0.0931000089338556
 40
0.4988355957275834
 40
1.0
 40
1.0
 40
1.0
 40
1.0
 10
415.301580940695
 20
217.8312959334144
 30
0.0
 10
415.3143897375785
 20
217.8342693599931
 30
0.0
 10
415.3830200620761
 20
217.8502011631776
 30
0.0
 10
415.5305016153293
 20
217.8883475309772
 30
0.0
 10
415.6532736126739
 20
217.9362405211582
 30
0.0
 10
415.7211189710558
 20
217.9627067932163
 30
0.0
  0
SPLINE
  5
196
330
2
100
AcDbEntity
  8
0
100
AcDbSpline
210
0.0
220
0.0
230
1.0
 70
     8
 71
     3
 72
    10
 73
     6
 74
     0
 42
0.000000001
 43
0.0000000001
 40
0.0
 40
0.0
 40
0.0
 40
0.0
 40
0.1064138447505043
 40
0.5541982054506934
 40
1.0
 40
1.0
 40
1.0
 40
1.0
 10
416.3354169533413
 20
217.9833587188573
 30
0.0
 10
416.3511198330398
 20
217.9849106311181
 30
0.0
 10
416.432899678228
 20
217.9929929158238
 30
0.0
 10
416.5853133718046
 20
218.0412534614766
 30
0.0
 10
416.7214401005272
 20
218.1024375292186
 30
0.0
 10
416.7893524552497
 20
218.1329616896892
 30
0.0
  0
ARC
  5
197
330
2
100
AcDbEntity
  8
0
100
AcDbCircle
 10
396.5764193697244
 20
223.6711371773704
 30
0.0
 40
1.728094830182059
100
AcDbArc
 50
93.25378380370024
 51
114.7491445557016
  0
ARC
  5
198
330
2
100
AcDbEntity
  8
0
100
AcDbCircle
 10
396.6318656194078
 20
223.7265602521354
 30
0.0
 40
1.579980256894148
100
AcDbArc
 50
66.10196120390047
 51
113.8980387960994
  0
LINE
  5
199
330
2
100
AcDbEntity
  8
0
100
AcDbLine
 10
395.9917993560194
 20
225.1710853611644
 30
0.0
 11
392.5299937358346
 21
223.440182551072
 31
0.0
  0
LINE
  5
19A
330
2
100
AcDbEntity
  8
0
100
AcDbLine
 10
412.4173308666345
 20
217.5983858692707
 30
0.0
 11
397.2719318828474
 21
225.1710853611644
 31
0.0
  0
ARC
  5
19B
330
2
100
AcDbEntity
  8
0
100
AcDbCircle
 10
396.6318656194078
 20
223.4215180333736
 30
0.0
 40
1.462505930896241
100
AcDbArc
 50
66.10192617089871
 51
113.8980738291013
  0
LINE
  5
19C
330
2
100
AcDbEntity
  8
0
100
AcDbLine
 10
411.8648950287131
 20
217.4383635905119
 30
0.0
 11
412.3697416256787
 21
217.1859402920545
 31
0.0
  0
LINE
  5
19D
330
2
100
AcDbEntity
  8
0
100
AcDbLine
 10
397.2243426418915
 20
224.7586397839482
 30
0.0
 11
411.8648950287131
 21
217.4383635905119
 31
0.0
  0
LINE
  5
19E
330
2
100
AcDbEntity
  8
0
100
AcDbLine
 10
392.5775829767904
 20
223.0277369738558
 30
0.0
 11
396.0393885969752
 21
224.7586397839482
 31
0.0
  0
LWPOLYLINE
  5
19F
330
2
100
AcDbEntity
  8
0
100
AcDbPolyline
 90
        9
 70
   128
 43
0.0
 10
392.5775829767904
 20
223.0277369738558
 10
392.4733803573637
 20
222.9642515164285
 10
392.3959508504418
 20
222.8918217169776
 10
392.3482702611877
 20
222.8132304745293
 10
392.3321703917332
 20
222.7314984626139
 10
392.3482702611877
 20
222.6497664506476
 10
392.3959511190952
 20
222.5711753426281
 10
392.4733800887102
 20
222.4987452744729
 10
392.5775827080861
 20
222.4352598170453
  0
LINE
  5
1A0
330
2
100
AcDbEntity
  8
0
100
AcDbLine
 10
407.722981691873
 20
214.8625603251519
 30
0.0
 11
392.5775827080861
 21
222.4352598170453
 31
0.0
  0
LWPOLYLINE
  5
1A1
330
2
100
AcDbEntity
  8
0
100
AcDbPolyline
 90
        9
 70
   128
 43
0.0
 10
412.3697421630363
 20
216.5934630009176
 10
412.4739442450545
 20
216.6569481896406
 10
412.551374289334
 20
216.7293782577958
 10
412.5990543412304
 20
216.8079692315398
 10
412.6151536733782
 20
216.8897015121593
 10
412.599054878588
 20
216.9714335240747
 10
412.5513737520273
 20
217.0500244978186
 10
412.4739442450545
 20
217.1224548346272
 10
412.3697416256787
 20
217.1859402920545
  0
LINE
  5
1A2
330
2
100
AcDbEntity
  8
0
100
AcDbLine
 10
412.3697421630363
 20
216.5934630009176
 30
0.0
 11
408.9079365428514
 21
214.8625601908252
 31
0.0
  0
ARC
  5
1A3
330
2
100
AcDbEntity
  8
0
100
AcDbCircle
 10
408.3154592689514
 20
216.1996816691257
 30
0.0
 40
1.462505783861033
100
AcDbArc
 50
246.1018998540968
 51
293.8980871548988
  0
ARC
  5
1A4
330
2
100
AcDbEntity
  8
0
100
AcDbCircle
 10
408.1712167566198
 20
229.4962405987978
 30
0.0
 40
1.579975918219198
100
AcDbArc
 50
66.10189011990026
 51
113.8980858297974
  0
LINE
  5
1A5
330
2
100
AcDbEntity
  8
0
100
AcDbLine
 10
407.5311510650633
 20
230.9407612156865
 30
0.0
 11
404.0693459822362
 21
229.2098586742984
 31
0.0
  0
LINE
  5
1A6
330
2
100
AcDbEntity
  8
0
100
AcDbLine
 10
423.9566820383208
 20
223.3680614551395
 30
0.0
 11
408.8112830545338
 21
230.9407609470331
 31
0.0
  0
ARC
  5
1A7
330
2
100
AcDbEntity
  8
0
100
AcDbCircle
 10
408.1712167566198
 20
229.1912024296737
 30
0.0
 40
1.462497889799311
100
AcDbArc
 50
66.10178510599618
 51
113.8981889119995
  0
LINE
  5
1A8
330
2
100
AcDbEntity
  8
0
100
AcDbLine
 10
423.4042462003993
 20
223.2080391763807
 30
0.0
 11
423.9090927973649
 21
222.9556158778724
 31
0.0
  0
LINE
  5
1A9
330
2
100
AcDbEntity
  8
0
100
AcDbLine
 10
408.7636938135777
 20
230.5283153697658
 30
0.0
 11
423.4042462003993
 21
223.2080391763807
 31
0.0
  0
LINE
  5
1AA
330
2
100
AcDbEntity
  8
0
100
AcDbLine
 10
404.1169352231411
 20
228.797413097031
 30
0.0
 11
407.5787403060192
 21
230.5283156384701
 31
0.0
  0
LWPOLYLINE
  5
1AB
330
2
100
AcDbEntity
  8
0
100
AcDbPolyline
 90
        9
 70
   128
 43
0.0
 10
404.1169352231411
 20
228.797413097031
 10
404.0127326037652
 20
228.7339276396037
 10
403.9353025594857
 20
228.6614975714995
 10
403.8876219702316
 20
228.5829063290514
 10
403.8715226381348
 20
228.5011745857892
 10
403.8876219702316
 20
228.4194423052206
 10
403.9353025594857
 20
228.3408510627723
 10
404.0127320664074
 20
228.2684212633214
 10
404.1169346858343
 20
228.2049358058941
  0
LINE
  5
1AC
330
2
100
AcDbEntity
  8
0
100
AcDbLine
 10
419.2623336696216
 20
220.6322363140005
 30
0.0
 11
404.1169346858343
 21
228.2049358058941
 31
0.0
  0
LWPOLYLINE
  5
1AD
330
2
100
AcDbEntity
  8
0
100
AcDbPolyline
 90
        9
 70
   128
 43
0.0
 10
423.9090938720803
 20
222.3631388554395
 10
424.0132964914562
 20
222.4266243128668
 10
424.0907254610711
 20
222.4990538436646
 10
424.1384071249897
 20
222.5776456233684
 10
424.154505919729
 20
222.6593776353348
 10
424.1384071249897
 20
222.7411096472502
 10
424.0907265357353
 20
222.8197008896473
 10
424.0132964914562
 20
222.8921309578025
 10
423.9090927973649
 20
222.9556158778724
  0
LINE
  5
1AE
330
2
100
AcDbEntity
  8
0
100
AcDbLine
 10
423.9090938720803
 20
222.3631388554395
 30
0.0
 11
420.4472887892023
 21
220.6322363140005
 31
0.0
  0
ARC
  5
1AF
330
2
100
AcDbEntity
  8
0
100
AcDbCircle
 10
419.854811229412
 20
221.9693556967745
 30
0.0
 40
1.462503983807495
100
AcDbArc
 50
246.1018693460028
 51
293.8981306539972
  0
ARC
  5
1B0
330
2
100
AcDbEntity
  8
0
100
AcDbCircle
 10
402.401540902098
 20
226.6114026715625
 30
0.0
 40
1.579975918219256
100
AcDbArc
 50
66.10189011990026
 51
113.8980858297974
  0
LINE
  5
1B1
330
2
100
AcDbEntity
  8
0
100
AcDbLine
 10
401.7614752105411
 20
228.0559232884509
 30
0.0
 11
398.2996701277142
 21
226.3250207470119
 31
0.0
  0
LINE
  5
1B2
330
2
100
AcDbEntity
  8
0
100
AcDbLine
 10
418.1870061837988
 20
220.483223527853
 30
0.0
 11
403.0416072000115
 21
228.0559230197466
 31
0.0
  0
ARC
  5
1B3
330
2
100
AcDbEntity
  8
0
100
AcDbCircle
 10
402.4015420457613
 20
226.3063536459986
 30
0.0
 40
1.462508278789893
100
AcDbArc
 50
66.1019684063931
 51
113.8980575756043
  0
LINE
  5
1B4
330
2
100
AcDbEntity
  8
0
100
AcDbLine
 10
417.6345714205415
 20
220.3232017864516
 30
0.0
 11
418.1394180175582
 21
220.0707784879945
 31
0.0
  0
LINE
  5
1B5
330
2
100
AcDbEntity
  8
0
100
AcDbLine
 10
402.9940190337709
 20
227.6434779798878
 30
0.0
 11
417.6345714205415
 21
220.3232017864516
 31
0.0
  0
LINE
  5
1B6
330
2
100
AcDbEntity
  8
0
100
AcDbLine
 10
398.347259368619
 20
225.9125751697957
 30
0.0
 11
401.8090644514971
 21
227.6434777111835
 31
0.0
  0
LWPOLYLINE
  5
1B7
330
2
100
AcDbEntity
  8
0
100
AcDbPolyline
 90
        9
 70
   128
 43
0.0
 10
398.347259368619
 20
225.9125751697957
 10
398.2430567492431
 20
225.8490897123682
 10
398.1656267049639
 20
225.776659644213
 10
398.1179461157097
 20
225.6980684018158
 10
398.1018467836126
 20
225.6163366585538
 10
398.1179461157097
 20
225.5346043779341
 10
398.1656267049639
 20
225.456013135537
 10
398.2430562118855
 20
225.3835833360349
 10
398.3472588313123
 20
225.3200978786586
  0
LINE
  5
1B8
330
2
100
AcDbEntity
  8
0
100
AcDbLine
 10
413.4926578150996
 20
217.7473983867651
 30
0.0
 11
398.3472588313123
 21
225.3200978786586
 31
0.0
  0
LWPOLYLINE
  5
1B9
330
2
100
AcDbEntity
  8
0
100
AcDbPolyline
 90
        9
 70
   128
 43
0.0
 10
418.1394180175582
 20
219.478300928153
 10
418.2436206369341
 20
219.5417863855805
 10
418.3210496065491
 20
219.614215916378
 10
418.3687301958033
 20
219.6928071587752
 10
418.3848300652067
 20
219.7745397080482
 10
418.3687301958033
 20
219.8562711826569
 10
418.3210496065491
 20
219.9348624250542
 10
418.2436206369341
 20
220.0072930305669
 10
418.1394180175582
 20
220.0707784879945
  0
LINE
  5
1BA
330
2
100
AcDbEntity
  8
0
100
AcDbLine
 10
418.1394180175582
 20
219.478300928153
 30
0.0
 11
414.67761293468
 21
217.7473983867651
 31
0.0
  0
ARC
  5
1BB
330
2
100
AcDbEntity
  8
0
100
AcDbCircle
 10
414.0851353748899
 20
219.0845177695392
 30
0.0
 40
1.462503983807713
100
AcDbArc
 50
246.1018693460028
 51
293.8981306539972
  0
ARC
  5
1BC
330
2
100
AcDbEntity
  8
0
100
AcDbCircle
 10
385.0925133730061
 20
217.9568860657323
 30
0.0
 40
1.5799784861484
100
AcDbArc
 50
66.10193275090762
 51
113.8980672490923
  0
LINE
  5
1BD
330
2
100
AcDbEntity
  8
0
100
AcDbLine
 10
384.4524471096177
 20
219.4014092379891
 30
0.0
 11
380.9906414894328
 21
217.6705064278967
 31
0.0
  0
LINE
  5
1BE
330
2
100
AcDbEntity
  8
0
100
AcDbLine
 10
400.8779786202328
 20
211.8287097460954
 30
0.0
 11
385.7325796364457
 21
219.4014092379891
 31
0.0
  0
ARC
  5
1BF
330
2
100
AcDbEntity
  8
0
100
AcDbCircle
 10
385.0925136589476
 20
217.6518430696708
 30
0.0
 40
1.462504986671988
100
AcDbArc
 50
66.10191051919867
 51
113.898102471802
  0
LINE
  5
1C0
330
2
100
AcDbEntity
  8
0
100
AcDbLine
 10
400.3255430509645
 20
211.6686876016633
 30
0.0
 11
400.8303896479302
 21
211.416264303155
 31
0.0
  0
LINE
  5
1C1
330
2
100
AcDbEntity
  8
0
100
AcDbLine
 10
385.6849906641432
 20
218.9889637950484
 30
0.0
 11
400.3255430509645
 21
211.6686876016633
 31
0.0
  0
LINE
  5
1C2
330
2
100
AcDbEntity
  8
0
100
AcDbLine
 10
381.0382307303887
 20
217.2580608506296
 30
0.0
 11
384.5000363505735
 21
218.9889636607218
 31
0.0
  0
LWPOLYLINE
  5
1C3
330
2
100
AcDbEntity
  8
0
100
AcDbPolyline
 90
        9
 70
   128
 43
0.0
 10
381.0382307303887
 20
217.2580608506296
 10
380.9340286483196
 20
217.1945756619063
 10
380.8565986040401
 20
217.1221455937512
 10
380.8089185521437
 20
217.0435546200074
 10
380.7928186826891
 20
216.961822608092
 10
380.808918014786
 20
216.8800903274723
 10
380.8565991413977
 20
216.8014993537283
 10
380.9340281110128
 20
216.7290692856241
 10
381.0382307303887
 20
216.6655838281968
  0
LINE
  5
1C4
330
2
100
AcDbEntity
  8
0
100
AcDbLine
 10
396.183629714176
 20
209.0928843363031
 30
0.0
 11
381.0382307303887
 21
216.6655838281968
 31
0.0
  0
LWPOLYLINE
  5
1C5
330
2
100
AcDbEntity
  8
0
100
AcDbPolyline
 90
        9
 70
   128
 43
0.0
 10
400.8303899166346
 20
210.8237868776912
 10
400.9345925360105
 20
210.8872723351187
 10
401.0120220429323
 20
210.9597021346206
 10
401.0597026321862
 20
211.0382933770177
 10
401.0758019642833
 20
211.1200256576374
 10
401.0597026321862
 20
211.2017574008994
 10
401.0120217742788
 20
211.2803485089701
 10
400.9345922673571
 20
211.3527788457786
 10
400.8303896479302
 20
211.416264303155
  0
LINE
  5
1C6
330
2
100
AcDbEntity
  8
0
100
AcDbLine
 10
400.8303899166346
 20
210.8237868776912
 30
0.0
 11
397.3685842964499
 21
209.0928840675988
 31
0.0
  0
ARC
  5
1C7
330
2
100
AcDbEntity
  8
0
100
AcDbCircle
 10
396.7761073084913
 20
210.4300059453606
 30
0.0
 40
1.462506033232556
100
AcDbArc
 50
246.1019034437021
 51
293.8980705743071
  0
ARC
  5
1C8
330
2
100
AcDbEntity
  8
0
100
AcDbCircle
 10
390.8621894962325
 20
220.8417241273455
 30
0.0
 40
1.579978486148325
100
AcDbArc
 50
66.10193275090762
 51
113.8980672490923
  0
LINE
  5
1C9
330
2
100
AcDbEntity
  8
0
100
AcDbLine
 10
390.2221232327929
 20
222.2862472995512
 30
0.0
 11
386.7603176126083
 21
220.5553444894588
 31
0.0
  0
LINE
  5
1CA
330
2
100
AcDbEntity
  8
0
100
AcDbLine
 10
406.6476547434082
 20
214.7135478076575
 30
0.0
 11
391.502255759621
 21
222.2862472995512
 31
0.0
  0
ARC
  5
1CB
330
2
100
AcDbEntity
  8
0
100
AcDbCircle
 10
390.8621897821229
 20
220.5366803968732
 30
0.0
 40
1.462505658081044
100
AcDbArc
 50
66.10192217430657
 51
113.8980908167037
  0
LINE
  5
1CC
330
2
100
AcDbEntity
  8
0
100
AcDbLine
 10
406.0952191741908
 20
214.5535256632763
 30
0.0
 11
406.6000657711566
 21
214.301102364768
 31
0.0
  0
LINE
  5
1CD
330
2
100
AcDbEntity
  8
0
100
AcDbLine
 10
391.4546667873694
 20
221.8738018566617
 30
0.0
 11
406.0952191741908
 21
214.5535256632763
 31
0.0
  0
LINE
  5
1CE
330
2
100
AcDbEntity
  8
0
100
AcDbLine
 10
386.8079068535643
 20
220.1428989122426
 30
0.0
 11
390.2697124737488
 21
221.873801722335
 31
0.0
  0
LWPOLYLINE
  5
1CF
330
2
100
AcDbEntity
  8
0
100
AcDbPolyline
 90
        9
 70
   128
 43
0.0
 10
386.8079068535643
 20
220.1428989122426
 10
386.7037045028413
 20
220.079413589142
 10
386.6262748615932
 20
220.0069837225278
 10
386.5785942723389
 20
219.9283924801305
 10
386.5624944028846
 20
219.8466604681641
 10
386.5785942723389
 20
219.7649284562487
 10
386.6262749959199
 20
219.6863372810148
 10
386.7037042341883
 20
219.6139073471863
 10
386.8079065849108
 20
219.5504217554324
  0
LINE
  5
1D0
330
2
100
AcDbEntity
  8
0
100
AcDbLine
 10
401.9533055686978
 20
211.9777222635387
 30
0.0
 11
386.8079065849108
 21
219.5504217554324
 31
0.0
  0
LWPOLYLINE
  5
1D1
330
2
100
AcDbEntity
  8
0
100
AcDbPolyline
 90
        9
 70
   128
 43
0.0
 10
406.6000660398098
 20
213.7086249393044
 10
406.7042683905325
 20
213.772110262405
 10
406.7816980318317
 20
213.8445401290194
 10
406.8293786210861
 20
213.9231313714165
 10
406.845477953183
 20
214.0048636520361
 10
406.8293786210861
 20
214.0865953952982
 10
406.7816978974542
 20
214.1651865705321
 10
406.7042681218793
 20
214.237616773014
 10
406.6000657711566
 20
214.301102364768
  0
LINE
  5
1D2
330
2
100
AcDbEntity
  8
0
100
AcDbLine
 10
406.6000660398098
 20
213.7086249393044
 30
0.0
 11
403.1382604196253
 21
211.977722129212
 31
0.0
  0
ARC
  5
1D3
330
2
100
AcDbEntity
  8
0
100
AcDbCircle
 10
402.5457831457762
 20
213.3148440697003
 30
0.0
 40
1.462506206423159
100
AcDbArc
 50
246.101907189396
 51
293.8980798196972
  0
SPLINE
  5
1D4
330
2
100
AcDbEntity
  8
0
100
AcDbSpline
210
0.0
220
0.0
230
1.0
 70
     8
 71
     3
 72
    18
 73
    14
 74
     0
 42
0.000000001
 43
0.0000000001
 40
0.0
 40
0.0
 40
0.0
 40
0.0
 40
0.0746349991548357
 40
0.1548395439389418
 40
0.2406005664235131
 40
0.3158840957673775
 40
0.3994563415326353
 40
0.4913121790366711
 40
0.5696427977482253
 40
0.6543509163889107
 40
0.7454334447899539
 40
0.8711931873049774
 40
1.0
 40
1.0
 40
1.0
 40
1.0
 10
397.565695661109
 20
225.3016517917984
 30
0.0
 10
397.5267189469927
 20
225.3184008521553
 30
0.0
 10
397.4458569290872
 20
225.3531488510359
 30
0.0
 10
397.3026130768783
 20
225.3969483380556
 30
0.0
 10
397.1484465150311
 20
225.4318290183182
 30
0.0
 10
396.9835014367634
 20
225.4573415123628
 30
0.0
 10
396.8086553863269
 20
225.4733572185109
 30
0.0
 10
396.6282754394731
 20
225.4778368637544
 30
0.0
 10
396.4473544084865
 20
225.4708246127166
 30
0.0
 10
396.2696703117481
 20
225.4529326675806
 30
0.0
 10
396.0666399262345
 20
225.4177876133779
 30
0.0
 10
395.8469611486701
 20
225.3600936955327
 30
0.0
 10
395.7115918881968
 20
225.2998418537691
 30
0.0
 10
395.6430970972608
 20
225.2693553364411
 30
0.0
  0
LINE
  5
1D5
330
2
100
AcDbEntity
  8
0
100
AcDbLine
 10
395.504644238307
 20
225.450628187574
 30
0.0
 11
395.7108001594719
 21
225.5722430282204
 31
0.0
  0
SPLINE
  5
1D6
330
2
100
AcDbEntity
  8
0
100
AcDbSpline
210
0.0
220
0.0
230
1.0
 70
     8
 71
     3
 72
    15
 73
    11
 74
     0
 42
0.000000001
 43
0.0000000001
 40
0.0
 40
0.0
 40
0.0
 40
0.0
 40
0.0963506853702077
 40
0.1952139153060608
 40
0.3009529484560993
 40
0.4195992965129645
 40
0.5552992040137715
 40
0.7004174118910596
 40
0.8498829582507035
 40
1.0
 40
1.0
 40
1.0
 40
1.0
 10
395.7108001594836
 20
225.572243028199
 30
0.0
 10
395.7248672936814
 20
225.5830516854735
 30
0.0
 10
395.7533683918664
 20
225.6049508582473
 30
0.0
 10
395.7780152720374
 20
225.6542180936958
 30
0.0
 10
395.7851589310621
 20
225.713716625414
 30
0.0
 10
395.7701927108337
 20
225.7824077883986
 30
0.0
 10
395.7311297320264
 20
225.8544660404027
 30
0.0
 10
395.6694365229055
 20
225.9224073284108
 30
0.0
 10
395.5909624371443
 20
225.9810007526912
 30
0.0
 10
395.530040407943
 20
226.0074405641942
 30
0.0
 10
395.4995131504718
 20
226.020689218972
 30
0.0
  0
SPLINE
  5
1D7
330
2
100
AcDbEntity
  8
0
100
AcDbSpline
210
0.0
220
0.0
230
1.0
 70
     8
 71
     3
 72
     9
 73
     5
 74
     0
 42
0.000000001
 43
0.0000000001
 40
0.0
 40
0.0
 40
0.0
 40
0.0
 40
0.5612185062266503
 40
1.0
 40
1.0
 40
1.0
 40
1.0
 10
395.4995131504718
 20
226.020689218972
 30
0.0
 10
395.4837624675378
 20
226.0275387022475
 30
0.0
 10
395.4556973150898
 20
226.0397433662056
 30
0.0
 10
395.4277029330426
 20
226.052107841979
 30
0.0
 10
395.4154195162707
 20
226.0575331451287
 30
0.0
  0
SPLINE
  5
1D8
330
2
100
AcDbEntity
  8
0
100
AcDbSpline
210
0.0
220
0.0
230
1.0
 70
     8
 71
     3
 72
    10
 73
     6
 74
     0
 42
0.000000001
 43
0.0000000001
 40
0.0
 40
0.0
 40
0.0
 40
0.0
 40
0.0930999734427248
 40
0.4988342748862737
 40
1.0
 40
1.0
 40
1.0
 40
1.0
 10
395.4154195162707
 20
226.0575331451287
 30
0.0
 10
395.4026107190796
 20
226.0629309871851
 30
0.0
 10
395.3339805484941
 20
226.0918528926236
 30
0.0
 10
395.1864990112538
 20
226.130571214522
 30
0.0
 10
395.0637270181194
 20
226.1216612456915
 30
0.0
 10
394.9958814859097
 20
226.1167374714505
 30
0.0
  0
LWPOLYLINE
  5
1D9
330
2
100
AcDbEntity
  8
0
100
AcDbPolyline
 90
        3
 70
   128
 43
0.0
 10
395.68091045793
 20
227.7693504495621
 10
396.7363901072324
 20
226.3874394058339
 10
397.5656956611217
 20
225.3016517918133
  0
SPLINE
  5
1DA
330
2
100
AcDbEntity
  8
0
100
AcDbSpline
210
0.0
220
0.0
230
1.0
 70
     8
 71
     3
 72
    13
 73
     9
 74
     0
 42
0.000000001
 43
0.0000000001
 40
0.0
 40
0.0
 40
0.0
 40
0.0
 40
0.1876601527488393
 40
0.4151284231506508
 40
0.545095607645532
 40
0.6858125466794398
 40
0.8374118187552777
 40
1.0
 40
1.0
 40
1.0
 40
1.0
 10
394.3711117642313
 20
228.6407402731052
 30
0.0
 10
394.4050762116956
 20
228.6527825611003
 30
0.0
 10
394.4802099431383
 20
228.6794216528488
 30
0.0
 10
394.6040421938083
 20
228.6715781928009
 30
0.0
 10
394.7164174885977
 20
228.6446202299669
 30
0.0
 10
394.8090994161344
 20
228.6078731955992
 30
0.0
 10
394.9021784748327
 20
228.5552677295668
 30
0.0
 10
394.9540124383783
 20
228.5081170367919
 30
0.0
 10
394.9808358833331
 20
228.4837171274332
 30
0.0
  0
LINE
  5
1DB
330
2
100
AcDbEntity
  8
0
100
AcDbLine
 10
394.242394484796
 20
228.4985361280044
 30
0.0
 11
394.3682213965183
 21
228.6380523325941
 31
0.0
  0
LINE
  5
1DC
330
2
100
AcDbEntity
  8
0
100
AcDbLine
 10
412.7966670469036
 20
217.686166098897
 30
0.0
 11
397.5656956611217
 21
225.3016517918133
 31
0.0
  0
LINE
  5
1DD
330
2
100
AcDbEntity
  8
0
100
AcDbLine
 10
395.7069162446487
 20
227.7563475561774
 30
0.0
 11
395.68091045793
 21
227.7693504495621
 31
0.0
  0
SPLINE
  5
1DE
330
2
100
AcDbEntity
  8
0
100
AcDbSpline
210
0.0
220
0.0
230
1.0
 70
     8
 71
     3
 72
    10
 73
     6
 74
     0
 42
0.000000001
 43
0.0000000001
 40
0.0
 40
0.0
 40
0.0
 40
0.0
 40
0.2659507742093079
 40
0.547709556091598
 40
1.0
 40
1.0
 40
1.0
 40
1.0
 10
394.2423944848167
 20
228.498536128001
 30
0.0
 10
394.1965633029501
 20
228.4531933479629
 30
0.0
 10
394.102176752094
 20
228.3598126311731
 30
0.0
 10
393.9202964440656
 20
228.2180276746167
 30
0.0
 10
393.7835910641777
 20
228.1426557875368
 30
0.0
 10
393.6993589244496
 20
228.0962147818554
 30
0.0
  0
LINE
  5
1DF
330
2
100
AcDbEntity
  8
0
100
AcDbLine
 10
394.9808358833292
 20
228.483717127441
 30
0.0
 11
395.68091045793
 21
227.7693504495621
 31
0.0
  0
LINE
  5
1E0
330
2
100
AcDbEntity
  8
0
100
AcDbLine
 10
378.4387976745033
 20
220.4659341568786
 30
0.0
 11
393.6993589244291
 21
228.096214781867
 31
0.0
  0
SPLINE
  5
1E1
330
2
100
AcDbEntity
  8
0
100
AcDbSpline
210
0.0
220
0.0
230
1.0
 70
     8
 71
     3
 72
    10
 73
     6
 74
     0
 42
0.000000001
 43
0.0000000001
 40
0.0
 40
0.0
 40
0.0
 40
0.0
 40
0.2659507742093079
 40
0.547709556091598
 40
1.0
 40
1.0
 40
1.0
 40
1.0
 10
377.8920856136557
 20
220.3233816924203
 30
0.0
 10
377.9385473659806
 20
220.3241853794779
 30
0.0
 10
378.0342325386093
 20
220.3258405244308
 30
0.0
 10
378.2175414156627
 20
220.3666501604153
 30
0.0
 10
378.3544440158502
 20
220.428082263373
 30
0.0
 10
378.4387976744813
 20
220.4659341568711
 30
0.0
  0
SPLINE
  5
1E2
330
2
100
AcDbEntity
  8
0
100
AcDbSpline
210
0.0
220
0.0
230
1.0
 70
     8
 71
     3
 72
    10
 73
     6
 74
     0
 42
0.000000001
 43
0.0000000001
 40
0.0
 40
0.0
 40
0.0
 40
0.0
 40
0.5641997453084447
 40
0.8529006682550852
 40
1.0
 40
1.0
 40
1.0
 40
1.0
 10
377.8920856136557
 20
220.3233816924203
 30
0.0
 10
377.8673311526079
 20
220.3252940660304
 30
0.0
 10
377.8299098376467
 20
220.3281850009225
 30
0.0
 10
377.787242164763
 20
220.335421772834
 30
0.0
 10
377.7677592072631
 20
220.3356865116875
 30
0.0
 10
377.7611829604671
 20
220.3357758712232
 30
0.0
  0
LINE
  5
1E3
330
2
100
AcDbEntity
  8
0
100
AcDbLine
 10
379.9950288301112
 20
218.6399281232971
 30
0.0
 11
394.8682313695913
 21
226.0765293930626
 31
0.0
  0
SPLINE
  5
1E4
330
2
100
AcDbEntity
  8
0
100
AcDbSpline
210
0.0
220
0.0
230
1.0
 70
     8
 71
     3
 72
     9
 73
     5
 74
     0
 42
0.000000001
 43
0.0000000001
 40
0.0
 40
0.0
 40
0.0
 40
0.0
 40
0.5599449636556175
 40
1.0
 40
1.0
 40
1.0
 40
1.0
 10
379.8954419866768
 20
218.5665177218341
 30
0.0
 10
379.9118754231799
 20
218.5822895882316
 30
0.0
 10
379.9412237298347
 20
218.6104564035816
 30
0.0
 10
379.978586954808
 20
218.6309220934309
 30
0.0
 10
379.9950288301313
 20
218.6399281233212
 30
0.0
  0
SPLINE
  5
1E5
330
2
100
AcDbEntity
  8
0
100
AcDbSpline
210
0.0
220
0.0
230
1.0
 70
     8
 71
     3
 72
     9
 73
     5
 74
     0
 42
0.000000001
 43
0.0000000001
 40
0.0
 40
0.0
 40
0.0
 40
0.0
 40
0.5599449636556175
 40
1.0
 40
1.0
 40
1.0
 40
1.0
 10
394.9958814859097
 20
226.1167374714505
 30
0.0
 10
394.9704704124108
 20
226.1115870828471
 30
0.0
 10
394.9250890354037
 20
226.1023890563663
 30
0.0
 10
394.8856060542839
 20
226.084431643169
 30
0.0
 10
394.8682313695924
 20
226.0765293930517
 30
0.0
  0
LINE
  5
1E6
330
2
100
AcDbEntity
  8
0
100
AcDbLine
 10
377.8021016260682
 20
220.8359487226405
 30
0.0
 11
377.8003955622048
 21
220.8350267549972
 31
0.0
  0
LWPOLYLINE
  5
1E7
330
2
100
AcDbEntity
  8
0
100
AcDbPolyline
 90
        9
 70
   128
 43
0.0
 10
391.5248967048094
 20
222.4977216762184
 10
391.4627427832278
 20
222.5442316638764
 10
391.4409169872781
 20
222.5990938416162
 10
391.4627427832278
 20
222.6539560194069
 10
391.5248964361051
 20
222.7004658726873
 10
391.6179164114217
 20
222.7315428335037
 10
391.7276404982477
 20
222.7424555971011
 10
391.8373651224824
 20
222.7315428335037
 10
391.9303850977478
 20
222.7004658726873
  0
LINE
  5
1E8
330
2
100
AcDbEntity
  8
0
100
AcDbLine
 10
407.2472639188523
 20
214.6365380691968
 30
0.0
 11
391.5248967048094
 21
222.4977216762184
 31
0.0
  0
LWPOLYLINE
  5
1E9
330
2
100
AcDbEntity
  8
0
100
AcDbPolyline
 90
        9
 70
   128
 43
0.0
 10
407.6527523117908
 20
214.839282265666
 10
407.7149062333726
 20
214.7927722780587
 10
407.7367317606179
 20
214.7379099659413
 10
407.7149062333726
 20
214.6830479225282
 10
407.6527517744332
 20
214.6365382035233
 10
407.5597326051788
 20
214.6054611084314
 10
407.4500082496482
 20
214.5945482104567
 10
407.3402838941178
 20
214.6054611084314
 10
407.2472639188523
 20
214.6365380691968
  0
LINE
  5
1EA
330
2
100
AcDbEntity
  8
0
100
AcDbLine
 10
391.9303850977478
 20
222.7004658726873
 30
0.0
 11
407.6527523117908
 21
214.839282265666
 31
0.0
  0
LWPOLYLINE
  5
1EB
330
2
100
AcDbEntity
  8
0
100
AcDbPolyline
 90
       10
 70
   128
 43
0.0
 10
412.6800372971105
 20
216.7386364482425
 10
412.8230865876758
 20
216.8238762349417
 10
412.9343595655674
 20
216.9202411700658
 10
413.0104747316797
 20
217.024803540558
 10
413.0491188245501
 20
217.1343863062543
 10
413.0491188245501
 20
217.2456592841463
 10
413.0104741943219
 20
217.3552412437805
 10
412.9343595655674
 20
217.4598033456193
 10
412.8230865876758
 20
217.5561682807436
 10
412.6800362224463
 20
217.6414086048003
  0
LINE
  5
1EC
330
2
100
AcDbEntity
  8
0
100
AcDbLine
 10
412.6800362224463
 20
217.6414086048003
 30
0.0
 11
397.5346372386591
 21
225.214108096694
 31
0.0
  0
ARC
  5
1ED
330
2
100
AcDbEntity
  8
0
100
AcDbCircle
 10
396.631865049412
 20
223.1891326388641
 30
0.0
 40
2.217097929819142
100
AcDbArc
 50
65.97178720280638
 51
114.0281957455935
  0
LINE
  5
1EE
330
2
100
AcDbEntity
  8
0
100
AcDbLine
 10
395.7290934628497
 20
225.2141083653473
 30
0.0
 11
392.2672878426652
 21
223.4832055552549
 31
0.0
  0
LWPOLYLINE
  5
1EF
330
2
100
AcDbEntity
  8
0
100
AcDbPolyline
 90
       10
 70
   128
 43
0.0
 10
392.2672878426652
 20
223.4832055552549
 10
392.1242380147423
 20
223.3979654999025
 10
392.012965574208
 20
223.301600296074
 10
391.9368501394426
 20
223.1970383286127
 10
391.8982055092144
 20
223.0874558316209
 10
391.8982057778678
 20
222.9761829880554
 10
391.9368506767492
 20
222.8666006253902
 10
392.0129653055037
 20
222.7620385235514
 10
392.1242380147423
 20
222.6656734541005
 10
392.2672878426652
 20
222.5804333986971
  0
LINE
  5
1F0
330
2
100
AcDbEntity
  8
0
100
AcDbLine
 10
392.2672878426652
 20
222.5804333986971
 30
0.0
 11
407.4126868264523
 21
215.0077339068034
 31
0.0
  0
LINE
  5
1F1
330
2
100
AcDbEntity
  8
0
100
AcDbLine
 10
407.4126868264523
 20
215.0077339068034
 30
0.0
 11
407.5564824863663
 21
214.9458096993103
 31
0.0
  0
LINE
  5
1F2
330
2
100
AcDbEntity
  8
0
100
AcDbLine
 10
409.0744352110008
 20
214.9458095649836
 30
0.0
 11
409.2182316769258
 21
215.00773363815
 31
0.0
  0
LINE
  5
1F3
330
2
100
AcDbEntity
  8
0
100
AcDbLine
 10
409.2182316769258
 20
215.00773363815
 30
0.0
 11
412.6800372971105
 21
216.7386364482425
 31
0.0
  0
LINE
  5
1F4
330
2
100
AcDbEntity
  8
0
100
AcDbLine
 10
401.4775877956772
 20
211.7517000075836
 30
0.0
 11
385.7552205815832
 21
219.6128836146561
 31
0.0
  0
LWPOLYLINE
  5
1F5
330
2
100
AcDbEntity
  8
0
100
AcDbPolyline
 90
        9
 70
   128
 43
0.0
 10
401.8830761886156
 20
211.9544442040528
 10
401.9452301101971
 20
211.9079342164455
 10
401.9670559060958
 20
211.8530720386547
 10
401.9452301101971
 20
211.798209860915
 10
401.8830759199113
 20
211.7517002762879
 10
401.7900564820036
 20
211.7206230468182
 10
401.6803323951263
 20
211.7097102831701
 10
401.5706077709426
 20
211.7206230468182
 10
401.4775877956772
 20
211.7517000075836
  0
LINE
  5
1F6
330
2
100
AcDbEntity
  8
0
100
AcDbLine
 10
386.1607089745216
 20
219.8156278111253
 30
0.0
 11
401.8830761886156
 21
211.9544442040528
 31
0.0
  0
LWPOLYLINE
  5
1F7
330
2
100
AcDbEntity
  8
0
100
AcDbPolyline
 90
        9
 70
   128
 43
0.0
 10
385.7552205815832
 20
219.6128836146561
 10
385.6930666600015
 20
219.6593936022632
 10
385.671241132756
 20
219.7142559143808
 10
385.6930666600015
 20
219.7691179577937
 10
385.7552205815832
 20
219.815627945452
 10
385.8482402881954
 20
219.8467047718906
 10
385.9579646437257
 20
219.8576176698655
 10
386.0676889992562
 20
219.8467047718906
 10
386.1607089745216
 20
219.8156278111253
  0
LINE
  5
1F8
330
2
100
AcDbEntity
  8
0
100
AcDbLine
 10
395.8733351174083
 20
209.2380580522813
 30
0.0
 11
396.0171307773223
 21
209.1761338447884
 31
0.0
  0
LINE
  5
1F9
330
2
100
AcDbEntity
  8
0
100
AcDbLine
 10
397.5350832333035
 20
209.176133576135
 30
0.0
 11
397.6788794305242
 21
209.2380575149237
 31
0.0
  0
LINE
  5
1FA
330
2
100
AcDbEntity
  8
0
100
AcDbLine
 10
397.6788794305242
 20
209.2380575149237
 30
0.0
 11
401.1406850507088
 21
210.968960325016
 31
0.0
  0
LWPOLYLINE
  5
1FB
330
2
100
AcDbEntity
  8
0
100
AcDbPolyline
 90
       10
 70
   128
 43
0.0
 10
401.1406850507088
 20
210.968960325016
 10
401.2837348786318
 20
211.0542003804196
 10
401.3950078565236
 20
211.1505653155439
 10
401.4711227539826
 20
211.2551275517094
 10
401.5097668468528
 20
211.3647103173546
 10
401.5097665781486
 20
211.4759831609708
 10
401.4711222166249
 20
211.5855652549319
 10
401.3950075878703
 20
211.6901273567705
 10
401.2837348786318
 20
211.7864924262215
 10
401.1406845134024
 20
211.8717327502784
  0
LINE
  5
1FC
330
2
100
AcDbEntity
  8
0
100
AcDbLine
 10
401.1406845134024
 20
211.8717327502784
 30
0.0
 11
385.9952855296151
 21
219.4444322421721
 31
0.0
  0
ARC
  5
1FD
330
2
100
AcDbEntity
  8
0
100
AcDbCircle
 10
385.0925133730061
 20
217.4194553703423
 30
0.0
 40
2.217099208017673
100
AcDbArc
 50
65.97180285299756
 51
114.0281971470024
  0
LINE
  5
1FE
330
2
100
AcDbEntity
  8
0
100
AcDbLine
 10
384.1897412164483
 20
219.4444322421721
 30
0.0
 11
380.7279355962635
 21
217.7135294320797
 31
0.0
  0
LWPOLYLINE
  5
1FF
330
2
100
AcDbEntity
  8
0
100
AcDbPolyline
 90
       10
 70
   128
 43
0.0
 10
380.7279355962635
 20
217.7135294320797
 10
380.5848863056983
 20
217.6282896453804
 10
380.4736138651641
 20
217.5319244415518
 10
380.3974981616941
 20
217.4273623397642
 10
380.3588535315171
 20
217.3177798427721
 10
380.3588535315171
 20
217.2065068648292
 10
380.3974986990518
 20
217.0969246364905
 10
380.4736133278063
 20
216.9923625347028
 10
380.5848863056983
 20
216.8959975995786
 10
380.7279361336211
 20
216.810757544175
  0
LINE
  5
200
330
2
100
AcDbEntity
  8
0
100
AcDbLine
 10
380.7279361336211
 20
216.810757544175
 30
0.0
 11
395.8733351174083
 21
209.2380580522813
 31
0.0
  0
LINE
  5
201
330
2
100
AcDbEntity
  8
0
100
AcDbLine
 10
401.6430109719303
 20
212.1228959795678
 30
0.0
 11
401.7868066318444
 21
212.0609717720749
 31
0.0
  0
LINE
  5
202
330
2
100
AcDbEntity
  8
0
100
AcDbLine
 10
403.304759356479
 20
212.0609716377483
 30
0.0
 11
403.4485555537504
 21
212.1228955765368
 31
0.0
  0
LINE
  5
203
330
2
100
AcDbEntity
  8
0
100
AcDbLine
 10
403.4485555537504
 20
212.1228955765368
 30
0.0
 11
406.9103611739353
 21
213.8537983866292
 31
0.0
  0
LWPOLYLINE
  5
204
330
2
100
AcDbEntity
  8
0
100
AcDbPolyline
 90
       10
 70
   128
 43
0.0
 10
406.9103611739353
 20
213.8537983866292
 10
407.0534107331535
 20
213.9390383076552
 10
407.1646838454232
 20
214.0354033099936
 10
407.240798742831
 20
214.1399655461591
 10
407.2794427013749
 20
214.2495482446411
 10
407.2794427013749
 20
214.3608212225331
 10
407.2407983398001
 20
214.4704033165449
 10
407.1646837110455
 20
214.5749654183328
 10
407.0534107331535
 20
214.671330353508
 10
406.9103603679243
 20
214.7565706775649
  0
LINE
  5
205
330
2
100
AcDbEntity
  8
0
100
AcDbLine
 10
406.9103603679243
 20
214.7565706775649
 30
0.0
 11
391.7649613841372
 21
222.3292701694586
 31
0.0
  0
ARC
  5
206
330
2
100
AcDbEntity
  8
0
100
AcDbCircle
 10
390.862189211209
 20
220.3042945043248
 30
0.0
 40
2.217098112499287
100
AcDbArc
 50
65.97178976940582
 51
114.0282017047974
  0
LINE
  5
207
330
2
100
AcDbEntity
  8
0
100
AcDbLine
 10
389.9594173396745
 20
222.329270303785
 30
0.0
 11
386.4976117194899
 21
220.5983674936929
 31
0.0
  0
LWPOLYLINE
  5
208
330
2
100
AcDbEntity
  8
0
100
AcDbPolyline
 90
       10
 70
   128
 43
0.0
 10
386.4976117194899
 20
220.5983674936929
 10
386.3545621602203
 20
220.5131275726158
 10
386.2432895853593
 20
220.4167623016751
 10
386.1671741505938
 20
220.312200334163
 10
386.1285296546926
 20
220.2026179043344
 10
386.1285296546926
 20
220.0913449264424
 10
386.1671745535738
 20
219.981762563777
 10
386.2432891823285
 20
219.8772004619382
 10
386.3545621602203
 20
219.7808355268139
 10
386.4976119881431
 20
219.6955954714615
  0
LINE
  5
209
330
2
100
AcDbEntity
  8
0
100
AcDbLine
 10
386.4976119881431
 20
219.6955954714615
 30
0.0
 11
401.6430109719303
 21
212.1228959795678
 31
0.0
  0
LINE
  5
20A
330
2
100
AcDbEntity
  8
0
100
AcDbLine
 10
397.7299759089064
 20
209.2113749448079
 30
0.0
 11
412.7334024374443
 21
216.713088209026
 31
0.0
  0
LINE
  5
20B
330
2
100
AcDbEntity
  8
0
100
AcDbLine
 10
380.6383395702864
 20
216.8087451948263
 30
0.0
 11
395.8693109560683
 21
209.1932595019607
 31
0.0
  0
SPLINE
  5
20C
330
2
100
AcDbEntity
  8
0
100
AcDbSpline
210
0.0
220
0.0
230
1.0
 70
     8
 71
     3
 72
    13
 73
     9
 74
     0
 42
0.000000001
 43
0.0000000001
 40
0.0
 40
0.0
 40
0.0
 40
0.0
 40
0.1881179846244137
 40
0.3764384081751067
 40
0.5642854932740259
 40
0.7117081376493096
 40
0.8572510230869653
 40
1.0
 40
1.0
 40
1.0
 40
1.0
 10
412.7334024374331
 20
216.7130882090394
 30
0.0
 10
412.8169484919103
 20
216.7625876263378
 30
0.0
 10
412.9841305070673
 20
216.8616397286157
 30
0.0
 10
413.1150796004692
 20
217.0473215320503
 30
0.0
 10
413.1406424622277
 20
217.2280947577024
 30
0.0
 10
413.0765837054066
 20
217.3905355277962
 30
0.0
 10
412.9584888331953
 20
217.5294102014102
 30
0.0
 10
412.8321771203498
 20
217.6056635207815
 30
0.0
 10
412.7696333231233
 20
217.6434206854747
 30
0.0
  0
LINE
  5
20D
330
2
100
AcDbEntity
  8
0
100
AcDbLine
 10
380.6396705687746
 20
217.7676420721666
 30
0.0
 11
395.6430970972617
 21
225.2693553364356
 31
0.0
  0
LINE
  5
20E
330
2
100
AcDbEntity
  8
0
100
AcDbLine
 10
395.504644238307
 20
225.450628187574
 30
0.0
 11
380.4804644504272
 21
217.9385382936593
 31
0.0
  0
SPLINE
  5
20F
330
2
100
AcDbEntity
  8
0
100
AcDbSpline
210
0.0
220
0.0
230
1.0
 70
     8
 71
     3
 72
    11
 73
     7
 74
     0
 42
0.000000001
 43
0.0000000001
 40
0.0
 40
0.0
 40
0.0
 40
0.0
 40
0.249997753432385
 40
0.4999983069265831
 40
0.7499972483589489
 40
1.0
 40
1.0
 40
1.0
 40
1.0
 10
412.7696333231233
 20
217.6434206854747
 30
0.0
 10
412.7729204321766
 20
217.6454881612778
 30
0.0
 10
412.7794946871001
 20
217.6496231360404
 30
0.0
 10
412.7880180120037
 20
217.6604736613665
 30
0.0
 10
412.7944131876015
 20
217.6732125170829
 30
0.0
 10
412.7959157566476
 20
217.6818482163619
 30
0.0
 10
412.7966670468955
 20
217.686166098905
 30
0.0
  0
LINE
  5
210
330
2
100
AcDbEntity
  8
0
100
AcDbLine
 10
393.004662346769
 20
221.9292217361453
 30
0.0
 11
393.9422347134211
 21
221.4604355528193
 31
0.0
  0
LINE
  5
211
330
2
100
AcDbEntity
  8
0
100
AcDbLine
 10
395.3846536770388
 20
220.7392260709848
 30
0.0
 11
396.322226077298
 21
220.2704398708807
 31
0.0
  0
LINE
  5
212
330
2
100
AcDbEntity
  8
0
100
AcDbLine
 10
397.7646451416863
 20
219.5492303386611
 30
0.0
 11
398.7022173740117
 21
219.0804442224985
 31
0.0
  0
LINE
  5
213
330
2
100
AcDbEntity
  8
0
100
AcDbLine
 10
401.0822087042814
 20
217.8904485573889
 30
0.0
 11
400.1446363376294
 21
218.359234740715
 31
0.0
  0
LINE
  5
214
330
2
100
AcDbEntity
  8
0
100
AcDbLine
 10
403.4622000346023
 20
216.7004528922285
 30
0.0
 11
402.5246279366034
 21
217.1692389412278
 31
0.0
  0
LINE
  5
215
330
2
100
AcDbEntity
  8
0
100
AcDbLine
 10
405.8421919022298
 20
215.5104569584148
 30
0.0
 11
404.9046192668734
 21
215.9792432760676
 31
0.0
  0
LINE
  5
216
330
2
100
AcDbEntity
  8
0
100
AcDbLine
 10
387.2349864922469
 20
219.0443838088588
 30
0.0
 11
388.172558858899
 21
218.5755976255328
 31
0.0
  0
LINE
  5
217
330
2
100
AcDbEntity
  8
0
100
AcDbLine
 10
389.6149778225167
 20
217.8543881437495
 30
0.0
 11
390.552550222776
 21
217.3856019435943
 31
0.0
  0
LINE
  5
218
330
2
100
AcDbEntity
  8
0
100
AcDbLine
 10
391.9949692871644
 20
216.6643924114255
 30
0.0
 11
392.9325415194896
 21
216.1956062952629
 31
0.0
  0
LINE
  5
219
330
2
100
AcDbEntity
  8
0
100
AcDbLine
 10
395.3125328497595
 20
215.0056106301025
 30
0.0
 11
394.3749604831075
 21
215.4743968134285
 31
0.0
  0
LINE
  5
21A
330
2
100
AcDbEntity
  8
0
100
AcDbLine
 10
397.6925241800805
 20
213.8156149649422
 30
0.0
 11
396.7549520820817
 21
214.2844010139415
 31
0.0
  0
LINE
  5
21B
330
2
100
AcDbEntity
  8
0
100
AcDbLine
 10
400.0725160477078
 20
212.6256190311283
 30
0.0
 11
399.1349434123515
 21
213.094405348832
 31
0.0
  0
LINE
  5
21C
330
2
100
AcDbEntity
  8
0
100
AcDbLine
 10
380.3554182980245
 20
217.0053213849058
 30
0.0
 11
380.3870377065026
 21
216.9761906899753
 31
0.0
  0
SPLINE
  5
21D
330
2
100
AcDbEntity
  8
0
100
AcDbSpline
210
0.0
220
0.0
230
1.0
 70
     8
 71
     3
 72
     9
 73
     5
 74
     0
 42
0.000000001
 43
0.0000000001
 40
0.0
 40
0.0
 40
0.0
 40
0.0
 40
0.4981670646736506
 40
1.0
 40
1.0
 40
1.0
 40
1.0
 10
379.8232349158541
 20
218.2614408449203
 30
0.0
 10
379.8150597738945
 20
218.3184087900099
 30
0.0
 10
379.7986493314159
 20
218.4327638911989
 30
0.0
 10
379.8630990135237
 20
218.5218242836627
 30
0.0
 10
379.8954419866768
 20
218.5665177218341
 30
0.0
  0
SPLINE
  5
21E
330
2
100
AcDbEntity
  8
0
100
AcDbSpline
210
0.0
220
0.0
230
1.0
 70
     8
 71
     3
 72
     9
 73
     5
 74
     0
 42
0.000000001
 43
0.0000000001
 40
0.0
 40
0.0
 40
0.0
 40
0.0
 40
0.5612185062266503
 40
1.0
 40
1.0
 40
1.0
 40
1.0
 10
379.8413922714494
 20
218.1916287794607
 30
0.0
 10
379.8379747130066
 20
218.2046448249816
 30
0.0
 10
379.8318851803113
 20
218.2278372988162
 30
0.0
 10
379.8258729647703
 20
218.2511928578429
 30
0.0
 10
379.8232349158541
 20
218.2614408449203
 30
0.0
  0
SPLINE
  5
21F
330
2
100
AcDbEntity
  8
0
100
AcDbSpline
210
0.0
220
0.0
230
1.0
 70
     8
 71
     3
 72
    15
 73
    11
 74
     0
 42
0.000000001
 43
0.0000000001
 40
0.0
 40
0.0
 40
0.0
 40
0.0
 40
0.0963500667475964
 40
0.1952137430236497
 40
0.3009513890010173
 40
0.4195970884730297
 40
0.5548840463532752
 40
0.7004194763930057
 40
0.8483506165652773
 40
1.0
 40
1.0
 40
1.0
 40
1.0
 10
380.2702612621223
 20
217.8519735795183
 30
0.0
 10
380.2544612172842
 20
217.8478486379945
 30
0.0
 10
380.2224489312846
 20
217.8394911422314
 30
0.0
 10
380.1634295358553
 20
217.8469248078818
 30
0.0
 10
380.0988126447716
 20
217.8705435761608
 30
0.0
 10
380.0303723030765
 20
217.9124114748147
 30
0.0
 10
379.9637078395053
 20
217.9706526569564
 30
0.0
 10
379.9063055689942
 20
218.0403997274518
 30
0.0
 10
379.8618702538099
 20
218.11612021518
 30
0.0
 10
379.8482745134074
 20
218.1662518551068
 30
0.0
 10
379.8413922714494
 20
218.1916287794607
 30
0.0
  0
LINE
  5
220
330
2
100
AcDbEntity
  8
0
100
AcDbLine
 10
380.4804644504272
 20
217.9385382936593
 30
0.0
 11
380.2702612621054
 21
217.8519735795374
 31
0.0
  0
SPLINE
  5
221
330
2
100
AcDbEntity
  8
0
100
AcDbSpline
210
0.0
220
0.0
230
1.0
 70
     8
 71
     3
 72
    12
 73
     8
 74
     0
 42
0.000000001
 43
0.0000000001
 40
0.0
 40
0.0
 40
0.0
 40
0.0
 40
0.2620657166820361
 40
0.5797205898477622
 40
0.7612186367206457
 40
0.9577282938305248
 40
1.0
 40
1.0
 40
1.0
 40
1.0
 10
377.7611829604671
 20
220.3357758712232
 30
0.0
 10
377.7327663657333
 20
220.3166135178269
 30
0.0
 10
377.6699054724084
 20
220.2742241089627
 30
0.0
 10
377.6330489944383
 20
220.1862689854058
 30
0.0
 10
377.6313957129528
 20
220.1017235128522
 30
0.0
 10
377.6402673608261
 20
220.0484029304828
 30
0.0
 10
377.6558343761014
 20
220.0188792176652
 30
0.0
 10
377.658590220555
 20
220.0136526049341
 30
0.0
  0
LWPOLYLINE
  5
222
330
2
100
AcDbEntity
  8
0
100
AcDbPolyline
 90
        3
 70
   128
 43
0.0
 10
414.7408861416574
 20
217.1087285328785
 10
414.0530076399651
 20
216.9685518690992
 10
413.5125309067144
 20
216.8584127610409
  0
SPLINE
  5
223
330
2
100
AcDbEntity
  8
0
100
AcDbSpline
210
0.0
220
0.0
230
1.0
 70
     8
 71
     3
 72
     9
 73
     5
 74
     0
 42
0.000000001
 43
0.0000000001
 40
0.0
 40
0.0
 40
0.0
 40
0.0
 40
0.4981676506482719
 40
1.0
 40
1.0
 40
1.0
 40
1.0
 10
413.5847374401968
 20
216.9728741831654
 30
0.0
 10
413.5929128285645
 20
216.9583554932947
 30
0.0
 10
413.6093237463687
 20
216.9292113088986
 30
0.0
 10
413.5448739163372
 20
216.8820698633956
 30
0.0
 10
413.5125309067173
 20
216.8584127610468
 30
0.0
  0
SPLINE
  5
224
330
2
100
AcDbEntity
  8
0
100
AcDbSpline
210
0.0
220
0.0
230
1.0
 70
     8
 71
     3
 72
     9
 73
     5
 74
     0
 42
0.000000001
 43
0.0000000001
 40
0.0
 40
0.0
 40
0.0
 40
0.0
 40
0.5612286742246725
 40
1.0
 40
1.0
 40
1.0
 40
1.0
 10
413.5665806219446
 20
216.9871554832355
 30
0.0
 10
413.5699984993199
 20
216.984420696788
 30
0.0
 10
413.5760884899643
 20
216.9795478409042
 30
0.0
 10
413.5820998345592
 20
216.9749093986311
 30
0.0
 10
413.5847374401968
 20
216.9728741831654
 30
0.0
  0
SPLINE
  5
225
330
2
100
AcDbEntity
  8
0
100
AcDbSpline
210
0.0
220
0.0
230
1.0
 70
     8
 71
     3
 72
    15
 73
    11
 74
     0
 42
0.000000001
 43
0.0000000001
 40
0.0
 40
0.0
 40
0.0
 40
0.0
 40
0.0963500419792624
 40
0.1952132951134786
 40
0.3009522028863439
 40
0.4195962000278712
 40
0.5548840816114755
 40
0.7004204845964399
 40
0.8483515867406335
 40
1.0
 40
1.0
 40
1.0
 40
1.0
 10
413.1377116312716
 20
216.8587872923049
 30
0.0
 10
413.1535117174324
 20
216.8687291014471
 30
0.0
 10
413.1855240219338
 20
216.8888720436007
 30
0.0
 10
413.2445429169854
 20
216.9209552890445
 30
0.0
 10
413.3091604209981
 20
216.9517156318729
 30
0.0
 10
413.3776004018621
 20
216.9786308710077
 30
0.0
 10
413.4442650911688
 20
216.9978715653742
 30
0.0
 10
413.5016677570859
 20
217.0061356603282
 30
0.0
 10
413.5461031910407
 20
217.0033999102439
 30
0.0
 10
413.5596985791742
 20
216.9926149005801
 30
0.0
 10
413.5665806219446
 20
216.9871554832355
 30
0.0
  0
LINE
  5
226
330
2
100
AcDbEntity
  8
0
100
AcDbLine
 10
412.927508442998
 20
216.7391960852285
 30
0.0
 11
413.1377116312688
 21
216.8587872923222
 31
0.0
  0
SPLINE
  5
227
330
2
100
AcDbEntity
  8
0
100
AcDbSpline
210
0.0
220
0.0
230
1.0
 70
     8
 71
     3
 72
     9
 73
     5
 74
     0
 42
0.000000001
 43
0.0000000001
 40
0.0
 40
0.0
 40
0.0
 40
0.0
 40
0.5279284598132907
 40
1.0
 40
1.0
 40
1.0
 40
1.0
 10
395.8693109560575
 20
209.1932595019418
 30
0.0
 10
395.866065767076
 20
209.1919237835937
 30
0.0
 10
395.8599187429459
 20
209.1893936711831
 30
0.0
 10
395.8548262759184
 20
209.1913399110595
 30
0.0
 10
395.8524222671654
 20
209.1922586755154
 30
0.0
  0
LINE
  5
228
330
2
100
AcDbEntity
  8
0
100
AcDbLine
 10
397.903328655118
 20
209.2271061913141
 30
0.0
 11
412.927508442998
 21
216.7391960852285
 31
0.0
  0
LWPOLYLINE
  5
229
330
2
100
AcDbEntity
  8
0
100
AcDbPolyline
 90
        3
 70
   128
 43
0.0
 10
412.9396996798411
 20
216.7432419147742
 10
412.9426287362156
 20
216.7448464190654
 10
412.9474857791372
 20
216.7481985766708
  0
SPLINE
  5
22A
330
2
100
AcDbEntity
  8
0
100
AcDbSpline
210
0.0
220
0.0
230
1.0
 70
     8
 71
     3
 72
     9
 73
     5
 74
     0
 42
0.000000001
 43
0.0000000001
 40
0.0
 40
0.0
 40
0.0
 40
0.0
 40
0.5599448217175414
 40
1.0
 40
1.0
 40
1.0
 40
1.0
 10
398.4120914074845
 20
209.3081930114304
 30
0.0
 10
398.4375024206613
 20
209.3194760929771
 30
0.0
 10
398.4828837014437
 20
209.3396264383491
 30
0.0
 10
398.5223671605211
 20
209.359031993002
 30
0.0
 10
398.5397420611448
 20
209.3675715078143
 30
0.0
  0
LINE
  5
22B
330
2
100
AcDbEntity
  8
0
100
AcDbLine
 10
413.4129446006206
 20
216.804172777548
 30
0.0
 11
398.5397420611406
 21
209.3675715078334
 31
0.0
  0
SPLINE
  5
22C
330
2
100
AcDbEntity
  8
0
100
AcDbSpline
210
0.0
220
0.0
230
1.0
 70
     8
 71
     3
 72
     9
 73
     5
 74
     0
 42
0.000000001
 43
0.0000000001
 40
0.0
 40
0.0
 40
0.0
 40
0.0
 40
0.5599448217175414
 40
1.0
 40
1.0
 40
1.0
 40
1.0
 10
413.5125309067173
 20
216.8584127610468
 30
0.0
 10
413.4960974029245
 20
216.8487735841088
 30
0.0
 10
413.4667489686586
 20
216.8315590719567
 30
0.0
 10
413.4293862558513
 20
216.8125415406671
 30
0.0
 10
413.4129446006055
 20
216.8041727775449
 30
0.0
  0
SPLINE
  5
22D
330
2
100
AcDbEntity
  8
0
100
AcDbSpline
210
0.0
220
0.0
230
1.0
 70
     8
 71
     3
 72
     9
 73
     5
 74
     0
 42
0.000000001
 43
0.0000000001
 40
0.0
 40
0.0
 40
0.0
 40
0.0
 40
0.6314850725953476
 40
1.0
 40
1.0
 40
1.0
 40
1.0
 10
415.5168061361811
 20
217.7593121866294
 30
0.0
 10
415.5376752967694
 20
217.7494129005297
 30
0.0
 10
415.5707230464215
 20
217.733736700839
 30
0.0
 10
415.5804564262912
 20
217.747231307635
 30
0.0
 10
415.5840433220671
 20
217.7522042716789
 30
0.0
  0
LINE
  5
22E
330
2
100
AcDbEntity
  8
0
100
AcDbLine
 10
414.8163957222439
 20
217.1359709586566
 30
0.0
 11
414.8055951289538
 21
217.1302168179534
 31
0.0
  0
SPLINE
  5
22F
330
2
100
AcDbEntity
  8
0
100
AcDbSpline
210
0.0
220
0.0
230
1.0
 70
     8
 71
     3
 72
    11
 73
     7
 74
     0
 42
0.000000001
 43
0.0000000001
 40
0.0
 40
0.0
 40
0.0
 40
0.0
 40
0.1820324079608019
 40
0.5356891027403412
 40
0.9138482102410932
 40
1.0
 40
1.0
 40
1.0
 40
1.0
 10
395.8957057790633
 20
209.1839878260641
 30
0.0
 10
395.9173905761334
 20
209.1734380998328
 30
0.0
 10
395.9812050892503
 20
209.1423921259738
 30
0.0
 10
396.1059865694561
 20
209.100146088985
 30
0.0
 10
396.222955606378
 20
209.0668055056735
 30
0.0
 10
396.2940552399973
 20
209.0542665195846
 30
0.0
 10
396.3072476089977
 20
209.0519399403472
 30
0.0
  0
LINE
  5
230
330
2
100
AcDbEntity
  8
0
100
AcDbLine
 10
397.903328655118
 20
209.2271061913141
 30
0.0
 11
397.6971727339021
 21
209.1385178436389
 31
0.0
  0
SPLINE
  5
231
330
2
100
AcDbEntity
  8
0
100
AcDbSpline
210
0.0
220
0.0
230
1.0
 70
     8
 71
     3
 72
    13
 73
     9
 74
     0
 42
0.000000001
 43
0.0000000001
 40
0.0
 40
0.0
 40
0.0
 40
0.0
 40
0.0630435821650891
 40
0.2604290384087422
 40
0.4861919420986723
 40
0.7276205892537064
 40
0.9762817681762754
 40
1.0
 40
1.0
 40
1.0
 40
1.0
 10
397.6288178746902
 20
209.1113931653388
 30
0.0
 10
397.6277158854373
 20
209.1107160289207
 30
0.0
 10
397.6231636377439
 20
209.1079188213353
 30
0.0
 10
397.6388781806916
 20
209.1090091967769
 30
0.0
 10
397.6763943513586
 20
209.1139991069997
 30
0.0
 10
397.7391292133633
 20
209.1247030994446
 30
0.0
 10
397.7918627557992
 20
209.13391785358
 30
0.0
 10
397.8245597466064
 20
209.1407190750603
 30
0.0
 10
397.8274069324705
 20
209.1413113112624
 30
0.0
  0
SPLINE
  5
232
330
2
100
AcDbEntity
  8
0
100
AcDbSpline
210
0.0
220
0.0
230
1.0
 70
     8
 71
     3
 72
     9
 73
     5
 74
     0
 42
0.000000001
 43
0.0000000001
 40
0.0
 40
0.0
 40
0.0
 40
0.0
 40
0.5612286742246725
 40
1.0
 40
1.0
 40
1.0
 40
1.0
 10
397.9084597429223
 20
209.1580950437242
 30
0.0
 10
397.9242106018348
 20
209.1615267480454
 30
0.0
 10
397.952275559375
 20
209.1676413756095
 30
0.0
 10
397.9802697789454
 20
209.173994370824
 30
0.0
 10
397.9925528397805
 20
209.1767818829571
 30
0.0
  0
SPLINE
  5
233
330
2
100
AcDbEntity
  8
0
100
AcDbSpline
210
0.0
220
0.0
230
1.0
 70
     8
 71
     3
 72
    10
 73
     6
 74
     0
 42
0.000000001
 43
0.0000000001
 40
0.0
 40
0.0
 40
0.0
 40
0.0
 40
0.0930998681767856
 40
0.4988348415425122
 40
1.0
 40
1.0
 40
1.0
 40
1.0
 10
397.9925528397805
 20
209.1767818829571
 30
0.0
 10
398.0053616365692
 20
209.1797553095598
 30
0.0
 10
398.0739919605601
 20
209.195687112873
 30
0.0
 10
398.2214737521142
 20
209.2338335344564
 30
0.0
 10
398.3442458834752
 20
209.2817266399363
 30
0.0
 10
398.4120914074845
 20
209.3081930114304
 30
0.0
  0
LINE
  5
234
330
2
100
AcDbEntity
  8
0
100
AcDbLine
 10
426.9046335817034
 20
224.8712624279599
 30
0.0
 11
427.3666141822056
 21
224.6402721276834
 31
0.0
  0
SPLINE
  5
235
330
2
100
AcDbEntity
  8
0
100
AcDbSpline
210
0.0
220
0.0
230
1.0
 70
     8
 71
     3
 72
     9
 73
     5
 74
     0
 42
0.000000001
 43
0.0000000001
 40
0.0
 40
0.0
 40
0.0
 40
0.0
 40
0.5666275815544095
 40
1.0
 40
1.0
 40
1.0
 40
1.0
 10
427.3666141822238
 20
224.640272127689
 30
0.0
 10
427.3636216738954
 20
224.7803236617301
 30
0.0
 10
427.3583404125776
 20
225.0274904757018
 30
0.0
 10
427.3106584838649
 20
225.2886127642601
 30
0.0
 10
427.2899944511025
 20
225.4017759619624
 30
0.0
  0
ARC
  5
236
330
2
100
AcDbEntity
  8
0
100
AcDbCircle
 10
427.0738639283491
 20
225.3610830195362
 30
0.0
 40
0.2199279846525724
100
AcDbArc
 50
10.66279330510023
 51
59.38108120909073
  0
LINE
  5
237
330
2
100
AcDbEntity
  8
0
100
AcDbLine
 10
427.1858788812625
 20
225.550347302343
 30
0.0
 11
426.9046335817034
 21
225.6909699521482
 31
0.0
  0
LINE
  5
238
330
2
100
AcDbEntity
  8
0
100
AcDbLine
 10
426.9046335817034
 20
225.6909699521482
 30
0.0
 11
426.9046335817034
 21
224.8712624279599
 31
0.0
  0
LINE
  5
239
330
2
100
AcDbEntity
  8
0
100
AcDbLine
 10
424.7564708066639
 20
226.7650513396422
 30
0.0
 11
425.5165230639083
 21
225.7087082368473
 31
0.0
  0
ARC
  5
23A
330
2
100
AcDbEntity
  8
0
100
AcDbCircle
 10
426.3653977757654
 20
226.2916438357201
 30
0.0
 40
1.029758315770844
100
AcDbArc
 50
214.4779978270076
 51
241.677933822004
  0
LINE
  5
23B
330
2
100
AcDbEntity
  8
0
100
AcDbLine
 10
425.8768523493991
 20
225.385153044112
 30
0.0
 11
425.970423101191
 21
225.3383676681906
 31
0.0
  0
LINE
  5
23C
330
2
100
AcDbEntity
  8
0
100
AcDbLine
 10
425.9710700620813
 20
226.1577517119592
 30
0.0
 11
425.970423101191
 21
225.3383676681906
 31
0.0
  0
LINE
  5
23D
330
2
100
AcDbEntity
  8
0
100
AcDbLine
 10
425.9710700620813
 20
226.1577517119592
 30
0.0
 11
424.7564708066639
 21
226.7650513396422
 31
0.0
  0
LWPOLYLINE
  5
23E
330
2
100
AcDbEntity
  8
0
100
AcDbPolyline
 90
        9
 70
   128
 43
0.0
 10
426.782028040951
 20
224.9767300872529
 10
426.7848426433125
 20
224.9756622052628
 10
426.7875476277261
 20
224.9753149730955
 10
426.7900419737116
 20
224.9757003193047
 10
426.7922278848319
 20
224.9768043750967
 10
426.794021535592
 20
224.9785845686103
 10
426.7953541461022
 20
224.9809724604133
 10
426.7961752061217
 20
224.9838759978846
 10
426.7964524751111
 20
224.9871837928617
  0
LINE
  5
23F
330
2
100
AcDbEntity
  8
0
100
AcDbLine
 10
426.7964524751111
 20
225.5507350180358
 30
0.0
 11
426.7964524751111
 21
224.9871837928617
 31
0.0
  0
ARC
  5
240
330
2
100
AcDbEntity
  8
0
100
AcDbCircle
 10
426.7669247530598
 20
225.5502355205326
 30
0.0
 40
0.0295319465422099
100
AcDbArc
 50
0.969135758105423
 51
59.24140336639542
  0
LINE
  5
241
330
2
100
AcDbEntity
  8
0
100
AcDbLine
 10
426.089667024406
 20
225.9217937072065
 30
0.0
 11
426.782028040951
 21
225.5756131989085
 31
0.0
  0
LWPOLYLINE
  5
242
330
2
100
AcDbEntity
  8
0
100
AcDbPolyline
 90
        9
 70
   128
 43
0.0
 10
426.089667024406
 20
225.9217937072065
 10
426.0868534967088
 20
225.9228610312871
 10
426.0841474376309
 20
225.9232087596574
 10
426.0816530916454
 20
225.9228234134482
 10
426.0794671805248
 20
225.9217193782081
 10
426.077673529765
 20
225.9199391846944
 10
426.0763409192548
 20
225.9175512723396
 10
426.0755198592353
 20
225.9146477965749
 10
426.0752425902967
 20
225.9113399604939
  0
LINE
  5
243
330
2
100
AcDbEntity
  8
0
100
AcDbLine
 10
426.0752425902967
 20
225.347788735269
 30
0.0
 11
426.0752425902967
 21
225.9113399604939
 31
0.0
  0
ARC
  5
244
330
2
100
AcDbEntity
  8
0
100
AcDbCircle
 10
426.1047700772512
 20
225.3482881384782
 30
0.0
 40
0.0295317099016025
100
AcDbArc
 50
180.9689604616004
 51
239.2416608738073
  0
LINE
  5
245
330
2
100
AcDbEntity
  8
0
100
AcDbLine
 10
426.782028040951
 20
224.9767300872529
 30
0.0
 11
426.089667024406
 21
225.3229105955511
 31
0.0
  0
ARC
  5
246
330
2
100
AcDbEntity
  8
0
100
AcDbCircle
 10
424.8782606008982
 20
226.8259188011005
 30
0.0
 40
0.2300707319723067
100
AcDbArc
 50
181.6879348486036
 51
216.318378916099
  0
LWPOLYLINE
  5
247
330
2
100
AcDbEntity
  8
0
100
AcDbPolyline
 90
        9
 70
   128
 43
0.0
 10
424.6482897000716
 20
226.8191418929384
 10
424.6503681426239
 20
226.8439510943183
 10
424.6565239434428
 20
226.8657282757472
 10
424.6665217463625
 20
226.883635952533
 10
424.6799746643956
 20
226.8969872740718
 10
424.6963689977738
 20
226.905267512645
 10
424.7150717564969
 20
226.9081599554179
 10
424.7353661249684
 20
226.9055524782357
 10
424.7564708066639
 20
226.8975459871415
  0
LINE
  5
248
330
2
100
AcDbEntity
  8
0
100
AcDbLine
 10
427.1858788812625
 20
225.6828419498422
 30
0.0
 11
424.7564708066639
 21
226.8975459871415
 31
0.0
  0
ARC
  5
249
330
2
100
AcDbEntity
  8
0
100
AcDbCircle
 10
426.9618473693809
 20
225.3043122608622
 30
0.0
 40
0.439857754043966
100
AcDbArc
 50
10.66289741220129
 51
59.38097570420301
  0
SPLINE
  5
24A
330
2
100
AcDbEntity
  8
0
100
AcDbSpline
210
0.0
220
0.0
230
1.0
 70
     8
 71
     3
 72
     9
 73
     5
 74
     0
 42
0.000000001
 43
0.0000000001
 40
0.0
 40
0.0
 40
0.0
 40
0.0
 40
0.5536504562879009
 40
1.0
 40
1.0
 40
1.0
 40
1.0
 10
427.3941100209324
 20
225.3856992613671
 30
0.0
 10
427.4208453842525
 20
225.2337616751988
 30
0.0
 10
427.4691346306829
 20
224.9593329549789
 30
0.0
 10
427.4730446707692
 20
224.7004543440744
 30
0.0
 10
427.4747899153776
 20
224.5849039942204
 30
0.0
  0
LWPOLYLINE
  5
24B
330
2
100
AcDbEntity
  8
0
100
AcDbPolyline
 90
        9
 70
   128
 43
0.0
 10
427.4747899153743
 20
224.5849039942045
 10
427.4725341497001
 20
224.5603659110402
 10
427.4662579840359
 20
224.5388609744573
 10
427.4561989240293
 20
224.5212056855289
 10
427.4427395578067
 20
224.5080700489493
 10
427.4263903612456
 20
224.4999527718674
 10
427.4077714280686
 20
224.497162264363
 10
427.3875909762529
 20
224.4998037768807
 10
427.3666141822056
 20
224.5077774609072
  0
LINE
  5
24C
330
2
100
AcDbEntity
  8
0
100
AcDbLine
 10
425.8768523493991
 20
225.2526583773358
 30
0.0
 11
427.3666141822056
 21
224.5077774609072
 31
0.0
  0
ARC
  5
24D
330
2
100
AcDbEntity
  8
0
100
AcDbCircle
 10
426.4516087380327
 20
226.3191139208579
 30
0.0
 40
1.211475271188595
100
AcDbArc
 50
214.4779341514011
 51
241.6779615861963
  0
LINE
  5
24E
330
2
100
AcDbEntity
  8
0
100
AcDbLine
 10
425.4529360486936
 20
225.6333113310834
 30
0.0
 11
424.6928837914493
 21
226.689654424903
 31
0.0
  0
LINE
  5
24F
330
2
100
AcDbEntity
  8
0
100
AcDbLine
 10
406.7828886494768
 20
234.9321348940732
 30
0.0
 11
406.32090858623
 21
235.1631249256966
 31
0.0
  0
LINE
  5
250
330
2
100
AcDbEntity
  8
0
100
AcDbLine
 10
406.7828886494768
 20
234.9321348940732
 30
0.0
 11
406.7828886494768
 21
235.7518424182613
 31
0.0
  0
LINE
  5
251
330
2
100
AcDbEntity
  8
0
100
AcDbLine
 10
406.5016438872243
 20
235.8924647993622
 30
0.0
 11
406.7828886494768
 21
235.7518424182613
 31
0.0
  0
ARC
  5
252
330
2
100
AcDbEntity
  8
0
100
AcDbCircle
 10
406.4644623603468
 20
235.8353966657926
 30
0.0
 40
0.0681119505851581
100
AcDbArc
 50
56.91460216550243
 51
169.328893444206
  0
SPLINE
  5
253
330
2
100
AcDbEntity
  8
0
100
AcDbSpline
210
0.0
220
0.0
230
1.0
 70
     8
 71
     3
 72
     9
 73
     5
 74
     0
 42
0.000000001
 43
0.0000000001
 40
0.0
 40
0.0
 40
0.0
 40
0.0
 40
0.5527101252076755
 40
1.0
 40
1.0
 40
1.0
 40
1.0
 10
406.3975283173752
 20
235.848009028826
 30
0.0
 10
406.3721504545642
 20
235.7291432352008
 30
0.0
 10
406.3262351335786
 20
235.5140833182495
 30
0.0
 10
406.3225547738818
 20
235.2715898145718
 30
0.0
 10
406.3209085862539
 20
235.1631249256739
 30
0.0
  0
LINE
  5
254
330
2
100
AcDbEntity
  8
0
100
AcDbLine
 10
408.1709991672207
 20
234.3814701851656
 30
0.0
 11
408.9310514244653
 21
234.6777610307672
 31
0.0
  0
LINE
  5
255
330
2
100
AcDbEntity
  8
0
100
AcDbLine
 10
407.7164521690478
 20
235.2850606584502
 30
0.0
 11
408.9310514244653
 21
234.6777610307672
 31
0.0
  0
LINE
  5
256
330
2
100
AcDbEntity
  8
0
100
AcDbLine
 10
407.7170996672958
 20
234.4650293851382
 30
0.0
 11
407.7164521690478
 21
235.2850606584502
 31
0.0
  0
LINE
  5
257
330
2
100
AcDbEntity
  8
0
100
AcDbLine
 10
407.8106704190877
 20
234.4182440092677
 30
0.0
 11
407.7170996672958
 21
234.4650293851382
 31
0.0
  0
ARC
  5
258
330
2
100
AcDbEntity
  8
0
100
AcDbCircle
 10
408.0321503031804
 20
234.8046876081353
 30
0.0
 40
0.4454121621215438
100
AcDbArc
 50
240.1819671207064
 51
288.1635911490054
  0
ARC
  5
259
330
2
100
AcDbEntity
  8
0
100
AcDbCircle
 10
406.9205960276578
 20
234.9403732185471
 30
0.0
 40
0.0295299394159359
100
AcDbArc
 50
180.966945404398
 51
239.2423605553062
  0
LINE
  5
25A
330
2
100
AcDbEntity
  8
0
100
AcDbLine
 10
406.9054941901781
 20
234.914997012665
 30
0.0
 11
407.5978557440808
 21
234.5688162357137
 31
0.0
  0
LWPOLYLINE
  5
25B
330
2
100
AcDbEntity
  8
0
100
AcDbPolyline
 90
        9
 70
   128
 43
0.0
 10
407.5978557440808
 20
234.5688162357137
 10
407.6006698090846
 20
234.5677486223767
 10
407.6033753308558
 20
234.5674011215049
 10
407.6058691394837
 20
234.5677867364186
 10
407.608055050604
 20
234.5688907922106
 10
407.6098487013642
 20
234.5706709857243
 10
407.611181849232
 20
234.5730586088739
 10
407.612002371894
 20
234.5759624149987
 10
407.6122796408833
 20
234.5792702099757
  0
LINE
  5
25C
330
2
100
AcDbEntity
  8
0
100
AcDbLine
 10
407.6122796408833
 20
234.5792702099757
 30
0.0
 11
407.6122796408833
 21
235.1428214352006
 31
0.0
  0
ARC
  5
25D
330
2
100
AcDbEntity
  8
0
100
AcDbCircle
 10
407.5827536715551
 20
235.1423230059872
 30
0.0
 40
0.0295301760321268
100
AcDbArc
 50
0.9671207009032231
 51
59.2421030479051
  0
LINE
  5
25E
330
2
100
AcDbEntity
  8
0
100
AcDbLine
 10
407.5978557440808
 20
235.1676993473691
 30
0.0
 11
406.9054941901781
 21
235.5138801243204
 31
0.0
  0
LWPOLYLINE
  5
25F
330
2
100
AcDbEntity
  8
0
100
AcDbPolyline
 90
        9
 70
   128
 43
0.0
 10
406.9054941901781
 20
235.5138801243204
 10
406.9026806624809
 20
235.514947448401
 10
406.8999746034029
 20
235.5152951768223
 10
406.8974807947753
 20
235.5149095619088
 10
406.8952948836546
 20
235.5138055266686
 10
406.8935012328948
 20
235.5120253331549
 10
406.8921680850271
 20
235.5096376894535
 10
406.891347562365
 20
235.5067339450354
 10
406.8910702933756
 20
235.5034261089036
  0
LINE
  5
260
330
2
100
AcDbEntity
  8
0
100
AcDbLine
 10
406.8910702933756
 20
235.5034261089036
 30
0.0
 11
406.8910702933756
 21
234.9398748837296
 31
0.0
  0
ARC
  5
261
330
2
100
AcDbEntity
  8
0
100
AcDbCircle
 10
408.817784507728
 20
234.6199294748906
 30
0.0
 40
0.2214801528452564
100
AcDbArc
 50
0.9677546808971223
 51
59.24227987909828
  0
ARC
  5
262
330
2
100
AcDbEntity
  8
0
100
AcDbCircle
 10
408.955027259229
 20
234.6137439026131
 30
0.0
 40
0.0847888545418021
100
AcDbArc
 50
297.8514458304971
 51
6.723084930000262
  0
LINE
  5
263
330
2
100
AcDbEntity
  8
0
100
AcDbLine
 10
408.9946389770374
 20
234.5387768321089
 30
0.0
 11
408.234586719793
 21
234.2424859954831
 31
0.0
  0
ARC
  5
264
330
2
100
AcDbEntity
  8
0
100
AcDbCircle
 10
408.0712351613904
 20
234.740389804429
 30
0.0
 40
0.5240152045269922
100
AcDbArc
 50
240.182001500198
 51
288.1635536659045
  0
LINE
  5
265
330
2
100
AcDbEntity
  8
0
100
AcDbLine
 10
407.8106704190877
 20
234.2857493424917
 30
0.0
 11
406.32090858623
 21
235.0306302588692
 31
0.0
  0
ARC
  5
266
330
2
100
AcDbEntity
  8
0
100
AcDbCircle
 10
406.4342549253632
 20
235.2210267460425
 30
0.0
 40
0.2215811700229181
100
AcDbArc
 50
181.3172945409952
 51
239.2339260705022
  0
SPLINE
  5
267
330
2
100
AcDbEntity
  8
0
100
AcDbSpline
210
0.0
220
0.0
230
1.0
 70
     8
 71
     3
 72
     9
 73
     5
 74
     0
 42
0.000000001
 43
0.0000000001
 40
0.0
 40
0.0
 40
0.0
 40
0.0
 40
0.5657457805166071
 40
1.0
 40
1.0
 40
1.0
 40
1.0
 10
406.2127323157572
 20
235.2159327940308
 30
0.0
 10
406.2158997473191
 20
235.3598163255892
 30
0.0
 10
406.2214984308104
 20
235.6141417426115
 30
0.0
 10
406.2716386210326
 20
235.8385834209053
 30
0.0
 10
406.2934122102022
 20
235.9360481667323
 30
0.0
  0
ARC
  5
268
330
2
100
AcDbEntity
  8
0
100
AcDbCircle
 10
406.4272805674681
 20
235.9108229197381
 30
0.0
 40
0.1362242642124169
100
AcDbArc
 50
56.91456808680649
 51
169.3286992679968
  0
LINE
  5
269
330
2
100
AcDbEntity
  8
0
100
AcDbLine
 10
406.5016438872243
 20
236.0249594469124
 30
0.0
 11
408.9310514244653
 21
234.8102556782665
 31
0.0
  0
ARC
  5
26A
330
2
100
AcDbEntity
  8
0
100
AcDbCircle
 10
377.6940567592944
 20
220.8509276630082
 30
0.0
 40
0.2215811700229851
100
AcDbArc
 50
181.3172945409952
 51
239.2339260705022
  0
SPLINE
  5
26B
330
2
100
AcDbEntity
  8
0
100
AcDbSpline
210
0.0
220
0.0
230
1.0
 70
     8
 71
     3
 72
     9
 73
     5
 74
     0
 42
0.000000001
 43
0.0000000001
 40
0.0
 40
0.0
 40
0.0
 40
0.0
 40
0.5536504562879009
 40
1.0
 40
1.0
 40
1.0
 40
1.0
 10
377.5532140441665
 20
221.565949083714
 30
0.0
 10
377.5264786808464
 20
221.4407468608659
 30
0.0
 10
377.478189434416
 20
221.2146073870763
 30
0.0
 10
377.4742793943297
 20
220.9596388162581
 30
0.0
 10
377.4725341497212
 20
220.8458337110126
 30
0.0
  0
LINE
  5
26C
330
2
100
AcDbEntity
  8
0
100
AcDbLine
 10
377.6533876661458
 20
220.6241925529194
 30
0.0
 11
377.5807104202124
 21
220.660531175886
 31
0.0
  0
ARC
  5
26D
330
2
100
AcDbEntity
  8
0
100
AcDbCircle
 10
377.6945439314344
 20
221.537482725631
 30
0.0
 40
0.1441682023729774
100
AcDbArc
 50
119.0199200006053
 51
168.6119780870059
  0
LINE
  5
26E
330
2
100
AcDbEntity
  8
0
100
AcDbLine
 10
417.6839715072429
 20
229.6187347491434
 30
0.0
 11
417.3377909989958
 21
229.7918250033181
 31
0.0
  0
LWPOLYLINE
  5
26F
330
2
100
AcDbEntity
  8
0
100
AcDbPolyline
 90
        9
 70
   128
 43
0.0
 10
417.6839715072429
 20
229.6187347491434
 10
417.6910064011241
 20
229.6160659325139
 10
417.6977712802168
 20
229.6151967252608
 10
417.7040055331075
 20
229.6161608557168
 10
417.70947004223
 20
229.6189210884199
 10
417.7139547064623
 20
229.6233713035251
 10
417.7172870387994
 20
229.6293406711816
 10
417.7193391514909
 20
229.6365996189711
 10
417.7200320552088
 20
229.6448693641027
  0
LINE
  5
270
330
2
100
AcDbEntity
  8
0
100
AcDbLine
 10
417.7200320552088
 20
229.9981883932812
 30
0.0
 11
417.7200320552088
 21
229.6448693641027
 31
0.0
  0
ARC
  5
271
330
2
100
AcDbEntity
  8
0
100
AcDbCircle
 10
417.6462152751819
 20
229.9969411446086
 30
0.0
 40
0.0738273163856663
100
AcDbArc
 50
0.9680086822024987
 51
59.24202073960554
  0
LINE
  5
272
330
2
100
AcDbEntity
  8
0
100
AcDbLine
 10
417.3377909989958
 20
230.2334738103304
 30
0.0
 11
417.6839715072429
 21
230.0603835562069
 31
0.0
  0
LWPOLYLINE
  5
273
330
2
100
AcDbEntity
  8
0
100
AcDbPolyline
 90
        9
 70
   128
 43
0.0
 10
417.3377909989958
 20
230.2334738103304
 10
417.3307558364099
 20
230.2361427613375
 10
417.3239912260216
 20
230.237011834264
 10
417.3177567044777
 20
230.2360478381347
 10
417.3122921953551
 20
230.2332876054316
 10
417.3078077997251
 20
230.2288371736902
 10
417.3044754674392
 20
230.2228678882923
 10
417.3024233547478
 20
230.2156088582442
 10
417.3017304509785
 20
230.2073391953711
  0
LINE
  5
274
330
2
100
AcDbEntity
  8
0
100
AcDbLine
 10
417.3017304509785
 20
229.8540201662436
 30
0.0
 11
417.3017304509785
 21
230.2073391953711
 31
0.0
  0
ARC
  5
275
330
2
100
AcDbEntity
  8
0
100
AcDbCircle
 10
417.3755468496485
 20
229.8552671937411
 30
0.0
 40
0.0738269313258453
100
AcDbArc
 50
180.9678420980015
 51
239.2421873237966
  0
LINE
  5
276
330
2
100
AcDbEntity
  8
0
100
AcDbLine
 10
417.3377909989958
 20
232.5300476233278
 30
0.0
 11
417.6839715072429
 21
232.3569573691534
 31
0.0
  0
LWPOLYLINE
  5
277
330
2
100
AcDbEntity
  8
0
100
AcDbPolyline
 90
        9
 70
   128
 43
0.0
 10
417.3377909989958
 20
232.5300476233278
 10
417.3307558364099
 20
232.532716574284
 10
417.3239912260216
 20
232.5335856472104
 10
417.3177567044777
 20
232.5326216511321
 10
417.3122921953551
 20
232.5298614183783
 10
417.3078077997251
 20
232.5254110689461
 10
417.3044754674392
 20
232.5194417012897
 10
417.3024233547478
 20
232.5121827535004
 10
417.3017304509785
 20
232.5039130083685
  0
LINE
  5
278
330
2
100
AcDbEntity
  8
0
100
AcDbLine
 10
417.3017304509785
 20
232.15059397919
 30
0.0
 11
417.3017304509785
 21
232.5039130083685
 31
0.0
  0
ARC
  5
279
330
2
100
AcDbEntity
  8
0
100
AcDbCircle
 10
417.3789289509812
 20
232.1529584275743
 30
0.0
 40
0.0772347008486956
100
AcDbArc
 50
181.7543161470055
 51
226.0109460328996
  0
LINE
  5
27A
330
2
100
AcDbEntity
  8
0
100
AcDbLine
 10
417.7200320552088
 20
232.2947622062788
 30
0.0
 11
417.7200320552088
 21
232.1083373969191
 31
0.0
  0
ARC
  5
27B
330
2
100
AcDbEntity
  8
0
100
AcDbCircle
 10
417.6462152751819
 20
232.2935149576062
 30
0.0
 40
0.073827316385694
100
AcDbArc
 50
0.9680086822024987
 51
59.24202073960554
  0
LWPOLYLINE
  5
27C
330
2
100
AcDbEntity
  8
0
100
AcDbPolyline
 90
       27
 70
   128
 43
0.0
 10
419.3139051591442
 20
230.1728792332233
 10
419.3007590639032
 20
229.9132778798262
 10
419.2615126096019
 20
229.6706081036623
 10
419.1967377977553
 20
229.4484088072449
 10
419.1073795460273
 20
229.2499198162627
 10
418.9947406423193
 20
229.0780358695354
 10
418.8604637440788
 20
228.9352631970314
 10
418.7065071976665
 20
228.8236838150853
 10
418.5351154846036
 20
228.7449248937
 10
418.3487880555945
 20
228.7001346886143
 10
418.1502422539209
 20
228.6899665288936
 10
417.9423730147433
 20
228.7145688589583
 10
417.728211758285
 20
228.7735824289948
 10
417.5108812531193
 20
228.8661470688644
 10
417.2935507479534
 20
228.9909129341609
 10
417.0793894914951
 20
229.1460606205824
 10
416.8715201179908
 20
229.3293275968586
 10
416.6729743163174
 20
229.5380415582017
 10
416.4866470216349
 20
229.7691591251844
 10
416.3152553085208
 20
230.0193097596327
 10
416.1612984934552
 20
230.2848458223687
 10
416.0270217295414
 20
230.5618953258989
 10
415.9143829602109
 20
230.8464181091199
 10
415.8250247084831
 20
231.1342653518811
 10
415.7602500309632
 20
231.4212393929815
 10
415.7210035094985
 20
231.703155657003
 10
415.7078574814211
 20
231.9759030720847
  0
LINE
  5
27D
330
2
100
AcDbEntity
  8
0
100
AcDbLine
 10
415.7078574814211
 20
231.9759030720847
 30
0.0
 11
415.7078574814211
 21
244.4303999402744
 31
0.0
  0
LINE
  5
27E
330
2
100
AcDbEntity
  8
0
100
AcDbLine
 10
419.3139051591442
 20
242.6273761014126
 30
0.0
 11
419.3139051591442
 21
230.1728792332233
 31
0.0
  0
LWPOLYLINE
  5
27F
330
2
100
AcDbEntity
  8
0
100
AcDbPolyline
 90
       20
 70
   128
 43
0.0
 10
415.2751309057236
 20
231.759539784236
 10
415.2882769338011
 20
231.4867923691543
 10
415.3275234552658
 20
231.2048761051328
 10
415.3922981327346
 20
230.9179020640324
 10
415.4816563845137
 20
230.6300548212711
 10
415.5942951538443
 20
230.3455320380501
 10
415.728571917758
 20
230.0684825345202
 10
415.8825287328236
 20
229.802946471784
 10
416.0539204459374
 20
229.5527958373357
 10
416.2402477406201
 20
229.321678270353
 10
416.4387935422935
 20
229.1129643090098
 10
416.6466629157978
 20
228.9296973327337
 10
416.860824172256
 20
228.7745496463121
 10
417.0781546774218
 20
228.6497837810157
 10
417.2954851825876
 20
228.5572191411461
 10
417.5096464389951
 20
228.4982055711096
 10
417.7175156782237
 20
228.4736032410449
 10
417.916061479897
 20
228.4837714007144
 10
418.1023889089061
 20
228.5285616058513
 10
418.2184869578332
 20
228.5773631642251
  0
LINE
  5
280
330
2
100
AcDbEntity
  8
0
100
AcDbLine
 10
415.2751309057236
 20
231.759539784236
 30
0.0
 11
415.2751309057236
 21
244.2140366524256
 31
0.0
  0
LWPOLYLINE
  5
281
330
2
100
AcDbEntity
  8
0
100
AcDbPolyline
 90
       17
 70
   128
 43
0.0
 10
412.8951401127602
 20
246.4689024278875
 10
413.1708335850046
 20
246.5901608932295
 10
413.4438725830754
 20
246.6770761582647
 10
413.7116284252518
 20
246.7288116685925
 10
413.9715197160597
 20
246.74486777229
 10
414.2210445866606
 20
246.7250886266695
 10
414.4578021887968
 20
246.6696689966641
 10
414.6795077402475
 20
246.579138085501
 10
414.8840312136063
 20
246.4543709818392
 10
415.0693994854589
 20
246.2965673590011
 10
415.2338285772783
 20
246.1072478515678
 10
415.3757344020175
 20
245.8882344211979
 10
415.4937521086261
 20
245.6416376527122
 10
415.586742530038
 20
245.3698323379024
 10
415.6538115275843
 20
245.0754355583576
 10
415.6943121403235
 20
244.7612827521666
 10
415.7078574814211
 20
244.4303999402744
  0
LWPOLYLINE
  5
282
330
2
100
AcDbEntity
  8
0
100
AcDbPolyline
 90
       16
 70
   128
 43
0.0
 10
415.2751309057236
 20
244.2140366524256
 10
415.2620928163575
 20
244.5122058269558
 10
415.2231225563301
 20
244.7940696760422
 10
415.1586457012065
 20
245.0565425500956
 10
415.0693693942478
 20
245.2967453941317
 10
414.9562715996692
 20
245.5120477582029
 10
414.8205925050177
 20
245.7000924554691
 10
414.6638173261385
 20
245.8588159212027
 10
414.4876655605798
 20
245.9864836423374
 10
414.2940630453562
 20
246.0816919809754
 10
414.0851355092165
 20
246.1434004882608
 10
413.8631698837616
 20
246.1709336194169
 10
413.630597108511
 20
246.1639866146415
 10
413.389968487777
 20
246.1226400019509
 10
413.1439170019903
 20
246.047344201374
 10
412.8951401127602
 20
245.9389227735787
  0
LWPOLYLINE
  5
283
330
2
100
AcDbEntity
  8
0
100
AcDbPolyline
 90
       11
 70
   128
 43
0.0
 10
419.3139051591442
 20
242.6273761014126
 10
419.3003598180978
 20
242.9582589133052
 10
419.2598592053074
 20
243.2724117194962
 10
419.1927902077611
 20
243.5668084989897
 10
419.0997997863494
 20
243.8386138137996
 10
418.9817820797405
 20
244.0852105822853
 10
418.8398762550016
 20
244.3042240127061
 10
418.6754471631823
 20
244.4935435200885
 10
418.4900788913296
 20
244.6513471429776
 10
418.2855554180216
 20
244.7761142465883
 10
418.280106760516
 20
244.7788548468434
  0
LWPOLYLINE
  5
284
330
2
100
AcDbEntity
  8
0
100
AcDbPolyline
 90
       10
 70
   128
 43
0.0
 10
403.0145694461409
 20
239.1956136685708
 10
402.880644776214
 20
239.2490145421925
 10
402.7263118211086
 20
239.2861758372007
 10
402.5593107372428
 20
239.3052344512612
 10
402.3880144025326
 20
239.3052344512612
 10
402.2210127813601
 20
239.2861758372007
 10
402.0666800948574
 20
239.2490144078658
 10
401.9327551562771
 20
239.1956136685708
 10
401.8259536777378
 20
239.1286511992553
 10
401.760705735426
 20
239.0637732175994
  0
LWPOLYLINE
  5
285
330
2
100
AcDbEntity
  8
0
100
AcDbPolyline
 90
       10
 70
   128
 43
0.0
 10
402.7508882755448
 20
238.5686819475145
 10
402.8806445075606
 20
238.6013057843438
 10
403.0145694461409
 20
238.6547065236389
 10
403.1213709247309
 20
238.7216689929035
 10
403.1956937834006
 20
238.798835336155
 10
403.2338107428683
 20
238.8823362810933
 10
403.2338110115217
 20
238.9679843140964
 10
403.1956935147473
 20
239.0514849903814
 10
403.1213711933843
 20
239.1286513335817
 10
403.0145694461409
 20
239.1956136685708
  0
LINE
  5
286
330
2
100
AcDbEntity
  8
0
100
AcDbLine
 10
408.6400033774512
 20
241.6116654124803
 30
0.0
 11
406.8369802774371
 21
240.7101538624988
 31
0.0
  0
LWPOLYLINE
  5
287
330
2
100
AcDbEntity
  8
0
100
AcDbPolyline
 90
       13
 70
   128
 43
0.0
 10
408.6400033774512
 20
241.6116654124803
 10
408.729152065466
 20
241.6697558123592
 10
408.7851934423197
 20
241.7374036625904
 10
408.8043072683595
 20
241.8099978890391
 10
408.785192904962
 20
241.8825929214481
 10
408.7291517967616
 20
241.950240368699
 10
408.6400036461554
 20
242.008330768527
 10
408.5238228463975
 20
242.0529048438557
 10
408.388527683242
 20
242.0809255323336
 10
408.2433378870778
 20
242.0904825796547
 10
408.0981491655776
 20
242.080925800987
 10
407.9628537337688
 20
242.0529049782333
 10
407.8466729340108
 20
242.0083306342003
  0
LINE
  5
288
330
2
100
AcDbEntity
  8
0
100
AcDbLine
 10
406.0436498339969
 20
241.1068190842188
 30
0.0
 11
407.8466729340108
 21
242.0083306342003
 31
0.0
  0
LWPOLYLINE
  5
289
330
2
100
AcDbEntity
  8
0
100
AcDbPolyline
 90
       13
 70
   128
 43
0.0
 10
406.0436498339969
 20
241.1068190842188
 10
405.9545011459819
 20
241.0487286843399
 10
405.8984595004751
 20
240.9810809684354
 10
405.8793448684244
 20
240.9084860703533
 10
405.8984600378326
 20
240.8358917095779
 10
405.9545014146862
 20
240.7682441280001
 10
406.0436495653436
 20
240.7101537281722
 10
406.1598303650504
 20
240.6655796528434
 10
406.2951252595017
 20
240.6375590987434
 10
406.4403142497059
 20
240.628001379687
 10
406.5855037772171
 20
240.6375588300391
 10
406.7207994776793
 20
240.6655795184658
 10
406.8369802774371
 20
240.7101538624988
  0
LWPOLYLINE
  5
28A
330
2
100
AcDbEntity
  8
0
100
AcDbPolyline
 90
       13
 70
   128
 43
0.0
 10
411.8133256885188
 20
243.9916570114544
 10
411.7241770005549
 20
243.9335666115753
 10
411.668135354997
 20
243.865918895671
 10
411.6490217976103
 20
243.7933245349466
 10
411.6681358923546
 20
243.7207296368645
 10
411.7241772692083
 20
243.6530820552866
 10
411.8133254198656
 20
243.5949916554077
 10
411.9295062195726
 20
243.5504175800791
 10
412.0648011140238
 20
243.5223970259788
 10
412.2099911788922
 20
243.5128398442801
 10
412.3551796317389
 20
243.5223967573256
 10
412.4904753322011
 20
243.5504174457524
 10
412.6066561319591
 20
243.5949917897342
  0
LINE
  5
28B
330
2
100
AcDbEntity
  8
0
100
AcDbLine
 10
414.409679231973
 20
244.4965033397668
 30
0.0
 11
412.6066561319591
 21
243.5949917897342
 31
0.0
  0
LWPOLYLINE
  5
28C
330
2
100
AcDbEntity
  8
0
100
AcDbPolyline
 90
       13
 70
   128
 43
0.0
 10
414.409679231973
 20
244.4965033397668
 10
414.4988279199881
 20
244.5545937396457
 10
414.5548692968417
 20
244.6222415898769
 10
414.5739841975968
 20
244.6948363536324
 10
414.5548687594842
 20
244.7674308487344
 10
414.4988276512838
 20
244.8350782959346
 10
414.4096795006773
 20
244.8931686958135
 10
414.2934987009196
 20
244.9377427711422
 10
414.1582035378148
 20
244.9657634595692
 10
414.0130148162641
 20
244.9753210442477
 10
413.8678250200996
 20
244.9657637282223
 10
413.7325295882908
 20
244.9377429054689
 10
413.6163487885327
 20
244.8931685614868
  0
LINE
  5
28D
330
2
100
AcDbEntity
  8
0
100
AcDbLine
 10
411.8133256885188
 20
243.9916570114544
 30
0.0
 11
413.6163487885327
 21
244.8931685614868
 31
0.0
  0
LINE
  5
28E
330
2
100
AcDbEntity
  8
0
100
AcDbLine
 10
415.2751313087035
 20
243.5228706938017
 30
0.0
 11
404.0588210458627
 21
237.9147155623557
 31
0.0
  0
LINE
  5
28F
330
2
100
AcDbEntity
  8
0
100
AcDbLine
 10
400.4527733681396
 20
239.7177394012683
 30
0.0
 11
412.8951401127602
 21
245.9389227735787
 31
0.0
  0
LINE
  5
290
330
2
100
AcDbEntity
  8
0
100
AcDbLine
 10
388.4461374836187
 20
234.2444011132911
 30
0.0
 11
412.8951401127602
 21
246.4689024278875
 31
0.0
  0
ARC
  5
291
330
2
100
AcDbEntity
  8
0
100
AcDbCircle
 10
391.582626570153
 20
229.2140134020678
 30
0.0
 40
5.954368443711537
100
AcDbArc
 50
146.6801691466242
 51
177.3990593797016
  0
ARC
  5
292
330
2
100
AcDbEntity
  8
0
100
AcDbCircle
 10
390.3274172947693
 20
230.6006718301762
 30
0.0
 40
4.100728815284071
100
AcDbArc
 50
117.3075847149
 51
133.8613187448994
  0
ARC
  5
293
330
2
100
AcDbEntity
  8
0
100
AcDbCircle
 10
390.8728755278032
 20
229.5057897694974
 30
0.0
 40
4.809530407962243
100
AcDbArc
 50
152.4926889558078
 51
177.6777574934933
  0
ARC
  5
294
330
2
100
AcDbEntity
  8
0
100
AcDbCircle
 10
418.7951688029908
 20
231.4517627829812
 30
0.0
 40
0.6784754637712024
100
AcDbArc
 50
242.8080170462074
 51
243.4330819667021
  0
LINE
  5
295
330
2
100
AcDbEntity
  8
0
100
AcDbLine
 10
418.1093700685037
 20
232.3027494282292
 30
0.0
 11
418.1199772182996
 21
232.3083100650576
 31
0.0
  0
LINE
  5
296
330
2
100
AcDbEntity
  8
0
100
AcDbLine
 10
418.8740808204564
 20
230.8268774042817
 30
0.0
 11
418.863473939314
 21
230.8213166331266
 31
0.0
  0
ARC
  5
297
330
2
100
AcDbEntity
  8
0
100
AcDbCircle
 10
418.262990277589
 20
231.4568743704322
 30
0.0
 40
1.188612211401668
100
AcDbArc
 50
180.9678039920044
 51
239.2421596612023
  0
ARC
  5
298
330
2
100
AcDbEntity
  8
0
100
AcDbCircle
 10
417.8611104093748
 20
230.7764401629411
 30
0.0
 40
0.3983733356411734
100
AcDbArc
 50
238.8637108325993
 51
293.8685627304063
  0
ARC
  5
299
330
2
100
AcDbEntity
  8
0
100
AcDbCircle
 10
417.4900422698088
 20
231.5276536498377
 30
0.0
 40
0.4069647063627368
100
AcDbArc
 50
119.7768405005042
 51
174.8337451560957
  0
ARC
  5
29A
330
2
100
AcDbEntity
  8
0
100
AcDbCircle
 10
417.9002556277326
 20
230.6505756956986
 30
0.0
 40
0.4584105572732394
100
AcDbArc
 50
237.6731469013005
 51
349.2246039490018
  0
LWPOLYLINE
  5
29B
330
2
100
AcDbEntity
  8
0
100
AcDbPolyline
 90
       17
 70
   128
 43
0.0
 10
417.6551212956558
 20
230.2632135934791
 10
417.5144201937786
 20
230.3505364212006
 10
417.3791263739917
 20
230.4684480587578
 10
417.2544386293878
 20
230.6124173979922
 10
417.1451489842974
 20
230.7769116370678
 10
417.0554574455898
 20
230.9556092565106
 10
416.9888105309111
 20
231.1416432250685
 10
416.9477696198387
 20
231.3278642262096
 10
416.9339116794948
 20
231.5071160155844
 10
416.9477696198387
 20
231.6725098646664
 10
416.9888105309111
 20
231.8176899546843
 10
417.0554574455898
 20
231.9370770086143
 10
417.1451489842974
 20
232.0260830892985
 10
417.2544386293878
 20
232.081287683335
 10
417.3791263739917
 20
232.1005692779142
 10
417.5144201937786
 20
232.0831870956845
 10
417.607086597413
 20
232.0518649265005
  0
LWPOLYLINE
  5
29C
330
2
100
AcDbEntity
  8
0
100
AcDbPolyline
 90
       14
 70
   128
 43
0.0
 10
417.0547482872241
 20
231.986657082073
 10
417.0009089417607
 20
231.9539630680304
 10
416.9112174030533
 20
231.864956987346
 10
416.8445704883744
 20
231.7455699334159
 10
416.803529577302
 20
231.6003898433983
 10
416.7896716369581
 20
231.4349959943161
 10
416.803529577302
 20
231.2557442049415
 10
416.8445704883744
 20
231.0695232038002
 10
416.9112174030533
 20
230.8834892352424
 10
417.0009089417607
 20
230.7047916157994
 10
417.1101985868509
 20
230.5402973767239
 10
417.2348863314551
 20
230.3963280374894
 10
417.3701801512422
 20
230.2784163999322
 10
417.5108812531193
 20
230.191093572211
  0
ARC
  5
29D
330
2
100
AcDbEntity
  8
0
100
AcDbCircle
 10
417.7670681806514
 20
230.6193923993701
 30
0.0
 40
0.4990707637259625
100
AcDbArc
 50
239.1142477648958
 51
293.6179845091037
  0
SPLINE
  5
29E
330
2
100
AcDbEntity
  8
0
100
AcDbSpline
210
0.0
220
0.0
230
1.0
 70
     8
 71
     3
 72
     9
 73
     5
 74
     0
 42
0.000000001
 43
0.0000000001
 40
0.0
 40
0.0
 40
0.0
 40
0.0
 40
0.854116739293677
 40
1.0
 40
1.0
 40
1.0
 40
1.0
 10
413.1783390569719
 20
217.8477735523991
 30
0.0
 10
413.2731478381495
 20
217.8052475202055
 30
0.0
 10
413.3841499726541
 20
217.7554580356571
 30
0.0
 10
413.5234565181458
 20
217.7336477064391
 30
0.0
 10
413.5437790112398
 20
217.7304659444958
 30
0.0
  0
ARC
  5
29F
330
2
100
AcDbEntity
  8
0
100
AcDbCircle
 10
414.302862442337
 20
232.0440322455854
 30
0.0
 40
0.1734943617880045
100
AcDbArc
 50
63.66490470999258
 51
139.2649519426985
  0
LWPOLYLINE
  5
2A0
330
2
100
AcDbEntity
  8
0
100
AcDbPolyline
 90
        3
 70
   128
 43
0.0
 10
414.4764407350431
 20
232.2610718143558
 10
414.4791576081307
 20
232.2790331670339
 10
414.4800655161994
 20
232.2848596201018
  0
ARC
  5
2A1
330
2
100
AcDbEntity
  8
0
100
AcDbCircle
 10
417.2042546891622
 20
231.7762535725178
 30
0.0
 40
2.68941449654942
100
AcDbArc
 50
158.5802719199049
 51
186.6707413642949
  0
LINE
  5
2A2
330
2
100
AcDbEntity
  8
0
100
AcDbLine
 10
419.0184374663861
 20
229.0190834735622
 30
0.0
 11
419.029322422529
 21
229.0868243350087
 31
0.0
  0
LINE
  5
2A3
330
2
100
AcDbEntity
  8
0
100
AcDbLine
 10
404.5471236594555
 20
227.9185971035213
 30
0.0
 11
404.5440145931195
 21
227.6988978593206
 31
0.0
  0
LINE
  5
2A4
330
2
100
AcDbEntity
  8
0
100
AcDbLine
 10
405.4815869598224
 20
227.2301116759945
 30
0.0
 11
405.4846960261077
 21
227.4498109201952
 31
0.0
  0
LINE
  5
2A5
330
2
100
AcDbEntity
  8
0
100
AcDbLine
 10
406.9271149897253
 20
226.7286014384117
 30
0.0
 11
406.9240059234404
 21
226.5089021942113
 31
0.0
  0
LINE
  5
2A6
330
2
100
AcDbEntity
  8
0
100
AcDbLine
 10
407.8615783236996
 20
226.0401159940561
 30
0.0
 11
407.8646873899843
 21
226.2598152382566
 31
0.0
  0
LINE
  5
2A7
330
2
100
AcDbEntity
  8
0
100
AcDbLine
 10
409.3071064543727
 20
225.538605706088
 30
0.0
 11
409.303997388088
 21
225.3189064618873
 31
0.0
  0
LINE
  5
2A8
330
2
100
AcDbEntity
  8
0
100
AcDbLine
 10
410.2415696204132
 20
224.8501203457247
 30
0.0
 11
410.2446786866981
 21
225.0698195899254
 31
0.0
  0
LINE
  5
2A9
330
2
100
AcDbEntity
  8
0
100
AcDbLine
 10
411.6839885840311
 20
224.1289108638903
 30
0.0
 11
411.6870976503158
 21
224.348610108091
 31
0.0
  0
LINE
  5
2AA
330
2
100
AcDbEntity
  8
0
100
AcDbLine
 10
412.6246700169681
 20
223.8798239247649
 30
0.0
 11
412.6215609506831
 21
223.6601246805644
 31
0.0
  0
LINE
  5
2AB
330
2
100
AcDbEntity
  8
0
100
AcDbLine
 10
414.0639801830052
 20
222.9389150644033
 30
0.0
 11
414.06708924929
 21
223.1586143086038
 31
0.0
  0
LINE
  5
2AC
330
2
100
AcDbEntity
  8
0
100
AcDbLine
 10
415.0046613472889
 20
222.6898282596044
 30
0.0
 11
415.0015522809529
 21
222.4701290154039
 31
0.0
  0
LINE
  5
2AD
330
2
100
AcDbEntity
  8
0
100
AcDbLine
 10
416.4439715132751
 20
221.7489193992938
 30
0.0
 11
416.4470805795598
 21
221.9686186434945
 31
0.0
  0
LINE
  5
2AE
330
2
100
AcDbEntity
  8
0
100
AcDbLine
 10
417.3846532149164
 20
221.4998323257908
 30
0.0
 11
417.3815441486315
 21
221.2801330815901
 31
0.0
  0
SPLINE
  5
2AF
330
2
100
AcDbEntity
  8
0
100
AcDbSpline
210
0.0
220
0.0
230
1.0
 70
     8
 71
     3
 72
     9
 73
     5
 74
     0
 42
0.000000001
 43
0.0000000001
 40
0.0
 40
0.0
 40
0.0
 40
0.0
 40
0.5305424967065104
 40
1.0
 40
1.0
 40
1.0
 40
1.0
 10
414.2475804957865
 20
232.2676687360299
 30
0.0
 10
414.2762314621154
 20
232.2793084539162
 30
0.0
 10
414.3302346126764
 20
232.301247729202
 30
0.0
 10
414.3971643876624
 20
232.2813760101669
 30
0.0
 10
414.4285850727233
 20
232.2720470825627
 30
0.0
  0
SPLINE
  5
2B0
330
2
100
AcDbEntity
  8
0
100
AcDbSpline
210
0.0
220
0.0
230
1.0
 70
     8
 71
     3
 72
    16
 73
    12
 74
     0
 42
0.000000001
 43
0.0000000001
 40
0.0
 40
0.0
 40
0.0
 40
0.0
 40
0.1105668834881573
 40
0.2189563953003823
 40
0.3251655599597744
 40
0.4430528864971346
 40
0.5511575449089677
 40
0.6494770598945015
 40
0.8131089410549606
 40
0.9691568101639823
 40
1.0
 40
1.0
 40
1.0
 40
1.0
 10
397.9486986696704
 20
226.4221561226459
 30
0.0
 10
397.9068940340606
 20
226.3995270686471
 30
0.0
 10
397.8241080132266
 20
226.3547145901157
 30
0.0
 10
397.7245492286572
 20
226.2789214983977
 30
0.0
 10
397.6421322482488
 20
226.1962847963621
 30
0.0
 10
397.5830014349981
 20
226.1089120925224
 30
0.0
 10
397.5490828917921
 20
226.0208638312781
 30
0.0
 10
397.5351349251189
 20
225.9189755216962
 30
0.0
 10
397.5598157374052
 20
225.8050774462185
 30
0.0
 10
397.6068933829506
 20
225.7110261664414
 30
0.0
 10
397.6562937146068
 20
225.6670868688971
 30
0.0
 10
397.6644463989346
 20
225.6598354353448
 30
0.0
  0
SPLINE
  5
2B1
330
2
100
AcDbEntity
  8
0
100
AcDbSpline
210
0.0
220
0.0
230
1.0
 70
     8
 71
     3
 72
     9
 73
     5
 74
     0
 42
0.000000001
 43
0.0000000001
 40
0.0
 40
0.0
 40
0.0
 40
0.0
 40
0.5542507545204347
 40
1.0
 40
1.0
 40
1.0
 40
1.0
 10
414.4285850727233
 20
232.2720470825627
 30
0.0
 10
414.4373181891758
 20
232.2697251971331
 30
0.0
 10
414.4530748054385
 20
232.2655359643523
 30
0.0
 10
414.4651253577897
 20
232.2718569200883
 30
0.0
 10
414.4704968824079
 20
232.2746744813385
 30
0.0
  0
SPLINE
  5
2B2
330
2
100
AcDbEntity
  8
0
100
AcDbSpline
210
0.0
220
0.0
230
1.0
 70
     8
 71
     3
 72
     9
 73
     5
 74
     0
 42
0.000000001
 43
0.0000000001
 40
0.0
 40
0.0
 40
0.0
 40
0.0
 40
0.0255059051163912
 40
1.0
 40
1.0
 40
1.0
 40
1.0
 10
414.5727164040578
 20
232.6881716429516
 30
0.0
 10
414.5744506371739
 20
232.6889014707437
 30
0.0
 10
414.6424440335392
 20
232.7175155422178
 30
0.0
 10
414.6863644704626
 20
232.7886675990815
 30
0.0
 10
414.7291646768891
 20
232.858004858334
 30
0.0
  0
LINE
  5
2B3
330
2
100
AcDbEntity
  8
0
100
AcDbLine
 10
414.7058949733167
 20
232.8375457369418
 30
0.0
 11
414.6999046069456
 21
232.8257813425359
 31
0.0
  0
SPLINE
  5
2B4
330
2
100
AcDbEntity
  8
0
100
AcDbSpline
210
0.0
220
0.0
230
1.0
 70
     8
 71
     3
 72
    15
 73
    11
 74
     0
 42
0.000000001
 43
0.0000000001
 40
0.0
 40
0.0
 40
0.0
 40
0.0
 40
0.1406477916884527
 40
0.280528042117006
 40
0.4204266748144307
 40
0.5603610718138704
 40
0.7003439691738126
 40
0.8399278141434214
 40
0.9829221424423812
 40
1.0
 40
1.0
 40
1.0
 40
1.0
 10
419.1865710004917
 20
229.0982518678372
 30
0.0
 10
419.2331793174455
 20
229.0865464491349
 30
0.0
 10
419.3261416010653
 20
229.0631994903854
 30
0.0
 10
419.4391856476253
 20
229.1157241402757
 30
0.0
 10
419.5126469295223
 20
229.2262924968304
 30
0.0
 10
419.5362275894972
 20
229.3855532653995
 30
0.0
 10
419.5072608640691
 20
229.5719981076725
 30
0.0
 10
419.4275001491976
 20
229.7562080504106
 30
0.0
 10
419.3470078915116
 20
229.8829755113561
 30
0.0
 10
419.2947134055513
 20
229.9256542370065
 30
0.0
 10
419.2891341865418
 20
229.9302075652036
 30
0.0
  0
SPLINE
  5
2B5
330
2
100
AcDbEntity
  8
0
100
AcDbSpline
210
0.0
220
0.0
230
1.0
 70
     8
 71
     3
 72
     9
 73
     5
 74
     0
 42
0.000000001
 43
0.0000000001
 40
0.0
 40
0.0
 40
0.0
 40
0.0
 40
0.5279284598132907
 40
1.0
 40
1.0
 40
1.0
 40
1.0
 10
413.1783390569719
 20
217.8477735523991
 30
0.0
 10
413.1750938679902
 20
217.8464378340509
 30
0.0
 10
413.1689468438603
 20
217.8439077216403
 30
0.0
 10
413.1638543768328
 20
217.8458539615167
 30
0.0
 10
413.1614503680798
 20
217.8467727259727
 30
0.0
  0
SPLINE
  5
2B6
330
2
100
AcDbEntity
  8
0
100
AcDbSpline
210
0.0
220
0.0
230
1.0
 70
     8
 71
     3
 72
    10
 73
     6
 74
     0
 42
0.000000001
 43
0.0000000001
 40
0.0
 40
0.0
 40
0.0
 40
0.0
 40
0.178714453011976
 40
0.6039770724925684
 40
1.0
 40
1.0
 40
1.0
 40
1.0
 10
419.1575066577144
 20
229.1429261520716
 30
0.0
 10
419.1604141312551
 20
229.1422122919426
 30
0.0
 10
419.1702401264551
 20
229.1397997553874
 30
0.0
 10
419.1816365440111
 20
229.1240963101095
 30
0.0
 10
419.1849656901353
 20
229.1066597545011
 30
0.0
 10
419.1865710004917
 20
229.0982518678372
 30
0.0
  0
SPLINE
  5
2B7
330
2
100
AcDbEntity
  8
0
100
AcDbSpline
210
0.0
220
0.0
230
1.0
 70
     8
 71
     3
 72
    10
 73
     6
 74
     0
 42
0.000000001
 43
0.0000000001
 40
0.0
 40
0.0
 40
0.0
 40
0.0
 40
0.4625192652817666
 40
0.9248254773409648
 40
1.0
 40
1.0
 40
1.0
 40
1.0
 10
419.0293224225056
 20
229.0868243350035
 30
0.0
 10
419.0313798184648
 20
229.0949515567431
 30
0.0
 10
419.0354936626723
 20
229.1112022565283
 30
0.0
 10
419.0454788113893
 20
229.1242672369044
 30
0.0
 10
419.0532140828398
 20
229.1264101542865
 30
0.0
 10
419.0542959734108
 20
229.1267098725477
 30
0.0
  0
LWPOLYLINE
  5
2B8
330
2
100
AcDbEntity
  8
0
100
AcDbPolyline
 90
        8
 70
   128
 43
0.0
 10
419.2642412370885
 20
229.125684523927
 10
419.2692229435631
 20
229.1280692227945
 10
419.3337830868758
 20
229.1825640048337
 10
419.3749043307466
 20
229.2680483078687
 10
419.389019792684
 20
229.3771073720195
 10
419.3749043307466
 20
229.5002818982612
 10
419.3337830868758
 20
229.6268874451666
 10
419.2751557470851
 20
229.7369061767524
  0
SPLINE
  5
2B9
330
2
100
AcDbEntity
  8
0
100
AcDbSpline
210
0.0
220
0.0
230
1.0
 70
     8
 71
     3
 72
     9
 73
     5
 74
     0
 42
0.000000001
 43
0.0000000001
 40
0.0
 40
0.0
 40
0.0
 40
0.0
 40
0.8436538607151817
 40
1.0
 40
1.0
 40
1.0
 40
1.0
 10
424.6770644150053
 20
222.6284636841717
 30
0.0
 10
424.6817884578653
 20
222.6292597818369
 30
0.0
 10
424.6873879615011
 20
222.6302034125156
 30
0.0
 10
424.6912401465353
 20
222.6336403822124
 30
0.0
 10
424.6918424207931
 20
222.6341777391553
 30
0.0
  0
LWPOLYLINE
  5
2BA
330
2
100
AcDbEntity
  8
0
100
AcDbPolyline
 90
        3
 70
   128
 43
0.0
 10
424.4668612267061
 20
222.5088724771081
 10
424.4747182553227
 20
222.5110310698378
 10
424.4790513888848
 20
222.5129177692961
  0
LWPOLYLINE
  5
2BB
330
2
100
AcDbEntity
  8
0
100
AcDbPolyline
 90
        3
 70
   128
 43
0.0
 10
415.2123562186837
 20
217.8816199730716
 10
415.2202379650373
 20
217.8837909246697
 10
415.2245796960668
 20
217.8856819229381
  0
SPLINE
  5
2BC
330
2
100
AcDbEntity
  8
0
100
AcDbSpline
210
0.0
220
0.0
230
1.0
 70
     8
 71
     3
 72
    10
 73
     6
 74
     0
 42
0.000000001
 43
0.0000000001
 40
0.0
 40
0.0
 40
0.0
 40
0.0
 40
0.3662713544094294
 40
0.7420901123063637
 40
1.0
 40
1.0
 40
1.0
 40
1.0
 10
415.0062013721679
 20
217.793032162753
 30
0.0
 10
414.9922663336779
 20
217.7880761889212
 30
0.0
 10
414.9640330193506
 20
217.7780350564847
 30
0.0
 10
414.9406520869003
 20
217.7690229076477
 30
0.0
 10
414.9386576541294
 20
217.7668084416914
 30
0.0
 10
414.9378459756047
 20
217.7659072157962
 30
0.0
  0
LINE
  5
2BD
330
2
100
AcDbEntity
  8
0
100
AcDbLine
 10
415.1364350333722
 20
217.7958253617382
 30
0.0
 11
415.2174878438576
 21
217.812609094176
 31
0.0
  0
LWPOLYLINE
  5
2BE
330
2
100
AcDbEntity
  8
0
100
AcDbPolyline
 90
        7
 70
   128
 43
0.0
 10
392.3053193645646
 20
222.9863649959674
 10
392.282262515994
 20
223.0318524199515
 10
392.2648692620655
 20
223.1201494193779
 10
392.282262515994
 20
223.208446418804
 10
392.3337727484297
 20
223.2933500975109
 10
392.4174217313409
 20
223.3715978434393
 10
392.5299937358346
 20
223.440182551072
  0
LWPOLYLINE
  5
2BF
330
2
100
AcDbEntity
  8
0
100
AcDbPolyline
 90
        7
 70
   128
 43
0.0
 10
412.4173308666345
 20
217.5983858692707
 10
412.5299031397815
 20
217.5298010272604
 10
412.6135518540393
 20
217.451552878352
 10
412.6650615491173
 20
217.3666494682984
 10
412.6824548030458
 20
217.2783524689232
 10
412.6650626238326
 20
217.1900554694969
 10
412.6420057752111
 20
217.1445680454617
  0
LWPOLYLINE
  5
2C0
330
2
100
AcDbEntity
  8
0
100
AcDbPolyline
 90
        7
 70
   128
 43
0.0
 10
403.8446710736086
 20
228.7560408504894
 10
403.8216142250379
 20
228.8015282744734
 10
403.8042215084161
 20
228.8898255425531
 10
403.8216147623445
 20
228.9781225419793
 10
403.8731244574736
 20
229.0630259520328
 10
403.9567737090383
 20
229.1412738322881
 10
404.0693459822362
 20
229.2098586742984
  0
LWPOLYLINE
  5
2C1
330
2
100
AcDbEntity
  8
0
100
AcDbPolyline
 90
        7
 70
   128
 43
0.0
 10
423.9566820383208
 20
223.3680614551395
 10
424.0692543114678
 20
223.2994766131292
 10
424.1529035630833
 20
223.2212287328739
 10
424.2044132581614
 20
223.1363253228205
 10
424.2218070494474
 20
223.0480285920985
 10
424.2044154075408
 20
222.9597318613255
 10
424.1813580216128
 20
222.9142441686881
  0
LWPOLYLINE
  5
2C2
330
2
100
AcDbEntity
  8
0
100
AcDbPolyline
 90
        7
 70
   128
 43
0.0
 10
398.0749952190866
 20
225.8712029232029
 10
398.0519383705162
 20
225.9166903472378
 10
398.0345456538941
 20
226.0049876153175
 10
398.0519389078227
 20
226.0932846147439
 10
398.1034486029519
 20
226.1781880247463
 10
398.1870978545162
 20
226.2564359050016
 10
398.2996701277142
 20
226.3250207470119
  0
LWPOLYLINE
  5
2C3
330
2
100
AcDbEntity
  8
0
100
AcDbPolyline
 90
        7
 70
   128
 43
0.0
 10
418.1870061837988
 20
220.483223527853
 10
418.2995784569457
 20
220.4146386858426
 10
418.3832277085613
 20
220.3363908055874
 10
418.4347374036393
 20
220.2514873955849
 10
418.4521311949256
 20
220.163190664812
 10
418.4347384783547
 20
220.0748933967325
 10
418.4116810923753
 20
220.0294057040439
  0
LWPOLYLINE
  5
2C4
330
2
100
AcDbEntity
  8
0
100
AcDbPolyline
 90
        7
 70
   128
 43
0.0
 10
380.765967118163
 20
217.2166888727411
 10
380.7429108068991
 20
217.2621765654294
 10
380.7255175530215
 20
217.3504735648557
 10
380.7429102695924
 20
217.4387702955778
 10
380.7944210393856
 20
217.5236742429888
 10
380.8780697535926
 20
217.6019218545398
 10
380.9906414894328
 20
217.6705064278967
  0
LWPOLYLINE
  5
2C5
330
2
100
AcDbEntity
  8
0
100
AcDbPolyline
 90
        7
 70
   128
 43
0.0
 10
400.8779786202328
 20
211.8287097460954
 10
400.9905508933798
 20
211.7601249040852
 10
401.0741998762909
 20
211.6818768895032
 10
401.1257098400736
 20
211.5969736137765
 10
401.1431030940018
 20
211.5086766144011
 10
401.125710377431
 20
211.4203793462705
 10
401.1026535288094
 20
211.3748919222865
  0
LWPOLYLINE
  5
2C6
330
2
100
AcDbEntity
  8
0
100
AcDbPolyline
 90
        7
 70
   128
 43
0.0
 10
386.5356432413894
 20
220.1015269343543
 10
386.512586661421
 20
220.1470144927159
 10
386.4951934075437
 20
220.2353114920911
 10
386.5125863927676
 20
220.323608357191
 10
386.5640968939079
 20
220.4085121702244
 10
386.6477456081145
 20
220.4867597818263
 10
386.7603176126083
 20
220.5553444894588
  0
LWPOLYLINE
  5
2C7
330
2
100
AcDbEntity
  8
0
100
AcDbPolyline
 90
        7
 70
   128
 43
0.0
 10
406.6476547434082
 20
214.7135478076575
 10
406.760227016606
 20
214.6449629656984
 10
406.8438759995172
 20
214.5667149510655
 10
406.8953856945953
 20
214.4818115410631
 10
406.9127789485238
 20
214.3935145416367
 10
406.8953865006061
 20
214.3052174078837
 10
406.872329517658
 20
214.2597299166853
  0
LINE
  5
2C8
330
2
100
AcDbEntity
  8
0
100
AcDbLine
 10
394.9808358833292
 20
228.483717127441
 30
0.0
 11
394.9825054078936
 21
228.5982697792231
 31
0.0
  0
LINE
  5
2C9
330
2
100
AcDbEntity
  8
0
100
AcDbLine
 10
413.3149477549461
 20
217.7917814953812
 30
0.0
 11
412.7966670469036
 21
217.686166098897
 31
0.0
  0
SPLINE
  5
2CA
330
2
100
AcDbEntity
  8
0
100
AcDbSpline
210
0.0
220
0.0
230
1.0
 70
     8
 71
     3
 72
     9
 73
     5
 74
     0
 42
0.000000001
 43
0.0000000001
 40
0.0
 40
0.0
 40
0.0
 40
0.0
 40
0.854116739293677
 40
1.0
 40
1.0
 40
1.0
 40
1.0
 10
395.8693109560575
 20
209.1932595019418
 30
0.0
 10
395.964119737235
 20
209.150733469748
 30
0.0
 10
396.0751218717397
 20
209.1009439851998
 30
0.0
 10
396.2144284172314
 20
209.0791336559817
 30
0.0
 10
396.2347509103254
 20
209.0759518940383
 30
0.0
  0
SPLINE
  5
2CB
330
2
100
AcDbEntity
  8
0
100
AcDbSpline
210
0.0
220
0.0
230
1.0
 70
     8
 71
     3
 72
     9
 73
     5
 74
     0
 42
0.000000001
 43
0.0000000001
 40
0.0
 40
0.0
 40
0.0
 40
0.0
 40
0.3915832025958093
 40
1.0
 40
1.0
 40
1.0
 40
1.0
 10
397.3153099670874
 20
209.0746208955534
 30
0.0
 10
397.3756980940586
 20
209.0874599235438
 30
0.0
 10
397.5299134091463
 20
209.1202474075458
 30
0.0
 10
397.6542981458044
 20
209.1769040760089
 30
0.0
 10
397.7299759089282
 20
209.2113749447869
 30
0.0
  0
LINE
  5
2CC
330
2
100
AcDbEntity
  8
0
100
AcDbLine
 10
407.4126868264523
 20
215.0077339068034
 30
0.0
 11
407.4126868264523
 21
215.0177075338827
 31
0.0
  0
LINE
  5
2CD
330
2
100
AcDbEntity
  8
0
100
AcDbLine
 10
393.0077714130539
 20
222.1489209803458
 30
0.0
 11
393.004662346769
 21
221.9292217361453
 31
0.0
  0
LINE
  5
2CE
330
2
100
AcDbEntity
  8
0
100
AcDbLine
 10
393.9422347134211
 20
221.4604355528193
 30
0.0
 11
393.945343779706
 21
221.68013479702
 31
0.0
  0
LINE
  5
2CF
330
2
100
AcDbEntity
  8
0
100
AcDbLine
 10
395.3877627433237
 20
220.9589253151855
 30
0.0
 11
395.3846536770388
 21
220.7392260709848
 31
0.0
  0
LINE
  5
2D0
330
2
100
AcDbEntity
  8
0
100
AcDbLine
 10
396.322226077298
 20
220.2704398708807
 30
0.0
 11
396.3253351435831
 21
220.4901391150813
 31
0.0
  0
LINE
  5
2D1
330
2
100
AcDbEntity
  8
0
100
AcDbLine
 10
397.7677542079712
 20
219.7689295828618
 30
0.0
 11
397.7646451416863
 21
219.5492303386611
 31
0.0
  0
LINE
  5
2D2
330
2
100
AcDbEntity
  8
0
100
AcDbLine
 10
398.7022173740117
 20
219.0804442224985
 30
0.0
 11
398.7053264402966
 21
219.300143466699
 31
0.0
  0
LINE
  5
2D3
330
2
100
AcDbEntity
  8
0
100
AcDbLine
 10
400.1446363376294
 20
218.359234740715
 30
0.0
 11
400.1477454039143
 21
218.5789339849157
 31
0.0
  0
LINE
  5
2D4
330
2
100
AcDbEntity
  8
0
100
AcDbLine
 10
401.0853177706174
 20
218.1101478015896
 30
0.0
 11
401.0822087042814
 21
217.8904485573889
 31
0.0
  0
LINE
  5
2D5
330
2
100
AcDbEntity
  8
0
100
AcDbLine
 10
402.5246279366034
 20
217.1692389412278
 30
0.0
 11
402.5277370028886
 21
217.3889381854285
 31
0.0
  0
LINE
  5
2D6
330
2
100
AcDbEntity
  8
0
100
AcDbLine
 10
403.4653091008873
 20
216.9201521364291
 30
0.0
 11
403.4622000346023
 21
216.7004528922285
 31
0.0
  0
LINE
  5
2D7
330
2
100
AcDbEntity
  8
0
100
AcDbLine
 10
404.9046192668734
 20
215.9792432760676
 30
0.0
 11
404.9077283332094
 21
216.1989425202683
 31
0.0
  0
LINE
  5
2D8
330
2
100
AcDbEntity
  8
0
100
AcDbLine
 10
405.8453009685146
 20
215.7301562026155
 30
0.0
 11
405.8421919022298
 21
215.5104569584148
 31
0.0
  0
LINE
  5
2D9
330
2
100
AcDbEntity
  8
0
100
AcDbLine
 10
401.6430109719303
 20
212.1228959795678
 30
0.0
 11
401.6430109719303
 21
212.1328696065961
 31
0.0
  0
LINE
  5
2DA
330
2
100
AcDbEntity
  8
0
100
AcDbLine
 10
387.2380955585321
 20
219.2640830530595
 30
0.0
 11
387.2349864922469
 21
219.0443838088588
 31
0.0
  0
LINE
  5
2DB
330
2
100
AcDbEntity
  8
0
100
AcDbLine
 10
388.172558858899
 20
218.5755976255328
 30
0.0
 11
388.1756679251838
 21
218.7952968697332
 31
0.0
  0
LINE
  5
2DC
330
2
100
AcDbEntity
  8
0
100
AcDbLine
 10
389.6180868888017
 20
218.0740873879499
 30
0.0
 11
389.6149778225167
 21
217.8543881437495
 31
0.0
  0
LINE
  5
2DD
330
2
100
AcDbEntity
  8
0
100
AcDbLine
 10
390.552550222776
 20
217.3856019435943
 30
0.0
 11
390.5556592890609
 21
217.6053011877948
 31
0.0
  0
LINE
  5
2DE
330
2
100
AcDbEntity
  8
0
100
AcDbLine
 10
391.9980783534493
 20
216.8840916556262
 30
0.0
 11
391.9949692871644
 21
216.6643924114255
 31
0.0
  0
LINE
  5
2DF
330
2
100
AcDbEntity
  8
0
100
AcDbLine
 10
392.9325415194896
 20
216.1956062952629
 30
0.0
 11
392.9356505857747
 21
216.4153055394636
 31
0.0
  0
LINE
  5
2E0
330
2
100
AcDbEntity
  8
0
100
AcDbLine
 10
394.3749604831075
 20
215.4743968134285
 30
0.0
 11
394.3780695493924
 21
215.6940960576292
 31
0.0
  0
LINE
  5
2E1
330
2
100
AcDbEntity
  8
0
100
AcDbLine
 10
395.3156419160446
 20
215.2253098743031
 30
0.0
 11
395.3125328497595
 21
215.0056106301025
 31
0.0
  0
LINE
  5
2E2
330
2
100
AcDbEntity
  8
0
100
AcDbLine
 10
396.7549520820817
 20
214.2844010139415
 30
0.0
 11
396.7580611483666
 21
214.504100258142
 31
0.0
  0
LINE
  5
2E3
330
2
100
AcDbEntity
  8
0
100
AcDbLine
 10
397.6956332463653
 20
214.0353142091426
 30
0.0
 11
397.6925241800805
 21
213.8156149649422
 31
0.0
  0
LINE
  5
2E4
330
2
100
AcDbEntity
  8
0
100
AcDbLine
 10
399.1349434123515
 20
213.094405348832
 30
0.0
 11
399.1380524786873
 21
213.3141045930326
 31
0.0
  0
LINE
  5
2E5
330
2
100
AcDbEntity
  8
0
100
AcDbLine
 10
400.0756251139928
 20
212.845318275329
 30
0.0
 11
400.0725160477078
 21
212.6256190311283
 31
0.0
  0
SPLINE
  5
2E6
330
2
100
AcDbEntity
  8
0
100
AcDbSpline
210
0.0
220
0.0
230
1.0
 70
     8
 71
     3
 72
    16
 73
    12
 74
     0
 42
0.000000001
 43
0.0000000001
 40
0.0
 40
0.0
 40
0.0
 40
0.0
 40
0.1105668969016369
 40
0.2189559753361731
 40
0.3251651528803858
 40
0.443052493719309
 40
0.5511575421020815
 40
0.6494767267047611
 40
0.8131089183821737
 40
0.9691568064222243
 40
1.0
 40
1.0
 40
1.0
 40
1.0
 10
380.6396705687559
 20
217.7676420721884
 30
0.0
 10
380.5978659141331
 20
217.7450130241961
 30
0.0
 10
380.5150800244772
 20
217.7002006489474
 30
0.0
 10
380.4155216052059
 20
217.6244075928833
 30
0.0
 10
380.333104612617
 20
217.5417710223326
 30
0.0
 10
380.273974056609
 20
217.4543981934269
 30
0.0
 10
380.2400544853722
 20
217.3663499928559
 30
0.0
 10
380.2261078596542
 20
217.2644615597944
 30
0.0
 10
380.2507872639671
 20
217.1505634663797
 30
0.0
 10
380.2978652945474
 20
217.0565121162606
 30
0.0
 10
380.3472656154647
 20
217.0125728184789
 30
0.0
 10
380.3554182980199
 20
217.0053213848876
 30
0.0
  0
LINE
  5
2E7
330
2
100
AcDbEntity
  8
0
100
AcDbLine
 10
415.5173090891564
 20
217.7588432358493
 30
0.0
 11
415.4132209238448
 21
217.8330449170839
 31
0.0
  0
SPLINE
  5
2E8
330
2
100
AcDbEntity
  8
0
100
AcDbSpline
210
0.0
220
0.0
230
1.0
 70
     8
 71
     3
 72
     9
 73
     5
 74
     0
 42
0.000000001
 43
0.0000000001
 40
0.0
 40
0.0
 40
0.0
 40
0.0
 40
0.8436538607151817
 40
1.0
 40
1.0
 40
1.0
 40
1.0
 10
413.1377116312716
 20
216.8587872923049
 30
0.0
 10
413.1424356741318
 20
216.8595833899699
 30
0.0
 10
413.1480351777675
 20
216.8605270206488
 30
0.0
 10
413.1518873628016
 20
216.8639639903456
 30
0.0
 10
413.1524896370595
 20
216.8645013472885
 30
0.0
  0
LINE
  5
2E9
330
2
100
AcDbEntity
  8
0
100
AcDbLine
 10
395.8733351174083
 20
209.2380580522813
 30
0.0
 11
395.8733351174083
 21
209.2480316793606
 31
0.0
  0
LWPOLYLINE
  5
2EA
330
2
100
AcDbEntity
  8
0
100
AcDbPolyline
 90
        3
 70
   128
 43
0.0
 10
412.927508442998
 20
216.7391960852285
 10
412.935367083636
 20
216.7413554839691
 10
412.9396996798411
 20
216.7432419147742
  0
LWPOLYLINE
  5
2EB
330
2
100
AcDbEntity
  8
0
100
AcDbPolyline
 90
        3
 70
   128
 43
0.0
 10
397.903328655118
 20
209.2271061913141
 10
397.9112098641138
 20
209.2292768742079
 10
397.915552132501
 20
209.2311681411297
  0
LWPOLYLINE
  5
2EC
330
2
100
AcDbEntity
  8
0
100
AcDbPolyline
 90
        3
 70
   128
 43
0.0
 10
414.8055951289538
 20
217.1302168179534
 10
414.789667209249
 20
217.1229768372002
 10
414.7408861416574
 20
217.1087285328785
  0
SPLINE
  5
2ED
330
2
100
AcDbEntity
  8
0
100
AcDbSpline
210
0.0
220
0.0
230
1.0
 70
     8
 71
     3
 72
    10
 73
     6
 74
     0
 42
0.000000001
 43
0.0000000001
 40
0.0
 40
0.0
 40
0.0
 40
0.0
 40
0.3662686561021974
 40
0.7420890141705608
 40
1.0
 40
1.0
 40
1.0
 40
1.0
 10
397.6971727339105
 20
209.1385178436242
 30
0.0
 10
397.683237896908
 20
209.1335619733593
 30
0.0
 10
397.6550048245945
 20
209.1235209916429
 30
0.0
 10
397.6316239850568
 20
209.1145088532871
 30
0.0
 10
397.6296295529461
 20
209.1122943901053
 30
0.0
 10
397.6288178746902
 20
209.1113931653388
 30
0.0
  0
LINE
  5
2EE
330
2
100
AcDbEntity
  8
0
100
AcDbLine
 10
397.8274069324489
 20
209.1413113112762
 30
0.0
 11
397.9084597429342
 21
209.1580950437142
 31
0.0
  0
LINE
  5
2EF
330
2
100
AcDbEntity
  8
0
100
AcDbLine
 10
427.2739289716151
 20
224.4614348555865
 30
0.0
 11
427.3666141822056
 21
224.5077774609072
 31
0.0
  0
LINE
  5
2F0
330
2
100
AcDbEntity
  8
0
100
AcDbLine
 10
426.089667024406
 20
225.9217937072065
 30
0.0
 11
426.0755349048407
 21
225.9147276474496
 31
0.0
  0
LINE
  5
2F1
330
2
100
AcDbEntity
  8
0
100
AcDbLine
 10
426.7787867883099
 20
224.9783509494612
 30
0.0
 11
426.7964524751111
 21
224.9871837928617
 31
0.0
  0
LINE
  5
2F2
330
2
100
AcDbEntity
  8
0
100
AcDbLine
 10
394.9783807633796
 20
229.3593663474439
 30
0.0
 11
394.6355693954217
 21
229.1879606634395
 31
0.0
  0
LINE
  5
2F3
330
2
100
AcDbEntity
  8
0
100
AcDbLine
 10
406.9054941901781
 20
235.5138801243204
 30
0.0
 11
406.8913620706132
 21
235.5068140645633
 31
0.0
  0
LINE
  5
2F4
330
2
100
AcDbEntity
  8
0
100
AcDbLine
 10
407.5946139540822
 20
234.5704373665751
 30
0.0
 11
407.6122796408833
 21
234.5792702099757
 31
0.0
  0
LINE
  5
2F5
330
2
100
AcDbEntity
  8
0
100
AcDbLine
 10
408.9307531991403
 20
234.5068339431602
 30
0.0
 11
408.9946389770374
 21
234.5387768321089
 31
0.0
  0
LINE
  5
2F6
330
2
100
AcDbEntity
  8
0
100
AcDbLine
 10
417.3377909989958
 20
232.5300476233278
 30
0.0
 11
417.3024574760137
 21
232.5123808618623
 31
0.0
  0
LWPOLYLINE
  5
2F7
330
2
100
AcDbEntity
  8
0
100
AcDbPolyline
 90
       13
 70
   128
 43
0.0
 10
418.4851235146648
 20
230.848272207998
 10
418.3634975501489
 20
230.9263787883383
 10
418.2474357718676
 20
231.0321896360258
 10
418.1419746952949
 20
231.1611131651543
 10
418.0516908703187
 20
231.3075547249785
 10
417.9805017957221
 20
231.4651598569753
 10
417.9314966560674
 20
231.6270893664155
 10
417.9068021204923
 20
231.7863164677701
 10
417.9074897851648
 20
231.9359316381954
 10
417.9335296931493
 20
232.0694425457052
 10
417.9837919465815
 20
232.1810555920842
 10
418.0560954704571
 20
232.2659274273153
 10
418.1093700685037
 20
232.3027494282292
  0
ARC
  5
2F8
330
2
100
AcDbEntity
  8
0
100
AcDbCircle
 10
418.7002875225841
 20
231.1903617122975
 30
0.0
 40
0.4035146553116891
100
AcDbArc
 50
238.8779133759947
 51
293.8543237760035
  0
LINE
  5
2F9
330
2
100
AcDbEntity
  8
0
100
AcDbLine
 10
417.0847308147441
 20
231.564299203706
 30
0.0
 11
417.0745476285343
 21
231.4367980410523
 31
0.0
  0
LINE
  5
2FA
330
2
100
AcDbEntity
  8
0
100
AcDbLine
 10
377.8021016260682
 20
220.8359487226405
 30
0.0
 11
394.3971922416115
 21
229.1334279806292
 31
0.0
  0
LINE
  5
2FB
330
2
100
AcDbEntity
  8
0
100
AcDbLine
 10
395.1111297269408
 20
229.4904627731023
 30
0.0
 11
405.9365444880021
 21
234.9031041038245
 31
0.0
  0
ENDSEC
  0
SECTION
  2
OBJECTS
  0
DICTIONARY
  5
9
330
0
100
AcDbDictionary
281
     1
  3
ACAD_CIP_PREVIOUS_PRODUCT_INFO
350
31C
  3
ACAD_COLOR
350
3E
  3
ACAD_DETAILVIEWSTYLE
350
318
  3
ACAD_GROUP
350
35
  3
ACAD_LAYOUT
350
16
  3
ACAD_MATERIAL
350
B
  3
ACAD_MLEADERSTYLE
350
41
  3
ACAD_MLINESTYLE
350
36
  3
ACAD_PLOTSETTINGS
350
37
  3
ACAD_PLOTSTYLENAME
350
8
  3
ACAD_SCALELIST
350
3F
  3
ACAD_SECTIONVIEWSTYLE
350
316
  3
ACAD_TABLESTYLE
350
40
  3
ACAD_VISUALSTYLE
350
2B
  3
ACDB_RECOMPOSE_DATA
350
31E
  3
AcDbVariableDictionary
350
42
  0
DICTIONARY
  5
1E
330
1D
100
AcDbDictionary
280
     1
281
     1
  3
ACAD_LAYERSTATES
360
1F
  0
DICTIONARY
  5
6
330
5
100
AcDbDictionary
280
     1
281
     1
  0
DICTIONARY
  5
3
330
2
100
AcDbDictionary
280
     1
281
     1
  0
XRECORD
  5
31C
102
{ACAD_REACTORS
330
9
102
}
330
9
100
AcDbXrecord
280
     1
300
ACD
300
2021
300

  0
DICTIONARY
  5
3E
102
{ACAD_REACTORS
330
9
102
}
330
9
100
AcDbDictionary
281
     1
  0
DICTIONARY
  5
318
102
{ACAD_REACTORS
330
9
102
}
330
9
100
AcDbDictionary
281
     1
  3
Metric50
350
319
  0
DICTIONARY
  5
35
102
{ACAD_REACTORS
330
9
102
}
330
9
100
AcDbDictionary
281
     1
  0
DICTIONARY
  5
16
102
{ACAD_REACTORS
330
9
102
}
330
9
100
AcDbDictionary
281
     1
  3
Model
350
15
  3
布局1
350
1C
  0
DICTIONARY
  5
B
102
{ACAD_REACTORS
330
9
102
}
330
9
100
AcDbDictionary
281
     1
  3
ByBlock
350
3B
  3
ByLayer
350
38
  3
Global
350
A
  0
DICTIONARY
  5
41
102
{ACAD_REACTORS
330
9
102
}
330
9
100
AcDbDictionary
281
     1
  3
Standard
350
315
  0
DICTIONARY
  5
36
102
{ACAD_REACTORS
330
9
102
}
330
9
100
AcDbDictionary
281
     1
  3
Standard
350
4E
  0
DICTIONARY
  5
37
102
{ACAD_REACTORS
330
9
102
}
330
9
100
AcDbDictionary
281
     1
  0
ACDBDICTIONARYWDFLT
  5
8
102
{ACAD_REACTORS
330
9
102
}
330
9
100
AcDbDictionary
281
     1
  3
Normal
350
7
100
AcDbDictionaryWithDefault
340
7
  0
DICTIONARY
  5
3F
102
{ACAD_REACTORS
330
9
102
}
330
9
100
AcDbDictionary
281
     1
  3
A0
350
53
  3
A1
350
54
  3
A2
350
55
  3
A3
350
56
  3
A4
350
57
  3
A5
350
58
  3
A6
350
59
  3
A7
350
5A
  3
A8
350
5B
  3
A9
350
5C
  3
B0
350
5D
  3
B1
350
5E
  3
B2
350
5F
  3
B3
350
60
  3
B4
350
61
  3
B5
350
62
  3
B6
350
63
  0
DICTIONARY
  5
316
102
{ACAD_REACTORS
330
9
102
}
330
9
100
AcDbDictionary
281
     1
  3
Metric50
350
317
  0
DICTIONARY
  5
40
102
{ACAD_REACTORS
330
9
102
}
330
9
100
AcDbDictionary
281
     1
  3
Standard
350
4F
  0
DICTIONARY
  5
2B
102
{ACAD_REACTORS
330
9
102
}
330
9
100
AcDbDictionary
281
     1
  3
2dWireframe
350
2A
  3
Basic
350
304
  3
Brighten
350
308
  3
ColorChange
350
30C
  3
Conceptual
350
306
  3
Dim
350
307
  3
EdgeColorOff
350
314
  3
Facepattern
350
30B
  3
Flat
350
300
  3
FlatWithEdges
350
301
  3
Gouraud
350
302
  3
GouraudWithEdges
350
303
  3
Hidden
350
305
  3
JitterOff
350
312
  3
Linepattern
350
30A
  3
OverhangOff
350
313
  3
Realistic
350
51
  3
Shaded
350
311
  3
Shaded with edges
350
310
  3
Shades of Gray
350
30D
  3
Sketchy
350
30E
  3
Thicken
350
309
  3
Wireframe
350
52
  3
X-Ray
350
30F
  0
XRECORD
  5
31E
102
{ACAD_REACTORS
330
9
102
}
330
9
100
AcDbXrecord
280
     1
 90
        1
330
4F
  0
DICTIONARY
  5
42
102
{ACAD_REACTORS
330
9
102
}
330
9
100
AcDbDictionary
281
     1
  3
CANNOSCALE
350
43
  3
CENTEREXE
350
44
  3
CENTERLTYPEFILE
350
45
  3
CMLEADERSTYLE
350
46
  3
CTABLESTYLE
350
47
  3
CVIEWDETAILSTYLE
350
48
  3
CVIEWSECTIONSTYLE
350
49
  3
DIMASSOC
350
4A
  3
HIDETEXT
350
4B
  3
LAYEREVAL
350
4C
  3
LAYERNOTIFY
350
4D
  0
DICTIONARY
  5
1F
102
{ACAD_REACTORS
330
1E
102
}
330
1E
100
AcDbDictionary
281
     1
  0
ACDBDETAILVIEWSTYLE
  5
319
102
{ACAD_REACTORS
330
318
102
}
330
318
100
AcDbModelDocViewStyle
 70
     0
  3
Metric50
290
     1
300
Metric50
 90
        0
100
AcDbDetailViewStyle
 70
     0
 71
     0
 90
        3
 71
     1
340
21
 62
   256
 40
5.0
340
0
 62
   256
 40
5.0
300

 40
0.0
280
     1
 71
     2
340
13
 90
       25
 62
   256
 71
     3
340
21
 62
   256
 40
5.0
 90
        0
 40
15.0
 90
        1
300
%<\AcVar ViewDetailId>% (%<\AcVar ViewScale \f "%sn">%)
 71
     4
340
13
 90
       25
 62
   256
340
13
 90
       25
 62
   256
280
     0
  0
LAYOUT
  5
15
102
{ACAD_XDICTIONARY
360
17
102
}
102
{ACAD_REACTORS
330
16
102
}
330
16
100
AcDbPlotSettings
  1

  2
none_device
  4
ISO_A4_(210.00_x_297.00_MM)
  6

 40
7.5
 41
20.0
 42
7.5
 43
20.0
 44
210.0
 45
297.0
 46
11.54999923706054
 47
-13.65000009536743
 48
0.0
 49
0.0
140
0.0
141
0.0
142
1.0
143
8.704084754739808
 70
 11952
 72
     1
 73
     0
 74
     0
  7

 75
     0
147
0.1148885871608098
 76
     0
 77
     2
 78
   300
148
0.0
149
0.0
100
AcDbLayout
  1
Model
 70
     1
 71
     0
 10
0.0
 20
0.0
 11
12.0
 21
9.0
 12
0.0
 22
0.0
 32
0.0
 14
0.0
 24
0.0
 34
0.0
 15
0.0
 25
0.0
 35
0.0
146
0.0
 13
0.0
 23
0.0
 33
0.0
 16
1.0
 26
0.0
 36
0.0
 17
0.0
 27
1.0
 37
0.0
 76
     0
330
2
331
29
1001
ACAD_PSEXT
1000
None
1000
None
1000
Not applicable
1000
The layout will not be plotted unless a new plotter configuration name is selected.
1070
     0
  0
LAYOUT
  5
1C
102
{ACAD_REACTORS
330
16
102
}
330
16
100
AcDbPlotSettings
  1

  2
C:\Documents and Settings\basas\Application Data\Autodesk\AutoCAD 2005\R16.1\enu\plotters\Default Windows System Printer.pc3
  4

  6

 40
0.0
 41
0.0
 42
0.0
 43
0.0
 44
0.0
 45
0.0
 46
0.0
 47
0.0
 48
0.0
 49
0.0
140
0.0
141
0.0
142
1.0
143
1.0
 70
   688
 72
     0
 73
     0
 74
     5
  7

 75
    16
147
1.0
 76
     0
 77
     2
 78
   300
148
0.0
149
0.0
100
AcDbLayout
  1
布局1
 70
     1
 71
     1
 10
0.0
 20
0.0
 11
12.0
 21
9.0
 12
0.0
 22
0.0
 32
0.0
 14
0.0
 24
0.0
 34
0.0
 15
0.0
 25
0.0
 35
0.0
146
0.0
 13
0.0
 23
0.0
 33
0.0
 16
1.0
 26
0.0
 36
0.0
 17
0.0
 27
1.0
 37
0.0
 76
     0
330
19
  0
MATERIAL
  5
3B
102
{ACAD_XDICTIONARY
360
3C
102
}
102
{ACAD_REACTORS
330
B
102
}
330
B
100
AcDbMaterial
  1
ByBlock
 94
       63
  0
MATERIAL
  5
38
102
{ACAD_XDICTIONARY
360
39
102
}
102
{ACAD_REACTORS
330
B
102
}
330
B
100
AcDbMaterial
  1
ByLayer
 94
       63
  0
MATERIAL
  5
A
102
{ACAD_XDICTIONARY
360
C
102
}
102
{ACAD_REACTORS
330
B
102
}
330
B
100
AcDbMaterial
  1
Global
 43
0.0007999999797903
 43
0.0
 43
0.0
 43
0.0
 43
0.0
 43
0.0007999999797903
 43
0.0
 43
0.0
 43
0.0
 43
0.0
 43
1.0
 43
0.0
 43
0.0
 43
0.0
 43
0.0
 43
1.0
 49
0.0007999999797903
 49
0.0
 49
0.0
 49
0.0
 49
0.0
 49
0.0007999999797903
 49
0.0
 49
0.0
 49
0.0
 49
0.0
 49
1.0
 49
0.0
 49
0.0
 49
0.0
 49
0.0
 49
1.0
142
0.0007999999797903
142
0.0
142
0.0
142
0.0
142
0.0
142
0.0007999999797903
142
0.0
142
0.0
142
0.0
142
0.0
142
1.0
142
0.0
142
0.0
142
0.0
142
0.0
142
1.0
144
0.0007999999797903
144
0.0
144
0.0
144
0.0
144
0.0
144
0.0007999999797903
144
0.0
144
0.0
144
0.0
144
0.0
144
1.0
144
0.0
144
0.0
144
0.0
144
0.0
144
1.0
 94
       63
1001
ACAD
1070
    -1
1070
     3
1070
     0
1000

1071
        0
1070
     0
  0
MLEADERSTYLE
  5
315
102
{ACAD_REACTORS
330
41
102
}
330
41
100
AcDbMLeaderStyle
179
     2
170
     2
171
     1
172
     0
 90
        2
 40
0.0
 41
0.0
173
     1
 91
-1056964608
340
24
 92
       -2
290
     1
 42
2.0
291
     1
 43
0.36
  3
Standard
 44
4.0
300

342
21
174
     1
178
     6
175
     1
176
     0
 93
-1056964608
 45
4.0
292
     0
297
     0
 46
4.0
 94
-1056964608
 47
1.0
 49
1.0
140
1.0
293
     1
141
0.0
294
     1
177
     0
142
1.0
295
     1
296
     0
143
0.125
271
     0
272
     9
273
     9
298
     1
  0
MLINESTYLE
  5
4E
102
{ACAD_REACTORS
330
36
102
}
330
36
100
AcDbMlineStyle
  2
STANDARD
 70
     0
  3

 62
   256
 51
90.0
 52
90.0
 71
     2
 49
0.5
 62
   256
  6
BYLAYER
 49
-0.5
 62
   256
  6
BYLAYER
  0
ACDBPLACEHOLDER
  5
7
102
{ACAD_REACTORS
330
8
102
}
330
8
  0
SCALE
  5
53
102
{ACAD_REACTORS
330
3F
102
}
330
3F
100
AcDbScale
 70
     0
300
1:1
140
1.0
141
1.0
290
     1
  0
SCALE
  5
54
102
{ACAD_REACTORS
330
3F
102
}
330
3F
100
AcDbScale
 70
     0
300
1:2
140
1.0
141
2.0
290
     0
  0
SCALE
  5
55
102
{ACAD_REACTORS
330
3F
102
}
330
3F
100
AcDbScale
 70
     0
300
1:4
140
1.0
141
4.0
290
     0
  0
SCALE
  5
56
102
{ACAD_REACTORS
330
3F
102
}
330
3F
100
AcDbScale
 70
     0
300
1:5
140
1.0
141
5.0
290
     0
  0
SCALE
  5
57
102
{ACAD_REACTORS
330
3F
102
}
330
3F
100
AcDbScale
 70
     0
300
1:8
140
1.0
141
8.0
290
     0
  0
SCALE
  5
58
102
{ACAD_REACTORS
330
3F
102
}
330
3F
100
AcDbScale
 70
     0
300
1:10
140
1.0
141
10.0
290
     0
  0
SCALE
  5
59
102
{ACAD_REACTORS
330
3F
102
}
330
3F
100
AcDbScale
 70
     0
300
1:16
140
1.0
141
16.0
290
     0
  0
SCALE
  5
5A
102
{ACAD_REACTORS
330
3F
102
}
330
3F
100
AcDbScale
 70
     0
300
1:20
140
1.0
141
20.0
290
     0
  0
SCALE
  5
5B
102
{ACAD_REACTORS
330
3F
102
}
330
3F
100
AcDbScale
 70
     0
300
1:30
140
1.0
141
30.0
290
     0
  0
SCALE
  5
5C
102
{ACAD_REACTORS
330
3F
102
}
330
3F
100
AcDbScale
 70
     0
300
1:40
140
1.0
141
40.0
290
     0
  0
SCALE
  5
5D
102
{ACAD_REACTORS
330
3F
102
}
330
3F
100
AcDbScale
 70
     0
300
1:50
140
1.0
141
50.0
290
     0
  0
SCALE
  5
5E
102
{ACAD_REACTORS
330
3F
102
}
330
3F
100
AcDbScale
 70
     0
300
1:100
140
1.0
141
100.0
290
     0
  0
SCALE
  5
5F
102
{ACAD_REACTORS
330
3F
102
}
330
3F
100
AcDbScale
 70
     0
300
2:1
140
2.0
141
1.0
290
     0
  0
SCALE
  5
60
102
{ACAD_REACTORS
330
3F
102
}
330
3F
100
AcDbScale
 70
     0
300
4:1
140
4.0
141
1.0
290
     0
  0
SCALE
  5
61
102
{ACAD_REACTORS
330
3F
102
}
330
3F
100
AcDbScale
 70
     0
300
8:1
140
8.0
141
1.0
290
     0
  0
SCALE
  5
62
102
{ACAD_REACTORS
330
3F
102
}
330
3F
100
AcDbScale
 70
     0
300
10:1
140
10.0
141
1.0
290
     0
  0
SCALE
  5
63
102
{ACAD_REACTORS
330
3F
102
}
330
3F
100
AcDbScale
 70
     0
300
100:1
140
100.0
141
1.0
290
     0
  0
ACDBSECTIONVIEWSTYLE
  5
317
102
{ACAD_REACTORS
330
316
102
}
330
316
100
AcDbModelDocViewStyle
 70
     0
  3
Metric50
290
     1
300
Metric50
 90
        0
100
AcDbSectionViewStyle
 70
     0
 71
     0
 90
      102
 71
     1
340
21
 62
   256
 40
5.0
340
0
340
0
 62
   256
 40
5.0
300
I, O, Q, S, X, Z
 40
10.0
 90
        0
 40
2.5
 90
        0
 71
     2
340
13
 90
       25
 62
   256
340
13
 90
       50
 62
   256
 40
5.0
 40
2.5
 40
5.0
 71
     3
340
21
 62
   256
 40
5.0
 90
        0
 40
15.0
 90
        1
300
%<\AcVar ViewSectionStartId>%-%<\AcVar ViewSectionEndId>% (%<\AcVar ViewScale \f "%sn">%)
 71
     4
 62
   256
 62
   257
300
ANSI31
 40
1.0
 90
        0
290
     0
290
     0
 90
        6
 40
0.0
 40
1.570796326794896
 40
0.2617993877991494
 40
1.308996938995747
 40
-0.2617993877991494
 40
1.832595714594046
  0
TABLESTYLE
  5
4F
102
{ACAD_XDICTIONARY
360
50
102
}
102
{ACAD_REACTORS
330
40
102
}
330
40
100
AcDbTableStyle
280
     0
  3
Standard
 70
     0
 71
     0
 40
1.5
 41
1.5
280
     0
281
     0
  7
Standard
140
4.5
170
     2
 62
     0
 63
     7
283
     0
 90
      512
 91
        0
  1

274
    -2
284
     1
 64
     0
275
    -2
285
     1
 65
     0
276
    -2
286
     1
 66
     0
277
    -2
287
     1
 67
     0
278
    -2
288
     1
 68
     0
279
    -2
289
     1
 69
     0
  7
Standard
140
6.0
170
     5
 62
     0
 63
     7
283
     0
 90
      512
 91
        0
  1

274
    -2
284
     1
 64
     0
275
    -2
285
     1
 65
     0
276
    -2
286
     1
 66
     0
277
    -2
287
     1
 67
     0
278
    -2
288
     1
 68
     0
279
    -2
289
     1
 69
     0
  7
Standard
140
4.5
170
     5
 62
     0
 63
     7
283
     0
 90
      512
 91
        0
  1

274
    -2
284
     1
 64
     0
275
    -2
285
     1
 65
     0
276
    -2
286
     1
 66
     0
277
    -2
287
     1
 67
     0
278
    -2
288
     1
 68
     0
279
    -2
289
     1
 69
     0
  0
VISUALSTYLE
  5
2A
102
{ACAD_REACTORS
330
2B
102
}
330
2B
100
AcDbVisualStyle
  2
2dWireframe
 70
     4
177
     3
291
     0
 70
    58
 90
        0
176
     1
 90
        2
176
     1
 90
        1
176
     1
 90
        0
176
     1
 40
0.6
176
     1
 40
30.0
176
     1
 62
     7
420
 16777215
176
     1
 90
        1
176
     1
 90
        4
176
     1
 62
     7
176
     1
 62
   257
176
     1
 90
        1
176
     1
 90
        1
176
     1
 40
1.0
176
     1
 90
        0
176
     1
 62
   257
176
     1
 40
1.0
176
     1
 90
        1
176
     1
 90
        6
176
     1
 90
        2
176
     1
 62
     7
176
     1
 90
        5
176
     1
 90
        0
176
     1
 90
        0
176
     1
290
     0
176
     1
 90
        1
176
     1
 40
0.0
176
     1
 90
        0
176
     1
290
     1
176
     1
290
     1
176
     1
290
     0
176
     1
290
     0
176
     1
290
     0
176
     1
290
     0
176
     1
290
     0
176
     1
290
     0
176
     1
290
     0
176
     1
 90
       50
176
     1
 40
0.0
176
     1
 40
1.0
176
     1
 90
        0
176
     1
 62
    18
176
     1
 90
       50
176
     1
 90
        3
176
     1
 62
     5
420
      255
176
     1
290
     0
176
     1
 90
       50
176
     1
 90
       50
176
     1
 90
       50
176
     1
290
     0
176
     1
 90
       50
176
     1
 62
   256
176
     0
 40
1.0
176
     0
 90
        2
176
     1
  1
strokes_ogs.tif
176
     1
290
     0
176
     1
 40
1.0
176
     1
 40
1.0
176
     1
  0
VISUALSTYLE
  5
304
102
{ACAD_REACTORS
330
2B
102
}
330
2B
100
AcDbVisualStyle
  2
Basic
 70
     7
177
     3
291
     1
 70
    58
 90
        1
176
     1
 90
        0
176
     1
 90
        1
176
     1
 90
        0
176
     1
 40
0.6
176
     1
 40
30.0
176
     1
 62
     7
420
 16777215
176
     1
 90
        0
176
     1
 90
        4
176
     1
 62
     7
176
     1
 62
   257
176
     1
 90
        1
176
     1
 90
        1
176
     1
 40
1.0
176
     1
 90
        8
176
     1
 62
     7
176
     1
 40
1.0
176
     1
 90
        1
176
     1
 90
        6
176
     1
 90
        2
176
     1
 62
     7
176
     1
 90
        5
176
     1
 90
        0
176
     1
 90
        0
176
     1
290
     0
176
     1
 90
        1
176
     1
 40
0.0
176
     1
 90
        0
176
     1
290
     0
176
     1
290
     1
176
     1
290
     1
176
     1
290
     0
176
     1
290
     0
176
     1
290
     0
176
     1
290
     0
176
     1
290
     0
176
     1
290
     0
176
     1
 90
       50
176
     1
 40
0.0
176
     1
 40
1.0
176
     1
 90
        0
176
     1
 62
    18
420
        0
176
     1
 90
       50
176
     1
 90
        3
176
     1
 62
     5
420
      255
176
     1
290
     0
176
     1
 90
       50
176
     1
 90
       50
176
     1
 90
       50
176
     1
290
     0
176
     1
 90
       50
176
     1
 62
   256
176
     0
 40
1.0
176
     0
 90
        2
176
     1
  1
strokes_ogs.tif
176
     1
290
     0
176
     1
 40
1.0
176
     1
 40
1.0
176
     1
  0
VISUALSTYLE
  5
308
102
{ACAD_REACTORS
330
2B
102
}
330
2B
100
AcDbVisualStyle
  2
Brighten
 70
    12
177
     3
291
     1
 70
    58
 90
        2
176
     1
 90
        2
176
     1
 90
        0
176
     1
 90
        0
176
     1
 40
0.6
176
     1
 40
30.0
176
     1
 62
     7
420
 16777215
176
     1
 90
        1
176
     1
 90
        4
176
     1
 62
     7
176
     1
 62
   257
176
     1
 90
        1
176
     1
 90
        1
176
     1
 40
1.0
176
     1
 90
        8
176
     1
 62
     7
176
     1
 40
1.0
176
     1
 90
        1
176
     1
 90
        6
176
     1
 90
        2
176
     1
 62
     7
176
     1
 90
        5
176
     1
 90
        0
176
     1
 90
        0
176
     1
290
     0
176
     1
 90
        1
176
     1
 40
50.0
176
     1
 90
        0
176
     1
290
     0
176
     1
290
     1
176
     1
290
     1
176
     1
290
     0
176
     1
290
     0
176
     1
290
     0
176
     1
290
     0
176
     1
290
     0
176
     1
290
     0
176
     1
 90
       50
176
     1
 40
0.0
176
     1
 40
1.0
176
     1
 90
        0
176
     1
 62
    18
420
        0
176
     1
 90
       50
176
     1
 90
        3
176
     1
 62
     5
420
      255
176
     1
290
     0
176
     1
 90
       50
176
     1
 90
       50
176
     1
 90
       50
176
     1
290
     0
176
     1
 90
       50
176
     1
 62
   256
176
     0
 40
1.0
176
     0
 90
        2
176
     1
  1
strokes_ogs.tif
176
     1
290
     0
176
     1
 40
1.0
176
     1
 40
1.0
176
     1
  0
VISUALSTYLE
  5
30C
102
{ACAD_REACTORS
330
2B
102
}
330
2B
100
AcDbVisualStyle
  2
ColorChange
 70
    16
177
     3
291
     1
 70
    58
 90
        2
176
     1
 90
        2
176
     1
 90
        3
176
     1
 90
        0
176
     1
 40
0.6
176
     1
 40
30.0
176
     1
 62
     8
420
  8421504
176
     1
 90
        1
176
     1
 90
        4
176
     1
 62
     7
176
     1
 62
   257
176
     1
 90
        1
176
     1
 90
        1
176
     1
 40
1.0
176
     1
 90
        8
176
     1
 62
     8
420
  8421504
176
     1
 40
1.0
176
     1
 90
        1
176
     1
 90
        6
176
     1
 90
        2
176
     1
 62
     7
176
     1
 90
        5
176
     1
 90
        0
176
     1
 90
        0
176
     1
290
     0
176
     1
 90
        1
176
     1
 40
0.0
176
     1
 90
        0
176
     1
290
     0
176
     1
290
     1
176
     1
290
     1
176
     1
290
     0
176
     1
290
     0
176
     1
290
     0
176
     1
290
     0
176
     1
290
     0
176
     1
290
     0
176
     1
 90
       50
176
     1
 40
0.0
176
     1
 40
1.0
176
     1
 90
        0
176
     1
 62
    18
420
        0
176
     1
 90
       50
176
     1
 90
        3
176
     1
 62
     5
420
      255
176
     1
290
     0
176
     1
 90
       50
176
     1
 90
       50
176
     1
 90
       50
176
     1
290
     0
176
     1
 90
       50
176
     1
 62
   256
176
     0
 40
1.0
176
     0
 90
        2
176
     1
  1
strokes_ogs.tif
176
     1
290
     0
176
     1
 40
1.0
176
     1
 40
1.0
176
     1
  0
VISUALSTYLE
  5
306
102
{ACAD_REACTORS
330
2B
102
}
330
2B
100
AcDbVisualStyle
  2
Conceptual
 70
     9
177
     3
291
     0
 70
    58
 90
        3
176
     1
 90
        2
176
     1
 90
        0
176
     1
 90
        0
176
     1
 40
0.6
176
     1
 40
30.0
176
     1
 62
     7
420
 16777215
176
     1
 90
        2
176
     1
 90
        2
176
     1
 62
     7
176
     1
 62
   257
176
     1
 90
        1
176
     1
 90
        1
176
     1
 40
179.0
176
     1
 90
        8
176
     1
 62
     7
176
     1
 40
1.0
176
     1
 90
        1
176
     1
 90
        6
176
     1
 90
        2
176
     1
 62
     7
176
     1
 90
        3
176
     1
 90
        0
176
     1
 90
        0
176
     1
290
     0
176
     1
 90
        1
176
     1
 40
0.0
176
     1
 90
        0
176
     1
290
     0
176
     1
290
     1
176
     1
290
     1
176
     1
290
     0
176
     1
290
     0
176
     1
290
     0
176
     1
290
     0
176
     1
290
     0
176
     1
290
     0
176
     1
 90
       50
176
     1
 40
0.0
176
     1
 40
1.0
176
     1
 90
        0
176
     1
 62
    18
420
        0
176
     1
 90
       50
176
     1
 90
        3
176
     1
 62
     5
420
      255
176
     1
290
     0
176
     1
 90
       50
176
     1
 90
       50
176
     1
 90
       50
176
     1
290
     0
176
     1
 90
       50
176
     1
 62
   256
176
     0
 40
1.0
176
     0
 90
        2
176
     1
  1
strokes_ogs.tif
176
     1
290
     0
176
     1
 40
1.0
176
     1
 40
1.0
176
     1
  0
VISUALSTYLE
  5
307
102
{ACAD_REACTORS
330
2B
102
}
330
2B
100
AcDbVisualStyle
  2
Dim
 70
    11
177
     3
291
     1
 70
    58
 90
        2
176
     1
 90
        2
176
     1
 90
        0
176
     1
 90
        0
176
     1
 40
0.6
176
     1
 40
30.0
176
     1
 62
     7
420
 16777215
176
     1
 90
        1
176
     1
 90
        4
176
     1
 62
     7
176
     1
 62
   257
176
     1
 90
        1
176
     1
 90
        1
176
     1
 40
1.0
176
     1
 90
        8
176
     1
 62
     7
176
     1
 40
1.0
176
     1
 90
        1
176
     1
 90
        6
176
     1
 90
        2
176
     1
 62
     7
176
     1
 90
        5
176
     1
 90
        0
176
     1
 90
        0
176
     1
290
     0
176
     1
 90
        1
176
     1
 40
-50.0
176
     1
 90
        0
176
     1
290
     0
176
     1
290
     1
176
     1
290
     1
176
     1
290
     0
176
     1
290
     0
176
     1
290
     0
176
     1
290
     0
176
     1
290
     0
176
     1
290
     0
176
     1
 90
       50
176
     1
 40
0.0
176
     1
 40
1.0
176
     1
 90
        0
176
     1
 62
    18
420
        0
176
     1
 90
       50
176
     1
 90
        3
176
     1
 62
     5
420
      255
176
     1
290
     0
176
     1
 90
       50
176
     1
 90
       50
176
     1
 90
       50
176
     1
290
     0
176
     1
 90
       50
176
     1
 62
   256
176
     0
 40
1.0
176
     0
 90
        2
176
     1
  1
strokes_ogs.tif
176
     1
290
     0
176
     1
 40
1.0
176
     1
 40
1.0
176
     1
  0
VISUALSTYLE
  5
314
102
{ACAD_REACTORS
330
2B
102
}
330
2B
100
AcDbVisualStyle
  2
EdgeColorOff
 70
    22
177
     3
291
     1
 70
    58
 90
        2
176
     0
 90
        2
176
     0
 90
        0
176
     0
 90
        0
176
     0
 40
0.6
176
     0
 40
30.0
176
     0
 62
     7
420
 16777215
176
     0
 90
        1
176
     0
 90
        4
176
     0
 62
     7
176
     0
 62
   257
176
     0
 90
        1
176
     0
 90
        1
176
     0
 40
1.0
176
     0
 90
        8
176
     2
 62
     7
176
     0
 40
1.0
176
     0
 90
        1
176
     0
 90
        6
176
     0
 90
        2
176
     0
 62
     7
176
     0
 90
        5
176
     0
 90
        0
176
     0
 90
        0
176
     0
290
     0
176
     0
 90
        1
176
     0
 40
0.0
176
     0
 90
        0
176
     0
290
     0
176
     0
290
     1
176
     0
290
     1
176
     0
290
     0
176
     0
290
     0
176
     0
290
     0
176
     0
290
     0
176
     0
290
     0
176
     0
290
     0
176
     0
 90
       50
176
     0
 40
0.0
176
     0
 40
1.0
176
     0
 90
        0
176
     0
 62
    18
420
        0
176
     0
 90
       50
176
     0
 90
        3
176
     0
 62
     5
420
      255
176
     0
290
     0
176
     0
 90
       50
176
     0
 90
       50
176
     0
 90
       50
176
     0
290
     0
176
     0
 90
       50
176
     0
 62
   256
176
     0
 40
1.0
176
     0
 90
        2
176
     0
  1
strokes_ogs.tif
176
     0
290
     0
176
     0
 40
1.0
176
     0
 40
1.0
176
     0
  0
VISUALSTYLE
  5
30B
102
{ACAD_REACTORS
330
2B
102
}
330
2B
100
AcDbVisualStyle
  2
Facepattern
 70
    15
177
     3
291
     1
 70
    58
 90
        2
176
     1
 90
        2
176
     1
 90
        0
176
     1
 90
        0
176
     1
 40
0.6
176
     1
 40
30.0
176
     1
 62
     7
420
 16777215
176
     1
 90
        1
176
     1
 90
        4
176
     1
 62
     7
176
     1
 62
   257
176
     1
 90
        1
176
     1
 90
        1
176
     1
 40
1.0
176
     1
 90
        8
176
     1
 62
     7
176
     1
 40
1.0
176
     1
 90
        1
176
     1
 90
        6
176
     1
 90
        2
176
     1
 62
     7
176
     1
 90
        5
176
     1
 90
        0
176
     1
 90
        0
176
     1
290
     0
176
     1
 90
        1
176
     1
 40
0.0
176
     1
 90
        0
176
     1
290
     0
176
     1
290
     1
176
     1
290
     1
176
     1
290
     0
176
     1
290
     0
176
     1
290
     0
176
     1
290
     0
176
     1
290
     0
176
     1
290
     0
176
     1
 90
       50
176
     1
 40
0.0
176
     1
 40
1.0
176
     1
 90
        0
176
     1
 62
    18
420
        0
176
     1
 90
       50
176
     1
 90
        3
176
     1
 62
     5
420
      255
176
     1
290
     0
176
     1
 90
       50
176
     1
 90
       50
176
     1
 90
       50
176
     1
290
     0
176
     1
 90
       50
176
     1
 62
   256
176
     0
 40
1.0
176
     0
 90
        2
176
     1
  1
strokes_ogs.tif
176
     1
290
     0
176
     1
 40
1.0
176
     1
 40
1.0
176
     1
  0
VISUALSTYLE
  5
300
102
{ACAD_REACTORS
330
2B
102
}
330
2B
100
AcDbVisualStyle
  2
Flat
 70
     0
177
     3
291
     1
 70
    58
 90
        2
176
     1
 90
        1
176
     1
 90
        1
176
     1
 90
        2
176
     1
 40
0.6
176
     1
 40
30.0
176
     1
 62
     7
420
 16777215
176
     1
 90
        0
176
     1
 90
        0
176
     1
 62
     7
176
     1
 62
   257
176
     1
 90
        1
176
     1
 90
        1
176
     1
 40
1.0
176
     1
 90
        8
176
     1
 62
     7
176
     1
 40
1.0
176
     1
 90
        1
176
     1
 90
        6
176
     1
 90
        2
176
     1
 62
     7
176
     1
 90
        5
176
     1
 90
        0
176
     1
 90
        0
176
     1
290
     0
176
     1
 90
       13
176
     1
 40
0.0
176
     1
 90
        0
176
     1
290
     0
176
     1
290
     1
176
     1
290
     1
176
     1
290
     0
176
     1
290
     0
176
     1
290
     0
176
     1
290
     0
176
     1
290
     0
176
     1
290
     0
176
     1
 90
       50
176
     1
 40
0.0
176
     1
 40
1.0
176
     1
 90
        0
176
     1
 62
    18
420
        0
176
     1
 90
       50
176
     1
 90
        3
176
     1
 62
     5
420
      255
176
     1
290
     0
176
     1
 90
       50
176
     1
 90
       50
176
     1
 90
       50
176
     1
290
     0
176
     1
 90
       50
176
     1
 62
   256
176
     0
 40
1.0
176
     0
 90
        2
176
     1
  1
strokes_ogs.tif
176
     1
290
     0
176
     1
 40
1.0
176
     1
 40
1.0
176
     1
  0
VISUALSTYLE
  5
301
102
{ACAD_REACTORS
330
2B
102
}
330
2B
100
AcDbVisualStyle
  2
FlatWithEdges
 70
     1
177
     3
291
     1
 70
    58
 90
        2
176
     1
 90
        1
176
     1
 90
        1
176
     1
 90
        2
176
     1
 40
0.6
176
     1
 40
30.0
176
     1
 62
     7
420
 16777215
176
     1
 90
        1
176
     1
 90
        0
176
     1
 62
     7
176
     1
 62
   257
176
     1
 90
        1
176
     1
 90
        1
176
     1
 40
1.0
176
     1
 90
        0
176
     1
 62
   257
176
     1
 40
1.0
176
     1
 90
        1
176
     1
 90
        6
176
     1
 90
        2
176
     1
 62
     7
176
     1
 90
        5
176
     1
 90
        0
176
     1
 90
        0
176
     1
290
     0
176
     1
 90
       13
176
     1
 40
0.0
176
     1
 90
        0
176
     1
290
     0
176
     1
290
     1
176
     1
290
     1
176
     1
290
     0
176
     1
290
     0
176
     1
290
     0
176
     1
290
     0
176
     1
290
     0
176
     1
290
     0
176
     1
 90
       50
176
     1
 40
0.0
176
     1
 40
1.0
176
     1
 90
        0
176
     1
 62
    18
420
        0
176
     1
 90
       50
176
     1
 90
        3
176
     1
 62
     5
420
      255
176
     1
290
     0
176
     1
 90
       50
176
     1
 90
       50
176
     1
 90
       50
176
     1
290
     0
176
     1
 90
       50
176
     1
 62
   256
176
     0
 40
1.0
176
     0
 90
        2
176
     1
  1
strokes_ogs.tif
176
     1
290
     0
176
     1
 40
1.0
176
     1
 40
1.0
176
     1
  0
VISUALSTYLE
  5
302
102
{ACAD_REACTORS
330
2B
102
}
330
2B
100
AcDbVisualStyle
  2
Gouraud
 70
     2
177
     3
291
     1
 70
    58
 90
        2
176
     1
 90
        2
176
     1
 90
        1
176
     1
 90
        2
176
     1
 40
0.6
176
     1
 40
30.0
176
     1
 62
     7
420
 16777215
176
     1
 90
        0
176
     1
 90
        0
176
     1
 62
     7
176
     1
 62
   257
176
     1
 90
        1
176
     1
 90
        1
176
     1
 40
1.0
176
     1
 90
        0
176
     1
 62
     7
176
     1
 40
1.0
176
     1
 90
        1
176
     1
 90
        6
176
     1
 90
        2
176
     1
 62
     7
176
     1
 90
        5
176
     1
 90
        0
176
     1
 90
        0
176
     1
290
     0
176
     1
 90
       13
176
     1
 40
0.0
176
     1
 90
        0
176
     1
290
     0
176
     1
290
     1
176
     1
290
     1
176
     1
290
     0
176
     1
290
     0
176
     1
290
     0
176
     1
290
     0
176
     1
290
     0
176
     1
290
     0
176
     1
 90
       50
176
     1
 40
0.0
176
     1
 40
1.0
176
     1
 90
        0
176
     1
 62
    18
420
        0
176
     1
 90
       50
176
     1
 90
        3
176
     1
 62
     5
420
      255
176
     1
290
     0
176
     1
 90
       50
176
     1
 90
       50
176
     1
 90
       50
176
     1
290
     0
176
     1
 90
       50
176
     1
 62
   256
176
     0
 40
1.0
176
     0
 90
        2
176
     1
  1
strokes_ogs.tif
176
     1
290
     0
176
     1
 40
1.0
176
     1
 40
1.0
176
     1
  0
VISUALSTYLE
  5
303
102
{ACAD_REACTORS
330
2B
102
}
330
2B
100
AcDbVisualStyle
  2
GouraudWithEdges
 70
     3
177
     3
291
     1
 70
    58
 90
        2
176
     1
 90
        2
176
     1
 90
        1
176
     1
 90
        2
176
     1
 40
0.6
176
     1
 40
30.0
176
     1
 62
     7
420
 16777215
176
     1
 90
        1
176
     1
 90
        0
176
     1
 62
     7
176
     1
 62
   257
176
     1
 90
        1
176
     1
 90
        1
176
     1
 40
1.0
176
     1
 90
        0
176
     1
 62
   257
176
     1
 40
1.0
176
     1
 90
        1
176
     1
 90
        6
176
     1
 90
        2
176
     1
 62
     7
176
     1
 90
        5
176
     1
 90
        0
176
     1
 90
        0
176
     1
290
     0
176
     1
 90
       13
176
     1
 40
0.0
176
     1
 90
        0
176
     1
290
     0
176
     1
290
     1
176
     1
290
     1
176
     1
290
     0
176
     1
290
     0
176
     1
290
     0
176
     1
290
     0
176
     1
290
     0
176
     1
290
     0
176
     1
 90
       50
176
     1
 40
0.0
176
     1
 40
1.0
176
     1
 90
        0
176
     1
 62
    18
420
        0
176
     1
 90
       50
176
     1
 90
        3
176
     1
 62
     5
420
      255
176
     1
290
     0
176
     1
 90
       50
176
     1
 90
       50
176
     1
 90
       50
176
     1
290
     0
176
     1
 90
       50
176
     1
 62
   256
176
     0
 40
1.0
176
     0
 90
        2
176
     1
  1
strokes_ogs.tif
176
     1
290
     0
176
     1
 40
1.0
176
     1
 40
1.0
176
     1
  0
VISUALSTYLE
  5
305
102
{ACAD_REACTORS
330
2B
102
}
330
2B
100
AcDbVisualStyle
  2
Hidden
 70
     6
177
     3
291
     0
 70
    58
 90
        1
176
     1
 90
        2
176
     1
 90
        2
176
     1
 90
        0
176
     1
 40
0.6
176
     1
 40
30.0
176
     1
 62
     7
420
 16777215
176
     1
 90
        2
176
     1
 90
        2
176
     1
 62
     7
176
     1
 62
   257
176
     1
 90
        2
176
     1
 90
        1
176
     1
 40
40.0
176
     1
 90
        0
176
     1
 62
   257
176
     1
 40
1.0
176
     1
 90
        1
176
     1
 90
        6
176
     1
 90
        2
176
     1
 62
     7
176
     1
 90
        3
176
     1
 90
        0
176
     1
 90
        0
176
     1
290
     0
176
     1
 90
        1
176
     1
 40
0.0
176
     1
 90
        0
176
     1
290
     0
176
     1
290
     1
176
     1
290
     1
176
     1
290
     0
176
     1
290
     0
176
     1
290
     0
176
     1
290
     0
176
     1
290
     0
176
     1
290
     0
176
     1
 90
       50
176
     1
 40
0.0
176
     1
 40
1.0
176
     1
 90
        0
176
     1
 62
    18
420
        0
176
     1
 90
       50
176
     1
 90
        3
176
     1
 62
     5
420
      255
176
     1
290
     0
176
     1
 90
       50
176
     1
 90
       50
176
     1
 90
       50
176
     1
290
     0
176
     1
 90
       50
176
     1
 62
   256
176
     0
 40
1.0
176
     0
 90
        2
176
     1
  1
strokes_ogs.tif
176
     1
290
     0
176
     1
 40
1.0
176
     1
 40
1.0
176
     1
  0
VISUALSTYLE
  5
312
102
{ACAD_REACTORS
330
2B
102
}
330
2B
100
AcDbVisualStyle
  2
JitterOff
 70
    20
177
     3
291
     1
 70
    58
 90
        2
176
     0
 90
        2
176
     0
 90
        0
176
     0
 90
        0
176
     0
 40
0.6
176
     0
 40
30.0
176
     0
 62
     7
420
 16777215
176
     0
 90
        1
176
     0
 90
        4
176
     0
 62
     7
176
     0
 62
   257
176
     0
 90
        1
176
     0
 90
        1
176
     0
 40
1.0
176
     0
 90
       10
176
     2
 62
     7
176
     0
 40
1.0
176
     0
 90
        1
176
     0
 90
        6
176
     0
 90
        2
176
     0
 62
     7
176
     0
 90
        5
176
     0
 90
        0
176
     0
 90
        0
176
     0
290
     0
176
     0
 90
        1
176
     0
 40
0.0
176
     0
 90
        0
176
     0
290
     0
176
     0
290
     1
176
     0
290
     1
176
     0
290
     0
176
     0
290
     0
176
     0
290
     0
176
     0
290
     0
176
     0
290
     0
176
     0
290
     0
176
     0
 90
       50
176
     0
 40
0.0
176
     0
 40
1.0
176
     0
 90
        0
176
     0
 62
    18
420
        0
176
     0
 90
       50
176
     0
 90
        3
176
     0
 62
     5
420
      255
176
     0
290
     0
176
     0
 90
       50
176
     0
 90
       50
176
     0
 90
       50
176
     0
290
     0
176
     0
 90
       50
176
     0
 62
   256
176
     0
 40
1.0
176
     0
 90
        2
176
     0
  1
strokes_ogs.tif
176
     0
290
     0
176
     0
 40
1.0
176
     0
 40
1.0
176
     0
  0
VISUALSTYLE
  5
30A
102
{ACAD_REACTORS
330
2B
102
}
330
2B
100
AcDbVisualStyle
  2
Linepattern
 70
    14
177
     3
291
     1
 70
    58
 90
        2
176
     1
 90
        2
176
     1
 90
        0
176
     1
 90
        0
176
     1
 40
0.6
176
     1
 40
30.0
176
     1
 62
     7
420
 16777215
176
     1
 90
        1
176
     1
 90
        4
176
     1
 62
     7
176
     1
 62
   257
176
     1
 90
        7
176
     1
 90
        7
176
     1
 40
1.0
176
     1
 90
        8
176
     1
 62
     7
176
     1
 40
1.0
176
     1
 90
        1
176
     1
 90
        6
176
     1
 90
        2
176
     1
 62
     7
176
     1
 90
        5
176
     1
 90
        0
176
     1
 90
        0
176
     1
290
     0
176
     1
 90
        1
176
     1
 40
0.0
176
     1
 90
        0
176
     1
290
     0
176
     1
290
     1
176
     1
290
     1
176
     1
290
     0
176
     1
290
     0
176
     1
290
     0
176
     1
290
     0
176
     1
290
     0
176
     1
290
     0
176
     1
 90
       50
176
     1
 40
0.0
176
     1
 40
1.0
176
     1
 90
        0
176
     1
 62
    18
420
        0
176
     1
 90
       50
176
     1
 90
        3
176
     1
 62
     5
420
      255
176
     1
290
     0
176
     1
 90
       50
176
     1
 90
       50
176
     1
 90
       50
176
     1
290
     0
176
     1
 90
       50
176
     1
 62
   256
176
     0
 40
1.0
176
     0
 90
        2
176
     1
  1
strokes_ogs.tif
176
     1
290
     0
176
     1
 40
1.0
176
     1
 40
1.0
176
     1
  0
VISUALSTYLE
  5
313
102
{ACAD_REACTORS
330
2B
102
}
330
2B
100
AcDbVisualStyle
  2
OverhangOff
 70
    21
177
     3
291
     1
 70
    58
 90
        2
176
     0
 90
        2
176
     0
 90
        0
176
     0
 90
        0
176
     0
 40
0.6
176
     0
 40
30.0
176
     0
 62
     7
420
 16777215
176
     0
 90
        1
176
     0
 90
        4
176
     0
 62
     7
176
     0
 62
   257
176
     0
 90
        1
176
     0
 90
        1
176
     0
 40
1.0
176
     0
 90
        9
176
     2
 62
     7
176
     0
 40
1.0
176
     0
 90
        1
176
     0
 90
        6
176
     0
 90
        2
176
     0
 62
     7
176
     0
 90
        5
176
     0
 90
        0
176
     0
 90
        0
176
     0
290
     0
176
     0
 90
        1
176
     0
 40
0.0
176
     0
 90
        0
176
     0
290
     0
176
     0
290
     1
176
     0
290
     1
176
     0
290
     0
176
     0
290
     0
176
     0
290
     0
176
     0
290
     0
176
     0
290
     0
176
     0
290
     0
176
     0
 90
       50
176
     0
 40
0.0
176
     0
 40
1.0
176
     0
 90
        0
176
     0
 62
    18
420
        0
176
     0
 90
       50
176
     0
 90
        3
176
     0
 62
     5
420
      255
176
     0
290
     0
176
     0
 90
       50
176
     0
 90
       50
176
     0
 90
       50
176
     0
290
     0
176
     0
 90
       50
176
     0
 62
   256
176
     0
 40
1.0
176
     0
 90
        2
176
     0
  1
strokes_ogs.tif
176
     0
290
     0
176
     0
 40
1.0
176
     0
 40
1.0
176
     0
  0
VISUALSTYLE
  5
51
102
{ACAD_REACTORS
330
2B
102
}
330
2B
100
AcDbVisualStyle
  2
Realistic
 70
     8
177
     3
291
     0
 70
    58
 90
        2
176
     1
 90
        3
176
     1
 90
        0
176
     1
 90
        2
176
     1
 40
0.6
176
     1
 40
30.0
176
     1
 62
     7
420
 16777215
176
     1
 90
        0
176
     1
 90
        0
176
     1
 62
     7
176
     1
 62
   257
176
     1
 90
        1
176
     1
 90
        1
176
     1
 40
1.0
176
     1
 90
        8
176
     1
 62
   257
176
     1
 40
1.0
176
     1
 90
        1
176
     1
 90
        6
176
     1
 90
        2
176
     1
 62
     7
176
     1
 90
        3
176
     1
 90
        0
176
     1
 90
        0
176
     1
290
     0
176
     1
 90
       13
176
     1
 40
0.0
176
     1
 90
        0
176
     1
290
     0
176
     1
290
     1
176
     1
290
     1
176
     1
290
     0
176
     1
290
     0
176
     1
290
     0
176
     1
290
     0
176
     1
290
     0
176
     1
290
     0
176
     1
 90
       50
176
     1
 40
0.0
176
     1
 40
1.0
176
     1
 90
        0
176
     1
 62
    18
176
     1
 90
       50
176
     1
 90
        3
176
     1
 62
     5
420
      255
176
     1
290
     0
176
     1
 90
       50
176
     1
 90
       50
176
     1
 90
       50
176
     1
290
     0
176
     1
 90
       50
176
     1
 62
   256
176
     0
 40
1.0
176
     0
 90
        2
176
     1
  1
strokes_ogs.tif
176
     1
290
     0
176
     1
 40
1.0
176
     1
 40
1.0
176
     1
  0
VISUALSTYLE
  5
311
102
{ACAD_REACTORS
330
2B
102
}
330
2B
100
AcDbVisualStyle
  2
Shaded
 70
    27
177
     3
291
     0
 70
    58
 90
        2
176
     1
 90
        2
176
     1
 90
        1
176
     1
 90
        2
176
     1
 40
0.6
176
     1
 40
30.0
176
     1
 62
     7
420
 16777215
176
     1
 90
        0
176
     1
 90
        4
176
     1
 62
     7
176
     1
 62
   257
176
     1
 90
        1
176
     1
 90
        1
176
     1
 40
1.0
176
     1
 90
        8
176
     1
 62
   257
176
     1
 40
1.0
176
     1
 90
        1
176
     1
 90
        6
176
     1
 90
        2
176
     1
 62
     8
420
  7895160
176
     1
 90
        3
176
     1
 90
        0
176
     1
 90
        0
176
     1
290
     0
176
     1
 90
        5
176
     1
 40
0.0
176
     1
 90
        0
176
     1
290
     0
176
     1
290
     1
176
     1
290
     1
176
     1
290
     0
176
     1
290
     0
176
     1
290
     0
176
     1
290
     0
176
     1
290
     0
176
     1
290
     0
176
     1
 90
       50
176
     1
 40
0.0
176
     1
 40
1.0
176
     1
 90
        0
176
     1
 62
    18
420
        0
176
     1
 90
       50
176
     1
 90
        3
176
     1
 62
     5
420
      255
176
     1
290
     0
176
     1
 90
       50
176
     1
 90
       50
176
     1
 90
       50
176
     1
290
     0
176
     1
 90
       50
176
     1
 62
   256
176
     0
 40
1.0
176
     0
 90
        2
176
     1
  1
strokes_ogs.tif
176
     1
290
     0
176
     1
 40
1.0
176
     1
 40
1.0
176
     1
  0
VISUALSTYLE
  5
310
102
{ACAD_REACTORS
330
2B
102
}
330
2B
100
AcDbVisualStyle
  2
Shaded with edges
 70
    26
177
     3
291
     0
 70
    58
 90
        2
176
     1
 90
        2
176
     1
 90
        1
176
     1
 90
        2
176
     1
 40
0.6
176
     1
 40
30.0
176
     1
 62
     7
420
 16777215
176
     1
 90
        1
176
     1
 90
        2
176
     1
 62
     7
176
     1
 62
   257
176
     1
 90
        2
176
     1
 90
        1
176
     1
 40
1.0
176
     1
 90
        8
176
     1
 62
   257
176
     1
 40
1.0
176
     1
 90
        1
176
     1
 90
        6
176
     1
 90
        2
176
     1
 62
     7
176
     1
 90
        3
176
     1
 90
        0
176
     1
 90
        0
176
     1
290
     0
176
     1
 90
        5
176
     1
 40
0.0
176
     1
 90
        0
176
     1
290
     0
176
     1
290
     1
176
     1
290
     1
176
     1
290
     0
176
     1
290
     0
176
     1
290
     0
176
     1
290
     0
176
     1
290
     0
176
     1
290
     0
176
     1
 90
       50
176
     1
 40
0.0
176
     1
 40
1.0
176
     1
 90
        0
176
     1
 62
    18
420
        0
176
     1
 90
       50
176
     1
 90
        3
176
     1
 62
     5
420
      255
176
     1
290
     0
176
     1
 90
       50
176
     1
 90
       50
176
     1
 90
       50
176
     1
290
     0
176
     1
 90
       50
176
     1
 62
   256
176
     0
 40
1.0
176
     0
 90
        2
176
     1
  1
strokes_ogs.tif
176
     1
290
     0
176
     1
 40
1.0
176
     1
 40
1.0
176
     1
  0
VISUALSTYLE
  5
30D
102
{ACAD_REACTORS
330
2B
102
}
330
2B
100
AcDbVisualStyle
  2
Shades of Gray
 70
    23
177
     3
291
     0
 70
    58
 90
        2
176
     1
 90
        2
176
     1
 90
        3
176
     1
 90
        0
176
     1
 40
0.6
176
     1
 40
30.0
176
     1
 62
     7
420
 16777215
176
     1
 90
        2
176
     1
 90
        2
176
     1
 62
     7
176
     1
 62
     7
176
     1
 90
        1
176
     1
 90
        1
176
     1
 40
40.0
176
     1
 90
        8
176
     1
 62
     7
176
     1
 40
1.0
176
     1
 90
        1
176
     1
 90
        6
176
     1
 90
        2
176
     1
 62
     7
176
     1
 90
        3
176
     1
 90
        0
176
     1
 90
        0
176
     1
290
     0
176
     1
 90
        1
176
     1
 40
0.0
176
     1
 90
        0
176
     1
290
     0
176
     1
290
     1
176
     1
290
     1
176
     1
290
     0
176
     1
290
     0
176
     1
290
     0
176
     1
290
     0
176
     1
290
     0
176
     1
290
     0
176
     1
 90
       50
176
     1
 40
0.0
176
     1
 40
1.0
176
     1
 90
        0
176
     1
 62
    18
420
        0
176
     1
 90
       50
176
     1
 90
        3
176
     1
 62
     5
420
      255
176
     1
290
     0
176
     1
 90
       50
176
     1
 90
       50
176
     1
 90
       50
176
     1
290
     0
176
     1
 90
       50
176
     1
 62
   256
176
     0
 40
1.0
176
     0
 90
        2
176
     1
  1
strokes_ogs.tif
176
     1
290
     0
176
     1
 40
1.0
176
     1
 40
1.0
176
     1
  0
VISUALSTYLE
  5
30E
102
{ACAD_REACTORS
330
2B
102
}
330
2B
100
AcDbVisualStyle
  2
Sketchy
 70
    24
177
     3
291
     0
 70
    58
 90
        1
176
     1
 90
        2
176
     1
 90
        2
176
     1
 90
        0
176
     1
 40
0.6
176
     1
 40
30.0
176
     1
 62
     7
420
 16777215
176
     1
 90
        2
176
     1
 90
        2
176
     1
 62
     7
176
     1
 62
     7
176
     1
 90
        1
176
     1
 90
        1
176
     1
 40
40.0
176
     1
 90
       11
176
     1
 62
     7
176
     1
 40
1.0
176
     1
 90
        1
176
     1
 90
        6
176
     1
 90
        2
176
     1
 62
     7
176
     1
 90
        6
176
     1
 90
        0
176
     1
 90
        0
176
     1
290
     0
176
     1
 90
        1
176
     1
 40
0.0
176
     1
 90
        0
176
     1
290
     0
176
     1
290
     1
176
     1
290
     1
176
     1
290
     0
176
     1
290
     0
176
     1
290
     0
176
     1
290
     0
176
     1
290
     0
176
     1
290
     0
176
     1
 90
       50
176
     1
 40
0.0
176
     1
 40
1.0
176
     1
 90
        0
176
     1
 62
    18
420
        0
176
     1
 90
       50
176
     1
 90
        3
176
     1
 62
     5
420
      255
176
     1
290
     0
176
     1
 90
       50
176
     1
 90
       50
176
     1
 90
       50
176
     1
290
     0
176
     1
 90
       50
176
     1
 62
   256
176
     0
 40
1.0
176
     0
 90
        2
176
     1
  1
strokes_ogs.tif
176
     1
290
     0
176
     1
 40
1.0
176
     1
 40
1.0
176
     1
  0
VISUALSTYLE
  5
309
102
{ACAD_REACTORS
330
2B
102
}
330
2B
100
AcDbVisualStyle
  2
Thicken
 70
    13
177
     3
291
     1
 70
    58
 90
        2
176
     1
 90
        2
176
     1
 90
        0
176
     1
 90
        0
176
     1
 40
0.6
176
     1
 40
30.0
176
     1
 62
     7
420
 16777215
176
     1
 90
        1
176
     1
 90
        4
176
     1
 62
     7
176
     1
 62
   257
176
     1
 90
        1
176
     1
 90
        1
176
     1
 40
1.0
176
     1
 90
       12
176
     1
 62
     7
176
     1
 40
1.0
176
     1
 90
        1
176
     1
 90
        6
176
     1
 90
        2
176
     1
 62
     7
176
     1
 90
        5
176
     1
 90
        0
176
     1
 90
        0
176
     1
290
     0
176
     1
 90
        1
176
     1
 40
0.0
176
     1
 90
        0
176
     1
290
     0
176
     1
290
     1
176
     1
290
     1
176
     1
290
     0
176
     1
290
     0
176
     1
290
     0
176
     1
290
     0
176
     1
290
     0
176
     1
290
     0
176
     1
 90
       50
176
     1
 40
0.0
176
     1
 40
1.0
176
     1
 90
        0
176
     1
 62
    18
420
        0
176
     1
 90
       50
176
     1
 90
        3
176
     1
 62
     5
420
      255
176
     1
290
     0
176
     1
 90
       50
176
     1
 90
       50
176
     1
 90
       50
176
     1
290
     0
176
     1
 90
       50
176
     1
 62
   256
176
     0
 40
1.0
176
     0
 90
        2
176
     1
  1
strokes_ogs.tif
176
     1
290
     0
176
     1
 40
1.0
176
     1
 40
1.0
176
     1
  0
VISUALSTYLE
  5
52
102
{ACAD_REACTORS
330
2B
102
}
330
2B
100
AcDbVisualStyle
  2
Wireframe
 70
     5
177
     3
291
     0
 70
    58
 90
        0
176
     1
 90
        2
176
     1
 90
        0
176
     1
 90
        0
176
     1
 40
0.6
176
     1
 40
30.0
176
     1
 62
     7
420
 16777215
176
     1
 90
        1
176
     1
 90
        4
176
     1
 62
     7
176
     1
 62
   257
176
     1
 90
        1
176
     1
 90
        1
176
     1
 40
1.0
176
     1
 90
        0
176
     1
 62
   257
176
     1
 40
1.0
176
     1
 90
        1
176
     1
 90
        6
176
     1
 90
        2
176
     1
 62
     7
176
     1
 90
        3
176
     1
 90
        0
176
     1
 90
        0
176
     1
290
     0
176
     1
 90
        1
176
     1
 40
0.0
176
     1
 90
        0
176
     1
290
     0
176
     1
290
     1
176
     1
290
     1
176
     1
290
     0
176
     1
290
     0
176
     1
290
     0
176
     1
290
     0
176
     1
290
     0
176
     1
290
     0
176
     1
 90
       50
176
     1
 40
0.0
176
     1
 40
1.0
176
     1
 90
        0
176
     1
 62
    18
176
     1
 90
       50
176
     1
 90
        3
176
     1
 62
     5
420
      255
176
     1
290
     0
176
     1
 90
       50
176
     1
 90
       50
176
     1
 90
       50
176
     1
290
     0
176
     1
 90
       50
176
     1
 62
   256
176
     0
 40
1.0
176
     0
 90
        2
176
     1
  1
strokes_ogs.tif
176
     1
290
     0
176
     1
 40
1.0
176
     1
 40
1.0
176
     1
  0
VISUALSTYLE
  5
30F
102
{ACAD_REACTORS
330
2B
102
}
330
2B
100
AcDbVisualStyle
  2
X-Ray
 70
    25
177
     3
291
     0
 70
    58
 90
        2
176
     1
 90
        2
176
     1
 90
        1
176
     1
 90
        1
176
     1
 40
0.5
176
     1
 40
30.0
176
     1
 62
     7
420
 16777215
176
     1
 90
        1
176
     1
 90
        0
176
     1
 62
     7
176
     1
 62
   257
176
     1
 90
        1
176
     1
 90
        1
176
     1
 40
1.0
176
     1
 90
        8
176
     1
 62
     7
176
     1
 40
1.0
176
     1
 90
        1
176
     1
 90
        6
176
     1
 90
        2
176
     1
 62
     7
176
     1
 90
        3
176
     1
 90
        0
176
     1
 90
        0
176
     1
290
     0
176
     1
 90
       13
176
     1
 40
0.0
176
     1
 90
        0
176
     1
290
     0
176
     1
290
     1
176
     1
290
     1
176
     1
290
     0
176
     1
290
     0
176
     1
290
     0
176
     1
290
     0
176
     1
290
     0
176
     1
290
     0
176
     1
 90
       50
176
     1
 40
0.0
176
     1
 40
1.0
176
     1
 90
        0
176
     1
 62
    18
420
        0
176
     1
 90
       50
176
     1
 90
        3
176
     1
 62
     5
420
      255
176
     1
290
     0
176
     1
 90
       50
176
     1
 90
       50
176
     1
 90
       50
176
     1
290
     0
176
     1
 90
       50
176
     1
 62
   256
176
     0
 40
1.0
176
     0
 90
        2
176
     1
  1
strokes_ogs.tif
176
     1
290
     0
176
     1
 40
1.0
176
     1
 40
1.0
176
     1
  0
DICTIONARYVAR
  5
43
102
{ACAD_REACTORS
330
42
102
}
330
42
100
DictionaryVariables
280
     0
  1
1:1
  0
DICTIONARYVAR
  5
44
102
{ACAD_REACTORS
330
42
102
}
330
42
100
DictionaryVariables
280
     0
  1
3.500000
  0
DICTIONARYVAR
  5
45
102
{ACAD_REACTORS
330
42
102
}
330
42
100
DictionaryVariables
280
     0
  1
acadiso.lin
  0
DICTIONARYVAR
  5
46
102
{ACAD_REACTORS
330
42
102
}
330
42
100
DictionaryVariables
280
     0
  1
STANDARD
  0
DICTIONARYVAR
  5
47
102
{ACAD_REACTORS
330
42
102
}
330
42
100
DictionaryVariables
280
     0
  1
STANDARD
  0
DICTIONARYVAR
  5
48
102
{ACAD_REACTORS
330
42
102
}
330
42
100
DictionaryVariables
280
     0
  1
Metric50
  0
DICTIONARYVAR
  5
49
102
{ACAD_REACTORS
330
42
102
}
330
42
100
DictionaryVariables
280
     0
  1
Metric50
  0
DICTIONARYVAR
  5
4A
102
{ACAD_REACTORS
330
42
102
}
330
42
100
DictionaryVariables
280
     0
  1
2
  0
DICTIONARYVAR
  5
4B
102
{ACAD_REACTORS
330
42
102
}
330
42
100
DictionaryVariables
280
     0
  1
1
  0
DICTIONARYVAR
  5
4C
102
{ACAD_REACTORS
330
42
102
}
330
42
100
DictionaryVariables
280
     0
  1
0
  0
DICTIONARYVAR
  5
4D
102
{ACAD_REACTORS
330
42
102
}
330
42
100
DictionaryVariables
280
     0
  1
0
  0
DICTIONARY
  5
17
330
15
100
AcDbDictionary
280
     1
281
     1
  0
DICTIONARY
  5
3C
330
3B
100
AcDbDictionary
280
     1
281
     1
  3
FBXASSET
360
3D
  0
DICTIONARY
  5
39
330
38
100
AcDbDictionary
280
     1
281
     1
  3
FBXASSET
360
3A
  0
DICTIONARY
  5
C
330
A
100
AcDbDictionary
280
     1
281
     1
  3
BUMPTILE
360
D
  3
DIFFUSETILE
360
E
  3
FBXASSET
360
F
  3
OPACITYTILE
360
10
  3
REFLECTIONTILE
360
11
  0
DICTIONARY
  5
50
330
4F
100
AcDbDictionary
280
     1
281
     1
  3
ACAD_ROUNDTRIP_2008_TABLESTYLE_CELLSTYLEMAP
360
31D
  0
XRECORD
  5
3D
102
{ACAD_REACTORS
330
3C
102
}
330
3C
100
AcDbXrecord
280
     1
 70
     1
 90
429727718
  1
D62C5603-E3A1-4AEA-B7FB-FE5D8D0755AF
310
504B03040A0000080000CC70623B3DEE336E79000000790000001B0000006175746F6465736B2D64657369676E2D7061636B6167652E786D6C3C3F786D6C2076657273696F6E3D22312E302220656E636F64696E673D227574662D3822203F3E3C666F726D6174733E3C666F726D61743E687474703A2F2F736368656D612E
310
6175746F6465736B2E636F6D2F64657369676E2D7061636B6167652F323030393C2F666F726D61743E3C2F666F726D6174733E504B0304140006080800CC70623BD486FD9CA0000000F4000000130000005B436F6E74656E745F54797065735D2E786D6C7D8EC10E82300C865F65E91D8A1E8C310C0EEA1BF002731658846E
310
D98AC1B77784ABF1D8FE5FBFBF75BBCE937A534CCEB38643598122B6FEE978D0B0485F9C41B54DDD7D022595594E1A469170414C76A4D9A4D207E29CF43ECE46F218070CC6BECC4078ACAA135ACF422C856C0E68EA1BF5669944DDD7BCDE7B1F8E415D77AECB980613C2E4AC91FC167A2B244592486606FC29C8FD7F045B9A
310
EF7053A7E60B504B0304140006080800CC70623B853B8169EB0000007C01000008000000636F72652E786D6C8D90416EC3201045AF62CDB6C206821CC7C244919D9CA01740401C94182C03558F5F9C3852BBEB6A467FFE9B197D7EFC9E1EC5975982F5AE035262288C535E5B377690E21535501C055FBC8FBF6C503839990E
310
5619041F179FE64D52DE45E362569DD7661365082642A11EB9E920A89B99642953CC8E702F67A9EE7234257977194EC9EAE275C4EABCCF5EAD5940D4AC6F0E35A568B8F43562CD7046CD199FD07E60174276A7BE677B5EADB0E0D14EEFFB6A31321A0D82627C4084204C3F096B71DD52F6819B16635EADF63F509AF53FA164
310
5DDCD1EDDD17164090FCC8732078B56691CB33A85CD7DCC40F504B0304140006080800CC70623B55019EA25F0000007C00000007000000636E782E786D6C4DCB3B0E80201045D1AD90E915ED2CF8AC45050C11660C8261F98AB1B07AC9C97D42D718D865D3E909258CFD00CCE24AC6E326A164D74DC0B4128928FF32603847
310
2BA13128B1252AC747C6BAB984FC68F0B87FE8960A5C09FE86CFB69FBA01504B0304140006080800CC70623BDBABAAF470010000D40300000C0000006662782F636F72652E786D6CC553D16E823014FD95A6AF4B694182CC941A83FA05FB810A9511A125A5257EFE2E82712ECEB8A7F100CD39F7F69E734AF9FADC366850B6
310
AF8DCE7018308C942E4C59EB2AC3DE1D498AD15A706B8CFB56869196ADCAF00863C12B6B7C374385D14E6907A836A59A41D9F7CA615434B0C8705F7CAA5606D23BA8E84F41278B93AC54100640439DE0BDB320004D43C63716C7C399D30917DCFBBA9CD9BA8469F5B156168B24CED3F7248AC8769F27244EB73B92EED8862C
310
B7F13E0C179B3C8F979C8ECD82BBBABDAA2BAC924E9558448CBD9330242CFA08E3154B5651FCC6D215639C8EE5774DBE2B5F6CF2B5768B68963BB5F5588420E442FC700B1139D4CB01F450C1E918227C2E09DF070D8140C84E1E9AAB8F1340832A9CB13130A5F1376A908D57309505ECF2A0DF179C4E9D30F5B239B87E3823
310
7A79C6F31DE1A8A5AEC08474B03C7837EAE4938639B44E5932B833D2C6B6B279CDC613877FA26EE21F4A2A4C63EC7F29A2F301D1F9F7A0E37D145F504B0304140006080800CC70623B9C113CC27E0000009D0000000B0000006662782F636E782E786D6C4DCCDF0A83201C86E15B91DFB94BFB330DD428C8FB886521330DA7
310
6397BF1A1DECE883878F57749FCDA1B7892F1BBC047A23808C7F84D9FA55424E0BE6803A256208E9EF06C84F9B91703228B1C690F78B66B34CD9A5439DF5CF0BFBF65E35BCA1B8D6A5C6F540381E886698B5741C695F9503EBA150A2F8958E3DC3EA0B504B0304140006080800CC70623B7DF2F77C2A010000120200003100
310
00006662782F41393633353835312D344632462D344230382D423046372D3739314545314133324237412F636F72652E786D6C8D51DB8EC22014FC15C2939B0D2DB4B45643319AE817EC0F6041255A68B86CFCFC856D4D76DF7CE190393373060EDB3DC707F856CE6B6B7A480A0C81328395DA5C7B18C3057510EC3873D686
310
3F34088C18550F330C39BB3A1BA7051AAC09CA84841A2BD5020AEF55806078A44B0FFD7053A328440C89E1EFC52486BBB8AA8214A99D789CF9E05200300FC927E4FB4D5B375D43103D5527440FB843077C5AA3F5861C8F645F5787F59E95B390B318B55CE45AA638FAA2957BD7248B390B7A7CC51F9C124149C82B8C378810
310
84AB2F42B7B8DD56F413775B8C5999E9FF4471926F8AA236A1AE96B8B3CC434E5839373893369E1FAF30EA395917409EB7F26AF8801C171837A4A6AC9C89E9F9C9B1A58BA30FD6A5EF5DDDCF894B9AD9B6A59C957943A9FCAE2FD5BC4DFE03504B0304140006080800CC70623BAD7543B64E01000033030000300000006662
310
782F41393633353835312D344632462D344230382D423046372D3739314545314133324237412F636E782E786D6CD593CD6EC32010845F0571AD6CE3D48AD20813A9873E410FBD12D82434182C7EAAE6EDBB2424CD25871E7B41D6EC30B3FA84F9E67BB2E40B4234DE8DB46F1925E094D7C6ED479AD3AE5951B2113C789FEE
310
6C943839C1488B4C05DF079FE72A69D8C96C13AAD6B8631503449F83828872B949AC57D26200B826A308D316B4064D6E46FCDA41C05550DC9E483A00797BFD207EFB092A45DE9514C1BBD22178396BD39D891265658C238DEA00936C654E5E433CB65A26D9F6EDB5EBC14EBF49A45CB856E66048291F6939A9A81BB5C89177
310
38143CA680F4AA299D66A042CEB3354A2684DC9D8D178FE0D9B8B41CAAD720F880EE7EF93C0C18769E099ECC04D5A102C8049A8A05632F4DDF376CF1DE0F6BB65C2F8627B65A33C6BB62177CEBBDAD973006829F89F22E814B54F4BC2BE347F8AA8F681390B50FA73F804400B5F542E796F19FF974E7F78DB802FE05E20750
310
4B0304140006080800CC70623BE75B7789680500003C100000340000006662782F41393633353835312D344632462D344230382D423046372D3739314545314133324237412F6F626A656374732E786D6CAD575B8F9B3818FD2B887D06C22499CB8AA1CA655245D5B455A356FB305264C061D8018C6C3393D95FBFC7600890
310
A4CD5EF210B0B1BFEBF98E3F7B1FF6596ABC522E1296DF9BAE3D320D9A872C4AF2F8DE2CE5CEBA358D0FBEC719939D65A691938CDE9B6ADAF4BD98B3B2D05311DD91329583D9D5FC0F438434A7A611A644887B5384CF34233629258BA878B12322891DEFF6B66BD70BFB62634E8AE781D082709A4B588AF91C528CDA28B73F
310
1C998EEF39EABBEFA97FBD6A7C7E9553F9D3D79FE442923C3C523610337627CB87ABE99D359D4CC6D6E4FACAB5E6ABF9D2726FC6A3C5F56271377BB88362213924694B38DD99FE47C48627A1E7D49F5A8BB5E1A74C0A599ED3B0F21F1E56366B89112D681E218F0915D0D6F17AD41FBA2A369DCF6335D62ABBD39779D5DDD1
310
11D4D8DE3CBB96B2E04FB8202E41051754A1AA8E8F76B4C6DFE810B580B1547F4B84911149794252234D024EF8BBE963A95AE27B3D310A9D5C215C7960FAEE415ED75694C6AFB17BCACA5D99A60A9AA65F217B0BFC53292ACB92BF283FAD0D3621576592CB5BED907C2FA8E9DF794E35E97BEA31BED21FEB401ABB94C44839
310
DCACBF0E1C5DA8DA5B2F4DFFD32AD86F543D9E565E7056502E157C00AD2671CD534549AB752FCA9CDA00677A313F04E51B22FF19E57B300579E3C97EB29F682D92935CEC18CF901B7B54FD8C51F362B56FC72FE0B3C1EAE335EDCCBF5AEC39ADB17DC238973F804BA5E6F6BFE7AF1FB32E523BE9F3BD571418E3631DCA4D48
310
5250CF639223210A9446CA30052EDF057BD35F8329C1ECD84552BF0DC8D18BE7BCE23BFE6BD960AB4A7DE79923A103BEBD80F911CBAA2C60DB19B01CF164A5583B772EE6D3FFA56666CBCDA74DC97724A48F9A58967497E489C4D979006FD7A05E227A1EBDD0F737C623387A9C844D3709995625106D157315F8B8392CD4E0
310
A0B9A720C4BE9829CEF37EA1E13111214D53925356365ADA634861B52519DD27A00AEB808EAF0628E6F435519D446F45CF2C9CF5214F0A15B2F6D06B79DA3EE3CBF7F56780D2F4E7EF73A0F5E5B02A38D07DC852C6B7C1FBB6664213E0C39E3EBA7FF4E1AD23EA2829407C85E586727488B751B2DB9502BC7B228A3FD68B6E
310
A65A22397E690AA8D158D7E404EC8CDA235CC3B7D1898680131CEC2CDF2638C65196279577750F15884AEE19F94199155B92B13297978469D4F8D358DF0AEF7631E28DC8F0D9F437D5D39A83B2231A1D52D543813A824EF8D44BCFF2FA6A31BD1E8DAD87F1CCB526B3879935BF59CDADD5C37479BB1CDD4CA7B3556B516589
310
EF352754B706114D9C885EC9131DE6EFEB43D99AFE2391C2F958179413D7CFEF6B1B6DB1E7600F00DE6E5C67454A339A4BA2E0FBA85ED26F045D454F463DBFCE484C2F90F2E5E3666003662ED8F755951A7D1BECD5B30B550B2785C8E7320B7292A4838DDA71BBC863ED7613CAF659337A3354231D4FF4A182A54904C2898C
310
98B28C4AD0CE056CCF332A80986E571EE9DBC305BB5FEB7E509220A58D25CF042D712A806AC0AD0C657FDEF80D2D9CEAA2EE4D1C76F60BFE74219A06527D6F82DF6412526107381E55E353090704D085B52408A8913C4ED159D79BDA71BB4BC506F4831350EB6F975CD22D69BF7AC49B91A2C0A9DDA3D5CA36AD20FC478E37
310
E61844E2352865EBCB61A275A65283CAAA9DD27703B4102F5AF51EF5F573B75CBB5AD38BC845F7A49F82A0966A49C2E3EA5EA0ECD326CD965F1DB402C6FA8B51A4658C5C5E2EC9E214602E55810345408596591009A82E7E7FFACA19EEA299B14A0081A705CB3296EBC14CDF658DCD336EA6D1136881AAEB87B81AB9EE53D5
310
F5EB8BC8362082DA24122F98680A4E7930C01A0079749CEA14382A0783E5EBA5A10F8C098456A03D6A4AEB6BB881E2513747552A5DB22C7EDAF83BD5528081A365F7FF06504B0304140006080000CC70623B000000000000000000000000350000006662782F41393633353835312D344632462D344230382D423046372D37
310
39314545314133324237412F76657274696365732E62696E504B0304140006080800CC70623BF270F1330600000004000000360000006662782F41393633353835312D344632462D344230382D423046372D3739314545314133324237412F747269616E676C65732E62696E636660600000504B0304140006080000CC7062
310
3B000000000000000000000000370000006662782F41393633353835312D344632462D344230382D423046372D3739314545314133324237412F617474726962757465732E62696E504B0304140006080800CC70623B08DA0BD19000000041010000360000006662782F41393633353835312D344632462D344230382D4230
310
46372D3739314545314133324237412F6469726563746F72792E786D6C858F410AC3201045AF22B36F53E9A60B35CBEEBAE80D244E44489C6234F4F835464A48035D0DF398FF9F8AF63D0E6CC63039F212F8F9020C7D47C6792B21C5FE7403D62A1188E2E60C98D7234A5830286103A55745067B9D86B8A3CF9C7F90C11DE6
310
07FB144396D7B6A82D282E9A152AD114D5EF2CB866EEE831B8EEA07A7BB5A8D7D61A2BAAEB7FD5F70921FF497D00504B0304140006080800CC70623BEDD1DC58FD000000A00100003B0000006662782F41393633353835312D344632462D344230382D423046372D3739314545314133324237412F7265736F75726365732F
310
636F72652E786D6C8D504B6E833010BD0A9A6D65B00922041947112427E8052C33A156828DFCA97AFC9A40A576D7CDCCE87D344F8F9FBFE667F689CE6B6B3A6039850C8DB2A336530731DC4903D95970676DF82583CCC8193B5861107C72362E3BA4AC096842428D1D7107A5F7182053CF7474E0D507CE32973124857FE48B
310
540F3961CEF244279DE03EB81420DB9EAC1384436FA353E879B1B182C7A8C75DA3C7F453DF353A1075D537A7BA6464B8F535A99AE14A9A2BBD90E350DD183B5CFABE3AF262350B1EF4FC9351399401471025A527C218A1E53BAB5A5AB765F5469B96525EACF23FA6B88CFF34456DC2A1DCE36E360F82A5202F42F062ED2BAD
310
579969AFDD8A6F504B010214000A0000080000CC70623B3DEE336E79000000790000001B00000000000000000000000000000000006175746F6465736B2D64657369676E2D7061636B6167652E786D6C504B01021400140006080800CC70623BD486FD9CA0000000F40000001300000000000000000000000000B20000005B
310
436F6E74656E745F54797065735D2E786D6C504B01021400140006080800CC70623B853B8169EB0000007C010000080000000000000000000000000083010000636F72652E786D6C504B01021400140006080800CC70623B55019EA25F0000007C000000070000000000000000000000000094020000636E782E786D6C504B
310
01021400140006080800CC70623BDBABAAF470010000D40300000C00000000000000000000000000180300006662782F636F72652E786D6C504B01021400140006080800CC70623B9C113CC27E0000009D0000000B00000000000000000000000000B20400006662782F636E782E786D6C504B01021400140006080800CC70
310
623B7DF2F77C2A010000120200003100000000000000000000000000590500006662782F41393633353835312D344632462D344230382D423046372D3739314545314133324237412F636F72652E786D6C504B01021400140006080800CC70623BAD7543B64E010000330300003000000000000000000000000000D2060000
310
6662782F41393633353835312D344632462D344230382D423046372D3739314545314133324237412F636E782E786D6C504B01021400140006080800CC70623BE75B7789680500003C10000034000000000000000000000000006E0800006662782F41393633353835312D344632462D344230382D423046372D3739314545
310
314133324237412F6F626A656374732E786D6C504B01021400140006080000CC70623B0000000000000000000000003500000000000000000000000000280E00006662782F41393633353835312D344632462D344230382D423046372D3739314545314133324237412F76657274696365732E62696E504B01021400140006
310
080800CC70623BF270F133060000000400000036000000000000000000000000007B0E00006662782F41393633353835312D344632462D344230382D423046372D3739314545314133324237412F747269616E676C65732E62696E504B01021400140006080000CC70623B0000000000000000000000003700000000000000
310
000000000000D50E00006662782F41393633353835312D344632462D344230382D423046372D3739314545314133324237412F617474726962757465732E62696E504B01021400140006080800CC70623B08DA0BD1900000004101000036000000000000000000000000002A0F00006662782F41393633353835312D344632
310
462D344230382D423046372D3739314545314133324237412F6469726563746F72792E786D6C504B01021400140006080800CC70623BEDD1DC58FD000000A00100003B000000000000000000000000000E1000006662782F41393633353835312D344632462D344230382D423046372D3739314545314133324237412F7265
310
736F75726365732F636F72652E786D6C504B0506000000000E000E0080040000641100000000
  0
XRECORD
  5
3A
102
{ACAD_REACTORS
330
39
102
}
330
39
100
AcDbXrecord
280
     1
 70
     1
 90
429727718
  1
30362254-06B7-45E0-A893-8CFA70E3D6BC
310
504B03040A0000080000CC70623B3DEE336E79000000790000001B0000006175746F6465736B2D64657369676E2D7061636B6167652E786D6C3C3F786D6C2076657273696F6E3D22312E302220656E636F64696E673D227574662D3822203F3E3C666F726D6174733E3C666F726D61743E687474703A2F2F736368656D612E
310
6175746F6465736B2E636F6D2F64657369676E2D7061636B6167652F323030393C2F666F726D61743E3C2F666F726D6174733E504B0304140006080800CC70623BD486FD9CA0000000F4000000130000005B436F6E74656E745F54797065735D2E786D6C7D8EC10E82300C865F65E91D8A1E8C310C0EEA1BF002731658846E
310
D98AC1B77784ABF1D8FE5FBFBF75BBCE937A534CCEB38643598122B6FEE978D0B0485F9C41B54DDD7D022595594E1A469170414C76A4D9A4D207E29CF43ECE46F218070CC6BECC4078ACAA135ACF422C856C0E68EA1BF5669944DDD7BCDE7B1F8E415D77AECB980613C2E4AC91FC167A2B244592486606FC29C8FD7F045B9A
310
EF7053A7E60B504B0304140006080800CC70623B1EC5D7A3EB0000007C01000008000000636F72652E786D6C8D90416EC3201045AF82665B6103C6756C6122AB4D4ED00B204C5C94182C03558F5F9C3852BBEB6A467FFE9B197D71FC9E6FE8CBACC17AD7032D0820E3B41FAD9B7A48F1820F808E52ACDEC75F36404ECDA687
310
4D0629A6D5A76597B477D1B89855E747B38B2A041301E95B6E7A08FAD3CCAA50296647B8168BD2573599823EBB0CA76447F43862C7BCCF5EAC59410E4DDD9C7973C2755553CCCFA4C603E3040F1565ED3B1FDE4E432BCA0D9622DAF9795FAF464533826484B498524CD807E51D79ED187F21878E10516EF63F505AC67F42C9
310
BA58B1FDDD071640D2FCC87D2045B96591CB3DA85CB7DCE40F504B0304140006080800CC70623B55019EA25F0000007C00000007000000636E782E786D6C4DCB3B0E80201045D1AD90E915ED2CF8AC45050C11660C8261F98AB1B07AC9C97D42D718D865D3E909258CFD00CCE24AC6E326A164D74DC0B4128928FF32603847
310
2BA13128B1252AC747C6BAB984FC68F0B87FE8960A5C09FE86CFB69FBA01504B0304140006080800CC70623B8C9102E971010000D40300000C0000006662782F636F72652E786D6CC5535B6E833010BC8AE5DF0A6C08340F1947A84D4ED00B38C6A128602363A31CBFCB234A53A551FA553EC09AD9F5CE8C31DB9E9B1AF5CA
310
7695D1198E428A91D2D214952E33ECDD315861B4E5CC1AE3BE9561A445A3323CC098B3D21ADFCE9034DA29ED00D5A6503328BA4E398C640D8B0C77F253352214DE4145770A5B214FA2546114020D759C75CE8200340D19DE981F0F6746269C33EFAB6266AB02A655C74A59CCF365BADC27CB5D902ED22848F6340DF238A141
310
BE88E2F57B92BFEDF23523433367AE6A2EEAA455C2A902F398D2751045018D3FA264435F3771F242571B4A1919CA6F9A7C5B3CD9E42BED16F12C776AEB308F40C848FC700B1139D4891EF410CEC810227CC6846F8386402064270EF5C5C709A05E49676C024C61FC95EA45ED154CA5211D1FF4FB8291A913A68E9B83EBBB33
310
E2A7673CDE118E5AE8124C0807CB8377834E366998436B950D7A7746DAD846D4CFD978E0F04FD455FC5D49D2D4C6FE9722321F10997F0F32DC47FE05504B0304140006080800CC70623BFFEA85907E0000009D0000000B0000006662782F636E782E786D6C4DCCD10A83201886E15B91FFDC95D95A811AB6F23E625948A6C3
310
E9D8E5AF46073BFAE0E1E365ED67B3E8ADC3CB78C7815C7240DA3DFC64DCC221C519D7805AC182F7F1EF06C88D9BE6703008B6049F9E274D7A1E938DBB5AE3D6131B2589BA0D3D965551E0B2EA732C9B9A624AAEB41E3A557677029960D9AFB4EF11165F504B0304140006080800CC70623B4FEEA4082C0100001202000031
310
0000006662782F39464131463745442D413632322D343644302D413938332D3331353338454246344243312F636F72652E786D6C8D515B6EC32010BC0AE2AB55850DD871ED0813254D72825EC00192A2C460F1A872FC42ED48ED5F7E00CDCECCCEB26C731F6FE05B39AFADE921293004CA082BB5B9F43086336A21D870E6AC
310
0D7F68109861543DCC30E4ECE26C9C164858139409093556AA051CBC570102714B8F1E7AF1A5C6A11862480C7F2DA6415C878B2A4891CA89C7990F2E050073937C42DE1DB7E4F87ED8A36D4329AA9B3D46DBAEAD504556557BD81DEBDD0761E52CE42C462D17B996298E3E6BE59E35C962CE821E1FF18553435012728A7187
310
0841987E927A8D9B35ADDF70BBC6989599FE4F1427F9A4286A132ABAC49D651EF234CD5CE04CDA78BA3DC2A8FB645D00B9DF8B57E215725C60BCA2A463E54C4CE327C7A65E1C7DB02E7DEFCBF594B864C5CA6CDBD49C957943E9FA5D5FBAF336F90F504B0304140006080800CC70623BAD7543B64E01000033030000300000
310
006662782F39464131463745442D413632322D343644302D413938332D3331353338454246344243312F636E782E786D6CD593CD6EC32010845F0571AD6CE3D48AD20813A9873E410FBD12D82434182C7EAAE6EDBB2424CD25871E7B41D6EC30B3FA84F9E67BB2E40B4234DE8DB46F1925E094D7C6ED479AD3AE5951B2113C
310
789FEE6C943839C1488B4C05DF079FE72A69D8C96C13AAD6B8631503449F83828872B949AC57D26200B826A308D316B4064D6E46FCDA41C05550DC9E483A00797BFD207EFB092A45DE9514C1BBD22178396BD39D891265658C238DEA00936C654E5E433CB65A26D9F6EDB5EBC14EBF49A45CB856E66048291F6939A9A81BB5
310
C8917738143CA680F4AA299D66A042CEB3354A2684DC9D8D178FE0D9B8B41CAAD720F880EE7EF93C0C18769E099ECC04D5A102C8049A8A05632F4DDF376CF1DE0F6BB65C2F8627B65A33C6BB62177CEBBDAD973006829F89F22E814B54F4BC2BE347F8AA8F681390B50FA73F804400B5F542E796F19FF974E7F78DB802FE05
310
E207504B0304140006080800CC70623B16AB87BA640500003C100000340000006662782F39464131463745442D413632322D343644302D413938332D3331353338454246344243312F6F626A656374732E786D6CAD575B6FA33818FD2B887DE6924B3BED8A326A92B68A663B534DD4D13E548A0C38942D60649B369D5FBFC7
310
600890A493BDE42160637FD7F31D7FF63E6FB3D478A55C242CBF3247B66B1A340F5994E4F19559CA8D75611A9F7D8F33263BCB4C232719BD32D5B4E97B316765A1A722BA21652A07B3B7B33F0D11D29C9A46981221AE4C113ED38CD8A4942CA2E2C58E882476BCD9DA23BB5ED8171B73523C0F841684D35CC252CCE79062D4
310
468DFA43D7747CCF51DF7D4FFDEB5593E3AB9CCA9FBEFE241792E4E19EB28198C968BAB8199F5D5A67D3E9C49A9E8F47D6EC76B6B0469F26EEFC7C3EBFBCBEB98462213924694B38DD98FE1D62C393D073EA4FADC5DAF04326852CCF6958F90F0F2B9BB5C48816348F90C7840A68EB78EDF68723159BCEE7891A6B95DDE9D3
310
BCEAEEE8086A6C6F9E5D4B59F0175C10A7A0820BAA5055C7473B5AE3CFDD452D602CD5DF12616444529E90D448938013FE6EFA58AA96F85E4F8C42275708571E98FE6827AF6B2B4AE3D7D83D64E5A64C53054DD3AF90BD06FEA9149565C94FCA0F6B834DC85599E4F2423B24DF0B6AFA979E534DFA9E7A4CC6FA631D486393
310
921829879BF5D781A373557BCB85E97FB90DB62B558F8795179C15944B051F40AB495CF35451D26A4727654E6D8033BD98EF82F21D91FF8AF2DD9982BCF1643BDD4EB516C9492E368C67C88DED563FC36D5EACF66DFF057C3658BDBFA69DF9578B3DA735B64F18C7F20770A9D45CFCF7FCF563D6456A277DBEF78A02637CA2
310
43B90A490AEAB94F72244481D24819A6C0E59B606BFA4B3025981DBB48EAB701D97BF19C577CC77F2D1B6C55A9EF3C732474C0B727303F625995056C3B02963D9EAC146BE78EC5FCEC7FA999EBC5EACBAAE41B12D27B4D2C0BBA49F244E2ECDC81B76B502F113D8F5EE8FB1BE3111CDD4FC2AA9B844CAB1288B68AB90A7CDC
310
1C166AB0D3DC5310625FCC14E779BFD0709F8890A629C9292B1B2DED31A4B0DA928CEE135085754027E3018A397D4D5427D15BD1330B677DC8934285AC3DF45A9EB68FF8F2B8FC0A509AFEECFD0FF2DE25CC6047F7214B195F07EFEB9A094D800F7BFAE8FED187B78EA8A3A400F115961BCAD1215E47C966530AF0EE8128FE
310
58CEBB996A8964FFA529A046635D9353B0336A8F700DDF46271A024E70B0B37C9DE01847591E54DED53D54202AB947E4076556AC49C6CA5C9E1226B7F1A7B1BE15DEED62C41B91E1B3E9AFAAA735036547343A925075041DF0A9979E893B391F8FCFA6967B3EFB644DCF6E5CEBFAE272625DCC6FAF3FB93793C5F90CE1EF57
310
407342756B10D1C489E8953CD1617E5CEECAD6F4EF8914CE5D5D504E5C3F1F9736DA62CFC11E00BCDDB8CC8A9466349744C1F75EBDA4DF09BA8A9E8C7A7E9991989E20E5DBDD6A6003664ED8F7A04A8DBE0DF6EAD9B9AA858342E47399053949D2C146EDB85DE4B176BB0965FBAC19BD19AA918E27FA50C1D22402E144464C
310
59462568E704B6E71915404CB72B8FF4EDE184DDAF753F284990D2C6926782963815403548A70C657FDEF80D2D9CEAA2AE4C1C76F60BFE74219A06527D6582DF6412526107381E55E353090704D085B52408D0933C4ED159D79BDA71BB4BC506F4831350EB6F979CD22D69BF7AC49B91A2C0A9DDA3D5CA36AD20FC478E37E6
310
1844E2352865EBCB6EA275A652E3836BE04EFB400BF1A2556F515F1FBB35B2AB35BD889C744FFA1004B5544B121E57F70215746DD2F5E2C1412B602CBF19455AC6C8E5E9922C4E01E65215385004546899059180EAFCF7A707CE7017CD8CDB0410789AB32C63B91E5CEBBBACB17AC6CD347A022D5075FD106377347AAABA7E
310
7D11590744509B44E205134DC1290F06580320F78E537D3D73540E06CB970B431F185308AD40BBD794D6D77003C5A36E8EAA54BA64597CD8F83BD552A080A365F7FF06504B0304140006080000CC70623B000000000000000000000000350000006662782F39464131463745442D413632322D343644302D413938332D3331
310
353338454246344243312F76657274696365732E62696E504B0304140006080800CC70623BF270F1330600000004000000360000006662782F39464131463745442D413632322D343644302D413938332D3331353338454246344243312F747269616E676C65732E62696E636660600000504B0304140006080000CC70623B
310
000000000000000000000000370000006662782F39464131463745442D413632322D343644302D413938332D3331353338454246344243312F617474726962757465732E62696E504B0304140006080800CC70623B08DA0BD19000000041010000360000006662782F39464131463745442D413632322D343644302D413938
310
332D3331353338454246344243312F6469726563746F72792E786D6C858F410AC3201045AF22B36F53E9A60B35CBEEBAE80D244E44489C6234F4F835464A48035D0DF398FF9F8AF63D0E6CC63039F212F8F9020C7D47C6792B21C5FE7403D62A1188E2E60C98D7234A5830286103A55745067B9D86B8A3CF9C7F90C11DE607
310
FB144396D7B6A82D282E9A152AD114D5EF2CB866EEE831B8EEA07A7BB5A8D7D61A2BAAEB7FD5F70921FF497D00504B0304140006080800CC70623B0D6EF93BFE000000A00100003B0000006662782F39464131463745442D413632322D343644302D413938332D3331353338454246344243312F7265736F75726365732F63
310
6F72652E786D6C8D50596E833010BD0A9ADFCA60B334011947A8694ED00B586642AC041B79A97AFC9A40A5F6AF3F33A3B7689E1E3F7DCD8FEC139DD7D6F4C0720A191A65476DA61E62B892236427C19DB5E1970C322367EC618541F0C9D9B8EC90B226A009093576C41D94DE63804C3DD2D18357379C652E63480A7FCF17A9
310
EE72C29CE5894E3AC17D702940B63D59270887DE46A7D0F36263058F518FBB468FE9A7BE6A7420864373B8D4873369AA8691FA421B3294352543C5CAF65C0F6FEF43CB8BD52C78D0F34F46E550061C419494B6843142CB0F5677F4B52BEB177AEC28E5C52AFF638ACBF84F53D42654E51E77B379102C05791282176B5F693D
310
CB4C7BED567C03504B010214000A0000080000CC70623B3DEE336E79000000790000001B00000000000000000000000000000000006175746F6465736B2D64657369676E2D7061636B6167652E786D6C504B01021400140006080800CC70623BD486FD9CA0000000F40000001300000000000000000000000000B20000005B
310
436F6E74656E745F54797065735D2E786D6C504B01021400140006080800CC70623B1EC5D7A3EB0000007C010000080000000000000000000000000083010000636F72652E786D6C504B01021400140006080800CC70623B55019EA25F0000007C000000070000000000000000000000000094020000636E782E786D6C504B
310
01021400140006080800CC70623B8C9102E971010000D40300000C00000000000000000000000000180300006662782F636F72652E786D6C504B01021400140006080800CC70623BFFEA85907E0000009D0000000B00000000000000000000000000B30400006662782F636E782E786D6C504B01021400140006080800CC70
310
623B4FEEA4082C0100001202000031000000000000000000000000005A0500006662782F39464131463745442D413632322D343644302D413938332D3331353338454246344243312F636F72652E786D6C504B01021400140006080800CC70623BAD7543B64E010000330300003000000000000000000000000000D5060000
310
6662782F39464131463745442D413632322D343644302D413938332D3331353338454246344243312F636E782E786D6C504B01021400140006080800CC70623B16AB87BA640500003C1000003400000000000000000000000000710800006662782F39464131463745442D413632322D343644302D413938332D3331353338
310
454246344243312F6F626A656374732E786D6C504B01021400140006080000CC70623B0000000000000000000000003500000000000000000000000000270E00006662782F39464131463745442D413632322D343644302D413938332D3331353338454246344243312F76657274696365732E62696E504B01021400140006
310
080800CC70623BF270F133060000000400000036000000000000000000000000007A0E00006662782F39464131463745442D413632322D343644302D413938332D3331353338454246344243312F747269616E676C65732E62696E504B01021400140006080000CC70623B0000000000000000000000003700000000000000
310
000000000000D40E00006662782F39464131463745442D413632322D343644302D413938332D3331353338454246344243312F617474726962757465732E62696E504B01021400140006080800CC70623B08DA0BD190000000410100003600000000000000000000000000290F00006662782F39464131463745442D413632
310
322D343644302D413938332D3331353338454246344243312F6469726563746F72792E786D6C504B01021400140006080800CC70623B0D6EF93BFE000000A00100003B000000000000000000000000000D1000006662782F39464131463745442D413632322D343644302D413938332D3331353338454246344243312F7265
310
736F75726365732F636F72652E786D6C504B0506000000000E000E0080040000641100000000
  0
XRECORD
  5
D
102
{ACAD_REACTORS
330
C
102
}
330
C
100
AcDbXrecord
280
     1
270
     1
271
     1
  0
XRECORD
  5
E
102
{ACAD_REACTORS
330
C
102
}
330
C
100
AcDbXrecord
280
     1
270
     1
271
     1
  0
XRECORD
  5
F
102
{ACAD_REACTORS
330
C
102
}
330
C
100
AcDbXrecord
280
     1
 70
     0
 90
1673772943
  1
ECE7A1D2-D628-4531-984C-D00F80459256
310
504B03040A0000080000CC70623B3DEE336E79000000790000001B0000006175746F6465736B2D64657369676E2D7061636B6167652E786D6C3C3F786D6C2076657273696F6E3D22312E302220656E636F64696E673D227574662D3822203F3E3C666F726D6174733E3C666F726D61743E687474703A2F2F736368656D612E
310
6175746F6465736B2E636F6D2F64657369676E2D7061636B6167652F323030393C2F666F726D61743E3C2F666F726D6174733E504B0304140006080800CC70623BD486FD9CA0000000F4000000130000005B436F6E74656E745F54797065735D2E786D6C7D8EC10E82300C865F65E91D8A1E8C310C0EEA1BF002731658846E
310
D98AC1B77784ABF1D8FE5FBFBF75BBCE937A534CCEB38643598122B6FEE978D0B0485F9C41B54DDD7D022595594E1A469170414C76A4D9A4D207E29CF43ECE46F218070CC6BECC4078ACAA135ACF422C856C0E68EA1BF5669944DDD7BCDE7B1F8E415D77AECB980613C2E4AC91FC167A2B244592486606FC29C8FD7F045B9A
310
EF7053A7E60B504B0304140006080800CC70623BD9DDAED0EC0000007C01000008000000636F72652E786D6C8D90416EC3201045AF82665B61836D9CD8C2444DD39CA01740405C94182C03558F5F9C3852BBEB6A467FFE9B197D7EF89E6EE8CB2CC17A37002D0820E394D7D68D03A478C17B4007C117EFE32F1B20272733C0
310
2A83E0E3E2D3BC49CABB685CCCAAF3DA6CA20CC14440EA969B0182FA34932C648AD911AEC52CD5558EA6A0CF2EC329598D1E47ACCEFBECC59A050463A7EA5833865FEBDD0E37353BE3EE8DBDE3F6786A48D375FBF6CC78B9C282473B3DEFABC5C86834888A900E538A49F5419B9EB47DD5BC907D4F082F57FB1F28CDFA9F50
310
B22ED6D5F6EE030B20687EE43E10BC5CB3C8E51E54AE6B6EE207504B0304140006080800CC70623B55019EA25F0000007C00000007000000636E782E786D6C4DCB3B0E80201045D1AD90E915ED2CF8AC45050C11660C8261F98AB1B07AC9C97D42D718D865D3E909258CFD00CCE24AC6E326A164D74DC0B4128928FF326038
310
472BA13128B1252AC747C6BAB984FC68F0B87FE8960A5C09FE86CFB69FBA01504B0304140006080800CC70623BA24EB22D72010000D40300000C0000006662782F636F72652E786D6CC5535B6E833010BC8AE5DF0A6C5E49888CA3A6694ED00B38E05014B091B1518EDFE511A5A9D228FD2A1F60CDEC7A67C6986DCE4D8D7A
310
69BA4AAB0C073EC548AA5C17952A33ECECD15B61B4E1CC686DBF9561A44423333CC098B3D268D7CE50AE9595CA02AA74216750749DB418E5352C32DCE59FB211BE70162ABA93DF8AFC244AE9073ED050C759670D0840D390E18DF9F1706664C23973AE2A66B62A605A75ACA4C13C4976E1364A12EF355A2EBD384AF65EFA96
310
BC7B8BED2EA6719AAE16FB8491A199335B351775B991C2CA02F390D2D40B028F861F41BCA68B7518BFD0D59A524686F29B26D7164F36B94AD9289CE54E6D1DE6010819891F6E21228B3AD1831EC219194284CF98F06DD01008846CC5A1BEF83801D4CBDC6A1303536877A57A513B0953A94FC707FDBE6064EA84A9E3E6E0FA
310
EE8CF0E9198F7784A316AA0413C2C2F2E0ECA0934D1AE6D05A69BCDE9E91D2A611F573361E38FC1375157F5752AE6B6DFE4B11990F88CCBF0719EE23FF02504B0304140006080800CC70623B408A7D3B7C0000009D0000000B0000006662782F636E782E786D6C4DCCD10A83201886E15B91FFDC552A92A0064DBC8F581632
310
D3703A76F9ABD1C18E3E78F878E5F0D9027ABBFCF2292AE86E2D20171F69F6715550CB827B40839639A5F2770314A7CD293819B45C73AAFB45B35BA61ACAA1C1C7E7855C58C15BC331339661262CC762340413D68D77DA5B42298546CBE6573AF60CEB2F504B0304140006080800CC70623B449FB9BD290100001202000031
310
0000006662782F36394639363044362D344446342D343946362D394244322D3234314243333846323333332F636F72652E786D6C8D515B6EC32010BC0AE22B55850D98B871848994463E412FE002495162B07854397EA176A4F62F3F2C9A9D991D587EB84F37F0AD7D30CEF6905418026DA553C65E7A98E219ED203808EE9D
310
8B7F6810D871D23D2C3014FCE25D9A57483A1BB58D19B54EE9151C43D0110279CB971E06F9A5A7B11A53CC8C70ADE6515EC78BAE4895DB992778883E0700CB907242D17643D7E2538BD869608875438BBAE38922CAC8F1BDD90DB4691A5E2F42C153326A951B95E398B3D1FE599322163C9AE9115F7A3D46ADA0A018778810
310
84E907617BDCEE297BC5BB3DC6BC2EF47FA234AB2745C9D8D8D035EE220B50105E2F0DC1954B9FB747187D9F9D8FA0CCDB042D5FA0C015C65B42DF78BD10F3F3B363CB56C7109DCFDFBBB97E662ED92EB62D13BC2E1BCAE5777DB9966D8A1F504B0304140006080800CC70623BAD7543B64E01000033030000300000006662
310
782F36394639363044362D344446342D343946362D394244322D3234314243333846323333332F636E782E786D6CD593CD6EC32010845F0571AD6CE3D48AD20813A9873E410FBD12D82434182C7EAAE6EDBB2424CD25871E7B41D6EC30B3FA84F9E67BB2E40B4234DE8DB46F1925E094D7C6ED479AD3AE5951B2113C789FEE
310
6C943839C1488B4C05DF079FE72A69D8C96C13AAD6B8631503449F83828872B949AC57D26200B826A308D316B4064D6E46FCDA41C05550DC9E483A00797BFD207EFB092A45DE9514C1BBD22178396BD39D891265658C238DEA00936C654E5E433CB65A26D9F6EDB5EBC14EBF49A45CB856E66048291F6939A9A81BB5C89177
310
38143CA680F4AA299D66A042CEB3354A2684DC9D8D178FE0D9B8B41CAAD720F880EE7EF93C0C18769E099ECC04D5A102C8049A8A05632F4DDF376CF1DE0F6BB65C2F8627B65A33C6BB62177CEBBDAD973006829F89F22E814B54F4BC2BE347F8AA8F681390B50FA73F804400B5F542E796F19FF974E7F78DB802FE05E20750
310
4B0304140006080800CC70623B8D05915C650500003B100000340000006662782F36394639363044362D344446342D343946362D394244322D3234314243333846323333332F6F626A656374732E786D6CAD575B6FA33814FE2B887D06429276DA1565D4266D158D3A339A6846FB502932E050B66023DB74D2FDF5FB190C01
310
9276B2973C046C8ECFF53B17071F77456EBD502133CEAE6CDF9DD81665314F32965ED995DA3A17B6F5310C04E7AA47665B8C14F4CAD6DB7618A48257A5D94AE89654B91AEDDEDDFC61C998326A5B714EA4BCB265FC440BE2924AF184CA6737218AB8E976E7FA6E4338649B0A523E8D98964450A6A029F619B8588D52FE7039
310
B1BD30F0F4F730D0FF866AF6369557DB33949F31A9088B0F848DD8CCFCF9F2767A76E99CCDE733677E3EF59D9BBB9BA5E37F984D16E78BC5E5F5ED25044B25C0C96822E8D60EEFE11B91C581D77CEA34368A1F5329E68CD1B8B61F16D63A1B8E092D294B10C78C4A48EB593D192E7DED9BDEE7995E1B91FDEDD3ACEA9FE831
310
6A756F9F7D4D79F4274C90A7A04248AA51D5F8C718DAE06FB2F75AC4796EBE65D22A88A22223B995679120E2D50E41AA49C260C046A35368846B0BECD0DFF3EBEB8AD4F835768F69B9ADF25C43D30E6B646F807FAA64AD59F61715C7A54127C4AACA98BA3006A9D792DAE165E0D59B61A01FB3A9F9D838D2DAE62445C86166
310
F37564E842E7DE6A69879FEEA2DD5AE7E371E1A5E025154AC307D06A03D73EB5978C58FFA4C8E9033066E0F3BD53BEC1F39F91BE7B55103791EDE6BBB991A2046172CB4581D8B893FA674DDA17A77B3B7C413D1B511FD2743BFF8A38F03A658705E3ADF8015C3A3417FF3D7E439FF591DA0B5F18BC20C1B8981957AE6392A3
310
F43C640C01D1A0B4728E2DD4F26DB4B3C3152A252A3B4E913CEC1C72F012782FF88EFF8637AA552DBEF76408E8A8DE9E50F9E1CB3A2DA0DB1B6039A893B56063DC5B3E3FFB5F72E67AB9FEB4AEC496C4F4C1149625DD662C53E89D7BF0F6151A046260D1337DFDC94502430F83B0EE07A130A224BCAD7DAE1D9FB6CD422FF6
310
920702629C4BB9AE79C12F243C6432A6794E18E5552BA56B431AAB5D91317302B2B071E86C3A42B1A02F999E24061403B5D0EB639195DA655DD3EBEAB4FB862DDF579F014AD0E73C22F99E28DA57FB98E75C6CA2D74D53086D600F4786E0FE3144B771A8A7B900F03594DB8A633CBC49B2EDB69228BB479CF863B5E807AAAB
310
23872F6DFEB4129B949CA33823F58830E86D65621E10047D9DB34D862E8EAC3C2ABC2F7B2C40D67CDFE01F5545B92105AF983AC54D93D69E56FB8E797F88913F898A9FEC705D3F9D1B54EC8426FB500D40A03BD0119B06E1B95DDC7EB8F6975367793EBD70E66733DFB9BC982F9CE564727731999F5D4ECFCE3B8D6A4DC2A0
310
6D50FD148437D110834A64C6CDDF57FBACB5C307A2A477DFE4939736CFEF2B175371E0E10CF0DD1D5C15654E0BCA14D1E87DD02FF93782A162C0A3D95F1524A52770F972BF1EE9809D13CE7DD599467F8ECE9ADD85CE85A34CD45355448C64F9E8A031DC2D596ACC6E5DD93D9B82DE2EF5CAF81363A8E47996A0DE24564A79
310
4115AACE09C55E14540231FDA13C319787134EBF34E3A022514E5B4D9E0826E25C02D5805B15ABE1BEF51B26383D445DD9E875EE33FE4C22DA16427D65A3BCA92CA6D28DD01DF5DC53330704308475351050232CCD31583787BA75774AFB06E5070DD0C8EF484E19968C5D83BA5B90B244D31E54D55A372320FE4786B7EA58
310
44E135AA5467CB7EA333A61683CC6A8C3257034C10CF46F40EF9F5BE59BE5BD30C3C72D235E95D10345C1D45445A5F0BB47E46A5EBE5570F9380B5FA629579952296A773720405982B9DE04011506178964401AA8BDF1FBF0A8EAB6861DD6580C0E38217056766716DAEB2D6FA0917D3E4116581EADB879C4E7CFFB11EFACD
310
3D641311495D92C8676CB409A72D18610D803CE8A626049E8EC1887CB5B44CC39883690DDA8399B4B9855B481E7D71D4A9D22F96E5BB73BF5793020C02137BF837504B0304140006080000CC70623B000000000000000000000000350000006662782F36394639363044362D344446342D343946362D394244322D32343142
310
43333846323333332F76657274696365732E62696E504B0304140006080800CC70623BF270F1330600000004000000360000006662782F36394639363044362D344446342D343946362D394244322D3234314243333846323333332F747269616E676C65732E62696E636660600000504B0304140006080000CC70623B0000
310
00000000000000000000370000006662782F36394639363044362D344446342D343946362D394244322D3234314243333846323333332F617474726962757465732E62696E504B0304140006080800CC70623B08DA0BD19000000041010000360000006662782F36394639363044362D344446342D343946362D394244322D
310
3234314243333846323333332F6469726563746F72792E786D6C858F410AC3201045AF22B36F53E9A60B35CBEEBAE80D244E44489C6234F4F835464A48035D0DF398FF9F8AF63D0E6CC63039F212F8F9020C7D47C6792B21C5FE7403D62A1188E2E60C98D7234A5830286103A55745067B9D86B8A3CF9C7F90C11DE607FB14
310
4396D7B6A82D282E9A152AD114D5EF2CB866EEE831B8EEA07A7BB5A8D7D61A2BAAEB7FD5F70921FF497D00504B0304140006080800CC70623BCA768048FE000000A00100003B0000006662782F36394639363044362D344446342D343946362D394244322D3234314243333846323333332F7265736F75726365732F636F72
310
652E786D6C8D50596E833010BD0A9ADFCA60D600328E9AA639412F609909B1126CE4A5EAF16B0295DABFFECC8CDEA2797AECF8353F924FB44E193D409E5248504B332A3D0D10FC95B4901C39B3C6F85F3248B49871801506CE266BC2B243D2688FDA47549B11775038871E12F988C7004EDE7016A9083E2ADC3D5D84BC8B09
310
D33C8D74D471E6BC8D0192EDC93A815B742658898E651BCB59086ADC356A8C3FD555A1055ED7E7E254D615792D0F075295F585746FF53B694EE78A565DD736979A65AB9933AFE69F8CD2A2F038022F28ED489E135A7CE4554F9BBEA85E68DB53CAB255FEC71496F19FA6A0B42F8B3DEE6673C0F318E4497096AD7DC5F52C33
310
EEB55BFE0D504B010214000A0000080000CC70623B3DEE336E79000000790000001B00000000000000000000000000000000006175746F6465736B2D64657369676E2D7061636B6167652E786D6C504B01021400140006080800CC70623BD486FD9CA0000000F40000001300000000000000000000000000B20000005B436F
310
6E74656E745F54797065735D2E786D6C504B01021400140006080800CC70623BD9DDAED0EC0000007C010000080000000000000000000000000083010000636F72652E786D6C504B01021400140006080800CC70623B55019EA25F0000007C000000070000000000000000000000000095020000636E782E786D6C504B0102
310
1400140006080800CC70623BA24EB22D72010000D40300000C00000000000000000000000000190300006662782F636F72652E786D6C504B01021400140006080800CC70623B408A7D3B7C0000009D0000000B00000000000000000000000000B50400006662782F636E782E786D6C504B01021400140006080800CC70623B
310
449FB9BD290100001202000031000000000000000000000000005A0500006662782F36394639363044362D344446342D343946362D394244322D3234314243333846323333332F636F72652E786D6C504B01021400140006080800CC70623BAD7543B64E010000330300003000000000000000000000000000D20600006662
310
782F36394639363044362D344446342D343946362D394244322D3234314243333846323333332F636E782E786D6C504B01021400140006080800CC70623B8D05915C650500003B10000034000000000000000000000000006E0800006662782F36394639363044362D344446342D343946362D394244322D32343142433338
310
46323333332F6F626A656374732E786D6C504B01021400140006080000CC70623B0000000000000000000000003500000000000000000000000000250E00006662782F36394639363044362D344446342D343946362D394244322D3234314243333846323333332F76657274696365732E62696E504B010214001400060808
310
00CC70623BF270F13306000000040000003600000000000000000000000000780E00006662782F36394639363044362D344446342D343946362D394244322D3234314243333846323333332F747269616E676C65732E62696E504B01021400140006080000CC70623B00000000000000000000000037000000000000000000
310
00000000D20E00006662782F36394639363044362D344446342D343946362D394244322D3234314243333846323333332F617474726962757465732E62696E504B01021400140006080800CC70623B08DA0BD190000000410100003600000000000000000000000000270F00006662782F36394639363044362D344446342D
310
343946362D394244322D3234314243333846323333332F6469726563746F72792E786D6C504B01021400140006080800CC70623BCA768048FE000000A00100003B000000000000000000000000000B1000006662782F36394639363044362D344446342D343946362D394244322D3234314243333846323333332F7265736F
310
75726365732F636F72652E786D6C504B0506000000000E000E0080040000621100000000
  0
XRECORD
  5
10
102
{ACAD_REACTORS
330
C
102
}
330
C
100
AcDbXrecord
280
     1
270
     1
271
     1
  0
XRECORD
  5
11
102
{ACAD_REACTORS
330
C
102
}
330
C
100
AcDbXrecord
280
     1
270
     1
271
     1
  0
CELLSTYLEMAP
  5
31D
102
{ACAD_REACTORS
330
50
102
}
330
50
100
AcDbCellStyleMap
 90
        3
300
CELLSTYLE
  1
TABLEFORMAT_BEGIN
 90
        5
170
     1
 91
        0
 92
    32768
 62
   257
 93
        1
300
CONTENTFORMAT
  1
CONTENTFORMAT_BEGIN
 90
        0
 91
        0
 92
      512
 93
        0
300

 40
0.0
140
1.0
 94
        5
 62
     0
340
21
144
6.0
309
CONTENTFORMAT_END
171
     1
301
MARGIN
  1
CELLMARGIN_BEGIN
 40
1.5
 40
1.5
 40
1.5
 40
1.5
 40
0.18
 40
0.18
309
CELLMARGIN_END
 94
        6
 95
        1
302
GRIDFORMAT
  1
GRIDFORMAT_BEGIN
 90
        0
 91
        1
 62
     0
 92
       -2
340
24
 93
        0
 40
1.125
309
GRIDFORMAT_END
 95
        2
302
GRIDFORMAT
  1
GRIDFORMAT_BEGIN
 90
        0
 91
        1
 62
     0
 92
       -2
340
24
 93
        0
 40
1.125
309
GRIDFORMAT_END
 95
        4
302
GRIDFORMAT
  1
GRIDFORMAT_BEGIN
 90
        0
 91
        1
 62
     0
 92
       -2
340
24
 93
        0
 40
1.125
309
GRIDFORMAT_END
 95
        8
302
GRIDFORMAT
  1
GRIDFORMAT_BEGIN
 90
        0
 91
        1
 62
     0
 92
       -2
340
24
 93
        0
 40
1.125
309
GRIDFORMAT_END
 95
       16
302
GRIDFORMAT
  1
GRIDFORMAT_BEGIN
 90
        0
 91
        1
 62
     0
 92
       -2
340
24
 93
        0
 40
1.125
309
GRIDFORMAT_END
 95
       32
302
GRIDFORMAT
  1
GRIDFORMAT_BEGIN
 90
        0
 91
        1
 62
     0
 92
       -2
340
24
 93
        0
 40
1.125
309
GRIDFORMAT_END
309
TABLEFORMAT_END
  1
CELLSTYLE_BEGIN
 90
        1
 91
        1
300
_TITLE
309
CELLSTYLE_END
300
CELLSTYLE
  1
TABLEFORMAT_BEGIN
 90
        5
170
     1
 91
        0
 92
        0
 62
   257
 93
        1
300
CONTENTFORMAT
  1
CONTENTFORMAT_BEGIN
 90
        0
 91
        0
 92
      512
 93
        0
300

 40
0.0
140
1.0
 94
        5
 62
     0
340
21
144
4.5
309
CONTENTFORMAT_END
171
     1
301
MARGIN
  1
CELLMARGIN_BEGIN
 40
1.5
 40
1.5
 40
1.5
 40
1.5
 40
0.18
 40
0.18
309
CELLMARGIN_END
 94
        6
 95
        1
302
GRIDFORMAT
  1
GRIDFORMAT_BEGIN
 90
        0
 91
        1
 62
     0
 92
       -2
340
24
 93
        0
 40
1.125
309
GRIDFORMAT_END
 95
        2
302
GRIDFORMAT
  1
GRIDFORMAT_BEGIN
 90
        0
 91
        1
 62
     0
 92
       -2
340
24
 93
        0
 40
1.125
309
GRIDFORMAT_END
 95
        4
302
GRIDFORMAT
  1
GRIDFORMAT_BEGIN
 90
        0
 91
        1
 62
     0
 92
       -2
340
24
 93
        0
 40
1.125
309
GRIDFORMAT_END
 95
        8
302
GRIDFORMAT
  1
GRIDFORMAT_BEGIN
 90
        0
 91
        1
 62
     0
 92
       -2
340
24
 93
        0
 40
1.125
309
GRIDFORMAT_END
 95
       16
302
GRIDFORMAT
  1
GRIDFORMAT_BEGIN
 90
        0
 91
        1
 62
     0
 92
       -2
340
24
 93
        0
 40
1.125
309
GRIDFORMAT_END
 95
       32
302
GRIDFORMAT
  1
GRIDFORMAT_BEGIN
 90
        0
 91
        1
 62
     0
 92
       -2
340
24
 93
        0
 40
1.125
309
GRIDFORMAT_END
309
TABLEFORMAT_END
  1
CELLSTYLE_BEGIN
 90
        2
 91
        1
300
_HEADER
309
CELLSTYLE_END
300
CELLSTYLE
  1
TABLEFORMAT_BEGIN
 90
        5
170
     1
 91
        0
 92
        0
 62
   257
 93
        1
300
CONTENTFORMAT
  1
CONTENTFORMAT_BEGIN
 90
        0
 91
        0
 92
      512
 93
        0
300

 40
0.0
140
1.0
 94
        2
 62
     0
340
21
144
4.5
309
CONTENTFORMAT_END
171
     1
301
MARGIN
  1
CELLMARGIN_BEGIN
 40
1.5
 40
1.5
 40
1.5
 40
1.5
 40
0.18
 40
0.18
309
CELLMARGIN_END
 94
        6
 95
        1
302
GRIDFORMAT
  1
GRIDFORMAT_BEGIN
 90
        0
 91
        1
 62
     0
 92
       -2
340
24
 93
        0
 40
1.125
309
GRIDFORMAT_END
 95
        2
302
GRIDFORMAT
  1
GRIDFORMAT_BEGIN
 90
        0
 91
        1
 62
     0
 92
       -2
340
24
 93
        0
 40
1.125
309
GRIDFORMAT_END
 95
        4
302
GRIDFORMAT
  1
GRIDFORMAT_BEGIN
 90
        0
 91
        1
 62
     0
 92
       -2
340
24
 93
        0
 40
1.125
309
GRIDFORMAT_END
 95
        8
302
GRIDFORMAT
  1
GRIDFORMAT_BEGIN
 90
        0
 91
        1
 62
     0
 92
       -2
340
24
 93
        0
 40
1.125
309
GRIDFORMAT_END
 95
       16
302
GRIDFORMAT
  1
GRIDFORMAT_BEGIN
 90
        0
 91
        1
 62
     0
 92
       -2
340
24
 93
        0
 40
1.125
309
GRIDFORMAT_END
 95
       32
302
GRIDFORMAT
  1
GRIDFORMAT_BEGIN
 90
        0
 91
        1
 62
     0
 92
       -2
340
24
 93
        0
 40
1.125
309
GRIDFORMAT_END
309
TABLEFORMAT_END
  1
CELLSTYLE_BEGIN
 90
        3
 91
        2
300
_DATA
309
CELLSTYLE_END
  0
ENDSEC
  0
SECTION
  2
ACDSDATA
 70
     2
 71
     8
  0
ACDSSCHEMA
 90
        0
  1
AcDb_Thumbnail_Schema
  2
AcDbDs::ID
280
    10
 91
        8
  2
Thumbnail_Data
280
    15
 91
        0
101
ACDSRECORD
 95
        0
 90
        1
  2
AcDbDs::TreatedAsObjectData
280
     1
291
     1
101
ACDSRECORD
 95
        0
 90
        2
  2
AcDbDs::Legacy
280
     1
291
     1
101
ACDSRECORD
  1
AcDbDs::ID
 90
        3
  2
AcDs:Indexable
280
     1
291
     1
101
ACDSRECORD
  1
AcDbDs::ID
 90
        4
  2
AcDbDs::HandleAttribute
280
     7
282
     1
  0
ACDSSCHEMA
 90
        1
  1
AcDbDs::TreatedAsObjectDataSchema
  2
AcDbDs::TreatedAsObjectData
280
     1
 91
        0
  0
ACDSSCHEMA
 90
        2
  1
AcDbDs::LegacySchema
  2
AcDbDs::Legacy
280
     1
 91
        0
  0
ACDSSCHEMA
 90
        3
  1
AcDbDs::IndexedPropertySchema
  2
AcDs:Indexable
280
     1
 91
        0
  0
ACDSSCHEMA
 90
        4
  1
AcDbDs::HandleAttributeSchema
  2
AcDbDs::HandleAttribute
280
     7
 91
        1
284
     1
  0
ACDSRECORD
 90
        0
  2
AcDbDs::ID
280
    10
320
15
  2
Thumbnail_Data
280
    15
 94
      896
310
89504E470D0A1A0A0000000D49484452000001000000009108030000001BE1960600000300504C5445212830FFFFFF2128300000000000000000000000000000000000000000000000000000330000660000990000CC0000FF0033000033330033660033990033CC0033FF0066000066330066660066990066CC0066FF0099
310
000099330099660099990099CC0099FF00CC0000CC3300CC6600CC9900CCCC00CCFF00FF0000FF3300FF6600FF9900FFCC00FFFF3300003300333300663300993300CC3300FF3333003333333333663333993333CC3333FF3366003366333366663366993366CC3366FF3399003399333399663399993399CC3399FF33CC00
310
33CC3333CC6633CC9933CCCC33CCFF33FF0033FF3333FF6633FF9933FFCC33FFFF6600006600336600666600996600CC6600FF6633006633336633666633996633CC6633FF6666006666336666666666996666CC6666FF6699006699336699666699996699CC6699FF66CC0066CC3366CC6666CC9966CCCC66CCFF66FF0066
310
FF3366FF6666FF9966FFCC66FFFF9900009900339900669900999900CC9900FF9933009933339933669933999933CC9933FF9966009966339966669966999966CC9966FF9999009999339999669999999999CC9999FF99CC0099CC3399CC6699CC9999CCCC99CCFF99FF0099FF3399FF6699FF9999FFCC99FFFFCC0000CC00
310
33CC0066CC0099CC00CCCC00FFCC3300CC3333CC3366CC3399CC33CCCC33FFCC6600CC6633CC6666CC6699CC66CCCC66FFCC9900CC9933CC9966CC9999CC99CCCC99FFCCCC00CCCC33CCCC66CCCC99CCCCCCCCCCFFCCFF00CCFF33CCFF66CCFF99CCFFCCCCFFFFFF0000FF0033FF0066FF0099FF00CCFF00FFFF3300FF3333
310
FF3366FF3399FF33CCFF33FFFF6600FF6633FF6666FF6699FF66CCFF66FFFF9900FF9933FF9966FF9999FF99CCFF99FFFFCC00FFCC33FFCC66FFCC99FFCCCCFFCCFFFFFF00FFFF33FFFF66FFFF99FFFFCCFFFFFF0000000D0D0D1A1A1A2828283535354343435050505D5D5D6B6B6B787878868686939393A1A1A1AEAEAEBB
310
BBBBC9C9C9D6D6D6E4E4E4F1F1F1FFFFFF0000000000000000000000000000000000000000000000000000000000002E4550F10000003B4944415478DAEDC13101000000C2A0F54F6D0B2FA0000000000000000000000000000000000000000000000000000000000000000000000000CE06919100016C9A5B1B0000000049
310
454E44AE426082
  0
ENDSEC
  0
EOF
