  0
SECTION
  2
HEADER
  9
$ACADVER
  1
AC1032
  9
$ACADMAINTVER
 90
      174
  9
$DWGCODEPAGE
  3
ANSI_932
  9
$REQUIREDVERSIONS
160
                 0
  9
$INSBASE
 10
0.0
 20
0.0
 30
0.0
  9
$EXTMIN
 10
54.83026202746441
 20
34.98434575522004
 30
0.0
  9
$EXTMAX
 10
104.8302620274937
 20
70.36233243879104
 30
0.0
  9
$LIMMIN
 10
0.0
 20
0.0
  9
$LIMMAX
 10
420.0
 20
297.0
  9
$ORTHOMODE
 70
     0
  9
$REGENMODE
 70
     1
  9
$FILLMODE
 70
     1
  9
$QTEXTMODE
 70
     0
  9
$MIRRTEXT
 70
     0
  9
$LTSCALE
 40
1.0
  9
$ATTMODE
 70
     1
  9
$TEXTSIZE
 40
2.5
  9
$TRACEWID
 40
1.0
  9
$TEXTSTYLE
  7
Standard
  9
$CLAYER
  8
0
  9
$CELTYPE
  6
ByLayer
  9
$CECOLOR
 62
   256
  9
$CELTSCALE
 40
1.0
  9
$DISPSILH
 70
     0
  9
$DIMSCALE
 40
1.0
  9
$DIMASZ
 40
2.5
  9
$DIMEXO
 40
0.625
  9
$DIMDLI
 40
3.75
  9
$DIMRND
 40
0.0
  9
$DIMDLE
 40
0.0
  9
$DIMEXE
 40
1.25
  9
$DIMTP
 40
0.0
  9
$DIMTM
 40
0.0
  9
$DIMTXT
 40
2.5
  9
$DIMCEN
 40
2.5
  9
$DIMTSZ
 40
0.0
  9
$DIMTOL
 70
     0
  9
$DIMLIM
 70
     0
  9
$DIMTIH
 70
     0
  9
$DIMTOH
 70
     0
  9
$DIMSE1
 70
     0
  9
$DIMSE2
 70
     0
  9
$DIMTAD
 70
     1
  9
$DIMZIN
 70
     8
  9
$DIMBLK
  1

  9
$DIMASO
 70
     1
  9
$DIMSHO
 70
     1
  9
$DIMPOST
  1

  9
$DIMAPOST
  1

  9
$DIMALT
 70
     0
  9
$DIMALTD
 70
     3
  9
$DIMALTF
 40
0.03937007874016
  9
$DIMLFAC
 40
1.0
  9
$DIMTOFL
 70
     1
  9
$DIMTVP
 40
0.0
  9
$DIMTIX
 70
     0
  9
$DIMSOXD
 70
     0
  9
$DIMSAH
 70
     0
  9
$DIMBLK1
  1

  9
$DIMBLK2
  1

  9
$DIMSTYLE
  2
ISO-25
  9
$DIMCLRD
 70
     0
  9
$DIMCLRE
 70
     0
  9
$DIMCLRT
 70
     0
  9
$DIMTFAC
 40
1.0
  9
$DIMGAP
 40
0.625
  9
$DIMJUST
 70
     0
  9
$DIMSD1
 70
     0
  9
$DIMSD2
 70
     0
  9
$DIMTOLJ
 70
     0
  9
$DIMTZIN
 70
     8
  9
$DIMALTZ
 70
     0
  9
$DIMALTTZ
 70
     0
  9
$DIMUPT
 70
     0
  9
$DIMDEC
 70
     2
  9
$DIMTDEC
 70
     2
  9
$DIMALTU
 70
     2
  9
$DIMALTTD
 70
     3
  9
$DIMTXSTY
  7
Standard
  9
$DIMAUNIT
 70
     0
  9
$DIMADEC
 70
     0
  9
$DIMALTRND
 40
0.0
  9
$DIMAZIN
 70
     0
  9
$DIMDSEP
 70
    44
  9
$DIMATFIT
 70
     3
  9
$DIMFRAC
 70
     0
  9
$DIMLDRBLK
  1

  9
$DIMLUNIT
 70
     2
  9
$DIMLWD
 70
    -2
  9
$DIMLWE
 70
    -2
  9
$DIMTMOVE
 70
     0
  9
$DIMFXL
 40
1.0
  9
$DIMFXLON
 70
     0
  9
$DIMJOGANG
 40
0.7853981633974483
  9
$DIMTFILL
 70
     0
  9
$DIMTFILLCLR
 70
     0
  9
$DIMARCSYM
 70
     0
  9
$DIMLTYPE
  6

  9
$DIMLTEX1
  6

  9
$DIMLTEX2
  6

  9
$DIMTXTDIRECTION
 70
     0
  9
$LUNITS
 70
     2
  9
$LUPREC
 70
     4
  9
$SKETCHINC
 40
1.0
  9
$FILLETRAD
 40
0.0
  9
$AUNITS
 70
     0
  9
$AUPREC
 70
     0
  9
$MENU
  1
.
  9
$ELEVATION
 40
0.0
  9
$PELEVATION
 40
0.0
  9
$THICKNESS
 40
0.0
  9
$LIMCHECK
 70
     0
  9
$CHAMFERA
 40
0.0
  9
$CHAMFERB
 40
0.0
  9
$CHAMFERC
 40
0.0
  9
$CHAMFERD
 40
0.0
  9
$SKPOLY
 70
     0
  9
$TDCREATE
 40
2459891.420069445
  9
$TDUCREATE
 40
2459891.086736111
  9
$TDUPDATE
 40
2459891.420069445
  9
$TDUUPDATE
 40
2459891.086736111
  9
$TDINDWG
 40
0.0022916667
  9
$TDUSRTIMER
 40
0.0022916667
  9
$USRTIMER
 70
     1
  9
$ANGBASE
 50
0.0
  9
$ANGDIR
 70
     0
  9
$PDMODE
 70
     0
  9
$PDSIZE
 40
0.0
  9
$PLINEWID
 40
0.0
  9
$SPLFRAME
 70
     0
  9
$SPLINETYPE
 70
     6
  9
$SPLINESEGS
 70
     8
  9
$HANDSEED
  5
37F
  9
$SURFTAB1
 70
     6
  9
$SURFTAB2
 70
     6
  9
$SURFTYPE
 70
     6
  9
$SURFU
 70
     6
  9
$SURFV
 70
     6
  9
$UCSBASE
  2

  9
$UCSNAME
  2

  9
$UCSORG
 10
0.0
 20
0.0
 30
0.0
  9
$UCSXDIR
 10
1.0
 20
0.0
 30
0.0
  9
$UCSYDIR
 10
0.0
 20
1.0
 30
0.0
  9
$UCSORTHOREF
  2

  9
$UCSORTHOVIEW
 70
     0
  9
$UCSORGTOP
 10
0.0
 20
0.0
 30
0.0
  9
$UCSORGBOTTOM
 10
0.0
 20
0.0
 30
0.0
  9
$UCSORGLEFT
 10
0.0
 20
0.0
 30
0.0
  9
$UCSORGRIGHT
 10
0.0
 20
0.0
 30
0.0
  9
$UCSORGFRONT
 10
0.0
 20
0.0
 30
0.0
  9
$UCSORGBACK
 10
0.0
 20
0.0
 30
0.0
  9
$PUCSBASE
  2

  9
$PUCSNAME
  2

  9
$PUCSORG
 10
0.0
 20
0.0
 30
0.0
  9
$PUCSXDIR
 10
1.0
 20
0.0
 30
0.0
  9
$PUCSYDIR
 10
0.0
 20
1.0
 30
0.0
  9
$PUCSORTHOREF
  2

  9
$PUCSORTHOVIEW
 70
     0
  9
$PUCSORGTOP
 10
0.0
 20
0.0
 30
0.0
  9
$PUCSORGBOTTOM
 10
0.0
 20
0.0
 30
0.0
  9
$PUCSORGLEFT
 10
0.0
 20
0.0
 30
0.0
  9
$PUCSORGRIGHT
 10
0.0
 20
0.0
 30
0.0
  9
$PUCSORGFRONT
 10
0.0
 20
0.0
 30
0.0
  9
$PUCSORGBACK
 10
0.0
 20
0.0
 30
0.0
  9
$USERI1
 70
     0
  9
$USERI2
 70
     0
  9
$USERI3
 70
     0
  9
$USERI4
 70
     0
  9
$USERI5
 70
     0
  9
$USERR1
 40
0.0
  9
$USERR2
 40
0.0
  9
$USERR3
 40
0.0
  9
$USERR4
 40
0.0
  9
$USERR5
 40
0.0
  9
$WORLDVIEW
 70
     1
  9
$SHADEDGE
 70
     3
  9
$SHADEDIF
 70
    70
  9
$TILEMODE
 70
     1
  9
$MAXACTVP
 70
    64
  9
$PINSBASE
 10
0.0
 20
0.0
 30
0.0
  9
$PLIMCHECK
 70
     0
  9
$PEXTMIN
 10
0.0
 20
0.0
 30
0.0
  9
$PEXTMAX
 10
0.0
 20
0.0
 30
0.0
  9
$PLIMMIN
 10
0.0
 20
0.0
  9
$PLIMMAX
 10
12.0
 20
9.0
  9
$UNITMODE
 70
     0
  9
$VISRETAIN
 70
     1
  9
$PLINEGEN
 70
     0
  9
$PSLTSCALE
 70
     1
  9
$TREEDEPTH
 70
  3020
  9
$CMLSTYLE
  2
Standard
  9
$CMLJUST
 70
     0
  9
$CMLSCALE
 40
20.0
  9
$PROXYGRAPHICS
 70
     1
  9
$MEASUREMENT
 70
     1
  9
$CELWEIGHT
370
    -1
  9
$ENDCAPS
280
     0
  9
$JOINSTYLE
280
     0
  9
$LWDISPLAY
290
     0
  9
$INSUNITS
 70
     4
  9
$HYPERLINKBASE
  1

  9
$STYLESHEET
  1

  9
$XEDIT
290
     1
  9
$CEPSNTYPE
380
     0
  9
$PSTYLEMODE
290
     1
  9
$FINGERPRINTGUID
  2
{2BBA3450-679C-3348-AF27-7A127C7B85BF}
  9
$VERSIONGUID
  2
{EF8DAFEE-8637-0042-B7C2-73C6249CCC56}
  9
$EXTNAMES
290
     1
  9
$PSVPSCALE
 40
0.0
  9
$OLESTARTUP
290
     0
  9
$SORTENTS
280
   127
  9
$INDEXCTL
280
     0
  9
$HIDETEXT
280
     1
  9
$XCLIPFRAME
280
     2
  9
$HALOGAP
280
     0
  9
$OBSCOLOR
 70
   257
  9
$OBSLTYPE
280
     0
  9
$INTERSECTIONDISPLAY
280
     0
  9
$INTERSECTIONCOLOR
 70
   257
  9
$DIMASSOC
280
     2
  9
$PROJECTNAME
  1

  9
$CAMERADISPLAY
290
     0
  9
$LENSLENGTH
 40
50.0
  9
$CAMERAHEIGHT
 40
0.0
  9
$STEPSPERSEC
 40
2.0
  9
$STEPSIZE
 40
6.0
  9
$3DDWFPREC
 40
2.0
  9
$PSOLWIDTH
 40
5.0
  9
$PSOLHEIGHT
 40
80.0
  9
$LOFTANG1
 40
1.570796326794896
  9
$LOFTANG2
 40
1.570796326794896
  9
$LOFTMAG1
 40
0.0
  9
$LOFTMAG2
 40
0.0
  9
$LOFTPARAM
 70
     7
  9
$LOFTNORMALS
280
     1
  9
$LATITUDE
 40
37.795
  9
$LONGITUDE
 40
-122.394
  9
$NORTHDIRECTION
 40
0.0
  9
$TIMEZONE
 70
 -8000
  9
$LIGHTGLYPHDISPLAY
280
     1
  9
$TILEMODELIGHTSYNCH
280
     1
  9
$CMATERIAL
347
38
  9
$SOLIDHIST
280
     0
  9
$SHOWHIST
280
     1
  9
$DWFFRAME
280
     2
  9
$DGNFRAME
280
     0
  9
$REALWORLDSCALE
290
     1
  9
$INTERFERECOLOR
 62
     1
  9
$INTERFEREOBJVS
345
51
  9
$INTERFEREVPVS
346
52
  9
$CSHADOW
280
     0
  9
$SHADOWPLANELOCATION
 40
0.0
  0
ENDSEC
  0
SECTION
  2
CLASSES
  0
CLASS
  1
ACDBDICTIONARYWDFLT
  2
AcDbDictionaryWithDefault
  3
ObjectDBX Classes
 90
        0
 91
        1
280
     0
281
     0
  0
CLASS
  1
DICTIONARYVAR
  2
AcDbDictionaryVar
  3
ObjectDBX Classes
 90
        0
 91
       11
280
     0
281
     0
  0
CLASS
  1
TABLESTYLE
  2
AcDbTableStyle
  3
ObjectDBX Classes
 90
     4095
 91
        1
280
     0
281
     0
  0
CLASS
  1
MATERIAL
  2
AcDbMaterial
  3
ObjectDBX Classes
 90
     1153
 91
        3
280
     0
281
     0
  0
CLASS
  1
VISUALSTYLE
  2
AcDbVisualStyle
  3
ObjectDBX Classes
 90
     4095
 91
        3
280
     0
281
     0
  0
CLASS
  1
SCALE
  2
AcDbScale
  3
ObjectDBX Classes
 90
     1153
 91
       17
280
     0
281
     0
  0
CLASS
  1
MLEADERSTYLE
  2
AcDbMLeaderStyle
  3
ACDB_MLEADERSTYLE_CLASS
 90
     4095
 91
        0
280
     0
281
     0
  0
CLASS
  1
CELLSTYLEMAP
  2
AcDbCellStyleMap
  3
ObjectDBX Classes
 90
     1152
 91
        1
280
     0
281
     0
  0
CLASS
  1
EXACXREFPANELOBJECT
  2
ExAcXREFPanelObject
  3
EXAC_ESW
 90
     1025
 91
        0
280
     1
281
     0
  0
CLASS
  1
NPOCOLLECTION
  2
AcDbImpNonPersistentObjectsCollection
  3
ObjectDBX Classes
 90
     1153
 91
        0
280
     0
281
     0
  0
CLASS
  1
LAYER_INDEX
  2
AcDbLayerIndex
  3
ObjectDBX Classes
 90
        0
 91
        0
280
     0
281
     0
  0
CLASS
  1
SPATIAL_INDEX
  2
AcDbSpatialIndex
  3
ObjectDBX Classes
 90
        0
 91
        0
280
     0
281
     0
  0
CLASS
  1
IDBUFFER
  2
AcDbIdBuffer
  3
ObjectDBX Classes
 90
        0
 91
        0
280
     0
281
     0
  0
CLASS
  1
ACDBSECTIONVIEWSTYLE
  2
AcDbSectionViewStyle
  3
ObjectDBX Classes
 90
     1025
 91
        0
280
     0
281
     0
  0
CLASS
  1
ACDBDETAILVIEWSTYLE
  2
AcDbDetailViewStyle
  3
ObjectDBX Classes
 90
     1025
 91
        0
280
     0
281
     0
  0
ENDSEC
  0
SECTION
  2
TABLES
  0
TABLE
  2
VPORT
  5
28
330
0
100
AcDbSymbolTable
 70
     1
  0
VPORT
  5
29
330
28
100
AcDbSymbolTableRecord
100
AcDbViewportTableRecord
  2
*Active
 70
     0
 10
0.0
 20
0.0
 11
1.0
 21
1.0
 12
77.90117583493273
 22
37.72894166364722
 13
0.0
 23
0.0
 14
10.0
 24
10.0
 15
10.0
 25
10.0
 16
0.0
 26
0.0
 36
1.0
 17
0.0
 27
0.0
 37
0.0
 40
101.586198302607
 41
1.78062678062678
 42
50.0
 43
0.0
 44
0.0
 50
0.0
 51
0.0
 71
     0
 72
  1000
 73
     1
 74
     3
 75
     0
 76
     1
 77
     0
 78
     0
281
     0
 65
     1
110
0.0
120
0.0
130
0.0
111
1.0
121
0.0
131
0.0
112
0.0
122
1.0
132
0.0
 79
     0
146
0.0
348
2A
 60
     3
 61
     5
292
     1
282
     1
141
0.0
142
0.0
 63
   250
421
  3355443
1001
ACAD_NAV_VCDISPLAY
1070
     3
  0
ENDTAB
  0
TABLE
  2
LTYPE
  5
23
330
0
100
AcDbSymbolTable
 70
     1
  0
LTYPE
  5
24
330
23
100
AcDbSymbolTableRecord
100
AcDbLinetypeTableRecord
  2
ByBlock
 70
     0
  3

 72
    65
 73
     0
 40
0.0
  0
LTYPE
  5
25
330
23
100
AcDbSymbolTableRecord
100
AcDbLinetypeTableRecord
  2
ByLayer
 70
     0
  3

 72
    65
 73
     0
 40
0.0
  0
LTYPE
  5
13
330
23
100
AcDbSymbolTableRecord
100
AcDbLinetypeTableRecord
  2
Continuous
 70
     0
  3
Solid line
 72
    65
 73
     0
 40
0.0
  0
ENDTAB
  0
TABLE
  2
LAYER
  5
1D
102
{ACAD_XDICTIONARY
360
1E
102
}
330
0
100
AcDbSymbolTable
 70
     1
  0
LAYER
  5
5
102
{ACAD_XDICTIONARY
360
6
102
}
330
1D
100
AcDbSymbolTableRecord
100
AcDbLayerTableRecord
  2
0
 70
     0
 62
     7
  6
Continuous
370
    -3
390
7
347
A
348
0
  0
ENDTAB
  0
TABLE
  2
STYLE
  5
20
330
0
100
AcDbSymbolTable
 70
     1
  0
STYLE
  5
21
330
20
100
AcDbSymbolTableRecord
100
AcDbTextStyleTableRecord
  2
Standard
 70
     0
 40
0.0
 41
1.0
 50
0.0
 71
     0
 42
2.5
  3
arial.ttf
  4

1001
ACAD
1000
Arial
1071
       34
  0
ENDTAB
  0
TABLE
  2
VIEW
  5
26
330
0
100
AcDbSymbolTable
 70
     0
  0
ENDTAB
  0
TABLE
  2
UCS
  5
27
330
0
100
AcDbSymbolTable
 70
     0
  0
ENDTAB
  0
TABLE
  2
APPID
  5
2D
330
0
100
AcDbSymbolTable
 70
     6
  0
APPID
  5
12
330
2D
100
AcDbSymbolTableRecord
100
AcDbRegAppTableRecord
  2
ACAD
 70
     0
  0
APPID
  5
18
330
2D
100
AcDbSymbolTableRecord
100
AcDbRegAppTableRecord
  2
ACAD_PSEXT
 70
     0
  0
APPID
  5
31
330
2D
100
AcDbSymbolTableRecord
100
AcDbRegAppTableRecord
  2
AcadAnnotative
 70
     0
  0
APPID
  5
32
330
2D
100
AcDbSymbolTableRecord
100
AcDbRegAppTableRecord
  2
ACAD_DSTYLE_DIMJAG
 70
     0
  0
APPID
  5
33
330
2D
100
AcDbSymbolTableRecord
100
AcDbRegAppTableRecord
  2
ACAD_DSTYLE_DIMTALN
 70
     0
  0
APPID
  5
2C
330
2D
100
AcDbSymbolTableRecord
100
AcDbRegAppTableRecord
  2
ACAD_NAV_VCDISPLAY
 70
     0
  0
ENDTAB
  0
TABLE
  2
DIMSTYLE
  5
2E
330
0
100
AcDbSymbolTable
 70
     2
100
AcDbDimStyleTable
 71
     2
340
2F
340
30
  0
DIMSTYLE
105
30
330
2E
100
AcDbSymbolTableRecord
100
AcDbDimStyleTableRecord
  2
Annotative
 70
     0
 40
0.0
 41
2.5
 42
0.625
 43
3.75
 44
1.25
 73
     0
 74
     0
 77
     1
 78
     8
140
2.5
141
2.5
143
0.03937007874016
147
0.625
171
     3
172
     1
271
     2
272
     2
274
     3
278
    44
283
     0
284
     8
340
21
1001
AcadAnnotative
1000
AnnotativeData
1002
{
1070
     1
1070
     1
1002
}
1001
ACAD_DSTYLE_DIMJAG
1070
   388
1040
1.5
1001
ACAD_DSTYLE_DIMTALN
1070
   392
1070
     0
  0
DIMSTYLE
105
2F
330
2E
100
AcDbSymbolTableRecord
100
AcDbDimStyleTableRecord
  2
ISO-25
 70
     0
 41
2.5
 42
0.625
 43
3.75
 44
1.25
 73
     0
 74
     0
 77
     1
 78
     8
140
2.5
141
2.5
143
0.03937007874016
147
0.625
171
     3
172
     1
271
     2
272
     2
274
     3
278
    44
283
     0
284
     8
340
21
  0
ENDTAB
  0
TABLE
  2
BLOCK_RECORD
  5
1
330
0
100
AcDbSymbolTable
 70
     0
  0
BLOCK_RECORD
  5
2
102
{ACAD_XDICTIONARY
360
3
102
}
330
1
100
AcDbSymbolTableRecord
100
AcDbBlockTableRecord
  2
*Model_Space
340
15
 70
     0
280
     1
281
     0
  0
BLOCK_RECORD
  5
19
330
1
100
AcDbSymbolTableRecord
100
AcDbBlockTableRecord
  2
*Paper_Space
340
1C
 70
     0
280
     1
281
     0
  0
ENDTAB
  0
ENDSEC
  0
SECTION
  2
BLOCKS
  0
BLOCK
  5
4
330
2
100
AcDbEntity
  8
0
100
AcDbBlockBegin
  2
*Model_Space
 70
     0
 10
0.0
 20
0.0
 30
0.0
  3
*Model_Space
  1

  0
ENDBLK
  5
14
330
2
100
AcDbEntity
  8
0
100
AcDbBlockEnd
  0
BLOCK
  5
1A
330
19
100
AcDbEntity
 67
     1
  8
0
100
AcDbBlockBegin
  2
*Paper_Space
 70
     0
 10
0.0
 20
0.0
 30
0.0
  3
*Paper_Space
  1

  0
ENDBLK
  5
1B
330
19
100
AcDbEntity
 67
     1
  8
0
100
AcDbBlockEnd
  0
ENDSEC
  0
SECTION
  2
ENTITIES
  0
LINE
  5
64
330
2
100
AcDbEntity
  8
0
100
AcDbLine
 10
76.8849757430265
 20
59.25527729069876
 30
0.0
 11
65.7518734602333
 21
53.68872614926073
 31
0.0
  0
LINE
  5
65
330
2
100
AcDbEntity
  8
0
100
AcDbLine
 10
77.83326858084544
 20
62.28653180094108
 30
0.0
 11
66.9931424986902
 21
56.86646875994632
 31
0.0
  0
LINE
  5
66
330
2
100
AcDbEntity
  8
0
100
AcDbLine
 10
83.47553685282569
 20
59.55804487956027
 30
0.0
 11
78.01856268265968
 21
62.28653196468474
 31
0.0
  0
LINE
  5
67
330
2
100
AcDbEntity
  8
0
100
AcDbLine
 10
66.90289499372858
 20
56.65187690093296
 30
0.0
 11
66.90289499372858
 21
54.26423704316658
 31
0.0
  0
SPLINE
  5
68
330
2
100
AcDbEntity
  8
0
100
AcDbSpline
210
0.0
220
0.0
230
1.0
 70
     8
 71
     3
 72
    11
 73
     7
 74
     0
 42
0.000000001
 43
0.0000000001
 40
0.0
 40
0.0
 40
0.0
 40
0.0
 40
0.2499960248630003
 40
0.4999784453200756
 40
0.7499743476569524
 40
1.0
 40
1.0
 40
1.0
 40
1.0
 10
69.04636229760893
 20
51.36610260566675
 30
0.0
 10
69.01236725266598
 20
51.37960517192181
 30
0.0
 10
68.94437901273905
 20
51.40660956964274
 30
0.0
 10
68.81363090582472
 20
51.41819293708414
 30
0.0
 10
68.68285335231735
 20
51.40665257971813
 30
0.0
 10
68.61484828853287
 20
51.37965065006193
 30
0.0
 10
68.58084373357676
 20
51.36614888196096
 30
0.0
  0
LINE
  5
69
330
2
100
AcDbEntity
  8
0
100
AcDbLine
 10
68.58220408201228
 20
51.36688228228212
 30
0.0
 11
55.09802190433451
 21
44.6247911935261
 31
0.0
  0
LINE
  5
6A
330
2
100
AcDbEntity
  8
0
100
AcDbLine
 10
55.36972487074535
 20
43.44383534664991
 30
0.0
 11
57.17052407457134
 21
41.51081161256041
 31
0.0
  0
SPLINE
  5
6B
330
2
100
AcDbEntity
  8
0
100
AcDbSpline
210
0.0
220
0.0
230
1.0
 70
     8
 71
     3
 72
    10
 73
     6
 74
     0
 42
0.000000001
 43
0.0000000001
 40
0.0
 40
0.0
 40
0.0
 40
0.0
 40
0.0525962111247355
 40
0.3597103904859574
 40
1.0
 40
1.0
 40
1.0
 40
1.0
 10
54.96838803418116
 20
43.9523085803857
 30
0.0
 10
54.96971569501901
 20
43.94871781441582
 30
0.0
 10
54.97879569124314
 20
43.92416023124525
 30
0.0
 10
55.01429157110268
 20
43.85784308535858
 30
0.0
 10
55.05497142644975
 20
43.80305907159038
 30
0.0
 10
55.08246433813229
 20
43.76603406156283
 30
0.0
  0
LINE
  5
6C
330
2
100
AcDbEntity
  8
0
100
AcDbLine
 10
54.97837934801989
 20
44.48018209880229
 30
0.0
 11
54.96019800329008
 21
44.05805889071388
 31
0.0
  0
SPLINE
  5
6D
330
2
100
AcDbEntity
  8
0
100
AcDbSpline
210
0.0
220
0.0
230
1.0
 70
     8
 71
     3
 72
     9
 73
     5
 74
     0
 42
0.000000001
 43
0.0000000001
 40
0.0
 40
0.0
 40
0.0
 40
0.0
 40
0.3830382685699315
 40
1.0
 40
1.0
 40
1.0
 40
1.0
 10
57.19792269670548
 20
41.48860616161488
 30
0.0
 10
57.21833535487668
 20
41.46842972378181
 30
0.0
 10
57.27162678773382
 20
41.41575499259039
 30
0.0
 10
57.3480797534743
 20
41.37412762646659
 30
0.0
 10
57.39524830759052
 20
41.34844513458796
 30
0.0
  0
SPLINE
  5
6E
330
2
100
AcDbEntity
  8
0
100
AcDbSpline
210
0.0
220
0.0
230
1.0
 70
     8
 71
     3
 72
     9
 73
     5
 74
     0
 42
0.000000001
 43
0.0000000001
 40
0.0
 40
0.0
 40
0.0
 40
0.0
 40
0.5219317835433275
 40
1.0
 40
1.0
 40
1.0
 40
1.0
 10
55.08404908292316
 20
43.76293847738816
 30
0.0
 10
55.13610720132459
 20
43.7051061562388
 30
0.0
 10
55.23584843196594
 20
43.59430178874709
 30
0.0
 10
55.31992687286181
 20
43.50009982936922
 30
0.0
 10
55.36012210314336
 20
43.45506486666255
 30
0.0
  0
SPLINE
  5
6F
330
2
100
AcDbEntity
  8
0
100
AcDbSpline
210
0.0
220
0.0
230
1.0
 70
     8
 71
     3
 72
    11
 73
     7
 74
     0
 42
0.000000001
 43
0.0000000001
 40
0.0
 40
0.0
 40
0.0
 40
0.0
 40
0.2435749588546342
 40
0.4929897295083899
 40
0.7457932607469199
 40
1.0
 40
1.0
 40
1.0
 40
1.0
 10
55.09665980965288
 20
44.62405652753256
 30
0.0
 10
55.07958018453429
 20
44.6140703804175
 30
0.0
 10
55.0450114431213
 20
44.59385866412191
 30
0.0
 10
55.00779963602195
 20
44.5546596608811
 30
0.0
 10
54.98284072370627
 20
44.51132395884491
 30
0.0
 10
54.97951446588755
 20
44.4812067102386
 30
0.0
 10
54.97784673408167
 20
44.46610640949706
 30
0.0
  0
LINE
  5
70
330
2
100
AcDbEntity
  8
0
100
AcDbLine
 10
57.38818200478177
 20
41.35204991341299
 30
0.0
 11
69.76323841166198
 21
35.1645217100143
 31
0.0
  0
LINE
  5
71
330
2
100
AcDbEntity
  8
0
100
AcDbLine
 10
85.79531694666853
 20
42.11508255214755
 30
0.0
 11
85.85929959875043
 21
42.21769973340798
 31
0.0
  0
SPLINE
  5
72
330
2
100
AcDbEntity
  8
0
100
AcDbSpline
210
0.0
220
0.0
230
1.0
 70
     8
 71
     3
 72
    11
 73
     7
 74
     0
 42
0.000000001
 43
0.0000000001
 40
0.0
 40
0.0
 40
0.0
 40
0.0
 40
0.2982066864913728
 40
0.5637536989588245
 40
0.7977445065286775
 40
1.0
 40
1.0
 40
1.0
 40
1.0
 10
85.17056078127694
 20
41.61869217927716
 30
0.0
 10
85.23774387465621
 20
41.65546012272551
 30
0.0
 10
85.36475215151842
 20
41.72496917487314
 30
0.0
 10
85.54089804250281
 20
41.85720968570314
 30
0.0
 10
85.69136684036552
 20
41.99097374063387
 30
0.0
 10
85.77638972322077
 20
42.08917739946798
 30
0.0
 10
85.815808613621
 20
42.13470725136756
 30
0.0
  0
LINE
  5
73
330
2
100
AcDbEntity
  8
0
100
AcDbLine
 10
72.76325154362741
 20
35.41475216548469
 30
0.0
 11
85.16182329304426
 21
41.61403804019307
 31
0.0
  0
LINE
  5
74
330
2
100
AcDbEntity
  8
0
100
AcDbLine
 10
70.87057206745289
 20
35.03854237563303
 30
0.0
 11
72.34222632677853
 21
35.27309494972218
 31
0.0
  0
LINE
  5
75
330
2
100
AcDbEntity
  8
0
100
AcDbLine
 10
72.33967589178388
 20
35.27268228152446
 30
0.0
 11
72.48748324845667
 21
35.31030498139364
 31
0.0
  0
SPLINE
  5
76
330
2
100
AcDbEntity
  8
0
100
AcDbSpline
210
0.0
220
0.0
230
1.0
 70
     8
 71
     3
 72
     9
 73
     5
 74
     0
 42
0.000000001
 43
0.0000000001
 40
0.0
 40
0.0
 40
0.0
 40
0.0
 40
0.2502015684845051
 40
1.0
 40
1.0
 40
1.0
 40
1.0
 10
72.48748324845667
 20
35.31030498139364
 30
0.0
 10
72.51138895741386
 20
35.31587864088476
 30
0.0
 10
72.60693475715445
 20
35.33815531774536
 30
0.0
 10
72.70138909469
 20
35.38466202590985
 30
0.0
 10
72.77221080882402
 20
35.41953268274648
 30
0.0
  0
LINE
  5
77
330
2
100
AcDbEntity
  8
0
100
AcDbLine
 10
85.62454432416382
 20
55.81860997917431
 30
0.0
 11
85.65449207156957
 21
55.5225397672491
 31
0.0
  0
LINE
  5
78
330
2
100
AcDbEntity
  8
0
100
AcDbLine
 10
85.52383270128364
 20
55.93118845989955
 30
0.0
 11
85.52791898530971
 21
55.86369130476612
 31
0.0
  0
LINE
  5
79
330
2
100
AcDbEntity
  8
0
100
AcDbLine
 10
102.1317629632321
 20
50.77632254430932
 30
0.0
 11
102.1617107107207
 21
51.07239275623448
 31
0.0
  0
SPLINE
  5
7A
330
2
100
AcDbEntity
  8
0
100
AcDbSpline
210
0.0
220
0.0
230
1.0
 70
     8
 71
     3
 72
    13
 73
     9
 74
     0
 42
0.000000001
 43
0.0000000001
 40
0.0
 40
0.0
 40
0.0
 40
0.0
 40
0.1007554823643458
 40
0.2899497251541839
 40
0.4770710391261681
 40
0.6634831201388521
 40
0.8512538884610524
 40
1.0
 40
1.0
 40
1.0
 40
1.0
 10
87.79785809150087
 20
60.74087886868785
 30
0.0
 10
87.78450220625435
 20
60.74707293308506
 30
0.0
 10
87.7460672232088
 20
60.76489794098961
 30
0.0
 10
87.67146924724372
 20
60.7840325490414
 30
0.0
 10
87.57613057411086
 20
60.79324755023998
 30
0.0
 10
87.48015468570221
 20
60.78761296277088
 30
0.0
 10
87.39576515296169
 20
60.76999759176255
 30
0.0
 10
87.35039822504957
 20
60.74985136012259
 30
0.0
 10
87.33034528113131
 20
60.74094638745129
 30
0.0
  0
LINE
  5
7B
330
2
100
AcDbEntity
  8
0
100
AcDbLine
 10
88.83993911650913
 20
60.21985561543681
 30
0.0
 11
87.7952971788105
 21
60.74217658428614
 31
0.0
  0
LINE
  5
7C
330
2
100
AcDbEntity
  8
0
100
AcDbLine
 10
87.33288436532415
 20
60.74222242397945
 30
0.0
 11
69.16068569948913
 21
51.65612309106194
 31
0.0
  0
SPLINE
  5
7D
330
2
100
AcDbEntity
  8
0
100
AcDbSpline
210
0.0
220
0.0
230
1.0
 70
     8
 71
     3
 72
     9
 73
     5
 74
     0
 42
0.000000001
 43
0.0000000001
 40
0.0
 40
0.0
 40
0.0
 40
0.0
 40
0.498338253440014
 40
1.0
 40
1.0
 40
1.0
 40
1.0
 10
89.15750317168997
 20
60.18386683355692
 30
0.0
 10
89.12486557108184
 20
60.17338459354738
 30
0.0
 10
89.02402143549535
 20
60.14628599754752
 30
0.0
 10
88.9023601955078
 20
60.1947783044585
 30
0.0
 10
88.84132740536697
 20
60.21910503983821
 30
0.0
  0
LINE
  5
7E
330
2
100
AcDbEntity
  8
0
100
AcDbLine
 10
89.83418486014716
 20
60.44669946246983
 30
0.0
 11
89.15614765401858
 21
60.18334033154104
 31
0.0
  0
SPLINE
  5
7F
330
2
100
AcDbEntity
  8
0
100
AcDbSpline
210
0.0
220
0.0
230
1.0
 70
     8
 71
     3
 72
    11
 73
     7
 74
     0
 42
0.000000001
 43
0.0000000001
 40
0.0
 40
0.0
 40
0.0
 40
0.0
 40
0.1816767318070924
 40
0.5198778435687498
 40
0.8531122958331311
 40
1.0
 40
1.0
 40
1.0
 40
1.0
 10
90.14200647418503
 20
60.43765806625572
 30
0.0
 10
90.12249033816543
 20
60.44431641667228
 30
0.0
 10
90.06664385409589
 20
60.46336964832147
 30
0.0
 10
89.97571844748357
 20
60.47518808151881
 30
0.0
 10
89.89174132628043
 20
60.46681898863017
 30
0.0
 10
89.84638842330715
 20
60.4509114949891
 30
0.0
 10
89.8325132381989
 20
60.44604478515561
 30
0.0
  0
LINE
  5
80
330
2
100
AcDbEntity
  8
0
100
AcDbLine
 10
94.07621312679394
 20
58.97069226776665
 30
0.0
 11
90.14011438491715
 21
60.43836663874976
 31
0.0
  0
SPLINE
  5
81
330
2
100
AcDbEntity
  8
0
100
AcDbSpline
210
0.0
220
0.0
230
1.0
 70
     8
 71
     3
 72
    15
 73
    11
 74
     0
 42
0.000000001
 43
0.0000000001
 40
0.0
 40
0.0
 40
0.0
 40
0.0
 40
0.1654106439619155
 40
0.3097217184753598
 40
0.4324939888807225
 40
0.533413274395311
 40
0.6186128079431371
 40
0.72281925915844
 40
0.8501743845583259
 40
1.0
 40
1.0
 40
1.0
 40
1.0
 10
94.27136549809048
 20
57.96354811782856
 30
0.0
 10
94.23611214218903
 20
57.99005247554993
 30
0.0
 10
94.17010230321917
 20
58.03968032913849
 30
0.0
 10
94.09348946754334
 20
58.14993854885631
 30
0.0
 10
94.04602547233837
 20
58.25295087320307
 30
0.0
 10
94.02171672432306
 20
58.34127946604036
 30
0.0
 10
94.01216083049197
 20
58.42072570748553
 30
0.0
 10
94.01645682344719
 20
58.49475155775826
 30
0.0
 10
94.03800726997451
 20
58.56452316582466
 30
0.0
 10
94.06924510947527
 20
58.58914858192838
 30
0.0
 10
94.07849136113425
 20
58.59269022510182
 30
0.0
  0
LINE
  5
82
330
2
100
AcDbEntity
  8
0
100
AcDbLine
 10
94.1437933241667
 20
58.43371688775381
 30
0.0
 11
94.0765324768424
 21
58.40368810529458
 31
0.0
  0
LINE
  5
83
330
2
100
AcDbEntity
  8
0
100
AcDbLine
 10
94.21657130980142
 20
58.93631959999964
 30
0.0
 11
94.07901000488365
 21
58.96947932490519
 31
0.0
  0
SPLINE
  5
84
330
2
100
AcDbEntity
  8
0
100
AcDbSpline
210
0.0
220
0.0
230
1.0
 70
     8
 71
     3
 72
    11
 73
     7
 74
     0
 42
0.000000001
 43
0.0000000001
 40
0.0
 40
0.0
 40
0.0
 40
0.0
 40
0.2564646687508337
 40
0.5125056310543338
 40
0.7623307907721088
 40
1.0
 40
1.0
 40
1.0
 40
1.0
 10
94.26319183849079
 20
58.60430772009085
 30
0.0
 10
94.26836652738925
 20
58.60764586719614
 30
0.0
 10
94.27870735605905
 20
58.61431664643851
 30
0.0
 10
94.2904149183561
 20
58.62893153544177
 30
0.0
 10
94.29862753902463
 20
58.6454697908992
 30
0.0
 10
94.3004851105322
 20
58.65716868060798
 30
0.0
 10
94.30139073648282
 20
58.66287226621437
 30
0.0
  0
LINE
  5
85
330
2
100
AcDbEntity
  8
0
100
AcDbLine
 10
94.30120061072509
 20
58.6610046469512
 30
0.0
 11
94.32013198078172
 21
58.77761816979386
 31
0.0
  0
SPLINE
  5
86
330
2
100
AcDbEntity
  8
0
100
AcDbSpline
210
0.0
220
0.0
230
1.0
 70
     8
 71
     3
 72
    15
 73
    11
 74
     0
 42
0.000000001
 43
0.0000000001
 40
0.0
 40
0.0
 40
0.0
 40
0.0
 40
0.1300418854433567
 40
0.2586453387541471
 40
0.3811701132484656
 40
0.4942542687321956
 40
0.6079714346516134
 40
0.7325590918639531
 40
0.8647919307395362
 40
1.0
 40
1.0
 40
1.0
 40
1.0
 10
94.31980280788293
 20
58.77600918635039
 30
0.0
 10
94.32077119022411
 20
58.78390582623302
 30
0.0
 10
94.32269724334021
 20
58.79961175890605
 30
0.0
 10
94.3180224830748
 20
58.82682145961132
 30
0.0
 10
94.30874696184311
 20
58.85309837541877
 30
0.0
 10
94.29564792877197
 20
58.8772219243188
 30
0.0
 10
94.27927618534566
 20
58.89901548140461
 30
0.0
 10
94.25954917524787
 20
58.91769813855853
 30
0.0
 10
94.23714896717134
 20
58.93184720289861
 30
0.0
 10
94.22238570380267
 20
58.93490819025442
 30
0.0
 10
94.21492195283812
 20
58.93645571038996
 30
0.0
  0
LINE
  5
87
330
2
100
AcDbEntity
  8
0
100
AcDbLine
 10
94.91890182413218
 20
59.50203716470622
 30
0.0
 11
94.89175040914199
 21
59.48300571859346
 31
0.0
  0
LINE
  5
88
330
2
100
AcDbEntity
  8
0
100
AcDbLine
 10
98.09818495402424
 20
56.21011601627606
 30
0.0
 11
98.16313809861624
 21
56.24619422977485
 31
0.0
  0
LINE
  5
89
330
2
100
AcDbEntity
  8
0
100
AcDbLine
 10
102.191724816576
 20
54.41264183929451
 30
0.0
 11
98.24115774777931
 21
56.88829923320162
 31
0.0
  0
LINE
  5
8A
330
2
100
AcDbEntity
  8
0
100
AcDbLine
 10
98.24161963752407
 20
56.88800095379844
 30
0.0
 11
98.19988038477488
 21
56.91941715032328
 31
0.0
  0
LINE
  5
8B
330
2
100
AcDbEntity
  8
0
100
AcDbLine
 10
103.167729842078
 20
53.19365745147752
 30
0.0
 11
102.9548536500781
 21
53.48448126299195
 31
0.0
  0
LINE
  5
8C
330
2
100
AcDbEntity
  8
0
100
AcDbLine
 10
102.8783309953792
 20
53.58902298214861
 30
0.0
 11
102.4722731036878
 21
54.14376368841181
 31
0.0
  0
SPLINE
  5
8D
330
2
100
AcDbEntity
  8
0
100
AcDbSpline
210
0.0
220
0.0
230
1.0
 70
     8
 71
     3
 72
    11
 73
     7
 74
     0
 42
0.000000001
 43
0.0000000001
 40
0.0
 40
0.0
 40
0.0
 40
0.0
 40
0.1826239371670388
 40
0.5284045256323542
 40
0.8756809027249101
 40
1.0
 40
1.0
 40
1.0
 40
1.0
 10
102.4737364823567
 20
54.14175999409116
 30
0.0
 10
102.4583671559917
 20
54.16205350768189
 30
0.0
 10
102.4138975112498
 20
54.22077080722477
 30
0.0
 10
102.3322699202283
 20
54.30690802844878
 30
0.0
 10
102.250989879118
 20
54.37424137604239
 30
0.0
 10
102.2026303113253
 20
54.40554097750009
 30
0.0
 10
102.1898820596152
 20
54.41379198585321
 30
0.0
  0
SPLINE
  5
8E
330
2
100
AcDbEntity
  8
0
100
AcDbSpline
210
0.0
220
0.0
230
1.0
 70
     8
 71
     3
 72
     9
 73
     5
 74
     0
 42
0.000000001
 43
0.0000000001
 40
0.0
 40
0.0
 40
0.0
 40
0.0
 40
0.1868966127643368
 40
1.0
 40
1.0
 40
1.0
 40
1.0
 10
103.3778726767383
 20
52.97787212444911
 30
0.0
 10
103.3636131232046
 20
52.9872207893448
 30
0.0
 10
103.2873166439756
 20
53.03724130473813
 30
0.0
 10
103.2211232248249
 20
53.12376284141032
 30
0.0
 10
103.1673011315008
 20
53.19411379594737
 30
0.0
  0
LINE
  5
8F
330
2
100
AcDbEntity
  8
0
100
AcDbLine
 10
69.43418296376887
 20
50.47361665333466
 30
0.0
 11
71.23323152663985
 21
48.54246976696225
 31
0.0
  0
SPLINE
  5
90
330
2
100
AcDbEntity
  8
0
100
AcDbSpline
210
0.0
220
0.0
230
1.0
 70
     8
 71
     3
 72
    11
 73
     7
 74
     0
 42
0.000000001
 43
0.0000000001
 40
0.0
 40
0.0
 40
0.0
 40
0.0
 40
0.5627163932030942
 40
0.8078528078527781
 40
0.9115402803529606
 40
1.0
 40
1.0
 40
1.0
 40
1.0
 10
104.5472536750736
 20
51.48673669465541
 30
0.0
 10
104.5847978110947
 20
51.53827172128353
 30
0.0
 10
104.6386973172571
 20
51.61225697649769
 30
0.0
 10
104.6807702393193
 20
51.70730538036304
 30
0.0
 10
104.6945169372316
 20
51.75361614717769
 30
0.0
 10
104.6981162998223
 20
51.7715752512276
 30
0.0
 10
104.699773355552
 20
51.77984316964796
 30
0.0
  0
SPLINE
  5
91
330
2
100
AcDbEntity
  8
0
100
AcDbSpline
210
0.0
220
0.0
230
1.0
 70
     8
 71
     3
 72
    11
 73
     7
 74
     0
 42
0.000000001
 43
0.0000000001
 40
0.0
 40
0.0
 40
0.0
 40
0.0
 40
0.2982213656935384
 40
0.5637726745775811
 40
0.7977586617396659
 40
1.0
 40
1.0
 40
1.0
 40
1.0
 10
103.9206359802517
 20
50.99370332828653
 30
0.0
 10
103.9878739796759
 20
51.0304914465629
 30
0.0
 10
104.1149840768364
 20
51.10003755632994
 30
0.0
 10
104.2912508195022
 20
51.23234366914619
 30
0.0
 10
104.4418047768324
 20
51.36616677798315
 30
0.0
 10
104.5268597276528
 20
51.46440307732115
 30
0.0
 10
104.5662924410046
 20
51.50994685572749
 30
0.0
  0
LINE
  5
92
330
2
100
AcDbEntity
  8
0
100
AcDbLine
 10
104.7003915369904
 20
51.7843365579609
 30
0.0
 11
104.6821438337282
 21
52.21408082469304
 31
0.0
  0
SPLINE
  5
93
330
2
100
AcDbEntity
  8
0
100
AcDbSpline
210
0.0
220
0.0
230
1.0
 70
     8
 71
     3
 72
     9
 73
     5
 74
     0
 42
0.000000001
 43
0.0000000001
 40
0.0
 40
0.0
 40
0.0
 40
0.0
 40
0.2675317311925255
 40
1.0
 40
1.0
 40
1.0
 40
1.0
 10
104.6825952482041
 20
52.20344974525676
 30
0.0
 10
104.6814003787027
 20
52.2076949382593
 30
0.0
 10
104.6831351048532
 20
52.21925498168395
 30
0.0
 10
104.6777750767842
 20
52.2300198883861
 30
0.0
 10
104.6738490263037
 20
52.23790484096202
 30
0.0
  0
LINE
  5
94
330
2
100
AcDbEntity
  8
0
100
AcDbLine
 10
86.82611703361487
 20
42.44618491047839
 30
0.0
 11
103.9123114861338
 21
50.98928213669643
 31
0.0
  0
SPLINE
  5
95
330
2
100
AcDbEntity
  8
0
100
AcDbSpline
210
0.0
220
0.0
230
1.0
 70
     8
 71
     3
 72
    10
 73
     6
 74
     0
 42
0.000000001
 43
0.0000000001
 40
0.0
 40
0.0
 40
0.0
 40
0.0
 40
0.2466692146607465
 40
0.4952103866061539
 40
1.0
 40
1.0
 40
1.0
 40
1.0
 10
69.02565845822548
 20
51.05233650880615
 30
0.0
 10
69.02972435771089
 20
51.02954221890525
 30
0.0
 10
69.03788701253929
 20
50.9837806546592
 30
0.0
 10
69.07119107042226
 20
50.89028267068414
 30
0.0
 10
69.11711846832298
 20
50.83228261207501
 30
0.0
 10
69.14789336015228
 20
50.79341810828481
 30
0.0
  0
LINE
  5
96
330
2
100
AcDbEntity
  8
0
100
AcDbLine
 10
69.04124833057043
 20
51.51168314985056
 30
0.0
 11
69.02316303086891
 21
51.0917888346479
 31
0.0
  0
SPLINE
  5
97
330
2
100
AcDbEntity
  8
0
100
AcDbSpline
210
0.0
220
0.0
230
1.0
 70
     8
 71
     3
 72
     9
 73
     5
 74
     0
 42
0.000000001
 43
0.0000000001
 40
0.0
 40
0.0
 40
0.0
 40
0.0
 40
0.481891644688468
 40
1.0
 40
1.0
 40
1.0
 40
1.0
 10
69.14600214405474
 20
50.79534052418472
 30
0.0
 10
69.19611005762821
 20
50.73964334642926
 30
0.0
 10
69.30009176000004
 20
50.624063052873
 30
0.0
 10
69.38887567413758
 20
50.52439229763615
 30
0.0
 10
69.43487536186949
 20
50.47275204656774
 30
0.0
  0
SPLINE
  5
98
330
2
100
AcDbEntity
  8
0
100
AcDbSpline
210
0.0
220
0.0
230
1.0
 70
     8
 71
     3
 72
    11
 73
     7
 74
     0
 42
0.000000001
 43
0.0000000001
 40
0.0
 40
0.0
 40
0.0
 40
0.0
 40
0.195298620013558
 40
0.5277766357089197
 40
0.8263318950582958
 40
1.0
 40
1.0
 40
1.0
 40
1.0
 10
69.1632387539261
 20
51.65739384331692
 30
0.0
 10
69.15042221339454
 20
51.65050154034265
 30
0.0
 10
69.11578668630944
 20
51.63187572273165
 30
0.0
 10
69.07430899916978
 20
51.59339170991547
 30
0.0
 10
69.0450912305777
 20
51.5462992505818
 30
0.0
 10
69.04409904597374
 20
51.51483180813778
 30
0.0
 10
69.04373415335523
 20
51.50325912556872
 30
0.0
  0
LINE
  5
99
330
2
100
AcDbEntity
  8
0
100
AcDbLine
 10
84.93111326505426
 20
42.06976563479367
 30
0.0
 11
86.40294389810989
 21
42.30434635199521
 31
0.0
  0
LINE
  5
9A
330
2
100
AcDbEntity
  8
0
100
AcDbLine
 10
86.39158350450125
 20
42.30240424629221
 30
0.0
 11
86.40861580012876
 21
42.30662145432342
 31
0.0
  0
SPLINE
  5
9B
330
2
100
AcDbEntity
  8
0
100
AcDbSpline
210
0.0
220
0.0
230
1.0
 70
     8
 71
     3
 72
     9
 73
     5
 74
     0
 42
0.000000001
 43
0.0000000001
 40
0.0
 40
0.0
 40
0.0
 40
0.0
 40
0.2461586986640602
 40
1.0
 40
1.0
 40
1.0
 40
1.0
 10
86.54464103774728
 20
42.34029926450682
 30
0.0
 10
86.56858871206296
 20
42.34571087009709
 30
0.0
 10
86.66587422114986
 20
42.36769508442591
 30
0.0
 10
86.76211586852677
 20
42.41504124653363
 30
0.0
 10
86.83466679722807
 20
42.45073273899021
 30
0.0
  0
LINE
  5
9C
330
2
100
AcDbEntity
  8
0
100
AcDbLine
 10
104.6731592475415
 20
52.2375599368703
 30
0.0
 11
104.7067095608544
 21
52.25433509352678
 31
0.0
  0
LINE
  5
9D
330
2
100
AcDbEntity
  8
0
100
AcDbLine
 10
87.67927552429696
 20
61.65991420067007
 30
0.0
 11
76.88309587773559
 21
56.26182437738936
 31
0.0
  0
LINE
  5
9E
330
2
100
AcDbEntity
  8
0
100
AcDbLine
 10
76.88309587773559
 20
56.26182437738936
 30
0.0
 11
54.95381449405516
 21
45.29718368554916
 31
0.0
  0
LINE
  5
9F
330
2
100
AcDbEntity
  8
0
100
AcDbLine
 10
89.76598233397877
 20
60.42020861680374
 30
0.0
 11
89.81983309701169
 21
60.44713399832017
 31
0.0
  0
SPLINE
  5
A0
330
2
100
AcDbEntity
  8
0
100
AcDbSpline
210
0.0
220
0.0
230
1.0
 70
     8
 71
     3
 72
    13
 73
     9
 74
     0
 42
0.000000001
 43
0.0000000001
 40
0.0
 40
0.0
 40
0.0
 40
0.0
 40
0.0734645218368531
 40
0.2808511363988533
 40
0.4888937409675859
 40
0.7031875590964894
 40
0.924471204396262
 40
1.0
 40
1.0
 40
1.0
 40
1.0
 10
97.84194962070033
 20
57.43277531922888
 30
0.0
 10
97.85158389884692
 20
57.43706430650684
 30
0.0
 10
97.88841525496543
 20
57.45346088707254
 30
0.0
 10
97.93889716822084
 20
57.50559811996538
 30
0.0
 10
97.98971106870176
 20
57.58439969599464
 30
0.0
 10
98.02204870874064
 20
57.68080748712145
 30
0.0
 10
98.03353309076236
 20
57.76571758600687
 30
0.0
 10
98.0336093534175
 20
57.81768903854072
 30
0.0
 10
98.0336287597014
 20
57.83091402737113
 30
0.0
  0
LINE
  5
A1
330
2
100
AcDbEntity
  8
0
100
AcDbLine
 10
97.36516187858391
 20
57.19072867381015
 30
0.0
 11
97.83392414891899
 21
57.42510980893621
 31
0.0
  0
SPLINE
  5
A2
330
2
100
AcDbEntity
  8
0
100
AcDbSpline
210
0.0
220
0.0
230
1.0
 70
     8
 71
     3
 72
    19
 73
    15
 74
     0
 42
0.000000001
 43
0.0000000001
 40
0.0
 40
0.0
 40
0.0
 40
0.0
 40
0.0479936024700522
 40
0.1375527413973126
 40
0.2269547140386377
 40
0.3162426832019171
 40
0.4055967473200803
 40
0.4951977028029475
 40
0.585270907459911
 40
0.676000492511172
 40
0.7672372125673644
 40
0.8576352688157077
 40
0.9451724556840211
 40
1.0
 40
1.0
 40
1.0
 40
1.0
 10
98.03371640089061
 20
57.81969178342944
 30
0.0
 10
98.03314405041184
 20
57.84114167012041
 30
0.0
 10
98.03150365724825
 20
57.90261842046101
 30
0.0
 10
98.01363908563132
 20
58.00861659562293
 30
0.0
 10
97.97507199631656
 20
58.13427687577268
 30
0.0
 10
97.91943629104295
 20
58.25605985489636
 30
0.0
 10
97.84917583211308
 20
58.36928947317608
 30
0.0
 10
97.76662764692087
 20
58.46977975171762
 30
0.0
 10
97.674437723457
 20
58.55368179592364
 30
0.0
 10
97.57541644697223
 20
58.61734280656202
 30
0.0
 10
97.47262919358959
 20
58.65766865336235
 30
0.0
 10
97.37103915723601
 20
58.67028729639827
 30
0.0
 10
97.2845867222481
 20
58.66004517439961
 30
0.0
 10
97.2392851149083
 20
58.63515139624741
 30
0.0
 10
97.22183854746603
 20
58.62556429757848
 30
0.0
  0
LINE
  5
A3
330
2
100
AcDbEntity
  8
0
100
AcDbLine
 10
97.22986401920159
 20
58.63323007516601
 30
0.0
 11
96.76110174894938
 21
58.39884894003995
 31
0.0
  0
LINE
  5
A4
330
2
100
AcDbEntity
  8
0
100
AcDbLine
 10
97.10558788527208
 20
56.88954424057124
 30
0.0
 11
97.22277779794332
 21
56.94813919694837
 31
0.0
  0
LINE
  5
A5
330
2
100
AcDbEntity
  8
0
100
AcDbLine
 10
96.76110174894938
 20
58.39884894003995
 30
0.0
 11
96.55386455253921
 21
58.28596561599443
 31
0.0
  0
LINE
  5
A6
330
2
100
AcDbEntity
  8
0
100
AcDbLine
 10
97.15051294437637
 20
57.09266893250532
 30
0.0
 11
97.36516187858391
 21
57.19072867381015
 31
0.0
  0
LINE
  5
A7
330
2
100
AcDbEntity
  8
0
100
AcDbLine
 10
96.48159969897227
 20
58.43049535163425
 30
0.0
 11
96.36440978621818
 21
58.37190039525722
 31
0.0
  0
LINE
  5
A8
330
2
100
AcDbEntity
  8
0
100
AcDbLine
 10
97.30989906096278
 20
55.6019908326125
 30
0.0
 11
97.66147141862663
 21
55.77777701136153
 31
0.0
  0
LINE
  5
A9
330
2
100
AcDbEntity
  8
0
100
AcDbLine
 10
97.35996160731819
 20
68.76502826719155
 30
0.0
 11
94.43019785444977
 21
70.22991014362577
 31
0.0
  0
LINE
  5
AA
330
2
100
AcDbEntity
  8
0
100
AcDbLine
 10
78.41248319737315
 20
58.52387535444137
 30
0.0
 11
78.41248319737315
 21
58.89586562172514
 31
0.0
  0
ARC
  5
AB
330
2
100
AcDbEntity
  8
0
100
AcDbCircle
 10
77.08347295480874
 20
56.37265412474022
 30
0.0
 40
0.2416401491760582
100
AcDbArc
 50
181.3809760527991
 51
209.0258190322991
  0
ARC
  5
AC
330
2
100
AcDbEntity
  8
0
100
AcDbCircle
 10
77.02190253085183
 20
56.34052963051084
 30
0.0
 40
0.1214411285075472
100
AcDbArc
 50
181.4140250609991
 51
210.4934431700004
  0
ARC
  5
AD
330
2
100
AcDbEntity
  8
0
100
AcDbCircle
 10
65.95020417635464
 20
50.80607977520537
 30
0.0
 40
0.2414731433117884
100
AcDbArc
 50
181.3764230073993
 51
208.8367165182998
  0
LINE
  5
AE
330
2
100
AcDbEntity
  8
0
100
AcDbLine
 10
65.70880070801166
 20
53.59908592185252
 30
0.0
 11
65.70880070801166
 21
50.80027939646976
 31
0.0
  0
LINE
  5
AF
330
2
100
AcDbEntity
  8
0
100
AcDbLine
 10
76.84190299080487
 20
59.16563706320761
 30
0.0
 11
76.84190299080487
 21
56.36683053790784
 31
0.0
  0
LINE
  5
B0
330
2
100
AcDbEntity
  8
0
100
AcDbLine
 10
76.90049838372122
 20
59.13633936674949
 30
0.0
 11
76.90049838372122
 21
56.33753284136668
 31
0.0
  0
LWPOLYLINE
  5
B1
330
2
100
AcDbEntity
  8
0
100
AcDbPolyline
 90
        9
 70
   128
 43
0.0
 10
76.95909377663759
 20
59.25056994954224
 10
76.93623066791079
 20
59.25924359652015
 10
76.91424680876389
 20
59.26206820645711
 10
76.89398565015039
 20
59.25893484464831
 10
76.87622690397599
 20
59.24996481449511
 10
76.86165336387367
 20
59.23550165130166
 10
76.85082383794372
 20
59.21610219890675
 10
76.84415481269403
 20
59.19251209271596
 10
76.84190299080487
 20
59.16563706320761
  0
ARC
  5
B2
330
2
100
AcDbEntity
  8
0
100
AcDbCircle
 10
65.80048716552588
 20
53.61019843397406
 30
0.0
 40
0.0923574275218686
100
AcDbArc
 50
121.7601711319999
 51
186.9106125696006
  0
LWPOLYLINE
  5
B3
330
2
100
AcDbEntity
  8
0
100
AcDbPolyline
 90
        9
 70
   128
 43
0.0
 10
76.95909377663759
 20
59.1788055425489
 10
76.94766178569344
 20
59.18314258434884
 10
76.93666985611999
 20
59.18455515660247
 10
76.92653971339399
 20
59.18298799010194
 10
76.91765990376747
 20
59.17850346066291
 10
76.91037357025561
 20
59.17127166075506
 10
76.90495837075134
 20
59.16157188554223
 10
76.9016238581265
 20
59.14977683244683
 10
76.90049838372122
 20
59.13633936674949
  0
ARC
  5
B4
330
2
100
AcDbEntity
  8
0
100
AcDbCircle
 10
79.06819802113206
 20
57.12424424387871
 30
0.0
 40
0.3439528874301851
100
AcDbArc
 50
63.3233821353
 51
115.1474691825
  0
LINE
  5
B5
330
2
100
AcDbEntity
  8
0
100
AcDbLine
 10
78.92203540159536
 20
57.43559625913838
 30
0.0
 11
78.2188919961342
 21
57.08402455644921
 31
0.0
  0
LWPOLYLINE
  5
B6
330
2
100
AcDbEntity
  8
0
100
AcDbPolyline
 90
        6
 70
   128
 43
0.0
 10
78.22691460290745
 20
56.93373366887607
 10
78.2188919961342
 20
56.93753651061479
 10
78.17398412688383
 20
56.97114106758277
 10
78.15821438820226
 20
57.01078064266687
 10
78.17398390861419
 20
57.0504201086161
 10
78.2188919961342
 20
57.08402455644921
  0
LINE
  5
B7
330
2
100
AcDbEntity
  8
0
100
AcDbLine
 10
77.45715341602634
 20
56.55666722060232
 30
0.0
 11
77.46496756119313
 21
56.55276014797749
 31
0.0
  0
LINE
  5
B8
330
2
100
AcDbEntity
  8
0
100
AcDbLine
 10
77.75794387096593
 20
56.69924830286385
 30
0.0
 11
77.75012972579915
 21
56.70315537548868
 31
0.0
  0
LWPOLYLINE
  5
B9
330
2
100
AcDbEntity
  8
0
100
AcDbPolyline
 90
        9
 70
   128
 43
0.0
 10
77.45715341602634
 20
56.55666722060232
 10
77.41224576504563
 20
56.59027188670513
 10
77.39647558982473
 20
56.62991124343659
 10
77.41224532850631
 20
56.66955081852069
 10
77.45715341602634
 20
56.70315526635386
 10
77.52436252987947
 20
56.72560941920727
 10
77.60364146177791
 20
56.73349417941324
 10
77.68292039359349
 20
56.72560920093764
 10
77.75012972579915
 20
56.70315537548868
  0
LINE
  5
BA
330
2
100
AcDbEntity
  8
0
100
AcDbLine
 10
77.3399628484633
 20
57.52348913024326
 30
0.0
 11
78.04310625392446
 21
57.87506083301526
 31
0.0
  0
LWPOLYLINE
  5
BB
330
2
100
AcDbEntity
  8
0
100
AcDbPolyline
 90
        9
 70
   128
 43
0.0
 10
77.75012972579915
 20
58.02154909703654
 10
77.81733905800479
 20
58.04400292248544
 10
77.89661798982035
 20
58.05188768269141
 10
77.97589670344916
 20
58.04400303162026
 10
78.04310581730229
 20
58.02154909703654
 10
78.08801412309197
 20
57.98794432179875
 10
78.10378342523425
 20
57.94830496498446
 10
78.0880139048223
 20
57.90866549911811
 10
78.04310625392446
 20
57.87506083301526
  0
LINE
  5
BC
330
2
100
AcDbEntity
  8
0
100
AcDbLine
 10
77.75012972579915
 20
58.02154909703654
 30
0.0
 11
77.04698632033796
 21
57.66997739426449
 31
0.0
  0
LWPOLYLINE
  5
BD
330
2
100
AcDbEntity
  8
0
100
AcDbPolyline
 90
        9
 70
   128
 43
0.0
 10
77.3399628484633
 20
57.52348913024326
 10
77.27275351625763
 20
57.50103530479425
 10
77.19347458435921
 20
57.49315054458827
 10
77.11419587081327
 20
57.50103519565948
 10
77.04698632033796
 20
57.52348934851295
 10
77.00207845108761
 20
57.55709390548094
 10
76.98630914902818
 20
57.59673326229528
 10
77.00207866935726
 20
57.63637272824457
 10
77.04698632033796
 20
57.66997739426449
  0
LWPOLYLINE
  5
BE
330
2
100
AcDbEntity
  8
0
100
AcDbPolyline
 90
        9
 70
   128
 43
0.0
 10
77.93868925325234
 20
57.2375126556712
 10
77.8737614296804
 20
57.21153615639463
 10
77.7936344628342
 20
57.20041805850906
 10
77.71121900239393
 20
57.20594938534134
 10
77.63979263377303
 20
57.22723942749195
 10
77.59086396578462
 20
57.26085751809001
 10
77.57231612144652
 20
57.30138736611718
 10
77.58713675953569
 20
57.34229910267487
 10
77.63293893996643
 20
57.37700108449167
  0
LINE
  5
BF
330
2
100
AcDbEntity
  8
0
100
AcDbLine
 10
77.93868925325234
 20
57.2375126556712
 30
0.0
 11
78.62905887347006
 21
57.58208452315961
 31
0.0
  0
LWPOLYLINE
  5
C0
330
2
100
AcDbEntity
  8
0
100
AcDbPolyline
 90
        9
 70
   128
 43
0.0
 10
78.3360823454276
 20
57.72857278726371
 10
78.40329167755038
 20
57.75102661271262
 10
78.48257060944883
 20
57.75891137291859
 10
78.56184932299476
 20
57.75102672184743
 10
78.62905887347006
 20
57.72857256891114
 10
78.67396674272041
 20
57.6949680120261
 10
78.68973604477983
 20
57.65532865521163
 10
78.67396652445077
 20
57.61568918926236
 10
78.62905887347006
 20
57.58208452315961
  0
LINE
  5
C1
330
2
100
AcDbEntity
  8
0
100
AcDbLine
 10
78.3360823454276
 20
57.72857278726371
 30
0.0
 11
77.63293893996643
 21
57.37700108449167
 31
0.0
  0
LWPOLYLINE
  5
C2
330
2
100
AcDbEntity
  8
0
100
AcDbPolyline
 90
        9
 70
   128
 43
0.0
 10
77.16417710617069
 20
56.9961316852615
 10
77.20908475715138
 20
56.96252701924152
 10
77.22485427748046
 20
56.92288777156193
 10
77.20908475715138
 20
56.88324830561277
 10
77.16417688790102
 20
56.84964353037509
 10
77.09696755569538
 20
56.82718970492619
 10
77.01768840561014
 20
56.8193048355854
 10
76.93841012860352
 20
56.82718970492619
 10
76.90049805631675
 20
56.83747111871468
  0
LINE
  5
C3
330
2
100
AcDbEntity
  8
0
100
AcDbLine
 10
77.16417710617069
 20
56.9961316852615
 30
0.0
 11
76.9004982745864
 21
57.12797110109505
 31
0.0
  0
LINE
  5
C4
330
2
100
AcDbEntity
  8
0
100
AcDbLine
 10
79.83807606348676
 20
57.73931439916572
 30
0.0
 11
76.95909377663759
 21
59.1788055425489
 31
0.0
  0
LINE
  5
C5
330
2
100
AcDbEntity
  8
0
100
AcDbLine
 10
79.9098401181329
 20
57.77519677887744
 30
0.0
 11
76.95909377663759
 21
59.25056994954224
 31
0.0
  0
LWPOLYLINE
  5
C6
330
2
100
AcDbEntity
  8
0
100
AcDbPolyline
 90
        3
 70
   128
 43
0.0
 10
77.77942742225732
 20
58.87332545463499
 10
77.77773877411011
 20
58.85316893966432
 10
77.77521540637557
 20
58.8425092774932
  0
LINE
  5
C7
330
2
100
AcDbEntity
  8
0
100
AcDbLine
 10
77.77942742225732
 20
62.17448122476378
 30
0.0
 11
77.77942742225732
 21
58.87332545463499
 31
0.0
  0
LINE
  5
C8
330
2
100
AcDbEntity
  8
0
100
AcDbLine
 10
72.2128762262933
 20
58.85297417849762
 30
0.0
 11
72.2128762262933
 21
57.05886774681431
 31
0.0
  0
ARC
  5
C9
330
2
100
AcDbEntity
  8
0
100
AcDbCircle
 10
72.19118458165297
 20
57.21578510691585
 30
0.0
 40
0.31484095192558
100
AcDbArc
 50
325.7207547418003
 51
358.1017319426004
  0
ARC
  5
CA
330
2
100
AcDbEntity
  8
0
100
AcDbCircle
 10
72.32405353865006
 20
57.04332846318289
 30
0.0
 40
0.1122580247601379
100
AcDbArc
 50
172.0432991955995
 51
239.2859819402
  0
LINE
  5
CB
330
2
100
AcDbEntity
  8
0
100
AcDbLine
 10
72.50585275441861
 20
57.20535601083565
 30
0.0
 11
72.50585275441861
 21
58.99946244251879
 31
0.0
  0
LWPOLYLINE
  5
CC
330
2
100
AcDbEntity
  8
0
100
AcDbPolyline
 90
        9
 70
   128
 43
0.0
 10
72.2128762262933
 20
58.85297417849762
 10
72.2240270669472
 20
58.92720694885844
 10
72.25578177269046
 20
59.00128908655824
 10
72.30330578049313
 20
59.06394250346403
 10
72.35936470866704
 20
59.10562890239055
 10
72.41542320021878
 20
59.12000121336831
 10
72.46294720802146
 20
59.1048718042652
 10
72.49470191376471
 20
59.06254437230865
 10
72.50585275441861
 20
58.99946244251879
  0
LINE
  5
CD
330
2
100
AcDbEntity
  8
0
100
AcDbLine
 10
71.62692404328701
 20
58.55999808699443
 30
0.0
 11
71.62692404328701
 21
56.76589165531123
 31
0.0
  0
ARC
  5
CE
330
2
100
AcDbEntity
  8
0
100
AcDbCircle
 10
71.60523975161599
 20
56.9228062528183
 30
0.0
 40
0.3148330823205339
100
AcDbArc
 50
325.7203389146994
 51
358.1021477696999
  0
ARC
  5
CF
330
2
100
AcDbEntity
  8
0
100
AcDbCircle
 10
71.73810191963133
 20
56.75035181979064
 30
0.0
 40
0.1122586596931579
100
AcDbArc
 50
172.0430601082999
 51
239.2853212951003
  0
LINE
  5
D0
330
2
100
AcDbEntity
  8
0
100
AcDbLine
 10
71.91990013479015
 20
56.91237970106283
 30
0.0
 11
71.91990013479015
 21
58.70648613274602
 31
0.0
  0
LWPOLYLINE
  5
D1
330
2
100
AcDbEntity
  8
0
100
AcDbPolyline
 90
        9
 70
   128
 43
0.0
 10
71.62692404328701
 20
58.55999808699443
 10
71.63807401077943
 20
58.63423042073316
 10
71.66982915306198
 20
58.70831277678547
 10
71.71735316086466
 20
58.77096619369121
 10
71.77341208903857
 20
58.81265259261784
 10
71.82947014405101
 20
58.82702468524297
 10
71.87699502501518
 20
58.81189571276206
 10
71.90874929413624
 20
58.769568062453
 10
71.91990013479015
 20
58.70648613274602
  0
LINE
  5
D2
330
2
100
AcDbEntity
  8
0
100
AcDbLine
 10
71.04097098711924
 20
58.26702155886914
 30
0.0
 11
71.04097098711924
 21
56.47291512718595
 31
0.0
  0
ARC
  5
D3
330
2
100
AcDbEntity
  8
0
100
AcDbCircle
 10
71.01928669544823
 20
56.62982972469297
 30
0.0
 40
0.314833082320384
100
AcDbArc
 50
325.7203389146994
 51
358.1021477697993
  0
ARC
  5
D4
330
2
100
AcDbEntity
  8
0
100
AcDbCircle
 10
71.15214541564828
 20
56.45737445786529
 30
0.0
 40
0.1122553605039
100
AcDbArc
 50
172.0423949772993
 51
239.2868861584997
  0
LINE
  5
D5
330
2
100
AcDbEntity
  8
0
100
AcDbLine
 10
71.33394707862239
 20
56.61940317293749
 30
0.0
 11
71.33394707862239
 21
58.41350960462069
 31
0.0
  0
LWPOLYLINE
  5
D6
330
2
100
AcDbEntity
  8
0
100
AcDbPolyline
 90
        9
 70
   128
 43
0.0
 10
71.04097098711924
 20
58.26702155886914
 10
71.05212182769029
 20
58.34125432923002
 10
71.08387609689422
 20
58.41533624866014
 10
71.13140010469689
 20
58.47798966564875
 10
71.18745903287081
 20
58.51967606457538
 10
71.24351796096187
 20
58.53404859373978
 10
71.29104196884739
 20
58.51891918463673
 10
71.32279623796847
 20
58.47659153441049
 10
71.33394707862239
 20
58.41350960462069
  0
LINE
  5
D7
330
2
100
AcDbEntity
  8
0
100
AcDbLine
 10
70.45501793095147
 20
57.97404503082669
 30
0.0
 11
70.45501793095147
 21
56.17993859914349
 31
0.0
  0
ARC
  5
D8
330
2
100
AcDbEntity
  8
0
100
AcDbCircle
 10
70.4333189321817
 20
56.33685872225374
 30
0.0
 40
0.3148488225645751
100
AcDbArc
 50
325.7211706017999
 51
358.1013160826007
  0
ARC
  5
D9
330
2
100
AcDbEntity
  8
0
100
AcDbCircle
 10
70.56619812755028
 20
56.16440070136684
 30
0.0
 40
0.1122606894029591
100
AcDbArc
 50
172.0442034926996
 51
239.2850776430999
  0
LINE
  5
DA
330
2
100
AcDbEntity
  8
0
100
AcDbLine
 10
70.7479948956161
 20
56.32642708143436
 30
0.0
 11
70.7479948956161
 21
58.12053351311755
 31
0.0
  0
LWPOLYLINE
  5
DB
330
2
100
AcDbEntity
  8
0
100
AcDbPolyline
 90
        9
 70
   128
 43
0.0
 10
70.45501793095147
 20
57.97404503082669
 10
70.4661687715225
 20
58.04827780118756
 10
70.49792391388793
 20
58.12236015715701
 10
70.5454479216906
 20
58.18501357406273
 10
70.60150597670304
 20
58.22669953645004
 10
70.6575649047941
 20
58.2410720656145
 10
70.70508891267962
 20
58.22594265659432
 10
70.73684405496219
 20
58.18361544282453
 10
70.7479948956161
 20
58.12053351311755
  0
LINE
  5
DC
330
2
100
AcDbEntity
  8
0
100
AcDbLine
 10
69.86906574786231
 20
57.68106893932355
 30
0.0
 11
69.86906574786231
 21
55.88696250755749
 31
0.0
  0
ARC
  5
DD
330
2
100
AcDbEntity
  8
0
100
AcDbCircle
 10
69.8473814561913
 20
56.04387710514737
 30
0.0
 40
0.314833082320358
100
AcDbArc
 50
325.7203389146994
 51
358.1021477697993
  0
ARC
  5
DE
330
2
100
AcDbEntity
  8
0
100
AcDbCircle
 10
69.98024362420665
 20
55.8714226721197
 30
0.0
 40
0.1122586596931745
100
AcDbArc
 50
172.0430601082999
 51
239.2853212951003
  0
LINE
  5
DF
330
2
100
AcDbEntity
  8
0
100
AcDbLine
 10
70.16204183936546
 20
56.0334505533919
 30
0.0
 11
70.16204183936546
 21
57.82755698507509
 31
0.0
  0
LWPOLYLINE
  5
E0
330
2
100
AcDbEntity
  8
0
100
AcDbPolyline
 90
        9
 70
   128
 43
0.0
 10
69.86906574786231
 20
57.68106893932355
 10
69.88021571535473
 20
57.75530127306223
 10
69.91197085772016
 20
57.82938362911455
 10
69.95949486552283
 20
57.89203704602034
 10
70.01555379361389
 20
57.93372344494691
 10
70.07161184862633
 20
57.94809553757204
 10
70.11913672959048
 20
57.93296656500825
 10
70.15089099879443
 20
57.89063891478207
 10
70.16204183936546
 20
57.82755698507509
  0
LINE
  5
E1
330
2
100
AcDbEntity
  8
0
100
AcDbLine
 10
69.28311269169454
 20
57.38809241119821
 30
0.0
 11
69.28311269169454
 21
55.59398597951503
 31
0.0
  0
ARC
  5
E2
330
2
100
AcDbEntity
  8
0
100
AcDbCircle
 10
69.26122330767516
 20
55.75093832847398
 30
0.0
 40
0.3150393139739575
100
AcDbArc
 50
325.3012907226999
 51
358.0965210241004
  0
ARC
  5
E3
330
2
100
AcDbEntity
  8
0
100
AcDbCircle
 10
69.39428712022358
 20
55.57844531011153
 30
0.0
 40
0.1122553605038618
100
AcDbArc
 50
172.0423949772993
 51
239.2868861586003
  0
LINE
  5
E4
330
2
100
AcDbEntity
  8
0
100
AcDbLine
 10
69.57608878319769
 20
55.74047402526656
 30
0.0
 11
69.57608878319769
 21
57.53458045694981
 31
0.0
  0
LWPOLYLINE
  5
E5
330
2
100
AcDbEntity
  8
0
100
AcDbPolyline
 90
        9
 70
   128
 43
0.0
 10
69.28311269169454
 20
57.38809241119821
 10
69.29426353234845
 20
57.4623251815591
 10
69.32601780146953
 20
57.53640710098927
 10
69.37354180935506
 20
57.59906051789499
 10
69.42960073744612
 20
57.64074691682157
 10
69.48565966562004
 20
57.65511944606891
 10
69.53318367342271
 20
57.63999003696586
 10
69.56493794262666
 20
57.5976623866568
 10
69.57608878319769
 20
57.53458045694981
  0
LINE
  5
E6
330
2
100
AcDbEntity
  8
0
100
AcDbLine
 10
68.69715963552677
 20
57.09511588307293
 30
0.0
 11
68.69715963552677
 21
55.30100945138975
 31
0.0
  0
ARC
  5
E7
330
2
100
AcDbEntity
  8
0
100
AcDbCircle
 10
68.67546063675701
 20
55.45792957449993
 30
0.0
 40
0.314848822564382
100
AcDbArc
 50
325.7211706017999
 51
358.1013160826007
  0
ARC
  5
E8
330
2
100
AcDbEntity
  8
0
100
AcDbCircle
 10
68.8083398321256
 20
55.28547155369591
 30
0.0
 40
0.1122606894029646
100
AcDbArc
 50
172.0442034926996
 51
239.2850776430999
  0
LINE
  5
E9
330
2
100
AcDbEntity
  8
0
100
AcDbLine
 10
68.9901366001914
 20
55.44749793376343
 30
0.0
 11
68.9901366001914
 21
57.24160436544668
 31
0.0
  0
LWPOLYLINE
  5
EA
330
2
100
AcDbEntity
  8
0
100
AcDbPolyline
 90
        9
 70
   128
 43
0.0
 10
68.69715963552677
 20
57.09511588307293
 10
68.70831047618067
 20
57.16934865343375
 10
68.74006561846323
 20
57.24343100948607
 10
68.78758962626591
 20
57.3060844263918
 10
68.84364768127834
 20
57.34777038877917
 10
68.89970660945227
 20
57.36214291794357
 10
68.94723061725493
 20
57.34701350884051
 10
68.9789857595375
 20
57.30468629515366
 10
68.9901366001914
 20
57.24160436544668
  0
LINE
  5
EB
330
2
100
AcDbEntity
  8
0
100
AcDbLine
 10
68.11120745252049
 20
56.80213979156974
 30
0.0
 11
68.11120745252049
 21
55.00803335988655
 31
0.0
  0
ARC
  5
EC
330
2
100
AcDbEntity
  8
0
100
AcDbCircle
 10
68.08952316084947
 20
55.16494795739362
 30
0.0
 40
0.3148330823205353
100
AcDbArc
 50
325.7203389146994
 51
358.1021477697993
  0
ARC
  5
ED
330
2
100
AcDbEntity
  8
0
100
AcDbCircle
 10
68.22238839748424
 20
54.99249499888765
 30
0.0
 40
0.1122614946743438
100
AcDbArc
 50
172.0440221980995
 51
239.2843592054003
  0
LINE
  5
EE
330
2
100
AcDbEntity
  8
0
100
AcDbLine
 10
68.40418354402363
 20
55.15452140563815
 30
0.0
 11
68.40418354402363
 21
56.94862783732133
 31
0.0
  0
LWPOLYLINE
  5
EF
330
2
100
AcDbEntity
  8
0
100
AcDbPolyline
 90
        9
 70
   128
 43
0.0
 10
68.11120745252049
 20
56.80213979156974
 10
68.12235829309152
 20
56.87637256193062
 10
68.15411256229547
 20
56.95045448136079
 10
68.20163657009813
 20
57.0131078983494
 10
68.25769549827206
 20
57.05479429727597
 10
68.3137535532845
 20
57.06916638990117
 10
68.36127843424865
 20
57.05403741733727
 10
68.39303270336973
 20
57.01170976711114
 10
68.40418354402363
 20
56.94862783732133
  0
LINE
  5
F0
330
2
100
AcDbEntity
  8
0
100
AcDbLine
 10
67.5252543963527
 20
56.50916326352723
 30
0.0
 11
67.5252543963527
 21
54.71505683184409
 31
0.0
  0
ARC
  5
F1
330
2
100
AcDbEntity
  8
0
100
AcDbCircle
 10
67.5035701046817
 20
54.87197142935116
 30
0.0
 40
0.314833082320078
100
AcDbArc
 50
325.7203389146004
 51
358.1021477697993
  0
ARC
  5
F2
330
2
100
AcDbEntity
  8
0
100
AcDbCircle
 10
67.63642882488176
 20
54.6995161624406
 30
0.0
 40
0.1122553605036848
100
AcDbArc
 50
172.0423949772007
 51
239.2868861586003
  0
LINE
  5
F3
330
2
100
AcDbEntity
  8
0
100
AcDbLine
 10
67.81823048785586
 20
54.86154487759569
 30
0.0
 11
67.81823048785586
 21
56.65565130927888
 31
0.0
  0
LWPOLYLINE
  5
F4
330
2
100
AcDbEntity
  8
0
100
AcDbPolyline
 90
        9
 70
   128
 43
0.0
 10
67.5252543963527
 20
56.50916326352723
 10
67.53640523692375
 20
56.58339603388816
 10
67.56815950612768
 20
56.65747795331833
 10
67.61568438709186
 20
56.72013180676339
 10
67.67174244210429
 20
56.76181776915069
 10
67.72780137019534
 20
56.77619029831515
 10
67.77532537808088
 20
56.76106088929492
 10
67.80707964720196
 20
56.7187332389858
 10
67.81823048785586
 20
56.65565130927888
  0
LINE
  5
F5
330
2
100
AcDbEntity
  8
0
100
AcDbLine
 10
72.79882928246107
 20
59.1459507066229
 30
0.0
 11
72.79882928246107
 21
57.35184427485683
 31
0.0
  0
ARC
  5
F6
330
2
100
AcDbEntity
  8
0
100
AcDbCircle
 10
72.77714499079005
 20
57.50875887244678
 30
0.0
 40
0.3148330823204811
100
AcDbArc
 50
325.7203389146994
 51
358.1021477696999
  0
ARC
  5
F7
330
2
100
AcDbEntity
  8
0
100
AcDbCircle
 10
72.91000543477345
 20
57.33630402235338
 30
0.0
 40
0.1122570099318032
100
AcDbArc
 50
172.0427274964993
 51
239.2861037730998
  0
LINE
  5
F8
330
2
100
AcDbEntity
  8
0
100
AcDbLine
 10
73.09180537396421
 20
57.4983323206913
 30
0.0
 11
73.09180537396421
 21
59.2924387523745
 31
0.0
  0
LWPOLYLINE
  5
F9
330
2
100
AcDbEntity
  8
0
100
AcDbPolyline
 90
        9
 70
   128
 43
0.0
 10
72.79882928246107
 20
59.1459507066229
 10
72.80997968657565
 20
59.22018325863127
 10
72.84173439231891
 20
59.29426539641394
 10
72.8892588366609
 20
59.35691903158937
 10
72.94531732821264
 20
59.3986052122463
 10
73.00137581976438
 20
59.41297752314108
 10
73.04890026418923
 20
59.39784833230766
 10
73.08065453339319
 20
59.35552068208142
 10
73.09180537396421
 20
59.2924387523745
  0
LINE
  5
FA
330
2
100
AcDbEntity
  8
0
100
AcDbLine
 10
73.38478190208952
 20
59.43892701639573
 30
0.0
 11
73.38478190208952
 21
57.64482058471253
 31
0.0
  0
ARC
  5
FB
330
2
100
AcDbEntity
  8
0
100
AcDbCircle
 10
73.36309025736634
 20
57.80173794481396
 30
0.0
 40
0.3148409519261197
100
AcDbArc
 50
325.7207547418003
 51
358.1017319426004
  0
ARC
  5
FC
330
2
100
AcDbEntity
  8
0
100
AcDbCircle
 10
73.49596247282938
 20
57.6292824553247
 30
0.0
 40
0.1122610920256348
100
AcDbArc
 50
172.0441128418004
 51
239.2847184278001
  0
LINE
  5
FD
330
2
100
AcDbEntity
  8
0
100
AcDbLine
 10
73.67775843021485
 20
57.79130884873371
 30
0.0
 11
73.67775843021485
 21
59.58541528041696
 31
0.0
  0
LWPOLYLINE
  5
FE
330
2
100
AcDbEntity
  8
0
100
AcDbPolyline
 90
        9
 70
   128
 43
0.0
 10
73.38478190208952
 20
59.43892701639573
 10
73.39593274274344
 20
59.51315978675655
 10
73.42768744848669
 20
59.5872419244564
 10
73.47521145628935
 20
59.64989534136214
 10
73.53126994784111
 20
59.69158152201908
 10
73.58732843939285
 20
59.7059538329139
 10
73.6348528838177
 20
59.69082464216331
 10
73.66660758956095
 20
59.64849721012393
 10
73.67775843021485
 20
59.58541528041696
  0
LINE
  5
FF
330
2
100
AcDbEntity
  8
0
100
AcDbLine
 10
73.97073452171799
 20
59.73190332616844
 30
0.0
 11
73.97073452171799
 21
57.9377968944853
 31
0.0
  0
ARC
  5
100
330
2
100
AcDbEntity
  8
0
100
AcDbCircle
 10
73.94904287699479
 20
58.09471425466966
 30
0.0
 40
0.3148409519256376
100
AcDbArc
 50
325.7207547418003
 51
358.1017319426004
  0
ARC
  5
101
330
2
100
AcDbEntity
  8
0
100
AcDbCircle
 10
74.08191183407476
 20
57.92225761085376
 30
0.0
 40
0.1122580247601116
100
AcDbArc
 50
172.0432991955995
 51
239.2859819402
  0
LINE
  5
102
330
2
100
AcDbEntity
  8
0
100
AcDbLine
 10
74.26371104976045
 20
58.08428515850653
 30
0.0
 11
74.26371104976045
 21
59.87839159027259
 31
0.0
  0
LWPOLYLINE
  5
103
330
2
100
AcDbEntity
  8
0
100
AcDbPolyline
 90
        9
 70
   128
 43
0.0
 10
73.97073452171799
 20
59.73190332616844
 10
73.98188536228904
 20
59.80613609652937
 10
74.01364006803227
 20
59.88021823431205
 10
74.06116407591781
 20
59.94287165121779
 10
74.11722256746955
 20
59.98455783187472
 10
74.17328149556062
 20
59.99893036103919
 10
74.22080550344616
 20
59.98380095193613
 10
74.25256020918941
 20
59.94147351997958
 10
74.26371104976045
 20
59.87839159027259
  0
LINE
  5
104
330
2
100
AcDbEntity
  8
0
100
AcDbLine
 10
74.55668714126358
 20
60.02487963602419
 30
0.0
 11
74.55668714126358
 21
58.23077320434094
 31
0.0
  0
ARC
  5
105
330
2
100
AcDbEntity
  8
0
100
AcDbCircle
 10
74.53499549662325
 20
58.38769056444238
 30
0.0
 40
0.314840951925756
100
AcDbArc
 50
325.7207547418003
 51
358.1017319426004
  0
ARC
  5
106
330
2
100
AcDbEntity
  8
0
100
AcDbCircle
 10
74.66786445370321
 20
58.21523392062658
 30
0.0
 40
0.1122580247601181
100
AcDbArc
 50
172.0432991955995
 51
239.2859819402
  0
LINE
  5
107
330
2
100
AcDbEntity
  8
0
100
AcDbLine
 10
74.84966366938891
 20
58.37726146836212
 30
0.0
 11
74.84966366938891
 21
60.17136790004542
 31
0.0
  0
LWPOLYLINE
  5
108
330
2
100
AcDbEntity
  8
0
100
AcDbPolyline
 90
        9
 70
   128
 43
0.0
 10
74.55668714126358
 20
60.02487963602419
 10
74.56783798191749
 20
60.09911240630214
 10
74.59959268766076
 20
60.17319454408482
 10
74.64711713208558
 20
60.23584817926025
 10
74.70317562363733
 20
60.27753435991724
 10
74.75923411518907
 20
60.29190667081201
 10
74.80675812299176
 20
60.27677726179177
 10
74.83851282873501
 20
60.23444982975241
 10
74.84966366938891
 20
60.17136790004542
  0
LINE
  5
109
330
2
100
AcDbEntity
  8
0
100
AcDbLine
 10
75.14264019751422
 20
60.31785616406665
 30
0.0
 11
75.14264019751422
 21
58.52374973238346
 31
0.0
  0
ARC
  5
10A
330
2
100
AcDbEntity
  8
0
100
AcDbCircle
 10
75.12095274847405
 20
58.68066491260583
 30
0.0
 40
0.3148362572309132
100
AcDbArc
 50
325.7206524905001
 51
358.1020608102992
  0
ARC
  5
10B
330
2
100
AcDbEntity
  8
0
100
AcDbCircle
 10
75.25381788401202
 20
58.5082102171408
 30
0.0
 40
0.112258427409638
100
AcDbArc
 50
172.0432085616994
 51
239.2856227079001
  0
LINE
  5
10C
330
2
100
AcDbEntity
  8
0
100
AcDbLine
 10
75.43561628901736
 20
58.67023777813495
 30
0.0
 11
75.43561628901736
 21
60.46434420981819
 31
0.0
  0
LWPOLYLINE
  5
10D
330
2
100
AcDbEntity
  8
0
100
AcDbPolyline
 90
        9
 70
   128
 43
0.0
 10
75.14264019751422
 20
60.31785616406665
 10
75.15379103808526
 20
60.39208893442747
 10
75.1855453072892
 20
60.46617085385765
 10
75.23306975171405
 20
60.52882448911595
 10
75.28912824326579
 20
60.57051066969001
 10
75.34518673481755
 20
60.58488298066766
 10
75.39271117915951
 20
60.56975378983423
 10
75.42446588498563
 20
60.52742635787769
 10
75.43561628901736
 20
60.46434420981819
  0
LINE
  5
10E
330
2
100
AcDbEntity
  8
0
100
AcDbLine
 10
75.72859281705982
 20
60.6108324739223
 30
0.0
 11
75.72859281705982
 21
58.81672604215623
 31
0.0
  0
ARC
  5
10F
330
2
100
AcDbEntity
  8
0
100
AcDbCircle
 10
75.70690327026101
 20
58.97364231240101
 30
0.0
 40
0.3148386045635394
100
AcDbArc
 50
325.7207036160999
 51
358.1018963762996
  0
ARC
  5
110
330
2
100
AcDbEntity
  8
0
100
AcDbCircle
 10
75.83977031652853
 20
58.80118664276057
 30
0.0
 40
0.1122582260817254
100
AcDbArc
 50
172.0432538778002
 51
239.2858023248999
  0
LINE
  5
111
330
2
100
AcDbEntity
  8
0
100
AcDbLine
 10
76.02156912691549
 20
58.96321419712553
 30
0.0
 11
76.02156912691549
 21
60.75732062880871
 31
0.0
  0
LWPOLYLINE
  5
112
330
2
100
AcDbEntity
  8
0
100
AcDbPolyline
 90
        9
 70
   128
 43
0.0
 10
75.72859281705982
 20
60.6108324739223
 10
75.73974365771372
 20
60.6850652442003
 10
75.77149814518732
 20
60.75914727284817
 10
75.81902237125965
 20
60.82180079888866
 10
75.87508108116391
 20
60.86348708868053
 10
75.93113957271566
 20
60.8778593995753
 10
75.97866379878798
 20
60.862730099607
 10
76.01041850453123
 20
60.82040266765051
 10
76.02156912691549
 20
60.75732062880871
  0
LINE
  5
113
330
2
100
AcDbEntity
  8
0
100
AcDbLine
 10
76.31454565495793
 20
60.90380889282994
 30
0.0
 11
76.31454565495793
 21
59.10970246114669
 31
0.0
  0
ARC
  5
114
330
2
100
AcDbEntity
  8
0
100
AcDbCircle
 10
76.29285768692657
 20
59.266618439951
 30
0.0
 40
0.3148370169941417
100
AcDbArc
 50
325.7205468240995
 51
358.1019398602996
  0
ARC
  5
115
330
2
100
AcDbEntity
  8
0
100
AcDbCircle
 10
76.42572401640119
 20
59.09416327015964
 30
0.0
 40
0.1122590509164466
100
AcDbArc
 50
172.0434201634005
 51
239.2854111061997
  0
LINE
  5
116
330
2
100
AcDbEntity
  8
0
100
AcDbLine
 10
76.6075219648136
 20
59.25619061603311
 30
0.0
 11
76.6075219648136
 21
61.0502970477163
 31
0.0
  0
LWPOLYLINE
  5
117
330
2
100
AcDbEntity
  8
0
100
AcDbPolyline
 90
        9
 70
   128
 43
0.0
 10
76.31454565495793
 20
60.90380889282994
 10
76.32569627734219
 20
60.97804155405595
 10
76.35745098308544
 20
61.05212369175575
 10
76.40497520915776
 20
61.11477721779635
 10
76.4610337007095
 20
61.1564633984533
 10
76.51709241061377
 20
61.1708358185657
 10
76.56461663668611
 20
61.15570651859747
 10
76.5963711241597
 20
61.11337897742328
 10
76.6075219648136
 20
61.0502970477163
  0
LINE
  5
118
330
2
100
AcDbEntity
  8
0
100
AcDbLine
 10
76.9004982745864
 20
61.19678520260271
 30
0.0
 11
76.9004982745864
 21
59.40267877091952
 31
0.0
  0
LWPOLYLINE
  5
119
330
2
100
AcDbEntity
  8
0
100
AcDbPolyline
 90
        9
 70
   128
 43
0.0
 10
77.19347458435921
 20
59.54916692580588
 10
77.18232396205782
 20
59.47493372992693
 10
77.15056925631457
 20
59.40085159222713
 10
77.10304503015937
 20
59.33819806618657
 10
77.04698653860763
 20
59.29651188552964
 10
76.99092782878622
 20
59.28213946541712
 10
76.94340360263104
 20
59.2972687653853
 10
76.91164911515743
 20
59.33959630655966
 10
76.9004982745864
 20
59.40267877091952
  0
LINE
  5
11A
330
2
100
AcDbEntity
  8
0
100
AcDbLine
 10
77.19347458435921
 20
59.54916692580588
 30
0.0
 11
77.19347458435921
 21
61.343273357572
 31
0.0
  0
LWPOLYLINE
  5
11B
330
2
100
AcDbEntity
  8
0
100
AcDbPolyline
 90
        9
 70
   128
 43
0.0
 10
76.9004982745864
 20
61.19678520260271
 10
76.91164911515743
 20
61.27101797296359
 10
76.94340360263104
 20
61.3451000016114
 10
76.99092782878622
 20
61.407753527652
 10
77.04698653860763
 20
61.4494398174437
 10
77.10304503015937
 20
61.46381212833853
 10
77.15056925631457
 20
61.44868282837023
 10
77.18232396205782
 20
61.4063553964138
 10
77.19347458435921
 20
61.343273357572
  0
LINE
  5
11C
330
2
100
AcDbEntity
  8
0
100
AcDbLine
 10
66.93930134018494
 20
56.7544181836862
 30
0.0
 11
66.93930134018494
 21
54.28243972213914
 31
0.0
  0
ARC
  5
11D
330
2
100
AcDbEntity
  8
0
100
AcDbCircle
 10
78.67213171833615
 20
59.49345361163534
 30
0.0
 40
0.5998136710890846
100
AcDbArc
 50
180.9678538559993
 51
239.2421097972001
  0
LWPOLYLINE
  5
11E
330
2
100
AcDbEntity
  8
0
100
AcDbPolyline
 90
        9
 70
   128
 43
0.0
 10
82.90098762891082
 20
59.2707703289239
 10
82.89536309463858
 20
59.29342744520932
 10
82.86360838889534
 20
59.36750958299199
 10
82.81608416274014
 20
59.43016310903255
 10
82.76002545291873
 20
59.4718493988243
 10
82.703966961367
 20
59.48622170971913
 10
82.65644273521179
 20
59.47109240983372
 10
82.62468802946854
 20
59.42876497779429
 10
82.61353740716717
 20
59.36568293895255
  0
LINE
  5
11F
330
2
100
AcDbEntity
  8
0
100
AcDbLine
 10
82.61353740716717
 20
59.12704535283399
 30
0.0
 11
82.61353740716717
 21
59.36568293895255
 31
0.0
  0
LINE
  5
120
330
2
100
AcDbEntity
  8
0
100
AcDbLine
 10
82.32056109739437
 20
59.5121710938389
 30
0.0
 11
82.32056109739437
 21
58.98055691222481
 31
0.0
  0
LWPOLYLINE
  5
121
330
2
100
AcDbEntity
  8
0
100
AcDbPolyline
 90
        9
 70
   128
 43
0.0
 10
82.32056109739437
 20
59.5121710938389
 10
82.30941025674045
 20
59.58640386419978
 10
82.27765555099722
 20
59.66048600189958
 10
82.23013132484203
 20
59.72313952802301
 10
82.17407283329027
 20
59.76482570859713
 10
82.11801412346886
 20
59.77919812870954
 10
82.07049011566619
 20
59.76406871960654
 10
82.03873540992294
 20
59.72174128764987
 10
82.02758456926906
 20
59.65865935786013
  0
LINE
  5
122
330
2
100
AcDbEntity
  8
0
100
AcDbLine
 10
82.02758456926906
 20
58.83406911548627
 30
0.0
 11
82.02758456926906
 21
59.65865935786013
 31
0.0
  0
LINE
  5
123
330
2
100
AcDbEntity
  8
0
100
AcDbLine
 10
81.73460825949625
 20
59.80514751274654
 30
0.0
 11
81.73460825949625
 21
58.68758067495997
 31
0.0
  0
LWPOLYLINE
  5
124
330
2
100
AcDbEntity
  8
0
100
AcDbPolyline
 90
        9
 70
   128
 43
0.0
 10
81.73460825949625
 20
59.80514751274654
 10
81.72345741884234
 20
59.87938028310736
 10
81.69170271309909
 20
59.95346242089005
 10
81.64417870529643
 20
60.01611583779584
 10
81.58812021374467
 20
60.05780201845277
 10
81.53206128557076
 20
60.07217454761724
 10
81.48453727776809
 20
60.05704513851412
 10
81.45278257202482
 20
60.01471770655763
 10
81.44163173137092
 20
59.95163577685065
  0
LINE
  5
125
330
2
100
AcDbEntity
  8
0
100
AcDbLine
 10
81.44163173137092
 20
58.54109234356849
 30
0.0
 11
81.44163173137092
 21
59.95163577685065
 31
0.0
  0
LINE
  5
126
330
2
100
AcDbEntity
  8
0
100
AcDbLine
 10
81.1486556398678
 20
60.09812382260219
 30
0.0
 11
81.1486556398678
 21
58.39460432856032
 31
0.0
  0
LWPOLYLINE
  5
127
330
2
100
AcDbEntity
  8
0
100
AcDbPolyline
 90
        9
 70
   128
 43
0.0
 10
81.1486556398678
 20
60.09812382260219
 10
81.13750479921389
 20
60.17235659296307
 10
81.10575009347064
 20
60.24643873066287
 10
81.05822608566795
 20
60.3090921475686
 10
81.00216715749404
 20
60.35077854649523
 10
80.94610866594228
 20
60.36515085747288
 10
80.89858465813961
 20
60.35002144836983
 10
80.86682995239637
 20
60.30769401633034
 10
80.85567911174246
 20
60.24461208662342
  0
LINE
  5
128
330
2
100
AcDbEntity
  8
0
100
AcDbLine
 10
80.85567911174246
 20
58.45050565494023
 30
0.0
 11
80.85567911174246
 21
60.24461208662342
 31
0.0
  0
ARC
  5
129
330
2
100
AcDbEntity
  8
0
100
AcDbCircle
 10
81.17092083161065
 20
58.461036836417
 30
0.0
 40
0.3154175767111203
100
AcDbArc
 50
181.9133506183009
 51
215.5869970953995
  0
LINE
  5
12A
330
2
100
AcDbEntity
  8
0
100
AcDbLine
 10
80.5627025837
 20
60.39110035064465
 30
0.0
 11
80.5627025837
 21
58.59699391896146
 31
0.0
  0
LWPOLYLINE
  5
12B
330
2
100
AcDbEntity
  8
0
100
AcDbPolyline
 90
        9
 70
   128
 43
0.0
 10
80.5627025837
 20
60.39110035064465
 10
80.55155217966829
 20
60.46533290273583
 10
80.51979747392502
 20
60.5394150404357
 10
80.4722730295002
 20
60.60206867569394
 10
80.41621453794844
 20
60.64375485635088
 10
80.3601560463967
 20
60.65812716724571
 10
80.31263160197184
 20
60.64299797641229
 10
80.28087733276791
 20
60.60067032618604
 10
80.26972649219686
 20
60.53758839639624
  0
LINE
  5
12C
330
2
100
AcDbEntity
  8
0
100
AcDbLine
 10
80.26972649219686
 20
58.743481964713
 30
0.0
 11
80.26972649219686
 21
60.53758839639624
 31
0.0
  0
LWPOLYLINE
  5
12D
330
2
100
AcDbEntity
  8
0
100
AcDbPolyline
 90
        9
 70
   128
 43
0.0
 10
80.26972649219686
 20
58.743481964713
 10
80.28087733276791
 20
58.66924865969924
 10
80.31263160197184
 20
58.59516674026912
 10
80.3601560463967
 20
58.53251310501082
 10
80.41621453794844
 20
58.4908269244367
 10
80.4722730295002
 20
58.47645461345905
 10
80.51979747392502
 20
58.49158380429248
 10
80.55155217966829
 20
58.53391123624902
 10
80.5627025837
 20
58.59699391896146
  0
LINE
  5
12E
330
2
100
AcDbEntity
  8
0
100
AcDbLine
 10
79.97674996407155
 20
60.68407666050035
 30
0.0
 11
79.97674996407155
 21
58.8899702288171
 31
0.0
  0
LWPOLYLINE
  5
12F
330
2
100
AcDbEntity
  8
0
100
AcDbPolyline
 90
        9
 70
   128
 43
0.0
 10
79.97674996407155
 20
60.68407666050035
 10
79.96559912341765
 20
60.75830943086117
 10
79.93384485429658
 20
60.83239135029135
 10
79.88632040987173
 20
60.89504498546677
 10
79.83026191831999
 20
60.93673116612371
 10
79.77420342676824
 20
60.95110347701847
 10
79.72667898234338
 20
60.93597428626793
 10
79.69492427660014
 20
60.8936468542285
 10
79.68377387256841
 20
60.83056470625189
  0
LINE
  5
130
330
2
100
AcDbEntity
  8
0
100
AcDbLine
 10
79.68377387256841
 20
59.03645827456864
 30
0.0
 11
79.68377387256841
 21
60.83056470625189
 31
0.0
  0
LWPOLYLINE
  5
131
330
2
100
AcDbEntity
  8
0
100
AcDbPolyline
 90
        9
 70
   128
 43
0.0
 10
79.68377387256841
 20
59.03645827456864
 10
79.69492427660014
 20
58.96222518782457
 10
79.72667898234338
 20
58.88814305004189
 10
79.77420342676824
 20
58.82548941486646
 10
79.83026191831999
 20
58.78380323420953
 10
79.88632040987173
 20
58.7694309233147
 10
79.93384485429658
 20
58.7845601140653
 10
79.96559912341765
 20
58.82688776437436
 10
79.97674996407155
 20
58.8899702288171
  0
LINE
  5
132
330
2
100
AcDbEntity
  8
0
100
AcDbLine
 10
79.39079734444309
 20
60.97705297027312
 30
0.0
 11
79.39079734444309
 21
59.18294653858993
 31
0.0
  0
LWPOLYLINE
  5
133
330
2
100
AcDbEntity
  8
0
100
AcDbPolyline
 90
        9
 70
   128
 43
0.0
 10
79.39079734444309
 20
60.97705297027312
 10
79.37964650387207
 20
61.051285740634
 10
79.34789179812881
 20
61.12536787833381
 10
79.30036779024326
 20
61.18802129532241
 10
79.24430929869152
 20
61.22970747589647
 10
79.18825037060045
 20
61.24408000514382
 10
79.14072636271493
 20
61.2289505960407
 10
79.10897165697168
 20
61.18662316408415
 10
79.09782081640064
 20
61.12354123429435
  0
LINE
  5
134
330
2
100
AcDbEntity
  8
0
100
AcDbLine
 10
79.09782081640064
 20
59.32943480261116
 30
0.0
 11
79.09782081640064
 21
61.12354123429435
 31
0.0
  0
LWPOLYLINE
  5
135
330
2
100
AcDbEntity
  8
0
100
AcDbPolyline
 90
        9
 70
   128
 43
0.0
 10
79.09782081640064
 20
59.32943480261116
 10
79.10897165697168
 20
59.2552014975974
 10
79.14072636271493
 20
59.18111935989753
 10
79.18825037060045
 20
59.11846594290887
 10
79.24430929869152
 20
59.0767795439823
 10
79.30036779024326
 20
59.06240723308752
 10
79.34789179812881
 20
59.07753664219058
 10
79.37964650387207
 20
59.11986407414713
 10
79.39079734444309
 20
59.18294653858993
  0
LINE
  5
136
330
2
100
AcDbEntity
  8
0
100
AcDbLine
 10
78.80484472489749
 20
61.27002928004595
 30
0.0
 11
78.80484472489749
 21
59.4759228483627
 31
0.0
  0
LWPOLYLINE
  5
137
330
2
100
AcDbEntity
  8
0
100
AcDbPolyline
 90
        9
 70
   128
 43
0.0
 10
78.80484472489749
 20
61.27002928004595
 10
78.79369388424359
 20
61.34426205040677
 10
78.76193917850034
 20
61.41834418818939
 10
78.71441517069768
 20
61.48099760509524
 10
78.65835624252375
 20
61.52268400402181
 10
78.60229775097201
 20
61.53705631491658
 10
78.55477374316933
 20
61.52192690581353
 10
78.52301903742608
 20
61.47959947385698
 10
78.51186819677218
 20
61.41651754415
  0
LINE
  5
138
330
2
100
AcDbEntity
  8
0
100
AcDbLine
 10
78.51186819677218
 20
59.6224111124668
 30
0.0
 11
78.51186819677218
 21
61.41651754415
 31
0.0
  0
LWPOLYLINE
  5
139
330
2
100
AcDbEntity
  8
0
100
AcDbPolyline
 90
        9
 70
   128
 43
0.0
 10
78.51186819677218
 20
59.6224111124668
 10
78.52301903742608
 20
59.54817780737011
 10
78.55477374316933
 20
59.47409566967036
 10
78.60229775097201
 20
59.41144225276463
 10
78.65835624252375
 20
59.36975607210763
 10
78.71441517069768
 20
59.35538354286035
 10
78.76193917850034
 20
59.3705129519634
 10
78.79369388424359
 20
59.41284038400283
 10
78.80484472489749
 20
59.4759228483627
  0
LINE
  5
13A
330
2
100
AcDbEntity
  8
0
100
AcDbLine
 10
78.36538015102061
 20
58.97801213492209
 30
0.0
 11
80.34042575546189
 21
57.99048933270149
 31
0.0
  0
LWPOLYLINE
  5
13B
330
2
100
AcDbEntity
  8
0
100
AcDbPolyline
 90
        9
 70
   128
 43
0.0
 10
77.92591546800889
 20
62.2806487540243
 10
77.89733680043221
 20
62.29149043626472
 10
77.86985653991783
 20
62.29502128318876
 10
77.84453118310281
 20
62.29110443632618
 10
77.8223325320323
 20
62.27989133943276
 10
77.80411538867618
 20
62.26181329657572
 10
77.79057826291122
 20
62.23756368920652
 10
77.78224241797127
 20
62.2080753035454
 10
77.77942742225732
 20
62.17448122476378
  0
ARC
  5
13C
330
2
100
AcDbEntity
  8
0
100
AcDbCircle
 10
67.05390806490067
 20
56.76830960849844
 30
0.0
 40
0.1154455414308644
100
AcDbArc
 50
121.7596392615001
 51
186.9110796025996
  0
LWPOLYLINE
  5
13D
330
2
100
AcDbEntity
  8
0
100
AcDbPolyline
 90
        9
 70
   128
 43
0.0
 10
77.92591546800889
 20
62.2806487540243
 10
77.95449391739878
 20
62.29149032712985
 10
77.98197406869546
 20
62.29502111952797
 10
78.00729997126747
 20
62.29110454546106
 10
78.02949829485065
 20
62.2798912849068
 10
78.04771598396377
 20
62.26181351484536
 10
78.06125289145909
 20
62.23756379834139
 10
78.06958895466869
 20
62.20807552181509
 10
78.07240362289528
 20
62.17448127937268
  0
LINE
  5
13E
330
2
100
AcDbEntity
  8
0
100
AcDbLine
 10
74.84125055177099
 20
60.22708731507657
 30
0.0
 11
74.82036597293073
 21
60.21664502561498
 31
0.0
  0
ARC
  5
13F
330
2
100
AcDbEntity
  8
0
100
AcDbCircle
 10
66.9573477589678
 20
56.64381954569717
 30
0.0
 40
0.0550456594255442
100
AcDbArc
 50
109.1370379119998
 51
171.5830402486998
  0
SPLINE
  5
140
330
2
100
AcDbEntity
  8
0
100
AcDbSpline
210
0.0
220
0.0
230
1.0
 70
     8
 71
     3
 72
    13
 73
     9
 74
     0
 42
0.000000001
 43
0.0000000001
 40
0.0
 40
0.0
 40
0.0
 40
0.0
 40
0.1876609670199214
 40
0.415127253656276
 40
0.5450965538187078
 40
0.6858123169167576
 40
0.8374107772964178
 40
1.0
 40
1.0
 40
1.0
 40
1.0
 10
68.55965442967333
 20
50.96586016033313
 30
0.0
 10
68.58724907638887
 20
50.97564425486666
 30
0.0
 10
68.64829155148929
 20
50.99728777700033
 30
0.0
 10
68.74890060389017
 20
50.99091449796737
 30
0.0
 10
68.84020076064157
 20
50.96901228997831
 30
0.0
 10
68.91550149885084
 20
50.93915782173599
 30
0.0
 10
68.99112316279204
 20
50.89641668934433
 30
0.0
 10
69.03323661332464
 20
50.85810916869184
 30
0.0
 10
69.05502993482048
 20
50.83828538073976
 30
0.0
  0
LINE
  5
141
330
2
100
AcDbEntity
  8
0
100
AcDbLine
 10
69.64503871529135
 20
50.24727850311399
 30
0.0
 11
69.62381099327018
 21
50.25789236404171
 31
0.0
  0
LINE
  5
142
330
2
100
AcDbEntity
  8
0
100
AcDbLine
 10
69.05502993483783
 20
50.83828538072515
 30
0.0
 11
69.62381099327018
 21
50.25789236404171
 31
0.0
  0
LINE
  5
143
330
2
100
AcDbEntity
  8
0
100
AcDbLine
 10
55.06477718925318
 20
44.21842154009567
 30
0.0
 11
68.55965442963898
 21
50.96586016037145
 31
0.0
  0
LINE
  5
144
330
2
100
AcDbEntity
  8
0
100
AcDbLine
 10
55.09802190433451
 20
44.6247911935261
 30
0.0
 11
55.09663536177302
 21
44.62404228449014
 31
0.0
  0
LINE
  5
145
330
2
100
AcDbEntity
  8
0
100
AcDbLine
 10
57.17248645142622
 20
41.51256609386803
 30
0.0
 11
57.19817590663474
 21
41.48889869022224
 31
0.0
  0
SPLINE
  5
146
330
2
100
AcDbEntity
  8
0
100
AcDbSpline
210
0.0
220
0.0
230
1.0
 70
     8
 71
     3
 72
    12
 73
     8
 74
     0
 42
0.000000001
 43
0.0000000001
 40
0.0
 40
0.0
 40
0.0
 40
0.0
 40
0.2620657522358336
 40
0.5797190002494576
 40
0.7612194323222476
 40
0.9577292837773899
 40
1.0
 40
1.0
 40
1.0
 40
1.0
 10
55.06477718924604
 20
44.21842154011943
 30
0.0
 10
55.04168957235317
 20
44.20285304841968
 30
0.0
 10
54.99061715991818
 20
44.16841378893389
 30
0.0
 10
54.9606750169724
 20
44.09695328965955
 30
0.0
 10
54.95933058586287
 20
44.02826392970815
 30
0.0
 10
54.96653678826924
 20
43.98494275918454
 30
0.0
 10
54.97918639714302
 20
43.96095633331515
 30
0.0
 10
54.98142572520992
 20
43.95671007738656
 30
0.0
  0
SPLINE
  5
147
330
2
100
AcDbEntity
  8
0
100
AcDbSpline
210
0.0
220
0.0
230
1.0
 70
     8
 71
     3
 72
     9
 73
     5
 74
     0
 42
0.000000001
 43
0.0000000001
 40
0.0
 40
0.0
 40
0.0
 40
0.0
 40
0.527903343758511
 40
1.0
 40
1.0
 40
1.0
 40
1.0
 10
69.77687944078429
 20
35.16559053683557
 30
0.0
 10
69.77424280340867
 20
35.16450558090719
 30
0.0
 10
69.76924825770861
 20
35.16245036390353
 30
0.0
 10
69.76511118240972
 20
35.16403102817492
 30
0.0
 10
69.76315808299452
 20
35.16477725449198
 30
0.0
  0
LINE
  5
148
330
2
100
AcDbEntity
  8
0
100
AcDbLine
 10
85.17059745303191
 20
41.61871341014875
 30
0.0
 11
85.16182329304426
 21
41.61403804019307
 31
0.0
  0
LWPOLYLINE
  5
149
330
2
100
AcDbEntity
  8
0
100
AcDbPolyline
 90
        3
 70
   128
 43
0.0
 10
72.76325154362741
 20
35.41475216548469
 10
72.75031077091199
 20
35.40886991524388
 10
72.71067730779257
 20
35.39729426358906
  0
SPLINE
  5
14A
330
2
100
AcDbEntity
  8
0
100
AcDbSpline
210
0.0
220
0.0
230
1.0
 70
     8
 71
     3
 72
    13
 73
     9
 74
     0
 42
0.000000001
 43
0.0000000001
 40
0.0
 40
0.0
 40
0.0
 40
0.0
 40
0.0630459107795258
 40
0.2604321988161163
 40
0.4861927870155239
 40
0.7276203393490217
 40
0.9762812773622068
 40
1.0
 40
1.0
 40
1.0
 40
1.0
 10
71.20640524620068
 20
35.09907770906824
 30
0.0
 10
71.20550957868823
 20
35.0985273702662
 30
0.0
 10
71.20180972477561
 20
35.09625401197053
 30
0.0
 10
71.21457887599776
 20
35.09714017906106
 30
0.0
 10
71.24505789670067
 20
35.10119480383787
 30
0.0
 10
71.2960287798022
 20
35.10989058754501
 30
0.0
 10
71.33887342585454
 20
35.11738016690259
 30
0.0
 10
71.36543782046527
 20
35.12290373394058
 30
0.0
 10
71.36775103836969
 20
35.1233847241665
 30
0.0
  0
LINE
  5
14B
330
2
100
AcDbEntity
  8
0
100
AcDbLine
 10
72.20027554065217
 20
48.06289263976037
 30
0.0
 11
71.79010866331632
 21
48.26797607842832
 31
0.0
  0
LINE
  5
14C
330
2
100
AcDbEntity
  8
0
100
AcDbLine
 10
84.09511629441841
 20
42.11547226291872
 30
0.0
 11
72.20027554065217
 21
48.06289263976037
 31
0.0
  0
LINE
  5
14D
330
2
100
AcDbEntity
  8
0
100
AcDbLine
 10
87.87041539167617
 20
43.52175885557136
 30
0.0
 11
85.05784264291012
 21
42.11547248118836
 31
0.0
  0
SPLINE
  5
14E
330
2
100
AcDbEntity
  8
0
100
AcDbSpline
210
0.0
220
0.0
230
1.0
 70
     8
 71
     3
 72
    11
 73
     7
 74
     0
 42
0.000000001
 43
0.0000000001
 40
0.0
 40
0.0
 40
0.0
 40
0.0
 40
0.2500006524147773
 40
0.5000002236147561
 40
0.7500006008298871
 40
1.0
 40
1.0
 40
1.0
 40
1.0
 10
85.05784264290278
 20
42.115472481175
 30
0.0
 10
84.98753042299439
 20
42.08755197661964
 30
0.0
 10
84.84690628726728
 20
42.03171108826097
 30
0.0
 10
84.57647899775626
 20
42.00781290964795
 30
0.0
 10
84.30605193209123
 20
42.03171089702505
 30
0.0
 10
84.16542808194984
 20
42.08755184401207
 30
0.0
 10
84.09511629441565
 20
42.11547226289058
 30
0.0
  0
SPLINE
  5
14F
330
2
100
AcDbEntity
  8
0
100
AcDbSpline
210
0.0
220
0.0
230
1.0
 70
     8
 71
     3
 72
    11
 73
     7
 74
     0
 42
0.000000001
 43
0.0000000001
 40
0.0
 40
0.0
 40
0.0
 40
0.0
 40
0.2500005099297956
 40
0.4999999386454089
 40
0.7500001733757149
 40
1.0
 40
1.0
 40
1.0
 40
1.0
 10
88.66554690196791
 20
57.18705859032815
 30
0.0
 10
88.73585912200551
 20
57.21497909491069
 30
0.0
 10
88.87648325799109
 20
57.27081998332398
 30
0.0
 10
89.1469105455638
 20
57.29471816152766
 30
0.0
 10
89.41733782409702
 20
57.27082015754518
 30
0.0
 10
89.55796177097454
 20
57.21497909754112
 30
0.0
 10
89.62827368702383
 20
57.18705859032815
 30
0.0
  0
LINE
  5
150
330
2
100
AcDbEntity
  8
0
100
AcDbLine
 10
85.85297415322093
 20
55.78077221593758
 30
0.0
 11
88.66554690198697
 21
57.18705859032059
 31
0.0
  0
LINE
  5
151
330
2
100
AcDbEntity
  8
0
100
AcDbLine
 10
89.628273687018
 20
57.18705859032059
 30
0.0
 11
101.9332808815808
 21
51.03455499308063
 31
0.0
  0
SPLINE
  5
152
330
2
100
AcDbEntity
  8
0
100
AcDbSpline
210
0.0
220
0.0
230
1.0
 70
     8
 71
     3
 72
    11
 73
     7
 74
     0
 42
0.000000001
 43
0.0000000001
 40
0.0
 40
0.0
 40
0.0
 40
0.0
 40
0.2499999290274844
 40
0.4999999433163378
 40
0.7499999576051915
 40
1.0
 40
1.0
 40
1.0
 40
1.0
 10
85.85297458980164
 20
55.29940904171707
 30
0.0
 10
85.7971336357972
 20
55.33456500346767
 30
0.0
 10
85.68545170874406
 20
55.4048769389588
 30
0.0
 10
85.63765470693201
 20
55.54009053203277
 30
0.0
 10
85.68545184636485
 20
55.67530407152822
 30
0.0
 10
85.79713338218423
 20
55.74561616649896
 30
0.0
 10
85.85297415323282
 20
55.78077221596061
 30
0.0
  0
SPLINE
  5
153
330
2
100
AcDbEntity
  8
0
100
AcDbSpline
210
0.0
220
0.0
230
1.0
 70
     8
 71
     3
 72
    10
 73
     6
 74
     0
 42
0.000000001
 43
0.0000000001
 40
0.0
 40
0.0
 40
0.0
 40
0.0
 40
0.4700057897491769
 40
0.9400123577158604
 40
1.0
 40
1.0
 40
1.0
 40
1.0
 10
85.83182195767852
 20
56.08745819078939
 30
0.0
 10
85.77559897014712
 20
56.05097240134603
 30
0.0
 10
85.66315290199248
 20
55.97800076204754
 30
0.0
 10
85.60572810874234
 20
55.87560419015909
 30
0.0
 10
85.62805067811689
 20
55.82461614578267
 30
0.0
 10
85.62454432416382
 20
55.81860997917431
 30
0.0
  0
SPLINE
  5
154
330
2
100
AcDbEntity
  8
0
100
AcDbSpline
210
0.0
220
0.0
230
1.0
 70
     8
 71
     3
 72
    12
 73
     8
 74
     0
 42
0.000000001
 43
0.0000000001
 40
0.0
 40
0.0
 40
0.0
 40
0.0
 40
0.0458967955526269
 40
0.3484175146263723
 40
0.6509386136704756
 40
0.9534598373905016
 40
1.0
 40
1.0
 40
1.0
 40
1.0
 10
85.6951748688847
 20
56.19797252957738
 30
0.0
 10
85.66107347541858
 20
56.1794899375206
 30
0.0
 10
85.63099290269812
 20
56.15120417807702
 30
0.0
 10
85.58132229933582
 20
56.09865921603557
 30
0.0
 10
85.53536901741839
 20
56.02292905478208
 30
0.0
 10
85.51829065704087
 20
55.96538491538854
 30
0.0
 10
85.52498695825903
 20
55.93498280497448
 30
0.0
 10
85.5258797724166
 20
55.93092930831819
 30
0.0
  0
LINE
  5
155
330
2
100
AcDbEntity
  8
0
100
AcDbLine
 10
86.26314146717895
 20
55.09432560302383
 30
0.0
 11
85.85297458976024
 21
55.29940904169172
 31
0.0
  0
LINE
  5
156
330
2
100
AcDbEntity
  8
0
100
AcDbLine
 10
98.15798222094521
 20
49.14690522618212
 30
0.0
 11
86.26314146717895
 21
55.09432560302383
 31
0.0
  0
SPLINE
  5
157
330
2
100
AcDbEntity
  8
0
100
AcDbSpline
210
0.0
220
0.0
230
1.0
 70
     8
 71
     3
 72
    11
 73
     7
 74
     0
 42
0.000000001
 43
0.0000000001
 40
0.0
 40
0.0
 40
0.0
 40
0.0
 40
0.2499998266242851
 40
0.5000000613545913
 40
0.7499994900702044
 40
1.0
 40
1.0
 40
1.0
 40
1.0
 10
101.9332808815884
 20
51.03455499304584
 30
0.0
 10
101.9891218960144
 20
50.99939903502122
 30
0.0
 10
102.1008040160225
 20
50.92908706158238
 30
0.0
 10
102.1486000239876
 20
50.79387342231587
 30
0.0
 10
102.10080366758
 20
50.6586597785294
 30
0.0
 10
101.9891218907536
 20
50.5883477105366
 30
0.0
 10
101.9332808815884
 20
50.55319160051789
 30
0.0
  0
SPLINE
  5
158
330
2
100
AcDbEntity
  8
0
100
AcDbSpline
210
0.0
220
0.0
230
1.0
 70
     8
 71
     3
 72
    10
 73
     6
 74
     0
 42
0.000000001
 43
0.0000000001
 40
0.0
 40
0.0
 40
0.0
 40
0.0
 40
0.0599868027336307
 40
0.5299927401271547
 40
1.0
 40
1.0
 40
1.0
 40
1.0
 10
102.1616731719483
 20
51.07202163943117
 30
0.0
 10
102.1600013521527
 20
51.08005972508033
 30
0.0
 10
102.1805260474526
 20
51.1293870527129
 30
0.0
 10
102.1231027200201
 20
51.23178345459677
 30
0.0
 10
102.0106566352135
 20
51.30475524141764
 30
0.0
 10
101.9544335137115
 20
51.34124118615904
 30
0.0
  0
LINE
  5
159
330
2
100
AcDbEntity
  8
0
100
AcDbLine
 10
101.9332808815808
 20
50.55319160048231
 30
0.0
 11
99.12070813281474
 21
49.14690522618212
 31
0.0
  0
SPLINE
  5
15A
330
2
100
AcDbEntity
  8
0
100
AcDbSpline
210
0.0
220
0.0
230
1.0
 70
     8
 71
     3
 72
    11
 73
     7
 74
     0
 42
0.000000001
 43
0.0000000001
 40
0.0
 40
0.0
 40
0.0
 40
0.0
 40
0.2500001848795824
 40
0.5000003416531934
 40
0.7500004984268047
 40
1.0
 40
1.0
 40
1.0
 40
1.0
 10
99.12070813285337
 20
49.14690522615029
 30
0.0
 10
99.05039603405942
 20
49.11898484065329
 30
0.0
 10
98.90977184437629
 20
49.06314407279814
 30
0.0
 10
98.63934476344704
 20
49.03924550267254
 30
0.0
 10
98.36891779016733
 20
49.06314398697276
 30
0.0
 10
98.22829401592125
 20
49.1189848374824
 30
0.0
 10
98.15798222093505
 20
49.14690522615029
 30
0.0
  0
LINE
  5
15B
330
2
100
AcDbEntity
  8
0
100
AcDbLine
 10
58.13741005074755
 20
41.03145989476667
 30
0.0
 11
57.72724317332883
 21
41.23654333351743
 31
0.0
  0
LINE
  5
15C
330
2
100
AcDbEntity
  8
0
100
AcDbLine
 10
70.03225080443093
 20
35.08403951792497
 30
0.0
 11
58.13741005074755
 21
41.03145989476667
 31
0.0
  0
LINE
  5
15D
330
2
100
AcDbEntity
  8
0
100
AcDbLine
 10
73.80754990168867
 20
36.49032611057766
 30
0.0
 11
70.99497627984402
 21
35.08403929965533
 31
0.0
  0
SPLINE
  5
15E
330
2
100
AcDbEntity
  8
0
100
AcDbSpline
210
0.0
220
0.0
230
1.0
 70
     8
 71
     3
 72
    11
 73
     7
 74
     0
 42
0.000000001
 43
0.0000000001
 40
0.0
 40
0.0
 40
0.0
 40
0.0
 40
0.2499998220808595
 40
0.5000006691662328
 40
0.7500000645501
 40
1.0
 40
1.0
 40
1.0
 40
1.0
 10
70.99497627981456
 20
35.08403929963089
 30
0.0
 10
70.92466431251349
 20
35.0561190524453
 30
0.0
 10
70.78404008963078
 20
35.00027844360062
 30
0.0
 10
70.51361329442162
 20
34.97637921373422
 30
0.0
 10
70.24318715615241
 20
35.00027921733107
 30
0.0
 10
70.10256297232515
 20
35.05611939761559
 30
0.0
 10
70.03225080446508
 20
35.0840395179153
 30
0.0
  0
LINE
  5
15F
330
2
100
AcDbEntity
  8
0
100
AcDbLine
 10
88.37429918635974
 20
59.6331364606279
 30
0.0
 11
94.8291126072174
 21
56.40572975019904
 31
0.0
  0
LINE
  5
160
330
2
100
AcDbEntity
  8
0
100
AcDbLine
 10
104.0409831586277
 20
51.79979447449392
 30
0.0
 11
97.58616973777002
 21
55.02720118492277
 31
0.0
  0
SPLINE
  5
161
330
2
100
AcDbEntity
  8
0
100
AcDbSpline
210
0.0
220
0.0
230
1.0
 70
     8
 71
     3
 72
    14
 73
    10
 74
     0
 42
0.000000001
 43
0.0000000001
 40
0.0
 40
0.0
 40
0.0
 40
0.0
 40
0.25
 40
0.25
 40
0.5
 40
0.5
 40
0.75
 40
0.75
 40
1.0
 40
1.0
 40
1.0
 40
1.0
 10
87.80551785679419
 20
60.21352894140751
 30
0.0
 10
87.77441009522069
 20
60.24489143920476
 30
0.0
 10
87.73682138907183
 20
60.2737885758666
 30
0.0
 10
87.6533040615749
 20
60.32160762443499
 30
0.0
 10
87.60748769954009
 20
60.34054706772213
 30
0.0
 10
87.51497979224533
 20
60.36496803904492
 30
0.0
 10
87.4683680066407
 20
60.37046836508188
 30
0.0
 10
87.38225019135578
 20
60.36671364333574
 30
0.0
 10
87.34285588533888
 20
60.35742643068079
 30
0.0
 10
87.31014556472663
 20
60.34110119223424
 30
0.0
  0
SPLINE
  5
162
330
2
100
AcDbEntity
  8
0
100
AcDbSpline
210
0.0
220
0.0
230
1.0
 70
     8
 71
     3
 72
     8
 73
     4
 74
     0
 42
0.000000001
 43
0.0000000001
 40
0.0
 40
0.0
 40
0.0
 40
0.0
 40
1.0
 40
1.0
 40
1.0
 40
1.0
 10
94.82911249118956
 20
56.40572958895171
 30
0.0
 10
94.83111374919586
 20
56.40472895706858
 30
0.0
 10
94.83279478657701
 20
56.4044151597443
 30
0.0
 10
94.83398801387608
 20
56.40525862684836
 30
0.0
  0
LINE
  5
163
330
2
100
AcDbEntity
  8
0
100
AcDbLine
 10
69.12764355231928
 20
51.24985472162871
 30
0.0
 11
87.31014087648844
 21
60.34110338371329
 31
0.0
  0
LINE
  5
164
330
2
100
AcDbEntity
  8
0
100
AcDbLine
 10
88.84130295753505
 20
60.21911955016964
 30
0.0
 11
88.83993911650913
 21
60.21985561543681
 31
0.0
  0
ARC
  5
165
330
2
100
AcDbEntity
  8
0
100
AcDbCircle
 10
89.146910757559
 20
55.91190019749689
 30
0.0
 40
1.801299385731312
100
AcDbArc
 50
65.97178147459996
 51
114.0282355769999
  0
LINE
  5
166
330
2
100
AcDbEntity
  8
0
100
AcDbLine
 10
94.07862211344058
 20
58.96966798032218
 30
0.0
 11
94.07621312679394
 21
58.97069226776665
 31
0.0
  0
LINE
  5
167
330
2
100
AcDbEntity
  8
0
100
AcDbLine
 10
94.06891347792171
 20
58.38266365571366
 30
0.0
 11
94.06891347792171
 21
58.25576917236077
 31
0.0
  0
SPLINE
  5
168
330
2
100
AcDbEntity
  8
0
100
AcDbSpline
210
0.0
220
0.0
230
1.0
 70
     8
 71
     3
 72
    17
 73
    13
 74
     0
 42
0.000000001
 43
0.0000000001
 40
0.0
 40
0.0
 40
0.0
 40
0.0
 40
0.0848012638161162
 40
0.1609249937713143
 40
0.2299122299569492
 40
0.29382235300119
 40
0.3807098293855566
 40
0.5004044160537072
 40
0.6185290302306429
 40
0.7069409677134716
 40
0.8376939980679438
 40
1.0
 40
1.0
 40
1.0
 40
1.0
 10
94.11285325950936
 20
58.20272931526557
 30
0.0
 10
94.11130222917504
 20
58.20247677637451
 30
0.0
 10
94.10835888215805
 20
58.20199754036252
 30
0.0
 10
94.10384228817409
 20
58.2022690611775
 30
0.0
 10
94.09956515027641
 20
58.20339333835562
 30
0.0
 10
94.09495362979857
 20
58.20562734288376
 30
0.0
 10
94.08951366787141
 20
58.21041883698308
 30
0.0
 10
94.08353654723505
 20
58.21725709318252
 30
0.0
 10
94.07780325274572
 20
58.22457221979448
 30
0.0
 10
94.07258481604513
 20
58.23306737994852
 30
0.0
 10
94.06935180104317
 20
58.24393006711779
 30
0.0
 10
94.06906972202675
 20
58.25154943616809
 30
0.0
 10
94.06891349712891
 20
58.25576930039858
 30
0.0
  0
LINE
  5
169
330
2
100
AcDbEntity
  8
0
100
AcDbLine
 10
94.11285325579394
 20
58.20272924869033
 30
0.0
 11
94.24652102179978
 21
58.23041277576141
 31
0.0
  0
SPLINE
  5
16A
330
2
100
AcDbEntity
  8
0
100
AcDbSpline
210
0.0
220
0.0
230
1.0
 70
     8
 71
     3
 72
    11
 73
     7
 74
     0
 42
0.000000001
 43
0.0000000001
 40
0.0
 40
0.0
 40
0.0
 40
0.0
 40
0.2867724689101007
 40
0.5735424443665094
 40
0.8603159234826033
 40
1.0
 40
1.0
 40
1.0
 40
1.0
 10
94.06891347791987
 20
58.38266365572923
 30
0.0
 10
94.06917942114942
 20
58.38573897370906
 30
0.0
 10
94.06971130529617
 20
58.39188958292919
 30
0.0
 10
94.07299886933444
 20
58.39907244952541
 30
0.0
 10
94.07681140730208
 20
58.40374283814293
 30
0.0
 10
94.07992765783736
 20
58.4048947140522
 30
0.0
 10
94.08094837038536
 20
58.40527200534535
 30
0.0
  0
SPLINE
  5
16B
330
2
100
AcDbEntity
  8
0
100
AcDbSpline
210
0.0
220
0.0
230
1.0
 70
     8
 71
     3
 72
    12
 73
     8
 74
     0
 42
0.000000001
 43
0.0000000001
 40
0.0
 40
0.0
 40
0.0
 40
0.0
 40
0.2119951302507635
 40
0.4239821761320445
 40
0.6359744264797687
 40
0.8479654542454685
 40
1.0
 40
1.0
 40
1.0
 40
1.0
 10
98.06804751748465
 20
56.22513211782086
 30
0.0
 10
98.07043092020126
 20
56.22265790129876
 30
0.0
 10
98.07519763474424
 20
56.21770956260809
 30
0.0
 10
98.08309372041762
 20
56.21279991989848
 30
0.0
 10
98.09081155553952
 20
56.21030265878454
 30
0.0
 10
98.09744572164184
 20
56.21013683207014
 30
0.0
 10
98.10077908952624
 20
56.21191573398323
 30
0.0
 10
98.10217126389259
 20
56.21265868877532
 30
0.0
  0
LINE
  5
16C
330
2
100
AcDbEntity
  8
0
100
AcDbLine
 10
94.07849136113425
 20
58.59269022510182
 30
0.0
 11
94.08781974522797
 21
58.59655001790099
 31
0.0
  0
SPLINE
  5
16D
330
2
100
AcDbEntity
  8
0
100
AcDbSpline
210
0.0
220
0.0
230
1.0
 70
     8
 71
     3
 72
    17
 73
    13
 74
     0
 42
0.000000001
 43
0.0000000001
 40
0.0
 40
0.0
 40
0.0
 40
0.0
 40
0.0848012638184588
 40
0.1609249937750847
 40
0.2299122299611894
 40
0.2938223530049772
 40
0.3807098293869412
 40
0.50040441605349
 40
0.618529030230559
 40
0.7069409677112729
 40
0.8376939980661109
 40
1.0
 40
1.0
 40
1.0
 40
1.0
 10
94.12853155562888
 20
58.2867251985088
 30
0.0
 10
94.12858012680002
 20
58.28454176979306
 30
0.0
 10
94.12867229895722
 20
58.28039833800153
 30
0.0
 10
94.12952573304172
 20
58.27418766151959
 30
0.0
 10
94.13094708940141
 20
58.26843324763695
 30
0.0
 10
94.13320211069072
 20
58.26237860303473
 30
0.0
 10
94.13738687263993
 20
58.255552027676
 30
0.0
 10
94.14309757902131
 20
58.24828182862512
 30
0.0
 10
94.14910977619268
 20
58.24141889260528
 30
0.0
 10
94.15588098390619
 20
58.2354412716831
 30
0.0
 10
94.16403552775083
 20
58.23255795934784
 30
0.0
 10
94.1694645447902
 20
58.23328342562138
 30
0.0
 10
94.17247131800994
 20
58.23368521337539
 30
0.0
  0
LINE
  5
16E
330
2
100
AcDbEntity
  8
0
100
AcDbLine
 10
94.30307065330152
 20
58.26073335300975
 30
0.0
 11
94.17247131114795
 21
58.23368536734057
 31
0.0
  0
LINE
  5
16F
330
2
100
AcDbEntity
  8
0
100
AcDbLine
 10
94.12853153327569
 20
58.40928053486852
 30
0.0
 11
94.12853153327569
 21
58.28672529101107
 31
0.0
  0
SPLINE
  5
170
330
2
100
AcDbEntity
  8
0
100
AcDbSpline
210
0.0
220
0.0
230
1.0
 70
     8
 71
     3
 72
    17
 73
    13
 74
     0
 42
0.000000001
 43
0.0000000001
 40
0.0
 40
0.0
 40
0.0
 40
0.0
 40
0.0848012638168241
 40
0.1609249937722525
 40
0.2299122299577954
 40
0.2938223530018386
 40
0.3807098293856365
 40
0.5004044160545878
 40
0.6185290302324941
 40
0.7069409677145523
 40
0.8376939980686445
 40
1.0
 40
1.0
 40
1.0
 40
1.0
 10
94.17247131800936
 20
58.418380614547
 30
0.0
 10
94.17092028767504
 20
58.42018418377268
 30
0.0
 10
94.16797694065804
 20
58.42360676680164
 30
0.0
 10
94.16346034667407
 20
58.42785183997079
 30
0.0
 10
94.15918320877642
 20
58.43100470069038
 30
0.0
 10
94.15457168829854
 20
58.43338221664009
 30
0.0
 10
94.14913172637138
 20
58.43403068446793
 30
0.0
 10
94.14315460573503
 20
58.43316954890468
 30
0.0
 10
94.13742131124569
 20
58.4315877167819
 30
0.0
 10
94.1322028745451
 20
58.42831099332835
 30
0.0
 10
94.12896985954317
 20
58.42068132116105
 30
0.0
 10
94.12868778052674
 20
58.41334403112728
 30
0.0
 10
94.12853155562888
 20
58.40928039179454
 30
0.0
  0
LINE
  5
171
330
2
100
AcDbEntity
  8
0
100
AcDbLine
 10
94.17247131114795
 20
58.41838068074958
 30
0.0
 11
94.30307065330152
 21
58.26073335300975
 31
0.0
  0
LINE
  5
172
330
2
100
AcDbEntity
  8
0
100
AcDbLine
 10
94.30307065330152
 20
58.26073335300975
 30
0.0
 11
94.24652102179978
 21
58.23041277576141
 31
0.0
  0
SPLINE
  5
173
330
2
100
AcDbEntity
  8
0
100
AcDbSpline
210
0.0
220
0.0
230
1.0
 70
     8
 71
     3
 72
    10
 73
     6
 74
     0
 42
0.000000001
 43
0.0000000001
 40
0.0
 40
0.0
 40
0.0
 40
0.0
 40
0.3729362185229793
 40
0.7299748625033407
 40
1.0
 40
1.0
 40
1.0
 40
1.0
 10
94.47496984164279
 20
59.07983424057198
 30
0.0
 10
94.51957329803802
 20
59.14598792560775
 30
0.0
 10
94.60687884877861
 20
59.27547528762733
 30
0.0
 10
94.75657158231685
 20
59.41229323527545
 30
0.0
 10
94.86541240739738
 20
59.4700290008738
 30
0.0
 10
94.89436263347959
 20
59.48483672470246
 30
0.0
  0
SPLINE
  5
174
330
2
100
AcDbEntity
  8
0
100
AcDbSpline
210
0.0
220
0.0
230
1.0
 70
     8
 71
     3
 72
     8
 73
     4
 74
     0
 42
0.000000001
 43
0.0000000001
 40
0.0
 40
0.0
 40
0.0
 40
0.0
 40
1.0
 40
1.0
 40
1.0
 40
1.0
 10
97.58616951897039
 20
55.02720107506121
 30
0.0
 10
97.58417419811619
 20
55.02819873261706
 30
0.0
 10
97.58247629289002
 20
55.02956933538388
 30
0.0
 10
97.58123707340848
 20
55.03163409496647
 30
0.0
  0
LINE
  5
175
330
2
100
AcDbEntity
  8
0
100
AcDbLine
 10
98.12562024800682
 20
56.25711089891115
 30
0.0
 11
98.09763749677465
 21
56.29088884294441
 31
0.0
  0
SPLINE
  5
176
330
2
100
AcDbEntity
  8
0
100
AcDbSpline
210
0.0
220
0.0
230
1.0
 70
     8
 71
     3
 72
    14
 73
    10
 74
     0
 42
0.000000001
 43
0.0000000001
 40
0.0
 40
0.0
 40
0.0
 40
0.0
 40
0.25
 40
0.25
 40
0.5
 40
0.5
 40
0.75
 40
0.75
 40
1.0
 40
1.0
 40
1.0
 40
1.0
 10
98.12562014334785
 20
56.44180620187819
 30
0.0
 10
98.13020112812921
 20
56.44279637619928
 30
0.0
 10
98.13543634720133
 20
56.44198103064667
 30
0.0
 10
98.14583733548477
 20
56.43695390011135
 30
0.0
 10
98.1509902574875
 20
56.43274832459571
 30
0.0
 10
98.1598446994996
 20
56.42206006759943
 30
0.0
 10
98.1635352825806
 20
56.41559058815909
 30
0.0
 10
98.16847180523438
 20
56.40210370523573
 30
0.0
 10
98.16971164725812
 20
56.39510296063099
 30
0.0
 10
98.16955990572843
 20
56.3887662167453
 30
0.0
  0
LINE
  5
177
330
2
100
AcDbEntity
  8
0
100
AcDbLine
 10
98.16956002587904
 20
56.38876628864972
 30
0.0
 11
98.16956002587904
 21
56.26621104470934
 31
0.0
  0
SPLINE
  5
178
330
2
100
AcDbEntity
  8
0
100
AcDbSpline
210
0.0
220
0.0
230
1.0
 70
     8
 71
     3
 72
    14
 73
    10
 74
     0
 42
0.000000001
 43
0.0000000001
 40
0.0
 40
0.0
 40
0.0
 40
0.0
 40
0.25
 40
0.25
 40
0.5
 40
0.5
 40
0.75
 40
0.75
 40
1.0
 40
1.0
 40
1.0
 40
1.0
 10
98.16955990572843
 20
56.26621102345899
 30
0.0
 10
98.16971164725817
 20
56.26003141252704
 30
0.0
 10
98.16847180523453
 20
56.25453126240478
 30
0.0
 10
98.16353528258083
 20
56.24633753251851
 30
0.0
 10
98.1598446994999
 20
56.24365407357709
 30
0.0
 10
98.15099025748788
 20
56.24182025859261
 30
0.0
 10
98.14583733548515
 20
56.24267216766174
 30
0.0
 10
98.13543634720168
 20
56.24768939502621
 30
0.0
 10
98.13020112812957
 20
56.25184851608685
 30
0.0
 10
98.12562014334815
 20
56.25711080070579
 30
0.0
  0
LINE
  5
179
330
2
100
AcDbEntity
  8
0
100
AcDbLine
 10
102.386442801921
 20
50.67159379151064
 30
0.0
 11
102.3962005515094
 21
50.6752419210008
 31
0.0
  0
SPLINE
  5
17A
330
2
100
AcDbEntity
  8
0
100
AcDbSpline
210
0.0
220
0.0
230
1.0
 70
     8
 71
     3
 72
     9
 73
     5
 74
     0
 42
0.000000001
 43
0.0000000001
 40
0.0
 40
0.0
 40
0.0
 40
0.0
 40
0.8256891912692594
 40
1.0
 40
1.0
 40
1.0
 40
1.0
 10
71.30531296674718
 20
48.47947093950932
 30
0.0
 10
71.28360340204619
 20
48.49626710648869
 30
0.0
 10
71.25731074261631
 20
48.51660910340115
 30
0.0
 10
71.23692733319848
 20
48.53874396978693
 30
0.0
 10
71.23337428461818
 20
48.54260231624778
 30
0.0
  0
LINE
  5
17B
330
2
100
AcDbEntity
  8
0
100
AcDbLine
 10
103.9206735251724
 20
50.99372485771858
 30
0.0
 11
103.9123114861338
 21
50.98928213669643
 31
0.0
  0
LWPOLYLINE
  5
17C
330
2
100
AcDbEntity
  8
0
100
AcDbPolyline
 90
        3
 70
   128
 43
0.0
 10
86.77354279769719
 20
42.42872700849995
 10
86.81317626081662
 20
42.44030266023758
 10
86.82611703361487
 20
42.44618491047839
  0
SPLINE
  5
17D
330
2
100
AcDbEntity
  8
0
100
AcDbSpline
210
0.0
220
0.0
230
1.0
 70
     8
 71
     3
 72
    12
 73
     8
 74
     0
 42
0.000000001
 43
0.0000000001
 40
0.0
 40
0.0
 40
0.0
 40
0.0
 40
0.1917387235784436
 40
0.3969216241067544
 40
0.6165657590170516
 40
0.8514962194399251
 40
1.0
 40
1.0
 40
1.0
 40
1.0
 10
69.12764355233424
 20
51.24985472166361
 30
0.0
 10
69.11335677705593
 20
51.24140789055866
 30
0.0
 10
69.08378147822803
 20
51.22392196044438
 30
0.0
 10
69.05060803346618
 20
51.18585415409251
 30
0.0
 10
69.02897615660267
 20
51.1387444254326
 30
0.0
 10
69.01877474959817
 20
51.09125477391211
 30
0.0
 10
69.02740283441779
 20
51.05896364373364
 30
0.0
 10
69.03074448489587
 20
51.04645731436193
 30
0.0
  0
SPLINE
  5
17E
330
2
100
AcDbEntity
  8
0
100
AcDbSpline
210
0.0
220
0.0
230
1.0
 70
     8
 71
     3
 72
    10
 73
     6
 74
     0
 42
0.000000001
 43
0.0000000001
 40
0.0
 40
0.0
 40
0.0
 40
0.0
 40
0.3987798180023464
 40
0.8018937525490134
 40
1.0
 40
1.0
 40
1.0
 40
1.0
 10
85.37980995958021
 20
42.20660062065457
 30
0.0
 10
85.32551018042539
 20
42.18249535935126
 30
0.0
 10
85.21632046794911
 20
42.13402285003644
 30
0.0
 10
85.05489992422525
 20
42.09030282180208
 30
0.0
 10
84.95100417231318
 20
42.07378451688026
 30
0.0
 10
84.91676979669888
 20
42.06834162008425
 30
0.0
  0
SPLINE
  5
17F
330
2
100
AcDbEntity
  8
0
100
AcDbSpline
210
0.0
220
0.0
230
1.0
 70
     8
 71
     3
 72
    18
 73
    14
 74
     0
 42
0.000000001
 43
0.0000000001
 40
0.0
 40
0.0
 40
0.0
 40
0.0
 40
0.0006894454503746
 40
0.0800436177526003
 40
0.0812676401886872
 40
0.0912509380769666
 40
0.1192205927844499
 40
0.2244992145247181
 40
0.3300014666757919
 40
0.4624052219567413
 40
0.6205234560014114
 40
0.9168014912778875
 40
1.0
 40
1.0
 40
1.0
 40
1.0
 10
84.19823821371325
 20
42.08102030914716
 30
0.0
 10
84.19815176905386
 20
42.08103651293595
 30
0.0
 10
84.18811566935927
 20
42.08291774932746
 30
0.0
 10
84.17809173225654
 20
42.08506871565567
 30
0.0
 10
84.16692580112803
 20
42.08743407961901
 30
0.0
 10
84.16210500287229
 20
42.08846355921179
 30
0.0
 10
84.14452061602649
 20
42.09229345807108
 30
0.0
 10
84.11548763264381
 20
42.09907948765994
 30
0.0
 10
84.07450251334998
 20
42.10976381476837
 30
0.0
 10
84.02824040506205
 20
42.12325168852351
 30
0.0
 10
83.96208945601859
 20
42.14534641320011
 30
0.0
 10
83.90377183781557
 20
42.16770189050982
 30
0.0
 10
83.86685845278607
 20
42.18593844136967
 30
0.0
 10
83.85876536077574
 20
42.18993672231682
 30
0.0
  0
SPLINE
  5
180
330
2
100
AcDbEntity
  8
0
100
AcDbSpline
210
0.0
220
0.0
230
1.0
 70
     8
 71
     3
 72
    13
 73
     9
 74
     0
 42
0.000000001
 43
0.0000000001
 40
0.0
 40
0.0
 40
0.0
 40
0.0
 40
0.1686865297914307
 40
0.3369222902665711
 40
0.5044509948893161
 40
0.6710007440129867
 40
0.8362843987354089
 40
1.0
 40
1.0
 40
1.0
 40
1.0
 10
85.3248035521238
 20
42.15255855084637
 30
0.0
 10
85.33408107682708
 20
42.15595009148739
 30
0.0
 10
85.35261133454779
 20
42.16272410979053
 30
0.0
 10
85.38058030534546
 20
42.17380823687938
 30
0.0
 10
85.40857398582277
 20
42.18551160661013
 30
0.0
 10
85.43655071755834
 20
42.19788389078286
 30
0.0
 10
85.46443283520025
 20
42.21080518086296
 30
0.0
 10
85.48303865732876
 20
42.21996884091606
 30
0.0
 10
85.49229722950286
 20
42.22452883334187
 30
0.0
  0
SPLINE
  5
181
330
2
100
AcDbEntity
  8
0
100
AcDbSpline
210
0.0
220
0.0
230
1.0
 70
     8
 71
     3
 72
    13
 73
     9
 74
     0
 42
0.000000001
 43
0.0000000001
 40
0.0
 40
0.0
 40
0.0
 40
0.0
 40
0.085394192616168
 40
0.2602573986400981
 40
0.4698291455353913
 40
0.7014574358858257
 40
0.9426335996132571
 40
1.0
 40
1.0
 40
1.0
 40
1.0
 10
85.26938249776737
 20
42.13062556499244
 30
0.0
 10
85.26830193990955
 20
42.1299185045192
 30
0.0
 10
85.26500870452037
 20
42.12776358374753
 30
0.0
 10
85.27727212891958
 20
42.12856740151022
 30
0.0
 10
85.30532043489879
 20
42.13228832734915
 30
0.0
 10
85.35189584484223
 20
42.1400647386838
 30
0.0
 10
85.39608535587431
 20
42.14775457420944
 30
0.0
 10
85.42534695451399
 20
42.15381573122551
 30
0.0
 10
85.4309697124899
 20
42.15498041191767
 30
0.0
  0
SPLINE
  5
182
330
2
100
AcDbEntity
  8
0
100
AcDbSpline
210
0.0
220
0.0
230
1.0
 70
     8
 71
     3
 72
    10
 73
     6
 74
     0
 42
0.000000001
 43
0.0000000001
 40
0.0
 40
0.0
 40
0.0
 40
0.0
 40
0.4358768357935369
 40
0.8891494209030724
 40
1.0
 40
1.0
 40
1.0
 40
1.0
 10
86.77354105145724
 20
42.42873309484861
 30
0.0
 10
86.71932450685709
 20
42.40413834764729
 30
0.0
 10
86.60872764720332
 20
42.35396728225572
 30
0.0
 10
86.48449294367045
 20
42.31665308076282
 30
0.0
 10
86.41615786758192
 20
42.30755917477887
 30
0.0
 10
86.40272997942259
 20
42.30577221617034
 30
0.0
  0
SPLINE
  5
183
330
2
100
AcDbEntity
  8
0
100
AcDbSpline
210
0.0
220
0.0
230
1.0
 70
     8
 71
     3
 72
     9
 73
     5
 74
     0
 42
0.000000001
 43
0.0000000001
 40
0.0
 40
0.0
 40
0.0
 40
0.0
 40
0.5530116175254897
 40
1.0
 40
1.0
 40
1.0
 40
1.0
 10
104.6801225201452
 20
52.40516052990824
 30
0.0
 10
104.7003453786792
 20
52.4993788007282
 30
0.0
 10
104.736913974877
 20
52.66975184142762
 30
0.0
 10
104.7407396644812
 20
52.86153411891013
 30
0.0
 10
104.7424497032892
 20
52.94725856890926
 30
0.0
  0
ARC
  5
184
330
2
100
AcDbEntity
  8
0
100
AcDbCircle
 10
104.7184568222596
 20
52.94680055196852
 30
0.0
 40
0.0239972523129781
100
AcDbArc
 50
1.09362645540002
 51
59.23889046820026
  0
LINE
  5
185
330
2
100
AcDbEntity
  8
0
100
AcDbLine
 10
104.3670337034468
 20
53.1492699384072
 30
0.0
 11
104.7307304500497
 21
52.96742156506434
 31
0.0
  0
LINE
  5
186
330
2
100
AcDbEntity
  8
0
100
AcDbLine
 10
104.3670337034468
 20
53.1492699384072
 30
0.0
 11
104.3670337034468
 21
52.4832917181331
 31
0.0
  0
LINE
  5
187
330
2
100
AcDbEntity
  8
0
100
AcDbLine
 10
104.5955329469771
 20
52.36904209640937
 30
0.0
 11
104.3670337034468
 21
52.4832917181331
 31
0.0
  0
ARC
  5
188
330
2
100
AcDbEntity
  8
0
100
AcDbCircle
 10
104.6257417233434
 20
52.4154068165725
 30
0.0
 40
0.0553376675506406
100
AcDbArc
 50
236.9138816319996
 51
349.3295768846994
  0
LINE
  5
189
330
2
100
AcDbEntity
  8
0
100
AcDbLine
 10
103.6052944684471
 20
52.87851416359945
 30
0.0
 11
103.6052944684471
 21
53.51578672794056
 31
0.0
  0
ARC
  5
18A
330
2
100
AcDbEntity
  8
0
100
AcDbCircle
 10
103.5813072700098
 20
53.51538260905198
 30
0.0
 40
0.0239906023614918
100
AcDbArc
 50
0.9651862623992641
 51
59.24280427540017
  0
LINE
  5
18B
330
2
100
AcDbEntity
  8
0
100
AcDbLine
 10
103.5320032961358
 20
53.56678514197989
 30
0.0
 11
103.5935760884096
 21
53.53599874588446
 31
0.0
  0
ARC
  5
18C
330
2
100
AcDbEntity
  8
0
100
AcDbCircle
 10
103.3520602585116
 20
53.2528173762305
 30
0.0
 40
0.3618774028924065
100
AcDbArc
 50
60.18186379370034
 51
108.1636944760001
  0
LINE
  5
18D
330
2
100
AcDbEntity
  8
0
100
AcDbLine
 10
103.2392511643789
 20
53.59666234569431
 30
0.0
 11
102.9548536500781
 21
53.48448126299195
 31
0.0
  0
LINE
  5
18E
330
2
100
AcDbEntity
  8
0
100
AcDbLine
 10
103.5935760884096
 20
52.87002052569312
 30
0.0
 11
103.3778719888219
 21
52.97787257545206
 31
0.0
  0
LWPOLYLINE
  5
18F
330
2
100
AcDbEntity
  8
0
100
AcDbPolyline
 90
        9
 70
   128
 43
0.0
 10
103.5935760884096
 20
52.87002052569312
 10
103.5958619626849
 20
52.86915335254064
 10
103.5980605232154
 20
52.86887080421422
 10
103.600086202496
 20
52.86918425178391
 10
103.601862164471
 20
52.87008131801787
 10
103.6033194311237
 20
52.87152765129992
 10
103.604402994938
 20
52.87346721077222
 10
103.6050691989172
 20
52.87582665078753
 10
103.6052944684471
 20
52.87851416359945
  0
ARC
  5
190
330
2
100
AcDbEntity
  8
0
100
AcDbCircle
 10
104.255153888884
 20
53.14257799401531
 30
0.0
 40
0.0239896851115274
100
AcDbArc
 50
0.9641652213000108
 51
59.24645611420004
  0
LINE
  5
191
330
2
100
AcDbEntity
  8
0
100
AcDbLine
 10
104.2674209242511
 20
53.16319412446699
 30
0.0
 11
103.7049063744813
 21
53.44445139931048
 31
0.0
  0
LWPOLYLINE
  5
192
330
2
100
AcDbEntity
  8
0
100
AcDbPolyline
 90
        9
 70
   128
 43
0.0
 10
103.7049063744813
 20
53.44445139931048
 10
103.7026205002059
 20
53.44531870612621
 10
103.7004219396755
 20
53.44560125445264
 10
103.6983962603121
 20
53.44528753963937
 10
103.6966202984199
 20
53.444390740649
 10
103.6951630316844
 20
53.44294427370368
 10
103.6940794679529
 20
53.44100458065099
 10
103.6934123908122
 20
53.43864571075534
 10
103.6931879944438
 20
53.43595776148697
  0
LINE
  5
193
330
2
100
AcDbEntity
  8
0
100
AcDbLine
 10
103.6931879944438
 20
53.43595776148697
 30
0.0
 11
103.6931879944438
 21
52.97809594717847
 31
0.0
  0
ARC
  5
194
330
2
100
AcDbEntity
  8
0
100
AcDbCircle
 10
103.7171755046239
 20
52.97850011048336
 30
0.0
 40
0.0239909148605255
100
AcDbArc
 50
180.9652798023001
 51
239.2423818944001
  0
LINE
  5
195
330
2
100
AcDbEntity
  8
0
100
AcDbLine
 10
103.7049063744813
 20
52.95788379557137
 30
0.0
 11
104.2674209242511
 21
52.67662652072795
 31
0.0
  0
LWPOLYLINE
  5
196
330
2
100
AcDbEntity
  8
0
100
AcDbPolyline
 90
        9
 70
   128
 43
0.0
 10
104.2674209242511
 20
52.67662652072795
 10
104.2697076716879
 20
52.67575904461648
 10
104.2719062322184
 20
52.67547649637293
 10
104.273931911499
 20
52.67578994385974
 10
104.275707873474
 20
52.67668701017658
 10
104.2771651401267
 20
52.67813334337581
 10
104.278248703941
 20
52.68007290284811
 10
104.2789149079202
 20
52.68243234294629
 10
104.2791401774501
 20
52.68511985567534
  0
LINE
  5
197
330
2
100
AcDbEntity
  8
0
100
AcDbLine
 10
104.2791401774501
 20
52.68511985567534
 30
0.0
 11
104.2791401774501
 21
53.14298166990102
 31
0.0
  0
LINE
  5
198
330
2
100
AcDbEntity
  8
0
100
AcDbLine
 10
102.8376075108685
 20
53.57096684619921
 30
0.0
 11
103.1875893573487
 21
53.70958093810509
 31
0.0
  0
ARC
  5
199
330
2
100
AcDbEntity
  8
0
100
AcDbCircle
 10
103.3203059427369
 20
53.30505741048227
 30
0.0
 40
0.4257381548035434
100
AcDbArc
 50
60.18191881189964
 51
108.1636935607001
  0
LINE
  5
19A
330
2
100
AcDbEntity
  8
0
100
AcDbLine
 10
103.5320032961358
 20
53.67443148510204
 30
0.0
 11
104.7423728671929
 21
53.06924669961489
 31
0.0
  0
ARC
  5
19B
330
2
100
AcDbEntity
  8
0
100
AcDbCircle
 10
104.650281871487
 20
52.91455589316831
 30
0.0
 40
0.1800277675731836
100
AcDbArc
 50
1.317752015900618
 51
59.23368838670026
  0
SPLINE
  5
19C
330
2
100
AcDbEntity
  8
0
100
AcDbSpline
210
0.0
220
0.0
230
1.0
 70
     8
 71
     3
 72
     9
 73
     5
 74
     0
 42
0.000000001
 43
0.0000000001
 40
0.0
 40
0.0
 40
0.0
 40
0.0
 40
0.5657457898503889
 40
1.0
 40
1.0
 40
1.0
 40
1.0
 10
104.8302620274556
 20
52.91869600682679
 30
0.0
 10
104.8276883809209
 20
52.80179677716216
 30
0.0
 10
104.8231392590699
 20
52.59516823168849
 30
0.0
 10
104.782402901328
 20
52.41281837619607
 30
0.0
 10
104.7647129664724
 20
52.33363218372836
 30
0.0
  0
ARC
  5
19D
330
2
100
AcDbEntity
  8
0
100
AcDbCircle
 10
104.6587455885517
 20
52.35159911375006
 30
0.0
 40
0.1074797458117602
100
AcDbArc
 50
249.7805148497997
 51
350.376930785499
  0
SPLINE
  5
19E
330
2
100
AcDbEntity
  8
0
100
AcDbSpline
210
0.0
220
0.0
230
1.0
 70
     8
 71
     3
 72
     9
 73
     5
 74
     0
 42
0.000000001
 43
0.0000000001
 40
0.0
 40
0.0
 40
0.0
 40
0.0
 40
0.5530116175254897
 40
1.0
 40
1.0
 40
1.0
 40
1.0
 10
87.70586256496914
 20
61.50908863061215
 30
0.0
 10
87.68563970643514
 20
61.41487035979224
 30
0.0
 10
87.64907111023731
 20
61.24449731909283
 30
0.0
 10
87.64524542063316
 20
61.05271504161033
 30
0.0
 10
87.64353538182517
 20
60.96699059161114
 30
0.0
  0
ARC
  5
19F
330
2
100
AcDbEntity
  8
0
100
AcDbCircle
 10
87.66752826280894
 20
60.96744860856507
 30
0.0
 40
0.0239972523130197
100
AcDbArc
 50
181.0936264554
 51
239.2388904682003
  0
LINE
  5
1A0
330
2
100
AcDbEntity
  8
0
100
AcDbLine
 10
88.01895138170461
 20
60.76497922212633
 30
0.0
 11
87.65525463501878
 21
60.94682759546924
 31
0.0
  0
LINE
  5
1A1
330
2
100
AcDbEntity
  8
0
100
AcDbLine
 10
88.01895138170461
 20
60.76497922212633
 30
0.0
 11
88.01895138170461
 21
61.43095744231766
 31
0.0
  0
LINE
  5
1A2
330
2
100
AcDbEntity
  8
0
100
AcDbLine
 10
87.79045213817425
 20
61.54520706412426
 30
0.0
 11
88.01895138170461
 21
61.43095744231766
 31
0.0
  0
ARC
  5
1A3
330
2
100
AcDbEntity
  8
0
100
AcDbCircle
 10
87.76024332708704
 20
61.49884242508716
 30
0.0
 40
0.0553376184632667
100
AcDbArc
 50
56.91380568890045
 51
169.3296528277999
  0
LINE
  5
1A4
330
2
100
AcDbEntity
  8
0
100
AcDbLine
 10
88.7806906167043
 20
61.03573499693414
 30
0.0
 11
88.7806906167043
 21
60.39846243259302
 31
0.0
  0
ARC
  5
1A5
330
2
100
AcDbEntity
  8
0
100
AcDbCircle
 10
88.80467768205845
 20
60.39886647433315
 30
0.0
 40
0.0239904680495129
100
AcDbArc
 50
180.9650074373002
 51
239.2429831005998
  0
LINE
  5
1A6
330
2
100
AcDbEntity
  8
0
100
AcDbLine
 10
88.85398178901562
 20
60.34746401847081
 30
0.0
 11
88.79240899674181
 21
60.37825041464913
 31
0.0
  0
ARC
  5
1A7
330
2
100
AcDbEntity
  8
0
100
AcDbCircle
 10
89.0339250155748
 20
60.66143363628049
 30
0.0
 40
0.3618791036802015
100
AcDbArc
 50
240.1819836351002
 51
288.1635746345999
  0
LINE
  5
1A8
330
2
100
AcDbEntity
  8
0
100
AcDbLine
 10
89.14673392068962
 20
60.31758681483927
 30
0.0
 11
89.73506540376373
 21
60.54693584022044
 31
0.0
  0
LWPOLYLINE
  5
1A9
330
2
100
AcDbEntity
  8
0
100
AcDbPolyline
 90
        9
 70
   128
 43
0.0
 10
89.73506540376373
 20
60.54693584022044
 10
89.73765818597151
 20
60.54881494587653
 10
89.7393228227995
 20
60.55198367839046
 10
89.7398964742306
 20
60.55613206817099
 10
89.7393228227995
 20
60.5608541093826
 10
89.73765818597151
 20
60.56568774613385
 10
89.73506540376373
 20
60.57015936658842
 10
89.73179855937202
 20
60.57383154427339
 10
89.72817722103162
 20
60.57634452265415
  0
LINE
  5
1AA
330
2
100
AcDbEntity
  8
0
100
AcDbLine
 10
88.79240899674181
 20
61.04422863484046
 30
0.0
 11
89.72817722103162
 21
60.57634452265415
 31
0.0
  0
LWPOLYLINE
  5
1AB
330
2
100
AcDbEntity
  8
0
100
AcDbPolyline
 90
        9
 70
   128
 43
0.0
 10
88.79240899674181
 20
61.04422863484046
 10
88.79012312246644
 20
61.0450959416562
 10
88.78792456193602
 20
61.04537848998262
 10
88.78589888257256
 20
61.04506477508647
 10
88.78412292068041
 20
61.04416797617898
 10
88.78266565394488
 20
61.04272150923367
 10
88.78158209021345
 20
61.04078181609811
 10
88.78091588615134
 20
61.03842250974605
 10
88.7806906167043
 20
61.03573499693414
  0
ARC
  5
1AC
330
2
100
AcDbEntity
  8
0
100
AcDbCircle
 10
88.13083209652615
 20
60.77167155217773
 30
0.0
 40
0.0239905918257869
100
AcDbArc
 50
180.965050016
 51
239.2452424764997
  0
LINE
  5
1AD
330
2
100
AcDbEntity
  8
0
100
AcDbLine
 10
88.1185641609003
 20
60.75105490240332
 30
0.0
 11
88.68107871058722
 21
60.46979762747702
 31
0.0
  0
LWPOLYLINE
  5
1AE
330
2
100
AcDbEntity
  8
0
100
AcDbPolyline
 90
        9
 70
   128
 43
0.0
 10
88.68107871058722
 20
60.46979762747702
 10
88.68336458494544
 20
60.46893058798776
 10
88.68556314547587
 20
60.46864803974421
 10
88.68758882475646
 20
60.46896148723101
 10
88.68936478673148
 20
60.46985855354785
 10
88.69082205338413
 20
60.47130488674707
 10
88.69190561719845
 20
60.47324444621938
 10
88.69257269433916
 20
60.47560344969531
 10
88.6927970907076
 20
60.47829139904661
  0
LINE
  5
1AF
330
2
100
AcDbEntity
  8
0
100
AcDbLine
 10
88.6927970907076
 20
60.47829139904661
 30
0.0
 11
88.6927970907076
 21
60.93615321327224
 31
0.0
  0
ARC
  5
1B0
330
2
100
AcDbEntity
  8
0
100
AcDbCircle
 10
88.668810480952
 20
60.9357494357925
 30
0.0
 40
0.0239900079837863
100
AcDbArc
 50
0.9643948808000548
 51
59.24359565710021
  0
LINE
  5
1B1
330
2
100
AcDbEntity
  8
0
100
AcDbLine
 10
88.68107871058722
 20
60.95636523129894
 30
0.0
 11
88.1185641609003
 21
61.23762250614243
 31
0.0
  0
LWPOLYLINE
  5
1B2
330
2
100
AcDbEntity
  8
0
100
AcDbPolyline
 90
        9
 70
   128
 43
0.0
 10
88.1185641609003
 20
61.23762250614243
 10
88.11627741346345
 20
61.23849024958025
 10
88.11407885293304
 20
61.23877279782391
 10
88.11205317356956
 20
61.23845908301058
 10
88.11027721167741
 20
61.23756228402027
 10
88.1088199449419
 20
61.23611581707496
 10
88.10773638121045
 20
61.23417612402227
 10
88.10707017714836
 20
61.23181681758723
 10
88.10684490770132
 20
61.22912930485824
  0
LINE
  5
1B3
330
2
100
AcDbEntity
  8
0
100
AcDbLine
 10
88.10684490770132
 20
61.22912930485824
 30
0.0
 11
88.10684490770132
 21
60.77126749054975
 31
0.0
  0
ARC
  5
1B4
330
2
100
AcDbEntity
  8
0
100
AcDbCircle
 10
89.67221940200714
 20
60.51132452962469
 30
0.0
 40
0.1799441526982171
100
AcDbArc
 50
0.967901382300292
 51
59.24214996250049
  0
ARC
  5
1B5
330
2
100
AcDbEntity
  8
0
100
AcDbCircle
 10
89.78372318659921
 20
60.50630005865463
 30
0.0
 40
0.0688883187905794
100
AcDbArc
 50
297.8519659459997
 51
6.722514099100823
  0
LINE
  5
1B6
330
2
100
AcDbEntity
  8
0
100
AcDbLine
 10
89.81590703368402
 20
60.4453919273908
 30
0.0
 11
89.19839572771985
 21
60.20466822234562
 31
0.0
  0
ARC
  5
1B7
330
2
100
AcDbEntity
  8
0
100
AcDbCircle
 10
89.06567912252667
 20
60.60919155556428
 30
0.0
 40
0.4257379762333977
100
AcDbArc
 50
240.1819081167998
 51
288.1637042559004
  0
LINE
  5
1B8
330
2
100
AcDbEntity
  8
0
100
AcDbLine
 10
88.85398178901562
 20
60.23981767534872
 30
0.0
 11
87.64361221795844
 21
60.84500246091869
 31
0.0
  0
ARC
  5
1B9
330
2
100
AcDbEntity
  8
0
100
AcDbCircle
 10
87.73570331757861
 20
60.99969332437723
 30
0.0
 40
0.1800278697014163
100
AcDbArc
 50
181.3177268572993
 51
239.2336692461999
  0
SPLINE
  5
1BA
330
2
100
AcDbEntity
  8
0
100
AcDbSpline
210
0.0
220
0.0
230
1.0
 70
     8
 71
     3
 72
     9
 73
     5
 74
     0
 42
0.000000001
 43
0.0000000001
 40
0.0
 40
0.0
 40
0.0
 40
0.0
 40
0.565745697124784
 40
1.0
 40
1.0
 40
1.0
 40
1.0
 10
87.55572305765872
 20
60.99555328736499
 30
0.0
 10
87.55829670697037
 20
61.11245247067046
 30
0.0
 10
87.56284583447541
 20
61.31908096806677
 30
0.0
 10
87.60358218370543
 20
61.50143078441454
 30
0.0
 10
87.62127211864196
 20
61.5806169767921
 30
0.0
  0
ARC
  5
1BB
330
2
100
AcDbEntity
  8
0
100
AcDbCircle
 10
87.73003478589515
 20
61.56012205867648
 30
0.0
 40
0.110676824384031
100
AcDbArc
 50
56.91450786889973
 51
169.3284869595999
  0
LINE
  5
1BC
330
2
100
AcDbEntity
  8
0
100
AcDbLine
 10
87.79045213817425
 20
61.65285340724636
 30
0.0
 11
89.76424479011448
 21
60.66595708127625
 31
0.0
  0
ARC
  5
1BD
330
2
100
AcDbEntity
  8
0
100
AcDbCircle
 10
55.01024228741968
 20
44.63696280925631
 30
0.0
 40
0.1800278697014751
100
AcDbArc
 50
181.3177268572993
 51
239.2336692461999
  0
SPLINE
  5
1BE
330
2
100
AcDbEntity
  8
0
100
AcDbSpline
210
0.0
220
0.0
230
1.0
 70
     8
 71
     3
 72
     9
 73
     5
 74
     0
 42
0.000000001
 43
0.0000000001
 40
0.0
 40
0.0
 40
0.0
 40
0.0
 40
0.5536505834149127
 40
1.0
 40
1.0
 40
1.0
 40
1.0
 10
54.89581108844767
 20
45.21788646169477
 30
0.0
 10
54.87408971676465
 20
45.11616485531482
 30
0.0
 10
54.83485671975592
 20
44.93243596668498
 30
0.0
 10
54.8316799685236
 20
44.72528464420264
 30
0.0
 10
54.83026202746441
 20
44.63282277226778
 30
0.0
  0
LINE
  5
1BF
330
2
100
AcDbEntity
  8
0
100
AcDbLine
 10
54.97719799285431
 20
44.45274854327038
 30
0.0
 11
54.91815118771665
 21
44.48227194579783
 31
0.0
  0
ARC
  5
1C0
330
2
100
AcDbEntity
  8
0
100
AcDbCircle
 10
55.01063321582728
 20
45.19476015347345
 30
0.0
 40
0.117127909007675
100
AcDbArc
 50
119.0190092960997
 51
168.6124166643997
  0
LINE
  5
1C1
330
2
100
AcDbEntity
  8
0
100
AcDbLine
 10
97.8416852237337
 20
57.42915945829856
 30
0.0
 11
97.83392414891899
 21
57.42510980893621
 31
0.0
  0
ARC
  5
1C2
330
2
100
AcDbEntity
  8
0
100
AcDbCircle
 10
97.01974226990856
 20
57.39173352929379
 30
0.0
 40
0.3264055794832145
100
AcDbArc
 50
239.1141570365995
 51
293.6181065289996
  0
ARC
  5
1C3
330
2
100
AcDbEntity
  8
0
100
AcDbCircle
 10
96.7557752326374
 20
57.96689295071946
 30
0.0
 40
0.3775914306345017
100
AcDbArc
 50
122.3258205984005
 51
186.345030197199
  0
ARC
  5
1C4
330
2
100
AcDbEntity
  8
0
100
AcDbCircle
 10
97.35590183562756
 20
57.94718242157483
 30
0.0
 40
0.9756535643468662
100
AcDbArc
 50
181.2931967973759
 51
238.9167668551982
  0
LWPOLYLINE
  5
1C5
330
2
100
AcDbEntity
  8
0
100
AcDbPolyline
 90
        9
 70
   128
 43
0.0
 10
96.26623601973594
 20
57.98229363867296
 10
96.27749491116061
 20
58.11666916267558
 10
96.31083900017248
 20
58.23462208324321
 10
96.36498684834052
 20
58.33161896883916
 10
96.43785760487583
 20
58.4039327223494
 10
96.52665084459972
 20
58.44878418787067
 10
96.62795434567005
 20
58.46444973668491
 10
96.73787503977228
 20
58.45032732490427
 10
96.81316269585067
 20
58.42487940379522
  0
LWPOLYLINE
  5
1C6
330
2
100
AcDbEntity
  8
0
100
AcDbPolyline
 90
       16
 70
   128
 43
0.0
 10
97.41722284595317
 20
57.21675912737288
 10
97.3935384967431
 20
57.14401246533935
 10
97.33939064857509
 20
57.04701531233405
 10
97.26651989203976
 20
56.97470155882394
 10
97.17772665231585
 20
56.92985022696587
 10
97.07642315124552
 20
56.91418467823445
 10
96.9665024571433
 20
56.92830709001515
 10
96.85218874849923
 20
56.97167454115578
 10
96.73787503977228
 20
57.04262079874206
 10
96.62795434567005
 20
57.13841908098072
 10
96.52665084459972
 20
57.25538813086536
 10
96.43785760487583
 20
57.38903270236443
 10
96.36498684834052
 20
57.53421721249281
 10
96.31083900017248
 20
57.68536221358323
 10
96.27749491116061
 20
57.83665895583635
 10
96.26623601973594
 20
57.98229363867296
  0
LWPOLYLINE
  5
1C7
330
2
100
AcDbEntity
  8
0
100
AcDbPolyline
 90
       13
 70
   128
 43
0.0
 10
96.14904610698184
 20
57.92369868229588
 10
96.16030499840652
 20
57.77806399954215
 10
96.19364908750126
 20
57.62676725720621
 10
96.24779693566928
 20
57.47562225611574
 10
96.32066769220461
 20
57.33043774607023
 10
96.4094609319285
 20
57.19679317448833
 10
96.51076443291598
 20
57.07982412468658
 10
96.6206851270182
 20
56.98402584236504
 10
96.73499883574514
 20
56.91307958486163
 10
96.84931254447208
 20
56.86971213363813
 10
96.9592332385743
 20
56.85558972185737
 10
97.06053673964463
 20
56.87125527067173
 10
97.10558788527208
 20
56.88954424057124
  0
ARC
  5
1C8
330
2
100
AcDbEntity
  8
0
100
AcDbCircle
 10
96.62044013043606
 20
57.97303359784064
 30
0.0
 40
0.4739686268443223
100
AcDbArc
 50
122.6961762439998
 51
185.9746819105009
  0
ARC
  5
1C9
330
2
100
AcDbEntity
  8
0
100
AcDbCircle
 10
96.90481677686534
 20
56.54710099244232
 30
0.0
 40
1.028263035980265
100
AcDbArc
 50
239.5318534129998
 51
293.2003867881
  0
LWPOLYLINE
  5
1CA
330
2
100
AcDbEntity
  8
0
100
AcDbPolyline
 90
       14
 70
   128
 43
0.0
 10
94.91854460172996
 20
58.1873770773409
 10
94.92922525772931
 20
57.96578109463354
 10
94.96111147980556
 20
57.73673590351058
 10
95.01373810392051
 20
57.5035812765309
 10
95.08633796958513
 20
57.26971748912638
 10
95.17785239721719
 20
57.0385544985707
 10
95.28694668702692
 20
56.81346329180633
 10
95.41203009135321
 20
56.59772619810616
 10
95.55127873471736
 20
56.39448920444653
 10
95.70266191747107
 20
56.20671592082965
 10
95.86397223841709
 20
56.03714444725006
 10
96.03285730116981
 20
55.88824759425722
 10
96.20685448913487
 20
55.76219658008847
 10
96.38342647816415
 20
55.66082957373589
  0
LWPOLYLINE
  5
1CB
330
2
100
AcDbEntity
  8
0
100
AcDbPolyline
 90
       14
 70
   128
 43
0.0
 10
96.73499883574514
 20
55.83661575256781
 10
96.55842684671585
 20
55.93798275892044
 10
96.38442965875078
 20
56.06403377300626
 10
96.21554459599806
 20
56.21293062608197
 10
96.05423427505204
 20
56.38250209957863
 10
95.90285109238122
 20
56.57027538327844
 10
95.76360244893416
 20
56.77351237685519
 10
95.6385190446079
 20
56.98924947063824
 10
95.52942475479818
 20
57.21434067740256
 10
95.43791032716612
 20
57.44550366787541
 10
95.3653104615015
 20
57.67936745527999
 10
95.31268383738654
 20
57.91252208225961
 10
95.2807976153103
 20
58.14156727346546
 10
95.27011695931092
 20
58.36316325608994
  0
LWPOLYLINE
  5
1CC
330
2
100
AcDbEntity
  8
0
100
AcDbPolyline
 90
       14
 70
   128
 43
0.0
 10
98.19988071217935
 20
56.89828137965571
 10
98.18920005617997
 20
56.68736605303064
 10
98.15731383410373
 20
56.49020708398388
 10
98.10468720998878
 20
56.30967908111916
 10
98.03208734432416
 20
56.14841515929635
 10
97.9405729166921
 20
56.00876659645564
 10
97.83147862688236
 20
55.89276967950098
 10
97.7063952225561
 20
55.80211599004423
 10
97.56714657919193
 20
55.73812763983164
 10
97.41576339643824
 20
55.70173753888553
 10
97.2544530754922
 20
55.69347638633485
 10
97.08556801273948
 20
55.71346459601187
 10
96.91157082477442
 20
55.76141076989114
 10
96.73499883574514
 20
55.83661575256781
  0
LINE
  5
1CD
330
2
100
AcDbEntity
  8
0
100
AcDbLine
 10
96.59437017106043
 20
56.58869048080288
 30
0.0
 11
96.87562750042985
 21
56.44806181611812
 31
0.0
  0
LWPOLYLINE
  5
1CE
330
2
100
AcDbEntity
  8
0
100
AcDbPolyline
 90
        9
 70
   128
 43
0.0
 10
96.87562750042985
 20
56.44806181611812
 10
96.88134318217038
 20
56.44589345212534
 10
96.88683921511458
 20
56.44518739918414
 10
96.89190439569527
 20
56.44597066058196
 10
96.896344054893
 20
56.44821318173104
 10
96.89998759003076
 20
56.45182889751476
 10
96.90269498518619
 20
56.45667875375631
 10
96.90436218688976
 20
56.46257644123022
 10
96.90492512868912
 20
56.46929520544375
  0
LINE
  5
1CF
330
2
100
AcDbEntity
  8
0
100
AcDbLine
 10
96.90492512868912
 20
56.46929520544375
 30
0.0
 11
96.90492512868912
 21
56.75635229868134
 31
0.0
  0
ARC
  5
1D0
330
2
100
AcDbEntity
  8
0
100
AcDbCircle
 10
96.84495251707105
 20
56.75533916279426
 30
0.0
 40
0.0599811686251883
100
AcDbArc
 50
0.9678233132003752
 51
59.24218966660003
  0
LINE
  5
1D1
330
2
100
AcDbEntity
  8
0
100
AcDbLine
 10
96.87562750042985
 20
56.80688318268585
 30
0.0
 11
96.59437017106043
 21
56.94751184737061
 31
0.0
  0
LWPOLYLINE
  5
1D2
330
2
100
AcDbEntity
  8
0
100
AcDbPolyline
 90
        9
 70
   128
 43
0.0
 10
96.59437017106043
 20
56.94751184737061
 10
96.5886544893199
 20
56.94968021136339
 10
96.58315845637572
 20
56.95038639796781
 10
96.57809327579499
 20
56.94960300290677
 10
96.57365361659726
 20
56.94736048175769
 10
96.5700100814595
 20
56.94374476597397
 10
96.56730268630409
 20
56.93889490973242
 10
96.5656354846005
 20
56.93299735583889
 10
96.56507254280114
 20
56.92627859170824
  0
LINE
  5
1D3
330
2
100
AcDbEntity
  8
0
100
AcDbLine
 10
96.56507254280114
 20
56.92627859170824
 30
0.0
 11
96.56507254280114
 21
56.63922149847059
 31
0.0
  0
ARC
  5
1D4
330
2
100
AcDbEntity
  8
0
100
AcDbCircle
 10
96.62504543782175
 20
56.64023466236648
 30
0.0
 40
0.0599814525109813
100
AcDbArc
 50
180.9678454760995
 51
239.2420359663002
  0
LINE
  5
1D5
330
2
100
AcDbEntity
  8
0
100
AcDbLine
 10
96.56507254280114
 20
58.79214943038476
 30
0.0
 11
96.56507254280114
 21
58.50509233714717
 31
0.0
  0
ARC
  5
1D6
330
2
100
AcDbEntity
  8
0
100
AcDbCircle
 10
96.62779737954293
 20
58.5070150683938
 30
0.0
 40
0.0627542989728615
100
AcDbArc
 50
181.7557622839001
 51
226.0092509913003
  0
LINE
  5
1D7
330
2
100
AcDbEntity
  8
0
100
AcDbLine
 10
96.90492512868912
 20
58.47076066123321
 30
0.0
 11
96.90492512868912
 21
58.62222313735793
 31
0.0
  0
ARC
  5
1D8
330
2
100
AcDbEntity
  8
0
100
AcDbCircle
 10
96.84495319110496
 20
58.62121025587015
 30
0.0
 40
0.0599804904122073
100
AcDbArc
 50
0.9675911724002547
 51
59.24255334519976
  0
LINE
  5
1D9
330
2
100
AcDbEntity
  8
0
100
AcDbLine
 10
96.87562750042985
 20
58.67275388761635
 30
0.0
 11
96.59437017106043
 21
58.81338255238393
 31
0.0
  0
LWPOLYLINE
  5
1DA
330
2
100
AcDbEntity
  8
0
100
AcDbPolyline
 90
        9
 70
   128
 43
0.0
 10
96.59437017106043
 20
58.81338255238393
 10
96.5886544893199
 20
58.81555091637676
 10
96.58315845637572
 20
58.81625723664439
 10
96.57809327579499
 20
58.81547397524656
 10
96.57365361659726
 20
58.81323132043428
 10
96.5700100814595
 20
58.80961560465056
 10
96.56730268630409
 20
58.80476588207222
 10
96.5656354846005
 20
58.79886806085221
 10
96.56507254280114
 20
58.79214943038476
  0
LINE
  5
1DB
330
2
100
AcDbEntity
  8
0
100
AcDbLine
 10
95.27011695931092
 20
58.36316325608994
 30
0.0
 11
95.27011695931092
 21
68.48192458960153
 31
0.0
  0
LINE
  5
1DC
330
2
100
AcDbEntity
  8
0
100
AcDbLine
 10
98.19988071217935
 20
67.01704271308449
 30
0.0
 11
98.19988071217935
 21
56.89828137965571
 31
0.0
  0
LINE
  5
1DD
330
2
100
AcDbEntity
  8
0
100
AcDbLine
 10
94.91854460172996
 20
58.1873770773409
 30
0.0
 11
94.91854460172996
 21
68.30613841076962
 31
0.0
  0
LWPOLYLINE
  5
1DE
330
2
100
AcDbEntity
  8
0
100
AcDbPolyline
 90
       17
 70
   128
 43
0.0
 10
92.98490100071768
 20
70.1381220662575
 10
93.20889136150086
 20
70.23663996608928
 10
93.43072419926594
 20
70.30725607590847
 10
93.64826381936895
 20
70.34928752186766
 10
93.85941469143388
 20
70.36233243879104
 10
94.06214415105399
 20
70.34626421097186
 10
94.25449898944568
 20
70.30123762838695
 10
94.43462640849526
 20
70.22768546233328
 10
94.6007923569015
 20
70.12631693969439
 10
94.75139637342369
 20
69.99810805480092
 10
94.88498817645236
 20
69.84429275420359
 10
95.00028163426174
 20
69.66635495068903
 10
95.09616524269878
 20
69.46600488891892
 10
95.17171609518683
 20
69.24517436752854
 10
95.22620686810038
 20
69.00598921999756
 10
95.25911280580819
 20
68.75075248915852
 10
95.27011695931092
 20
68.48192458960153
  0
LWPOLYLINE
  5
1DF
330
2
100
AcDbEntity
  8
0
100
AcDbPolyline
 90
       16
 70
   128
 43
0.0
 10
94.91854460172996
 20
68.30613841076962
 10
94.90795256917634
 20
68.54838783967
 10
94.87628997944185
 20
68.77739113486933
 10
94.82390608758924
 20
68.99063880317481
 10
94.75137279872663
 20
69.18579363053737
 10
94.65948554125198
 20
69.36071892228335
 10
94.54925191600244
 20
69.51349635382666
 10
94.42187859916364
 20
69.64245364218908
 10
94.27876173774183
 20
69.74617685345936
 10
94.12146861391883
 20
69.82353010813381
 10
93.95172280122382
 20
69.87366633831351
 10
93.77138495597517
 20
69.89603479364496
 10
93.58243011549632
 20
69.89039214696908
 10
93.38692848914332
 20
69.85679930604317
 10
93.18702188344188
 20
69.79562352820448
 10
92.98490100071768
 20
69.70753669368611
  0
LWPOLYLINE
  5
1E0
330
2
100
AcDbEntity
  8
0
100
AcDbPolyline
 90
       11
 70
   128
 43
0.0
 10
98.19988071217935
 20
67.01704271308449
 10
98.18887655867662
 20
67.28587061264147
 10
98.15597062096879
 20
67.54110734356334
 10
98.10147984805524
 20
67.78029249109431
 10
98.02592899556721
 20
68.00112301248475
 10
97.93004538713015
 20
68.20147307425486
 10
97.81475192940364
 20
68.37941087776937
 10
97.68116012637497
 20
68.53322617836671
 10
97.53055610985279
 20
68.66143506326017
 10
97.36439016136365
 20
68.76280358589912
 10
97.35996160731819
 20
68.76502826719155
  0
LWPOLYLINE
  5
1E1
330
2
100
AcDbEntity
  8
0
100
AcDbPolyline
 90
       12
 70
   128
 43
0.0
 10
79.88042536665924
 20
61.35560075402793
 10
79.89984730356304
 20
61.35654075483086
 10
80.03552923433803
 20
61.37202505936954
 10
80.1609181822042
 20
61.40221714887991
 10
80.26972657398586
 20
61.4456030573964
 10
80.35649839101884
 20
61.50000725332865
 10
80.41688213350028
 20
61.56270150895068
 10
80.44785074249475
 20
61.63054247433814
 10
80.4478507698406
 20
61.70012803691486
 10
80.41688246090476
 20
61.76796901597538
 10
80.35649810446741
 20
61.83066330573826
 10
80.2697266013317
 20
61.88506761760038
  0
LWPOLYLINE
  5
1E2
330
2
100
AcDbEntity
  8
0
100
AcDbPolyline
 90
       12
 70
   128
 43
0.0
 10
80.2697266013317
 20
61.88506761760038
 10
80.16091797760749
 20
61.92845336916821
 10
80.03552939808171
 20
61.95864554742832
 10
79.89984743996085
 20
61.97412970181336
 10
79.76067631480727
 20
61.97412968822328
 10
79.62499438403227
 20
61.95864538368465
 10
79.49960587270542
 20
61.92845351244392
 10
79.39079748092378
 20
61.88506760392744
 10
79.30402566389078
 20
61.83066340807807
 10
79.24364148487004
 20
61.76796893410352
 10
79.2126728757927
 20
61.700127968716
 10
79.21079287410397
 20
61.69041700026411
  0
LWPOLYLINE
  5
1E3
330
2
100
AcDbEntity
  8
0
100
AcDbPolyline
 90
       13
 70
   128
 43
0.0
 10
82.73072808386505
 20
63.43784236513949
 10
82.65829845286853
 20
63.39064634328946
 10
82.61276749079588
 20
63.33568554946515
 10
82.5972375784236
 20
63.27670524605264
 10
82.61276751805885
 20
63.21772507912078
 10
82.65829866426029
 20
63.16276430228402
 10
82.73072786559538
 20
63.11556824977362
 10
82.82511997069907
 20
63.07935364906467
 10
82.93504152428983
 20
63.05658807596393
 10
83.05300185823631
 20
63.04882310618774
 10
83.1709624649784
 20
63.05658806229098
 10
83.28088405271007
 20
63.07935354332733
 10
83.37527609640986
 20
63.11556835890849
  0
LINE
  5
1E4
330
2
100
AcDbEntity
  8
0
100
AcDbLine
 10
84.84015786370923
 20
63.84800924255813
 30
0.0
 11
83.37527609640986
 21
63.11556835890849
 31
0.0
  0
LWPOLYLINE
  5
1E5
330
2
100
AcDbEntity
  8
0
100
AcDbPolyline
 90
       13
 70
   128
 43
0.0
 10
84.84015786370923
 20
63.84800924255813
 10
84.91258727643609
 20
63.89520515527323
 10
84.95811823850877
 20
63.95016594909765
 10
84.97364815088102
 20
64.00914625251011
 10
84.95811821124576
 20
64.06812641944191
 10
84.91258728331397
 20
64.12308730533067
 10
84.84015786370923
 20
64.17028324878913
 10
84.74576597687521
 20
64.20649795855007
 10
84.63584420501479
 20
64.22926342259882
 10
84.51788387106832
 20
64.23702839237501
 10
84.39992326432621
 20
64.22926343618889
 10
84.29000167659456
 20
64.20649795515254
 10
84.19560985116442
 20
64.17028324878913
  0
LINE
  5
1E6
330
2
100
AcDbEntity
  8
0
100
AcDbLine
 10
82.73072808386505
 20
63.43784236513949
 30
0.0
 11
84.19560985116442
 21
64.17028324878913
 31
0.0
  0
LINE
  5
1E7
330
2
100
AcDbEntity
  8
0
100
AcDbLine
 10
89.52777969373268
 20
66.19182015752847
 30
0.0
 11
88.06289787182448
 21
65.45937924661576
 31
0.0
  0
LWPOLYLINE
  5
1E8
330
2
100
AcDbEntity
  8
0
100
AcDbPolyline
 90
       13
 70
   128
 43
0.0
 10
89.52777969373268
 20
66.19182015752847
 10
89.60020910645955
 20
66.23901607024357
 10
89.64574028680187
 20
66.29397697320275
 10
89.6612699808216
 20
66.35295716748038
 10
89.64574025953886
 20
66.41193744354706
 10
89.60020911325457
 20
66.46689822038382
 10
89.52777969373268
 20
66.5140941637594
 10
89.4333878068158
 20
66.55030887360322
 10
89.32346625322503
 20
66.57307444670397
 10
89.20550570109176
 20
66.58083930734534
 10
89.08754531261932
 20
66.57307446037686
 10
88.97762350661801
 20
66.55030887020569
 10
88.88323168118786
 20
66.5140941637594
  0
LINE
  5
1E9
330
2
100
AcDbEntity
  8
0
100
AcDbLine
 10
87.41834985927964
 20
65.78165325284675
 30
0.0
 11
88.88323168118786
 21
66.5140941637594
 31
0.0
  0
LWPOLYLINE
  5
1EA
330
2
100
AcDbEntity
  8
0
100
AcDbPolyline
 90
       13
 70
   128
 43
0.0
 10
87.41834985927964
 20
65.78165325284675
 10
87.34592044655277
 20
65.73445734013171
 10
87.3003893753453
 20
65.67949649169844
 10
87.28485962671671
 20
65.6205162701578
 10
87.30038940260829
 20
65.56153602135413
 10
87.3459204396749
 20
65.50657518999134
 10
87.41834985927964
 20
65.45937924661576
 10
87.51274174611365
 20
65.42316453677199
 10
87.62266340883925
 20
65.40039901828009
 10
87.74062390644653
 20
65.39263413029283
 10
87.85858434952784
 20
65.40039900460715
 10
87.96850604639431
 20
65.42316454016947
 10
88.06289787182448
 20
65.45937924661576
  0
LINE
  5
1EB
330
2
100
AcDbEntity
  8
0
100
AcDbLine
 10
63.74585842824491
 20
55.08801540753262
 30
0.0
 11
66.90765741374886
 21
56.66891490024318
 31
0.0
  0
LINE
  5
1EC
330
2
100
AcDbEntity
  8
0
100
AcDbLine
 10
78.08072724390598
 20
62.25544981536313
 30
0.0
 11
92.98490100071768
 21
69.70753669368611
 31
0.0
  0
LINE
  5
1ED
330
2
100
AcDbEntity
  8
0
100
AcDbLine
 10
94.91854481999959
 20
67.7445948505416
 30
0.0
 11
81.01049099677437
 21
60.79056793892892
 31
0.0
  0
LINE
  5
1EE
330
2
100
AcDbEntity
  8
0
100
AcDbLine
 10
63.74585842824491
 20
55.51860078002113
 30
0.0
 11
92.98490100071768
 21
70.1381220662575
 31
0.0
  0
LINE
  5
1EF
330
2
100
AcDbEntity
  8
0
100
AcDbLine
 10
61.81221482714978
 20
51.75297352352089
 30
0.0
 11
61.81221482714978
 21
48.72638352593497
 31
0.0
  0
LINE
  5
1F0
330
2
100
AcDbEntity
  8
0
100
AcDbLine
 10
64.74197858010104
 20
50.19126546534749
 30
0.0
 11
64.74197858010104
 21
50.28809164708679
 31
0.0
  0
LINE
  5
1F1
330
2
100
AcDbEntity
  8
0
100
AcDbLine
 10
61.46064421589176
 20
51.57718821785056
 30
0.0
 11
61.46064421589176
 21
48.55059822026453
 31
0.0
  0
LWPOLYLINE
  5
1F2
330
2
100
AcDbEntity
  8
0
100
AcDbPolyline
 90
       17
 70
   128
 43
0.0
 10
61.46064421589176
 20
51.57718821785056
 10
61.47164749623299
 20
51.85701983437093
 10
61.50455256077936
 20
52.14516206637842
 10
61.55904333377576
 20
52.43883798682299
 10
61.63459593250391
 20
52.73522023386289
 10
61.73047866777947
 20
53.03145346744793
 10
61.84577125242737
 20
53.32468429223252
 10
61.97936305545605
 20
53.61209139577562
 10
62.12996707197821
 20
53.89090429719129
 10
62.29613389354596
 20
54.15843920485866
 10
62.47626043943405
 20
54.41211835342262
 10
62.66861615098722
 20
54.64950021093847
 10
62.87134473752872
 20
54.86829746183849
 10
63.08249560959365
 20
55.06640341697999
 10
63.30003610277528
 20
55.24191202766314
 10
63.52186894054035
 20
55.39312875560899
 10
63.74585842824491
 20
55.51860078002113
  0
LWPOLYLINE
  5
1F3
330
2
100
AcDbEntity
  8
0
100
AcDbPolyline
 90
       16
 70
   128
 43
0.0
 10
63.74585842824491
 20
55.08801540753262
 10
63.54373754552073
 20
54.97398135924391
 10
63.3438326860594
 20
54.8352514045427
 10
63.14833018654489
 20
54.67334218249334
 10
62.95937447290457
 20
54.4900295521511
 10
62.77903662773878
 20
54.28732325157103
 10
62.60929168812237
 20
54.06744164523553
 10
62.45199943737798
 20
53.83279570327744
 10
62.30888170287758
 20
53.58595519404611
 10
62.18150838603875
 20
53.32962458884475
 10
62.07127476078922
 20
53.06661353205203
 10
61.97938750331458
 20
52.79980098283136
 10
61.90685421445196
 20
52.53211286660615
 10
61.85446944943786
 20
52.26648086990872
 10
61.82280773286489
 20
52.00581542151429
 10
61.81221482714978
 20
51.75297352352089
  0
ARC
  5
1F4
330
2
100
AcDbEntity
  8
0
100
AcDbCircle
 10
68.87618814650483
 20
50.162533810963
 30
0.0
 40
4.136115751421826
100
AcDbArc
 50
139.9771460822994
 51
178.2604356677997
  0
LINE
  5
1F5
330
2
100
AcDbEntity
  8
0
100
AcDbLine
 10
78.07240362289528
 20
62.17448127937268
 30
0.0
 11
78.07240362289528
 21
59.48332189917431
 31
0.0
  0
LINE
  5
1F6
330
2
100
AcDbEntity
  8
0
100
AcDbLine
 10
69.48060201592245
 20
48.37402686458188
 30
0.0
 11
69.64809513356685
 21
48.47283384284764
 31
0.0
  0
SPLINE
  5
1F7
330
2
100
AcDbEntity
  8
0
100
AcDbSpline
210
0.0
220
0.0
230
1.0
 70
     8
 71
     3
 72
    15
 73
    11
 74
     0
 42
0.000000001
 43
0.0000000001
 40
0.0
 40
0.0
 40
0.0
 40
0.0
 40
0.0963495285702696
 40
0.1952145158364204
 40
0.3009540117478695
 40
0.4195985286307791
 40
0.5552999811357241
 40
0.7004180665121373
 40
0.8498834392552499
 40
1.0
 40
1.0
 40
1.0
 40
1.0
 10
69.64809513352616
 20
48.47283384288812
 30
0.0
 10
69.65952381290581
 20
48.48161537012799
 30
0.0
 10
69.68267954749897
 20
48.4994076895494
 30
0.0
 10
69.70270590612841
 20
48.53943508559684
 30
0.0
 10
69.70850895778541
 20
48.58777493623836
 30
0.0
 10
69.69634843394942
 20
48.64358413975622
 30
0.0
 10
69.66461337929255
 20
48.70212860558774
 30
0.0
 10
69.6144878799076
 20
48.75732710783484
 30
0.0
 10
69.55073230819855
 20
48.80493283487061
 30
0.0
 10
69.50123544598511
 20
48.82641355174968
 30
0.0
 10
69.47643322030806
 20
48.8371772560314
 30
0.0
  0
SPLINE
  5
1F8
330
2
100
AcDbEntity
  8
0
100
AcDbSpline
210
0.0
220
0.0
230
1.0
 70
     8
 71
     3
 72
     9
 73
     5
 74
     0
 42
0.000000001
 43
0.0000000001
 40
0.0
 40
0.0
 40
0.0
 40
0.0
 40
0.5612210079785572
 40
1.0
 40
1.0
 40
1.0
 40
1.0
 10
69.47643322030806
 20
48.8371772560314
 30
0.0
 10
69.46363629507878
 20
48.84274221706158
 30
0.0
 10
69.44083435957146
 20
48.85265802732374
 30
0.0
 10
69.41808996403513
 20
48.86270377149362
 30
0.0
 10
69.40811020108757
 20
48.86711163299446
 30
0.0
  0
SPLINE
  5
1F9
330
2
100
AcDbEntity
  8
0
100
AcDbSpline
210
0.0
220
0.0
230
1.0
 70
     8
 71
     3
 72
    10
 73
     6
 74
     0
 42
0.000000001
 43
0.0000000001
 40
0.0
 40
0.0
 40
0.0
 40
0.0
 40
0.0931001544169782
 40
0.4988317283746684
 40
1.0
 40
1.0
 40
1.0
 40
1.0
 10
69.40811020108758
 20
48.86711163299446
 30
0.0
 10
69.39770358528399
 20
48.87149715166845
 30
0.0
 10
69.34194481473906
 20
48.89499481258673
 30
0.0
 10
69.22212255803806
 20
48.92645247996148
 30
0.0
 10
69.12237568131725
 20
48.91921324511367
 30
0.0
 10
69.06725386158196
 20
48.91521272087266
 30
0.0
  0
LWPOLYLINE
  5
1FA
330
2
100
AcDbEntity
  8
0
100
AcDbPolyline
 90
        3
 70
   128
 43
0.0
 10
69.62381099327018
 20
50.25789236404171
 10
70.481344776639
 20
49.13514685838169
 10
71.21160366085473
 20
48.17903705821862
  0
LINE
  5
1FB
330
2
100
AcDbEntity
  8
0
100
AcDbLine
 10
83.9501492543674
 20
42.15141315141039
 30
0.0
 11
83.52965184917346
 21
42.06572362619505
 31
0.0
  0
SPLINE
  5
1FC
330
2
100
AcDbEntity
  8
0
100
AcDbSpline
210
0.0
220
0.0
230
1.0
 70
     8
 71
     3
 72
     9
 73
     5
 74
     0
 42
0.000000001
 43
0.0000000001
 40
0.0
 40
0.0
 40
0.0
 40
0.0
 40
0.5599428329022949
 40
1.0
 40
1.0
 40
1.0
 40
1.0
 10
69.06725386158196
 20
48.91521272087266
 30
0.0
 10
69.04660861608437
 20
48.91102831872945
 30
0.0
 10
69.00973834239839
 20
48.90355540917994
 30
0.0
 10
68.9776598277885
 20
48.88896600402574
 30
0.0
 10
68.96354344752459
 20
48.88254583172392
 30
0.0
  0
LINE
  5
1FD
330
2
100
AcDbEntity
  8
0
100
AcDbLine
 10
56.8796845507908
 20
42.84061638334685
 30
0.0
 11
68.96354344754448
 21
48.8825458317238
 31
0.0
  0
SPLINE
  5
1FE
330
2
100
AcDbEntity
  8
0
100
AcDbSpline
210
0.0
220
0.0
230
1.0
 70
     8
 71
     3
 72
     9
 73
     5
 74
     0
 42
0.000000001
 43
0.0000000001
 40
0.0
 40
0.0
 40
0.0
 40
0.0
 40
0.5599416393415443
 40
1.0
 40
1.0
 40
1.0
 40
1.0
 10
56.798773506456
 20
42.78097254330958
 30
0.0
 10
56.81212519124724
 20
42.79378660635223
 30
0.0
 10
56.83596997051195
 20
42.81667124671895
 30
0.0
 10
56.86632608767378
 20
42.83329913994236
 30
0.0
 10
56.87968455082796
 20
42.8406163833755
 30
0.0
  0
SPLINE
  5
1FF
330
2
100
AcDbEntity
  8
0
100
AcDbSpline
210
0.0
220
0.0
230
1.0
 70
     8
 71
     3
 72
    13
 73
     9
 74
     0
 42
0.000000001
 43
0.0000000001
 40
0.0
 40
0.0
 40
0.0
 40
0.0
 40
0.1817341056072261
 40
0.368173227893437
 40
0.5558173049399942
 40
0.7039254693853531
 40
0.8517856130885641
 40
1.0
 40
1.0
 40
1.0
 40
1.0
 10
71.13315642106406
 20
48.21826067813367
 30
0.0
 10
71.05360890518068
 20
48.2499208906425
 30
0.0
 10
70.89245442294502
 20
48.31406098474435
 30
0.0
 10
70.59205299422775
 20
48.36186942833586
 30
0.0
 10
70.29866993471644
 20
48.36772960737204
 30
0.0
 10
70.03479688851793
 20
48.33766054201913
 30
0.0
 10
69.80798948009655
 20
48.28518670189743
 30
0.0
 10
69.68367535072534
 20
48.23077887664931
 30
0.0
 10
69.6214439172044
 20
48.2035424154596
 30
0.0
  0
LINE
  5
200
330
2
100
AcDbEntity
  8
0
100
AcDbLine
 10
57.47514083689473
 20
42.08795551358514
 30
0.0
 11
60.28771445882227
 21
43.49424232450752
 31
0.0
  0
LINE
  5
201
330
2
100
AcDbEntity
  8
0
100
AcDbLine
 10
57.71276524179837
 20
41.23567801872309
 30
0.0
 11
57.47514040035543
 21
41.35449043944453
 31
0.0
  0
LINE
  5
202
330
2
100
AcDbEntity
  8
0
100
AcDbLine
 10
69.62144391721449
 20
48.20354241544624
 30
0.0
 11
57.43178344181981
 21
42.10871217779032
 31
0.0
  0
LINE
  5
203
330
2
100
AcDbEntity
  8
0
100
AcDbLine
 10
83.50768807224341
 20
42.03099485256546
 30
0.0
 11
71.13315642107721
 21
48.21826067810713
 31
0.0
  0
SPLINE
  5
204
330
2
100
AcDbEntity
  8
0
100
AcDbSpline
210
0.0
220
0.0
230
1.0
 70
     8
 71
     3
 72
    13
 73
     9
 74
     0
 42
0.000000001
 43
0.0000000001
 40
0.0
 40
0.0
 40
0.0
 40
0.0
 40
0.1881182372355371
 40
0.3764386001958769
 40
0.5642861475409672
 40
0.7117084376569041
 40
0.8572514879431512
 40
1.0
 40
1.0
 40
1.0
 40
1.0
 10
83.47825154687418
 20
41.27513860062481
 30
0.0
 10
83.54612959282865
 20
41.31535479628246
 30
0.0
 10
83.6819586170564
 20
41.39583039833508
 30
0.0
 10
83.78834937654868
 20
41.54668944729593
 30
0.0
 10
83.80911780587927
 20
41.69356019079754
 30
0.0
 10
83.75707364037154
 20
41.8255368037482
 30
0.0
 10
83.6611253394337
 20
41.93836634443937
 30
0.0
 10
83.55850223751536
 20
42.0003188609408
 30
0.0
 10
83.50768807222229
 20
42.03099485255461
 30
0.0
  0
LINE
  5
205
330
2
100
AcDbEntity
  8
0
100
AcDbLine
 10
71.28859107152695
 20
35.18030836293679
 30
0.0
 11
83.47825154683878
 21
41.27513860059264
 31
0.0
  0
SPLINE
  5
206
330
2
100
AcDbEntity
  8
0
100
AcDbSpline
210
0.0
220
0.0
230
1.0
 70
     8
 71
     3
 72
     9
 73
     5
 74
     0
 42
0.000000001
 43
0.0000000001
 40
0.0
 40
0.0
 40
0.0
 40
0.0
 40
0.8559493325838904
 40
1.0
 40
1.0
 40
1.0
 40
1.0
 10
69.77687944078429
 20
35.16559053683557
 30
0.0
 10
69.85389631814237
 20
35.13102887521569
 30
0.0
 10
69.94387463160819
 20
35.09065071227519
 30
0.0
 10
70.05679767352313
 20
35.07295267044952
 30
0.0
 10
70.07306431307765
 20
35.07040325571262
 30
0.0
  0
SPLINE
  5
207
330
2
100
AcDbEntity
  8
0
100
AcDbSpline
210
0.0
220
0.0
230
1.0
 70
     8
 71
     3
 72
     9
 73
     5
 74
     0
 42
0.000000001
 43
0.0000000001
 40
0.0
 40
0.0
 40
0.0
 40
0.0
 40
0.3980883247262006
 40
1.0
 40
1.0
 40
1.0
 40
1.0
 10
70.94773167601902
 20
35.06825533715318
 30
0.0
 10
70.99816989972229
 20
35.07895750711987
 30
0.0
 10
71.12487098732128
 20
35.10584141529313
 30
0.0
 10
71.22707392816508
 20
35.15232771587836
 30
0.0
 10
71.28859107150631
 20
35.18030836294082
 30
0.0
  0
SPLINE
  5
208
330
2
100
AcDbEntity
  8
0
100
AcDbSpline
210
0.0
220
0.0
230
1.0
 70
     8
 71
     3
 72
    13
 73
     9
 74
     0
 42
0.000000001
 43
0.0000000001
 40
0.0
 40
0.0
 40
0.0
 40
0.0
 40
0.1881175896745406
 40
0.3764387110828751
 40
0.5642857864193575
 40
0.7117081435514297
 40
0.8572515274878636
 40
1.0
 40
1.0
 40
1.0
 40
1.0
 10
57.43178344183654
 20
42.10871217777565
 30
0.0
 10
57.3639058200526
 20
42.06849609824359
 30
0.0
 10
57.22807713704678
 20
41.98802042783944
 30
0.0
 10
57.12168531781081
 20
41.83716172088026
 30
0.0
 10
57.10091818781673
 20
41.6902908173376
 30
0.0
 10
57.15296265990502
 20
41.55831445473523
 30
0.0
 10
57.24890893477449
 20
41.44548434201863
 30
0.0
 10
57.35153314263726
 20
41.38353215238595
 30
0.0
 10
57.40234778962606
 20
41.35285636241468
 30
0.0
  0
LINE
  5
209
330
2
100
AcDbEntity
  8
0
100
AcDbLine
 10
69.48060201592245
 20
48.37402686458188
 30
0.0
 11
57.27408125298861
 21
42.27076648311492
 31
0.0
  0
SPLINE
  5
20A
330
2
100
AcDbEntity
  8
0
100
AcDbSpline
210
0.0
220
0.0
230
1.0
 70
     8
 71
     3
 72
    11
 73
     7
 74
     0
 42
0.000000001
 43
0.0000000001
 40
0.0
 40
0.0
 40
0.0
 40
0.0
 40
0.2500081323599843
 40
0.5000157009311495
 40
0.7500040076559528
 40
1.0
 40
1.0
 40
1.0
 40
1.0
 10
83.50768807222229
 20
42.03099485255461
 30
0.0
 10
83.51035883683181
 20
42.03267466656399
 30
0.0
 10
83.5157003600281
 20
42.03603429079453
 30
0.0
 10
83.52262573203498
 20
42.04484960835919
 30
0.0
 10
83.52782112219857
 20
42.05519971337958
 30
0.0
 10
83.52904160061246
 20
42.06221561930976
 30
0.0
 10
83.5296518491998
 20
42.06572362619806
 30
0.0
  0
SPLINE
  5
20B
330
2
100
AcDbEntity
  8
0
100
AcDbSpline
210
0.0
220
0.0
230
1.0
 70
     8
 71
     3
 72
     9
 73
     5
 74
     0
 42
0.000000001
 43
0.0000000001
 40
0.0
 40
0.0
 40
0.0
 40
0.0
 40
0.4981662295412992
 40
1.0
 40
1.0
 40
1.0
 40
1.0
 10
56.74010913565235
 20
42.53311110027681
 30
0.0
 10
56.73346705306154
 20
42.57939504242625
 30
0.0
 10
56.72013398831943
 20
42.67230367292921
 30
0.0
 10
56.77249632007906
 20
42.7446611285398
 30
0.0
 10
56.798773506456
 20
42.78097254330958
 30
0.0
  0
SPLINE
  5
20C
330
2
100
AcDbEntity
  8
0
100
AcDbSpline
210
0.0
220
0.0
230
1.0
 70
     8
 71
     3
 72
     9
 73
     5
 74
     0
 42
0.000000001
 43
0.0000000001
 40
0.0
 40
0.0
 40
0.0
 40
0.0
 40
0.5612246961996228
 40
1.0
 40
1.0
 40
1.0
 40
1.0
 10
56.75486079584058
 20
42.4763910437976
 30
0.0
 10
56.75208437730698
 20
42.48696620762126
 30
0.0
 10
56.74713730610285
 20
42.50580921986795
 30
0.0
 10
56.74225247771307
 20
42.52478499762623
 30
0.0
 10
56.74010913565235
 20
42.53311110027681
 30
0.0
  0
SPLINE
  5
20D
330
2
100
AcDbEntity
  8
0
100
AcDbSpline
210
0.0
220
0.0
230
1.0
 70
     8
 71
     3
 72
    15
 73
    11
 74
     0
 42
0.000000001
 43
0.0000000001
 40
0.0
 40
0.0
 40
0.0
 40
0.0
 40
0.0963509519587922
 40
0.1952135916762629
 40
0.3009541018667972
 40
0.419598959823708
 40
0.554885253148349
 40
0.7004214722824078
 40
0.8483522455496512
 40
1.0
 40
1.0
 40
1.0
 40
1.0
 10
57.10329989905764
 20
42.20043622565384
 30
0.0
 10
57.09046305525371
 20
42.1970845971083
 30
0.0
 10
57.064454735317
 20
42.19029396937685
 30
0.0
 10
57.01650344602075
 20
42.19633478885072
 30
0.0
 10
56.96400418572798
 20
42.21552207975378
 30
0.0
 10
56.90839906503413
 20
42.24953865621546
 30
0.0
 10
56.85423804972216
 20
42.29685805737483
 30
0.0
 10
56.80760074196617
 20
42.35352408128806
 30
0.0
 10
56.77149830524207
 20
42.41504374898397
 30
0.0
 10
56.76045231619323
 20
42.45577349586716
 30
0.0
 10
56.75486079584058
 20
42.4763910437976
 30
0.0
  0
LINE
  5
20E
330
2
100
AcDbEntity
  8
0
100
AcDbLine
 10
57.27408125298861
 20
42.27076648311492
 30
0.0
 11
57.10329989903485
 21
42.20043622566453
 31
0.0
  0
LWPOLYLINE
  5
20F
330
2
100
AcDbEntity
  8
0
100
AcDbPolyline
 90
        3
 70
   128
 43
0.0
 10
85.10924905720944
 20
41.59658013829743
 10
84.55037636445336
 20
41.48269235818832
 10
84.11126148226131
 20
41.39320891054109
  0
SPLINE
  5
210
330
2
100
AcDbEntity
  8
0
100
AcDbSpline
210
0.0
220
0.0
230
1.0
 70
     8
 71
     3
 72
     9
 73
     5
 74
     0
 42
0.000000001
 43
0.0000000001
 40
0.0
 40
0.0
 40
0.0
 40
0.0
 40
0.4981647211854536
 40
1.0
 40
1.0
 40
1.0
 40
1.0
 10
84.16992672619599
 20
41.48620337044031
 30
0.0
 10
84.17656883332185
 20
41.47440794122445
 30
0.0
 10
84.18990198768502
 20
41.45073017217697
 30
0.0
 10
84.13753905112359
 20
41.41242952599276
 30
0.0
 10
84.11126148225472
 20
41.39320891053626
 30
0.0
  0
SPLINE
  5
211
330
2
100
AcDbEntity
  8
0
100
AcDbSpline
210
0.0
220
0.0
230
1.0
 70
     8
 71
     3
 72
     9
 73
     5
 74
     0
 42
0.000000001
 43
0.0000000001
 40
0.0
 40
0.0
 40
0.0
 40
0.0
 40
0.5612210079785572
 40
1.0
 40
1.0
 40
1.0
 40
1.0
 10
84.15517419287013
 20
41.49780676975029
 30
0.0
 10
84.15795099562059
 20
41.49558486679075
 30
0.0
 10
84.16289878394456
 20
41.49162581513718
 30
0.0
 10
84.16778344120631
 20
41.48785703290804
 30
0.0
 10
84.16992672619599
 20
41.48620337044031
 30
0.0
  0
SPLINE
  5
212
330
2
100
AcDbEntity
  8
0
100
AcDbSpline
210
0.0
220
0.0
230
1.0
 70
     8
 71
     3
 72
    15
 73
    11
 74
     0
 42
0.000000001
 43
0.0000000001
 40
0.0
 40
0.0
 40
0.0
 40
0.0
 40
0.096351006343238
 40
0.1952137018628546
 40
0.3009526534354001
 40
0.4195964811821133
 40
0.5548838905679883
 40
0.7004202431112228
 40
0.8483510998766876
 40
1.0
 40
1.0
 40
1.0
 40
1.0
 10
83.80673683592835
 20
41.39351299168697
 30
0.0
 10
83.81957368158978
 20
41.40159047322391
 30
0.0
 10
83.84558200528999
 20
41.41795600102057
 30
0.0
 10
83.89353300727707
 20
41.44402174868417
 30
0.0
 10
83.94603194380257
 20
41.46901413285422
 30
0.0
 10
84.00163559643692
 20
41.49088016799232
 30
0.0
 10
84.05579946502335
 20
41.50651420311811
 30
0.0
 10
84.10243455727339
 20
41.51322693000634
 30
0.0
 10
84.13853802236454
 20
41.51100516349635
 30
0.0
 10
84.1495831096793
 20
41.50224248513296
 30
0.0
 10
84.15517419287013
 20
41.49780676975029
 30
0.0
  0
LINE
  5
213
330
2
100
AcDbEntity
  8
0
100
AcDbLine
 10
83.63595548199294
 20
41.2963501315466
 30
0.0
 11
83.8067368359467
 21
41.39351299165769
 31
0.0
  0
SPLINE
  5
214
330
2
100
AcDbEntity
  8
0
100
AcDbSpline
210
0.0
220
0.0
230
1.0
 70
     8
 71
     3
 72
    10
 73
     6
 74
     0
 42
0.000000001
 43
0.0000000001
 40
0.0
 40
0.0
 40
0.0
 40
0.0
 40
0.4484360199591958
 40
0.9295479070333783
 40
1.0
 40
1.0
 40
1.0
 40
1.0
 10
83.80673683592835
 20
41.39351299168697
 30
0.0
 10
83.81033875440341
 20
41.39446064122546
 30
0.0
 10
83.81780504977395
 20
41.39642499200426
 30
0.0
 10
83.82444167066234
 20
41.40103053387844
 30
0.0
 10
83.82648624721296
 20
41.40524026006255
 30
0.0
 10
83.82674740403691
 20
41.4057779746908
 30
0.0
  0
LINE
  5
215
330
2
100
AcDbEntity
  8
0
100
AcDbLine
 10
71.42943471905912
 20
35.19308975007971
 30
0.0
 11
83.63595548199294
 21
41.2963501315466
 31
0.0
  0
LINE
  5
216
330
2
100
AcDbEntity
  8
0
100
AcDbLine
 10
84.03035218419075
 20
41.3491414634006
 30
0.0
 11
71.94649328743707
 21
35.30721201502377
 31
0.0
  0
SPLINE
  5
217
330
2
100
AcDbEntity
  8
0
100
AcDbSpline
210
0.0
220
0.0
230
1.0
 70
     8
 71
     3
 72
     9
 73
     5
 74
     0
 42
0.000000001
 43
0.0000000001
 40
0.0
 40
0.0
 40
0.0
 40
0.0
 40
0.5599428329022949
 40
1.0
 40
1.0
 40
1.0
 40
1.0
 10
84.11126148225472
 20
41.39320891053626
 30
0.0
 10
84.09791009008696
 20
41.38537758172822
 30
0.0
 10
84.07406588424441
 20
41.37139163825691
 30
0.0
 10
84.04371035316888
 20
41.35594074133552
 30
0.0
 10
84.03035218415803
 20
41.34914146340719
 30
0.0
  0
LWPOLYLINE
  5
218
330
2
100
AcDbEntity
  8
0
100
AcDbPolyline
 90
        3
 70
   128
 43
0.0
 10
72.71067730779257
 20
35.39729426358906
 10
72.22465572606001
 20
35.31983203899165
 10
71.84278112712458
 20
35.25896873297268
  0
SPLINE
  5
219
330
2
100
AcDbEntity
  8
0
100
AcDbSpline
210
0.0
220
0.0
230
1.0
 70
     8
 71
     3
 72
     9
 73
     5
 74
     0
 42
0.000000001
 43
0.0000000001
 40
0.0
 40
0.0
 40
0.0
 40
0.0
 40
0.5599416393415443
 40
1.0
 40
1.0
 40
1.0
 40
1.0
 10
71.84278112712874
 20
35.25896873297319
 30
0.0
 10
71.86342666529916
 20
35.26813586932633
 30
0.0
 10
71.90029754026153
 20
35.2845074618441
 30
0.0
 10
71.93237662015295
 20
35.30027387370285
 30
0.0
 10
71.94649328746141
 20
35.30721201505884
 30
0.0
  0
LWPOLYLINE
  5
21A
330
2
100
AcDbEntity
  8
0
100
AcDbPolyline
 90
        3
 70
   128
 43
0.0
 10
85.16182329304426
 20
41.61403804019307
 10
85.14888252032884
 20
41.60815578995226
 10
85.10924905720944
 20
41.59658013829743
  0
LINE
  5
21B
330
2
100
AcDbEntity
  8
0
100
AcDbLine
 10
71.42943471905912
 20
35.19308975007971
 30
0.0
 11
71.26194160149757
 21
35.12111537447458
 31
0.0
  0
SPLINE
  5
21C
330
2
100
AcDbEntity
  8
0
100
AcDbSpline
210
0.0
220
0.0
230
1.0
 70
     8
 71
     3
 72
    10
 73
     6
 74
     0
 42
0.000000001
 43
0.0000000001
 40
0.0
 40
0.0
 40
0.0
 40
0.0
 40
0.3662729677361743
 40
0.742092051977182
 40
1.0
 40
1.0
 40
1.0
 40
1.0
 10
71.26194160145982
 20
35.1211153744527
 30
0.0
 10
71.25062018512642
 20
35.11708868318687
 30
0.0
 10
71.22768228411212
 20
35.1089303536146
 30
0.0
 10
71.20868563004441
 20
35.10160904964636
 30
0.0
 10
71.20706485369797
 20
35.09980990651303
 30
0.0
 10
71.20640524620068
 20
35.09907770906824
 30
0.0
  0
LINE
  5
21D
330
2
100
AcDbEntity
  8
0
100
AcDbLine
 10
71.3677510383433
 20
35.12338472414615
 30
0.0
 11
71.43360176840904
 21
35.13702055751429
 31
0.0
  0
SPLINE
  5
21E
330
2
100
AcDbEntity
  8
0
100
AcDbSpline
210
0.0
220
0.0
230
1.0
 70
     8
 71
     3
 72
     9
 73
     5
 74
     0
 42
0.000000001
 43
0.0000000001
 40
0.0
 40
0.0
 40
0.0
 40
0.0
 40
0.5612246961996228
 40
1.0
 40
1.0
 40
1.0
 40
1.0
 10
71.43360176840267
 20
35.13702055751662
 30
0.0
 10
71.44639901272045
 20
35.13980888991449
 30
0.0
 10
71.46920136693691
 20
35.14477718945097
 30
0.0
 10
71.49194591484334
 20
35.14993827906108
 30
0.0
 10
71.50192566076078
 20
35.15220283772265
 30
0.0
  0
SPLINE
  5
21F
330
2
100
AcDbEntity
  8
0
100
AcDbSpline
210
0.0
220
0.0
230
1.0
 70
     8
 71
     3
 72
    10
 73
     6
 74
     0
 42
0.000000001
 43
0.0000000001
 40
0.0
 40
0.0
 40
0.0
 40
0.0
 40
0.0931004359333498
 40
0.4988332367427164
 40
1.0
 40
1.0
 40
1.0
 40
1.0
 10
71.50192566076078
 20
35.15220283772265
 30
0.0
 10
71.51233227671816
 20
35.15461861942867
 30
0.0
 10
71.56809104808712
 20
35.16756240637892
 30
0.0
 10
71.68791291756917
 20
35.19855517192139
 30
0.0
 10
71.78765957652402
 20
35.23746600383214
 30
0.0
 10
71.84278112712874
 20
35.25896873297319
 30
0.0
  0
SPLINE
  5
220
330
2
100
AcDbEntity
  8
0
100
AcDbSpline
210
0.0
220
0.0
230
1.0
 70
     8
 71
     3
 72
     9
 73
     5
 74
     0
 42
0.000000001
 43
0.0000000001
 40
0.0
 40
0.0
 40
0.0
 40
0.0
 40
0.7781456812062145
 40
1.0
 40
1.0
 40
1.0
 40
1.0
 10
71.26194160145982
 20
35.1211153744527
 30
0.0
 10
71.26624481752202
 20
35.12204468598816
 30
0.0
 10
71.27177490805152
 20
35.12323895019591
 30
0.0
 10
71.27637440865683
 20
35.12693581421235
 30
0.0
 10
71.27739482773042
 20
35.12775597946029
 30
0.0
  0
SPLINE
  5
221
330
2
100
AcDbEntity
  8
0
100
AcDbSpline
210
0.0
220
0.0
230
1.0
 70
     8
 71
     3
 72
    11
 73
     7
 74
     0
 42
0.000000001
 43
0.0000000001
 40
0.0
 40
0.0
 40
0.0
 40
0.0
 40
0.2500003580882927
 40
0.5000000127399961
 40
0.7499992045599128
 40
1.0
 40
1.0
 40
1.0
 40
1.0
 10
89.64942631914695
 20
57.49374478344134
 30
0.0
 10
89.57602432303124
 20
57.52289204979667
 30
0.0
 10
89.42922053733406
 20
57.58118650049437
 30
0.0
 10
89.14691051609647
 20
57.60613495163136
 30
0.0
 10
88.86460004592752
 20
57.58118677215605
 30
0.0
 10
88.71779664319616
 20
57.52289202981171
 30
0.0
 10
88.64439470641357
 20
57.49374456515693
 30
0.0
  0
LINE
  5
222
330
2
100
AcDbEntity
  8
0
100
AcDbLine
 10
88.64439470640368
 20
57.49374456511919
 30
0.0
 11
85.83182195763763
 21
56.08745819081907
 31
0.0
  0
LINE
  5
223
330
2
100
AcDbEntity
  8
0
100
AcDbLine
 10
101.9544335137034
 20
51.34124118614886
 30
0.0
 11
89.64942631914061
 21
57.49374478347164
 31
0.0
  0
SPLINE
  5
224
330
2
100
AcDbEntity
  8
0
100
AcDbSpline
210
0.0
220
0.0
230
1.0
 70
     8
 71
     3
 72
    13
 73
     9
 74
     0
 42
0.000000001
 43
0.0000000001
 40
0.0
 40
0.0
 40
0.0
 40
0.0
 40
0.1686865297914307
 40
0.3369222902665711
 40
0.5044509948893161
 40
0.6710007440129867
 40
0.8362843987354089
 40
1.0
 40
1.0
 40
1.0
 40
1.0
 10
88.39858599274689
 20
57.84808346218653
 30
0.0
 10
88.38930846804357
 20
57.84182485035103
 30
0.0
 10
88.3707782103229
 20
57.82932435113457
 30
0.0
 10
88.34280923952523
 20
57.81159327176368
 30
0.0
 10
88.31481555904792
 20
57.79465084516317
 30
0.0
 10
88.28683882731235
 20
57.77861036198988
 30
0.0
 10
88.25895670967042
 20
57.7634030772125
 30
0.0
 10
88.24035088754191
 20
57.75396914110024
 30
0.0
 10
88.23109231536779
 20
57.74927465473036
 30
0.0
  0
SPLINE
  5
225
330
2
100
AcDbEntity
  8
0
100
AcDbSpline
210
0.0
220
0.0
230
1.0
 70
     8
 71
     3
 72
    27
 73
    23
 74
     0
 42
0.000000001
 43
0.0000000001
 40
0.0
 40
0.0
 40
0.0
 40
0.0
 40
0.0228349016037536
 40
0.0475708295658489
 40
0.0744367798725564
 40
0.103422223750126
 40
0.1587262483917075
 40
0.2102592353344378
 40
0.2409287498464057
 40
0.3104221295005558
 40
0.3640792802134811
 40
0.416239536704089
 40
0.4797896191147279
 40
0.5431064137823655
 40
0.5946134944714908
 40
0.6832327580838059
 40
0.7540548163864671
 40
0.8292187340989867
 40
0.8786236404020094
 40
0.9110959970602101
 40
0.9580217667695784
 40
1.0
 40
1.0
 40
1.0
 40
1.0
 10
88.39858306961181
 20
57.8480774184344
 30
0.0
 10
88.40145587874991
 20
57.84995306150728
 30
0.0
 10
88.40744066100365
 20
57.85386049664726
 30
0.0
 10
88.41606270700781
 20
57.86080813065928
 30
0.0
 10
88.42460282745573
 20
57.86906422139788
 30
0.0
 10
88.43495305224701
 20
57.88160422226434
 30
0.0
 10
88.44485189191379
 20
57.89883252398443
 30
0.0
 10
88.45145981205169
 20
57.91789410487621
 30
0.0
 10
88.45654378586344
 20
57.93971952655772
 30
0.0
 10
88.4572267548811
 20
57.96311692308035
 30
0.0
 10
88.45295328394573
 20
57.99002616725187
 30
0.0
 10
88.44546826013264
 20
58.01586808442448
 30
0.0
 10
88.43380863346171
 20
58.04260551930792
 30
0.0
 10
88.41831215279613
 20
58.06804454125643
 30
0.0
 10
88.39786771195054
 20
58.09578706422081
 30
0.0
 10
88.37333541445289
 20
58.12279640897128
 30
0.0
 10
88.34208525527236
 20
58.14975390382585
 30
0.0
 10
88.3132981564769
 20
58.16939862907566
 30
0.0
 10
88.28886858286358
 20
58.18335404432588
 30
0.0
 10
88.26830807306583
 20
58.19392273618558
 30
0.0
 10
88.24859423585726
 20
58.20326946007515
 30
0.0
 10
88.23387240434612
 20
58.2094860537104
 30
0.0
 10
88.22692112592987
 20
58.21242137280626
 30
0.0
  0
SPLINE
  5
226
330
2
100
AcDbEntity
  8
0
100
AcDbSpline
210
0.0
220
0.0
230
1.0
 70
     8
 71
     3
 72
     8
 73
     4
 74
     0
 42
0.000000001
 43
0.0000000001
 40
0.0
 40
0.0
 40
0.0
 40
0.0
 40
1.0
 40
1.0
 40
1.0
 40
1.0
 10
88.22692113042601
 20
58.21242138320065
 30
0.0
 10
88.20410868989119
 20
58.22231487768999
 30
0.0
 10
88.18133433563103
 20
58.23229366303189
 30
0.0
 10
88.15859855063155
 20
58.24235522941638
 30
0.0
  0
SPLINE
  5
227
330
2
100
AcDbEntity
  8
0
100
AcDbSpline
210
0.0
220
0.0
230
1.0
 70
     8
 71
     3
 72
    21
 73
    17
 74
     0
 42
0.000000001
 43
0.0000000001
 40
0.0
 40
0.0
 40
0.0
 40
0.0
 40
0.054111880969411
 40
0.1081840378475454
 40
0.1622644877836223
 40
0.216405691345765
 40
0.2706642150598465
 40
0.3251003428272058
 40
0.3797776429744781
 40
0.4347624992166237
 40
0.4901236151033855
 40
0.5918262790121947
 40
0.6931479876768531
 40
0.794587770235557
 40
0.8966846276613203
 40
1.0
 40
1.0
 40
1.0
 40
1.0
 10
87.81774364921043
 20
58.29046136311859
 30
0.0
 10
87.82338494097315
 20
58.29134068175244
 30
0.0
 10
87.83466338316793
 20
58.2930986735031
 30
0.0
 10
87.85203271215126
 20
58.29502836420118
 30
0.0
 10
87.86969822182442
 20
58.29642532431586
 30
0.0
 10
87.88767975448051
 20
58.29723047337461
 30
0.0
 10
87.9059541193148
 20
58.29744819043878
 30
0.0
 10
87.92451072393225
 20
58.29706622578476
 30
0.0
 10
87.94333645894653
 20
58.2960772891322
 30
0.0
 10
87.96242028560069
 20
58.29447284026207
 30
0.0
 10
87.9870890302512
 20
58.29163123657668
 30
0.0
 10
88.01733333087074
 20
58.28682741253044
 30
0.0
 10
88.05301720642811
 20
58.27906013865248
 30
0.0
 10
88.08853624066635
 20
58.26910041439976
 30
0.0
 10
88.12391016171799
 20
58.25707392821289
 30
0.0
 10
88.14698780484752
 20
58.2472757446634
 30
0.0
 10
88.15859507523915
 20
58.24234759124812
 30
0.0
  0
LINE
  5
228
330
2
100
AcDbEntity
  8
0
100
AcDbLine
 10
89.96173628764163
 20
57.55474676792869
 30
0.0
 11
88.37429918635974
 21
59.6331364606279
 31
0.0
  0
LINE
  5
229
330
2
100
AcDbEntity
  8
0
100
AcDbLine
 10
89.88364456173433
 20
57.59350467493447
 30
0.0
 11
102.280140042263
 21
51.44096785428996
 31
0.0
  0
SPLINE
  5
22A
330
2
100
AcDbEntity
  8
0
100
AcDbSpline
210
0.0
220
0.0
230
1.0
 70
     8
 71
     3
 72
    14
 73
    10
 74
     0
 42
0.000000001
 43
0.0000000001
 40
0.0
 40
0.0
 40
0.0
 40
0.0
 40
0.25
 40
0.25
 40
0.5
 40
0.5
 40
0.75
 40
0.75
 40
1.0
 40
1.0
 40
1.0
 40
1.0
 10
95.24537596102318
 20
55.72926136690114
 30
0.0
 10
95.20573367567024
 20
55.7801973177373
 30
0.0
 10
95.16733773333703
 20
55.83251360392819
 30
0.0
 10
95.09289502308275
 20
55.94005871709862
 30
0.0
 10
95.0568109872265
 20
55.99534047182721
 30
0.0
 10
94.98714672178024
 20
56.10854497015771
 30
0.0
 10
94.95360257722577
 20
56.16641326162363
 30
0.0
 10
94.88932771247613
 20
56.28431519245134
 30
0.0
 10
94.8585620901451
 20
56.34440480833569
 30
0.0
 10
94.82911249118956
 20
56.40572958895171
 30
0.0
  0
SPLINE
  5
22B
330
2
100
AcDbEntity
  8
0
100
AcDbSpline
210
0.0
220
0.0
230
1.0
 70
     8
 71
     3
 72
    24
 73
    20
 74
     0
 42
0.000000001
 43
0.0000000001
 40
0.0
 40
0.0
 40
0.0
 40
0.0
 40
0.0364871869819857
 40
0.0728222423115418
 40
0.1090167995363026
 40
0.1450826281631741
 40
0.1810316241344255
 40
0.2168757997155542
 40
0.2526272728291538
 40
0.3803729908035434
 40
0.511479966018012
 40
0.576259523069719
 40
0.6404440064008139
 40
0.7032272041026985
 40
0.7646321292392697
 40
0.8243407449439722
 40
0.8834244843465397
 40
0.9419535109961959
 40
1.0
 40
1.0
 40
1.0
 40
1.0
 10
96.13583303768766
 20
54.97699015258877
 30
0.0
 10
96.12419654418275
 20
54.98283218687959
 30
0.0
 10
96.10097207499874
 20
54.99449189736714
 30
0.0
 10
96.06630982848912
 20
55.01294409862822
 30
0.0
 10
96.03187336904426
 20
55.03205361502409
 30
0.0
 10
95.99766937634923
 20
55.05189154839382
 30
0.0
 10
95.96369616274509
 20
55.07243893277996
 30
0.0
 10
95.92995390250965
 20
55.09370091674037
 30
0.0
 10
95.86767935444935
 20
55.13453841235338
 30
0.0
 10
95.77660434790507
 20
55.19970618686983
 30
0.0
 10
95.6785488858318
 20
55.27874638095136
 30
0.0
 10
95.60108763482162
 20
55.34628177844945
 30
0.0
 10
95.54468852459683
 20
55.39806281385143
 30
0.0
 10
95.49004595850064
 20
55.45087024170055
 30
0.0
 10
95.43754063945105
 20
55.50436808073363
 30
0.0
 10
95.38700220323248
 20
55.55871870542495
 30
0.0
 10
95.33827537658334
 20
55.6141273973592
 30
0.0
 10
95.29096576954378
 20
55.67073003831826
 30
0.0
 10
95.26053057550994
 20
55.7098048394414
 30
0.0
 10
95.24537596825032
 20
55.72926136940828
 30
0.0
  0
SPLINE
  5
22C
330
2
100
AcDbEntity
  8
0
100
AcDbSpline
210
0.0
220
0.0
230
1.0
 70
     8
 71
     3
 72
    23
 73
    19
 74
     0
 42
0.000000001
 43
0.0000000001
 40
0.0
 40
0.0
 40
0.0
 40
0.0
 40
0.0356404416323413
 40
0.0788115280112817
 40
0.1295143420141502
 40
0.1877494437762298
 40
0.2535155841236439
 40
0.3272974351230783
 40
0.3822498404990697
 40
0.4504448931521591
 40
0.5127479837036972
 40
0.6416538189516709
 40
0.6957847894237938
 40
0.7656206525677644
 40
0.8401273521422098
 40
0.8844400462876034
 40
0.9433093527965324
 40
1.0
 40
1.0
 40
1.0
 40
1.0
 10
96.13583332729398
 20
54.97699025305564
 30
0.0
 10
96.14720454659135
 20
54.97133111418197
 30
0.0
 10
96.17234966621204
 20
54.95881708906239
 30
0.0
 10
96.21378183250328
 20
54.93949964188766
 30
0.0
 10
96.2625351362292
 20
54.91820013700072
 30
0.0
 10
96.31863225344432
 20
54.89576477309265
 30
0.0
 10
96.38220770603673
 20
54.87298683449916
 30
0.0
 10
96.44472941180564
 20
54.85353630294515
 30
0.0
 10
96.50794850774468
 20
54.83658652109136
 30
0.0
 10
96.56737070958527
 20
54.82295981981241
 30
0.0
 10
96.65023958775613
 20
54.80727504385652
 30
0.0
 10
96.72822432564444
 20
54.79699809913814
 30
0.0
 10
96.8079384981695
 20
54.79116688703595
 30
0.0
 10
96.87008154968127
 20
54.78935251139671
 30
0.0
 10
96.92856592138426
 20
54.79088999200178
 30
0.0
 10
96.98307838440996
 20
54.79503869032055
 30
0.0
 10
97.03167771716318
 20
54.80079667428594
 30
0.0
 10
97.06621674172218
 20
54.80721859460897
 30
0.0
 10
97.08316067076617
 20
54.81036901833022
 30
0.0
  0
SPLINE
  5
22D
330
2
100
AcDbEntity
  8
0
100
AcDbSpline
210
0.0
220
0.0
230
1.0
 70
     8
 71
     3
 72
    14
 73
    10
 74
     0
 42
0.000000001
 43
0.0000000001
 40
0.0
 40
0.0
 40
0.0
 40
0.0
 40
0.25
 40
0.25
 40
0.5
 40
0.5
 40
0.75
 40
0.75
 40
1.0
 40
1.0
 40
1.0
 40
1.0
 10
97.0831606633267
 20
54.8103690157493
 30
0.0
 10
97.12857796157178
 20
54.81878336741738
 30
0.0
 10
97.1731167155365
 20
54.82963957805435
 30
0.0
 10
97.26059667168774
 20
54.85623517566995
 30
0.0
 10
97.30358170865228
 20
54.87198716914702
 30
0.0
 10
97.3877630893617
 20
54.90827293885849
 30
0.0
 10
97.4289163570706
 20
54.92879161272885
 30
0.0
 10
97.50906392500503
 20
54.97447140297675
 30
0.0
 10
97.54810054252457
 20
54.99965011758394
 30
0.0
 10
97.58616951897039
 20
55.02720107506121
 30
0.0
  0
SPLINE
  5
22E
330
2
100
AcDbEntity
  8
0
100
AcDbSpline
210
0.0
220
0.0
230
1.0
 70
     8
 71
     3
 72
     8
 73
     4
 74
     0
 42
0.000000001
 43
0.0000000001
 40
0.0
 40
0.0
 40
0.0
 40
0.0
 40
1.0
 40
1.0
 40
1.0
 40
1.0
 10
88.37429935331911
 20
59.63313615495019
 30
0.0
 10
88.18474250538352
 20
59.82662677754735
 30
0.0
 10
87.99513709647122
 20
60.020077067849
 30
0.0
 10
87.8055313497107
 20
60.21353600829655
 30
0.0
  0
SPLINE
  5
22F
330
2
100
AcDbEntity
  8
0
100
AcDbSpline
210
0.0
220
0.0
230
1.0
 70
     8
 71
     3
 72
    17
 73
    13
 74
     0
 42
0.000000001
 43
0.0000000001
 40
0.0
 40
0.0
 40
0.0
 40
0.0
 40
0.2500000000000001
 40
0.2500000000000001
 40
0.3750000000000001
 40
0.3750000000000001
 40
0.5000000000000001
 40
0.6250000000000001
 40
0.6250000000000001
 40
0.7500000000000002
 40
0.7500000000000002
 40
1.0
 40
1.0
 40
1.0
 40
1.0
 10
94.29063164039218
 20
57.94656592641468
 30
0.0
 10
94.31134259922504
 20
57.78836870746812
 30
0.0
 10
94.3364059143634
 20
57.66178797163059
 30
0.0
 10
94.38456637025698
 20
57.47087326972462
 30
0.0
 10
94.40239025776568
 20
57.40702950907553
 30
0.0
 10
94.44153494642504
 20
57.27895109956808
 30
0.0
 10
94.4841385953404
 20
57.15060817647333
 30
0.0
 10
94.53319284934815
 20
57.02304030272876
 30
0.0
 10
94.58523874819226
 20
56.8965119919211
 30
0.0
 10
94.61273148218802
 20
56.83382993625156
 30
0.0
 10
94.69965911899937
 20
56.64757335185175
 30
0.0
 10
94.76359553232811
 20
56.52566376919782
 30
0.0
 10
94.83398801387608
 20
56.40525862684836
 30
0.0
  0
LINE
  5
230
330
2
100
AcDbEntity
  8
0
100
AcDbLine
 10
70.94255004077829
 20
49.87204912834068
 30
0.0
 11
87.71403076747255
 21
58.25778949168778
 31
0.0
  0
SPLINE
  5
231
330
2
100
AcDbEntity
  8
0
100
AcDbSpline
210
0.0
220
0.0
230
1.0
 70
     8
 71
     3
 72
     8
 73
     4
 74
     0
 42
0.000000001
 43
0.0000000001
 40
0.0
 40
0.0
 40
0.0
 40
0.0
 40
1.0
 40
1.0
 40
1.0
 40
1.0
 10
70.94254989633572
 20
49.87204898019308
 30
0.0
 10
70.91129799412382
 20
49.85639716144658
 30
0.0
 10
70.88412821682107
 20
49.8363696790816
 30
0.0
 10
70.86163910113725
 20
49.81240599385779
 30
0.0
  0
SPLINE
  5
232
330
2
100
AcDbEntity
  8
0
100
AcDbSpline
210
0.0
220
0.0
230
1.0
 70
     8
 71
     3
 72
     8
 73
     4
 74
     0
 42
0.000000001
 43
0.0000000001
 40
0.0
 40
0.0
 40
0.0
 40
0.0
 40
1.0
 40
1.0
 40
1.0
 40
1.0
 10
87.81774106259055
 20
58.29045697458486
 30
0.0
 10
87.78013809739702
 20
58.28437461936982
 30
0.0
 10
87.7453135281882
 20
58.2734049284789
 30
0.0
 10
87.71403105882573
 20
58.25778956143813
 30
0.0
  0
SPLINE
  5
233
330
2
100
AcDbEntity
  8
0
100
AcDbSpline
210
0.0
220
0.0
230
1.0
 70
     8
 71
     3
 72
    14
 73
    10
 74
     0
 42
0.000000001
 43
0.0000000001
 40
0.0
 40
0.0
 40
0.0
 40
0.0
 40
0.25
 40
0.25
 40
0.5
 40
0.5
 40
0.75
 40
0.75
 40
1.0
 40
1.0
 40
1.0
 40
1.0
 10
88.37193185507738
 20
57.57878660078507
 30
0.0
 10
88.47051523911405
 20
57.62797388638773
 30
0.0
 10
88.58804926815681
 20
57.66763046311007
 30
0.0
 10
88.84424714415613
 20
57.7222672627575
 30
0.0
 10
88.98283394788967
 20
57.73722571479322
 30
0.0
 10
89.26127622266658
 20
57.7402404592774
 30
0.0
 10
89.40105805755317
 20
57.7283103113694
 30
0.0
 10
89.66157669367996
 20
57.6789500459867
 30
0.0
 10
89.78234968618755
 20
57.64153389924127
 30
0.0
 10
89.88364456173433
 20
57.59350467493447
 30
0.0
  0
LINE
  5
234
330
2
100
AcDbEntity
  8
0
100
AcDbLine
 10
85.32715321224527
 20
55.51487798059844
 30
0.0
 11
98.10092267706025
 21
49.12799324814949
 31
0.0
  0
LWPOLYLINE
  5
235
330
2
100
AcDbEntity
  8
0
100
AcDbPolyline
 90
        9
 70
   128
 43
0.0
 10
85.32715321224527
 20
55.51487798059844
 10
85.25157834843795
 20
55.54012671954438
 10
85.16243186994021
 20
55.54899299562379
 10
85.07328539152529
 20
55.54012671954438
 10
84.99771052771803
 20
55.51487798059844
 10
84.94721304974314
 20
55.47709054865333
 10
84.9294809342895
 20
55.43251752775694
 10
84.94721304974314
 20
55.3879440702384
 10
84.9977109643402
 20
55.35015685664586
  0
LINE
  5
236
330
2
100
AcDbEntity
  8
0
100
AcDbLine
 10
97.7714804291552
 20
48.96327212419698
 30
0.0
 11
84.9977109643402
 21
55.35015685664586
 31
0.0
  0
LWPOLYLINE
  5
237
330
2
100
AcDbEntity
  8
0
100
AcDbPolyline
 90
        9
 70
   128
 43
0.0
 10
97.7714804291552
 20
48.96327212419698
 10
97.84705485642314
 20
48.9380231668984
 10
97.93620177146024
 20
48.92915710917162
 10
98.02534781333584
 20
48.9380231668984
 10
98.10092267706025
 20
48.96327190592728
 10
98.15142015511803
 20
49.00105933778951
 10
98.16915270711092
 20
49.04563257703841
 10
98.15142015511803
 20
49.09020581620438
 10
98.10092267706025
 20
49.12799324814949
  0
LINE
  5
238
330
2
100
AcDbEntity
  8
0
100
AcDbLine
 10
71.77563160486446
 20
48.267111200339
 30
0.0
 11
71.53800676342152
 21
48.38592362106044
 31
0.0
  0
LINE
  5
239
330
2
100
AcDbEntity
  8
0
100
AcDbLine
 10
88.12251685494878
 20
43.63970661639029
 30
0.0
 11
87.88489201350584
 21
43.5208941956688
 31
0.0
  0
LWPOLYLINE
  5
23A
330
2
100
AcDbEntity
  8
0
100
AcDbPolyline
 90
       10
 70
   128
 43
0.0
 10
88.12251685494878
 20
43.63970661639029
 10
88.2387388945944
 20
43.7089606185794
 10
88.32914356431352
 20
43.7872531232058
 10
88.3909835367082
 20
43.87220548509356
 10
88.42238069256188
 20
43.96123670942478
 10
88.42238112918407
 20
44.05164116087422
 10
88.3909839732475
 20
44.14067238520551
 10
88.32914312777422
 20
44.2256247470932
 10
88.2387388945944
 20
44.3039174699893
 10
88.12251685494878
 20
44.37317147217839
  0
LINE
  5
23B
330
2
100
AcDbEntity
  8
0
100
AcDbLine
 10
85.60087268994832
 20
56.150821440112
 30
0.0
 11
88.41344543871437
 21
57.55710781441212
 31
0.0
  0
LWPOLYLINE
  5
23C
330
2
100
AcDbEntity
  8
0
100
AcDbPolyline
 90
       10
 70
   128
 43
0.0
 10
85.60087268994832
 20
56.150821440112
 10
85.48465065030271
 20
56.08156743784002
 10
85.39424598050072
 20
56.00327493321356
 10
85.3324060081889
 20
55.9183225713258
 10
85.30100885225236
 20
55.82929134707746
 10
85.30100841571305
 20
55.73888689554514
 10
85.33240557156673
 20
55.64985567129679
 10
85.39424641712287
 20
55.56490330940903
 10
85.48465065030271
 20
55.48661058651294
 10
85.60087268994832
 20
55.41735658432384
  0
LINE
  5
23D
330
2
100
AcDbEntity
  8
0
100
AcDbLine
 10
85.83849753139125
 20
55.2985441636024
 30
0.0
 11
85.60087268994832
 21
55.41735658432384
 31
0.0
  0
LINE
  5
23E
330
2
100
AcDbEntity
  8
0
100
AcDbLine
 10
102.1853823448534
 20
50.67113936138406
 30
0.0
 11
101.9477579400326
 21
50.5523271589322
 31
0.0
  0
LWPOLYLINE
  5
23F
330
2
100
AcDbEntity
  8
0
100
AcDbPolyline
 90
       10
 70
   128
 43
0.0
 10
102.1853823448534
 20
50.67113936138406
 10
102.3016048211212
 20
50.74039358184274
 10
102.3920094908403
 20
50.81868608646925
 10
102.453849463235
 20
50.90363844835696
 10
102.4852461825493
 20
50.99266945441849
 10
102.4852466190886
 20
51.08307390586799
 10
102.4538498997743
 20
51.1721053484689
 10
102.3920094908403
 20
51.25705792862629
 10
102.3016048211212
 20
51.3353504332527
 10
102.1853827813927
 20
51.4046044354418
  0
LINE
  5
240
330
2
100
AcDbEntity
  8
0
100
AcDbLine
 10
89.88037558682993
 20
57.55710803276463
 30
0.0
 11
102.1853827813927
 21
51.4046044354418
 31
0.0
  0
LINE
  5
241
330
2
100
AcDbEntity
  8
0
100
AcDbLine
 10
88.37193211030404
 20
57.57878651203242
 30
0.0
 11
71.49464980488591
 21
49.14014574978904
 31
0.0
  0
SPLINE
  5
242
330
2
100
AcDbEntity
  8
0
100
AcDbSpline
210
0.0
220
0.0
230
1.0
 70
     8
 71
     3
 72
     9
 73
     5
 74
     0
 42
0.000000001
 43
0.0000000001
 40
0.0
 40
0.0
 40
0.0
 40
0.0
 40
0.3003787441294766
 40
1.0
 40
1.0
 40
1.0
 40
1.0
 10
84.13259703671046
 20
42.10295056101443
 30
0.0
 10
84.09982961891193
 20
42.10939351852914
 30
0.0
 10
83.99074261312698
 20
42.13084296407294
 30
0.0
 10
83.90190065385484
 20
42.16978123782616
 30
0.0
 10
83.83974493073486
 20
42.19702328181091
 30
0.0
  0
LINE
  5
243
330
2
100
AcDbEntity
  8
0
100
AcDbLine
 10
71.46521327956415
 20
48.38428925576403
 30
0.0
 11
83.83974493073033
 21
42.19702328180892
 31
0.0
  0
SPLINE
  5
244
330
2
100
AcDbEntity
  8
0
100
AcDbSpline
210
0.0
220
0.0
230
1.0
 70
     8
 71
     3
 72
    14
 73
    10
 74
     0
 42
0.000000001
 43
0.0000000001
 40
0.0
 40
0.0
 40
0.0
 40
0.0
 40
0.25
 40
0.25
 40
0.5
 40
0.5
 40
0.75
 40
0.75
 40
1.0
 40
1.0
 40
1.0
 40
1.0
 10
71.46521361395753
 20
48.38428967449345
 30
0.0
 10
71.36915458184282
 20
48.43493721845681
 30
0.0
 10
71.29431974521645
 20
48.49532288551586
 30
0.0
 10
71.19559790005277
 20
48.62558267838529
 30
0.0
 10
71.17173695145083
 20
48.69547394950649
 30
0.0
 10
71.17776559464165
 20
48.83469594393864
 30
0.0
 10
71.20768228429369
 20
48.90398985443614
 30
0.0
 10
71.31695615227015
 20
49.03208969420887
 30
0.0
 10
71.39627475049692
 20
49.0908546127223
 30
0.0
 10
71.49464996590811
 20
49.14014658406938
 30
0.0
  0
LINE
  5
245
330
2
100
AcDbEntity
  8
0
100
AcDbLine
 10
88.23108933585052
 20
57.74927052454592
 30
0.0
 11
71.33694674289323
 21
49.30219922810869
 31
0.0
  0
ARC
  5
246
330
2
100
AcDbEntity
  8
0
100
AcDbCircle
 10
94.12861699056847
 20
58.41851694076002
 30
0.0
 40
0.1409553603273012
100
AcDbArc
 50
63.66456919779995
 51
139.2740837856995
  0
SPLINE
  5
247
330
2
100
AcDbEntity
  8
0
100
AcDbSpline
210
0.0
220
0.0
230
1.0
 70
     8
 71
     3
 72
    14
 73
    10
 74
     0
 42
0.000000001
 43
0.0000000001
 40
0.0
 40
0.0
 40
0.0
 40
0.0
 40
0.25
 40
0.25
 40
0.5
 40
0.5
 40
0.75
 40
0.75
 40
1.0
 40
1.0
 40
1.0
 40
1.0
 10
94.26964216754404
 20
58.59485122255802
 30
0.0
 10
94.26795406105643
 20
58.58344360076682
 30
0.0
 10
94.26485872378307
 20
58.57395952892142
 30
0.0
 10
94.25582408331642
 20
58.55828483494417
 30
0.0
 10
94.24978862672427
 20
58.55199308013664
 30
0.0
 10
94.23561347046224
 20
58.54295843146331
 30
0.0
 10
94.22758600205582
 20
58.54028720346696
 30
0.0
 10
94.21047076927989
 20
58.53930088438056
 30
0.0
 10
94.20125469578232
 20
58.54094359422788
 30
0.0
 10
94.19114836182879
 20
58.54484315026548
 30
0.0
  0
LWPOLYLINE
  5
248
330
2
100
AcDbEntity
  8
0
100
AcDbPolyline
 90
        3
 70
   128
 43
0.0
 10
94.26964214274191
 20
58.59485128650795
 10
94.27184965290818
 20
58.60944536053096
 10
94.27213746092006
 20
58.61130037788512
  0
LINE
  5
249
330
2
100
AcDbEntity
  8
0
100
AcDbLine
 10
86.19995860913666
 20
54.8882742919103
 30
0.0
 11
86.20248459635567
 21
55.06677068799007
 31
0.0
  0
LINE
  5
24A
330
2
100
AcDbEntity
  8
0
100
AcDbLine
 10
86.96169740759705
 20
54.50740489268014
 30
0.0
 11
86.19995860913666
 21
54.8882742919103
 31
0.0
  0
LINE
  5
24B
330
2
100
AcDbEntity
  8
0
100
AcDbLine
 10
86.9642233947332
 20
54.68590128875985
 30
0.0
 11
86.96169740759705
 21
54.50740489268014
 31
0.0
  0
LINE
  5
24C
330
2
100
AcDbEntity
  8
0
100
AcDbLine
 10
88.13360264677113
 20
53.92145227305167
 30
0.0
 11
88.13612863390728
 21
54.09994866913137
 31
0.0
  0
LINE
  5
24D
330
2
100
AcDbEntity
  8
0
100
AcDbLine
 10
88.895341226879
 20
53.5405829830392
 30
0.0
 11
88.13360264677113
 21
53.92145227305167
 31
0.0
  0
LINE
  5
24E
330
2
100
AcDbEntity
  8
0
100
AcDbLine
 10
88.89786721401511
 20
53.71907937911891
 30
0.0
 11
88.895341226879
 21
53.5405829830392
 31
0.0
  0
LINE
  5
24F
330
2
100
AcDbEntity
  8
0
100
AcDbLine
 10
90.06724679354041
 20
52.95463019974983
 30
0.0
 11
90.06977278067653
 21
53.13312659574677
 31
0.0
  0
LINE
  5
250
330
2
100
AcDbEntity
  8
0
100
AcDbLine
 10
90.82898537364826
 20
52.57376090965454
 30
0.0
 11
90.06724679354041
 21
52.95463019974983
 31
0.0
  0
LINE
  5
251
330
2
100
AcDbEntity
  8
0
100
AcDbLine
 10
90.8315113607844
 20
52.75225730573424
 30
0.0
 11
90.82898537364826
 21
52.57376090965454
 31
0.0
  0
LINE
  5
252
330
2
100
AcDbEntity
  8
0
100
AcDbLine
 10
92.00089083117484
 20
51.98780818089125
 30
0.0
 11
92.00341681831096
 21
52.16630457697096
 31
0.0
  0
LINE
  5
253
330
2
100
AcDbEntity
  8
0
100
AcDbLine
 10
92.76262941128271
 20
51.60693889087878
 30
0.0
 11
92.00089083117484
 21
51.98780818089125
 31
0.0
  0
LINE
  5
254
330
2
100
AcDbEntity
  8
0
100
AcDbLine
 10
92.76515539841884
 20
51.78543528695843
 30
0.0
 11
92.76262941128271
 21
51.60693889087878
 31
0.0
  0
LINE
  5
255
330
2
100
AcDbEntity
  8
0
100
AcDbLine
 10
93.93453497786126
 20
51.02098610750658
 30
0.0
 11
93.93706096508024
 21
51.19948250358635
 31
0.0
  0
LINE
  5
256
330
2
100
AcDbEntity
  8
0
100
AcDbLine
 10
94.69627355796911
 20
50.64011681749412
 30
0.0
 11
93.93453497786126
 21
51.02098610750658
 31
0.0
  0
LINE
  5
257
330
2
100
AcDbEntity
  8
0
100
AcDbLine
 10
94.69879954518811
 20
50.81861321357383
 30
0.0
 11
94.69627355796911
 21
50.64011681749412
 31
0.0
  0
SPLINE
  5
258
330
2
100
AcDbEntity
  8
0
100
AcDbSpline
210
0.0
220
0.0
230
1.0
 70
     8
 71
     3
 72
     9
 73
     5
 74
     0
 42
0.000000001
 43
0.0000000001
 40
0.0
 40
0.0
 40
0.0
 40
0.0
 40
0.4147456062671818
 40
1.0
 40
1.0
 40
1.0
 40
1.0
 10
94.08781974521618
 20
58.59655001790883
 30
0.0
 10
94.10460384484261
 20
58.60603787928443
 30
0.0
 10
94.14507226541848
 20
58.62891421897825
 30
0.0
 10
94.19912663819401
 20
58.61305181844477
 30
0.0
 10
94.23076219736136
 20
58.60376827883738
 30
0.0
  0
SPLINE
  5
259
330
2
100
AcDbEntity
  8
0
100
AcDbSpline
210
0.0
220
0.0
230
1.0
 70
     8
 71
     3
 72
     9
 73
     5
 74
     0
 42
0.000000001
 43
0.0000000001
 40
0.0
 40
0.0
 40
0.0
 40
0.0
 40
0.4653778265685034
 40
1.0
 40
1.0
 40
1.0
 40
1.0
 10
94.26481652932801
 20
58.60569276948149
 30
0.0
 10
94.260213777307
 20
58.60341959978746
 30
0.0
 10
94.2503234220768
 20
58.59853503167068
 30
0.0
 10
94.23757681574327
 20
58.60194515258342
 30
0.0
 10
94.23076219736136
 20
58.60376827883738
 30
0.0
  0
SPLINE
  5
25A
330
2
100
AcDbEntity
  8
0
100
AcDbSpline
210
0.0
220
0.0
230
1.0
 70
     8
 71
     3
 72
     9
 73
     5
 74
     0
 42
0.000000001
 43
0.0000000001
 40
0.0
 40
0.0
 40
0.0
 40
0.0
 40
0.4331781783995918
 40
1.0
 40
1.0
 40
1.0
 40
1.0
 10
94.29828749621846
 20
58.91477708198499
 30
0.0
 10
94.32848848593387
 20
58.93106821440614
 30
0.0
 10
94.39820804066075
 20
58.9686766010551
 30
0.0
 10
94.44720008297457
 20
59.03962125984429
 30
0.0
 10
94.47496984164279
 20
59.07983424057198
 30
0.0
  0
SPLINE
  5
25B
330
2
100
AcDbEntity
  8
0
100
AcDbSpline
210
0.0
220
0.0
230
1.0
 70
     8
 71
     3
 72
    17
 73
    13
 74
     0
 42
0.000000001
 43
0.0000000001
 40
0.0
 40
0.0
 40
0.0
 40
0.0
 40
0.2500000000000002
 40
0.2500000000000002
 40
0.3750000000000002
 40
0.3750000000000002
 40
0.5000000000000002
 40
0.6250000000000002
 40
0.6250000000000002
 40
0.7500000000000002
 40
0.7500000000000002
 40
1.0
 40
1.0
 40
1.0
 40
1.0
 10
97.58123707340848
 20
55.03163409496647
 30
0.0
 10
97.64916567781757
 20
55.08287869434235
 30
0.0
 10
97.71050134748264
 20
55.14215223666003
 30
0.0
 10
97.79329997805218
 20
55.24354568827021
 30
0.0
 10
97.81937768214357
 20
55.27944252501725
 30
0.0
 10
97.86851735593376
 20
55.3553780492353
 30
0.0
 10
97.91459207043978
 20
55.43538143809167
 30
0.0
 10
97.95410050640334
 20
55.52266831864028
 30
0.0
 10
97.9901076231086
 20
55.61317082624293
 30
0.0
 10
98.00634309840319
 20
55.65998490661638
 30
0.0
 10
98.04967935656602
 20
55.80515125358761
 30
0.0
 10
98.07144481857134
 20
55.90831759994552
 30
0.0
 10
98.08615304902062
 20
56.01859754840529
 30
0.0
  0
SPLINE
  5
25C
330
2
100
AcDbEntity
  8
0
100
AcDbSpline
210
0.0
220
0.0
230
1.0
 70
     8
 71
     3
 72
    10
 73
     6
 74
     0
 42
0.000000001
 43
0.0000000001
 40
0.0
 40
0.0
 40
0.0
 40
0.0
 40
0.5
 40
0.5
 40
1.0
 40
1.0
 40
1.0
 40
1.0
 10
98.08615277722172
 20
56.0185978968442
 30
0.0
 10
98.08653283283538
 20
56.02144663259792
 30
0.0
 10
98.08776568570918
 20
56.02369192998037
 30
0.0
 10
98.09144596349304
 20
56.02605714483553
 30
0.0
 10
98.09388984172413
 20
56.02616898081032
 30
0.0
 10
98.09642689177239
 20
56.02519143047806
 30
0.0
  0
SPLINE
  5
25D
330
2
100
AcDbEntity
  8
0
100
AcDbSpline
210
0.0
220
0.0
230
1.0
 70
     8
 71
     3
 72
    15
 73
    11
 74
     0
 42
0.000000001
 43
0.0000000001
 40
0.0
 40
0.0
 40
0.0
 40
0.0
 40
0.0202917819987613
 40
0.1604058909838705
 40
0.3004651416800123
 40
0.4405901744037053
 40
0.580681271933881
 40
0.7206378830681856
 40
0.8605705989730354
 40
1.0
 40
1.0
 40
1.0
 40
1.0
 10
98.17971068732241
 20
56.70068703170688
 30
0.0
 10
98.18509892485053
 20
56.69628660212737
 30
0.0
 10
98.22769277104805
 20
56.66150134633034
 30
0.0
 10
98.29290255848661
 20
56.55821442399525
 30
0.0
 10
98.35725808719349
 20
56.40927647133037
 30
0.0
 10
98.38054690786719
 20
56.25759689445863
 30
0.0
 10
98.36103322127947
 20
56.12834602320333
 30
0.0
 10
98.301042806318
 20
56.03878050711603
 30
0.0
 10
98.20914900628645
 20
55.99682553907803
 30
0.0
 10
98.13395635468499
 20
56.01574181135567
 30
0.0
 10
98.09642776458993
 20
56.02518290717177
 30
0.0
  0
LINE
  5
25E
330
2
100
AcDbEntity
  8
0
100
AcDbLine
 10
95.86817886550781
 20
50.05416423192372
 30
0.0
 11
95.87070478444502
 21
50.23266059394535
 31
0.0
  0
LINE
  5
25F
330
2
100
AcDbEntity
  8
0
100
AcDbLine
 10
96.62991766388532
 20
49.67329483277637
 30
0.0
 11
95.86817886550781
 21
50.05416423192372
 31
0.0
  0
LINE
  5
260
330
2
100
AcDbEntity
  8
0
100
AcDbLine
 10
96.63244358282256
 20
49.85179119471519
 30
0.0
 11
96.62991766388532
 21
49.67329483277637
 31
0.0
  0
LINE
  5
261
330
2
100
AcDbEntity
  8
0
100
AcDbLine
 10
98.12562024800682
 20
56.25711089891115
 30
0.0
 11
98.07093782132739
 21
56.22673737503004
 31
0.0
  0
SPLINE
  5
262
330
2
100
AcDbEntity
  8
0
100
AcDbSpline
210
0.0
220
0.0
230
1.0
 70
     8
 71
     3
 72
    30
 73
    26
 74
     0
 42
0.000000001
 43
0.0000000001
 40
0.0
 40
0.0
 40
0.0
 40
0.0
 40
0.0147109711182788
 40
0.0314043147363018
 40
0.0501169965878019
 40
0.0708968812868252
 40
0.0938057101066759
 40
0.1189227367041308
 40
0.1775225537791816
 40
0.219068357953332
 40
0.2423066079447994
 40
0.3757826540536374
 40
0.4908133040204044
 40
0.5565343444913765
 40
0.6207809599579092
 40
0.6831889264069085
 40
0.743398283425174
 40
0.7756492220068219
 40
0.8079149748036062
 40
0.8401749273007911
 40
0.8723993404553594
 40
0.9045482315913114
 40
0.9365718774955006
 40
0.9684114771488784
 40
1.0
 40
1.0
 40
1.0
 40
1.0
 10
102.2801149113848
 20
51.44095922054669
 30
0.0
 10
102.2860447460718
 20
51.43772337774379
 30
0.0
 10
102.2987034885402
 20
51.43081564711178
 30
0.0
 10
102.3182196025498
 20
51.41951131647783
 30
0.0
 10
102.3394299646522
 20
51.40655085074036
 30
0.0
 10
102.3620675751958
 20
51.39178228092766
 30
0.0
 10
102.385897267092
 20
51.37506766187851
 30
0.0
 10
102.4208452850817
 20
51.34851739172137
 30
0.0
 10
102.4577120859629
 20
51.31595616947556
 30
0.0
 10
102.4887646628183
 20
51.28273335035095
 30
0.0
 10
102.5333180017814
 20
51.22860451705867
 30
0.0
 10
102.5758254570617
 20
51.15023526395521
 30
0.0
 10
102.5919004482955
 20
51.05831761060318
 30
0.0
 10
102.5835609801065
 20
50.9868868279878
 30
0.0
 10
102.5661418322761
 20
50.93154232182991
 30
0.0
 10
102.5392750405836
 20
50.87890883777333
 30
0.0
 10
102.5090935221456
 20
50.83651668390706
 30
0.0
 10
102.47990879114
 20
50.80338901877752
 30
0.0
 10
102.4547300718023
 20
50.7783343046367
 30
0.0
 10
102.4271275779484
 20
50.7539784311117
 30
0.0
 10
102.3972257549401
 20
50.73039313468786
 30
0.0
 10
102.3651743682284
 20
50.70764104047765
 30
0.0
 10
102.3310721422101
 20
50.68581748627639
 30
0.0
 10
102.2952545110863
 20
50.66490857869133
 30
0.0
 10
102.2697846638967
 20
50.6517826765529
 30
0.0
 10
102.2571001508102
 20
50.64524570457155
 30
0.0
  0
SPLINE
  5
263
330
2
100
AcDbEntity
  8
0
100
AcDbSpline
210
0.0
220
0.0
230
1.0
 70
     8
 71
     3
 72
    14
 73
    10
 74
     0
 42
0.000000001
 43
0.0000000001
 40
0.0
 40
0.0
 40
0.0
 40
0.0
 40
0.25
 40
0.25
 40
0.5
 40
0.5
 40
0.75
 40
0.75
 40
1.0
 40
1.0
 40
1.0
 40
1.0
 10
104.0409826564072
 20
51.79979450340619
 30
0.0
 10
104.0947437223087
 20
51.7724725989753
 30
0.0
 10
104.1429549256606
 20
51.74438505777584
 30
0.0
 10
104.2302357800025
 20
51.689056489042
 30
0.0
 10
104.2693152558148
 20
51.66181119049577
 30
0.0
 10
104.3408067460587
 20
51.60987695105735
 30
0.0
 10
104.3732258710764
 20
51.58519074185187
 30
0.0
 10
104.434139704559
 20
51.53960212826859
 30
0.0
 10
104.4626419270975
 20
51.5186612812941
 30
0.0
 10
104.4905745610036
 20
51.49998388648004
 30
0.0
  0
SPLINE
  5
264
330
2
100
AcDbEntity
  8
0
100
AcDbSpline
210
0.0
220
0.0
230
1.0
 70
     8
 71
     3
 72
    16
 73
    12
 74
     0
 42
0.000000001
 43
0.0000000001
 40
0.0
 40
0.0
 40
0.0
 40
0.0
 40
0.1250000000000026
 40
0.1250000000000026
 40
0.2500000000000052
 40
0.2500000000000052
 40
0.5000000000000036
 40
0.5000000000000036
 40
0.7500000000000017
 40
0.7500000000000017
 40
1.0
 40
1.0
 40
1.0
 40
1.0
 10
104.4905460386878
 20
51.50001200640201
 30
0.0
 10
104.4667147836955
 20
51.46683532343911
 30
0.0
 10
104.4421058747008
 20
51.43594666728962
 30
0.0
 10
104.3920405014829
 20
51.37752818237737
 30
0.0
 10
104.366569334905
 20
51.35001300432583
 30
0.0
 10
104.2893216153981
 20
51.27154343268131
 30
0.0
 10
104.236733902276
 20
51.224601625459
 30
0.0
 10
104.1304709955987
 20
51.13895021906961
 30
0.0
 10
104.0767721133503
 20
51.1002825270773
 30
0.0
 10
103.9687053156486
 20
51.03041491297102
 30
0.0
 10
103.9143310692328
 20
50.99922699994351
 30
0.0
 10
103.8597374481251
 20
50.97182391961985
 30
0.0
  0
LINE
  5
265
330
2
100
AcDbEntity
  8
0
100
AcDbLine
 10
102.8617505484294
 20
50.76845280443649
 30
0.0
 11
103.859737250299
 21
50.97182423480081
 31
0.0
  0
SPLINE
  5
266
330
2
100
AcDbEntity
  8
0
100
AcDbSpline
210
0.0
220
0.0
230
1.0
 70
     8
 71
     3
 72
    19
 73
    15
 74
     0
 42
0.000000001
 43
0.0000000001
 40
0.0
 40
0.0
 40
0.0
 40
0.0
 40
0.0481411463187905
 40
0.0989759603784092
 40
0.1525132777348015
 40
0.2087424216721663
 40
0.2676518409383103
 40
0.329233545334703
 40
0.3934770877016061
 40
0.5122163990810389
 40
0.6953819344386256
 40
0.7970563236237437
 40
0.8985947296532398
 40
1.0
 40
1.0
 40
1.0
 40
1.0
 10
102.8617510584337
 20
50.76845062592309
 30
0.0
 10
102.864702602657
 20
50.77026559843182
 30
0.0
 10
102.8707708404627
 20
50.77399709759305
 30
0.0
 10
102.879356394181
 20
50.77972025583881
 30
0.0
 10
102.8877515091743
 20
50.78570526613191
 30
0.0
 10
102.8957769105349
 20
50.79192673249401
 30
0.0
 10
102.9033163330039
 20
50.79835331708631
 30
0.0
 10
102.9102324092202
 20
50.80494826164414
 30
0.0
 10
102.9180205561909
 20
50.81346674756258
 30
0.0
 10
102.9268302865334
 20
50.82573462287314
 30
0.0
 10
102.9311532392222
 20
50.83807066674729
 30
0.0
 10
102.9302893535546
 20
50.8483493195057
 30
0.0
 10
102.9270432374676
 20
50.85558212107992
 30
0.0
 10
102.9226222748493
 20
50.85949437393594
 30
0.0
 10
102.9204132436663
 20
50.86144921710036
 30
0.0
  0
SPLINE
  5
267
330
2
100
AcDbEntity
  8
0
100
AcDbSpline
210
0.0
220
0.0
230
1.0
 70
     8
 71
     3
 72
     8
 73
     4
 74
     0
 42
0.000000001
 43
0.0000000001
 40
0.0
 40
0.0
 40
0.0
 40
0.0
 40
1.0
 40
1.0
 40
1.0
 40
1.0
 10
102.9204141116898
 20
50.86144744888537
 30
0.0
 10
102.9155416428105
 20
50.86519000948368
 30
0.0
 10
102.9106247249053
 20
50.86905686027489
 30
0.0
 10
102.9056623388998
 20
50.87305077911185
 30
0.0
  0
SPLINE
  5
268
330
2
100
AcDbEntity
  8
0
100
AcDbSpline
210
0.0
220
0.0
230
1.0
 70
     8
 71
     3
 72
    27
 73
    23
 74
     0
 42
0.000000001
 43
0.0000000001
 40
0.0
 40
0.0
 40
0.0
 40
0.0
 40
0.0208309457677596
 40
0.0412644722305378
 40
0.0613669392791572
 40
0.0812089053370434
 40
0.1008645352254867
 40
0.1529927322189826
 40
0.2078782697810116
 40
0.2592932037781076
 40
0.3096424915369223
 40
0.3626674973172418
 40
0.4180678846326626
 40
0.4812146338759125
 40
0.5471393877499679
 40
0.6177983259903212
 40
0.6878256000488542
 40
0.7589575518351293
 40
0.8331912464577564
 40
0.8896290865655466
 40
0.9451041703612707
 40
1.0
 40
1.0
 40
1.0
 40
1.0
 10
102.5572199929259
 20
50.76876595036162
 30
0.0
 10
102.5598594285576
 20
50.77046979484578
 30
0.0
 10
102.5650879438417
 20
50.77384497733556
 30
0.0
 10
102.5732819437633
 20
50.77897738282445
 30
0.0
 10
102.5816289988455
 20
50.78408570538096
 30
0.0
 10
102.5901595305875
 20
50.78917422374638
 30
0.0
 10
102.6036677279219
 20
50.79702686513536
 30
0.0
 10
102.6232520395629
 20
50.80788184247438
 30
0.0
 10
102.6485523471461
 20
50.82105530701636
 30
0.0
 10
102.6738480772404
 20
50.83346779844453
 30
0.0
 10
102.6986703024265
 20
50.84466039939769
 30
0.0
 10
102.7234065522221
 20
50.85478566803505
 30
0.0
 10
102.7490977952386
 20
50.86431662845933
 30
0.0
 10
102.7751690043104
 20
50.87274768481307
 30
0.0
 10
102.8010629949504
 20
50.87953510466263
 30
0.0
 10
102.8254740245932
 20
50.88442503149434
 30
0.0
 10
102.8477850993606
 20
50.8872106157703
 30
0.0
 10
102.8671010471261
 20
50.88754823746393
 30
0.0
 10
102.8818386486425
 20
50.8856441670822
 30
0.0
 10
102.8928425800021
 20
50.8823840583812
 30
0.0
 10
102.9007336422237
 20
50.87838262197152
 30
0.0
 10
102.9040324657385
 20
50.87480751719232
 30
0.0
 10
102.9056732209706
 20
50.8730293463247
 30
0.0
  0
SPLINE
  5
269
330
2
100
AcDbEntity
  8
0
100
AcDbSpline
210
0.0
220
0.0
230
1.0
 70
     8
 71
     3
 72
    13
 73
     9
 74
     0
 42
0.000000001
 43
0.0000000001
 40
0.0
 40
0.0
 40
0.0
 40
0.0
 40
0.1504573903845793
 40
0.3073877415551446
 40
0.4707941062539021
 40
0.6406894847346023
 40
0.8170866118031383
 40
1.0
 40
1.0
 40
1.0
 40
1.0
 10
102.5572242059493
 20
50.76875687065655
 30
0.0
 10
102.548620040555
 20
50.76333025707441
 30
0.0
 10
102.5310415423387
 20
50.75224356675613
 30
0.0
 10
102.5041453489982
 20
50.73598791643991
 30
0.0
 10
102.4761770435831
 20
50.71964451438748
 30
0.0
 10
102.4471588842837
 20
50.70336752503823
 30
0.0
 10
102.4171014603298
 20
50.6871595306984
 30
0.0
 10
102.3967852868333
 20
50.67684492456902
 30
0.0
 10
102.386442978519
 20
50.67159409144579
 30
0.0
  0
LINE
  5
26A
330
2
100
AcDbEntity
  8
0
100
AcDbLine
 10
102.2571031791249
 20
50.64523935501416
 30
0.0
 11
85.37981257896277
 21
42.20659407788701
 31
0.0
  0
LINE
  5
26B
330
2
100
AcDbEntity
  8
0
100
AcDbLine
 10
85.49230020904657
 20
42.22452249499053
 30
0.0
 11
102.386442801921
 21
50.67159379151064
 31
0.0
  0
LINE
  5
26C
330
2
100
AcDbEntity
  8
0
100
AcDbLine
 10
102.7808395041188
 20
50.72438512336464
 30
0.0
 11
86.00935877742456
 21
42.33864476001753
 31
0.0
  0
SPLINE
  5
26D
330
2
100
AcDbEntity
  8
0
100
AcDbSpline
210
0.0
220
0.0
230
1.0
 70
     8
 71
     3
 72
     8
 73
     4
 74
     0
 42
0.000000001
 43
0.0000000001
 40
0.0
 40
0.0
 40
0.0
 40
0.0
 40
1.0
 40
1.0
 40
1.0
 40
1.0
 10
102.7808396485349
 20
50.72438526658351
 30
0.0
 10
102.8120915507468
 20
50.74001591719945
 30
0.0
 10
102.8392613280496
 20
50.75481300404334
 30
0.0
 10
102.8617504437334
 20
50.76845228401317
 30
0.0
  0
LINE
  5
26E
330
2
100
AcDbEntity
  8
0
100
AcDbLine
 10
86.77354279769719
 20
42.42872700849995
 30
0.0
 11
85.90564836335216
 21
42.2904017118978
 31
0.0
  0
SPLINE
  5
26F
330
2
100
AcDbEntity
  8
0
100
AcDbSpline
210
0.0
220
0.0
230
1.0
 70
     8
 71
     3
 72
     8
 73
     4
 74
     0
 42
0.000000001
 43
0.0000000001
 40
0.0
 40
0.0
 40
0.0
 40
0.0
 40
1.0
 40
1.0
 40
1.0
 40
1.0
 10
85.90564848228012
 20
42.29040130328667
 30
0.0
 10
85.94325144747367
 20
42.30680806375551
 30
0.0
 10
85.97807601668248
 20
42.3230081501673
 30
0.0
 10
86.00935848604496
 20
42.3386446853384
 30
0.0
  0
SPLINE
  5
270
330
2
100
AcDbEntity
  8
0
100
AcDbSpline
210
0.0
220
0.0
230
1.0
 70
     8
 71
     3
 72
    19
 73
    15
 74
     0
 42
0.000000001
 43
0.0000000001
 40
0.0
 40
0.0
 40
0.0
 40
0.0
 40
0.0481411485019883
 40
0.0989759640146938
 40
0.1525132820948215
 40
0.2087424260265875
 40
0.2676518445597468
 40
0.3292335474977587
 40
0.3934770876833288
 40
0.5122164041563356
 40
0.6953819344109435
 40
0.797056323602059
 40
0.8985947296410749
 40
1.0
 40
1.0
 40
1.0
 40
1.0
 10
70.86163848643696
 20
49.81240495073484
 30
0.0
 10
70.85868694208224
 20
49.80920487954716
 30
0.0
 10
70.85261870405869
 20
49.80262568190511
 30
0.0
 10
70.84403315013457
 20
49.79207095752366
 30
0.0
 10
70.83563803508289
 20
49.7806299703879
 30
0.0
 10
70.82761263378703
 20
49.76823332775706
 30
0.0
 10
70.82007321147236
 20
49.75485631462515
 30
0.0
 10
70.81315713546505
 20
49.74046884273969
 30
0.0
 10
70.80536898846152
 20
49.72089002055923
 30
0.0
 10
70.79655925826085
 20
49.69056907010815
 30
0.0
 10
70.79223630565991
 20
49.65545481525549
 30
0.0
 10
70.79310019130949
 20
49.62073480000168
 30
0.0
 10
70.79634630739676
 20
49.5928558913202
 30
0.0
 10
70.80076727001882
 20
49.57397779877334
 30
0.0
 10
70.80297630120371
 20
49.56454494472956
 30
0.0
  0
SPLINE
  5
271
330
2
100
AcDbEntity
  8
0
100
AcDbSpline
210
0.0
220
0.0
230
1.0
 70
     8
 71
     3
 72
     8
 73
     4
 74
     0
 42
0.000000001
 43
0.0000000001
 40
0.0
 40
0.0
 40
0.0
 40
0.0
 40
1.0
 40
1.0
 40
1.0
 40
1.0
 10
70.80297543318019
 20
49.56454367064566
 30
0.0
 10
70.80784790206161
 20
49.54555044551444
 30
0.0
 10
70.81276481996896
 20
49.52664294131444
 30
0.0
 10
70.81772720597648
 20
49.50782441888225
 30
0.0
  0
SPLINE
  5
272
330
2
100
AcDbEntity
  8
0
100
AcDbSpline
210
0.0
220
0.0
230
1.0
 70
     8
 71
     3
 72
    27
 73
    23
 74
     0
 42
0.000000001
 43
0.0000000001
 40
0.0
 40
0.0
 40
0.0
 40
0.0
 40
0.0208309457778693
 40
0.0412644722458525
 40
0.061366939294776
 40
0.0812089053481504
 40
0.1008645352273852
 40
0.1529927322600123
 40
0.2078782697846874
 40
0.2592932038048202
 40
0.309642491541645
 40
0.3626674972997782
 40
0.4180678846386366
 40
0.4812146338403889
 40
0.5471393877578754
 40
0.6177983260017025
 40
0.6878256000637922
 40
0.7589575518254602
 40
0.8331912464715449
 40
0.8896290865186259
 40
0.9451041703094816
 40
1.0
 40
1.0
 40
1.0
 40
1.0
 10
71.16616955194476
 20
49.23187492936898
 30
0.0
 10
71.16353011631182
 20
49.23096043749911
 30
0.0
 10
71.15830160102589
 20
49.22914890072189
 30
0.0
 10
71.15010760110258
 20
49.22709820737975
 30
0.0
 10
71.14176054602038
 20
49.2255763300464
 30
0.0
 10
71.13323001428028
 20
49.22462469785358
 30
0.0
 10
71.11972181694111
 20
49.22401370198679
 30
0.0
 10
71.10013750530209
 20
49.22536101855325
 30
0.0
 10
71.07483719771474
 20
49.23053412440845
 30
0.0
 10
71.04954146762667
 20
49.23855616597478
 30
0.0
 10
71.02471924244404
 20
49.24955647400975
 30
0.0
 10
70.99998299265287
 20
49.263488915057
 30
0.0
 10
70.9742917496414
 20
49.2806404815438
 30
0.0
 10
70.94822054056567
 20
49.30119765993658
 30
0.0
 10
70.92232654992564
 20
49.3254343261583
 30
0.0
 10
70.89791552027404
 20
49.35183632280478
 30
0.0
 10
70.87560444551108
 20
49.37993739108037
 30
0.0
 10
70.85628849775066
 20
49.40926366503248
 30
0.0
 10
70.84155089623379
 20
49.43705086069934
 30
0.0
 10
70.83054696487154
 20
49.46266361162145
 30
0.0
 10
70.82265590265392
 20
49.48552593188106
 30
0.0
 10
70.81935707913874
 20
49.50040712636661
 30
0.0
 10
70.81771632390569
 20
49.50780867349806
 30
0.0
  0
SPLINE
  5
273
330
2
100
AcDbEntity
  8
0
100
AcDbSpline
210
0.0
220
0.0
230
1.0
 70
     8
 71
     3
 72
    13
 73
     9
 74
     0
 42
0.000000001
 43
0.0000000001
 40
0.0
 40
0.0
 40
0.0
 40
0.0
 40
0.1504573915510201
 40
0.3073877434155249
 40
0.4707941083443558
 40
0.6406894865923324
 40
0.8170866129643027
 40
1.0
 40
1.0
 40
1.0
 40
1.0
 10
71.16616533892113
 20
49.2318685655365
 30
0.0
 10
71.17476950438211
 20
49.23471817248276
 30
0.0
 10
71.19234800270485
 20
49.24053998183206
 30
0.0
 10
71.21924419616441
 20
49.25036489929556
 30
0.0
 10
71.24721250161801
 20
49.26131262883433
 30
0.0
 10
71.27623066087713
 20
49.27356183396614
 30
0.0
 10
71.30628808471283
 20
49.2871066766645
 30
0.0
 10
71.32660425810337
 20
49.29710772118927
 30
0.0
 10
71.33694656635151
 20
49.30219893021228
 30
0.0
  0
SPLINE
  5
274
330
2
100
AcDbEntity
  8
0
100
AcDbSpline
210
0.0
220
0.0
230
1.0
 70
     8
 71
     3
 72
     9
 73
     5
 74
     0
 42
0.000000001
 43
0.0000000001
 40
0.0
 40
0.0
 40
0.0
 40
0.0
 40
0.6562008401953389
 40
1.0
 40
1.0
 40
1.0
 40
1.0
 10
104.4906176029747
 20
51.49994160556196
 30
0.0
 10
104.5086014579331
 20
51.49047172380278
 30
0.0
 10
104.5360074803836
 20
51.47604034673162
 30
0.0
 10
104.5430866755396
 20
51.48731135068192
 30
0.0
 10
104.5455204968863
 20
51.49118631237019
 30
0.0
  0
SPLINE
  5
275
330
2
100
AcDbEntity
  8
0
100
AcDbSpline
210
0.0
220
0.0
230
1.0
 70
     8
 71
     3
 72
    10
 73
     6
 74
     0
 42
0.000000001
 43
0.0000000001
 40
0.0
 40
0.0
 40
0.0
 40
0.0
 40
0.3994609923658751
 40
0.8125956322335204
 40
1.0
 40
1.0
 40
1.0
 40
1.0
 10
85.32480403542871
 20
42.15255871628136
 30
0.0
 10
85.31270404418306
 20
42.14825047586441
 30
0.0
 10
85.28808987603097
 20
42.13948652290674
 30
0.0
 10
85.27097674827521
 20
42.13270332796276
 30
0.0
 10
85.26976167413689
 20
42.13111973991414
 30
0.0
 10
85.26938249776737
 20
42.13062556499244
 30
0.0
  0
LINE
  5
276
330
2
100
AcDbEntity
  8
0
100
AcDbLine
 10
85.4309697124958
 20
42.15498041191108
 30
0.0
 11
85.49647424343977
 21
42.16842948335556
 31
0.0
  0
SPLINE
  5
277
330
2
100
AcDbEntity
  8
0
100
AcDbSpline
210
0.0
220
0.0
230
1.0
 70
     8
 71
     3
 72
     8
 73
     4
 74
     0
 42
0.000000001
 43
0.0000000001
 40
0.0
 40
0.0
 40
0.0
 40
0.0
 40
1.0
 40
1.0
 40
1.0
 40
1.0
 10
85.4964684144565
 20
42.16845381625302
 30
0.0
 10
85.51928085498952
 20
42.17338492489864
 30
0.0
 10
85.54205520924787
 20
42.17844679249123
 30
0.0
 10
85.56479099424555
 20
42.18363589015183
 30
0.0
  0
SPLINE
  5
278
330
2
100
AcDbEntity
  8
0
100
AcDbSpline
210
0.0
220
0.0
230
1.0
 70
     8
 71
     3
 72
    21
 73
    17
 74
     0
 42
0.000000001
 43
0.0000000001
 40
0.0
 40
0.0
 40
0.0
 40
0.0
 40
0.0541118809229091
 40
0.1081840377657821
 40
0.1622644876782243
 40
0.2164056912285452
 40
0.2706642149427211
 40
0.3251003427220756
 40
0.3797776428931471
 40
0.4347624991707077
 40
0.4901236151041998
 40
0.5918262789608191
 40
0.6931479875971892
 40
0.7945877701538854
 40
0.8966846276057806
 40
1.0
 40
1.0
 40
1.0
 40
1.0
 10
85.90564589566026
 20
42.29040828169473
 30
0.0
 10
85.90000460390243
 20
42.28797418682751
 30
0.0
 10
85.88872616171622
 20
42.28310778398673
 30
0.0
 10
85.87135683274414
 20
42.27599720999359
 30
0.0
 10
85.85369132307866
 20
42.26903147487189
 30
0.0
 10
85.83570979042658
 20
42.26222301686272
 30
0.0
 10
85.8174354255926
 20
42.25556723429804
 30
0.0
 10
85.79887882097159
 20
42.24906349400038
 30
0.0
 10
85.78005308594985
 20
42.24270955846276
 30
0.0
 10
85.76096925928423
 20
42.23650301496718
 30
0.0
 10
85.73630051463124
 20
42.22876696458257
 30
0.0
 10
85.70605621401609
 20
42.21975379180441
 30
0.0
 10
85.67037233846855
 20
42.20977669656548
 30
0.0
 10
85.63485330423146
 20
42.20044682206554
 30
0.0
 10
85.59947938317208
 20
42.19166083838399
 30
0.0
 10
85.57640174003502
 20
42.18631231522209
 30
0.0
 10
85.56479446963795
 20
42.18362218979649
 30
0.0
  0
SPLINE
  5
279
330
2
100
AcDbEntity
  8
0
100
AcDbSpline
210
0.0
220
0.0
230
1.0
 70
     8
 71
     3
 72
     9
 73
     5
 74
     0
 42
0.000000001
 43
0.0000000001
 40
0.0
 40
0.0
 40
0.0
 40
0.0
 40
0.2238315609301645
 40
1.0
 40
1.0
 40
1.0
 40
1.0
 10
85.34029742603008
 20
42.15921595327927
 30
0.0
 10
85.33926540126023
 20
42.15838605564835
 30
0.0
 10
85.33465468074526
 20
42.15467836747677
 30
0.0
 10
85.3291101469685
 20
42.15347907427923
 30
0.0
 10
85.32480665484161
 20
42.15254822074991
 30
0.0
  0
LINE
  5
27A
330
2
100
AcDbEntity
  8
0
100
AcDbLine
 10
103.7049063744813
 20
53.44445139931048
 30
0.0
 11
103.69342374158
 21
53.43871008290125
 31
0.0
  0
LINE
  5
27B
330
2
100
AcDbEntity
  8
0
100
AcDbLine
 10
104.2647866679917
 20
52.67794310098759
 30
0.0
 11
104.2791401774501
 21
52.68511985567534
 31
0.0
  0
LINE
  5
27C
330
2
100
AcDbEntity
  8
0
100
AcDbLine
 10
69.05378658686444
 20
51.55008964533028
 30
0.0
 11
68.77451526349005
 21
51.41045398368447
 31
0.0
  0
LINE
  5
27D
330
2
100
AcDbEntity
  8
0
100
AcDbLine
 10
88.1185641609003
 20
61.23762250614243
 30
0.0
 11
88.10708152799902
 21
61.2318811897332
 31
0.0
  0
LINE
  5
27E
330
2
100
AcDbEntity
  8
0
100
AcDbLine
 10
88.67844358124918
 20
60.47111464435886
 30
0.0
 11
88.6927970907076
 21
60.47829139904661
 31
0.0
  0
LINE
  5
27F
330
2
100
AcDbEntity
  8
0
100
AcDbLine
 10
88.79240899674181
 20
61.04422863484046
 30
0.0
 11
88.78092636384053
 21
61.03848731834841
 31
0.0
  0
LINE
  5
280
330
2
100
AcDbEntity
  8
0
100
AcDbLine
 10
89.76400249439146
 20
60.41943965778597
 30
0.0
 11
89.81590703368402
 21
60.4453919273908
 31
0.0
  0
LWPOLYLINE
  5
281
330
2
100
AcDbEntity
  8
0
100
AcDbPolyline
 90
       12
 70
   128
 43
0.0
 10
97.83392414891899
 20
57.42510980893621
 10
97.76756631696114
 20
57.4026383996873
 10
97.67640147171334
 20
57.39945804717326
 10
97.57896586461081
 20
57.42360344677599
 10
97.47948763050885
 20
57.47402682750692
 10
97.38228352083073
 20
57.54854000484795
 10
97.29157160210178
 20
57.64390963589881
 10
97.21128823452477
 20
57.75599725236992
 10
97.14491722360435
 20
57.87993892335634
 10
97.09533869567501
 20
58.01035636037608
 10
97.06470400718135
 20
58.14159029436751
 10
97.05434259217851
 20
58.26794568805417
  0
ARC
  5
282
330
2
100
AcDbEntity
  8
0
100
AcDbCircle
 10
97.76804049875121
 20
58.26794256921783
 30
0.0
 40
0.7136979066288943
100
AcDbArc
 50
179.4735793769993
 51
179.9997496215993
  0
ARC
  5
283
330
2
100
AcDbEntity
  8
0
100
AcDbCircle
 10
97.42363512974115
 20
58.31687430938888
 30
0.0
 40
0.3716857975589611
100
AcDbArc
 50
122.8342889199002
 51
186.5463156715001
  0
LINE
  5
284
330
2
100
AcDbEntity
  8
0
100
AcDbLine
 10
94.27136549809048
 20
57.96354811782856
 30
0.0
 11
94.29063164039218
 21
57.94656592641468
 31
0.0
  0
ARC
  5
285
330
2
100
AcDbEntity
  8
0
100
AcDbCircle
 10
85.79174122355617
 20
55.89173351305356
 30
0.0
 40
0.2651171858726917
100
AcDbArc
 50
182.0349214729426
 51
234.8403166889421
  0
LINE
  5
286
330
2
100
AcDbEntity
  8
0
100
AcDbLine
 10
103.2413679866763
 20
53.01936478133644
 30
0.0
 11
102.835310094985
 21
53.57410548759964
 31
0.0
  0
ARC
  5
287
330
2
100
AcDbEntity
  8
0
100
AcDbCircle
 10
103.8031409251408
 20
53.29973981235838
 30
0.0
 40
0.6278526836858843
100
AcDbArc
 50
206.5233063101384
 51
219.1218830759541
  0
LINE
  5
288
330
2
100
AcDbEntity
  8
0
100
AcDbLine
 10
104.6215987245116
 20
52.25074274929176
 30
0.0
 11
103.3160493754108
 21
52.90358224952104
 31
0.0
  0
LINE
  5
289
330
2
100
AcDbEntity
  8
0
100
AcDbLine
 10
80.936922194049
 20
53.47479891407681
 30
0.0
 11
80.96686994145477
 21
53.17872870215166
 31
0.0
  0
LINE
  5
28A
330
2
100
AcDbEntity
  8
0
100
AcDbLine
 10
80.83621057116884
 20
53.58737739480204
 30
0.0
 11
80.84029685519491
 21
53.51988023966862
 31
0.0
  0
LINE
  5
28B
330
2
100
AcDbEntity
  8
0
100
AcDbLine
 10
97.44414083311733
 20
48.43251147921183
 30
0.0
 11
97.47408858060595
 21
48.72858169113704
 31
0.0
  0
SPLINE
  5
28C
330
2
100
AcDbEntity
  8
0
100
AcDbSpline
210
0.0
220
0.0
230
1.0
 70
     8
 71
     3
 72
    11
 73
     7
 74
     0
 42
0.000000001
 43
0.0000000001
 40
0.0
 40
0.0
 40
0.0
 40
0.0
 40
0.2500005099297956
 40
0.4999999386454089
 40
0.7500001733757149
 40
1.0
 40
1.0
 40
1.0
 40
1.0
 10
83.97792477185308
 20
54.84324752523065
 30
0.0
 10
84.04823699189071
 20
54.87116802981319
 30
0.0
 10
84.18886112787626
 20
54.92700891822647
 30
0.0
 10
84.45928841544898
 20
54.95090709643017
 30
0.0
 10
84.7297156939822
 20
54.92700909244769
 30
0.0
 10
84.87033964085972
 20
54.87116803244362
 30
0.0
 10
84.94065155690902
 20
54.84324752523065
 30
0.0
  0
LINE
  5
28D
330
2
100
AcDbEntity
  8
0
100
AcDbLine
 10
81.16535202310613
 20
53.43696115084009
 30
0.0
 11
83.97792477187214
 21
54.84324752522309
 31
0.0
  0
LINE
  5
28E
330
2
100
AcDbEntity
  8
0
100
AcDbLine
 10
84.9406515569032
 20
54.84324752522309
 30
0.0
 11
97.24565875146598
 21
48.69074392798319
 31
0.0
  0
SPLINE
  5
28F
330
2
100
AcDbEntity
  8
0
100
AcDbSpline
210
0.0
220
0.0
230
1.0
 70
     8
 71
     3
 72
    11
 73
     7
 74
     0
 42
0.000000001
 43
0.0000000001
 40
0.0
 40
0.0
 40
0.0
 40
0.0
 40
0.2499999290274844
 40
0.4999999433163378
 40
0.7499999576051915
 40
1.0
 40
1.0
 40
1.0
 40
1.0
 10
81.16535245968682
 20
52.95559797661957
 30
0.0
 10
81.1095115056824
 20
52.99075393837023
 30
0.0
 10
80.99782957862926
 20
53.06106587386136
 30
0.0
 10
80.95003257681719
 20
53.19627946693526
 30
0.0
 10
80.99782971625007
 20
53.33149300643078
 30
0.0
 10
81.10951125206943
 20
53.40180510140152
 30
0.0
 10
81.16535202311803
 20
53.43696115086311
 30
0.0
  0
SPLINE
  5
290
330
2
100
AcDbEntity
  8
0
100
AcDbSpline
210
0.0
220
0.0
230
1.0
 70
     8
 71
     3
 72
    10
 73
     6
 74
     0
 42
0.000000001
 43
0.0000000001
 40
0.0
 40
0.0
 40
0.0
 40
0.0
 40
0.4700057897491769
 40
0.9400123577158604
 40
1.0
 40
1.0
 40
1.0
 40
1.0
 10
81.14419982756372
 20
53.74364712569189
 30
0.0
 10
81.08797684003231
 20
53.70716133624859
 30
0.0
 10
80.97553077187768
 20
53.63418969695004
 30
0.0
 10
80.91810597862751
 20
53.5317931250616
 30
0.0
 10
80.94042854800209
 20
53.48080508068517
 30
0.0
 10
80.936922194049
 20
53.47479891407681
 30
0.0
  0
SPLINE
  5
291
330
2
100
AcDbEntity
  8
0
100
AcDbSpline
210
0.0
220
0.0
230
1.0
 70
     8
 71
     3
 72
    12
 73
     8
 74
     0
 42
0.000000001
 43
0.0000000001
 40
0.0
 40
0.0
 40
0.0
 40
0.0
 40
0.0458967955526269
 40
0.3484175146263723
 40
0.6509386136704756
 40
0.9534598373905016
 40
1.0
 40
1.0
 40
1.0
 40
1.0
 10
81.00755273876989
 20
53.85416146447989
 30
0.0
 10
80.97345134530376
 20
53.8356788724231
 30
0.0
 10
80.9433707725833
 20
53.80739311297952
 30
0.0
 10
80.89370016922101
 20
53.75484815093807
 30
0.0
 10
80.84774688730357
 20
53.67911798968458
 30
0.0
 10
80.83066852692605
 20
53.62157385029104
 30
0.0
 10
80.83736482814423
 20
53.59117173987704
 30
0.0
 10
80.83825764230178
 20
53.58711824322068
 30
0.0
  0
LINE
  5
292
330
2
100
AcDbEntity
  8
0
100
AcDbLine
 10
81.57551933706415
 20
52.75051453792634
 30
0.0
 11
81.16535245964543
 21
52.95559797659421
 31
0.0
  0
LINE
  5
293
330
2
100
AcDbEntity
  8
0
100
AcDbLine
 10
93.47036009083039
 20
46.80309416108463
 30
0.0
 11
81.57551933706415
 21
52.75051453792634
 31
0.0
  0
SPLINE
  5
294
330
2
100
AcDbEntity
  8
0
100
AcDbSpline
210
0.0
220
0.0
230
1.0
 70
     8
 71
     3
 72
    11
 73
     7
 74
     0
 42
0.000000001
 43
0.0000000001
 40
0.0
 40
0.0
 40
0.0
 40
0.0
 40
0.2499998266242851
 40
0.5000000613545913
 40
0.7499994900702044
 40
1.0
 40
1.0
 40
1.0
 40
1.0
 10
97.2456587514736
 20
48.69074392794835
 30
0.0
 10
97.30149976589956
 20
48.65558796992371
 30
0.0
 10
97.41318188590774
 20
48.58527599648494
 30
0.0
 10
97.46097789387285
 20
48.45006235721837
 30
0.0
 10
97.41318153746526
 20
48.3148487134319
 30
0.0
 10
97.30149976063879
 20
48.24453664543909
 30
0.0
 10
97.2456587514736
 20
48.2093805354204
 30
0.0
  0
SPLINE
  5
295
330
2
100
AcDbEntity
  8
0
100
AcDbSpline
210
0.0
220
0.0
230
1.0
 70
     8
 71
     3
 72
    10
 73
     6
 74
     0
 42
0.000000001
 43
0.0000000001
 40
0.0
 40
0.0
 40
0.0
 40
0.0
 40
0.0599868027336307
 40
0.5299927401271547
 40
1.0
 40
1.0
 40
1.0
 40
1.0
 10
97.47405104183346
 20
48.72821057433367
 30
0.0
 10
97.47237922203794
 20
48.73624865998284
 30
0.0
 10
97.49290391733783
 20
48.7855759876154
 30
0.0
 10
97.43548058990533
 20
48.88797238949928
 30
0.0
 10
97.32303450509874
 20
48.9609441763202
 30
0.0
 10
97.26681138359674
 20
48.99743012106154
 30
0.0
  0
LINE
  5
296
330
2
100
AcDbEntity
  8
0
100
AcDbLine
 10
97.24565875146598
 20
48.20938053538481
 30
0.0
 11
94.43308600269991
 21
46.80309416108463
 31
0.0
  0
SPLINE
  5
297
330
2
100
AcDbEntity
  8
0
100
AcDbSpline
210
0.0
220
0.0
230
1.0
 70
     8
 71
     3
 72
    11
 73
     7
 74
     0
 42
0.000000001
 43
0.0000000001
 40
0.0
 40
0.0
 40
0.0
 40
0.0
 40
0.2500001848795824
 40
0.5000003416531934
 40
0.7500004984268047
 40
1.0
 40
1.0
 40
1.0
 40
1.0
 10
94.43308600273855
 20
46.8030941610528
 30
0.0
 10
94.36277390394462
 20
46.7751737755558
 30
0.0
 10
94.22214971426146
 20
46.71933300770064
 30
0.0
 10
93.95172263333222
 20
46.69543443757504
 30
0.0
 10
93.68129566005251
 20
46.71933292187526
 30
0.0
 10
93.54067188580646
 20
46.77517377238496
 30
0.0
 10
93.47036009082025
 20
46.8030941610528
 30
0.0
  0
ARC
  5
298
330
2
100
AcDbEntity
  8
0
100
AcDbCircle
 10
84.45928862744418
 20
53.56808913239939
 30
0.0
 40
1.801299385731312
100
AcDbArc
 50
65.97178147459996
 51
114.0282355769999
  0
SPLINE
  5
299
330
2
100
AcDbEntity
  8
0
100
AcDbSpline
210
0.0
220
0.0
230
1.0
 70
     8
 71
     3
 72
    11
 73
     7
 74
     0
 42
0.000000001
 43
0.0000000001
 40
0.0
 40
0.0
 40
0.0
 40
0.0
 40
0.2500003580882927
 40
0.5000000127399961
 40
0.7499992045599128
 40
1.0
 40
1.0
 40
1.0
 40
1.0
 10
84.96180418903213
 20
55.14993371834385
 30
0.0
 10
84.88840219291644
 20
55.17908098469923
 30
0.0
 10
84.74159840721924
 20
55.23737543539687
 30
0.0
 10
84.45928838598167
 20
55.26232388653392
 30
0.0
 10
84.17697791581272
 20
55.23737570705861
 30
0.0
 10
84.03017451308134
 20
55.17908096471422
 30
0.0
 10
83.95677257629877
 20
55.14993350005949
 30
0.0
  0
LINE
  5
29A
330
2
100
AcDbEntity
  8
0
100
AcDbLine
 10
83.95677257628886
 20
55.14993350002175
 30
0.0
 11
81.14419982752281
 21
53.74364712572156
 31
0.0
  0
LINE
  5
29B
330
2
100
AcDbEntity
  8
0
100
AcDbLine
 10
97.26681138358861
 20
48.99743012105137
 30
0.0
 11
84.9618041890258
 21
55.14993371837419
 31
0.0
  0
LINE
  5
29C
330
2
100
AcDbEntity
  8
0
100
AcDbLine
 10
80.63953108213045
 20
53.17106691550094
 30
0.0
 11
93.41330054694543
 21
46.78418218305199
 31
0.0
  0
LWPOLYLINE
  5
29D
330
2
100
AcDbEntity
  8
0
100
AcDbPolyline
 90
        9
 70
   128
 43
0.0
 10
80.63953108213045
 20
53.17106691550094
 10
80.56395621832315
 20
53.19631565444694
 10
80.47480973982541
 20
53.20518193052629
 10
80.38566326141049
 20
53.19631565444694
 10
80.31008839760321
 20
53.17106691550094
 10
80.25959091962832
 20
53.13327948355584
 10
80.24185880417469
 20
53.0887064626595
 10
80.25959091962832
 20
53.04413300514096
 10
80.3100888342254
 20
53.00634579154842
  0
LINE
  5
29E
330
2
100
AcDbEntity
  8
0
100
AcDbLine
 10
93.08385829904038
 20
46.61946105909947
 30
0.0
 11
80.3100888342254
 21
53.00634579154842
 31
0.0
  0
LWPOLYLINE
  5
29F
330
2
100
AcDbEntity
  8
0
100
AcDbPolyline
 90
        9
 70
   128
 43
0.0
 10
93.08385829904038
 20
46.61946105909947
 10
93.15943272630834
 20
46.59421210180091
 10
93.24857964134542
 20
46.58534604407413
 10
93.33772568322103
 20
46.59421210180091
 10
93.41330054694543
 20
46.61946084082979
 10
93.46379802500321
 20
46.65724827269201
 10
93.48153057699612
 20
46.70182151194092
 10
93.46379802500321
 20
46.74639475110694
 10
93.41330054694543
 20
46.78418218305199
  0
LINE
  5
2A0
330
2
100
AcDbEntity
  8
0
100
AcDbLine
 10
80.91325055983352
 20
53.8070103750145
 30
0.0
 11
83.72582330859955
 21
55.21329674931462
 31
0.0
  0
LWPOLYLINE
  5
2A1
330
2
100
AcDbEntity
  8
0
100
AcDbPolyline
 90
       10
 70
   128
 43
0.0
 10
80.91325055983352
 20
53.8070103750145
 10
80.79702852018789
 20
53.73775637274253
 10
80.70662385038591
 20
53.65946386811606
 10
80.6447838780741
 20
53.57451150622836
 10
80.61338672213755
 20
53.48548028197996
 10
80.61338628559823
 20
53.39507583044763
 10
80.64478344145191
 20
53.30604460619929
 10
80.70662428700806
 20
53.22109224431153
 10
80.79702852018789
 20
53.14279952141544
 10
80.91325055983352
 20
53.07354551922634
  0
LINE
  5
2A2
330
2
100
AcDbEntity
  8
0
100
AcDbLine
 10
81.15087540127644
 20
52.9547330985049
 30
0.0
 11
80.91325055983352
 21
53.07354551922634
 31
0.0
  0
LINE
  5
2A3
330
2
100
AcDbEntity
  8
0
100
AcDbLine
 10
97.49776021473861
 20
48.32732829628657
 30
0.0
 11
97.26013580991784
 21
48.20851609383476
 31
0.0
  0
LWPOLYLINE
  5
2A4
330
2
100
AcDbEntity
  8
0
100
AcDbPolyline
 90
       10
 70
   128
 43
0.0
 10
97.49776021473861
 20
48.32732829628657
 10
97.61398269100638
 20
48.39658251674524
 10
97.7043873607255
 20
48.47487502137176
 10
97.76622733312018
 20
48.55982738325946
 10
97.79762405243454
 20
48.64885838932099
 10
97.79762448897386
 20
48.73926284077055
 10
97.76622776965949
 20
48.8282942833714
 10
97.7043873607255
 20
48.9132468635288
 10
97.61398269100638
 20
48.9915393681552
 10
97.49776065127788
 20
49.06079337034435
  0
LINE
  5
2A5
330
2
100
AcDbEntity
  8
0
100
AcDbLine
 10
85.19275345671511
 20
55.21329696766719
 30
0.0
 11
97.49776065127788
 21
49.06079337034435
 31
0.0
  0
LINE
  5
2A6
330
2
100
AcDbEntity
  8
0
100
AcDbLine
 10
81.51233647902186
 20
52.54446322681286
 30
0.0
 11
81.51486246624086
 21
52.72295962289257
 31
0.0
  0
LINE
  5
2A7
330
2
100
AcDbEntity
  8
0
100
AcDbLine
 10
82.27407527748225
 20
52.16359382758264
 30
0.0
 11
81.51233647902186
 21
52.54446322681286
 31
0.0
  0
LINE
  5
2A8
330
2
100
AcDbEntity
  8
0
100
AcDbLine
 10
82.2766012646184
 20
52.34209022366235
 30
0.0
 11
82.27407527748225
 21
52.16359382758264
 31
0.0
  0
LINE
  5
2A9
330
2
100
AcDbEntity
  8
0
100
AcDbLine
 10
83.44598051665633
 20
51.57764120795417
 30
0.0
 11
83.44850650379246
 21
51.75613760403388
 31
0.0
  0
LINE
  5
2AA
330
2
100
AcDbEntity
  8
0
100
AcDbLine
 10
84.20771909676417
 20
51.19677191794171
 30
0.0
 11
83.44598051665633
 21
51.57764120795417
 31
0.0
  0
LINE
  5
2AB
330
2
100
AcDbEntity
  8
0
100
AcDbLine
 10
84.21024508390031
 20
51.37526831402141
 30
0.0
 11
84.20771909676417
 21
51.19677191794171
 31
0.0
  0
LINE
  5
2AC
330
2
100
AcDbEntity
  8
0
100
AcDbLine
 10
85.37962466342561
 20
50.61081913465233
 30
0.0
 11
85.38215065056173
 21
50.78931553064927
 31
0.0
  0
LINE
  5
2AD
330
2
100
AcDbEntity
  8
0
100
AcDbLine
 10
86.14136324353344
 20
50.22994984455704
 30
0.0
 11
85.37962466342561
 21
50.61081913465233
 31
0.0
  0
LINE
  5
2AE
330
2
100
AcDbEntity
  8
0
100
AcDbLine
 10
86.14388923066959
 20
50.40844624063675
 30
0.0
 11
86.14136324353344
 21
50.22994984455704
 31
0.0
  0
LINE
  5
2AF
330
2
100
AcDbEntity
  8
0
100
AcDbLine
 10
87.31326870106002
 20
49.64399711579375
 30
0.0
 11
87.31579468819617
 21
49.82249351187346
 31
0.0
  0
LINE
  5
2B0
330
2
100
AcDbEntity
  8
0
100
AcDbLine
 10
88.0750072811679
 20
49.26312782578128
 30
0.0
 11
87.31326870106002
 21
49.64399711579375
 31
0.0
  0
LINE
  5
2B1
330
2
100
AcDbEntity
  8
0
100
AcDbLine
 10
88.07753326830402
 20
49.44162422186099
 30
0.0
 11
88.0750072811679
 21
49.26312782578128
 31
0.0
  0
LINE
  5
2B2
330
2
100
AcDbEntity
  8
0
100
AcDbLine
 10
89.24691284774644
 20
48.67717504240914
 30
0.0
 11
89.24943883496544
 21
48.85567143848885
 31
0.0
  0
LINE
  5
2B3
330
2
100
AcDbEntity
  8
0
100
AcDbLine
 10
90.0086514278543
 20
48.29630575239661
 30
0.0
 11
89.24691284774644
 21
48.67717504240914
 31
0.0
  0
LINE
  5
2B4
330
2
100
AcDbEntity
  8
0
100
AcDbLine
 10
90.01117741507329
 20
48.47480214847633
 30
0.0
 11
90.0086514278543
 21
48.29630575239661
 31
0.0
  0
LINE
  5
2B5
330
2
100
AcDbEntity
  8
0
100
AcDbLine
 10
91.180556735393
 20
47.71035316682622
 30
0.0
 11
91.1830826543302
 21
47.88884952884791
 31
0.0
  0
LINE
  5
2B6
330
2
100
AcDbEntity
  8
0
100
AcDbLine
 10
91.94229553377052
 20
47.32948376767888
 30
0.0
 11
91.180556735393
 21
47.71035316682622
 31
0.0
  0
LINE
  5
2B7
330
2
100
AcDbEntity
  8
0
100
AcDbLine
 10
91.94482145270773
 20
47.50798012961769
 30
0.0
 11
91.94229553377052
 21
47.32948376767888
 31
0.0
  0
ARC
  5
2B8
330
2
100
AcDbEntity
  8
0
100
AcDbCircle
 10
81.10411909344136
 20
53.54792244795607
 30
0.0
 40
0.2651171858726917
100
AcDbArc
 50
182.0349214729426
 51
234.8403166889418
  0
LINE
  5
2B9
330
2
100
AcDbEntity
  8
0
100
AcDbLine
 10
62.1864351742123
 20
44.09955540415711
 30
0.0
 11
62.21638292161805
 21
43.8034851922319
 31
0.0
  0
LINE
  5
2BA
330
2
100
AcDbEntity
  8
0
100
AcDbLine
 10
62.08572355133213
 20
44.21213388488235
 30
0.0
 11
62.08980983535818
 21
44.14463672974892
 31
0.0
  0
LINE
  5
2BB
330
2
100
AcDbEntity
  8
0
100
AcDbLine
 10
78.69365381328063
 20
39.05726796929213
 30
0.0
 11
78.72360156076922
 21
39.35333818121728
 31
0.0
  0
SPLINE
  5
2BC
330
2
100
AcDbEntity
  8
0
100
AcDbSpline
210
0.0
220
0.0
230
1.0
 70
     8
 71
     3
 72
    11
 73
     7
 74
     0
 42
0.000000001
 43
0.0000000001
 40
0.0
 40
0.0
 40
0.0
 40
0.0
 40
0.2500005099297956
 40
0.4999999386454089
 40
0.7500001733757149
 40
1.0
 40
1.0
 40
1.0
 40
1.0
 10
65.22743775201637
 20
45.46800401531095
 30
0.0
 10
65.29774997205399
 20
45.49592451989349
 30
0.0
 10
65.43837410803956
 20
45.55176540830678
 30
0.0
 10
65.70880139561225
 20
45.57566358651047
 30
0.0
 10
65.97922867414549
 20
45.55176558252798
 30
0.0
 10
66.11985262102301
 20
45.49592452252386
 30
0.0
 10
66.19016453707231
 20
45.46800401531095
 30
0.0
  0
LINE
  5
2BD
330
2
100
AcDbEntity
  8
0
100
AcDbLine
 10
62.41486500326942
 20
44.06171764092039
 30
0.0
 11
65.22743775203544
 21
45.46800401530339
 31
0.0
  0
LINE
  5
2BE
330
2
100
AcDbEntity
  8
0
100
AcDbLine
 10
66.19016453706648
 20
45.46800401530339
 30
0.0
 11
78.49517173162926
 21
39.31550041806344
 31
0.0
  0
SPLINE
  5
2BF
330
2
100
AcDbEntity
  8
0
100
AcDbSpline
210
0.0
220
0.0
230
1.0
 70
     8
 71
     3
 72
    11
 73
     7
 74
     0
 42
0.000000001
 43
0.0000000001
 40
0.0
 40
0.0
 40
0.0
 40
0.0
 40
0.2499999290274844
 40
0.4999999433163378
 40
0.7499999576051915
 40
1.0
 40
1.0
 40
1.0
 40
1.0
 10
62.41486543985012
 20
43.58035446669987
 30
0.0
 10
62.35902448584567
 20
43.61551042845047
 30
0.0
 10
62.24734255879253
 20
43.68582236394161
 30
0.0
 10
62.19954555698048
 20
43.82103595701557
 30
0.0
 10
62.24734269641334
 20
43.95624949651102
 30
0.0
 10
62.35902423223271
 20
44.02656159148176
 30
0.0
 10
62.41486500328131
 20
44.06171764094341
 30
0.0
  0
SPLINE
  5
2C0
330
2
100
AcDbEntity
  8
0
100
AcDbSpline
210
0.0
220
0.0
230
1.0
 70
     8
 71
     3
 72
    10
 73
     6
 74
     0
 42
0.000000001
 43
0.0000000001
 40
0.0
 40
0.0
 40
0.0
 40
0.0
 40
0.4700057897491769
 40
0.9400123577158604
 40
1.0
 40
1.0
 40
1.0
 40
1.0
 10
62.39371280772698
 20
44.36840361577219
 30
0.0
 10
62.33748982019559
 20
44.33191782632883
 30
0.0
 10
62.22504375204096
 20
44.25894618703028
 30
0.0
 10
62.16761895879081
 20
44.1565496151419
 30
0.0
 10
62.18994152816537
 20
44.10556157076541
 30
0.0
 10
62.1864351742123
 20
44.09955540415711
 30
0.0
  0
SPLINE
  5
2C1
330
2
100
AcDbEntity
  8
0
100
AcDbSpline
210
0.0
220
0.0
230
1.0
 70
     8
 71
     3
 72
    12
 73
     8
 74
     0
 42
0.000000001
 43
0.0000000001
 40
0.0
 40
0.0
 40
0.0
 40
0.0
 40
0.0458967955526269
 40
0.3484175146263723
 40
0.6509386136704756
 40
0.9534598373905016
 40
1.0
 40
1.0
 40
1.0
 40
1.0
 10
62.25706571893318
 20
44.47891795456018
 30
0.0
 10
62.22296432546706
 20
44.4604353625034
 30
0.0
 10
62.19288375274659
 20
44.43214960305982
 30
0.0
 10
62.14321314938429
 20
44.37960464101831
 30
0.0
 10
62.09725986746686
 20
44.30387447976488
 30
0.0
 10
62.08018150708934
 20
44.24633034037134
 30
0.0
 10
62.08687780830752
 20
44.21592822995728
 30
0.0
 10
62.08777062246507
 20
44.21187473330099
 30
0.0
  0
LINE
  5
2C2
330
2
100
AcDbEntity
  8
0
100
AcDbLine
 10
62.82503231722742
 20
43.37527102800658
 30
0.0
 11
62.41486543980872
 21
43.58035446667452
 31
0.0
  0
LINE
  5
2C3
330
2
100
AcDbEntity
  8
0
100
AcDbLine
 10
74.71987307099367
 20
37.42785065116488
 30
0.0
 11
62.82503231722742
 21
43.37527102800658
 31
0.0
  0
SPLINE
  5
2C4
330
2
100
AcDbEntity
  8
0
100
AcDbSpline
210
0.0
220
0.0
230
1.0
 70
     8
 71
     3
 72
    11
 73
     7
 74
     0
 42
0.000000001
 43
0.0000000001
 40
0.0
 40
0.0
 40
0.0
 40
0.0
 40
0.2499998266242851
 40
0.5000000613545913
 40
0.7499994900702044
 40
1.0
 40
1.0
 40
1.0
 40
1.0
 10
78.49517173163689
 20
39.31550041802865
 30
0.0
 10
78.55101274606285
 20
39.28034446000402
 30
0.0
 10
78.66269486607103
 20
39.21003248656518
 30
0.0
 10
78.71049087403611
 20
39.07481884729861
 30
0.0
 10
78.66269451762852
 20
38.9396052035122
 30
0.0
 10
78.55101274080206
 20
38.8692931355194
 30
0.0
 10
78.49517173163689
 20
38.8341370255007
 30
0.0
  0
SPLINE
  5
2C5
330
2
100
AcDbEntity
  8
0
100
AcDbSpline
210
0.0
220
0.0
230
1.0
 70
     8
 71
     3
 72
    10
 73
     6
 74
     0
 42
0.000000001
 43
0.0000000001
 40
0.0
 40
0.0
 40
0.0
 40
0.0
 40
0.0599868027336307
 40
0.5299927401271547
 40
1.0
 40
1.0
 40
1.0
 40
1.0
 10
78.72356402199677
 20
39.35296706441392
 30
0.0
 10
78.72189220220121
 20
39.36100515006314
 30
0.0
 10
78.74241689750113
 20
39.41033247769571
 30
0.0
 10
78.68499357006861
 20
39.51272887957959
 30
0.0
 10
78.57254748526202
 20
39.58570066640044
 30
0.0
 10
78.51632436376005
 20
39.62218661114184
 30
0.0
  0
LINE
  5
2C6
330
2
100
AcDbEntity
  8
0
100
AcDbLine
 10
78.49517173162926
 20
38.83413702546511
 30
0.0
 11
75.6825989828632
 21
37.42785065116488
 31
0.0
  0
SPLINE
  5
2C7
330
2
100
AcDbEntity
  8
0
100
AcDbSpline
210
0.0
220
0.0
230
1.0
 70
     8
 71
     3
 72
    11
 73
     7
 74
     0
 42
0.000000001
 43
0.0000000001
 40
0.0
 40
0.0
 40
0.0
 40
0.0
 40
0.2500001848795824
 40
0.5000003416531934
 40
0.7500004984268047
 40
1.0
 40
1.0
 40
1.0
 40
1.0
 10
75.68259898290182
 20
37.4278506511331
 30
0.0
 10
75.6122868841079
 20
37.3999302656361
 30
0.0
 10
75.47166269442475
 20
37.34408949778095
 30
0.0
 10
75.20123561349551
 20
37.32019092765535
 30
0.0
 10
74.9308086402158
 20
37.34408941195557
 30
0.0
 10
74.79018486596974
 20
37.39993026246521
 30
0.0
 10
74.71987307098354
 20
37.4278506511331
 30
0.0
  0
ARC
  5
2C8
330
2
100
AcDbEntity
  8
0
100
AcDbCircle
 10
65.70880160760747
 20
44.19284562247969
 30
0.0
 40
1.801299385731312
100
AcDbArc
 50
65.97178147459996
 51
114.0282355769999
  0
SPLINE
  5
2C9
330
2
100
AcDbEntity
  8
0
100
AcDbSpline
210
0.0
220
0.0
230
1.0
 70
     8
 71
     3
 72
    11
 73
     7
 74
     0
 42
0.000000001
 43
0.0000000001
 40
0.0
 40
0.0
 40
0.0
 40
0.0
 40
0.2500003580882927
 40
0.5000000127399961
 40
0.7499992045599128
 40
1.0
 40
1.0
 40
1.0
 40
1.0
 10
66.21131716919542
 20
45.77469020842414
 30
0.0
 10
66.1379151730797
 20
45.80383747477947
 30
0.0
 10
65.99111138738251
 20
45.86213192547717
 30
0.0
 10
65.70880136614494
 20
45.88708037661416
 30
0.0
 10
65.426490895976
 20
45.86213219713886
 30
0.0
 10
65.27968749324462
 20
45.80383745479451
 30
0.0
 10
65.20628555646206
 20
45.77468999013973
 30
0.0
  0
LINE
  5
2CA
330
2
100
AcDbEntity
  8
0
100
AcDbLine
 10
65.20628555645214
 20
45.77468999010199
 30
0.0
 11
62.3937128076861
 21
44.36840361580187
 31
0.0
  0
LINE
  5
2CB
330
2
100
AcDbEntity
  8
0
100
AcDbLine
 10
78.51632436375189
 20
39.62218661113167
 30
0.0
 11
66.21131716918909
 21
45.77469020845444
 31
0.0
  0
LINE
  5
2CC
330
2
100
AcDbEntity
  8
0
100
AcDbLine
 10
61.88904406229373
 20
43.79582340558118
 30
0.0
 11
74.66281352710871
 21
37.4089386731323
 31
0.0
  0
LWPOLYLINE
  5
2CD
330
2
100
AcDbEntity
  8
0
100
AcDbPolyline
 90
        9
 70
   128
 43
0.0
 10
61.88904406229373
 20
43.79582340558118
 10
61.81346919848643
 20
43.82107214452719
 10
61.72432271998869
 20
43.82993842060654
 10
61.63517624157378
 20
43.82107214452719
 10
61.55960137776649
 20
43.79582340558118
 10
61.50910389979159
 20
43.75803597363614
 10
61.49137178433798
 20
43.71346295273975
 10
61.50910389979159
 20
43.6688894952212
 10
61.55960181438868
 20
43.63110228162867
  0
LINE
  5
2CE
330
2
100
AcDbEntity
  8
0
100
AcDbLine
 10
74.33337127920367
 20
37.24421754917973
 30
0.0
 11
61.55960181438868
 21
43.63110228162867
 31
0.0
  0
LWPOLYLINE
  5
2CF
330
2
100
AcDbEntity
  8
0
100
AcDbPolyline
 90
        9
 70
   128
 43
0.0
 10
74.33337127920367
 20
37.24421754917973
 10
74.40894570647163
 20
37.21896859188121
 10
74.4980926215087
 20
37.21010253415438
 10
74.58723866338431
 20
37.21896859188121
 10
74.66281352710871
 20
37.24421733091009
 10
74.71331100516647
 20
37.28200476277232
 10
74.73104355715941
 20
37.32657800202117
 10
74.71331100516647
 20
37.37115124118719
 10
74.66281352710871
 20
37.4089386731323
  0
LINE
  5
2D0
330
2
100
AcDbEntity
  8
0
100
AcDbLine
 10
62.16276353999679
 20
44.43176686509474
 30
0.0
 11
64.97533628876285
 21
45.83805323939492
 31
0.0
  0
LWPOLYLINE
  5
2D1
330
2
100
AcDbEntity
  8
0
100
AcDbPolyline
 90
       10
 70
   128
 43
0.0
 10
62.16276353999679
 20
44.43176686509474
 10
62.04654150035118
 20
44.36251286282277
 10
61.95613683054919
 20
44.28422035819636
 10
61.89429685823738
 20
44.1992679963086
 10
61.86289970230085
 20
44.11023677206026
 10
61.86289926576153
 20
44.01983232052794
 10
61.8942964216152
 20
43.93080109627959
 10
61.95613726717136
 20
43.84584873439183
 10
62.04654150035118
 20
43.76755601149574
 10
62.16276353999679
 20
43.69830200930664
  0
LINE
  5
2D2
330
2
100
AcDbEntity
  8
0
100
AcDbLine
 10
62.40038838143973
 20
43.57948958858514
 30
0.0
 11
62.16276353999679
 21
43.69830200930664
 31
0.0
  0
LINE
  5
2D3
330
2
100
AcDbEntity
  8
0
100
AcDbLine
 10
78.74727319490188
 20
38.95208478636687
 30
0.0
 11
78.50964879008111
 21
38.83327258391501
 31
0.0
  0
LWPOLYLINE
  5
2D4
330
2
100
AcDbEntity
  8
0
100
AcDbPolyline
 90
       10
 70
   128
 43
0.0
 10
78.74727319490188
 20
38.95208478636687
 10
78.86349567116967
 20
39.02133900682554
 10
78.9539003408888
 20
39.09963151145206
 10
79.01574031328346
 20
39.18458387333976
 10
79.04713703259784
 20
39.2736148794013
 10
79.04713746913714
 20
39.36401933085079
 10
79.01574074982277
 20
39.45305077345171
 10
78.9539003408888
 20
39.5380033536091
 10
78.86349567116967
 20
39.6162958582355
 10
78.74727363144117
 20
39.6855498604246
  0
LINE
  5
2D5
330
2
100
AcDbEntity
  8
0
100
AcDbLine
 10
66.4422664368784
 20
45.83805345774743
 30
0.0
 11
78.74727363144117
 21
39.6855498604246
 31
0.0
  0
LINE
  5
2D6
330
2
100
AcDbEntity
  8
0
100
AcDbLine
 10
62.76184945918515
 20
43.16921971689311
 30
0.0
 11
62.76437544640415
 21
43.34771611297287
 31
0.0
  0
LINE
  5
2D7
330
2
100
AcDbEntity
  8
0
100
AcDbLine
 10
63.52358825764554
 20
42.78835031766294
 30
0.0
 11
62.76184945918515
 21
43.16921971689311
 31
0.0
  0
LINE
  5
2D8
330
2
100
AcDbEntity
  8
0
100
AcDbLine
 10
63.52611424478166
 20
42.96684671374265
 30
0.0
 11
63.52358825764554
 21
42.78835031766294
 31
0.0
  0
LINE
  5
2D9
330
2
100
AcDbEntity
  8
0
100
AcDbLine
 10
64.69549349681962
 20
42.20239769803447
 30
0.0
 11
64.69801948395574
 21
42.38089409411418
 31
0.0
  0
LINE
  5
2DA
330
2
100
AcDbEntity
  8
0
100
AcDbLine
 10
65.45723207692747
 20
41.821528408022
 30
0.0
 11
64.69549349681962
 21
42.20239769803447
 31
0.0
  0
LINE
  5
2DB
330
2
100
AcDbEntity
  8
0
100
AcDbLine
 10
65.45975806406359
 20
42.00002480410165
 30
0.0
 11
65.45723207692747
 21
41.821528408022
 31
0.0
  0
LINE
  5
2DC
330
2
100
AcDbEntity
  8
0
100
AcDbLine
 10
66.62913764358887
 20
41.23557562473263
 30
0.0
 11
66.631663630725
 21
41.41407202072957
 31
0.0
  0
LINE
  5
2DD
330
2
100
AcDbEntity
  8
0
100
AcDbLine
 10
67.39087622369673
 20
40.85470633463734
 30
0.0
 11
66.62913764358887
 21
41.23557562473263
 31
0.0
  0
LINE
  5
2DE
330
2
100
AcDbEntity
  8
0
100
AcDbLine
 10
67.39340221083288
 20
41.03320273071704
 30
0.0
 11
67.39087622369673
 21
40.85470633463734
 31
0.0
  0
LINE
  5
2DF
330
2
100
AcDbEntity
  8
0
100
AcDbLine
 10
68.56278168122331
 20
40.26875360587405
 30
0.0
 11
68.56530766835945
 21
40.44725000195376
 31
0.0
  0
LINE
  5
2E0
330
2
100
AcDbEntity
  8
0
100
AcDbLine
 10
69.32452026133117
 20
39.88788431586153
 30
0.0
 11
68.56278168122331
 21
40.26875360587405
 31
0.0
  0
LINE
  5
2E1
330
2
100
AcDbEntity
  8
0
100
AcDbLine
 10
69.32704624846731
 20
40.06638071194124
 30
0.0
 11
69.32452026133117
 21
39.88788431586153
 31
0.0
  0
LINE
  5
2E2
330
2
100
AcDbEntity
  8
0
100
AcDbLine
 10
70.49642582790973
 20
39.30193153248939
 30
0.0
 11
70.49895181512872
 21
39.4804279285691
 31
0.0
  0
LINE
  5
2E3
330
2
100
AcDbEntity
  8
0
100
AcDbLine
 10
71.25816440801759
 20
38.92106224247692
 30
0.0
 11
70.49642582790973
 21
39.30193153248939
 31
0.0
  0
LINE
  5
2E4
330
2
100
AcDbEntity
  8
0
100
AcDbLine
 10
71.26069039523658
 20
39.09955863855663
 30
0.0
 11
71.25816440801759
 21
38.92106224247692
 31
0.0
  0
LINE
  5
2E5
330
2
100
AcDbEntity
  8
0
100
AcDbLine
 10
72.43006971555629
 20
38.33510965690647
 30
0.0
 11
72.43259563449349
 21
38.51360601892816
 31
0.0
  0
LINE
  5
2E6
330
2
100
AcDbEntity
  8
0
100
AcDbLine
 10
73.1918085139338
 20
37.95424025775918
 30
0.0
 11
72.43006971555629
 21
38.33510965690647
 31
0.0
  0
LINE
  5
2E7
330
2
100
AcDbEntity
  8
0
100
AcDbLine
 10
73.19433443287102
 20
38.132736619698
 30
0.0
 11
73.1918085139338
 21
37.95424025775918
 31
0.0
  0
ARC
  5
2E8
330
2
100
AcDbEntity
  8
0
100
AcDbCircle
 10
62.35363207360465
 20
44.17267893803631
 30
0.0
 40
0.2651171858726917
100
AcDbArc
 50
182.0349214729426
 51
234.8403166889418
  0
LINE
  5
2E9
330
2
100
AcDbEntity
  8
0
100
AcDbLine
 10
66.87405613107427
 20
46.44336588258812
 30
0.0
 11
66.90400387848002
 21
46.14729567066291
 31
0.0
  0
LINE
  5
2EA
330
2
100
AcDbEntity
  8
0
100
AcDbLine
 10
66.7733445081941
 20
46.55594436331336
 30
0.0
 11
66.77743079222016
 21
46.48844720817993
 31
0.0
  0
LINE
  5
2EB
330
2
100
AcDbEntity
  8
0
100
AcDbLine
 10
83.38127477014259
 20
41.40107844772313
 30
0.0
 11
83.4112225176312
 21
41.69714865964829
 31
0.0
  0
SPLINE
  5
2EC
330
2
100
AcDbEntity
  8
0
100
AcDbSpline
210
0.0
220
0.0
230
1.0
 70
     8
 71
     3
 72
    11
 73
     7
 74
     0
 42
0.000000001
 43
0.0000000001
 40
0.0
 40
0.0
 40
0.0
 40
0.0
 40
0.2500005099297956
 40
0.4999999386454089
 40
0.7500001733757149
 40
1.0
 40
1.0
 40
1.0
 40
1.0
 10
69.91505870887833
 20
47.81181449374196
 30
0.0
 10
69.98537092891595
 20
47.8397349983245
 30
0.0
 10
70.12599506490153
 20
47.89557588673773
 30
0.0
 10
70.39642235247423
 20
47.91947406494148
 30
0.0
 10
70.66684963100745
 20
47.89557606095894
 30
0.0
 10
70.80747357788498
 20
47.83973500095487
 30
0.0
 10
70.87778549393428
 20
47.81181449374196
 30
0.0
  0
LINE
  5
2ED
330
2
100
AcDbEntity
  8
0
100
AcDbLine
 10
67.10248596013139
 20
46.40552811935134
 30
0.0
 11
69.91505870889742
 21
47.8118144937344
 31
0.0
  0
LINE
  5
2EE
330
2
100
AcDbEntity
  8
0
100
AcDbLine
 10
70.87778549392844
 20
47.8118144937344
 30
0.0
 11
83.18279268849122
 21
41.65931089649444
 31
0.0
  0
SPLINE
  5
2EF
330
2
100
AcDbEntity
  8
0
100
AcDbSpline
210
0.0
220
0.0
230
1.0
 70
     8
 71
     3
 72
    11
 73
     7
 74
     0
 42
0.000000001
 43
0.0000000001
 40
0.0
 40
0.0
 40
0.0
 40
0.0
 40
0.2499999290274844
 40
0.4999999433163378
 40
0.7499999576051915
 40
1.0
 40
1.0
 40
1.0
 40
1.0
 10
67.1024863967121
 20
45.92416494513082
 30
0.0
 10
67.04664544270766
 20
45.95932090688148
 30
0.0
 10
66.9349635156545
 20
46.02963284237262
 30
0.0
 10
66.88716651384246
 20
46.16484643544658
 30
0.0
 10
66.93496365327532
 20
46.30005997494203
 30
0.0
 10
67.04664518909467
 20
46.37037206991277
 30
0.0
 10
67.10248596014328
 20
46.40552811937442
 30
0.0
  0
SPLINE
  5
2F0
330
2
100
AcDbEntity
  8
0
100
AcDbSpline
210
0.0
220
0.0
230
1.0
 70
     8
 71
     3
 72
    10
 73
     6
 74
     0
 42
0.000000001
 43
0.0000000001
 40
0.0
 40
0.0
 40
0.0
 40
0.0
 40
0.4700057897491769
 40
0.9400123577158604
 40
1.0
 40
1.0
 40
1.0
 40
1.0
 10
67.08133376458895
 20
46.71221409420314
 30
0.0
 10
67.02511077705756
 20
46.67572830475984
 30
0.0
 10
66.91266470890294
 20
46.60275666546129
 30
0.0
 10
66.85523991565277
 20
46.50036009357285
 30
0.0
 10
66.87756248502734
 20
46.44937204919642
 30
0.0
 10
66.87405613107427
 20
46.44336588258812
 30
0.0
  0
SPLINE
  5
2F1
330
2
100
AcDbEntity
  8
0
100
AcDbSpline
210
0.0
220
0.0
230
1.0
 70
     8
 71
     3
 72
    12
 73
     8
 74
     0
 42
0.000000001
 43
0.0000000001
 40
0.0
 40
0.0
 40
0.0
 40
0.0
 40
0.0458967955526269
 40
0.3484175146263723
 40
0.6509386136704756
 40
0.9534598373905016
 40
1.0
 40
1.0
 40
1.0
 40
1.0
 10
66.94468667579513
 20
46.82272843299119
 30
0.0
 10
66.91058528232904
 20
46.80424584093441
 30
0.0
 10
66.88050470960856
 20
46.77596008149083
 30
0.0
 10
66.83083410624625
 20
46.72341511944932
 30
0.0
 10
66.78488082432882
 20
46.64768495819589
 30
0.0
 10
66.76780246395131
 20
46.59014081880229
 30
0.0
 10
66.77449876516948
 20
46.55973870838829
 30
0.0
 10
66.77539157932705
 20
46.555685211732
 30
0.0
  0
LINE
  5
2F2
330
2
100
AcDbEntity
  8
0
100
AcDbLine
 10
67.5126532740894
 20
45.71908150643759
 30
0.0
 11
67.10248639667068
 21
45.92416494510553
 31
0.0
  0
LINE
  5
2F3
330
2
100
AcDbEntity
  8
0
100
AcDbLine
 10
79.40749402785565
 20
39.77166112959589
 30
0.0
 11
67.5126532740894
 21
45.71908150643759
 31
0.0
  0
SPLINE
  5
2F4
330
2
100
AcDbEntity
  8
0
100
AcDbSpline
210
0.0
220
0.0
230
1.0
 70
     8
 71
     3
 72
    11
 73
     7
 74
     0
 42
0.000000001
 43
0.0000000001
 40
0.0
 40
0.0
 40
0.0
 40
0.0
 40
0.2499998266242851
 40
0.5000000613545913
 40
0.7499994900702044
 40
1.0
 40
1.0
 40
1.0
 40
1.0
 10
83.18279268849886
 20
41.65931089645965
 30
0.0
 10
83.23863370292484
 20
41.62415493843503
 30
0.0
 10
83.350315822933
 20
41.55384296499619
 30
0.0
 10
83.39811183089809
 20
41.41862932572962
 30
0.0
 10
83.3503154744905
 20
41.28341568194321
 30
0.0
 10
83.23863369766403
 20
41.21310361395041
 30
0.0
 10
83.18279268849886
 20
41.1779475039317
 30
0.0
  0
SPLINE
  5
2F5
330
2
100
AcDbEntity
  8
0
100
AcDbSpline
210
0.0
220
0.0
230
1.0
 70
     8
 71
     3
 72
    10
 73
     6
 74
     0
 42
0.000000001
 43
0.0000000001
 40
0.0
 40
0.0
 40
0.0
 40
0.0
 40
0.0599868027336307
 40
0.5299927401271547
 40
1.0
 40
1.0
 40
1.0
 40
1.0
 10
83.41118497885872
 20
41.69677754284492
 30
0.0
 10
83.40951315906318
 20
41.70481562849414
 30
0.0
 10
83.43003785436309
 20
41.75414295612665
 30
0.0
 10
83.37261452693059
 20
41.85653935801053
 30
0.0
 10
83.26016844212398
 20
41.92951114483145
 30
0.0
 10
83.203945320622
 20
41.96599708957279
 30
0.0
  0
LINE
  5
2F6
330
2
100
AcDbEntity
  8
0
100
AcDbLine
 10
83.18279268849122
 20
41.17794750389606
 30
0.0
 11
80.37021993972517
 21
39.77166112959589
 31
0.0
  0
SPLINE
  5
2F7
330
2
100
AcDbEntity
  8
0
100
AcDbSpline
210
0.0
220
0.0
230
1.0
 70
     8
 71
     3
 72
    11
 73
     7
 74
     0
 42
0.000000001
 43
0.0000000001
 40
0.0
 40
0.0
 40
0.0
 40
0.0
 40
0.2500001848795824
 40
0.5000003416531934
 40
0.7500004984268047
 40
1.0
 40
1.0
 40
1.0
 40
1.0
 10
80.37021993976379
 20
39.77166112956405
 30
0.0
 10
80.29990784096986
 20
39.74374074406711
 30
0.0
 10
80.15928365128672
 20
39.68789997621195
 30
0.0
 10
79.88885657035749
 20
39.6640014060863
 30
0.0
 10
79.61842959707778
 20
39.68789989038652
 30
0.0
 10
79.47780582283171
 20
39.74374074089622
 30
0.0
 10
79.4074940278455
 20
39.77166112956405
 30
0.0
  0
ARC
  5
2F8
330
2
100
AcDbEntity
  8
0
100
AcDbCircle
 10
70.39642256446945
 20
46.53665610091064
 30
0.0
 40
1.801299385731312
100
AcDbArc
 50
65.97178147459996
 51
114.0282355769999
  0
SPLINE
  5
2F9
330
2
100
AcDbEntity
  8
0
100
AcDbSpline
210
0.0
220
0.0
230
1.0
 70
     8
 71
     3
 72
    11
 73
     7
 74
     0
 42
0.000000001
 43
0.0000000001
 40
0.0
 40
0.0
 40
0.0
 40
0.0
 40
0.2500003580882927
 40
0.5000000127399961
 40
0.7499992045599128
 40
1.0
 40
1.0
 40
1.0
 40
1.0
 10
70.89893812605739
 20
48.11850068685515
 30
0.0
 10
70.82553612994168
 20
48.14764795321048
 30
0.0
 10
70.6787323442445
 20
48.20594240390812
 30
0.0
 10
70.39642232300692
 20
48.23089085504517
 30
0.0
 10
70.11411185283797
 20
48.20594267556987
 30
0.0
 10
69.9673084501066
 20
48.14764793322552
 30
0.0
 10
69.89390651332403
 20
48.11850046857074
 30
0.0
  0
LINE
  5
2FA
330
2
100
AcDbEntity
  8
0
100
AcDbLine
 10
69.89390651331411
 20
48.118500468533
 30
0.0
 11
67.08133376454807
 21
46.71221409423282
 31
0.0
  0
LINE
  5
2FB
330
2
100
AcDbEntity
  8
0
100
AcDbLine
 10
83.20394532061385
 20
41.96599708956262
 30
0.0
 11
70.89893812605104
 21
48.11850068688546
 31
0.0
  0
LINE
  5
2FC
330
2
100
AcDbEntity
  8
0
100
AcDbLine
 10
66.57666501915571
 20
46.13963388401219
 30
0.0
 11
79.3504344839707
 21
39.75274915156325
 31
0.0
  0
LWPOLYLINE
  5
2FD
330
2
100
AcDbEntity
  8
0
100
AcDbPolyline
 90
        9
 70
   128
 43
0.0
 10
66.57666501915571
 20
46.13963388401219
 10
66.50109015534841
 20
46.1648826229582
 10
66.41194367685065
 20
46.17374889903754
 10
66.32279719843575
 20
46.1648826229582
 10
66.24722233462847
 20
46.13963388401219
 10
66.19672485665358
 20
46.10184645206715
 10
66.17899274119995
 20
46.05727343117075
 10
66.19672485665358
 20
46.01269997365221
 10
66.24722277125065
 20
45.97491276005968
  0
LINE
  5
2FE
330
2
100
AcDbEntity
  8
0
100
AcDbLine
 10
79.02099223606564
 20
39.58802802761073
 30
0.0
 11
66.24722277125065
 21
45.97491276005968
 31
0.0
  0
LWPOLYLINE
  5
2FF
330
2
100
AcDbEntity
  8
0
100
AcDbPolyline
 90
        9
 70
   128
 43
0.0
 10
79.02099223606564
 20
39.58802802761073
 10
79.09656666333359
 20
39.56277907031222
 10
79.18571357837068
 20
39.55391301258539
 10
79.27485962024629
 20
39.56277907031222
 10
79.3504344839707
 20
39.5880278093411
 10
79.40093196202845
 20
39.62581524120327
 10
79.41866451402137
 20
39.67038848045218
 10
79.40093196202845
 20
39.7149617196182
 10
79.3504344839707
 20
39.75274915156325
  0
LINE
  5
300
330
2
100
AcDbEntity
  8
0
100
AcDbLine
 10
66.85038449685876
 20
46.77557734352575
 30
0.0
 11
69.66295724562481
 21
48.18186371782593
 31
0.0
  0
LWPOLYLINE
  5
301
330
2
100
AcDbEntity
  8
0
100
AcDbPolyline
 90
       10
 70
   128
 43
0.0
 10
66.85038449685876
 20
46.77557734352575
 10
66.73416245721316
 20
46.70632334125378
 10
66.64375778741116
 20
46.62803083662732
 10
66.58191781509934
 20
46.54307847473961
 10
66.55052065916281
 20
46.45404725049127
 10
66.55052022262349
 20
46.36364279895895
 10
66.58191737847719
 20
46.27461157471055
 10
66.64375822403332
 20
46.18965921282284
 10
66.73416245721316
 20
46.11136648992675
 10
66.85038449685876
 20
46.0421124877376
  0
LINE
  5
302
330
2
100
AcDbEntity
  8
0
100
AcDbLine
 10
67.0880093383017
 20
45.92330006701615
 30
0.0
 11
66.85038449685876
 21
46.0421124877376
 31
0.0
  0
LINE
  5
303
330
2
100
AcDbEntity
  8
0
100
AcDbLine
 10
83.43489415176385
 20
41.29589526479782
 30
0.0
 11
83.1972697469431
 21
41.17708306234601
 31
0.0
  0
LWPOLYLINE
  5
304
330
2
100
AcDbEntity
  8
0
100
AcDbPolyline
 90
       10
 70
   128
 43
0.0
 10
83.43489415176385
 20
41.29589526479782
 10
83.55111662803166
 20
41.3651494852565
 10
83.64152129775076
 20
41.44344198988301
 10
83.70336127014544
 20
41.52839435177077
 10
83.7347579894598
 20
41.61742535783225
 10
83.7347584259991
 20
41.7078298092818
 10
83.70336170668474
 20
41.79686125188266
 10
83.64152129775076
 20
41.8818138320401
 10
83.55111662803166
 20
41.96010633666651
 10
83.43489458830314
 20
42.02936033885561
  0
LINE
  5
305
330
2
100
AcDbEntity
  8
0
100
AcDbLine
 10
71.12988739374038
 20
48.18186393617844
 30
0.0
 11
83.43489458830314
 21
42.02936033885561
 31
0.0
  0
LINE
  5
306
330
2
100
AcDbEntity
  8
0
100
AcDbLine
 10
67.44947041604712
 20
45.51303019532412
 30
0.0
 11
67.45199640326612
 21
45.69152659140383
 31
0.0
  0
LINE
  5
307
330
2
100
AcDbEntity
  8
0
100
AcDbLine
 10
68.2112092145075
 20
45.13216079609395
 30
0.0
 11
67.44947041604712
 21
45.51303019532412
 31
0.0
  0
LINE
  5
308
330
2
100
AcDbEntity
  8
0
100
AcDbLine
 10
68.21373520164364
 20
45.31065719217361
 30
0.0
 11
68.2112092145075
 21
45.13216079609395
 31
0.0
  0
LINE
  5
309
330
2
100
AcDbEntity
  8
0
100
AcDbLine
 10
69.38311445368158
 20
44.54620817646542
 30
0.0
 11
69.38564044081772
 21
44.72470457254519
 31
0.0
  0
LINE
  5
30A
330
2
100
AcDbEntity
  8
0
100
AcDbLine
 10
70.14485303378944
 20
44.16533888645296
 30
0.0
 11
69.38311445368158
 21
44.54620817646542
 31
0.0
  0
LINE
  5
30B
330
2
100
AcDbEntity
  8
0
100
AcDbLine
 10
70.14737902092557
 20
44.34383528253266
 30
0.0
 11
70.14485303378944
 21
44.16533888645296
 31
0.0
  0
LINE
  5
30C
330
2
100
AcDbEntity
  8
0
100
AcDbLine
 10
71.31675860045085
 20
43.57938610316364
 30
0.0
 11
71.31928458758697
 21
43.75788249916058
 31
0.0
  0
LINE
  5
30D
330
2
100
AcDbEntity
  8
0
100
AcDbLine
 10
72.07849718055872
 20
43.19851681306829
 30
0.0
 11
71.31675860045085
 21
43.57938610316364
 31
0.0
  0
LINE
  5
30E
330
2
100
AcDbEntity
  8
0
100
AcDbLine
 10
72.08102316769483
 20
43.37701320914805
 30
0.0
 11
72.07849718055872
 21
43.19851681306829
 31
0.0
  0
LINE
  5
30F
330
2
100
AcDbEntity
  8
0
100
AcDbLine
 10
73.25040263808529
 20
42.61256408430506
 30
0.0
 11
73.25292862522141
 21
42.79106048038477
 31
0.0
  0
LINE
  5
310
330
2
100
AcDbEntity
  8
0
100
AcDbLine
 10
74.01214121819314
 20
42.23169479429254
 30
0.0
 11
73.25040263808529
 21
42.61256408430506
 31
0.0
  0
LINE
  5
311
330
2
100
AcDbEntity
  8
0
100
AcDbLine
 10
74.01466720532929
 20
42.41019119037225
 30
0.0
 11
74.01214121819314
 21
42.23169479429254
 31
0.0
  0
LINE
  5
312
330
2
100
AcDbEntity
  8
0
100
AcDbLine
 10
75.18404678477171
 20
41.64574201092039
 30
0.0
 11
75.18657277199068
 21
41.8242384070001
 31
0.0
  0
LINE
  5
313
330
2
100
AcDbEntity
  8
0
100
AcDbLine
 10
75.94578536487955
 20
41.26487272090787
 30
0.0
 11
75.18404678477171
 21
41.64574201092039
 31
0.0
  0
LINE
  5
314
330
2
100
AcDbEntity
  8
0
100
AcDbLine
 10
75.94831135209855
 20
41.44336911698764
 30
0.0
 11
75.94578536487955
 21
41.26487272090787
 31
0.0
  0
LINE
  5
315
330
2
100
AcDbEntity
  8
0
100
AcDbLine
 10
77.11769067241826
 20
40.67892013533747
 30
0.0
 11
77.12021659135547
 21
40.85741649735917
 31
0.0
  0
LINE
  5
316
330
2
100
AcDbEntity
  8
0
100
AcDbLine
 10
77.87942947079577
 20
40.29805073619013
 30
0.0
 11
77.11769067241826
 21
40.67892013533747
 31
0.0
  0
LINE
  5
317
330
2
100
AcDbEntity
  8
0
100
AcDbLine
 10
77.88195538973299
 20
40.47654709812895
 30
0.0
 11
77.87942947079577
 21
40.29805073619013
 31
0.0
  0
ARC
  5
318
330
2
100
AcDbEntity
  8
0
100
AcDbCircle
 10
67.04125303046662
 20
46.51648941646732
 30
0.0
 40
0.2651171858726917
100
AcDbArc
 50
182.0349214729426
 51
234.8403166889421
  0
LINE
  5
319
330
2
100
AcDbEntity
  8
0
100
AcDbLine
 10
76.2493002275776
 20
51.13098793088119
 30
0.0
 11
76.27924797498336
 21
50.83491771895598
 31
0.0
  0
LINE
  5
31A
330
2
100
AcDbEntity
  8
0
100
AcDbLine
 10
76.14858860469744
 20
51.24356641160642
 30
0.0
 11
76.15267488872349
 21
51.176069256473
 31
0.0
  0
LINE
  5
31B
330
2
100
AcDbEntity
  8
0
100
AcDbLine
 10
92.75651886664594
 20
46.0887004960162
 30
0.0
 11
92.78646661413455
 21
46.38477070794135
 31
0.0
  0
SPLINE
  5
31C
330
2
100
AcDbEntity
  8
0
100
AcDbSpline
210
0.0
220
0.0
230
1.0
 70
     8
 71
     3
 72
    11
 73
     7
 74
     0
 42
0.000000001
 43
0.0000000001
 40
0.0
 40
0.0
 40
0.0
 40
0.0
 40
0.2500005099297956
 40
0.4999999386454089
 40
0.7500001733757149
 40
1.0
 40
1.0
 40
1.0
 40
1.0
 10
79.29030280538168
 20
52.49943654203502
 30
0.0
 10
79.36061502541931
 20
52.52735704661756
 30
0.0
 10
79.50123916140487
 20
52.58319793503085
 30
0.0
 10
79.77166644897758
 20
52.60709611323455
 30
0.0
 10
80.04209372751081
 20
52.58319810925207
 30
0.0
 10
80.18271767438832
 20
52.52735704924799
 30
0.0
 10
80.25302959043761
 20
52.49943654203502
 30
0.0
  0
LINE
  5
31D
330
2
100
AcDbEntity
  8
0
100
AcDbLine
 10
76.47773005663473
 20
51.09315016764447
 30
0.0
 11
79.29030280540075
 21
52.49943654202747
 31
0.0
  0
LINE
  5
31E
330
2
100
AcDbEntity
  8
0
100
AcDbLine
 10
80.25302959043179
 20
52.49943654202747
 30
0.0
 11
92.55803678499457
 21
46.34693294478757
 31
0.0
  0
SPLINE
  5
31F
330
2
100
AcDbEntity
  8
0
100
AcDbSpline
210
0.0
220
0.0
230
1.0
 70
     8
 71
     3
 72
    11
 73
     7
 74
     0
 42
0.000000001
 43
0.0000000001
 40
0.0
 40
0.0
 40
0.0
 40
0.0
 40
0.2499999290274844
 40
0.4999999433163378
 40
0.7499999576051915
 40
1.0
 40
1.0
 40
1.0
 40
1.0
 10
76.47773049321543
 20
50.61178699342395
 30
0.0
 10
76.42188953921099
 20
50.64694295517461
 30
0.0
 10
76.31020761215785
 20
50.71725489066569
 30
0.0
 10
76.2624106103458
 20
50.85246848373964
 30
0.0
 10
76.31020774977866
 20
50.98768202323515
 30
0.0
 10
76.42188928559801
 20
51.05799411820584
 30
0.0
 10
76.47773005664662
 20
51.09315016766749
 30
0.0
  0
SPLINE
  5
320
330
2
100
AcDbEntity
  8
0
100
AcDbSpline
210
0.0
220
0.0
230
1.0
 70
     8
 71
     3
 72
    10
 73
     6
 74
     0
 42
0.000000001
 43
0.0000000001
 40
0.0
 40
0.0
 40
0.0
 40
0.0
 40
0.4700057897491769
 40
0.9400123577158604
 40
1.0
 40
1.0
 40
1.0
 40
1.0
 10
76.45657786109229
 20
51.39983614249627
 30
0.0
 10
76.4003548735609
 20
51.36335035305297
 30
0.0
 10
76.28790880540629
 20
51.29037871375442
 30
0.0
 10
76.23048401215612
 20
51.18798214186597
 30
0.0
 10
76.25280658153068
 20
51.13699409748955
 30
0.0
 10
76.2493002275776
 20
51.13098793088119
 30
0.0
  0
SPLINE
  5
321
330
2
100
AcDbEntity
  8
0
100
AcDbSpline
210
0.0
220
0.0
230
1.0
 70
     8
 71
     3
 72
    12
 73
     8
 74
     0
 42
0.000000001
 43
0.0000000001
 40
0.0
 40
0.0
 40
0.0
 40
0.0
 40
0.0458967955526269
 40
0.3484175146263723
 40
0.6509386136704756
 40
0.9534598373905016
 40
1.0
 40
1.0
 40
1.0
 40
1.0
 10
76.31993077229847
 20
51.51035048128426
 30
0.0
 10
76.28582937883237
 20
51.49186788922747
 30
0.0
 10
76.25574880611189
 20
51.4635821297839
 30
0.0
 10
76.20607820274961
 20
51.41103716774245
 30
0.0
 10
76.16012492083218
 20
51.33530700648896
 30
0.0
 10
76.14304656045465
 20
51.27776286709542
 30
0.0
 10
76.14974286167282
 20
51.24736075668142
 30
0.0
 10
76.15063567583039
 20
51.24330726002506
 30
0.0
  0
LINE
  5
322
330
2
100
AcDbEntity
  8
0
100
AcDbLine
 10
76.88789737059273
 20
50.40670355473071
 30
0.0
 11
76.47773049317402
 21
50.61178699339859
 31
0.0
  0
LINE
  5
323
330
2
100
AcDbEntity
  8
0
100
AcDbLine
 10
88.78273812435898
 20
44.459283177889
 30
0.0
 11
76.88789737059273
 21
50.40670355473071
 31
0.0
  0
SPLINE
  5
324
330
2
100
AcDbEntity
  8
0
100
AcDbSpline
210
0.0
220
0.0
230
1.0
 70
     8
 71
     3
 72
    11
 73
     7
 74
     0
 42
0.000000001
 43
0.0000000001
 40
0.0
 40
0.0
 40
0.0
 40
0.0
 40
0.2499998266242851
 40
0.5000000613545913
 40
0.7499994900702044
 40
1.0
 40
1.0
 40
1.0
 40
1.0
 10
92.55803678500219
 20
46.34693294475272
 30
0.0
 10
92.61387779942817
 20
46.31177698672809
 30
0.0
 10
92.72555991943633
 20
46.24146501328925
 30
0.0
 10
92.77335592740142
 20
46.10625137402275
 30
0.0
 10
92.72555957099383
 20
45.97103773023627
 30
0.0
 10
92.61387779416738
 20
45.90072566224347
 30
0.0
 10
92.55803678500219
 20
45.86556955222476
 30
0.0
  0
SPLINE
  5
325
330
2
100
AcDbEntity
  8
0
100
AcDbSpline
210
0.0
220
0.0
230
1.0
 70
     8
 71
     3
 72
    10
 73
     6
 74
     0
 42
0.000000001
 43
0.0000000001
 40
0.0
 40
0.0
 40
0.0
 40
0.0
 40
0.0599868027336307
 40
0.5299927401271547
 40
1.0
 40
1.0
 40
1.0
 40
1.0
 10
92.78642907536207
 20
46.38439959113805
 30
0.0
 10
92.78475725556651
 20
46.39243767678721
 30
0.0
 10
92.80528195086644
 20
46.44176500441978
 30
0.0
 10
92.74785862343392
 20
46.54416140630366
 30
0.0
 10
92.63541253862731
 20
46.61713319312451
 30
0.0
 10
92.57918941712535
 20
46.65361913786592
 30
0.0
  0
LINE
  5
326
330
2
100
AcDbEntity
  8
0
100
AcDbLine
 10
92.55803678499457
 20
45.86556955218918
 30
0.0
 11
89.7454640362285
 21
44.459283177889
 31
0.0
  0
SPLINE
  5
327
330
2
100
AcDbEntity
  8
0
100
AcDbSpline
210
0.0
220
0.0
230
1.0
 70
     8
 71
     3
 72
    11
 73
     7
 74
     0
 42
0.000000001
 43
0.0000000001
 40
0.0
 40
0.0
 40
0.0
 40
0.0
 40
0.2500001848795824
 40
0.5000003416531934
 40
0.7500004984268047
 40
1.0
 40
1.0
 40
1.0
 40
1.0
 10
89.74546403626714
 20
44.45928317785717
 30
0.0
 10
89.6751519374732
 20
44.43136279236017
 30
0.0
 10
89.53452774779007
 20
44.37552202450501
 30
0.0
 10
89.26410066686083
 20
44.35162345437942
 30
0.0
 10
88.99367369358111
 20
44.37552193867964
 30
0.0
 10
88.85304991933505
 20
44.43136278918927
 30
0.0
 10
88.78273812434883
 20
44.45928317785717
 30
0.0
  0
ARC
  5
328
330
2
100
AcDbEntity
  8
0
100
AcDbCircle
 10
79.77166666097279
 20
51.22427814920377
 30
0.0
 40
1.801299385731312
100
AcDbArc
 50
65.97178147459996
 51
114.0282355769999
  0
SPLINE
  5
329
330
2
100
AcDbEntity
  8
0
100
AcDbSpline
210
0.0
220
0.0
230
1.0
 70
     8
 71
     3
 72
    11
 73
     7
 74
     0
 42
0.000000001
 43
0.0000000001
 40
0.0
 40
0.0
 40
0.0
 40
0.0
 40
0.2500003580882927
 40
0.5000000127399961
 40
0.7499992045599128
 40
1.0
 40
1.0
 40
1.0
 40
1.0
 10
80.27418222256073
 20
52.80612273514822
 30
0.0
 10
80.20078022644502
 20
52.83527000150354
 30
0.0
 10
80.05397644074784
 20
52.89356445220125
 30
0.0
 10
79.77166641951026
 20
52.91851290333823
 30
0.0
 10
79.4893559493413
 20
52.89356472386294
 30
0.0
 10
79.34255254660993
 20
52.83526998151859
 30
0.0
 10
79.26915060982736
 20
52.80612251686381
 30
0.0
  0
LINE
  5
32A
330
2
100
AcDbEntity
  8
0
100
AcDbLine
 10
79.26915060981745
 20
52.80612251682612
 30
0.0
 11
76.45657786105141
 21
51.39983614252594
 31
0.0
  0
LINE
  5
32B
330
2
100
AcDbEntity
  8
0
100
AcDbLine
 10
92.5791894171172
 20
46.65361913785574
 30
0.0
 11
80.27418222255439
 21
52.80612273517852
 31
0.0
  0
LINE
  5
32C
330
2
100
AcDbEntity
  8
0
100
AcDbLine
 10
75.95190911565905
 20
50.82725593230532
 30
0.0
 11
88.72567858047403
 21
44.44037119985637
 31
0.0
  0
LWPOLYLINE
  5
32D
330
2
100
AcDbEntity
  8
0
100
AcDbPolyline
 90
        9
 70
   128
 43
0.0
 10
75.95190911565905
 20
50.82725593230532
 10
75.87633425185174
 20
50.85250467125132
 10
75.78718777335399
 20
50.86137094733067
 10
75.69804129493909
 20
50.85250467125132
 10
75.62246643113181
 20
50.82725593230532
 10
75.57196895315691
 20
50.78946850036022
 10
75.55423683770328
 20
50.74489547946388
 10
75.57196895315691
 20
50.70032202194528
 10
75.62246686775399
 20
50.66253480835275
  0
LINE
  5
32E
330
2
100
AcDbEntity
  8
0
100
AcDbLine
 10
88.39623633256897
 20
44.27565007590385
 30
0.0
 11
75.62246686775399
 21
50.66253480835275
 31
0.0
  0
LWPOLYLINE
  5
32F
330
2
100
AcDbEntity
  8
0
100
AcDbPolyline
 90
        9
 70
   128
 43
0.0
 10
88.39623633256897
 20
44.27565007590385
 10
88.47181075983694
 20
44.25040111860528
 10
88.56095767487403
 20
44.2415350608785
 10
88.65010371674962
 20
44.25040111860528
 10
88.72567858047403
 20
44.27564985763416
 10
88.77617605853179
 20
44.31343728949639
 10
88.7939086105247
 20
44.3580105287453
 10
88.77617605853179
 20
44.40258376791127
 10
88.72567858047403
 20
44.44037119985637
  0
LINE
  5
330
330
2
100
AcDbEntity
  8
0
100
AcDbLine
 10
76.2256285933621
 20
51.46319939181887
 30
0.0
 11
79.03820134212816
 21
52.869485766119
 31
0.0
  0
LWPOLYLINE
  5
331
330
2
100
AcDbEntity
  8
0
100
AcDbPolyline
 90
       10
 70
   128
 43
0.0
 10
76.2256285933621
 20
51.46319939181887
 10
76.10940655371649
 20
51.3939453895469
 10
76.0190018839145
 20
51.31565288492044
 10
75.9571619116027
 20
51.23070052303273
 10
75.92576475566615
 20
51.14166929878433
 10
75.92576431912684
 20
51.05126484725201
 10
75.95716147498052
 20
50.96223362300367
 10
76.01900232053665
 20
50.87728126111591
 10
76.10940655371649
 20
50.79898853821982
 10
76.2256285933621
 20
50.72973453603072
  0
LINE
  5
332
330
2
100
AcDbEntity
  8
0
100
AcDbLine
 10
76.46325343480504
 20
50.61092211530928
 30
0.0
 11
76.2256285933621
 21
50.72973453603072
 31
0.0
  0
LINE
  5
333
330
2
100
AcDbEntity
  8
0
100
AcDbLine
 10
92.8101382482672
 20
45.98351731309094
 30
0.0
 11
92.57251384344643
 21
45.86470511063907
 31
0.0
  0
LWPOLYLINE
  5
334
330
2
100
AcDbEntity
  8
0
100
AcDbPolyline
 90
       10
 70
   128
 43
0.0
 10
92.8101382482672
 20
45.98351731309094
 10
92.92636072453499
 20
46.05277153354961
 10
93.01676539425409
 20
46.13106403817613
 10
93.07860536664877
 20
46.21601640006383
 10
93.11000208596315
 20
46.30504740612536
 10
93.11000252250243
 20
46.39545185757486
 10
93.07860580318807
 20
46.48448330017578
 10
93.01676539425409
 20
46.56943588033317
 10
92.92636072453499
 20
46.64772838495958
 10
92.81013868480647
 20
46.71698238714867
  0
LINE
  5
335
330
2
100
AcDbEntity
  8
0
100
AcDbLine
 10
80.50513149024371
 20
52.86948598447151
 30
0.0
 11
92.81013868480647
 21
46.71698238714867
 31
0.0
  0
LINE
  5
336
330
2
100
AcDbEntity
  8
0
100
AcDbLine
 10
76.82471451255046
 20
50.20065224361719
 30
0.0
 11
76.82724049976946
 21
50.37914863969695
 31
0.0
  0
LINE
  5
337
330
2
100
AcDbEntity
  8
0
100
AcDbLine
 10
77.58645331101084
 20
49.81978284438702
 30
0.0
 11
76.82471451255046
 21
50.20065224361719
 31
0.0
  0
LINE
  5
338
330
2
100
AcDbEntity
  8
0
100
AcDbLine
 10
77.58897929814698
 20
49.99827924046673
 30
0.0
 11
77.58645331101084
 21
49.81978284438702
 31
0.0
  0
LINE
  5
339
330
2
100
AcDbEntity
  8
0
100
AcDbLine
 10
78.75835855018493
 20
49.23383022475855
 30
0.0
 11
78.76088453732106
 21
49.41232662083826
 31
0.0
  0
LINE
  5
33A
330
2
100
AcDbEntity
  8
0
100
AcDbLine
 10
79.52009713029278
 20
48.85296093474607
 30
0.0
 11
78.75835855018493
 21
49.23383022475855
 31
0.0
  0
LINE
  5
33B
330
2
100
AcDbEntity
  8
0
100
AcDbLine
 10
79.52262311742891
 20
49.03145733082578
 30
0.0
 11
79.52009713029278
 21
48.85296093474607
 31
0.0
  0
LINE
  5
33C
330
2
100
AcDbEntity
  8
0
100
AcDbLine
 10
80.6920026969542
 20
48.2670081514567
 30
0.0
 11
80.69452868409031
 21
48.44550454745365
 31
0.0
  0
LINE
  5
33D
330
2
100
AcDbEntity
  8
0
100
AcDbLine
 10
81.45374127706205
 20
47.88613886136142
 30
0.0
 11
80.6920026969542
 21
48.2670081514567
 31
0.0
  0
LINE
  5
33E
330
2
100
AcDbEntity
  8
0
100
AcDbLine
 10
81.45626726419818
 20
48.06463525744113
 30
0.0
 11
81.45374127706205
 21
47.88613886136142
 31
0.0
  0
LINE
  5
33F
330
2
100
AcDbEntity
  8
0
100
AcDbLine
 10
82.62564673458863
 20
47.30018613259812
 30
0.0
 11
82.62817272172476
 21
47.47868252867784
 31
0.0
  0
LINE
  5
340
330
2
100
AcDbEntity
  8
0
100
AcDbLine
 10
83.38738531469649
 20
46.91931684258565
 30
0.0
 11
82.62564673458863
 21
47.30018613259812
 31
0.0
  0
LINE
  5
341
330
2
100
AcDbEntity
  8
0
100
AcDbLine
 10
83.38991130183263
 20
47.09781323866536
 30
0.0
 11
83.38738531469649
 21
46.91931684258565
 31
0.0
  0
LINE
  5
342
330
2
100
AcDbEntity
  8
0
100
AcDbLine
 10
84.55929088127504
 20
46.33336405921347
 30
0.0
 11
84.56181686849403
 21
46.51186045529323
 31
0.0
  0
LINE
  5
343
330
2
100
AcDbEntity
  8
0
100
AcDbLine
 10
85.32102946138289
 20
45.95249476920099
 30
0.0
 11
84.55929088127504
 21
46.33336405921347
 31
0.0
  0
LINE
  5
344
330
2
100
AcDbEntity
  8
0
100
AcDbLine
 10
85.32355544860189
 20
46.1309911652807
 30
0.0
 11
85.32102946138289
 21
45.95249476920099
 31
0.0
  0
LINE
  5
345
330
2
100
AcDbEntity
  8
0
100
AcDbLine
 10
86.49293476892159
 20
45.3665421836306
 30
0.0
 11
86.4954606878588
 21
45.54503854565223
 31
0.0
  0
LINE
  5
346
330
2
100
AcDbEntity
  8
0
100
AcDbLine
 10
87.25467356729911
 20
44.98567278448326
 30
0.0
 11
86.49293476892159
 21
45.3665421836306
 31
0.0
  0
LINE
  5
347
330
2
100
AcDbEntity
  8
0
100
AcDbLine
 10
87.25719948623634
 20
45.16416914642206
 30
0.0
 11
87.25467356729911
 21
44.98567278448326
 31
0.0
  0
ARC
  5
348
330
2
100
AcDbEntity
  8
0
100
AcDbCircle
 10
76.41649712696995
 20
51.20411146476044
 30
0.0
 40
0.2651171858726917
100
AcDbArc
 50
182.0349214729426
 51
234.8403166889421
  0
LINE
  5
349
330
2
100
AcDbEntity
  8
0
100
AcDbLine
 10
71.56167839769356
 20
48.78717701587806
 30
0.0
 11
71.59162614509932
 21
48.49110680395284
 31
0.0
  0
LINE
  5
34A
330
2
100
AcDbEntity
  8
0
100
AcDbLine
 10
71.46096677481338
 20
48.89975549660329
 30
0.0
 11
71.46505305883946
 21
48.83225834146987
 31
0.0
  0
LINE
  5
34B
330
2
100
AcDbEntity
  8
0
100
AcDbLine
 10
88.06889703676189
 20
43.74488958101307
 30
0.0
 11
88.0988447842505
 21
44.04095979293822
 31
0.0
  0
SPLINE
  5
34C
330
2
100
AcDbEntity
  8
0
100
AcDbSpline
210
0.0
220
0.0
230
1.0
 70
     8
 71
     3
 72
    11
 73
     7
 74
     0
 42
0.000000001
 43
0.0000000001
 40
0.0
 40
0.0
 40
0.0
 40
0.0
 40
0.2500005099297956
 40
0.4999999386454089
 40
0.7500001733757149
 40
1.0
 40
1.0
 40
1.0
 40
1.0
 10
74.60268097549763
 20
50.15562562703189
 30
0.0
 10
74.67299319553525
 20
50.18354613161443
 30
0.0
 10
74.81361733152081
 20
50.23938702002772
 30
0.0
 10
75.08404461909353
 20
50.26328519823142
 30
0.0
 10
75.35447189762675
 20
50.23938719424887
 30
0.0
 10
75.49509584450428
 20
50.18354613424481
 30
0.0
 10
75.56540776055356
 20
50.15562562703189
 30
0.0
  0
LINE
  5
34D
330
2
100
AcDbEntity
  8
0
100
AcDbLine
 10
71.79010822675067
 20
48.74933925264127
 30
0.0
 11
74.6026809755167
 21
50.15562562702434
 31
0.0
  0
LINE
  5
34E
330
2
100
AcDbEntity
  8
0
100
AcDbLine
 10
75.56540776054774
 20
50.15562562702434
 30
0.0
 11
87.87041495511052
 21
44.00312202978438
 31
0.0
  0
SPLINE
  5
34F
330
2
100
AcDbEntity
  8
0
100
AcDbSpline
210
0.0
220
0.0
230
1.0
 70
     8
 71
     3
 72
    11
 73
     7
 74
     0
 42
0.000000001
 43
0.0000000001
 40
0.0
 40
0.0
 40
0.0
 40
0.0
 40
0.2499999290274844
 40
0.4999999433163378
 40
0.7499999576051915
 40
1.0
 40
1.0
 40
1.0
 40
1.0
 10
71.79010866333138
 20
48.26797607842081
 30
0.0
 10
71.73426770932696
 20
48.30313204017142
 30
0.0
 10
71.6225857822738
 20
48.37344397566255
 30
0.0
 10
71.57478878046174
 20
48.50865756873651
 30
0.0
 10
71.62258591989462
 20
48.64387110823196
 30
0.0
 10
71.73426745571397
 20
48.71418320320271
 30
0.0
 10
71.79010822676258
 20
48.74933925266436
 30
0.0
  0
SPLINE
  5
350
330
2
100
AcDbEntity
  8
0
100
AcDbSpline
210
0.0
220
0.0
230
1.0
 70
     8
 71
     3
 72
    10
 73
     6
 74
     0
 42
0.000000001
 43
0.0000000001
 40
0.0
 40
0.0
 40
0.0
 40
0.0
 40
0.4700057897491769
 40
0.9400123577158604
 40
1.0
 40
1.0
 40
1.0
 40
1.0
 10
71.76895603120826
 20
49.05602522749308
 30
0.0
 10
71.71273304367686
 20
49.01953943804977
 30
0.0
 10
71.60028697552224
 20
48.94656779875123
 30
0.0
 10
71.54286218227207
 20
48.84417122686284
 30
0.0
 10
71.56518475164664
 20
48.79318318248635
 30
0.0
 10
71.56167839769356
 20
48.78717701587806
 30
0.0
  0
SPLINE
  5
351
330
2
100
AcDbEntity
  8
0
100
AcDbSpline
210
0.0
220
0.0
230
1.0
 70
     8
 71
     3
 72
    12
 73
     8
 74
     0
 42
0.000000001
 43
0.0000000001
 40
0.0
 40
0.0
 40
0.0
 40
0.0
 40
0.0458967955526269
 40
0.3484175146263723
 40
0.6509386136704756
 40
0.9534598373905016
 40
1.0
 40
1.0
 40
1.0
 40
1.0
 10
71.63230894241443
 20
49.16653956628113
 30
0.0
 10
71.59820754894832
 20
49.14805697422434
 30
0.0
 10
71.56812697622786
 20
49.11977121478077
 30
0.0
 10
71.51845637286555
 20
49.06722625273926
 30
0.0
 10
71.47250309094812
 20
48.99149609148583
 30
0.0
 10
71.4554247305706
 20
48.93395195209229
 30
0.0
 10
71.46212103178879
 20
48.90354984167823
 30
0.0
 10
71.46301384594633
 20
48.89949634502193
 30
0.0
  0
LINE
  5
352
330
2
100
AcDbEntity
  8
0
100
AcDbLine
 10
72.2002755407087
 20
48.06289263972752
 30
0.0
 11
71.79010866328998
 21
48.26797607839546
 31
0.0
  0
LINE
  5
353
330
2
100
AcDbEntity
  8
0
100
AcDbLine
 10
84.09511629447493
 20
42.11547226288582
 30
0.0
 11
72.2002755407087
 21
48.06289263972752
 31
0.0
  0
SPLINE
  5
354
330
2
100
AcDbEntity
  8
0
100
AcDbSpline
210
0.0
220
0.0
230
1.0
 70
     8
 71
     3
 72
    11
 73
     7
 74
     0
 42
0.000000001
 43
0.0000000001
 40
0.0
 40
0.0
 40
0.0
 40
0.0
 40
0.2499998266242851
 40
0.5000000613545913
 40
0.7499994900702044
 40
1.0
 40
1.0
 40
1.0
 40
1.0
 10
87.87041495511816
 20
44.00312202974959
 30
0.0
 10
87.92625596954414
 20
43.96796607172496
 30
0.0
 10
88.03793808955232
 20
43.89765409828612
 30
0.0
 10
88.08573409751739
 20
43.76244045901955
 30
0.0
 10
88.0379377411098
 20
43.62722681523314
 30
0.0
 10
87.92625596428335
 20
43.55691474724034
 30
0.0
 10
87.87041495511816
 20
43.52175863722163
 30
0.0
  0
SPLINE
  5
355
330
2
100
AcDbEntity
  8
0
100
AcDbSpline
210
0.0
220
0.0
230
1.0
 70
     8
 71
     3
 72
    10
 73
     6
 74
     0
 42
0.000000001
 43
0.0000000001
 40
0.0
 40
0.0
 40
0.0
 40
0.0
 40
0.0599868027336307
 40
0.5299927401271547
 40
1.0
 40
1.0
 40
1.0
 40
1.0
 10
88.09880724547802
 20
44.04058867613485
 30
0.0
 10
88.0971354256825
 20
44.04862676178407
 30
0.0
 10
88.11766012098241
 20
44.09795408941659
 30
0.0
 10
88.06023679354989
 20
44.20035049130052
 30
0.0
 10
87.9477907087433
 20
44.27332227812138
 30
0.0
 10
87.8915675872413
 20
44.30980822286278
 30
0.0
  0
LINE
  5
356
330
2
100
AcDbEntity
  8
0
100
AcDbLine
 10
87.87041495511052
 20
43.52175863718599
 30
0.0
 11
85.05784220634447
 21
42.11547226288582
 31
0.0
  0
SPLINE
  5
357
330
2
100
AcDbEntity
  8
0
100
AcDbSpline
210
0.0
220
0.0
230
1.0
 70
     8
 71
     3
 72
    11
 73
     7
 74
     0
 42
0.000000001
 43
0.0000000001
 40
0.0
 40
0.0
 40
0.0
 40
0.0
 40
0.2500001848795824
 40
0.5000003416531934
 40
0.7500004984268047
 40
1.0
 40
1.0
 40
1.0
 40
1.0
 10
85.05784220638309
 20
42.11547226285404
 30
0.0
 10
84.98753010758917
 20
42.08755187735704
 30
0.0
 10
84.84690591790602
 20
42.03171110950188
 30
0.0
 10
84.5764788369768
 20
42.00781253937623
 30
0.0
 10
84.30605186369708
 20
42.03171102367645
 30
0.0
 10
84.165428089451
 20
42.08755187418614
 30
0.0
 10
84.09511629446482
 20
42.11547226285404
 30
0.0
  0
ARC
  5
358
330
2
100
AcDbEntity
  8
0
100
AcDbCircle
 10
75.08404483108873
 20
48.88046723420058
 30
0.0
 40
1.801299385731312
100
AcDbArc
 50
65.97178147459996
 51
114.0282355769999
  0
SPLINE
  5
359
330
2
100
AcDbEntity
  8
0
100
AcDbSpline
210
0.0
220
0.0
230
1.0
 70
     8
 71
     3
 72
    11
 73
     7
 74
     0
 42
0.000000001
 43
0.0000000001
 40
0.0
 40
0.0
 40
0.0
 40
0.0
 40
0.2500003580882927
 40
0.5000000127399961
 40
0.7499992045599128
 40
1.0
 40
1.0
 40
1.0
 40
1.0
 10
75.58656039267669
 20
50.46231182014508
 30
0.0
 10
75.51315839656097
 20
50.49145908650041
 30
0.0
 10
75.3663546108638
 20
50.54975353719806
 30
0.0
 10
75.0840445896262
 20
50.5747019883351
 30
0.0
 10
74.80173411945725
 20
50.54975380885981
 30
0.0
 10
74.65493071672589
 20
50.49145906651546
 30
0.0
 10
74.58152877994331
 20
50.46231160186067
 30
0.0
  0
LINE
  5
35A
330
2
100
AcDbEntity
  8
0
100
AcDbLine
 10
74.58152877993339
 20
50.46231160182293
 30
0.0
 11
71.76895603116737
 21
49.05602522752281
 31
0.0
  0
LINE
  5
35B
330
2
100
AcDbEntity
  8
0
100
AcDbLine
 10
87.89156758723317
 20
44.30980822285261
 30
0.0
 11
75.58656039267034
 21
50.46231182017539
 31
0.0
  0
LINE
  5
35C
330
2
100
AcDbEntity
  8
0
100
AcDbLine
 10
71.53800676347806
 20
49.11938847681568
 30
0.0
 11
74.35057951224411
 21
50.52567485111587
 31
0.0
  0
LWPOLYLINE
  5
35D
330
2
100
AcDbEntity
  8
0
100
AcDbPolyline
 90
       10
 70
   128
 43
0.0
 10
71.53800676347806
 20
49.11938847681568
 10
71.42178472383244
 20
49.05013447454371
 10
71.33138005403046
 20
48.97184196991725
 10
71.26954008171864
 20
48.88688960802955
 10
71.23814292578211
 20
48.7978583837812
 10
71.23814248924279
 20
48.70745393224888
 10
71.26953964509647
 20
48.61842270800048
 10
71.33138049065262
 20
48.53347034611278
 10
71.42178472383244
 20
48.45517762321668
 10
71.53800676347806
 20
48.38592362102753
  0
LINE
  5
35E
330
2
100
AcDbEntity
  8
0
100
AcDbLine
 10
71.775631604921
 20
48.26711120030608
 30
0.0
 11
71.53800676347806
 21
48.38592362102753
 31
0.0
  0
LINE
  5
35F
330
2
100
AcDbEntity
  8
0
100
AcDbLine
 10
88.12251641838315
 20
43.63970639808781
 30
0.0
 11
87.8848920135624
 21
43.52089419563594
 31
0.0
  0
LWPOLYLINE
  5
360
330
2
100
AcDbEntity
  8
0
100
AcDbPolyline
 90
       10
 70
   128
 43
0.0
 10
88.12251641838315
 20
43.63970639808781
 10
88.23873889465096
 20
43.70896061854643
 10
88.32914356437006
 20
43.78725312317294
 10
88.39098353676474
 20
43.8722054850607
 10
88.4223802560791
 20
43.96123649112218
 10
88.42238069261842
 20
44.05164094257173
 10
88.39098397330403
 20
44.14067238517264
 10
88.32914356437006
 20
44.22562496533004
 10
88.23873889465096
 20
44.30391746995645
 10
88.12251685492245
 20
44.37317147214554
  0
LINE
  5
361
330
2
100
AcDbEntity
  8
0
100
AcDbLine
 10
75.81750966035966
 20
50.52567506946838
 30
0.0
 11
88.12251685492245
 21
44.37317147214554
 31
0.0
  0
ARC
  5
362
330
2
100
AcDbEntity
  8
0
100
AcDbCircle
 10
71.72887529708592
 20
48.86030054975726
 30
0.0
 40
0.2651171858726917
100
AcDbArc
 50
182.0349214729426
 51
234.8403166889421
  0
LINE
  5
363
330
2
100
AcDbEntity
  8
0
100
AcDbLine
 10
57.49881290764956
 20
41.75574427091715
 30
0.0
 11
57.52876065505532
 21
41.45967405899199
 31
0.0
  0
LINE
  5
364
330
2
100
AcDbEntity
  8
0
100
AcDbLine
 10
57.39810128476939
 20
41.86832275164237
 30
0.0
 11
57.40218756879545
 21
41.80082559650895
 31
0.0
  0
LINE
  5
365
330
2
100
AcDbEntity
  8
0
100
AcDbLine
 10
74.00603154671789
 20
36.71345683605216
 30
0.0
 11
74.0359792942065
 21
37.00952704797737
 31
0.0
  0
SPLINE
  5
366
330
2
100
AcDbEntity
  8
0
100
AcDbSpline
210
0.0
220
0.0
230
1.0
 70
     8
 71
     3
 72
    11
 73
     7
 74
     0
 42
0.000000001
 43
0.0000000001
 40
0.0
 40
0.0
 40
0.0
 40
0.0
 40
0.2500005099297956
 40
0.4999999386454089
 40
0.7500001733757149
 40
1.0
 40
1.0
 40
1.0
 40
1.0
 10
60.53981548545363
 20
43.12419288207098
 30
0.0
 10
60.61012770549125
 20
43.15211338665352
 30
0.0
 10
60.75075184147681
 20
43.20795427506681
 30
0.0
 10
61.02117912904952
 20
43.23185245327056
 30
0.0
 10
61.29160640758275
 20
43.20795444928802
 30
0.0
 10
61.43223035446027
 20
43.15211338928395
 30
0.0
 10
61.50254227050957
 20
43.12419288207098
 30
0.0
  0
LINE
  5
367
330
2
100
AcDbEntity
  8
0
100
AcDbLine
 10
57.72724273670668
 20
41.71790650768042
 30
0.0
 11
60.5398154854727
 21
43.12419288206342
 31
0.0
  0
LINE
  5
368
330
2
100
AcDbEntity
  8
0
100
AcDbLine
 10
61.50254227050374
 20
43.12419288206342
 30
0.0
 11
73.80754946506653
 21
36.97168928482353
 31
0.0
  0
SPLINE
  5
369
330
2
100
AcDbEntity
  8
0
100
AcDbSpline
210
0.0
220
0.0
230
1.0
 70
     8
 71
     3
 72
    11
 73
     7
 74
     0
 42
0.000000001
 43
0.0000000001
 40
0.0
 40
0.0
 40
0.0
 40
0.0
 40
0.2499999290274844
 40
0.4999999433163378
 40
0.7499999576051915
 40
1.0
 40
1.0
 40
1.0
 40
1.0
 10
57.72724317328739
 20
41.2365433334599
 30
0.0
 10
57.67140221928294
 20
41.27169929521056
 30
0.0
 10
57.5597202922298
 20
41.3420112307017
 30
0.0
 10
57.51192329041774
 20
41.4772248237756
 30
0.0
 10
57.5597204298506
 20
41.61243836327111
 30
0.0
 10
57.67140196566997
 20
41.68275045824185
 30
0.0
 10
57.72724273671857
 20
41.71790650770344
 30
0.0
  0
SPLINE
  5
36A
330
2
100
AcDbEntity
  8
0
100
AcDbSpline
210
0.0
220
0.0
230
1.0
 70
     8
 71
     3
 72
    10
 73
     6
 74
     0
 42
0.000000001
 43
0.0000000001
 40
0.0
 40
0.0
 40
0.0
 40
0.0
 40
0.4700057897491769
 40
0.9400123577158604
 40
1.0
 40
1.0
 40
1.0
 40
1.0
 10
57.70609054116425
 20
42.02459248253222
 30
0.0
 10
57.64986755363286
 20
41.98810669308892
 30
0.0
 10
57.53742148547823
 20
41.91513505379037
 30
0.0
 10
57.47999669222807
 20
41.81273848190193
 30
0.0
 10
57.50231926160264
 20
41.7617504375255
 30
0.0
 10
57.49881290764956
 20
41.75574427091715
 30
0.0
  0
SPLINE
  5
36B
330
2
100
AcDbEntity
  8
0
100
AcDbSpline
210
0.0
220
0.0
230
1.0
 70
     8
 71
     3
 72
    12
 73
     8
 74
     0
 42
0.000000001
 43
0.0000000001
 40
0.0
 40
0.0
 40
0.0
 40
0.0
 40
0.0458967955526269
 40
0.3484175146263723
 40
0.6509386136704756
 40
0.9534598373905016
 40
1.0
 40
1.0
 40
1.0
 40
1.0
 10
57.56944345237044
 20
42.13510682132022
 30
0.0
 10
57.53534205890432
 20
42.11662422926349
 30
0.0
 10
57.50526148618385
 20
42.08833846981986
 30
0.0
 10
57.45559088282155
 20
42.0357935077784
 30
0.0
 10
57.40963760090412
 20
41.96006334652492
 30
0.0
 10
57.39255924052661
 20
41.90251920713137
 30
0.0
 10
57.39925554174478
 20
41.87211709671737
 30
0.0
 10
57.40014835590234
 20
41.86806360006102
 30
0.0
  0
LINE
  5
36C
330
2
100
AcDbEntity
  8
0
100
AcDbLine
 10
58.13741005066469
 20
41.03145989476667
 30
0.0
 11
57.72724317324598
 21
41.23654333343455
 31
0.0
  0
LINE
  5
36D
330
2
100
AcDbEntity
  8
0
100
AcDbLine
 10
70.03225080443093
 20
35.08403951792497
 30
0.0
 11
58.13741005066469
 21
41.03145989476667
 31
0.0
  0
SPLINE
  5
36E
330
2
100
AcDbEntity
  8
0
100
AcDbSpline
210
0.0
220
0.0
230
1.0
 70
     8
 71
     3
 72
    11
 73
     7
 74
     0
 42
0.000000001
 43
0.0000000001
 40
0.0
 40
0.0
 40
0.0
 40
0.0
 40
0.2499998266242851
 40
0.5000000613545913
 40
0.7499994900702044
 40
1.0
 40
1.0
 40
1.0
 40
1.0
 10
73.80754946507415
 20
36.97168928478868
 30
0.0
 10
73.86339047950011
 20
36.93653332676405
 30
0.0
 10
73.97507259950831
 20
36.86622135332527
 30
0.0
 10
74.02286860747338
 20
36.7310077140587
 30
0.0
 10
73.97507225106579
 20
36.59579407027229
 30
0.0
 10
73.86339047423934
 20
36.52548200227943
 30
0.0
 10
73.80754946507415
 20
36.49032589226079
 30
0.0
  0
SPLINE
  5
36F
330
2
100
AcDbEntity
  8
0
100
AcDbSpline
210
0.0
220
0.0
230
1.0
 70
     8
 71
     3
 72
    10
 73
     6
 74
     0
 42
0.000000001
 43
0.0000000001
 40
0.0
 40
0.0
 40
0.0
 40
0.0
 40
0.0599868027336307
 40
0.5299927401271547
 40
1.0
 40
1.0
 40
1.0
 40
1.0
 10
74.03594175543402
 20
37.00915593117401
 30
0.0
 10
74.03426993563847
 20
37.01719401682317
 30
0.0
 10
74.05479463093839
 20
37.06652134445574
 30
0.0
 10
73.99737130350588
 20
37.16891774633962
 30
0.0
 10
73.88492521869929
 20
37.24188953316053
 30
0.0
 10
73.8287020971973
 20
37.27837547790187
 30
0.0
  0
LINE
  5
370
330
2
100
AcDbEntity
  8
0
100
AcDbLine
 10
73.80754946506653
 20
36.49032589222514
 30
0.0
 11
70.99497671630047
 21
35.08403951792497
 31
0.0
  0
SPLINE
  5
371
330
2
100
AcDbEntity
  8
0
100
AcDbSpline
210
0.0
220
0.0
230
1.0
 70
     8
 71
     3
 72
    11
 73
     7
 74
     0
 42
0.000000001
 43
0.0000000001
 40
0.0
 40
0.0
 40
0.0
 40
0.0
 40
0.2500001848795824
 40
0.5000003416531934
 40
0.7500004984268047
 40
1.0
 40
1.0
 40
1.0
 40
1.0
 10
70.99497671633909
 20
35.08403951789313
 30
0.0
 10
70.92466461754518
 20
35.05611913239614
 30
0.0
 10
70.78404042786202
 20
35.00027836454098
 30
0.0
 10
70.51361334693279
 20
34.97637979441538
 30
0.0
 10
70.24318637365308
 20
35.0002782787156
 30
0.0
 10
70.10256259940701
 20
35.0561191292253
 30
0.0
 10
70.03225080442081
 20
35.08403951789313
 30
0.0
  0
ARC
  5
372
330
2
100
AcDbEntity
  8
0
100
AcDbCircle
 10
61.02117934104473
 20
41.84903448923972
 30
0.0
 40
1.801299385731312
100
AcDbArc
 50
65.97178147459958
 51
114.0282355769999
  0
SPLINE
  5
373
330
2
100
AcDbEntity
  8
0
100
AcDbSpline
210
0.0
220
0.0
230
1.0
 70
     8
 71
     3
 72
    11
 73
     7
 74
     0
 42
0.000000001
 43
0.0000000001
 40
0.0
 40
0.0
 40
0.0
 40
0.0
 40
0.2500003580882927
 40
0.5000000127399961
 40
0.7499992045599128
 40
1.0
 40
1.0
 40
1.0
 40
1.0
 10
61.52369490263268
 20
43.43087907518418
 30
0.0
 10
61.45029290651697
 20
43.46002634153956
 30
0.0
 10
61.30348912081978
 20
43.5183207922372
 30
0.0
 10
61.0211790995822
 20
43.54326924337425
 30
0.0
 10
60.73886862941326
 20
43.51832106389895
 30
0.0
 10
60.5920652266819
 20
43.4600263215546
 30
0.0
 10
60.51866328989932
 20
43.43087885689982
 30
0.0
  0
LINE
  5
374
330
2
100
AcDbEntity
  8
0
100
AcDbLine
 10
60.5186632898894
 20
43.43087885686208
 30
0.0
 11
57.70609054112336
 21
42.02459248256189
 31
0.0
  0
LINE
  5
375
330
2
100
AcDbEntity
  8
0
100
AcDbLine
 10
73.82870209718916
 20
37.2783754778917
 30
0.0
 11
61.52369490262635
 21
43.43087907521453
 31
0.0
  0
LINE
  5
376
330
2
100
AcDbEntity
  8
0
100
AcDbLine
 10
57.47514127343406
 20
42.08795573185483
 30
0.0
 11
60.2877140222001
 21
43.49424210615501
 31
0.0
  0
LWPOLYLINE
  5
377
330
2
100
AcDbEntity
  8
0
100
AcDbPolyline
 90
       10
 70
   128
 43
0.0
 10
57.47514127343406
 20
42.08795573185483
 10
57.35891923378845
 20
42.01870172958286
 10
57.26851456398645
 20
41.9404092249564
 10
57.20667459167464
 20
41.85545686306869
 10
57.1752774357381
 20
41.76642563882029
 10
57.17527699919878
 20
41.67602118728803
 10
57.20667415505247
 20
41.58698996303963
 10
57.26851500060861
 20
41.50203760115187
 10
57.35891923378845
 20
41.42374487825577
 10
57.47514127343406
 20
41.35449087606668
  0
LINE
  5
378
330
2
100
AcDbEntity
  8
0
100
AcDbLine
 10
57.71276611487699
 20
41.23567845534523
 30
0.0
 11
57.47514127343406
 21
41.35449087606668
 31
0.0
  0
LINE
  5
379
330
2
100
AcDbEntity
  8
0
100
AcDbLine
 10
74.05965092833915
 20
36.6082736531269
 30
0.0
 11
73.82202652351839
 21
36.4894614506751
 31
0.0
  0
LWPOLYLINE
  5
37A
330
2
100
AcDbEntity
  8
0
100
AcDbPolyline
 90
       10
 70
   128
 43
0.0
 10
74.05965092833915
 20
36.6082736531269
 10
74.17587340460693
 20
36.67752787358558
 10
74.26627807432606
 20
36.7558203782121
 10
74.32811804672073
 20
36.84077274009979
 10
74.3595147660351
 20
36.92980374616133
 10
74.35951520257441
 20
37.02020819761088
 10
74.32811848326003
 20
37.10923964021174
 10
74.26627807432606
 20
37.19419222036913
 10
74.17587340460693
 20
37.27248472499554
 10
74.05965136487843
 20
37.34173872718469
  0
LINE
  5
37B
330
2
100
AcDbEntity
  8
0
100
AcDbLine
 10
61.75464417031566
 20
43.49424232450752
 30
0.0
 11
74.05965136487843
 21
37.34173872718469
 31
0.0
  0
ARC
  5
37C
330
2
100
AcDbEntity
  8
0
100
AcDbCircle
 10
57.66600980704192
 20
41.8288678047964
 30
0.0
 40
0.2651171858726917
100
AcDbArc
 50
182.0349214729426
 51
234.8403166889421
  0
ENDSEC
  0
SECTION
  2
OBJECTS
  0
DICTIONARY
  5
9
330
0
100
AcDbDictionary
281
     1
  3
ACAD_COLOR
350
3E
  3
ACAD_GROUP
350
35
  3
ACAD_LAYOUT
350
16
  3
ACAD_MATERIAL
350
B
  3
ACAD_MLEADERSTYLE
350
41
  3
ACAD_MLINESTYLE
350
36
  3
ACAD_PLOTSETTINGS
350
37
  3
ACAD_PLOTSTYLENAME
350
8
  3
ACAD_SCALELIST
350
3F
  3
ACAD_TABLESTYLE
350
40
  3
ACAD_VISUALSTYLE
350
2B
  3
ACDB_RECOMPOSE_DATA
350
37E
  3
AcDbVariableDictionary
350
42
  0
DICTIONARY
  5
1E
330
1D
100
AcDbDictionary
280
     1
281
     1
  3
ACAD_LAYERSTATES
360
1F
  0
DICTIONARY
  5
6
330
5
100
AcDbDictionary
280
     1
281
     1
  0
DICTIONARY
  5
3
330
2
100
AcDbDictionary
280
     1
281
     1
  0
DICTIONARY
  5
3E
102
{ACAD_REACTORS
330
9
102
}
330
9
100
AcDbDictionary
281
     1
  0
DICTIONARY
  5
35
102
{ACAD_REACTORS
330
9
102
}
330
9
100
AcDbDictionary
281
     1
  0
DICTIONARY
  5
16
102
{ACAD_REACTORS
330
9
102
}
330
9
100
AcDbDictionary
281
     1
  3
Model
350
15
  3
布局1
350
1C
  0
DICTIONARY
  5
B
102
{ACAD_REACTORS
330
9
102
}
330
9
100
AcDbDictionary
281
     1
  3
ByBlock
350
3B
  3
ByLayer
350
38
  3
Global
350
A
  0
DICTIONARY
  5
41
102
{ACAD_REACTORS
330
9
102
}
330
9
100
AcDbDictionary
281
     1
  0
DICTIONARY
  5
36
102
{ACAD_REACTORS
330
9
102
}
330
9
100
AcDbDictionary
281
     1
  3
Standard
350
4E
  0
DICTIONARY
  5
37
102
{ACAD_REACTORS
330
9
102
}
330
9
100
AcDbDictionary
281
     1
  0
ACDBDICTIONARYWDFLT
  5
8
102
{ACAD_REACTORS
330
9
102
}
330
9
100
AcDbDictionary
281
     1
  3
Normal
350
7
100
AcDbDictionaryWithDefault
340
7
  0
DICTIONARY
  5
3F
102
{ACAD_REACTORS
330
9
102
}
330
9
100
AcDbDictionary
281
     1
  3
A0
350
53
  3
A1
350
54
  3
A2
350
55
  3
A3
350
56
  3
A4
350
57
  3
A5
350
58
  3
A6
350
59
  3
A7
350
5A
  3
A8
350
5B
  3
A9
350
5C
  3
B0
350
5D
  3
B1
350
5E
  3
B2
350
5F
  3
B3
350
60
  3
B4
350
61
  3
B5
350
62
  3
B6
350
63
  0
DICTIONARY
  5
40
102
{ACAD_REACTORS
330
9
102
}
330
9
100
AcDbDictionary
281
     1
  3
Standard
350
4F
  0
DICTIONARY
  5
2B
102
{ACAD_REACTORS
330
9
102
}
330
9
100
AcDbDictionary
281
     1
  3
2dWireframe
350
2A
  3
Realistic
350
51
  3
Wireframe
350
52
  0
XRECORD
  5
37E
102
{ACAD_REACTORS
330
9
102
}
330
9
100
AcDbXrecord
280
     1
 90
        1
330
4F
  0
DICTIONARY
  5
42
102
{ACAD_REACTORS
330
9
102
}
330
9
100
AcDbDictionary
281
     1
  3
CANNOSCALE
350
43
  3
CENTEREXE
350
44
  3
CENTERLTYPEFILE
350
45
  3
CMLEADERSTYLE
350
46
  3
CTABLESTYLE
350
47
  3
CVIEWDETAILSTYLE
350
48
  3
CVIEWSECTIONSTYLE
350
49
  3
DIMASSOC
350
4A
  3
HIDETEXT
350
4B
  3
LAYEREVAL
350
4C
  3
LAYERNOTIFY
350
4D
  0
DICTIONARY
  5
1F
102
{ACAD_REACTORS
330
1E
102
}
330
1E
100
AcDbDictionary
281
     1
  0
LAYOUT
  5
15
102
{ACAD_XDICTIONARY
360
17
102
}
102
{ACAD_REACTORS
330
16
102
}
330
16
100
AcDbPlotSettings
  1

  2
none_device
  4
ISO_A4_(210.00_x_297.00_MM)
  6

 40
7.5
 41
20.0
 42
7.5
 43
20.0
 44
210.0
 45
297.0
 46
11.54999923706054
 47
-13.65000009536743
 48
0.0
 49
0.0
140
0.0
141
0.0
142
1.0
143
8.704084754739808
 70
 11952
 72
     1
 73
     0
 74
     0
  7

 75
     0
147
0.1148885871608098
 76
     0
 77
     2
 78
   300
148
0.0
149
0.0
100
AcDbLayout
  1
Model
 70
     1
 71
     0
 10
0.0
 20
0.0
 11
12.0
 21
9.0
 12
0.0
 22
0.0
 32
0.0
 14
0.0
 24
0.0
 34
0.0
 15
0.0
 25
0.0
 35
0.0
146
0.0
 13
0.0
 23
0.0
 33
0.0
 16
1.0
 26
0.0
 36
0.0
 17
0.0
 27
1.0
 37
0.0
 76
     0
330
2
331
29
1001
ACAD_PSEXT
1000
None
1000
None
1000
Not applicable
1000
The layout will not be plotted unless a new plotter configuration name is selected.
1070
     0
  0
LAYOUT
  5
1C
102
{ACAD_REACTORS
330
16
102
}
330
16
100
AcDbPlotSettings
  1

  2
C:\Documents and Settings\basas\Application Data\Autodesk\AutoCAD 2005\R16.1\enu\plotters\Default Windows System Printer.pc3
  4

  6

 40
0.0
 41
0.0
 42
0.0
 43
0.0
 44
0.0
 45
0.0
 46
0.0
 47
0.0
 48
0.0
 49
0.0
140
0.0
141
0.0
142
1.0
143
1.0
 70
   688
 72
     0
 73
     0
 74
     5
  7

 75
    16
147
1.0
 76
     0
 77
     2
 78
   300
148
0.0
149
0.0
100
AcDbLayout
  1
布局1
 70
     1
 71
     1
 10
0.0
 20
0.0
 11
12.0
 21
9.0
 12
0.0
 22
0.0
 32
0.0
 14
0.0
 24
0.0
 34
0.0
 15
0.0
 25
0.0
 35
0.0
146
0.0
 13
0.0
 23
0.0
 33
0.0
 16
1.0
 26
0.0
 36
0.0
 17
0.0
 27
1.0
 37
0.0
 76
     0
330
19
  0
MATERIAL
  5
3B
102
{ACAD_XDICTIONARY
360
3C
102
}
102
{ACAD_REACTORS
330
B
102
}
330
B
100
AcDbMaterial
  1
ByBlock
 94
       63
  0
MATERIAL
  5
38
102
{ACAD_XDICTIONARY
360
39
102
}
102
{ACAD_REACTORS
330
B
102
}
330
B
100
AcDbMaterial
  1
ByLayer
 94
       63
  0
MATERIAL
  5
A
102
{ACAD_XDICTIONARY
360
C
102
}
102
{ACAD_REACTORS
330
B
102
}
330
B
100
AcDbMaterial
  1
Global
 43
0.0007999999797903
 43
0.0
 43
0.0
 43
0.0
 43
0.0
 43
0.0007999999797903
 43
0.0
 43
0.0
 43
0.0
 43
0.0
 43
1.0
 43
0.0
 43
0.0
 43
0.0
 43
0.0
 43
1.0
 49
0.0007999999797903
 49
0.0
 49
0.0
 49
0.0
 49
0.0
 49
0.0007999999797903
 49
0.0
 49
0.0
 49
0.0
 49
0.0
 49
1.0
 49
0.0
 49
0.0
 49
0.0
 49
0.0
 49
1.0
142
0.0007999999797903
142
0.0
142
0.0
142
0.0
142
0.0
142
0.0007999999797903
142
0.0
142
0.0
142
0.0
142
0.0
142
1.0
142
0.0
142
0.0
142
0.0
142
0.0
142
1.0
144
0.0007999999797903
144
0.0
144
0.0
144
0.0
144
0.0
144
0.0007999999797903
144
0.0
144
0.0
144
0.0
144
0.0
144
1.0
144
0.0
144
0.0
144
0.0
144
0.0
144
1.0
 94
       63
1001
ACAD
1070
    -1
1070
     3
1070
     0
1000

1071
        0
1070
     0
  0
MLINESTYLE
  5
4E
102
{ACAD_REACTORS
330
36
102
}
330
36
100
AcDbMlineStyle
  2
STANDARD
 70
     0
  3

 62
   256
 51
90.0
 52
90.0
 71
     2
 49
0.5
 62
   256
  6
BYLAYER
 49
-0.5
 62
   256
  6
BYLAYER
  0
ACDBPLACEHOLDER
  5
7
102
{ACAD_REACTORS
330
8
102
}
330
8
  0
SCALE
  5
53
102
{ACAD_REACTORS
330
3F
102
}
330
3F
100
AcDbScale
 70
     0
300
1:1
140
1.0
141
1.0
290
     1
  0
SCALE
  5
54
102
{ACAD_REACTORS
330
3F
102
}
330
3F
100
AcDbScale
 70
     0
300
1:2
140
1.0
141
2.0
290
     0
  0
SCALE
  5
55
102
{ACAD_REACTORS
330
3F
102
}
330
3F
100
AcDbScale
 70
     0
300
1:4
140
1.0
141
4.0
290
     0
  0
SCALE
  5
56
102
{ACAD_REACTORS
330
3F
102
}
330
3F
100
AcDbScale
 70
     0
300
1:5
140
1.0
141
5.0
290
     0
  0
SCALE
  5
57
102
{ACAD_REACTORS
330
3F
102
}
330
3F
100
AcDbScale
 70
     0
300
1:8
140
1.0
141
8.0
290
     0
  0
SCALE
  5
58
102
{ACAD_REACTORS
330
3F
102
}
330
3F
100
AcDbScale
 70
     0
300
1:10
140
1.0
141
10.0
290
     0
  0
SCALE
  5
59
102
{ACAD_REACTORS
330
3F
102
}
330
3F
100
AcDbScale
 70
     0
300
1:16
140
1.0
141
16.0
290
     0
  0
SCALE
  5
5A
102
{ACAD_REACTORS
330
3F
102
}
330
3F
100
AcDbScale
 70
     0
300
1:20
140
1.0
141
20.0
290
     0
  0
SCALE
  5
5B
102
{ACAD_REACTORS
330
3F
102
}
330
3F
100
AcDbScale
 70
     0
300
1:30
140
1.0
141
30.0
290
     0
  0
SCALE
  5
5C
102
{ACAD_REACTORS
330
3F
102
}
330
3F
100
AcDbScale
 70
     0
300
1:40
140
1.0
141
40.0
290
     0
  0
SCALE
  5
5D
102
{ACAD_REACTORS
330
3F
102
}
330
3F
100
AcDbScale
 70
     0
300
1:50
140
1.0
141
50.0
290
     0
  0
SCALE
  5
5E
102
{ACAD_REACTORS
330
3F
102
}
330
3F
100
AcDbScale
 70
     0
300
1:100
140
1.0
141
100.0
290
     0
  0
SCALE
  5
5F
102
{ACAD_REACTORS
330
3F
102
}
330
3F
100
AcDbScale
 70
     0
300
2:1
140
2.0
141
1.0
290
     0
  0
SCALE
  5
60
102
{ACAD_REACTORS
330
3F
102
}
330
3F
100
AcDbScale
 70
     0
300
4:1
140
4.0
141
1.0
290
     0
  0
SCALE
  5
61
102
{ACAD_REACTORS
330
3F
102
}
330
3F
100
AcDbScale
 70
     0
300
8:1
140
8.0
141
1.0
290
     0
  0
SCALE
  5
62
102
{ACAD_REACTORS
330
3F
102
}
330
3F
100
AcDbScale
 70
     0
300
10:1
140
10.0
141
1.0
290
     0
  0
SCALE
  5
63
102
{ACAD_REACTORS
330
3F
102
}
330
3F
100
AcDbScale
 70
     0
300
100:1
140
100.0
141
1.0
290
     0
  0
TABLESTYLE
  5
4F
102
{ACAD_XDICTIONARY
360
50
102
}
102
{ACAD_REACTORS
330
40
102
}
330
40
100
AcDbTableStyle
280
     0
  3
Standard
 70
     0
 71
     0
 40
1.5
 41
1.5
280
     0
281
     0
  7
Standard
140
4.5
170
     2
 62
     0
 63
     7
283
     0
 90
      512
 91
        0
  1

274
    -2
284
     1
 64
     0
275
    -2
285
     1
 65
     0
276
    -2
286
     1
 66
     0
277
    -2
287
     1
 67
     0
278
    -2
288
     1
 68
     0
279
    -2
289
     1
 69
     0
  7
Standard
140
6.0
170
     5
 62
     0
 63
     7
283
     0
 90
      512
 91
        0
  1

274
    -2
284
     1
 64
     0
275
    -2
285
     1
 65
     0
276
    -2
286
     1
 66
     0
277
    -2
287
     1
 67
     0
278
    -2
288
     1
 68
     0
279
    -2
289
     1
 69
     0
  7
Standard
140
4.5
170
     5
 62
     0
 63
     7
283
     0
 90
      512
 91
        0
  1

274
    -2
284
     1
 64
     0
275
    -2
285
     1
 65
     0
276
    -2
286
     1
 66
     0
277
    -2
287
     1
 67
     0
278
    -2
288
     1
 68
     0
279
    -2
289
     1
 69
     0
  0
VISUALSTYLE
  5
2A
102
{ACAD_REACTORS
330
2B
102
}
330
2B
100
AcDbVisualStyle
  2
2dWireframe
 70
     4
177
     3
291
     0
 70
    58
 90
        0
176
     1
 90
        2
176
     1
 90
        1
176
     1
 90
        0
176
     1
 40
0.6
176
     1
 40
30.0
176
     1
 62
     7
420
 16777215
176
     1
 90
        1
176
     1
 90
        4
176
     1
 62
     7
176
     1
 62
   257
176
     1
 90
        1
176
     1
 90
        1
176
     1
 40
1.0
176
     1
 90
        0
176
     1
 62
   257
176
     1
 40
1.0
176
     1
 90
        1
176
     1
 90
        6
176
     1
 90
        2
176
     1
 62
     7
176
     1
 90
        5
176
     1
 90
        0
176
     1
 90
        0
176
     1
290
     0
176
     1
 90
        1
176
     1
 40
0.0
176
     1
 90
        0
176
     1
290
     1
176
     1
290
     1
176
     1
290
     0
176
     1
290
     0
176
     1
290
     0
176
     1
290
     0
176
     1
290
     0
176
     1
290
     0
176
     1
290
     0
176
     1
 90
       50
176
     1
 40
0.0
176
     1
 40
1.0
176
     1
 90
        0
176
     1
 62
    18
420
        0
176
     1
 90
       50
176
     1
 90
        3
176
     1
 62
     5
420
      255
176
     1
290
     0
176
     1
 90
       50
176
     1
 90
       50
176
     1
 90
       50
176
     1
290
     0
176
     1
 90
       50
176
     1
 62
   256
176
     0
 40
1.0
176
     0
 90
        2
176
     1
  1
strokes_ogs.tif
176
     1
290
     0
176
     1
 40
1.0
176
     1
 40
1.0
176
     1
  0
VISUALSTYLE
  5
51
102
{ACAD_REACTORS
330
2B
102
}
330
2B
100
AcDbVisualStyle
  2
Realistic
 70
     8
177
     3
291
     0
 70
    58
 90
        2
176
     1
 90
        3
176
     1
 90
        0
176
     1
 90
        2
176
     1
 40
0.6
176
     1
 40
30.0
176
     1
 62
     7
420
 16777215
176
     1
 90
        0
176
     1
 90
        0
176
     1
 62
     7
176
     1
 62
   257
176
     1
 90
        1
176
     1
 90
        1
176
     1
 40
1.0
176
     1
 90
        8
176
     1
 62
   257
176
     1
 40
1.0
176
     1
 90
        1
176
     1
 90
        6
176
     1
 90
        2
176
     1
 62
     7
176
     1
 90
        3
176
     1
 90
        0
176
     1
 90
        0
176
     1
290
     0
176
     1
 90
       13
176
     1
 40
0.0
176
     1
 90
        0
176
     1
290
     0
176
     1
290
     1
176
     1
290
     1
176
     1
290
     0
176
     1
290
     0
176
     1
290
     0
176
     1
290
     0
176
     1
290
     0
176
     1
290
     0
176
     1
 90
       50
176
     1
 40
0.0
176
     1
 40
1.0
176
     1
 90
        0
176
     1
 62
    18
420
        0
176
     1
 90
       50
176
     1
 90
        3
176
     1
 62
     5
420
      255
176
     1
290
     0
176
     1
 90
       50
176
     1
 90
       50
176
     1
 90
       50
176
     1
290
     0
176
     1
 90
       50
176
     1
 62
   256
176
     0
 40
1.0
176
     0
 90
        2
176
     1
  1
strokes_ogs.tif
176
     1
290
     0
176
     1
 40
1.0
176
     1
 40
1.0
176
     1
  0
VISUALSTYLE
  5
52
102
{ACAD_REACTORS
330
2B
102
}
330
2B
100
AcDbVisualStyle
  2
Wireframe
 70
     5
177
     3
291
     0
 70
    58
 90
        0
176
     1
 90
        2
176
     1
 90
        0
176
     1
 90
        0
176
     1
 40
0.6
176
     1
 40
30.0
176
     1
 62
     7
420
 16777215
176
     1
 90
        1
176
     1
 90
        4
176
     1
 62
     7
176
     1
 62
   257
176
     1
 90
        1
176
     1
 90
        1
176
     1
 40
1.0
176
     1
 90
        0
176
     1
 62
   257
176
     1
 40
1.0
176
     1
 90
        1
176
     1
 90
        6
176
     1
 90
        2
176
     1
 62
     7
176
     1
 90
        3
176
     1
 90
        0
176
     1
 90
        0
176
     1
290
     0
176
     1
 90
        1
176
     1
 40
0.0
176
     1
 90
        0
176
     1
290
     0
176
     1
290
     1
176
     1
290
     1
176
     1
290
     0
176
     1
290
     0
176
     1
290
     0
176
     1
290
     0
176
     1
290
     0
176
     1
290
     0
176
     1
 90
       50
176
     1
 40
0.0
176
     1
 40
1.0
176
     1
 90
        0
176
     1
 62
    18
420
        0
176
     1
 90
       50
176
     1
 90
        3
176
     1
 62
     5
420
      255
176
     1
290
     0
176
     1
 90
       50
176
     1
 90
       50
176
     1
 90
       50
176
     1
290
     0
176
     1
 90
       50
176
     1
 62
   256
176
     0
 40
1.0
176
     0
 90
        2
176
     1
  1
strokes_ogs.tif
176
     1
290
     0
176
     1
 40
1.0
176
     1
 40
1.0
176
     1
  0
DICTIONARYVAR
  5
43
102
{ACAD_REACTORS
330
42
102
}
330
42
100
DictionaryVariables
280
     0
  1
1:1
  0
DICTIONARYVAR
  5
44
102
{ACAD_REACTORS
330
42
102
}
330
42
100
DictionaryVariables
280
     0
  1
3.500000
  0
DICTIONARYVAR
  5
45
102
{ACAD_REACTORS
330
42
102
}
330
42
100
DictionaryVariables
280
     0
  1
acadiso.lin
  0
DICTIONARYVAR
  5
46
102
{ACAD_REACTORS
330
42
102
}
330
42
100
DictionaryVariables
280
     0
  1
STANDARD
  0
DICTIONARYVAR
  5
47
102
{ACAD_REACTORS
330
42
102
}
330
42
100
DictionaryVariables
280
     0
  1
STANDARD
  0
DICTIONARYVAR
  5
48
102
{ACAD_REACTORS
330
42
102
}
330
42
100
DictionaryVariables
280
     0
  1

  0
DICTIONARYVAR
  5
49
102
{ACAD_REACTORS
330
42
102
}
330
42
100
DictionaryVariables
280
     0
  1

  0
DICTIONARYVAR
  5
4A
102
{ACAD_REACTORS
330
42
102
}
330
42
100
DictionaryVariables
280
     0
  1
2
  0
DICTIONARYVAR
  5
4B
102
{ACAD_REACTORS
330
42
102
}
330
42
100
DictionaryVariables
280
     0
  1
1
  0
DICTIONARYVAR
  5
4C
102
{ACAD_REACTORS
330
42
102
}
330
42
100
DictionaryVariables
280
     0
  1
0
  0
DICTIONARYVAR
  5
4D
102
{ACAD_REACTORS
330
42
102
}
330
42
100
DictionaryVariables
280
     0
  1
0
  0
DICTIONARY
  5
17
330
15
100
AcDbDictionary
280
     1
281
     1
  0
DICTIONARY
  5
3C
330
3B
100
AcDbDictionary
280
     1
281
     1
  3
FBXASSET
360
3D
  0
DICTIONARY
  5
39
330
38
100
AcDbDictionary
280
     1
281
     1
  3
FBXASSET
360
3A
  0
DICTIONARY
  5
C
330
A
100
AcDbDictionary
280
     1
281
     1
  3
BUMPTILE
360
D
  3
DIFFUSETILE
360
E
  3
FBXASSET
360
F
  3
OPACITYTILE
360
10
  3
REFLECTIONTILE
360
11
  0
DICTIONARY
  5
50
330
4F
100
AcDbDictionary
280
     1
281
     1
  3
ACAD_ROUNDTRIP_2008_TABLESTYLE_CELLSTYLEMAP
360
37D
  0
XRECORD
  5
3D
102
{ACAD_REACTORS
330
3C
102
}
330
3C
100
AcDbXrecord
280
     1
 70
     1
 90
429727718
  1
D62C5603-E3A1-4AEA-B7FB-FE5D8D0755AF
310
504B03040A0000080000CC70623B3DEE336E79000000790000001B0000006175746F6465736B2D64657369676E2D7061636B6167652E786D6C3C3F786D6C2076657273696F6E3D22312E302220656E636F64696E673D227574662D3822203F3E3C666F726D6174733E3C666F726D61743E687474703A2F2F736368656D612E
310
6175746F6465736B2E636F6D2F64657369676E2D7061636B6167652F323030393C2F666F726D61743E3C2F666F726D6174733E504B0304140006080800CC70623BD486FD9CA0000000F4000000130000005B436F6E74656E745F54797065735D2E786D6C7D8EC10E82300C865F65E91D8A1E8C310C0EEA1BF002731658846E
310
D98AC1B77784ABF1D8FE5FBFBF75BBCE937A534CCEB38643598122B6FEE978D0B0485F9C41B54DDD7D022595594E1A469170414C76A4D9A4D207E29CF43ECE46F218070CC6BECC4078ACAA135ACF422C856C0E68EA1BF5669944DDD7BCDE7B1F8E415D77AECB980613C2E4AC91FC167A2B244592486606FC29C8FD7F045B9A
310
EF7053A7E60B504B0304140006080800CC70623B853B8169EB0000007C01000008000000636F72652E786D6C8D90416EC3201045AF62CDB6C206821CC7C244919D9CA01740401C94182C03558F5F9C3852BBEB6A467FFE9B197D7EFC9E1EC5975982F5AE035262288C535E5B377690E21535501C055FBC8FBF6C503839990E
310
5619041F179FE64D52DE45E362569DD7661365082642A11EB9E920A89B99642953CC8E702F67A9EE7234257977194EC9EAE275C4EABCCF5EAD5940D4AC6F0E35A568B8F43562CD7046CD199FD07E60174276A7BE677B5EADB0E0D14EEFFB6A31321A0D82627C4084204C3F096B71DD52F6819B16635EADF63F509AF53FA164
310
5DDCD1EDDD17164090FCC8732078B56691CB33A85CD7DCC40F504B0304140006080800CC70623B55019EA25F0000007C00000007000000636E782E786D6C4DCB3B0E80201045D1AD90E915ED2CF8AC45050C11660C8261F98AB1B07AC9C97D42D718D865D3E909258CFD00CCE24AC6E326A164D74DC0B4128928FF32603847
310
2BA13128B1252AC747C6BAB984FC68F0B87FE8960A5C09FE86CFB69FBA01504B0304140006080800CC70623BDBABAAF470010000D40300000C0000006662782F636F72652E786D6CC553D16E823014FD95A6AF4B694182CC941A83FA05FB810A9511A125A5257EFE2E82712ECEB8A7F100CD39F7F69E734AF9FADC366850B6
310
AF8DCE7018308C942E4C59EB2AC3DE1D498AD15A706B8CFB56869196ADCAF00863C12B6B7C374385D14E6907A836A59A41D9F7CA615434B0C8705F7CAA5606D23BA8E84F41278B93AC54100640439DE0BDB320004D43C63716C7C399D30917DCFBBA9CD9BA8469F5B156168B24CED3F7248AC8769F27244EB73B92EED8862C
310
B7F13E0C179B3C8F979C8ECD82BBBABDAA2BAC924E9558448CBD9330242CFA08E3154B5651FCC6D215639C8EE5774DBE2B5F6CF2B5768B68963BB5F5588420E442FC700B1139D4CB01F450C1E918227C2E09DF070D8140C84E1E9AAB8F1340832A9CB13130A5F1376A908D57309505ECF2A0DF179C4E9D30F5B239B87E3823
310
7A79C6F31DE1A8A5AEC08474B03C7837EAE4938639B44E5932B833D2C6B6B279CDC613877FA26EE21F4A2A4C63EC7F29A2F301D1F9F7A0E37D145F504B0304140006080800CC70623B9C113CC27E0000009D0000000B0000006662782F636E782E786D6C4DCCDF0A83201C86E15B91DFB94BFB330DD428C8FB886521330DA7
310
6397BF1A1DECE883878F57749FCDA1B7892F1BBC047A23808C7F84D9FA55424E0BE6803A256208E9EF06C84F9B91703228B1C690F78B66B34CD9A5439DF5CF0BFBF65E35BCA1B8D6A5C6F540381E886698B5741C695F9503EBA150A2F8958E3DC3EA0B504B0304140006080800CC70623B7DF2F77C2A010000120200003100
310
00006662782F41393633353835312D344632462D344230382D423046372D3739314545314133324237412F636F72652E786D6C8D51DB8EC22014FC15C2939B0D2DB4B45643319AE817EC0F6041255A68B86CFCFC856D4D76DF7CE190393373060EDB3DC707F856CE6B6B7A480A0C81328395DA5C7B18C3057510EC3873D686
310
3F34088C18550F330C39BB3A1BA7051AAC09CA84841A2BD5020AEF55806078A44B0FFD7053A328440C89E1EFC52486BBB8AA8214A99D789CF9E05200300FC927E4FB4D5B375D43103D5527440FB843077C5AA3F5861C8F645F5787F59E95B390B318B55CE45AA638FAA2957BD7248B390B7A7CC51F9C124149C82B8C378810
310
84AB2F42B7B8DD56F413775B8C5999E9FF4471926F8AA236A1AE96B8B3CC434E5839373893369E1FAF30EA395917409EB7F26AF8801C171837A4A6AC9C89E9F9C9B1A58BA30FD6A5EF5DDDCF894B9AD9B6A59C957943A9FCAE2FD5BC4DFE03504B0304140006080800CC70623BAD7543B64E01000033030000300000006662
310
782F41393633353835312D344632462D344230382D423046372D3739314545314133324237412F636E782E786D6CD593CD6EC32010845F0571AD6CE3D48AD20813A9873E410FBD12D82434182C7EAAE6EDBB2424CD25871E7B41D6EC30B3FA84F9E67BB2E40B4234DE8DB46F1925E094D7C6ED479AD3AE5951B2113C789FEE
310
6C943839C1488B4C05DF079FE72A69D8C96C13AAD6B8631503449F83828872B949AC57D26200B826A308D316B4064D6E46FCDA41C05550DC9E483A00797BFD207EFB092A45DE9514C1BBD22178396BD39D891265658C238DEA00936C654E5E433CB65A26D9F6EDB5EBC14EBF49A45CB856E66048291F6939A9A81BB5C89177
310
38143CA680F4AA299D66A042CEB3354A2684DC9D8D178FE0D9B8B41CAAD720F880EE7EF93C0C18769E099ECC04D5A102C8049A8A05632F4DDF376CF1DE0F6BB65C2F8627B65A33C6BB62177CEBBDAD973006829F89F22E814B54F4BC2BE347F8AA8F681390B50FA73F804400B5F542E796F19FF974E7F78DB802FE05E20750
310
4B0304140006080800CC70623BE75B7789680500003C100000340000006662782F41393633353835312D344632462D344230382D423046372D3739314545314133324237412F6F626A656374732E786D6CAD575B8F9B3818FD2B887D06C22499CB8AA1CA655245D5B455A356FB305264C061D8018C6C3393D95FBFC7600890
310
A4CD5EF210B0B1BFEBF98E3F7B1FF6596ABC522E1296DF9BAE3D320D9A872C4AF2F8DE2CE5CEBA358D0FBEC719939D65A691938CDE9B6ADAF4BD98B3B2D05311DD91329583D9D5FC0F438434A7A611A644887B5384CF34233629258BA878B12322891DEFF6B66BD70BFB62634E8AE781D082709A4B588AF91C528CDA28B73F
310
1C998EEF39EABBEFA97FBD6A7C7E9553F9D3D79FE442923C3C523610337627CB87ABE99D359D4CC6D6E4FACAB5E6ABF9D2726FC6A3C5F56271377BB88362213924694B38DD99FE47C48627A1E7D49F5A8BB5E1A74C0A599ED3B0F21F1E56366B89112D681E218F0915D0D6F17AD41FBA2A369DCF6335D62ABBD39779D5DDD1
310
11D4D8DE3CBB96B2E04FB8202E41051754A1AA8E8F76B4C6DFE810B580B1547F4B84911149794252234D024EF8BBE963A95AE27B3D310A9D5C215C7960FAEE415ED75694C6AFB17BCACA5D99A60A9AA65F217B0BFC53292ACB92BF283FAD0D3621576592CB5BED907C2FA8E9DF794E35E97BEA31BED21FEB401ABB94C44839
310
DCACBF0E1C5DA8DA5B2F4DFFD32AD86F543D9E565E7056502E157C00AD2671CD534549AB752FCA9CDA00677A313F04E51B22FF19E57B300579E3C97EB29F682D92935CEC18CF901B7B54FD8C51F362B56FC72FE0B3C1EAE335EDCCBF5AEC39ADB17DC238973F804BA5E6F6BFE7AF1FB32E523BE9F3BD571418E3631DCA4D48
310
5250CF639223210A9446CA30052EDF057BD35F8329C1ECD84552BF0DC8D18BE7BCE23BFE6BD960AB4A7DE79923A103BEBD80F911CBAA2C60DB19B01CF164A5583B772EE6D3FFA56666CBCDA74DC97724A48F9A58967497E489C4D979006FD7A05E227A1EBDD0F737C623387A9C844D3709995625106D157315F8B8392CD4E0
310
A0B9A720C4BE9829CEF37EA1E13111214D53925356365ADA634861B52519DD27A00AEB808EAF0628E6F435519D446F45CF2C9CF5214F0A15B2F6D06B79DA3EE3CBF7F56780D2F4E7EF73A0F5E5B02A38D07DC852C6B7C1FBB6664213E0C39E3EBA7FF4E1AD23EA2829407C85E586727488B751B2DB9502BC7B228A3FD68B6E
310
A65A22397E690AA8D158D7E404EC8CDA235CC3B7D1898680131CEC2CDF2638C65196279577750F15884AEE19F94199155B92B13297978469D4F8D358DF0AEF7631E28DC8F0D9F437D5D39A83B2231A1D52D543813A824EF8D44BCFF2FA6A31BD1E8DAD87F1CCB526B3879935BF59CDADD5C37479BB1CDD4CA7B3556B516589
310
EF352754B706114D9C885EC9131DE6EFEB43D99AFE2391C2F958179413D7CFEF6B1B6DB1E7600F00DE6E5C67454A339A4BA2E0FBA85ED26F045D454F463DBFCE484C2F90F2E5E3666003662ED8F755951A7D1BECD5B30B550B2785C8E7320B7292A4838DDA71BBC863ED7613CAF659337A3354231D4FF4A182A54904C2898C
310
98B28C4AD0CE056CCF332A80986E571EE9DBC305BB5FEB7E509220A58D25CF042D712A806AC0AD0C657FDEF80D2D9CEAA2EE4D1C76F60BFE74219A06527D6F82DF6412526107381E55E353090704D085B52408A8913C4ED159D79BDA71BB4BC506F4831350EB6F975CD22D69BF7AC49B91A2C0A9DDA3D5CA36AD20FC478E37
310
E61844E2352865EBCB61A275A65283CAAA9DD27703B4102F5AF51EF5F573B75CBB5AD38BC845F7A49F82A0966A49C2E3EA5EA0ECD326CD965F1DB402C6FA8B51A4658C5C5E2EC9E214602E55810345408596591009A82E7E7FFACA19EEA299B14A0081A705CB3296EBC14CDF658DCD336EA6D1136881AAEB87B81AB9EE53D5
310
F5EB8BC8362082DA24122F98680A4E7930C01A0079749CEA14382A0783E5EBA5A10F8C098456A03D6A4AEB6BB881E2513747552A5DB22C7EDAF83BD5528081A365F7FF06504B0304140006080000CC70623B000000000000000000000000350000006662782F41393633353835312D344632462D344230382D423046372D37
310
39314545314133324237412F76657274696365732E62696E504B0304140006080800CC70623BF270F1330600000004000000360000006662782F41393633353835312D344632462D344230382D423046372D3739314545314133324237412F747269616E676C65732E62696E636660600000504B0304140006080000CC7062
310
3B000000000000000000000000370000006662782F41393633353835312D344632462D344230382D423046372D3739314545314133324237412F617474726962757465732E62696E504B0304140006080800CC70623B08DA0BD19000000041010000360000006662782F41393633353835312D344632462D344230382D4230
310
46372D3739314545314133324237412F6469726563746F72792E786D6C858F410AC3201045AF22B36F53E9A60B35CBEEBAE80D244E44489C6234F4F835464A48035D0DF398FF9F8AF63D0E6CC63039F212F8F9020C7D47C6792B21C5FE7403D62A1188E2E60C98D7234A5830286103A55745067B9D86B8A3CF9C7F90C11DE6
310
07FB144396D7B6A82D282E9A152AD114D5EF2CB866EEE831B8EEA07A7BB5A8D7D61A2BAAEB7FD5F70921FF497D00504B0304140006080800CC70623BEDD1DC58FD000000A00100003B0000006662782F41393633353835312D344632462D344230382D423046372D3739314545314133324237412F7265736F75726365732F
310
636F72652E786D6C8D504B6E833010BD0A9A6D65B00922041947112427E8052C33A156828DFCA97AFC9A40A576D7CDCCE87D344F8F9FBFE667F689CE6B6B3A6039850C8DB2A336530731DC4903D95970676DF82583CCC8193B5861107C72362E3BA4AC096842428D1D7107A5F7182053CF7474E0D507CE32973124857FE48B
310
540F3961CEF244279DE03EB81420DB9EAC1384436FA353E879B1B182C7A8C75DA3C7F453DF353A1075D537A7BA6464B8F535A99AE14A9A2BBD90E350DD183B5CFABE3AF262350B1EF4FC9351399401471025A527C218A1E53BAB5A5AB765F5469B96525EACF23FA6B88CFF34456DC2A1DCE36E360F82A5202F42F062ED2BAD
310
579969AFDD8A6F504B010214000A0000080000CC70623B3DEE336E79000000790000001B00000000000000000000000000000000006175746F6465736B2D64657369676E2D7061636B6167652E786D6C504B01021400140006080800CC70623BD486FD9CA0000000F40000001300000000000000000000000000B20000005B
310
436F6E74656E745F54797065735D2E786D6C504B01021400140006080800CC70623B853B8169EB0000007C010000080000000000000000000000000083010000636F72652E786D6C504B01021400140006080800CC70623B55019EA25F0000007C000000070000000000000000000000000094020000636E782E786D6C504B
310
01021400140006080800CC70623BDBABAAF470010000D40300000C00000000000000000000000000180300006662782F636F72652E786D6C504B01021400140006080800CC70623B9C113CC27E0000009D0000000B00000000000000000000000000B20400006662782F636E782E786D6C504B01021400140006080800CC70
310
623B7DF2F77C2A010000120200003100000000000000000000000000590500006662782F41393633353835312D344632462D344230382D423046372D3739314545314133324237412F636F72652E786D6C504B01021400140006080800CC70623BAD7543B64E010000330300003000000000000000000000000000D2060000
310
6662782F41393633353835312D344632462D344230382D423046372D3739314545314133324237412F636E782E786D6C504B01021400140006080800CC70623BE75B7789680500003C10000034000000000000000000000000006E0800006662782F41393633353835312D344632462D344230382D423046372D3739314545
310
314133324237412F6F626A656374732E786D6C504B01021400140006080000CC70623B0000000000000000000000003500000000000000000000000000280E00006662782F41393633353835312D344632462D344230382D423046372D3739314545314133324237412F76657274696365732E62696E504B01021400140006
310
080800CC70623BF270F133060000000400000036000000000000000000000000007B0E00006662782F41393633353835312D344632462D344230382D423046372D3739314545314133324237412F747269616E676C65732E62696E504B01021400140006080000CC70623B0000000000000000000000003700000000000000
310
000000000000D50E00006662782F41393633353835312D344632462D344230382D423046372D3739314545314133324237412F617474726962757465732E62696E504B01021400140006080800CC70623B08DA0BD1900000004101000036000000000000000000000000002A0F00006662782F41393633353835312D344632
310
462D344230382D423046372D3739314545314133324237412F6469726563746F72792E786D6C504B01021400140006080800CC70623BEDD1DC58FD000000A00100003B000000000000000000000000000E1000006662782F41393633353835312D344632462D344230382D423046372D3739314545314133324237412F7265
310
736F75726365732F636F72652E786D6C504B0506000000000E000E0080040000641100000000
  0
XRECORD
  5
3A
102
{ACAD_REACTORS
330
39
102
}
330
39
100
AcDbXrecord
280
     1
 70
     1
 90
429727718
  1
30362254-06B7-45E0-A893-8CFA70E3D6BC
310
504B03040A0000080000CC70623B3DEE336E79000000790000001B0000006175746F6465736B2D64657369676E2D7061636B6167652E786D6C3C3F786D6C2076657273696F6E3D22312E302220656E636F64696E673D227574662D3822203F3E3C666F726D6174733E3C666F726D61743E687474703A2F2F736368656D612E
310
6175746F6465736B2E636F6D2F64657369676E2D7061636B6167652F323030393C2F666F726D61743E3C2F666F726D6174733E504B0304140006080800CC70623BD486FD9CA0000000F4000000130000005B436F6E74656E745F54797065735D2E786D6C7D8EC10E82300C865F65E91D8A1E8C310C0EEA1BF002731658846E
310
D98AC1B77784ABF1D8FE5FBFBF75BBCE937A534CCEB38643598122B6FEE978D0B0485F9C41B54DDD7D022595594E1A469170414C76A4D9A4D207E29CF43ECE46F218070CC6BECC4078ACAA135ACF422C856C0E68EA1BF5669944DDD7BCDE7B1F8E415D77AECB980613C2E4AC91FC167A2B244592486606FC29C8FD7F045B9A
310
EF7053A7E60B504B0304140006080800CC70623B1EC5D7A3EB0000007C01000008000000636F72652E786D6C8D90416EC3201045AF82665B6103C6756C6122AB4D4ED00B204C5C94182C03558F5F9C3852BBEB6A467FFE9B197D71FC9E6FE8CBACC17AD7032D0820E3B41FAD9B7A48F1820F808E52ACDEC75F36404ECDA687
310
4D0629A6D5A76597B477D1B89855E747B38B2A041301E95B6E7A08FAD3CCAA50296647B8168BD2573599823EBB0CA76447F43862C7BCCF5EAC59410E4DDD9C7973C2755553CCCFA4C603E3040F1565ED3B1FDE4E432BCA0D9622DAF9795FAF464533826484B498524CD807E51D79ED187F21878E10516EF63F505AC67F42C9
310
BA58B1FDDD071640D2FCC87D2045B96591CB3DA85CB7DCE40F504B0304140006080800CC70623B55019EA25F0000007C00000007000000636E782E786D6C4DCB3B0E80201045D1AD90E915ED2CF8AC45050C11660C8261F98AB1B07AC9C97D42D718D865D3E909258CFD00CCE24AC6E326A164D74DC0B4128928FF32603847
310
2BA13128B1252AC747C6BAB984FC68F0B87FE8960A5C09FE86CFB69FBA01504B0304140006080800CC70623B8C9102E971010000D40300000C0000006662782F636F72652E786D6CC5535B6E833010BC8AE5DF0A6C08340F1947A84D4ED00B38C6A128602363A31CBFCB234A53A551FA553EC09AD9F5CE8C31DB9E9B1AF5CA
310
7695D1198E428A91D2D214952E33ECDD315861B4E5CC1AE3BE9561A445A3323CC098B3D21ADFCE9034DA29ED00D5A6503328BA4E398C640D8B0C77F253352214DE4145770A5B214FA2546114020D759C75CE8200340D19DE981F0F6746269C33EFAB6266AB02A655C74A59CCF365BADC27CB5D902ED22848F6340DF238A141
310
BE88E2F57B92BFEDF23523433367AE6A2EEAA455C2A902F398D2751045018D3FA264435F3771F242571B4A1919CA6F9A7C5B3CD9E42BED16F12C776AEB308F40C848FC700B1139D4891EF410CEC810227CC6846F8386402064270EF5C5C709A05E49676C024C61FC95EA45ED154CA5211D1FF4FB8291A913A68E9B83EBBB33
310
E2A7673CDE118E5AE8124C0807CB8377834E366998436B950D7A7746DAD846D4CFD978E0F04FD455FC5D49D2D4C6FE9722321F10997F0F32DC47FE05504B0304140006080800CC70623BFFEA85907E0000009D0000000B0000006662782F636E782E786D6C4DCCD10A83201886E15B91FFDC95D95A811AB6F23E625948A6C3
310
E9D8E5AF46073BFAE0E1E365ED67B3E8ADC3CB78C7815C7240DA3DFC64DCC221C519D7805AC182F7F1EF06C88D9BE6703008B6049F9E274D7A1E938DBB5AE3D6131B2589BA0D3D965551E0B2EA732C9B9A624AAEB41E3A557677029960D9AFB4EF11165F504B0304140006080800CC70623B4FEEA4082C0100001202000031
310
0000006662782F39464131463745442D413632322D343644302D413938332D3331353338454246344243312F636F72652E786D6C8D515B6EC32010BC0AE2AB55850DD871ED0813254D72825EC00192A2C460F1A872FC42ED48ED5F7E00CDCECCCEB26C731F6FE05B39AFADE921293004CA082BB5B9F43086336A21D870E6AC
310
0D7F68109861543DCC30E4ECE26C9C164858139409093556AA051CBC570102714B8F1E7AF1A5C6A11862480C7F2DA6415C878B2A4891CA89C7990F2E050073937C42DE1DB7E4F87ED8A36D4329AA9B3D46DBAEAD504556557BD81DEBDD0761E52CE42C462D17B996298E3E6BE59E35C962CE821E1FF18553435012728A7187
310
0841987E927A8D9B35ADDF70BBC6989599FE4F1427F9A4286A132ABAC49D651EF234CD5CE04CDA78BA3DC2A8FB645D00B9DF8B57E215725C60BCA2A463E54C4CE327C7A65E1C7DB02E7DEFCBF594B864C5CA6CDBD49C957943E9FA5D5FBAF336F90F504B0304140006080800CC70623BAD7543B64E01000033030000300000
310
006662782F39464131463745442D413632322D343644302D413938332D3331353338454246344243312F636E782E786D6CD593CD6EC32010845F0571AD6CE3D48AD20813A9873E410FBD12D82434182C7EAAE6EDBB2424CD25871E7B41D6EC30B3FA84F9E67BB2E40B4234DE8DB46F1925E094D7C6ED479AD3AE5951B2113C
310
789FEE6C943839C1488B4C05DF079FE72A69D8C96C13AAD6B8631503449F83828872B949AC57D26200B826A308D316B4064D6E46FCDA41C05550DC9E483A00797BFD207EFB092A45DE9514C1BBD22178396BD39D891265658C238DEA00936C654E5E433CB65A26D9F6EDB5EBC14EBF49A45CB856E66048291F6939A9A81BB5
310
C8917738143CA680F4AA299D66A042CEB3354A2684DC9D8D178FE0D9B8B41CAAD720F880EE7EF93C0C18769E099ECC04D5A102C8049A8A05632F4DDF376CF1DE0F6BB65C2F8627B65A33C6BB62177CEBBDAD973006829F89F22E814B54F4BC2BE347F8AA8F681390B50FA73F804400B5F542E796F19FF974E7F78DB802FE05
310
E207504B0304140006080800CC70623B16AB87BA640500003C100000340000006662782F39464131463745442D413632322D343644302D413938332D3331353338454246344243312F6F626A656374732E786D6CAD575B6FA33818FD2B887DE6924B3BED8A326A92B68A663B534DD4D13E548A0C38942D60649B369D5FBFC7
310
600890A493BDE42160637FD7F31D7FF63E6FB3D478A55C242CBF3247B66B1A340F5994E4F19559CA8D75611A9F7D8F33263BCB4C232719BD32D5B4E97B316765A1A722BA21652A07B3B7B33F0D11D29C9A46981221AE4C113ED38CD8A4942CA2E2C58E882476BCD9DA23BB5ED8171B73523C0F841684D35CC252CCE79062D4
310
468DFA43D7747CCF51DF7D4FFDEB5593E3AB9CCA9FBEFE241792E4E19EB28198C968BAB8199F5D5A67D3E9C49A9E8F47D6EC76B6B0469F26EEFC7C3EBFBCBEB98462213924694B38DD98FE1D62C393D073EA4FADC5DAF04326852CCF6958F90F0F2B9BB5C48816348F90C7840A68EB78EDF68723159BCEE7891A6B95DDE9D3
310
BCEAEEE8086A6C6F9E5D4B59F0175C10A7A0820BAA5055C7473B5AE3CFDD452D602CD5DF12616444529E90D448938013FE6EFA58AA96F85E4F8C42275708571E98FE6827AF6B2B4AE3D7D83D64E5A64C53054DD3AF90BD06FEA9149565C94FCA0F6B834DC85599E4F2423B24DF0B6AFA979E534DFA9E7A4CC6FA631D486393
310
921829879BF5D781A373557BCB85E97FB90DB62B558F8795179C15944B051F40AB495CF35451D26A4727654E6D8033BD98EF82F21D91FF8AF2DD9982BCF1643BDD4EB516C9492E368C67C88DED563FC36D5EACF66DFF057C3658BDBFA69DF9578B3DA735B64F18C7F20770A9D45CFCF7FCF563D6456A277DBEF78A02637CA2
310
43B90A490AEAB94F72244481D24819A6C0E59B606BFA4B3025981DBB48EAB701D97BF19C577CC77F2D1B6C55A9EF3C732474C0B727303F625995056C3B02963D9EAC146BE78EC5FCEC7FA999EBC5EACBAAE41B12D27B4D2C0BBA49F244E2ECDC81B76B502F113D8F5EE8FB1BE3111CDD4FC2AA9B844CAB1288B68AB90A7CDC
310
1C166AB0D3DC5310625FCC14E779BFD0709F8890A629C9292B1B2DED31A4B0DA928CEE135085754027E3018A397D4D5427D15BD1330B677DC8934285AC3DF45A9EB68FF8F2B8FC0A509AFEECFD0FF2DE25CC6047F7214B195F07EFEB9A094D800F7BFAE8FED187B78EA8A3A400F115961BCAD1215E47C966530AF0EE8128FE
310
58CEBB996A8964FFA529A046635D9353B0336A8F700DDF46271A024E70B0B37C9DE01847591E54DED53D54202AB947E4076556AC49C6CA5C9E1226B7F1A7B1BE15DEED62C41B91E1B3E9AFAAA735036547343A925075041DF0A9979E893B391F8FCFA6967B3EFB644DCF6E5CEBFAE272625DCC6FAF3FB93793C5F90CE1EF57
310
407342756B10D1C489E8953CD1617E5CEECAD6F4EF8914CE5D5D504E5C3F1F9736DA62CFC11E00BCDDB8CC8A9466349744C1F75EBDA4DF09BA8A9E8C7A7E9991989E20E5DBDD6A6003664ED8F7A04A8DBE0DF6EAD9B9AA858342E47399053949D2C146EDB85DE4B176BB0965FBAC19BD19AA918E27FA50C1D22402E144464C
310
59462568E704B6E71915404CB72B8FF4EDE184DDAF753F284990D2C6926782963815403548A70C657FDEF80D2D9CEAA2AE4C1C76F60BFE74219A06527D6582DF6412526107381E55E353090704D085B52408D0933C4ED159D79BDA71BB4BC506F4831350EB6F979CD22D69BF7AC49B91A2C0A9DDA3D5CA36AD20FC478E37E6
310
1844E2352865EBCB6EA275A652E3836BE04EFB400BF1A2556F515F1FBB35B2AB35BD889C744FFA1004B5544B121E57F70215746DD2F5E2C1412B602CBF19455AC6C8E5E9922C4E01E65215385004546899059180EAFCF7A707CE7017CD8CDB0410789AB32C63B91E5CEBBBACB17AC6CD347A022D5075FD106377347AAABA7E
310
7D11590744509B44E205134DC1290F06580320F78E537D3D73540E06CB970B431F185308AD40BBD794D6D77003C5A36E8EAA54BA64597CD8F83BD552A080A365F7FF06504B0304140006080000CC70623B000000000000000000000000350000006662782F39464131463745442D413632322D343644302D413938332D3331
310
353338454246344243312F76657274696365732E62696E504B0304140006080800CC70623BF270F1330600000004000000360000006662782F39464131463745442D413632322D343644302D413938332D3331353338454246344243312F747269616E676C65732E62696E636660600000504B0304140006080000CC70623B
310
000000000000000000000000370000006662782F39464131463745442D413632322D343644302D413938332D3331353338454246344243312F617474726962757465732E62696E504B0304140006080800CC70623B08DA0BD19000000041010000360000006662782F39464131463745442D413632322D343644302D413938
310
332D3331353338454246344243312F6469726563746F72792E786D6C858F410AC3201045AF22B36F53E9A60B35CBEEBAE80D244E44489C6234F4F835464A48035D0DF398FF9F8AF63D0E6CC63039F212F8F9020C7D47C6792B21C5FE7403D62A1188E2E60C98D7234A5830286103A55745067B9D86B8A3CF9C7F90C11DE607
310
FB144396D7B6A82D282E9A152AD114D5EF2CB866EEE831B8EEA07A7BB5A8D7D61A2BAAEB7FD5F70921FF497D00504B0304140006080800CC70623B0D6EF93BFE000000A00100003B0000006662782F39464131463745442D413632322D343644302D413938332D3331353338454246344243312F7265736F75726365732F63
310
6F72652E786D6C8D50596E833010BD0A9ADFCA60B334011947A8694ED00B586642AC041B79A97AFC9A40A5F6AF3F33A3B7689E1E3F7DCD8FEC139DD7D6F4C0720A191A65476DA61E62B892236427C19DB5E1970C322367EC618541F0C9D9B8EC90B226A009093576C41D94DE63804C3DD2D18357379C652E63480A7FCF17A9
310
EE72C29CE5894E3AC17D702940B63D59270887DE46A7D0F36263058F518FBB468FE9A7BE6A7420864373B8D4873369AA8691FA421B3294352543C5CAF65C0F6FEF43CB8BD52C78D0F34F46E550061C419494B6843142CB0F5677F4B52BEB177AEC28E5C52AFF638ACBF84F53D42654E51E77B379102C05791282176B5F693D
310
CB4C7BED567C03504B010214000A0000080000CC70623B3DEE336E79000000790000001B00000000000000000000000000000000006175746F6465736B2D64657369676E2D7061636B6167652E786D6C504B01021400140006080800CC70623BD486FD9CA0000000F40000001300000000000000000000000000B20000005B
310
436F6E74656E745F54797065735D2E786D6C504B01021400140006080800CC70623B1EC5D7A3EB0000007C010000080000000000000000000000000083010000636F72652E786D6C504B01021400140006080800CC70623B55019EA25F0000007C000000070000000000000000000000000094020000636E782E786D6C504B
310
01021400140006080800CC70623B8C9102E971010000D40300000C00000000000000000000000000180300006662782F636F72652E786D6C504B01021400140006080800CC70623BFFEA85907E0000009D0000000B00000000000000000000000000B30400006662782F636E782E786D6C504B01021400140006080800CC70
310
623B4FEEA4082C0100001202000031000000000000000000000000005A0500006662782F39464131463745442D413632322D343644302D413938332D3331353338454246344243312F636F72652E786D6C504B01021400140006080800CC70623BAD7543B64E010000330300003000000000000000000000000000D5060000
310
6662782F39464131463745442D413632322D343644302D413938332D3331353338454246344243312F636E782E786D6C504B01021400140006080800CC70623B16AB87BA640500003C1000003400000000000000000000000000710800006662782F39464131463745442D413632322D343644302D413938332D3331353338
310
454246344243312F6F626A656374732E786D6C504B01021400140006080000CC70623B0000000000000000000000003500000000000000000000000000270E00006662782F39464131463745442D413632322D343644302D413938332D3331353338454246344243312F76657274696365732E62696E504B01021400140006
310
080800CC70623BF270F133060000000400000036000000000000000000000000007A0E00006662782F39464131463745442D413632322D343644302D413938332D3331353338454246344243312F747269616E676C65732E62696E504B01021400140006080000CC70623B0000000000000000000000003700000000000000
310
000000000000D40E00006662782F39464131463745442D413632322D343644302D413938332D3331353338454246344243312F617474726962757465732E62696E504B01021400140006080800CC70623B08DA0BD190000000410100003600000000000000000000000000290F00006662782F39464131463745442D413632
310
322D343644302D413938332D3331353338454246344243312F6469726563746F72792E786D6C504B01021400140006080800CC70623B0D6EF93BFE000000A00100003B000000000000000000000000000D1000006662782F39464131463745442D413632322D343644302D413938332D3331353338454246344243312F7265
310
736F75726365732F636F72652E786D6C504B0506000000000E000E0080040000641100000000
  0
XRECORD
  5
D
102
{ACAD_REACTORS
330
C
102
}
330
C
100
AcDbXrecord
280
     1
270
     1
271
     1
  0
XRECORD
  5
E
102
{ACAD_REACTORS
330
C
102
}
330
C
100
AcDbXrecord
280
     1
270
     1
271
     1
  0
XRECORD
  5
F
102
{ACAD_REACTORS
330
C
102
}
330
C
100
AcDbXrecord
280
     1
 70
     0
 90
1673772943
  1
ECE7A1D2-D628-4531-984C-D00F80459256
310
504B03040A0000080000CC70623B3DEE336E79000000790000001B0000006175746F6465736B2D64657369676E2D7061636B6167652E786D6C3C3F786D6C2076657273696F6E3D22312E302220656E636F64696E673D227574662D3822203F3E3C666F726D6174733E3C666F726D61743E687474703A2F2F736368656D612E
310
6175746F6465736B2E636F6D2F64657369676E2D7061636B6167652F323030393C2F666F726D61743E3C2F666F726D6174733E504B0304140006080800CC70623BD486FD9CA0000000F4000000130000005B436F6E74656E745F54797065735D2E786D6C7D8EC10E82300C865F65E91D8A1E8C310C0EEA1BF002731658846E
310
D98AC1B77784ABF1D8FE5FBFBF75BBCE937A534CCEB38643598122B6FEE978D0B0485F9C41B54DDD7D022595594E1A469170414C76A4D9A4D207E29CF43ECE46F218070CC6BECC4078ACAA135ACF422C856C0E68EA1BF5669944DDD7BCDE7B1F8E415D77AECB980613C2E4AC91FC167A2B244592486606FC29C8FD7F045B9A
310
EF7053A7E60B504B0304140006080800CC70623BD9DDAED0EC0000007C01000008000000636F72652E786D6C8D90416EC3201045AF82665B61836D9CD8C2444DD39CA01740405C94182C03558F5F9C3852BBEB6A467FFE9B197D7EF89E6EE8CB2CC17A37002D0820E394D7D68D03A478C17B4007C117EFE32F1B20272733C0
310
2A83E0E3E2D3BC49CABB685CCCAAF3DA6CA20CC14440EA969B0182FA34932C648AD911AEC52CD5558EA6A0CF2EC329598D1E47ACCEFBECC59A050463A7EA5833865FEBDD0E37353BE3EE8DBDE3F6786A48D375FBF6CC78B9C282473B3DEFABC5C86834888A900E538A49F5419B9EB47DD5BC907D4F082F57FB1F28CDFA9F50
310
B22ED6D5F6EE030B20687EE43E10BC5CB3C8E51E54AE6B6EE207504B0304140006080800CC70623B55019EA25F0000007C00000007000000636E782E786D6C4DCB3B0E80201045D1AD90E915ED2CF8AC45050C11660C8261F98AB1B07AC9C97D42D718D865D3E909258CFD00CCE24AC6E326A164D74DC0B4128928FF326038
310
472BA13128B1252AC747C6BAB984FC68F0B87FE8960A5C09FE86CFB69FBA01504B0304140006080800CC70623BA24EB22D72010000D40300000C0000006662782F636F72652E786D6CC5535B6E833010BC8AE5DF0A6C5E49888CA3A6694ED00B38E05014B091B1518EDFE511A5A9D228FD2A1F60CDEC7A67C6986DCE4D8D7A
310
69BA4AAB0C073EC548AA5C17952A33ECECD15B61B4E1CC686DBF9561A44423333CC098B3D268D7CE50AE9595CA02AA74216750749DB418E5352C32DCE59FB211BE70162ABA93DF8AFC244AE9073ED050C759670D0840D390E18DF9F1706664C23973AE2A66B62A605A75ACA4C13C4976E1364A12EF355A2EBD384AF65EFA96
310
BC7B8BED2EA6719AAE16FB8491A199335B351775B991C2CA02F390D2D40B028F861F41BCA68B7518BFD0D59A524686F29B26D7164F36B94AD9289CE54E6D1DE6010819891F6E21228B3AD1831EC219194284CF98F06DD01008846CC5A1BEF83801D4CBDC6A1303536877A57A513B0953A94FC707FDBE6064EA84A9E3E6E0FA
310
EE8CF0E9198F7784A316AA0413C2C2F2E0ECA0934D1AE6D05A69BCDE9E91D2A611F573361E38FC1375157F5752AE6B6DFE4B11990F88CCBF0719EE23FF02504B0304140006080800CC70623B408A7D3B7C0000009D0000000B0000006662782F636E782E786D6C4DCCD10A83201886E15B91FFDC552A92A0064DBC8F581632
310
D3703A76F9ABD1C18E3E78F878E5F0D9027ABBFCF2292AE86E2D20171F69F6715550CB827B40839639A5F2770314A7CD293819B45C73AAFB45B35BA61ACAA1C1C7E7855C58C15BC331339661262CC762340413D68D77DA5B42298546CBE6573AF60CEB2F504B0304140006080800CC70623B449FB9BD290100001202000031
310
0000006662782F36394639363044362D344446342D343946362D394244322D3234314243333846323333332F636F72652E786D6C8D515B6EC32010BC0AE22B55850D98B871848994463E412FE002495162B07854397EA176A4F62F3F2C9A9D991D587EB84F37F0AD7D30CEF6905418026DA553C65E7A98E219ED203808EE9D
310
8B7F6810D871D23D2C3014FCE25D9A57483A1BB58D19B54EE9151C43D0110279CB971E06F9A5A7B11A53CC8C70ADE6515EC78BAE4895DB992778883E0700CB907242D17643D7E2538BD869608875438BBAE38922CAC8F1BDD90DB4691A5E2F42C153326A951B95E398B3D1FE599322163C9AE9115F7A3D46ADA0A018778810
310
84E907617BDCEE297BC5BB3DC6BC2EF47FA234AB2745C9D8D8D035EE220B50105E2F0DC1954B9FB747187D9F9D8FA0CCDB042D5FA0C015C65B42DF78BD10F3F3B363CB56C7109DCFDFBBB97E662ED92EB62D13BC2E1BCAE5777DB9966D8A1F504B0304140006080800CC70623BAD7543B64E01000033030000300000006662
310
782F36394639363044362D344446342D343946362D394244322D3234314243333846323333332F636E782E786D6CD593CD6EC32010845F0571AD6CE3D48AD20813A9873E410FBD12D82434182C7EAAE6EDBB2424CD25871E7B41D6EC30B3FA84F9E67BB2E40B4234DE8DB46F1925E094D7C6ED479AD3AE5951B2113C789FEE
310
6C943839C1488B4C05DF079FE72A69D8C96C13AAD6B8631503449F83828872B949AC57D26200B826A308D316B4064D6E46FCDA41C05550DC9E483A00797BFD207EFB092A45DE9514C1BBD22178396BD39D891265658C238DEA00936C654E5E433CB65A26D9F6EDB5EBC14EBF49A45CB856E66048291F6939A9A81BB5C89177
310
38143CA680F4AA299D66A042CEB3354A2684DC9D8D178FE0D9B8B41CAAD720F880EE7EF93C0C18769E099ECC04D5A102C8049A8A05632F4DDF376CF1DE0F6BB65C2F8627B65A33C6BB62177CEBBDAD973006829F89F22E814B54F4BC2BE347F8AA8F681390B50FA73F804400B5F542E796F19FF974E7F78DB802FE05E20750
310
4B0304140006080800CC70623B8D05915C650500003B100000340000006662782F36394639363044362D344446342D343946362D394244322D3234314243333846323333332F6F626A656374732E786D6CAD575B6FA33814FE2B887D06429276DA1565D4266D158D3A339A6846FB502932E050B66023DB74D2FDF5FB190C01
310
9276B2973C046C8ECFF53B17071F77456EBD502133CEAE6CDF9DD81665314F32965ED995DA3A17B6F5310C04E7AA47665B8C14F4CAD6DB7618A48257A5D94AE89654B91AEDDEDDFC61C998326A5B714EA4BCB265FC440BE2924AF184CA6737218AB8E976E7FA6E4338649B0A523E8D98964450A6A029F619B8588D52FE7039
310
B1BD30F0F4F730D0FF866AF6369557DB33949F31A9088B0F848DD8CCFCF9F2767A76E99CCDE733677E3EF59D9BBB9BA5E37F984D16E78BC5E5F5ED25044B25C0C96822E8D60EEFE11B91C581D77CEA34368A1F5329E68CD1B8B61F16D63A1B8E092D294B10C78C4A48EB593D192E7DED9BDEE7995E1B91FDEDD3ACEA9FE831
310
6A756F9F7D4D79F4274C90A7A04248AA51D5F8C718DAE06FB2F75AC4796EBE65D22A88A22223B995679120E2D50E41AA49C260C046A35368846B0BECD0DFF3EBEB8AD4F835768F69B9ADF25C43D30E6B646F807FAA64AD59F61715C7A54127C4AACA98BA3006A9D792DAE165E0D59B61A01FB3A9F9D838D2DAE62445C86166
310
F37564E842E7DE6A69879FEEA2DD5AE7E371E1A5E025154AC307D06A03D73EB5978C58FFA4C8E9033066E0F3BD53BEC1F39F91BE7B55103791EDE6BBB991A2046172CB4581D8B893FA674DDA17A77B3B7C413D1B511FD2743BFF8A38F03A658705E3ADF8015C3A3417FF3D7E439FF591DA0B5F18BC20C1B8981957AE6392A3
310
F43C640C01D1A0B4728E2DD4F26DB4B3C3152A252A3B4E913CEC1C72F012782FF88EFF8637AA552DBEF76408E8A8DE9E50F9E1CB3A2DA0DB1B6039A893B56063DC5B3E3FFB5F72E67AB9FEB4AEC496C4F4C1149625DD662C53E89D7BF0F6151A046260D1337DFDC94502430F83B0EE07A130A224BCAD7DAE1D9FB6CD422FF6
310
920702629C4BB9AE79C12F243C6432A6794E18E5552BA56B431AAB5D91317302B2B071E86C3A42B1A02F999E24061403B5D0EB639195DA655DD3EBEAB4FB862DDF579F014AD0E73C22F99E28DA57FB98E75C6CA2D74D53086D600F4786E0FE3144B771A8A7B900F03594DB8A633CBC49B2EDB69228BB479CF863B5E807AAAB
310
23872F6DFEB4129B949CA33823F58830E86D65621E10047D9DB34D862E8EAC3C2ABC2F7B2C40D67CDFE01F5545B92105AF983AC54D93D69E56FB8E797F88913F898A9FEC705D3F9D1B54EC8426FB500D40A03BD0119B06E1B95DDC7EB8F6975367793EBD70E66733DFB9BC982F9CE564727731999F5D4ECFCE3B8D6A4DC2A0
310
6D50FD148437D110834A64C6CDDF57FBACB5C307A2A477DFE4939736CFEF2B175371E0E10CF0DD1D5C15654E0BCA14D1E87DD02FF93782A162C0A3D95F1524A52770F972BF1EE9809D13CE7DD599467F8ECE9ADD85CE85A34CD45355448C64F9E8A031DC2D596ACC6E5DD93D9B82DE2EF5CAF81363A8E47996A0DE24564A79
310
4115AACE09C55E14540231FDA13C319787134EBF34E3A022514E5B4D9E0826E25C02D5805B15ABE1BEF51B26383D445DD9E875EE33FE4C22DA16427D65A3BCA92CA6D28DD01DF5DC53330704308475351050232CCD31583787BA75774AFB06E5070DD0C8EF484E19968C5D83BA5B90B244D31E54D55A372320FE4786B7EA58
310
44E135AA5467CB7EA333A61683CC6A8C3257034C10CF46F40EF9F5BE59BE5BD30C3C72D235E95D10345C1D45445A5F0BB47E46A5EBE5570F9380B5FA629579952296A773720405982B9DE04011506178964401AA8BDF1FBF0A8EAB6861DD6580C0E38217056766716DAEB2D6FA0917D3E4116581EADB879C4E7CFFB11EFACD
310
3D641311495D92C8676CB409A72D18610D803CE8A626049E8EC1887CB5B44CC39883690DDA8399B4B9855B481E7D71D4A9D22F96E5BB73BF5793020C02137BF837504B0304140006080000CC70623B000000000000000000000000350000006662782F36394639363044362D344446342D343946362D394244322D32343142
310
43333846323333332F76657274696365732E62696E504B0304140006080800CC70623BF270F1330600000004000000360000006662782F36394639363044362D344446342D343946362D394244322D3234314243333846323333332F747269616E676C65732E62696E636660600000504B0304140006080000CC70623B0000
310
00000000000000000000370000006662782F36394639363044362D344446342D343946362D394244322D3234314243333846323333332F617474726962757465732E62696E504B0304140006080800CC70623B08DA0BD19000000041010000360000006662782F36394639363044362D344446342D343946362D394244322D
310
3234314243333846323333332F6469726563746F72792E786D6C858F410AC3201045AF22B36F53E9A60B35CBEEBAE80D244E44489C6234F4F835464A48035D0DF398FF9F8AF63D0E6CC63039F212F8F9020C7D47C6792B21C5FE7403D62A1188E2E60C98D7234A5830286103A55745067B9D86B8A3CF9C7F90C11DE607FB14
310
4396D7B6A82D282E9A152AD114D5EF2CB866EEE831B8EEA07A7BB5A8D7D61A2BAAEB7FD5F70921FF497D00504B0304140006080800CC70623BCA768048FE000000A00100003B0000006662782F36394639363044362D344446342D343946362D394244322D3234314243333846323333332F7265736F75726365732F636F72
310
652E786D6C8D50596E833010BD0A9ADFCA60D600328E9AA639412F609909B1126CE4A5EAF16B0295DABFFECC8CDEA2797AECF8353F924FB44E193D409E5248504B332A3D0D10FC95B4901C39B3C6F85F3248B49871801506CE266BC2B243D2688FDA47549B11775038871E12F988C7004EDE7016A9083E2ADC3D5D84BC8B09
310
D33C8D74D471E6BC8D0192EDC93A815B742658898E651BCB59086ADC356A8C3FD555A1055ED7E7E254D615792D0F075295F585746FF53B694EE78A565DD736979A65AB9933AFE69F8CD2A2F038022F28ED489E135A7CE4554F9BBEA85E68DB53CAB255FEC71496F19FA6A0B42F8B3DEE6673C0F318E4497096AD7DC5F52C33
310
EEB55BFE0D504B010214000A0000080000CC70623B3DEE336E79000000790000001B00000000000000000000000000000000006175746F6465736B2D64657369676E2D7061636B6167652E786D6C504B01021400140006080800CC70623BD486FD9CA0000000F40000001300000000000000000000000000B20000005B436F
310
6E74656E745F54797065735D2E786D6C504B01021400140006080800CC70623BD9DDAED0EC0000007C010000080000000000000000000000000083010000636F72652E786D6C504B01021400140006080800CC70623B55019EA25F0000007C000000070000000000000000000000000095020000636E782E786D6C504B0102
310
1400140006080800CC70623BA24EB22D72010000D40300000C00000000000000000000000000190300006662782F636F72652E786D6C504B01021400140006080800CC70623B408A7D3B7C0000009D0000000B00000000000000000000000000B50400006662782F636E782E786D6C504B01021400140006080800CC70623B
310
449FB9BD290100001202000031000000000000000000000000005A0500006662782F36394639363044362D344446342D343946362D394244322D3234314243333846323333332F636F72652E786D6C504B01021400140006080800CC70623BAD7543B64E010000330300003000000000000000000000000000D20600006662
310
782F36394639363044362D344446342D343946362D394244322D3234314243333846323333332F636E782E786D6C504B01021400140006080800CC70623B8D05915C650500003B10000034000000000000000000000000006E0800006662782F36394639363044362D344446342D343946362D394244322D32343142433338
310
46323333332F6F626A656374732E786D6C504B01021400140006080000CC70623B0000000000000000000000003500000000000000000000000000250E00006662782F36394639363044362D344446342D343946362D394244322D3234314243333846323333332F76657274696365732E62696E504B010214001400060808
310
00CC70623BF270F13306000000040000003600000000000000000000000000780E00006662782F36394639363044362D344446342D343946362D394244322D3234314243333846323333332F747269616E676C65732E62696E504B01021400140006080000CC70623B00000000000000000000000037000000000000000000
310
00000000D20E00006662782F36394639363044362D344446342D343946362D394244322D3234314243333846323333332F617474726962757465732E62696E504B01021400140006080800CC70623B08DA0BD190000000410100003600000000000000000000000000270F00006662782F36394639363044362D344446342D
310
343946362D394244322D3234314243333846323333332F6469726563746F72792E786D6C504B01021400140006080800CC70623BCA768048FE000000A00100003B000000000000000000000000000B1000006662782F36394639363044362D344446342D343946362D394244322D3234314243333846323333332F7265736F
310
75726365732F636F72652E786D6C504B0506000000000E000E0080040000621100000000
  0
XRECORD
  5
10
102
{ACAD_REACTORS
330
C
102
}
330
C
100
AcDbXrecord
280
     1
270
     1
271
     1
  0
XRECORD
  5
11
102
{ACAD_REACTORS
330
C
102
}
330
C
100
AcDbXrecord
280
     1
270
     1
271
     1
  0
CELLSTYLEMAP
  5
37D
102
{ACAD_REACTORS
330
50
102
}
330
50
100
AcDbCellStyleMap
 90
        3
300
CELLSTYLE
  1
TABLEFORMAT_BEGIN
 90
        5
170
     1
 91
        0
 92
    32768
 62
   257
 93
        1
300
CONTENTFORMAT
  1
CONTENTFORMAT_BEGIN
 90
        0
 91
        0
 92
      512
 93
        0
300

 40
0.0
140
1.0
 94
        5
 62
     0
340
21
144
6.0
309
CONTENTFORMAT_END
171
     1
301
MARGIN
  1
CELLMARGIN_BEGIN
 40
1.5
 40
1.5
 40
1.5
 40
1.5
 40
4.5
 40
4.5
309
CELLMARGIN_END
 94
        6
 95
        1
302
GRIDFORMAT
  1
GRIDFORMAT_BEGIN
 90
        0
 91
        1
 62
     0
 92
       -2
340
24
 93
        0
 40
1.125
309
GRIDFORMAT_END
 95
        2
302
GRIDFORMAT
  1
GRIDFORMAT_BEGIN
 90
        0
 91
        1
 62
     0
 92
       -2
340
24
 93
        0
 40
1.125
309
GRIDFORMAT_END
 95
        4
302
GRIDFORMAT
  1
GRIDFORMAT_BEGIN
 90
        0
 91
        1
 62
     0
 92
       -2
340
24
 93
        0
 40
1.125
309
GRIDFORMAT_END
 95
        8
302
GRIDFORMAT
  1
GRIDFORMAT_BEGIN
 90
        0
 91
        1
 62
     0
 92
       -2
340
24
 93
        0
 40
1.125
309
GRIDFORMAT_END
 95
       16
302
GRIDFORMAT
  1
GRIDFORMAT_BEGIN
 90
        0
 91
        1
 62
     0
 92
       -2
340
24
 93
        0
 40
1.125
309
GRIDFORMAT_END
 95
       32
302
GRIDFORMAT
  1
GRIDFORMAT_BEGIN
 90
        0
 91
        1
 62
     0
 92
       -2
340
24
 93
        0
 40
1.125
309
GRIDFORMAT_END
309
TABLEFORMAT_END
  1
CELLSTYLE_BEGIN
 90
        1
 91
        1
300
_TITLE
309
CELLSTYLE_END
300
CELLSTYLE
  1
TABLEFORMAT_BEGIN
 90
        5
170
     1
 91
        0
 92
        0
 62
   257
 93
        1
300
CONTENTFORMAT
  1
CONTENTFORMAT_BEGIN
 90
        0
 91
        0
 92
      512
 93
        0
300

 40
0.0
140
1.0
 94
        5
 62
     0
340
21
144
4.5
309
CONTENTFORMAT_END
171
     1
301
MARGIN
  1
CELLMARGIN_BEGIN
 40
1.5
 40
1.5
 40
1.5
 40
1.5
 40
4.5
 40
4.5
309
CELLMARGIN_END
 94
        6
 95
        1
302
GRIDFORMAT
  1
GRIDFORMAT_BEGIN
 90
        0
 91
        1
 62
     0
 92
       -2
340
24
 93
        0
 40
1.125
309
GRIDFORMAT_END
 95
        2
302
GRIDFORMAT
  1
GRIDFORMAT_BEGIN
 90
        0
 91
        1
 62
     0
 92
       -2
340
24
 93
        0
 40
1.125
309
GRIDFORMAT_END
 95
        4
302
GRIDFORMAT
  1
GRIDFORMAT_BEGIN
 90
        0
 91
        1
 62
     0
 92
       -2
340
24
 93
        0
 40
1.125
309
GRIDFORMAT_END
 95
        8
302
GRIDFORMAT
  1
GRIDFORMAT_BEGIN
 90
        0
 91
        1
 62
     0
 92
       -2
340
24
 93
        0
 40
1.125
309
GRIDFORMAT_END
 95
       16
302
GRIDFORMAT
  1
GRIDFORMAT_BEGIN
 90
        0
 91
        1
 62
     0
 92
       -2
340
24
 93
        0
 40
1.125
309
GRIDFORMAT_END
 95
       32
302
GRIDFORMAT
  1
GRIDFORMAT_BEGIN
 90
        0
 91
        1
 62
     0
 92
       -2
340
24
 93
        0
 40
1.125
309
GRIDFORMAT_END
309
TABLEFORMAT_END
  1
CELLSTYLE_BEGIN
 90
        2
 91
        1
300
_HEADER
309
CELLSTYLE_END
300
CELLSTYLE
  1
TABLEFORMAT_BEGIN
 90
        5
170
     1
 91
        0
 92
        0
 62
   257
 93
        1
300
CONTENTFORMAT
  1
CONTENTFORMAT_BEGIN
 90
        0
 91
        0
 92
      512
 93
        0
300

 40
0.0
140
1.0
 94
        2
 62
     0
340
21
144
4.5
309
CONTENTFORMAT_END
171
     1
301
MARGIN
  1
CELLMARGIN_BEGIN
 40
1.5
 40
1.5
 40
1.5
 40
1.5
 40
4.5
 40
4.5
309
CELLMARGIN_END
 94
        6
 95
        1
302
GRIDFORMAT
  1
GRIDFORMAT_BEGIN
 90
        0
 91
        1
 62
     0
 92
       -2
340
24
 93
        0
 40
1.125
309
GRIDFORMAT_END
 95
        2
302
GRIDFORMAT
  1
GRIDFORMAT_BEGIN
 90
        0
 91
        1
 62
     0
 92
       -2
340
24
 93
        0
 40
1.125
309
GRIDFORMAT_END
 95
        4
302
GRIDFORMAT
  1
GRIDFORMAT_BEGIN
 90
        0
 91
        1
 62
     0
 92
       -2
340
24
 93
        0
 40
1.125
309
GRIDFORMAT_END
 95
        8
302
GRIDFORMAT
  1
GRIDFORMAT_BEGIN
 90
        0
 91
        1
 62
     0
 92
       -2
340
24
 93
        0
 40
1.125
309
GRIDFORMAT_END
 95
       16
302
GRIDFORMAT
  1
GRIDFORMAT_BEGIN
 90
        0
 91
        1
 62
     0
 92
       -2
340
24
 93
        0
 40
1.125
309
GRIDFORMAT_END
 95
       32
302
GRIDFORMAT
  1
GRIDFORMAT_BEGIN
 90
        0
 91
        1
 62
     0
 92
       -2
340
24
 93
        0
 40
1.125
309
GRIDFORMAT_END
309
TABLEFORMAT_END
  1
CELLSTYLE_BEGIN
 90
        3
 91
        2
300
_DATA
309
CELLSTYLE_END
  0
ENDSEC
  0
SECTION
  2
ACDSDATA
 70
     2
 71
     8
  0
ACDSSCHEMA
 90
        0
  1
AcDb_Thumbnail_Schema
  2
AcDbDs::ID
280
    10
 91
        8
  2
Thumbnail_Data
280
    15
 91
        0
101
ACDSRECORD
 95
        0
 90
        1
  2
AcDbDs::TreatedAsObjectData
280
     1
291
     1
101
ACDSRECORD
 95
        0
 90
        2
  2
AcDbDs::Legacy
280
     1
291
     1
101
ACDSRECORD
  1
AcDbDs::ID
 90
        3
  2
AcDs:Indexable
280
     1
291
     1
101
ACDSRECORD
  1
AcDbDs::ID
 90
        4
  2
AcDbDs::HandleAttribute
280
     7
282
     1
  0
ACDSSCHEMA
 90
        1
  1
AcDbDs::TreatedAsObjectDataSchema
  2
AcDbDs::TreatedAsObjectData
280
     1
 91
        0
  0
ACDSSCHEMA
 90
        2
  1
AcDbDs::LegacySchema
  2
AcDbDs::Legacy
280
     1
 91
        0
  0
ACDSSCHEMA
 90
        3
  1
AcDbDs::IndexedPropertySchema
  2
AcDs:Indexable
280
     1
 91
        0
  0
ACDSSCHEMA
 90
        4
  1
AcDbDs::HandleAttributeSchema
  2
AcDbDs::HandleAttribute
280
     7
 91
        1
284
     1
  0
ACDSRECORD
 90
        0
  2
AcDbDs::ID
280
    10
320
15
  2
Thumbnail_Data
280
    15
 94
      896
310
89504E470D0A1A0A0000000D49484452000001000000009108030000001BE1960600000300504C5445212830FFFFFF2128300000000000000000000000000000000000000000000000000000330000660000990000CC0000FF0033000033330033660033990033CC0033FF0066000066330066660066990066CC0066FF0099
310
000099330099660099990099CC0099FF00CC0000CC3300CC6600CC9900CCCC00CCFF00FF0000FF3300FF6600FF9900FFCC00FFFF3300003300333300663300993300CC3300FF3333003333333333663333993333CC3333FF3366003366333366663366993366CC3366FF3399003399333399663399993399CC3399FF33CC00
310
33CC3333CC6633CC9933CCCC33CCFF33FF0033FF3333FF6633FF9933FFCC33FFFF6600006600336600666600996600CC6600FF6633006633336633666633996633CC6633FF6666006666336666666666996666CC6666FF6699006699336699666699996699CC6699FF66CC0066CC3366CC6666CC9966CCCC66CCFF66FF0066
310
FF3366FF6666FF9966FFCC66FFFF9900009900339900669900999900CC9900FF9933009933339933669933999933CC9933FF9966009966339966669966999966CC9966FF9999009999339999669999999999CC9999FF99CC0099CC3399CC6699CC9999CCCC99CCFF99FF0099FF3399FF6699FF9999FFCC99FFFFCC0000CC00
310
33CC0066CC0099CC00CCCC00FFCC3300CC3333CC3366CC3399CC33CCCC33FFCC6600CC6633CC6666CC6699CC66CCCC66FFCC9900CC9933CC9966CC9999CC99CCCC99FFCCCC00CCCC33CCCC66CCCC99CCCCCCCCCCFFCCFF00CCFF33CCFF66CCFF99CCFFCCCCFFFFFF0000FF0033FF0066FF0099FF00CCFF00FFFF3300FF3333
310
FF3366FF3399FF33CCFF33FFFF6600FF6633FF6666FF6699FF66CCFF66FFFF9900FF9933FF9966FF9999FF99CCFF99FFFFCC00FFCC33FFCC66FFCC99FFCCCCFFCCFFFFFF00FFFF33FFFF66FFFF99FFFFCCFFFFFF0000000D0D0D1A1A1A2828283535354343435050505D5D5D6B6B6B787878868686939393A1A1A1AEAEAEBB
310
BBBBC9C9C9D6D6D6E4E4E4F1F1F1FFFFFF0000000000000000000000000000000000000000000000000000000000002E4550F10000003B4944415478DAEDC13101000000C2A0F54F6D0B2FA0000000000000000000000000000000000000000000000000000000000000000000000000CE06919100016C9A5B1B0000000049
310
454E44AE426082
  0
ENDSEC
  0
EOF
