  0
SECTION
  2
HEADER
  9
$ACADVER
  1
AC1032
  9
$ACADMAINTVER
 90
      174
  9
$DWGCODEPAGE
  3
ANSI_932
  9
$REQUIREDVERSIONS
160
                 0
  9
$INSBASE
 10
0.0
 20
0.0
 30
0.0
  9
$EXTMIN
 10
9.683666222451492
 20
6.983797694095719
 30
0.0
  9
$EXTMAX
 10
59.67197328414165
 20
87.28504890285263
 30
0.0
  9
$LIMMIN
 10
0.0
 20
0.0
  9
$LIMMAX
 10
420.0
 20
297.0
  9
$ORTHOMODE
 70
     0
  9
$REGENMODE
 70
     1
  9
$FILLMODE
 70
     1
  9
$QTEXTMODE
 70
     0
  9
$MIRRTEXT
 70
     0
  9
$LTSCALE
 40
1.0
  9
$ATTMODE
 70
     1
  9
$TEXTSIZE
 40
2.5
  9
$TRACEWID
 40
1.0
  9
$TEXTSTYLE
  7
Standard
  9
$CLAYER
  8
0
  9
$CELTYPE
  6
ByLayer
  9
$CECOLOR
 62
   256
  9
$CELTSCALE
 40
1.0
  9
$DISPSILH
 70
     0
  9
$DIMSCALE
 40
1.0
  9
$DIMASZ
 40
2.5
  9
$DIMEXO
 40
0.625
  9
$DIMDLI
 40
3.75
  9
$DIMRND
 40
0.0
  9
$DIMDLE
 40
0.0
  9
$DIMEXE
 40
1.25
  9
$DIMTP
 40
0.0
  9
$DIMTM
 40
0.0
  9
$DIMTXT
 40
2.5
  9
$DIMCEN
 40
2.5
  9
$DIMTSZ
 40
0.0
  9
$DIMTOL
 70
     0
  9
$DIMLIM
 70
     0
  9
$DIMTIH
 70
     0
  9
$DIMTOH
 70
     0
  9
$DIMSE1
 70
     0
  9
$DIMSE2
 70
     0
  9
$DIMTAD
 70
     1
  9
$DIMZIN
 70
     8
  9
$DIMBLK
  1

  9
$DIMASO
 70
     1
  9
$DIMSHO
 70
     1
  9
$DIMPOST
  1

  9
$DIMAPOST
  1

  9
$DIMALT
 70
     0
  9
$DIMALTD
 70
     3
  9
$DIMALTF
 40
0.03937007874016
  9
$DIMLFAC
 40
1.0
  9
$DIMTOFL
 70
     1
  9
$DIMTVP
 40
0.0
  9
$DIMTIX
 70
     0
  9
$DIMSOXD
 70
     0
  9
$DIMSAH
 70
     0
  9
$DIMBLK1
  1

  9
$DIMBLK2
  1

  9
$DIMSTYLE
  2
ISO-25
  9
$DIMCLRD
 70
     0
  9
$DIMCLRE
 70
     0
  9
$DIMCLRT
 70
     0
  9
$DIMTFAC
 40
1.0
  9
$DIMGAP
 40
0.625
  9
$DIMJUST
 70
     0
  9
$DIMSD1
 70
     0
  9
$DIMSD2
 70
     0
  9
$DIMTOLJ
 70
     0
  9
$DIMTZIN
 70
     8
  9
$DIMALTZ
 70
     0
  9
$DIMALTTZ
 70
     0
  9
$DIMUPT
 70
     0
  9
$DIMDEC
 70
     2
  9
$DIMTDEC
 70
     2
  9
$DIMALTU
 70
     2
  9
$DIMALTTD
 70
     3
  9
$DIMTXSTY
  7
Standard
  9
$DIMAUNIT
 70
     0
  9
$DIMADEC
 70
     0
  9
$DIMALTRND
 40
0.0
  9
$DIMAZIN
 70
     0
  9
$DIMDSEP
 70
    44
  9
$DIMATFIT
 70
     3
  9
$DIMFRAC
 70
     0
  9
$DIMLDRBLK
  1

  9
$DIMLUNIT
 70
     2
  9
$DIMLWD
 70
    -2
  9
$DIMLWE
 70
    -2
  9
$DIMTMOVE
 70
     0
  9
$DIMFXL
 40
1.0
  9
$DIMFXLON
 70
     0
  9
$DIMJOGANG
 40
0.7853981633974483
  9
$DIMTFILL
 70
     0
  9
$DIMTFILLCLR
 70
     0
  9
$DIMARCSYM
 70
     0
  9
$DIMLTYPE
  6

  9
$DIMLTEX1
  6

  9
$DIMLTEX2
  6

  9
$DIMTXTDIRECTION
 70
     0
  9
$LUNITS
 70
     2
  9
$LUPREC
 70
     4
  9
$SKETCHINC
 40
1.0
  9
$FILLETRAD
 40
0.0
  9
$AUNITS
 70
     0
  9
$AUPREC
 70
     0
  9
$MENU
  1
.
  9
$ELEVATION
 40
0.0
  9
$PELEVATION
 40
0.0
  9
$THICKNESS
 40
0.0
  9
$LIMCHECK
 70
     0
  9
$CHAMFERA
 40
0.0
  9
$CHAMFERB
 40
0.0
  9
$CHAMFERC
 40
0.0
  9
$CHAMFERD
 40
0.0
  9
$SKPOLY
 70
     0
  9
$TDCREATE
 40
2459439.465497685
  9
$TDUCREATE
 40
2459439.132164352
  9
$TDUPDATE
 40
2459439.465497685
  9
$TDUUPDATE
 40
2459439.132164352
  9
$TDINDWG
 40
0.0002083333
  9
$TDUSRTIMER
 40
0.0002083333
  9
$USRTIMER
 70
     1
  9
$ANGBASE
 50
0.0
  9
$ANGDIR
 70
     0
  9
$PDMODE
 70
     0
  9
$PDSIZE
 40
0.0
  9
$PLINEWID
 40
0.0
  9
$SPLFRAME
 70
     0
  9
$SPLINETYPE
 70
     6
  9
$SPLINESEGS
 70
     8
  9
$HANDSEED
  5
1FB
  9
$SURFTAB1
 70
     6
  9
$SURFTAB2
 70
     6
  9
$SURFTYPE
 70
     6
  9
$SURFU
 70
     6
  9
$SURFV
 70
     6
  9
$UCSBASE
  2

  9
$UCSNAME
  2

  9
$UCSORG
 10
0.0
 20
0.0
 30
0.0
  9
$UCSXDIR
 10
1.0
 20
0.0
 30
0.0
  9
$UCSYDIR
 10
0.0
 20
1.0
 30
0.0
  9
$UCSORTHOREF
  2

  9
$UCSORTHOVIEW
 70
     0
  9
$UCSORGTOP
 10
0.0
 20
0.0
 30
0.0
  9
$UCSORGBOTTOM
 10
0.0
 20
0.0
 30
0.0
  9
$UCSORGLEFT
 10
0.0
 20
0.0
 30
0.0
  9
$UCSORGRIGHT
 10
0.0
 20
0.0
 30
0.0
  9
$UCSORGFRONT
 10
0.0
 20
0.0
 30
0.0
  9
$UCSORGBACK
 10
0.0
 20
0.0
 30
0.0
  9
$PUCSBASE
  2

  9
$PUCSNAME
  2

  9
$PUCSORG
 10
0.0
 20
0.0
 30
0.0
  9
$PUCSXDIR
 10
1.0
 20
0.0
 30
0.0
  9
$PUCSYDIR
 10
0.0
 20
1.0
 30
0.0
  9
$PUCSORTHOREF
  2

  9
$PUCSORTHOVIEW
 70
     0
  9
$PUCSORGTOP
 10
0.0
 20
0.0
 30
0.0
  9
$PUCSORGBOTTOM
 10
0.0
 20
0.0
 30
0.0
  9
$PUCSORGLEFT
 10
0.0
 20
0.0
 30
0.0
  9
$PUCSORGRIGHT
 10
0.0
 20
0.0
 30
0.0
  9
$PUCSORGFRONT
 10
0.0
 20
0.0
 30
0.0
  9
$PUCSORGBACK
 10
0.0
 20
0.0
 30
0.0
  9
$USERI1
 70
     0
  9
$USERI2
 70
     0
  9
$USERI3
 70
     0
  9
$USERI4
 70
     0
  9
$USERI5
 70
     0
  9
$USERR1
 40
0.0
  9
$USERR2
 40
0.0
  9
$USERR3
 40
0.0
  9
$USERR4
 40
0.0
  9
$USERR5
 40
0.0
  9
$WORLDVIEW
 70
     1
  9
$SHADEDGE
 70
     3
  9
$SHADEDIF
 70
    70
  9
$TILEMODE
 70
     1
  9
$MAXACTVP
 70
    64
  9
$PINSBASE
 10
0.0
 20
0.0
 30
0.0
  9
$PLIMCHECK
 70
     0
  9
$PEXTMIN
 10
0.0
 20
0.0
 30
0.0
  9
$PEXTMAX
 10
0.0
 20
0.0
 30
0.0
  9
$PLIMMIN
 10
0.0
 20
0.0
  9
$PLIMMAX
 10
12.0
 20
9.0
  9
$UNITMODE
 70
     0
  9
$VISRETAIN
 70
     1
  9
$PLINEGEN
 70
     0
  9
$PSLTSCALE
 70
     1
  9
$TREEDEPTH
 70
  3020
  9
$CMLSTYLE
  2
Standard
  9
$CMLJUST
 70
     0
  9
$CMLSCALE
 40
20.0
  9
$PROXYGRAPHICS
 70
     1
  9
$MEASUREMENT
 70
     1
  9
$CELWEIGHT
370
    -1
  9
$ENDCAPS
280
     0
  9
$JOINSTYLE
280
     0
  9
$LWDISPLAY
290
     0
  9
$INSUNITS
 70
     4
  9
$HYPERLINKBASE
  1

  9
$STYLESHEET
  1

  9
$XEDIT
290
     1
  9
$CEPSNTYPE
380
     0
  9
$PSTYLEMODE
290
     1
  9
$FINGERPRINTGUID
  2
{14C787D3-2A5C-EF4C-B080-DBF85E9983D3}
  9
$VERSIONGUID
  2
{E5D70F45-A165-BD4B-BD24-66D6BA607F7A}
  9
$EXTNAMES
290
     1
  9
$PSVPSCALE
 40
0.0
  9
$OLESTARTUP
290
     0
  9
$SORTENTS
280
   127
  9
$INDEXCTL
280
     0
  9
$HIDETEXT
280
     1
  9
$XCLIPFRAME
280
     2
  9
$HALOGAP
280
     0
  9
$OBSCOLOR
 70
   257
  9
$OBSLTYPE
280
     0
  9
$INTERSECTIONDISPLAY
280
     0
  9
$INTERSECTIONCOLOR
 70
   257
  9
$DIMASSOC
280
     2
  9
$PROJECTNAME
  1

  9
$CAMERADISPLAY
290
     0
  9
$LENSLENGTH
 40
50.0
  9
$CAMERAHEIGHT
 40
0.0
  9
$STEPSPERSEC
 40
2.0
  9
$STEPSIZE
 40
6.0
  9
$3DDWFPREC
 40
2.0
  9
$PSOLWIDTH
 40
5.0
  9
$PSOLHEIGHT
 40
80.0
  9
$LOFTANG1
 40
1.570796326794896
  9
$LOFTANG2
 40
1.570796326794896
  9
$LOFTMAG1
 40
0.0
  9
$LOFTMAG2
 40
0.0
  9
$LOFTPARAM
 70
     7
  9
$LOFTNORMALS
280
     1
  9
$LATITUDE
 40
37.795
  9
$LONGITUDE
 40
-122.394
  9
$NORTHDIRECTION
 40
0.0
  9
$TIMEZONE
 70
 -8000
  9
$LIGHTGLYPHDISPLAY
280
     1
  9
$TILEMODELIGHTSYNCH
280
     1
  9
$CMATERIAL
347
38
  9
$SOLIDHIST
280
     0
  9
$SHOWHIST
280
     1
  9
$DWFFRAME
280
     2
  9
$DGNFRAME
280
     0
  9
$REALWORLDSCALE
290
     1
  9
$INTERFERECOLOR
 62
     1
  9
$INTERFEREOBJVS
345
51
  9
$INTERFEREVPVS
346
52
  9
$CSHADOW
280
     0
  9
$SHADOWPLANELOCATION
 40
0.0
  0
ENDSEC
  0
SECTION
  2
CLASSES
  0
CLASS
  1
ACDBDICTIONARYWDFLT
  2
AcDbDictionaryWithDefault
  3
ObjectDBX Classes
 90
        0
 91
        1
280
     0
281
     0
  0
CLASS
  1
DICTIONARYVAR
  2
AcDbDictionaryVar
  3
ObjectDBX Classes
 90
        0
 91
       11
280
     0
281
     0
  0
CLASS
  1
TABLESTYLE
  2
AcDbTableStyle
  3
ObjectDBX Classes
 90
     4095
 91
        1
280
     0
281
     0
  0
CLASS
  1
MATERIAL
  2
AcDbMaterial
  3
ObjectDBX Classes
 90
     1153
 91
        3
280
     0
281
     0
  0
CLASS
  1
VISUALSTYLE
  2
AcDbVisualStyle
  3
ObjectDBX Classes
 90
     4095
 91
        3
280
     0
281
     0
  0
CLASS
  1
SCALE
  2
AcDbScale
  3
ObjectDBX Classes
 90
     1153
 91
       17
280
     0
281
     0
  0
CLASS
  1
MLEADERSTYLE
  2
AcDbMLeaderStyle
  3
ACDB_MLEADERSTYLE_CLASS
 90
     4095
 91
        0
280
     0
281
     0
  0
CLASS
  1
CELLSTYLEMAP
  2
AcDbCellStyleMap
  3
ObjectDBX Classes
 90
     1152
 91
        1
280
     0
281
     0
  0
CLASS
  1
EXACXREFPANELOBJECT
  2
ExAcXREFPanelObject
  3
EXAC_ESW
 90
     1025
 91
        0
280
     1
281
     0
  0
CLASS
  1
NPOCOLLECTION
  2
AcDbImpNonPersistentObjectsCollection
  3
ObjectDBX Classes
 90
     1153
 91
        0
280
     0
281
     0
  0
CLASS
  1
LAYER_INDEX
  2
AcDbLayerIndex
  3
ObjectDBX Classes
 90
        0
 91
        0
280
     0
281
     0
  0
CLASS
  1
SPATIAL_INDEX
  2
AcDbSpatialIndex
  3
ObjectDBX Classes
 90
        0
 91
        0
280
     0
281
     0
  0
CLASS
  1
IDBUFFER
  2
AcDbIdBuffer
  3
ObjectDBX Classes
 90
        0
 91
        0
280
     0
281
     0
  0
CLASS
  1
ACDBSECTIONVIEWSTYLE
  2
AcDbSectionViewStyle
  3
ObjectDBX Classes
 90
     1025
 91
        0
280
     0
281
     0
  0
CLASS
  1
ACDBDETAILVIEWSTYLE
  2
AcDbDetailViewStyle
  3
ObjectDBX Classes
 90
     1025
 91
        0
280
     0
281
     0
  0
CLASS
  1
SORTENTSTABLE
  2
AcDbSortentsTable
  3
ObjectDBX Classes
 90
        0
 91
        0
280
     0
281
     0
  0
ENDSEC
  0
SECTION
  2
TABLES
  0
TABLE
  2
VPORT
  5
28
330
0
100
AcDbSymbolTable
 70
     1
  0
VPORT
  5
29
330
28
100
AcDbSymbolTableRecord
100
AcDbViewportTableRecord
  2
*Active
 70
     0
 10
0.0
 20
0.0
 11
1.0
 21
1.0
 12
93.60971869792056
 22
52.61963032229505
 13
0.0
 23
0.0
 14
10.0
 24
10.0
 15
10.0
 25
10.0
 16
0.0
 26
0.0
 36
1.0
 17
0.0
 27
0.0
 37
0.0
 40
160.9113440825076
 41
1.845624385447394
 42
50.0
 43
0.0
 44
0.0
 50
0.0
 51
0.0
 71
     0
 72
  1000
 73
     1
 74
     3
 75
     0
 76
     1
 77
     0
 78
     0
281
     0
 65
     1
110
0.0
120
0.0
130
0.0
111
1.0
121
0.0
131
0.0
112
0.0
122
1.0
132
0.0
 79
     0
146
0.0
348
2A
 60
     3
 61
     5
292
     1
282
     1
141
0.0
142
0.0
 63
   250
421
  3355443
1001
ACAD_NAV_VCDISPLAY
1070
     3
  0
ENDTAB
  0
TABLE
  2
LTYPE
  5
23
330
0
100
AcDbSymbolTable
 70
     1
  0
LTYPE
  5
24
330
23
100
AcDbSymbolTableRecord
100
AcDbLinetypeTableRecord
  2
ByBlock
 70
     0
  3

 72
    65
 73
     0
 40
0.0
  0
LTYPE
  5
25
330
23
100
AcDbSymbolTableRecord
100
AcDbLinetypeTableRecord
  2
ByLayer
 70
     0
  3

 72
    65
 73
     0
 40
0.0
  0
LTYPE
  5
13
330
23
100
AcDbSymbolTableRecord
100
AcDbLinetypeTableRecord
  2
Continuous
 70
     0
  3
Solid line
 72
    65
 73
     0
 40
0.0
  0
ENDTAB
  0
TABLE
  2
LAYER
  5
1D
102
{ACAD_XDICTIONARY
360
1E
102
}
330
0
100
AcDbSymbolTable
 70
     1
  0
LAYER
  5
5
102
{ACAD_XDICTIONARY
360
6
102
}
330
1D
100
AcDbSymbolTableRecord
100
AcDbLayerTableRecord
  2
0
 70
     0
 62
     7
  6
Continuous
370
    -3
390
7
347
A
348
0
  0
ENDTAB
  0
TABLE
  2
STYLE
  5
20
330
0
100
AcDbSymbolTable
 70
     1
  0
STYLE
  5
21
330
20
100
AcDbSymbolTableRecord
100
AcDbTextStyleTableRecord
  2
Standard
 70
     0
 40
0.0
 41
1.0
 50
0.0
 71
     0
 42
2.5
  3
arial.ttf
  4

1001
ACAD
1000
Arial
1071
       34
  0
ENDTAB
  0
TABLE
  2
VIEW
  5
26
330
0
100
AcDbSymbolTable
 70
     0
  0
ENDTAB
  0
TABLE
  2
UCS
  5
27
330
0
100
AcDbSymbolTable
 70
     0
  0
ENDTAB
  0
TABLE
  2
APPID
  5
2D
330
0
100
AcDbSymbolTable
 70
     6
  0
APPID
  5
12
330
2D
100
AcDbSymbolTableRecord
100
AcDbRegAppTableRecord
  2
ACAD
 70
     0
  0
APPID
  5
18
330
2D
100
AcDbSymbolTableRecord
100
AcDbRegAppTableRecord
  2
ACAD_PSEXT
 70
     0
  0
APPID
  5
31
330
2D
100
AcDbSymbolTableRecord
100
AcDbRegAppTableRecord
  2
AcadAnnotative
 70
     0
  0
APPID
  5
32
330
2D
100
AcDbSymbolTableRecord
100
AcDbRegAppTableRecord
  2
ACAD_DSTYLE_DIMJAG
 70
     0
  0
APPID
  5
33
330
2D
100
AcDbSymbolTableRecord
100
AcDbRegAppTableRecord
  2
ACAD_DSTYLE_DIMTALN
 70
     0
  0
APPID
  5
2C
330
2D
100
AcDbSymbolTableRecord
100
AcDbRegAppTableRecord
  2
ACAD_NAV_VCDISPLAY
 70
     0
  0
ENDTAB
  0
TABLE
  2
DIMSTYLE
  5
2E
330
0
100
AcDbSymbolTable
 70
     2
100
AcDbDimStyleTable
 71
     2
340
2F
340
30
  0
DIMSTYLE
105
30
330
2E
100
AcDbSymbolTableRecord
100
AcDbDimStyleTableRecord
  2
Annotative
 70
     0
 40
0.0
 41
2.5
 42
0.625
 43
3.75
 44
1.25
 73
     0
 74
     0
 77
     1
 78
     8
140
2.5
141
2.5
143
0.03937007874016
147
0.625
171
     3
172
     1
271
     2
272
     2
274
     3
278
    44
283
     0
284
     8
340
21
1001
AcadAnnotative
1000
AnnotativeData
1002
{
1070
     1
1070
     1
1002
}
1001
ACAD_DSTYLE_DIMJAG
1070
   388
1040
1.5
1001
ACAD_DSTYLE_DIMTALN
1070
   392
1070
     0
  0
DIMSTYLE
105
2F
330
2E
100
AcDbSymbolTableRecord
100
AcDbDimStyleTableRecord
  2
ISO-25
 70
     0
 41
2.5
 42
0.625
 43
3.75
 44
1.25
 73
     0
 74
     0
 77
     1
 78
     8
140
2.5
141
2.5
143
0.03937007874016
147
0.625
171
     3
172
     1
271
     2
272
     2
274
     3
278
    44
283
     0
284
     8
340
21
  0
ENDTAB
  0
TABLE
  2
BLOCK_RECORD
  5
1
330
0
100
AcDbSymbolTable
 70
     0
  0
BLOCK_RECORD
  5
2
102
{ACAD_XDICTIONARY
360
3
102
}
330
1
100
AcDbSymbolTableRecord
100
AcDbBlockTableRecord
  2
*Model_Space
340
15
 70
     0
280
     1
281
     0
  0
BLOCK_RECORD
  5
19
330
1
100
AcDbSymbolTableRecord
100
AcDbBlockTableRecord
  2
*Paper_Space
340
1C
 70
     0
280
     1
281
     0
  0
ENDTAB
  0
ENDSEC
  0
SECTION
  2
BLOCKS
  0
BLOCK
  5
4
330
2
100
AcDbEntity
  8
0
100
AcDbBlockBegin
  2
*Model_Space
 70
     0
 10
0.0
 20
0.0
 30
0.0
  3
*Model_Space
  1

  0
ENDBLK
  5
14
330
2
100
AcDbEntity
  8
0
100
AcDbBlockEnd
  0
BLOCK
  5
1A
330
19
100
AcDbEntity
 67
     1
  8
0
100
AcDbBlockBegin
  2
*Paper_Space
 70
     0
 10
0.0
 20
0.0
 30
0.0
  3
*Paper_Space
  1

  0
ENDBLK
  5
1B
330
19
100
AcDbEntity
 67
     1
  8
0
100
AcDbBlockEnd
  0
ENDSEC
  0
SECTION
  2
ENTITIES
  0
LINE
  5
64
330
2
100
AcDbEntity
  8
0
100
AcDbLine
 10
38.88264017249401
 20
80.61056640178655
 30
0.0
 11
21.21665272831652
 21
85.71029770498878
 31
0.0
  0
LINE
  5
65
330
2
100
AcDbEntity
  8
0
100
AcDbLine
 10
45.40822665376737
 20
82.38374841220887
 30
0.0
 11
28.43958052296017
 21
87.28217461784574
 31
0.0
  0
LINE
  5
66
330
2
100
AcDbEntity
  8
0
100
AcDbLine
 10
45.89313774283789
 20
23.62725298787226
 30
0.0
 11
45.89313774283789
 21
28.4497950837933
 31
0.0
  0
LINE
  5
67
330
2
100
AcDbEntity
  8
0
100
AcDbLine
 10
45.89313774283789
 20
54.07297343601548
 30
0.0
 11
45.89313774283789
 21
81.73905565985682
 31
0.0
  0
LINE
  5
68
330
2
100
AcDbEntity
  8
0
100
AcDbLine
 10
40.68550837671284
 20
18.89741974557574
 30
0.0
 11
45.71813731409327
 21
23.25580425322976
 31
0.0
  0
SPLINE
  5
69
330
2
100
AcDbEntity
  8
0
100
AcDbSpline
210
0.0
220
0.0
230
1.0
 70
     8
 71
     3
 72
    11
 73
     7
 74
     0
 42
0.000000001
 43
0.0000000001
 40
0.0
 40
0.0
 40
0.0
 40
0.0
 40
0.2503945800147576
 40
0.5005123086886889
 40
0.7503774560902386
 40
1.0
 40
1.0
 40
1.0
 40
1.0
 10
33.51435416663418
 20
75.09071813631989
 30
0.0
 10
33.50003545197416
 20
75.21948198924097
 30
0.0
 10
33.47141385428779
 20
75.47686732600552
 30
0.0
 10
33.2522542638859
 20
75.85391418434968
 30
0.0
 10
32.93940961906412
 20
76.16339636480931
 30
0.0
 10
32.69174463762386
 20
76.26326446955683
 30
0.0
 10
32.56797229291965
 20
76.31317426872944
 30
0.0
  0
LINE
  5
6A
330
2
100
AcDbEntity
  8
0
100
AcDbLine
 10
32.56044109369231
 20
76.31619118048753
 30
0.0
 11
16.26030242782235
 21
81.02163590371334
 31
0.0
  0
LINE
  5
6B
330
2
100
AcDbEntity
  8
0
100
AcDbLine
 10
33.51577933620587
 20
70.93504304629924
 30
0.0
 11
33.51577933620587
 21
75.0783678137639
 31
0.0
  0
LINE
  5
6C
330
2
100
AcDbEntity
  8
0
100
AcDbLine
 10
13.72285011243661
 20
77.4070575650219
 30
0.0
 11
12.0927223447967
 21
69.01432274066589
 31
0.0
  0
SPLINE
  5
6D
330
2
100
AcDbEntity
  8
0
100
AcDbSpline
210
0.0
220
0.0
230
1.0
 70
     8
 71
     3
 72
     9
 73
     5
 74
     0
 42
0.000000001
 43
0.0000000001
 40
0.0
 40
0.0
 40
0.0
 40
0.0
 40
0.4983554568841367
 40
1.0
 40
1.0
 40
1.0
 40
1.0
 10
33.75589935788082
 20
69.80794578532989
 30
0.0
 10
33.68576239503147
 20
69.95029160195723
 30
0.0
 10
33.54502557379181
 20
70.23592270052565
 30
0.0
 10
33.52464853094591
 20
70.70950571551119
 30
0.0
 10
33.51442649859734
 20
70.9470760506911
 30
0.0
  0
LINE
  5
6E
330
2
100
AcDbEntity
  8
0
100
AcDbLine
 10
34.85836226643233
 20
68.09298844159754
 30
0.0
 11
33.75014127253474
 21
69.8176686862442
 31
0.0
  0
SPLINE
  5
6F
330
2
100
AcDbEntity
  8
0
100
AcDbSpline
210
0.0
220
0.0
230
1.0
 70
     8
 71
     3
 72
     9
 73
     5
 74
     0
 42
0.000000001
 43
0.0000000001
 40
0.0
 40
0.0
 40
0.0
 40
0.0
 40
0.0248909676094014
 40
1.0
 40
1.0
 40
1.0
 40
1.0
 10
12.15891122189802
 20
69.26184771768582
 30
0.0
 10
12.15652911281901
 20
69.25581649209108
 30
0.0
 10
12.06082736604884
 20
69.01351070111186
 30
0.0
 10
12.04994477071591
 20
68.74103807685741
 30
0.0
 10
12.03933305371086
 20
68.47534755986767
 30
0.0
  0
SPLINE
  5
70
330
2
100
AcDbEntity
  8
0
100
AcDbSpline
210
0.0
220
0.0
230
1.0
 70
     8
 71
     3
 72
     9
 73
     5
 74
     0
 42
0.000000001
 43
0.0000000001
 40
0.0
 40
0.0
 40
0.0
 40
0.0
 40
0.2575386054034978
 40
1.0
 40
1.0
 40
1.0
 40
1.0
 10
14.36334111210576
 20
79.91609534573671
 30
0.0
 10
14.34345519581225
 20
79.88059652479201
 30
0.0
 10
14.26623991283634
 20
79.74275769131226
 30
0.0
 10
14.22495778145762
 20
79.59104641693663
 30
0.0
 10
14.19430739262233
 20
79.47840665258759
 30
0.0
  0
SPLINE
  5
71
330
2
100
AcDbEntity
  8
0
100
AcDbSpline
210
0.0
220
0.0
230
1.0
 70
     8
 71
     3
 72
    10
 73
     6
 74
     0
 42
0.000000001
 43
0.0000000001
 40
0.0
 40
0.0
 40
0.0
 40
0.0
 40
0.3217285098617106
 40
0.6857331467636706
 40
1.0
 40
1.0
 40
1.0
 40
1.0
 10
14.18968109923625
 20
79.46801885426741
 30
0.0
 10
14.14103535128115
 20
79.24379853187478
 30
0.0
 10
14.0373516527608
 20
78.76589463921487
 30
0.0
 10
13.86988964316424
 20
78.06385583966521
 30
0.0
 10
13.76943307616392
 20
77.61497545374921
 30
0.0
 10
13.72288804271176
 20
77.4069935049096
 30
0.0
  0
LINE
  5
72
330
2
100
AcDbEntity
  8
0
100
AcDbLine
 10
15.5055923423719
 20
80.9161878312358
 30
0.0
 11
14.67756047279107
 21
80.27576371140829
 31
0.0
  0
SPLINE
  5
73
330
2
100
AcDbEntity
  8
0
100
AcDbSpline
210
0.0
220
0.0
230
1.0
 70
     8
 71
     3
 72
     9
 73
     5
 74
     0
 42
0.000000001
 43
0.0000000001
 40
0.0
 40
0.0
 40
0.0
 40
0.0
 40
0.49830190249093
 40
1.0
 40
1.0
 40
1.0
 40
1.0
 10
35.11227758468829
 20
67.1695045050394
 30
0.0
 10
35.09195292223058
 20
67.35278558266081
 30
0.0
 10
35.05116507382747
 20
67.72059689685658
 30
0.0
 10
34.92647905007897
 20
67.96234133216917
 30
0.0
 10
34.86392430917835
 20
68.08362405544897
 30
0.0
  0
LINE
  5
74
330
2
100
AcDbEntity
  8
0
100
AcDbLine
 10
36.03470113983906
 20
52.34431308970663
 30
0.0
 11
35.11414082661293
 21
67.15712874742696
 31
0.0
  0
SPLINE
  5
75
330
2
100
AcDbEntity
  8
0
100
AcDbSpline
210
0.0
220
0.0
230
1.0
 70
     8
 71
     3
 72
    11
 73
     7
 74
     0
 42
0.000000001
 43
0.0000000001
 40
0.0
 40
0.0
 40
0.0
 40
0.0
 40
0.2673369188496107
 40
0.5388329203797355
 40
0.8127573775479557
 40
1.0
 40
1.0
 40
1.0
 40
1.0
 10
16.26782987756152
 20
81.01861920846404
 30
0.0
 10
16.19483259527007
 20
81.03602762064623
 30
0.0
 10
16.04770237859009
 20
81.07111527563857
 30
0.0
 10
15.83132327598545
 20
81.0577325948854
 30
0.0
 10
15.64859859331415
 20
81.0084675548088
 30
0.0
 10
15.5554928700958
 20
80.94330758197322
 30
0.0
 10
15.51769017222111
 20
80.91685139129557
 30
0.0
  0
LINE
  5
76
330
2
100
AcDbEntity
  8
0
100
AcDbLine
 10
12.0373521857955
 20
68.49021939233434
 30
0.0
 11
12.0373521857955
 21
19.11934527571196
 31
0.0
  0
LINE
  5
77
330
2
100
AcDbEntity
  8
0
100
AcDbLine
 10
36.09743614958211
 20
51.85605840102126
 30
0.0
 11
36.03291656074521
 21
52.35635757858357
 31
0.0
  0
LINE
  5
78
330
2
100
AcDbEntity
  8
0
100
AcDbLine
 10
35.1142196847
 20
19.3709106590558
 30
0.0
 11
35.96288291571045
 21
34.55786273189282
 31
0.0
  0
LINE
  5
79
330
2
100
AcDbEntity
  8
0
100
AcDbLine
 10
33.77530100950122
 20
14.36387916389658
 30
0.0
 11
34.88352088736287
 21
18.08784202638144
 31
0.0
  0
SPLINE
  5
7A
330
2
100
AcDbEntity
  8
0
100
AcDbSpline
210
0.0
220
0.0
230
1.0
 70
     8
 71
     3
 72
     9
 73
     5
 74
     0
 42
0.000000001
 43
0.0000000001
 40
0.0
 40
0.0
 40
0.0
 40
0.0
 40
0.4998259997249897
 40
1.0
 40
1.0
 40
1.0
 40
1.0
 10
34.88088033794003
 20
18.08727536837112
 30
0.0
 10
34.9395238819003
 20
18.30722736995236
 30
0.0
 10
35.05685180000052
 20
18.74728451324298
 30
0.0
 10
35.09436037833001
 20
19.17063536304922
 30
0.0
 10
35.11312119399753
 20
19.38238445111668
 30
0.0
  0
SPLINE
  5
7B
330
2
100
AcDbEntity
  8
0
100
AcDbSpline
210
0.0
220
0.0
230
1.0
 70
     8
 71
     3
 72
     9
 73
     5
 74
     0
 42
0.000000001
 43
0.0000000001
 40
0.0
 40
0.0
 40
0.0
 40
0.0
 40
0.4996158246649278
 40
1.0
 40
1.0
 40
1.0
 40
1.0
 10
33.5144266146105
 20
12.71942445344475
 30
0.0
 10
33.52610364922214
 20
12.98284433495102
 30
0.0
 10
33.54947567635833
 20
13.51008920691425
 30
0.0
 10
33.6982697509697
 20
14.07875784350667
 30
0.0
 10
33.77272395128881
 20
14.36331063026701
 30
0.0
  0
LINE
  5
7C
330
2
100
AcDbEntity
  8
0
100
AcDbLine
 10
12.2558171017705
 20
17.99034932563538
 30
0.0
 11
13.92268033572117
 21
13.3593123159774
 31
0.0
  0
SPLINE
  5
7D
330
2
100
AcDbEntity
  8
0
100
AcDbSpline
210
0.0
220
0.0
230
1.0
 70
     8
 71
     3
 72
    10
 73
     6
 74
     0
 42
0.000000001
 43
0.0000000001
 40
0.0
 40
0.0
 40
0.0
 40
0.0
 40
0.3273016625219444
 40
0.6219171657222243
 40
1.0
 40
1.0
 40
1.0
 40
1.0
 10
12.03904760060428
 20
19.13360132534914
 30
0.0
 10
12.04886418256154
 20
18.97336685329262
 30
0.0
 10
12.06751700815658
 20
18.66889981226206
 30
0.0
 10
12.18069119564964
 20
18.16493860009658
 30
0.0
 10
12.32892341996543
 20
17.83225013425174
 30
0.0
 10
12.4122357404785
 20
17.64526617563266
 30
0.0
  0
LINE
  5
7E
330
2
100
AcDbEntity
  8
0
100
AcDbLine
 10
33.51577933620587
 20
8.564067581131986
 30
0.0
 11
33.51577933620587
 21
12.70739234859666
 31
0.0
  0
SPLINE
  5
7F
330
2
100
AcDbEntity
  8
0
100
AcDbSpline
210
0.0
220
0.0
230
1.0
 70
     8
 71
     3
 72
    10
 73
     6
 74
     0
 42
0.000000001
 43
0.0000000001
 40
0.0
 40
0.0
 40
0.0
 40
0.0
 40
0.5253584181808378
 40
0.7854062478406533
 40
1.0
 40
1.0
 40
1.0
 40
1.0
 10
28.89112921284732
 20
7.377831507000784
 30
0.0
 10
29.31427453796118
 20
7.271764432737235
 30
0.0
 10
29.94687310417371
 20
7.113195082872771
 30
0.0
 10
30.81229580053304
 20
7.003291402470118
 30
0.0
 10
31.22861347710415
 20
6.989867069557639
 30
0.0
 10
31.41683797265569
 20
6.98379769409572
 30
0.0
  0
SPLINE
  5
80
330
2
100
AcDbEntity
  8
0
100
AcDbSpline
210
0.0
220
0.0
230
1.0
 70
     8
 71
     3
 72
    11
 73
     7
 74
     0
 42
0.000000001
 43
0.0000000001
 40
0.0
 40
0.0
 40
0.0
 40
0.0
 40
0.656585217169326
 40
0.8634890427025919
 40
0.9384281487514895
 40
1.0
 40
1.0
 40
1.0
 40
1.0
 10
31.40991310862791
 20
6.985598142771927
 30
0.0
 10
31.63690741376229
 20
7.003762779380899
 30
0.0
 10
31.93543240353361
 20
7.027651475419695
 30
0.0
 10
32.22005568665784
 20
7.091737621450626
 30
0.0
 10
32.30436248462573
 20
7.108186698998203
 30
0.0
 10
32.32374586557668
 20
7.111135947677659
 30
0.0
 10
32.33248853848897
 20
7.112466175701875
 30
0.0
  0
LINE
  5
81
330
2
100
AcDbEntity
  8
0
100
AcDbLine
 10
32.49966523302465
 20
7.212464022437565
 30
0.0
 11
33.29298797044027
 21
7.977540061084589
 31
0.0
  0
LINE
  5
82
330
2
100
AcDbEntity
  8
0
100
AcDbLine
 10
16.89851957068214
 20
10.83979913231827
 30
0.0
 11
28.89204961501028
 21
7.377565232522194
 31
0.0
  0
SPLINE
  5
83
330
2
100
AcDbEntity
  8
0
100
AcDbSpline
210
0.0
220
0.0
230
1.0
 70
     8
 71
     3
 72
    11
 73
     7
 74
     0
 42
0.000000001
 43
0.0000000001
 40
0.0
 40
0.0
 40
0.0
 40
0.0
 40
0.2632981402603175
 40
0.525721728919113
 40
0.7862113301625642
 40
1.0
 40
1.0
 40
1.0
 40
1.0
 10
33.25409251570341
 20
7.940834183036393
 30
0.0
 10
33.29413062943832
 20
7.981578574195985
 30
0.0
 10
33.37407386927492
 20
8.062932022963288
 30
0.0
 10
33.45574039974719
 20
8.218850630959245
 30
0.0
 10
33.50590487831181
 20
8.381026210892976
 30
0.0
 10
33.51014100371509
 20
8.494618146568434
 30
0.0
 10
33.51205050636463
 20
8.545821565137394
 30
0.0
  0
SPLINE
  5
84
330
2
100
AcDbEntity
  8
0
100
AcDbSpline
210
0.0
220
0.0
230
1.0
 70
     8
 71
     3
 72
    11
 73
     7
 74
     0
 42
0.000000001
 43
0.0000000001
 40
0.0
 40
0.0
 40
0.0
 40
0.0
 40
0.2259712481277693
 40
0.465866547622926
 40
0.7232874989045966
 40
1.0
 40
1.0
 40
1.0
 40
1.0
 10
14.63762833287759
 20
11.96415573219507
 30
0.0
 10
14.77451449725129
 20
11.85006158392887
 30
0.0
 10
15.05672157156917
 20
11.61484295590812
 30
0.0
 10
15.58841193997705
 20
11.32565936116935
 30
0.0
 10
16.19968531228855
 20
11.05708276646351
 30
0.0
 10
16.66027633065437
 20
10.91387833264895
 30
0.0
 10
16.89888953135698
 20
10.83969002470369
 30
0.0
  0
SPLINE
  5
85
330
2
100
AcDbEntity
  8
0
100
AcDbSpline
210
0.0
220
0.0
230
1.0
 70
     8
 71
     3
 72
     9
 73
     5
 74
     0
 42
0.000000001
 43
0.0000000001
 40
0.0
 40
0.0
 40
0.0
 40
0.0
 40
0.5173797327623401
 40
1.0
 40
1.0
 40
1.0
 40
1.0
 10
13.89156407121265
 20
13.44687566046649
 30
0.0
 10
13.96375006008947
 20
13.25509111463609
 30
0.0
 10
14.10327231870485
 20
12.88440681123978
 30
0.0
 10
14.19331473893302
 20
12.6625528746631
 30
0.0
 10
14.2367710358464
 20
12.55548166850463
 30
0.0
  0
LINE
  5
86
330
2
100
AcDbEntity
  8
0
100
AcDbLine
 10
11.84633039209194
 20
41.46224440019556
 30
0.0
 11
12.03735182304356
 21
41.40710126285342
 31
0.0
  0
LINE
  5
87
330
2
100
AcDbEntity
  8
0
100
AcDbLine
 10
45.48441635683917
 20
54.23505056600003
 30
0.0
 11
44.554627361803
 21
54.50345752934502
 31
0.0
  0
LINE
  5
88
330
2
100
AcDbEntity
  8
0
100
AcDbLine
 10
50.99705318500577
 20
17.91300562070265
 30
0.0
 11
59.45187027991505
 21
25.23509200927005
 31
0.0
  0
ARC
  5
89
330
2
100
AcDbEntity
  8
0
100
AcDbCircle
 10
34.65960286503332
 20
75.30063828316055
 30
0.0
 40
1.343122554620736
100
AcDbArc
 50
135.9789411467008
 51
166.2281334559995
  0
ARC
  5
8A
330
2
100
AcDbEntity
  8
0
100
AcDbCircle
 10
16.69591197459098
 20
80.62105121912161
 30
0.0
 40
0.9768814096111116
100
AcDbArc
 50
133.1512400743001
 51
153.5484636839
  0
LINE
  5
8B
330
2
100
AcDbEntity
  8
0
100
AcDbLine
 10
38.65931291634382
 20
80.53427854055975
 30
0.0
 11
33.69378434488516
 21
76.23400465446756
 31
0.0
  0
LINE
  5
8C
330
2
100
AcDbEntity
  8
0
100
AcDbLine
 10
20.99332547216627
 20
85.63400984376194
 30
0.0
 11
16.0277969007077
 21
81.33373595766974
 31
0.0
  0
LWPOLYLINE
  5
8D
330
2
100
AcDbEntity
  8
0
100
AcDbPolyline
 90
        9
 70
   128
 43
0.0
 10
39.06192311134032
 20
80.18560961563599
 10
39.0541869338511
 20
80.31495148075839
 10
39.03127636970157
 20
80.42592863149788
 10
38.99407032540125
 20
80.51426941883901
 10
38.94400064879647
 20
80.57657938408175
 10
38.88299113520844
 20
80.61046508756875
 10
38.81338453564763
 20
80.61462676315677
 10
38.73785756562876
 20
80.58890248148824
 10
38.65931291634382
 20
80.53427854055975
  0
ARC
  5
8E
330
2
100
AcDbEntity
  8
0
100
AcDbCircle
 10
21.17543732251056
 20
85.46592164365575
 30
0.0
 40
0.2478272967933796
100
AcDbArc
 50
80.42683279910033
 51
137.2931661228999
  0
LINE
  5
8F
330
2
100
AcDbEntity
  8
0
100
AcDbLine
 10
39.06192311134032
 20
13.70570425535658
 30
0.0
 11
39.06192311134032
 21
36.48295069167075
 31
0.0
  0
LINE
  5
90
330
2
100
AcDbEntity
  8
0
100
AcDbLine
 10
39.06192311134032
 20
51.50341090435479
 30
0.0
 11
39.06192311134032
 21
80.18560961563599
 31
0.0
  0
LWPOLYLINE
  5
91
330
2
100
AcDbEntity
  8
0
100
AcDbPolyline
 90
       13
 70
   128
 43
0.0
 10
34.74366976752913
 20
15.72710222655397
 10
35.10464057430545
 20
15.67042135188334
 10
35.44101151383979
 20
15.71264809993058
 10
35.72986003184315
 20
15.85090554884947
 10
35.95150086544407
 20
16.07577100331706
 10
36.09083040567907
 20
16.37192356689034
 10
36.1383532602847
 20
16.71917440841135
 10
36.09083040567907
 20
17.09386258266652
 10
35.95150086544407
 20
17.47045709384902
 10
35.72986003184315
 20
17.8232869433582
 10
35.44101151383979
 20
18.12831116177538
 10
35.10464057430545
 20
18.36474176230245
 10
34.96266517488363
 20
18.43594760329528
  0
LWPOLYLINE
  5
92
330
2
100
AcDbEntity
  8
0
100
AcDbPolyline
 90
        3
 70
   128
 43
0.0
 10
34.25022111802781
 20
15.95975805335705
 10
34.3826993936932
 20
15.87882781947758
 10
34.74366976752913
 20
15.72710222655397
  0
LWPOLYLINE
  5
93
330
2
100
AcDbEntity
  8
0
100
AcDbPolyline
 90
        7
 70
   128
 43
0.0
 10
35.48962674340663
 20
61.11514906266648
 10
35.61947691124522
 20
60.97994916633776
 10
35.74544726484873
 20
60.75505711475749
 10
35.78968217052494
 20
60.5199029269588
 10
35.74544726484873
 20
60.3102886399033
 10
35.61947691124522
 20
60.15812473982244
 10
35.55150114420826
 20
60.11951969813289
  0
ARC
  5
94
330
2
100
AcDbEntity
  8
0
100
AcDbCircle
 10
35.19382408489025
 20
58.23042945751531
 30
0.0
 40
0.5967459330879141
100
AcDbArc
 50
326.1717481442996
 51
40.94056950100099
  0
LWPOLYLINE
  5
95
330
2
100
AcDbEntity
  8
0
100
AcDbPolyline
 90
        9
 70
   128
 43
0.0
 10
35.20856426511432
 20
65.91771966483283
 10
35.43094850254147
 20
65.80928752649289
 10
35.61947691124522
 20
65.62889327617473
 10
35.74544726484873
 20
65.40400122459449
 10
35.78968217052494
 20
65.1688479028107
 10
35.74544726484873
 20
64.95923188372533
 10
35.61947691124522
 20
64.80706884979365
 10
35.43094850254147
 20
64.73552152688988
 10
35.26422646010377
 20
64.74208696654152
  0
LINE
  5
96
330
2
100
AcDbEntity
  8
0
100
AcDbLine
 10
35.20856426511432
 20
65.91771966483283
 30
0.0
 11
35.19084770190762
 21
65.92283399616015
 31
0.0
  0
LWPOLYLINE
  5
97
330
2
100
AcDbEntity
  8
0
100
AcDbPolyline
 90
        9
 70
   128
 43
0.0
 10
35.33887987215781
 20
63.54082863484769
 10
35.43094850254147
 20
63.48481590458188
 10
35.61947691124522
 20
63.30442165426372
 10
35.74544726484873
 20
63.07952960268345
 10
35.78968217052494
 20
62.8443745488698
 10
35.74544726484873
 20
62.63476026181426
 10
35.61947691124522
 20
62.48259722774843
 10
35.43094850254147
 20
62.41104990497887
 10
35.40922959546219
 20
62.40883000301007
  0
LWPOLYLINE
  5
98
330
2
100
AcDbEntity
  8
0
100
AcDbPolyline
 90
        9
 70
   128
 43
0.0
 10
35.20856426511432
 20
70.56666290878907
 10
35.43094850254147
 20
70.45823250234484
 10
35.61947691124522
 20
70.27783825202665
 10
35.74544726484873
 20
70.05294446855073
 10
35.78968217052494
 20
69.81779114663275
 10
35.74544726484873
 20
69.60817685957723
 10
35.61947691124522
 20
69.45601209361568
 10
35.43094850254147
 20
69.38446650274174
 10
35.20856426511432
 20
69.40442796371424
  0
LINE
  5
99
330
2
100
AcDbEntity
  8
0
100
AcDbLine
 10
35.20856426511432
 20
70.56666290878907
 30
0.0
 11
33.51577910725479
 21
71.05532789207511
 31
0.0
  0
LINE
  5
9A
330
2
100
AcDbEntity
  8
0
100
AcDbLine
 10
33.74912151466293
 20
69.82573279619463
 30
0.0
 11
35.20856426511432
 21
69.40442796371424
 31
0.0
  0
LINE
  5
9B
330
2
100
AcDbEntity
  8
0
100
AcDbLine
 10
35.20856426511432
 20
68.242191286878
 30
0.0
 11
34.66090126122782
 21
68.40028797821547
 31
0.0
  0
LINE
  5
9C
330
2
100
AcDbEntity
  8
0
100
AcDbLine
 10
35.11729965383092
 20
67.10630216572529
 30
0.0
 11
35.20856426511432
 21
67.07995634180322
 31
0.0
  0
LWPOLYLINE
  5
9D
330
2
100
AcDbEntity
  8
0
100
AcDbPolyline
 90
        9
 70
   128
 43
0.0
 10
35.20856426511432
 20
68.242191286878
 10
35.43094850254147
 20
68.13375914840394
 10
35.61947691124522
 20
67.95336662998143
 10
35.74544726484873
 20
67.72847284650554
 10
35.78968217052494
 20
67.49331952472171
 10
35.74544726484873
 20
67.28370523753203
 10
35.61947691124522
 20
67.13154047170466
 10
35.43094850254147
 20
67.05999314893514
 10
35.20856426511432
 20
67.07995634180322
  0
LWPOLYLINE
  5
9E
330
2
100
AcDbEntity
  8
0
100
AcDbPolyline
 90
        9
 70
   128
 43
0.0
 10
35.20856426511432
 20
75.21560788450675
 10
35.43094850254147
 20
75.10717574616688
 10
35.61947691124522
 20
74.92678149584872
 10
35.74544726484873
 20
74.70188944426844
 10
35.78968217052494
 20
74.46673612248464
 10
35.74544726484873
 20
74.25712010339926
 10
35.61947691124522
 20
74.10495706946758
 10
35.43094850254147
 20
74.03340974669801
 10
35.20856426511432
 20
74.0533712076705
  0
LINE
  5
9F
330
2
100
AcDbEntity
  8
0
100
AcDbLine
 10
35.20856426511432
 20
75.21560788450675
 30
0.0
 11
33.39052418525085
 21
75.74043084932388
 31
0.0
  0
LINE
  5
A0
330
2
100
AcDbEntity
  8
0
100
AcDbLine
 10
33.51577910725479
 20
74.54203619095652
 30
0.0
 11
35.20856426511432
 21
74.0533712076705
 31
0.0
  0
LINE
  5
A1
330
2
100
AcDbEntity
  8
0
100
AcDbLine
 10
35.20856426511432
 20
72.8911362625957
 30
0.0
 11
33.51577910725479
 21
73.37980124588175
 31
0.0
  0
LINE
  5
A2
330
2
100
AcDbEntity
  8
0
100
AcDbLine
 10
33.51577910725479
 20
72.21756456891132
 30
0.0
 11
35.20856426511432
 21
71.72889958575949
 31
0.0
  0
LWPOLYLINE
  5
A3
330
2
100
AcDbEntity
  8
0
100
AcDbPolyline
 90
        9
 70
   128
 43
0.0
 10
35.20856426511432
 20
72.8911362625957
 10
35.43094850254147
 20
72.78270412425586
 10
35.61947691124522
 20
72.6023098739377
 10
35.74544726484873
 20
72.37741782235743
 10
35.78968217052494
 20
72.14226276867801
 10
35.74544726484873
 20
71.9326484814883
 10
35.61947691124522
 20
71.78048544742238
 10
35.43094850254147
 20
71.70893812465279
 10
35.20856426511432
 20
71.72889958575949
  0
LWPOLYLINE
  5
A4
330
2
100
AcDbEntity
  8
0
100
AcDbPolyline
 90
        6
 70
   128
 43
0.0
 10
35.62076845085079
 20
28.43567212581339
 10
35.74544726484873
 20
28.21244661400303
 10
35.78968217052494
 20
27.97729329208504
 10
35.74544726484873
 20
27.76767900502954
 10
35.61947691124522
 20
27.61551423906797
 10
35.57336552797205
 20
27.58739053857537
  0
LWPOLYLINE
  5
A5
330
2
100
AcDbEntity
  8
0
100
AcDbPolyline
 90
        7
 70
   128
 43
0.0
 10
35.49811851871681
 20
26.24083042789338
 10
35.61947691124522
 20
26.11286877543371
 10
35.74544726484873
 20
25.8879749919578
 10
35.78968217052494
 20
25.65282167017401
 10
35.74544726484873
 20
25.44320738298431
 10
35.61947691124522
 20
25.29104261715698
 10
35.44112278635692
 20
25.22088616642821
  0
LWPOLYLINE
  5
A6
330
2
100
AcDbEntity
  8
0
100
AcDbPolyline
 90
        9
 70
   128
 43
0.0
 10
35.37322625210311
 20
24.00587135848853
 10
35.43094850254147
 20
23.96878967194524
 10
35.61947691124522
 20
23.78839542162704
 10
35.74544726484873
 20
23.56350337004678
 10
35.78968217052494
 20
23.32835004812879
 10
35.74544726484873
 20
23.11873402917762
 10
35.61947691124522
 20
22.96657099511172
 10
35.43094850254147
 20
22.89502367234217
 10
35.31112194601275
 20
22.89450102287347
  0
LINE
  5
A7
330
2
100
AcDbEntity
  8
0
100
AcDbLine
 10
35.18278846032194
 20
20.59795434532605
 30
0.0
 11
35.20856426511432
 21
20.59051351140364
 31
0.0
  0
LWPOLYLINE
  5
A8
330
2
100
AcDbEntity
  8
0
100
AcDbPolyline
 90
        9
 70
   128
 43
0.0
 10
35.24663545725133
 20
21.74051130591999
 10
35.43094850254147
 20
21.64431805003421
 10
35.61947691124522
 20
21.46392379971602
 10
35.74544726484873
 20
21.23903174813577
 10
35.78968217052494
 20
21.00387669432212
 10
35.74544726484873
 20
20.79426240726662
 10
35.61947691124522
 20
20.64209937320072
 10
35.43094850254147
 20
20.57055205043114
 10
35.20856426511432
 20
20.59051351140364
  0
LINE
  5
A9
330
2
100
AcDbEntity
  8
0
100
AcDbLine
 10
35.70806284160432
 20
57.92200823684
 30
0.0
 11
35.68865381186134
 21
57.91258979549839
 31
0.0
  0
ARC
  5
AA
330
2
100
AcDbEntity
  8
0
100
AcDbCircle
 10
33.51167172193169
 20
8.527508107761995
 30
0.0
 40
0.2478277131166307
100
AcDbArc
 50
260.4268543842994
 51
317.2933252461995
  0
LINE
  5
AB
330
2
100
AcDbEntity
  8
0
100
AcDbLine
 10
33.69378434488516
 20
8.359420131104577
 30
0.0
 11
38.65931291634382
 21
12.65969401719675
 31
0.0
  0
ARC
  5
AC
330
2
100
AcDbEntity
  8
0
100
AcDbCircle
 10
37.53542586517279
 20
13.69276667667744
 30
0.0
 40
1.526552070454996
100
AcDbArc
 50
317.4108981072001
 51
0.4855894185001323
  0
LINE
  5
AD
330
2
100
AcDbEntity
  8
0
100
AcDbLine
 10
45.22211944041191
 20
82.32017245231817
 30
0.0
 11
39.0619233844443
 21
76.98528617555602
 31
0.0
  0
LINE
  5
AE
330
2
100
AcDbEntity
  8
0
100
AcDbLine
 10
28.25347330960474
 20
87.21859865808928
 30
0.0
 11
25.18804222225282
 21
84.56385746287919
 31
0.0
  0
LINE
  5
AF
330
2
100
AcDbEntity
  8
0
100
AcDbLine
 10
43.46224866988523
 20
54.55586939518465
 30
0.0
 11
44.79671279138102
 21
55.71154922487996
 31
0.0
  0
LINE
  5
B0
330
2
100
AcDbEntity
  8
0
100
AcDbLine
 10
44.79671279138102
 20
54.54931319732004
 30
0.0
 11
44.69647944797327
 21
54.46250857578495
 31
0.0
  0
LWPOLYLINE
  5
B1
330
2
100
AcDbEntity
  8
0
100
AcDbPolyline
 90
        9
 70
   128
 43
0.0
 10
44.79671279138102
 20
54.54931319732004
 10
44.92510614067231
 20
54.70474000530673
 10
45.03395256831305
 20
54.92497434679195
 10
45.10668183584846
 20
55.17648793229755
 10
45.13222112046361
 20
55.42098983916715
 10
45.10668183584846
 20
55.62125662375617
 10
45.03395256831305
 20
55.74679920624764
 10
44.92510614067231
 20
55.77850622138
 10
44.79671279138102
 20
55.71154922487996
  0
LINE
  5
B2
330
2
100
AcDbEntity
  8
0
100
AcDbLine
 10
41.44162549981603
 20
55.13043045345439
 30
0.0
 11
44.79671279138102
 21
58.03602127973137
 31
0.0
  0
LWPOLYLINE
  5
B3
330
2
100
AcDbEntity
  8
0
100
AcDbPolyline
 90
        9
 70
   128
 43
0.0
 10
41.44162549981603
 20
55.13043045345439
 10
41.31323215039055
 20
54.97500364546768
 10
41.20438572288406
 20
54.75476908751225
 10
41.1316564553486
 20
54.50325571847686
 10
41.10611717059931
 20
54.25875381160726
 10
41.1316564553486
 20
54.05848724348842
 10
41.20438572288406
 20
53.93294422805659
 10
41.31323215039055
 20
53.90123764586464
 10
41.44162549981603
 20
53.96819464236468
  0
LINE
  5
B4
330
2
100
AcDbEntity
  8
0
100
AcDbLine
 10
44.79671279138102
 20
56.87378546877583
 30
0.0
 11
41.44162549981603
 21
53.96819464236468
 31
0.0
  0
LWPOLYLINE
  5
B5
330
2
100
AcDbEntity
  8
0
100
AcDbPolyline
 90
        9
 70
   128
 43
0.0
 10
44.79671279138102
 20
56.87378546877583
 10
44.92510614067231
 20
57.02921227676255
 10
45.03395256831305
 20
57.24944640177757
 10
45.10668183584846
 20
57.5009602037533
 10
45.13222112046361
 20
57.74546211048873
 10
45.10668183584846
 20
57.94572867860755
 10
45.03395256831305
 20
58.07127126109906
 10
44.92510614067231
 20
58.10297827623138
 10
44.79671279138102
 20
58.03602127973137
  0
LINE
  5
B6
330
2
100
AcDbEntity
  8
0
100
AcDbLine
 10
41.44162549981603
 20
57.45490294124611
 30
0.0
 11
44.79671279138102
 21
60.36049376765728
 31
0.0
  0
LWPOLYLINE
  5
B7
330
2
100
AcDbEntity
  8
0
100
AcDbPolyline
 90
        9
 70
   128
 43
0.0
 10
41.44162549981603
 20
57.45490294124611
 10
41.31323215039055
 20
57.29947570031909
 10
41.20438572288406
 20
57.07924114236364
 10
41.1316564553486
 20
56.82772734038794
 10
41.10611717059931
 20
56.58322586659285
 10
41.1316564553486
 20
56.38295886553366
 10
41.20438572288406
 20
56.25741671598253
 10
41.31323215039055
 20
56.2257097008502
 10
41.44162549981603
 20
56.29266626440987
  0
LINE
  5
B8
330
2
100
AcDbEntity
  8
0
100
AcDbLine
 10
44.79671279138102
 20
59.19825709068685
 30
0.0
 11
41.44162549981603
 21
56.29266626440987
 31
0.0
  0
LWPOLYLINE
  5
B9
330
2
100
AcDbEntity
  8
0
100
AcDbPolyline
 90
        9
 70
   128
 43
0.0
 10
44.79671279138102
 20
59.19825709068685
 10
44.92510614067231
 20
59.35368433161393
 10
45.03395256831305
 20
59.57391888956933
 10
45.10668183584846
 20
59.82543182566435
 10
45.13222112046361
 20
60.06993416547432
 10
45.10668183584846
 20
60.27020030065277
 10
45.03395256831305
 20
60.39574331608465
 10
44.92510614067231
 20
60.42745033121697
 10
44.79671279138102
 20
60.36049376765728
  0
LINE
  5
BA
330
2
100
AcDbEntity
  8
0
100
AcDbLine
 10
41.44162549981603
 20
59.77937456329134
 30
0.0
 11
44.79671279138102
 21
62.68496538956835
 31
0.0
  0
LWPOLYLINE
  5
BB
330
2
100
AcDbEntity
  8
0
100
AcDbPolyline
 90
        9
 70
   128
 43
0.0
 10
41.44162549981603
 20
59.77937456329134
 10
41.31323215039055
 20
59.62394818824499
 10
41.20438572288406
 20
59.40371363028957
 10
41.1316564553486
 20
59.15219982831384
 10
41.10611717059931
 20
58.90769835451881
 10
41.1316564553486
 20
58.70743135332538
 10
41.20438572288406
 20
58.58188833789355
 10
41.31323215039055
 20
58.55018132276121
 10
41.44162549981603
 20
58.61713875233583
  0
LINE
  5
BC
330
2
100
AcDbEntity
  8
0
100
AcDbLine
 10
44.79671279138102
 20
61.52272957861278
 30
0.0
 11
41.44162549981603
 21
58.61713875233583
 31
0.0
  0
LWPOLYLINE
  5
BD
330
2
100
AcDbEntity
  8
0
100
AcDbPolyline
 90
        9
 70
   128
 43
0.0
 10
44.79671279138102
 20
61.52272957861278
 10
44.92510614067231
 20
61.67815595365913
 10
45.03395256831305
 20
61.89839051161458
 10
45.10668183584846
 20
62.14990431359028
 10
45.13222112046361
 20
62.39440665340028
 10
45.10668183584846
 20
62.59467278844453
 10
45.03395256831305
 20
62.72021580401061
 10
44.92510614067231
 20
62.75192281914293
 10
44.79671279138102
 20
62.68496538956835
  0
LINE
  5
BE
330
2
100
AcDbEntity
  8
0
100
AcDbLine
 10
41.44162549981603
 20
62.10384705108312
 30
0.0
 11
44.79671279138102
 21
65.00943787749425
 31
0.0
  0
LWPOLYLINE
  5
BF
330
2
100
AcDbEntity
  8
0
100
AcDbPolyline
 90
        9
 70
   128
 43
0.0
 10
41.44162549981603
 20
62.10384705108312
 10
41.31323215039055
 20
61.94841981015601
 10
41.20438572288406
 20
61.72818525233482
 10
41.1316564553486
 20
61.47667231623983
 10
41.10611717059931
 20
61.23216997642983
 10
41.1316564553486
 20
61.03190384125138
 10
41.20438572288406
 20
60.9063608258195
 10
41.31323215039055
 20
60.87465381068717
 10
41.44162549981603
 20
60.94161037424685
  0
LINE
  5
C0
330
2
100
AcDbEntity
  8
0
100
AcDbLine
 10
44.79671279138102
 20
63.84720120052382
 30
0.0
 11
41.44162549981603
 21
60.94161037424685
 31
0.0
  0
LWPOLYLINE
  5
C1
330
2
100
AcDbEntity
  8
0
100
AcDbPolyline
 90
        9
 70
   128
 43
0.0
 10
44.79671279138102
 20
63.84720120052382
 10
44.92510614067231
 20
64.00262844145088
 10
45.03395256831305
 20
64.2228629994063
 10
45.10668183584846
 20
64.47437680151627
 10
45.13222112046361
 20
64.7188782753113
 10
45.10668183584846
 20
64.91914527637049
 10
45.03395256831305
 20
65.04468742592163
 10
44.92510614067231
 20
65.07639444105397
 10
44.79671279138102
 20
65.00943787749425
  0
LINE
  5
C2
330
2
100
AcDbEntity
  8
0
100
AcDbLine
 10
41.44162549981603
 20
64.42831953900903
 30
0.0
 11
44.79671279138102
 21
67.33391036542023
 31
0.0
  0
LWPOLYLINE
  5
C3
330
2
100
AcDbEntity
  8
0
100
AcDbPolyline
 90
        9
 70
   128
 43
0.0
 10
41.44162549981603
 20
64.42831953900903
 10
41.31323215039055
 20
64.27289229808197
 10
41.20438572288406
 20
64.05265774012654
 10
41.1316564553486
 20
63.80114480403155
 10
41.10611717059931
 20
63.55664159834088
 10
41.1316564553486
 20
63.3563754632966
 10
41.20438572288406
 20
63.23083331374546
 10
41.31323215039055
 20
63.19912629861311
 10
41.44162549981603
 20
63.26608286217283
  0
LINE
  5
C4
330
2
100
AcDbEntity
  8
0
100
AcDbLine
 10
44.79671279138102
 20
66.17167368844976
 30
0.0
 11
41.44162549981603
 21
63.26608286217283
 31
0.0
  0
LWPOLYLINE
  5
C5
330
2
100
AcDbEntity
  8
0
100
AcDbPolyline
 90
        9
 70
   128
 43
0.0
 10
44.79671279138102
 20
66.17167368844976
 10
44.92510614067231
 20
66.32710092937684
 10
45.03395256831305
 20
66.54733548733229
 10
45.10668183584846
 20
66.79884842342726
 10
45.13222112046361
 20
67.04334989722231
 10
45.10668183584846
 20
67.24361776429642
 10
45.03395256831305
 20
67.36915991384755
 10
44.92510614067231
 20
67.40086692897991
 10
44.79671279138102
 20
67.33391036542023
  0
LINE
  5
C6
330
2
100
AcDbEntity
  8
0
100
AcDbLine
 10
41.44162549981603
 20
66.75279116105428
 30
0.0
 11
44.79671279138102
 21
69.65838198733125
 31
0.0
  0
LWPOLYLINE
  5
C7
330
2
100
AcDbEntity
  8
0
100
AcDbPolyline
 90
        9
 70
   128
 43
0.0
 10
41.44162549981603
 20
66.75279116105428
 10
41.31323215039055
 20
66.59736392012722
 10
41.20438572288406
 20
66.3771293621718
 10
41.1316564553486
 20
66.1256164260768
 10
41.10611717059931
 20
65.88111495214754
 10
41.1316564553486
 20
65.68084708520761
 10
41.20438572288406
 20
65.55530493565647
 10
41.31323215039055
 20
65.52359792052415
 10
41.44162549981603
 20
65.59055448408385
  0
LINE
  5
C8
330
2
100
AcDbEntity
  8
0
100
AcDbLine
 10
44.79671279138102
 20
68.49614531049501
 30
0.0
 11
41.44162549981603
 21
65.59055448408385
 31
0.0
  0
LWPOLYLINE
  5
C9
330
2
100
AcDbEntity
  8
0
100
AcDbPolyline
 90
        9
 70
   128
 43
0.0
 10
44.79671279138102
 20
68.49614531049501
 10
44.92510614067231
 20
68.65157255142209
 10
45.03395256831305
 20
68.87180710924328
 10
45.10668183584846
 20
69.12332004533833
 10
45.13222112046361
 20
69.36782325102901
 10
45.10668183584846
 20
69.56808938620746
 10
45.03395256831305
 20
69.6936315357586
 10
44.92510614067231
 20
69.72533855089093
 10
44.79671279138102
 20
69.65838198733125
  0
LINE
  5
CA
330
2
100
AcDbEntity
  8
0
100
AcDbLine
 10
41.44162549981603
 20
69.07726278296532
 30
0.0
 11
44.79671279138102
 21
71.98285360924227
 31
0.0
  0
LWPOLYLINE
  5
CB
330
2
100
AcDbEntity
  8
0
100
AcDbPolyline
 90
        9
 70
   128
 43
0.0
 10
41.44162549981603
 20
69.07726278296532
 10
41.31323215039055
 20
68.92183554203824
 10
41.20438572288406
 20
68.70160271597846
 10
41.1316564553486
 20
68.45008804798782
 10
41.10611717059931
 20
68.20558657419276
 10
41.1316564553486
 20
68.00532043901428
 10
41.20438572288406
 20
67.87977655756749
 10
41.31323215039055
 20
67.84806954243517
 10
41.44162549981603
 20
67.91502783789052
  0
LINE
  5
CC
330
2
100
AcDbEntity
  8
0
100
AcDbLine
 10
44.79671279138102
 20
70.8206186643017
 30
0.0
 11
41.44162549981603
 21
67.91502783789052
 31
0.0
  0
LWPOLYLINE
  5
CD
330
2
100
AcDbEntity
  8
0
100
AcDbPolyline
 90
        9
 70
   128
 43
0.0
 10
44.79671279138102
 20
70.8206186643017
 10
44.92510614067231
 20
70.97604417333311
 10
45.03395256831305
 20
71.19627873128853
 10
45.10668183584846
 20
71.44779339914499
 10
45.13222112046361
 20
71.69229487307426
 10
45.10668183584846
 20
71.89256100825265
 10
45.03395256831305
 20
72.01810488956526
 10
44.92510614067231
 20
72.049810172802
 10
44.79671279138102
 20
71.98285360924227
  0
LINE
  5
CE
330
2
100
AcDbEntity
  8
0
100
AcDbLine
 10
41.44162549981603
 20
71.40173440487633
 30
0.0
 11
44.79671279138102
 21
74.30732523128749
 31
0.0
  0
LWPOLYLINE
  5
CF
330
2
100
AcDbEntity
  8
0
100
AcDbPolyline
 90
        9
 70
   128
 43
0.0
 10
41.44162549981603
 20
71.40173440487633
 10
41.31323215039055
 20
71.24630889584493
 10
41.20438572288406
 20
71.02607433788951
 10
41.1316564553486
 20
70.77455966989884
 10
41.10611717059931
 20
70.53005819610378
 10
41.1316564553486
 20
70.32979206092533
 10
41.20438572288406
 20
70.20424817961274
 10
41.31323215039055
 20
70.17254289624183
 10
41.44162549981603
 20
70.23949945980156
  0
LINE
  5
D0
330
2
100
AcDbEntity
  8
0
100
AcDbLine
 10
44.79671279138102
 20
73.14509028621272
 30
0.0
 11
41.44162549981603
 21
70.23949945980156
 31
0.0
  0
LWPOLYLINE
  5
D1
330
2
100
AcDbEntity
  8
0
100
AcDbPolyline
 90
        9
 70
   128
 43
0.0
 10
44.79671279138102
 20
73.14509028621272
 10
44.92510614067231
 20
73.30051752713981
 10
45.03395256831305
 20
73.52075035319955
 10
45.10668183584846
 20
73.77226502119022
 10
45.13222112046361
 20
74.01676649498525
 10
45.10668183584846
 20
74.21703263016373
 10
45.03395256831305
 20
74.34257651161049
 10
44.92510614067231
 20
74.37428352674285
 10
44.79671279138102
 20
74.30732523128749
  0
LINE
  5
D2
330
2
100
AcDbEntity
  8
0
100
AcDbLine
 10
41.44162549981603
 20
73.72620775868303
 30
0.0
 11
44.79671279138102
 21
76.63179858509419
 31
0.0
  0
LWPOLYLINE
  5
D3
330
2
100
AcDbEntity
  8
0
100
AcDbPolyline
 90
        9
 70
   128
 43
0.0
 10
41.44162549981603
 20
73.72620775868303
 10
41.31323215039055
 20
73.57078051775594
 10
41.20438572288406
 20
73.35054595980053
 10
41.1316564553486
 20
73.09903302383971
 10
41.10611717059931
 20
72.85452981814903
 10
41.1316564553486
 20
72.65426368297053
 10
41.20438572288406
 20
72.52872153341941
 10
41.31323215039055
 20
72.49701451828709
 10
41.44162549981603
 20
72.56397108184676
  0
LINE
  5
D4
330
2
100
AcDbEntity
  8
0
100
AcDbLine
 10
44.79671279138102
 20
75.46956190812373
 30
0.0
 11
41.44162549981603
 21
72.56397108184676
 31
0.0
  0
LWPOLYLINE
  5
D5
330
2
100
AcDbEntity
  8
0
100
AcDbPolyline
 90
        9
 70
   128
 43
0.0
 10
44.79671279138102
 20
75.46956190812373
 10
44.92510614067231
 20
75.62498914905082
 10
45.03395256831305
 20
75.84522370700624
 10
45.10668183584846
 20
76.09673664310124
 10
45.13222112046361
 20
76.34123811689629
 10
45.10668183584846
 20
76.54150598397037
 10
45.03395256831305
 20
76.66704813352151
 10
44.92510614067231
 20
76.69875514865383
 10
44.79671279138102
 20
76.63179858509419
  0
LINE
  5
D6
330
2
100
AcDbEntity
  8
0
100
AcDbLine
 10
41.44162549981603
 20
76.05067938072822
 30
0.0
 11
44.79671279138102
 21
78.9562702070052
 31
0.0
  0
LWPOLYLINE
  5
D7
330
2
100
AcDbEntity
  8
0
100
AcDbPolyline
 90
        9
 70
   128
 43
0.0
 10
41.44162549981603
 20
76.05067938072822
 10
41.31323215039055
 20
75.89525213980117
 10
41.20438572288406
 20
75.67501758184575
 10
41.1316564553486
 20
75.42350464575072
 10
41.10611717059931
 20
75.17900317195567
 10
41.1316564553486
 20
74.97873530488156
 10
41.20438572288406
 20
74.85319315533046
 10
41.31323215039055
 20
74.82148614019807
 10
41.44162549981603
 20
74.8884427037578
  0
LINE
  5
D8
330
2
100
AcDbEntity
  8
0
100
AcDbLine
 10
44.79671279138102
 20
77.79403353016896
 30
0.0
 11
41.44162549981603
 21
74.8884427037578
 31
0.0
  0
LWPOLYLINE
  5
D9
330
2
100
AcDbEntity
  8
0
100
AcDbPolyline
 90
        9
 70
   128
 43
0.0
 10
44.79671279138102
 20
77.79403353016896
 10
44.92510614067231
 20
77.94946077109604
 10
45.03395256831305
 20
78.16969532905144
 10
45.10668183584846
 20
78.42120826501226
 10
45.13222112046361
 20
78.66571147083717
 10
45.10668183584846
 20
78.86597760588138
 10
45.03395256831305
 20
78.99151975543252
 10
44.92510614067231
 20
79.02322677056488
 10
44.79671279138102
 20
78.9562702070052
  0
LWPOLYLINE
  5
DA
330
2
100
AcDbEntity
  8
0
100
AcDbPolyline
 90
        7
 70
   128
 43
0.0
 10
41.14135542419506
 20
38.27721843228415
 10
41.1316564553486
 20
38.23195090104002
 10
41.10611717059931
 20
37.98744856123006
 10
41.1316564553486
 20
37.78718242605157
 10
41.20438572288406
 20
37.66163941061971
 10
41.31323215039055
 20
37.62993239548737
 10
41.44162549981603
 20
37.69688982492779
  0
LINE
  5
DB
330
2
100
AcDbEntity
  8
0
100
AcDbLine
 10
41.52573155778168
 20
37.76972780773338
 30
0.0
 11
41.44162549981603
 21
37.69688982492779
 31
0.0
  0
LINE
  5
DC
330
2
100
AcDbEntity
  8
0
100
AcDbLine
 10
41.44162549981603
 20
36.53465401397228
 30
0.0
 11
41.91314336866031
 21
36.94300046677407
 31
0.0
  0
LWPOLYLINE
  5
DD
330
2
100
AcDbEntity
  8
0
100
AcDbPolyline
 90
        9
 70
   128
 43
0.0
 10
41.44162549981603
 20
36.53465401397228
 10
41.31323215039055
 20
36.3792267730452
 10
41.20438572288406
 20
36.15899221508981
 10
41.1316564553486
 20
35.90747841311404
 10
41.10611717059931
 20
35.66297693931902
 10
41.1316564553486
 20
35.46270993825981
 10
41.20438572288406
 20
35.33716778870869
 10
41.31323215039055
 20
35.30546077357635
 10
41.44162549981603
 20
35.37241733713603
  0
LINE
  5
DE
330
2
100
AcDbEntity
  8
0
100
AcDbLine
 10
42.300555179539
 20
36.11627225979983
 30
0.0
 11
41.44162549981603
 21
35.37241733713603
 31
0.0
  0
LINE
  5
DF
330
2
100
AcDbEntity
  8
0
100
AcDbLine
 10
41.44162549981603
 20
34.2101815261805
 30
0.0
 11
42.68796799036755
 21
35.28954578472124
 31
0.0
  0
LWPOLYLINE
  5
E0
330
2
100
AcDbEntity
  8
0
100
AcDbPolyline
 90
        9
 70
   128
 43
0.0
 10
41.44162549981603
 20
34.2101815261805
 10
41.31323215039055
 20
34.05475428525346
 10
41.20438572288406
 20
33.83451972729807
 10
41.1316564553486
 20
33.58300679120303
 10
41.10611717059931
 20
33.33850531727379
 10
41.1316564553486
 20
33.13823745033385
 10
41.20438572288406
 20
33.01269530078272
 10
41.31323215039055
 20
32.98098828565039
 10
41.44162549981603
 20
33.04794484921012
  0
LINE
  5
E1
330
2
100
AcDbEntity
  8
0
100
AcDbLine
 10
43.07537980124624
 20
34.46281757774701
 30
0.0
 11
41.44162549981603
 21
33.04794484921012
 31
0.0
  0
LINE
  5
E2
330
2
100
AcDbEntity
  8
0
100
AcDbLine
 10
41.44162549981603
 20
31.88570990413531
 30
0.0
 11
43.46279161212487
 21
33.63609110266843
 31
0.0
  0
LWPOLYLINE
  5
E3
330
2
100
AcDbEntity
  8
0
100
AcDbPolyline
 90
        9
 70
   128
 43
0.0
 10
41.44162549981603
 20
31.88570990413531
 10
41.31323215039055
 20
31.73028266320824
 10
41.20438572288406
 20
31.51004810525281
 10
41.1316564553486
 20
31.25853516915781
 10
41.10611717059931
 20
31.01403196346711
 10
41.1316564553486
 20
30.81376582842287
 10
41.20438572288406
 20
30.68822367887172
 10
41.31323215039055
 20
30.65651666373938
 10
41.44162549981603
 20
30.72347322729906
  0
LINE
  5
E4
330
2
100
AcDbEntity
  8
0
100
AcDbLine
 10
43.85020342300356
 20
32.80936289569417
 30
0.0
 11
41.44162549981603
 21
30.72347322729906
 31
0.0
  0
LINE
  5
E5
330
2
100
AcDbEntity
  8
0
100
AcDbLine
 10
41.44162549981603
 20
29.56123655032864
 30
0.0
 11
44.23761523388219
 21
31.98263468871993
 31
0.0
  0
LWPOLYLINE
  5
E6
330
2
100
AcDbEntity
  8
0
100
AcDbPolyline
 90
        9
 70
   128
 43
0.0
 10
41.44162549981603
 20
29.56123655032864
 10
41.31323215039055
 20
29.40581104129719
 10
41.20438572288406
 20
29.18557648334179
 10
41.1316564553486
 20
28.93406181535111
 10
41.10611717059931
 20
28.68956034155608
 10
41.1316564553486
 20
28.48929420637762
 10
41.20438572288406
 20
28.36375032493084
 10
41.31323215039055
 20
28.33204504169414
 10
41.44162549981603
 20
28.39900160525384
  0
LINE
  5
E7
330
2
100
AcDbEntity
  8
0
100
AcDbLine
 10
44.62502804457665
 20
31.15590907952207
 30
0.0
 11
41.44162549981603
 21
28.39900160525384
 31
0.0
  0
LINE
  5
E8
330
2
100
AcDbEntity
  8
0
100
AcDbLine
 10
41.44162549981603
 20
27.23676492841761
 30
0.0
 11
44.79671279138102
 21
30.14235575469456
 31
0.0
  0
LWPOLYLINE
  5
E9
330
2
100
AcDbEntity
  8
0
100
AcDbPolyline
 90
        9
 70
   128
 43
0.0
 10
41.44162549981603
 20
27.23676492841761
 10
41.31323215039055
 20
27.08133768749054
 10
41.20438572288406
 20
26.86110486143077
 10
41.1316564553486
 20
26.60959019344011
 10
41.10611717059931
 20
26.36508871964507
 10
41.1316564553486
 20
26.1648225844666
 10
41.20438572288406
 20
26.0392787030198
 10
41.31323215039055
 20
26.00757168788747
 10
41.44162549981603
 20
26.07452998334281
  0
LINE
  5
EA
330
2
100
AcDbEntity
  8
0
100
AcDbLine
 10
44.79671279138102
 20
28.98012080961976
 30
0.0
 11
41.44162549981603
 21
26.07452998334281
 31
0.0
  0
LWPOLYLINE
  5
EB
330
2
100
AcDbEntity
  8
0
100
AcDbPolyline
 90
        9
 70
   128
 43
0.0
 10
44.79671279138102
 20
28.98012080961976
 10
44.92510614067231
 20
29.1355463187854
 10
45.03395256831305
 20
29.35578087674083
 10
45.10668183584846
 20
29.60729554459728
 10
45.13222112046361
 20
29.85179701852651
 10
45.10668183584846
 20
30.05206315357079
 10
45.03395256831305
 20
30.17760703501757
 10
44.92510614067231
 20
30.20931231825424
 10
44.79671279138102
 20
30.14235575469456
  0
LINE
  5
EC
330
2
100
AcDbEntity
  8
0
100
AcDbLine
 10
41.44162549981603
 20
24.91229330637239
 30
0.0
 11
44.79671279138102
 21
27.81788413278354
 31
0.0
  0
LWPOLYLINE
  5
ED
330
2
100
AcDbEntity
  8
0
100
AcDbPolyline
 90
        9
 70
   128
 43
0.0
 10
41.44162549981603
 20
24.91229330637239
 10
41.31323215039055
 20
24.75686606544531
 10
41.20438572288406
 20
24.53663150748989
 10
41.1316564553486
 20
24.28511857152908
 10
41.10611717059931
 20
24.04061709759983
 10
41.1316564553486
 20
23.84034923065993
 10
41.20438572288406
 20
23.71480708110881
 10
41.31323215039055
 20
23.68310006597644
 10
41.44162549981603
 20
23.75005662953614
  0
LINE
  5
EE
330
2
100
AcDbEntity
  8
0
100
AcDbLine
 10
44.79671279138102
 20
26.65564745581309
 30
0.0
 11
41.44162549981603
 21
23.75005662953614
 31
0.0
  0
LWPOLYLINE
  5
EF
330
2
100
AcDbEntity
  8
0
100
AcDbPolyline
 90
        9
 70
   128
 43
0.0
 10
44.79671279138102
 20
26.65564745581309
 10
44.92510614067231
 20
26.81107469674017
 10
45.03395256831305
 20
27.03130925469559
 10
45.10668183584846
 20
27.28282219079059
 10
45.13222112046361
 20
27.5273253964813
 10
45.10668183584846
 20
27.72759153165975
 10
45.03395256831305
 20
27.8531336812109
 10
44.92510614067231
 20
27.88484069634324
 10
44.79671279138102
 20
27.81788413278354
  0
LINE
  5
F0
330
2
100
AcDbEntity
  8
0
100
AcDbLine
 10
41.44162549981603
 20
22.58782168446137
 30
0.0
 11
44.79671279138102
 21
25.49341251087252
 31
0.0
  0
LWPOLYLINE
  5
F1
330
2
100
AcDbEntity
  8
0
100
AcDbPolyline
 90
        9
 70
   128
 43
0.0
 10
41.44162549981603
 20
22.58782168446137
 10
41.31323215039055
 20
22.43239444353429
 10
41.20438572288406
 20
22.21215988557888
 10
41.1316564553486
 20
21.96064694948385
 10
41.10611717059931
 20
21.71614374379315
 10
41.1316564553486
 20
21.51587760861469
 10
41.20438572288406
 20
21.39033545906354
 10
41.31323215039055
 20
21.35862844393122
 10
41.44162549981603
 20
21.42558500749092
  0
LINE
  5
F2
330
2
100
AcDbEntity
  8
0
100
AcDbLine
 10
44.79671279138102
 20
24.33117583390207
 30
0.0
 11
41.44162549981603
 21
21.42558500749092
 31
0.0
  0
LWPOLYLINE
  5
F3
330
2
100
AcDbEntity
  8
0
100
AcDbPolyline
 90
        9
 70
   128
 43
0.0
 10
44.79671279138102
 20
24.33117583390207
 10
44.92510614067231
 20
24.48660307482914
 10
45.03395256831305
 20
24.70683763278458
 10
45.10668183584846
 20
24.95835056887956
 10
45.13222112046361
 20
25.20285204267463
 10
45.10668183584846
 20
25.40311990974873
 10
45.03395256831305
 20
25.52866205916568
 10
44.92510614067231
 20
25.56036907443221
 10
44.79671279138102
 20
25.49341251087252
  0
LWPOLYLINE
  5
F4
330
2
100
AcDbEntity
  8
0
100
AcDbPolyline
 90
        4
 70
   128
 43
0.0
 10
40.09959118313321
 20
19.6822317240651
 10
40.1124848123265
 20
19.46665675344273
 10
40.15066975263192
 20
19.28169772181254
 10
40.21267815988244
 20
19.13446394216948
  0
LINE
  5
F5
330
2
100
AcDbEntity
  8
0
100
AcDbLine
 10
40.09959118313321
 20
75.469561042243
 30
0.0
 11
40.09959118313321
 21
52.40205721450367
 31
0.0
  0
LINE
  5
F6
330
2
100
AcDbEntity
  8
0
100
AcDbLine
 10
40.09959118313321
 20
37.38159743475995
 30
0.0
 11
40.09959118313321
 21
19.6822317240651
 31
0.0
  0
ARC
  5
F7
330
2
100
AcDbEntity
  8
0
100
AcDbCircle
 10
42.64375655258198
 20
75.4911262511997
 30
0.0
 40
2.544256764722856
100
AcDbArc
 50
137.4109042905002
 51
180.4856468388001
  0
LINE
  5
F8
330
2
100
AcDbEntity
  8
0
100
AcDbLine
 10
40.77060884151672
 20
77.2129160575645
 30
0.0
 11
45.80323777889714
 21
81.57130056521843
 31
0.0
  0
ARC
  5
F9
330
2
100
AcDbEntity
  8
0
100
AcDbCircle
 10
40.27519199078244
 20
77.1884204519168
 30
0.0
 40
0.4960220666740848
100
AcDbArc
 50
2.830652130700335
 51
72.79171983690083
  0
ARC
  5
FA
330
2
100
AcDbEntity
  8
0
100
AcDbCircle
 10
45.30782092829713
 20
81.54680495957078
 30
0.0
 40
0.4960220666741185
100
AcDbArc
 50
2.830652130700335
 51
72.79171983690083
  0
LINE
  5
FB
330
2
100
AcDbEntity
  8
0
100
AcDbLine
 10
40.42193818469735
 20
77.66223839708449
 30
0.0
 11
39.98818490569761
 21
77.78745218350959
 31
0.0
  0
LINE
  5
FC
330
2
100
AcDbEntity
  8
0
100
AcDbLine
 10
45.45456712221198
 20
82.02062290473849
 30
0.0
 11
45.02081384310156
 21
82.14583669112336
 31
0.0
  0
LWPOLYLINE
  5
FD
330
2
100
AcDbEntity
  8
0
100
AcDbPolyline
 90
        9
 70
   128
 43
0.0
 10
45.55762876957868
 20
82.02961458203088
 10
45.55118145500699
 20
82.13740250028243
 10
45.53208948482932
 20
82.22988244910494
 10
45.5010847812291
 20
82.3034971740234
 10
45.45936021729391
 20
82.3554245985219
 10
45.4085186227881
 20
82.38366181876861
 10
45.35051378978738
 20
82.38712988189279
 10
45.2875744813125
 20
82.36569110427081
 10
45.22211944041191
 20
82.32017245231817
  0
ARC
  5
FE
330
2
100
AcDbEntity
  8
0
100
AcDbCircle
 10
28.40524299708807
 20
87.07850584815837
 30
0.0
 40
0.2065430546942458
100
AcDbArc
 50
80.43021510500123
 51
137.2910760646996
  0
LWPOLYLINE
  5
FF
330
2
100
AcDbEntity
  8
0
100
AcDbPolyline
 90
        9
 70
   128
 43
0.0
 10
45.55762876957868
 20
82.02961458203088
 10
45.66455204553807
 20
81.99130377337437
 10
45.75447415533102
 20
81.9432999880559
 10
45.82393676947623
 20
81.88744671055703
 10
45.87027243061868
 20
81.8258913808965
 10
45.89170076654051
 20
81.76099873650326
 10
45.88739678952186
 20
81.69526297578434
 10
45.85752660935816
 20
81.63120970075622
 10
45.80323777889714
 20
81.57130056521843
  0
ARC
  5
100
330
2
100
AcDbEntity
  8
0
100
AcDbCircle
 10
45.67021751960743
 20
23.6387497021114
 30
0.0
 40
0.2232164876314314
100
AcDbArc
 50
306.5785930301
 51
357.0476876773001
  0
LINE
  5
101
330
2
100
AcDbEntity
  8
0
100
AcDbLine
 10
39.0619233844443
 20
17.71124855849665
 30
0.0
 11
40.39079510055472
 21
18.86208522300705
 31
0.0
  0
ARC
  5
102
330
2
100
AcDbEntity
  8
0
100
AcDbCircle
 10
45.54150643919666
 20
23.44922199377962
 30
0.0
 40
0.2619329843467208
100
AcDbArc
 50
312.4026180540993
 51
2.248349154699777
  0
LINE
  5
103
330
2
100
AcDbEntity
  8
0
100
AcDbLine
 10
40.42193818469735
 20
18.85309614362521
 30
0.0
 11
39.06192319924355
 21
19.24569865256531
 31
0.0
  0
SPLINE
  5
104
330
2
100
AcDbEntity
  8
0
100
AcDbSpline
210
0.0
220
0.0
230
1.0
 70
     8
 71
     3
 72
    48
 73
    44
 74
     0
 42
0.000000001
 43
0.0000000001
 40
0.0
 40
0.0
 40
0.0
 40
0.0
 40
0.0178532174570614
 40
0.035722940107517
 40
0.053599101738916
 40
0.0714715628581614
 40
0.08933013757705
 40
0.1071646207929057
 40
0.1249648154764086
 40
0.1427205598772671
 40
0.1604217544593393
 40
0.1780583883802004
 40
0.195620565335909
 40
0.2130985285996841
 40
0.2304826850932936
 40
0.2477636283418388
 40
0.2649321601762289
 40
0.2819793110625635
 40
0.2988963589536813
 40
0.3156748465749866
 40
0.3323065970740012
 40
0.3487837279806653
 40
0.3650986634428694
 40
0.3812441447188472
 40
0.3972132389246075
 40
0.4129993460502985
 40
0.4285962042741279
 40
0.44399789361601
 40
0.4591988379853927
 40
0.4741938056885527
 40
0.488977908470103
 40
0.5035465991713996
 40
0.5178956680949795
 40
0.5836777186267362
 40
0.6451474197722044
 40
0.7079290496029101
 40
0.7691060897012079
 40
0.8255270256842058
 40
0.8875895064812974
 40
0.916803899947358
 40
0.9452831265290079
 40
0.9730172221624144
 40
1.0
 40
1.0
 40
1.0
 40
1.0
 10
26.32030238783918
 20
67.3102147623908
 30
0.0
 10
26.34877048988042
 20
67.30170011838051
 30
0.0
 10
26.40573301255378
 20
67.28466295862189
 30
0.0
 10
26.49116120521194
 20
67.25627220799752
 30
0.0
 10
26.57651530908481
 20
67.22582345483623
 30
0.0
 10
26.66168848791085
 20
67.19315045423174
 30
0.0
 10
26.74657238227508
 20
67.15835269671682
 30
0.0
 10
26.83106004033098
 20
67.1214665556905
 30
0.0
 10
26.91504576398449
 20
67.08255311703827
 30
0.0
 10
26.99842576989292
 20
67.04167433650034
 30
0.0
 10
27.08109861496192
 20
66.99889903524591
 30
0.0
 10
27.16296566168291
 20
66.9543008697763
 30
0.0
 10
27.24393150431359
 20
66.90795840425106
 30
0.0
 10
27.32390437205217
 20
66.85995458463755
 30
0.0
 10
27.40279650044488
 20
66.81037634088527
 30
0.0
 10
27.4805244694733
 20
66.75931412915507
 30
0.0
 10
27.55700950546407
 20
66.70686147007909
 30
0.0
 10
27.63217774495771
 20
66.65311447414119
 30
0.0
 10
27.70596045908124
 20
66.59817136253757
 30
0.0
 10
27.77829423754224
 20
66.5421319871928
 30
0.0
 10
27.84912113188145
 20
66.48509735466659
 30
0.0
 10
27.9183887581429
 20
66.42716915812734
 30
0.0
 10
27.98605035958775
 20
66.36844932142226
 30
0.0
 10
28.05206483061068
 20
66.30903955873593
 30
0.0
 10
28.11639670313306
 20
66.24904095366504
 30
0.0
 10
28.17901609820993
 20
66.18855355856588
 30
0.0
 10
28.23989864187232
 20
66.1276760240667
 30
0.0
 10
28.29902535927346
 20
66.06650523355303
 30
0.0
 10
28.35638250724588
 20
66.00513604395989
 30
0.0
 10
28.411961503839
 20
65.94366076907009
 30
0.0
 10
28.46575838813143
 20
65.88216974087903
 30
0.0
 10
28.51777489485801
 20
65.82074807172718
 30
0.0
 10
28.62830516198085
 20
65.68596607230934
 30
0.0
 10
28.78440288361384
 20
65.4774938186285
 30
0.0
 10
28.97187619827088
 20
65.18601773381529
 30
0.0
 10
29.13246937330053
 20
64.89306858421237
 30
0.0
 10
29.26519047091719
 20
64.6025178560257
 30
0.0
 10
29.37344020457775
 20
64.31056710873118
 30
0.0
 10
29.44078239581876
 20
64.0703065699043
 30
0.0
 10
29.48092377161299
 20
63.87715095733374
 30
0.0
 10
29.50279675253901
 20
63.74048318311456
 30
0.0
 10
29.51813782372631
 20
63.6086503574386
 30
0.0
 10
29.52293409754739
 20
63.52346407711739
 30
0.0
 10
29.52529930562213
 20
63.48145578368066
 30
0.0
  0
LWPOLYLINE
  5
105
330
2
100
AcDbEntity
  8
0
100
AcDbPolyline
 90
        3
 70
   128
 43
0.0
 10
32.02940414253999
 20
71.52754096785442
 10
30.62710489104649
 20
67.02173249050101
 10
29.52529929411179
 20
63.48145539640474
  0
LINE
  5
106
330
2
100
AcDbEntity
  8
0
100
AcDbLine
 10
29.52529929411179
 20
63.48145539640474
 30
0.0
 11
29.52529929411179
 21
14.11593967540032
 31
0.0
  0
LINE
  5
107
330
2
100
AcDbEntity
  8
0
100
AcDbLine
 10
32.02940414253999
 20
45.92132278599676
 30
0.0
 11
32.02940414253999
 21
71.52754096785442
 31
0.0
  0
LINE
  5
108
330
2
100
AcDbEntity
  8
0
100
AcDbLine
 10
32.02940414253999
 20
34.98408853616105
 30
0.0
 11
32.02940414253999
 21
9.377870354303375
 31
0.0
  0
SPLINE
  5
109
330
2
100
AcDbEntity
  8
0
100
AcDbSpline
210
0.0
220
0.0
230
1.0
 70
     8
 71
     3
 72
    12
 73
     8
 74
     0
 42
0.000000001
 43
0.0000000001
 40
0.0
 40
0.0
 40
0.0
 40
0.0
 40
0.2500000000000009
 40
0.2500000000000009
 40
0.5000000000000006
 40
0.5000000000000006
 40
1.0
 40
1.0
 40
1.0
 40
1.0
 10
31.2892506121411
 20
75.74394314597388
 30
0.0
 10
31.13429554185362
 20
75.7514037155451
 30
0.0
 10
30.9703300129934
 20
75.76424878517743
 30
0.0
 10
30.63904457685393
 20
75.80077280772137
 30
0.0
 10
30.47140234402829
 20
75.82434562309676
 30
0.0
 10
29.97230684089368
 20
75.90927062158804
 30
0.0
 10
29.64455633139588
 20
75.98470251396683
 30
0.0
 10
29.3371686825592
 20
76.07528135520358
 30
0.0
  0
SPLINE
  5
10A
330
2
100
AcDbEntity
  8
0
100
AcDbSpline
210
0.0
220
0.0
230
1.0
 70
     8
 71
     3
 72
    14
 73
    10
 74
     0
 42
0.000000001
 43
0.0000000001
 40
0.0
 40
0.0
 40
0.0
 40
0.0
 40
0.1805477643725137
 40
0.3726776241474697
 40
0.5764813171445239
 40
0.7249321434342515
 40
0.8449708999620566
 40
0.9366327285660943
 40
1.0
 40
1.0
 40
1.0
 40
1.0
 10
31.28925061214093
 20
75.74394314597789
 30
0.0
 10
31.32070187558241
 20
75.74255896790633
 30
0.0
 10
31.38562199340575
 20
75.7397018170747
 30
0.0
 10
31.48631060806605
 20
75.73681234180314
 30
0.0
 10
31.58150041658604
 20
75.73512949097922
 30
0.0
 10
31.66411281314732
 20
75.73393499791949
 30
0.0
 10
31.72704071167292
 20
75.73243034418748
 30
0.0
 10
31.77509170213241
 20
75.73100971020507
 30
0.0
 10
31.8020022305746
 20
75.7293837963759
 30
0.0
 10
31.8130017575009
 20
75.7287192132563
 30
0.0
  0
SPLINE
  5
10B
330
2
100
AcDbEntity
  8
0
100
AcDbSpline
210
0.0
220
0.0
230
1.0
 70
     8
 71
     3
 72
    33
 73
    29
 74
     0
 42
0.000000001
 43
0.0000000001
 40
0.0
 40
0.0
 40
0.0
 40
0.0
 40
0.0264499195218744
 40
0.0537785328101907
 40
0.0820017899137471
 40
0.1111341699188644
 40
0.1411888364689883
 40
0.1721777763719086
 40
0.2041119228512185
 40
0.237001264982928
 40
0.2708549447872833
 40
0.3056813433441214
 40
0.3414881571831671
 40
0.3782824660794757
 40
0.4160707932655924
 40
0.4548591589592781
 40
0.4946531280020953
 40
0.535457852309408
 40
0.5772781087479054
 40
0.6201183329809971
 40
0.6639826497559707
 40
0.7088749000480101
 40
0.7547986654245053
 40
0.8017572899485191
 40
0.8497538999003291
 40
0.8987914215622161
 40
0.9488725972813851
 40
1.0
 40
1.0
 40
1.0
 40
1.0
 10
31.82574016174027
 20
75.7272490154068
 30
0.0
 10
31.83983071974115
 20
75.72290013751923
 30
0.0
 10
31.86847993869804
 20
75.71405790750912
 30
0.0
 10
31.91118264421581
 20
75.6974871533687
 30
0.0
 10
31.9544480102719
 20
75.67807285122801
 30
0.0
 10
31.99808758061767
 20
75.655435876101
 30
0.0
 10
32.04198295525154
 20
75.62950195360041
 30
0.0
 10
32.0859723523424
 20
75.60012110153216
 30
0.0
 10
32.12988152023902
 20
75.56717709270033
 30
0.0
 10
32.17351425174417
 20
75.5305594215714
 30
0.0
 10
32.21665442734374
 20
75.49017403491011
 30
0.0
 10
32.25906504560283
 20
75.44594334051955
 30
0.0
 10
32.30048835335774
 20
75.39780935401252
 30
0.0
 10
32.34064595902643
 20
75.34573607707712
 30
0.0
 10
32.3792392784344
 20
75.28971217296852
 30
0.0
 10
32.41595025203845
 20
75.22975360786197
 30
0.0
 10
32.45044238924237
 20
75.1659063111956
 30
0.0
 10
32.48236215368923
 20
75.09824879695738
 30
0.0
 10
32.51134074589362
 20
75.02689470448975
 30
0.0
 10
32.53699619987111
 20
74.95199523916991
 30
0.0
 10
32.55893623148853
 20
74.8737413554942
 30
0.0
 10
32.57676024879595
 20
74.79236604410592
 30
0.0
 10
32.59006675196685
 20
74.70814505427703
 30
0.0
 10
32.5984421321528
 20
74.6214022052513
 30
0.0
 10
32.60152349582905
 20
74.53249522883557
 30
0.0
 10
32.59877824520913
 20
74.44187461317135
 30
0.0
 10
32.59037755217287
 20
74.34985866823059
 30
0.0
 10
32.57947759449332
 20
74.2889164635405
 30
0.0
 10
32.5739712773954
 20
74.25813037119677
 30
0.0
  0
LINE
  5
10C
330
2
100
AcDbEntity
  8
0
100
AcDbLine
 10
32.57397145079739
 20
74.2581303593977
 30
0.0
 11
32.02940414253999
 21
71.52754096785442
 31
0.0
  0
LINE
  5
10D
330
2
100
AcDbEntity
  8
0
100
AcDbLine
 10
17.3436384962645
 20
79.5375141261094
 30
0.0
 11
29.33716854059261
 21
76.07528022631332
 31
0.0
  0
SPLINE
  5
10E
330
2
100
AcDbEntity
  8
0
100
AcDbSpline
210
0.0
220
0.0
230
1.0
 70
     8
 71
     3
 72
    12
 73
     8
 74
     0
 42
0.000000001
 43
0.0000000001
 40
0.0
 40
0.0
 40
0.0
 40
0.0
 40
0.2500000000000009
 40
0.2500000000000009
 40
0.5000000000000006
 40
0.5000000000000006
 40
1.0
 40
1.0
 40
1.0
 40
1.0
 10
15.78344236899823
 20
80.22008442756435
 30
0.0
 10
15.87548909362053
 20
80.15624172074486
 30
0.0
 10
15.98124426946114
 20
80.09122512964472
 30
0.0
 10
16.2127606629634
 20
79.96528225826661
 30
0.0
 10
16.33850801020853
 20
79.90416079712635
 30
0.0
 10
16.73776422584024
 20
79.72975399228947
 30
0.0
 10
17.03313903087013
 20
79.62530510062745
 30
0.0
 10
17.34363853385235
 20
79.53751528514842
 30
0.0
  0
SPLINE
  5
10F
330
2
100
AcDbEntity
  8
0
100
AcDbSpline
210
0.0
220
0.0
230
1.0
 70
     8
 71
     3
 72
    14
 73
    10
 74
     0
 42
0.000000001
 43
0.0000000001
 40
0.0
 40
0.0
 40
0.0
 40
0.0
 40
0.1854960861593709
 40
0.374923160830414
 40
0.5639190546205413
 40
0.7621585410999254
 40
0.891989178267455
 40
0.9669823410499148
 40
1.0
 40
1.0
 40
1.0
 40
1.0
 10
15.78345311237987
 20
80.2214487962825
 30
0.0
 10
15.76404438768412
 20
80.2352029700317
 30
0.0
 10
15.72481563325965
 20
80.26300279267706
 30
0.0
 10
15.66849205023177
 20
80.30473870920237
 30
0.0
 10
15.61233718413521
 20
80.34757115738525
 30
0.0
 10
15.5638837515973
 20
80.38677853915592
 30
0.0
 10
15.52483018244442
 20
80.41732295872437
 30
0.0
 10
15.49906733424018
 20
80.43460495970025
 30
0.0
 10
15.48587432955523
 20
80.44193408501197
 30
0.0
 10
15.48184138061347
 20
80.44417451385108
 30
0.0
  0
LINE
  5
110
330
2
100
AcDbEntity
  8
0
100
AcDbLine
 10
15.14821163703857
 20
70.53531914726069
 30
0.0
 11
26.32030259512391
 21
67.31021428614351
 31
0.0
  0
LWPOLYLINE
  5
111
330
2
100
AcDbEntity
  8
0
100
AcDbPolyline
 90
        3
 70
   128
 43
0.0
 10
33.51433601221908
 20
75.0907964040813
 10
33.51515365297041
 20
75.08655802772675
 10
33.51577933620587
 20
75.0783678137639
  0
LWPOLYLINE
  5
112
330
2
100
AcDbEntity
  8
0
100
AcDbPolyline
 90
        3
 70
   128
 43
0.0
 10
32.56803528620259
 20
76.31313876547419
 10
32.56246762820365
 20
76.31554584369219
 10
32.56044109369231
 20
76.31619118048753
  0
SPLINE
  5
113
330
2
100
AcDbEntity
  8
0
100
AcDbSpline
210
0.0
220
0.0
230
1.0
 70
     8
 71
     3
 72
    10
 73
     6
 74
     0
 42
0.000000001
 43
0.0000000001
 40
0.0
 40
0.0
 40
0.0
 40
0.0
 40
0.2712626102723259
 40
0.639349492327937
 40
1.0
 40
1.0
 40
1.0
 40
1.0
 10
12.05476851432749
 20
68.58079015404761
 30
0.0
 10
12.05528463882606
 20
68.64576911418014
 30
0.0
 10
12.05650111291297
 20
68.79892057552983
 30
0.0
 10
12.08942622633964
 20
69.02863731498321
 30
0.0
 10
12.13559975500598
 20
69.18491558836963
 30
0.0
 10
12.15845093128598
 20
69.26225735706366
 30
0.0
  0
LINE
  5
114
330
2
100
AcDbEntity
  8
0
100
AcDbLine
 10
34.85836226643233
 20
68.09298844159754
 30
0.0
 11
34.863984163699
 21
68.08351441076722
 31
0.0
  0
SPLINE
  5
115
330
2
100
AcDbEntity
  8
0
100
AcDbSpline
210
0.0
220
0.0
230
1.0
 70
     8
 71
     3
 72
    12
 73
     8
 74
     0
 42
0.000000001
 43
0.0000000001
 40
0.0
 40
0.0
 40
0.0
 40
0.0
 40
0.2387977790764773
 40
0.5282506010797745
 40
0.6936338043197217
 40
0.8726961796731693
 40
1.0
 40
1.0
 40
1.0
 40
1.0
 10
15.48167916781455
 20
80.44537315435251
 30
0.0
 10
15.37781296237071
 20
80.46262859798288
 30
0.0
 10
15.14804790479874
 20
80.50079980085111
 30
0.0
 10
14.84995988880257
 20
80.40040692386741
 30
0.0
 10
14.62206715874558
 20
80.2394855971907
 30
0.0
 10
14.47385997958727
 20
80.08506027440482
 30
0.0
 10
14.40746784918636
 20
79.95945471350161
 30
0.0
 10
14.37988004100503
 20
79.9072620500069
 30
0.0
  0
LWPOLYLINE
  5
116
330
2
100
AcDbEntity
  8
0
100
AcDbPolyline
 90
        3
 70
   128
 43
0.0
 10
35.11226641856746
 20
67.16955275697767
 10
35.11361384666697
 20
67.16241643540231
 10
35.11414082661293
 20
67.15712874742696
  0
SPLINE
  5
117
330
2
100
AcDbEntity
  8
0
100
AcDbSpline
210
0.0
220
0.0
230
1.0
 70
     8
 71
     3
 72
     8
 73
     4
 74
     0
 42
0.000000001
 43
0.0000000001
 40
0.0
 40
0.0
 40
0.0
 40
0.0
 40
1.0
 40
1.0
 40
1.0
 40
1.0
 10
32.03302096171464
 20
35.00680129452757
 30
0.0
 10
32.03041475277487
 20
34.99970584173803
 30
0.0
 10
32.02940362249294
 20
34.99214173112618
 30
0.0
 10
32.02940362242777
 20
34.98408877824293
 30
0.0
  0
SPLINE
  5
118
330
2
100
AcDbEntity
  8
0
100
AcDbSpline
210
0.0
220
0.0
230
1.0
 70
     8
 71
     3
 72
    36
 73
    32
 74
     0
 42
0.000000001
 43
0.0000000001
 40
0.0
 40
0.0
 40
0.0
 40
0.0
 40
0.0153275259832532
 40
0.0309011365137519
 40
0.0467201163715023
 40
0.0627833696089685
 40
0.0790894043595041
 40
0.0956363183959003
 40
0.1124217855948521
 40
0.1744839553527063
 40
0.2309086683585406
 40
0.292085306286298
 40
0.3548709604417283
 40
0.4163399116490313
 40
0.4821264284638055
 40
0.510126174305459
 40
0.5389352418173142
 40
0.5685195444998072
 40
0.5988401693017938
 40
0.6298533653236964
 40
0.6615106129451473
 40
0.6937587796468272
 40
0.7265403664457067
 40
0.7597938460377898
 40
0.7934540905540166
 40
0.8274528834373175
 40
0.8617195065318437
 40
0.8961813902500072
 40
0.9307648118640228
 40
0.9653956247543835
 40
1.0
 40
1.0
 40
1.0
 40
1.0
 10
29.52529930562136
 20
14.11593928973743
 30
0.0
 10
29.52410223199519
 20
14.09092758789352
 30
0.0
 10
29.52168886563851
 20
14.0405026195091
 30
0.0
 10
29.51547248368374
 20
13.965186931395
 30
0.0
 10
29.5072345167483
 20
13.88944996787833
 30
0.0
 10
29.49671024725205
 20
13.81345057230484
 30
0.0
 10
29.48387626360016
 20
13.7372729934875
 30
0.0
 10
29.46864486551599
 20
13.66102612637383
 30
0.0
 10
29.43513221510741
 20
13.51666919172765
 30
0.0
 10
29.37343568294418
 20
13.31940860010323
 30
0.0
 10
29.2651949841248
 20
13.07506936089155
 30
0.0
 10
29.13247053207198
 20
12.84874722790513
 30
0.0
 10
28.97188132623148
 20
12.63822812250597
 30
0.0
 10
28.78440317365545
 20
12.44658057266779
 30
0.0
 10
28.6132681114882
 20
12.31125008498122
 30
0.0
 10
28.46881261857916
 20
12.21740101027254
 30
0.0
 10
28.36318509638085
 20
12.15686869139858
 30
0.0
 10
28.25088813884179
 20
12.10073306687936
 30
0.0
 10
28.13199557796486
 20
12.04962450622134
 30
0.0
 10
28.00665742553994
 20
12.00416518850495
 30
0.0
 10
27.87509988182097
 20
11.96495246868269
 30
0.0
 10
27.73762833551652
 20
11.9325489050886
 30
0.0
 10
27.59462726440614
 20
11.9074703072709
 30
0.0
 10
27.44655847554503
 20
11.89017407338651
 30
0.0
 10
27.29395714962516
 20
11.88105015529385
 30
0.0
 10
27.13742572998152
 20
11.88040535498644
 30
0.0
 10
26.97762598546487
 20
11.88847895011356
 30
0.0
 10
26.81526841853454
 20
11.90534783711451
 30
0.0
 10
26.65110319784427
 20
11.93125697186301
 30
0.0
 10
26.48589839796324
 20
11.96536514850869
 30
0.0
 10
26.3754870042514
 20
11.99543947246088
 30
0.0
 10
26.32030238784094
 20
12.01047089245589
 30
0.0
  0
SPLINE
  5
119
330
2
100
AcDbEntity
  8
0
100
AcDbSpline
210
0.0
220
0.0
230
1.0
 70
     8
 71
     3
 72
    22
 73
    18
 74
     0
 42
0.000000001
 43
0.0000000001
 40
0.0
 40
0.0
 40
0.0
 40
0.0
 40
0.0560479305522471
 40
0.1125000725306495
 40
0.1693410776563779
 40
0.2265441902542527
 40
0.2840713368437285
 40
0.3418733765415012
 40
0.3998905138263196
 40
0.4580528746203801
 40
0.5162812457278151
 40
0.6438416671564236
 40
0.7735970217894854
 40
0.8345241170168574
 40
0.8925860012259089
 40
0.9477501217662057
 40
1.0
 40
1.0
 40
1.0
 40
1.0
 10
31.5571531193504
 20
7.282631445668663
 30
0.0
 10
31.56811527068538
 20
7.315246812757713
 30
0.0
 10
31.59011863116859
 20
7.380712765326769
 30
0.0
 10
31.62480593424101
 20
7.481200999281433
 30
0.0
 10
31.66039268419274
 20
7.584044265652657
 30
0.0
 10
31.69661876463047
 20
7.689530367073594
 30
0.0
 10
31.73302663443152
 20
7.797758721665196
 30
0.0
 10
31.76919441548503
 20
7.908842170354724
 30
0.0
 10
31.80466974294748
 20
8.02284496248118
 30
0.0
 10
31.83902201297079
 20
8.139800054308004
 30
0.0
 10
31.88471710443247
 20
8.307294023067989
 30
0.0
 10
31.93859755221561
 20
8.532498863708944
 30
0.0
 10
31.98148571040528
 20
8.772484091202393
 30
0.0
 10
32.00578530359485
 20
8.967460394033615
 30
0.0
 10
32.01840805304795
 20
9.10735752016847
 30
0.0
 10
32.02660647813045
 20
9.243149892646776
 30
0.0
 10
32.02848825619464
 20
9.333784104680169
 30
0.0
 10
32.02940361802681
 20
9.37787171520214
 30
0.0
  0
LINE
  5
11A
330
2
100
AcDbEntity
  8
0
100
AcDbLine
 10
26.32030259512391
 20
12.0104712486705
 30
0.0
 11
15.14821163703857
 21
15.23557610978771
 31
0.0
  0
LWPOLYLINE
  5
11B
330
2
100
AcDbEntity
  8
0
100
AcDbPolyline
 90
        3
 70
   128
 43
0.0
 10
33.77215334640061
 20
14.36332987289388
 10
33.77261358871073
 20
14.36331420209009
 10
33.77530100950122
 20
14.36387916389658
  0
LINE
  5
11C
330
2
100
AcDbEntity
  8
0
100
AcDbLine
 10
12.40359273579997
 20
17.64119280317354
 30
0.0
 11
12.25605588354452
 21
17.99045287380395
 31
0.0
  0
SPLINE
  5
11D
330
2
100
AcDbEntity
  8
0
100
AcDbSpline
210
0.0
220
0.0
230
1.0
 70
     8
 71
     3
 72
    10
 73
     6
 74
     0
 42
0.000000001
 43
0.0000000001
 40
0.0
 40
0.0
 40
0.0
 40
0.0
 40
0.4824257567679524
 40
0.8987295961090218
 40
1.0
 40
1.0
 40
1.0
 40
1.0
 10
31.55703301880382
 20
7.283985334439584
 30
0.0
 10
31.5284065573338
 20
7.206618602266395
 30
0.0
 10
31.47507721536957
 20
7.062489125382718
 30
0.0
 10
31.44618763174555
 20
6.980187411804074
 30
0.0
 10
31.42210207781696
 20
6.993442531070947
 30
0.0
 10
31.41738941329356
 20
6.996036074508062
 30
0.0
  0
LWPOLYLINE
  5
11E
330
2
100
AcDbEntity
  8
0
100
AcDbPolyline
 90
       12
 70
   128
 43
0.0
 10
47.36455746279517
 20
52.3900132201664
 10
47.05384649718143
 20
52.95833490393881
 10
46.69858426821014
 20
53.43312615365853
 10
46.30198943355146
 20
53.81008815135636
 10
45.86765361155016
 20
54.08580738801699
 10
45.39950938403359
 20
54.25778607878026
 10
44.90179630029456
 20
54.32446684255466
 10
44.37902288087076
 20
54.28524655691409
 10
43.83592162274823
 20
54.14047852239725
 10
43.27741300263812
 20
53.8914763600443
 10
42.7085534830677
 20
53.54049366132104
 10
42.13449551612552
 20
53.09070883453547
  0
LINE
  5
11F
330
2
100
AcDbEntity
  8
0
100
AcDbLine
 10
59.64551876694099
 20
26.18275644454707
 30
0.0
 11
47.36455746279517
 21
52.3900132201664
 31
0.0
  0
LINE
  5
120
330
2
100
AcDbEntity
  8
0
100
AcDbLine
 10
42.20274126026231
 20
38.04074280918044
 30
0.0
 11
51.19069967226597
 21
18.86066832408405
 31
0.0
  0
LWPOLYLINE
  5
121
330
2
100
AcDbEntity
  8
0
100
AcDbPolyline
 90
        9
 70
   128
 43
0.0
 10
41.04050582762636
 20
38.1964536433561
 10
41.21567620384843
 20
38.32826947987413
 10
41.3878498985461
 20
38.41805767487912
 10
41.55408022514416
 20
38.46428206243086
 10
41.71152248605989
 20
38.46615074656451
 10
41.85748496746845
 20
38.42363341957594
 10
41.98946693538863
 20
38.33745573366297
 10
42.10521362930814
 20
38.20909410523819
 10
42.20274126026231
 20
38.04074280918044
  0
LINE
  5
122
330
2
100
AcDbEntity
  8
0
100
AcDbLine
 10
42.13449551612552
 20
53.09070883453547
 30
0.0
 11
37.78922599956144
 21
49.3275950469183
 31
0.0
  0
LINE
  5
123
330
2
100
AcDbEntity
  8
0
100
AcDbLine
 10
41.20470652095514
 20
53.35911579788048
 30
0.0
 11
42.13449551612552
 21
53.09070883453547
 31
0.0
  0
LINE
  5
124
330
2
100
AcDbEntity
  8
0
100
AcDbLine
 10
41.20470652095514
 20
53.35911579788048
 30
0.0
 11
36.85943700439106
 21
49.59600201012912
 31
0.0
  0
LWPOLYLINE
  5
125
330
2
100
AcDbEntity
  8
0
100
AcDbPolyline
 90
        8
 70
   128
 43
0.0
 10
41.20470652095514
 20
53.35911579788048
 10
41.77876448789738
 20
53.80890062466604
 10
42.34762400746774
 20
54.15988332325508
 10
42.90613262757784
 20
54.40888548574223
 10
43.44923388570049
 20
54.55365352012488
 10
43.97200730512418
 20
54.5928738058996
 10
44.46972038899736
 20
54.52619304212525
 10
44.554627361803
 20
54.50345752934502
  0
LINE
  5
126
330
2
100
AcDbEntity
  8
0
100
AcDbLine
 10
41.27295226509192
 20
38.30914977252541
 30
0.0
 11
41.2524534446095
 21
38.35083407166494
 31
0.0
  0
LINE
  5
127
330
2
100
AcDbEntity
  8
0
100
AcDbLine
 10
41.27295226509192
 20
38.30914977252541
 30
0.0
 11
50.26091067709558
 21
19.12907528742905
 31
0.0
  0
SPLINE
  5
128
330
2
100
AcDbEntity
  8
0
100
AcDbSpline
210
0.0
220
0.0
230
1.0
 70
     8
 71
     3
 72
    11
 73
     7
 74
     0
 42
0.000000001
 43
0.0000000001
 40
0.0
 40
0.0
 40
0.0
 40
0.0
 40
0.250000661989893
 40
0.5000008600781153
 40
0.7500004398007305
 40
1.0
 40
1.0
 40
1.0
 40
1.0
 10
50.26091067713434
 20
19.12907528747107
 30
0.0
 10
50.29748334815298
 20
19.0469516796608
 30
0.0
 10
50.37062862232597
 20
18.8827046164291
 30
0.0
 10
50.32476634198099
 20
18.72483151068113
 30
0.0
 10
50.18940773251609
 20
18.66224935776015
 30
0.0
 10
50.04526616895117
 20
18.72934000046203
 30
0.0
 10
49.97319538998294
 20
18.76288532050311
 30
0.0
  0
SPLINE
  5
129
330
2
100
AcDbEntity
  8
0
100
AcDbSpline
210
0.0
220
0.0
230
1.0
 70
     8
 71
     3
 72
    11
 73
     7
 74
     0
 42
0.000000001
 43
0.0000000001
 40
0.0
 40
0.0
 40
0.0
 40
0.0
 40
0.2500006135162732
 40
0.5000001007674796
 40
0.7500000068297923
 40
1.0
 40
1.0
 40
1.0
 40
1.0
 10
51.19069967229075
 20
18.86066832414942
 30
0.0
 10
51.21760560470034
 20
18.65811149072653
 30
0.0
 10
51.27141734830662
 20
18.25299873640939
 30
0.0
 10
51.00488059169203
 20
17.85504382903806
 30
0.0
 10
50.54736648064931
 20
17.68626182354109
 30
0.0
 10
50.14823729968703
 20
17.82464624457424
 30
0.0
 10
49.94867267443851
 20
17.89383846714525
 30
0.0
  0
SPLINE
  5
12A
330
2
100
AcDbEntity
  8
0
100
AcDbSpline
210
0.0
220
0.0
230
1.0
 70
     8
 71
     3
 72
     9
 73
     5
 74
     0
 42
0.000000001
 43
0.0000000001
 40
0.0
 40
0.0
 40
0.0
 40
0.0
 40
0.5616717440495814
 40
1.0
 40
1.0
 40
1.0
 40
1.0
 10
49.94867267443851
 20
17.89383846714525
 30
0.0
 10
49.92005444898564
 20
17.90733003594268
 30
0.0
 10
49.86910257939996
 20
17.93135041606766
 30
0.0
 10
49.81082331551585
 20
17.956256705547
 30
0.0
 10
49.78527786741932
 20
17.9671738359767
 30
0.0
  0
SPLINE
  5
12B
330
2
100
AcDbEntity
  8
0
100
AcDbSpline
210
0.0
220
0.0
230
1.0
 70
     8
 71
     3
 72
     9
 73
     5
 74
     0
 42
0.000000001
 43
0.0000000001
 40
0.0
 40
0.0
 40
0.0
 40
0.0
 40
0.5175406915152589
 40
1.0
 40
1.0
 40
1.0
 40
1.0
 10
59.64551876694691
 20
26.18275644452347
 30
0.0
 10
59.67584701349494
 20
25.97649632390503
 30
0.0
 10
59.73444771300535
 20
25.57795738001134
 30
0.0
 10
59.53863976692179
 20
25.35139027758243
 30
0.0
 10
59.44417040065843
 20
25.24208087001925
 30
0.0
  0
LINE
  5
12C
330
2
100
AcDbEntity
  8
0
100
AcDbLine
 10
49.76432409518395
 20
18.87881460019266
 30
0.0
 11
49.97319539001529
 21
18.7628853204532
 31
0.0
  0
SPLINE
  5
12D
330
2
100
AcDbEntity
  8
0
100
AcDbSpline
210
0.0
220
0.0
230
1.0
 70
     8
 71
     3
 72
     9
 73
     5
 74
     0
 42
0.000000001
 43
0.0000000001
 40
0.0
 40
0.0
 40
0.0
 40
0.0
 40
0.5592115096828008
 40
1.0
 40
1.0
 40
1.0
 40
1.0
 10
49.78527786741932
 20
17.9671738359767
 30
0.0
 10
49.75015125137611
 20
17.98128854064261
 30
0.0
 10
49.68733670726328
 20
18.00652890930713
 30
0.0
 10
49.61837835190033
 20
18.02735043587324
 30
0.0
 10
49.58798230254519
 20
18.03652832513447
 30
0.0
  0
LINE
  5
12E
330
2
100
AcDbEntity
  8
0
100
AcDbLine
 10
49.42779416011376
 20
19.01255792195598
 30
0.0
 11
49.76432409518395
 21
18.87881460019266
 31
0.0
  0
LWPOLYLINE
  5
12F
330
2
100
AcDbEntity
  8
0
100
AcDbPolyline
 90
        3
 70
   128
 43
0.0
 10
46.35266936173849
 20
24.78166322183814
 10
46.0558304090685
 20
24.57738103578253
 10
45.89313787569927
 20
24.49529916564654
  0
LWPOLYLINE
  5
130
330
2
100
AcDbEntity
  8
0
100
AcDbPolyline
 90
        8
 70
   128
 43
0.0
 10
45.89313708644874
 20
26.27585692560785
 10
46.05582967349926
 20
26.19377398332043
 10
46.3526677482103
 20
25.98949290940892
 10
46.55807497743587
 20
25.75881835096125
 10
46.66307277999396
 20
25.511830792432
 10
46.66307223217546
 20
25.25932478898347
 10
46.55807501112093
 20
25.0123376200469
 10
46.35266936173849
 20
24.78166322183814
  0
LINE
  5
131
330
2
100
AcDbEntity
  8
0
100
AcDbLine
 10
49.42779416011376
 20
19.01255792195598
 30
0.0
 11
42.97079162992116
 21
20.876533996539
 31
0.0
  0
LINE
  5
132
330
2
100
AcDbEntity
  8
0
100
AcDbLine
 10
49.58798230259162
 20
18.03652832517445
 30
0.0
 11
42.16557082577639
 21
20.17919395716212
 31
0.0
  0
ARC
  5
133
330
2
100
AcDbEntity
  8
0
100
AcDbCircle
 10
45.2241014346738
 20
23.77532067775208
 30
0.0
 40
1.707296422921914
100
AcDbArc
 50
42.13380322420029
 51
66.92918834159972
  0
LINE
  5
134
330
2
100
AcDbEntity
  8
0
100
AcDbLine
 10
38.80778375086834
 20
12.84928186085753
 30
0.0
 11
33.75979497522525
 21
14.30651070008181
 31
0.0
  0
SPLINE
  5
135
330
2
100
AcDbEntity
  8
0
100
AcDbSpline
210
0.0
220
0.0
230
1.0
 70
     8
 71
     3
 72
    16
 73
    12
 74
     0
 42
0.000000001
 43
0.0000000001
 40
0.0
 40
0.0
 40
0.0
 40
0.0
 40
0.006684739675173
 40
0.074647808000171
 40
0.1733165276104558
 40
0.2726644869526669
 40
0.3771435665609063
 40
0.5175553887068608
 40
0.6711509941765578
 40
0.8337163147498296
 40
1.0
 40
1.0
 40
1.0
 40
1.0
 10
12.15845093128598
 20
69.26225735706366
 30
0.0
 10
12.16048205242191
 20
69.26996110253409
 30
0.0
 10
12.18316337554708
 20
69.35598804459956
 30
0.0
 10
12.26652724180417
 20
69.53903269799631
 30
0.0
 10
12.4180195168532
 20
69.80297976371947
 30
0.0
 10
12.64133584292318
 20
70.06303422993816
 30
0.0
 10
12.94190600281988
 20
70.311108699753
 30
0.0
 10
13.34904774400965
 20
70.52559124609207
 30
0.0
 10
13.87949030589604
 20
70.66080745188684
 30
0.0
 10
14.49121767581795
 20
70.68458040924231
 30
0.0
 10
14.92756901125426
 20
70.5854465437031
 30
0.0
 10
15.14821163700432
 20
70.53531914722914
 30
0.0
  0
SPLINE
  5
136
330
2
100
AcDbEntity
  8
0
100
AcDbSpline
210
0.0
220
0.0
230
1.0
 70
     8
 71
     3
 72
    15
 73
    11
 74
     0
 42
0.000000001
 43
0.0000000001
 40
0.0
 40
0.0
 40
0.0
 40
0.0
 40
0.1980151179169405
 40
0.3916031376705719
 40
0.5151763980988309
 40
0.6323903189211696
 40
0.7419929303495385
 40
0.8664073581962378
 40
0.9847153232948379
 40
1.0
 40
1.0
 40
1.0
 40
1.0
 10
15.14821163700432
 20
15.23557610976326
 30
0.0
 10
14.92758174434658
 20
15.31273520365109
 30
0.0
 10
14.49125466418425
 20
15.46532831666244
 30
0.0
 10
13.94256840831878
 20
15.80691627672556
 30
0.0
 10
13.51302566044879
 20
16.15216730822859
 30
0.0
 10
13.19240015062635
 20
16.46740380720993
 30
0.0
 10
12.89904931392476
 20
16.81182000046035
 30
0.0
 10
12.64414019035269
 20
17.18446596703372
 30
0.0
 10
12.47512575450642
 20
17.46921739088955
 30
0.0
 10
12.41093676287659
 20
17.62353673168201
 30
0.0
 10
12.40359273575163
 20
17.64119280316563
 30
0.0
  0
ARC
  5
137
330
2
100
AcDbEntity
  8
0
100
AcDbCircle
 10
16.33965863150629
 20
19.48624720294554
 30
0.0
 40
4.132364233170516
100
AcDbArc
 50
182.7632224255987
 51
252.8590425800976
  0
ARC
  5
138
330
2
100
AcDbEntity
  8
0
100
AcDbCircle
 10
25.01922485447975
 20
62.95958249752432
 30
0.0
 40
2.716595038087904
100
AcDbArc
 50
2.830928776799508
 51
72.79129716839249
  0
LINE
  5
139
330
2
100
AcDbEntity
  8
0
100
AcDbLine
 10
12.75589406476331
 20
19.05708006792854
 30
0.0
 11
12.7455248283496
 21
19.28800978263641
 31
0.0
  0
LINE
  5
13A
330
2
100
AcDbEntity
  8
0
100
AcDbLine
 10
14.665461368601
 20
68.77545098885768
 30
0.0
 11
25.82293804507088
 21
65.55456490752421
 31
0.0
  0
LINE
  5
13B
330
2
100
AcDbEntity
  8
0
100
AcDbLine
 10
27.73250462045414
 20
63.09375221240379
 30
0.0
 11
27.73250462045414
 21
14.27979559495694
 31
0.0
  0
ARC
  5
13C
330
2
100
AcDbEntity
  8
0
100
AcDbCircle
 10
14.15494193960566
 20
67.47173074024344
 30
0.0
 40
1.400113057815178
100
AcDbArc
 50
68.61535273919301
 51
182.2350630238958
  0
LINE
  5
13D
330
2
100
AcDbEntity
  8
0
100
AcDbLine
 10
12.75589403577467
 20
65.78999551667978
 30
0.0
 11
12.75589403577467
 21
67.41712728871
 31
0.0
  0
LINE
  5
13E
330
2
100
AcDbEntity
  8
0
100
AcDbLine
 10
12.75589403577467
 20
18.60316893950026
 30
0.0
 11
12.75589403577467
 21
65.78999551667978
 31
0.0
  0
ARC
  5
13F
330
2
100
AcDbEntity
  8
0
100
AcDbCircle
 10
26.333456230807
 20
14.22519290140509
 30
0.0
 40
1.40011351367758
100
AcDbArc
 50
248.6154146923928
 51
2.235031262597462
  0
LINE
  5
140
330
2
100
AcDbEntity
  8
0
100
AcDbLine
 10
25.82293804507088
 20
12.92147167578928
 30
0.0
 11
14.665461368601
 21
16.14235775712274
 31
0.0
  0
ARC
  5
141
330
2
100
AcDbEntity
  8
0
100
AcDbCircle
 10
15.46917273939419
 20
18.73733967271658
 30
0.0
 40
2.716594027359591
100
AcDbArc
 50
182.8309513434964
 51
252.7913307512937
  0
ARC
  5
142
330
2
100
AcDbEntity
  8
0
100
AcDbCircle
 10
25.06132822380048
 20
63.00100068241398
 30
0.0
 40
4.132359523366331
100
AcDbArc
 50
2.763176137199564
 51
72.8590632336008
  0
LINE
  5
143
330
2
100
AcDbEntity
  8
0
100
AcDbLine
 10
26.27923022469676
 20
66.94981188949852
 30
0.0
 11
15.12175354822588
 21
70.17069797083211
 31
0.0
  0
ARC
  5
144
330
2
100
AcDbEntity
  8
0
100
AcDbCircle
 10
14.34757432859299
 20
68.17896960480023
 30
0.0
 40
2.13689853480723
100
AcDbArc
 50
68.75903575969698
 51
182.0913482619
  0
ARC
  5
145
330
2
100
AcDbEntity
  8
0
100
AcDbCircle
 10
16.33965625503092
 20
19.4862453541571
 30
0.0
 40
4.132361770758281
100
AcDbArc
 50
182.7631984015013
 51
252.8590625988029
  0
LINE
  5
146
330
2
100
AcDbEntity
  8
0
100
AcDbLine
 10
15.12175354822588
 20
15.53743201323493
 30
0.0
 11
26.27923022469676
 21
12.31654593190209
 31
0.0
  0
ARC
  5
147
330
2
100
AcDbEntity
  8
0
100
AcDbCircle
 10
27.0534086122673
 20
14.30827397530847
 30
0.0
 40
2.136897932932728
100
AcDbArc
 50
248.7590534155917
 51
2.091368819801926
  0
LINE
  5
148
330
2
100
AcDbEntity
  8
0
100
AcDbLine
 10
29.18888316274021
 20
14.38625614844148
 30
0.0
 11
29.18888316274021
 21
63.200212765351
 31
0.0
  0
LINE
  5
149
330
2
100
AcDbEntity
  8
0
100
AcDbLine
 10
12.21209914849191
 20
68.1009881760272
 30
0.0
 11
12.2120991488874
 21
19.28703155840399
 31
0.0
  0
LINE
  5
14A
330
2
100
AcDbEntity
  8
0
100
AcDbLine
 10
11.8463303056543
 20
41.46223809901587
 30
0.0
 11
12.01053282514346
 21
41.42129174729965
 31
0.0
  0
ARC
  5
14B
330
2
100
AcDbEntity
  8
0
100
AcDbCircle
 10
16.45259989921621
 20
13.62604979720404
 30
0.0
 40
2.460896923873426
100
AcDbArc
 50
205.7873098875414
 51
222.4790414149293
  0
ELLIPSE
  5
14C
330
2
100
AcDbEntity
  8
0
100
AcDbEllipse
 10
10.80162647266954
 20
50.16586314548185
 30
0.0
 11
-0.5888098098472211
 21
-2.063772047155857
 31
0.0
210
0.0
220
0.0
230
1.0
 40
0.460484873336336
 41
3.078702321273086
 42
6.331946567686847
  0
ELLIPSE
  5
14D
330
2
100
AcDbEntity
  8
0
100
AcDbEllipse
 10
15.00232500888805
 20
48.90307840255638
 30
0.0
 11
-2.237989280103175
 21
-7.7526297685918
 31
0.0
210
0.0
220
0.0
230
1.0
 40
0.4322293424115272
 41
4.567000015194523
 42
6.035454284493272
  0
ELLIPSE
  5
14E
330
2
100
AcDbEntity
  8
0
100
AcDbEllipse
 10
14.08431958575747
 20
49.21486786760771
 30
0.0
 11
-2.237989280103175
 21
-7.7526297685918
 31
0.0
210
0.0
220
0.0
230
1.0
 40
0.4322293424115272
 41
4.270890366929601
 42
6.283185307179584
  0
LINE
  5
14F
330
2
100
AcDbEntity
  8
0
100
AcDbLine
 10
11.8463303056543
 20
41.46223809901587
 30
0.0
 11
12.01053282514346
 21
41.42129174729965
 31
0.0
  0
LINE
  5
150
330
2
100
AcDbEntity
  8
0
100
AcDbLine
 10
39.30249007910993
 20
44.19417709460587
 30
0.0
 11
38.69654454049874
 21
44.36909850482261
 31
0.0
  0
LINE
  5
151
330
2
100
AcDbEntity
  8
0
100
AcDbLine
 10
37.48044214611429
 20
40.15640527360383
 30
0.0
 11
38.08639026004426
 21
39.9814826188758
 31
0.0
  0
LINE
  5
152
330
2
100
AcDbEntity
  8
0
100
AcDbLine
 10
38.69654454049874
 20
44.36909850482261
 30
0.0
 11
38.66846906601438
 21
44.37614325442523
 31
0.0
  0
ELLIPSE
  5
153
330
2
100
AcDbEntity
  8
0
100
AcDbEllipse
 10
38.69444016957749
 20
42.08782985674051
 30
0.0
 11
0.6080499095332847
 21
2.106347237864994
 31
0.0
210
0.0
220
0.0
230
0.9999999999999998
 40
0.4391595104879257
 41
6.283185169884899
 42
9.424777594002627
  0
ELLIPSE
  5
154
330
2
100
AcDbEntity
  8
0
100
AcDbEllipse
 10
38.07445560606465
 20
42.26627426401405
 30
0.0
 11
0.5940134599500427
 21
2.1098689904106
 31
0.0
210
0.0
220
0.0
230
1.0
 40
0.4271225323414708
 41
0.0
 42
3.141592653589792
  0
LINE
  5
155
330
2
100
AcDbEntity
  8
0
100
AcDbLine
 10
41.5572158858925
 20
43.54329322955428
 30
0.0
 11
41.57761972145505
 21
43.53796708874652
 31
0.0
  0
LINE
  5
156
330
2
100
AcDbEntity
  8
0
100
AcDbLine
 10
38.08633765907922
 20
39.98130197430553
 30
0.0
 11
40.34106346586225
 21
39.33041810925321
 31
0.0
  0
LINE
  5
157
330
2
100
AcDbEntity
  8
0
100
AcDbLine
 10
37.9928926299578
 20
40.02118772390839
 30
0.0
 11
38.08633765907922
 21
39.98130197430553
 31
0.0
  0
LINE
  5
158
330
2
100
AcDbEntity
  8
0
100
AcDbLine
 10
41.6880552919888
 20
41.65269200254342
 30
0.0
 11
41.52145946211073
 21
42.58230852549277
 31
0.0
  0
LINE
  5
159
330
2
100
AcDbEntity
  8
0
100
AcDbLine
 10
41.52145946211073
 20
42.58230852549277
 30
0.0
 11
40.90121544404138
 21
42.33221258963403
 31
0.0
  0
LINE
  5
15A
330
2
100
AcDbEntity
  8
0
100
AcDbLine
 10
40.4475672558529
 20
41.15250366724796
 30
0.0
 11
40.90121544404138
 21
42.33221258963403
 31
0.0
  0
LINE
  5
15B
330
2
100
AcDbEntity
  8
0
100
AcDbLine
 10
40.61416359657164
 20
40.22288758607734
 30
0.0
 11
40.4475672558529
 21
41.15250366724796
 31
0.0
  0
LINE
  5
15C
330
2
100
AcDbEntity
  8
0
100
AcDbLine
 10
40.61416359657164
 20
40.22288758607734
 30
0.0
 11
41.23440761464081
 21
40.47297998551425
 31
0.0
  0
LINE
  5
15D
330
2
100
AcDbEntity
  8
0
100
AcDbLine
 10
41.6880552919888
 20
41.65269200254342
 30
0.0
 11
41.23440761464081
 21
40.47297998551425
 31
0.0
  0
LINE
  5
15E
330
2
100
AcDbEntity
  8
0
100
AcDbLine
 10
40.5330606728225
 20
40.67544140839424
 30
0.0
 11
41.23440761464081
 21
40.47297998551425
 31
0.0
  0
LINE
  5
15F
330
2
100
AcDbEntity
  8
0
100
AcDbLine
 10
40.74463667001191
 20
41.92503408978053
 30
0.0
 11
41.6880552919888
 21
41.65269200254342
 31
0.0
  0
ELLIPSE
  5
160
330
2
100
AcDbEntity
  8
0
100
AcDbEllipse
 10
40.96405719925576
 20
41.42760660629039
 30
0.0
 11
-0.6229937333927556
 21
-2.097188497036955
 31
0.0
210
0.0
220
0.0
230
1.0
 40
0.4371239547278872
 41
0.0
 42
6.283185307179584
  0
ELLIPSE
  5
161
330
2
100
AcDbEntity
  8
0
100
AcDbEllipse
 10
35.24956589483549
 20
40.14177759166957
 30
0.0
 11
-0.2180806155553429
 21
-0.8431053706471379
 31
0.0
210
0.0
220
0.0
230
0.9999999999999998
 40
0.4377124451218318
 41
0.0
 42
6.283185307179584
  0
ELLIPSE
  5
162
330
2
100
AcDbEntity
  8
0
100
AcDbEllipse
 10
37.79936051152265
 20
37.93869264943781
 30
0.0
 11
-0.2180806155553429
 21
-0.8431053706471379
 31
0.0
210
0.0
220
0.0
230
0.9999999999999998
 40
0.4377124451218318
 41
0.0
 42
6.283185307179584
  0
ELLIPSE
  5
163
330
2
100
AcDbEntity
  8
0
100
AcDbEllipse
 10
40.35328907475753
 20
44.56201816393242
 30
0.0
 11
-0.2180806155553429
 21
-0.8431053706471379
 31
0.0
210
0.0
220
0.0
230
0.9999999999999998
 40
0.4377124451218318
 41
0.7224588986309298
 42
5.536280207029361
  0
ELLIPSE
  5
164
330
2
100
AcDbEntity
  8
0
100
AcDbEllipse
 10
37.79678790328779
 20
46.76101977239121
 30
0.0
 11
-0.2180806155553429
 21
-0.8431053706471379
 31
0.0
210
0.0
220
0.0
230
0.9999999999999998
 40
0.4377124451218318
 41
0.0
 42
6.283185307179584
  0
ELLIPSE
  5
165
330
2
100
AcDbEntity
  8
0
100
AcDbEllipse
 10
37.57622353930714
 20
42.13444449300097
 30
0.0
 11
-1.948377145071393
 21
-7.532477065294068
 31
0.0
210
0.0
220
0.0
230
1.0
 40
0.4377124451218318
 41
7.591373539602846
 42
7.592733789180027
  0
ELLIPSE
  5
166
330
2
100
AcDbEntity
  8
0
100
AcDbEllipse
 10
37.57622353930714
 20
42.13444449300097
 30
0.0
 11
-1.948377145071393
 21
-7.532477065294068
 31
0.0
210
0.0
220
0.0
230
1.0
 40
0.4377124451218318
 41
8.163095797098671
 42
8.163252719515911
  0
LINE
  5
167
330
2
100
AcDbEntity
  8
0
100
AcDbLine
 10
39.30249007910993
 20
44.19417709460587
 30
0.0
 11
41.5572158858925
 21
43.54329322955428
 31
0.0
  0
LINE
  5
168
330
2
100
AcDbEntity
  8
0
100
AcDbLine
 10
38.7883512697324
 20
44.84497261315302
 30
0.0
 11
38.34565176851072
 21
44.97276895090191
 31
0.0
  0
LINE
  5
169
330
2
100
AcDbEntity
  8
0
100
AcDbLine
 10
36.81001430078459
 20
39.83201013221257
 30
0.0
 11
37.25271050333243
 21
39.70421474628849
 31
0.0
  0
ELLIPSE
  5
16A
330
2
100
AcDbEntity
  8
0
100
AcDbEllipse
 10
38.04402007398386
 20
42.26654031765508
 30
0.0
 11
0.7443311957464849
 21
2.578432295497715
 31
0.0
210
0.0
220
0.0
230
1.0
 40
0.4392531529546969
 41
5.674061776521702
 42
10.04790227569206
  0
ELLIPSE
  5
16B
330
2
100
AcDbEntity
  8
0
100
AcDbEllipse
 10
37.57783303464766
 20
42.40238954155723
 30
0.0
 11
0.7678187338630764
 21
2.570379409344688
 31
0.0
210
0.0
220
0.0
230
1.0
 40
0.422933421052111
 41
0.0
 42
3.141592653589792
  0
ARC
  5
16C
330
2
100
AcDbEntity
  8
0
100
AcDbCircle
 10
40.59622168509747
 20
19.21087420692699
 30
0.0
 40
0.3910807644140808
100
AcDbArc
 50
191.2670581787393
 51
252.2966832537091
  0
ARC
  5
16D
330
2
100
AcDbEntity
  8
0
100
AcDbCircle
 10
40.528373708635
 20
19.05467129201482
 30
0.0
 40
0.2223046395588911
100
AcDbArc
 50
256.7174923482884
 51
314.9786993315955
  0
SPLINE
  5
16E
330
2
100
AcDbEntity
  8
0
100
AcDbSpline
210
0.0
220
0.0
230
1.0
 70
     8
 71
     3
 72
    12
 73
     8
 74
     0
 42
0.000000001
 43
0.0000000001
 40
0.0
 40
0.0
 40
0.0
 40
0.0
 40
0.1798409596783597
 40
0.4064847645397485
 40
0.5836187720665579
 40
0.7814710913147477
 40
1.0
 40
1.0
 40
1.0
 40
1.0
 10
32.03128234528217
 20
45.84772155123121
 30
0.0
 10
32.14457796810677
 20
46.13740582111002
 30
0.0
 10
32.40065391793269
 20
46.79216346054405
 30
0.0
 10
32.81733393019692
 20
47.6706370527581
 30
0.0
 10
33.2755236135892
 20
48.50678681906866
 30
0.0
 10
33.75128244194821
 20
49.26452482192676
 30
0.0
 10
34.10025902338981
 20
49.70956154451466
 30
0.0
 10
34.28341202449337
 20
49.94312968540969
 30
0.0
  0
SPLINE
  5
16F
330
2
100
AcDbEntity
  8
0
100
AcDbSpline
210
0.0
220
0.0
230
1.0
 70
     8
 71
     3
 72
    13
 73
     9
 74
     0
 42
0.000000001
 43
0.0000000001
 40
0.0
 40
0.0
 40
0.0
 40
0.0
 40
0.1902243924037332
 40
0.3554406739054007
 40
0.4954053716177841
 40
0.6100253902752617
 40
0.7033726967425684
 40
0.7338387061374572
 40
0.7338387061374572
 40
0.7338387061374572
 40
0.7338387061374572
 10
34.3606815809701
 20
50.14820504536604
 30
0.0
 10
34.37749999343316
 20
50.30726749798343
 30
0.0
 10
34.40892576267544
 20
50.60448103951155
 30
0.0
 10
34.54302125224206
 20
51.03217192624082
 30
0.0
 10
34.68899717004911
 20
51.35047696744628
 30
0.0
 10
34.82585493167369
 20
51.56620413564427
 30
0.0
 10
34.92186691286679
 20
51.67816504279459
 30
0.0
 10
34.96716654144047
 20
51.72148849637595
 30
0.0
 10
34.97793190367338
 20
51.73125729964453
 30
0.0
  0
SPLINE
  5
170
330
2
100
AcDbEntity
  8
0
100
AcDbSpline
210
0.0
220
0.0
230
1.0
 70
     8
 71
     3
 72
    11
 73
     7
 74
     0
 42
0.000000001
 43
0.0000000001
 40
0.0
 40
0.0
 40
0.0
 40
0.0
 40
0.1938732068710249
 40
0.4876476247607053
 40
0.7712881275228579
 40
1.0
 40
1.0
 40
1.0
 40
1.0
 10
34.30099135835644
 20
49.96630489612588
 30
0.0
 10
34.30712888958141
 20
49.97484451288432
 30
0.0
 10
34.32256656955849
 20
49.99632413812954
 30
0.0
 10
34.34167343288141
 20
50.04095097425445
 30
0.0
 10
34.35639448457675
 20
50.08955733091443
 30
0.0
 10
34.35918027408843
 20
50.11765135601569
 30
0.0
 10
34.36042383841311
 20
50.13019240666142
 30
0.0
  0
SPLINE
  5
171
330
2
100
AcDbEntity
  8
0
100
AcDbSpline
210
0.0
220
0.0
230
1.0
 70
     8
 71
     3
 72
    11
 73
     7
 74
     0
 42
0.000000001
 43
0.0000000001
 40
0.0
 40
0.0
 40
0.0
 40
0.0
 40
0.2527244815215816
 40
0.5069002775611166
 40
0.7576743614202687
 40
1.0
 40
1.0
 40
1.0
 40
1.0
 10
35.46832485980343
 20
51.16598558369917
 30
0.0
 10
35.48389432838786
 20
51.16138208942924
 30
0.0
 10
35.51512267595217
 20
51.15214866451861
 30
0.0
 10
35.56475064647401
 20
51.15252434573339
 30
0.0
 10
35.61359546222042
 20
51.16265743219831
 30
0.0
 10
35.64325319401997
 20
51.17805063195312
 30
0.0
 10
35.6578279919159
 20
51.18561536336684
 30
0.0
  0
LINE
  5
172
330
2
100
AcDbEntity
  8
0
100
AcDbLine
 10
35.6632920584047
 20
51.18904716012592
 30
0.0
 11
35.88805831304927
 21
51.31175799691333
 31
0.0
  0
LINE
  5
173
330
2
100
AcDbEntity
  8
0
100
AcDbLine
 10
36.09743584628205
 20
51.85606138203157
 30
0.0
 11
36.03291451028832
 21
52.35636117783731
 31
0.0
  0
SPLINE
  5
174
330
2
100
AcDbEntity
  8
0
100
AcDbSpline
210
0.0
220
0.0
230
1.0
 70
     8
 71
     3
 72
    15
 73
    11
 74
     0
 42
0.000000001
 43
0.0000000001
 40
0.0
 40
0.0
 40
0.0
 40
0.0
 40
0.0883618274673138
 40
0.2222797165648208
 40
0.355057117971731
 40
0.4866586032266781
 40
0.616983402098004
 40
0.7459738768109542
 40
0.8736356648183971
 40
1.0
 40
1.0
 40
1.0
 40
1.0
 10
35.90575455318066
 20
51.32446611510942
 30
0.0
 10
35.91600399613628
 20
51.33116034675426
 30
0.0
 10
35.94178711244826
 20
51.3480001061309
 30
0.0
 10
35.98271839335479
 20
51.39820390968056
 30
0.0
 10
36.0246642365895
 20
51.46743273111566
 30
0.0
 10
36.05976072662889
 20
51.54792077597504
 30
0.0
 10
36.08591248561419
 20
51.63290692028231
 30
0.0
 10
36.10142229667741
 20
51.71624668687361
 30
0.0
 10
36.10657437368463
 20
51.79359477319976
 30
0.0
 10
36.10076237376626
 20
51.83430758655792
 30
0.0
 10
36.09787121636669
 20
51.85456002173577
 30
0.0
  0
LINE
  5
175
330
2
100
AcDbEntity
  8
0
100
AcDbLine
 10
32.81223544034259
 20
35.40990771760888
 30
0.0
 11
34.50993105825364
 21
34.9198252066896
 31
0.0
  0
LINE
  5
176
330
2
100
AcDbEntity
  8
0
100
AcDbLine
 10
38.078442216854
 20
50.65169545855752
 30
0.0
 11
37.27879761781156
 21
50.88253297085107
 31
0.0
  0
LINE
  5
177
330
2
100
AcDbEntity
  8
0
100
AcDbLine
 10
34.62615492664407
 20
34.88627426579689
 30
0.0
 11
35.55594414173686
 21
34.61786723896574
 31
0.0
  0
LINE
  5
178
330
2
100
AcDbEntity
  8
0
100
AcDbLine
 10
36.03176422706747
 20
51.48810243087133
 30
0.0
 11
36.03176422706747
 21
51.46222573881509
 31
0.0
  0
SPLINE
  5
179
330
2
100
AcDbEntity
  8
0
100
AcDbSpline
210
0.0
220
0.0
230
1.0
 70
     8
 71
     3
 72
     9
 73
     5
 74
     0
 42
0.000000001
 43
0.0000000001
 40
0.0
 40
0.0
 40
0.0
 40
0.0
 40
0.5
 40
1.0
 40
1.0
 40
1.0
 40
1.0
 10
32.02940169881709
 20
45.92132438789705
 30
0.0
 10
31.8355974907305
 20
45.5234490986408
 30
0.0
 10
31.48127840586204
 20
44.7147862781756
 30
0.0
 10
31.19120501502911
 20
43.88198435816859
 30
0.0
 10
31.06263470259185
 20
43.45938199197209
 30
0.0
  0
SPLINE
  5
17A
330
2
100
AcDbEntity
  8
0
100
AcDbSpline
210
0.0
220
0.0
230
1.0
 70
     8
 71
     3
 72
    21
 73
    17
 74
     0
 42
0.000000001
 43
0.0000000001
 40
0.0
 40
0.0
 40
0.0
 40
0.0
 40
0.125
 40
0.125
 40
0.25
 40
0.25
 40
0.375
 40
0.375
 40
0.5
 40
0.625
 40
0.625
 40
0.75
 40
0.75
 40
0.875
 40
0.875
 40
1.0
 40
1.0
 40
1.0
 40
1.0
 10
31.06263470259185
 20
43.45938199197209
 30
0.0
 10
31.02268646728936
 20
43.32806771089988
 30
0.0
 10
30.98286404244462
 20
43.19071808352976
 30
0.0
 10
30.90460306268196
 20
42.90487716494437
 30
0.0
 10
30.86621410514533
 20
42.7566984887027
 30
0.0
 10
30.79155552996108
 20
42.44762758133886
 30
0.0
 10
30.75519003646145
 20
42.28628971327586
 30
0.0
 10
30.68534686214176
 20
41.94874318117729
 30
0.0
 10
30.61867580914722
 20
41.59748317092226
 30
0.0
 10
30.56311253424659
 20
41.2278374480958
 30
0.0
 10
30.51482543278203
 20
40.85634526696758
 30
0.0
 10
30.49443073555912
 20
40.67002901380631
 30
0.0
 10
30.46175366460545
 20
40.30007191473488
 30
0.0
 10
30.44942084666525
 20
40.1163777296962
 30
0.0
 10
30.43295900425514
 20
39.75327572907913
 30
0.0
 10
30.42882010141259
 20
39.57362152520378
 30
0.0
 10
30.42882000426656
 20
39.39549099650983
 30
0.0
  0
SPLINE
  5
17B
330
2
100
AcDbEntity
  8
0
100
AcDbSpline
210
0.0
220
0.0
230
1.0
 70
     8
 71
     3
 72
    21
 73
    17
 74
     0
 42
0.000000001
 43
0.0000000001
 40
0.0
 40
0.0
 40
0.0
 40
0.0
 40
0.1250000000000002
 40
0.1250000000000002
 40
0.2500000000000003
 40
0.2500000000000003
 40
0.3750000000000005
 40
0.3750000000000005
 40
0.5000000000000006
 40
0.6250000000000005
 40
0.6250000000000005
 40
0.7500000000000002
 40
0.7500000000000002
 40
0.875
 40
0.875
 40
1.0
 40
1.0
 40
1.0
 40
1.0
 10
31.06263470259185
 20
36.16889472623014
 30
0.0
 10
31.02268646728936
 20
36.24743589781114
 30
0.0
 10
30.98286404244462
 20
36.33217856766464
 30
0.0
 10
30.90460306268187
 20
36.51463372043873
 30
0.0
 10
30.86621410514525
 20
36.61209911699154
 30
0.0
 10
30.79155552996108
 20
36.82254323062768
 30
0.0
 10
30.75519003646145
 20
36.9358409279789
 30
0.0
 10
30.6853468621419
 20
37.1811220266447
 30
0.0
 10
30.61867580914753
 20
37.4443070809373
 30
0.0
 10
30.5631125342461
 20
37.74055140891237
 30
0.0
 10
30.51482543278189
 20
38.04825460075554
 30
0.0
 10
30.49443073556048
 20
38.20762903803253
 30
0.0
 10
30.46175366460719
 20
38.53441872811106
 30
0.0
 10
30.4494208466642
 20
38.70182037597578
 30
0.0
 10
30.43295900424511
 20
39.04317377877657
 30
0.0
 10
30.42882010139903
 20
39.21735933416449
 30
0.0
 10
30.42882000426656
 20
39.39549099650983
 30
0.0
  0
SPLINE
  5
17C
330
2
100
AcDbEntity
  8
0
100
AcDbSpline
210
0.0
220
0.0
230
1.0
 70
     8
 71
     3
 72
     9
 73
     5
 74
     0
 42
0.000000001
 43
0.0000000001
 40
0.0
 40
0.0
 40
0.0
 40
0.0
 40
0.5
 40
1.0
 40
1.0
 40
1.0
 40
1.0
 10
32.02940169881709
 20
34.98408795851835
 30
0.0
 10
31.8355974907305
 20
35.12594070491006
 30
0.0
 10
31.48127840586204
 20
35.46653415233359
 30
0.0
 10
31.19120501502911
 20
35.91613909793642
 30
0.0
 10
31.06263470259185
 20
36.16889472623014
 30
0.0
  0
SPLINE
  5
17D
330
2
100
AcDbEntity
  8
0
100
AcDbSpline
210
0.0
220
0.0
230
1.0
 70
     8
 71
     3
 72
     8
 73
     4
 74
     0
 42
0.000000001
 43
0.0000000001
 40
0.0
 40
0.0
 40
0.0
 40
0.0
 40
1.0
 40
1.0
 40
1.0
 40
1.0
 10
32.03301903895965
 20
45.90513777430095
 30
0.0
 10
32.03041282940342
 20
45.90753150226755
 30
0.0
 10
32.02940169888217
 20
45.91327143323261
 30
0.0
 10
32.02940169881709
 20
45.92132438789705
 30
0.0
  0
SPLINE
  5
17E
330
2
100
AcDbEntity
  8
0
100
AcDbSpline
210
0.0
220
0.0
230
1.0
 70
     8
 71
     3
 72
    14
 73
    10
 74
     0
 42
0.000000001
 43
0.0000000001
 40
0.0
 40
0.0
 40
0.0
 40
0.0
 40
0.2500000000000006
 40
0.2500000000000006
 40
0.5000000000000014
 40
0.5000000000000014
 40
0.7500000000000018
 40
0.7500000000000018
 40
1.0
 40
1.0
 40
1.0
 40
1.0
 10
35.18741591334708
 20
51.25896599482793
 30
0.0
 10
35.18945293944211
 20
51.2228794529564
 30
0.0
 10
35.19485702538879
 20
51.19208908465508
 30
0.0
 10
35.21167843811412
 20
51.13981906209755
 30
0.0
 10
35.22299949379612
 20
51.11855573569944
 30
0.0
 10
35.25128289596427
 20
51.08773382798038
 30
0.0
 10
35.26867040939283
 20
51.07809624025323
 30
0.0
 10
35.30832225339305
 20
51.0733116033159
 30
0.0
 10
35.33010543699572
 20
51.07823268450736
 30
0.0
 10
35.3543277310352
 20
51.09213118820197
 30
0.0
  0
ARC
  5
17F
330
2
100
AcDbEntity
  8
0
100
AcDbCircle
 10
36.8627631407623
 20
51.92186593047548
 30
0.0
 40
0.949888056476918
100
AcDbArc
 50
208.0904109605993
 51
232.1762434458007
  0
SPLINE
  5
180
330
2
100
AcDbEntity
  8
0
100
AcDbSpline
210
0.0
220
0.0
230
1.0
 70
     8
 71
     3
 72
    17
 73
    13
 74
     0
 42
0.000000001
 43
0.0000000001
 40
0.0
 40
0.0
 40
0.0
 40
0.0
 40
0.0476816978046439
 40
0.0991840826067074
 40
0.1416754120588285
 40
0.1923377337396588
 40
0.3615891049129751
 40
0.4723560088727379
 40
0.5852355015253225
 40
0.7387303130618107
 40
0.8769790823688833
 40
1.0
 40
1.0
 40
1.0
 40
1.0
 10
36.68592407596822
 20
51.02421373367495
 30
0.0
 10
36.68021158220199
 20
51.02481598369407
 30
0.0
 10
36.66832885822879
 20
51.02606874142729
 30
0.0
 10
36.64895332725985
 20
51.02912000497379
 30
0.0
 10
36.62808837542383
 20
51.0330243403774
 30
0.0
 10
36.58906918034126
 20
51.04122356922092
 30
0.0
 10
36.53845737280068
 20
51.05437266778626
 30
0.0
 10
36.47999321895298
 20
51.07300618693726
 30
0.0
 10
36.42568177094421
 20
51.09314806101458
 30
0.0
 10
36.37098972649813
 20
51.11729363461704
 30
0.0
 10
36.31963449441395
 20
51.14449203662433
 30
0.0
 10
36.29286394038377
 20
51.16288716905008
 30
0.0
 10
36.28025881132777
 20
51.17154866398853
 30
0.0
  0
ARC
  5
181
330
2
100
AcDbEntity
  8
0
100
AcDbCircle
 10
36.56456982575964
 20
49.27893155946634
 30
0.0
 40
1.741584444690931
100
AcDbArc
 50
88.08898302440027
 51
98.58945547120006
  0
ARC
  5
182
330
2
100
AcDbEntity
  8
0
100
AcDbCircle
 10
36.61789083347406
 20
48.93160020926835
 30
0.0
 40
2.092983930303641
100
AcDbArc
 50
98.61266535080011
 51
107.9014257388003
  0
ARC
  5
183
330
2
100
AcDbEntity
  8
0
100
AcDbCircle
 10
36.78067115803538
 20
48.42751736399264
 30
0.0
 40
2.622697954344725
100
AcDbArc
 50
107.9004310011005
 51
115.8913356585994
  0
ARC
  5
184
330
2
100
AcDbEntity
  8
0
100
AcDbCircle
 10
37.09496814019889
 20
47.77817680060194
 30
0.0
 40
3.344103016500493
100
AcDbArc
 50
115.8777020746
 51
122.6729023913
  0
ARC
  5
185
330
2
100
AcDbEntity
  8
0
100
AcDbCircle
 10
37.59031015371909
 20
47.00342934447915
 30
0.0
 40
4.263665981991526
100
AcDbArc
 50
122.6557113868995
 51
128.4348845399012
  0
ARC
  5
186
330
2
100
AcDbEntity
  8
0
100
AcDbCircle
 10
38.28137466297602
 20
46.13011180844623
 30
0.0
 40
5.37733189177481
100
AcDbArc
 50
128.4183205060995
 51
133.3681457575002
  0
ARC
  5
187
330
2
100
AcDbEntity
  8
0
100
AcDbCircle
 10
39.16634766031194
 20
45.19085274112368
 30
0.0
 40
6.667828943687172
100
AcDbArc
 50
133.354081430401
 51
137.6427249296005
  0
ARC
  5
188
330
2
100
AcDbEntity
  8
0
100
AcDbCircle
 10
40.22688072453798
 20
44.22167730916386
 30
0.0
 40
8.104501896933948
100
AcDbArc
 50
137.6311016882006
 51
141.3965324495995
  0
ARC
  5
189
330
2
100
AcDbEntity
  8
0
100
AcDbCircle
 10
41.43004523742115
 20
43.25909189965684
 30
0.0
 40
9.645337215198725
100
AcDbArc
 50
141.3872825115007
 51
144.7400199937992
  0
ARC
  5
18A
330
2
100
AcDbEntity
  8
0
100
AcDbCircle
 10
42.72705090822967
 20
42.34034398787944
 30
0.0
 40
11.23477725172624
100
AcDbArc
 50
144.7326237487992
 51
147.7611492752004
  0
ARC
  5
18B
330
2
100
AcDbEntity
  8
0
100
AcDbCircle
 10
44.06143047266169
 20
41.49719052848298
 30
0.0
 40
12.81321793824797
100
AcDbArc
 50
147.7551520139987
 51
150.5294597166991
  0
ARC
  5
18C
330
2
100
AcDbEntity
  8
0
100
AcDbCircle
 10
49.25513490763887
 20
39.04427240221737
 30
0.0
 40
18.56769148242919
100
AcDbArc
 50
162.2472384409012
 51
164.4136366130986
  0
ARC
  5
18D
330
2
100
AcDbEntity
  8
0
100
AcDbCircle
 10
49.17619166936351
 20
39.06541255301969
 30
0.0
 40
18.48597111998875
100
AcDbArc
 50
164.4110066010002
 51
166.5837803060996
  0
ARC
  5
18E
330
2
100
AcDbEntity
  8
0
100
AcDbCircle
 10
48.76667709840837
 20
39.16221087736268
 30
0.0
 40
18.06517266199185
100
AcDbArc
 50
166.5810521112
 51
168.7874416907001
  0
ARC
  5
18F
330
2
100
AcDbEntity
  8
0
100
AcDbCircle
 10
48.04142338141923
 20
39.30508609498626
 30
0.0
 40
17.32598021084049
100
AcDbArc
 50
168.7845414386012
 51
171.0532534602008
  0
ARC
  5
190
330
2
100
AcDbEntity
  8
0
100
AcDbCircle
 10
47.03114270423492
 20
39.46320213613746
 30
0.0
 40
16.30340169353624
100
AcDbArc
 50
171.0500100229004
 51
173.4126511902012
  0
ARC
  5
191
330
2
100
AcDbEntity
  8
0
100
AcDbCircle
 10
45.78236241683896
 20
39.6064154127585
 30
0.0
 40
15.04643662329426
100
AcDbArc
 50
173.4088831097
 51
175.9013683304003
  0
ARC
  5
192
330
2
100
AcDbEntity
  8
0
100
AcDbCircle
 10
44.35252086416085
 20
39.70780961122125
 30
0.0
 40
13.61300493508091
100
AcDbArc
 50
175.8969023710986
 51
178.5614640809994
  0
ARC
  5
193
330
2
100
AcDbEntity
  8
0
100
AcDbCircle
 10
42.80728765477857
 20
39.74547158887774
 30
0.0
 40
12.06731330222147
100
AcDbArc
 50
178.5560405319
 51
181.4439594681
  0
ARC
  5
194
330
2
100
AcDbEntity
  8
0
100
AcDbCircle
 10
41.21610309129562
 20
39.70414565661373
 30
0.0
 40
10.47559270998608
100
AcDbArc
 50
181.4373071667995
 51
184.6104678455001
  0
ARC
  5
195
330
2
100
AcDbEntity
  8
0
100
AcDbCircle
 10
39.64781889670809
 20
39.57638750730498
 30
0.0
 40
8.902113915000679
100
AcDbArc
 50
184.6022008867996
 51
188.1391256771997
  0
ARC
  5
196
330
2
100
AcDbEntity
  8
0
100
AcDbCircle
 10
38.16589254546904
 20
39.36309948979815
 30
0.0
 40
7.404918084750867
100
AcDbArc
 50
188.1288150921001
 51
192.1278446640003
  0
ARC
  5
197
330
2
100
AcDbEntity
  8
0
100
AcDbCircle
 10
36.82497483225967
 20
39.07358127663327
 30
0.0
 40
6.033102167185615
100
AcDbArc
 50
192.1151365256011
 51
196.6996197821009
  0
ARC
  5
198
330
2
100
AcDbEntity
  8
0
100
AcDbCircle
 10
35.66700954906645
 20
38.7248416076116
 30
0.0
 40
4.823763137853653
100
AcDbArc
 50
196.6843541811982
 51
202.0064711788988
  0
ARC
  5
199
330
2
100
AcDbEntity
  8
0
100
AcDbCircle
 10
34.71940050772616
 20
38.34062952833856
 30
0.0
 40
3.801226991563283
100
AcDbArc
 50
201.9893007591997
 51
208.2279158289995
  0
ARC
  5
19A
330
2
100
AcDbEntity
  8
0
100
AcDbCircle
 10
33.99285847009935
 20
37.94964912130411
 30
0.0
 40
2.976164506250391
100
AcDbArc
 50
208.2116983747994
 51
215.5563073887003
  0
ARC
  5
19B
330
2
100
AcDbEntity
  8
0
100
AcDbCircle
 10
33.48155015299926
 20
37.58372496965401
 30
0.0
 40
2.347406597428167
100
AcDbArc
 50
215.5473162110993
 51
224.1516725974002
  0
SPLINE
  5
19C
330
2
100
AcDbEntity
  8
0
100
AcDbSpline
210
0.0
220
0.0
230
1.0
 70
     8
 71
     3
 72
     9
 73
     5
 74
     0
 42
0.000000001
 43
0.0000000001
 40
0.0
 40
0.0
 40
0.0
 40
0.0
 40
0.3496796417535199
 40
1.0
 40
1.0
 40
1.0
 40
1.0
 10
32.03954081595055
 20
45.88060498882277
 30
0.0
 10
32.04286362788727
 20
45.88175571452119
 30
0.0
 10
32.05236607395514
 20
45.88504651433051
 30
0.0
 10
32.04064265571486
 20
45.89722080346013
 30
0.0
 10
32.03301867816495
 20
45.90513799152834
 30
0.0
  0
LINE
  5
19D
330
2
100
AcDbEntity
  8
0
100
AcDbLine
 10
34.28270112449928
 20
49.94245136375367
 30
0.0
 11
34.29086365864782
 21
49.95118938367755
 31
0.0
  0
SPLINE
  5
19E
330
2
100
AcDbEntity
  8
0
100
AcDbSpline
210
0.0
220
0.0
230
1.0
 70
     8
 71
     3
 72
     8
 73
     4
 74
     0
 42
0.000000001
 43
0.0000000001
 40
0.0
 40
0.0
 40
0.0
 40
0.0
 40
1.0
 40
1.0
 40
1.0
 40
1.0
 10
32.03301903895965
 20
35.00680048017498
 30
0.0
 10
32.03041282940342
 20
34.99970502570717
 30
0.0
 10
32.02940169888217
 20
34.99214091330629
 30
0.0
 10
32.02940169881709
 20
34.98408795851835
 30
0.0
  0
LINE
  5
19F
330
2
100
AcDbEntity
  8
0
100
AcDbLine
 10
35.6577522178622
 20
51.18556998322744
 30
0.0
 11
35.66324079844174
 21
51.18901519728296
 31
0.0
  0
SPLINE
  5
1A0
330
2
100
AcDbEntity
  8
0
100
AcDbSpline
210
0.0
220
0.0
230
1.0
 70
     8
 71
     3
 72
    21
 73
    17
 74
     0
 42
0.000000001
 43
0.0000000001
 40
0.0
 40
0.0
 40
0.0
 40
0.0
 40
0.125
 40
0.125
 40
0.25
 40
0.25
 40
0.375
 40
0.375
 40
0.5
 40
0.625
 40
0.625
 40
0.75
 40
0.75
 40
0.875
 40
0.875
 40
1.0
 40
1.0
 40
1.0
 40
1.0
 10
32.03301903895965
 20
35.00680048017498
 30
0.0
 10
32.1093623493982
 20
34.94205092124488
 30
0.0
 10
32.19003179316036
 20
34.8832846167556
 30
0.0
 10
32.36339968787172
 20
34.78000331126315
 30
0.0
 10
32.45677440786835
 20
34.73528676214316
 30
0.0
 10
32.65351944320844
 20
34.66400214692797
 30
0.0
 10
32.75657821487766
 20
34.63779483070126
 30
0.0
 10
32.96612923866593
 20
34.60743604452009
 30
0.0
 10
33.17900737950589
 20
34.59809320137129
 30
0.0
 10
33.38559806537222
 20
34.62675493890613
 30
0.0
 10
33.58631179819884
 20
34.66957304888263
 30
0.0
 10
33.68338976031089
 20
34.69788068503556
 30
0.0
 10
33.87165892819309
 20
34.76524325233064
 30
0.0
 10
33.96312245014826
 20
34.80438790379299
 30
0.0
 10
34.14185520352067
 20
34.89118326815602
 30
0.0
 10
34.22892023034933
 20
34.93883414547205
 30
0.0
 10
34.31323680109267
 20
34.98952870290344
 30
0.0
  0
LINE
  5
1A1
330
2
100
AcDbEntity
  8
0
100
AcDbLine
 10
37.78922523040421
 20
35.38076205141393
 30
0.0
 11
41.04050582762636
 21
38.1964536433561
 31
0.0
  0
LWPOLYLINE
  5
1A2
330
2
100
AcDbEntity
  8
0
100
AcDbPolyline
 90
       30
 70
   128
 43
0.0
 10
37.78922523040421
 20
49.32759767975981
 10
37.35392640783135
 20
48.90973971639454
 10
36.92373154386558
 20
48.41502365654359
 10
36.50368360350632
 20
47.84924995601158
 10
36.09870756420321
 20
47.21905123276882
 10
35.71355117239654
 20
46.53181671427649
 10
35.35273044898145
 20
45.79560304611545
 10
35.02047494542234
 20
45.01904185409716
 10
34.72068074823994
 20
44.21123756320187
 10
34.45686248462243
 20
43.38166088885622
 10
34.23211307654219
 20
42.54003821286118
 10
34.04906749440636
 20
41.69623641518994
 10
33.9098718855567
 20
40.86014824514874
 10
33.81615820189131
 20
40.04157639546217
 10
33.76902495186363
 20
39.25011754736959
 10
33.76902495186363
 20
38.49505104480306
 10
33.81615820189131
 20
37.78522938044633
 10
33.9098718855567
 20
37.12897439215248
 10
34.04906749440636
 20
36.53398008888006
 10
34.23211307654219
 20
36.00722253949032
 10
34.45686248462243
 20
35.554877257346
 10
34.72068074823994
 20
35.18224721946403
 10
35.02047494542234
 20
34.89370170998391
 10
35.35273044898145
 20
34.69262393128549
 10
35.71355117239654
 20
34.58137008843098
 10
36.09870756420321
 20
34.56124600944009
 10
36.50368360350632
 20
34.63248636200118
 10
36.92373154386558
 20
34.79425703585124
 10
37.35392640783135
 20
35.04466033765895
 10
37.78922523040421
 20
35.38076205141393
  0
LWPOLYLINE
  5
1A3
330
2
100
AcDbEntity
  8
0
100
AcDbPolyline
 90
       25
 70
   128
 43
0.0
 10
36.85943601531147
 20
49.59600470659085
 10
36.42413719273856
 20
49.17814674322569
 10
35.9939423287729
 20
48.68343068337466
 10
35.57389438841352
 20
48.11765698284278
 10
35.16891834911041
 20
47.48745825959994
 10
34.78376195730374
 20
46.80022374110756
 10
34.42294123388865
 20
46.0640100729466
 10
34.09068573032954
 20
45.28744888092831
 10
33.79089153314726
 20
44.479644590033
 10
33.52707326952975
 20
43.65006791555312
 10
33.30232386144945
 20
42.80844523969235
 10
33.11927827931362
 20
41.96464344188681
 10
32.98008267046396
 20
41.12855527197985
 10
32.88636898679857
 20
40.30998342229325
 10
32.83923573677089
 20
39.51852457420075
 10
32.83923573677089
 20
38.76345807163417
 10
32.88636898679857
 20
38.05363640727742
 10
32.98008267046396
 20
37.39738141898366
 10
33.11927827931362
 20
36.80238711571122
 10
33.30232386144945
 20
36.27562956632145
 10
33.52707326952975
 20
35.82328428417713
 10
33.79089153314726
 20
35.45065424629514
 10
34.09068573032954
 20
35.162108736815
 10
34.42294123388865
 20
34.96103095811665
 10
34.62615492664407
 20
34.88627426579689
  0
ARC
  5
1A4
330
2
100
AcDbEntity
  8
0
100
AcDbCircle
 10
34.69761019428677
 20
51.32431729967392
 30
0.0
 40
0.4941461568499804
100
AcDbArc
 50
352.400248610799
 51
56.19887108879979
  0
ARC
  5
1A5
330
2
100
AcDbEntity
  8
0
100
AcDbCircle
 10
37.06380906075964
 20
48.11627041035286
 30
0.0
 40
3.431919544452429
100
AcDbArc
 50
117.543822424601
 51
119.8751911184002
  0
SPLINE
  5
1A6
330
2
100
AcDbEntity
  8
0
100
AcDbSpline
210
0.0
220
0.0
230
1.0
 70
     8
 71
     3
 72
    12
 73
     8
 74
     0
 42
0.000000001
 43
0.0000000001
 40
0.0
 40
0.0
 40
0.0
 40
0.0
 40
0.2097939302528936
 40
0.4184431606768052
 40
0.6271195698537289
 40
0.8358492180700064
 40
1.0
 40
1.0
 40
1.0
 40
1.0
 10
34.33481722323325
 20
34.96756626216375
 30
0.0
 10
34.35214092204501
 20
34.83250476025855
 30
0.0
 10
34.38669379627083
 20
34.56311869329824
 30
0.0
 10
34.54988180159978
 20
34.33981911216949
 30
0.0
 10
34.76932604049375
 20
34.29817578200065
 30
0.0
 10
35.009281667339
 20
34.4226201107899
 30
0.0
 10
35.15715134340934
 20
34.62507281738807
 30
0.0
 10
35.22224707112332
 20
34.71419728572999
 30
0.0
  0
ARC
  5
1A7
330
2
100
AcDbEntity
  8
0
100
AcDbCircle
 10
33.15892359632159
 20
37.36497280175362
 30
0.0
 40
1.964717831320659
100
AcDbArc
 50
226.1285274958104
 51
252.589238193219
  0
LINE
  5
1A8
330
2
100
AcDbEntity
  8
0
100
AcDbLine
 10
32.81223544034259
 20
35.40990771760888
 30
0.0
 11
32.57104068567258
 21
35.49027020131902
 31
0.0
  0
ARC
  5
1A9
330
2
100
AcDbEntity
  8
0
100
AcDbCircle
 10
-67.99828315427155
 20
85.34937379810223
 30
0.0
 40
107.546708477118
100
AcDbArc
 50
337.7879814765034
 51
338.4509480045275
  0
LINE
  5
1AA
330
2
100
AcDbEntity
  8
0
100
AcDbLine
 10
36.68592407596822
 20
51.02421373367495
 30
0.0
 11
37.27879761781156
 21
50.88253297085107
 31
0.0
  0
ELLIPSE
  5
1AB
330
2
100
AcDbEntity
  8
0
100
AcDbEllipse
 10
27.27645304267901
 20
80.87589532859764
 30
0.0
 11
-3.22088283591093
 21
0.0000000796497473
 31
0.0
210
0.0
220
0.0
230
1.0
 40
0.4984563822885427
 41
0.0
 42
6.283185307179586
  0
ELLIPSE
  5
1AC
330
2
100
AcDbEntity
  8
0
100
AcDbEllipse
 10
33.71697008435501
 20
82.16624634501625
 30
0.0
 11
-3.22088283591093
 21
0.0000000796497473
 31
0.0
210
0.0
220
0.0
230
1.0
 40
0.4984563822885427
 41
2.581892324673725
 42
5.793008337744701
  0
LINE
  5
1AD
330
2
100
AcDbEntity
  8
0
100
AcDbLine
 10
32.33248853848897
 20
7.112466175701875
 30
0.0
 11
32.49966523302465
 21
7.212464022437565
 31
0.0
  0
SPLINE
  5
1AE
330
2
100
AcDbEntity
  8
0
100
AcDbSpline
210
0.0
220
0.0
230
1.0
 70
     8
 71
     3
 72
     9
 73
     5
 74
     0
 42
0.000000001
 43
0.0000000001
 40
0.0
 40
0.0
 40
0.0
 40
0.0
 40
0.5599475811448509
 40
1.0
 40
1.0
 40
1.0
 40
1.0
 10
15.70080676748074
 20
73.38037446266032
 30
0.0
 10
15.77291041732584
 20
73.37941149399917
 30
0.0
 10
15.90167898830097
 20
73.37769174612792
 30
0.0
 10
16.02663829030916
 20
73.34630763241371
 30
0.0
 10
16.08162693341643
 20
73.33249697726033
 30
0.0
  0
SPLINE
  5
1AF
330
2
100
AcDbEntity
  8
0
100
AcDbSpline
210
0.0
220
0.0
230
1.0
 70
     8
 71
     3
 72
     9
 73
     5
 74
     0
 42
0.000000001
 43
0.0000000001
 40
0.0
 40
0.0
 40
0.0
 40
0.0
 40
0.5718308564225351
 40
1.0
 40
1.0
 40
1.0
 40
1.0
 10
22.68233015662671
 20
70.72389558933661
 30
0.0
 10
22.62948342935937
 20
70.52462631504794
 30
0.0
 10
22.53706671788962
 20
70.1761504116392
 30
0.0
 10
22.44265394807024
 20
69.82829235800635
 30
0.0
 10
22.40222931327372
 20
69.679350273096
 30
0.0
  0
SPLINE
  5
1B0
330
2
100
AcDbEntity
  8
0
100
AcDbSpline
210
0.0
220
0.0
230
1.0
 70
     8
 71
     3
 72
     9
 73
     5
 74
     0
 42
0.000000001
 43
0.0000000001
 40
0.0
 40
0.0
 40
0.0
 40
0.0
 40
0.5718308564225351
 40
1.0
 40
1.0
 40
1.0
 40
1.0
 10
23.36800162964658
 20
70.52595928457508
 30
0.0
 10
23.32013215026635
 20
70.32525320258243
 30
0.0
 10
23.2364194949547
 20
69.97426465459056
 30
0.0
 10
23.15472396937548
 20
69.62273544876508
 30
0.0
 10
23.11974446615369
 20
69.4722214897644
 30
0.0
  0
SPLINE
  5
1B1
330
2
100
AcDbEntity
  8
0
100
AcDbSpline
210
0.0
220
0.0
230
1.0
 70
     8
 71
     3
 72
     9
 73
     5
 74
     0
 42
0.000000001
 43
0.0000000001
 40
0.0
 40
0.0
 40
0.0
 40
0.0
 40
0.4981692180306485
 40
1.0
 40
1.0
 40
1.0
 40
1.0
 10
14.76340241475412
 20
72.92393201608279
 30
0.0
 10
14.89769812862636
 20
73.05080337652789
 30
0.0
 10
15.16727663531
 20
73.30547860705827
 30
0.0
 10
15.52252979603617
 20
73.35534831042387
 30
0.0
 10
15.70080676748074
 20
73.38037446266032
 30
0.0
  0
SPLINE
  5
1B2
330
2
100
AcDbEntity
  8
0
100
AcDbSpline
210
0.0
220
0.0
230
1.0
 70
     8
 71
     3
 72
     9
 73
     5
 74
     0
 42
0.000000001
 43
0.0000000001
 40
0.0
 40
0.0
 40
0.0
 40
0.0
 40
0.561215280618309
 40
1.0
 40
1.0
 40
1.0
 40
1.0
 10
14.61493694024546
 20
72.75326871037198
 30
0.0
 10
14.64262681579544
 20
72.78518958426101
 30
0.0
 10
14.69196594911156
 20
72.84206771105353
 30
0.0
 10
14.74161650814255
 20
72.89896594184951
 30
0.0
 10
14.76340241475412
 20
72.92393201608279
 30
0.0
  0
SPLINE
  5
1B3
330
2
100
AcDbEntity
  8
0
100
AcDbSpline
210
0.0
220
0.0
230
1.0
 70
     8
 71
     3
 72
    15
 73
    11
 74
     0
 42
0.000000001
 43
0.0000000001
 40
0.0
 40
0.0
 40
0.0
 40
0.0
 40
0.0963509274014347
 40
0.195212221227588
 40
0.3009515942447997
 40
0.4195954329937355
 40
0.5548829956202319
 40
0.7004210106289215
 40
0.8483495573845994
 40
1.0
 40
1.0
 40
1.0
 40
1.0
 10
14.61002873344657
 20
71.31229204076153
 30
0.0
 10
14.56630935951656
 20
71.33280986027303
 30
0.0
 10
14.47773152922701
 20
71.37438007894726
 30
0.0
 10
14.37290207137792
 20
71.49470284928056
 30
0.0
 10
14.29855894176319
 20
71.65650995310874
 30
0.0
 10
14.26461175143669
 20
71.86106539028749
 30
0.0
 10
14.27889389412698
 20
72.09522851529412
 30
0.0
 10
14.34474091923985
 20
72.33627693367949
 30
0.0
 10
14.45502917335508
 20
72.56654627509654
 30
0.0
 10
14.56119469315914
 20
72.69051451494862
 30
0.0
 10
14.61493694024546
 20
72.75326871037198
 30
0.0
  0
SPLINE
  5
1B4
330
2
100
AcDbEntity
  8
0
100
AcDbSpline
210
0.0
220
0.0
230
1.0
 70
     8
 71
     3
 72
     9
 73
     5
 74
     0
 42
0.000000001
 43
0.0000000001
 40
0.0
 40
0.0
 40
0.0
 40
0.0
 40
0.5718308564225351
 40
1.0
 40
1.0
 40
1.0
 40
1.0
 10
20.3457100755584
 20
71.39841970573589
 30
0.0
 10
20.29784059617785
 20
71.19771362374341
 30
0.0
 10
20.21412794086712
 20
70.84672507575142
 30
0.0
 10
20.13243241528707
 20
70.49519586992618
 30
0.0
 10
20.09745291206568
 20
70.3446819109257
 30
0.0
  0
SPLINE
  5
1B5
330
2
100
AcDbEntity
  8
0
100
AcDbSpline
210
0.0
220
0.0
230
1.0
 70
     8
 71
     3
 72
     9
 73
     5
 74
     0
 42
0.000000001
 43
0.0000000001
 40
0.0
 40
0.0
 40
0.0
 40
0.0
 40
0.5718308887998629
 40
1.0
 40
1.0
 40
1.0
 40
1.0
 10
19.66003860253869
 20
71.59635601049778
 30
0.0
 10
19.60719091438494
 20
71.39708702170269
 30
0.0
 10
19.51477252778053
 20
71.04861163728781
 30
0.0
 10
19.42036160155507
 20
70.70075301246918
 30
0.0
 10
19.37993775918551
 20
70.55181069425701
 30
0.0
  0
SPLINE
  5
1B6
330
2
100
AcDbEntity
  8
0
100
AcDbSpline
210
0.0
220
0.0
230
1.0
 70
     8
 71
     3
 72
     9
 73
     5
 74
     0
 42
0.000000001
 43
0.0000000001
 40
0.0
 40
0.0
 40
0.0
 40
0.0
 40
0.5718308887998629
 40
1.0
 40
1.0
 40
1.0
 40
1.0
 10
17.20717453999654
 20
72.30443687389485
 30
0.0
 10
17.15930602531014
 20
72.10373052152907
 30
0.0
 10
17.07559506176451
 20
71.7527415205905
 30
0.0
 10
16.99389767428727
 20
71.40121281326269
 30
0.0
 10
16.95891737650365
 20
71.2506990790847
 30
0.0
  0
LINE
  5
1B7
330
2
100
AcDbEntity
  8
0
100
AcDbLine
 10
26.82656279018554
 20
70.23030369114001
 30
0.0
 11
16.08162693352977
 21
73.33249697705905
 31
0.0
  0
LINE
  5
1B8
330
2
100
AcDbEntity
  8
0
100
AcDbLine
 10
16.24140222337468
 20
71.45782786238952
 30
0.0
 11
16.9589173763996
 21
71.2506990790679
 31
0.0
  0
LINE
  5
1B9
330
2
100
AcDbEntity
  8
0
100
AcDbLine
 10
19.3799377591786
 20
70.55181069414927
 30
0.0
 11
20.09745291220381
 21
70.34468191082807
 31
0.0
  0
LINE
  5
1BA
330
2
100
AcDbEntity
  8
0
100
AcDbLine
 10
23.11974446594636
 20
69.47222148959473
 30
0.0
 11
22.40222931345806
 21
69.67935027291663
 31
0.0
  0
LINE
  5
1BB
330
2
100
AcDbEntity
  8
0
100
AcDbLine
 10
15.25600846249591
 20
71.09031184800558
 30
0.0
 11
26.48905791440223
 21
67.84761342717847
 31
0.0
  0
LINE
  5
1BC
330
2
100
AcDbEntity
  8
0
100
AcDbLine
 10
23.52557196364484
 20
71.18361514360647
 30
0.0
 11
23.36800162967819
 21
70.52595928446949
 31
0.0
  0
LINE
  5
1BD
330
2
100
AcDbEntity
  8
0
100
AcDbLine
 10
20.50328040935858
 20
72.05607556481171
 30
0.0
 11
20.34571007539875
 21
71.39841970570235
 31
0.0
  0
LINE
  5
1BE
330
2
100
AcDbEntity
  8
0
100
AcDbLine
 10
22.85487419830165
 20
71.3772289112865
 30
0.0
 11
22.68233015656313
 21
70.72389558933507
 31
0.0
  0
LINE
  5
1BF
330
2
100
AcDbEntity
  8
0
100
AcDbLine
 10
15.25600846249591
 20
71.09031184800558
 30
0.0
 11
14.61002873366499
 21
71.31229204098493
 31
0.0
  0
LINE
  5
1C0
330
2
100
AcDbEntity
  8
0
100
AcDbLine
 10
19.83258497381635
 20
72.24968865993615
 30
0.0
 11
19.66003860228386
 21
71.59635601056753
 31
0.0
  0
LINE
  5
1C1
330
2
100
AcDbEntity
  8
0
100
AcDbLine
 10
17.36474487405138
 20
72.96209273288353
 30
0.0
 11
17.2071745401316
 21
72.3044368739422
 31
0.0
  0
LINE
  5
1C2
330
2
100
AcDbEntity
  8
0
100
AcDbLine
 10
23.36800162967819
 20
70.52595928446949
 30
0.0
 11
23.94932121322
 21
71.06128927195278
 31
0.0
  0
LINE
  5
1C3
330
2
100
AcDbEntity
  8
0
100
AcDbLine
 10
20.34571007539875
 20
71.39841970570235
 30
0.0
 11
20.92687914615809
 21
71.93361390478007
 31
0.0
  0
LINE
  5
1C4
330
2
100
AcDbEntity
  8
0
100
AcDbLine
 10
17.2071745401316
 20
72.3044368739422
 30
0.0
 11
17.7884964535886
 21
72.83976618862768
 31
0.0
  0
LINE
  5
1C5
330
2
100
AcDbEntity
  8
0
100
AcDbLine
 10
14.27780964970051
 20
72.02466821288154
 30
0.0
 11
27.87480407539749
 21
68.09955401697884
 31
0.0
  0
LINE
  5
1C6
330
2
100
AcDbEntity
  8
0
100
AcDbLine
 10
16.6940494385052
 20
73.15570582800901
 30
0.0
 11
16.24140222362379
 21
71.45782786241587
 31
0.0
  0
LINE
  5
1C7
330
2
100
AcDbEntity
  8
0
100
AcDbLine
 10
26.25792074168411
 20
68.56620511442425
 30
0.0
 11
25.54051731496594
 21
68.77330164526468
 31
0.0
  0
SPLINE
  5
1C8
330
2
100
AcDbEntity
  8
0
100
AcDbSpline
210
0.0
220
0.0
230
1.0
 70
     8
 71
     3
 72
    15
 73
    11
 74
     0
 42
0.000000001
 43
0.0000000001
 40
0.0
 40
0.0
 40
0.0
 40
0.0
 40
0.0963511121633696
 40
0.1952141889461218
 40
0.3009540179886477
 40
0.4195984467789815
 40
0.5552999397323392
 40
0.7004195668145591
 40
0.8498830823178719
 40
1.0
 40
1.0
 40
1.0
 40
1.0
 10
27.1852241626828
 20
67.6821494493828
 30
0.0
 10
27.23778317982894
 20
67.67487116215249
 30
0.0
 10
27.34427147740672
 20
67.66012483585964
 30
0.0
 10
27.50914838575369
 20
67.70260063819732
 30
0.0
 10
27.66612196966358
 20
67.79763066285436
 30
0.0
 10
27.80476660170166
 20
67.95258310339265
 30
0.0
 10
27.90807247335022
 20
68.16110064062847
 30
0.0
 10
27.9609558257433
 20
68.40678922507227
 30
0.0
 10
27.96126013746468
 20
68.66853755816523
 30
0.0
 10
27.91479904093961
 20
68.83649279808539
 30
0.0
 10
27.8274357440888
 20
69.15267407809825
 30
0.0
  0
SPLINE
  5
1C9
330
2
100
AcDbEntity
  8
0
100
AcDbSpline
210
0.0
220
0.0
230
1.0
 70
     8
 71
     3
 72
    10
 73
     6
 74
     0
 42
0.000000001
 43
0.0000000001
 40
0.0
 40
0.0
 40
0.0
 40
0.0
 40
0.0931001383357514
 40
0.4988362274197499
 40
1.0
 40
1.0
 40
1.0
 40
1.0
 10
27.8274357440888
 20
69.15267407809825
 30
0.0
 10
27.81705899286945
 20
69.18756633399986
 30
0.0
 10
27.76145972606133
 20
69.37452117221262
 30
0.0
 10
27.58307793463155
 20
69.73207949679242
 30
0.0
 10
27.32326458080445
 20
69.94760716529064
 30
0.0
 10
27.17968859620575
 20
70.06671034746752
 30
0.0
  0
SPLINE
  5
1CA
330
2
100
AcDbEntity
  8
0
100
AcDbSpline
210
0.0
220
0.0
230
1.0
 70
     8
 71
     3
 72
     9
 73
     5
 74
     0
 42
0.000000001
 43
0.0000000001
 40
0.0
 40
0.0
 40
0.0
 40
0.0
 40
0.5599475811448509
 40
1.0
 40
1.0
 40
1.0
 40
1.0
 10
27.17968859620575
 20
70.06671034746752
 30
0.0
 10
27.11690415916113
 20
70.10468621544474
 30
0.0
 10
27.00477859748588
 20
70.17250661373909
 30
0.0
 10
26.88202028794649
 20
70.21263241488016
 30
0.0
 10
26.8280001968989
 20
70.23028987073091
 30
0.0
  0
SPLINE
  5
1CB
330
2
100
AcDbEntity
  8
0
100
AcDbSpline
210
0.0
220
0.0
230
1.0
 70
     8
 71
     3
 72
     9
 73
     5
 74
     0
 42
0.000000001
 43
0.0000000001
 40
0.0
 40
0.0
 40
0.0
 40
0.0
 40
0.5718308887998629
 40
1.0
 40
1.0
 40
1.0
 40
1.0
 10
25.820471609507
 20
69.81799582476135
 30
0.0
 10
25.76762392135331
 20
69.61872683596651
 30
0.0
 10
25.67520553474901
 20
69.27025145155162
 30
0.0
 10
25.58079460852338
 20
68.92239282673266
 30
0.0
 10
25.54037076615364
 20
68.77345050852067
 30
0.0
  0
SPLINE
  5
1CC
330
2
100
AcDbEntity
  8
0
100
AcDbSpline
210
0.0
220
0.0
230
1.0
 70
     8
 71
     3
 72
     9
 73
     5
 74
     0
 42
0.000000001
 43
0.0000000001
 40
0.0
 40
0.0
 40
0.0
 40
0.0
 40
0.5718308887998629
 40
1.0
 40
1.0
 40
1.0
 40
1.0
 10
26.50614308252676
 20
69.62005951999974
 30
0.0
 10
26.45827456783977
 20
69.41935316763379
 30
0.0
 10
26.37456360429437
 20
69.06836416669527
 30
0.0
 10
26.29286621681718
 20
68.71683545936723
 30
0.0
 10
26.25788591903347
 20
68.56632172518918
 30
0.0
  0
LINE
  5
1CD
330
2
100
AcDbEntity
  8
0
100
AcDbLine
 10
26.48905791440223
 20
67.84761342717847
 30
0.0
 11
27.18522416248729
 21
67.68214944958619
 31
0.0
  0
LINE
  5
1CE
330
2
100
AcDbEntity
  8
0
100
AcDbLine
 10
26.25788591892257
 20
68.56632172517904
 30
0.0
 11
25.54037076589759
 21
68.77345050850045
 31
0.0
  0
LINE
  5
1CF
330
2
100
AcDbEntity
  8
0
100
AcDbLine
 10
26.26541183561077
 20
68.56375174893061
 30
0.0
 11
25.54789581656806
 21
68.77088078190995
 31
0.0
  0
LINE
  5
1D0
330
2
100
AcDbEntity
  8
0
100
AcDbLine
 10
25.99301798109619
 20
70.47132847437829
 30
0.0
 11
25.82047160953982
 21
69.81799582491895
 31
0.0
  0
LINE
  5
1D1
330
2
100
AcDbEntity
  8
0
100
AcDbLine
 10
26.66371341663629
 20
70.27771537925428
 30
0.0
 11
26.50614308265452
 21
69.62005952005348
 31
0.0
  0
LINE
  5
1D2
330
2
100
AcDbEntity
  8
0
100
AcDbLine
 10
26.50614308252676
 20
69.62005951999974
 30
0.0
 11
27.06432241990018
 21
70.13407994201507
 31
0.0
  0
SPLINE
  5
1D3
330
2
100
AcDbEntity
  8
0
100
AcDbSpline
210
0.0
220
0.0
230
1.0
 70
     8
 71
     3
 72
     8
 73
     4
 74
     0
 42
0.000000001
 43
0.0000000001
 40
0.0
 40
0.0
 40
0.0
 40
0.0
 40
1.0
 40
1.0
 40
1.0
 40
1.0
 10
15.70073873150218
 20
13.70049270233208
 30
0.0
 10
15.82951650699795
 20
13.64450903826682
 30
0.0
 10
15.95754905941689
 20
13.59799665660437
 30
0.0
 10
16.08155715838711
 20
13.56214769009499
 30
0.0
  0
SPLINE
  5
1D4
330
2
100
AcDbEntity
  8
0
100
AcDbSpline
210
0.0
220
0.0
230
1.0
 70
     8
 71
     3
 72
    12
 73
     8
 74
     0
 42
0.000000001
 43
0.0000000001
 40
0.0
 40
0.0
 40
0.0
 40
0.0
 40
0.1640679824131984
 40
0.3281099996996862
 40
0.492132075864575
 40
0.7762585991390291
 40
1.0
 40
1.0
 40
1.0
 40
1.0
 10
15.25593802258194
 20
14.93628048439324
 30
0.0
 10
15.21924339022663
 20
14.94703219338921
 30
0.0
 10
15.14585993274636
 20
14.96853390983347
 30
0.0
 10
15.03759596558589
 20
15.00171248047549
 30
0.0
 10
14.90469856635977
 20
15.04381211312793
 30
0.0
 10
14.7614555048211
 20
15.09126980150514
 30
0.0
 10
14.65628946025177
 20
15.12871424655946
 30
0.0
 10
14.60995852061856
 20
15.1452104106069
 30
0.0
  0
SPLINE
  5
1D5
330
2
100
AcDbEntity
  8
0
100
AcDbSpline
210
0.0
220
0.0
230
1.0
 70
     8
 71
     3
 72
    25
 73
    21
 74
     0
 42
0.000000001
 43
0.0000000001
 40
0.0
 40
0.0
 40
0.0
 40
0.0
 40
0.0235737597006877
 40
0.0473997570532455
 40
0.0716987839538936
 40
0.0964751318441833
 40
0.1442437961298869
 40
0.195412333337609
 40
0.2458102324401843
 40
0.3012284987081159
 40
0.4196388607215643
 40
0.4951720926771828
 40
0.5752959455378433
 40
0.6379004014367155
 40
0.700460549418188
 40
0.7602003390405022
 40
0.8199848277463619
 40
0.8798564660317776
 40
0.9398508288248942
 40
1.0
 40
1.0
 40
1.0
 40
1.0
 10
14.60995852061546
 20
15.14521041060279
 30
0.0
 10
14.59899796020821
 20
15.149281439975
 30
0.0
 10
14.57695956213098
 20
15.15746705846161
 30
0.0
 10
14.54498400586075
 20
15.16797573671342
 30
0.0
 10
14.51369511924216
 20
15.17708044385964
 30
0.0
 10
14.47414627683898
 20
15.18674876907627
 30
0.0
 10
14.42772585055448
 20
15.19453857263757
 30
0.0
 10
14.37958989365955
 20
15.19611421595338
 30
0.0
 10
14.33836269373404
 20
15.18926659340722
 30
0.0
 10
14.29391501847695
 20
15.1674040828289
 30
0.0
 10
14.27007015746284
 20
15.12283657128022
 30
0.0
 10
14.27175791861077
 20
15.05537602393611
 30
0.0
 10
14.28835695946088
 20
14.99220218599488
 30
0.0
 10
14.31587140428482
 20
14.92635582947222
 30
0.0
 10
14.34926078347425
 20
14.86290300492727
 30
0.0
 10
14.38973150023463
 20
14.79732492620997
 30
0.0
 10
14.43638354747182
 20
14.73045139582725
 30
0.0
 10
14.48960897501524
 20
14.66192665569003
 30
0.0
 10
14.54861218989833
 20
14.59234127322295
 30
0.0
 10
14.59276410547463
 20
14.54588366342846
 30
0.0
 10
14.61486850876633
 20
14.52262492755145
 30
0.0
  0
SPLINE
  5
1D6
330
2
100
AcDbEntity
  8
0
100
AcDbSpline
210
0.0
220
0.0
230
1.0
 70
     8
 71
     3
 72
     8
 73
     4
 74
     0
 42
0.000000001
 43
0.0000000001
 40
0.0
 40
0.0
 40
0.0
 40
0.0
 40
1.0
 40
1.0
 40
1.0
 40
1.0
 10
14.61486850877014
 20
14.52262492755648
 30
0.0
 10
14.66439472720503
 20
14.46904006811591
 30
0.0
 10
14.71388216164763
 20
14.416075212594
 30
0.0
 10
14.76333406115799
 20
14.36368150178548
 30
0.0
  0
SPLINE
  5
1D7
330
2
100
AcDbEntity
  8
0
100
AcDbSpline
210
0.0
220
0.0
230
1.0
 70
     8
 71
     3
 72
    17
 73
    13
 74
     0
 42
0.000000001
 43
0.0000000001
 40
0.0
 40
0.0
 40
0.0
 40
0.0
 40
0.0548483114358953
 40
0.1374792539378433
 40
0.2480004522058223
 40
0.3729705539238236
 40
0.4980973165827459
 40
0.6029955965319198
 40
0.7490828469807517
 40
0.8450938430744781
 40
0.9287472560154515
 40
1.0
 40
1.0
 40
1.0
 40
1.0
 10
14.76333406115512
 20
14.3636815017818
 30
0.0
 10
14.77689595397467
 20
14.34952081369989
 30
0.0
 10
14.81088932328794
 20
14.31402654265095
 30
0.0
 10
14.87559068625353
 20
14.25038597333782
 30
0.0
 10
14.96338501274249
 20
14.16984831004099
 30
0.0
 10
15.06953577795903
 20
14.08105806238276
 30
0.0
 10
15.18030078228926
 20
13.99754070573437
 30
0.0
 10
15.30246037157943
 20
13.91366371646757
 30
0.0
 10
15.41945603367699
 20
13.84150002787128
 30
0.0
 10
15.53226515798255
 20
13.77991277770372
 30
0.0
 10
15.62043943199063
 20
13.73602524277852
 30
0.0
 10
15.67543994641377
 20
13.71168744637177
 30
0.0
 10
15.70073873150326
 20
13.70049270233488
 30
0.0
  0
LINE
  5
1D8
330
2
100
AcDbEntity
  8
0
100
AcDbLine
 10
15.25593955666124
 20
14.93627920362927
 30
0.0
 11
26.4876748131968
 21
11.69378114825877
 31
0.0
  0
LINE
  5
1D9
330
2
100
AcDbEntity
  8
0
100
AcDbLine
 10
26.82656279018554
 20
10.46033624255091
 30
0.0
 11
16.08155802769551
 21
13.56214715317114
 31
0.0
  0
LINE
  5
1DA
330
2
100
AcDbEntity
  8
0
100
AcDbLine
 10
16.6584558806768
 20
13.97934909519419
 30
0.0
 11
17.33223793785021
 21
13.78484496892982
 31
0.0
  0
LINE
  5
1DB
330
2
100
AcDbEntity
  8
0
100
AcDbLine
 10
17.33223793785021
 20
13.78484496892982
 30
0.0
 11
17.58542399321536
 21
14.26381497036696
 31
0.0
  0
LINE
  5
1DC
330
2
100
AcDbEntity
  8
0
100
AcDbLine
 10
19.79699141594409
 20
13.07333192695417
 30
0.0
 11
20.47077000904588
 21
12.87882880093224
 31
0.0
  0
LINE
  5
1DD
330
2
100
AcDbEntity
  8
0
100
AcDbLine
 10
20.47077000904588
 20
12.87882880093224
 30
0.0
 11
20.72396047815306
 21
13.35779752814229
 31
0.0
  0
LINE
  5
1DE
330
2
100
AcDbEntity
  8
0
100
AcDbLine
 10
23.49306329536094
 20
12.00636787984634
 30
0.0
 11
22.81928297022324
 21
12.20087150572149
 31
0.0
  0
LINE
  5
1DF
330
2
100
AcDbEntity
  8
0
100
AcDbLine
 10
23.49306329536094
 20
12.00636787984634
 30
0.0
 11
23.74625155737669
 21
12.48533724405819
 31
0.0
  0
LINE
  5
1E0
330
2
100
AcDbEntity
  8
0
100
AcDbLine
 10
25.95781850549042
 20
11.29485433748112
 30
0.0
 11
25.82079678653278
 21
11.59009021512261
 31
0.0
  0
LINE
  5
1E1
330
2
100
AcDbEntity
  8
0
100
AcDbLine
 10
25.82079678653278
 20
11.59009021512261
 30
0.0
 11
25.66068437395504
 21
11.93268809305684
 31
0.0
  0
LINE
  5
1E2
330
2
100
AcDbEntity
  8
0
100
AcDbLine
 10
23.36793272384352
 20
12.29817107849698
 30
0.0
 11
23.22415931096376
 21
12.63605229356314
 31
0.0
  0
LINE
  5
1E3
330
2
100
AcDbEntity
  8
0
100
AcDbLine
 10
23.49306329536094
 20
12.00636787984634
 30
0.0
 11
23.36793272384352
 21
12.29817107849698
 31
0.0
  0
LINE
  5
1E4
330
2
100
AcDbEntity
  8
0
100
AcDbLine
 10
22.81928297022324
 20
12.20087150572149
 30
0.0
 11
22.68226125072829
 21
12.49610738336275
 31
0.0
  0
LINE
  5
1E5
330
2
100
AcDbEntity
  8
0
100
AcDbLine
 10
22.68226125072829
 20
12.49610738336275
 30
0.0
 11
22.52214883815475
 21
12.8387052612891
 31
0.0
  0
LINE
  5
1E6
330
2
100
AcDbEntity
  8
0
100
AcDbLine
 10
20.34564116956369
 20
13.17063149973003
 30
0.0
 11
20.20186775738677
 21
13.50851271458139
 31
0.0
  0
LINE
  5
1E7
330
2
100
AcDbEntity
  8
0
100
AcDbLine
 10
20.47077000904588
 20
12.87882880093224
 30
0.0
 11
20.34564116956369
 21
13.17063149973003
 31
0.0
  0
LINE
  5
1E8
330
2
100
AcDbEntity
  8
0
100
AcDbLine
 10
19.79699141594409
 20
13.07333192695417
 30
0.0
 11
19.65996969644951
 21
13.36856780459575
 31
0.0
  0
LINE
  5
1E9
330
2
100
AcDbEntity
  8
0
100
AcDbLine
 10
19.65996969644951
 20
13.36856780459575
 30
0.0
 11
19.49985728388179
 21
13.71116568250833
 31
0.0
  0
LINE
  5
1EA
330
2
100
AcDbEntity
  8
0
100
AcDbLine
 10
17.20710563429693
 20
14.07664866797004
 30
0.0
 11
17.06333419185526
 21
14.41452931404624
 31
0.0
  0
LINE
  5
1EB
330
2
100
AcDbEntity
  8
0
100
AcDbLine
 10
17.33223793785021
 20
13.78484496892982
 30
0.0
 11
17.20710563429693
 21
14.07664866797004
 31
0.0
  0
LINE
  5
1EC
330
2
100
AcDbEntity
  8
0
100
AcDbLine
 10
16.6584558806768
 20
13.97934909519419
 30
0.0
 11
16.52143416118221
 21
14.27458497229882
 31
0.0
  0
LINE
  5
1ED
330
2
100
AcDbEntity
  8
0
100
AcDbLine
 10
16.52143416118221
 20
14.27458497229882
 30
0.0
 11
16.36132174874205
 21
14.61718285055011
 31
0.0
  0
SPLINE
  5
1EE
330
2
100
AcDbEntity
  8
0
100
AcDbSpline
210
0.0
220
0.0
230
1.0
 70
     8
 71
     3
 72
    19
 73
    15
 74
     0
 42
0.000000001
 43
0.0000000001
 40
0.0
 40
0.0
 40
0.0
 40
0.0
 40
0.0505351771279586
 40
0.100570861254471
 40
0.1501391879765946
 40
0.1992740942391105
 40
0.2480113773817224
 40
0.3714970546633216
 40
0.4980855719798692
 40
0.5991678642368468
 40
0.6996020900736572
 40
0.7996776442762066
 40
0.8997025868124648
 40
1.0
 40
1.0
 40
1.0
 40
1.0
 10
27.82583904476809
 20
10.59279876039627
 30
0.0
 10
27.82032966441525
 20
10.58494916849611
 30
0.0
 10
27.80936535878624
 20
10.56932757057615
 30
0.0
 10
27.79075184697575
 20
10.54727248898654
 30
0.0
 10
27.7706587630978
 20
10.52642805375769
 30
0.0
 10
27.74893206884124
 20
10.50691479167088
 30
0.0
 10
27.71366746987317
 20
10.47940845518169
 30
0.0
 10
27.65953086728567
 20
10.44688319487314
 30
0.0
 10
27.58584208248672
 20
10.41709547398894
 30
0.0
 10
27.50967807302016
 20
10.39653593902901
 30
0.0
 10
27.43412916703903
 20
10.38379391774771
 30
0.0
 10
27.35354983182802
 20
10.37778129830627
 30
0.0
 10
27.26850425947237
 20
10.37806776978542
 30
0.0
 10
27.20832475258368
 20
10.38417745836417
 30
0.0
 10
27.17819407223044
 20
10.3872364577332
 30
0.0
  0
SPLINE
  5
1EF
330
2
100
AcDbEntity
  8
0
100
AcDbSpline
210
0.0
220
0.0
230
1.0
 70
     8
 71
     3
 72
     8
 73
     4
 74
     0
 42
0.000000001
 43
0.0000000001
 40
0.0
 40
0.0
 40
0.0
 40
0.0
 40
1.0
 40
1.0
 40
1.0
 40
1.0
 10
27.88991111974639
 20
10.69036950186545
 30
0.0
 10
27.86825357193845
 20
10.65733983817493
 30
0.0
 10
27.84689631500493
 20
10.62483219965113
 30
0.0
 10
27.825839044769
 20
10.59279876039853
 30
0.0
  0
SPLINE
  5
1F0
330
2
100
AcDbEntity
  8
0
100
AcDbSpline
210
0.0
220
0.0
230
1.0
 70
     8
 71
     3
 72
    19
 73
    15
 74
     0
 42
0.000000001
 43
0.0000000001
 40
0.0
 40
0.0
 40
0.0
 40
0.0
 40
0.1954724188406158
 40
0.2475822089260478
 40
0.3013215774318739
 40
0.4197662907704808
 40
0.5548255591133025
 40
0.6266301508206043
 40
0.7003898496495245
 40
0.7738624969229321
 40
0.8483187001379905
 40
0.8983959827178617
 40
0.9488982698859576
 40
1.0
 40
1.0
 40
1.0
 40
1.0
 10
27.34635207351715
 20
11.44608195619776
 30
0.0
 10
27.42110330220064
 20
11.42450313519605
 30
0.0
 10
27.50111153131283
 20
11.40183788106568
 30
0.0
 10
27.58091586504665
 20
11.3660791220068
 30
0.0
 10
27.68437935051199
 20
11.30137472288414
 30
0.0
 10
27.80308758918585
 20
11.20382588262618
 30
0.0
 10
27.88729346525054
 20
11.09598815512905
 30
0.0
 10
27.93210525035628
 20
11.00470854366562
 30
0.0
 10
27.95241747872734
 20
10.93520898855596
 30
0.0
 10
27.95872199738474
 20
10.86767950987711
 30
0.0
 10
27.95154674136239
 20
10.81079918653591
 30
0.0
 10
27.93606381015991
 20
10.76379037103252
 30
0.0
 10
27.91684705427588
 20
10.72536825317926
 30
0.0
 10
27.89892501005506
 20
10.70208154790176
 30
0.0
 10
27.8899111197446
 20
10.69036950186101
 30
0.0
  0
SPLINE
  5
1F1
330
2
100
AcDbEntity
  8
0
100
AcDbSpline
210
0.0
220
0.0
230
1.0
 70
     8
 71
     3
 72
     8
 73
     4
 74
     0
 42
0.000000001
 43
0.0000000001
 40
0.0
 40
0.0
 40
0.0
 40
0.0
 40
1.0
 40
1.0
 40
1.0
 40
1.0
 10
27.17819407222916
 20
10.38723645773017
 30
0.0
 10
27.06871865707973
 20
10.400033539697
 30
0.0
 10
26.95049928397953
 20
10.42460947629065
 30
0.0
 10
26.82656298687795
 20
10.46033589973988
 30
0.0
  0
LINE
  5
1F2
330
2
100
AcDbEntity
  8
0
100
AcDbLine
 10
26.63741703625155
 20
11.09867535367521
 30
0.0
 11
25.96363671111405
 21
11.2931789795503
 31
0.0
  0
LINE
  5
1F3
330
2
100
AcDbEntity
  8
0
100
AcDbLine
 10
26.63741703625155
 20
11.09867535367521
 30
0.0
 11
26.89060529795248
 21
11.57764471797563
 31
0.0
  0
LINE
  5
1F4
330
2
100
AcDbEntity
  8
0
100
AcDbLine
 10
26.51228559871598
 20
11.39047880252086
 30
0.0
 11
26.3685131711099
 21
11.72835973296352
 31
0.0
  0
LINE
  5
1F5
330
2
100
AcDbEntity
  8
0
100
AcDbLine
 10
26.63741703625155
 20
11.09867535367521
 30
0.0
 11
26.51228559871598
 21
11.39047880252086
 31
0.0
  0
LINE
  5
1F6
330
2
100
AcDbEntity
  8
0
100
AcDbLine
 10
25.96363671111405
 20
11.2931789795503
 30
0.0
 11
25.82661499161913
 21
11.5884148571916
 31
0.0
  0
LINE
  5
1F7
330
2
100
AcDbEntity
  8
0
100
AcDbLine
 10
25.82661499161913
 20
11.5884148571916
 30
0.0
 11
25.66650356454085
 21
11.9310124506278
 31
0.0
  0
LINE
  5
1F8
330
2
100
AcDbEntity
  8
0
100
AcDbLine
 10
26.4876748131968
 20
11.69378114825877
 30
0.0
 11
27.34635207351715
 21
11.44608195619776
 31
0.0
  0
ENDSEC
  0
SECTION
  2
OBJECTS
  0
DICTIONARY
  5
9
330
0
100
AcDbDictionary
281
     1
  3
ACAD_COLOR
350
3E
  3
ACAD_GROUP
350
35
  3
ACAD_LAYOUT
350
16
  3
ACAD_MATERIAL
350
B
  3
ACAD_MLEADERSTYLE
350
41
  3
ACAD_MLINESTYLE
350
36
  3
ACAD_PLOTSETTINGS
350
37
  3
ACAD_PLOTSTYLENAME
350
8
  3
ACAD_SCALELIST
350
3F
  3
ACAD_TABLESTYLE
350
40
  3
ACAD_VISUALSTYLE
350
2B
  3
ACDB_RECOMPOSE_DATA
350
1FA
  3
AcDbVariableDictionary
350
42
  0
DICTIONARY
  5
1E
330
1D
100
AcDbDictionary
280
     1
281
     1
  3
ACAD_LAYERSTATES
360
1F
  0
DICTIONARY
  5
6
330
5
100
AcDbDictionary
280
     1
281
     1
  0
DICTIONARY
  5
3
330
2
100
AcDbDictionary
280
     1
281
     1
  0
DICTIONARY
  5
3E
102
{ACAD_REACTORS
330
9
102
}
330
9
100
AcDbDictionary
281
     1
  0
DICTIONARY
  5
35
102
{ACAD_REACTORS
330
9
102
}
330
9
100
AcDbDictionary
281
     1
  0
DICTIONARY
  5
16
102
{ACAD_REACTORS
330
9
102
}
330
9
100
AcDbDictionary
281
     1
  3
Model
350
15
  3
布局1
350
1C
  0
DICTIONARY
  5
B
102
{ACAD_REACTORS
330
9
102
}
330
9
100
AcDbDictionary
281
     1
  3
ByBlock
350
3B
  3
ByLayer
350
38
  3
Global
350
A
  0
DICTIONARY
  5
41
102
{ACAD_REACTORS
330
9
102
}
330
9
100
AcDbDictionary
281
     1
  0
DICTIONARY
  5
36
102
{ACAD_REACTORS
330
9
102
}
330
9
100
AcDbDictionary
281
     1
  3
Standard
350
4E
  0
DICTIONARY
  5
37
102
{ACAD_REACTORS
330
9
102
}
330
9
100
AcDbDictionary
281
     1
  0
ACDBDICTIONARYWDFLT
  5
8
102
{ACAD_REACTORS
330
9
102
}
330
9
100
AcDbDictionary
281
     1
  3
Normal
350
7
100
AcDbDictionaryWithDefault
340
7
  0
DICTIONARY
  5
3F
102
{ACAD_REACTORS
330
9
102
}
330
9
100
AcDbDictionary
281
     1
  3
A0
350
53
  3
A1
350
54
  3
A2
350
55
  3
A3
350
56
  3
A4
350
57
  3
A5
350
58
  3
A6
350
59
  3
A7
350
5A
  3
A8
350
5B
  3
A9
350
5C
  3
B0
350
5D
  3
B1
350
5E
  3
B2
350
5F
  3
B3
350
60
  3
B4
350
61
  3
B5
350
62
  3
B6
350
63
  0
DICTIONARY
  5
40
102
{ACAD_REACTORS
330
9
102
}
330
9
100
AcDbDictionary
281
     1
  3
Standard
350
4F
  0
DICTIONARY
  5
2B
102
{ACAD_REACTORS
330
9
102
}
330
9
100
AcDbDictionary
281
     1
  3
2dWireframe
350
2A
  3
Realistic
350
51
  3
Wireframe
350
52
  0
XRECORD
  5
1FA
102
{ACAD_REACTORS
330
9
102
}
330
9
100
AcDbXrecord
280
     1
 90
        1
330
4F
  0
DICTIONARY
  5
42
102
{ACAD_REACTORS
330
9
102
}
330
9
100
AcDbDictionary
281
     1
  3
CANNOSCALE
350
43
  3
CENTEREXE
350
44
  3
CENTERLTYPEFILE
350
45
  3
CMLEADERSTYLE
350
46
  3
CTABLESTYLE
350
47
  3
CVIEWDETAILSTYLE
350
48
  3
CVIEWSECTIONSTYLE
350
49
  3
DIMASSOC
350
4A
  3
HIDETEXT
350
4B
  3
LAYEREVAL
350
4C
  3
LAYERNOTIFY
350
4D
  0
DICTIONARY
  5
1F
102
{ACAD_REACTORS
330
1E
102
}
330
1E
100
AcDbDictionary
281
     1
  0
LAYOUT
  5
15
102
{ACAD_XDICTIONARY
360
17
102
}
102
{ACAD_REACTORS
330
16
102
}
330
16
100
AcDbPlotSettings
  1

  2
none_device
  4
ISO_A4_(210.00_x_297.00_MM)
  6

 40
7.5
 41
20.0
 42
7.5
 43
20.0
 44
210.0
 45
297.0
 46
11.54999923706054
 47
-13.65000009536743
 48
0.0
 49
0.0
140
0.0
141
0.0
142
1.0
143
8.704084754739808
 70
 11952
 72
     1
 73
     0
 74
     0
  7

 75
     0
147
0.1148885871608098
 76
     0
 77
     2
 78
   300
148
0.0
149
0.0
100
AcDbLayout
  1
Model
 70
     1
 71
     0
 10
0.0
 20
0.0
 11
12.0
 21
9.0
 12
0.0
 22
0.0
 32
0.0
 14
0.0
 24
0.0
 34
0.0
 15
0.0
 25
0.0
 35
0.0
146
0.0
 13
0.0
 23
0.0
 33
0.0
 16
1.0
 26
0.0
 36
0.0
 17
0.0
 27
1.0
 37
0.0
 76
     0
330
2
331
29
1001
ACAD_PSEXT
1000
None
1000
None
1000
Not applicable
1000
The layout will not be plotted unless a new plotter configuration name is selected.
1070
     0
  0
LAYOUT
  5
1C
102
{ACAD_REACTORS
330
16
102
}
330
16
100
AcDbPlotSettings
  1

  2
C:\Documents and Settings\basas\Application Data\Autodesk\AutoCAD 2005\R16.1\enu\plotters\Default Windows System Printer.pc3
  4

  6

 40
0.0
 41
0.0
 42
0.0
 43
0.0
 44
0.0
 45
0.0
 46
0.0
 47
0.0
 48
0.0
 49
0.0
140
0.0
141
0.0
142
1.0
143
1.0
 70
   688
 72
     0
 73
     0
 74
     5
  7

 75
    16
147
1.0
 76
     0
 77
     2
 78
   300
148
0.0
149
0.0
100
AcDbLayout
  1
布局1
 70
     1
 71
     1
 10
0.0
 20
0.0
 11
12.0
 21
9.0
 12
0.0
 22
0.0
 32
0.0
 14
0.0
 24
0.0
 34
0.0
 15
0.0
 25
0.0
 35
0.0
146
0.0
 13
0.0
 23
0.0
 33
0.0
 16
1.0
 26
0.0
 36
0.0
 17
0.0
 27
1.0
 37
0.0
 76
     0
330
19
  0
MATERIAL
  5
3B
102
{ACAD_XDICTIONARY
360
3C
102
}
102
{ACAD_REACTORS
330
B
102
}
330
B
100
AcDbMaterial
  1
ByBlock
 94
       63
  0
MATERIAL
  5
38
102
{ACAD_XDICTIONARY
360
39
102
}
102
{ACAD_REACTORS
330
B
102
}
330
B
100
AcDbMaterial
  1
ByLayer
 94
       63
  0
MATERIAL
  5
A
102
{ACAD_XDICTIONARY
360
C
102
}
102
{ACAD_REACTORS
330
B
102
}
330
B
100
AcDbMaterial
  1
Global
 43
0.0007999999797903
 43
0.0
 43
0.0
 43
0.0
 43
0.0
 43
0.0007999999797903
 43
0.0
 43
0.0
 43
0.0
 43
0.0
 43
1.0
 43
0.0
 43
0.0
 43
0.0
 43
0.0
 43
1.0
 49
0.0007999999797903
 49
0.0
 49
0.0
 49
0.0
 49
0.0
 49
0.0007999999797903
 49
0.0
 49
0.0
 49
0.0
 49
0.0
 49
1.0
 49
0.0
 49
0.0
 49
0.0
 49
0.0
 49
1.0
142
0.0007999999797903
142
0.0
142
0.0
142
0.0
142
0.0
142
0.0007999999797903
142
0.0
142
0.0
142
0.0
142
0.0
142
1.0
142
0.0
142
0.0
142
0.0
142
0.0
142
1.0
144
0.0007999999797903
144
0.0
144
0.0
144
0.0
144
0.0
144
0.0007999999797903
144
0.0
144
0.0
144
0.0
144
0.0
144
1.0
144
0.0
144
0.0
144
0.0
144
0.0
144
1.0
 94
       63
1001
ACAD
1070
    -1
1070
     3
1070
     0
1000

1071
        0
1070
     0
  0
MLINESTYLE
  5
4E
102
{ACAD_REACTORS
330
36
102
}
330
36
100
AcDbMlineStyle
  2
STANDARD
 70
     0
  3

 62
   256
 51
90.0
 52
90.0
 71
     2
 49
0.5
 62
   256
  6
BYLAYER
 49
-0.5
 62
   256
  6
BYLAYER
  0
ACDBPLACEHOLDER
  5
7
102
{ACAD_REACTORS
330
8
102
}
330
8
  0
SCALE
  5
53
102
{ACAD_REACTORS
330
3F
102
}
330
3F
100
AcDbScale
 70
     0
300
1:1
140
1.0
141
1.0
290
     1
  0
SCALE
  5
54
102
{ACAD_REACTORS
330
3F
102
}
330
3F
100
AcDbScale
 70
     0
300
1:2
140
1.0
141
2.0
290
     0
  0
SCALE
  5
55
102
{ACAD_REACTORS
330
3F
102
}
330
3F
100
AcDbScale
 70
     0
300
1:4
140
1.0
141
4.0
290
     0
  0
SCALE
  5
56
102
{ACAD_REACTORS
330
3F
102
}
330
3F
100
AcDbScale
 70
     0
300
1:5
140
1.0
141
5.0
290
     0
  0
SCALE
  5
57
102
{ACAD_REACTORS
330
3F
102
}
330
3F
100
AcDbScale
 70
     0
300
1:8
140
1.0
141
8.0
290
     0
  0
SCALE
  5
58
102
{ACAD_REACTORS
330
3F
102
}
330
3F
100
AcDbScale
 70
     0
300
1:10
140
1.0
141
10.0
290
     0
  0
SCALE
  5
59
102
{ACAD_REACTORS
330
3F
102
}
330
3F
100
AcDbScale
 70
     0
300
1:16
140
1.0
141
16.0
290
     0
  0
SCALE
  5
5A
102
{ACAD_REACTORS
330
3F
102
}
330
3F
100
AcDbScale
 70
     0
300
1:20
140
1.0
141
20.0
290
     0
  0
SCALE
  5
5B
102
{ACAD_REACTORS
330
3F
102
}
330
3F
100
AcDbScale
 70
     0
300
1:30
140
1.0
141
30.0
290
     0
  0
SCALE
  5
5C
102
{ACAD_REACTORS
330
3F
102
}
330
3F
100
AcDbScale
 70
     0
300
1:40
140
1.0
141
40.0
290
     0
  0
SCALE
  5
5D
102
{ACAD_REACTORS
330
3F
102
}
330
3F
100
AcDbScale
 70
     0
300
1:50
140
1.0
141
50.0
290
     0
  0
SCALE
  5
5E
102
{ACAD_REACTORS
330
3F
102
}
330
3F
100
AcDbScale
 70
     0
300
1:100
140
1.0
141
100.0
290
     0
  0
SCALE
  5
5F
102
{ACAD_REACTORS
330
3F
102
}
330
3F
100
AcDbScale
 70
     0
300
2:1
140
2.0
141
1.0
290
     0
  0
SCALE
  5
60
102
{ACAD_REACTORS
330
3F
102
}
330
3F
100
AcDbScale
 70
     0
300
4:1
140
4.0
141
1.0
290
     0
  0
SCALE
  5
61
102
{ACAD_REACTORS
330
3F
102
}
330
3F
100
AcDbScale
 70
     0
300
8:1
140
8.0
141
1.0
290
     0
  0
SCALE
  5
62
102
{ACAD_REACTORS
330
3F
102
}
330
3F
100
AcDbScale
 70
     0
300
10:1
140
10.0
141
1.0
290
     0
  0
SCALE
  5
63
102
{ACAD_REACTORS
330
3F
102
}
330
3F
100
AcDbScale
 70
     0
300
100:1
140
100.0
141
1.0
290
     0
  0
TABLESTYLE
  5
4F
102
{ACAD_XDICTIONARY
360
50
102
}
102
{ACAD_REACTORS
330
40
102
}
330
40
100
AcDbTableStyle
280
     0
  3
Standard
 70
     0
 71
     0
 40
1.5
 41
1.5
280
     0
281
     0
  7
Standard
140
4.5
170
     2
 62
     0
 63
     7
283
     0
 90
      512
 91
        0
  1

274
    -2
284
     1
 64
     0
275
    -2
285
     1
 65
     0
276
    -2
286
     1
 66
     0
277
    -2
287
     1
 67
     0
278
    -2
288
     1
 68
     0
279
    -2
289
     1
 69
     0
  7
Standard
140
6.0
170
     5
 62
     0
 63
     7
283
     0
 90
      512
 91
        0
  1

274
    -2
284
     1
 64
     0
275
    -2
285
     1
 65
     0
276
    -2
286
     1
 66
     0
277
    -2
287
     1
 67
     0
278
    -2
288
     1
 68
     0
279
    -2
289
     1
 69
     0
  7
Standard
140
4.5
170
     5
 62
     0
 63
     7
283
     0
 90
      512
 91
        0
  1

274
    -2
284
     1
 64
     0
275
    -2
285
     1
 65
     0
276
    -2
286
     1
 66
     0
277
    -2
287
     1
 67
     0
278
    -2
288
     1
 68
     0
279
    -2
289
     1
 69
     0
  0
VISUALSTYLE
  5
2A
102
{ACAD_REACTORS
330
2B
102
}
330
2B
100
AcDbVisualStyle
  2
2dWireframe
 70
     4
177
     3
291
     0
 70
    58
 90
        0
176
     1
 90
        2
176
     1
 90
        1
176
     1
 90
        0
176
     1
 40
0.6
176
     1
 40
30.0
176
     1
 62
     7
420
 16777215
176
     1
 90
        1
176
     1
 90
        4
176
     1
 62
     7
176
     1
 62
   257
176
     1
 90
        1
176
     1
 90
        1
176
     1
 40
1.0
176
     1
 90
        0
176
     1
 62
   257
176
     1
 40
1.0
176
     1
 90
        1
176
     1
 90
        6
176
     1
 90
        2
176
     1
 62
     7
176
     1
 90
        5
176
     1
 90
        0
176
     1
 90
        0
176
     1
290
     0
176
     1
 90
        1
176
     1
 40
0.0
176
     1
 90
        0
176
     1
290
     1
176
     1
290
     1
176
     1
290
     0
176
     1
290
     0
176
     1
290
     0
176
     1
290
     0
176
     1
290
     0
176
     1
290
     0
176
     1
290
     0
176
     1
 90
       50
176
     1
 40
0.0
176
     1
 40
1.0
176
     1
 90
        0
176
     1
 62
    18
420
        0
176
     1
 90
       50
176
     1
 90
        3
176
     1
 62
     5
420
      255
176
     1
290
     0
176
     1
 90
       50
176
     1
 90
       50
176
     1
 90
       50
176
     1
290
     0
176
     1
 90
       50
176
     1
 62
   256
176
     0
 40
1.0
176
     0
 90
        2
176
     1
  1
strokes_ogs.tif
176
     1
290
     0
176
     1
 40
1.0
176
     1
 40
1.0
176
     1
  0
VISUALSTYLE
  5
51
102
{ACAD_REACTORS
330
2B
102
}
330
2B
100
AcDbVisualStyle
  2
Realistic
 70
     8
177
     3
291
     0
 70
    58
 90
        2
176
     1
 90
        3
176
     1
 90
        0
176
     1
 90
        2
176
     1
 40
0.6
176
     1
 40
30.0
176
     1
 62
     7
420
 16777215
176
     1
 90
        0
176
     1
 90
        0
176
     1
 62
     7
176
     1
 62
   257
176
     1
 90
        1
176
     1
 90
        1
176
     1
 40
1.0
176
     1
 90
        8
176
     1
 62
   257
176
     1
 40
1.0
176
     1
 90
        1
176
     1
 90
        6
176
     1
 90
        2
176
     1
 62
     7
176
     1
 90
        3
176
     1
 90
        0
176
     1
 90
        0
176
     1
290
     0
176
     1
 90
       13
176
     1
 40
0.0
176
     1
 90
        0
176
     1
290
     0
176
     1
290
     1
176
     1
290
     1
176
     1
290
     0
176
     1
290
     0
176
     1
290
     0
176
     1
290
     0
176
     1
290
     0
176
     1
290
     0
176
     1
 90
       50
176
     1
 40
0.0
176
     1
 40
1.0
176
     1
 90
        0
176
     1
 62
    18
420
        0
176
     1
 90
       50
176
     1
 90
        3
176
     1
 62
     5
420
      255
176
     1
290
     0
176
     1
 90
       50
176
     1
 90
       50
176
     1
 90
       50
176
     1
290
     0
176
     1
 90
       50
176
     1
 62
   256
176
     0
 40
1.0
176
     0
 90
        2
176
     1
  1
strokes_ogs.tif
176
     1
290
     0
176
     1
 40
1.0
176
     1
 40
1.0
176
     1
  0
VISUALSTYLE
  5
52
102
{ACAD_REACTORS
330
2B
102
}
330
2B
100
AcDbVisualStyle
  2
Wireframe
 70
     5
177
     3
291
     0
 70
    58
 90
        0
176
     1
 90
        2
176
     1
 90
        0
176
     1
 90
        0
176
     1
 40
0.6
176
     1
 40
30.0
176
     1
 62
     7
420
 16777215
176
     1
 90
        1
176
     1
 90
        4
176
     1
 62
     7
176
     1
 62
   257
176
     1
 90
        1
176
     1
 90
        1
176
     1
 40
1.0
176
     1
 90
        0
176
     1
 62
   257
176
     1
 40
1.0
176
     1
 90
        1
176
     1
 90
        6
176
     1
 90
        2
176
     1
 62
     7
176
     1
 90
        3
176
     1
 90
        0
176
     1
 90
        0
176
     1
290
     0
176
     1
 90
        1
176
     1
 40
0.0
176
     1
 90
        0
176
     1
290
     0
176
     1
290
     1
176
     1
290
     1
176
     1
290
     0
176
     1
290
     0
176
     1
290
     0
176
     1
290
     0
176
     1
290
     0
176
     1
290
     0
176
     1
 90
       50
176
     1
 40
0.0
176
     1
 40
1.0
176
     1
 90
        0
176
     1
 62
    18
420
        0
176
     1
 90
       50
176
     1
 90
        3
176
     1
 62
     5
420
      255
176
     1
290
     0
176
     1
 90
       50
176
     1
 90
       50
176
     1
 90
       50
176
     1
290
     0
176
     1
 90
       50
176
     1
 62
   256
176
     0
 40
1.0
176
     0
 90
        2
176
     1
  1
strokes_ogs.tif
176
     1
290
     0
176
     1
 40
1.0
176
     1
 40
1.0
176
     1
  0
DICTIONARYVAR
  5
43
102
{ACAD_REACTORS
330
42
102
}
330
42
100
DictionaryVariables
280
     0
  1
1:1
  0
DICTIONARYVAR
  5
44
102
{ACAD_REACTORS
330
42
102
}
330
42
100
DictionaryVariables
280
     0
  1
3.500000
  0
DICTIONARYVAR
  5
45
102
{ACAD_REACTORS
330
42
102
}
330
42
100
DictionaryVariables
280
     0
  1
acadiso.lin
  0
DICTIONARYVAR
  5
46
102
{ACAD_REACTORS
330
42
102
}
330
42
100
DictionaryVariables
280
     0
  1
STANDARD
  0
DICTIONARYVAR
  5
47
102
{ACAD_REACTORS
330
42
102
}
330
42
100
DictionaryVariables
280
     0
  1
STANDARD
  0
DICTIONARYVAR
  5
48
102
{ACAD_REACTORS
330
42
102
}
330
42
100
DictionaryVariables
280
     0
  1

  0
DICTIONARYVAR
  5
49
102
{ACAD_REACTORS
330
42
102
}
330
42
100
DictionaryVariables
280
     0
  1

  0
DICTIONARYVAR
  5
4A
102
{ACAD_REACTORS
330
42
102
}
330
42
100
DictionaryVariables
280
     0
  1
2
  0
DICTIONARYVAR
  5
4B
102
{ACAD_REACTORS
330
42
102
}
330
42
100
DictionaryVariables
280
     0
  1
1
  0
DICTIONARYVAR
  5
4C
102
{ACAD_REACTORS
330
42
102
}
330
42
100
DictionaryVariables
280
     0
  1
0
  0
DICTIONARYVAR
  5
4D
102
{ACAD_REACTORS
330
42
102
}
330
42
100
DictionaryVariables
280
     0
  1
0
  0
DICTIONARY
  5
17
330
15
100
AcDbDictionary
280
     1
281
     1
  0
DICTIONARY
  5
3C
330
3B
100
AcDbDictionary
280
     1
281
     1
  3
FBXASSET
360
3D
  0
DICTIONARY
  5
39
330
38
100
AcDbDictionary
280
     1
281
     1
  3
FBXASSET
360
3A
  0
DICTIONARY
  5
C
330
A
100
AcDbDictionary
280
     1
281
     1
  3
BUMPTILE
360
D
  3
DIFFUSETILE
360
E
  3
FBXASSET
360
F
  3
OPACITYTILE
360
10
  3
REFLECTIONTILE
360
11
  0
DICTIONARY
  5
50
330
4F
100
AcDbDictionary
280
     1
281
     1
  3
ACAD_ROUNDTRIP_2008_TABLESTYLE_CELLSTYLEMAP
360
1F9
  0
XRECORD
  5
3D
102
{ACAD_REACTORS
330
3C
102
}
330
3C
100
AcDbXrecord
280
     1
 70
     1
 90
429727718
  1
D62C5603-E3A1-4AEA-B7FB-FE5D8D0755AF
310
504B03040A0000080000CC70623B3DEE336E79000000790000001B0000006175746F6465736B2D64657369676E2D7061636B6167652E786D6C3C3F786D6C2076657273696F6E3D22312E302220656E636F64696E673D227574662D3822203F3E3C666F726D6174733E3C666F726D61743E687474703A2F2F736368656D612E
310
6175746F6465736B2E636F6D2F64657369676E2D7061636B6167652F323030393C2F666F726D61743E3C2F666F726D6174733E504B0304140006080800CC70623BD486FD9CA0000000F4000000130000005B436F6E74656E745F54797065735D2E786D6C7D8EC10E82300C865F65E91D8A1E8C310C0EEA1BF002731658846E
310
D98AC1B77784ABF1D8FE5FBFBF75BBCE937A534CCEB38643598122B6FEE978D0B0485F9C41B54DDD7D022595594E1A469170414C76A4D9A4D207E29CF43ECE46F218070CC6BECC4078ACAA135ACF422C856C0E68EA1BF5669944DDD7BCDE7B1F8E415D77AECB980613C2E4AC91FC167A2B244592486606FC29C8FD7F045B9A
310
EF7053A7E60B504B0304140006080800CC70623B853B8169EB0000007C01000008000000636F72652E786D6C8D90416EC3201045AF62CDB6C206821CC7C244919D9CA01740401C94182C03558F5F9C3852BBEB6A467FFE9B197D7EFC9E1EC5975982F5AE035262288C535E5B377690E21535501C055FBC8FBF6C503839990E
310
5619041F179FE64D52DE45E362569DD7661365082642A11EB9E920A89B99642953CC8E702F67A9EE7234257977194EC9EAE275C4EABCCF5EAD5940D4AC6F0E35A568B8F43562CD7046CD199FD07E60174276A7BE677B5EADB0E0D14EEFFB6A31321A0D82627C4084204C3F096B71DD52F6819B16635EADF63F509AF53FA164
310
5DDCD1EDDD17164090FCC8732078B56691CB33A85CD7DCC40F504B0304140006080800CC70623B55019EA25F0000007C00000007000000636E782E786D6C4DCB3B0E80201045D1AD90E915ED2CF8AC45050C11660C8261F98AB1B07AC9C97D42D718D865D3E909258CFD00CCE24AC6E326A164D74DC0B4128928FF32603847
310
2BA13128B1252AC747C6BAB984FC68F0B87FE8960A5C09FE86CFB69FBA01504B0304140006080800CC70623BDBABAAF470010000D40300000C0000006662782F636F72652E786D6CC553D16E823014FD95A6AF4B694182CC941A83FA05FB810A9511A125A5257EFE2E82712ECEB8A7F100CD39F7F69E734AF9FADC366850B6
310
AF8DCE7018308C942E4C59EB2AC3DE1D498AD15A706B8CFB56869196ADCAF00863C12B6B7C374385D14E6907A836A59A41D9F7CA615434B0C8705F7CAA5606D23BA8E84F41278B93AC54100640439DE0BDB320004D43C63716C7C399D30917DCFBBA9CD9BA8469F5B156168B24CED3F7248AC8769F27244EB73B92EED8862C
310
B7F13E0C179B3C8F979C8ECD82BBBABDAA2BAC924E9558448CBD9330242CFA08E3154B5651FCC6D215639C8EE5774DBE2B5F6CF2B5768B68963BB5F5588420E442FC700B1139D4CB01F450C1E918227C2E09DF070D8140C84E1E9AAB8F1340832A9CB13130A5F1376A908D57309505ECF2A0DF179C4E9D30F5B239B87E3823
310
7A79C6F31DE1A8A5AEC08474B03C7837EAE4938639B44E5932B833D2C6B6B279CDC613877FA26EE21F4A2A4C63EC7F29A2F301D1F9F7A0E37D145F504B0304140006080800CC70623B9C113CC27E0000009D0000000B0000006662782F636E782E786D6C4DCCDF0A83201C86E15B91DFB94BFB330DD428C8FB886521330DA7
310
6397BF1A1DECE883878F57749FCDA1B7892F1BBC047A23808C7F84D9FA55424E0BE6803A256208E9EF06C84F9B91703228B1C690F78B66B34CD9A5439DF5CF0BFBF65E35BCA1B8D6A5C6F540381E886698B5741C695F9503EBA150A2F8958E3DC3EA0B504B0304140006080800CC70623B7DF2F77C2A010000120200003100
310
00006662782F41393633353835312D344632462D344230382D423046372D3739314545314133324237412F636F72652E786D6C8D51DB8EC22014FC15C2939B0D2DB4B45643319AE817EC0F6041255A68B86CFCFC856D4D76DF7CE190393373060EDB3DC707F856CE6B6B7A480A0C81328395DA5C7B18C3057510EC3873D686
310
3F34088C18550F330C39BB3A1BA7051AAC09CA84841A2BD5020AEF55806078A44B0FFD7053A328440C89E1EFC52486BBB8AA8214A99D789CF9E05200300FC927E4FB4D5B375D43103D5527440FB843077C5AA3F5861C8F645F5787F59E95B390B318B55CE45AA638FAA2957BD7248B390B7A7CC51F9C124149C82B8C378810
310
84AB2F42B7B8DD56F413775B8C5999E9FF4471926F8AA236A1AE96B8B3CC434E5839373893369E1FAF30EA395917409EB7F26AF8801C171837A4A6AC9C89E9F9C9B1A58BA30FD6A5EF5DDDCF894B9AD9B6A59C957943A9FCAE2FD5BC4DFE03504B0304140006080800CC70623BAD7543B64E01000033030000300000006662
310
782F41393633353835312D344632462D344230382D423046372D3739314545314133324237412F636E782E786D6CD593CD6EC32010845F0571AD6CE3D48AD20813A9873E410FBD12D82434182C7EAAE6EDBB2424CD25871E7B41D6EC30B3FA84F9E67BB2E40B4234DE8DB46F1925E094D7C6ED479AD3AE5951B2113C789FEE
310
6C943839C1488B4C05DF079FE72A69D8C96C13AAD6B8631503449F83828872B949AC57D26200B826A308D316B4064D6E46FCDA41C05550DC9E483A00797BFD207EFB092A45DE9514C1BBD22178396BD39D891265658C238DEA00936C654E5E433CB65A26D9F6EDB5EBC14EBF49A45CB856E66048291F6939A9A81BB5C89177
310
38143CA680F4AA299D66A042CEB3354A2684DC9D8D178FE0D9B8B41CAAD720F880EE7EF93C0C18769E099ECC04D5A102C8049A8A05632F4DDF376CF1DE0F6BB65C2F8627B65A33C6BB62177CEBBDAD973006829F89F22E814B54F4BC2BE347F8AA8F681390B50FA73F804400B5F542E796F19FF974E7F78DB802FE05E20750
310
4B0304140006080800CC70623BE75B7789680500003C100000340000006662782F41393633353835312D344632462D344230382D423046372D3739314545314133324237412F6F626A656374732E786D6CAD575B8F9B3818FD2B887D06C22499CB8AA1CA655245D5B455A356FB305264C061D8018C6C3393D95FBFC7600890
310
A4CD5EF210B0B1BFEBF98E3F7B1FF6596ABC522E1296DF9BAE3D320D9A872C4AF2F8DE2CE5CEBA358D0FBEC719939D65A691938CDE9B6ADAF4BD98B3B2D05311DD91329583D9D5FC0F438434A7A611A644887B5384CF34233629258BA878B12322891DEFF6B66BD70BFB62634E8AE781D082709A4B588AF91C528CDA28B73F
310
1C998EEF39EABBEFA97FBD6A7C7E9553F9D3D79FE442923C3C523610337627CB87ABE99D359D4CC6D6E4FACAB5E6ABF9D2726FC6A3C5F56271377BB88362213924694B38DD99FE47C48627A1E7D49F5A8BB5E1A74C0A599ED3B0F21F1E56366B89112D681E218F0915D0D6F17AD41FBA2A369DCF6335D62ABBD39779D5DDD1
310
11D4D8DE3CBB96B2E04FB8202E41051754A1AA8E8F76B4C6DFE810B580B1547F4B84911149794252234D024EF8BBE963A95AE27B3D310A9D5C215C7960FAEE415ED75694C6AFB17BCACA5D99A60A9AA65F217B0BFC53292ACB92BF283FAD0D3621576592CB5BED907C2FA8E9DF794E35E97BEA31BED21FEB401ABB94C44839
310
DCACBF0E1C5DA8DA5B2F4DFFD32AD86F543D9E565E7056502E157C00AD2671CD534549AB752FCA9CDA00677A313F04E51B22FF19E57B300579E3C97EB29F682D92935CEC18CF901B7B54FD8C51F362B56FC72FE0B3C1EAE335EDCCBF5AEC39ADB17DC238973F804BA5E6F6BFE7AF1FB32E523BE9F3BD571418E3631DCA4D48
310
5250CF639223210A9446CA30052EDF057BD35F8329C1ECD84552BF0DC8D18BE7BCE23BFE6BD960AB4A7DE79923A103BEBD80F911CBAA2C60DB19B01CF164A5583B772EE6D3FFA56666CBCDA74DC97724A48F9A58967497E489C4D979006FD7A05E227A1EBDD0F737C623387A9C844D3709995625106D157315F8B8392CD4E0
310
A0B9A720C4BE9829CEF37EA1E13111214D53925356365ADA634861B52519DD27A00AEB808EAF0628E6F435519D446F45CF2C9CF5214F0A15B2F6D06B79DA3EE3CBF7F56780D2F4E7EF73A0F5E5B02A38D07DC852C6B7C1FBB6664213E0C39E3EBA7FF4E1AD23EA2829407C85E586727488B751B2DB9502BC7B228A3FD68B6E
310
A65A22397E690AA8D158D7E404EC8CDA235CC3B7D1898680131CEC2CDF2638C65196279577750F15884AEE19F94199155B92B13297978469D4F8D358DF0AEF7631E28DC8F0D9F437D5D39A83B2231A1D52D543813A824EF8D44BCFF2FA6A31BD1E8DAD87F1CCB526B3879935BF59CDADD5C37479BB1CDD4CA7B3556B516589
310
EF352754B706114D9C885EC9131DE6EFEB43D99AFE2391C2F958179413D7CFEF6B1B6DB1E7600F00DE6E5C67454A339A4BA2E0FBA85ED26F045D454F463DBFCE484C2F90F2E5E3666003662ED8F755951A7D1BECD5B30B550B2785C8E7320B7292A4838DDA71BBC863ED7613CAF659337A3354231D4FF4A182A54904C2898C
310
98B28C4AD0CE056CCF332A80986E571EE9DBC305BB5FEB7E509220A58D25CF042D712A806AC0AD0C657FDEF80D2D9CEAA2EE4D1C76F60BFE74219A06527D6F82DF6412526107381E55E353090704D085B52408A8913C4ED159D79BDA71BB4BC506F4831350EB6F975CD22D69BF7AC49B91A2C0A9DDA3D5CA36AD20FC478E37
310
E61844E2352865EBCB61A275A65283CAAA9DD27703B4102F5AF51EF5F573B75CBB5AD38BC845F7A49F82A0966A49C2E3EA5EA0ECD326CD965F1DB402C6FA8B51A4658C5C5E2EC9E214602E55810345408596591009A82E7E7FFACA19EEA299B14A0081A705CB3296EBC14CDF658DCD336EA6D1136881AAEB87B81AB9EE53D5
310
F5EB8BC8362082DA24122F98680A4E7930C01A0079749CEA14382A0783E5EBA5A10F8C098456A03D6A4AEB6BB881E2513747552A5DB22C7EDAF83BD5528081A365F7FF06504B0304140006080000CC70623B000000000000000000000000350000006662782F41393633353835312D344632462D344230382D423046372D37
310
39314545314133324237412F76657274696365732E62696E504B0304140006080800CC70623BF270F1330600000004000000360000006662782F41393633353835312D344632462D344230382D423046372D3739314545314133324237412F747269616E676C65732E62696E636660600000504B0304140006080000CC7062
310
3B000000000000000000000000370000006662782F41393633353835312D344632462D344230382D423046372D3739314545314133324237412F617474726962757465732E62696E504B0304140006080800CC70623B08DA0BD19000000041010000360000006662782F41393633353835312D344632462D344230382D4230
310
46372D3739314545314133324237412F6469726563746F72792E786D6C858F410AC3201045AF22B36F53E9A60B35CBEEBAE80D244E44489C6234F4F835464A48035D0DF398FF9F8AF63D0E6CC63039F212F8F9020C7D47C6792B21C5FE7403D62A1188E2E60C98D7234A5830286103A55745067B9D86B8A3CF9C7F90C11DE6
310
07FB144396D7B6A82D282E9A152AD114D5EF2CB866EEE831B8EEA07A7BB5A8D7D61A2BAAEB7FD5F70921FF497D00504B0304140006080800CC70623BEDD1DC58FD000000A00100003B0000006662782F41393633353835312D344632462D344230382D423046372D3739314545314133324237412F7265736F75726365732F
310
636F72652E786D6C8D504B6E833010BD0A9A6D65B00922041947112427E8052C33A156828DFCA97AFC9A40A576D7CDCCE87D344F8F9FBFE667F689CE6B6B3A6039850C8DB2A336530731DC4903D95970676DF82583CCC8193B5861107C72362E3BA4AC096842428D1D7107A5F7182053CF7474E0D507CE32973124857FE48B
310
540F3961CEF244279DE03EB81420DB9EAC1384436FA353E879B1B182C7A8C75DA3C7F453DF353A1075D537A7BA6464B8F535A99AE14A9A2BBD90E350DD183B5CFABE3AF262350B1EF4FC9351399401471025A527C218A1E53BAB5A5AB765F5469B96525EACF23FA6B88CFF34456DC2A1DCE36E360F82A5202F42F062ED2BAD
310
579969AFDD8A6F504B010214000A0000080000CC70623B3DEE336E79000000790000001B00000000000000000000000000000000006175746F6465736B2D64657369676E2D7061636B6167652E786D6C504B01021400140006080800CC70623BD486FD9CA0000000F40000001300000000000000000000000000B20000005B
310
436F6E74656E745F54797065735D2E786D6C504B01021400140006080800CC70623B853B8169EB0000007C010000080000000000000000000000000083010000636F72652E786D6C504B01021400140006080800CC70623B55019EA25F0000007C000000070000000000000000000000000094020000636E782E786D6C504B
310
01021400140006080800CC70623BDBABAAF470010000D40300000C00000000000000000000000000180300006662782F636F72652E786D6C504B01021400140006080800CC70623B9C113CC27E0000009D0000000B00000000000000000000000000B20400006662782F636E782E786D6C504B01021400140006080800CC70
310
623B7DF2F77C2A010000120200003100000000000000000000000000590500006662782F41393633353835312D344632462D344230382D423046372D3739314545314133324237412F636F72652E786D6C504B01021400140006080800CC70623BAD7543B64E010000330300003000000000000000000000000000D2060000
310
6662782F41393633353835312D344632462D344230382D423046372D3739314545314133324237412F636E782E786D6C504B01021400140006080800CC70623BE75B7789680500003C10000034000000000000000000000000006E0800006662782F41393633353835312D344632462D344230382D423046372D3739314545
310
314133324237412F6F626A656374732E786D6C504B01021400140006080000CC70623B0000000000000000000000003500000000000000000000000000280E00006662782F41393633353835312D344632462D344230382D423046372D3739314545314133324237412F76657274696365732E62696E504B01021400140006
310
080800CC70623BF270F133060000000400000036000000000000000000000000007B0E00006662782F41393633353835312D344632462D344230382D423046372D3739314545314133324237412F747269616E676C65732E62696E504B01021400140006080000CC70623B0000000000000000000000003700000000000000
310
000000000000D50E00006662782F41393633353835312D344632462D344230382D423046372D3739314545314133324237412F617474726962757465732E62696E504B01021400140006080800CC70623B08DA0BD1900000004101000036000000000000000000000000002A0F00006662782F41393633353835312D344632
310
462D344230382D423046372D3739314545314133324237412F6469726563746F72792E786D6C504B01021400140006080800CC70623BEDD1DC58FD000000A00100003B000000000000000000000000000E1000006662782F41393633353835312D344632462D344230382D423046372D3739314545314133324237412F7265
310
736F75726365732F636F72652E786D6C504B0506000000000E000E0080040000641100000000
  0
XRECORD
  5
3A
102
{ACAD_REACTORS
330
39
102
}
330
39
100
AcDbXrecord
280
     1
 70
     1
 90
429727718
  1
30362254-06B7-45E0-A893-8CFA70E3D6BC
310
504B03040A0000080000CC70623B3DEE336E79000000790000001B0000006175746F6465736B2D64657369676E2D7061636B6167652E786D6C3C3F786D6C2076657273696F6E3D22312E302220656E636F64696E673D227574662D3822203F3E3C666F726D6174733E3C666F726D61743E687474703A2F2F736368656D612E
310
6175746F6465736B2E636F6D2F64657369676E2D7061636B6167652F323030393C2F666F726D61743E3C2F666F726D6174733E504B0304140006080800CC70623BD486FD9CA0000000F4000000130000005B436F6E74656E745F54797065735D2E786D6C7D8EC10E82300C865F65E91D8A1E8C310C0EEA1BF002731658846E
310
D98AC1B77784ABF1D8FE5FBFBF75BBCE937A534CCEB38643598122B6FEE978D0B0485F9C41B54DDD7D022595594E1A469170414C76A4D9A4D207E29CF43ECE46F218070CC6BECC4078ACAA135ACF422C856C0E68EA1BF5669944DDD7BCDE7B1F8E415D77AECB980613C2E4AC91FC167A2B244592486606FC29C8FD7F045B9A
310
EF7053A7E60B504B0304140006080800CC70623B1EC5D7A3EB0000007C01000008000000636F72652E786D6C8D90416EC3201045AF82665B6103C6756C6122AB4D4ED00B204C5C94182C03558F5F9C3852BBEB6A467FFE9B197D71FC9E6FE8CBACC17AD7032D0820E3B41FAD9B7A48F1820F808E52ACDEC75F36404ECDA687
310
4D0629A6D5A76597B477D1B89855E747B38B2A041301E95B6E7A08FAD3CCAA50296647B8168BD2573599823EBB0CA76447F43862C7BCCF5EAC59410E4DDD9C7973C2755553CCCFA4C603E3040F1565ED3B1FDE4E432BCA0D9622DAF9795FAF464533826484B498524CD807E51D79ED187F21878E10516EF63F505AC67F42C9
310
BA58B1FDDD071640D2FCC87D2045B96591CB3DA85CB7DCE40F504B0304140006080800CC70623B55019EA25F0000007C00000007000000636E782E786D6C4DCB3B0E80201045D1AD90E915ED2CF8AC45050C11660C8261F98AB1B07AC9C97D42D718D865D3E909258CFD00CCE24AC6E326A164D74DC0B4128928FF32603847
310
2BA13128B1252AC747C6BAB984FC68F0B87FE8960A5C09FE86CFB69FBA01504B0304140006080800CC70623B8C9102E971010000D40300000C0000006662782F636F72652E786D6CC5535B6E833010BC8AE5DF0A6C08340F1947A84D4ED00B38C6A128602363A31CBFCB234A53A551FA553EC09AD9F5CE8C31DB9E9B1AF5CA
310
7695D1198E428A91D2D214952E33ECDD315861B4E5CC1AE3BE9561A445A3323CC098B3D21ADFCE9034DA29ED00D5A6503328BA4E398C640D8B0C77F253352214DE4145770A5B214FA2546114020D759C75CE8200340D19DE981F0F6746269C33EFAB6266AB02A655C74A59CCF365BADC27CB5D902ED22848F6340DF238A141
310
BE88E2F57B92BFEDF23523433367AE6A2EEAA455C2A902F398D2751045018D3FA264435F3771F242571B4A1919CA6F9A7C5B3CD9E42BED16F12C776AEB308F40C848FC700B1139D4891EF410CEC810227CC6846F8386402064270EF5C5C709A05E49676C024C61FC95EA45ED154CA5211D1FF4FB8291A913A68E9B83EBBB33
310
E2A7673CDE118E5AE8124C0807CB8377834E366998436B950D7A7746DAD846D4CFD978E0F04FD455FC5D49D2D4C6FE9722321F10997F0F32DC47FE05504B0304140006080800CC70623BFFEA85907E0000009D0000000B0000006662782F636E782E786D6C4DCCD10A83201886E15B91FFDC95D95A811AB6F23E625948A6C3
310
E9D8E5AF46073BFAE0E1E365ED67B3E8ADC3CB78C7815C7240DA3DFC64DCC221C519D7805AC182F7F1EF06C88D9BE6703008B6049F9E274D7A1E938DBB5AE3D6131B2589BA0D3D965551E0B2EA732C9B9A624AAEB41E3A557677029960D9AFB4EF11165F504B0304140006080800CC70623B4FEEA4082C0100001202000031
310
0000006662782F39464131463745442D413632322D343644302D413938332D3331353338454246344243312F636F72652E786D6C8D515B6EC32010BC0AE2AB55850DD871ED0813254D72825EC00192A2C460F1A872FC42ED48ED5F7E00CDCECCCEB26C731F6FE05B39AFADE921293004CA082BB5B9F43086336A21D870E6AC
310
0D7F68109861543DCC30E4ECE26C9C164858139409093556AA051CBC570102714B8F1E7AF1A5C6A11862480C7F2DA6415C878B2A4891CA89C7990F2E050073937C42DE1DB7E4F87ED8A36D4329AA9B3D46DBAEAD504556557BD81DEBDD0761E52CE42C462D17B996298E3E6BE59E35C962CE821E1FF18553435012728A7187
310
0841987E927A8D9B35ADDF70BBC6989599FE4F1427F9A4286A132ABAC49D651EF234CD5CE04CDA78BA3DC2A8FB645D00B9DF8B57E215725C60BCA2A463E54C4CE327C7A65E1C7DB02E7DEFCBF594B864C5CA6CDBD49C957943E9FA5D5FBAF336F90F504B0304140006080800CC70623BAD7543B64E01000033030000300000
310
006662782F39464131463745442D413632322D343644302D413938332D3331353338454246344243312F636E782E786D6CD593CD6EC32010845F0571AD6CE3D48AD20813A9873E410FBD12D82434182C7EAAE6EDBB2424CD25871E7B41D6EC30B3FA84F9E67BB2E40B4234DE8DB46F1925E094D7C6ED479AD3AE5951B2113C
310
789FEE6C943839C1488B4C05DF079FE72A69D8C96C13AAD6B8631503449F83828872B949AC57D26200B826A308D316B4064D6E46FCDA41C05550DC9E483A00797BFD207EFB092A45DE9514C1BBD22178396BD39D891265658C238DEA00936C654E5E433CB65A26D9F6EDB5EBC14EBF49A45CB856E66048291F6939A9A81BB5
310
C8917738143CA680F4AA299D66A042CEB3354A2684DC9D8D178FE0D9B8B41CAAD720F880EE7EF93C0C18769E099ECC04D5A102C8049A8A05632F4DDF376CF1DE0F6BB65C2F8627B65A33C6BB62177CEBBDAD973006829F89F22E814B54F4BC2BE347F8AA8F681390B50FA73F804400B5F542E796F19FF974E7F78DB802FE05
310
E207504B0304140006080800CC70623B16AB87BA640500003C100000340000006662782F39464131463745442D413632322D343644302D413938332D3331353338454246344243312F6F626A656374732E786D6CAD575B6FA33818FD2B887DE6924B3BED8A326A92B68A663B534DD4D13E548A0C38942D60649B369D5FBFC7
310
600890A493BDE42160637FD7F31D7FF63E6FB3D478A55C242CBF3247B66B1A340F5994E4F19559CA8D75611A9F7D8F33263BCB4C232719BD32D5B4E97B316765A1A722BA21652A07B3B7B33F0D11D29C9A46981221AE4C113ED38CD8A4942CA2E2C58E882476BCD9DA23BB5ED8171B73523C0F841684D35CC252CCE79062D4
310
468DFA43D7747CCF51DF7D4FFDEB5593E3AB9CCA9FBEFE241792E4E19EB28198C968BAB8199F5D5A67D3E9C49A9E8F47D6EC76B6B0469F26EEFC7C3EBFBCBEB98462213924694B38DD98FE1D62C393D073EA4FADC5DAF04326852CCF6958F90F0F2B9BB5C48816348F90C7840A68EB78EDF68723159BCEE7891A6B95DDE9D3
310
BCEAEEE8086A6C6F9E5D4B59F0175C10A7A0820BAA5055C7473B5AE3CFDD452D602CD5DF12616444529E90D448938013FE6EFA58AA96F85E4F8C42275708571E98FE6827AF6B2B4AE3D7D83D64E5A64C53054DD3AF90BD06FEA9149565C94FCA0F6B834DC85599E4F2423B24DF0B6AFA979E534DFA9E7A4CC6FA631D486393
310
921829879BF5D781A373557BCB85E97FB90DB62B558F8795179C15944B051F40AB495CF35451D26A4727654E6D8033BD98EF82F21D91FF8AF2DD9982BCF1643BDD4EB516C9492E368C67C88DED563FC36D5EACF66DFF057C3658BDBFA69DF9578B3DA735B64F18C7F20770A9D45CFCF7FCF563D6456A277DBEF78A02637CA2
310
43B90A490AEAB94F72244481D24819A6C0E59B606BFA4B3025981DBB48EAB701D97BF19C577CC77F2D1B6C55A9EF3C732474C0B727303F625995056C3B02963D9EAC146BE78EC5FCEC7FA999EBC5EACBAAE41B12D27B4D2C0BBA49F244E2ECDC81B76B502F113D8F5EE8FB1BE3111CDD4FC2AA9B844CAB1288B68AB90A7CDC
310
1C166AB0D3DC5310625FCC14E779BFD0709F8890A629C9292B1B2DED31A4B0DA928CEE135085754027E3018A397D4D5427D15BD1330B677DC8934285AC3DF45A9EB68FF8F2B8FC0A509AFEECFD0FF2DE25CC6047F7214B195F07EFEB9A094D800F7BFAE8FED187B78EA8A3A400F115961BCAD1215E47C966530AF0EE8128FE
310
58CEBB996A8964FFA529A046635D9353B0336A8F700DDF46271A024E70B0B37C9DE01847591E54DED53D54202AB947E4076556AC49C6CA5C9E1226B7F1A7B1BE15DEED62C41B91E1B3E9AFAAA735036547343A925075041DF0A9979E893B391F8FCFA6967B3EFB644DCF6E5CEBFAE272625DCC6FAF3FB93793C5F90CE1EF57
310
407342756B10D1C489E8953CD1617E5CEECAD6F4EF8914CE5D5D504E5C3F1F9736DA62CFC11E00BCDDB8CC8A9466349744C1F75EBDA4DF09BA8A9E8C7A7E9991989E20E5DBDD6A6003664ED8F7A04A8DBE0DF6EAD9B9AA858342E47399053949D2C146EDB85DE4B176BB0965FBAC19BD19AA918E27FA50C1D22402E144464C
310
59462568E704B6E71915404CB72B8FF4EDE184DDAF753F284990D2C6926782963815403548A70C657FDEF80D2D9CEAA2AE4C1C76F60BFE74219A06527D6582DF6412526107381E55E353090704D085B52408D0933C4ED159D79BDA71BB4BC506F4831350EB6F979CD22D69BF7AC49B91A2C0A9DDA3D5CA36AD20FC478E37E6
310
1844E2352865EBCB6EA275A652E3836BE04EFB400BF1A2556F515F1FBB35B2AB35BD889C744FFA1004B5544B121E57F70215746DD2F5E2C1412B602CBF19455AC6C8E5E9922C4E01E65215385004546899059180EAFCF7A707CE7017CD8CDB0410789AB32C63B91E5CEBBBACB17AC6CD347A022D5075FD106377347AAABA7E
310
7D11590744509B44E205134DC1290F06580320F78E537D3D73540E06CB970B431F185308AD40BBD794D6D77003C5A36E8EAA54BA64597CD8F83BD552A080A365F7FF06504B0304140006080000CC70623B000000000000000000000000350000006662782F39464131463745442D413632322D343644302D413938332D3331
310
353338454246344243312F76657274696365732E62696E504B0304140006080800CC70623BF270F1330600000004000000360000006662782F39464131463745442D413632322D343644302D413938332D3331353338454246344243312F747269616E676C65732E62696E636660600000504B0304140006080000CC70623B
310
000000000000000000000000370000006662782F39464131463745442D413632322D343644302D413938332D3331353338454246344243312F617474726962757465732E62696E504B0304140006080800CC70623B08DA0BD19000000041010000360000006662782F39464131463745442D413632322D343644302D413938
310
332D3331353338454246344243312F6469726563746F72792E786D6C858F410AC3201045AF22B36F53E9A60B35CBEEBAE80D244E44489C6234F4F835464A48035D0DF398FF9F8AF63D0E6CC63039F212F8F9020C7D47C6792B21C5FE7403D62A1188E2E60C98D7234A5830286103A55745067B9D86B8A3CF9C7F90C11DE607
310
FB144396D7B6A82D282E9A152AD114D5EF2CB866EEE831B8EEA07A7BB5A8D7D61A2BAAEB7FD5F70921FF497D00504B0304140006080800CC70623B0D6EF93BFE000000A00100003B0000006662782F39464131463745442D413632322D343644302D413938332D3331353338454246344243312F7265736F75726365732F63
310
6F72652E786D6C8D50596E833010BD0A9ADFCA60B334011947A8694ED00B586642AC041B79A97AFC9A40A5F6AF3F33A3B7689E1E3F7DCD8FEC139DD7D6F4C0720A191A65476DA61E62B892236427C19DB5E1970C322367EC618541F0C9D9B8EC90B226A009093576C41D94DE63804C3DD2D18357379C652E63480A7FCF17A9
310
EE72C29CE5894E3AC17D702940B63D59270887DE46A7D0F36263058F518FBB468FE9A7BE6A7420864373B8D4873369AA8691FA421B3294352543C5CAF65C0F6FEF43CB8BD52C78D0F34F46E550061C419494B6843142CB0F5677F4B52BEB177AEC28E5C52AFF638ACBF84F53D42654E51E77B379102C05791282176B5F693D
310
CB4C7BED567C03504B010214000A0000080000CC70623B3DEE336E79000000790000001B00000000000000000000000000000000006175746F6465736B2D64657369676E2D7061636B6167652E786D6C504B01021400140006080800CC70623BD486FD9CA0000000F40000001300000000000000000000000000B20000005B
310
436F6E74656E745F54797065735D2E786D6C504B01021400140006080800CC70623B1EC5D7A3EB0000007C010000080000000000000000000000000083010000636F72652E786D6C504B01021400140006080800CC70623B55019EA25F0000007C000000070000000000000000000000000094020000636E782E786D6C504B
310
01021400140006080800CC70623B8C9102E971010000D40300000C00000000000000000000000000180300006662782F636F72652E786D6C504B01021400140006080800CC70623BFFEA85907E0000009D0000000B00000000000000000000000000B30400006662782F636E782E786D6C504B01021400140006080800CC70
310
623B4FEEA4082C0100001202000031000000000000000000000000005A0500006662782F39464131463745442D413632322D343644302D413938332D3331353338454246344243312F636F72652E786D6C504B01021400140006080800CC70623BAD7543B64E010000330300003000000000000000000000000000D5060000
310
6662782F39464131463745442D413632322D343644302D413938332D3331353338454246344243312F636E782E786D6C504B01021400140006080800CC70623B16AB87BA640500003C1000003400000000000000000000000000710800006662782F39464131463745442D413632322D343644302D413938332D3331353338
310
454246344243312F6F626A656374732E786D6C504B01021400140006080000CC70623B0000000000000000000000003500000000000000000000000000270E00006662782F39464131463745442D413632322D343644302D413938332D3331353338454246344243312F76657274696365732E62696E504B01021400140006
310
080800CC70623BF270F133060000000400000036000000000000000000000000007A0E00006662782F39464131463745442D413632322D343644302D413938332D3331353338454246344243312F747269616E676C65732E62696E504B01021400140006080000CC70623B0000000000000000000000003700000000000000
310
000000000000D40E00006662782F39464131463745442D413632322D343644302D413938332D3331353338454246344243312F617474726962757465732E62696E504B01021400140006080800CC70623B08DA0BD190000000410100003600000000000000000000000000290F00006662782F39464131463745442D413632
310
322D343644302D413938332D3331353338454246344243312F6469726563746F72792E786D6C504B01021400140006080800CC70623B0D6EF93BFE000000A00100003B000000000000000000000000000D1000006662782F39464131463745442D413632322D343644302D413938332D3331353338454246344243312F7265
310
736F75726365732F636F72652E786D6C504B0506000000000E000E0080040000641100000000
  0
XRECORD
  5
D
102
{ACAD_REACTORS
330
C
102
}
330
C
100
AcDbXrecord
280
     1
270
     1
271
     1
  0
XRECORD
  5
E
102
{ACAD_REACTORS
330
C
102
}
330
C
100
AcDbXrecord
280
     1
270
     1
271
     1
  0
XRECORD
  5
F
102
{ACAD_REACTORS
330
C
102
}
330
C
100
AcDbXrecord
280
     1
 70
     0
 90
1673772943
  1
ECE7A1D2-D628-4531-984C-D00F80459256
310
504B03040A0000080000CC70623B3DEE336E79000000790000001B0000006175746F6465736B2D64657369676E2D7061636B6167652E786D6C3C3F786D6C2076657273696F6E3D22312E302220656E636F64696E673D227574662D3822203F3E3C666F726D6174733E3C666F726D61743E687474703A2F2F736368656D612E
310
6175746F6465736B2E636F6D2F64657369676E2D7061636B6167652F323030393C2F666F726D61743E3C2F666F726D6174733E504B0304140006080800CC70623BD486FD9CA0000000F4000000130000005B436F6E74656E745F54797065735D2E786D6C7D8EC10E82300C865F65E91D8A1E8C310C0EEA1BF002731658846E
310
D98AC1B77784ABF1D8FE5FBFBF75BBCE937A534CCEB38643598122B6FEE978D0B0485F9C41B54DDD7D022595594E1A469170414C76A4D9A4D207E29CF43ECE46F218070CC6BECC4078ACAA135ACF422C856C0E68EA1BF5669944DDD7BCDE7B1F8E415D77AECB980613C2E4AC91FC167A2B244592486606FC29C8FD7F045B9A
310
EF7053A7E60B504B0304140006080800CC70623BD9DDAED0EC0000007C01000008000000636F72652E786D6C8D90416EC3201045AF82665B61836D9CD8C2444DD39CA01740405C94182C03558F5F9C3852BBEB6A467FFE9B197D7EF89E6EE8CB2CC17A37002D0820E394D7D68D03A478C17B4007C117EFE32F1B20272733C0
310
2A83E0E3E2D3BC49CABB685CCCAAF3DA6CA20CC14440EA969B0182FA34932C648AD911AEC52CD5558EA6A0CF2EC329598D1E47ACCEFBECC59A050463A7EA5833865FEBDD0E37353BE3EE8DBDE3F6786A48D375FBF6CC78B9C282473B3DEFABC5C86834888A900E538A49F5419B9EB47DD5BC907D4F082F57FB1F28CDFA9F50
310
B22ED6D5F6EE030B20687EE43E10BC5CB3C8E51E54AE6B6EE207504B0304140006080800CC70623B55019EA25F0000007C00000007000000636E782E786D6C4DCB3B0E80201045D1AD90E915ED2CF8AC45050C11660C8261F98AB1B07AC9C97D42D718D865D3E909258CFD00CCE24AC6E326A164D74DC0B4128928FF326038
310
472BA13128B1252AC747C6BAB984FC68F0B87FE8960A5C09FE86CFB69FBA01504B0304140006080800CC70623BA24EB22D72010000D40300000C0000006662782F636F72652E786D6CC5535B6E833010BC8AE5DF0A6C5E49888CA3A6694ED00B38E05014B091B1518EDFE511A5A9D228FD2A1F60CDEC7A67C6986DCE4D8D7A
310
69BA4AAB0C073EC548AA5C17952A33ECECD15B61B4E1CC686DBF9561A44423333CC098B3D268D7CE50AE9595CA02AA74216750749DB418E5352C32DCE59FB211BE70162ABA93DF8AFC244AE9073ED050C759670D0840D390E18DF9F1706664C23973AE2A66B62A605A75ACA4C13C4976E1364A12EF355A2EBD384AF65EFA96
310
BC7B8BED2EA6719AAE16FB8491A199335B351775B991C2CA02F390D2D40B028F861F41BCA68B7518BFD0D59A524686F29B26D7164F36B94AD9289CE54E6D1DE6010819891F6E21228B3AD1831EC219194284CF98F06DD01008846CC5A1BEF83801D4CBDC6A1303536877A57A513B0953A94FC707FDBE6064EA84A9E3E6E0FA
310
EE8CF0E9198F7784A316AA0413C2C2F2E0ECA0934D1AE6D05A69BCDE9E91D2A611F573361E38FC1375157F5752AE6B6DFE4B11990F88CCBF0719EE23FF02504B0304140006080800CC70623B408A7D3B7C0000009D0000000B0000006662782F636E782E786D6C4DCCD10A83201886E15B91FFDC552A92A0064DBC8F581632
310
D3703A76F9ABD1C18E3E78F878E5F0D9027ABBFCF2292AE86E2D20171F69F6715550CB827B40839639A5F2770314A7CD293819B45C73AAFB45B35BA61ACAA1C1C7E7855C58C15BC331339661262CC762340413D68D77DA5B42298546CBE6573AF60CEB2F504B0304140006080800CC70623B449FB9BD290100001202000031
310
0000006662782F36394639363044362D344446342D343946362D394244322D3234314243333846323333332F636F72652E786D6C8D515B6EC32010BC0AE22B55850D98B871848994463E412FE002495162B07854397EA176A4F62F3F2C9A9D991D587EB84F37F0AD7D30CEF6905418026DA553C65E7A98E219ED203808EE9D
310
8B7F6810D871D23D2C3014FCE25D9A57483A1BB58D19B54EE9151C43D0110279CB971E06F9A5A7B11A53CC8C70ADE6515EC78BAE4895DB992778883E0700CB907242D17643D7E2538BD869608875438BBAE38922CAC8F1BDD90DB4691A5E2F42C153326A951B95E398B3D1FE599322163C9AE9115F7A3D46ADA0A018778810
310
84E907617BDCEE297BC5BB3DC6BC2EF47FA234AB2745C9D8D8D035EE220B50105E2F0DC1954B9FB747187D9F9D8FA0CCDB042D5FA0C015C65B42DF78BD10F3F3B363CB56C7109DCFDFBBB97E662ED92EB62D13BC2E1BCAE5777DB9966D8A1F504B0304140006080800CC70623BAD7543B64E01000033030000300000006662
310
782F36394639363044362D344446342D343946362D394244322D3234314243333846323333332F636E782E786D6CD593CD6EC32010845F0571AD6CE3D48AD20813A9873E410FBD12D82434182C7EAAE6EDBB2424CD25871E7B41D6EC30B3FA84F9E67BB2E40B4234DE8DB46F1925E094D7C6ED479AD3AE5951B2113C789FEE
310
6C943839C1488B4C05DF079FE72A69D8C96C13AAD6B8631503449F83828872B949AC57D26200B826A308D316B4064D6E46FCDA41C05550DC9E483A00797BFD207EFB092A45DE9514C1BBD22178396BD39D891265658C238DEA00936C654E5E433CB65A26D9F6EDB5EBC14EBF49A45CB856E66048291F6939A9A81BB5C89177
310
38143CA680F4AA299D66A042CEB3354A2684DC9D8D178FE0D9B8B41CAAD720F880EE7EF93C0C18769E099ECC04D5A102C8049A8A05632F4DDF376CF1DE0F6BB65C2F8627B65A33C6BB62177CEBBDAD973006829F89F22E814B54F4BC2BE347F8AA8F681390B50FA73F804400B5F542E796F19FF974E7F78DB802FE05E20750
310
4B0304140006080800CC70623B8D05915C650500003B100000340000006662782F36394639363044362D344446342D343946362D394244322D3234314243333846323333332F6F626A656374732E786D6CAD575B6FA33814FE2B887D06429276DA1565D4266D158D3A339A6846FB502932E050B66023DB74D2FDF5FB190C01
310
9276B2973C046C8ECFF53B17071F77456EBD502133CEAE6CDF9DD81665314F32965ED995DA3A17B6F5310C04E7AA47665B8C14F4CAD6DB7618A48257A5D94AE89654B91AEDDEDDFC61C998326A5B714EA4BCB265FC440BE2924AF184CA6737218AB8E976E7FA6E4338649B0A523E8D98964450A6A029F619B8588D52FE7039
310
B1BD30F0F4F730D0FF866AF6369557DB33949F31A9088B0F848DD8CCFCF9F2767A76E99CCDE733677E3EF59D9BBB9BA5E37F984D16E78BC5E5F5ED25044B25C0C96822E8D60EEFE11B91C581D77CEA34368A1F5329E68CD1B8B61F16D63A1B8E092D294B10C78C4A48EB593D192E7DED9BDEE7995E1B91FDEDD3ACEA9FE831
310
6A756F9F7D4D79F4274C90A7A04248AA51D5F8C718DAE06FB2F75AC4796EBE65D22A88A22223B995679120E2D50E41AA49C260C046A35368846B0BECD0DFF3EBEB8AD4F835768F69B9ADF25C43D30E6B646F807FAA64AD59F61715C7A54127C4AACA98BA3006A9D792DAE165E0D59B61A01FB3A9F9D838D2DAE62445C86166
310
F37564E842E7DE6A69879FEEA2DD5AE7E371E1A5E025154AC307D06A03D73EB5978C58FFA4C8E9033066E0F3BD53BEC1F39F91BE7B55103791EDE6BBB991A2046172CB4581D8B893FA674DDA17A77B3B7C413D1B511FD2743BFF8A38F03A658705E3ADF8015C3A3417FF3D7E439FF591DA0B5F18BC20C1B8981957AE6392A3
310
F43C640C01D1A0B4728E2DD4F26DB4B3C3152A252A3B4E913CEC1C72F012782FF88EFF8637AA552DBEF76408E8A8DE9E50F9E1CB3A2DA0DB1B6039A893B56063DC5B3E3FFB5F72E67AB9FEB4AEC496C4F4C1149625DD662C53E89D7BF0F6151A046260D1337DFDC94502430F83B0EE07A130A224BCAD7DAE1D9FB6CD422FF6
310
920702629C4BB9AE79C12F243C6432A6794E18E5552BA56B431AAB5D91317302B2B071E86C3A42B1A02F999E24061403B5D0EB639195DA655DD3EBEAB4FB862DDF579F014AD0E73C22F99E28DA57FB98E75C6CA2D74D53086D600F4786E0FE3144B771A8A7B900F03594DB8A633CBC49B2EDB69228BB479CF863B5E807AAAB
310
23872F6DFEB4129B949CA33823F58830E86D65621E10047D9DB34D862E8EAC3C2ABC2F7B2C40D67CDFE01F5545B92105AF983AC54D93D69E56FB8E797F88913F898A9FEC705D3F9D1B54EC8426FB500D40A03BD0119B06E1B95DDC7EB8F6975367793EBD70E66733DFB9BC982F9CE564727731999F5D4ECFCE3B8D6A4DC2A0
310
6D50FD148437D110834A64C6CDDF57FBACB5C307A2A477DFE4939736CFEF2B175371E0E10CF0DD1D5C15654E0BCA14D1E87DD02FF93782A162C0A3D95F1524A52770F972BF1EE9809D13CE7DD599467F8ECE9ADD85CE85A34CD45355448C64F9E8A031DC2D596ACC6E5DD93D9B82DE2EF5CAF81363A8E47996A0DE24564A79
310
4115AACE09C55E14540231FDA13C319787134EBF34E3A022514E5B4D9E0826E25C02D5805B15ABE1BEF51B26383D445DD9E875EE33FE4C22DA16427D65A3BCA92CA6D28DD01DF5DC53330704308475351050232CCD31583787BA75774AFB06E5070DD0C8EF484E19968C5D83BA5B90B244D31E54D55A372320FE4786B7EA58
310
44E135AA5467CB7EA333A61683CC6A8C3257034C10CF46F40EF9F5BE59BE5BD30C3C72D235E95D10345C1D45445A5F0BB47E46A5EBE5570F9380B5FA629579952296A773720405982B9DE04011506178964401AA8BDF1FBF0A8EAB6861DD6580C0E38217056766716DAEB2D6FA0917D3E4116581EADB879C4E7CFFB11EFACD
310
3D641311495D92C8676CB409A72D18610D803CE8A626049E8EC1887CB5B44CC39883690DDA8399B4B9855B481E7D71D4A9D22F96E5BB73BF5793020C02137BF837504B0304140006080000CC70623B000000000000000000000000350000006662782F36394639363044362D344446342D343946362D394244322D32343142
310
43333846323333332F76657274696365732E62696E504B0304140006080800CC70623BF270F1330600000004000000360000006662782F36394639363044362D344446342D343946362D394244322D3234314243333846323333332F747269616E676C65732E62696E636660600000504B0304140006080000CC70623B0000
310
00000000000000000000370000006662782F36394639363044362D344446342D343946362D394244322D3234314243333846323333332F617474726962757465732E62696E504B0304140006080800CC70623B08DA0BD19000000041010000360000006662782F36394639363044362D344446342D343946362D394244322D
310
3234314243333846323333332F6469726563746F72792E786D6C858F410AC3201045AF22B36F53E9A60B35CBEEBAE80D244E44489C6234F4F835464A48035D0DF398FF9F8AF63D0E6CC63039F212F8F9020C7D47C6792B21C5FE7403D62A1188E2E60C98D7234A5830286103A55745067B9D86B8A3CF9C7F90C11DE607FB14
310
4396D7B6A82D282E9A152AD114D5EF2CB866EEE831B8EEA07A7BB5A8D7D61A2BAAEB7FD5F70921FF497D00504B0304140006080800CC70623BCA768048FE000000A00100003B0000006662782F36394639363044362D344446342D343946362D394244322D3234314243333846323333332F7265736F75726365732F636F72
310
652E786D6C8D50596E833010BD0A9ADFCA60D600328E9AA639412F609909B1126CE4A5EAF16B0295DABFFECC8CDEA2797AECF8353F924FB44E193D409E5248504B332A3D0D10FC95B4901C39B3C6F85F3248B49871801506CE266BC2B243D2688FDA47549B11775038871E12F988C7004EDE7016A9083E2ADC3D5D84BC8B09
310
D33C8D74D471E6BC8D0192EDC93A815B742658898E651BCB59086ADC356A8C3FD555A1055ED7E7E254D615792D0F075295F585746FF53B694EE78A565DD736979A65AB9933AFE69F8CD2A2F038022F28ED489E135A7CE4554F9BBEA85E68DB53CAB255FEC71496F19FA6A0B42F8B3DEE6673C0F318E4497096AD7DC5F52C33
310
EEB55BFE0D504B010214000A0000080000CC70623B3DEE336E79000000790000001B00000000000000000000000000000000006175746F6465736B2D64657369676E2D7061636B6167652E786D6C504B01021400140006080800CC70623BD486FD9CA0000000F40000001300000000000000000000000000B20000005B436F
310
6E74656E745F54797065735D2E786D6C504B01021400140006080800CC70623BD9DDAED0EC0000007C010000080000000000000000000000000083010000636F72652E786D6C504B01021400140006080800CC70623B55019EA25F0000007C000000070000000000000000000000000095020000636E782E786D6C504B0102
310
1400140006080800CC70623BA24EB22D72010000D40300000C00000000000000000000000000190300006662782F636F72652E786D6C504B01021400140006080800CC70623B408A7D3B7C0000009D0000000B00000000000000000000000000B50400006662782F636E782E786D6C504B01021400140006080800CC70623B
310
449FB9BD290100001202000031000000000000000000000000005A0500006662782F36394639363044362D344446342D343946362D394244322D3234314243333846323333332F636F72652E786D6C504B01021400140006080800CC70623BAD7543B64E010000330300003000000000000000000000000000D20600006662
310
782F36394639363044362D344446342D343946362D394244322D3234314243333846323333332F636E782E786D6C504B01021400140006080800CC70623B8D05915C650500003B10000034000000000000000000000000006E0800006662782F36394639363044362D344446342D343946362D394244322D32343142433338
310
46323333332F6F626A656374732E786D6C504B01021400140006080000CC70623B0000000000000000000000003500000000000000000000000000250E00006662782F36394639363044362D344446342D343946362D394244322D3234314243333846323333332F76657274696365732E62696E504B010214001400060808
310
00CC70623BF270F13306000000040000003600000000000000000000000000780E00006662782F36394639363044362D344446342D343946362D394244322D3234314243333846323333332F747269616E676C65732E62696E504B01021400140006080000CC70623B00000000000000000000000037000000000000000000
310
00000000D20E00006662782F36394639363044362D344446342D343946362D394244322D3234314243333846323333332F617474726962757465732E62696E504B01021400140006080800CC70623B08DA0BD190000000410100003600000000000000000000000000270F00006662782F36394639363044362D344446342D
310
343946362D394244322D3234314243333846323333332F6469726563746F72792E786D6C504B01021400140006080800CC70623BCA768048FE000000A00100003B000000000000000000000000000B1000006662782F36394639363044362D344446342D343946362D394244322D3234314243333846323333332F7265736F
310
75726365732F636F72652E786D6C504B0506000000000E000E0080040000621100000000
  0
XRECORD
  5
10
102
{ACAD_REACTORS
330
C
102
}
330
C
100
AcDbXrecord
280
     1
270
     1
271
     1
  0
XRECORD
  5
11
102
{ACAD_REACTORS
330
C
102
}
330
C
100
AcDbXrecord
280
     1
270
     1
271
     1
  0
CELLSTYLEMAP
  5
1F9
102
{ACAD_REACTORS
330
50
102
}
330
50
100
AcDbCellStyleMap
 90
        3
300
CELLSTYLE
  1
TABLEFORMAT_BEGIN
 90
        5
170
     1
 91
        0
 92
    32768
 62
   257
 93
        1
300
CONTENTFORMAT
  1
CONTENTFORMAT_BEGIN
 90
        0
 91
        0
 92
      512
 93
        0
300

 40
0.0
140
1.0
 94
        5
 62
     0
340
21
144
6.0
309
CONTENTFORMAT_END
171
     1
301
MARGIN
  1
CELLMARGIN_BEGIN
 40
1.5
 40
1.5
 40
1.5
 40
1.5
 40
4.5
 40
4.5
309
CELLMARGIN_END
 94
        6
 95
        1
302
GRIDFORMAT
  1
GRIDFORMAT_BEGIN
 90
        0
 91
        1
 62
     0
 92
       -2
340
24
 93
        0
 40
1.125
309
GRIDFORMAT_END
 95
        2
302
GRIDFORMAT
  1
GRIDFORMAT_BEGIN
 90
        0
 91
        1
 62
     0
 92
       -2
340
24
 93
        0
 40
1.125
309
GRIDFORMAT_END
 95
        4
302
GRIDFORMAT
  1
GRIDFORMAT_BEGIN
 90
        0
 91
        1
 62
     0
 92
       -2
340
24
 93
        0
 40
1.125
309
GRIDFORMAT_END
 95
        8
302
GRIDFORMAT
  1
GRIDFORMAT_BEGIN
 90
        0
 91
        1
 62
     0
 92
       -2
340
24
 93
        0
 40
1.125
309
GRIDFORMAT_END
 95
       16
302
GRIDFORMAT
  1
GRIDFORMAT_BEGIN
 90
        0
 91
        1
 62
     0
 92
       -2
340
24
 93
        0
 40
1.125
309
GRIDFORMAT_END
 95
       32
302
GRIDFORMAT
  1
GRIDFORMAT_BEGIN
 90
        0
 91
        1
 62
     0
 92
       -2
340
24
 93
        0
 40
1.125
309
GRIDFORMAT_END
309
TABLEFORMAT_END
  1
CELLSTYLE_BEGIN
 90
        1
 91
        1
300
_TITLE
309
CELLSTYLE_END
300
CELLSTYLE
  1
TABLEFORMAT_BEGIN
 90
        5
170
     1
 91
        0
 92
        0
 62
   257
 93
        1
300
CONTENTFORMAT
  1
CONTENTFORMAT_BEGIN
 90
        0
 91
        0
 92
      512
 93
        0
300

 40
0.0
140
1.0
 94
        5
 62
     0
340
21
144
4.5
309
CONTENTFORMAT_END
171
     1
301
MARGIN
  1
CELLMARGIN_BEGIN
 40
1.5
 40
1.5
 40
1.5
 40
1.5
 40
4.5
 40
4.5
309
CELLMARGIN_END
 94
        6
 95
        1
302
GRIDFORMAT
  1
GRIDFORMAT_BEGIN
 90
        0
 91
        1
 62
     0
 92
       -2
340
24
 93
        0
 40
1.125
309
GRIDFORMAT_END
 95
        2
302
GRIDFORMAT
  1
GRIDFORMAT_BEGIN
 90
        0
 91
        1
 62
     0
 92
       -2
340
24
 93
        0
 40
1.125
309
GRIDFORMAT_END
 95
        4
302
GRIDFORMAT
  1
GRIDFORMAT_BEGIN
 90
        0
 91
        1
 62
     0
 92
       -2
340
24
 93
        0
 40
1.125
309
GRIDFORMAT_END
 95
        8
302
GRIDFORMAT
  1
GRIDFORMAT_BEGIN
 90
        0
 91
        1
 62
     0
 92
       -2
340
24
 93
        0
 40
1.125
309
GRIDFORMAT_END
 95
       16
302
GRIDFORMAT
  1
GRIDFORMAT_BEGIN
 90
        0
 91
        1
 62
     0
 92
       -2
340
24
 93
        0
 40
1.125
309
GRIDFORMAT_END
 95
       32
302
GRIDFORMAT
  1
GRIDFORMAT_BEGIN
 90
        0
 91
        1
 62
     0
 92
       -2
340
24
 93
        0
 40
1.125
309
GRIDFORMAT_END
309
TABLEFORMAT_END
  1
CELLSTYLE_BEGIN
 90
        2
 91
        1
300
_HEADER
309
CELLSTYLE_END
300
CELLSTYLE
  1
TABLEFORMAT_BEGIN
 90
        5
170
     1
 91
        0
 92
        0
 62
   257
 93
        1
300
CONTENTFORMAT
  1
CONTENTFORMAT_BEGIN
 90
        0
 91
        0
 92
      512
 93
        0
300

 40
0.0
140
1.0
 94
        2
 62
     0
340
21
144
4.5
309
CONTENTFORMAT_END
171
     1
301
MARGIN
  1
CELLMARGIN_BEGIN
 40
1.5
 40
1.5
 40
1.5
 40
1.5
 40
4.5
 40
4.5
309
CELLMARGIN_END
 94
        6
 95
        1
302
GRIDFORMAT
  1
GRIDFORMAT_BEGIN
 90
        0
 91
        1
 62
     0
 92
       -2
340
24
 93
        0
 40
1.125
309
GRIDFORMAT_END
 95
        2
302
GRIDFORMAT
  1
GRIDFORMAT_BEGIN
 90
        0
 91
        1
 62
     0
 92
       -2
340
24
 93
        0
 40
1.125
309
GRIDFORMAT_END
 95
        4
302
GRIDFORMAT
  1
GRIDFORMAT_BEGIN
 90
        0
 91
        1
 62
     0
 92
       -2
340
24
 93
        0
 40
1.125
309
GRIDFORMAT_END
 95
        8
302
GRIDFORMAT
  1
GRIDFORMAT_BEGIN
 90
        0
 91
        1
 62
     0
 92
       -2
340
24
 93
        0
 40
1.125
309
GRIDFORMAT_END
 95
       16
302
GRIDFORMAT
  1
GRIDFORMAT_BEGIN
 90
        0
 91
        1
 62
     0
 92
       -2
340
24
 93
        0
 40
1.125
309
GRIDFORMAT_END
 95
       32
302
GRIDFORMAT
  1
GRIDFORMAT_BEGIN
 90
        0
 91
        1
 62
     0
 92
       -2
340
24
 93
        0
 40
1.125
309
GRIDFORMAT_END
309
TABLEFORMAT_END
  1
CELLSTYLE_BEGIN
 90
        3
 91
        2
300
_DATA
309
CELLSTYLE_END
  0
ENDSEC
  0
SECTION
  2
ACDSDATA
 70
     2
 71
     8
  0
ACDSSCHEMA
 90
        0
  1
AcDb_Thumbnail_Schema
  2
AcDbDs::ID
280
    10
 91
        8
  2
Thumbnail_Data
280
    15
 91
        0
101
ACDSRECORD
 95
        0
 90
        1
  2
AcDbDs::TreatedAsObjectData
280
     1
291
     1
101
ACDSRECORD
 95
        0
 90
        2
  2
AcDbDs::Legacy
280
     1
291
     1
101
ACDSRECORD
  1
AcDbDs::ID
 90
        3
  2
AcDs:Indexable
280
     1
291
     1
101
ACDSRECORD
  1
AcDbDs::ID
 90
        4
  2
AcDbDs::HandleAttribute
280
     7
282
     1
  0
ACDSSCHEMA
 90
        1
  1
AcDbDs::TreatedAsObjectDataSchema
  2
AcDbDs::TreatedAsObjectData
280
     1
 91
        0
  0
ACDSSCHEMA
 90
        2
  1
AcDbDs::LegacySchema
  2
AcDbDs::Legacy
280
     1
 91
        0
  0
ACDSSCHEMA
 90
        3
  1
AcDbDs::IndexedPropertySchema
  2
AcDs:Indexable
280
     1
 91
        0
  0
ACDSSCHEMA
 90
        4
  1
AcDbDs::HandleAttributeSchema
  2
AcDbDs::HandleAttribute
280
     7
 91
        1
284
     1
  0
ACDSRECORD
 90
        0
  2
AcDbDs::ID
280
    10
320
15
  2
Thumbnail_Data
280
    15
 94
      896
310
89504E470D0A1A0A0000000D49484452000001000000009108030000001BE1960600000300504C5445212830FFFFFF2128300000000000000000000000000000000000000000000000000000330000660000990000CC0000FF0033000033330033660033990033CC0033FF0066000066330066660066990066CC0066FF0099
310
000099330099660099990099CC0099FF00CC0000CC3300CC6600CC9900CCCC00CCFF00FF0000FF3300FF6600FF9900FFCC00FFFF3300003300333300663300993300CC3300FF3333003333333333663333993333CC3333FF3366003366333366663366993366CC3366FF3399003399333399663399993399CC3399FF33CC00
310
33CC3333CC6633CC9933CCCC33CCFF33FF0033FF3333FF6633FF9933FFCC33FFFF6600006600336600666600996600CC6600FF6633006633336633666633996633CC6633FF6666006666336666666666996666CC6666FF6699006699336699666699996699CC6699FF66CC0066CC3366CC6666CC9966CCCC66CCFF66FF0066
310
FF3366FF6666FF9966FFCC66FFFF9900009900339900669900999900CC9900FF9933009933339933669933999933CC9933FF9966009966339966669966999966CC9966FF9999009999339999669999999999CC9999FF99CC0099CC3399CC6699CC9999CCCC99CCFF99FF0099FF3399FF6699FF9999FFCC99FFFFCC0000CC00
310
33CC0066CC0099CC00CCCC00FFCC3300CC3333CC3366CC3399CC33CCCC33FFCC6600CC6633CC6666CC6699CC66CCCC66FFCC9900CC9933CC9966CC9999CC99CCCC99FFCCCC00CCCC33CCCC66CCCC99CCCCCCCCCCFFCCFF00CCFF33CCFF66CCFF99CCFFCCCCFFFFFF0000FF0033FF0066FF0099FF00CCFF00FFFF3300FF3333
310
FF3366FF3399FF33CCFF33FFFF6600FF6633FF6666FF6699FF66CCFF66FFFF9900FF9933FF9966FF9999FF99CCFF99FFFFCC00FFCC33FFCC66FFCC99FFCCCCFFCCFFFFFF00FFFF33FFFF66FFFF99FFFFCCFFFFFF0000000D0D0D1A1A1A2828283535354343435050505D5D5D6B6B6B787878868686939393A1A1A1AEAEAEBB
310
BBBBC9C9C9D6D6D6E4E4E4F1F1F1FFFFFF0000000000000000000000000000000000000000000000000000000000002E4550F10000003B4944415478DAEDC13101000000C2A0F54F6D0B2FA0000000000000000000000000000000000000000000000000000000000000000000000000CE06919100016C9A5B1B0000000049
310
454E44AE426082
  0
ENDSEC
  0
EOF
