  0
SECTION
  2
HEADER
  9
$ACADVER
  1
AC1032
  9
$ACADMAINTVER
 90
      174
  9
$DWGCODEPAGE
  3
ANSI_932
  9
$REQUIREDVERSIONS
160
                 0
  9
$INSBASE
 10
0.0
 20
0.0
 30
0.0
  9
$EXTMIN
 10
43.23408719239259
 20
49.27709546874783
 30
0.0
  9
$EXTMAX
 10
93.21919234634002
 20
111.2439153366562
 30
0.0
  9
$LIMMIN
 10
0.0
 20
0.0
  9
$LIMMAX
 10
420.0
 20
297.0
  9
$ORTHOMODE
 70
     0
  9
$REGENMODE
 70
     1
  9
$FILLMODE
 70
     1
  9
$QTEXTMODE
 70
     0
  9
$MIRRTEXT
 70
     0
  9
$LTSCALE
 40
1.0
  9
$ATTMODE
 70
     1
  9
$TEXTSIZE
 40
2.5
  9
$TRACEWID
 40
1.0
  9
$TEXTSTYLE
  7
Standard
  9
$CLAYER
  8
0
  9
$CELTYPE
  6
ByLayer
  9
$CECOLOR
 62
   256
  9
$CELTSCALE
 40
1.0
  9
$DISPSILH
 70
     0
  9
$DIMSCALE
 40
1.0
  9
$DIMASZ
 40
2.5
  9
$DIMEXO
 40
0.625
  9
$DIMDLI
 40
3.75
  9
$DIMRND
 40
0.0
  9
$DIMDLE
 40
0.0
  9
$DIMEXE
 40
1.25
  9
$DIMTP
 40
0.0
  9
$DIMTM
 40
0.0
  9
$DIMTXT
 40
2.5
  9
$DIMCEN
 40
2.5
  9
$DIMTSZ
 40
0.0
  9
$DIMTOL
 70
     0
  9
$DIMLIM
 70
     0
  9
$DIMTIH
 70
     0
  9
$DIMTOH
 70
     0
  9
$DIMSE1
 70
     0
  9
$DIMSE2
 70
     0
  9
$DIMTAD
 70
     1
  9
$DIMZIN
 70
     8
  9
$DIMBLK
  1

  9
$DIMASO
 70
     1
  9
$DIMSHO
 70
     1
  9
$DIMPOST
  1

  9
$DIMAPOST
  1

  9
$DIMALT
 70
     0
  9
$DIMALTD
 70
     3
  9
$DIMALTF
 40
0.03937007874016
  9
$DIMLFAC
 40
1.0
  9
$DIMTOFL
 70
     1
  9
$DIMTVP
 40
0.0
  9
$DIMTIX
 70
     0
  9
$DIMSOXD
 70
     0
  9
$DIMSAH
 70
     0
  9
$DIMBLK1
  1

  9
$DIMBLK2
  1

  9
$DIMSTYLE
  2
ISO-25
  9
$DIMCLRD
 70
     0
  9
$DIMCLRE
 70
     0
  9
$DIMCLRT
 70
     0
  9
$DIMTFAC
 40
1.0
  9
$DIMGAP
 40
0.625
  9
$DIMJUST
 70
     0
  9
$DIMSD1
 70
     0
  9
$DIMSD2
 70
     0
  9
$DIMTOLJ
 70
     0
  9
$DIMTZIN
 70
     8
  9
$DIMALTZ
 70
     0
  9
$DIMALTTZ
 70
     0
  9
$DIMUPT
 70
     0
  9
$DIMDEC
 70
     2
  9
$DIMTDEC
 70
     2
  9
$DIMALTU
 70
     2
  9
$DIMALTTD
 70
     3
  9
$DIMTXSTY
  7
Standard
  9
$DIMAUNIT
 70
     0
  9
$DIMADEC
 70
     0
  9
$DIMALTRND
 40
0.0
  9
$DIMAZIN
 70
     0
  9
$DIMDSEP
 70
    44
  9
$DIMATFIT
 70
     3
  9
$DIMFRAC
 70
     0
  9
$DIMLDRBLK
  1

  9
$DIMLUNIT
 70
     2
  9
$DIMLWD
 70
    -2
  9
$DIMLWE
 70
    -2
  9
$DIMTMOVE
 70
     0
  9
$DIMFXL
 40
1.0
  9
$DIMFXLON
 70
     0
  9
$DIMJOGANG
 40
0.7853981633974483
  9
$DIMTFILL
 70
     0
  9
$DIMTFILLCLR
 70
     0
  9
$DIMARCSYM
 70
     0
  9
$DIMLTYPE
  6

  9
$DIMLTEX1
  6

  9
$DIMLTEX2
  6

  9
$DIMTXTDIRECTION
 70
     0
  9
$LUNITS
 70
     2
  9
$LUPREC
 70
     4
  9
$SKETCHINC
 40
1.0
  9
$FILLETRAD
 40
0.0
  9
$AUNITS
 70
     0
  9
$AUPREC
 70
     0
  9
$MENU
  1
.
  9
$ELEVATION
 40
0.0
  9
$PELEVATION
 40
0.0
  9
$THICKNESS
 40
0.0
  9
$LIMCHECK
 70
     0
  9
$CHAMFERA
 40
0.0
  9
$CHAMFERB
 40
0.0
  9
$CHAMFERC
 40
0.0
  9
$CHAMFERD
 40
0.0
  9
$SKPOLY
 70
     0
  9
$TDCREATE
 40
2459439.435891204
  9
$TDUCREATE
 40
2459439.102557871
  9
$TDUPDATE
 40
2459439.435891204
  9
$TDUUPDATE
 40
2459439.102557871
  9
$TDINDWG
 40
0.0015046296
  9
$TDUSRTIMER
 40
0.0015046296
  9
$USRTIMER
 70
     1
  9
$ANGBASE
 50
0.0
  9
$ANGDIR
 70
     0
  9
$PDMODE
 70
     0
  9
$PDSIZE
 40
0.0
  9
$PLINEWID
 40
0.0
  9
$SPLFRAME
 70
     0
  9
$SPLINETYPE
 70
     6
  9
$SPLINESEGS
 70
     8
  9
$HANDSEED
  5
275
  9
$SURFTAB1
 70
     6
  9
$SURFTAB2
 70
     6
  9
$SURFTYPE
 70
     6
  9
$SURFU
 70
     6
  9
$SURFV
 70
     6
  9
$UCSBASE
  2

  9
$UCSNAME
  2

  9
$UCSORG
 10
0.0
 20
0.0
 30
0.0
  9
$UCSXDIR
 10
1.0
 20
0.0
 30
0.0
  9
$UCSYDIR
 10
0.0
 20
1.0
 30
0.0
  9
$UCSORTHOREF
  2

  9
$UCSORTHOVIEW
 70
     0
  9
$UCSORGTOP
 10
0.0
 20
0.0
 30
0.0
  9
$UCSORGBOTTOM
 10
0.0
 20
0.0
 30
0.0
  9
$UCSORGLEFT
 10
0.0
 20
0.0
 30
0.0
  9
$UCSORGRIGHT
 10
0.0
 20
0.0
 30
0.0
  9
$UCSORGFRONT
 10
0.0
 20
0.0
 30
0.0
  9
$UCSORGBACK
 10
0.0
 20
0.0
 30
0.0
  9
$PUCSBASE
  2

  9
$PUCSNAME
  2

  9
$PUCSORG
 10
0.0
 20
0.0
 30
0.0
  9
$PUCSXDIR
 10
1.0
 20
0.0
 30
0.0
  9
$PUCSYDIR
 10
0.0
 20
1.0
 30
0.0
  9
$PUCSORTHOREF
  2

  9
$PUCSORTHOVIEW
 70
     0
  9
$PUCSORGTOP
 10
0.0
 20
0.0
 30
0.0
  9
$PUCSORGBOTTOM
 10
0.0
 20
0.0
 30
0.0
  9
$PUCSORGLEFT
 10
0.0
 20
0.0
 30
0.0
  9
$PUCSORGRIGHT
 10
0.0
 20
0.0
 30
0.0
  9
$PUCSORGFRONT
 10
0.0
 20
0.0
 30
0.0
  9
$PUCSORGBACK
 10
0.0
 20
0.0
 30
0.0
  9
$USERI1
 70
     0
  9
$USERI2
 70
     0
  9
$USERI3
 70
     0
  9
$USERI4
 70
     0
  9
$USERI5
 70
     0
  9
$USERR1
 40
0.0
  9
$USERR2
 40
0.0
  9
$USERR3
 40
0.0
  9
$USERR4
 40
0.0
  9
$USERR5
 40
0.0
  9
$WORLDVIEW
 70
     1
  9
$SHADEDGE
 70
     3
  9
$SHADEDIF
 70
    70
  9
$TILEMODE
 70
     1
  9
$MAXACTVP
 70
    64
  9
$PINSBASE
 10
0.0
 20
0.0
 30
0.0
  9
$PLIMCHECK
 70
     0
  9
$PEXTMIN
 10
0.0
 20
0.0
 30
0.0
  9
$PEXTMAX
 10
0.0
 20
0.0
 30
0.0
  9
$PLIMMIN
 10
0.0
 20
0.0
  9
$PLIMMAX
 10
12.0
 20
9.0
  9
$UNITMODE
 70
     0
  9
$VISRETAIN
 70
     1
  9
$PLINEGEN
 70
     0
  9
$PSLTSCALE
 70
     1
  9
$TREEDEPTH
 70
  3020
  9
$CMLSTYLE
  2
Standard
  9
$CMLJUST
 70
     0
  9
$CMLSCALE
 40
20.0
  9
$PROXYGRAPHICS
 70
     1
  9
$MEASUREMENT
 70
     1
  9
$CELWEIGHT
370
    -1
  9
$ENDCAPS
280
     0
  9
$JOINSTYLE
280
     0
  9
$LWDISPLAY
290
     0
  9
$INSUNITS
 70
     4
  9
$HYPERLINKBASE
  1

  9
$STYLESHEET
  1

  9
$XEDIT
290
     1
  9
$CEPSNTYPE
380
     0
  9
$PSTYLEMODE
290
     1
  9
$FINGERPRINTGUID
  2
{98ECA021-79BE-4340-94EE-D79627C06AC0}
  9
$VERSIONGUID
  2
{9BCA0FC1-A688-F949-9237-D99A0DA1A81C}
  9
$EXTNAMES
290
     1
  9
$PSVPSCALE
 40
0.0
  9
$OLESTARTUP
290
     0
  9
$SORTENTS
280
   127
  9
$INDEXCTL
280
     0
  9
$HIDETEXT
280
     1
  9
$XCLIPFRAME
280
     2
  9
$HALOGAP
280
     0
  9
$OBSCOLOR
 70
   257
  9
$OBSLTYPE
280
     0
  9
$INTERSECTIONDISPLAY
280
     0
  9
$INTERSECTIONCOLOR
 70
   257
  9
$DIMASSOC
280
     2
  9
$PROJECTNAME
  1

  9
$CAMERADISPLAY
290
     0
  9
$LENSLENGTH
 40
50.0
  9
$CAMERAHEIGHT
 40
0.0
  9
$STEPSPERSEC
 40
2.0
  9
$STEPSIZE
 40
6.0
  9
$3DDWFPREC
 40
2.0
  9
$PSOLWIDTH
 40
5.0
  9
$PSOLHEIGHT
 40
80.0
  9
$LOFTANG1
 40
1.570796326794896
  9
$LOFTANG2
 40
1.570796326794896
  9
$LOFTMAG1
 40
0.0
  9
$LOFTMAG2
 40
0.0
  9
$LOFTPARAM
 70
     7
  9
$LOFTNORMALS
280
     1
  9
$LATITUDE
 40
37.795
  9
$LONGITUDE
 40
-122.394
  9
$NORTHDIRECTION
 40
0.0
  9
$TIMEZONE
 70
 -8000
  9
$LIGHTGLYPHDISPLAY
280
     1
  9
$TILEMODELIGHTSYNCH
280
     1
  9
$CMATERIAL
347
38
  9
$SOLIDHIST
280
     0
  9
$SHOWHIST
280
     1
  9
$DWFFRAME
280
     2
  9
$DGNFRAME
280
     0
  9
$REALWORLDSCALE
290
     1
  9
$INTERFERECOLOR
 62
     1
  9
$INTERFEREOBJVS
345
51
  9
$INTERFEREVPVS
346
52
  9
$CSHADOW
280
     0
  9
$SHADOWPLANELOCATION
 40
0.0
  0
ENDSEC
  0
SECTION
  2
CLASSES
  0
CLASS
  1
ACDBDICTIONARYWDFLT
  2
AcDbDictionaryWithDefault
  3
ObjectDBX Classes
 90
        0
 91
        1
280
     0
281
     0
  0
CLASS
  1
DICTIONARYVAR
  2
AcDbDictionaryVar
  3
ObjectDBX Classes
 90
        0
 91
       11
280
     0
281
     0
  0
CLASS
  1
TABLESTYLE
  2
AcDbTableStyle
  3
ObjectDBX Classes
 90
     4095
 91
        1
280
     0
281
     0
  0
CLASS
  1
MATERIAL
  2
AcDbMaterial
  3
ObjectDBX Classes
 90
     1153
 91
        3
280
     0
281
     0
  0
CLASS
  1
VISUALSTYLE
  2
AcDbVisualStyle
  3
ObjectDBX Classes
 90
     4095
 91
        3
280
     0
281
     0
  0
CLASS
  1
SCALE
  2
AcDbScale
  3
ObjectDBX Classes
 90
     1153
 91
       17
280
     0
281
     0
  0
CLASS
  1
MLEADERSTYLE
  2
AcDbMLeaderStyle
  3
ACDB_MLEADERSTYLE_CLASS
 90
     4095
 91
        0
280
     0
281
     0
  0
CLASS
  1
CELLSTYLEMAP
  2
AcDbCellStyleMap
  3
ObjectDBX Classes
 90
     1152
 91
        1
280
     0
281
     0
  0
CLASS
  1
EXACXREFPANELOBJECT
  2
ExAcXREFPanelObject
  3
EXAC_ESW
 90
     1025
 91
        0
280
     1
281
     0
  0
CLASS
  1
NPOCOLLECTION
  2
AcDbImpNonPersistentObjectsCollection
  3
ObjectDBX Classes
 90
     1153
 91
        0
280
     0
281
     0
  0
CLASS
  1
LAYER_INDEX
  2
AcDbLayerIndex
  3
ObjectDBX Classes
 90
        0
 91
        0
280
     0
281
     0
  0
CLASS
  1
SPATIAL_INDEX
  2
AcDbSpatialIndex
  3
ObjectDBX Classes
 90
        0
 91
        0
280
     0
281
     0
  0
CLASS
  1
IDBUFFER
  2
AcDbIdBuffer
  3
ObjectDBX Classes
 90
        0
 91
        0
280
     0
281
     0
  0
CLASS
  1
ACDBSECTIONVIEWSTYLE
  2
AcDbSectionViewStyle
  3
ObjectDBX Classes
 90
     1025
 91
        0
280
     0
281
     0
  0
CLASS
  1
ACDBDETAILVIEWSTYLE
  2
AcDbDetailViewStyle
  3
ObjectDBX Classes
 90
     1025
 91
        0
280
     0
281
     0
  0
CLASS
  1
SORTENTSTABLE
  2
AcDbSortentsTable
  3
ObjectDBX Classes
 90
        0
 91
        0
280
     0
281
     0
  0
ENDSEC
  0
SECTION
  2
TABLES
  0
TABLE
  2
VPORT
  5
28
330
0
100
AcDbSymbolTable
 70
     1
  0
VPORT
  5
29
330
28
100
AcDbSymbolTableRecord
100
AcDbViewportTableRecord
  2
*Active
 70
     0
 10
0.0
 20
0.0
 11
1.0
 21
1.0
 12
109.762183045833
 22
76.41212340577658
 13
0.0
 23
0.0
 14
10.0
 24
10.0
 15
10.0
 25
10.0
 16
0.0
 26
0.0
 36
1.0
 17
0.0
 27
0.0
 37
0.0
 40
161.248683178559
 41
1.845624385447394
 42
50.0
 43
0.0
 44
0.0
 50
0.0
 51
0.0
 71
     0
 72
  1000
 73
     1
 74
     3
 75
     0
 76
     1
 77
     0
 78
     0
281
     0
 65
     1
110
0.0
120
0.0
130
0.0
111
1.0
121
0.0
131
0.0
112
0.0
122
1.0
132
0.0
 79
     0
146
0.0
348
2A
 60
     3
 61
     5
292
     1
282
     1
141
0.0
142
0.0
 63
   250
421
  3355443
1001
ACAD_NAV_VCDISPLAY
1070
     3
  0
ENDTAB
  0
TABLE
  2
LTYPE
  5
23
330
0
100
AcDbSymbolTable
 70
     1
  0
LTYPE
  5
24
330
23
100
AcDbSymbolTableRecord
100
AcDbLinetypeTableRecord
  2
ByBlock
 70
     0
  3

 72
    65
 73
     0
 40
0.0
  0
LTYPE
  5
25
330
23
100
AcDbSymbolTableRecord
100
AcDbLinetypeTableRecord
  2
ByLayer
 70
     0
  3

 72
    65
 73
     0
 40
0.0
  0
LTYPE
  5
13
330
23
100
AcDbSymbolTableRecord
100
AcDbLinetypeTableRecord
  2
Continuous
 70
     0
  3
Solid line
 72
    65
 73
     0
 40
0.0
  0
ENDTAB
  0
TABLE
  2
LAYER
  5
1D
102
{ACAD_XDICTIONARY
360
1E
102
}
330
0
100
AcDbSymbolTable
 70
     1
  0
LAYER
  5
5
102
{ACAD_XDICTIONARY
360
6
102
}
330
1D
100
AcDbSymbolTableRecord
100
AcDbLayerTableRecord
  2
0
 70
     0
 62
     7
  6
Continuous
370
    -3
390
7
347
A
348
0
  0
ENDTAB
  0
TABLE
  2
STYLE
  5
20
330
0
100
AcDbSymbolTable
 70
     1
  0
STYLE
  5
21
330
20
100
AcDbSymbolTableRecord
100
AcDbTextStyleTableRecord
  2
Standard
 70
     0
 40
0.0
 41
1.0
 50
0.0
 71
     0
 42
2.5
  3
arial.ttf
  4

1001
ACAD
1000
Arial
1071
       34
  0
ENDTAB
  0
TABLE
  2
VIEW
  5
26
330
0
100
AcDbSymbolTable
 70
     0
  0
ENDTAB
  0
TABLE
  2
UCS
  5
27
330
0
100
AcDbSymbolTable
 70
     0
  0
ENDTAB
  0
TABLE
  2
APPID
  5
2D
330
0
100
AcDbSymbolTable
 70
     6
  0
APPID
  5
12
330
2D
100
AcDbSymbolTableRecord
100
AcDbRegAppTableRecord
  2
ACAD
 70
     0
  0
APPID
  5
18
330
2D
100
AcDbSymbolTableRecord
100
AcDbRegAppTableRecord
  2
ACAD_PSEXT
 70
     0
  0
APPID
  5
31
330
2D
100
AcDbSymbolTableRecord
100
AcDbRegAppTableRecord
  2
AcadAnnotative
 70
     0
  0
APPID
  5
32
330
2D
100
AcDbSymbolTableRecord
100
AcDbRegAppTableRecord
  2
ACAD_DSTYLE_DIMJAG
 70
     0
  0
APPID
  5
33
330
2D
100
AcDbSymbolTableRecord
100
AcDbRegAppTableRecord
  2
ACAD_DSTYLE_DIMTALN
 70
     0
  0
APPID
  5
2C
330
2D
100
AcDbSymbolTableRecord
100
AcDbRegAppTableRecord
  2
ACAD_NAV_VCDISPLAY
 70
     0
  0
ENDTAB
  0
TABLE
  2
DIMSTYLE
  5
2E
330
0
100
AcDbSymbolTable
 70
     2
100
AcDbDimStyleTable
 71
     2
340
2F
340
30
  0
DIMSTYLE
105
30
330
2E
100
AcDbSymbolTableRecord
100
AcDbDimStyleTableRecord
  2
Annotative
 70
     0
 40
0.0
 41
2.5
 42
0.625
 43
3.75
 44
1.25
 73
     0
 74
     0
 77
     1
 78
     8
140
2.5
141
2.5
143
0.03937007874016
147
0.625
171
     3
172
     1
271
     2
272
     2
274
     3
278
    44
283
     0
284
     8
340
21
1001
AcadAnnotative
1000
AnnotativeData
1002
{
1070
     1
1070
     1
1002
}
1001
ACAD_DSTYLE_DIMJAG
1070
   388
1040
1.5
1001
ACAD_DSTYLE_DIMTALN
1070
   392
1070
     0
  0
DIMSTYLE
105
2F
330
2E
100
AcDbSymbolTableRecord
100
AcDbDimStyleTableRecord
  2
ISO-25
 70
     0
 41
2.5
 42
0.625
 43
3.75
 44
1.25
 73
     0
 74
     0
 77
     1
 78
     8
140
2.5
141
2.5
143
0.03937007874016
147
0.625
171
     3
172
     1
271
     2
272
     2
274
     3
278
    44
283
     0
284
     8
340
21
  0
ENDTAB
  0
TABLE
  2
BLOCK_RECORD
  5
1
330
0
100
AcDbSymbolTable
 70
     0
  0
BLOCK_RECORD
  5
2
102
{ACAD_XDICTIONARY
360
3
102
}
330
1
100
AcDbSymbolTableRecord
100
AcDbBlockTableRecord
  2
*Model_Space
340
15
 70
     0
280
     1
281
     0
  0
BLOCK_RECORD
  5
19
330
1
100
AcDbSymbolTableRecord
100
AcDbBlockTableRecord
  2
*Paper_Space
340
1C
 70
     0
280
     1
281
     0
  0
ENDTAB
  0
ENDSEC
  0
SECTION
  2
BLOCKS
  0
BLOCK
  5
4
330
2
100
AcDbEntity
  8
0
100
AcDbBlockBegin
  2
*Model_Space
 70
     0
 10
0.0
 20
0.0
 30
0.0
  3
*Model_Space
  1

  0
ENDBLK
  5
14
330
2
100
AcDbEntity
  8
0
100
AcDbBlockEnd
  0
BLOCK
  5
1A
330
19
100
AcDbEntity
 67
     1
  8
0
100
AcDbBlockBegin
  2
*Paper_Space
 70
     0
 10
0.0
 20
0.0
 30
0.0
  3
*Paper_Space
  1

  0
ENDBLK
  5
1B
330
19
100
AcDbEntity
 67
     1
  8
0
100
AcDbBlockEnd
  0
ENDSEC
  0
SECTION
  2
ENTITIES
  0
LINE
  5
64
330
2
100
AcDbEntity
  8
0
100
AcDbLine
 10
75.66141480410786
 20
104.0591761500212
 30
0.0
 11
54.36940106006435
 21
110.2056510833806
 31
0.0
  0
LINE
  5
65
330
2
100
AcDbEntity
  8
0
100
AcDbLine
 10
80.22920197324172
 20
105.3411932714685
 30
0.0
 11
59.78886923578165
 21
111.2418090755165
 31
0.0
  0
LINE
  5
66
330
2
100
AcDbEntity
  8
0
100
AcDbLine
 10
80.58454230337767
 20
62.28473827931294
 30
0.0
 11
80.58454230337767
 21
71.00497031388139
 31
0.0
  0
LINE
  5
67
330
2
100
AcDbEntity
  8
0
100
AcDbLine
 10
80.58454230337767
 20
83.72526659105044
 30
0.0
 11
80.58454230337767
 21
104.8687657674983
 31
0.0
  0
LINE
  5
68
330
2
100
AcDbEntity
  8
0
100
AcDbLine
 10
76.76841852328599
 20
58.81874101994024
 30
0.0
 11
80.45630289717388
 21
62.01254257390692
 31
0.0
  0
SPLINE
  5
69
330
2
100
AcDbEntity
  8
0
100
AcDbSpline
210
0.0
220
0.0
230
1.0
 70
     8
 71
     3
 72
    11
 73
     7
 74
     0
 42
0.000000001
 43
0.0000000001
 40
0.0
 40
0.0
 40
0.0
 40
0.0
 40
0.2503943248922632
 40
0.5005123561996918
 40
0.7503774798342021
 40
1.0
 40
1.0
 40
1.0
 40
1.0
 10
74.32397908978316
 20
99.18556402115694
 30
0.0
 10
74.31348697693585
 20
99.27992139080705
 30
0.0
 10
74.29251432859428
 20
99.46853201298733
 30
0.0
 10
74.13191411782057
 20
99.74482978529964
 30
0.0
 10
73.90266340721922
 20
99.97161689278813
 30
0.0
 10
73.72117575095899
 20
100.0447997121143
 30
0.0
 10
73.63047599752772
 20
100.0813733491598
 30
0.0
  0
LINE
  5
6A
330
2
100
AcDbEntity
  8
0
100
AcDbLine
 10
73.62495717374352
 20
100.0835841264774
 30
0.0
 11
48.05341164030526
 21
107.4654534751429
 31
0.0
  0
LINE
  5
6B
330
2
100
AcDbEntity
  8
0
100
AcDbLine
 10
74.32502344672212
 20
96.14030687675423
 30
0.0
 11
74.32502344672212
 21
99.17651376883767
 31
0.0
  0
SPLINE
  5
6C
330
2
100
AcDbEntity
  8
0
100
AcDbSpline
210
0.0
220
0.0
230
1.0
 70
     8
 71
     3
 72
     9
 73
     5
 74
     0
 42
0.000000001
 43
0.0000000001
 40
0.0
 40
0.0
 40
0.0
 40
0.0
 40
0.4983554544458611
 40
1.0
 40
1.0
 40
1.0
 40
1.0
 10
74.50098342178745
 20
95.31437548537139
 30
0.0
 10
74.44958720745026
 20
95.41868582285006
 30
0.0
 10
74.34645556942246
 20
95.62799493454559
 30
0.0
 10
74.33152295756144
 20
95.97503423014195
 30
0.0
 10
74.32403209427048
 20
96.14912459987078
 30
0.0
  0
LINE
  5
6D
330
2
100
AcDbEntity
  8
0
100
AcDbLine
 10
75.30886252109903
 20
94.0576636418471
 30
0.0
 11
74.49676392671552
 21
95.32150037671407
 31
0.0
  0
SPLINE
  5
6E
330
2
100
AcDbEntity
  8
0
100
AcDbSpline
210
0.0
220
0.0
230
1.0
 70
     8
 71
     3
 72
     9
 73
     5
 74
     0
 42
0.000000001
 43
0.0000000001
 40
0.0
 40
0.0
 40
0.0
 40
0.0
 40
0.49830190249093
 40
1.0
 40
1.0
 40
1.0
 40
1.0
 10
75.49492971434538
 20
93.38093958776365
 30
0.0
 10
75.48003590714969
 20
93.51524701050063
 30
0.0
 10
75.45014678346555
 20
93.78477723317418
 30
0.0
 10
75.35877751218925
 20
93.96192630109332
 30
0.0
 10
75.31293772261932
 20
94.05080165144388
 30
0.0
  0
LINE
  5
6F
330
2
100
AcDbEntity
  8
0
100
AcDbLine
 10
76.17087627513512
 20
82.51711642155941
 30
0.0
 11
75.49629572290612
 21
93.37187051361626
 31
0.0
  0
LINE
  5
70
330
2
100
AcDbEntity
  8
0
100
AcDbLine
 10
46.19397974892621
 20
104.8167092225939
 30
0.0
 11
44.97820801680146
 21
98.55729403985872
 31
0.0
  0
SPLINE
  5
71
330
2
100
AcDbEntity
  8
0
100
AcDbSpline
210
0.0
220
0.0
230
1.0
 70
     8
 71
     3
 72
    12
 73
     8
 74
     0
 42
0.000000001
 43
0.0000000001
 40
0.0
 40
0.0
 40
0.0
 40
0.0
 40
0.1798409596783597
 40
0.4064847645397485
 40
0.5836187720665579
 40
0.7814710913147477
 40
1.0
 40
1.0
 40
1.0
 40
1.0
 10
73.23719395006396
 20
77.75644633989124
 30
0.0
 10
73.32021637500438
 20
77.96872541963701
 30
0.0
 10
73.50786745801562
 20
78.44852830715227
 30
0.0
 10
73.81320833685913
 20
79.09226904535045
 30
0.0
 10
74.14896728013977
 20
79.70499511085735
 30
0.0
 10
74.49760079865024
 20
80.26026145653235
 30
0.0
 10
74.75332896639731
 20
80.58638198065875
 30
0.0
 10
74.88754250358113
 20
80.75753946196719
 30
0.0
  0
LINE
  5
72
330
2
100
AcDbEntity
  8
0
100
AcDbLine
 10
45.0247795883034
 20
98.69571325928603
 30
0.0
 11
44.9401882065004
 21
98.13473835827069
 31
0.0
  0
SPLINE
  5
73
330
2
100
AcDbEntity
  8
0
100
AcDbSpline
210
0.0
220
0.0
230
1.0
 70
     8
 71
     3
 72
     9
 73
     5
 74
     0
 42
0.000000001
 43
0.0000000001
 40
0.0
 40
0.0
 40
0.0
 40
0.0
 40
0.1893146862426801
 40
1.0
 40
1.0
 40
1.0
 40
1.0
 10
46.63289854820442
 20
106.6263183817348
 30
0.0
 10
46.62383019809024
 20
106.6087328757209
 30
0.0
 10
46.57592926502419
 20
106.515842533387
 30
0.0
 10
46.55446878305923
 20
106.4147976587868
 30
0.0
 10
46.53707108550404
 20
106.3328820629179
 30
0.0
  0
LINE
  5
74
330
2
100
AcDbEntity
  8
0
100
AcDbLine
 10
47.50036400536123
 20
107.3881816746446
 30
0.0
 11
46.89358654753092
 21
106.9188822025393
 31
0.0
  0
SPLINE
  5
75
330
2
100
AcDbEntity
  8
0
100
AcDbSpline
210
0.0
220
0.0
230
1.0
 70
     8
 71
     3
 72
    13
 73
     9
 74
     0
 42
0.000000001
 43
0.0000000001
 40
0.0
 40
0.0
 40
0.0
 40
0.0
 40
0.1902243924037332
 40
0.3554406739054007
 40
0.4954053716177841
 40
0.6100253902752617
 40
0.7033726967425683
 40
0.7338387061374572
 40
0.7338387061374572
 40
0.7338387061374572
 40
0.7338387061374572
 10
74.94416522026543
 20
80.90781758617563
 30
0.0
 10
74.95648966274188
 20
81.02437769859683
 30
0.0
 10
74.97951829794473
 20
81.242174188237
 30
0.0
 10
75.07778275370958
 20
81.55558377685064
 30
0.0
 10
75.18475312358879
 20
81.78883600436654
 30
0.0
 10
75.28504175750697
 20
81.94691971654185
 30
0.0
 10
75.35539882253082
 20
82.02896406899258
 30
0.0
 10
75.38859414746323
 20
82.06071126348648
 30
0.0
 10
75.39648294718614
 20
82.0678697901436
 30
0.0
  0
SPLINE
  5
76
330
2
100
AcDbEntity
  8
0
100
AcDbSpline
210
0.0
220
0.0
230
1.0
 70
     8
 71
     3
 72
    10
 73
     6
 74
     0
 42
0.000000001
 43
0.0000000001
 40
0.0
 40
0.0
 40
0.0
 40
0.0
 40
0.321475306760349
 40
0.6856158101348485
 40
1.0
 40
1.0
 40
1.0
 40
1.0
 10
46.53594569340589
 20
106.3263984100074
 30
0.0
 10
46.50033901925087
 20
106.1622814662475
 30
0.0
 10
46.4244000645827
 20
105.8122664915774
 30
0.0
 10
46.30172951273277
 20
105.2980073964441
 30
0.0
 10
46.22811505772278
 20
104.9690704426195
 30
0.0
 10
46.19400690951351
 20
104.8166624628139
 30
0.0
  0
SPLINE
  5
77
330
2
100
AcDbEntity
  8
0
100
AcDbSpline
210
0.0
220
0.0
230
1.0
 70
     8
 71
     3
 72
    11
 73
     7
 74
     0
 42
0.000000001
 43
0.0000000001
 40
0.0
 40
0.0
 40
0.0
 40
0.0
 40
0.1938732068710249
 40
0.4876476247607052
 40
0.7712881275228579
 40
1.0
 40
1.0
 40
1.0
 40
1.0
 10
74.90042454517961
 20
80.7745221321198
 30
0.0
 10
74.90492209515321
 20
80.78077991749289
 30
0.0
 10
74.91623474426706
 20
80.79652007170373
 30
0.0
 10
74.93023615126341
 20
80.82922237793706
 30
0.0
 10
74.94102365901483
 20
80.86484085548123
 30
0.0
 10
74.9430650706322
 20
80.88542800644164
 30
0.0
 10
74.94397634790164
 20
80.89461802111257
 30
0.0
  0
SPLINE
  5
78
330
2
100
AcDbEntity
  8
0
100
AcDbSpline
210
0.0
220
0.0
230
1.0
 70
     8
 71
     3
 72
    11
 73
     7
 74
     0
 42
0.000000001
 43
0.0000000001
 40
0.0
 40
0.0
 40
0.0
 40
0.0
 40
0.267336628641623
 40
0.5388334210003413
 40
0.8127575808094615
 40
1.0
 40
1.0
 40
1.0
 40
1.0
 10
48.05892771634993
 20
107.4632428564749
 30
0.0
 10
48.00543568765935
 20
107.475999621583
 30
0.0
 10
47.89761921311918
 20
107.5017116664268
 30
0.0
 10
47.73905751000381
 20
107.4919052416158
 30
0.0
 10
47.60515760912281
 20
107.4558039505832
 30
0.0
 10
47.53693021852626
 20
107.4080550676405
 30
0.0
 10
47.50922859778419
 20
107.3886681112499
 30
0.0
  0
LINE
  5
79
330
2
100
AcDbEntity
  8
0
100
AcDbLine
 10
44.93920256004199
 20
98.16289346898971
 30
0.0
 11
44.93920256004199
 21
62.18867885650468
 31
0.0
  0
SPLINE
  5
7A
330
2
100
AcDbEntity
  8
0
100
AcDbSpline
210
0.0
220
0.0
230
1.0
 70
     8
 71
     3
 72
    11
 73
     7
 74
     0
 42
0.000000001
 43
0.0000000001
 40
0.0
 40
0.0
 40
0.0
 40
0.0
 40
0.2527244815215816
 40
0.5069002775611166
 40
0.7576743614202687
 40
1.0
 40
1.0
 40
1.0
 40
1.0
 10
75.75584027606234
 20
81.65364170755761
 30
0.0
 10
75.76724949916107
 20
81.6502682916395
 30
0.0
 10
75.79013346481684
 20
81.64350208737253
 30
0.0
 10
75.82650057552132
 20
81.6437773845524
 30
0.0
 10
75.86229379460545
 20
81.65120285598259
 30
0.0
 10
75.88402682145013
 20
81.66248291022808
 30
0.0
 10
75.89470715520153
 20
81.66802630484765
 30
0.0
  0
LINE
  5
7B
330
2
100
AcDbEntity
  8
0
100
AcDbLine
 10
75.89871119382744
 20
81.67054110711218
 30
0.0
 11
76.06341870008527
 21
81.76046295036231
 31
0.0
  0
LINE
  5
7C
330
2
100
AcDbEntity
  8
0
100
AcDbLine
 10
76.21684943380339
 20
82.15932555254561
 30
0.0
 11
76.16956854473594
 21
82.52594256041795
 31
0.0
  0
SPLINE
  5
7D
330
2
100
AcDbEntity
  8
0
100
AcDbSpline
210
0.0
220
0.0
230
1.0
 70
     8
 71
     3
 72
    15
 73
    11
 74
     0
 42
0.000000001
 43
0.0000000001
 40
0.0
 40
0.0
 40
0.0
 40
0.0
 40
0.0883618274673138
 40
0.2222797165648208
 40
0.355057117971731
 40
0.4866586032266781
 40
0.6169834020980039
 40
0.7459738768109542
 40
0.8736356648183971
 40
1.0
 40
1.0
 40
1.0
 40
1.0
 10
76.07638640997035
 20
81.76977539123836
 30
0.0
 10
76.08389714681303
 20
81.77468088829476
 30
0.0
 10
76.10279087620321
 20
81.78702097367498
 30
0.0
 10
76.13278509938727
 20
81.82381005173475
 30
0.0
 10
76.16352278840555
 20
81.87454056089315
 30
0.0
 10
76.189241308127
 20
81.93352176860749
 30
0.0
 10
76.20840517689163
 20
81.99579915947937
 30
0.0
 10
76.21977068327865
 20
82.05687009358856
 30
0.0
 10
76.22354609768527
 20
82.11355035652546
 30
0.0
 10
76.21928709530772
 20
82.14338448786143
 30
0.0
 10
76.21716847066707
 20
82.15822536377082
 30
0.0
  0
LINE
  5
7E
330
2
100
AcDbEntity
  8
0
100
AcDbLine
 10
76.859514128466
 20
81.51031262122204
 30
0.0
 11
76.56481447128076
 21
81.59538508437281
 31
0.0
  0
LINE
  5
7F
330
2
100
AcDbEntity
  8
0
100
AcDbLine
 10
76.91605264620966
 20
81.49059396845645
 30
0.0
 11
76.90656276997859
 21
81.49363466019078
 31
0.0
  0
LINE
  5
80
330
2
100
AcDbEntity
  8
0
100
AcDbLine
 10
75.49635350970319
 20
58.35437783466434
 30
0.0
 11
76.11824952214442
 21
69.4832975169603
 31
0.0
  0
LINE
  5
81
330
2
100
AcDbEntity
  8
0
100
AcDbLine
 10
74.51520021681338
 20
54.68525131693769
 30
0.0
 11
75.3272986279828
 21
57.41415179777273
 31
0.0
  0
SPLINE
  5
82
330
2
100
AcDbEntity
  8
0
100
AcDbSpline
210
0.0
220
0.0
230
1.0
 70
     8
 71
     3
 72
     9
 73
     5
 74
     0
 42
0.000000001
 43
0.0000000001
 40
0.0
 40
0.0
 40
0.0
 40
0.0
 40
0.4998259934297288
 40
1.0
 40
1.0
 40
1.0
 40
1.0
 10
75.32536301252045
 20
57.41373673690262
 30
0.0
 10
75.36833701452358
 20
57.57491633185338
 30
0.0
 10
75.45431493997748
 20
57.89738774604454
 30
0.0
 10
75.48180039613931
 20
58.20761722945942
 30
0.0
 10
75.49554790687023
 20
58.36278595313521
 30
0.0
  0
SPLINE
  5
83
330
2
100
AcDbEntity
  8
0
100
AcDbSpline
210
0.0
220
0.0
230
1.0
 70
     8
 71
     3
 72
     9
 73
     5
 74
     0
 42
0.000000001
 43
0.0000000001
 40
0.0
 40
0.0
 40
0.0
 40
0.0
 40
0.4996158231630132
 40
1.0
 40
1.0
 40
1.0
 40
1.0
 10
74.32403281383571
 20
53.48020343724854
 30
0.0
 10
74.33259000142005
 20
53.67323606845006
 30
0.0
 10
74.34971753659346
 20
54.05959819361137
 30
0.0
 10
74.45875242773922
 20
54.47631580130853
 30
0.0
 10
74.51331176199173
 20
54.68483469840943
 30
0.0
  0
LINE
  5
84
330
2
100
AcDbEntity
  8
0
100
AcDbLine
 10
74.32502344672212
 20
50.43517966431046
 30
0.0
 11
74.32502344672212
 21
53.47138655639389
 31
0.0
  0
SPLINE
  5
85
330
2
100
AcDbEntity
  8
0
100
AcDbSpline
210
0.0
220
0.0
230
1.0
 70
     8
 71
     3
 72
    10
 73
     6
 74
     0
 42
0.000000001
 43
0.0000000001
 40
0.0
 40
0.0
 40
0.0
 40
0.0
 40
0.5249486554755234
 40
0.7847936561741859
 40
1.0
 40
1.0
 40
1.0
 40
1.0
 10
70.93610446555207
 20
49.5659118406604
 30
0.0
 10
71.24618268821539
 20
49.48818307633659
 30
0.0
 10
71.70974692354724
 20
49.37197925238669
 30
0.0
 10
72.34442237002551
 20
49.29140186388043
 30
0.0
 10
72.65000065620404
 20
49.28155587106102
 30
0.0
 10
72.78843282038792
 20
49.27709546874783
 30
0.0
  0
SPLINE
  5
86
330
2
100
AcDbEntity
  8
0
100
AcDbSpline
210
0.0
220
0.0
230
1.0
 70
     8
 71
     3
 72
    11
 73
     7
 74
     0
 42
0.000000001
 43
0.0000000001
 40
0.0
 40
0.0
 40
0.0
 40
0.0
 40
0.6581265887447147
 40
0.8643841051664285
 40
0.9389164407798324
 40
1.0
 40
1.0
 40
1.0
 40
1.0
 10
72.78253017585811
 20
49.27858324492192
 30
0.0
 10
72.9511369075897
 20
49.29143890158415
 30
0.0
 10
73.17258515390782
 20
49.30832353361448
 30
0.0
 10
73.38536385484815
 20
49.35502977153015
 30
0.0
 10
73.44784802918656
 20
49.36704507968475
 30
0.0
 10
73.46162359545724
 20
49.36896568670053
 30
0.0
 10
73.46782832993255
 20
49.36983075869317
 30
0.0
  0
LINE
  5
87
330
2
100
AcDbEntity
  8
0
100
AcDbLine
 10
73.5804203038656
 20
49.44473158912276
 30
0.0
 11
74.13326197143738
 21
49.97847709737109
 31
0.0
  0
LINE
  5
88
330
2
100
AcDbEntity
  8
0
100
AcDbLine
 10
48.5210938511394
 20
56.03656762362817
 30
0.0
 11
70.93677893151431
 21
49.56571671603995
 31
0.0
  0
SPLINE
  5
89
330
2
100
AcDbEntity
  8
0
100
AcDbSpline
210
0.0
220
0.0
230
1.0
 70
     8
 71
     3
 72
    11
 73
     7
 74
     0
 42
0.000000001
 43
0.0000000001
 40
0.0
 40
0.0
 40
0.0
 40
0.0
 40
0.263297606569131
 40
0.5257213890077544
 40
0.7862111826029312
 40
1.0
 40
1.0
 40
1.0
 40
1.0
 10
74.13326197143738
 20
49.97847709737109
 30
0.0
 10
74.16260143432126
 20
50.00833448359942
 30
0.0
 10
74.22118298916732
 20
50.06795016626599
 30
0.0
 10
74.28102794850736
 20
50.18220624410693
 30
0.0
 10
74.31778791215015
 20
50.3010477781603
 30
0.0
 10
74.3208927102315
 20
50.38428718990242
 30
0.0
 10
74.3222922485929
 20
50.42180871203052
 30
0.0
  0
LINE
  5
8A
330
2
100
AcDbEntity
  8
0
100
AcDbLine
 10
45.10197784765509
 20
61.3235931389449
 30
0.0
 11
46.34041366522796
 21
57.88285399546991
 31
0.0
  0
SPLINE
  5
8B
330
2
100
AcDbEntity
  8
0
100
AcDbSpline
210
0.0
220
0.0
230
1.0
 70
     8
 71
     3
 72
    11
 73
     7
 74
     0
 42
0.000000001
 43
0.0000000001
 40
0.0
 40
0.0
 40
0.0
 40
0.0
 40
0.2259714942651333
 40
0.4658663806456853
 40
0.723287247312809
 40
1.0
 40
1.0
 40
1.0
 40
1.0
 10
46.86432384806653
 20
56.86049048959092
 30
0.0
 10
46.96463354827983
 20
56.77688284653527
 30
0.0
 10
47.17143360124211
 20
56.60451601685454
 30
0.0
 10
47.56105326919604
 20
56.39260351074185
 30
0.0
 10
48.00899132038518
 20
56.19579205600921
 30
0.0
 10
48.34651023163662
 20
56.09085253711914
 30
0.0
 10
48.5213649564324
 20
56.0364876701915
 30
0.0
  0
LINE
  5
8C
330
2
100
AcDbEntity
  8
0
100
AcDbLine
 10
73.8094721908308
 20
70.10767232780435
 30
0.0
 11
75.05353443697697
 21
69.74854249151403
 31
0.0
  0
LINE
  5
8D
330
2
100
AcDbEntity
  8
0
100
AcDbLine
 10
77.66852028045144
 20
81.27677266136087
 30
0.0
 11
77.08254500578618
 21
81.44592915267121
 31
0.0
  0
LINE
  5
8E
330
2
100
AcDbEntity
  8
0
100
AcDbLine
 10
76.45902365698248
 20
81.5035006722665
 30
0.0
 11
76.44527165837121
 21
81.42657495125213
 31
0.0
  0
LINE
  5
8F
330
2
100
AcDbEntity
  8
0
100
AcDbLine
 10
76.69286714954296
 20
81.51947259549134
 30
0.0
 11
76.68244079521085
 21
81.47186584127011
 31
0.0
  0
LINE
  5
90
330
2
100
AcDbEntity
  8
0
100
AcDbLine
 10
75.13870266456746
 20
69.72395654192038
 30
0.0
 11
75.82004721606842
 21
69.52726931179615
 31
0.0
  0
LINE
  5
91
330
2
100
AcDbEntity
  8
0
100
AcDbLine
 10
83.09557919132965
 20
83.90263885098404
 30
0.0
 11
82.41423463982867
 21
84.09932608110826
 31
0.0
  0
LINE
  5
92
330
2
100
AcDbEntity
  8
0
100
AcDbLine
 10
86.77237838380873
 20
57.50596318621641
 30
0.0
 11
92.96800836380302
 21
62.87153614124238
 31
0.0
  0
LINE
  5
93
330
2
100
AcDbEntity
  8
0
100
AcDbLine
 10
83.89208276069254
 20
63.57899970693265
 30
0.0
 11
83.89208276069254
 21
63.94676542625997
 31
0.0
  0
LWPOLYLINE
  5
94
330
2
100
AcDbEntity
  8
0
100
AcDbPolyline
 90
        3
 70
   128
 43
0.0
 10
71.71691226916161
 20
100.7003529853571
 10
71.67854061722855
 20
100.6605761272099
 10
71.66876232695469
 20
100.6482878795441
  0
LWPOLYLINE
  5
95
330
2
100
AcDbEntity
  8
0
100
AcDbPolyline
 90
        3
 70
   128
 43
0.0
 10
50.37674858291115
 20
106.7947628129035
 10
50.38652687318498
 20
106.8070510605694
 10
50.42489852511804
 20
106.8468279187166
  0
LINE
  5
96
330
2
100
AcDbEntity
  8
0
100
AcDbLine
 10
75.55231252353038
 20
104.0219070392886
 30
0.0
 11
71.71691226916161
 21
100.7003529853571
 31
0.0
  0
LINE
  5
97
330
2
100
AcDbEntity
  8
0
100
AcDbLine
 10
54.26029877948685
 20
110.1683819726481
 30
0.0
 11
50.42489852511804
 21
106.8468279187166
 31
0.0
  0
LWPOLYLINE
  5
98
330
2
100
AcDbEntity
  8
0
100
AcDbPolyline
 90
        9
 70
   128
 43
0.0
 10
75.74900011998448
 20
103.8515705841077
 10
75.74522076613482
 20
103.9147604873766
 10
75.73402778263647
 20
103.9689740257439
 10
75.71585200699408
 20
104.0121324085767
 10
75.69139171839259
 20
104.0425737456885
 10
75.66158625987862
 20
104.0591266550646
 10
75.62758160079258
 20
104.0611591234039
 10
75.59068417536511
 20
104.048591831775
 10
75.55231252353038
 20
104.0219070392886
  0
ARC
  5
99
330
2
100
AcDbEntity
  8
0
100
AcDbCircle
 10
54.34926829735172
 20
110.0862595361043
 30
0.0
 40
0.1210771229653851
100
AcDbArc
 50
80.42837149719964
 51
137.2917478972999
  0
LINE
  5
9A
330
2
100
AcDbEntity
  8
0
100
AcDbLine
 10
75.74900011998448
 20
54.79477302962095
 30
0.0
 11
75.74900011998448
 21
62.87552948692791
 31
0.0
  0
LINE
  5
9B
330
2
100
AcDbEntity
  8
0
100
AcDbLine
 10
75.74900011998448
 20
89.30557618621895
 30
0.0
 11
75.74900011998448
 21
103.8515705841077
 31
0.0
  0
LINE
  5
9C
330
2
100
AcDbEntity
  8
0
100
AcDbLine
 10
74.32502415538611
 20
53.22090075963423
 30
0.0
 11
75.55231252353038
 21
54.28376366417673
 31
0.0
  0
ARC
  5
9D
330
2
100
AcDbEntity
  8
0
100
AcDbCircle
 10
75.00325702543242
 20
54.78845245219556
 30
0.0
 40
0.7457698791958367
100
AcDbArc
 50
317.4109499340002
 51
0.4856011953000195
  0
LINE
  5
9E
330
2
100
AcDbEntity
  8
0
100
AcDbLine
 10
80.09282357290206
 20
105.294605137921
 30
0.0
 11
75.74899929773366
 21
101.5327429660562
 31
0.0
  0
LINE
  5
9F
330
2
100
AcDbEntity
  8
0
100
AcDbLine
 10
59.65249083544202
 20
111.1952209420674
 30
0.0
 11
57.47472648796886
 21
109.3092216936371
 31
0.0
  0
LINE
  5
A0
330
2
100
AcDbEntity
  8
0
100
AcDbLine
 10
79.78108778759327
 20
83.24090242269781
 30
0.0
 11
77.5519592519523
 21
81.3104204825667
 31
0.0
  0
LWPOLYLINE
  5
A1
330
2
100
AcDbEntity
  8
0
100
AcDbPolyline
 90
        9
 70
   128
 43
0.0
 10
79.78108778759327
 20
83.24090242269781
 10
79.87517376789037
 20
83.35479846053015
 10
79.95493586532169
 20
83.51618500356577
 10
80.00823149521975
 20
83.70049289379041
 10
80.02694655047648
 20
83.87966262246122
 10
80.00823149521975
 20
84.02641692450641
 10
79.95493586532169
 20
84.11841411557681
 10
79.87517376789037
 20
84.14164869312743
 10
79.78108778759327
 20
84.09258295339665
  0
LINE
  5
A2
330
2
100
AcDbEntity
  8
0
100
AcDbLine
 10
77.32249722812162
 20
81.9633810714016
 30
0.0
 11
79.78108778759327
 21
84.09258295339665
 31
0.0
  0
ARC
  5
A3
330
2
100
AcDbEntity
  8
0
100
AcDbCircle
 10
77.99438591395167
 20
81.34380331340478
 30
0.0
 40
0.9139535023376305
100
AcDbArc
 50
137.3195011304005
 51
172.1475736459996
  0
LINE
  5
A4
330
2
100
AcDbEntity
  8
0
100
AcDbLine
 10
79.78108778759327
 20
84.94426356345867
 30
0.0
 11
77.32249722812162
 21
82.81506168146371
 31
0.0
  0
LWPOLYLINE
  5
A5
330
2
100
AcDbEntity
  8
0
100
AcDbPolyline
 90
        9
 70
   128
 43
0.0
 10
79.78108778759327
 20
84.94426356345867
 10
79.87517376789037
 20
85.05815952192781
 10
79.95493586532169
 20
85.21954610469419
 10
80.00823149521975
 20
85.40385395518804
 10
80.02694655047648
 20
85.5830236839572
 10
80.00823149521975
 20
85.72977814463063
 10
79.95493586532169
 20
85.8217750977095
 10
79.87517376789037
 20
85.84500983388837
 10
79.78108778759327
 20
85.79594409425588
  0
LINE
  5
A6
330
2
100
AcDbEntity
  8
0
100
AcDbLine
 10
77.32249722812162
 20
83.66674221216253
 30
0.0
 11
79.78108778759327
 21
85.79594409425588
 31
0.0
  0
LWPOLYLINE
  5
A7
330
2
100
AcDbEntity
  8
0
100
AcDbPolyline
 90
        9
 70
   128
 43
0.0
 10
77.32249722812162
 20
83.66674221216253
 10
77.22841124782457
 20
83.55284625369346
 10
77.1486491503932
 20
83.39145951229879
 10
77.09535352059351
 20
83.2071518204332
 10
77.0766384652384
 20
83.02798193313417
 10
77.09535352059351
 20
82.88122763108894
 10
77.1486491503932
 20
82.7892305192835
 10
77.22841124782457
 20
82.76599594183121
 10
77.32249722812162
 20
82.81506168146371
  0
LINE
  5
A8
330
2
100
AcDbEntity
  8
0
100
AcDbLine
 10
79.78108778759327
 20
86.64762478358294
 30
0.0
 11
77.32249722812162
 21
84.51842290148958
 31
0.0
  0
LWPOLYLINE
  5
A9
330
2
100
AcDbEntity
  8
0
100
AcDbPolyline
 90
        9
 70
   128
 43
0.0
 10
79.78108778759327
 20
86.64762478358294
 10
79.87517376789037
 20
86.76152074205198
 10
79.95493586532169
 20
86.92290716609186
 10
80.00823149521975
 20
87.10721517531228
 10
80.02694655047648
 20
87.28638490398301
 10
80.00823149521975
 20
87.43313920602828
 10
79.95493586532169
 20
87.52513615910716
 10
79.87517376789037
 20
87.54837089528599
 10
79.78108778759327
 20
87.49930515565354
  0
LINE
  5
AA
330
2
100
AcDbEntity
  8
0
100
AcDbLine
 10
77.32249722812162
 20
85.3701032736585
 30
0.0
 11
79.78108778759327
 21
87.49930515565354
 31
0.0
  0
LWPOLYLINE
  5
AB
330
2
100
AcDbEntity
  8
0
100
AcDbPolyline
 90
        9
 70
   128
 43
0.0
 10
77.32249722812162
 20
85.3701032736585
 10
77.22841124782457
 20
85.25620731518943
 10
77.1486491503932
 20
85.09482057379479
 10
77.09535352059351
 20
84.91051288192918
 10
77.0766384652384
 20
84.73134315316007
 10
77.09535352059351
 20
84.58458885111479
 10
77.1486491503932
 20
84.49259158077946
 10
77.22841124782457
 20
84.46935716185707
 10
77.32249722812162
 20
84.51842290148958
  0
LINE
  5
AC
330
2
100
AcDbEntity
  8
0
100
AcDbLine
 10
79.78108778759327
 20
88.35098552772409
 30
0.0
 11
77.32249722812162
 21
86.22178364572908
 31
0.0
  0
LWPOLYLINE
  5
AD
330
2
100
AcDbEntity
  8
0
100
AcDbPolyline
 90
        9
 70
   128
 43
0.0
 10
79.78108778759327
 20
88.35098552772409
 10
79.87517376789037
 20
88.46488180344964
 10
79.95493586532169
 20
88.62626854484428
 10
80.00823149521975
 20
88.81057591945342
 10
80.02694655047648
 20
88.98974596547903
 10
80.00823149521975
 20
89.13649995026784
 10
79.95493586532169
 20
89.22849722060316
 10
79.87517376789037
 20
89.25173195678196
 10
79.78108778759327
 20
89.20266653440593
  0
LINE
  5
AE
330
2
100
AcDbEntity
  8
0
100
AcDbLine
 10
77.32249722812162
 20
87.0734646523126
 30
0.0
 11
79.78108778759327
 21
89.20266653440593
 31
0.0
  0
LWPOLYLINE
  5
AF
330
2
100
AcDbEntity
  8
0
100
AcDbPolyline
 90
        9
 70
   128
 43
0.0
 10
77.32249722812162
 20
87.0734646523126
 10
77.22841124782457
 20
86.95956837658705
 10
77.1486491503932
 20
86.79818163519239
 10
77.09535352059351
 20
86.61387362607037
 10
77.0766384652384
 20
86.434704214656
 10
77.09535352059351
 20
86.28794959535433
 10
77.1486491503932
 20
86.19595295953191
 10
77.22841124782457
 20
86.17271822335304
 10
77.32249722812162
 20
86.22178364572908
  0
LINE
  5
B0
330
2
100
AcDbEntity
  8
0
100
AcDbLine
 10
79.78108778759327
 20
90.05434690647652
 30
0.0
 11
77.32249722812162
 21
87.9251450243832
 31
0.0
  0
LWPOLYLINE
  5
B1
330
2
100
AcDbEntity
  8
0
100
AcDbPolyline
 90
        9
 70
   128
 43
0.0
 10
79.78108778759327
 20
90.05434690647652
 10
79.87517376789037
 20
90.16824254768916
 10
79.95493586532169
 20
90.3296292890838
 10
80.00823149521975
 20
90.51393729820587
 10
80.02694655047648
 20
90.69310734413313
 10
80.00823149521975
 20
90.83986132892185
 10
79.95493586532169
 20
90.93185859935557
 10
79.87517376789037
 20
90.95509333553442
 10
79.78108778759327
 20
90.90602727854712
  0
LINE
  5
B2
330
2
100
AcDbEntity
  8
0
100
AcDbLine
 10
77.32249722812162
 20
88.77682539655213
 30
0.0
 11
79.78108778759327
 21
90.90602727854712
 31
0.0
  0
LWPOLYLINE
  5
B3
330
2
100
AcDbEntity
  8
0
100
AcDbPolyline
 90
        9
 70
   128
 43
0.0
 10
77.32249722812162
 20
88.77682539655213
 10
77.22841124782457
 20
88.6629297553395
 10
77.1486491503932
 20
88.50154301394484
 10
77.09535352059351
 20
88.31723500482276
 10
77.0766384652384
 20
88.13806559340843
 10
77.09535352059351
 20
87.99131097400843
 10
77.1486491503932
 20
87.89931370367309
 10
77.22841124782457
 20
87.87607896749422
 10
77.32249722812162
 20
87.9251450243832
  0
LINE
  5
B4
330
2
100
AcDbEntity
  8
0
100
AcDbLine
 10
79.78108778759327
 20
91.75770765061775
 30
0.0
 11
77.32249722812162
 21
89.62850576862273
 31
0.0
  0
LWPOLYLINE
  5
B5
330
2
100
AcDbEntity
  8
0
100
AcDbPolyline
 90
        9
 70
   128
 43
0.0
 10
79.78108778759327
 20
91.75770765061775
 10
79.87517376789037
 20
91.87160392634323
 10
79.95493586532169
 20
92.03299066773791
 10
80.00823149521975
 20
92.21729867695829
 10
80.02694655047648
 20
92.39646808837262
 10
80.00823149521975
 20
92.54322270767429
 10
79.95493586532169
 20
92.63521934349675
 10
79.87517376789037
 20
92.65845407967562
 10
79.78108778759327
 20
92.60938865729956
  0
LINE
  5
B6
330
2
100
AcDbEntity
  8
0
100
AcDbLine
 10
77.32249722812162
 20
90.48018677520623
 30
0.0
 11
79.78108778759327
 21
92.60938865729956
 31
0.0
  0
LWPOLYLINE
  5
B7
330
2
100
AcDbEntity
  8
0
100
AcDbPolyline
 90
        9
 70
   128
 43
0.0
 10
77.32249722812162
 20
90.48018677520623
 10
77.22841124782457
 20
90.36629049948068
 10
77.1486491503932
 20
90.20490375808604
 10
77.09535352059351
 20
90.02059638357524
 10
77.0766384652384
 20
89.84142633754967
 10
77.09535352059351
 20
89.69467235276086
 10
77.1486491503932
 20
89.6026750824255
 10
77.22841124782457
 20
89.5794403462467
 10
77.32249722812162
 20
89.62850576862273
  0
LINE
  5
B8
330
2
100
AcDbEntity
  8
0
100
AcDbLine
 10
79.78108778759327
 20
93.46106902937016
 30
0.0
 11
77.32249722812162
 21
91.33186714737515
 31
0.0
  0
LWPOLYLINE
  5
B9
330
2
100
AcDbEntity
  8
0
100
AcDbPolyline
 90
        9
 70
   128
 43
0.0
 10
79.78108778759327
 20
93.46106902937016
 10
79.87517376789037
 20
93.57496530509569
 10
79.95493586532169
 20
93.7363520464903
 10
80.00823149521975
 20
93.92065942109947
 10
80.02694655047648
 20
94.09982883251386
 10
80.00823149521975
 20
94.24658408642677
 10
79.95493586532169
 20
94.33858072224918
 10
79.87517376789037
 20
94.36181545842798
 10
79.78108778759327
 20
94.31275003605199
  0
LINE
  5
BA
330
2
100
AcDbEntity
  8
0
100
AcDbLine
 10
77.32249722812162
 20
92.18354815395862
 30
0.0
 11
79.78108778759327
 21
94.31275003605199
 31
0.0
  0
LWPOLYLINE
  5
BB
330
2
100
AcDbEntity
  8
0
100
AcDbPolyline
 90
        9
 70
   128
 43
0.0
 10
77.32249722812162
 20
92.18354815395862
 10
77.22841124782457
 20
92.06965187823312
 10
77.1486491503932
 20
91.9082651368385
 10
77.09535352059351
 20
91.72395776222929
 10
77.0766384652384
 20
91.54478708169081
 10
77.09535352059351
 20
91.39803309690204
 10
77.1486491503932
 20
91.30603646117796
 10
77.22841124782457
 20
91.28280172499914
 10
77.32249722812162
 20
91.33186714737515
  0
LINE
  5
BC
330
2
100
AcDbEntity
  8
0
100
AcDbLine
 10
79.78108778759327
 20
95.16442977351131
 30
0.0
 11
77.32249722812162
 21
93.03522789151633
 31
0.0
  0
LWPOLYLINE
  5
BD
330
2
100
AcDbEntity
  8
0
100
AcDbPolyline
 90
        9
 70
   128
 43
0.0
 10
79.78108778759327
 20
95.16442977351131
 10
79.87517376789037
 20
95.27832604923689
 10
79.95493586532169
 20
95.43971279063148
 10
80.00823149521975
 20
95.62402016524066
 10
80.02694655047648
 20
95.80319084577915
 10
80.00823149521975
 20
95.94994483056796
 10
79.95493586532169
 20
96.04194146639036
 10
79.87517376789037
 20
96.06517620256919
 10
79.78108778759327
 20
96.01611078019317
  0
LINE
  5
BE
330
2
100
AcDbEntity
  8
0
100
AcDbLine
 10
77.32249722812162
 20
93.8869088980998
 30
0.0
 11
79.78108778759327
 21
96.01611078019317
 31
0.0
  0
LWPOLYLINE
  5
BF
330
2
100
AcDbEntity
  8
0
100
AcDbPolyline
 90
        9
 70
   128
 43
0.0
 10
77.32249722812162
 20
93.8869088980998
 10
77.22841124782457
 20
93.77301262237434
 10
77.1486491503932
 20
93.61162588107799
 10
77.09535352059351
 20
93.42731850646881
 10
77.0766384652384
 20
93.24814909495612
 10
77.09535352059351
 20
93.10139384114162
 10
77.1486491503932
 20
93.00939720531912
 10
77.22841124782457
 20
92.98616246914027
 10
77.32249722812162
 20
93.03522789151633
  0
LINE
  5
C0
330
2
100
AcDbEntity
  8
0
100
AcDbLine
 10
79.78108778759327
 20
96.86779178687501
 30
0.0
 11
77.32249722812162
 21
94.73858990478168
 31
0.0
  0
LWPOLYLINE
  5
C1
330
2
100
AcDbEntity
  8
0
100
AcDbPolyline
 90
        9
 70
   128
 43
0.0
 10
79.78108778759327
 20
96.86779178687501
 10
79.87517376789037
 20
96.98168679347636
 10
79.95493586532169
 20
97.14307353487106
 10
80.00823149521975
 20
97.32738217850601
 10
80.02694655047648
 20
97.50655159001873
 10
80.00823149521975
 20
97.65330557470909
 10
79.95493586532169
 20
97.74530347965567
 10
79.87517376789037
 20
97.76853694671043
 10
79.78108778759327
 20
97.71947152433437
  0
LINE
  5
C2
330
2
100
AcDbEntity
  8
0
100
AcDbLine
 10
77.32249722812162
 20
95.59026964233938
 30
0.0
 11
79.78108778759327
 21
97.71947152433437
 31
0.0
  0
LWPOLYLINE
  5
C3
330
2
100
AcDbEntity
  8
0
100
AcDbPolyline
 90
        9
 70
   128
 43
0.0
 10
77.32249722812162
 20
95.59026964233938
 10
77.22841124782457
 20
95.47637336661379
 10
77.1486491503932
 20
95.31498789434333
 10
77.09535352059351
 20
95.13067925061005
 10
77.0766384652384
 20
94.95150983919565
 10
77.09535352059351
 20
94.80475585440691
 10
77.1486491503932
 20
94.71275794946031
 10
77.22841124782457
 20
94.68952321328147
 10
77.32249722812162
 20
94.73858990478168
  0
LINE
  5
C4
330
2
100
AcDbEntity
  8
0
100
AcDbLine
 10
79.78108778759327
 20
98.57115253101618
 30
0.0
 11
77.32249722812162
 21
96.44195064892286
 31
0.0
  0
LWPOLYLINE
  5
C5
330
2
100
AcDbEntity
  8
0
100
AcDbPolyline
 90
        9
 70
   128
 43
0.0
 10
79.78108778759327
 20
98.57115253101618
 10
79.87517376789037
 20
98.68504880674173
 10
79.95493586532169
 20
98.8464342790122
 10
80.00823149521975
 20
99.03074292274554
 10
80.02694655047648
 20
99.20991233415985
 10
80.00823149521975
 20
99.35666631894868
 10
79.95493586532169
 20
99.44866422379686
 10
79.87517376789037
 20
99.47189896007408
 10
79.78108778759327
 20
99.42283226857389
  0
LINE
  5
C6
330
2
100
AcDbEntity
  8
0
100
AcDbLine
 10
77.32249722812162
 20
97.29363038648052
 30
0.0
 11
79.78108778759327
 21
99.42283226857389
 31
0.0
  0
LWPOLYLINE
  5
C7
330
2
100
AcDbEntity
  8
0
100
AcDbPolyline
 90
        9
 70
   128
 43
0.0
 10
77.32249722812162
 20
97.29363038648052
 10
77.22841124782457
 20
97.17973537987917
 10
77.1486491503932
 20
97.01834863848452
 10
77.09535352059351
 20
96.83403999475123
 10
77.0766384652384
 20
96.65487058333683
 10
77.09535352059351
 20
96.50811659854809
 10
77.1486491503932
 20
96.41611869369986
 10
77.22841124782457
 20
96.39288522654682
 10
77.32249722812162
 20
96.44195064892286
  0
LINE
  5
C8
330
2
100
AcDbEntity
  8
0
100
AcDbLine
 10
79.78108778759327
 20
100.2745132751573
 30
0.0
 11
77.32249722812162
 21
98.14531139316237
 31
0.0
  0
LWPOLYLINE
  5
C9
330
2
100
AcDbEntity
  8
0
100
AcDbPolyline
 90
        9
 70
   128
 43
0.0
 10
79.78108778759327
 20
100.2745132751573
 10
79.87517376789037
 20
100.3884095508829
 10
79.95493586532169
 20
100.5497962922775
 10
80.00823149521975
 20
100.7341036668867
 10
80.02694655047648
 20
100.913273078301
 10
80.00823149521975
 20
101.0600283322139
 10
79.95493586532169
 20
101.1520249680364
 10
79.87517376789037
 20
101.1752597042152
 10
79.78108778759327
 20
101.1261942818392
  0
LINE
  5
CA
330
2
100
AcDbEntity
  8
0
100
AcDbLine
 10
77.32249722812162
 20
98.99699239974587
 30
0.0
 11
79.78108778759327
 21
101.1261942818392
 31
0.0
  0
LWPOLYLINE
  5
CB
330
2
100
AcDbEntity
  8
0
100
AcDbPolyline
 90
        9
 70
   128
 43
0.0
 10
77.32249722812162
 20
98.99699239974587
 10
77.22841124782457
 20
98.88309612402036
 10
77.1486491503932
 20
98.7217093826257
 10
77.09535352059351
 20
98.53740200811488
 10
77.0766384652384
 20
98.35823132747806
 10
77.09535352059351
 20
98.2114773427876
 10
77.1486491503932
 20
98.11948070696521
 10
77.22841124782457
 20
98.09624597078631
 10
77.32249722812162
 20
98.14531139316237
  0
LINE
  5
CC
330
2
100
AcDbEntity
  8
0
100
AcDbLine
 10
79.78108778759327
 20
101.9778740193969
 30
0.0
 11
77.32249722812162
 21
99.84867213730359
 31
0.0
  0
LWPOLYLINE
  5
CD
330
2
100
AcDbEntity
  8
0
100
AcDbPolyline
 90
        9
 70
   128
 43
0.0
 10
79.78108778759327
 20
101.9778740193969
 10
79.87517376789037
 20
102.0917702951224
 10
79.95493586532169
 20
102.253157036517
 10
80.00823149521975
 20
102.4374644110279
 10
80.02694655047648
 20
102.6166350915664
 10
80.00823149521975
 20
102.7633890763551
 10
79.95493586532169
 20
102.8553857121776
 10
79.87517376789037
 20
102.8786204483564
 10
79.78108778759327
 20
102.8295550259804
  0
LINE
  5
CE
330
2
100
AcDbEntity
  8
0
100
AcDbLine
 10
77.32249722812162
 20
100.7003531439854
 30
0.0
 11
79.78108778759327
 21
102.8295550259804
 31
0.0
  0
LWPOLYLINE
  5
CF
330
2
100
AcDbEntity
  8
0
100
AcDbPolyline
 90
        9
 70
   128
 43
0.0
 10
77.32249722812162
 20
100.7003531439854
 10
77.22841124782457
 20
100.5864568682599
 10
77.1486491503932
 20
100.4250701268652
 10
77.09535352059351
 20
100.2407627522561
 10
77.0766384652384
 20
100.0615933408417
 10
77.09535352059351
 20
99.91483808692882
 10
77.1486491503932
 20
99.82284145110636
 10
77.22841124782457
 20
99.79960671492754
 10
77.32249722812162
 20
99.84867213730359
  0
LINE
  5
D0
330
2
100
AcDbEntity
  8
0
100
AcDbLine
 10
79.78108778759327
 20
71.31737427864476
 30
0.0
 11
77.32249722812162
 21
69.1881723966498
 31
0.0
  0
LWPOLYLINE
  5
D1
330
2
100
AcDbEntity
  8
0
100
AcDbPolyline
 90
        8
 70
   128
 43
0.0
 10
79.78108778759327
 20
71.31737427864476
 10
79.87517376789037
 20
71.43127055437031
 10
79.95493586532169
 20
71.59265729576495
 10
80.00823149521975
 20
71.7769646703741
 10
80.02694655047648
 20
71.95613535091263
 10
80.00823149521975
 20
72.10288933570135
 10
79.95493586532169
 20
72.19488597152381
 10
79.91746545517475
 20
72.21564151513868
  0
LWPOLYLINE
  5
D2
330
2
100
AcDbEntity
  8
0
100
AcDbPolyline
 90
        8
 70
   128
 43
0.0
 10
77.20567064584423
 20
69.88753122944221
 10
77.1486491503932
 20
69.76457038621143
 10
77.09535352059351
 20
69.58026301160225
 10
77.0766384652384
 20
69.40109360008958
 10
77.09535352059351
 20
69.25433834627501
 10
77.1486491503932
 20
69.16234171045258
 10
77.22841124782457
 20
69.13910697427372
 10
77.32249722812162
 20
69.1881723966498
  0
LINE
  5
D3
330
2
100
AcDbEntity
  8
0
100
AcDbLine
 10
79.78108778759327
 20
69.61401353450359
 30
0.0
 11
77.32249722812162
 21
67.48481165250857
 31
0.0
  0
LWPOLYLINE
  5
D4
330
2
100
AcDbEntity
  8
0
100
AcDbPolyline
 90
        9
 70
   128
 43
0.0
 10
79.78108778759327
 20
69.61401353450359
 10
79.87517376789037
 20
69.72790981022914
 10
79.95493586532169
 20
69.88929655162377
 10
80.00823149521975
 20
70.07360392623292
 10
80.02694655047648
 20
70.25277333764726
 10
80.00823149521975
 20
70.39952859156023
 10
79.95493586532169
 20
70.49152522738262
 10
79.87517376789037
 20
70.51475996356143
 10
79.78108778759327
 20
70.46569454118543
  0
LINE
  5
D5
330
2
100
AcDbEntity
  8
0
100
AcDbLine
 10
77.32249722812162
 20
68.3364926590921
 30
0.0
 11
79.78108778759327
 21
70.46569454118543
 31
0.0
  0
LWPOLYLINE
  5
D6
330
2
100
AcDbEntity
  8
0
100
AcDbPolyline
 90
        9
 70
   128
 43
0.0
 10
77.32249722812162
 20
68.3364926590921
 10
77.22841124782457
 20
68.22259638336655
 10
77.1486491503932
 20
68.06120964197188
 10
77.09535352059351
 20
67.87690226736277
 10
77.0766384652384
 20
67.69773158682423
 10
77.09535352059351
 20
67.55097760203546
 10
77.1486491503932
 20
67.4589809663114
 10
77.22841124782457
 20
67.43574623013254
 10
77.32249722812162
 20
67.48481165250857
  0
LINE
  5
D7
330
2
100
AcDbEntity
  8
0
100
AcDbLine
 10
79.78108778759327
 20
67.9106527903624
 30
0.0
 11
77.32249722812162
 21
65.78145090826907
 31
0.0
  0
LWPOLYLINE
  5
D8
330
2
100
AcDbEntity
  8
0
100
AcDbPolyline
 90
        9
 70
   128
 43
0.0
 10
79.78108778759327
 20
67.9106527903624
 10
79.87517376789037
 20
68.02454906608796
 10
79.95493586532169
 20
68.18593453835842
 10
80.00823149521975
 20
68.37024318209174
 10
80.02694655047648
 20
68.54941259350607
 10
80.00823149521975
 20
68.69616657829488
 10
79.95493586532169
 20
68.78816448314307
 10
79.87517376789037
 20
68.81139921932194
 10
79.78108778759327
 20
68.76233252792005
  0
LINE
  5
D9
330
2
100
AcDbEntity
  8
0
100
AcDbLine
 10
77.32249722812162
 20
66.63313064582673
 30
0.0
 11
79.78108778759327
 21
68.76233252792005
 31
0.0
  0
LWPOLYLINE
  5
DA
330
2
100
AcDbEntity
  8
0
100
AcDbPolyline
 90
        9
 70
   128
 43
0.0
 10
77.32249722812162
 20
66.63313064582673
 10
77.22841124782457
 20
66.51923563922537
 10
77.1486491503932
 20
66.35784889783076
 10
77.09535352059351
 20
66.17354025409738
 10
77.0766384652384
 20
65.99437084268306
 10
77.09535352059351
 20
65.84761685789428
 10
77.1486491503932
 20
65.75561895294774
 10
77.22841124782457
 20
65.73238548589299
 10
77.32249722812162
 20
65.78145090826907
  0
LINE
  5
DB
330
2
100
AcDbEntity
  8
0
100
AcDbLine
 10
79.78108778759327
 20
66.20729204612286
 30
0.0
 11
77.32249722812162
 21
64.07809016412787
 31
0.0
  0
LWPOLYLINE
  5
DC
330
2
100
AcDbEntity
  8
0
100
AcDbPolyline
 90
        9
 70
   128
 43
0.0
 10
79.78108778759327
 20
66.20729204612286
 10
79.87517376789037
 20
66.32118705282261
 10
79.95493586532169
 20
66.48257379421727
 10
80.00823149521975
 20
66.66688243785222
 10
80.02694655047648
 20
66.84605184926659
 10
80.00823149521975
 20
66.9928058340553
 10
79.95493586532169
 20
67.08480373900187
 10
79.87517376789037
 20
67.10803720605662
 10
79.78108778759327
 20
67.05897178368056
  0
LINE
  5
DD
330
2
100
AcDbEntity
  8
0
100
AcDbLine
 10
77.32249722812162
 20
64.92976990168561
 30
0.0
 11
79.78108778759327
 21
67.05897178368056
 31
0.0
  0
LWPOLYLINE
  5
DE
330
2
100
AcDbEntity
  8
0
100
AcDbPolyline
 90
        9
 70
   128
 43
0.0
 10
77.32249722812162
 20
64.92976990168561
 10
77.22841124782457
 20
64.81587362596002
 10
77.1486491503932
 20
64.65448815359119
 10
77.09535352059351
 20
64.47017950995624
 10
77.0766384652384
 20
64.29101009854187
 10
77.09535352059351
 20
64.1442561137531
 10
77.1486491503932
 20
64.05225820880653
 10
77.22841124782457
 20
64.0290234726277
 10
77.32249722812162
 20
64.07809016412787
  0
LINE
  5
DF
330
2
100
AcDbEntity
  8
0
100
AcDbLine
 10
79.78108778759327
 20
64.50393003285753
 30
0.0
 11
77.32249722812162
 21
62.37472815086254
 31
0.0
  0
LWPOLYLINE
  5
E0
330
2
100
AcDbEntity
  8
0
100
AcDbPolyline
 90
        9
 70
   128
 43
0.0
 10
79.78108778759327
 20
64.50393003285753
 10
79.87517376789037
 20
64.61782630858306
 10
79.95493586532169
 20
64.7792130499777
 10
80.00823149521975
 20
64.96352042458688
 10
80.02694655047648
 20
65.14269110512538
 10
80.00823149521975
 20
65.28944508991412
 10
79.95493586532169
 20
65.38144172573661
 10
79.87517376789037
 20
65.40467646191541
 10
79.78108778759327
 20
65.35561103953938
  0
LINE
  5
E1
330
2
100
AcDbEntity
  8
0
100
AcDbLine
 10
77.32249722812162
 20
63.22640915744605
 30
0.0
 11
79.78108778759327
 21
65.35561103953938
 31
0.0
  0
LWPOLYLINE
  5
E2
330
2
100
AcDbEntity
  8
0
100
AcDbPolyline
 90
        9
 70
   128
 43
0.0
 10
77.32249722812162
 20
63.22640915744605
 10
77.22841124782457
 20
63.11251288172051
 10
77.1486491503932
 20
62.95112614032586
 10
77.09535352059351
 20
62.76681876571668
 10
77.0766384652384
 20
62.58764935430236
 10
77.09535352059351
 20
62.44089410048777
 10
77.1486491503932
 20
62.34889746466536
 10
77.22841124782457
 20
62.32566272848651
 10
77.32249722812162
 20
62.37472815086254
  0
LINE
  5
E3
330
2
100
AcDbEntity
  8
0
100
AcDbLine
 10
79.78108778759327
 20
62.80056928871635
 30
0.0
 11
77.32249722812162
 21
60.67136740662301
 31
0.0
  0
LWPOLYLINE
  5
E4
330
2
100
AcDbEntity
  8
0
100
AcDbPolyline
 90
        9
 70
   128
 43
0.0
 10
79.78108778759327
 20
62.80056928871635
 10
79.87517376789037
 20
62.91446556444189
 10
79.95493586532169
 20
63.07585230583654
 10
80.00823149521975
 20
63.26015968044568
 10
80.02694655047648
 20
63.43932909186005
 10
80.00823149521975
 20
63.58608434577295
 10
79.95493586532169
 20
63.67808098149704
 10
79.87517376789037
 20
63.7013157176759
 10
79.78108778759327
 20
63.65225029529986
  0
LINE
  5
E5
330
2
100
AcDbEntity
  8
0
100
AcDbLine
 10
77.32249722812162
 20
61.52304841330486
 30
0.0
 11
79.78108778759327
 21
63.65225029529986
 31
0.0
  0
LWPOLYLINE
  5
E6
330
2
100
AcDbEntity
  8
0
100
AcDbPolyline
 90
        9
 70
   128
 43
0.0
 10
77.32249722812162
 20
61.52304841330486
 10
77.22841124782457
 20
61.40915213757933
 10
77.1486491503932
 20
61.24776539618467
 10
77.09535352059351
 20
61.06345802157552
 10
77.0766384652384
 20
60.88428734103704
 10
77.09535352059351
 20
60.73753335624825
 10
77.1486491503932
 20
60.64553672042581
 10
77.22841124782457
 20
60.62230198424698
 10
77.32249722812162
 20
60.67136740662301
  0
LWPOLYLINE
  5
E7
330
2
100
AcDbEntity
  8
0
100
AcDbPolyline
 90
        4
 70
   128
 43
0.0
 10
76.33906144392887
 20
59.39384716582275
 10
76.34850982850384
 20
59.23587494584972
 10
76.37649155454074
 20
59.10033792712106
 10
76.42193099374506
 20
58.99244577731312
  0
LINE
  5
E8
330
2
100
AcDbEntity
  8
0
100
AcDbLine
 10
76.33906144392887
 20
100.2745126406444
 30
0.0
 11
76.33906144392887
 21
81.66663601693917
 31
0.0
  0
LINE
  5
E9
330
2
100
AcDbEntity
  8
0
100
AcDbLine
 10
76.33906144392887
 20
69.49928345818008
 30
0.0
 11
76.33906144392887
 21
59.39384716582275
 31
0.0
  0
ARC
  5
EA
330
2
100
AcDbEntity
  8
0
100
AcDbCircle
 10
78.20341262629821
 20
100.290315513878
 30
0.0
 40
1.864418156450427
100
AcDbArc
 50
137.4109042905001
 51
180.4856468388001
  0
LINE
  5
EB
330
2
100
AcDbEntity
  8
0
100
AcDbLine
 10
80.518664076243
 20
104.7458357045356
 30
0.0
 11
76.83077970235513
 21
101.5520341505689
 31
0.0
  0
LINE
  5
EC
330
2
100
AcDbEntity
  8
0
100
AcDbLine
 10
76.16872562335925
 20
81.88968720604789
 30
0.0
 11
76.16872562335925
 21
81.87072490485403
 31
0.0
  0
ARC
  5
ED
330
2
100
AcDbEntity
  8
0
100
AcDbCircle
 10
76.46774180896378
 20
101.5340846772174
 30
0.0
 40
0.3634813552914002
100
AcDbArc
 50
2.83053724980027
 51
72.79183471780005
  0
ARC
  5
EE
330
2
100
AcDbEntity
  8
0
100
AcDbCircle
 10
80.15562618285162
 20
104.7278862311841
 30
0.0
 40
0.3634813552913863
100
AcDbArc
 50
2.83053724980027
 51
72.79183471780005
  0
LINE
  5
EF
330
2
100
AcDbEntity
  8
0
100
AcDbLine
 10
76.57527565419508
 20
101.8812952296845
 30
0.0
 11
76.25742350179783
 21
101.9730512426738
 31
0.0
  0
LINE
  5
F0
330
2
100
AcDbEntity
  8
0
100
AcDbLine
 10
80.26316002808291
 20
105.0750967836512
 30
0.0
 11
79.94530787565594
 21
105.1668527966491
 31
0.0
  0
LWPOLYLINE
  5
F1
330
2
100
AcDbEntity
  8
0
100
AcDbPolyline
 90
        9
 70
   128
 43
0.0
 10
80.33868306844514
 20
105.0816858381182
 10
80.33395850987687
 20
105.1606722653612
 10
80.31996801318831
 20
105.2284410919328
 10
80.29724792725629
 20
105.2823855805054
 10
80.26667238329029
 20
105.3204377277552
 10
80.2294159265269
 20
105.3411298162447
 10
80.18691028585891
 20
105.3436711949082
 10
80.14078868726405
 20
105.3279609699008
 10
80.09282357290206
 20
105.294605137921
  0
ARC
  5
F2
330
2
100
AcDbEntity
  8
0
100
AcDbCircle
 10
59.76370687507932
 20
111.0925616578139
 30
0.0
 40
0.1513536788423428
100
AcDbArc
 50
80.43021510490047
 51
137.2910760646996
  0
LINE
  5
F3
330
2
100
AcDbEntity
  8
0
100
AcDbLine
 10
80.33868306844514
 20
105.0816858381182
 30
0.0
 11
80.31029834814001
 21
105.0571039491318
 31
0.0
  0
LWPOLYLINE
  5
F4
330
2
100
AcDbEntity
  8
0
100
AcDbPolyline
 90
        9
 70
   128
 43
0.0
 10
80.33868306844514
 20
105.0816858381182
 10
80.41703589040086
 20
105.0536118763083
 10
80.48293034580282
 20
105.018434951492
 10
80.53383218914371
 20
104.9775059595325
 10
80.56778735573175
 20
104.932398350218
 10
80.58348929450426
 20
104.8848455402143
 10
80.58033536257426
 20
104.836674715826
 10
80.55844664953012
 20
104.7897368082223
 10
80.518664076243
 20
104.7458357045356
  0
ARC
  5
F5
330
2
100
AcDbEntity
  8
0
100
AcDbCircle
 10
80.42118752040389
 20
62.29316301195567
 30
0.0
 40
0.1635718839898042
100
AcDbArc
 50
306.5785930300998
 51
357.0476876772998
  0
LINE
  5
F6
330
2
100
AcDbEntity
  8
0
100
AcDbLine
 10
75.74899929773366
 20
58.09703574041142
 30
0.0
 11
76.55245416371958
 21
58.79284806513312
 31
0.0
  0
ARC
  5
F7
330
2
100
AcDbEntity
  8
0
100
AcDbCircle
 10
80.32687207203716
 20
62.15427668531435
 30
0.0
 40
0.1919398260445191
100
AcDbArc
 50
312.4021595035988
 51
2.248807705199691
  0
ARC
  5
F8
330
2
100
AcDbEntity
  8
0
100
AcDbCircle
 10
76.63905265238748
 20
58.99751300334775
 30
0.0
 40
0.220669324113702
100
AcDbArc
 50
253.2009365376867
 51
305.8908586769624
  0
LINE
  5
F9
330
2
100
AcDbEntity
  8
0
100
AcDbLine
 10
76.57527565419508
 20
58.78626091440146
 30
0.0
 11
75.7490001843012
 21
59.02478609686696
 31
0.0
  0
SPLINE
  5
FA
330
2
100
AcDbEntity
  8
0
100
AcDbSpline
210
0.0
220
0.0
230
1.0
 70
     8
 71
     3
 72
    32
 73
    28
 74
     0
 42
0.000000001
 43
0.0000000001
 40
0.0
 40
0.0
 40
0.0
 40
0.0
 40
0.0167375790705834
 40
0.0337717737577323
 40
0.0511031127024279
 40
0.0687318656388881
 40
0.0866578726622227
 40
0.1048809302239911
 40
0.1234008820516373
 40
0.1422176396376341
 40
0.1613310251828983
 40
0.1807407265647854
 40
0.200446535324655
 40
0.2204480685583518
 40
0.240745069329154
 40
0.356678636584155
 40
0.4912084992881184
 40
0.6109909638784328
 40
0.7450809601320466
 40
0.7762761221201329
 40
0.8076628291023435
 40
0.8392409549108485
 40
0.8710103049392758
 40
0.9029710249332566
 40
0.9351231658541303
 40
0.9674652274013999
 40
1.0
 40
1.0
 40
1.0
 40
1.0
 10
71.36123359391032
 20
90.55115541729982
 30
0.0
 10
71.36068654899668
 20
90.5707847721684
 30
0.0
 10
71.35958276469293
 20
90.61039134423213
 30
0.0
 10
71.35575584488202
 20
90.67093114055237
 30
0.0
 10
71.35023314353154
 20
90.73291889045892
 30
0.0
 10
71.34277794542049
 20
90.79636860278633
 30
0.0
 10
71.33335449694399
 20
90.8612278263706
 30
0.0
 10
71.32187421378086
 20
90.92745562667055
 30
0.0
 10
71.3082652212243
 20
90.99500077773083
 30
0.0
 10
71.29245406515983
 20
91.06380824538256
 30
0.0
 10
71.2743716770417
 20
91.1338172985884
 30
0.0
 10
71.25395223890876
 20
91.2049623562042
 30
0.0
 10
71.23113314405703
 20
91.27717089456835
 30
0.0
 10
71.20585631416608
 20
91.35037093266126
 30
0.0
 10
71.13456369600706
 20
91.54047783646349
 30
0.0
 10
70.97936987978352
 20
91.86691013890337
 30
0.0
 10
70.69624700678634
 20
92.28754798968108
 30
0.0
 10
70.33693147927775
 20
92.68313385792298
 30
0.0
 10
70.03598775958696
 20
92.93032159152001
 30
0.0
 10
69.81790734135888
 20
93.07635220403627
 30
0.0
 10
69.71170407326031
 20
93.1418092644626
 30
0.0
 10
69.60332225308317
 20
93.20296985779952
 30
0.0
 10
69.49297892093904
 20
93.25961015416606
 30
0.0
 10
69.38091392081469
 20
93.31154262401035
 30
0.0
 10
69.26737685395895
 20
93.35841136840718
 30
0.0
 10
69.15262537121373
 20
93.40053244691159
 30
0.0
 10
69.07572612828722
 20
93.42394174589042
 30
0.0
 10
69.03716229553305
 20
93.43568116303361
 30
0.0
  0
LWPOLYLINE
  5
FB
330
2
100
AcDbEntity
  8
0
100
AcDbPolyline
 90
        3
 70
   128
 43
0.0
 10
69.17486618622686
 20
93.87814462719941
 10
69.09775244326579
 20
93.63036516042845
 10
69.03716271288942
 20
93.43568167178982
  0
LWPOLYLINE
  5
FC
330
2
100
AcDbEntity
  8
0
100
AcDbPolyline
 90
        3
 70
   128
 43
0.0
 10
73.23581541678101
 20
96.57448627942814
 10
72.18604925492417
 20
93.20142068331241
 10
71.36123419888235
 20
90.55115545485795
  0
LINE
  5
FD
330
2
100
AcDbEntity
  8
0
100
AcDbLine
 10
71.36123419888235
 20
54.57846630412327
 30
0.0
 11
71.36123419888235
 21
90.55115545485795
 31
0.0
  0
LINE
  5
FE
330
2
100
AcDbEntity
  8
0
100
AcDbLine
 10
73.23581541678101
 20
77.81038245224009
 30
0.0
 11
73.23581541678101
 21
96.57448627942814
 31
0.0
  0
SPLINE
  5
FF
330
2
100
AcDbEntity
  8
0
100
AcDbSpline
210
0.0
220
0.0
230
1.0
 70
     8
 71
     3
 72
     9
 73
     5
 74
     0
 42
0.000000001
 43
0.0000000001
 40
0.0
 40
0.0
 40
0.0
 40
0.0
 40
0.5
 40
1.0
 40
1.0
 40
1.0
 40
1.0
 10
73.23581582241795
 20
77.81038210395822
 30
0.0
 10
73.09379713786632
 20
77.51882122530834
 30
0.0
 10
72.83415401225335
 20
76.92623744633815
 30
0.0
 10
72.62158978675874
 20
76.31596466465214
 30
0.0
 10
72.52737415116957
 20
76.00628391660143
 30
0.0
  0
SPLINE
  5
100
330
2
100
AcDbEntity
  8
0
100
AcDbSpline
210
0.0
220
0.0
230
1.0
 70
     8
 71
     3
 72
    21
 73
    17
 74
     0
 42
0.000000001
 43
0.0000000001
 40
0.0
 40
0.0
 40
0.0
 40
0.0
 40
0.125
 40
0.125
 40
0.25
 40
0.25
 40
0.375
 40
0.375
 40
0.5
 40
0.625
 40
0.625
 40
0.75
 40
0.75
 40
0.875
 40
0.875
 40
1.0
 40
1.0
 40
1.0
 40
1.0
 10
72.52737415116957
 20
76.00628391660143
 30
0.0
 10
72.49810029853327
 20
75.91005751550913
 30
0.0
 10
72.46891863912586
 20
75.80940844500986
 30
0.0
 10
72.41156941277342
 20
75.5999457524847
 30
0.0
 10
72.38343819052349
 20
75.49136121303527
 30
0.0
 10
72.32872878693081
 20
75.26487570928717
 30
0.0
 10
72.30208034827779
 20
75.14664818462771
 30
0.0
 10
72.25089964461961
 20
74.89929589575385
 30
0.0
 10
72.20204345446032
 20
74.64189444361551
 30
0.0
 10
72.1613269845308
 20
74.37102003988485
 30
0.0
 10
72.12594245548206
 20
74.09879256141093
 30
0.0
 10
72.11099733070884
 20
73.96226101007989
 30
0.0
 10
72.08705174832104
 20
73.69115843150644
 30
0.0
 10
72.07801432546023
 20
73.55654831763667
 30
0.0
 10
72.06595117560678
 20
73.29046911845509
 30
0.0
 10
72.06291820979561
 20
73.15881948112036
 30
0.0
 10
72.06291813860753
 20
73.02828638478894
 30
0.0
  0
SPLINE
  5
101
330
2
100
AcDbEntity
  8
0
100
AcDbSpline
210
0.0
220
0.0
230
1.0
 70
     8
 71
     3
 72
    21
 73
    17
 74
     0
 42
0.000000001
 43
0.0000000001
 40
0.0
 40
0.0
 40
0.0
 40
0.0
 40
0.1250000000000002
 40
0.1250000000000002
 40
0.2500000000000003
 40
0.2500000000000003
 40
0.3750000000000005
 40
0.3750000000000005
 40
0.5000000000000006
 40
0.6250000000000004
 40
0.6250000000000004
 40
0.7500000000000002
 40
0.7500000000000002
 40
0.875
 40
0.875
 40
1.0
 40
1.0
 40
1.0
 40
1.0
 10
72.52737415116957
 20
70.66385393820573
 30
0.0
 10
72.49810029853327
 20
70.72140848762032
 30
0.0
 10
72.46891863912586
 20
70.78350746171799
 30
0.0
 10
72.41156941277336
 20
70.91720961938768
 30
0.0
 10
72.38343819052341
 20
70.9886317393942
 30
0.0
 10
72.32872878693081
 20
71.14284405751314
 30
0.0
 10
72.30208034827779
 20
71.22586800265555
 30
0.0
 10
72.25089964461972
 20
71.40560867661619
 30
0.0
 10
72.20204345446052
 20
71.59846927326322
 30
0.0
 10
72.16132698453043
 20
71.8155555284084
 30
0.0
 10
72.12594245548195
 20
72.04103877755634
 30
0.0
 10
72.11099733070984
 20
72.15782751066331
 30
0.0
 10
72.08705174832235
 20
72.39729724338062
 30
0.0
 10
72.07801432545949
 20
72.5199682733662
 30
0.0
 10
72.06595117559942
 20
72.77011021667906
 30
0.0
 10
72.06291820978567
 20
72.89775245772387
 30
0.0
 10
72.06291813860753
 20
73.02828638478894
 30
0.0
  0
SPLINE
  5
102
330
2
100
AcDbEntity
  8
0
100
AcDbSpline
210
0.0
220
0.0
230
1.0
 70
     8
 71
     3
 72
     9
 73
     5
 74
     0
 42
0.000000001
 43
0.0000000001
 40
0.0
 40
0.0
 40
0.0
 40
0.0
 40
0.5
 40
1.0
 40
1.0
 40
1.0
 40
1.0
 10
73.23581582241795
 20
69.79563389149181
 30
0.0
 10
73.09379713786632
 20
69.89958282346541
 30
0.0
 10
72.83415401225335
 20
70.1491678755525
 30
0.0
 10
72.62158978675874
 20
70.47863596901047
 30
0.0
 10
72.52737415116957
 20
70.66385393820573
 30
0.0
  0
LINE
  5
103
330
2
100
AcDbEntity
  8
0
100
AcDbLine
 10
73.23581541678101
 20
69.79563394120848
 30
0.0
 11
73.23581541678101
 21
51.03153011402045
 31
0.0
  0
SPLINE
  5
104
330
2
100
AcDbEntity
  8
0
100
AcDbSpline
210
0.0
220
0.0
230
1.0
 70
     8
 71
     3
 72
    12
 73
     8
 74
     0
 42
0.000000001
 43
0.0000000001
 40
0.0
 40
0.0
 40
0.0
 40
0.0
 40
0.25
 40
0.25
 40
0.5
 40
0.5
 40
1.0
 40
1.0
 40
1.0
 40
1.0
 10
72.69343553672377
 20
99.66424369186659
 30
0.0
 10
72.5798852651931
 20
99.66971075853958
 30
0.0
 10
72.45973217637064
 20
99.67912355892011
 30
0.0
 10
72.21696792762412
 20
99.70588817313736
 30
0.0
 10
72.09412056921218
 20
99.72316220993825
 30
0.0
 10
71.72838597404513
 20
99.78539480820394
 30
0.0
 10
71.4882121012009
 20
99.84067090756479
 30
0.0
 10
71.26296002699757
 20
99.90704661245963
 30
0.0
  0
SPLINE
  5
105
330
2
100
AcDbEntity
  8
0
100
AcDbSpline
210
0.0
220
0.0
230
1.0
 70
     8
 71
     3
 72
    14
 73
    10
 74
     0
 42
0.000000001
 43
0.0000000001
 40
0.0
 40
0.0
 40
0.0
 40
0.0
 40
0.1805440953494075
 40
0.3726700507062182
 40
0.5764696020258732
 40
0.7249312549979747
 40
0.844975557859357
 40
0.9366376670474405
 40
1.0
 40
1.0
 40
1.0
 40
1.0
 10
72.69343553672368
 20
99.66424369186952
 30
0.0
 10
72.71648285938193
 20
99.6632293733846
 30
0.0
 10
72.76405598486729
 20
99.66113566812964
 30
0.0
 10
72.83784007946863
 20
99.65901827523676
 30
0.0
 10
72.90759645040435
 20
99.65778506102468
 30
0.0
 10
72.96813718680593
 20
99.65690970590449
 30
0.0
 10
73.01425348117195
 20
99.65580695833301
 30
0.0
 10
73.04946583111004
 20
99.65476585225024
 30
0.0
 10
73.06918547446648
 20
99.65357415853945
 30
0.0
 10
73.07724538160633
 20
99.65308708377479
 30
0.0
  0
SPLINE
  5
106
330
2
100
AcDbEntity
  8
0
100
AcDbSpline
210
0.0
220
0.0
230
1.0
 70
     8
 71
     3
 72
    33
 73
    29
 74
     0
 42
0.000000001
 43
0.0000000001
 40
0.0
 40
0.0
 40
0.0
 40
0.0
 40
0.0264310705942151
 40
0.0537418645308464
 40
0.0819484358673019
 40
0.1110653554452736
 40
0.1411058679202044
 40
0.1720820317043217
 40
0.2040048433926939
 40
0.2368843482282284
 40
0.2707297380909925
 40
0.3055494383953919
 40
0.3413511851605054
 40
0.3781420933968364
 40
0.415928717832446
 40
0.4547171068876671
 40
0.4945128507026397
 40
0.5353211239260589
 40
0.5771467238880204
 40
0.6199941047032852
 40
0.6638674077838509
 40
0.7087704891802435
 40
0.7547069441189846
 40
0.8016801290579163
 40
0.8496931815415283
 40
0.8987490381035154
 40
0.9488504504336948
 40
1.0
 40
1.0
 40
1.0
 40
1.0
 10
73.08547661470303
 20
99.65232781366374
 30
0.0
 10
73.09581050829606
 20
99.64916064292529
 30
0.0
 10
73.11682224550787
 20
99.64272088634551
 30
0.0
 10
73.14814370937575
 20
99.63063414149887
 30
0.0
 10
73.17988115096287
 20
99.61646140894796
 30
0.0
 10
73.21189660223964
 20
99.59992397804645
 30
0.0
 10
73.24410327844489
 20
99.58096692575587
 30
0.0
 10
73.27638257375989
 20
99.55947971963404
 30
0.0
 10
73.30860667311407
 20
99.53537659531582
 30
0.0
 10
73.34063160414359
 20
99.50857597598274
 30
0.0
 10
73.37229872655081
 20
99.47900835821259
 30
0.0
 10
73.40343401723123
 20
99.4466163244882
 30
0.0
 10
73.43384816128389
 20
99.41135686121073
 30
0.0
 10
73.46333663178308
 20
99.3732031129423
 30
0.0
 10
73.49168001428651
 20
99.33214635564668
 30
0.0
 10
73.51864453156363
 20
99.28819794542889
 30
0.0
 10
73.54398280955627
 20
99.24139128171418
 30
0.0
 10
73.56743489495087
 20
99.19178374209129
 30
0.0
 10
73.58872956591998
 20
99.1394585582374
 30
0.0
 10
73.60758587498617
 20
99.08452661830366
 30
0.0
 10
73.6237152456658
 20
99.02712807987878
 30
0.0
 10
73.63682295530586
 20
98.96743405884057
 30
0.0
 10
73.64661357890745
 20
98.90564716818294
 30
0.0
 10
73.65278277005993
 20
98.84200542691161
 30
0.0
 10
73.65506342754262
 20
98.77677186464387
 30
0.0
 10
73.65306376521733
 20
98.71027775837397
 30
0.0
 10
73.64690910272054
 20
98.64275736605113
 30
0.0
 10
73.63891207864864
 20
98.59803862931109
 30
0.0
 10
73.63487217451847
 20
98.57544779956901
 30
0.0
  0
SPLINE
  5
107
330
2
100
AcDbEntity
  8
0
100
AcDbSpline
210
0.0
220
0.0
230
1.0
 70
     8
 71
     3
 72
     8
 73
     4
 74
     0
 42
0.000000001
 43
0.0000000001
 40
0.0
 40
0.0
 40
0.0
 40
0.0
 40
1.0
 40
1.0
 40
1.0
 40
1.0
 10
73.23846658987907
 20
77.79852064030395
 30
0.0
 10
73.23655677349015
 20
77.80027475132327
 30
0.0
 10
73.23581582246564
 20
77.80448094195823
 30
0.0
 10
73.23581582241795
 20
77.81038210395822
 30
0.0
  0
LINE
  5
108
330
2
100
AcDbEntity
  8
0
100
AcDbLine
 10
73.63487278383991
 20
98.57544765170588
 30
0.0
 11
73.23581541678101
 21
96.57448627942814
 31
0.0
  0
LINE
  5
109
330
2
100
AcDbEntity
  8
0
100
AcDbLine
 10
48.84727469033072
 20
106.3778967367019
 30
0.0
 11
71.26295977060727
 21
99.90704582911368
 31
0.0
  0
SPLINE
  5
10A
330
2
100
AcDbEntity
  8
0
100
AcDbSpline
210
0.0
220
0.0
230
1.0
 70
     8
 71
     3
 72
    12
 73
     8
 74
     0
 42
0.000000001
 43
0.0000000001
 40
0.0
 40
0.0
 40
0.0
 40
0.0
 40
0.25
 40
0.25
 40
0.5
 40
0.5
 40
1.0
 40
1.0
 40
1.0
 40
1.0
 10
47.70397091100076
 20
106.8780807561491
 30
0.0
 10
47.77142227322451
 20
106.8312971518363
 30
0.0
 10
47.84891911737554
 20
106.7836533312132
 30
0.0
 10
48.01857312932361
 20
106.6913630485151
 30
0.0
 10
48.11072013295168
 20
106.6465735589169
 30
0.0
 10
48.40329301624723
 20
106.5187691572327
 30
0.0
 10
48.61974214083699
 20
106.4422295513502
 30
0.0
 10
48.84727456561254
 20
106.3778976300599
 30
0.0
  0
SPLINE
  5
10B
330
2
100
AcDbEntity
  8
0
100
AcDbSpline
210
0.0
220
0.0
230
1.0
 70
     8
 71
     3
 72
    25
 73
    21
 74
     0
 42
0.000000001
 43
0.0000000001
 40
0.0
 40
0.0
 40
0.0
 40
0.0
 40
0.1351234065475055
 40
0.2734652722377862
 40
0.4132200053610222
 40
0.5523915975633633
 40
0.7882281422811213
 40
0.8903580876326101
 40
0.9366022431608584
 40
0.9584581494314555
 40
0.9690700576072273
 40
0.974299919517341
 40
0.976896739285581
 40
0.9851506180016928
 40
0.9891126152731835
 40
0.9925301157298495
 40
0.9947917882786844
 40
0.9959090514938347
 40
0.9972127868034142
 40
1.0
 40
1.0
 40
1.0
 40
1.0
 10
47.70398492117499
 20
106.8794169055314
 30
0.0
 10
47.69338015556349
 20
106.8869178053317
 30
0.0
 10
47.67191803298186
 20
106.9020982663513
 30
0.0
 10
47.6405812886783
 20
106.924886003586
 30
0.0
 10
47.60967474325312
 20
106.947894250074
 30
0.0
 10
47.57238635015897
 20
106.9764071916415
 30
0.0
 10
47.53879344039037
 20
107.0032972575359
 30
0.0
 10
47.51014324115297
 20
107.0246767440697
 30
0.0
 10
47.496384103542
 20
107.0338443564407
 30
0.0
 10
47.4896259389078
 20
107.0380333817053
 30
0.0
 10
47.4863478793249
 20
107.0399936583644
 30
0.0
 10
47.48464007362364
 20
107.0410004982733
 30
0.0
 10
47.48334171012572
 20
107.0417640772012
 30
0.0
 10
47.48068848126561
 20
107.0433227154407
 30
0.0
 10
47.48345376853672
 20
107.0431701562946
 30
0.0
 10
47.48398839590604
 20
107.0426201552674
 30
0.0
 10
47.48440268142911
 20
107.0422554304385
 30
0.0
 10
47.48422212496336
 20
107.0418661014949
 30
0.0
 10
47.48339699040187
 20
107.0420784468547
 30
0.0
 10
47.48305899652248
 20
107.0422677608724
 30
0.0
 10
47.48282871716313
 20
107.0423967428256
 30
0.0
  0
LINE
  5
10C
330
2
100
AcDbEntity
  8
0
100
AcDbLine
 10
47.22878145085568
 20
99.73121906784868
 30
0.0
 11
69.03716271288942
 21
93.43568167178982
 31
0.0
  0
LWPOLYLINE
  5
10D
330
2
100
AcDbEntity
  8
0
100
AcDbPolyline
 90
        3
 70
   128
 43
0.0
 10
74.3239657862949
 20
99.18562137533717
 10
74.32456558370811
 20
99.18251533192107
 10
74.32502344672212
 20
99.17651376883767
  0
LWPOLYLINE
  5
10E
330
2
100
AcDbEntity
  8
0
100
AcDbPolyline
 90
        3
 70
   128
 43
0.0
 10
73.63052215871142
 20
100.0813473325929
 10
73.62644220771887
 20
100.0831112269237
 10
73.62495717374352
 20
100.0835841264774
  0
LINE
  5
10F
330
2
100
AcDbEntity
  8
0
100
AcDbLine
 10
75.30886252109903
 20
94.0576636418471
 30
0.0
 11
75.3129822182471
 21
94.05072112121015
 31
0.0
  0
SPLINE
  5
110
330
2
100
AcDbEntity
  8
0
100
AcDbSpline
210
0.0
220
0.0
230
1.0
 70
     8
 71
     3
 72
    14
 73
    10
 74
     0
 42
0.000000001
 43
0.0000000001
 40
0.0
 40
0.0
 40
0.0
 40
0.0
 40
0.2500000000000006
 40
0.2500000000000006
 40
0.5000000000000013
 40
0.5000000000000013
 40
0.7500000000000018
 40
0.7500000000000018
 40
1.0
 40
1.0
 40
1.0
 40
1.0
 10
75.5499917062692
 20
81.72177725429289
 30
0.0
 10
75.55148442806959
 20
81.69533322989728
 30
0.0
 10
75.5554445132758
 20
81.67277021309706
 30
0.0
 10
75.56777115432834
 20
81.63446702082692
 30
0.0
 10
75.57606716323118
 20
81.61888536925152
 30
0.0
 10
75.59679308869082
 20
81.59629924053506
 30
0.0
 10
75.60953456530336
 20
81.58923686792318
 30
0.0
 10
75.63859122398253
 20
81.58573071162964
 30
0.0
 10
75.65455382413006
 20
81.58933685354101
 30
0.0
 10
75.67230379132772
 20
81.59952160252778
 30
0.0
  0
ARC
  5
111
330
2
100
AcDbEntity
  8
0
100
AcDbCircle
 10
76.77767717168705
 20
82.20754677281624
 30
0.0
 40
0.6960728747018619
100
AcDbArc
 50
208.0904109605997
 51
232.1762434458007
  0
LINE
  5
112
330
2
100
AcDbEntity
  8
0
100
AcDbLine
 10
44.98154855797227
 20
98.55662252449089
 30
0.0
 11
44.94504483442471
 21
98.17685247517282
 31
0.0
  0
SPLINE
  5
113
330
2
100
AcDbEntity
  8
0
100
AcDbSpline
210
0.0
220
0.0
230
1.0
 70
     8
 71
     3
 72
    17
 73
    13
 74
     0
 42
0.000000001
 43
0.0000000001
 40
0.0
 40
0.0
 40
0.0
 40
0.0
 40
0.0476816978046439
 40
0.0991840826067074
 40
0.1416754120588285
 40
0.1923377337396588
 40
0.3615891049129751
 40
0.4723560088727379
 40
0.5852355015253224
 40
0.7387303130618107
 40
0.8769790823688833
 40
1.0
 40
1.0
 40
1.0
 40
1.0
 10
76.6480904531769
 20
81.54975205600839
 30
0.0
 10
76.64390436837411
 20
81.5501933815933
 30
0.0
 10
76.63519677195904
 20
81.55111139574318
 30
0.0
 10
76.62099848675222
 20
81.55334734530988
 30
0.0
 10
76.60570876191991
 20
81.55620842135947
 30
0.0
 10
76.57711570497548
 20
81.5622167722936
 30
0.0
 10
76.54002764377878
 20
81.57185236121982
 30
0.0
 10
76.49718542531073
 20
81.58550690414493
 30
0.0
 10
76.45738628741558
 20
81.60026676147266
 30
0.0
 10
76.41730825049183
 20
81.61796050834546
 30
0.0
 10
76.37967541177565
 20
81.63789135150471
 30
0.0
 10
76.36005809331999
 20
81.65137120591577
 30
0.0
 10
76.3508211223336
 20
81.65771830296568
 30
0.0
  0
LINE
  5
114
330
2
100
AcDbEntity
  8
0
100
AcDbLine
 10
76.859514128466
 20
81.51031262122204
 30
0.0
 11
76.64809086227177
 21
81.54975189795248
 31
0.0
  0
ARC
  5
115
330
2
100
AcDbEntity
  8
0
100
AcDbCircle
 10
76.56966172647
 20
80.44251160360945
 30
0.0
 40
1.103794361877274
100
AcDbArc
 50
72.22854927619941
 51
76.65011481209965
  0
ARC
  5
116
330
2
100
AcDbEntity
  8
0
100
AcDbCircle
 10
76.56268301204494
 20
80.40862571703819
 30
0.0
 40
1.138376424632983
100
AcDbArc
 50
76.70215777089996
 51
88.03476849259906
  0
ARC
  5
117
330
2
100
AcDbEntity
  8
0
100
AcDbCircle
 10
76.55916270929805
 20
80.27081863655569
 30
0.0
 40
1.276223743088531
100
AcDbArc
 50
88.08898302440027
 51
98.58945547120006
  0
ARC
  5
118
330
2
100
AcDbEntity
  8
0
100
AcDbCircle
 10
76.59823605785604
 20
80.01629608544256
 30
0.0
 40
1.533727402021144
100
AcDbArc
 50
98.61266535080012
 51
107.9014257388003
  0
ARC
  5
119
330
2
100
AcDbEntity
  8
0
100
AcDbCircle
 10
76.71752060690337
 20
79.64690687920249
 30
0.0
 40
1.921898998631937
100
AcDbArc
 50
107.9004310011004
 51
115.8913356585995
  0
ARC
  5
11A
330
2
100
AcDbEntity
  8
0
100
AcDbCircle
 10
76.94783575024363
 20
79.17107359596666
 30
0.0
 40
2.450540760169279
100
AcDbArc
 50
115.8777020746
 51
122.6729023913
  0
ARC
  5
11B
330
2
100
AcDbEntity
  8
0
100
AcDbCircle
 10
77.31081972183966
 20
78.60334281414011
 30
0.0
 40
3.124391570792949
100
AcDbArc
 50
122.6557113868999
 51
128.4348845399012
  0
ARC
  5
11C
330
2
100
AcDbEntity
  8
0
100
AcDbCircle
 10
77.81722808889188
 20
77.96338040626584
 30
0.0
 40
3.940479978257993
100
AcDbArc
 50
128.4183205061
 51
133.3681457575002
  0
ARC
  5
11D
330
2
100
AcDbEntity
  8
0
100
AcDbCircle
 10
78.46573155631503
 20
77.27509639782606
 30
0.0
 40
4.88614929854673
100
AcDbArc
 50
133.3540814304006
 51
137.6427249296005
  0
ARC
  5
11E
330
2
100
AcDbEntity
  8
0
100
AcDbCircle
 10
79.24288449944203
 20
76.56488983778487
 30
0.0
 40
5.938935535571279
100
AcDbArc
 50
137.6311016882002
 51
141.3965324495998
  0
ARC
  5
11F
330
2
100
AcDbEntity
  8
0
100
AcDbCircle
 10
80.12455700338746
 20
75.85951241086289
 30
0.0
 40
7.068051395186032
100
AcDbArc
 50
141.3872825115001
 51
144.7400199937997
  0
ARC
  5
120
330
2
100
AcDbEntity
  8
0
100
AcDbCircle
 10
81.07499580470554
 20
75.18625886723043
 30
0.0
 40
8.232784531736241
100
AcDbArc
 50
144.7326237488001
 51
147.7611492752004
  0
ARC
  5
121
330
2
100
AcDbEntity
  8
0
100
AcDbCircle
 10
82.05282199488062
 20
74.56840053298242
 30
0.0
 40
9.389457403578225
100
AcDbArc
 50
147.7551520139993
 51
150.5294597166995
  0
ARC
  5
122
330
2
100
AcDbEntity
  8
0
100
AcDbCircle
 10
85.85874075736606
 20
72.7709152820459
 30
0.0
 40
13.60630476257159
100
AcDbArc
 50
162.2472384409002
 51
164.4136366130997
  0
ARC
  5
123
330
2
100
AcDbEntity
  8
0
100
AcDbCircle
 10
85.80089157563364
 20
72.78640667120516
 30
0.0
 40
13.5464205191413
100
AcDbArc
 50
164.411006601
 51
166.5837803061004
  0
ARC
  5
124
330
2
100
AcDbEntity
  8
0
100
AcDbCircle
 10
85.50080149376203
 20
72.85733996427302
 30
0.0
 40
13.23806166534711
100
AcDbArc
 50
166.5810521111996
 51
168.7874416907001
  0
ARC
  5
125
330
2
100
AcDbEntity
  8
0
100
AcDbCircle
 10
84.9693394585984
 20
72.96203815768305
 30
0.0
 40
12.69638540052574
100
AcDbArc
 50
168.7845414386003
 51
171.0532534601999
  0
ARC
  5
126
330
2
100
AcDbEntity
  8
0
100
AcDbCircle
 10
84.22901119525368
 20
73.07790474485628
 30
0.0
 40
11.94704534587938
100
AcDbArc
 50
171.0500100229004
 51
173.4126511902003
  0
ARC
  5
127
330
2
100
AcDbEntity
  8
0
100
AcDbCircle
 10
83.31391169632672
 20
73.18285066608706
 30
0.0
 40
11.02594808196782
100
AcDbArc
 50
173.4088831096998
 51
175.9013683304003
  0
ARC
  5
128
330
2
100
AcDbEntity
  8
0
100
AcDbCircle
 10
82.26613147301049
 20
73.25715179106786
 30
0.0
 40
9.975537026580838
100
AcDbArc
 50
175.8969023710997
 51
178.5614640809996
  0
ARC
  5
129
330
2
100
AcDbEntity
  8
0
100
AcDbCircle
 10
81.13379286236536
 20
73.28475028635955
 30
0.0
 40
8.842862485669572
100
AcDbArc
 50
178.5560405318998
 51
181.4439594681002
  0
ARC
  5
12A
330
2
100
AcDbEntity
  8
0
100
AcDbCircle
 10
79.96778134581595
 20
73.25446686477675
 30
0.0
 40
7.676458170124458
100
AcDbArc
 50
181.4373071667996
 51
184.6104678455001
  0
ARC
  5
12B
330
2
100
AcDbEntity
  8
0
100
AcDbCircle
 10
78.81855109680651
 20
73.16084637797354
 30
0.0
 40
6.523421345795752
100
AcDbArc
 50
184.6022008867996
 51
188.1391256771998
  0
ARC
  5
12C
330
2
100
AcDbEntity
  8
0
100
AcDbCircle
 10
77.7326034123717
 20
73.00455006234654
 30
0.0
 40
5.426284269013325
100
AcDbArc
 50
188.1288150921003
 51
192.1278446639997
  0
ARC
  5
12D
330
2
100
AcDbEntity
  8
0
100
AcDbCircle
 10
76.74998610182868
 20
72.79239266807033
 30
0.0
 40
4.421024919987475
100
AcDbArc
 50
192.1151365256004
 51
196.6996197821003
  0
ARC
  5
12E
330
2
100
AcDbEntity
  8
0
100
AcDbCircle
 10
75.90143535105202
 20
72.53683810847431
 30
0.0
 40
3.534827763494737
100
AcDbArc
 50
196.6843541811996
 51
202.0064711788995
  0
ARC
  5
12F
330
2
100
AcDbEntity
  8
0
100
AcDbCircle
 10
75.20703252642272
 20
72.25528955684109
 30
0.0
 40
2.785518758100166
100
AcDbArc
 50
201.9893007592
 51
208.2279158290003
  0
ARC
  5
130
330
2
100
AcDbEntity
  8
0
100
AcDbCircle
 10
74.67462641680348
 20
71.96878121091455
 30
0.0
 40
2.180917392660887
100
AcDbArc
 50
208.2116983748003
 51
215.5563073887001
  0
ARC
  5
131
330
2
100
AcDbEntity
  8
0
100
AcDbCircle
 10
74.29994242355184
 20
71.70063395458772
 30
0.0
 40
1.720166968333332
100
AcDbArc
 50
215.5473162110997
 51
224.1516725973999
  0
SPLINE
  5
132
330
2
100
AcDbEntity
  8
0
100
AcDbSpline
210
0.0
220
0.0
230
1.0
 70
     8
 71
     3
 72
     9
 73
     5
 74
     0
 42
0.000000001
 43
0.0000000001
 40
0.0
 40
0.0
 40
0.0
 40
0.0
 40
0.3496796417535199
 40
1.0
 40
1.0
 40
1.0
 40
1.0
 10
73.24324571308969
 20
77.7805431466448
 30
0.0
 10
73.24568065186077
 20
77.78138639226664
 30
0.0
 10
73.25264399338934
 20
77.78379787272239
 30
0.0
 10
73.24405313536118
 20
77.79271912652082
 30
0.0
 10
73.23846632549063
 20
77.79852079948703
 30
0.0
  0
LINE
  5
133
330
2
100
AcDbEntity
  8
0
100
AcDbLine
 10
74.88702155987716
 20
80.75704239149469
 30
0.0
 11
74.89300302113554
 21
80.76344556564363
 31
0.0
  0
SPLINE
  5
134
330
2
100
AcDbEntity
  8
0
100
AcDbSpline
210
0.0
220
0.0
230
1.0
 70
     8
 71
     3
 72
    10
 73
     6
 74
     0
 42
0.000000001
 43
0.0000000001
 40
0.0
 40
0.0
 40
0.0
 40
0.0
 40
0.5
 40
0.5
 40
1.0
 40
1.0
 40
1.0
 40
1.0
 10
44.97635205117734
 20
98.13023835652375
 30
0.0
 10
44.96084004883854
 20
98.13471628588674
 30
0.0
 10
44.94876945404207
 20
98.14209490250393
 30
0.0
 10
44.93736545533053
 20
98.15907479724526
 30
0.0
 10
44.93808276862341
 20
98.16860056037903
 30
0.0
 10
44.94504544201115
 20
98.17685208753125
 30
0.0
  0
SPLINE
  5
135
330
2
100
AcDbEntity
  8
0
100
AcDbSpline
210
0.0
220
0.0
230
1.0
 70
     8
 71
     3
 72
    12
 73
     8
 74
     0
 42
0.000000001
 43
0.0000000001
 40
0.0
 40
0.0
 40
0.0
 40
0.0
 40
0.2298651975538158
 40
0.5084900377558475
 40
0.6676872997159236
 40
0.8400515840248401
 40
1.0
 40
1.0
 40
1.0
 40
1.0
 10
47.48283992059623
 20
107.0431713054574
 30
0.0
 10
47.40671928646105
 20
107.0558228468381
 30
0.0
 10
47.23833109835211
 20
107.0838096096138
 30
0.0
 10
47.0200250459537
 20
107.0101303536974
 30
0.0
 10
46.85270290817507
 20
106.892482941864
 30
0.0
 10
46.73624666792298
 20
106.7690699169845
 30
0.0
 10
46.68192622224182
 20
106.6649256942267
 30
0.0
 10
46.65578075974718
 20
106.6147991012652
 30
0.0
  0
SPLINE
  5
136
330
2
100
AcDbEntity
  8
0
100
AcDbSpline
210
0.0
220
0.0
230
1.0
 70
     8
 71
     3
 72
     8
 73
     4
 74
     0
 42
0.000000001
 43
0.0000000001
 40
0.0
 40
0.0
 40
0.0
 40
0.0
 40
1.0
 40
1.0
 40
1.0
 40
1.0
 10
73.23846658987907
 20
69.81227750558241
 30
0.0
 10
73.23655677349015
 20
69.80707799459262
 30
0.0
 10
73.23581582246564
 20
69.80153505358231
 30
0.0
 10
73.23581582241795
 20
69.79563389149181
 30
0.0
  0
LINE
  5
137
330
2
100
AcDbEntity
  8
0
100
AcDbLine
 10
75.89465162838124
 20
81.66799305052485
 30
0.0
 11
75.89867363080142
 21
81.67051768491225
 31
0.0
  0
SPLINE
  5
138
330
2
100
AcDbEntity
  8
0
100
AcDbSpline
210
0.0
220
0.0
230
1.0
 70
     8
 71
     3
 72
    14
 73
    10
 74
     0
 42
0.000000001
 43
0.0000000001
 40
0.0
 40
0.0
 40
0.0
 40
0.0
 40
0.1267278189429468
 40
0.2508548530594155
 40
0.3751338683636556
 40
0.502307849519708
 40
0.6906638245039171
 40
0.8547383780562768
 40
1.0
 40
1.0
 40
1.0
 40
1.0
 10
76.37848039028407
 20
81.51041440055916
 30
0.0
 10
76.37596618539319
 20
81.5116990414347
 30
0.0
 10
76.37098937364246
 20
81.51424195901013
 30
0.0
 10
76.36565318160709
 20
81.51785035856569
 30
0.0
 10
76.36205588752182
 20
81.52120909571094
 30
0.0
 10
76.36023959087268
 20
81.52471703730761
 30
0.0
 10
76.36038962998464
 20
81.52807108897597
 30
0.0
 10
76.36277185615594
 20
81.53103525533383
 30
0.0
 10
76.36715627107225
 20
81.53204350827774
 30
0.0
 10
76.36921515481254
 20
81.53251697523559
 30
0.0
  0
SPLINE
  5
139
330
2
100
AcDbEntity
  8
0
100
AcDbSpline
210
0.0
220
0.0
230
1.0
 70
     8
 71
     3
 72
     8
 73
     4
 74
     0
 42
0.000000001
 43
0.0000000001
 40
0.0
 40
0.0
 40
0.0
 40
0.0
 40
1.0
 40
1.0
 40
1.0
 40
1.0
 10
76.49807870081409
 20
81.45150691046602
 30
0.0
 10
76.45823972526327
 20
81.47134530096108
 30
0.0
 10
76.41837413888942
 20
81.49098139348792
 30
0.0
 10
76.37848039028407
 20
81.51041440055916
 30
0.0
  0
SPLINE
  5
13A
330
2
100
AcDbEntity
  8
0
100
AcDbSpline
210
0.0
220
0.0
230
1.0
 70
     8
 71
     3
 72
    14
 73
    10
 74
     0
 42
0.000000001
 43
0.0000000001
 40
0.0
 40
0.0
 40
0.0
 40
0.0
 40
0.0858463609754101
 40
0.1773199468339967
 40
0.2758495712842396
 40
0.3825809156035132
 40
0.4984164275893657
 40
0.7453704456996144
 40
1.0
 40
1.0
 40
1.0
 40
1.0
 10
76.36921527993848
 20
81.53251699378778
 30
0.0
 10
76.37075629733178
 20
81.53268878889839
 30
0.0
 10
76.37393934573529
 20
81.53304364028114
 30
0.0
 10
76.38027625430215
 20
81.53308900348788
 30
0.0
 10
76.38784931589018
 20
81.53280862431952
 30
0.0
 10
76.39681092026302
 20
81.53214854419834
 30
0.0
 10
76.41055037158557
 20
81.53082770760127
 30
0.0
 10
76.43081852719999
 20
81.52799260815688
 30
0.0
 10
76.4484971785489
 20
81.52411828442017
 30
0.0
 10
76.45747176894861
 20
81.5221514789254
 30
0.0
  0
SPLINE
  5
13B
330
2
100
AcDbEntity
  8
0
100
AcDbSpline
210
0.0
220
0.0
230
1.0
 70
     8
 71
     3
 72
     8
 73
     4
 74
     0
 42
0.000000001
 43
0.0000000001
 40
0.0
 40
0.0
 40
0.0
 40
0.0
 40
1.0
 40
1.0
 40
1.0
 40
1.0
 10
76.45747176921131
 20
81.52215148006815
 30
0.0
 10
76.52406750060333
 20
81.50667480024607
 30
0.0
 10
76.59058901092859
 20
81.4909994611685
 30
0.0
 10
76.65703603958127
 20
81.47512584598205
 30
0.0
  0
SPLINE
  5
13C
330
2
100
AcDbEntity
  8
0
100
AcDbSpline
210
0.0
220
0.0
230
1.0
 70
     8
 71
     3
 72
    17
 73
    13
 74
     0
 42
0.000000001
 43
0.0000000001
 40
0.0
 40
0.0
 40
0.0
 40
0.0
 40
0.0637795604394911
 40
0.126342671983019
 40
0.189031609526969
 40
0.2531807017913211
 40
0.3774809380013325
 40
0.5012692147583071
 40
0.6247232476695618
 40
0.748845154165199
 40
0.8746437078640287
 40
1.0
 40
1.0
 40
1.0
 40
1.0
 10
76.6570360399287
 20
81.47512584745031
 30
0.0
 10
76.66143583662196
 20
81.47410324939643
 30
0.0
 10
76.67015151397336
 20
81.47207755700218
 30
0.0
 10
76.68304787847225
 20
81.46946771161317
 30
0.0
 10
76.69550456100586
 20
81.46724217434124
 30
0.0
 10
76.71105884424875
 20
81.46487873974542
 30
0.0
 10
76.72836009032835
 20
81.46297477971653
 30
0.0
 10
76.74333758735392
 20
81.46276816043924
 30
0.0
 10
76.75219334459654
 20
81.46439651451375
 30
0.0
 10
76.75342107790044
 20
81.46798189114837
 30
0.0
 10
76.7481991700497
 20
81.47302312552801
 30
0.0
 10
76.73877200537706
 20
81.47742435227259
 30
0.0
 10
76.73406672324404
 20
81.4796210905585
 30
0.0
  0
SPLINE
  5
13D
330
2
100
AcDbEntity
  8
0
100
AcDbSpline
210
0.0
220
0.0
230
1.0
 70
     8
 71
     3
 72
    21
 73
    17
 74
     0
 42
0.000000001
 43
0.0000000001
 40
0.0
 40
0.0
 40
0.0
 40
0.0
 40
0.125
 40
0.125
 40
0.25
 40
0.25
 40
0.375
 40
0.375
 40
0.5
 40
0.625
 40
0.625
 40
0.75
 40
0.75
 40
0.875
 40
0.875
 40
1.0
 40
1.0
 40
1.0
 40
1.0
 10
73.23846658987907
 20
69.81227750558241
 30
0.0
 10
73.2944105584329
 20
69.76482937597089
 30
0.0
 10
73.35352469429057
 20
69.72176574313275
 30
0.0
 10
73.48056775797568
 20
69.64608175623883
 30
0.0
 10
73.54899225213515
 20
69.6133137088037
 30
0.0
 10
73.69316595913005
 20
69.56107672498595
 30
0.0
 10
73.76868687443155
 20
69.54187214417271
 30
0.0
 10
73.92224474109847
 20
69.51962538843608
 30
0.0
 10
74.07824070130167
 20
69.51277900307085
 30
0.0
 10
74.22962924821206
 20
69.53378217065864
 30
0.0
 10
74.37671119544586
 20
69.56515905206842
 30
0.0
 10
74.44784940557156
 20
69.58590273606216
 30
0.0
 10
74.58581204233905
 20
69.63526566419318
 30
0.0
 10
74.65283602082113
 20
69.66395065490004
 30
0.0
 10
74.78381042416794
 20
69.7275538325282
 30
0.0
 10
74.84761120900504
 20
69.76247213993218
 30
0.0
 10
74.90939793995941
 20
69.79962083980518
 30
0.0
  0
SPLINE
  5
13E
330
2
100
AcDbEntity
  8
0
100
AcDbSpline
210
0.0
220
0.0
230
1.0
 70
     8
 71
     3
 72
    14
 73
    10
 74
     0
 42
0.000000001
 43
0.0000000001
 40
0.0
 40
0.0
 40
0.0
 40
0.0
 40
0.1267278189781574
 40
0.2508548531032924
 40
0.3751338683890335
 40
0.5023078495005416
 40
0.6906638245445521
 40
0.8547383781043546
 40
1.0
 40
1.0
 40
1.0
 40
1.0
 10
76.61313992857663
 20
81.53123576107402
 30
0.0
 10
76.61059271035168
 20
81.53234495475992
 30
0.0
 10
76.60555054945277
 20
81.53454057858878
 30
0.0
 10
76.6000767949233
 20
81.53744995912198
 30
0.0
 10
76.59631495411807
 20
81.53999140808638
 30
0.0
 10
76.59427429986277
 20
81.54240712207128
 30
0.0
 10
76.59415632889377
 20
81.54447693663662
 30
0.0
 10
76.59623681288445
 20
81.54601651027212
 30
0.0
 10
76.60041785912824
 20
81.54608764635286
 30
0.0
 10
76.60238124267909
 20
81.54612105124785
 30
0.0
  0
SPLINE
  5
13F
330
2
100
AcDbEntity
  8
0
100
AcDbSpline
210
0.0
220
0.0
230
1.0
 70
     8
 71
     3
 72
    14
 73
    10
 74
     0
 42
0.000000001
 43
0.0000000001
 40
0.0
 40
0.0
 40
0.0
 40
0.0
 40
0.0858463609758585
 40
0.1773199468384206
 40
0.275849571295771
 40
0.3825809156248371
 40
0.4984164276227978
 40
0.7453704456819219
 40
1.0
 40
1.0
 40
1.0
 40
1.0
 10
76.60238136281396
 20
81.54612104694347
 30
0.0
 10
76.60386543160772
 20
81.54603289679
 30
0.0
 10
76.60693084983424
 20
81.54585081824476
 30
0.0
 10
76.61308592657587
 20
81.54507778350613
 30
0.0
 10
76.62046784514441
 20
81.54394507555762
 30
0.0
 10
76.6292287994396
 20
81.54239932782385
 30
0.0
 10
76.64268384138154
 20
81.53983366826905
 30
0.0
 10
76.66260272379313
 20
81.53549847759073
 30
0.0
 10
76.68009769770762
 20
81.53087915401805
 30
0.0
 10
76.68897904401962
 20
81.52853414838528
 30
0.0
  0
SPLINE
  5
140
330
2
100
AcDbEntity
  8
0
100
AcDbSpline
210
0.0
220
0.0
230
1.0
 70
     8
 71
     3
 72
     8
 73
     4
 74
     0
 42
0.000000001
 43
0.0000000001
 40
0.0
 40
0.0
 40
0.0
 40
0.0
 40
1.0
 40
1.0
 40
1.0
 40
1.0
 10
76.73406672324404
 20
81.4796210905585
 30
0.0
 10
76.69379382691622
 20
81.49703147835678
 30
0.0
 10
76.65348540120098
 20
81.51423654388189
 30
0.0
 10
76.61313992857663
 20
81.53123576107402
 30
0.0
  0
LINE
  5
141
330
2
100
AcDbEntity
  8
0
100
AcDbLine
 10
76.68897903642542
 20
81.52853408179323
 30
0.0
 11
76.73721802492574
 21
81.51534391898259
 31
0.0
  0
SPLINE
  5
142
330
2
100
AcDbEntity
  8
0
100
AcDbSpline
210
0.0
220
0.0
230
1.0
 70
     8
 71
     3
 72
    14
 73
    10
 74
     0
 42
0.000000001
 43
0.0000000001
 40
0.0
 40
0.0
 40
0.0
 40
0.0
 40
0.1267278190084479
 40
0.2508548531388828
 40
0.3751338684322435
 40
0.502307849580706
 40
0.6906638244144653
 40
0.8547383779265098
 40
1.0
 40
1.0
 40
1.0
 40
1.0
 10
76.83772827149605
 20
81.50860552115188
 30
0.0
 10
76.83514077580548
 20
81.50953851920753
 30
0.0
 10
76.83001888657418
 20
81.5113853677689
 30
0.0
 10
76.82437891347101
 20
81.51359388523333
 30
0.0
 10
76.82041919725017
 20
81.51531658995912
 30
0.0
 10
76.8181098559609
 20
81.51663897139723
 30
0.0
 10
76.81767195209923
 20
81.51742404432816
 30
0.0
 10
76.81939330685875
 20
81.51753930356482
 30
0.0
 10
76.82333346561015
 20
81.51667442641787
 30
0.0
 10
76.82518373045673
 20
81.51626828750766
 30
0.0
  0
SPLINE
  5
143
330
2
100
AcDbEntity
  8
0
100
AcDbSpline
210
0.0
220
0.0
230
1.0
 70
     8
 71
     3
 72
    14
 73
    10
 74
     0
 42
0.000000001
 43
0.0000000001
 40
0.0
 40
0.0
 40
0.0
 40
0.0
 40
0.0858463608097859
 40
0.1773199466119451
 40
0.2758495711002
 40
0.382580915536551
 40
0.4984164277045221
 40
0.745370445672018
 40
1.0
 40
1.0
 40
1.0
 40
1.0
 10
76.82518384468989
 20
81.51626826037894
 30
0.0
 10
76.82660058300701
 20
81.51592057233832
 30
0.0
 10
76.82952692677233
 20
81.51520240532246
 30
0.0
 10
76.83546760617523
 20
81.51361273409539
 30
0.0
 10
76.8426245500196
 20
81.51162986631074
 30
0.0
 10
76.85114979540995
 20
81.50920108789977
 30
0.0
 10
76.86427126542475
 20
81.50539476298748
 30
0.0
 10
76.88378194055051
 20
81.49956572567051
 30
0.0
 10
76.90106445222278
 20
81.49420643124431
 30
0.0
 10
76.9098379418023
 20
81.49148577844265
 30
0.0
  0
LINE
  5
144
330
2
100
AcDbEntity
  8
0
100
AcDbLine
 10
76.90983786466452
 20
81.49148579492472
 30
0.0
 11
76.91579991791201
 21
81.48961653073817
 31
0.0
  0
LINE
  5
145
330
2
100
AcDbEntity
  8
0
100
AcDbLine
 10
76.97955709734933
 20
81.46962472243082
 30
0.0
 11
76.98526759101444
 21
81.46783421110992
 31
0.0
  0
LINE
  5
146
330
2
100
AcDbEntity
  8
0
100
AcDbLine
 10
76.90762443613738
 20
81.48335123677357
 30
0.0
 11
76.83772826276421
 21
81.50860567599751
 31
0.0
  0
SPLINE
  5
147
330
2
100
AcDbEntity
  8
0
100
AcDbSpline
210
0.0
220
0.0
230
1.0
 70
     8
 71
     3
 72
    34
 73
    30
 74
     0
 42
0.000000001
 43
0.0000000001
 40
0.0
 40
0.0
 40
0.0
 40
0.0
 40
0.0174755507831461
 40
0.0348812368024119
 40
0.0522183163252065
 40
0.0694875415754831
 40
0.0866886897989425
 40
0.1038214351867052
 40
0.1208856423561216
 40
0.1378813750218372
 40
0.1548086924910279
 40
0.1716676204781317
 40
0.1884581320094535
 40
0.2051801860148833
 40
0.2218337733114491
 40
0.2384188766397803
 40
0.2549354586300103
 40
0.3904718448684393
 40
0.5088049149894026
 40
0.6370093481823755
 40
0.7592713368699022
 40
0.7886051884513283
 40
0.8181591169899515
 40
0.847931320665697
 40
0.877919945344653
 40
0.9081230534108383
 40
0.9385387963428771
 40
0.9691647379545456
 40
1.0
 40
1.0
 40
1.0
 40
1.0
 10
69.03716229553296
 20
52.98916943958905
 30
0.0
 10
69.05787438671959
 20
52.98336397541074
 30
0.0
 10
69.09921576510121
 20
52.9717762564735
 30
0.0
 10
69.16106805661965
 20
52.95654422005574
 30
0.0
 10
69.22259430123813
 20
52.9429173490297
 30
0.0
 10
69.28375566304234
 20
52.93103396435025
 30
0.0
 10
69.34451190299054
 20
52.92084167512854
 30
0.0
 10
69.40482271710639
 20
52.91234011871672
 30
0.0
 10
69.46464916931387
 20
52.90551344122242
 30
0.0
 10
69.52395431509192
 20
52.90034588342605
 30
0.0
 10
69.5827020555802
 20
52.89682217095606
 30
0.0
 10
69.64085745880649
 20
52.89492529312114
 30
0.0
 10
69.69838669440282
 20
52.89463656193175
 30
0.0
 10
69.75525667659567
 20
52.89593874806072
 30
0.0
 10
69.81143471045339
 20
52.89881157633075
 30
0.0
 10
69.86689347573665
 20
52.90323536379673
 30
0.0
 10
70.05305039990242
 20
52.92348524492356
 30
0.0
 10
70.33842559621937
 20
52.99505355393838
 30
0.0
 10
70.69152464211021
 20
53.18416064784603
 30
0.0
 10
70.9748995274305
 20
53.44366730211592
 30
0.0
 10
71.13690404430418
 20
53.69348902852181
 30
0.0
 10
71.21816824039666
 20
53.87227922741963
 30
0.0
 10
71.25336331762895
 20
53.9629456712701
 30
0.0
 10
71.28403483831772
 20
54.05728250263823
 30
0.0
 10
71.30995557769228
 20
54.15515734781105
 30
0.0
 10
71.33094842269577
 20
54.2563949791162
 30
0.0
 10
71.34668116531983
 20
54.36085395454484
 30
0.0
 10
71.35747481743249
 20
54.46817002982634
 30
0.0
 10
71.35997782689028
 20
54.5416177582216
 30
0.0
 10
71.36123359390996
 20
54.57846669408594
 30
0.0
  0
SPLINE
  5
148
330
2
100
AcDbEntity
  8
0
100
AcDbSpline
210
0.0
220
0.0
230
1.0
 70
     8
 71
     3
 72
    22
 73
    18
 74
     0
 42
0.000000001
 43
0.0000000001
 40
0.0
 40
0.0
 40
0.0
 40
0.0
 40
0.0560479305586691
 40
0.112500072541904
 40
0.1693410776708839
 40
0.2265441902704017
 40
0.2840713368598937
 40
0.3418733765560554
 40
0.3998905138376317
 40
0.4580528746268419
 40
0.5162812457278374
 40
0.6438416671474416
 40
0.7735970217895176
 40
0.8345241170000095
 40
0.892586001203789
 40
0.9477501217498828
 40
1.0
 40
1.0
 40
1.0
 40
1.0
 10
72.889753104009
 20
49.49614968569342
 30
0.0
 10
72.89778611163157
 20
49.52005005747592
 30
0.0
 10
72.91391006003192
 20
49.56802316785679
 30
0.0
 10
72.93932873575181
 20
49.64166042432749
 30
0.0
 10
72.96540652147715
 20
49.71702343633233
 30
0.0
 10
72.99195280526487
 20
49.79432310414711
 30
0.0
 10
73.01863230335431
 20
49.87363228085532
 30
0.0
 10
73.04513586565469
 20
49.95503365570265
 30
0.0
 10
73.07113200155626
 20
50.03857431027125
 30
0.0
 10
73.09630516679317
 20
50.12427839473994
 30
0.0
 10
73.12979029272972
 20
50.24701710600403
 30
0.0
 10
73.16927360531204
 20
50.4120460447597
 30
0.0
 10
73.20070182510588
 20
50.58790597430661
 30
0.0
 10
73.21850844091517
 20
50.7307835973883
 30
0.0
 10
73.22775832622244
 20
50.83329948556105
 30
0.0
 10
73.23376608958819
 20
50.93280743157169
 30
0.0
 10
73.23514504679062
 20
50.99922371191279
 30
0.0
 10
73.2358158191922
 20
51.03153088416727
 30
0.0
  0
LINE
  5
149
330
2
100
AcDbEntity
  8
0
100
AcDbLine
 10
69.03716271288942
 20
52.98916868978469
 30
0.0
 11
47.22878145085568
 21
59.28470608594185
 31
0.0
  0
LWPOLYLINE
  5
14A
330
2
100
AcDbEntity
  8
0
100
AcDbPolyline
 90
        3
 70
   128
 43
0.0
 10
74.51289426023601
 20
54.68484861612676
 10
74.51323088889998
 20
54.68483731575882
 10
74.51520021681338
 20
54.68525131693769
  0
SPLINE
  5
14B
330
2
100
AcDbEntity
  8
0
100
AcDbSpline
210
0.0
220
0.0
230
1.0
 70
     8
 71
     3
 72
    10
 73
     6
 74
     0
 42
0.000000001
 43
0.0000000001
 40
0.0
 40
0.0
 40
0.0
 40
0.0
 40
0.4816479020759895
 40
0.8981361002090608
 40
1.0
 40
1.0
 40
1.0
 40
1.0
 10
72.88965115117227
 20
49.49735058218635
 30
0.0
 10
72.86955153725386
 20
49.44092291644869
 30
0.0
 10
72.83207148433013
 20
49.33570139792625
 30
0.0
 10
72.81056260490988
 20
49.2750454522357
 30
0.0
 10
72.79241336413647
 20
49.2844553319022
 30
0.0
 10
72.78884676828235
 20
49.286304513266
 30
0.0
  0
SPLINE
  5
14C
330
2
100
AcDbEntity
  8
0
100
AcDbSpline
210
0.0
220
0.0
230
1.0
 70
     8
 71
     3
 72
    32
 73
    28
 74
     0
 42
0.000000001
 43
0.0000000001
 40
0.0
 40
0.0
 40
0.0
 40
0.0
 40
0.0167375793691234
 40
0.0337717743056316
 40
0.0511031134501554
 40
0.0687318665368283
 40
0.0866578736605339
 40
0.1048809312724897
 40
0.123400883100173
 40
0.1422176406363534
 40
0.1613310260819857
 40
0.1807407273139991
 40
0.2004465358733922
 40
0.2204480688563549
 40
0.24074506932674
 40
0.3566786370139546
 40
0.4912084992915979
 40
0.6109909620590539
 40
0.7450809601294699
 40
0.7762761223333648
 40
0.8076628294697789
 40
0.839240955371388
 40
0.8710103054312197
 40
0.902971025394642
 40
0.9351231662232327
 40
0.9674652276167831
 40
1.0
 40
1.0
 40
1.0
 40
1.0
 10
44.94504544200975
 20
62.20416336431746
 30
0.0
 10
44.94496156866808
 20
62.18398761785011
 30
0.0
 10
44.94479233562048
 20
62.1432785797559
 30
0.0
 10
44.94676220076766
 20
62.08113052593452
 30
0.0
 10
44.95044469702299
 20
62.01754911082208
 30
0.0
 10
44.9560831919324
 20
61.95252608667979
 30
0.0
 10
44.96371427159457
 20
61.88611462565227
 30
0.0
 10
44.97343021899465
 20
61.81835886543519
 30
0.0
 10
44.98530516223545
 20
61.74931198349984
 30
0.0
 10
44.99941550247996
 20
61.67903156625033
 30
0.0
 10
45.01583403884637
 20
61.60758157551153
 30
0.0
 10
45.03463095843724
 20
61.53503137622979
 30
0.0
 10
45.05587342238519
 20
61.46145743633258
 30
0.0
 10
45.07962583426476
 20
61.38693721468087
 30
0.0
 10
45.14714677795541
 20
61.1935639451887
 30
0.0
 10
45.29718062334711
 20
60.8626629773894
 30
0.0
 10
45.57559962509495
 20
60.43795145780485
 30
0.0
 10
45.93178830818885
 20
60.0396576638035
 30
0.0
 10
46.23134202862383
 20
59.79126615484151
 30
0.0
 10
46.44875842141303
 20
59.64466047571981
 30
0.0
 10
46.55469696251574
 20
59.5789741542449
 30
0.0
 10
46.66286683240369
 20
59.51763000616125
 30
0.0
 10
46.77305187204703
 20
59.46085262437597
 30
0.0
 10
46.88501237578927
 20
59.4088296582202
 30
0.0
 10
46.99849993455098
 20
59.36191803904192
 30
0.0
 10
47.11325201420715
 20
59.31979747819935
 30
0.0
 10
47.19019573207279
 20
59.2964266961648
 30
0.0
 10
47.22878186831505
 20
59.28470659471027
 30
0.0
  0
SPLINE
  5
14D
330
2
100
AcDbEntity
  8
0
100
AcDbSpline
210
0.0
220
0.0
230
1.0
 70
     8
 71
     3
 72
     9
 73
     5
 74
     0
 42
0.000000001
 43
0.0000000001
 40
0.0
 40
0.0
 40
0.0
 40
0.0
 40
0.5649051754160121
 40
1.0
 40
1.0
 40
1.0
 40
1.0
 10
76.52209980393408
 20
81.41307681685733
 30
0.0
 10
76.52370741196176
 20
81.41279444941593
 30
0.0
 10
76.52655321351858
 20
81.41229460014278
 30
0.0
 10
76.52940263655975
 20
81.41184260556624
 30
0.0
 10
76.53064240577797
 20
81.41164594506522
 30
0.0
  0
SPLINE
  5
14E
330
2
100
AcDbEntity
  8
0
100
AcDbSpline
210
0.0
220
0.0
230
1.0
 70
     8
 71
     3
 72
    15
 73
    11
 74
     0
 42
0.000000001
 43
0.0000000001
 40
0.0
 40
0.0
 40
0.0
 40
0.0
 40
0.1250040832255682
 40
0.2505606659317947
 40
0.3752858570282442
 40
0.4997321570248854
 40
0.6242961440912214
 40
0.7490411467422714
 40
0.8748189631617968
 40
1.0
 40
1.0
 40
1.0
 40
1.0
 10
76.53064240577797
 20
81.41164594506522
 30
0.0
 10
76.53813378791963
 20
81.41060066374869
 30
0.0
 10
76.55314966299946
 20
81.40850548112744
 30
0.0
 10
76.57379795455426
 20
81.4073287305351
 30
0.0
 10
76.59150293080045
 20
81.40754710900713
 30
0.0
 10
76.60467174984365
 20
81.40940344214392
 30
0.0
 10
76.61293359664393
 20
81.41258556040332
 30
0.0
 10
76.61510654063568
 20
81.41704783400705
 30
0.0
 10
76.61205330304537
 20
81.42237111637554
 30
0.0
 10
76.60516028903484
 20
81.42638866388695
 30
0.0
 10
76.60172197781534
 20
81.42839266078322
 30
0.0
  0
SPLINE
  5
14F
330
2
100
AcDbEntity
  8
0
100
AcDbSpline
210
0.0
220
0.0
230
1.0
 70
     8
 71
     3
 72
     9
 73
     5
 74
     0
 42
0.000000001
 43
0.0000000001
 40
0.0
 40
0.0
 40
0.0
 40
0.0
 40
0.5549550649505761
 40
1.0
 40
1.0
 40
1.0
 40
1.0
 10
76.60172197781534
 20
81.42839266078322
 30
0.0
 10
76.60088097594695
 20
81.42881922956631
 30
0.0
 10
76.59936553456887
 20
81.42958788420184
 30
0.0
 10
76.5976765353401
 20
81.43036181067776
 30
0.0
 10
76.59692485478808
 20
81.43070624273597
 30
0.0
  0
SPLINE
  5
150
330
2
100
AcDbEntity
  8
0
100
AcDbSpline
210
0.0
220
0.0
230
1.0
 70
     8
 71
     3
 72
     9
 73
     5
 74
     0
 42
0.000000001
 43
0.0000000001
 40
0.0
 40
0.0
 40
0.0
 40
0.0
 40
0.5600398620602788
 40
1.0
 40
1.0
 40
1.0
 40
1.0
 10
76.59692485478808
 20
81.43070624273597
 30
0.0
 10
76.57455085143451
 20
81.44078854442637
 30
0.0
 10
76.53460011780072
 20
81.45879137310584
 30
0.0
 10
76.49459907292555
 20
81.47650440407286
 30
0.0
 10
76.47700020770447
 20
81.48429743162047
 30
0.0
  0
SPLINE
  5
151
330
2
100
AcDbEntity
  8
0
100
AcDbSpline
210
0.0
220
0.0
230
1.0
 70
     8
 71
     3
 72
    15
 73
    11
 74
     0
 42
0.000000001
 43
0.0000000001
 40
0.0
 40
0.0
 40
0.0
 40
0.0
 40
0.1227846527193539
 40
0.2468174320349524
 40
0.3732861622625334
 40
0.4991696736446117
 40
0.625163330892104
 40
0.7519311461230513
 40
0.8766384570402813
 40
1.0
 40
1.0
 40
1.0
 40
1.0
 10
76.47700020770447
 20
81.48429743162047
 30
0.0
 10
76.47188904195189
 20
81.48679712303524
 30
0.0
 10
76.46161475458916
 20
81.49182191564738
 30
0.0
 10
76.45590503844059
 20
81.49838160478667
 30
0.0
 10
76.45731646686101
 20
81.5035848163837
 30
0.0
 10
76.46692880005068
 20
81.50687270159618
 30
0.0
 10
76.48461038195583
 20
81.50768122522645
 30
0.0
 10
76.50794145244066
 20
81.50617145019174
 30
0.0
 10
76.53493738696281
 20
81.50276167107568
 30
0.0
 10
76.55404538322699
 20
81.49901630699471
 30
0.0
 10
76.56354755113387
 20
81.4971537842123
 30
0.0
  0
LINE
  5
152
330
2
100
AcDbEntity
  8
0
100
AcDbLine
 10
76.5635475511149
 20
81.49715378419132
 30
0.0
 11
76.761196322403
 21
81.455114899159
 31
0.0
  0
SPLINE
  5
153
330
2
100
AcDbEntity
  8
0
100
AcDbSpline
210
0.0
220
0.0
230
1.0
 70
     8
 71
     3
 72
     9
 73
     5
 74
     0
 42
0.000000001
 43
0.0000000001
 40
0.0
 40
0.0
 40
0.0
 40
0.0
 40
0.5649330888816633
 40
1.0
 40
1.0
 40
1.0
 40
1.0
 10
76.7611963224362
 20
81.45511489911495
 30
0.0
 10
76.7627927851737
 20
81.45477377164331
 30
0.0
 10
76.76561871760518
 20
81.4541699346963
 30
0.0
 10
76.7684451321185
 20
81.45359764931187
 30
0.0
 10
76.76967481155049
 20
81.45334866687734
 30
0.0
  0
SPLINE
  5
154
330
2
100
AcDbEntity
  8
0
100
AcDbSpline
210
0.0
220
0.0
230
1.0
 70
     8
 71
     3
 72
    15
 73
    11
 74
     0
 42
0.000000001
 43
0.0000000001
 40
0.0
 40
0.0
 40
0.0
 40
0.0
 40
0.1250042007082458
 40
0.2505627971639322
 40
0.3752843618148006
 40
0.4997323698026323
 40
0.6242951854413187
 40
0.7490376472425221
 40
0.8748198994665678
 40
1.0
 40
1.0
 40
1.0
 40
1.0
 10
76.76967481155049
 20
81.45334866687734
 30
0.0
 10
76.7770962630994
 20
81.45193980914859
 30
0.0
 10
76.79197208046068
 20
81.44911584538304
 30
0.0
 10
76.81231472184376
 20
81.446364163957
 30
0.0
 10
76.8296721627604
 20
81.44480221326594
 30
0.0
 10
76.84246216584327
 20
81.44473914260721
 30
0.0
 10
76.85034206182189
 20
81.44600149004414
 30
0.0
 10
76.85215616106725
 20
81.4486798881275
 30
0.0
 10
76.84878431031757
 20
81.45242316247884
 30
0.0
 10
76.84174185412337
 20
81.45570956938568
 30
0.0
 10
76.8382290747574
 20
81.45734883018516
 30
0.0
  0
SPLINE
  5
155
330
2
100
AcDbEntity
  8
0
100
AcDbSpline
210
0.0
220
0.0
230
1.0
 70
     8
 71
     3
 72
     9
 73
     5
 74
     0
 42
0.000000001
 43
0.0000000001
 40
0.0
 40
0.0
 40
0.0
 40
0.0
 40
0.5549568217693207
 40
1.0
 40
1.0
 40
1.0
 40
1.0
 10
76.8382290747574
 20
81.45734883018516
 30
0.0
 10
76.8373745643186
 20
81.45770907150433
 30
0.0
 10
76.83583478607769
 20
81.45835820546425
 30
0.0
 10
76.83412456494673
 20
81.45902822812599
 30
0.0
 10
76.83336344269901
 20
81.45932641714093
 30
0.0
  0
SPLINE
  5
156
330
2
100
AcDbEntity
  8
0
100
AcDbSpline
210
0.0
220
0.0
230
1.0
 70
     8
 71
     3
 72
     9
 73
     5
 74
     0
 42
0.000000001
 43
0.0000000001
 40
0.0
 40
0.0
 40
0.0
 40
0.0
 40
0.5600397069461027
 40
1.0
 40
1.0
 40
1.0
 40
1.0
 10
76.83336344269901
 20
81.45932641714093
 30
0.0
 10
76.81071738800909
 20
81.46808373850904
 30
0.0
 10
76.77028087179579
 20
81.4837207036375
 30
0.0
 10
76.72978206829188
 20
81.49906620047675
 30
0.0
 10
76.71196420283397
 20
81.5058176097631
 30
0.0
  0
SPLINE
  5
157
330
2
100
AcDbEntity
  8
0
100
AcDbSpline
210
0.0
220
0.0
230
1.0
 70
     8
 71
     3
 72
    15
 73
    11
 74
     0
 42
0.000000001
 43
0.0000000001
 40
0.0
 40
0.0
 40
0.0
 40
0.0
 40
0.1227842998958701
 40
0.2468173822980445
 40
0.3732866557018605
 40
0.4991714638175311
 40
0.6251644241242831
 40
0.7519307061536134
 40
0.8766383828785249
 40
1.0
 40
1.0
 40
1.0
 40
1.0
 10
76.71196420283397
 20
81.5058176097631
 30
0.0
 10
76.70676917154458
 20
81.50792036966645
 30
0.0
 10
76.69632627269763
 20
81.51214727567468
 30
0.0
 10
76.69020430778593
 20
81.51676961546179
 30
0.0
 10
76.69113059790484
 20
81.51971456903771
 30
0.0
 10
76.70019993700089
 20
81.52050098837209
 30
0.0
 10
76.7173317232789
 20
81.51880537578943
 30
0.0
 10
76.74015935335052
 20
81.51502505861463
 30
0.0
 10
76.76671877989651
 20
81.50966558468091
 30
0.0
 10
76.78564575019007
 20
81.50511712072837
 30
0.0
 10
76.79505788510789
 20
81.50285522906136
 30
0.0
  0
LINE
  5
158
330
2
100
AcDbEntity
  8
0
100
AcDbLine
 10
76.79505788506185
 20
81.50285522906525
 30
0.0
 11
76.99107929214242
 21
81.45370778124364
 31
0.0
  0
SPLINE
  5
159
330
2
100
AcDbEntity
  8
0
100
AcDbSpline
210
0.0
220
0.0
230
1.0
 70
     8
 71
     3
 72
     9
 73
     5
 74
     0
 42
0.000000001
 43
0.0000000001
 40
0.0
 40
0.0
 40
0.0
 40
0.0
 40
0.5649261050818199
 40
1.0
 40
1.0
 40
1.0
 40
1.0
 10
76.99107929215299
 20
81.45370778125711
 30
0.0
 10
76.99266198987465
 20
81.45330755324273
 30
0.0
 10
76.99546359119458
 20
81.45259909241802
 30
0.0
 10
76.99826190658265
 20
81.4519061035579
 30
0.0
 10
76.9994793805578
 20
81.45160460219535
 30
0.0
  0
SPLINE
  5
15A
330
2
100
AcDbEntity
  8
0
100
AcDbSpline
210
0.0
220
0.0
230
1.0
 70
     8
 71
     3
 72
    15
 73
    11
 74
     0
 42
0.000000001
 43
0.0000000001
 40
0.0
 40
0.0
 40
0.0
 40
0.0
 40
0.1250046047125759
 40
0.2505602314014161
 40
0.3752857576516181
 40
0.4997332320179905
 40
0.6242980758860732
 40
0.7490420512988758
 40
0.8748196765955322
 40
1.0
 40
1.0
 40
1.0
 40
1.0
 10
76.9994793805578
 20
81.45160460219535
 30
0.0
 10
77.00681599392595
 20
81.44983133359888
 30
0.0
 10
77.0215215605526
 20
81.44627697981425
 30
0.0
 10
77.04149427067645
 20
81.44194379811422
 30
0.0
 10
77.05843045390537
 20
81.4385972398991
 30
0.0
 10
77.07076379461057
 20
81.43661037319928
 30
0.0
 10
77.07818290065623
 20
81.43594812641095
 30
0.0
 10
77.0795666298223
 20
81.43683960645477
 30
0.0
 10
77.07580943754283
 20
81.43900008897007
 30
0.0
 10
77.06858851069776
 20
81.44155431553388
 30
0.0
 10
77.0649866404944
 20
81.4428283891744
 30
0.0
  0
SPLINE
  5
15B
330
2
100
AcDbEntity
  8
0
100
AcDbSpline
210
0.0
220
0.0
230
1.0
 70
     8
 71
     3
 72
     9
 73
     5
 74
     0
 42
0.000000001
 43
0.0000000001
 40
0.0
 40
0.0
 40
0.0
 40
0.0
 40
0.5549676838968683
 40
1.0
 40
1.0
 40
1.0
 40
1.0
 10
77.0649866404944
 20
81.4428283891744
 30
0.0
 10
77.06411587548899
 20
81.44312189469296
 30
0.0
 10
77.06254683817269
 20
81.44365076425966
 30
0.0
 10
77.06081105665339
 20
81.44421702498426
 30
0.0
 10
77.06003857778359
 20
81.44446902930601
 30
0.0
  0
SPLINE
  5
15C
330
2
100
AcDbEntity
  8
0
100
AcDbSpline
210
0.0
220
0.0
230
1.0
 70
     8
 71
     3
 72
     9
 73
     5
 74
     0
 42
0.000000001
 43
0.0000000001
 40
0.0
 40
0.0
 40
0.0
 40
0.0
 40
0.8367111470790204
 40
1.0
 40
1.0
 40
1.0
 40
1.0
 10
77.06003857778359
 20
81.44446902930601
 30
0.0
 10
77.03707103570241
 20
81.45191520449143
 30
0.0
 10
77.00962124952304
 20
81.46081454234709
 30
0.0
 10
76.98212030463134
 20
81.46951873760583
 30
0.0
 10
76.97762970688578
 20
81.47094003566529
 30
0.0
  0
SPLINE
  5
15D
330
2
100
AcDbEntity
  8
0
100
AcDbSpline
210
0.0
220
0.0
230
1.0
 70
     8
 71
     3
 72
    15
 73
    11
 74
     0
 42
0.000000001
 43
0.0000000001
 40
0.0
 40
0.0
 40
0.0
 40
0.0
 40
0.1227837956892683
 40
0.2468184575210896
 40
0.3732865862144406
 40
0.4991707411594777
 40
0.6251643236981451
 40
0.7519314259689409
 40
0.8766384808125005
 40
1.0
 40
1.0
 40
1.0
 40
1.0
 10
76.93687752010828
 20
81.48385610108146
 30
0.0
 10
76.93158257859685
 20
81.48556189647949
 30
0.0
 10
76.92093875308896
 20
81.48899086515255
 30
0.0
 10
76.91432756902003
 20
81.49167826379668
 30
0.0
 10
76.91467716951598
 20
81.49236478415311
 30
0.0
 10
76.92310360979852
 20
81.49065371825825
 30
0.0
 10
76.93958559927025
 20
81.48645734478355
 30
0.0
 10
76.96181944311792
 20
81.48041187358449
 30
0.0
 10
76.9878654461144
 20
81.47310823313059
 30
0.0
 10
77.00657936569368
 20
81.46775850412549
 30
0.0
 10
77.01588557289179
 20
81.4650981482144
 30
0.0
  0
LINE
  5
15E
330
2
100
AcDbEntity
  8
0
100
AcDbLine
 10
77.0158855728987
 20
81.46509814821248
 30
0.0
 11
77.08250727085555
 21
81.44579906965912
 31
0.0
  0
LWPOLYLINE
  5
15F
330
2
100
AcDbEntity
  8
0
100
AcDbPolyline
 90
       12
 70
   128
 43
0.0
 10
84.47333683866554
 20
82.55060505673531
 10
84.24564945517076
 20
82.96706823799574
 10
83.98531513703947
 20
83.31499280226331
 10
83.69469250001083
 20
83.59122859842766
 10
83.3764134631761
 20
83.79327422449824
 10
83.03335980219296
 20
83.91929931678744
 10
82.66863823678646
 20
83.96816263451182
 10
82.28555258741431
 20
83.93942221258836
 10
81.88757080321517
 20
83.83333694801551
 10
81.47829858419029
 20
83.65086945537752
 10
81.06144127974591
 20
83.39367115480788
 10
80.6407745801377
 20
83.06407116752195
  0
LINE
  5
160
330
2
100
AcDbEntity
  8
0
100
AcDbLine
 10
93.18886746563398
 20
63.95188350349402
 30
0.0
 11
84.47333683866554
 21
82.55060505673531
 31
0.0
  0
LINE
  5
161
330
2
100
AcDbEntity
  8
0
100
AcDbLine
 10
80.69078470735178
 20
72.03553415007601
 30
0.0
 11
86.99322136584536
 21
58.58629658829914
 31
0.0
  0
LWPOLYLINE
  5
162
330
2
100
AcDbEntity
  8
0
100
AcDbPolyline
 90
        9
 70
   128
 43
0.0
 10
79.83910461251181
 20
72.14963824136436
 10
79.96746855524697
 20
72.24623220254378
 10
80.09363654540758
 20
72.31202852588393
 10
80.21544926626148
 20
72.34590151724908
 10
80.33082213827828
 20
72.34727087938501
 10
80.43778268733603
 20
72.31611440276665
 10
80.53449838854829
 20
72.25296384165784
 10
80.61931696540543
 20
72.1589011063456
 10
80.69078470735178
 20
72.03553415007601
  0
LINE
  5
163
330
2
100
AcDbEntity
  8
0
100
AcDbLine
 10
77.45658362349693
 20
70.08631453988915
 30
0.0
 11
79.83910461251181
 21
72.14963824136436
 31
0.0
  0
LWPOLYLINE
  5
164
330
2
100
AcDbEntity
  8
0
100
AcDbPolyline
 90
       30
 70
   128
 43
0.0
 10
77.45658362349693
 20
80.30648090857004
 10
77.13759898028914
 20
80.00027683347566
 10
76.82235449058239
 20
79.63775155737223
 10
76.51454561208893
 20
79.22315562317272
 10
76.21778134187735
 20
78.7613493777631
 10
75.93554080308265
 20
78.25774760740763
 10
75.671133311603
 20
77.71825417878999
 10
75.4276582600736
 20
77.14919430102408
 10
75.20797067980686
 20
76.55723964791949
 10
75.01464607076167
 20
75.94933030896104
 10
74.84995090957588
 20
75.33259372458189
 10
74.71581608843561
 20
74.71426029152235
 10
74.61381429260587
 20
74.10157936343137
 10
74.54514140768742
 20
73.50173430097775
 10
74.51060241478493
 20
72.92175750071845
 10
74.51060241478493
 20
72.36844881613311
 10
74.54514140768742
 20
71.84829530639536
 10
74.61381429260587
 20
71.36739516966409
 10
74.71581608843561
 20
70.93138653445064
 10
74.84995090957588
 20
70.54538142661241
 10
75.01464607076167
 20
70.21390522922991
 10
75.20797067980686
 20
69.94084393542777
 10
75.4276582600736
 20
69.72939933319636
 10
75.671133311603
 20
69.58205061509963
 10
75.93554080308265
 20
69.50052439557373
 10
76.21778134187735
 20
69.48577757838996
 10
76.51454561208893
 20
69.5379821267721
 10
76.82235449058239
 20
69.65652680919174
 10
77.13759898028914
 20
69.84002100615069
 10
77.45658362349693
 20
70.08631453988915
  0
LINE
  5
165
330
2
100
AcDbEntity
  8
0
100
AcDbLine
 10
80.6407745801377
 20
83.06407116752195
 30
0.0
 11
77.45658362349693
 21
80.30648090857004
 31
0.0
  0
LWPOLYLINE
  5
166
330
2
100
AcDbEntity
  8
0
100
AcDbPolyline
 90
       25
 70
   128
 43
0.0
 10
76.77523907199597
 20
80.5031681386942
 10
76.45625442878816
 20
80.19696406359988
 10
76.14100993908144
 20
79.83443878749641
 10
75.83320106058796
 20
79.41984285329697
 10
75.53643679037634
 20
78.95803660788733
 10
75.25419625158168
 20
78.45443483753179
 10
74.98978876010202
 20
77.91494140891423
 10
74.74631370857259
 20
77.34588153114832
 10
74.52662612830593
 20
76.7539268780437
 10
74.33330151926075
 20
76.14601753898691
 10
74.16860635807487
 20
75.52928095470614
 10
74.03447153693466
 20
74.91094752154819
 10
73.93246974110491
 20
74.29826659355561
 10
73.86379685618646
 20
73.69842153110195
 10
73.82925786328397
 20
73.11844473084267
 10
73.82925786328397
 20
72.56513604625732
 10
73.86379685618646
 20
72.04498253651954
 10
73.93246974110491
 20
71.56408239978834
 10
74.03447153693466
 20
71.12807376457488
 10
74.16860635807487
 20
70.74206865673662
 10
74.33330151926075
 20
70.41059245935412
 10
74.52662612830593
 20
70.13753116555199
 10
74.74631370857259
 20
69.92608656332055
 10
74.98978876010202
 20
69.77873784522387
 10
75.13870266456746
 20
69.72395654192038
  0
LINE
  5
167
330
2
100
AcDbEntity
  8
0
100
AcDbLine
 10
79.95943002863668
 20
83.26075839754784
 30
0.0
 11
76.77523907199597
 21
80.5031681386942
 31
0.0
  0
LWPOLYLINE
  5
168
330
2
100
AcDbEntity
  8
0
100
AcDbPolyline
 90
        8
 70
   128
 43
0.0
 10
79.95943002863668
 20
83.26075839754784
 10
80.38009672824491
 20
83.59035838493205
 10
80.79695403278766
 20
83.84755668550175
 10
81.20622625171421
 20
84.03002417813976
 10
81.6042080359133
 20
84.13610944271253
 10
81.98729368528544
 20
84.16484986463597
 10
82.352015250692
 20
84.11598654691163
 10
82.41423463982867
 20
84.09932608110826
  0
LINE
  5
169
330
2
100
AcDbEntity
  8
0
100
AcDbLine
 10
80.00944015585082
 20
72.23222138020023
 30
0.0
 11
79.99441872646002
 21
72.2627674182346
 31
0.0
  0
LINE
  5
16A
330
2
100
AcDbEntity
  8
0
100
AcDbLine
 10
80.00944015585082
 20
72.23222138020023
 30
0.0
 11
86.31187681444274
 21
58.78298381832503
 31
0.0
  0
SPLINE
  5
16B
330
2
100
AcDbEntity
  8
0
100
AcDbSpline
210
0.0
220
0.0
230
1.0
 70
     8
 71
     3
 72
     9
 73
     5
 74
     0
 42
0.000000001
 43
0.0000000001
 40
0.0
 40
0.0
 40
0.0
 40
0.0
 40
0.5622684775873991
 40
1.0
 40
1.0
 40
1.0
 40
1.0
 10
85.62688253822702
 20
57.46112872216714
 30
0.0
 10
85.58499568058289
 20
57.47969341507222
 30
0.0
 10
85.51049949359441
 20
57.51271090341674
 30
0.0
 10
85.42505213392084
 20
57.54890301175168
 30
0.0
 10
85.38764913108485
 20
57.56474543843257
 30
0.0
  0
SPLINE
  5
16C
330
2
100
AcDbEntity
  8
0
100
AcDbSpline
210
0.0
220
0.0
230
1.0
 70
     8
 71
     3
 72
    15
 73
    11
 74
     0
 42
0.000000001
 43
0.0000000001
 40
0.0
 40
0.0
 40
0.0
 40
0.0
 40
0.1250000781270817
 40
0.2499998443872195
 40
0.3750000038856121
 40
0.5000001748264627
 40
0.6250000715811157
 40
0.750000234088282
 40
0.87500014286096
 40
1.0
 40
1.0
 40
1.0
 40
1.0
 10
86.993221365886
 20
58.58629658826592
 30
0.0
 10
87.01625221316502
 20
58.47076436948678
 30
0.0
 10
87.0623138502626
 20
58.23970022017385
 30
0.0
 10
87.03288537806704
 20
57.9357552352317
 30
0.0
 10
86.93552366445402
 20
57.67933847380676
 30
0.0
 10
86.76929040744544
 20
57.48366709119468
 30
0.0
 10
86.54462958801449
 20
57.356704543737
 30
0.0
 10
86.27119431426548
 20
57.30734407269253
 30
0.0
 10
85.96195681433568
 20
57.33244072962243
 30
0.0
 10
85.73857394821777
 20
57.41823273055858
 30
0.0
 10
85.62688253822702
 20
57.46112872216714
 30
0.0
  0
SPLINE
  5
16D
330
2
100
AcDbEntity
  8
0
100
AcDbSpline
210
0.0
220
0.0
230
1.0
 70
     8
 71
     3
 72
    12
 73
     8
 74
     0
 42
0.000000001
 43
0.0000000001
 40
0.0
 40
0.0
 40
0.0
 40
0.0
 40
0.249083980891428
 40
0.4981674499083557
 40
0.7472515297037156
 40
0.9963357145763296
 40
1.0
 40
1.0
 40
1.0
 40
1.0
 10
93.18886746564491
 20
63.95188350351515
 30
0.0
 10
93.21149430802291
 20
63.83875347047999
 30
0.0
 10
93.25674794628017
 20
63.61249363689502
 30
0.0
 10
93.23162520885015
 20
63.31173499891087
 30
0.0
 10
93.1346123244897
 20
63.064336557398
 30
0.0
 10
93.04108570339209
 20
62.91631446764051
 30
0.0
 10
92.96867739088947
 20
62.87266968391059
 30
0.0
 10
92.96762763290784
 20
62.87203693252475
 30
0.0
  0
SPLINE
  5
16E
330
2
100
AcDbEntity
  8
0
100
AcDbSpline
210
0.0
220
0.0
230
1.0
 70
     8
 71
     3
 72
    11
 73
     7
 74
     0
 42
0.000000001
 43
0.0000000001
 40
0.0
 40
0.0
 40
0.0
 40
0.0
 40
0.2499998415478546
 40
0.5000001225652028
 40
0.7499997680399443
 40
1.0
 40
1.0
 40
1.0
 40
1.0
 10
86.31187681439513
 20
58.78298381837289
 30
0.0
 10
86.35007660985792
 20
58.64538248450113
 30
0.0
 10
86.42647626793419
 20
58.37017957487092
 30
0.0
 10
86.30118503478076
 20
58.09570368422672
 30
0.0
 10
86.03918720619915
 20
57.97073910351361
 30
0.0
 10
85.78535252456385
 20
58.05666970635983
 30
0.0
 10
85.65843503487579
 20
58.09963505818004
 30
0.0
  0
LINE
  5
16F
330
2
100
AcDbEntity
  8
0
100
AcDbLine
 10
85.37370259745214
 20
58.23401066833794
 30
0.0
 11
85.65843503490205
 21
58.09963505820629
 31
0.0
  0
SPLINE
  5
170
330
2
100
AcDbEntity
  8
0
100
AcDbSpline
210
0.0
220
0.0
230
1.0
 70
     8
 71
     3
 72
     9
 73
     5
 74
     0
 42
0.000000001
 43
0.0000000001
 40
0.0
 40
0.0
 40
0.0
 40
0.0
 40
0.5594801028669398
 40
1.0
 40
1.0
 40
1.0
 40
1.0
 10
85.38764913108485
 20
57.56474543843257
 30
0.0
 10
85.33592460198022
 20
57.58551555767722
 30
0.0
 10
85.24347354100497
 20
57.62263952176132
 30
0.0
 10
85.14200301560336
 20
57.65327356942469
 30
0.0
 10
85.09730323019141
 20
57.66676847695022
 30
0.0
  0
LINE
  5
171
330
2
100
AcDbEntity
  8
0
100
AcDbLine
 10
84.97576124397838
 20
58.38319790860889
 30
0.0
 11
85.37370259745214
 21
58.23401066833794
 31
0.0
  0
LWPOLYLINE
  5
172
330
2
100
AcDbEntity
  8
0
100
AcDbPolyline
 90
        3
 70
   128
 43
0.0
 10
80.58454163100241
 20
69.86187851290236
 10
81.13846105943029
 20
69.71109805902546
 10
81.19912027024771
 20
69.69347388004158
  0
ARC
  5
173
330
2
100
AcDbEntity
  8
0
100
AcDbCircle
 10
77.82531525300081
 20
60.68162959372346
 30
0.0
 40
7.59449986732678
100
AcDbArc
 50
50.17875550780074
 51
68.69582389749914
  0
ARC
  5
174
330
2
100
AcDbEntity
  8
0
100
AcDbCircle
 10
80.74129890668009
 20
64.51804975588706
 30
0.0
 40
3.179108650947105
100
AcDbArc
 50
307.5753357871998
 51
350.3120873019998
  0
LWPOLYLINE
  5
175
330
2
100
AcDbEntity
  8
0
100
AcDbPolyline
 90
       15
 70
   128
 43
0.0
 10
85.33354398214013
 20
60.87072253769619
 10
85.25344528466282
 20
60.83983878843143
 10
84.93295554764742
 20
60.74732100126028
 10
84.58099819266683
 20
60.69014233405287
 10
84.21295719239592
 20
60.6708012712403
 10
83.84491486497822
 20
60.6901428483899
 10
83.49295810871348
 20
60.7473220260006
 10
83.17246901122652
 20
60.83983925939895
 10
82.89745339222035
 20
60.9636514165508
 10
82.67993226872608
 20
61.11334744736353
 10
82.52941083762891
 20
61.28238458996392
 10
82.45246851670676
 20
61.46337592875855
 10
82.45246915623516
 20
61.64841094922973
 10
82.52941089220962
 20
61.82940177358901
 10
82.67993223450247
 20
61.99844013633843
  0
LINE
  5
176
330
2
100
AcDbEntity
  8
0
100
AcDbLine
 10
84.97576124397838
 20
58.38319790860889
 30
0.0
 11
78.44306223416854
 21
60.26902567451892
 31
0.0
  0
LINE
  5
177
330
2
100
AcDbEntity
  8
0
100
AcDbLine
 10
85.09730323021504
 20
57.66676847698297
 30
0.0
 11
77.85300108271886
 21
59.75801837438861
 31
0.0
  0
LINE
  5
178
330
2
100
AcDbEntity
  8
0
100
AcDbLine
 10
82.57914958361652
 20
61.21522226262676
 30
0.0
 11
82.67993223450247
 21
61.31709685396161
 31
0.0
  0
LWPOLYLINE
  5
179
330
2
100
AcDbEntity
  8
0
100
AcDbPolyline
 90
        3
 70
   128
 43
0.0
 10
80.58454163100241
 20
69.18053523052555
 10
81.13846105943029
 20
69.02975477664864
 10
81.5714743342929
 20
68.89888458732048
  0
ARC
  5
17A
330
2
100
AcDbEntity
  8
0
100
AcDbCircle
 10
80.81947660730412
 20
63.76985868116083
 30
0.0
 40
3.078528174601111
100
AcDbArc
 50
307.1808477053999
 51
356.4455640912001
  0
LINE
  5
17B
330
2
100
AcDbEntity
  8
0
100
AcDbLine
 10
75.74158450607154
 20
54.68335609617464
 30
0.0
 11
74.61170077783155
 21
55.00952543345567
 31
0.0
  0
ARC
  5
17C
330
2
100
AcDbEntity
  8
0
100
AcDbCircle
 10
75.19106470156905
 20
81.76966634008515
 30
0.0
 40
0.3621076542399932
100
AcDbArc
 50
352.4002486108001
 51
56.19887108879995
  0
ARC
  5
17D
330
2
100
AcDbEntity
  8
0
100
AcDbCircle
 10
76.92500254389845
 20
79.41882678041084
 30
0.0
 40
2.514892241000143
100
AcDbArc
 50
117.5438224246009
 51
119.8751911184001
  0
SPLINE
  5
17E
330
2
100
AcDbEntity
  8
0
100
AcDbSpline
210
0.0
220
0.0
230
1.0
 70
     8
 71
     3
 72
    17
 73
    13
 74
     0
 42
0.000000001
 43
0.0000000001
 40
0.0
 40
0.0
 40
0.0
 40
0.0
 40
0.0976199889905434
 40
0.1933179338332675
 40
0.2870908332474029
 40
0.3911744724586289
 40
0.4866212502885984
 40
0.5734277496302895
 40
0.7179001784476529
 40
0.855675704726962
 40
0.9891860161224057
 40
1.0
 40
1.0
 40
1.0
 40
1.0
 10
47.22878145087844
 20
99.73121906787167
 30
0.0
 10
47.12598972576677
 20
99.75683198223329
 30
0.0
 10
46.92243014622545
 20
99.8075535171878
 30
0.0
 10
46.62565137143235
 20
99.83160795718903
 30
0.0
 10
46.33270675086788
 20
99.81796883618217
 30
0.0
 10
46.05595411905372
 20
99.76074236884658
 30
0.0
 10
45.80671246152095
 20
99.6640692569175
 30
0.0
 10
45.5494054925937
 20
99.51264006944313
 30
0.0
 10
45.29974699065379
 20
99.28641515807779
 30
0.0
 10
45.10095831197364
 20
98.96027445713942
 30
0.0
 10
44.99536294630959
 20
98.71231362082498
 30
0.0
 10
44.98251149616672
 20
98.56747504269854
 30
0.0
 10
44.98154855798378
 20
98.55662252444618
 30
0.0
  0
LINE
  5
17F
330
2
100
AcDbEntity
  8
0
100
AcDbLine
 10
76.61616911657905
 20
81.5589669121838
 30
0.0
 11
76.64809086227177
 21
81.54975189795248
 31
0.0
  0
SPLINE
  5
180
330
2
100
AcDbEntity
  8
0
100
AcDbSpline
210
0.0
220
0.0
230
1.0
 70
     8
 71
     3
 72
    12
 73
     8
 74
     0
 42
0.000000001
 43
0.0000000001
 40
0.0
 40
0.0
 40
0.0
 40
0.0
 40
0.2097939302528936
 40
0.4184431606768052
 40
0.6271195698537289
 40
0.8358492180700066
 40
1.0
 40
1.0
 40
1.0
 40
1.0
 10
74.92521195759471
 20
69.78352688098877
 30
0.0
 10
74.93790667119822
 20
69.68455453656179
 30
0.0
 10
74.96322683216622
 20
69.48714987108028
 30
0.0
 10
75.08281012749418
 20
69.32351713531088
 30
0.0
 10
75.24361768914542
 20
69.29300112624526
 30
0.0
 10
75.41945588590994
 20
69.38419326313973
 30
0.0
 10
75.52781399169063
 20
69.53254952102935
 30
0.0
 10
75.57551579193088
 20
69.59785945356512
 30
0.0
  0
ARC
  5
181
330
2
100
AcDbEntity
  8
0
100
AcDbCircle
 10
61.73845106850752
 20
58.43890406064427
 30
0.0
 40
3.028174353267124
100
AcDbArc
 50
182.7632224255989
 51
252.8590425800976
  0
LINE
  5
182
330
2
100
AcDbEntity
  8
0
100
AcDbLine
 10
58.59944120915398
 20
94.77788243682651
 30
0.0
 11
58.59944120915398
 21
57.64458675082703
 31
0.0
  0
LINE
  5
183
330
2
100
AcDbEntity
  8
0
100
AcDbLine
 10
57.6417539395909
 20
95.05434293818773
 30
0.0
 11
57.67820259943945
 21
95.22706700778117
 31
0.0
  0
LINE
  5
184
330
2
100
AcDbEntity
  8
0
100
AcDbLine
 10
57.67820259943945
 20
95.22706700778117
 30
0.0
 11
57.7820038648571
 21
95.35245061637532
 31
0.0
  0
LINE
  5
185
330
2
100
AcDbEntity
  8
0
100
AcDbLine
 10
57.7820038648571
 20
95.35245061637532
 30
0.0
 11
57.93735104840303
 21
95.41140574340271
 31
0.0
  0
LINE
  5
186
330
2
100
AcDbEntity
  8
0
100
AcDbLine
 10
57.93735104840303
 20
95.41140574340271
 30
0.0
 11
58.12059693966332
 21
95.39495714011472
 31
0.0
  0
LINE
  5
187
330
2
100
AcDbEntity
  8
0
100
AcDbLine
 10
58.12059693966332
 20
95.39495714011472
 30
0.0
 11
58.30384283131692
 21
95.30560867868366
 31
0.0
  0
LINE
  5
188
330
2
100
AcDbEntity
  8
0
100
AcDbLine
 10
58.30384283131692
 20
95.30560867868366
 30
0.0
 11
58.45919128388894
 21
95.15696344669661
 31
0.0
  0
LINE
  5
189
330
2
100
AcDbEntity
  8
0
100
AcDbLine
 10
58.45919128388894
 20
95.15696344669661
 30
0.0
 11
58.56299128027919
 21
94.9716505163786
 31
0.0
  0
LINE
  5
18A
330
2
100
AcDbEntity
  8
0
100
AcDbLine
 10
58.56299128027919
 20
94.9716505163786
 30
0.0
 11
58.59944120915398
 21
94.77788243682651
 31
0.0
  0
LINE
  5
18B
330
2
100
AcDbEntity
  8
0
100
AcDbLine
 10
57.6417539395909
 20
57.92104725258163
 30
0.0
 11
57.6417539395909
 21
95.05434293818773
 31
0.0
  0
LINE
  5
18C
330
2
100
AcDbEntity
  8
0
100
AcDbLine
 10
58.59944120915398
 20
57.64458675082703
 30
0.0
 11
58.56299128027919
 21
57.47186304746577
 31
0.0
  0
LINE
  5
18D
330
2
100
AcDbEntity
  8
0
100
AcDbLine
 10
58.56299128027919
 20
57.47186304746577
 30
0.0
 11
58.45919128388894
 21
57.34647907303383
 31
0.0
  0
LINE
  5
18E
330
2
100
AcDbEntity
  8
0
100
AcDbLine
 10
58.45919128388894
 20
57.34647907303383
 30
0.0
 11
58.30384283131692
 21
57.28752431223791
 31
0.0
  0
LINE
  5
18F
330
2
100
AcDbEntity
  8
0
100
AcDbLine
 10
58.30384283131692
 20
57.28752431223791
 30
0.0
 11
58.12059693966332
 21
57.3039729155258
 31
0.0
  0
LINE
  5
190
330
2
100
AcDbEntity
  8
0
100
AcDbLine
 10
58.12059693966332
 20
57.3039729155258
 30
0.0
 11
57.93735104840303
 21
57.39332137695653
 31
0.0
  0
LINE
  5
191
330
2
100
AcDbEntity
  8
0
100
AcDbLine
 10
57.93735104840303
 20
57.39332137695653
 30
0.0
 11
57.7820038648571
 21
57.54196624231816
 31
0.0
  0
LINE
  5
192
330
2
100
AcDbEntity
  8
0
100
AcDbLine
 10
57.7820038648571
 20
57.54196624231816
 30
0.0
 11
57.67820259943945
 21
57.72727953926174
 31
0.0
  0
LINE
  5
193
330
2
100
AcDbEntity
  8
0
100
AcDbLine
 10
57.67820259943945
 20
57.72727953926174
 30
0.0
 11
57.6417539395909
 21
57.92104725258163
 31
0.0
  0
ARC
  5
194
330
2
100
AcDbEntity
  8
0
100
AcDbCircle
 10
68.09879065883598
 20
90.29593107034292
 30
0.0
 40
1.990706278144062
100
AcDbArc
 50
2.830928776799716
 51
72.7912971683925
  0
LINE
  5
195
330
2
100
AcDbEntity
  8
0
100
AcDbLine
 10
59.11228760933145
 20
58.12441268520066
 30
0.0
 11
59.104689088485
 21
58.29363674194581
 31
0.0
  0
LINE
  5
196
330
2
100
AcDbEntity
  8
0
100
AcDbLine
 10
60.51160829091674
 20
94.55776831742362
 30
0.0
 11
68.68774737557328
 21
92.19752026668343
 31
0.0
  0
LINE
  5
197
330
2
100
AcDbEntity
  8
0
100
AcDbLine
 10
70.087067523351
 20
90.39424991801899
 30
0.0
 11
70.087067523351
 21
54.62364423812344
 31
0.0
  0
ARC
  5
198
330
2
100
AcDbEntity
  8
0
100
AcDbCircle
 10
60.13750239063836
 20
93.60240910949151
 30
0.0
 40
1.025995341678146
100
AcDbArc
 50
68.61535273919303
 51
182.2350630238958
  0
LINE
  5
199
330
2
100
AcDbEntity
  8
0
100
AcDbLine
 10
59.11228758808872
 20
92.37004255474708
 30
0.0
 11
59.11228758808872
 21
93.56239599297914
 31
0.0
  0
LINE
  5
19A
330
2
100
AcDbEntity
  8
0
100
AcDbLine
 10
59.11228758808872
 20
57.79178904405702
 30
0.0
 11
59.11228758808872
 21
92.37004255474708
 31
0.0
  0
ARC
  5
19B
330
2
100
AcDbEntity
  8
0
100
AcDbCircle
 10
69.06185236479789
 20
54.5836316770559
 30
0.0
 40
1.02599567573167
100
AcDbArc
 50
248.6154146923926
 51
2.23503126259747
  0
LINE
  5
19C
330
2
100
AcDbEntity
  8
0
100
AcDbLine
 10
68.68774737557328
 20
53.62827175318231
 30
0.0
 11
60.51160829091674
 21
55.98851980392245
 31
0.0
  0
ARC
  5
19D
330
2
100
AcDbEntity
  8
0
100
AcDbCircle
 10
61.10056367411579
 20
57.89010863796485
 30
0.0
 40
1.990705537487773
100
AcDbArc
 50
182.8309513434964
 51
252.7913307512937
  0
ARC
  5
19E
330
2
100
AcDbEntity
  8
0
100
AcDbCircle
 10
68.12964378212552
 20
90.32628209415516
 30
0.0
 40
3.02817090194787
100
AcDbArc
 50
2.763176137199762
 51
72.85906323360075
  0
LINE
  5
19F
330
2
100
AcDbEntity
  8
0
100
AcDbLine
 10
69.02211583826787
 20
93.21994977407619
 30
0.0
 11
60.84597675361061
 21
95.58019782481643
 31
0.0
  0
ARC
  5
1A0
330
2
100
AcDbEntity
  8
0
100
AcDbCircle
 10
60.27866237243708
 20
94.12066995738426
 30
0.0
 40
1.56590778874122
100
AcDbArc
 50
68.75903575969691
 51
182.0913482619
  0
LINE
  5
1A1
330
2
100
AcDbEntity
  8
0
100
AcDbLine
 10
58.71379761035121
 20
94.06352558425231
 30
0.0
 11
58.71379761035121
 21
58.29291990475025
 31
0.0
  0
ARC
  5
1A2
330
2
100
AcDbEntity
  8
0
100
AcDbCircle
 10
61.73844932703909
 20
58.43890270586197
 30
0.0
 40
3.028172548824641
100
AcDbArc
 50
182.7631984015016
 51
252.8590625988029
  0
LINE
  5
1A3
330
2
100
AcDbEntity
  8
0
100
AcDbLine
 10
60.84597675361061
 20
55.54523346227619
 30
0.0
 11
69.02211583826787
 21
53.18498541153648
 31
0.0
  0
ARC
  5
1A4
330
2
100
AcDbEntity
  8
0
100
AcDbCircle
 10
69.58942960971055
 20
54.64451304255041
 30
0.0
 40
1.565907347690812
100
AcDbArc
 50
248.7590534155917
 51
2.091368819801926
  0
LINE
  5
1A5
330
2
100
AcDbEntity
  8
0
100
AcDbLine
 10
71.15429391036667
 20
54.70165796089958
 30
0.0
 11
71.15429391036667
 21
90.4722636404014
 31
0.0
  0
ARC
  5
1A6
330
2
100
AcDbEntity
  8
0
100
AcDbCircle
 10
48.1115627391535
 20
62.37264833466961
 30
0.0
 40
3.028174353267124
100
AcDbArc
 50
182.7632224255989
 51
252.8590425800976
  0
ARC
  5
1A7
330
2
100
AcDbEntity
  8
0
100
AcDbCircle
 10
54.47190232948196
 20
94.22967534436832
 30
0.0
 40
1.990706278144062
100
AcDbArc
 50
2.830928776799716
 51
72.7912971683925
  0
LINE
  5
1A8
330
2
100
AcDbEntity
  8
0
100
AcDbLine
 10
45.48539927997743
 20
62.05815695922602
 30
0.0
 11
45.47780075913098
 21
62.22738101597119
 31
0.0
  0
LINE
  5
1A9
330
2
100
AcDbEntity
  8
0
100
AcDbLine
 10
46.88471996156272
 20
98.49151259144896
 30
0.0
 11
55.06085904621926
 21
96.13126454070881
 31
0.0
  0
LINE
  5
1AA
330
2
100
AcDbEntity
  8
0
100
AcDbLine
 10
56.46017919399699
 20
94.32799419204435
 30
0.0
 11
56.46017919399699
 21
58.5573885121488
 31
0.0
  0
ARC
  5
1AB
330
2
100
AcDbEntity
  8
0
100
AcDbCircle
 10
46.51061406128434
 20
97.53615338351686
 30
0.0
 40
1.025995341678146
100
AcDbArc
 50
68.61535273919303
 51
182.2350630238958
  0
LINE
  5
1AC
330
2
100
AcDbEntity
  8
0
100
AcDbLine
 10
45.4853992587347
 20
96.30378682877243
 30
0.0
 11
45.4853992587347
 21
97.49614026700449
 31
0.0
  0
LINE
  5
1AD
330
2
100
AcDbEntity
  8
0
100
AcDbLine
 10
45.4853992587347
 20
61.72553331808238
 30
0.0
 11
45.4853992587347
 21
96.30378682877243
 31
0.0
  0
ARC
  5
1AE
330
2
100
AcDbEntity
  8
0
100
AcDbCircle
 10
55.43496403544387
 20
58.51737595108126
 30
0.0
 40
1.02599567573167
100
AcDbArc
 50
248.6154146923926
 51
2.23503126259747
  0
LINE
  5
1AF
330
2
100
AcDbEntity
  8
0
100
AcDbLine
 10
55.06085904621926
 20
57.56201602720767
 30
0.0
 11
46.88471996156272
 21
59.92226407794781
 31
0.0
  0
ARC
  5
1B0
330
2
100
AcDbEntity
  8
0
100
AcDbCircle
 10
47.47367534476177
 20
61.82385291199021
 30
0.0
 40
1.990705537487773
100
AcDbArc
 50
182.8309513434964
 51
252.7913307512937
  0
ARC
  5
1B1
330
2
100
AcDbEntity
  8
0
100
AcDbCircle
 10
54.5027554527715
 20
94.26002636818051
 30
0.0
 40
3.02817090194787
100
AcDbArc
 50
2.763176137199762
 51
72.85906323360075
  0
LINE
  5
1B2
330
2
100
AcDbEntity
  8
0
100
AcDbLine
 10
55.39522750891385
 20
97.15369404810154
 30
0.0
 11
47.21908842425659
 21
99.51394209884178
 31
0.0
  0
ARC
  5
1B3
330
2
100
AcDbEntity
  8
0
100
AcDbCircle
 10
46.65177404308306
 20
98.05441423140962
 30
0.0
 40
1.56590778874122
100
AcDbArc
 50
68.75903575969691
 51
182.0913482619
  0
ARC
  5
1B4
330
2
100
AcDbEntity
  8
0
100
AcDbCircle
 10
48.11156099768507
 20
62.37264697988734
 30
0.0
 40
3.028172548824641
100
AcDbArc
 50
182.7631984015016
 51
252.8590625988029
  0
LINE
  5
1B5
330
2
100
AcDbEntity
  8
0
100
AcDbLine
 10
47.21908842425659
 20
59.47897773630155
 30
0.0
 11
55.39522750891385
 21
57.11872968556184
 31
0.0
  0
ARC
  5
1B6
330
2
100
AcDbEntity
  8
0
100
AcDbCircle
 10
55.96254128035653
 20
58.57825731657577
 30
0.0
 40
1.565907347690812
100
AcDbArc
 50
248.7590534155917
 51
2.091368819801926
  0
LINE
  5
1B7
330
2
100
AcDbEntity
  8
0
100
AcDbLine
 10
57.52740558101265
 20
58.63540223492493
 30
0.0
 11
57.52740558101265
 21
94.40600791442674
 31
0.0
  0
LINE
  5
1B8
330
2
100
AcDbEntity
  8
0
100
AcDbLine
 10
45.0869092810388
 20
97.99726985852347
 30
0.0
 11
45.08690928132864
 21
62.22666417849866
 31
0.0
  0
ELLIPSE
  5
1B9
330
2
100
AcDbEntity
  8
0
100
AcDbEllipse
 10
63.03777751502019
 20
105.4769516721119
 30
0.0
 11
-2.36024641399336
 21
-0.0000001002613181
 31
0.0
210
0.0
220
0.0
230
1.0
 40
0.5027607708227215
 41
0.0
 42
6.283185307179586
  0
ELLIPSE
  5
1BA
330
2
100
AcDbEntity
  8
0
100
AcDbEllipse
 10
67.6537452347973
 20
106.3143678579326
 30
0.0
 11
-2.36024641399336
 21
-0.0000001002613181
 31
0.0
210
0.0
220
0.0
230
1.0
 40
0.5027607708227215
 41
2.661621573726606
 42
5.720720764007431
  0
ELLIPSE
  5
1BB
330
2
100
AcDbEntity
  8
0
100
AcDbEllipse
 10
44.0533224668309
 20
84.85450640021445
 30
0.0
 11
-0.4314766715913237
 21
-1.512321090677943
 31
0.0
210
0.0
220
0.0
230
0.9999999999999998
 40
0.460484873336336
 41
3.078702321273086
 42
6.331946567686847
  0
ELLIPSE
  5
1BC
330
2
100
AcDbEntity
  8
0
100
AcDbEllipse
 10
47.13157183097857
 20
83.92914451136421
 30
0.0
 11
-1.639986544868428
 21
-5.681085526580736
 31
0.0
210
0.0
220
0.0
230
1.0
 40
0.4322293424115272
 41
4.567000015194523
 42
6.035454284493272
  0
ELLIPSE
  5
1BD
330
2
100
AcDbEntity
  8
0
100
AcDbEllipse
 10
46.45886237904545
 20
84.15762215960937
 30
0.0
 11
-1.639986544868428
 21
-5.681085526580736
 31
0.0
210
0.0
220
0.0
230
1.0
 40
0.4322293424115272
 41
4.270890366929601
 42
6.283185307179584
  0
LINE
  5
1BE
330
2
100
AcDbEntity
  8
0
100
AcDbLine
 10
44.81887583417702
 20
78.47653663302863
 30
0.0
 11
44.93920256004199
 21
78.44653136603601
 31
0.0
  0
LINE
  5
1BF
330
2
100
AcDbEntity
  8
0
100
AcDbLine
 10
73.46782832993255
 20
49.36983075869316
 30
0.0
 11
73.5804203038656
 21
49.44473158912276
 31
0.0
  0
ARC
  5
1C0
330
2
100
AcDbEntity
  8
0
100
AcDbCircle
 10
51.04225632111786
 20
59.64689264340396
 30
0.0
 40
5.021867850924661
100
AcDbArc
 50
200.5651005330612
 51
213.7006412783974
  0
ARC
  5
1C1
330
2
100
AcDbEntity
  8
0
100
AcDbCircle
 10
77.10721686839423
 20
59.29810014442881
 30
0.0
 40
0.7503607946385364
100
AcDbArc
 50
204.038047677468
 51
222.3258017342546
  0
LINE
  5
1C2
330
2
100
AcDbEntity
  8
0
100
AcDbLine
 10
78.55054425910589
 20
76.548641722187
 30
0.0
 11
78.10651061735424
 21
76.67682319370488
 31
0.0
  0
LINE
  5
1C3
330
2
100
AcDbEntity
  8
0
100
AcDbLine
 10
77.21535730321466
 20
73.58978418137386
 30
0.0
 11
77.6593928321461
 21
73.46160179788478
 31
0.0
  0
LINE
  5
1C4
330
2
100
AcDbEntity
  8
0
100
AcDbLine
 10
78.10651061735424
 20
76.67682319370488
 30
0.0
 11
78.08593706018644
 21
76.68198554844133
 31
0.0
  0
ELLIPSE
  5
1C5
330
2
100
AcDbEntity
  8
0
100
AcDbEllipse
 10
78.10496854562629
 20
75.00512176003562
 30
0.0
 11
0.4455757134802182
 21
1.543519962151078
 31
0.0
210
0.0
220
0.0
230
1.0
 40
0.4391595104879257
 41
6.2831851698849
 42
9.424777594002627
  0
ELLIPSE
  5
1C6
330
2
100
AcDbEntity
  8
0
100
AcDbEllipse
 10
77.65064718170075
 20
75.13588486490724
 30
0.0
 11
0.435289878485879
 21
1.546100683533659
 31
0.0
210
0.0
220
0.0
230
1.0
 40
0.4271225323414707
 41
0.0
 42
3.141592653589792
  0
LINE
  5
1C7
330
2
100
AcDbEntity
  8
0
100
AcDbLine
 10
80.20279524098757
 20
76.0716775157689
 30
0.0
 11
80.21774706228702
 21
76.06777454834255
 31
0.0
  0
LINE
  5
1C8
330
2
100
AcDbEntity
  8
0
100
AcDbLine
 10
77.65935428644096
 20
73.46146942251227
 30
0.0
 11
79.31160526832292
 21
72.98450521609365
 31
0.0
  0
LINE
  5
1C9
330
2
100
AcDbEntity
  8
0
100
AcDbLine
 10
77.59087827013186
 20
73.49069748596289
 30
0.0
 11
77.65935428644096
 21
73.46146942251227
 31
0.0
  0
LINE
  5
1CA
330
2
100
AcDbEntity
  8
0
100
AcDbLine
 10
80.29867365624367
 20
74.68625507359056
 30
0.0
 11
80.1765931253581
 21
75.36747307721478
 31
0.0
  0
LINE
  5
1CB
330
2
100
AcDbEntity
  8
0
100
AcDbLine
 10
80.1765931253581
 20
75.36747307721478
 30
0.0
 11
79.72208163452467
 21
75.18420411637521
 31
0.0
  0
LINE
  5
1CC
330
2
100
AcDbEntity
  8
0
100
AcDbLine
 10
79.38965067457889
 20
74.3197197433825
 30
0.0
 11
79.72208163452467
 21
75.18420411637521
 31
0.0
  0
LINE
  5
1CD
330
2
100
AcDbEntity
  8
0
100
AcDbLine
 10
79.51173157980576
 20
73.63850206349136
 30
0.0
 11
79.38965067457889
 21
74.3197197433825
 31
0.0
  0
LINE
  5
1CE
330
2
100
AcDbEntity
  8
0
100
AcDbLine
 10
79.51173157980576
 20
73.63850206349136
 30
0.0
 11
79.96624307063905
 21
73.82176843285998
 31
0.0
  0
LINE
  5
1CF
330
2
100
AcDbEntity
  8
0
100
AcDbLine
 10
80.29867365624367
 20
74.68625507359056
 30
0.0
 11
79.96624307063905
 21
73.82176843285998
 31
0.0
  0
LINE
  5
1D0
330
2
100
AcDbEntity
  8
0
100
AcDbLine
 10
79.45229979213792
 20
73.97013107799418
 30
0.0
 11
79.96624307063905
 21
73.82176843285998
 31
0.0
  0
LINE
  5
1D1
330
2
100
AcDbEntity
  8
0
100
AcDbLine
 10
79.60734154845582
 20
74.88582589488138
 30
0.0
 11
80.29867365624367
 21
74.68625507359056
 31
0.0
  0
ELLIPSE
  5
1D2
330
2
100
AcDbEntity
  8
0
100
AcDbEllipse
 10
79.76813173580254
 20
74.5213137020732
 30
0.0
 11
-0.4565264674790426
 21
-1.536808485979383
 31
0.0
210
0.0
220
0.0
230
1.0
 40
0.4371239547278871
 41
0.0
 42
6.283185307179584
  0
ELLIPSE
  5
1D3
330
2
100
AcDbEntity
  8
0
100
AcDbEllipse
 10
75.58058314773027
 20
73.57906509448273
 30
0.0
 11
-0.1598083057801325
 21
-0.6178230950703533
 31
0.0
210
0.0
220
0.0
230
1.0
 40
0.4377124451218318
 41
0.0
 42
6.283185307179584
  0
ELLIPSE
  5
1D4
330
2
100
AcDbEntity
  8
0
100
AcDbEllipse
 10
77.44905897141794
 20
71.96465626125735
 30
0.0
 11
-0.1598083057801325
 21
-0.6178230950703533
 31
0.0
210
0.0
220
0.0
230
1.0
 40
0.4377124451218318
 41
0.0
 42
6.283185307179584
  0
ELLIPSE
  5
1D5
330
2
100
AcDbEntity
  8
0
100
AcDbEllipse
 10
79.32056412897049
 20
76.81819368550907
 30
0.0
 11
-0.1598083057801325
 21
-0.6178230950703533
 31
0.0
210
0.0
220
0.0
230
1.0
 40
0.4377124451218318
 41
0.7224588986309298
 42
5.536280207029361
  0
ELLIPSE
  5
1D6
330
2
100
AcDbEntity
  8
0
100
AcDbEllipse
 10
77.44717377789718
 20
78.42961027363954
 30
0.0
 11
-0.1598083057801325
 21
-0.6178230950703533
 31
0.0
210
0.0
220
0.0
230
1.0
 40
0.4377124451218318
 41
0.0
 42
6.283185307179584
  0
ELLIPSE
  5
1D7
330
2
100
AcDbEntity
  8
0
100
AcDbEllipse
 10
77.28554539458826
 20
75.0392807155502
 30
0.0
 11
-1.427760325151753
 21
-5.519758806013045
 31
0.0
210
0.0
220
0.0
230
0.9999999999999998
 40
0.4377124451218318
 41
7.591373539602846
 42
7.592733789180027
  0
ELLIPSE
  5
1D8
330
2
100
AcDbEntity
  8
0
100
AcDbEllipse
 10
77.28554539458826
 20
75.0392807155502
 30
0.0
 11
-1.427760325151753
 21
-5.519758806013045
 31
0.0
210
0.0
220
0.0
230
0.9999999999999998
 40
0.4377124451218318
 41
8.163095797098671
 42
8.163252719515911
  0
LINE
  5
1D9
330
2
100
AcDbEntity
  8
0
100
AcDbLine
 10
78.55054425910589
 20
76.548641722187
 30
0.0
 11
80.20279524098757
 21
76.0716775157689
 31
0.0
  0
LINE
  5
1DA
330
2
100
AcDbEntity
  8
0
100
AcDbLine
 10
78.1737860962898
 20
77.02554118876029
 30
0.0
 11
77.84937827544891
 21
77.11918965984771
 31
0.0
  0
LINE
  5
1DB
330
2
100
AcDbEntity
  8
0
100
AcDbLine
 10
76.72407137283918
 20
73.35206916109555
 30
0.0
 11
77.04847677642956
 21
73.25842138750028
 31
0.0
  0
ELLIPSE
  5
1DC
330
2
100
AcDbEntity
  8
0
100
AcDbEllipse
 10
77.6283441869804
 20
75.13607982758887
 30
0.0
 11
0.545441909307889
 21
1.889461361171276
 31
0.0
210
0.0
220
0.0
230
1.0
 40
0.4392531529546969
 41
5.674061776521703
 42
10.04790227569206
  0
ELLIPSE
  5
1DD
330
2
100
AcDbEntity
  8
0
100
AcDbEllipse
 10
77.28672482414404
 20
75.23562941047163
 30
0.0
 11
0.5626534513048723
 21
1.883560249376088
 31
0.0
210
0.0
220
0.0
230
1.0
 40
0.4229334210521109
 41
0.0
 42
3.141592653589792
  0
SPLINE
  5
1DE
330
2
100
AcDbEntity
  8
0
100
AcDbSpline
210
0.0
220
0.0
230
1.0
 70
     8
 71
     3
 72
     8
 73
     4
 74
     0
 42
0.000000001
 43
0.0000000001
 40
0.0
 40
0.0
 40
0.0
 40
0.0
 40
1.0
 40
1.0
 40
1.0
 40
1.0
 10
47.64341608179598
 20
58.13272633169763
 30
0.0
 10
47.73778374520202
 20
58.09170180284231
 30
0.0
 10
47.83160531313313
 20
58.05761777894892
 30
0.0
 10
47.92247778315521
 20
58.03134784850487
 30
0.0
  0
SPLINE
  5
1DF
330
2
100
AcDbEntity
  8
0
100
AcDbSpline
210
0.0
220
0.0
230
1.0
 70
     8
 71
     3
 72
    12
 73
     8
 74
     0
 42
0.000000001
 43
0.0000000001
 40
0.0
 40
0.0
 40
0.0
 40
0.0
 40
0.1640679824131984
 40
0.3281099996996862
 40
0.492132075864575
 40
0.7762585991390291
 40
1.0
 40
1.0
 40
1.0
 40
1.0
 10
47.31746850721981
 20
59.03830499237809
 30
0.0
 10
47.29057887737812
 20
59.04618378708212
 30
0.0
 10
47.23680387320203
 20
59.06194012960514
 30
0.0
 10
47.15746861855373
 20
59.08625320827563
 30
0.0
 10
47.06008211696655
 20
59.11710359335466
 30
0.0
 10
46.95511436950781
 20
59.1518803329401
 30
0.0
 10
46.87804925592388
 20
59.17931942150728
 30
0.0
 10
46.84409819177668
 20
59.19140772207257
 30
0.0
  0
SPLINE
  5
1E0
330
2
100
AcDbEntity
  8
0
100
AcDbSpline
210
0.0
220
0.0
230
1.0
 70
     8
 71
     3
 72
    25
 73
    21
 74
     0
 42
0.000000001
 43
0.0000000001
 40
0.0
 40
0.0
 40
0.0
 40
0.0
 40
0.0235737597006877
 40
0.0473997570532455
 40
0.0716987839538936
 40
0.0964751318441833
 40
0.1442437961298869
 40
0.195412333337609
 40
0.2458102324401843
 40
0.3012284987081159
 40
0.4196388607215643
 40
0.4951720926771828
 40
0.5752959455378433
 40
0.6379004014367155
 40
0.700460549418188
 40
0.7602003390405022
 40
0.8199848277463619
 40
0.8798564660317776
 40
0.9398508288248942
 40
1.0
 40
1.0
 40
1.0
 40
1.0
 10
46.84409819177443
 20
59.19140772206954
 30
0.0
 10
46.83606635187601
 20
59.19439095056556
 30
0.0
 10
46.81991673192993
 20
59.20038932790315
 30
0.0
 10
46.79648521574077
 20
59.20809003098089
 30
0.0
 10
46.77355688739058
 20
59.21476191156027
 30
0.0
 10
46.74457570772946
 20
59.22184680843965
 30
0.0
 10
46.71055906824398
 20
59.2275551347222
 30
0.0
 10
46.67528529712547
 20
59.2287097576958
 30
0.0
 10
46.64507422607096
 20
59.22369185660936
 30
0.0
 10
46.61250320796091
 20
59.20767112607941
 30
0.0
 10
46.59502982166054
 20
59.17501229257743
 30
0.0
 10
46.59626660398032
 20
59.12557756519184
 30
0.0
 10
46.608430292115
 20
59.0792841154723
 30
0.0
 10
46.62859272975575
 20
59.03103225846574
 30
0.0
 10
46.65306028779949
 20
58.98453436885882
 30
0.0
 10
46.68271701204668
 20
58.9364791043896
 30
0.0
 10
46.7169033821244
 20
58.88747453988584
 30
0.0
 10
46.75590669004555
 20
58.83725997772742
 30
0.0
 10
46.79914392955001
 20
58.78626818255659
 30
0.0
 10
46.83149821655177
 20
58.75222429519437
 30
0.0
 10
46.84769620476513
 20
58.73518041825174
 30
0.0
  0
SPLINE
  5
1E1
330
2
100
AcDbEntity
  8
0
100
AcDbSpline
210
0.0
220
0.0
230
1.0
 70
     8
 71
     3
 72
     8
 73
     4
 74
     0
 42
0.000000001
 43
0.0000000001
 40
0.0
 40
0.0
 40
0.0
 40
0.0
 40
1.0
 40
1.0
 40
1.0
 40
1.0
 10
46.84769620476794
 20
58.73518041825543
 30
0.0
 10
46.88398875208863
 20
58.69591372056725
 30
0.0
 10
46.92025287870779
 20
58.65710135842636
 30
0.0
 10
46.95649096551909
 20
58.61870752806906
 30
0.0
  0
SPLINE
  5
1E2
330
2
100
AcDbEntity
  8
0
100
AcDbSpline
210
0.0
220
0.0
230
1.0
 70
     8
 71
     3
 72
    17
 73
    13
 74
     0
 42
0.000000001
 43
0.0000000001
 40
0.0
 40
0.0
 40
0.0
 40
0.0
 40
0.0548483114358953
 40
0.1374792539378433
 40
0.2480004522058223
 40
0.3729705539238236
 40
0.4980973165827459
 40
0.6029955965319198
 40
0.7490828469807517
 40
0.8450938430744781
 40
0.9287472560154515
 40
1.0
 40
1.0
 40
1.0
 40
1.0
 10
46.95649096551699
 20
58.61870752806638
 30
0.0
 10
46.96642904785934
 20
58.60833065176636
 30
0.0
 10
46.99133920662737
 20
58.58232064025394
 30
0.0
 10
47.03875201849456
 20
58.53568517228756
 30
0.0
 10
47.10308723021237
 20
58.47666760444834
 30
0.0
 10
47.18087394180673
 20
58.41160258703757
 30
0.0
 10
47.26204194308306
 20
58.35040151588678
 30
0.0
 10
47.35155983512288
 20
58.28893690788145
 30
0.0
 10
47.43729362900373
 20
58.23605574380342
 30
0.0
 10
47.5199595504379
 20
58.19092493709751
 30
0.0
 10
47.58457318566056
 20
58.15876438681932
 30
0.0
 10
47.62487726772957
 20
58.14092978010621
 30
0.0
 10
47.64341608179677
 20
58.13272633169966
 30
0.0
  0
LINE
  5
1E3
330
2
100
AcDbEntity
  8
0
100
AcDbLine
 10
47.31746963138488
 20
59.03830405384111
 30
0.0
 11
69.93766780192544
 21
52.50841530236524
 31
0.0
  0
LINE
  5
1E4
330
2
100
AcDbEntity
  8
0
100
AcDbLine
 10
69.42113981690988
 20
51.82521869243579
 30
0.0
 11
47.92247842017971
 21
58.03134745504996
 31
0.0
  0
LINE
  5
1E5
330
2
100
AcDbEntity
  8
0
100
AcDbLine
 10
48.34522607364888
 20
58.33707080122219
 30
0.0
 11
48.83896995247892
 21
58.1945392203827
 31
0.0
  0
LINE
  5
1E6
330
2
100
AcDbEntity
  8
0
100
AcDbLine
 10
48.83896995247892
 20
58.1945392203827
 30
0.0
 11
49.02450333632427
 21
58.54552586930727
 31
0.0
  0
LINE
  5
1E7
330
2
100
AcDbEntity
  8
0
100
AcDbLine
 10
50.64512808577672
 20
57.6731462781946
 30
0.0
 11
51.13886942615363
 21
57.53061543032741
 31
0.0
  0
LINE
  5
1E8
330
2
100
AcDbEntity
  8
0
100
AcDbLine
 10
51.13886942615363
 20
57.53061543032741
 30
0.0
 11
51.32440604436547
 21
57.88160114550519
 31
0.0
  0
LINE
  5
1E9
330
2
100
AcDbEntity
  8
0
100
AcDbLine
 10
53.35358974151387
 20
56.89128074529332
 30
0.0
 11
52.85984713191033
 21
57.03381195945025
 31
0.0
  0
LINE
  5
1EA
330
2
100
AcDbEntity
  8
0
100
AcDbLine
 10
53.35358974151387
 20
56.89128074529332
 30
0.0
 11
53.53912474238092
 21
57.24226692726262
 31
0.0
  0
LINE
  5
1EB
330
2
100
AcDbEntity
  8
0
100
AcDbLine
 10
55.65349175364147
 20
56.22735622226576
 30
0.0
 11
55.15974914403807
 21
56.36988743642241
 31
0.0
  0
LINE
  5
1EC
330
2
100
AcDbEntity
  8
0
100
AcDbLine
 10
55.65349175364147
 20
56.22735622226576
 30
0.0
 11
55.83902513790198
 21
56.57834287102744
 31
0.0
  0
LINE
  5
1ED
330
2
100
AcDbEntity
  8
0
100
AcDbLine
 10
57.9533924969364
 20
55.56343206552746
 30
0.0
 11
57.45964988733309
 21
55.70596328007776
 31
0.0
  0
LINE
  5
1EE
330
2
100
AcDbEntity
  8
0
100
AcDbLine
 10
57.9533924969364
 20
55.56343206552746
 30
0.0
 11
58.13892749767788
 21
55.91441824776088
 31
0.0
  0
LINE
  5
1EF
330
2
100
AcDbEntity
  8
0
100
AcDbLine
 10
59.67437020269304
 20
55.06662859465026
 30
0.0
 11
60.16811154267657
 21
54.92409774678296
 31
0.0
  0
LINE
  5
1F0
330
2
100
AcDbEntity
  8
0
100
AcDbLine
 10
60.16811154267657
 20
54.92409774678296
 30
0.0
 11
60.35364654390907
 21
55.275083928997
 31
0.0
  0
LINE
  5
1F1
330
2
100
AcDbEntity
  8
0
100
AcDbLine
 10
61.97427094559458
 20
54.4027044383055
 30
0.0
 11
62.46801355519798
 21
54.26017322414864
 31
0.0
  0
LINE
  5
1F2
330
2
100
AcDbEntity
  8
0
100
AcDbLine
 10
62.46801355519798
 20
54.26017322414864
 30
0.0
 11
62.65354774749955
 21
54.61115963949228
 31
0.0
  0
LINE
  5
1F3
330
2
100
AcDbEntity
  8
0
100
AcDbLine
 10
64.27417168849593
 20
53.73878028156722
 30
0.0
 11
64.76791429809927
 21
53.59624906741057
 31
0.0
  0
LINE
  5
1F4
330
2
100
AcDbEntity
  8
0
100
AcDbLine
 10
64.76791429809927
 20
53.59624906741057
 30
0.0
 11
64.95344929925588
 21
53.94723524948086
 31
0.0
  0
LINE
  5
1F5
330
2
100
AcDbEntity
  8
0
100
AcDbLine
 10
66.98263397884606
 20
52.9569145657179
 30
0.0
 11
66.48889136924265
 21
53.09944577987483
 31
0.0
  0
LINE
  5
1F6
330
2
100
AcDbEntity
  8
0
100
AcDbLine
 10
66.98263397884606
 20
52.9569145657179
 30
0.0
 11
67.16816897968789
 21
53.30790074763899
 31
0.0
  0
LINE
  5
1F7
330
2
100
AcDbEntity
  8
0
100
AcDbLine
 10
66.89093769773336
 20
53.17074675139616
 30
0.0
 11
66.78558275571356
 21
53.41834387733935
 31
0.0
  0
LINE
  5
1F8
330
2
100
AcDbEntity
  8
0
100
AcDbLine
 10
66.98263397884606
 20
52.9569145657179
 30
0.0
 11
66.89093769773336
 21
53.17074675139616
 31
0.0
  0
LINE
  5
1F9
330
2
100
AcDbEntity
  8
0
100
AcDbLine
 10
66.48889136924265
 20
53.09944577987483
 30
0.0
 11
66.38848258787621
 21
53.31579304802254
 31
0.0
  0
LINE
  5
1FA
330
2
100
AcDbEntity
  8
0
100
AcDbLine
 10
66.38848258787621
 20
53.31579304802254
 30
0.0
 11
66.27115307045852
 21
53.56684693597081
 31
0.0
  0
LINE
  5
1FB
330
2
100
AcDbEntity
  8
0
100
AcDbLine
 10
64.67621865159969
 20
53.81008107014064
 30
0.0
 11
64.57086298794511
 21
54.05767840439319
 31
0.0
  0
LINE
  5
1FC
330
2
100
AcDbEntity
  8
0
100
AcDbLine
 10
64.76791429809927
 20
53.59624906741057
 30
0.0
 11
64.67621865159969
 21
53.81008107014064
 31
0.0
  0
LINE
  5
1FD
330
2
100
AcDbEntity
  8
0
100
AcDbLine
 10
64.27417168849593
 20
53.73878028156722
 30
0.0
 11
64.17376290752293
 21
53.95512754971511
 31
0.0
  0
LINE
  5
1FE
330
2
100
AcDbEntity
  8
0
100
AcDbLine
 10
64.17376290752293
 20
53.95512754971511
 30
0.0
 11
64.05643411220191
 21
54.20618122933849
 31
0.0
  0
LINE
  5
1FF
330
2
100
AcDbEntity
  8
0
100
AcDbLine
 10
62.37631727408521
 20
54.47400540982685
 30
0.0
 11
62.28371480341568
 21
54.69163134459147
 31
0.0
  0
LINE
  5
200
330
2
100
AcDbEntity
  8
0
100
AcDbLine
 10
62.46801355519798
 20
54.26017322414864
 30
0.0
 11
62.37631727408521
 21
54.47400540982685
 31
0.0
  0
LINE
  5
201
330
2
100
AcDbEntity
  8
0
100
AcDbLine
 10
61.97427094559458
 20
54.4027044383055
 30
0.0
 11
61.87386152961477
 21
54.61905188940117
 31
0.0
  0
LINE
  5
202
330
2
100
AcDbEntity
  8
0
100
AcDbLine
 10
61.87386152961477
 20
54.61905188940117
 30
0.0
 11
61.75653273421852
 21
54.87010556918615
 31
0.0
  0
LINE
  5
203
330
2
100
AcDbEntity
  8
0
100
AcDbLine
 10
60.07641653079033
 20
55.13792956656516
 30
0.0
 11
59.97106014524388
 21
55.38552710912642
 31
0.0
  0
LINE
  5
204
330
2
100
AcDbEntity
  8
0
100
AcDbLine
 10
60.16811154267657
 20
54.92409774678296
 30
0.0
 11
60.07641653079033
 21
55.13792956656516
 31
0.0
  0
LINE
  5
205
330
2
100
AcDbEntity
  8
0
100
AcDbLine
 10
59.67437020269304
 20
55.06662859465026
 30
0.0
 11
59.57396015210036
 21
55.28297622908757
 31
0.0
  0
LINE
  5
206
330
2
100
AcDbEntity
  8
0
100
AcDbLine
 10
59.57396015210036
 20
55.28297622908757
 30
0.0
 11
59.45663207885508
 21
55.53402970043114
 31
0.0
  0
LINE
  5
207
330
2
100
AcDbEntity
  8
0
100
AcDbLine
 10
57.86169621582363
 20
55.777264251599
 30
0.0
 11
57.75634127385723
 21
56.02486137741692
 31
0.0
  0
LINE
  5
208
330
2
100
AcDbEntity
  8
0
100
AcDbLine
 10
57.9533924969364
 20
55.56343206552746
 30
0.0
 11
57.86169621582363
 21
55.777264251599
 31
0.0
  0
LINE
  5
209
330
2
100
AcDbEntity
  8
0
100
AcDbLine
 10
57.45964988733309
 20
55.70596328007776
 30
0.0
 11
57.3592411059667
 21
55.92231054783194
 31
0.0
  0
LINE
  5
20A
330
2
100
AcDbEntity
  8
0
100
AcDbLine
 10
57.3592411059667
 20
55.92231054783194
 30
0.0
 11
57.24191158863749
 21
56.17336443603792
 31
0.0
  0
LINE
  5
20B
330
2
100
AcDbEntity
  8
0
100
AcDbLine
 10
55.56179547252892
 20
56.44118840794384
 30
0.0
 11
55.456440530935
 21
56.68878553393811
 31
0.0
  0
LINE
  5
20C
330
2
100
AcDbEntity
  8
0
100
AcDbLine
 10
55.65349175364147
 20
56.22735622226576
 30
0.0
 11
55.56179547252892
 21
56.44118840794384
 31
0.0
  0
LINE
  5
20D
330
2
100
AcDbEntity
  8
0
100
AcDbLine
 10
55.15974914403807
 20
56.36988743642241
 30
0.0
 11
55.05934036306527
 21
56.58623470457025
 31
0.0
  0
LINE
  5
20E
330
2
100
AcDbEntity
  8
0
100
AcDbLine
 10
55.05934036306527
 20
56.58623470457025
 30
0.0
 11
54.94201084561476
 21
56.83728859258827
 31
0.0
  0
LINE
  5
20F
330
2
100
AcDbEntity
  8
0
100
AcDbLine
 10
53.26189472962764
 20
57.1051125646819
 30
0.0
 11
53.15653834354979
 21
57.35271010743991
 31
0.0
  0
LINE
  5
210
330
2
100
AcDbEntity
  8
0
100
AcDbLine
 10
53.35358974151387
 20
56.89128074529332
 30
0.0
 11
53.26189472962764
 21
57.1051125646819
 31
0.0
  0
LINE
  5
211
330
2
100
AcDbEntity
  8
0
100
AcDbLine
 10
52.85984713191033
 20
57.03381195945025
 30
0.0
 11
52.75943835054381
 21
57.25015922759795
 31
0.0
  0
LINE
  5
212
330
2
100
AcDbEntity
  8
0
100
AcDbLine
 10
52.75943835054381
 20
57.25015922759795
 30
0.0
 11
52.64210883309636
 21
57.50121311561022
 31
0.0
  0
LINE
  5
213
330
2
100
AcDbEntity
  8
0
100
AcDbLine
 10
51.04717568349355
 20
57.74444688342648
 30
0.0
 11
50.94181929793075
 21
57.99204442602707
 31
0.0
  0
LINE
  5
214
330
2
100
AcDbEntity
  8
0
100
AcDbLine
 10
51.13886942615363
 20
57.53061543032741
 30
0.0
 11
51.04717568349355
 21
57.74444688342648
 31
0.0
  0
LINE
  5
215
330
2
100
AcDbEntity
  8
0
100
AcDbLine
 10
50.64512808577672
 20
57.6731462781946
 30
0.0
 11
50.54471930441048
 21
57.88949354634247
 31
0.0
  0
LINE
  5
216
330
2
100
AcDbEntity
  8
0
100
AcDbLine
 10
50.54471930441048
 20
57.88949354634247
 30
0.0
 11
50.42738978696732
 21
58.14054743434468
 31
0.0
  0
LINE
  5
217
330
2
100
AcDbEntity
  8
0
100
AcDbLine
 10
48.74727367136614
 20
58.40837140645412
 30
0.0
 11
48.64191872921475
 21
58.65596853225933
 31
0.0
  0
LINE
  5
218
330
2
100
AcDbEntity
  8
0
100
AcDbLine
 10
48.83896995247892
 20
58.1945392203827
 30
0.0
 11
48.74727367136614
 21
58.40837140645412
 31
0.0
  0
LINE
  5
219
330
2
100
AcDbEntity
  8
0
100
AcDbLine
 10
48.34522607364888
 20
58.33707080122219
 30
0.0
 11
48.24481729228264
 21
58.55341806897663
 31
0.0
  0
LINE
  5
21A
330
2
100
AcDbEntity
  8
0
100
AcDbLine
 10
48.24481729228264
 20
58.55341806897663
 30
0.0
 11
48.12748777493297
 21
58.80447195722703
 31
0.0
  0
SPLINE
  5
21B
330
2
100
AcDbEntity
  8
0
100
AcDbSpline
210
0.0
220
0.0
230
1.0
 70
     8
 71
     3
 72
    19
 73
    15
 74
     0
 42
0.000000001
 43
0.0000000001
 40
0.0
 40
0.0
 40
0.0
 40
0.0
 40
0.0505351771279586
 40
0.100570861254471
 40
0.1501391879765946
 40
0.1992740942391105
 40
0.2480113773817224
 40
0.3714970546633216
 40
0.4980855719798692
 40
0.5991678642368468
 40
0.6996020900736572
 40
0.7996776442762066
 40
0.8997025868124648
 40
1.0
 40
1.0
 40
1.0
 40
1.0
 10
70.1534039542401
 20
51.92228676648898
 30
0.0
 10
70.14936670985761
 20
51.91653462763227
 30
0.0
 10
70.14133212548077
 20
51.90508720443599
 30
0.0
 10
70.12769224382748
 20
51.88892535890147
 30
0.0
 10
70.11296813969628
 20
51.87365066852891
 30
0.0
 10
70.09704693463868
 20
51.85935145469739
 30
0.0
 10
70.07120522559566
 20
51.83919495880083
 30
0.0
 10
70.03153421348773
 20
51.81536062243981
 30
0.0
 10
69.97753546708961
 20
51.79353234029087
 30
0.0
 10
69.92172288932668
 20
51.7784664233078
 30
0.0
 10
69.86636105609983
 20
51.7691291384327
 30
0.0
 10
69.80731295130531
 20
51.76472312314431
 30
0.0
 10
69.74499201187817
 20
51.76493304790824
 30
0.0
 10
69.70089279189901
 20
51.76941019493995
 30
0.0
 10
69.67881319089002
 20
51.77165181327593
 30
0.0
  0
SPLINE
  5
21C
330
2
100
AcDbEntity
  8
0
100
AcDbSpline
210
0.0
220
0.0
230
1.0
 70
     8
 71
     3
 72
     8
 73
     4
 74
     0
 42
0.000000001
 43
0.0000000001
 40
0.0
 40
0.0
 40
0.0
 40
0.0
 40
1.0
 40
1.0
 40
1.0
 40
1.0
 10
70.20035562724425
 20
51.99378608268541
 30
0.0
 10
70.18448509233346
 20
51.96958212223054
 30
0.0
 10
70.16883460896534
 20
51.94576069901891
 30
0.0
 10
70.15340395424075
 20
51.92228676649061
 30
0.0
  0
SPLINE
  5
21D
330
2
100
AcDbEntity
  8
0
100
AcDbSpline
210
0.0
220
0.0
230
1.0
 70
     8
 71
     3
 72
    19
 73
    15
 74
     0
 42
0.000000001
 43
0.0000000001
 40
0.0
 40
0.0
 40
0.0
 40
0.0
 40
0.1954724188406158
 40
0.2475822089260478
 40
0.3013215774318739
 40
0.4197662907704808
 40
0.5548255591133025
 40
0.6266301508206043
 40
0.7003898496495244
 40
0.7738624969229321
 40
0.8483187001379905
 40
0.8983959827178617
 40
0.9488982698859576
 40
1.0
 40
1.0
 40
1.0
 40
1.0
 10
69.80203847260785
 20
52.54756811726123
 30
0.0
 10
69.85681577218798
 20
52.53175527293194
 30
0.0
 10
69.9154453734954
 20
52.51514629623116
 30
0.0
 10
69.97392556136279
 20
52.48894246932316
 30
0.0
 10
70.04974304876404
 20
52.44152743257641
 30
0.0
 10
70.13673180957758
 20
52.37004416547016
 30
0.0
 10
70.19843742406497
 20
52.29102125696169
 30
0.0
 10
70.23127525991981
 20
52.22413204710186
 30
0.0
 10
70.24615995196057
 20
52.17320314575837
 30
0.0
 10
70.25077986942932
 20
52.12371790586028
 30
0.0
 10
70.24552188028824
 20
52.08203630989525
 30
0.0
 10
70.23417607131901
 20
52.04758850194497
 30
0.0
 10
70.22009413564308
 20
52.01943297999278
 30
0.0
 10
70.20696095773203
 20
52.00236860722345
 30
0.0
 10
70.20035562724294
 20
51.99378608268212
 30
0.0
  0
SPLINE
  5
21E
330
2
100
AcDbEntity
  8
0
100
AcDbSpline
210
0.0
220
0.0
230
1.0
 70
     8
 71
     3
 72
     8
 73
     4
 74
     0
 42
0.000000001
 43
0.0000000001
 40
0.0
 40
0.0
 40
0.0
 40
0.0
 40
1.0
 40
1.0
 40
1.0
 40
1.0
 10
69.67881319088909
 20
51.77165181327373
 30
0.0
 10
69.59859019364995
 20
51.78102944632395
 30
0.0
 10
69.5119596709076
 20
51.79903856088918
 30
0.0
 10
69.42113981690988
 20
51.82521869243579
 30
0.0
  0
LINE
  5
21F
330
2
100
AcDbEntity
  8
0
100
AcDbLine
 10
69.28253467844857
 20
52.29299042164818
 30
0.0
 11
68.78879206884517
 21
52.43552163580508
 31
0.0
  0
LINE
  5
220
330
2
100
AcDbEntity
  8
0
100
AcDbLine
 10
69.28253467844857
 20
52.29299042164818
 30
0.0
 11
69.46806967908497
 21
52.64397660368235
 31
0.0
  0
LINE
  5
221
330
2
100
AcDbEntity
  8
0
100
AcDbLine
 10
69.19083903194891
 20
52.50682242437832
 30
0.0
 11
69.08548336787433
 21
52.75441975856573
 31
0.0
  0
LINE
  5
222
330
2
100
AcDbEntity
  8
0
100
AcDbLine
 10
69.28253467844857
 20
52.29299042164818
 30
0.0
 11
69.19083903194891
 21
52.50682242437832
 31
0.0
  0
LINE
  5
223
330
2
100
AcDbEntity
  8
0
100
AcDbLine
 10
68.78879206884517
 20
52.43552163580508
 30
0.0
 11
68.6883832874787
 21
52.65186890395278
 31
0.0
  0
LINE
  5
224
330
2
100
AcDbEntity
  8
0
100
AcDbLine
 10
68.6883832874787
 20
52.65186890395278
 30
0.0
 11
68.57105449219691
 21
52.90292258349218
 31
0.0
  0
ARC
  5
225
330
2
100
AcDbEntity
  8
0
100
AcDbCircle
 10
74.06352341266887
 20
71.54033353884983
 30
0.0
 40
1.43973469242016
100
AcDbArc
 50
226.1285274958101
 51
252.589238193219
  0
LINE
  5
226
330
2
100
AcDbEntity
  8
0
100
AcDbLine
 10
73.8094721908308
 20
70.10767232780435
 30
0.0
 11
73.6327259678402
 21
70.16656152498171
 31
0.0
  0
ARC
  5
227
330
2
100
AcDbEntity
  8
0
100
AcDbCircle
 10
-0.0639353121550244
 20
106.7030453074938
 30
0.0
 40
78.8096513309616
100
AcDbArc
 50
337.7879814765041
 51
338.4509480045267
  0
LINE
  5
228
330
2
100
AcDbEntity
  8
0
100
AcDbLine
 10
57.45181373189073
 20
98.94784897851513
 30
0.0
 11
57.35782437300002
 21
98.59195833609064
 31
0.0
  0
LINE
  5
229
330
2
100
AcDbEntity
  8
0
100
AcDbLine
 10
66.70595270686053
 20
95.06854403053019
 30
0.0
 11
66.18024395692791
 21
95.22030307471117
 31
0.0
  0
SPLINE
  5
22A
330
2
100
AcDbEntity
  8
0
100
AcDbSpline
210
0.0
220
0.0
230
1.0
 70
     8
 71
     3
 72
     9
 73
     5
 74
     0
 42
0.000000001
 43
0.0000000001
 40
0.0
 40
0.0
 40
0.0
 40
0.0
 40
0.5599475811448509
 40
1.0
 40
1.0
 40
1.0
 40
1.0
 10
47.6434909124458
 20
101.8659482531599
 30
0.0
 10
47.69632808044886
 20
101.8652425948882
 30
0.0
 10
47.79068899883154
 20
101.8639823728691
 30
0.0
 10
47.8822585053397
 20
101.8409842626138
 30
0.0
 10
47.92255388817207
 20
101.830863888567
 30
0.0
  0
SPLINE
  5
22B
330
2
100
AcDbEntity
  8
0
100
AcDbSpline
210
0.0
220
0.0
230
1.0
 70
     8
 71
     3
 72
     9
 73
     5
 74
     0
 42
0.000000001
 43
0.0000000001
 40
0.0
 40
0.0
 40
0.0
 40
0.0
 40
0.5718308683588581
 40
1.0
 40
1.0
 40
1.0
 40
1.0
 10
66.89101316578308
 20
95.8398823021705
 30
0.0
 10
66.85593521250632
 20
95.69280580642034
 30
0.0
 10
66.79459198111138
 20
95.43560301467108
 30
0.0
 10
66.73472577728469
 20
95.17800433332435
 30
0.0
 10
66.70909291677773
 20
95.06770852962011
 30
0.0
  0
SPLINE
  5
22C
330
2
100
AcDbEntity
  8
0
100
AcDbSpline
210
0.0
220
0.0
230
1.0
 70
     8
 71
     3
 72
     9
 73
     5
 74
     0
 42
0.000000001
 43
0.0000000001
 40
0.0
 40
0.0
 40
0.0
 40
0.0
 40
0.5718308623903785
 40
1.0
 40
1.0
 40
1.0
 40
1.0
 10
66.38855805607267
 20
95.98492859859383
 30
0.0
 10
66.34983198592374
 20
95.83890522237725
 30
0.0
 10
66.28210904073828
 20
95.58354409058036
 30
0.0
 10
66.21292394711935
 20
95.32863554626493
 30
0.0
 10
66.18330102524888
 20
95.21949157467599
 30
0.0
  0
SPLINE
  5
22D
330
2
100
AcDbEntity
  8
0
100
AcDbSpline
210
0.0
220
0.0
230
1.0
 70
     8
 71
     3
 72
     9
 73
     5
 74
     0
 42
0.000000001
 43
0.0000000001
 40
0.0
 40
0.0
 40
0.0
 40
0.0
 40
0.5718308623903785
 40
1.0
 40
1.0
 40
1.0
 40
1.0
 10
64.17383837542738
 20
96.62426310049397
 30
0.0
 10
64.13511230527823
 20
96.4782397242774
 30
0.0
 10
64.06738936009265
 20
96.22287859248043
 30
0.0
 10
63.99820426647403
 20
95.96797004816476
 30
0.0
 10
63.96858134460368
 20
95.8588260765762
 30
0.0
  0
SPLINE
  5
22E
330
2
100
AcDbEntity
  8
0
100
AcDbSpline
210
0.0
220
0.0
230
1.0
 70
     8
 71
     3
 72
     9
 73
     5
 74
     0
 42
0.000000001
 43
0.0000000001
 40
0.0
 40
0.0
 40
0.0
 40
0.0
 40
0.5718308623903785
 40
1.0
 40
1.0
 40
1.0
 40
1.0
 10
64.67629411978936
 20
96.47921662086243
 30
0.0
 10
64.64121589423879
 20
96.33214020261533
 30
0.0
 10
64.57987218605928
 20
96.07493754371716
 30
0.0
 10
64.52000606259017
 20
95.81733884443917
 30
0.0
 10
64.49437323613228
 20
95.70704303152034
 30
0.0
  0
SPLINE
  5
22F
330
2
100
AcDbEntity
  8
0
100
AcDbSpline
210
0.0
220
0.0
230
1.0
 70
     8
 71
     3
 72
     9
 73
     5
 74
     0
 42
0.000000001
 43
0.0000000001
 40
0.0
 40
0.0
 40
0.0
 40
0.0
 40
0.5718308623903785
 40
1.0
 40
1.0
 40
1.0
 40
1.0
 10
61.87393699773534
 20
97.28818744025405
 30
0.0
 10
61.83521092758656
 20
97.14216406403755
 30
0.0
 10
61.76748798240075
 20
96.88680293224029
 30
0.0
 10
61.69830288878216
 20
96.63189438792485
 30
0.0
 10
61.66867996691178
 20
96.52275041633629
 30
0.0
  0
SPLINE
  5
230
330
2
100
AcDbEntity
  8
0
100
AcDbSpline
210
0.0
220
0.0
230
1.0
 70
     8
 71
     3
 72
     9
 73
     5
 74
     0
 42
0.000000001
 43
0.0000000001
 40
0.0
 40
0.0
 40
0.0
 40
0.0
 40
0.5718308623903785
 40
1.0
 40
1.0
 40
1.0
 40
1.0
 10
62.37639274209738
 20
97.1431409606223
 30
0.0
 10
62.3413145165469
 20
96.99606454237541
 30
0.0
 10
62.27997080836741
 20
96.73886188347672
 30
0.0
 10
62.22010468489822
 20
96.4812631841994
 30
0.0
 10
62.19447185844055
 20
96.3709673712802
 30
0.0
  0
SPLINE
  5
231
330
2
100
AcDbEntity
  8
0
100
AcDbSpline
210
0.0
220
0.0
230
1.0
 70
     8
 71
     3
 72
     9
 73
     5
 74
     0
 42
0.000000001
 43
0.0000000001
 40
0.0
 40
0.0
 40
0.0
 40
0.0
 40
0.5718308564225351
 40
1.0
 40
1.0
 40
1.0
 40
1.0
 10
59.57403562004339
 20
97.95211178001409
 30
0.0
 10
59.53530982165418
 20
97.80608832425183
 30
0.0
 10
59.46758735100676
 20
97.55072705068249
 30
0.0
 10
59.3984021795029
 20
97.29581853411666
 30
0.0
 10
59.36877922387165
 20
97.18667457288793
 30
0.0
  0
SPLINE
  5
232
330
2
100
AcDbEntity
  8
0
100
AcDbSpline
210
0.0
220
0.0
230
1.0
 70
     8
 71
     3
 72
     9
 73
     5
 74
     0
 42
0.000000001
 43
0.0000000001
 40
0.0
 40
0.0
 40
0.0
 40
0.0
 40
0.5718308564225351
 40
1.0
 40
1.0
 40
1.0
 40
1.0
 10
60.07649199905728
 20
97.80706511717431
 30
0.0
 10
60.04141350123302
 20
97.65998877643042
 30
0.0
 10
59.98006931626893
 20
97.40278625038305
 30
0.0
 10
59.92020327315723
 20
97.14518753317436
 30
0.0
 10
59.89457048074851
 20
97.03489171104015
 30
0.0
  0
SPLINE
  5
233
330
2
100
AcDbEntity
  8
0
100
AcDbSpline
210
0.0
220
0.0
230
1.0
 70
     8
 71
     3
 72
     9
 73
     5
 74
     0
 42
0.000000001
 43
0.0000000001
 40
0.0
 40
0.0
 40
0.0
 40
0.0
 40
0.5718308683588581
 40
1.0
 40
1.0
 40
1.0
 40
1.0
 10
57.86177168376013
 20
98.44639980228258
 30
0.0
 10
57.82669373048381
 20
98.29932330653228
 30
0.0
 10
57.7653504990885
 20
98.04212051478332
 30
0.0
 10
57.70548429526218
 20
97.78452183343652
 30
0.0
 10
57.67985143475485
 20
97.67422602973191
 30
0.0
  0
SPLINE
  5
234
330
2
100
AcDbEntity
  8
0
100
AcDbSpline
210
0.0
220
0.0
230
1.0
 70
     8
 71
     3
 72
     9
 73
     5
 74
     0
 42
0.000000001
 43
0.0000000001
 40
0.0
 40
0.0
 40
0.0
 40
0.0
 40
0.5718308683588581
 40
1.0
 40
1.0
 40
1.0
 40
1.0
 10
57.35931657405007
 20
98.59144609870599
 30
0.0
 10
57.32059023214119
 20
98.44542280203528
 30
0.0
 10
57.25286681241809
 20
98.19006181201025
 30
0.0
 10
57.18368179668406
 20
97.93515323994526
 30
0.0
 10
57.15405890857451
 20
97.8260092579962
 30
0.0
  0
SPLINE
  5
235
330
2
100
AcDbEntity
  8
0
100
AcDbSpline
210
0.0
220
0.0
230
1.0
 70
     8
 71
     3
 72
     9
 73
     5
 74
     0
 42
0.000000001
 43
0.0000000001
 40
0.0
 40
0.0
 40
0.0
 40
0.0
 40
0.5718308683588581
 40
1.0
 40
1.0
 40
1.0
 40
1.0
 10
55.05941583100997
 20
99.25537025525777
 30
0.0
 10
55.0206894891013
 20
99.10934695858692
 30
0.0
 10
54.95296606937796
 20
98.85398596856227
 30
0.0
 10
54.88378105364401
 20
98.59907739649699
 30
0.0
 10
54.85415816553469
 20
98.489933414548
 30
0.0
  0
SPLINE
  5
236
330
2
100
AcDbEntity
  8
0
100
AcDbSpline
210
0.0
220
0.0
230
1.0
 70
     8
 71
     3
 72
     9
 73
     5
 74
     0
 42
0.000000001
 43
0.0000000001
 40
0.0
 40
0.0
 40
0.0
 40
0.0
 40
0.5718308683588581
 40
1.0
 40
1.0
 40
1.0
 40
1.0
 10
55.56187094072001
 20
99.11032395883438
 30
0.0
 10
55.5267929874434
 20
98.96324746308415
 30
0.0
 10
55.46544975604845
 20
98.70604467133503
 30
0.0
 10
55.40558355222185
 20
98.44844598998804
 30
0.0
 10
55.37995069171495
 20
98.33815018628392
 30
0.0
  0
SPLINE
  5
237
330
2
100
AcDbEntity
  8
0
100
AcDbSpline
210
0.0
220
0.0
230
1.0
 70
     8
 71
     3
 72
     9
 73
     5
 74
     0
 42
0.000000001
 43
0.0000000001
 40
0.0
 40
0.0
 40
0.0
 40
0.0
 40
0.5718308564225351
 40
1.0
 40
1.0
 40
1.0
 40
1.0
 10
52.75951381866622
 20
99.9192947782258
 30
0.0
 10
52.7207880202769
 20
99.77327132246372
 30
0.0
 10
52.65306554962933
 20
99.51791004889459
 30
0.0
 10
52.58388037812554
 20
99.26300153232846
 30
0.0
 10
52.55425742249437
 20
99.15385757109987
 30
0.0
  0
SPLINE
  5
238
330
2
100
AcDbEntity
  8
0
100
AcDbSpline
210
0.0
220
0.0
230
1.0
 70
     8
 71
     3
 72
     9
 73
     5
 74
     0
 42
0.000000001
 43
0.0000000001
 40
0.0
 40
0.0
 40
0.0
 40
0.0
 40
0.5718308564225351
 40
1.0
 40
1.0
 40
1.0
 40
1.0
 10
53.2619701976802
 20
99.77424811538611
 30
0.0
 10
53.22689169985565
 20
99.62717177464242
 30
0.0
 10
53.16554751489156
 20
99.36996924859501
 30
0.0
 10
53.10568147178
 20
99.11237053138602
 30
0.0
 10
53.08004867937123
 20
99.00207470925209
 30
0.0
  0
SPLINE
  5
239
330
2
100
AcDbEntity
  8
0
100
AcDbSpline
210
0.0
220
0.0
230
1.0
 70
     8
 71
     3
 72
     9
 73
     5
 74
     0
 42
0.000000001
 43
0.0000000001
 40
0.0
 40
0.0
 40
0.0
 40
0.0
 40
0.4981692180306485
 40
1.0
 40
1.0
 40
1.0
 40
1.0
 10
46.95656602891739
 20
101.5314696756488
 30
0.0
 10
47.05497720797976
 20
101.6244403283275
 30
0.0
 10
47.2525228922587
 20
101.8110649717493
 30
0.0
 10
47.51285050365192
 20
101.8476092229856
 30
0.0
 10
47.6434909124458
 20
101.8659482531599
 30
0.0
  0
SPLINE
  5
23A
330
2
100
AcDbEntity
  8
0
100
AcDbSpline
210
0.0
220
0.0
230
1.0
 70
     8
 71
     3
 72
     9
 73
     5
 74
     0
 42
0.000000001
 43
0.0000000001
 40
0.0
 40
0.0
 40
0.0
 40
0.0
 40
0.561215280618309
 40
1.0
 40
1.0
 40
1.0
 40
1.0
 10
46.84777132523566
 20
101.4064085202819
 30
0.0
 10
46.86806231757183
 20
101.4297999655153
 30
0.0
 10
46.90421776992065
 20
101.4714799518612
 30
0.0
 10
46.9406014333635
 20
101.5131746703131
 30
0.0
 10
46.95656602891739
 20
101.5314696756488
 30
0.0
  0
SPLINE
  5
23B
330
2
100
AcDbEntity
  8
0
100
AcDbSpline
210
0.0
220
0.0
230
1.0
 70
     8
 71
     3
 72
    15
 73
    11
 74
     0
 42
0.000000001
 43
0.0000000001
 40
0.0
 40
0.0
 40
0.0
 40
0.0
 40
0.0963509274014347
 40
0.195212221227588
 40
0.3009515942447997
 40
0.4195954329937355
 40
0.5548829956202319
 40
0.7004210106289215
 40
0.8483495573845994
 40
1.0
 40
1.0
 40
1.0
 40
1.0
 10
46.84417461761009
 20
100.3504685429816
 30
0.0
 10
46.81213729480757
 20
100.3655038911077
 30
0.0
 10
46.74722793570563
 20
100.3959663244621
 30
0.0
 10
46.67040947106559
 20
100.4841382054189
 30
0.0
 10
46.61593122429496
 20
100.6027095835312
 30
0.0
 10
46.59105490524081
 20
100.7526067111159
 30
0.0
 10
46.60152078282666
 20
100.9242001935912
 30
0.0
 10
46.64977312977254
 20
101.100839182137
 30
0.0
 10
46.73059177104756
 20
101.2695793208754
 30
0.0
 10
46.80838929472452
 20
101.3604225823494
 30
0.0
 10
46.84777132523566
 20
101.4064085202819
 30
0.0
  0
SPLINE
  5
23C
330
2
100
AcDbEntity
  8
0
100
AcDbSpline
210
0.0
220
0.0
230
1.0
 70
     8
 71
     3
 72
     9
 73
     5
 74
     0
 42
0.000000001
 43
0.0000000001
 40
0.0
 40
0.0
 40
0.0
 40
0.0
 40
0.5718308564225351
 40
1.0
 40
1.0
 40
1.0
 40
1.0
 10
51.04725115168654
 20
100.4135824340778
 30
0.0
 10
51.01217265386177
 20
100.2665060933342
 30
0.0
 10
50.95082846889835
 20
100.0093035672867
 30
0.0
 10
50.89096242578619
 20
99.75170485007787
 30
0.0
 10
50.86532963337771
 20
99.64140902794408
 30
0.0
  0
SPLINE
  5
23D
330
2
100
AcDbEntity
  8
0
100
AcDbSpline
210
0.0
220
0.0
230
1.0
 70
     8
 71
     3
 72
     9
 73
     5
 74
     0
 42
0.000000001
 43
0.0000000001
 40
0.0
 40
0.0
 40
0.0
 40
0.0
 40
0.5718308887998629
 40
1.0
 40
1.0
 40
1.0
 40
1.0
 10
50.5447947726727
 20
100.5586290969177
 30
0.0
 10
50.50606827015096
 20
100.4126058503638
 30
0.0
 10
50.43834457197369
 20
100.1572449571106
 30
0.0
 10
50.36916075144566
 20
99.9023360219826
 30
0.0
 10
50.33953837650071
 20
99.79319188979166
 30
0.0
  0
SPLINE
  5
23E
330
2
100
AcDbEntity
  8
0
100
AcDbSpline
210
0.0
220
0.0
230
1.0
 70
     8
 71
     3
 72
     9
 73
     5
 74
     0
 42
0.000000001
 43
0.0000000001
 40
0.0
 40
0.0
 40
0.0
 40
0.0
 40
0.5718308887998629
 40
1.0
 40
1.0
 40
1.0
 40
1.0
 10
48.74734913934287
 20
101.077506957046
 30
0.0
 10
48.7122713484408
 20
100.9304304181743
 30
0.0
 10
48.6509284031938
 20
100.67322756021
 30
0.0
 10
48.59106099569331
 20
100.4156292082974
 30
0.0
 10
48.56542762103391
 20
100.3053335509123
 30
0.0
  0
LINE
  5
23F
330
2
100
AcDbEntity
  8
0
100
AcDbLine
 10
69.42320072974121
 20
95.6238776179642
 30
0.0
 11
47.92255388825512
 21
101.8308638884195
 31
0.0
  0
LINE
  5
240
330
2
100
AcDbEntity
  8
0
100
AcDbLine
 10
48.03963636397458
 20
100.4571164127405
 30
0.0
 11
48.56542762095765
 21
100.3053335509
 31
0.0
  0
LINE
  5
241
330
2
100
AcDbEntity
  8
0
100
AcDbLine
 10
50.33953837649566
 20
99.7931918897127
 30
0.0
 11
50.86532963347892
 21
99.64140902787251
 31
0.0
  0
LINE
  5
242
330
2
100
AcDbEntity
  8
0
100
AcDbLine
 10
53.08004867921929
 20
99.00207470912771
 30
0.0
 11
52.55425742262946
 21
99.15385757096842
 31
0.0
  0
LINE
  5
243
330
2
100
AcDbEntity
  8
0
100
AcDbLine
 10
55.37995069174036
 20
98.33815018610016
 30
0.0
 11
54.85415816553071
 21
98.48993341462353
 31
0.0
  0
LINE
  5
244
330
2
100
AcDbEntity
  8
0
100
AcDbLine
 10
57.67985143464162
 20
97.67422602975535
 30
0.0
 11
57.154058908432
 21
97.82600925788553
 31
0.0
  0
LINE
  5
245
330
2
100
AcDbEntity
  8
0
100
AcDbLine
 10
59.36877922379221
 20
97.18667457285132
 30
0.0
 11
59.89457048077534
 21
97.03489171101089
 31
0.0
  0
LINE
  5
246
330
2
100
AcDbEntity
  8
0
100
AcDbLine
 10
61.66867996708695
 20
96.52275041650653
 30
0.0
 11
62.19447185828997
 21
96.37096737132486
 31
0.0
  0
LINE
  5
247
330
2
100
AcDbEntity
  8
0
100
AcDbLine
 10
63.96858134460143
 20
95.85882607642686
 30
0.0
 11
64.49437323619799
 21
95.70704303163855
 31
0.0
  0
LINE
  5
248
330
2
100
AcDbEntity
  8
0
100
AcDbLine
 10
66.70909291694485
 20
95.06770852955254
 30
0.0
 11
66.18330102534844
 21
95.21949157473445
 31
0.0
  0
LINE
  5
249
330
2
100
AcDbEntity
  8
0
100
AcDbLine
 10
47.3175450994606
 20
100.1878026479375
 30
0.0
 11
69.17486618622686
 21
93.87814462719941
 31
0.0
  0
LINE
  5
24A
330
2
100
AcDbEntity
  8
0
100
AcDbLine
 10
67.0064815688514
 20
96.32180849670845
 30
0.0
 11
66.891013165809
 21
95.83988230202271
 31
0.0
  0
LINE
  5
24B
330
2
100
AcDbEntity
  8
0
100
AcDbLine
 10
64.79176166920263
 20
96.96114306181982
 30
0.0
 11
64.67629411967547
 21
96.47921662076708
 31
0.0
  0
LINE
  5
24C
330
2
100
AcDbEntity
  8
0
100
AcDbLine
 10
66.51499740473173
 20
96.46368775393474
 30
0.0
 11
66.38855805595198
 21
95.98492859864911
 31
0.0
  0
LINE
  5
24D
330
2
100
AcDbEntity
  8
0
100
AcDbLine
 10
64.30027857741734
 20
97.10302200948992
 30
0.0
 11
64.17383837559857
 21
96.62426310034154
 31
0.0
  0
LINE
  5
24E
330
2
100
AcDbEntity
  8
0
100
AcDbLine
 10
60.19195869473961
 20
98.28899180456261
 30
0.0
 11
60.07649199886606
 21
97.80706511719159
 31
0.0
  0
LINE
  5
24F
330
2
100
AcDbEntity
  8
0
100
AcDbLine
 10
62.00037720006543
 20
97.76694634914161
 30
0.0
 11
61.87393699769049
 21
97.28818744042126
 31
0.0
  0
LINE
  5
250
330
2
100
AcDbEntity
  8
0
100
AcDbLine
 10
62.49186029157224
 20
97.62506740155219
 30
0.0
 11
62.3763927421607
 21
97.14314096045358
 31
0.0
  0
LINE
  5
251
330
2
100
AcDbEntity
  8
0
100
AcDbLine
 10
57.97724008690522
 20
98.92832599675926
 30
0.0
 11
57.86177168389935
 21
98.44639980222552
 31
0.0
  0
LINE
  5
252
330
2
100
AcDbEntity
  8
0
100
AcDbLine
 10
59.70047667605701
 20
98.43087044245461
 30
0.0
 11
59.57403562017621
 21
97.9521117801077
 31
0.0
  0
LINE
  5
253
330
2
100
AcDbEntity
  8
0
100
AcDbLine
 10
57.48575592278192
 20
99.0702052539865
 30
0.0
 11
57.35931657404226
 21
98.59144609885207
 31
0.0
  0
LINE
  5
254
330
2
100
AcDbEntity
  8
0
100
AcDbLine
 10
53.37743689357771
 20
100.2561748026827
 30
0.0
 11
53.26197019770336
 21
99.77424811530877
 31
0.0
  0
LINE
  5
255
330
2
100
AcDbEntity
  8
0
100
AcDbLine
 10
55.1858551792975
 20
99.73412941065674
 30
0.0
 11
55.05941583114105
 21
99.25537025519679
 31
0.0
  0
LINE
  5
256
330
2
100
AcDbEntity
  8
0
100
AcDbLine
 10
55.67733934370145
 20
99.59225015334824
 30
0.0
 11
55.56187094060456
 21
99.11032395896366
 31
0.0
  0
LINE
  5
257
330
2
100
AcDbEntity
  8
0
100
AcDbLine
 10
51.1627178474389
 20
100.8955091214069
 30
0.0
 11
51.04725115156956
 21
100.4135824340532
 31
0.0
  0
LINE
  5
258
330
2
100
AcDbEntity
  8
0
100
AcDbLine
 10
52.88595316726357
 20
100.3980539335255
 30
0.0
 11
52.75951381861964
 21
99.91929477822466
 31
0.0
  0
LINE
  5
259
330
2
100
AcDbEntity
  8
0
100
AcDbLine
 10
47.3175450994606
 20
100.1878026479375
 30
0.0
 11
46.84417461777019
 21
100.3504685431453
 31
0.0
  0
LINE
  5
25A
330
2
100
AcDbEntity
  8
0
100
AcDbLine
 10
50.67123582839045
 20
101.0373877594046
 30
0.0
 11
50.54479477248597
 21
100.5586290969688
 31
0.0
  0
LINE
  5
25B
330
2
100
AcDbEntity
  8
0
100
AcDbLine
 10
48.86281583528185
 20
101.5594336443113
 30
0.0
 11
48.74734913944184
 21
101.0775069570807
 31
0.0
  0
LINE
  5
25C
330
2
100
AcDbEntity
  8
0
100
AcDbLine
 10
66.891013165809
 20
95.83988230202271
 30
0.0
 11
67.31700189356911
 21
96.23216900017762
 31
0.0
  0
LINE
  5
25D
330
2
100
AcDbEntity
  8
0
100
AcDbLine
 10
64.67629411967547
 20
96.47921662076708
 30
0.0
 11
65.10228199367927
 21
96.87150356535829
 31
0.0
  0
LINE
  5
25E
330
2
100
AcDbEntity
  8
0
100
AcDbLine
 10
60.07649199886606
 20
97.80706511719159
 30
0.0
 11
60.50247987321634
 21
98.1993520615727
 31
0.0
  0
LINE
  5
25F
330
2
100
AcDbEntity
  8
0
100
AcDbLine
 10
62.3763927421607
 20
97.14314096045358
 30
0.0
 11
62.80238146991317
 21
97.53542765860148
 31
0.0
  0
LINE
  5
260
330
2
100
AcDbEntity
  8
0
100
AcDbLine
 10
57.86177168389935
 20
98.44639980222552
 30
0.0
 11
58.28776126485985
 21
98.8386862539199
 31
0.0
  0
LINE
  5
261
330
2
100
AcDbEntity
  8
0
100
AcDbLine
 10
53.26197019770336
 20
99.77424811530877
 30
0.0
 11
53.68795807161896
 21
100.1665350598185
 31
0.0
  0
LINE
  5
262
330
2
100
AcDbEntity
  8
0
100
AcDbLine
 10
55.56187094060456
 20
99.11032395896366
 30
0.0
 11
55.98785881482772
 21
99.50261090322779
 31
0.0
  0
LINE
  5
263
330
2
100
AcDbEntity
  8
0
100
AcDbLine
 10
51.04725115156956
 20
100.4135824340532
 30
0.0
 11
51.3639610509696
 21
100.7052381836063
 31
0.0
  0
LINE
  5
264
330
2
100
AcDbEntity
  8
0
100
AcDbLine
 10
48.74734913944184
 20
101.0775069570807
 30
0.0
 11
49.17333872070682
 21
101.4697934085678
 31
0.0
  0
LINE
  5
265
330
2
100
AcDbEntity
  8
0
100
AcDbLine
 10
46.6007262543244
 20
100.8724939823116
 30
0.0
 11
70.18881114011268
 21
94.06320040310799
 31
0.0
  0
LINE
  5
266
330
2
100
AcDbEntity
  8
0
100
AcDbLine
 10
48.37133381623047
 20
101.7013122823097
 30
0.0
 11
48.03963636415713
 21
100.4571164127598
 31
0.0
  0
LINE
  5
267
330
2
100
AcDbEntity
  8
0
100
AcDbLine
 10
69.00544988706437
 20
94.40444491960786
 30
0.0
 11
68.47974050251986
 21
94.55620414700307
 31
0.0
  0
SPLINE
  5
268
330
2
100
AcDbEntity
  8
0
100
AcDbSpline
210
0.0
220
0.0
230
1.0
 70
     8
 71
     3
 72
    15
 73
    11
 74
     0
 42
0.000000001
 43
0.0000000001
 40
0.0
 40
0.0
 40
0.0
 40
0.0
 40
0.0963511121633696
 40
0.1952141889461218
 40
0.3009540179886477
 40
0.4195984467789815
 40
0.5552999397323392
 40
0.7004195668145591
 40
0.8498830823178719
 40
1.0
 40
1.0
 40
1.0
 40
1.0
 10
69.68497286198149
 20
93.75661366837155
 30
0.0
 10
69.72348782793665
 20
93.75128017851368
 30
0.0
 10
69.80152188143555
 20
93.74047414967277
 30
0.0
 10
69.9223427958396
 20
93.77160018988018
 30
0.0
 10
70.037372196472
 20
93.84123768241945
 30
0.0
 10
70.13897023944844
 20
93.95478600002602
 30
0.0
 10
70.2146722282898
 20
94.10758653328866
 30
0.0
 10
70.25342486537491
 20
94.28762581064258
 30
0.0
 10
70.25364786337269
 20
94.47943358569789
 30
0.0
 10
70.21960142095299
 20
94.60251028497346
 30
0.0
 10
70.1555820654429
 20
94.83420623167452
 30
0.0
  0
SPLINE
  5
269
330
2
100
AcDbEntity
  8
0
100
AcDbSpline
210
0.0
220
0.0
230
1.0
 70
     8
 71
     3
 72
    10
 73
     6
 74
     0
 42
0.000000001
 43
0.0000000001
 40
0.0
 40
0.0
 40
0.0
 40
0.0
 40
0.0931001383357514
 40
0.4988362274197499
 40
1.0
 40
1.0
 40
1.0
 40
1.0
 10
70.1555820654429
 20
94.83420623167452
 30
0.0
 10
70.14797803778714
 20
94.85977508971489
 30
0.0
 10
70.10723519318083
 20
94.99677459274771
 30
0.0
 10
69.9765179728638
 20
95.25879141585313
 30
0.0
 10
69.78612814023961
 20
95.41672893571812
 30
0.0
 10
69.68091642854756
 20
95.50400710901305
 30
0.0
  0
SPLINE
  5
26A
330
2
100
AcDbEntity
  8
0
100
AcDbSpline
210
0.0
220
0.0
230
1.0
 70
     8
 71
     3
 72
     9
 73
     5
 74
     0
 42
0.000000001
 43
0.0000000001
 40
0.0
 40
0.0
 40
0.0
 40
0.0
 40
0.5599475811448509
 40
1.0
 40
1.0
 40
1.0
 40
1.0
 10
69.68091642854756
 20
95.50400710901305
 30
0.0
 10
69.63490832971718
 20
95.53183562144877
 30
0.0
 10
69.55274331931341
 20
95.58153404568127
 30
0.0
 10
69.46278668828518
 20
95.61093801761199
 30
0.0
 10
69.42320105520898
 20
95.62387730658413
 30
0.0
  0
SPLINE
  5
26B
330
2
100
AcDbEntity
  8
0
100
AcDbSpline
210
0.0
220
0.0
230
1.0
 70
     8
 71
     3
 72
     9
 73
     5
 74
     0
 42
0.000000001
 43
0.0000000001
 40
0.0
 40
0.0
 40
0.0
 40
0.0
 40
0.5718308887998629
 40
1.0
 40
1.0
 40
1.0
 40
1.0
 10
68.68488950850807
 20
95.32175044032486
 30
0.0
 10
68.64616300598638
 20
95.17572719377115
 30
0.0
 10
68.57843930780919
 20
94.92036630051792
 30
0.0
 10
68.50925548728103
 20
94.66545736538968
 30
0.0
 10
68.47963311233598
 20
94.55631323319888
 30
0.0
  0
SPLINE
  5
26C
330
2
100
AcDbEntity
  8
0
100
AcDbSpline
210
0.0
220
0.0
230
1.0
 70
     8
 71
     3
 72
     9
 73
     5
 74
     0
 42
0.000000001
 43
0.0000000001
 40
0.0
 40
0.0
 40
0.0
 40
0.0
 40
0.5718308887998629
 40
1.0
 40
1.0
 40
1.0
 40
1.0
 10
69.18734588752196
 20
95.17670377748517
 30
0.0
 10
69.15226809661945
 20
95.02962723861337
 30
0.0
 10
69.0909251513726
 20
94.77242438064903
 30
0.0
 10
69.03105774387217
 20
94.51482602873632
 30
0.0
 10
69.0054243692127
 20
94.40453037135116
 30
0.0
  0
LINE
  5
26D
330
2
100
AcDbEntity
  8
0
100
AcDbLine
 10
69.17482596792712
 20
93.87786478411987
 30
0.0
 11
69.68497286183822
 21
93.75661366852058
 31
0.0
  0
LINE
  5
26E
330
2
100
AcDbEntity
  8
0
100
AcDbLine
 10
69.00542436913145
 20
94.40453037134371
 30
0.0
 11
68.47963311214832
 21
94.5563132331841
 31
0.0
  0
LINE
  5
26F
330
2
100
AcDbEntity
  8
0
100
AcDbLine
 10
69.0109393205283
 20
94.40264710652852
 30
0.0
 11
68.48514742893204
 21
94.55443015131685
 31
0.0
  0
LINE
  5
270
330
2
100
AcDbEntity
  8
0
100
AcDbLine
 10
68.81133056445412
 20
95.80050910294259
 30
0.0
 11
68.68488950853216
 21
95.32175044044034
 31
0.0
  0
LINE
  5
271
330
2
100
AcDbEntity
  8
0
100
AcDbLine
 10
69.30281258350101
 20
95.65863046494525
 30
0.0
 11
69.18734588761558
 21
95.17670377752454
 31
0.0
  0
LINE
  5
272
330
2
100
AcDbEntity
  8
0
100
AcDbLine
 10
69.18734588752196
 20
95.17670377748517
 30
0.0
 11
69.59637671311816
 21
95.553375186677
 31
0.0
  0
ENDSEC
  0
SECTION
  2
OBJECTS
  0
DICTIONARY
  5
9
330
0
100
AcDbDictionary
281
     1
  3
ACAD_COLOR
350
3E
  3
ACAD_GROUP
350
35
  3
ACAD_LAYOUT
350
16
  3
ACAD_MATERIAL
350
B
  3
ACAD_MLEADERSTYLE
350
41
  3
ACAD_MLINESTYLE
350
36
  3
ACAD_PLOTSETTINGS
350
37
  3
ACAD_PLOTSTYLENAME
350
8
  3
ACAD_SCALELIST
350
3F
  3
ACAD_TABLESTYLE
350
40
  3
ACAD_VISUALSTYLE
350
2B
  3
ACDB_RECOMPOSE_DATA
350
274
  3
AcDbVariableDictionary
350
42
  0
DICTIONARY
  5
1E
330
1D
100
AcDbDictionary
280
     1
281
     1
  3
ACAD_LAYERSTATES
360
1F
  0
DICTIONARY
  5
6
330
5
100
AcDbDictionary
280
     1
281
     1
  0
DICTIONARY
  5
3
330
2
100
AcDbDictionary
280
     1
281
     1
  0
DICTIONARY
  5
3E
102
{ACAD_REACTORS
330
9
102
}
330
9
100
AcDbDictionary
281
     1
  0
DICTIONARY
  5
35
102
{ACAD_REACTORS
330
9
102
}
330
9
100
AcDbDictionary
281
     1
  0
DICTIONARY
  5
16
102
{ACAD_REACTORS
330
9
102
}
330
9
100
AcDbDictionary
281
     1
  3
Model
350
15
  3
布局1
350
1C
  0
DICTIONARY
  5
B
102
{ACAD_REACTORS
330
9
102
}
330
9
100
AcDbDictionary
281
     1
  3
ByBlock
350
3B
  3
ByLayer
350
38
  3
Global
350
A
  0
DICTIONARY
  5
41
102
{ACAD_REACTORS
330
9
102
}
330
9
100
AcDbDictionary
281
     1
  0
DICTIONARY
  5
36
102
{ACAD_REACTORS
330
9
102
}
330
9
100
AcDbDictionary
281
     1
  3
Standard
350
4E
  0
DICTIONARY
  5
37
102
{ACAD_REACTORS
330
9
102
}
330
9
100
AcDbDictionary
281
     1
  0
ACDBDICTIONARYWDFLT
  5
8
102
{ACAD_REACTORS
330
9
102
}
330
9
100
AcDbDictionary
281
     1
  3
Normal
350
7
100
AcDbDictionaryWithDefault
340
7
  0
DICTIONARY
  5
3F
102
{ACAD_REACTORS
330
9
102
}
330
9
100
AcDbDictionary
281
     1
  3
A0
350
53
  3
A1
350
54
  3
A2
350
55
  3
A3
350
56
  3
A4
350
57
  3
A5
350
58
  3
A6
350
59
  3
A7
350
5A
  3
A8
350
5B
  3
A9
350
5C
  3
B0
350
5D
  3
B1
350
5E
  3
B2
350
5F
  3
B3
350
60
  3
B4
350
61
  3
B5
350
62
  3
B6
350
63
  0
DICTIONARY
  5
40
102
{ACAD_REACTORS
330
9
102
}
330
9
100
AcDbDictionary
281
     1
  3
Standard
350
4F
  0
DICTIONARY
  5
2B
102
{ACAD_REACTORS
330
9
102
}
330
9
100
AcDbDictionary
281
     1
  3
2dWireframe
350
2A
  3
Realistic
350
51
  3
Wireframe
350
52
  0
XRECORD
  5
274
102
{ACAD_REACTORS
330
9
102
}
330
9
100
AcDbXrecord
280
     1
 90
        1
330
4F
  0
DICTIONARY
  5
42
102
{ACAD_REACTORS
330
9
102
}
330
9
100
AcDbDictionary
281
     1
  3
CANNOSCALE
350
43
  3
CENTEREXE
350
44
  3
CENTERLTYPEFILE
350
45
  3
CMLEADERSTYLE
350
46
  3
CTABLESTYLE
350
47
  3
CVIEWDETAILSTYLE
350
48
  3
CVIEWSECTIONSTYLE
350
49
  3
DIMASSOC
350
4A
  3
HIDETEXT
350
4B
  3
LAYEREVAL
350
4C
  3
LAYERNOTIFY
350
4D
  0
DICTIONARY
  5
1F
102
{ACAD_REACTORS
330
1E
102
}
330
1E
100
AcDbDictionary
281
     1
  0
LAYOUT
  5
15
102
{ACAD_XDICTIONARY
360
17
102
}
102
{ACAD_REACTORS
330
16
102
}
330
16
100
AcDbPlotSettings
  1

  2
none_device
  4
ISO_A4_(210.00_x_297.00_MM)
  6

 40
7.5
 41
20.0
 42
7.5
 43
20.0
 44
210.0
 45
297.0
 46
11.54999923706054
 47
-13.65000009536743
 48
0.0
 49
0.0
140
0.0
141
0.0
142
1.0
143
8.704084754739808
 70
 11952
 72
     1
 73
     0
 74
     0
  7

 75
     0
147
0.1148885871608098
 76
     0
 77
     2
 78
   300
148
0.0
149
0.0
100
AcDbLayout
  1
Model
 70
     1
 71
     0
 10
0.0
 20
0.0
 11
12.0
 21
9.0
 12
0.0
 22
0.0
 32
0.0
 14
0.0
 24
0.0
 34
0.0
 15
0.0
 25
0.0
 35
0.0
146
0.0
 13
0.0
 23
0.0
 33
0.0
 16
1.0
 26
0.0
 36
0.0
 17
0.0
 27
1.0
 37
0.0
 76
     0
330
2
331
29
1001
ACAD_PSEXT
1000
None
1000
None
1000
Not applicable
1000
The layout will not be plotted unless a new plotter configuration name is selected.
1070
     0
  0
LAYOUT
  5
1C
102
{ACAD_REACTORS
330
16
102
}
330
16
100
AcDbPlotSettings
  1

  2
C:\Documents and Settings\basas\Application Data\Autodesk\AutoCAD 2005\R16.1\enu\plotters\Default Windows System Printer.pc3
  4

  6

 40
0.0
 41
0.0
 42
0.0
 43
0.0
 44
0.0
 45
0.0
 46
0.0
 47
0.0
 48
0.0
 49
0.0
140
0.0
141
0.0
142
1.0
143
1.0
 70
   688
 72
     0
 73
     0
 74
     5
  7

 75
    16
147
1.0
 76
     0
 77
     2
 78
   300
148
0.0
149
0.0
100
AcDbLayout
  1
布局1
 70
     1
 71
     1
 10
0.0
 20
0.0
 11
12.0
 21
9.0
 12
0.0
 22
0.0
 32
0.0
 14
0.0
 24
0.0
 34
0.0
 15
0.0
 25
0.0
 35
0.0
146
0.0
 13
0.0
 23
0.0
 33
0.0
 16
1.0
 26
0.0
 36
0.0
 17
0.0
 27
1.0
 37
0.0
 76
     0
330
19
  0
MATERIAL
  5
3B
102
{ACAD_XDICTIONARY
360
3C
102
}
102
{ACAD_REACTORS
330
B
102
}
330
B
100
AcDbMaterial
  1
ByBlock
 94
       63
  0
MATERIAL
  5
38
102
{ACAD_XDICTIONARY
360
39
102
}
102
{ACAD_REACTORS
330
B
102
}
330
B
100
AcDbMaterial
  1
ByLayer
 94
       63
  0
MATERIAL
  5
A
102
{ACAD_XDICTIONARY
360
C
102
}
102
{ACAD_REACTORS
330
B
102
}
330
B
100
AcDbMaterial
  1
Global
 43
0.0007999999797903
 43
0.0
 43
0.0
 43
0.0
 43
0.0
 43
0.0007999999797903
 43
0.0
 43
0.0
 43
0.0
 43
0.0
 43
1.0
 43
0.0
 43
0.0
 43
0.0
 43
0.0
 43
1.0
 49
0.0007999999797903
 49
0.0
 49
0.0
 49
0.0
 49
0.0
 49
0.0007999999797903
 49
0.0
 49
0.0
 49
0.0
 49
0.0
 49
1.0
 49
0.0
 49
0.0
 49
0.0
 49
0.0
 49
1.0
142
0.0007999999797903
142
0.0
142
0.0
142
0.0
142
0.0
142
0.0007999999797903
142
0.0
142
0.0
142
0.0
142
0.0
142
1.0
142
0.0
142
0.0
142
0.0
142
0.0
142
1.0
144
0.0007999999797903
144
0.0
144
0.0
144
0.0
144
0.0
144
0.0007999999797903
144
0.0
144
0.0
144
0.0
144
0.0
144
1.0
144
0.0
144
0.0
144
0.0
144
0.0
144
1.0
 94
       63
1001
ACAD
1070
    -1
1070
     3
1070
     0
1000

1071
        0
1070
     0
  0
MLINESTYLE
  5
4E
102
{ACAD_REACTORS
330
36
102
}
330
36
100
AcDbMlineStyle
  2
STANDARD
 70
     0
  3

 62
   256
 51
90.0
 52
90.0
 71
     2
 49
0.5
 62
   256
  6
BYLAYER
 49
-0.5
 62
   256
  6
BYLAYER
  0
ACDBPLACEHOLDER
  5
7
102
{ACAD_REACTORS
330
8
102
}
330
8
  0
SCALE
  5
53
102
{ACAD_REACTORS
330
3F
102
}
330
3F
100
AcDbScale
 70
     0
300
1:1
140
1.0
141
1.0
290
     1
  0
SCALE
  5
54
102
{ACAD_REACTORS
330
3F
102
}
330
3F
100
AcDbScale
 70
     0
300
1:2
140
1.0
141
2.0
290
     0
  0
SCALE
  5
55
102
{ACAD_REACTORS
330
3F
102
}
330
3F
100
AcDbScale
 70
     0
300
1:4
140
1.0
141
4.0
290
     0
  0
SCALE
  5
56
102
{ACAD_REACTORS
330
3F
102
}
330
3F
100
AcDbScale
 70
     0
300
1:5
140
1.0
141
5.0
290
     0
  0
SCALE
  5
57
102
{ACAD_REACTORS
330
3F
102
}
330
3F
100
AcDbScale
 70
     0
300
1:8
140
1.0
141
8.0
290
     0
  0
SCALE
  5
58
102
{ACAD_REACTORS
330
3F
102
}
330
3F
100
AcDbScale
 70
     0
300
1:10
140
1.0
141
10.0
290
     0
  0
SCALE
  5
59
102
{ACAD_REACTORS
330
3F
102
}
330
3F
100
AcDbScale
 70
     0
300
1:16
140
1.0
141
16.0
290
     0
  0
SCALE
  5
5A
102
{ACAD_REACTORS
330
3F
102
}
330
3F
100
AcDbScale
 70
     0
300
1:20
140
1.0
141
20.0
290
     0
  0
SCALE
  5
5B
102
{ACAD_REACTORS
330
3F
102
}
330
3F
100
AcDbScale
 70
     0
300
1:30
140
1.0
141
30.0
290
     0
  0
SCALE
  5
5C
102
{ACAD_REACTORS
330
3F
102
}
330
3F
100
AcDbScale
 70
     0
300
1:40
140
1.0
141
40.0
290
     0
  0
SCALE
  5
5D
102
{ACAD_REACTORS
330
3F
102
}
330
3F
100
AcDbScale
 70
     0
300
1:50
140
1.0
141
50.0
290
     0
  0
SCALE
  5
5E
102
{ACAD_REACTORS
330
3F
102
}
330
3F
100
AcDbScale
 70
     0
300
1:100
140
1.0
141
100.0
290
     0
  0
SCALE
  5
5F
102
{ACAD_REACTORS
330
3F
102
}
330
3F
100
AcDbScale
 70
     0
300
2:1
140
2.0
141
1.0
290
     0
  0
SCALE
  5
60
102
{ACAD_REACTORS
330
3F
102
}
330
3F
100
AcDbScale
 70
     0
300
4:1
140
4.0
141
1.0
290
     0
  0
SCALE
  5
61
102
{ACAD_REACTORS
330
3F
102
}
330
3F
100
AcDbScale
 70
     0
300
8:1
140
8.0
141
1.0
290
     0
  0
SCALE
  5
62
102
{ACAD_REACTORS
330
3F
102
}
330
3F
100
AcDbScale
 70
     0
300
10:1
140
10.0
141
1.0
290
     0
  0
SCALE
  5
63
102
{ACAD_REACTORS
330
3F
102
}
330
3F
100
AcDbScale
 70
     0
300
100:1
140
100.0
141
1.0
290
     0
  0
TABLESTYLE
  5
4F
102
{ACAD_XDICTIONARY
360
50
102
}
102
{ACAD_REACTORS
330
40
102
}
330
40
100
AcDbTableStyle
280
     0
  3
Standard
 70
     0
 71
     0
 40
1.5
 41
1.5
280
     0
281
     0
  7
Standard
140
4.5
170
     2
 62
     0
 63
     7
283
     0
 90
      512
 91
        0
  1

274
    -2
284
     1
 64
     0
275
    -2
285
     1
 65
     0
276
    -2
286
     1
 66
     0
277
    -2
287
     1
 67
     0
278
    -2
288
     1
 68
     0
279
    -2
289
     1
 69
     0
  7
Standard
140
6.0
170
     5
 62
     0
 63
     7
283
     0
 90
      512
 91
        0
  1

274
    -2
284
     1
 64
     0
275
    -2
285
     1
 65
     0
276
    -2
286
     1
 66
     0
277
    -2
287
     1
 67
     0
278
    -2
288
     1
 68
     0
279
    -2
289
     1
 69
     0
  7
Standard
140
4.5
170
     5
 62
     0
 63
     7
283
     0
 90
      512
 91
        0
  1

274
    -2
284
     1
 64
     0
275
    -2
285
     1
 65
     0
276
    -2
286
     1
 66
     0
277
    -2
287
     1
 67
     0
278
    -2
288
     1
 68
     0
279
    -2
289
     1
 69
     0
  0
VISUALSTYLE
  5
2A
102
{ACAD_REACTORS
330
2B
102
}
330
2B
100
AcDbVisualStyle
  2
2dWireframe
 70
     4
177
     3
291
     0
 70
    58
 90
        0
176
     1
 90
        2
176
     1
 90
        1
176
     1
 90
        0
176
     1
 40
0.6
176
     1
 40
30.0
176
     1
 62
     7
420
 16777215
176
     1
 90
        1
176
     1
 90
        4
176
     1
 62
     7
176
     1
 62
   257
176
     1
 90
        1
176
     1
 90
        1
176
     1
 40
1.0
176
     1
 90
        0
176
     1
 62
   257
176
     1
 40
1.0
176
     1
 90
        1
176
     1
 90
        6
176
     1
 90
        2
176
     1
 62
     7
176
     1
 90
        5
176
     1
 90
        0
176
     1
 90
        0
176
     1
290
     0
176
     1
 90
        1
176
     1
 40
0.0
176
     1
 90
        0
176
     1
290
     1
176
     1
290
     1
176
     1
290
     0
176
     1
290
     0
176
     1
290
     0
176
     1
290
     0
176
     1
290
     0
176
     1
290
     0
176
     1
290
     0
176
     1
 90
       50
176
     1
 40
0.0
176
     1
 40
1.0
176
     1
 90
        0
176
     1
 62
    18
420
        0
176
     1
 90
       50
176
     1
 90
        3
176
     1
 62
     5
420
      255
176
     1
290
     0
176
     1
 90
       50
176
     1
 90
       50
176
     1
 90
       50
176
     1
290
     0
176
     1
 90
       50
176
     1
 62
   256
176
     0
 40
1.0
176
     0
 90
        2
176
     1
  1
strokes_ogs.tif
176
     1
290
     0
176
     1
 40
1.0
176
     1
 40
1.0
176
     1
  0
VISUALSTYLE
  5
51
102
{ACAD_REACTORS
330
2B
102
}
330
2B
100
AcDbVisualStyle
  2
Realistic
 70
     8
177
     3
291
     0
 70
    58
 90
        2
176
     1
 90
        3
176
     1
 90
        0
176
     1
 90
        2
176
     1
 40
0.6
176
     1
 40
30.0
176
     1
 62
     7
420
 16777215
176
     1
 90
        0
176
     1
 90
        0
176
     1
 62
     7
176
     1
 62
   257
176
     1
 90
        1
176
     1
 90
        1
176
     1
 40
1.0
176
     1
 90
        8
176
     1
 62
   257
176
     1
 40
1.0
176
     1
 90
        1
176
     1
 90
        6
176
     1
 90
        2
176
     1
 62
     7
176
     1
 90
        3
176
     1
 90
        0
176
     1
 90
        0
176
     1
290
     0
176
     1
 90
       13
176
     1
 40
0.0
176
     1
 90
        0
176
     1
290
     0
176
     1
290
     1
176
     1
290
     1
176
     1
290
     0
176
     1
290
     0
176
     1
290
     0
176
     1
290
     0
176
     1
290
     0
176
     1
290
     0
176
     1
 90
       50
176
     1
 40
0.0
176
     1
 40
1.0
176
     1
 90
        0
176
     1
 62
    18
420
        0
176
     1
 90
       50
176
     1
 90
        3
176
     1
 62
     5
420
      255
176
     1
290
     0
176
     1
 90
       50
176
     1
 90
       50
176
     1
 90
       50
176
     1
290
     0
176
     1
 90
       50
176
     1
 62
   256
176
     0
 40
1.0
176
     0
 90
        2
176
     1
  1
strokes_ogs.tif
176
     1
290
     0
176
     1
 40
1.0
176
     1
 40
1.0
176
     1
  0
VISUALSTYLE
  5
52
102
{ACAD_REACTORS
330
2B
102
}
330
2B
100
AcDbVisualStyle
  2
Wireframe
 70
     5
177
     3
291
     0
 70
    58
 90
        0
176
     1
 90
        2
176
     1
 90
        0
176
     1
 90
        0
176
     1
 40
0.6
176
     1
 40
30.0
176
     1
 62
     7
420
 16777215
176
     1
 90
        1
176
     1
 90
        4
176
     1
 62
     7
176
     1
 62
   257
176
     1
 90
        1
176
     1
 90
        1
176
     1
 40
1.0
176
     1
 90
        0
176
     1
 62
   257
176
     1
 40
1.0
176
     1
 90
        1
176
     1
 90
        6
176
     1
 90
        2
176
     1
 62
     7
176
     1
 90
        3
176
     1
 90
        0
176
     1
 90
        0
176
     1
290
     0
176
     1
 90
        1
176
     1
 40
0.0
176
     1
 90
        0
176
     1
290
     0
176
     1
290
     1
176
     1
290
     1
176
     1
290
     0
176
     1
290
     0
176
     1
290
     0
176
     1
290
     0
176
     1
290
     0
176
     1
290
     0
176
     1
 90
       50
176
     1
 40
0.0
176
     1
 40
1.0
176
     1
 90
        0
176
     1
 62
    18
420
        0
176
     1
 90
       50
176
     1
 90
        3
176
     1
 62
     5
420
      255
176
     1
290
     0
176
     1
 90
       50
176
     1
 90
       50
176
     1
 90
       50
176
     1
290
     0
176
     1
 90
       50
176
     1
 62
   256
176
     0
 40
1.0
176
     0
 90
        2
176
     1
  1
strokes_ogs.tif
176
     1
290
     0
176
     1
 40
1.0
176
     1
 40
1.0
176
     1
  0
DICTIONARYVAR
  5
43
102
{ACAD_REACTORS
330
42
102
}
330
42
100
DictionaryVariables
280
     0
  1
1:1
  0
DICTIONARYVAR
  5
44
102
{ACAD_REACTORS
330
42
102
}
330
42
100
DictionaryVariables
280
     0
  1
3.500000
  0
DICTIONARYVAR
  5
45
102
{ACAD_REACTORS
330
42
102
}
330
42
100
DictionaryVariables
280
     0
  1
acadiso.lin
  0
DICTIONARYVAR
  5
46
102
{ACAD_REACTORS
330
42
102
}
330
42
100
DictionaryVariables
280
     0
  1
STANDARD
  0
DICTIONARYVAR
  5
47
102
{ACAD_REACTORS
330
42
102
}
330
42
100
DictionaryVariables
280
     0
  1
STANDARD
  0
DICTIONARYVAR
  5
48
102
{ACAD_REACTORS
330
42
102
}
330
42
100
DictionaryVariables
280
     0
  1

  0
DICTIONARYVAR
  5
49
102
{ACAD_REACTORS
330
42
102
}
330
42
100
DictionaryVariables
280
     0
  1

  0
DICTIONARYVAR
  5
4A
102
{ACAD_REACTORS
330
42
102
}
330
42
100
DictionaryVariables
280
     0
  1
2
  0
DICTIONARYVAR
  5
4B
102
{ACAD_REACTORS
330
42
102
}
330
42
100
DictionaryVariables
280
     0
  1
1
  0
DICTIONARYVAR
  5
4C
102
{ACAD_REACTORS
330
42
102
}
330
42
100
DictionaryVariables
280
     0
  1
0
  0
DICTIONARYVAR
  5
4D
102
{ACAD_REACTORS
330
42
102
}
330
42
100
DictionaryVariables
280
     0
  1
0
  0
DICTIONARY
  5
17
330
15
100
AcDbDictionary
280
     1
281
     1
  0
DICTIONARY
  5
3C
330
3B
100
AcDbDictionary
280
     1
281
     1
  3
FBXASSET
360
3D
  0
DICTIONARY
  5
39
330
38
100
AcDbDictionary
280
     1
281
     1
  3
FBXASSET
360
3A
  0
DICTIONARY
  5
C
330
A
100
AcDbDictionary
280
     1
281
     1
  3
BUMPTILE
360
D
  3
DIFFUSETILE
360
E
  3
FBXASSET
360
F
  3
OPACITYTILE
360
10
  3
REFLECTIONTILE
360
11
  0
DICTIONARY
  5
50
330
4F
100
AcDbDictionary
280
     1
281
     1
  3
ACAD_ROUNDTRIP_2008_TABLESTYLE_CELLSTYLEMAP
360
273
  0
XRECORD
  5
3D
102
{ACAD_REACTORS
330
3C
102
}
330
3C
100
AcDbXrecord
280
     1
 70
     1
 90
429727718
  1
D62C5603-E3A1-4AEA-B7FB-FE5D8D0755AF
310
504B03040A0000080000CC70623B3DEE336E79000000790000001B0000006175746F6465736B2D64657369676E2D7061636B6167652E786D6C3C3F786D6C2076657273696F6E3D22312E302220656E636F64696E673D227574662D3822203F3E3C666F726D6174733E3C666F726D61743E687474703A2F2F736368656D612E
310
6175746F6465736B2E636F6D2F64657369676E2D7061636B6167652F323030393C2F666F726D61743E3C2F666F726D6174733E504B0304140006080800CC70623BD486FD9CA0000000F4000000130000005B436F6E74656E745F54797065735D2E786D6C7D8EC10E82300C865F65E91D8A1E8C310C0EEA1BF002731658846E
310
D98AC1B77784ABF1D8FE5FBFBF75BBCE937A534CCEB38643598122B6FEE978D0B0485F9C41B54DDD7D022595594E1A469170414C76A4D9A4D207E29CF43ECE46F218070CC6BECC4078ACAA135ACF422C856C0E68EA1BF5669944DDD7BCDE7B1F8E415D77AECB980613C2E4AC91FC167A2B244592486606FC29C8FD7F045B9A
310
EF7053A7E60B504B0304140006080800CC70623B853B8169EB0000007C01000008000000636F72652E786D6C8D90416EC3201045AF62CDB6C206821CC7C244919D9CA01740401C94182C03558F5F9C3852BBEB6A467FFE9B197D7EFC9E1EC5975982F5AE035262288C535E5B377690E21535501C055FBC8FBF6C503839990E
310
5619041F179FE64D52DE45E362569DD7661365082642A11EB9E920A89B99642953CC8E702F67A9EE7234257977194EC9EAE275C4EABCCF5EAD5940D4AC6F0E35A568B8F43562CD7046CD199FD07E60174276A7BE677B5EADB0E0D14EEFFB6A31321A0D82627C4084204C3F096B71DD52F6819B16635EADF63F509AF53FA164
310
5DDCD1EDDD17164090FCC8732078B56691CB33A85CD7DCC40F504B0304140006080800CC70623B55019EA25F0000007C00000007000000636E782E786D6C4DCB3B0E80201045D1AD90E915ED2CF8AC45050C11660C8261F98AB1B07AC9C97D42D718D865D3E909258CFD00CCE24AC6E326A164D74DC0B4128928FF32603847
310
2BA13128B1252AC747C6BAB984FC68F0B87FE8960A5C09FE86CFB69FBA01504B0304140006080800CC70623BDBABAAF470010000D40300000C0000006662782F636F72652E786D6CC553D16E823014FD95A6AF4B694182CC941A83FA05FB810A9511A125A5257EFE2E82712ECEB8A7F100CD39F7F69E734AF9FADC366850B6
310
AF8DCE7018308C942E4C59EB2AC3DE1D498AD15A706B8CFB56869196ADCAF00863C12B6B7C374385D14E6907A836A59A41D9F7CA615434B0C8705F7CAA5606D23BA8E84F41278B93AC54100640439DE0BDB320004D43C63716C7C399D30917DCFBBA9CD9BA8469F5B156168B24CED3F7248AC8769F27244EB73B92EED8862C
310
B7F13E0C179B3C8F979C8ECD82BBBABDAA2BAC924E9558448CBD9330242CFA08E3154B5651FCC6D215639C8EE5774DBE2B5F6CF2B5768B68963BB5F5588420E442FC700B1139D4CB01F450C1E918227C2E09DF070D8140C84E1E9AAB8F1340832A9CB13130A5F1376A908D57309505ECF2A0DF179C4E9D30F5B239B87E3823
310
7A79C6F31DE1A8A5AEC08474B03C7837EAE4938639B44E5932B833D2C6B6B279CDC613877FA26EE21F4A2A4C63EC7F29A2F301D1F9F7A0E37D145F504B0304140006080800CC70623B9C113CC27E0000009D0000000B0000006662782F636E782E786D6C4DCCDF0A83201C86E15B91DFB94BFB330DD428C8FB886521330DA7
310
6397BF1A1DECE883878F57749FCDA1B7892F1BBC047A23808C7F84D9FA55424E0BE6803A256208E9EF06C84F9B91703228B1C690F78B66B34CD9A5439DF5CF0BFBF65E35BCA1B8D6A5C6F540381E886698B5741C695F9503EBA150A2F8958E3DC3EA0B504B0304140006080800CC70623B7DF2F77C2A010000120200003100
310
00006662782F41393633353835312D344632462D344230382D423046372D3739314545314133324237412F636F72652E786D6C8D51DB8EC22014FC15C2939B0D2DB4B45643319AE817EC0F6041255A68B86CFCFC856D4D76DF7CE190393373060EDB3DC707F856CE6B6B7A480A0C81328395DA5C7B18C3057510EC3873D686
310
3F34088C18550F330C39BB3A1BA7051AAC09CA84841A2BD5020AEF55806078A44B0FFD7053A328440C89E1EFC52486BBB8AA8214A99D789CF9E05200300FC927E4FB4D5B375D43103D5527440FB843077C5AA3F5861C8F645F5787F59E95B390B318B55CE45AA638FAA2957BD7248B390B7A7CC51F9C124149C82B8C378810
310
84AB2F42B7B8DD56F413775B8C5999E9FF4471926F8AA236A1AE96B8B3CC434E5839373893369E1FAF30EA395917409EB7F26AF8801C171837A4A6AC9C89E9F9C9B1A58BA30FD6A5EF5DDDCF894B9AD9B6A59C957943A9FCAE2FD5BC4DFE03504B0304140006080800CC70623BAD7543B64E01000033030000300000006662
310
782F41393633353835312D344632462D344230382D423046372D3739314545314133324237412F636E782E786D6CD593CD6EC32010845F0571AD6CE3D48AD20813A9873E410FBD12D82434182C7EAAE6EDBB2424CD25871E7B41D6EC30B3FA84F9E67BB2E40B4234DE8DB46F1925E094D7C6ED479AD3AE5951B2113C789FEE
310
6C943839C1488B4C05DF079FE72A69D8C96C13AAD6B8631503449F83828872B949AC57D26200B826A308D316B4064D6E46FCDA41C05550DC9E483A00797BFD207EFB092A45DE9514C1BBD22178396BD39D891265658C238DEA00936C654E5E433CB65A26D9F6EDB5EBC14EBF49A45CB856E66048291F6939A9A81BB5C89177
310
38143CA680F4AA299D66A042CEB3354A2684DC9D8D178FE0D9B8B41CAAD720F880EE7EF93C0C18769E099ECC04D5A102C8049A8A05632F4DDF376CF1DE0F6BB65C2F8627B65A33C6BB62177CEBBDAD973006829F89F22E814B54F4BC2BE347F8AA8F681390B50FA73F804400B5F542E796F19FF974E7F78DB802FE05E20750
310
4B0304140006080800CC70623BE75B7789680500003C100000340000006662782F41393633353835312D344632462D344230382D423046372D3739314545314133324237412F6F626A656374732E786D6CAD575B8F9B3818FD2B887D06C22499CB8AA1CA655245D5B455A356FB305264C061D8018C6C3393D95FBFC7600890
310
A4CD5EF210B0B1BFEBF98E3F7B1FF6596ABC522E1296DF9BAE3D320D9A872C4AF2F8DE2CE5CEBA358D0FBEC719939D65A691938CDE9B6ADAF4BD98B3B2D05311DD91329583D9D5FC0F438434A7A611A644887B5384CF34233629258BA878B12322891DEFF6B66BD70BFB62634E8AE781D082709A4B588AF91C528CDA28B73F
310
1C998EEF39EABBEFA97FBD6A7C7E9553F9D3D79FE442923C3C523610337627CB87ABE99D359D4CC6D6E4FACAB5E6ABF9D2726FC6A3C5F56271377BB88362213924694B38DD99FE47C48627A1E7D49F5A8BB5E1A74C0A599ED3B0F21F1E56366B89112D681E218F0915D0D6F17AD41FBA2A369DCF6335D62ABBD39779D5DDD1
310
11D4D8DE3CBB96B2E04FB8202E41051754A1AA8E8F76B4C6DFE810B580B1547F4B84911149794252234D024EF8BBE963A95AE27B3D310A9D5C215C7960FAEE415ED75694C6AFB17BCACA5D99A60A9AA65F217B0BFC53292ACB92BF283FAD0D3621576592CB5BED907C2FA8E9DF794E35E97BEA31BED21FEB401ABB94C44839
310
DCACBF0E1C5DA8DA5B2F4DFFD32AD86F543D9E565E7056502E157C00AD2671CD534549AB752FCA9CDA00677A313F04E51B22FF19E57B300579E3C97EB29F682D92935CEC18CF901B7B54FD8C51F362B56FC72FE0B3C1EAE335EDCCBF5AEC39ADB17DC238973F804BA5E6F6BFE7AF1FB32E523BE9F3BD571418E3631DCA4D48
310
5250CF639223210A9446CA30052EDF057BD35F8329C1ECD84552BF0DC8D18BE7BCE23BFE6BD960AB4A7DE79923A103BEBD80F911CBAA2C60DB19B01CF164A5583B772EE6D3FFA56666CBCDA74DC97724A48F9A58967497E489C4D979006FD7A05E227A1EBDD0F737C623387A9C844D3709995625106D157315F8B8392CD4E0
310
A0B9A720C4BE9829CEF37EA1E13111214D53925356365ADA634861B52519DD27A00AEB808EAF0628E6F435519D446F45CF2C9CF5214F0A15B2F6D06B79DA3EE3CBF7F56780D2F4E7EF73A0F5E5B02A38D07DC852C6B7C1FBB6664213E0C39E3EBA7FF4E1AD23EA2829407C85E586727488B751B2DB9502BC7B228A3FD68B6E
310
A65A22397E690AA8D158D7E404EC8CDA235CC3B7D1898680131CEC2CDF2638C65196279577750F15884AEE19F94199155B92B13297978469D4F8D358DF0AEF7631E28DC8F0D9F437D5D39A83B2231A1D52D543813A824EF8D44BCFF2FA6A31BD1E8DAD87F1CCB526B3879935BF59CDADD5C37479BB1CDD4CA7B3556B516589
310
EF352754B706114D9C885EC9131DE6EFEB43D99AFE2391C2F958179413D7CFEF6B1B6DB1E7600F00DE6E5C67454A339A4BA2E0FBA85ED26F045D454F463DBFCE484C2F90F2E5E3666003662ED8F755951A7D1BECD5B30B550B2785C8E7320B7292A4838DDA71BBC863ED7613CAF659337A3354231D4FF4A182A54904C2898C
310
98B28C4AD0CE056CCF332A80986E571EE9DBC305BB5FEB7E509220A58D25CF042D712A806AC0AD0C657FDEF80D2D9CEAA2EE4D1C76F60BFE74219A06527D6F82DF6412526107381E55E353090704D085B52408A8913C4ED159D79BDA71BB4BC506F4831350EB6F975CD22D69BF7AC49B91A2C0A9DDA3D5CA36AD20FC478E37
310
E61844E2352865EBCB61A275A65283CAAA9DD27703B4102F5AF51EF5F573B75CBB5AD38BC845F7A49F82A0966A49C2E3EA5EA0ECD326CD965F1DB402C6FA8B51A4658C5C5E2EC9E214602E55810345408596591009A82E7E7FFACA19EEA299B14A0081A705CB3296EBC14CDF658DCD336EA6D1136881AAEB87B81AB9EE53D5
310
F5EB8BC8362082DA24122F98680A4E7930C01A0079749CEA14382A0783E5EBA5A10F8C098456A03D6A4AEB6BB881E2513747552A5DB22C7EDAF83BD5528081A365F7FF06504B0304140006080000CC70623B000000000000000000000000350000006662782F41393633353835312D344632462D344230382D423046372D37
310
39314545314133324237412F76657274696365732E62696E504B0304140006080800CC70623BF270F1330600000004000000360000006662782F41393633353835312D344632462D344230382D423046372D3739314545314133324237412F747269616E676C65732E62696E636660600000504B0304140006080000CC7062
310
3B000000000000000000000000370000006662782F41393633353835312D344632462D344230382D423046372D3739314545314133324237412F617474726962757465732E62696E504B0304140006080800CC70623B08DA0BD19000000041010000360000006662782F41393633353835312D344632462D344230382D4230
310
46372D3739314545314133324237412F6469726563746F72792E786D6C858F410AC3201045AF22B36F53E9A60B35CBEEBAE80D244E44489C6234F4F835464A48035D0DF398FF9F8AF63D0E6CC63039F212F8F9020C7D47C6792B21C5FE7403D62A1188E2E60C98D7234A5830286103A55745067B9D86B8A3CF9C7F90C11DE6
310
07FB144396D7B6A82D282E9A152AD114D5EF2CB866EEE831B8EEA07A7BB5A8D7D61A2BAAEB7FD5F70921FF497D00504B0304140006080800CC70623BEDD1DC58FD000000A00100003B0000006662782F41393633353835312D344632462D344230382D423046372D3739314545314133324237412F7265736F75726365732F
310
636F72652E786D6C8D504B6E833010BD0A9A6D65B00922041947112427E8052C33A156828DFCA97AFC9A40A576D7CDCCE87D344F8F9FBFE667F689CE6B6B3A6039850C8DB2A336530731DC4903D95970676DF82583CCC8193B5861107C72362E3BA4AC096842428D1D7107A5F7182053CF7474E0D507CE32973124857FE48B
310
540F3961CEF244279DE03EB81420DB9EAC1384436FA353E879B1B182C7A8C75DA3C7F453DF353A1075D537A7BA6464B8F535A99AE14A9A2BBD90E350DD183B5CFABE3AF262350B1EF4FC9351399401471025A527C218A1E53BAB5A5AB765F5469B96525EACF23FA6B88CFF34456DC2A1DCE36E360F82A5202F42F062ED2BAD
310
579969AFDD8A6F504B010214000A0000080000CC70623B3DEE336E79000000790000001B00000000000000000000000000000000006175746F6465736B2D64657369676E2D7061636B6167652E786D6C504B01021400140006080800CC70623BD486FD9CA0000000F40000001300000000000000000000000000B20000005B
310
436F6E74656E745F54797065735D2E786D6C504B01021400140006080800CC70623B853B8169EB0000007C010000080000000000000000000000000083010000636F72652E786D6C504B01021400140006080800CC70623B55019EA25F0000007C000000070000000000000000000000000094020000636E782E786D6C504B
310
01021400140006080800CC70623BDBABAAF470010000D40300000C00000000000000000000000000180300006662782F636F72652E786D6C504B01021400140006080800CC70623B9C113CC27E0000009D0000000B00000000000000000000000000B20400006662782F636E782E786D6C504B01021400140006080800CC70
310
623B7DF2F77C2A010000120200003100000000000000000000000000590500006662782F41393633353835312D344632462D344230382D423046372D3739314545314133324237412F636F72652E786D6C504B01021400140006080800CC70623BAD7543B64E010000330300003000000000000000000000000000D2060000
310
6662782F41393633353835312D344632462D344230382D423046372D3739314545314133324237412F636E782E786D6C504B01021400140006080800CC70623BE75B7789680500003C10000034000000000000000000000000006E0800006662782F41393633353835312D344632462D344230382D423046372D3739314545
310
314133324237412F6F626A656374732E786D6C504B01021400140006080000CC70623B0000000000000000000000003500000000000000000000000000280E00006662782F41393633353835312D344632462D344230382D423046372D3739314545314133324237412F76657274696365732E62696E504B01021400140006
310
080800CC70623BF270F133060000000400000036000000000000000000000000007B0E00006662782F41393633353835312D344632462D344230382D423046372D3739314545314133324237412F747269616E676C65732E62696E504B01021400140006080000CC70623B0000000000000000000000003700000000000000
310
000000000000D50E00006662782F41393633353835312D344632462D344230382D423046372D3739314545314133324237412F617474726962757465732E62696E504B01021400140006080800CC70623B08DA0BD1900000004101000036000000000000000000000000002A0F00006662782F41393633353835312D344632
310
462D344230382D423046372D3739314545314133324237412F6469726563746F72792E786D6C504B01021400140006080800CC70623BEDD1DC58FD000000A00100003B000000000000000000000000000E1000006662782F41393633353835312D344632462D344230382D423046372D3739314545314133324237412F7265
310
736F75726365732F636F72652E786D6C504B0506000000000E000E0080040000641100000000
  0
XRECORD
  5
3A
102
{ACAD_REACTORS
330
39
102
}
330
39
100
AcDbXrecord
280
     1
 70
     1
 90
429727718
  1
30362254-06B7-45E0-A893-8CFA70E3D6BC
310
504B03040A0000080000CC70623B3DEE336E79000000790000001B0000006175746F6465736B2D64657369676E2D7061636B6167652E786D6C3C3F786D6C2076657273696F6E3D22312E302220656E636F64696E673D227574662D3822203F3E3C666F726D6174733E3C666F726D61743E687474703A2F2F736368656D612E
310
6175746F6465736B2E636F6D2F64657369676E2D7061636B6167652F323030393C2F666F726D61743E3C2F666F726D6174733E504B0304140006080800CC70623BD486FD9CA0000000F4000000130000005B436F6E74656E745F54797065735D2E786D6C7D8EC10E82300C865F65E91D8A1E8C310C0EEA1BF002731658846E
310
D98AC1B77784ABF1D8FE5FBFBF75BBCE937A534CCEB38643598122B6FEE978D0B0485F9C41B54DDD7D022595594E1A469170414C76A4D9A4D207E29CF43ECE46F218070CC6BECC4078ACAA135ACF422C856C0E68EA1BF5669944DDD7BCDE7B1F8E415D77AECB980613C2E4AC91FC167A2B244592486606FC29C8FD7F045B9A
310
EF7053A7E60B504B0304140006080800CC70623B1EC5D7A3EB0000007C01000008000000636F72652E786D6C8D90416EC3201045AF82665B6103C6756C6122AB4D4ED00B204C5C94182C03558F5F9C3852BBEB6A467FFE9B197D71FC9E6FE8CBACC17AD7032D0820E3B41FAD9B7A48F1820F808E52ACDEC75F36404ECDA687
310
4D0629A6D5A76597B477D1B89855E747B38B2A041301E95B6E7A08FAD3CCAA50296647B8168BD2573599823EBB0CA76447F43862C7BCCF5EAC59410E4DDD9C7973C2755553CCCFA4C603E3040F1565ED3B1FDE4E432BCA0D9622DAF9795FAF464533826484B498524CD807E51D79ED187F21878E10516EF63F505AC67F42C9
310
BA58B1FDDD071640D2FCC87D2045B96591CB3DA85CB7DCE40F504B0304140006080800CC70623B55019EA25F0000007C00000007000000636E782E786D6C4DCB3B0E80201045D1AD90E915ED2CF8AC45050C11660C8261F98AB1B07AC9C97D42D718D865D3E909258CFD00CCE24AC6E326A164D74DC0B4128928FF32603847
310
2BA13128B1252AC747C6BAB984FC68F0B87FE8960A5C09FE86CFB69FBA01504B0304140006080800CC70623B8C9102E971010000D40300000C0000006662782F636F72652E786D6CC5535B6E833010BC8AE5DF0A6C08340F1947A84D4ED00B38C6A128602363A31CBFCB234A53A551FA553EC09AD9F5CE8C31DB9E9B1AF5CA
310
7695D1198E428A91D2D214952E33ECDD315861B4E5CC1AE3BE9561A445A3323CC098B3D21ADFCE9034DA29ED00D5A6503328BA4E398C640D8B0C77F253352214DE4145770A5B214FA2546114020D759C75CE8200340D19DE981F0F6746269C33EFAB6266AB02A655C74A59CCF365BADC27CB5D902ED22848F6340DF238A141
310
BE88E2F57B92BFEDF23523433367AE6A2EEAA455C2A902F398D2751045018D3FA264435F3771F242571B4A1919CA6F9A7C5B3CD9E42BED16F12C776AEB308F40C848FC700B1139D4891EF410CEC810227CC6846F8386402064270EF5C5C709A05E49676C024C61FC95EA45ED154CA5211D1FF4FB8291A913A68E9B83EBBB33
310
E2A7673CDE118E5AE8124C0807CB8377834E366998436B950D7A7746DAD846D4CFD978E0F04FD455FC5D49D2D4C6FE9722321F10997F0F32DC47FE05504B0304140006080800CC70623BFFEA85907E0000009D0000000B0000006662782F636E782E786D6C4DCCD10A83201886E15B91FFDC95D95A811AB6F23E625948A6C3
310
E9D8E5AF46073BFAE0E1E365ED67B3E8ADC3CB78C7815C7240DA3DFC64DCC221C519D7805AC182F7F1EF06C88D9BE6703008B6049F9E274D7A1E938DBB5AE3D6131B2589BA0D3D965551E0B2EA732C9B9A624AAEB41E3A557677029960D9AFB4EF11165F504B0304140006080800CC70623B4FEEA4082C0100001202000031
310
0000006662782F39464131463745442D413632322D343644302D413938332D3331353338454246344243312F636F72652E786D6C8D515B6EC32010BC0AE2AB55850DD871ED0813254D72825EC00192A2C460F1A872FC42ED48ED5F7E00CDCECCCEB26C731F6FE05B39AFADE921293004CA082BB5B9F43086336A21D870E6AC
310
0D7F68109861543DCC30E4ECE26C9C164858139409093556AA051CBC570102714B8F1E7AF1A5C6A11862480C7F2DA6415C878B2A4891CA89C7990F2E050073937C42DE1DB7E4F87ED8A36D4329AA9B3D46DBAEAD504556557BD81DEBDD0761E52CE42C462D17B996298E3E6BE59E35C962CE821E1FF18553435012728A7187
310
0841987E927A8D9B35ADDF70BBC6989599FE4F1427F9A4286A132ABAC49D651EF234CD5CE04CDA78BA3DC2A8FB645D00B9DF8B57E215725C60BCA2A463E54C4CE327C7A65E1C7DB02E7DEFCBF594B864C5CA6CDBD49C957943E9FA5D5FBAF336F90F504B0304140006080800CC70623BAD7543B64E01000033030000300000
310
006662782F39464131463745442D413632322D343644302D413938332D3331353338454246344243312F636E782E786D6CD593CD6EC32010845F0571AD6CE3D48AD20813A9873E410FBD12D82434182C7EAAE6EDBB2424CD25871E7B41D6EC30B3FA84F9E67BB2E40B4234DE8DB46F1925E094D7C6ED479AD3AE5951B2113C
310
789FEE6C943839C1488B4C05DF079FE72A69D8C96C13AAD6B8631503449F83828872B949AC57D26200B826A308D316B4064D6E46FCDA41C05550DC9E483A00797BFD207EFB092A45DE9514C1BBD22178396BD39D891265658C238DEA00936C654E5E433CB65A26D9F6EDB5EBC14EBF49A45CB856E66048291F6939A9A81BB5
310
C8917738143CA680F4AA299D66A042CEB3354A2684DC9D8D178FE0D9B8B41CAAD720F880EE7EF93C0C18769E099ECC04D5A102C8049A8A05632F4DDF376CF1DE0F6BB65C2F8627B65A33C6BB62177CEBBDAD973006829F89F22E814B54F4BC2BE347F8AA8F681390B50FA73F804400B5F542E796F19FF974E7F78DB802FE05
310
E207504B0304140006080800CC70623B16AB87BA640500003C100000340000006662782F39464131463745442D413632322D343644302D413938332D3331353338454246344243312F6F626A656374732E786D6CAD575B6FA33818FD2B887DE6924B3BED8A326A92B68A663B534DD4D13E548A0C38942D60649B369D5FBFC7
310
600890A493BDE42160637FD7F31D7FF63E6FB3D478A55C242CBF3247B66B1A340F5994E4F19559CA8D75611A9F7D8F33263BCB4C232719BD32D5B4E97B316765A1A722BA21652A07B3B7B33F0D11D29C9A46981221AE4C113ED38CD8A4942CA2E2C58E882476BCD9DA23BB5ED8171B73523C0F841684D35CC252CCE79062D4
310
468DFA43D7747CCF51DF7D4FFDEB5593E3AB9CCA9FBEFE241792E4E19EB28198C968BAB8199F5D5A67D3E9C49A9E8F47D6EC76B6B0469F26EEFC7C3EBFBCBEB98462213924694B38DD98FE1D62C393D073EA4FADC5DAF04326852CCF6958F90F0F2B9BB5C48816348F90C7840A68EB78EDF68723159BCEE7891A6B95DDE9D3
310
BCEAEEE8086A6C6F9E5D4B59F0175C10A7A0820BAA5055C7473B5AE3CFDD452D602CD5DF12616444529E90D448938013FE6EFA58AA96F85E4F8C42275708571E98FE6827AF6B2B4AE3D7D83D64E5A64C53054DD3AF90BD06FEA9149565C94FCA0F6B834DC85599E4F2423B24DF0B6AFA979E534DFA9E7A4CC6FA631D486393
310
921829879BF5D781A373557BCB85E97FB90DB62B558F8795179C15944B051F40AB495CF35451D26A4727654E6D8033BD98EF82F21D91FF8AF2DD9982BCF1643BDD4EB516C9492E368C67C88DED563FC36D5EACF66DFF057C3658BDBFA69DF9578B3DA735B64F18C7F20770A9D45CFCF7FCF563D6456A277DBEF78A02637CA2
310
43B90A490AEAB94F72244481D24819A6C0E59B606BFA4B3025981DBB48EAB701D97BF19C577CC77F2D1B6C55A9EF3C732474C0B727303F625995056C3B02963D9EAC146BE78EC5FCEC7FA999EBC5EACBAAE41B12D27B4D2C0BBA49F244E2ECDC81B76B502F113D8F5EE8FB1BE3111CDD4FC2AA9B844CAB1288B68AB90A7CDC
310
1C166AB0D3DC5310625FCC14E779BFD0709F8890A629C9292B1B2DED31A4B0DA928CEE135085754027E3018A397D4D5427D15BD1330B677DC8934285AC3DF45A9EB68FF8F2B8FC0A509AFEECFD0FF2DE25CC6047F7214B195F07EFEB9A094D800F7BFAE8FED187B78EA8A3A400F115961BCAD1215E47C966530AF0EE8128FE
310
58CEBB996A8964FFA529A046635D9353B0336A8F700DDF46271A024E70B0B37C9DE01847591E54DED53D54202AB947E4076556AC49C6CA5C9E1226B7F1A7B1BE15DEED62C41B91E1B3E9AFAAA735036547343A925075041DF0A9979E893B391F8FCFA6967B3EFB644DCF6E5CEBFAE272625DCC6FAF3FB93793C5F90CE1EF57
310
407342756B10D1C489E8953CD1617E5CEECAD6F4EF8914CE5D5D504E5C3F1F9736DA62CFC11E00BCDDB8CC8A9466349744C1F75EBDA4DF09BA8A9E8C7A7E9991989E20E5DBDD6A6003664ED8F7A04A8DBE0DF6EAD9B9AA858342E47399053949D2C146EDB85DE4B176BB0965FBAC19BD19AA918E27FA50C1D22402E144464C
310
59462568E704B6E71915404CB72B8FF4EDE184DDAF753F284990D2C6926782963815403548A70C657FDEF80D2D9CEAA2AE4C1C76F60BFE74219A06527D6582DF6412526107381E55E353090704D085B52408D0933C4ED159D79BDA71BB4BC506F4831350EB6F979CD22D69BF7AC49B91A2C0A9DDA3D5CA36AD20FC478E37E6
310
1844E2352865EBCB6EA275A652E3836BE04EFB400BF1A2556F515F1FBB35B2AB35BD889C744FFA1004B5544B121E57F70215746DD2F5E2C1412B602CBF19455AC6C8E5E9922C4E01E65215385004546899059180EAFCF7A707CE7017CD8CDB0410789AB32C63B91E5CEBBBACB17AC6CD347A022D5075FD106377347AAABA7E
310
7D11590744509B44E205134DC1290F06580320F78E537D3D73540E06CB970B431F185308AD40BBD794D6D77003C5A36E8EAA54BA64597CD8F83BD552A080A365F7FF06504B0304140006080000CC70623B000000000000000000000000350000006662782F39464131463745442D413632322D343644302D413938332D3331
310
353338454246344243312F76657274696365732E62696E504B0304140006080800CC70623BF270F1330600000004000000360000006662782F39464131463745442D413632322D343644302D413938332D3331353338454246344243312F747269616E676C65732E62696E636660600000504B0304140006080000CC70623B
310
000000000000000000000000370000006662782F39464131463745442D413632322D343644302D413938332D3331353338454246344243312F617474726962757465732E62696E504B0304140006080800CC70623B08DA0BD19000000041010000360000006662782F39464131463745442D413632322D343644302D413938
310
332D3331353338454246344243312F6469726563746F72792E786D6C858F410AC3201045AF22B36F53E9A60B35CBEEBAE80D244E44489C6234F4F835464A48035D0DF398FF9F8AF63D0E6CC63039F212F8F9020C7D47C6792B21C5FE7403D62A1188E2E60C98D7234A5830286103A55745067B9D86B8A3CF9C7F90C11DE607
310
FB144396D7B6A82D282E9A152AD114D5EF2CB866EEE831B8EEA07A7BB5A8D7D61A2BAAEB7FD5F70921FF497D00504B0304140006080800CC70623B0D6EF93BFE000000A00100003B0000006662782F39464131463745442D413632322D343644302D413938332D3331353338454246344243312F7265736F75726365732F63
310
6F72652E786D6C8D50596E833010BD0A9ADFCA60B334011947A8694ED00B586642AC041B79A97AFC9A40A5F6AF3F33A3B7689E1E3F7DCD8FEC139DD7D6F4C0720A191A65476DA61E62B892236427C19DB5E1970C322367EC618541F0C9D9B8EC90B226A009093576C41D94DE63804C3DD2D18357379C652E63480A7FCF17A9
310
EE72C29CE5894E3AC17D702940B63D59270887DE46A7D0F36263058F518FBB468FE9A7BE6A7420864373B8D4873369AA8691FA421B3294352543C5CAF65C0F6FEF43CB8BD52C78D0F34F46E550061C419494B6843142CB0F5677F4B52BEB177AEC28E5C52AFF638ACBF84F53D42654E51E77B379102C05791282176B5F693D
310
CB4C7BED567C03504B010214000A0000080000CC70623B3DEE336E79000000790000001B00000000000000000000000000000000006175746F6465736B2D64657369676E2D7061636B6167652E786D6C504B01021400140006080800CC70623BD486FD9CA0000000F40000001300000000000000000000000000B20000005B
310
436F6E74656E745F54797065735D2E786D6C504B01021400140006080800CC70623B1EC5D7A3EB0000007C010000080000000000000000000000000083010000636F72652E786D6C504B01021400140006080800CC70623B55019EA25F0000007C000000070000000000000000000000000094020000636E782E786D6C504B
310
01021400140006080800CC70623B8C9102E971010000D40300000C00000000000000000000000000180300006662782F636F72652E786D6C504B01021400140006080800CC70623BFFEA85907E0000009D0000000B00000000000000000000000000B30400006662782F636E782E786D6C504B01021400140006080800CC70
310
623B4FEEA4082C0100001202000031000000000000000000000000005A0500006662782F39464131463745442D413632322D343644302D413938332D3331353338454246344243312F636F72652E786D6C504B01021400140006080800CC70623BAD7543B64E010000330300003000000000000000000000000000D5060000
310
6662782F39464131463745442D413632322D343644302D413938332D3331353338454246344243312F636E782E786D6C504B01021400140006080800CC70623B16AB87BA640500003C1000003400000000000000000000000000710800006662782F39464131463745442D413632322D343644302D413938332D3331353338
310
454246344243312F6F626A656374732E786D6C504B01021400140006080000CC70623B0000000000000000000000003500000000000000000000000000270E00006662782F39464131463745442D413632322D343644302D413938332D3331353338454246344243312F76657274696365732E62696E504B01021400140006
310
080800CC70623BF270F133060000000400000036000000000000000000000000007A0E00006662782F39464131463745442D413632322D343644302D413938332D3331353338454246344243312F747269616E676C65732E62696E504B01021400140006080000CC70623B0000000000000000000000003700000000000000
310
000000000000D40E00006662782F39464131463745442D413632322D343644302D413938332D3331353338454246344243312F617474726962757465732E62696E504B01021400140006080800CC70623B08DA0BD190000000410100003600000000000000000000000000290F00006662782F39464131463745442D413632
310
322D343644302D413938332D3331353338454246344243312F6469726563746F72792E786D6C504B01021400140006080800CC70623B0D6EF93BFE000000A00100003B000000000000000000000000000D1000006662782F39464131463745442D413632322D343644302D413938332D3331353338454246344243312F7265
310
736F75726365732F636F72652E786D6C504B0506000000000E000E0080040000641100000000
  0
XRECORD
  5
D
102
{ACAD_REACTORS
330
C
102
}
330
C
100
AcDbXrecord
280
     1
270
     1
271
     1
  0
XRECORD
  5
E
102
{ACAD_REACTORS
330
C
102
}
330
C
100
AcDbXrecord
280
     1
270
     1
271
     1
  0
XRECORD
  5
F
102
{ACAD_REACTORS
330
C
102
}
330
C
100
AcDbXrecord
280
     1
 70
     0
 90
1673772943
  1
ECE7A1D2-D628-4531-984C-D00F80459256
310
504B03040A0000080000CC70623B3DEE336E79000000790000001B0000006175746F6465736B2D64657369676E2D7061636B6167652E786D6C3C3F786D6C2076657273696F6E3D22312E302220656E636F64696E673D227574662D3822203F3E3C666F726D6174733E3C666F726D61743E687474703A2F2F736368656D612E
310
6175746F6465736B2E636F6D2F64657369676E2D7061636B6167652F323030393C2F666F726D61743E3C2F666F726D6174733E504B0304140006080800CC70623BD486FD9CA0000000F4000000130000005B436F6E74656E745F54797065735D2E786D6C7D8EC10E82300C865F65E91D8A1E8C310C0EEA1BF002731658846E
310
D98AC1B77784ABF1D8FE5FBFBF75BBCE937A534CCEB38643598122B6FEE978D0B0485F9C41B54DDD7D022595594E1A469170414C76A4D9A4D207E29CF43ECE46F218070CC6BECC4078ACAA135ACF422C856C0E68EA1BF5669944DDD7BCDE7B1F8E415D77AECB980613C2E4AC91FC167A2B244592486606FC29C8FD7F045B9A
310
EF7053A7E60B504B0304140006080800CC70623BD9DDAED0EC0000007C01000008000000636F72652E786D6C8D90416EC3201045AF82665B61836D9CD8C2444DD39CA01740405C94182C03558F5F9C3852BBEB6A467FFE9B197D7EF89E6EE8CB2CC17A37002D0820E394D7D68D03A478C17B4007C117EFE32F1B20272733C0
310
2A83E0E3E2D3BC49CABB685CCCAAF3DA6CA20CC14440EA969B0182FA34932C648AD911AEC52CD5558EA6A0CF2EC329598D1E47ACCEFBECC59A050463A7EA5833865FEBDD0E37353BE3EE8DBDE3F6786A48D375FBF6CC78B9C282473B3DEFABC5C86834888A900E538A49F5419B9EB47DD5BC907D4F082F57FB1F28CDFA9F50
310
B22ED6D5F6EE030B20687EE43E10BC5CB3C8E51E54AE6B6EE207504B0304140006080800CC70623B55019EA25F0000007C00000007000000636E782E786D6C4DCB3B0E80201045D1AD90E915ED2CF8AC45050C11660C8261F98AB1B07AC9C97D42D718D865D3E909258CFD00CCE24AC6E326A164D74DC0B4128928FF326038
310
472BA13128B1252AC747C6BAB984FC68F0B87FE8960A5C09FE86CFB69FBA01504B0304140006080800CC70623BA24EB22D72010000D40300000C0000006662782F636F72652E786D6CC5535B6E833010BC8AE5DF0A6C5E49888CA3A6694ED00B38E05014B091B1518EDFE511A5A9D228FD2A1F60CDEC7A67C6986DCE4D8D7A
310
69BA4AAB0C073EC548AA5C17952A33ECECD15B61B4E1CC686DBF9561A44423333CC098B3D268D7CE50AE9595CA02AA74216750749DB418E5352C32DCE59FB211BE70162ABA93DF8AFC244AE9073ED050C759670D0840D390E18DF9F1706664C23973AE2A66B62A605A75ACA4C13C4976E1364A12EF355A2EBD384AF65EFA96
310
BC7B8BED2EA6719AAE16FB8491A199335B351775B991C2CA02F390D2D40B028F861F41BCA68B7518BFD0D59A524686F29B26D7164F36B94AD9289CE54E6D1DE6010819891F6E21228B3AD1831EC219194284CF98F06DD01008846CC5A1BEF83801D4CBDC6A1303536877A57A513B0953A94FC707FDBE6064EA84A9E3E6E0FA
310
EE8CF0E9198F7784A316AA0413C2C2F2E0ECA0934D1AE6D05A69BCDE9E91D2A611F573361E38FC1375157F5752AE6B6DFE4B11990F88CCBF0719EE23FF02504B0304140006080800CC70623B408A7D3B7C0000009D0000000B0000006662782F636E782E786D6C4DCCD10A83201886E15B91FFDC552A92A0064DBC8F581632
310
D3703A76F9ABD1C18E3E78F878E5F0D9027ABBFCF2292AE86E2D20171F69F6715550CB827B40839639A5F2770314A7CD293819B45C73AAFB45B35BA61ACAA1C1C7E7855C58C15BC331339661262CC762340413D68D77DA5B42298546CBE6573AF60CEB2F504B0304140006080800CC70623B449FB9BD290100001202000031
310
0000006662782F36394639363044362D344446342D343946362D394244322D3234314243333846323333332F636F72652E786D6C8D515B6EC32010BC0AE22B55850D98B871848994463E412FE002495162B07854397EA176A4F62F3F2C9A9D991D587EB84F37F0AD7D30CEF6905418026DA553C65E7A98E219ED203808EE9D
310
8B7F6810D871D23D2C3014FCE25D9A57483A1BB58D19B54EE9151C43D0110279CB971E06F9A5A7B11A53CC8C70ADE6515EC78BAE4895DB992778883E0700CB907242D17643D7E2538BD869608875438BBAE38922CAC8F1BDD90DB4691A5E2F42C153326A951B95E398B3D1FE599322163C9AE9115F7A3D46ADA0A018778810
310
84E907617BDCEE297BC5BB3DC6BC2EF47FA234AB2745C9D8D8D035EE220B50105E2F0DC1954B9FB747187D9F9D8FA0CCDB042D5FA0C015C65B42DF78BD10F3F3B363CB56C7109DCFDFBBB97E662ED92EB62D13BC2E1BCAE5777DB9966D8A1F504B0304140006080800CC70623BAD7543B64E01000033030000300000006662
310
782F36394639363044362D344446342D343946362D394244322D3234314243333846323333332F636E782E786D6CD593CD6EC32010845F0571AD6CE3D48AD20813A9873E410FBD12D82434182C7EAAE6EDBB2424CD25871E7B41D6EC30B3FA84F9E67BB2E40B4234DE8DB46F1925E094D7C6ED479AD3AE5951B2113C789FEE
310
6C943839C1488B4C05DF079FE72A69D8C96C13AAD6B8631503449F83828872B949AC57D26200B826A308D316B4064D6E46FCDA41C05550DC9E483A00797BFD207EFB092A45DE9514C1BBD22178396BD39D891265658C238DEA00936C654E5E433CB65A26D9F6EDB5EBC14EBF49A45CB856E66048291F6939A9A81BB5C89177
310
38143CA680F4AA299D66A042CEB3354A2684DC9D8D178FE0D9B8B41CAAD720F880EE7EF93C0C18769E099ECC04D5A102C8049A8A05632F4DDF376CF1DE0F6BB65C2F8627B65A33C6BB62177CEBBDAD973006829F89F22E814B54F4BC2BE347F8AA8F681390B50FA73F804400B5F542E796F19FF974E7F78DB802FE05E20750
310
4B0304140006080800CC70623B8D05915C650500003B100000340000006662782F36394639363044362D344446342D343946362D394244322D3234314243333846323333332F6F626A656374732E786D6CAD575B6FA33814FE2B887D06429276DA1565D4266D158D3A339A6846FB502932E050B66023DB74D2FDF5FB190C01
310
9276B2973C046C8ECFF53B17071F77456EBD502133CEAE6CDF9DD81665314F32965ED995DA3A17B6F5310C04E7AA47665B8C14F4CAD6DB7618A48257A5D94AE89654B91AEDDEDDFC61C998326A5B714EA4BCB265FC440BE2924AF184CA6737218AB8E976E7FA6E4338649B0A523E8D98964450A6A029F619B8588D52FE7039
310
B1BD30F0F4F730D0FF866AF6369557DB33949F31A9088B0F848DD8CCFCF9F2767A76E99CCDE733677E3EF59D9BBB9BA5E37F984D16E78BC5E5F5ED25044B25C0C96822E8D60EEFE11B91C581D77CEA34368A1F5329E68CD1B8B61F16D63A1B8E092D294B10C78C4A48EB593D192E7DED9BDEE7995E1B91FDEDD3ACEA9FE831
310
6A756F9F7D4D79F4274C90A7A04248AA51D5F8C718DAE06FB2F75AC4796EBE65D22A88A22223B995679120E2D50E41AA49C260C046A35368846B0BECD0DFF3EBEB8AD4F835768F69B9ADF25C43D30E6B646F807FAA64AD59F61715C7A54127C4AACA98BA3006A9D792DAE165E0D59B61A01FB3A9F9D838D2DAE62445C86166
310
F37564E842E7DE6A69879FEEA2DD5AE7E371E1A5E025154AC307D06A03D73EB5978C58FFA4C8E9033066E0F3BD53BEC1F39F91BE7B55103791EDE6BBB991A2046172CB4581D8B893FA674DDA17A77B3B7C413D1B511FD2743BFF8A38F03A658705E3ADF8015C3A3417FF3D7E439FF591DA0B5F18BC20C1B8981957AE6392A3
310
F43C640C01D1A0B4728E2DD4F26DB4B3C3152A252A3B4E913CEC1C72F012782FF88EFF8637AA552DBEF76408E8A8DE9E50F9E1CB3A2DA0DB1B6039A893B56063DC5B3E3FFB5F72E67AB9FEB4AEC496C4F4C1149625DD662C53E89D7BF0F6151A046260D1337DFDC94502430F83B0EE07A130A224BCAD7DAE1D9FB6CD422FF6
310
920702629C4BB9AE79C12F243C6432A6794E18E5552BA56B431AAB5D91317302B2B071E86C3A42B1A02F999E24061403B5D0EB639195DA655DD3EBEAB4FB862DDF579F014AD0E73C22F99E28DA57FB98E75C6CA2D74D53086D600F4786E0FE3144B771A8A7B900F03594DB8A633CBC49B2EDB69228BB479CF863B5E807AAAB
310
23872F6DFEB4129B949CA33823F58830E86D65621E10047D9DB34D862E8EAC3C2ABC2F7B2C40D67CDFE01F5545B92105AF983AC54D93D69E56FB8E797F88913F898A9FEC705D3F9D1B54EC8426FB500D40A03BD0119B06E1B95DDC7EB8F6975367793EBD70E66733DFB9BC982F9CE564727731999F5D4ECFCE3B8D6A4DC2A0
310
6D50FD148437D110834A64C6CDDF57FBACB5C307A2A477DFE4939736CFEF2B175371E0E10CF0DD1D5C15654E0BCA14D1E87DD02FF93782A162C0A3D95F1524A52770F972BF1EE9809D13CE7DD599467F8ECE9ADD85CE85A34CD45355448C64F9E8A031DC2D596ACC6E5DD93D9B82DE2EF5CAF81363A8E47996A0DE24564A79
310
4115AACE09C55E14540231FDA13C319787134EBF34E3A022514E5B4D9E0826E25C02D5805B15ABE1BEF51B26383D445DD9E875EE33FE4C22DA16427D65A3BCA92CA6D28DD01DF5DC53330704308475351050232CCD31583787BA75774AFB06E5070DD0C8EF484E19968C5D83BA5B90B244D31E54D55A372320FE4786B7EA58
310
44E135AA5467CB7EA333A61683CC6A8C3257034C10CF46F40EF9F5BE59BE5BD30C3C72D235E95D10345C1D45445A5F0BB47E46A5EBE5570F9380B5FA629579952296A773720405982B9DE04011506178964401AA8BDF1FBF0A8EAB6861DD6580C0E38217056766716DAEB2D6FA0917D3E4116581EADB879C4E7CFFB11EFACD
310
3D641311495D92C8676CB409A72D18610D803CE8A626049E8EC1887CB5B44CC39883690DDA8399B4B9855B481E7D71D4A9D22F96E5BB73BF5793020C02137BF837504B0304140006080000CC70623B000000000000000000000000350000006662782F36394639363044362D344446342D343946362D394244322D32343142
310
43333846323333332F76657274696365732E62696E504B0304140006080800CC70623BF270F1330600000004000000360000006662782F36394639363044362D344446342D343946362D394244322D3234314243333846323333332F747269616E676C65732E62696E636660600000504B0304140006080000CC70623B0000
310
00000000000000000000370000006662782F36394639363044362D344446342D343946362D394244322D3234314243333846323333332F617474726962757465732E62696E504B0304140006080800CC70623B08DA0BD19000000041010000360000006662782F36394639363044362D344446342D343946362D394244322D
310
3234314243333846323333332F6469726563746F72792E786D6C858F410AC3201045AF22B36F53E9A60B35CBEEBAE80D244E44489C6234F4F835464A48035D0DF398FF9F8AF63D0E6CC63039F212F8F9020C7D47C6792B21C5FE7403D62A1188E2E60C98D7234A5830286103A55745067B9D86B8A3CF9C7F90C11DE607FB14
310
4396D7B6A82D282E9A152AD114D5EF2CB866EEE831B8EEA07A7BB5A8D7D61A2BAAEB7FD5F70921FF497D00504B0304140006080800CC70623BCA768048FE000000A00100003B0000006662782F36394639363044362D344446342D343946362D394244322D3234314243333846323333332F7265736F75726365732F636F72
310
652E786D6C8D50596E833010BD0A9ADFCA60D600328E9AA639412F609909B1126CE4A5EAF16B0295DABFFECC8CDEA2797AECF8353F924FB44E193D409E5248504B332A3D0D10FC95B4901C39B3C6F85F3248B49871801506CE266BC2B243D2688FDA47549B11775038871E12F988C7004EDE7016A9083E2ADC3D5D84BC8B09
310
D33C8D74D471E6BC8D0192EDC93A815B742658898E651BCB59086ADC356A8C3FD555A1055ED7E7E254D615792D0F075295F585746FF53B694EE78A565DD736979A65AB9933AFE69F8CD2A2F038022F28ED489E135A7CE4554F9BBEA85E68DB53CAB255FEC71496F19FA6A0B42F8B3DEE6673C0F318E4497096AD7DC5F52C33
310
EEB55BFE0D504B010214000A0000080000CC70623B3DEE336E79000000790000001B00000000000000000000000000000000006175746F6465736B2D64657369676E2D7061636B6167652E786D6C504B01021400140006080800CC70623BD486FD9CA0000000F40000001300000000000000000000000000B20000005B436F
310
6E74656E745F54797065735D2E786D6C504B01021400140006080800CC70623BD9DDAED0EC0000007C010000080000000000000000000000000083010000636F72652E786D6C504B01021400140006080800CC70623B55019EA25F0000007C000000070000000000000000000000000095020000636E782E786D6C504B0102
310
1400140006080800CC70623BA24EB22D72010000D40300000C00000000000000000000000000190300006662782F636F72652E786D6C504B01021400140006080800CC70623B408A7D3B7C0000009D0000000B00000000000000000000000000B50400006662782F636E782E786D6C504B01021400140006080800CC70623B
310
449FB9BD290100001202000031000000000000000000000000005A0500006662782F36394639363044362D344446342D343946362D394244322D3234314243333846323333332F636F72652E786D6C504B01021400140006080800CC70623BAD7543B64E010000330300003000000000000000000000000000D20600006662
310
782F36394639363044362D344446342D343946362D394244322D3234314243333846323333332F636E782E786D6C504B01021400140006080800CC70623B8D05915C650500003B10000034000000000000000000000000006E0800006662782F36394639363044362D344446342D343946362D394244322D32343142433338
310
46323333332F6F626A656374732E786D6C504B01021400140006080000CC70623B0000000000000000000000003500000000000000000000000000250E00006662782F36394639363044362D344446342D343946362D394244322D3234314243333846323333332F76657274696365732E62696E504B010214001400060808
310
00CC70623BF270F13306000000040000003600000000000000000000000000780E00006662782F36394639363044362D344446342D343946362D394244322D3234314243333846323333332F747269616E676C65732E62696E504B01021400140006080000CC70623B00000000000000000000000037000000000000000000
310
00000000D20E00006662782F36394639363044362D344446342D343946362D394244322D3234314243333846323333332F617474726962757465732E62696E504B01021400140006080800CC70623B08DA0BD190000000410100003600000000000000000000000000270F00006662782F36394639363044362D344446342D
310
343946362D394244322D3234314243333846323333332F6469726563746F72792E786D6C504B01021400140006080800CC70623BCA768048FE000000A00100003B000000000000000000000000000B1000006662782F36394639363044362D344446342D343946362D394244322D3234314243333846323333332F7265736F
310
75726365732F636F72652E786D6C504B0506000000000E000E0080040000621100000000
  0
XRECORD
  5
10
102
{ACAD_REACTORS
330
C
102
}
330
C
100
AcDbXrecord
280
     1
270
     1
271
     1
  0
XRECORD
  5
11
102
{ACAD_REACTORS
330
C
102
}
330
C
100
AcDbXrecord
280
     1
270
     1
271
     1
  0
CELLSTYLEMAP
  5
273
102
{ACAD_REACTORS
330
50
102
}
330
50
100
AcDbCellStyleMap
 90
        3
300
CELLSTYLE
  1
TABLEFORMAT_BEGIN
 90
        5
170
     1
 91
        0
 92
    32768
 62
   257
 93
        1
300
CONTENTFORMAT
  1
CONTENTFORMAT_BEGIN
 90
        0
 91
        0
 92
      512
 93
        0
300

 40
0.0
140
1.0
 94
        5
 62
     0
340
21
144
6.0
309
CONTENTFORMAT_END
171
     1
301
MARGIN
  1
CELLMARGIN_BEGIN
 40
1.5
 40
1.5
 40
1.5
 40
1.5
 40
4.5
 40
4.5
309
CELLMARGIN_END
 94
        6
 95
        1
302
GRIDFORMAT
  1
GRIDFORMAT_BEGIN
 90
        0
 91
        1
 62
     0
 92
       -2
340
24
 93
        0
 40
1.125
309
GRIDFORMAT_END
 95
        2
302
GRIDFORMAT
  1
GRIDFORMAT_BEGIN
 90
        0
 91
        1
 62
     0
 92
       -2
340
24
 93
        0
 40
1.125
309
GRIDFORMAT_END
 95
        4
302
GRIDFORMAT
  1
GRIDFORMAT_BEGIN
 90
        0
 91
        1
 62
     0
 92
       -2
340
24
 93
        0
 40
1.125
309
GRIDFORMAT_END
 95
        8
302
GRIDFORMAT
  1
GRIDFORMAT_BEGIN
 90
        0
 91
        1
 62
     0
 92
       -2
340
24
 93
        0
 40
1.125
309
GRIDFORMAT_END
 95
       16
302
GRIDFORMAT
  1
GRIDFORMAT_BEGIN
 90
        0
 91
        1
 62
     0
 92
       -2
340
24
 93
        0
 40
1.125
309
GRIDFORMAT_END
 95
       32
302
GRIDFORMAT
  1
GRIDFORMAT_BEGIN
 90
        0
 91
        1
 62
     0
 92
       -2
340
24
 93
        0
 40
1.125
309
GRIDFORMAT_END
309
TABLEFORMAT_END
  1
CELLSTYLE_BEGIN
 90
        1
 91
        1
300
_TITLE
309
CELLSTYLE_END
300
CELLSTYLE
  1
TABLEFORMAT_BEGIN
 90
        5
170
     1
 91
        0
 92
        0
 62
   257
 93
        1
300
CONTENTFORMAT
  1
CONTENTFORMAT_BEGIN
 90
        0
 91
        0
 92
      512
 93
        0
300

 40
0.0
140
1.0
 94
        5
 62
     0
340
21
144
4.5
309
CONTENTFORMAT_END
171
     1
301
MARGIN
  1
CELLMARGIN_BEGIN
 40
1.5
 40
1.5
 40
1.5
 40
1.5
 40
4.5
 40
4.5
309
CELLMARGIN_END
 94
        6
 95
        1
302
GRIDFORMAT
  1
GRIDFORMAT_BEGIN
 90
        0
 91
        1
 62
     0
 92
       -2
340
24
 93
        0
 40
1.125
309
GRIDFORMAT_END
 95
        2
302
GRIDFORMAT
  1
GRIDFORMAT_BEGIN
 90
        0
 91
        1
 62
     0
 92
       -2
340
24
 93
        0
 40
1.125
309
GRIDFORMAT_END
 95
        4
302
GRIDFORMAT
  1
GRIDFORMAT_BEGIN
 90
        0
 91
        1
 62
     0
 92
       -2
340
24
 93
        0
 40
1.125
309
GRIDFORMAT_END
 95
        8
302
GRIDFORMAT
  1
GRIDFORMAT_BEGIN
 90
        0
 91
        1
 62
     0
 92
       -2
340
24
 93
        0
 40
1.125
309
GRIDFORMAT_END
 95
       16
302
GRIDFORMAT
  1
GRIDFORMAT_BEGIN
 90
        0
 91
        1
 62
     0
 92
       -2
340
24
 93
        0
 40
1.125
309
GRIDFORMAT_END
 95
       32
302
GRIDFORMAT
  1
GRIDFORMAT_BEGIN
 90
        0
 91
        1
 62
     0
 92
       -2
340
24
 93
        0
 40
1.125
309
GRIDFORMAT_END
309
TABLEFORMAT_END
  1
CELLSTYLE_BEGIN
 90
        2
 91
        1
300
_HEADER
309
CELLSTYLE_END
300
CELLSTYLE
  1
TABLEFORMAT_BEGIN
 90
        5
170
     1
 91
        0
 92
        0
 62
   257
 93
        1
300
CONTENTFORMAT
  1
CONTENTFORMAT_BEGIN
 90
        0
 91
        0
 92
      512
 93
        0
300

 40
0.0
140
1.0
 94
        2
 62
     0
340
21
144
4.5
309
CONTENTFORMAT_END
171
     1
301
MARGIN
  1
CELLMARGIN_BEGIN
 40
1.5
 40
1.5
 40
1.5
 40
1.5
 40
4.5
 40
4.5
309
CELLMARGIN_END
 94
        6
 95
        1
302
GRIDFORMAT
  1
GRIDFORMAT_BEGIN
 90
        0
 91
        1
 62
     0
 92
       -2
340
24
 93
        0
 40
1.125
309
GRIDFORMAT_END
 95
        2
302
GRIDFORMAT
  1
GRIDFORMAT_BEGIN
 90
        0
 91
        1
 62
     0
 92
       -2
340
24
 93
        0
 40
1.125
309
GRIDFORMAT_END
 95
        4
302
GRIDFORMAT
  1
GRIDFORMAT_BEGIN
 90
        0
 91
        1
 62
     0
 92
       -2
340
24
 93
        0
 40
1.125
309
GRIDFORMAT_END
 95
        8
302
GRIDFORMAT
  1
GRIDFORMAT_BEGIN
 90
        0
 91
        1
 62
     0
 92
       -2
340
24
 93
        0
 40
1.125
309
GRIDFORMAT_END
 95
       16
302
GRIDFORMAT
  1
GRIDFORMAT_BEGIN
 90
        0
 91
        1
 62
     0
 92
       -2
340
24
 93
        0
 40
1.125
309
GRIDFORMAT_END
 95
       32
302
GRIDFORMAT
  1
GRIDFORMAT_BEGIN
 90
        0
 91
        1
 62
     0
 92
       -2
340
24
 93
        0
 40
1.125
309
GRIDFORMAT_END
309
TABLEFORMAT_END
  1
CELLSTYLE_BEGIN
 90
        3
 91
        2
300
_DATA
309
CELLSTYLE_END
  0
ENDSEC
  0
SECTION
  2
ACDSDATA
 70
     2
 71
     8
  0
ACDSSCHEMA
 90
        0
  1
AcDb_Thumbnail_Schema
  2
AcDbDs::ID
280
    10
 91
        8
  2
Thumbnail_Data
280
    15
 91
        0
101
ACDSRECORD
 95
        0
 90
        1
  2
AcDbDs::TreatedAsObjectData
280
     1
291
     1
101
ACDSRECORD
 95
        0
 90
        2
  2
AcDbDs::Legacy
280
     1
291
     1
101
ACDSRECORD
  1
AcDbDs::ID
 90
        3
  2
AcDs:Indexable
280
     1
291
     1
101
ACDSRECORD
  1
AcDbDs::ID
 90
        4
  2
AcDbDs::HandleAttribute
280
     7
282
     1
  0
ACDSSCHEMA
 90
        1
  1
AcDbDs::TreatedAsObjectDataSchema
  2
AcDbDs::TreatedAsObjectData
280
     1
 91
        0
  0
ACDSSCHEMA
 90
        2
  1
AcDbDs::LegacySchema
  2
AcDbDs::Legacy
280
     1
 91
        0
  0
ACDSSCHEMA
 90
        3
  1
AcDbDs::IndexedPropertySchema
  2
AcDs:Indexable
280
     1
 91
        0
  0
ACDSSCHEMA
 90
        4
  1
AcDbDs::HandleAttributeSchema
  2
AcDbDs::HandleAttribute
280
     7
 91
        1
284
     1
  0
ACDSRECORD
 90
        0
  2
AcDbDs::ID
280
    10
320
15
  2
Thumbnail_Data
280
    15
 94
      896
310
89504E470D0A1A0A0000000D49484452000001000000009108030000001BE1960600000300504C5445212830FFFFFF2128300000000000000000000000000000000000000000000000000000330000660000990000CC0000FF0033000033330033660033990033CC0033FF0066000066330066660066990066CC0066FF0099
310
000099330099660099990099CC0099FF00CC0000CC3300CC6600CC9900CCCC00CCFF00FF0000FF3300FF6600FF9900FFCC00FFFF3300003300333300663300993300CC3300FF3333003333333333663333993333CC3333FF3366003366333366663366993366CC3366FF3399003399333399663399993399CC3399FF33CC00
310
33CC3333CC6633CC9933CCCC33CCFF33FF0033FF3333FF6633FF9933FFCC33FFFF6600006600336600666600996600CC6600FF6633006633336633666633996633CC6633FF6666006666336666666666996666CC6666FF6699006699336699666699996699CC6699FF66CC0066CC3366CC6666CC9966CCCC66CCFF66FF0066
310
FF3366FF6666FF9966FFCC66FFFF9900009900339900669900999900CC9900FF9933009933339933669933999933CC9933FF9966009966339966669966999966CC9966FF9999009999339999669999999999CC9999FF99CC0099CC3399CC6699CC9999CCCC99CCFF99FF0099FF3399FF6699FF9999FFCC99FFFFCC0000CC00
310
33CC0066CC0099CC00CCCC00FFCC3300CC3333CC3366CC3399CC33CCCC33FFCC6600CC6633CC6666CC6699CC66CCCC66FFCC9900CC9933CC9966CC9999CC99CCCC99FFCCCC00CCCC33CCCC66CCCC99CCCCCCCCCCFFCCFF00CCFF33CCFF66CCFF99CCFFCCCCFFFFFF0000FF0033FF0066FF0099FF00CCFF00FFFF3300FF3333
310
FF3366FF3399FF33CCFF33FFFF6600FF6633FF6666FF6699FF66CCFF66FFFF9900FF9933FF9966FF9999FF99CCFF99FFFFCC00FFCC33FFCC66FFCC99FFCCCCFFCCFFFFFF00FFFF33FFFF66FFFF99FFFFCCFFFFFF0000000D0D0D1A1A1A2828283535354343435050505D5D5D6B6B6B787878868686939393A1A1A1AEAEAEBB
310
BBBBC9C9C9D6D6D6E4E4E4F1F1F1FFFFFF0000000000000000000000000000000000000000000000000000000000002E4550F10000003B4944415478DAEDC13101000000C2A0F54F6D0B2FA0000000000000000000000000000000000000000000000000000000000000000000000000CE06919100016C9A5B1B0000000049
310
454E44AE426082
  0
ENDSEC
  0
EOF
