  0
SECTION
  2
HEADER
  9
$ACADVER
  1
AC1032
  9
$ACADMAINTVER
 90
      197
  9
$DWGCODEPAGE
  3
ANSI_932
  9
$REQUIREDVERSIONS
160
                 0
  9
$INSBASE
 10
0.0
 20
0.0
 30
0.0
  9
$EXTMIN
 10
396.0671405885252
 20
217.8659440414727
 30
0.0
  9
$EXTMAX
 10
446.0409509749444
 20
260.9057026455874
 30
0.0
  9
$LIMMIN
 10
0.0
 20
0.0
  9
$LIMMAX
 10
420.0
 20
297.0
  9
$ORTHOMODE
 70
     0
  9
$REGENMODE
 70
     1
  9
$FILLMODE
 70
     1
  9
$QTEXTMODE
 70
     0
  9
$MIRRTEXT
 70
     0
  9
$LTSCALE
 40
1.0
  9
$ATTMODE
 70
     1
  9
$TEXTSIZE
 40
2.5
  9
$TRACEWID
 40
1.0
  9
$TEXTSTYLE
  7
Standard
  9
$CLAYER
  8
0
  9
$CELTYPE
  6
ByLayer
  9
$CECOLOR
 62
   256
  9
$CELTSCALE
 40
1.0
  9
$DISPSILH
 70
     0
  9
$DIMSCALE
 40
1.0
  9
$DIMASZ
 40
2.5
  9
$DIMEXO
 40
0.625
  9
$DIMDLI
 40
3.75
  9
$DIMRND
 40
0.0
  9
$DIMDLE
 40
0.0
  9
$DIMEXE
 40
1.25
  9
$DIMTP
 40
0.0
  9
$DIMTM
 40
0.0
  9
$DIMTXT
 40
2.5
  9
$DIMCEN
 40
2.5
  9
$DIMTSZ
 40
0.0
  9
$DIMTOL
 70
     0
  9
$DIMLIM
 70
     0
  9
$DIMTIH
 70
     0
  9
$DIMTOH
 70
     0
  9
$DIMSE1
 70
     0
  9
$DIMSE2
 70
     0
  9
$DIMTAD
 70
     1
  9
$DIMZIN
 70
     8
  9
$DIMBLK
  1

  9
$DIMASO
 70
     1
  9
$DIMSHO
 70
     1
  9
$DIMPOST
  1

  9
$DIMAPOST
  1

  9
$DIMALT
 70
     0
  9
$DIMALTD
 70
     3
  9
$DIMALTF
 40
0.03937007874016
  9
$DIMLFAC
 40
1.0
  9
$DIMTOFL
 70
     1
  9
$DIMTVP
 40
0.0
  9
$DIMTIX
 70
     0
  9
$DIMSOXD
 70
     0
  9
$DIMSAH
 70
     0
  9
$DIMBLK1
  1

  9
$DIMBLK2
  1

  9
$DIMSTYLE
  2
ISO-25
  9
$DIMCLRD
 70
     0
  9
$DIMCLRE
 70
     0
  9
$DIMCLRT
 70
     0
  9
$DIMTFAC
 40
1.0
  9
$DIMGAP
 40
0.625
  9
$DIMJUST
 70
     0
  9
$DIMSD1
 70
     0
  9
$DIMSD2
 70
     0
  9
$DIMTOLJ
 70
     0
  9
$DIMTZIN
 70
     8
  9
$DIMALTZ
 70
     0
  9
$DIMALTTZ
 70
     0
  9
$DIMUPT
 70
     0
  9
$DIMDEC
 70
     2
  9
$DIMTDEC
 70
     2
  9
$DIMALTU
 70
     2
  9
$DIMALTTD
 70
     3
  9
$DIMTXSTY
  7
Standard
  9
$DIMAUNIT
 70
     0
  9
$DIMADEC
 70
     0
  9
$DIMALTRND
 40
0.0
  9
$DIMAZIN
 70
     0
  9
$DIMDSEP
 70
    44
  9
$DIMATFIT
 70
     3
  9
$DIMFRAC
 70
     0
  9
$DIMLDRBLK
  1

  9
$DIMLUNIT
 70
     2
  9
$DIMLWD
 70
    -2
  9
$DIMLWE
 70
    -2
  9
$DIMTMOVE
 70
     0
  9
$DIMFXL
 40
1.0
  9
$DIMFXLON
 70
     0
  9
$DIMJOGANG
 40
0.7853981633974483
  9
$DIMTFILL
 70
     0
  9
$DIMTFILLCLR
 70
     0
  9
$DIMARCSYM
 70
     0
  9
$DIMLTYPE
  6

  9
$DIMLTEX1
  6

  9
$DIMLTEX2
  6

  9
$DIMTXTDIRECTION
 70
     0
  9
$LUNITS
 70
     2
  9
$LUPREC
 70
     4
  9
$SKETCHINC
 40
1.0
  9
$FILLETRAD
 40
0.0
  9
$AUNITS
 70
     0
  9
$AUPREC
 70
     0
  9
$MENU
  1
.
  9
$ELEVATION
 40
0.0
  9
$PELEVATION
 40
0.0
  9
$THICKNESS
 40
0.0
  9
$LIMCHECK
 70
     0
  9
$CHAMFERA
 40
0.0
  9
$CHAMFERB
 40
0.0
  9
$CHAMFERC
 40
0.0
  9
$CHAMFERD
 40
0.0
  9
$SKPOLY
 70
     0
  9
$TDCREATE
 40
2459438.675081019
  9
$TDUCREATE
 40
2459438.341747685
  9
$TDUPDATE
 40
2459438.675081019
  9
$TDUUPDATE
 40
2459438.341747685
  9
$TDINDWG
 40
0.0010185185
  9
$TDUSRTIMER
 40
0.0010185185
  9
$USRTIMER
 70
     1
  9
$ANGBASE
 50
0.0
  9
$ANGDIR
 70
     0
  9
$PDMODE
 70
     0
  9
$PDSIZE
 40
0.0
  9
$PLINEWID
 40
0.0
  9
$SPLFRAME
 70
     0
  9
$SPLINETYPE
 70
     6
  9
$SPLINESEGS
 70
     8
  9
$HANDSEED
  5
2F9
  9
$SURFTAB1
 70
     6
  9
$SURFTAB2
 70
     6
  9
$SURFTYPE
 70
     6
  9
$SURFU
 70
     6
  9
$SURFV
 70
     6
  9
$UCSBASE
  2

  9
$UCSNAME
  2

  9
$UCSORG
 10
0.0
 20
0.0
 30
0.0
  9
$UCSXDIR
 10
1.0
 20
0.0
 30
0.0
  9
$UCSYDIR
 10
0.0
 20
1.0
 30
0.0
  9
$UCSORTHOREF
  2

  9
$UCSORTHOVIEW
 70
     0
  9
$UCSORGTOP
 10
0.0
 20
0.0
 30
0.0
  9
$UCSORGBOTTOM
 10
0.0
 20
0.0
 30
0.0
  9
$UCSORGLEFT
 10
0.0
 20
0.0
 30
0.0
  9
$UCSORGRIGHT
 10
0.0
 20
0.0
 30
0.0
  9
$UCSORGFRONT
 10
0.0
 20
0.0
 30
0.0
  9
$UCSORGBACK
 10
0.0
 20
0.0
 30
0.0
  9
$PUCSBASE
  2

  9
$PUCSNAME
  2

  9
$PUCSORG
 10
0.0
 20
0.0
 30
0.0
  9
$PUCSXDIR
 10
1.0
 20
0.0
 30
0.0
  9
$PUCSYDIR
 10
0.0
 20
1.0
 30
0.0
  9
$PUCSORTHOREF
  2

  9
$PUCSORTHOVIEW
 70
     0
  9
$PUCSORGTOP
 10
0.0
 20
0.0
 30
0.0
  9
$PUCSORGBOTTOM
 10
0.0
 20
0.0
 30
0.0
  9
$PUCSORGLEFT
 10
0.0
 20
0.0
 30
0.0
  9
$PUCSORGRIGHT
 10
0.0
 20
0.0
 30
0.0
  9
$PUCSORGFRONT
 10
0.0
 20
0.0
 30
0.0
  9
$PUCSORGBACK
 10
0.0
 20
0.0
 30
0.0
  9
$USERI1
 70
     0
  9
$USERI2
 70
     0
  9
$USERI3
 70
     0
  9
$USERI4
 70
     0
  9
$USERI5
 70
     0
  9
$USERR1
 40
0.0
  9
$USERR2
 40
0.0
  9
$USERR3
 40
0.0
  9
$USERR4
 40
0.0
  9
$USERR5
 40
0.0
  9
$WORLDVIEW
 70
     1
  9
$SHADEDGE
 70
     3
  9
$SHADEDIF
 70
    70
  9
$TILEMODE
 70
     1
  9
$MAXACTVP
 70
    64
  9
$PINSBASE
 10
0.0
 20
0.0
 30
0.0
  9
$PLIMCHECK
 70
     0
  9
$PEXTMIN
 10
0.0
 20
0.0
 30
0.0
  9
$PEXTMAX
 10
0.0
 20
0.0
 30
0.0
  9
$PLIMMIN
 10
0.0
 20
0.0
  9
$PLIMMAX
 10
12.0
 20
9.0
  9
$UNITMODE
 70
     0
  9
$VISRETAIN
 70
     1
  9
$PLINEGEN
 70
     0
  9
$PSLTSCALE
 70
     1
  9
$TREEDEPTH
 70
  3020
  9
$CMLSTYLE
  2
Standard
  9
$CMLJUST
 70
     0
  9
$CMLSCALE
 40
20.0
  9
$PROXYGRAPHICS
 70
     1
  9
$MEASUREMENT
 70
     1
  9
$CELWEIGHT
370
    -1
  9
$ENDCAPS
280
     0
  9
$JOINSTYLE
280
     0
  9
$LWDISPLAY
290
     0
  9
$INSUNITS
 70
     4
  9
$HYPERLINKBASE
  1

  9
$STYLESHEET
  1

  9
$XEDIT
290
     1
  9
$CEPSNTYPE
380
     0
  9
$PSTYLEMODE
290
     1
  9
$FINGERPRINTGUID
  2
{87938F92-B285-6842-B633-9CF8BCD74332}
  9
$VERSIONGUID
  2
{0B1670BF-9F2D-9649-8CEA-299D3195FB29}
  9
$EXTNAMES
290
     1
  9
$PSVPSCALE
 40
0.0
  9
$OLESTARTUP
290
     0
  9
$SORTENTS
280
   127
  9
$INDEXCTL
280
     0
  9
$HIDETEXT
280
     1
  9
$XCLIPFRAME
280
     2
  9
$HALOGAP
280
     0
  9
$OBSCOLOR
 70
   257
  9
$OBSLTYPE
280
     0
  9
$INTERSECTIONDISPLAY
280
     0
  9
$INTERSECTIONCOLOR
 70
   257
  9
$DIMASSOC
280
     2
  9
$PROJECTNAME
  1

  9
$CAMERADISPLAY
290
     0
  9
$LENSLENGTH
 40
50.0
  9
$CAMERAHEIGHT
 40
0.0
  9
$STEPSPERSEC
 40
2.0
  9
$STEPSIZE
 40
6.0
  9
$3DDWFPREC
 40
2.0
  9
$PSOLWIDTH
 40
5.0
  9
$PSOLHEIGHT
 40
80.0
  9
$LOFTANG1
 40
1.570796326794896
  9
$LOFTANG2
 40
1.570796326794896
  9
$LOFTMAG1
 40
0.0
  9
$LOFTMAG2
 40
0.0
  9
$LOFTPARAM
 70
     7
  9
$LOFTNORMALS
280
     1
  9
$LATITUDE
 40
37.795
  9
$LONGITUDE
 40
-122.394
  9
$NORTHDIRECTION
 40
0.0
  9
$TIMEZONE
 70
 -8000
  9
$LIGHTGLYPHDISPLAY
280
     1
  9
$TILEMODELIGHTSYNCH
280
     1
  9
$CMATERIAL
347
38
  9
$SOLIDHIST
280
     0
  9
$SHOWHIST
280
     1
  9
$DWFFRAME
280
     2
  9
$DGNFRAME
280
     0
  9
$REALWORLDSCALE
290
     1
  9
$INTERFERECOLOR
 62
     1
  9
$INTERFEREOBJVS
345
51
  9
$INTERFEREVPVS
346
52
  9
$CSHADOW
280
     0
  9
$SHADOWPLANELOCATION
 40
0.0
  0
ENDSEC
  0
SECTION
  2
CLASSES
  0
CLASS
  1
ACDBDICTIONARYWDFLT
  2
AcDbDictionaryWithDefault
  3
ObjectDBX Classes
 90
        0
 91
        1
280
     0
281
     0
  0
CLASS
  1
DICTIONARYVAR
  2
AcDbDictionaryVar
  3
ObjectDBX Classes
 90
        0
 91
       11
280
     0
281
     0
  0
CLASS
  1
TABLESTYLE
  2
AcDbTableStyle
  3
ObjectDBX Classes
 90
     4095
 91
        1
280
     0
281
     0
  0
CLASS
  1
MATERIAL
  2
AcDbMaterial
  3
ObjectDBX Classes
 90
     1153
 91
        3
280
     0
281
     0
  0
CLASS
  1
VISUALSTYLE
  2
AcDbVisualStyle
  3
ObjectDBX Classes
 90
     4095
 91
        3
280
     0
281
     0
  0
CLASS
  1
SCALE
  2
AcDbScale
  3
ObjectDBX Classes
 90
     1153
 91
       17
280
     0
281
     0
  0
CLASS
  1
MLEADERSTYLE
  2
AcDbMLeaderStyle
  3
ACDB_MLEADERSTYLE_CLASS
 90
     4095
 91
        0
280
     0
281
     0
  0
CLASS
  1
CELLSTYLEMAP
  2
AcDbCellStyleMap
  3
ObjectDBX Classes
 90
     1152
 91
        1
280
     0
281
     0
  0
CLASS
  1
EXACXREFPANELOBJECT
  2
ExAcXREFPanelObject
  3
EXAC_ESW
 90
     1025
 91
        0
280
     1
281
     0
  0
CLASS
  1
NPOCOLLECTION
  2
AcDbImpNonPersistentObjectsCollection
  3
ObjectDBX Classes
 90
     1153
 91
        0
280
     0
281
     0
  0
CLASS
  1
LAYER_INDEX
  2
AcDbLayerIndex
  3
ObjectDBX Classes
 90
        0
 91
        0
280
     0
281
     0
  0
CLASS
  1
SPATIAL_INDEX
  2
AcDbSpatialIndex
  3
ObjectDBX Classes
 90
        0
 91
        0
280
     0
281
     0
  0
CLASS
  1
IDBUFFER
  2
AcDbIdBuffer
  3
ObjectDBX Classes
 90
        0
 91
        0
280
     0
281
     0
  0
CLASS
  1
ACDBSECTIONVIEWSTYLE
  2
AcDbSectionViewStyle
  3
ObjectDBX Classes
 90
     1025
 91
        0
280
     0
281
     0
  0
CLASS
  1
ACDBDETAILVIEWSTYLE
  2
AcDbDetailViewStyle
  3
ObjectDBX Classes
 90
     1025
 91
        0
280
     0
281
     0
  0
CLASS
  1
SOLID_BACKGROUND
  2
AcDbSolidBackground
  3
SCENEOE
 90
     4095
 91
        0
280
     0
281
     0
  0
ENDSEC
  0
SECTION
  2
TABLES
  0
TABLE
  2
VPORT
  5
28
330
0
100
AcDbSymbolTable
 70
     1
  0
VPORT
  5
29
330
28
100
AcDbSymbolTableRecord
100
AcDbViewportTableRecord
  2
*Active
 70
     0
 10
0.0
 20
0.0
 11
1.0
 21
1.0
 12
471.4278148723777
 22
241.7832466124573
 13
0.0
 23
0.0
 14
10.0
 24
10.0
 15
10.0
 25
10.0
 16
0.0
 26
0.0
 36
1.0
 17
0.0
 27
0.0
 37
0.0
 40
99.34924251639495
 41
2.149367088607594
 42
50.0
 43
0.0
 44
0.0
 50
0.0
 51
0.0
 71
     0
 72
  1000
 73
     1
 74
     3
 75
     0
 76
     1
 77
     0
 78
     0
281
     0
 65
     1
110
0.0
120
0.0
130
0.0
111
1.0
121
0.0
131
0.0
112
0.0
122
1.0
132
0.0
 79
     0
146
0.0
348
2A
 60
     3
 61
     5
292
     1
282
     1
141
0.0
142
0.0
 63
   250
421
  3355443
1001
ACAD_NAV_VCDISPLAY
1070
     3
  0
ENDTAB
  0
TABLE
  2
LTYPE
  5
23
330
0
100
AcDbSymbolTable
 70
     1
  0
LTYPE
  5
24
330
23
100
AcDbSymbolTableRecord
100
AcDbLinetypeTableRecord
  2
ByBlock
 70
     0
  3

 72
    65
 73
     0
 40
0.0
  0
LTYPE
  5
25
330
23
100
AcDbSymbolTableRecord
100
AcDbLinetypeTableRecord
  2
ByLayer
 70
     0
  3

 72
    65
 73
     0
 40
0.0
  0
LTYPE
  5
13
330
23
100
AcDbSymbolTableRecord
100
AcDbLinetypeTableRecord
  2
Continuous
 70
     0
  3
Solid line
 72
    65
 73
     0
 40
0.0
  0
ENDTAB
  0
TABLE
  2
LAYER
  5
1D
102
{ACAD_XDICTIONARY
360
1E
102
}
330
0
100
AcDbSymbolTable
 70
     1
  0
LAYER
  5
5
102
{ACAD_XDICTIONARY
360
6
102
}
330
1D
100
AcDbSymbolTableRecord
100
AcDbLayerTableRecord
  2
0
 70
     0
 62
     7
  6
Continuous
370
    -3
390
7
347
A
348
0
  0
ENDTAB
  0
TABLE
  2
STYLE
  5
20
330
0
100
AcDbSymbolTable
 70
     1
  0
STYLE
  5
21
330
20
100
AcDbSymbolTableRecord
100
AcDbTextStyleTableRecord
  2
Standard
 70
     0
 40
0.0
 41
1.0
 50
0.0
 71
     0
 42
2.5
  3
arial.ttf
  4

1001
ACAD
1000
Arial
1071
       34
  0
ENDTAB
  0
TABLE
  2
VIEW
  5
26
330
0
100
AcDbSymbolTable
 70
     0
  0
ENDTAB
  0
TABLE
  2
UCS
  5
27
330
0
100
AcDbSymbolTable
 70
     0
  0
ENDTAB
  0
TABLE
  2
APPID
  5
2D
330
0
100
AcDbSymbolTable
 70
     6
  0
APPID
  5
12
330
2D
100
AcDbSymbolTableRecord
100
AcDbRegAppTableRecord
  2
ACAD
 70
     0
  0
APPID
  5
18
330
2D
100
AcDbSymbolTableRecord
100
AcDbRegAppTableRecord
  2
ACAD_PSEXT
 70
     0
  0
APPID
  5
31
330
2D
100
AcDbSymbolTableRecord
100
AcDbRegAppTableRecord
  2
AcadAnnotative
 70
     0
  0
APPID
  5
32
330
2D
100
AcDbSymbolTableRecord
100
AcDbRegAppTableRecord
  2
ACAD_DSTYLE_DIMJAG
 70
     0
  0
APPID
  5
33
330
2D
100
AcDbSymbolTableRecord
100
AcDbRegAppTableRecord
  2
ACAD_DSTYLE_DIMTALN
 70
     0
  0
APPID
  5
2C
330
2D
100
AcDbSymbolTableRecord
100
AcDbRegAppTableRecord
  2
ACAD_NAV_VCDISPLAY
 70
     0
  0
ENDTAB
  0
TABLE
  2
DIMSTYLE
  5
2E
330
0
100
AcDbSymbolTable
 70
     2
100
AcDbDimStyleTable
 71
     2
340
2F
340
30
  0
DIMSTYLE
105
30
330
2E
100
AcDbSymbolTableRecord
100
AcDbDimStyleTableRecord
  2
Annotative
 70
     0
 40
0.0
 41
2.5
 42
0.625
 43
3.75
 44
1.25
 73
     0
 74
     0
 77
     1
 78
     8
140
2.5
141
2.5
143
0.03937007874016
147
0.625
171
     3
172
     1
271
     2
272
     2
274
     3
278
    44
283
     0
284
     8
340
21
1001
AcadAnnotative
1000
AnnotativeData
1002
{
1070
     1
1070
     1
1002
}
1001
ACAD_DSTYLE_DIMJAG
1070
   388
1040
1.5
1001
ACAD_DSTYLE_DIMTALN
1070
   392
1070
     0
  0
DIMSTYLE
105
2F
330
2E
100
AcDbSymbolTableRecord
100
AcDbDimStyleTableRecord
  2
ISO-25
 70
     0
 41
2.5
 42
0.625
 43
3.75
 44
1.25
 73
     0
 74
     0
 77
     1
 78
     8
140
2.5
141
2.5
143
0.03937007874016
147
0.625
171
     3
172
     1
271
     2
272
     2
274
     3
278
    44
283
     0
284
     8
340
21
  0
ENDTAB
  0
TABLE
  2
BLOCK_RECORD
  5
1
330
0
100
AcDbSymbolTable
 70
     0
  0
BLOCK_RECORD
  5
2
102
{ACAD_XDICTIONARY
360
3
102
}
330
1
100
AcDbSymbolTableRecord
100
AcDbBlockTableRecord
  2
*Model_Space
340
15
 70
     0
280
     1
281
     0
  0
BLOCK_RECORD
  5
19
330
1
100
AcDbSymbolTableRecord
100
AcDbBlockTableRecord
  2
*Paper_Space
340
1C
 70
     0
280
     1
281
     0
  0
ENDTAB
  0
ENDSEC
  0
SECTION
  2
BLOCKS
  0
BLOCK
  5
4
330
2
100
AcDbEntity
  8
0
100
AcDbBlockBegin
  2
*Model_Space
 70
     0
 10
0.0
 20
0.0
 30
0.0
  3
*Model_Space
  1

  0
ENDBLK
  5
14
330
2
100
AcDbEntity
  8
0
100
AcDbBlockEnd
  0
BLOCK
  5
1A
330
19
100
AcDbEntity
 67
     1
  8
0
100
AcDbBlockBegin
  2
*Paper_Space
 70
     0
 10
0.0
 20
0.0
 30
0.0
  3
*Paper_Space
  1

  0
ENDBLK
  5
1B
330
19
100
AcDbEntity
 67
     1
  8
0
100
AcDbBlockEnd
  0
ENDSEC
  0
SECTION
  2
ENTITIES
  0
LINE
  5
64
330
2
100
AcDbEntity
  8
0
100
AcDbLine
 10
426.0778849957034
 20
256.1231926565528
 30
0.0
 11
412.2047277226756
 21
260.1280281995826
 31
0.0
  0
LINE
  5
65
330
2
100
AcDbEntity
  8
0
100
AcDbLine
 10
429.0541008927641
 20
256.9585117280559
 30
0.0
 11
415.7358702084326
 21
260.8031537634369
 31
0.0
  0
LINE
  5
66
330
2
100
AcDbEntity
  8
0
100
AcDbLine
 10
429.2856286545186
 20
252.2237955826202
 30
0.0
 11
429.2856286545186
 21
256.6506939170476
 31
0.0
  0
SPLINE
  5
67
330
2
100
AcDbEntity
  8
0
100
AcDbSpline
210
0.0
220
0.0
230
1.0
 70
     8
 71
     3
 72
    11
 73
     7
 74
     0
 42
0.000000001
 43
0.0000000001
 40
0.0
 40
0.0
 40
0.0
 40
0.0
 40
0.2503947916099605
 40
0.500512174166908
 40
0.7503763266590451
 40
1.0
 40
1.0
 40
1.0
 40
1.0
 10
434.0852783232297
 20
250.3846166122598
 30
0.0
 10
434.0784412840211
 20
250.4460968446447
 30
0.0
 10
434.0647747802687
 20
250.5689891962844
 30
0.0
 10
433.9601347136258
 20
250.7490154154794
 30
0.0
 10
433.8107628013205
 20
250.8967825636037
 30
0.0
 10
433.6925114871298
 20
250.9444658161696
 30
0.0
 10
433.6334142961693
 20
250.9682959638662
 30
0.0
  0
LINE
  5
68
330
2
100
AcDbEntity
  8
0
100
AcDbLine
 10
433.6298184169359
 20
250.9697364316808
 30
0.0
 11
399.2106218074074
 21
260.9057026455874
 31
0.0
  0
LINE
  5
69
330
2
100
AcDbEntity
  8
0
100
AcDbLine
 10
434.0859579639942
 20
248.4004301127041
 30
0.0
 11
434.0859579639942
 21
250.3787200121401
 31
0.0
  0
SPLINE
  5
6A
330
2
100
AcDbEntity
  8
0
100
AcDbSpline
210
0.0
220
0.0
230
1.0
 70
     8
 71
     3
 72
     9
 73
     5
 74
     0
 42
0.000000001
 43
0.0000000001
 40
0.0
 40
0.0
 40
0.0
 40
0.0
 40
0.4983554544458611
 40
1.0
 40
1.0
 40
1.0
 40
1.0
 10
434.2006083697632
 20
247.8622808653522
 30
0.0
 10
434.1671203317924
 20
247.9302459594215
 30
0.0
 10
434.0999232384889
 20
248.0666247096948
 30
0.0
 10
434.0901936527703
 20
248.2927437976112
 30
0.0
 10
434.0853128591641
 20
248.4061752047102
 30
0.0
  0
LINE
  5
6B
330
2
100
AcDbEntity
  8
0
100
AcDbLine
 10
434.7269942874811
 20
247.0434500972248
 30
0.0
 11
434.1978590892633
 21
247.8669232039687
 31
0.0
  0
SPLINE
  5
6C
330
2
100
AcDbEntity
  8
0
100
AcDbSpline
210
0.0
220
0.0
230
1.0
 70
     8
 71
     3
 72
     9
 73
     5
 74
     0
 42
0.000000001
 43
0.0000000001
 40
0.0
 40
0.0
 40
0.0
 40
0.0
 40
0.498301888765046
 40
1.0
 40
1.0
 40
1.0
 40
1.0
 10
434.8482293884622
 20
246.6025195518098
 30
0.0
 10
434.8385254304115
 20
246.6900296351658
 30
0.0
 10
434.8190513760893
 20
246.86564623492
 30
0.0
 10
434.7595181068766
 20
246.9810706208302
 30
0.0
 10
434.7296503781571
 20
247.0389788172318
 30
0.0
  0
LINE
  5
6D
330
2
100
AcDbEntity
  8
0
100
AcDbLine
 10
435.2886541723432
 20
239.5240189334429
 30
0.0
 11
434.8491186066137
 21
246.5966106880039
 31
0.0
  0
LINE
  5
6E
330
2
100
AcDbEntity
  8
0
100
AcDbLine
 10
435.1113197675594
 20
238.9724192802394
 30
0.0
 11
435.2186376176144
 21
239.0310093172683
 31
0.0
  0
LINE
  5
6F
330
2
100
AcDbEntity
  8
0
100
AcDbLine
 10
435.3186079034204
 20
239.2908947220455
 30
0.0
 11
435.287802099368
 21
239.529769747526
 31
0.0
  0
SPLINE
  5
70
330
2
100
AcDbEntity
  8
0
100
AcDbSpline
210
0.0
220
0.0
230
1.0
 70
     8
 71
     3
 72
    15
 73
    11
 74
     0
 42
0.000000001
 43
0.0000000001
 40
0.0
 40
0.0
 40
0.0
 40
0.0
 40
0.0883618745426629
 40
0.2222797491019634
 40
0.3550570767288709
 40
0.4866586134056737
 40
0.6169832490300589
 40
0.7459737951824819
 40
0.8736355693308841
 40
1.0
 40
1.0
 40
1.0
 40
1.0
 10
435.2270869395982
 20
239.0370769893061
 30
0.0
 10
435.2319809973933
 20
239.0402731539626
 30
0.0
 10
435.2442923018377
 20
239.0483133034233
 30
0.0
 10
435.2638355776869
 20
239.0722838015125
 30
0.0
 10
435.2838613069854
 20
239.1053386871786
 30
0.0
 10
435.3006212614432
 20
239.1437680030323
 30
0.0
 10
435.313104079284
 20
239.184347031057
 30
0.0
 10
435.3205118279579
 20
239.224138023543
 30
0.0
 10
435.3229708818808
 20
239.261069269144
 30
0.0
 10
435.3201966405118
 20
239.2805079399245
 30
0.0
 10
435.3188166040255
 20
239.2901776374578
 30
0.0
  0
SPLINE
  5
71
330
2
100
AcDbEntity
  8
0
100
AcDbSpline
210
0.0
220
0.0
230
1.0
 70
     8
 71
     3
 72
    10
 73
     6
 74
     0
 42
0.000000001
 43
0.0000000001
 40
0.0
 40
0.0
 40
0.0
 40
0.0
 40
0.356035306597794
 40
0.7568901658972307
 40
1.0
 40
1.0
 40
1.0
 40
1.0
 10
414.9444662865019
 20
251.8065046866945
 30
0.0
 10
414.9301328628424
 20
251.8110132007526
 30
0.0
 10
414.8996616505481
 20
251.8205977837705
 30
0.0
 10
414.8779304026245
 20
251.8397095166409
 30
0.0
 10
414.8756611626441
 20
251.8358281807792
 30
0.0
 10
414.8748044781692
 20
251.8343628971588
 30
0.0
  0
LINE
  5
72
330
2
100
AcDbEntity
  8
0
100
AcDbLine
 10
413.8967624082021
 20
252.1097816460635
 30
0.0
 11
413.4354703632754
 21
252.2429451892834
 31
0.0
  0
SPLINE
  5
73
330
2
100
AcDbEntity
  8
0
100
AcDbSpline
210
0.0
220
0.0
230
1.0
 70
     8
 71
     3
 72
    10
 73
     6
 74
     0
 42
0.000000001
 43
0.0000000001
 40
0.0
 40
0.0
 40
0.0
 40
0.0
 40
0.3560350934070337
 40
0.7568904258313514
 40
1.0
 40
1.0
 40
1.0
 40
1.0
 10
413.446165313838
 20
252.2390269216418
 30
0.0
 10
413.4318319227256
 20
252.2435354279064
 30
0.0
 10
413.4013607509123
 20
252.2531200033871
 30
0.0
 10
413.3796293244226
 20
252.2722317824093
 30
0.0
 10
413.3773601977037
 20
252.2683504118533
 30
0.0
 10
413.3765035571868
 20
252.2668851171868
 30
0.0
  0
LINE
  5
74
330
2
100
AcDbEntity
  8
0
100
AcDbLine
 10
412.3988335943424
 20
252.5421964480449
 30
0.0
 11
411.9371692355542
 21
252.6754674689402
 31
0.0
  0
SPLINE
  5
75
330
2
100
AcDbEntity
  8
0
100
AcDbSpline
210
0.0
220
0.0
230
1.0
 70
     8
 71
     3
 72
    10
 73
     6
 74
     0
 42
0.000000001
 43
0.0000000001
 40
0.0
 40
0.0
 40
0.0
 40
0.0
 40
0.3560357569544261
 40
0.7568906763337039
 40
1.0
 40
1.0
 40
1.0
 40
1.0
 10
411.9478643928558
 20
252.6715491416699
 30
0.0
 10
411.9335309205852
 20
252.6760576677643
 30
0.0
 10
411.9030596229443
 20
252.6856422707101
 30
0.0
 10
411.8813282000303
 20
252.7047540610438
 30
0.0
 10
411.879059070904
 20
252.7008726912648
 30
0.0
 10
411.8782024294786
 20
252.6994073968916
 30
0.0
  0
LINE
  5
76
330
2
100
AcDbEntity
  8
0
100
AcDbLine
 10
434.849157085458
 20
223.7803945159653
 30
0.0
 11
435.2543627031597
 21
231.031623073716
 31
0.0
  0
LINE
  5
77
330
2
100
AcDbEntity
  8
0
100
AcDbLine
 10
397.9990779401639
 20
259.179870558916
 30
0.0
 11
397.2069221275707
 21
255.1014469626608
 31
0.0
  0
LINE
  5
78
330
2
100
AcDbEntity
  8
0
100
AcDbLine
 10
397.2372674181472
 20
255.1916360139007
 30
0.0
 11
397.1821505297607
 21
254.826123708541
 31
0.0
  0
SPLINE
  5
79
330
2
100
AcDbEntity
  8
0
100
AcDbSpline
210
0.0
220
0.0
230
1.0
 70
     8
 71
     3
 72
     9
 73
     5
 74
     0
 42
0.000000001
 43
0.0000000001
 40
0.0
 40
0.0
 40
0.0
 40
0.0
 40
0.1893152294639943
 40
1.0
 40
1.0
 40
1.0
 40
1.0
 10
398.2850634374097
 20
260.3589505504906
 30
0.0
 10
398.279154505516
 20
260.3474925198794
 30
0.0
 10
398.2479423737165
 20
260.2869689653634
 30
0.0
 10
398.2339599826926
 20
260.2211312358198
 30
0.0
 10
398.2226246712339
 20
260.1677575911522
 30
0.0
  0
LINE
  5
7A
330
2
100
AcDbEntity
  8
0
100
AcDbLine
 10
398.8502738141811
 20
260.8553551880643
 30
0.0
 11
398.4549189361517
 21
260.5495752582549
 31
0.0
  0
LINE
  5
7B
330
2
100
AcDbEntity
  8
0
100
AcDbLine
 10
434.2098707265078
 20
221.3897155578013
 30
0.0
 11
434.7390058054137
 21
223.167775213884
 31
0.0
  0
SPLINE
  5
7C
330
2
100
AcDbEntity
  8
0
100
AcDbSpline
210
0.0
220
0.0
230
1.0
 70
     8
 71
     3
 72
    10
 73
     6
 74
     0
 42
0.000000001
 43
0.0000000001
 40
0.0
 40
0.0
 40
0.0
 40
0.0
 40
0.3214753517939133
 40
0.6856159061786908
 40
1.0
 40
1.0
 40
1.0
 40
1.0
 10
398.2218914037394
 20
260.1635330618233
 30
0.0
 10
398.1986913345594
 20
260.0565999882944
 30
0.0
 10
398.1492121556255
 20
259.828542018379
 30
0.0
 10
398.0692835470937
 20
259.4934684379332
 30
0.0
 10
398.0213203226693
 20
259.2791437189474
 30
0.0
 10
397.9990972908498
 20
259.1798396144613
 30
0.0
  0
SPLINE
  5
7D
330
2
100
AcDbEntity
  8
0
100
AcDbSpline
210
0.0
220
0.0
230
1.0
 70
     8
 71
     3
 72
     9
 73
     5
 74
     0
 42
0.000000001
 43
0.0000000001
 40
0.0
 40
0.0
 40
0.0
 40
0.0
 40
0.4998260012824093
 40
1.0
 40
1.0
 40
1.0
 40
1.0
 10
434.7377462775415
 20
223.1675042968188
 30
0.0
 10
434.7657463417497
 20
223.2725235776455
 30
0.0
 10
434.8217659648512
 20
223.4826352576245
 30
0.0
 10
434.8396746987789
 20
223.6847702797561
 30
0.0
 10
434.8486321818393
 20
223.7858729620564
 30
0.0
  0
SPLINE
  5
7E
330
2
100
AcDbEntity
  8
0
100
AcDbSpline
210
0.0
220
0.0
230
1.0
 70
     8
 71
     3
 72
     9
 73
     5
 74
     0
 42
0.000000001
 43
0.0000000001
 40
0.0
 40
0.0
 40
0.0
 40
0.0
 40
0.4996158292522085
 40
1.0
 40
1.0
 40
1.0
 40
1.0
 10
434.0853125011039
 20
220.6045470454288
 30
0.0
 10
434.0908875933803
 20
220.7303207288588
 30
0.0
 10
434.1020463516702
 20
220.9820615186134
 30
0.0
 10
434.1730913216228
 20
221.2535802095167
 30
0.0
 10
434.2086410999984
 20
221.3894438645068
 30
0.0
  0
SPLINE
  5
7F
330
2
100
AcDbEntity
  8
0
100
AcDbSpline
210
0.0
220
0.0
230
1.0
 70
     8
 71
     3
 72
    11
 73
     7
 74
     0
 42
0.000000001
 43
0.0000000001
 40
0.0
 40
0.0
 40
0.0
 40
0.0
 40
0.2673366808867329
 40
0.5388313552005802
 40
0.8127575442170172
 40
1.0
 40
1.0
 40
1.0
 40
1.0
 10
399.2142158963241
 20
260.9042622811347
 30
0.0
 10
399.179362290351
 20
260.9125742112111
 30
0.0
 10
399.1091129864479
 20
260.9293273501089
 30
0.0
 10
399.0057996424507
 20
260.9229371362647
 30
0.0
 10
398.9185547839353
 20
260.899415571514
 30
0.0
 10
398.8740999447114
 20
260.8683038092513
 30
0.0
 10
398.8560505101681
 20
260.8556718950146
 30
0.0
  0
LINE
  5
80
330
2
100
AcDbEntity
  8
0
100
AcDbLine
 10
434.0859579639942
 20
218.6205123641333
 30
0.0
 11
434.0859579639942
 21
220.5988022635694
 31
0.0
  0
SPLINE
  5
81
330
2
100
AcDbEntity
  8
0
100
AcDbSpline
210
0.0
220
0.0
230
1.0
 70
     8
 71
     3
 72
    10
 73
     6
 74
     0
 42
0.000000001
 43
0.0000000001
 40
0.0
 40
0.0
 40
0.0
 40
0.0
 40
0.5249486534590025
 40
0.7847940242603022
 40
1.0
 40
1.0
 40
1.0
 40
1.0
 10
431.8778536029545
 20
218.0541265606849
 30
0.0
 10
432.0798898422499
 20
218.0034812338355
 30
0.0
 10
432.381932398676
 20
217.9277668766195
 30
0.0
 10
432.7954648867146
 20
217.8752653301526
 30
0.0
 10
432.9945691154867
 20
217.8688501997426
 30
0.0
 10
433.0847665649597
 20
217.8659440414727
 30
0.0
  0
SPLINE
  5
82
330
2
100
AcDbEntity
  8
0
100
AcDbSpline
210
0.0
220
0.0
230
1.0
 70
     8
 71
     3
 72
    11
 73
     7
 74
     0
 42
0.000000001
 43
0.0000000001
 40
0.0
 40
0.0
 40
0.0
 40
0.0
 40
0.6581265681435009
 40
0.8643840781087739
 40
0.9389164113891059
 40
1.0
 40
1.0
 40
1.0
 40
1.0
 10
433.0809222548844
 20
217.8669129487824
 30
0.0
 10
433.1907808334924
 20
217.8752892249049
 30
0.0
 10
433.3350691980546
 20
217.8862906341543
 30
0.0
 10
433.4737080916931
 20
217.9167229916394
 30
0.0
 10
433.5144211789836
 20
217.924551617
 30
0.0
 10
433.5233961130426
 20
217.9258032369501
 30
0.0
 10
433.5274385674405
 20
217.9263669866711
 30
0.0
  0
LINE
  5
83
330
2
100
AcDbEntity
  8
0
100
AcDbLine
 10
397.1815083158068
 20
254.844468628084
 30
0.0
 11
397.1815083158068
 21
231.4048849847279
 31
0.0
  0
LINE
  5
84
330
2
100
AcDbEntity
  8
0
100
AcDbLine
 10
433.6008005231411
 20
217.9751696002337
 30
0.0
 11
433.9795830276058
 21
218.3404663784162
 31
0.0
  0
LINE
  5
85
330
2
100
AcDbEntity
  8
0
100
AcDbLine
 10
399.5153469187694
 20
227.3963772579194
 30
0.0
 11
431.8782930621655
 21
218.0539994241098
 31
0.0
  0
SPLINE
  5
86
330
2
100
AcDbEntity
  8
0
100
AcDbSpline
210
0.0
220
0.0
230
1.0
 70
     8
 71
     3
 72
    11
 73
     7
 74
     0
 42
0.000000001
 43
0.0000000001
 40
0.0
 40
0.0
 40
0.0
 40
0.0
 40
0.2632985477074854
 40
0.5257228187038496
 40
0.7862116008442622
 40
1.0
 40
1.0
 40
1.0
 40
1.0
 10
433.961011834292
 20
218.3229406299228
 30
0.0
 10
433.9801286650561
 20
218.3423946294919
 30
0.0
 10
434.0182988495918
 20
218.3812380320765
 30
0.0
 10
434.0572932440716
 20
218.4556827429183
 30
0.0
 10
434.0812432882157
 20
218.5331167476505
 30
0.0
 10
434.0832664385784
 20
218.587352587896
 30
0.0
 10
434.0841784075584
 20
218.6118003031145
 30
0.0
  0
LINE
  5
87
330
2
100
AcDbEntity
  8
0
100
AcDbLine
 10
397.2875680243489
 20
230.8412241003188
 30
0.0
 11
398.0944901628294
 21
228.5993548828582
 31
0.0
  0
SPLINE
  5
88
330
2
100
AcDbEntity
  8
0
100
AcDbSpline
210
0.0
220
0.0
230
1.0
 70
     8
 71
     3
 72
    11
 73
     7
 74
     0
 42
0.000000001
 43
0.0000000001
 40
0.0
 40
0.0
 40
0.0
 40
0.0
 40
0.2259721429300535
 40
0.4658663691079389
 40
0.7232886079072727
 40
1.0
 40
1.0
 40
1.0
 40
1.0
 10
398.4358515222785
 20
227.9332175792463
 30
0.0
 10
398.5012102361661
 20
227.8787416095807
 30
0.0
 10
398.6359543968115
 20
227.7664334203381
 30
0.0
 10
398.8898175153305
 20
227.6283577104266
 30
0.0
 10
399.1816788375228
 20
227.5001225625174
 30
0.0
 10
399.4015947149926
 20
227.431747373255
 30
0.0
 10
399.51552356178
 20
227.3963251629481
 30
0.0
  0
SPLINE
  5
89
330
2
100
AcDbEntity
  8
0
100
AcDbSpline
210
0.0
220
0.0
230
1.0
 70
     8
 71
     3
 72
     9
 73
     5
 74
     0
 42
0.000000001
 43
0.0000000001
 40
0.0
 40
0.0
 40
0.0
 40
0.0
 40
0.5175666364313181
 40
1.0
 40
1.0
 40
1.0
 40
1.0
 10
398.0796336690293
 20
228.6411631396006
 30
0.0
 10
398.1141003530034
 20
228.5495906848611
 30
0.0
 10
398.1806940658664
 20
228.3726618639252
 30
0.0
 10
398.223671884566
 20
228.2667681148765
 30
0.0
 10
398.2444058182001
 20
228.2156814373419
 30
0.0
  0
SPLINE
  5
8A
330
2
100
AcDbEntity
  8
0
100
AcDbSpline
210
0.0
220
0.0
230
1.0
 70
     8
 71
     3
 72
     9
 73
     5
 74
     0
 42
0.000000001
 43
0.0000000001
 40
0.0
 40
0.0
 40
0.0
 40
0.0
 40
0.5190737601847685
 40
1.0
 40
1.0
 40
1.0
 40
1.0
 10
398.2632324775561
 20
228.1785227291457
 30
0.0
 10
398.2905383694882
 20
228.1302847654249
 30
0.0
 10
398.3431434018102
 20
228.0373539193277
 30
0.0
 10
398.4173670308574
 20
227.961431106254
 30
0.0
 10
398.4530631216804
 20
227.9249178332463
 30
0.0
  0
LWPOLYLINE
  5
8B
330
2
100
AcDbEntity
  8
0
100
AcDbPolyline
 90
       14
 70
   128
 43
0.0
 10
436.3096016522748
 20
227.9795955462088
 10
436.1490604615922
 20
228.0399144840056
 10
436.022056003012
 20
228.1176912104244
 10
435.9359680770177
 20
228.2084050550576
 10
435.8957992290937
 20
228.3067827877654
 10
435.9038852243996
 20
228.4071093207376
 10
435.9597561830782
 20
228.503553352949
 10
436.0601639016921
 20
228.5905089880138
 10
436.1992734313554
 20
228.6629230119735
 10
436.3690010861746
 20
228.7165876171074
 10
436.5594816963182
 20
228.748383689027
 10
436.7596456923867
 20
228.75646261897
 10
436.9578611635314
 20
228.740356438443
 10
437.1426072237095
 20
228.700999532607
  0
LINE
  5
8C
330
2
100
AcDbEntity
  8
0
100
AcDbLine
 10
436.3096016522748
 20
227.9795955462088
 30
0.0
 11
439.3062030807985
 21
227.1145512255194
 31
0.0
  0
ARC
  5
8D
330
2
100
AcDbEntity
  8
0
100
AcDbCircle
 10
439.7154191087743
 20
228.4377803120295
 30
0.0
 40
1.385060638716155
100
AcDbArc
 50
252.8154826668984
 51
299.9513632065001
  0
LINE
  5
8E
330
2
100
AcDbEntity
  8
0
100
AcDbLine
 10
440.1246038629572
 20
227.8401712514019
 30
0.0
 11
437.1426072237095
 21
228.700999532607
 31
0.0
  0
LWPOLYLINE
  5
8F
330
2
100
AcDbEntity
  8
0
100
AcDbPolyline
 90
        3
 70
   128
 43
0.0
 10
435.8509080120578
 20
231.2203279923872
 10
435.9560969861163
 20
230.9081931510918
 10
436.0290074606394
 20
230.555806134893
  0
LWPOLYLINE
  5
90
330
2
100
AcDbEntity
  8
0
100
AcDbPolyline
 90
        9
 70
   128
 43
0.0
 10
437.3043904751126
 20
229.5347803504946
 10
437.0433143765967
 20
229.6211862562659
 10
436.8052569352807
 20
229.7228635278031
 10
436.5937697093606
 20
229.8382951860741
 10
436.4120073281704
 20
229.9657579963521
 10
436.2626838031424
 20
230.1033505160339
 10
436.1480252756817
 20
230.2490199655478
 10
436.0697436336947
 20
230.4005918950861
 10
436.0290074606394
 20
230.555806134893
  0
LINE
  5
91
330
2
100
AcDbEntity
  8
0
100
AcDbLine
 10
437.3043904751126
 20
229.5347803504946
 30
0.0
 11
439.647455286328
 21
228.85839580078
 31
0.0
  0
LWPOLYLINE
  5
92
330
2
100
AcDbEntity
  8
0
100
AcDbPolyline
 90
        3
 70
   128
 43
0.0
 10
440.1392086522333
 20
227.3920149332627
 10
440.2997498429158
 20
227.3316959955299
 10
440.3853803526136
 20
227.2836821424137
  0
LINE
  5
93
330
2
100
AcDbEntity
  8
0
100
AcDbLine
 10
440.1392086522333
 20
227.3920149332627
 30
0.0
 11
437.1426072237095
 21
228.2570592540162
 31
0.0
  0
ARC
  5
94
330
2
100
AcDbEntity
  8
0
100
AcDbCircle
 10
436.7346211947227
 20
226.9535046443913
 30
0.0
 40
1.365908935521951
100
AcDbArc
 50
72.62094333360129
 51
121.484372426001
  0
LWPOLYLINE
  5
95
330
2
100
AcDbEntity
  8
0
100
AcDbPolyline
 90
        3
 70
   128
 43
0.0
 10
409.6032501725621
 20
257.9056085644236
 10
409.609621376424
 20
257.9136151716503
 10
409.6346230492168
 20
257.9395324294323
  0
LINE
  5
96
330
2
100
AcDbEntity
  8
0
100
AcDbLine
 10
409.6346230492168
 20
257.9395324294323
 30
0.0
 11
423.5077803221806
 21
253.9346968864024
 31
0.0
  0
LWPOLYLINE
  5
97
330
2
100
AcDbEntity
  8
0
100
AcDbPolyline
 90
        3
 70
   128
 43
0.0
 10
423.5077803221806
 20
253.9346968864024
 10
423.4827786493879
 20
253.9087796286204
 10
423.4764074455259
 20
253.9007730213938
  0
LINE
  5
98
330
2
100
AcDbEntity
  8
0
100
AcDbLine
 10
426.0067976332374
 20
256.098909362317
 30
0.0
 11
423.5077803221806
 21
253.9346968864024
 31
0.0
  0
LINE
  5
99
330
2
100
AcDbEntity
  8
0
100
AcDbLine
 10
412.1336403602736
 20
260.103744905347
 30
0.0
 11
409.6346230492168
 21
257.9395324294323
 31
0.0
  0
LWPOLYLINE
  5
9A
330
2
100
AcDbEntity
  8
0
100
AcDbPolyline
 90
        9
 70
   128
 43
0.0
 10
426.1349526303199
 20
255.9879238791941
 10
426.132490131018
 20
256.0290962866822
 10
426.1251971608153
 20
256.0644199978697
 10
426.1133544390758
 20
256.0925405429662
 10
426.0974169408762
 20
256.1123750904369
 10
426.0779967104308
 20
256.1231604072461
 10
426.0558404227343
 20
256.1244846949937
 10
426.0317993060301
 20
256.116296272078
 10
426.0067976332374
 20
256.098909362317
  0
ARC
  5
9B
330
2
100
AcDbEntity
  8
0
100
AcDbCircle
 10
412.1916098942989
 20
260.0502366983964
 30
0.0
 40
0.0788897653949908
100
AcDbArc
 50
80.42837149719979
 51
137.2917478973004
  0
LINE
  5
9C
330
2
100
AcDbEntity
  8
0
100
AcDbLine
 10
426.1349526303199
 20
253.1333176836151
 30
0.0
 11
426.1349526303199
 21
255.9879238791941
 31
0.0
  0
LINE
  5
9D
330
2
100
AcDbEntity
  8
0
100
AcDbLine
 10
428.9652413316493
 20
256.9281564732564
 30
0.0
 11
426.134952094569
 21
254.4770540938916
 31
0.0
  0
LWPOLYLINE
  5
9E
330
2
100
AcDbEntity
  8
0
100
AcDbPolyline
 90
       19
 70
   128
 43
0.0
 10
419.5559298836458
 20
258.0059194775761
 10
419.6863189655487
 20
258.0961513696632
 10
419.8758703101206
 20
258.1909270405715
 10
420.095457051415
 20
258.2678050863798
 10
420.3384076878147
 20
258.324450088651
 10
420.5973395830275
 20
258.3591404065828
 10
420.8643853480988
 20
258.370821900756
 10
421.1314316987089
 20
258.3591404143362
 10
421.3903636752361
 20
258.32445010435
 10
421.6333136870095
 20
258.2678049450252
 10
421.8529009868663
 20
258.1909270836315
 10
422.0424523545703
 20
258.0961514038805
 10
422.1962084579131
 20
257.9863576852932
 10
422.3094983990188
 20
257.8648827299315
 10
422.3788789534403
 20
257.7354167713998
 10
422.4022422497424
 20
257.6018935587697
 10
422.3788789390228
 20
257.4683706877359
 10
422.3094983339162
 20
257.338904712416
 10
422.2184066533621
 20
257.2373286377545
  0
LINE
  5
9F
330
2
100
AcDbEntity
  8
0
100
AcDbLine
 10
415.6470106473177
 20
260.7727985086374
 30
0.0
 11
414.2280529263381
 21
259.5439450753878
 31
0.0
  0
ARC
  5
A0
330
2
100
AcDbEntity
  8
0
100
AcDbCircle
 10
427.7341649511231
 20
253.6675303141534
 30
0.0
 40
1.214791922358299
100
AcDbArc
 50
137.4109042905001
 51
180.4856468388001
  0
LINE
  5
A1
330
2
100
AcDbEntity
  8
0
100
AcDbLine
 10
428.7621248191472
 20
252.5473817586523
 30
0.0
 11
428.6127669292342
 21
252.4180340317086
 31
0.0
  0
LWPOLYLINE
  5
A2
330
2
100
AcDbEntity
  8
0
100
AcDbPolyline
 90
        9
 70
   128
 43
0.0
 10
428.7621248191472
 20
252.5473817586523
 10
428.823428067218
 20
252.621592726433
 10
428.8753983568951
 20
252.7267460513038
 10
428.9101239899154
 20
252.8468353406802
 10
428.922318088108
 20
252.9635760799217
 10
428.9101239899154
 20
253.0591960214884
 10
428.8753983568951
 20
253.1191387502246
 10
428.823428067218
 20
253.134277719844
 10
428.7621248191472
 20
253.102307520302
  0
LINE
  5
A3
330
2
100
AcDbEntity
  8
0
100
AcDbLine
 10
428.1321866449755
 20
252.5567650587259
 30
0.0
 11
428.7621248191472
 21
253.102307520302
 31
0.0
  0
LINE
  5
A4
330
2
100
AcDbEntity
  8
0
100
AcDbLine
 10
428.7621248191472
 20
253.6572341089343
 30
0.0
 11
427.6516063607169
 21
252.6954969125975
 31
0.0
  0
LWPOLYLINE
  5
A5
330
2
100
AcDbEntity
  8
0
100
AcDbPolyline
 90
        9
 70
   128
 43
0.0
 10
428.7621248191472
 20
253.6572341089343
 10
428.823428067218
 20
253.731445076715
 10
428.8753983568951
 20
253.8365992285042
 10
428.9101239899154
 20
253.9566876910262
 10
428.922318088108
 20
254.0734284302037
 10
428.9101239899154
 20
254.169049198753
 10
428.8753983568951
 20
254.2289911005067
 10
428.823428067218
 20
254.244130070126
 10
428.7621248191472
 20
254.2121606975025
  0
LINE
  5
A6
330
2
100
AcDbEntity
  8
0
100
AcDbLine
 10
427.1710265538986
 20
252.8342291798964
 30
0.0
 11
428.7621248191472
 21
254.2121606975025
 31
0.0
  0
LINE
  5
A7
330
2
100
AcDbEntity
  8
0
100
AcDbLine
 10
428.7621248191472
 20
254.7670864592163
 30
0.0
 11
427.1601902199701
 21
253.379770401191
 31
0.0
  0
LWPOLYLINE
  5
A8
330
2
100
AcDbEntity
  8
0
100
AcDbPolyline
 90
        9
 70
   128
 43
0.0
 10
428.7621248191472
 20
254.7670864592163
 10
428.823428067218
 20
254.841297426997
 10
428.8753983568951
 20
254.9464515787862
 10
428.9101239899154
 20
255.0665400413083
 10
428.922318088108
 20
255.1832816074041
 10
428.9101239899154
 20
255.278901549035
 10
428.8753983568951
 20
255.3388434508527
 10
428.823428067218
 20
255.3539824204721
 10
428.7621248191472
 20
255.3220130478486
  0
LINE
  5
A9
330
2
100
AcDbEntity
  8
0
100
AcDbLine
 10
427.1601902199701
 20
253.9346969897592
 30
0.0
 11
428.7621248191472
 21
255.3220130478486
 31
0.0
  0
LWPOLYLINE
  5
AA
330
2
100
AcDbEntity
  8
0
100
AcDbPolyline
 90
        9
 70
   128
 43
0.0
 10
427.1601902199701
 20
253.9346969897592
 10
427.0988869718993
 20
253.8604860219785
 10
427.0469166822222
 20
253.7553318701893
 10
427.012191049202
 20
253.6352434076672
 10
426.9999969510093
 20
253.5185026684898
 10
427.012191049202
 20
253.4228819000046
 10
427.0469166822222
 20
253.3629399981868
 10
427.0988869718993
 20
253.3478010285675
 10
427.1601902199701
 20
253.379770401191
  0
LINE
  5
AB
330
2
100
AcDbEntity
  8
0
100
AcDbLine
 10
426.5194166667507
 20
253.6572336954431
 30
0.0
 11
426.5194166667507
 21
253.0223322004922
 31
0.0
  0
LINE
  5
AC
330
2
100
AcDbEntity
  8
0
100
AcDbLine
 10
429.2427046259653
 20
256.5705968385751
 30
0.0
 11
426.8398036821126
 21
254.4896235783915
 31
0.0
  0
ARC
  5
AD
330
2
100
AcDbEntity
  8
0
100
AcDbCircle
 10
426.6032604479699
 20
254.47792830752
 30
0.0
 40
0.2368321788801729
100
AcDbArc
 50
2.830537249801143
 51
72.79183471780175
  0
LINE
  5
AE
330
2
100
AcDbEntity
  8
0
100
AcDbLine
 10
426.6733258709195
 20
254.7041589806953
 30
0.0
 11
426.4662241399139
 21
254.7639441007234
 31
0.0
  0
LWPOLYLINE
  5
AF
330
2
100
AcDbEntity
  8
0
100
AcDbPolyline
 90
        9
 70
   128
 43
0.0
 10
429.1254350780506
 20
256.7894254462391
 10
429.1223567151387
 20
256.8408903354746
 10
429.1132409798579
 20
256.8850462147884
 10
429.0984373389632
 20
256.9201946222136
 10
429.0785153468376
 20
256.9449881166062
 10
429.0542402975652
 20
256.9584703828386
 10
429.0265450572245
 20
256.9601262593071
 10
428.9964937807205
 20
256.9498900071169
 10
428.9652413316493
 20
256.9281564732564
  0
ARC
  5
B0
330
2
100
AcDbEntity
  8
0
100
AcDbCircle
 10
415.7194752636921
 20
260.7059091851052
 30
0.0
 40
0.0986169469766757
100
AcDbArc
 50
80.43021510500132
 51
137.2910760647013
  0
LWPOLYLINE
  5
B1
330
2
100
AcDbEntity
  8
0
100
AcDbPolyline
 90
        9
 70
   128
 43
0.0
 10
429.1254350780506
 20
256.7894254462391
 10
429.176487131345
 20
256.7711334006495
 10
429.2194217337533
 20
256.7482133040543
 10
429.2525876562102
 20
256.7215453547799
 10
429.2747116963301
 20
256.6921547595196
 10
429.2849425495535
 20
256.6611709541117
 10
429.2828875539301
 20
256.6297844713326
 10
429.2686256075395
 20
256.5992013155036
 10
429.2427046259653
 20
256.5705968385751
  0
SPLINE
  5
B2
330
2
100
AcDbEntity
  8
0
100
AcDbSpline
210
0.0
220
0.0
230
1.0
 70
     8
 71
     3
 72
    32
 73
    28
 74
     0
 42
0.000000001
 43
0.0000000001
 40
0.0
 40
0.0
 40
0.0
 40
0.0
 40
0.016737579329113
 40
0.0337717742318644
 40
0.0511031133491947
 40
0.0687318664152861
 40
0.086657873525156
 40
0.1048809311302647
 40
0.1234008829580021
 40
0.1422176405008012
 40
0.1613310259595184
 40
0.1807407272114845
 40
0.2004465357980762
 40
0.2204480688151565
 40
0.2407450693259761
 40
0.3566786375424519
 40
0.4912084992881049
 40
0.6109909641326848
 40
0.7450809601292379
 40
0.7762761226904891
 40
0.8076628300824232
 40
0.8392409561368685
 40
0.8710103062476076
 40
0.9029710261603254
 40
0.9351231668361707
 40
0.9674652279748512
 40
1.0
 40
1.0
 40
1.0
 40
1.0
 10
432.1548527609023
 20
244.7587276711015
 30
0.0
 10
432.1544963248992
 20
244.7715174961855
 30
0.0
 10
432.1537771363005
 20
244.7973238016679
 30
0.0
 10
432.151283644502
 20
244.8367694894473
 30
0.0
 10
432.1476852386878
 20
244.8771586148006
 30
0.0
 10
432.1428276832177
 20
244.9185003054095
 30
0.0
 10
432.13668768226
 20
244.9607603858638
 30
0.0
 10
432.1292075172721
 20
245.0039121845965
 30
0.0
 10
432.1203403571319
 20
245.0479223245032
 30
0.0
 10
432.1100383416277
 20
245.0927549471772
 30
0.0
 10
432.0982564680387
 20
245.1383704823247
 30
0.0
 10
432.0849518516137
 20
245.1847261994872
 30
0.0
 10
432.0700836999493
 20
245.2317748446969
 30
0.0
 10
432.0536141711821
 20
245.2794695175535
 30
0.0
 10
432.0071623081541
 20
245.4033367579067
 30
0.0
 10
431.9060432572926
 20
245.6160290246519
 30
0.0
 10
431.7215699519811
 20
245.8901024462293
 30
0.0
 10
431.4874520863277
 20
246.1478528411042
 30
0.0
 10
431.2913673189672
 20
246.3089120228205
 30
0.0
 10
431.1492734809733
 20
246.4040606398336
 30
0.0
 10
431.0800750162957
 20
246.4467102508685
 30
0.0
 10
431.0094570809828
 20
246.4865604287235
 30
0.0
 10
430.9375610910622
 20
246.5234653334512
 30
0.0
 10
430.8645433207929
 20
246.5573027771788
 30
0.0
 10
430.7905664019299
 20
246.5878408682387
 30
0.0
 10
430.7157982110673
 20
246.6152855404143
 30
0.0
 10
430.6656932614852
 20
246.6305382490161
 30
0.0
 10
430.6405663705368
 20
246.6381872567269
 30
0.0
  0
LWPOLYLINE
  5
B3
330
2
100
AcDbEntity
  8
0
100
AcDbPolyline
 90
        3
 70
   128
 43
0.0
 10
433.3762676135539
 20
248.6833265136551
 10
432.6922745988439
 20
246.4855510947905
 10
432.1548529566372
 20
244.7587277528837
  0
LINE
  5
B4
330
2
100
AcDbEntity
  8
0
100
AcDbLine
 10
432.1548529566372
 20
221.3201380488358
 30
0.0
 11
432.1548529566372
 21
244.7587277528837
 31
0.0
  0
LINE
  5
B5
330
2
100
AcDbEntity
  8
0
100
AcDbLine
 10
433.3762676135539
 20
236.4572699926448
 30
0.0
 11
433.3762676135539
 21
248.6833265136551
 31
0.0
  0
LINE
  5
B6
330
2
100
AcDbEntity
  8
0
100
AcDbLine
 10
433.3762676135539
 20
231.2351304648951
 30
0.0
 11
433.3762676135539
 21
219.0090739438849
 31
0.0
  0
SPLINE
  5
B7
330
2
100
AcDbEntity
  8
0
100
AcDbSpline
210
0.0
220
0.0
230
1.0
 70
     8
 71
     3
 72
    12
 73
     8
 74
     0
 42
0.000000001
 43
0.0000000001
 40
0.0
 40
0.0
 40
0.0
 40
0.0
 40
0.2500000000000026
 40
0.2500000000000026
 40
0.5000000000000053
 40
0.5000000000000053
 40
1.0
 40
1.0
 40
1.0
 40
1.0
 10
433.0228705676776
 20
250.6965083054416
 30
0.0
 10
432.9488850445482
 20
250.700070461501
 30
0.0
 10
432.8705973486036
 20
250.7062035244242
 30
0.0
 10
432.7124203605744
 20
250.7236424433939
 30
0.0
 10
432.6323771695404
 20
250.734897622547
 30
0.0
 10
432.3940768556134
 20
250.7754462824223
 30
0.0
 10
432.2375876690699
 20
250.8114623224759
 30
0.0
 10
432.0908210227091
 20
250.8547104907413
 30
0.0
  0
SPLINE
  5
B8
330
2
100
AcDbEntity
  8
0
100
AcDbSpline
210
0.0
220
0.0
230
1.0
 70
     8
 71
     3
 72
    14
 73
    10
 74
     0
 42
0.000000001
 43
0.0000000001
 40
0.0
 40
0.0
 40
0.0
 40
0.0
 40
0.180544095136158
 40
0.3726700504898905
 40
0.5764696020168051
 40
0.7249312549908906
 40
0.844975557854444
 40
0.9366376670448966
 40
1.0
 40
1.0
 40
1.0
 40
1.0
 10
433.0228705676776
 20
250.6965083054435
 30
0.0
 10
433.0378874249571
 20
250.6958474097655
 30
0.0
 10
433.0688844672937
 20
250.694483222111
 30
0.0
 10
433.1169596921627
 20
250.693103600392
 30
0.0
 10
433.1624105882973
 20
250.6923000796478
 30
0.0
 10
433.2018568881172
 20
250.6917297278054
 30
0.0
 10
433.2319047085021
 20
250.6910112147195
 30
0.0
 10
433.2548478868476
 20
250.6903328651465
 30
0.0
 10
433.2676965406647
 20
250.6895563977596
 30
0.0
 10
433.2729481040307
 20
250.689239036288
 30
0.0
  0
SPLINE
  5
B9
330
2
100
AcDbEntity
  8
0
100
AcDbSpline
210
0.0
220
0.0
230
1.0
 70
     8
 71
     3
 72
    33
 73
    29
 74
     0
 42
0.000000001
 43
0.0000000001
 40
0.0
 40
0.0
 40
0.0
 40
0.0
 40
0.02643107059334
 40
0.053741864529163
 40
0.0819484358648902
 40
0.1110653554421926
 40
0.1411058679165338
 40
0.1720820317001233
 40
0.2040048433880503
 40
0.2368843482232035
 40
0.2707297380856592
 40
0.3055494383898166
 40
0.3413511851547629
 40
0.3781420933909966
 40
0.4159287178265759
 40
0.4547171068818416
 40
0.4945128506969222
 40
0.5353211239205211
 40
0.5771467238827345
 40
0.6199941046983146
 40
0.6638674077792647
 40
0.7087704891761115
 40
0.7547069441153682
 40
0.8016801290548924
 40
0.8496931815391633
 40
0.8987490381018721
 40
0.94885045043284
 40
1.0
 40
1.0
 40
1.0
 40
1.0
 10
433.2783112976054
 20
250.6887443215188
 30
0.0
 10
433.2850445137669
 20
250.6866806999988
 30
0.0
 10
433.2987350523138
 20
250.682484772037
 30
0.0
 10
433.319143060662
 20
250.67460945718
 30
0.0
 10
433.3398221060475
 20
250.6653749831639
 30
0.0
 10
433.3606822931604
 20
250.6545997515421
 30
0.0
 10
433.3816670759803
 20
250.642247976317
 30
0.0
 10
433.4026991749605
 20
250.6282476382812
 30
0.0
 10
433.4236953101161
 20
250.6125428562699
 30
0.0
 10
433.4445616739159
 20
250.5950804775825
 30
0.0
 10
433.4651949016984
 20
250.5758152161357
 30
0.0
 10
433.4854816058838
 20
250.554709660614
 30
0.0
 10
433.5052984352747
 20
250.5317357848086
 30
0.0
 10
433.524512127032
 20
250.5068760906229
 30
0.0
 10
433.5429797181126
 20
250.4801248937694
 30
0.0
 10
433.5605488871667
 20
250.4514895935027
 30
0.0
 10
433.5770584536098
 20
250.4209919517607
 30
0.0
 10
433.5923390406395
 20
250.3886693538429
 30
0.0
 10
433.6062139292705
 20
250.3545760307
 30
0.0
 10
433.6185000636121
 20
250.3187842333075
 30
0.0
 10
433.6290094169706
 20
250.2813852836179
 30
0.0
 10
433.6375499580163
 20
250.2424906749598
 30
0.0
 10
433.6439291977942
 20
250.2022324231192
 30
0.0
 10
433.6479488344586
 20
250.160765613244
 30
0.0
 10
433.6494348338726
 20
250.1182616265523
 30
0.0
 10
433.648131921416
 20
250.0749363119484
 30
0.0
 10
433.6441217511333
 20
250.0309423040029
 30
0.0
 10
433.6389111602517
 20
250.0018050849825
 30
0.0
 10
433.6362788951197
 20
249.9870856630571
 30
0.0
  0
LINE
  5
BA
330
2
100
AcDbEntity
  8
0
100
AcDbLine
 10
433.6362782667753
 20
249.9870858627117
 30
0.0
 11
433.3762676135539
 21
248.6833265136551
 31
0.0
  0
LINE
  5
BB
330
2
100
AcDbEntity
  8
0
100
AcDbLine
 10
432.0908214841329
 20
250.8547097989602
 30
0.0
 11
399.7278753406726
 21
260.1970876327699
 31
0.0
  0
SPLINE
  5
BC
330
2
100
AcDbEntity
  8
0
100
AcDbSpline
210
0.0
220
0.0
230
1.0
 70
     8
 71
     3
 72
    12
 73
     8
 74
     0
 42
0.000000001
 43
0.0000000001
 40
0.0
 40
0.0
 40
0.0
 40
0.0
 40
0.2500000000000026
 40
0.2500000000000026
 40
0.5000000000000053
 40
0.5000000000000053
 40
1.0
 40
1.0
 40
1.0
 40
1.0
 10
398.982937827918
 20
260.5229904706899
 30
0.0
 10
399.0268868581813
 20
260.4925078536754
 30
0.0
 10
399.0773811853017
 20
260.4614647487568
 30
0.0
 10
399.1879220114551
 20
260.4013315165494
 30
0.0
 10
399.2479618878485
 20
260.3721481973583
 30
0.0
 10
399.4385925004804
 20
260.2888751642774
 30
0.0
 10
399.5796234420805
 20
260.2390045412945
 30
0.0
 10
399.7278758878826
 20
260.1970880334216
 30
0.0
  0
SPLINE
  5
BD
330
2
100
AcDbEntity
  8
0
100
AcDbSpline
210
0.0
220
0.0
230
1.0
 70
     8
 71
     3
 72
    25
 73
    21
 74
     0
 42
0.000000001
 43
0.0000000001
 40
0.0
 40
0.0
 40
0.0
 40
0.0
 40
0.135123403449822
 40
0.2734652682449999
 40
0.4132200024969461
 40
0.5523915975571616
 40
0.7882281422860899
 40
0.890358087635883
 40
0.9366022431628858
 40
0.9584581494343808
 40
0.9690700576105408
 40
0.9742999195207213
 40
0.9768967392889134
 40
0.9851506179996956
 40
0.9891126152716948
 40
0.9925301157276177
 40
0.9947917882757771
 40
0.9959090514906083
 40
0.9972127868015814
 40
1.0
 40
1.0
 40
1.0
 40
1.0
 10
398.9829469564747
 20
260.523861060535
 30
0.0
 10
398.9760372494079
 20
260.5287483934809
 30
0.0
 10
398.9620532551605
 20
260.538639469201
 30
0.0
 10
398.9416352907241
 20
260.5534871892937
 30
0.0
 10
398.9214976290627
 20
260.5684785859795
 30
0.0
 10
398.8972017708936
 20
260.5870566561533
 30
0.0
 10
398.8753137649532
 20
260.6045773153076
 30
0.0
 10
398.8566462624462
 20
260.6185074668975
 30
0.0
 10
398.8476812729289
 20
260.6244807735923
 30
0.0
 10
398.8432778810291
 20
260.6272102010205
 30
0.0
 10
398.8411420080818
 20
260.6284874511068
 30
0.0
 10
398.8400292595476
 20
260.6291434739976
 30
0.0
 10
398.8391832897292
 20
260.6296409962461
 30
0.0
 10
398.8374545353864
 20
260.6306565522987
 30
0.0
 10
398.8392563032074
 20
260.6305571499096
 30
0.0
 10
398.8396046483504
 20
260.6301987878102
 30
0.0
 10
398.8398745828098
 20
260.6299611454258
 30
0.0
 10
398.8397569383121
 20
260.6297074718311
 30
0.0
 10
398.8392193084909
 20
260.6298458288984
 30
0.0
 10
398.8389990830904
 20
260.6299691795206
 30
0.0
 10
398.8388490408348
 20
260.6300532198065
 30
0.0
  0
ARC
  5
BE
330
2
100
AcDbEntity
  8
0
100
AcDbCircle
 10
403.4127901735135
 20
252.3014921334489
 30
0.0
 40
1.97305486066904
100
AcDbArc
 50
2.763222425600674
 51
72.85904258010098
  0
LINE
  5
BF
330
2
100
AcDbEntity
  8
0
100
AcDbLine
 10
411.3639876020401
 20
252.8282950659642
 30
0.0
 11
411.0214535300955
 21
252.9271761353099
 31
0.0
  0
LINE
  5
C0
330
2
100
AcDbEntity
  8
0
100
AcDbLine
 10
411.5603762068347
 20
252.7716025590387
 30
0.0
 11
412.3233656395308
 21
252.5513464818907
 31
0.0
  0
LINE
  5
C1
330
2
100
AcDbEntity
  8
0
100
AcDbLine
 10
412.8622885230476
 20
252.3957728459635
 30
0.0
 11
412.5197542443254
 21
252.4946539749651
 31
0.0
  0
LINE
  5
C2
330
2
100
AcDbEntity
  8
0
100
AcDbLine
 10
413.0586773345557
 20
252.3390802793819
 30
0.0
 11
413.8216665605383
 21
252.1188242618259
 31
0.0
  0
LINE
  5
C3
330
2
100
AcDbEntity
  8
0
100
AcDbLine
 10
414.3605894957015
 20
251.9632506110328
 30
0.0
 11
414.0180553720465
 21
252.0621316952444
 31
0.0
  0
LINE
  5
C4
330
2
100
AcDbEntity
  8
0
100
AcDbLine
 10
430.6405664440328
 20
246.6381876454602
 30
0.0
 11
398.6733206179664
 21
255.8663366369583
 31
0.0
  0
LWPOLYLINE
  5
C5
330
2
100
AcDbEntity
  8
0
100
AcDbPolyline
 90
        3
 70
   128
 43
0.0
 10
434.0852688282336
 20
250.3846542210349
 10
434.0856596359771
 20
250.3826304280144
 10
434.0859579639942
 20
250.3787200121401
  0
LWPOLYLINE
  5
C6
330
2
100
AcDbEntity
  8
0
100
AcDbPolyline
 90
        3
 70
   128
 43
0.0
 10
433.6334443732503
 20
250.9682790123066
 10
433.6307860149351
 20
250.9694283063622
 10
433.6298184169359
 20
250.9697364316808
  0
LINE
  5
C7
330
2
100
AcDbEntity
  8
0
100
AcDbLine
 10
434.7269942874811
 20
247.0434500972248
 30
0.0
 11
434.7296785431136
 21
247.0389265851141
 31
0.0
  0
LWPOLYLINE
  5
C8
330
2
100
AcDbEntity
  8
0
100
AcDbPolyline
 90
        3
 70
   128
 43
0.0
 10
434.8482236435799
 20
246.6025427097459
 10
434.8488678193906
 20
246.5991351318594
 10
434.8491186066137
 20
246.5966106880039
  0
LINE
  5
C9
330
2
100
AcDbEntity
  8
0
100
AcDbLine
 10
435.1086755187603
 20
238.970758813909
 30
0.0
 11
435.1112961196783
 21
238.9724037803724
 31
0.0
  0
LINE
  5
CA
330
2
100
AcDbEntity
  8
0
100
AcDbLine
 10
434.0731043524319
 20
220.5739498425391
 30
0.0
 11
434.0731043524319
 21
218.5956599431672
 31
0.0
  0
SPLINE
  5
CB
330
2
100
AcDbEntity
  8
0
100
AcDbSpline
210
0.0
220
0.0
230
1.0
 70
     8
 71
     3
 72
    18
 73
    14
 74
     0
 42
0.000000001
 43
0.0000000001
 40
0.0
 40
0.0
 40
0.0
 40
0.0
 40
0.125
 40
0.125
 40
0.2499999999999999
 40
0.2499999999999999
 40
0.3749999999999999
 40
0.3749999999999999
 40
0.5
 40
0.5
 40
0.75
 40
0.75
 40
1.0
 40
1.0
 40
1.0
 40
1.0
 10
434.8364622114251
 20
223.7612626336735
 30
0.0
 10
434.8353783740082
 20
223.741867691573
 30
0.0
 10
434.8339940832874
 20
223.7221327236758
 30
0.0
 10
434.8307177991431
 20
223.682665751965
 30
0.0
 10
434.8288543009668
 20
223.6631367513144
 30
0.0
 10
434.8244848438419
 20
223.6231407044668
 30
0.0
 10
434.8219587062451
 20
223.6024814066218
 30
0.0
 10
434.8159736482271
 20
223.5584179855273
 30
0.0
 10
434.8125265898554
 20
223.5351953624106
 30
0.0
 10
434.8006248102596
 20
223.4625438425033
 30
0.0
 10
434.7906407989718
 20
223.4101996369664
 30
0.0
 10
434.7652016459036
 20
223.2975338754263
 30
0.0
 10
434.7496626759721
 20
223.2368576873896
 30
0.0
 10
434.7304110913752
 20
223.1721656997319
 30
0.0
  0
LINE
  5
CC
330
2
100
AcDbEntity
  8
0
100
AcDbLine
 10
434.73041077052
 20
223.1721654338543
 30
0.0
 11
434.2012756916143
 21
221.3941057777716
 31
0.0
  0
SPLINE
  5
CD
330
2
100
AcDbEntity
  8
0
100
AcDbSpline
210
0.0
220
0.0
230
1.0
 70
     8
 71
     3
 72
    11
 73
     7
 74
     0
 42
0.000000001
 43
0.0000000001
 40
0.0
 40
0.0
 40
0.0
 40
0.0
 40
0.25
 40
0.5
 40
0.75
 40
1.0
 40
1.0
 40
1.0
 40
1.0
 10
434.2012753391225
 20
221.3941061923321
 30
0.0
 10
434.1775704673324
 20
221.3144461527883
 30
0.0
 10
434.1379518768479
 20
221.1596030724982
 30
0.0
 10
434.0980699295932
 20
220.9387656362992
 30
0.0
 10
434.0769431761166
 20
220.7400519810683
 30
0.0
 10
434.0731050021147
 20
220.6268616671582
 30
0.0
 10
434.0731041175295
 20
220.57394931182
 30
0.0
  0
ARC
  5
CE
330
2
100
AcDbEntity
  8
0
100
AcDbCircle
 10
434.8238481127914
 20
223.7834100942693
 30
0.0
 40
0.025487993392651
100
AcDbArc
 50
299.6631542708988
 51
353.2052096543005
  0
SPLINE
  5
CF
330
2
100
AcDbEntity
  8
0
100
AcDbSpline
210
0.0
220
0.0
230
1.0
 70
     8
 71
     3
 72
    34
 73
    30
 74
     0
 42
0.000000001
 43
0.0000000001
 40
0.0
 40
0.0
 40
0.0
 40
0.0
 40
0.0174755518360752
 40
0.0348812387582771
 40
0.052218319033837
 40
0.0694875448863569
 40
0.0866886935613186
 40
0.1038214392497415
 40
0.1208856465690754
 40
0.1378813792341658
 40
0.1548086965523732
 40
0.1716676242381915
 40
0.1884581353178628
 40
0.2051801887212443
 40
0.2218337752653656
 40
0.2384188776908452
 40
0.2549354586278607
 40
0.3904718509034133
 40
0.5088049149835903
 40
0.6370093506687984
 40
0.7592713368674741
 40
0.7886051886972227
 40
0.8181591174130133
 40
0.8479313211953533
 40
0.8779199459100071
 40
0.9081230539408675
 40
0.9385387967666789
 40
0.9691647382016224
 40
1.0
 40
1.0
 40
1.0
 40
1.0
 10
430.6405663705366
 20
220.2846058140558
 30
0.0
 10
430.6540616706642
 20
220.2808231693858
 30
0.0
 10
430.6809983185179
 20
220.2732730025523
 30
0.0
 10
430.7212991854366
 20
220.2633483214885
 30
0.0
 10
430.7613876108469
 20
220.2544695121771
 30
0.0
 10
430.8012382905757
 20
220.246726699864
 30
0.0
 10
430.8408250062218
 20
220.240085748384
 30
0.0
 10
430.8801214970761
 20
220.2345464214197
 30
0.0
 10
430.9191023937092
 20
220.2300983890805
 30
0.0
 10
430.9577436243233
 20
220.2267313831618
 30
0.0
 10
430.996021668126
 20
220.2244354513701
 30
0.0
 10
431.0339137646312
 20
220.2231995100838
 30
0.0
 10
431.0713978711213
 20
220.2230113828116
 30
0.0
 10
431.1084524300334
 20
220.2238598434775
 30
0.0
 10
431.1450561384654
 20
220.2257316814321
 30
0.0
 10
431.1811911954825
 20
220.2286140719066
 30
0.0
 10
431.3024847650114
 20
220.241808211108
 30
0.0
 10
431.4884256067505
 20
220.2884397058204
 30
0.0
 10
431.718493023789
 20
220.4116555054278
 30
0.0
 10
431.9031305282123
 20
220.5807412773786
 30
0.0
 10
432.0086872012217
 20
220.7435166799912
 30
0.0
 10
432.0616362070805
 20
220.8600103357882
 30
0.0
 10
432.084568131215
 20
220.9190855298088
 30
0.0
 10
432.1045526585546
 20
220.9805522242819
 30
0.0
 10
432.1214417371265
 20
221.0443241689537
 30
0.0
 10
432.1351199660672
 20
221.1102871913757
 30
0.0
 10
432.1453708898781
 20
221.1783491327008
 30
0.0
 10
432.1524036690832
 20
221.2482726636498
 30
0.0
 10
432.1540345455205
 20
221.2961287233256
 30
0.0
 10
432.1548527609029
 20
221.3201382456115
 30
0.0
  0
SPLINE
  5
D0
330
2
100
AcDbEntity
  8
0
100
AcDbSpline
210
0.0
220
0.0
230
1.0
 70
     8
 71
     3
 72
    22
 73
    18
 74
     0
 42
0.000000001
 43
0.0000000001
 40
0.0
 40
0.0
 40
0.0
 40
0.0
 40
0.056047930550822
 40
0.1125000725281011
 40
0.1693410776530626
 40
0.2265441902505621
 40
0.2840713368400665
 40
0.3418733765382627
 40
0.3998905138239101
 40
0.4580528746191744
 40
0.5162812457281757
 40
0.6438416671820329
 40
0.7735970217897803
 40
0.834524117016515
 40
0.8925860012253219
 40
0.9477501217657373
 40
1.0
 40
1.0
 40
1.0
 40
1.0
 10
433.1507844662525
 20
218.0086720773059
 30
0.0
 10
433.1560185027988
 20
218.0242447526086
 30
0.0
 10
433.1665243231792
 20
218.0555024116121
 30
0.0
 10
433.183086274063
 20
218.1034819617071
 30
0.0
 10
433.2000776787746
 20
218.1525859558429
 30
0.0
 10
433.2173743410075
 20
218.2029518095187
 30
0.0
 10
433.2347578011829
 20
218.254626991344
 30
0.0
 10
433.2520266275397
 20
218.3076653788398
 30
0.0
 10
433.2689648319881
 20
218.3620976487755
 30
0.0
 10
433.2853668165379
 20
218.4179395365924
 30
0.0
 10
433.3071845940464
 20
218.4979119368389
 30
0.0
 10
433.3329105874479
 20
218.6054392214606
 30
0.0
 10
433.3533881543533
 20
218.7200236139978
 30
0.0
 10
433.3649903440091
 20
218.8131178492141
 30
0.0
 10
433.3710172569702
 20
218.8799137407081
 30
0.0
 10
433.3749317127371
 20
218.9447497586338
 30
0.0
 10
433.3758301946919
 20
218.9880243644814
 30
0.0
 10
433.3762672473412
 20
219.0090746271284
 30
0.0
  0
LINE
  5
D1
330
2
100
AcDbEntity
  8
0
100
AcDbLine
 10
397.2090995383295
 20
255.1010091871672
 30
0.0
 11
397.1853149445417
 21
254.8535638452147
 31
0.0
  0
LINE
  5
D2
330
2
100
AcDbEntity
  8
0
100
AcDbLine
 10
398.6733206179664
 20
229.5127543742516
 30
0.0
 11
430.6405664440328
 21
220.2846053828176
 31
0.0
  0
SPLINE
  5
D3
330
2
100
AcDbEntity
  8
0
100
AcDbSpline
210
0.0
220
0.0
230
1.0
 70
     8
 71
     3
 72
    12
 73
     8
 74
     0
 42
0.000000001
 43
0.0000000001
 40
0.0
 40
0.0
 40
0.0
 40
0.0
 40
0.2298651975538158
 40
0.5084900377558475
 40
0.6676872997159236
 40
0.8400515840248401
 40
1.0
 40
1.0
 40
1.0
 40
1.0
 10
398.8388565390739
 20
260.6305578413751
 30
0.0
 10
398.7892589039338
 20
260.6388011585847
 30
0.0
 10
398.6795428458555
 20
260.6570363882917
 30
0.0
 10
398.537301992784
 20
260.6090294727706
 30
0.0
 10
398.4282805371078
 20
260.5323743913518
 30
0.0
 10
398.3524015828738
 20
260.4519626311366
 30
0.0
 10
398.3170082144902
 20
260.3841057718108
 30
0.0
 10
398.2999727138784
 20
260.3514449762623
 30
0.0
  0
LWPOLYLINE
  5
D4
330
2
100
AcDbEntity
  8
0
100
AcDbPolyline
 90
        3
 70
   128
 43
0.0
 10
434.2083674161396
 20
221.3894534102375
 10
434.2085884058484
 20
221.3894455699229
 10
434.2098707265078
 20
221.3897155578013
  0
SPLINE
  5
D5
330
2
100
AcDbEntity
  8
0
100
AcDbSpline
210
0.0
220
0.0
230
1.0
 70
     8
 71
     3
 72
    10
 73
     6
 74
     0
 42
0.000000001
 43
0.0000000001
 40
0.0
 40
0.0
 40
0.0
 40
0.0
 40
0.4816478118666278
 40
0.8981349693231333
 40
1.0
 40
1.0
 40
1.0
 40
1.0
 10
433.1507178387671
 20
218.009454598205
 30
0.0
 10
433.1376213447155
 20
217.9726883200277
 30
0.0
 10
433.1132001411027
 20
217.9041297606211
 30
0.0
 10
433.0991881852077
 20
217.8646075496005
 30
0.0
 10
433.0873612921855
 20
217.8707391427881
 30
0.0
 10
433.0850371063363
 20
217.8719441052488
 30
0.0
  0
SPLINE
  5
D6
330
2
100
AcDbEntity
  8
0
100
AcDbSpline
210
0.0
220
0.0
230
1.0
 70
     8
 71
     3
 72
    10
 73
     6
 74
     0
 42
0.000000001
 43
0.0000000001
 40
0.0
 40
0.0
 40
0.0
 40
0.0
 40
0.5
 40
0.5
 40
1.0
 40
1.0
 40
1.0
 40
1.0
 10
397.2057134715
 20
231.3846022911196
 30
0.0
 10
397.1964679557874
 20
231.3870258567388
 30
0.0
 10
397.1879153608648
 20
231.3916518996383
 30
0.0
 10
397.1801419668871
 20
231.403226033842
 30
0.0
 10
397.1811652260045
 20
231.409810736638
 30
0.0
 10
397.1853151419727
 20
231.4149742244324
 30
0.0
  0
SPLINE
  5
D7
330
2
100
AcDbEntity
  8
0
100
AcDbSpline
210
0.0
220
0.0
230
1.0
 70
     8
 71
     3
 72
    32
 73
    28
 74
     0
 42
0.000000001
 43
0.0000000001
 40
0.0
 40
0.0
 40
0.0
 40
0.0
 40
0.0167375791660093
 40
0.0337717739330517
 40
0.0511031129418354
 40
0.0687318659266093
 40
0.0866578729822686
 40
0.1048809305599608
 40
0.1234008823872178
 40
0.1422176399569734
 40
0.1613310254703256
 40
0.180740726804195
 40
0.2004465354995033
 40
0.2204480686523665
 40
0.2407450693265545
 40
0.3566786382683484
 40
0.491208499283494
 40
0.6109909665825012
 40
0.7450809601290459
 40
0.7762761226197846
 40
0.8076628299616864
 40
0.8392409559862532
 40
0.8710103060868799
 40
0.9029710260093571
 40
0.9351231667152793
 40
0.9674652279040408
 40
1.0
 40
1.0
 40
1.0
 40
1.0
 10
397.1853151419722
 20
231.4149742244746
 30
0.0
 10
397.185260492934
 20
231.4018283894304
 30
0.0
 10
397.1851502263928
 20
231.3753037549617
 30
0.0
 10
397.1864337239813
 20
231.3348101818072
 30
0.0
 10
397.1888331141619
 20
231.2933826787532
 30
0.0
 10
397.1925069670157
 20
231.25101587185
 30
0.0
 10
397.197479120814
 20
231.2077444062695
 30
0.0
 10
397.2038097040388
 20
231.1635970406425
 30
0.0
 10
397.2115470160675
 20
231.1186084236122
 30
0.0
 10
397.2207408373273
 20
231.0728160765333
 30
0.0
 10
397.2314386012745
 20
231.0262616747708
 30
0.0
 10
397.2436860394624
 20
230.978990414182
 30
0.0
 10
397.2575269118245
 20
230.9310521186874
 30
0.0
 10
397.2730031815633
 20
230.8824972578671
 30
0.0
 10
397.3169975492048
 20
230.7565017629963
 30
0.0
 10
397.4147545375983
 20
230.5408978644273
 30
0.0
 10
397.5961629612109
 20
230.2641701746338
 30
0.0
 10
397.8282434811606
 20
230.0046553873454
 30
0.0
 10
398.0234225720079
 20
229.8428118671227
 30
0.0
 10
398.1650837500275
 20
229.747288558428
 30
0.0
 10
398.2341097270709
 20
229.7044895688805
 30
0.0
 10
398.3045895624409
 20
229.6645197930511
 30
0.0
 10
398.376382414202
 20
229.6275255680738
 30
0.0
 10
398.4493320982354
 20
229.5936291598916
 30
0.0
 10
398.5232767595675
 20
229.5630631328916
 30
0.0
 10
398.5980453398243
 20
229.5356187977847
 30
0.0
 10
398.6481792681535
 20
229.5203911854011
 30
0.0
 10
398.6733206915226
 20
229.5127547630701
 30
0.0
  0
LINE
  5
D8
330
2
100
AcDbEntity
  8
0
100
AcDbLine
 10
423.5077803221806
 20
253.9346968864024
 30
0.0
 11
423.5077803221806
 21
253.8917160385241
 31
0.0
  0
SPLINE
  5
D9
330
2
100
AcDbEntity
  8
0
100
AcDbSpline
210
0.0
220
0.0
230
1.0
 70
     8
 71
     3
 72
     9
 73
     5
 74
     0
 42
0.000000001
 43
0.0000000001
 40
0.0
 40
0.0
 40
0.0
 40
0.0
 40
0.1702169374476337
 40
1.0
 40
1.0
 40
1.0
 40
1.0
 10
414.904779846269
 20
251.806155871489
 30
0.0
 10
414.9061616810161
 20
251.8070859444023
 30
0.0
 10
414.9142797612013
 20
251.8125499888579
 30
0.0
 10
414.9217708439556
 20
251.8118900554604
 30
0.0
 10
414.9279868175452
 20
251.8113424539045
 30
0.0
  0
LINE
  5
DA
330
2
100
AcDbEntity
  8
0
100
AcDbLine
 10
414.9279868175346
 20
251.8113424538924
 30
0.0
 11
414.9427024250956
 21
251.8050347423087
 31
0.0
  0
LINE
  5
DB
330
2
100
AcDbEntity
  8
0
100
AcDbLine
 10
414.8897553336024
 20
251.8269460646596
 30
0.0
 11
414.9010343029086
 21
251.8388883378321
 31
0.0
  0
LINE
  5
DC
330
2
100
AcDbEntity
  8
0
100
AcDbLine
 10
414.9010343029086
 20
251.8388883378321
 30
0.0
 11
414.9013339007468
 21
251.823054279921
 31
0.0
  0
SPLINE
  5
DD
330
2
100
AcDbEntity
  8
0
100
AcDbSpline
210
0.0
220
0.0
230
1.0
 70
     8
 71
     3
 72
     9
 73
     5
 74
     0
 42
0.000000001
 43
0.0000000001
 40
0.0
 40
0.0
 40
0.0
 40
0.0
 40
0.1702168554641489
 40
1.0
 40
1.0
 40
1.0
 40
1.0
 10
413.4064788477643
 20
252.2386781138958
 30
0.0
 10
413.4078607115153
 20
252.2396081784344
 30
0.0
 10
413.4159789660042
 20
252.2450721763215
 30
0.0
 10
413.4234698949456
 20
252.2444122852109
 30
0.0
 10
413.4296857415184
 20
252.2438647186901
 30
0.0
  0
LINE
  5
DE
330
2
100
AcDbEntity
  8
0
100
AcDbLine
 10
413.429685741524
 20
252.2438647186832
 30
0.0
 11
413.4444014007954
 21
252.2375569922336
 31
0.0
  0
LINE
  5
DF
330
2
100
AcDbEntity
  8
0
100
AcDbLine
 10
435.2427527641201
 20
231.0318904958725
 30
0.0
 11
434.8364621199131
 21
223.7612623036165
 31
0.0
  0
LINE
  5
E0
330
2
100
AcDbEntity
  8
0
100
AcDbLine
 10
413.3925026739412
 20
252.2607429982468
 30
0.0
 11
413.4027332268337
 21
252.2714106026229
 31
0.0
  0
LINE
  5
E1
330
2
100
AcDbEntity
  8
0
100
AcDbLine
 10
413.4027332268337
 20
252.2714106026229
 30
0.0
 11
413.4030329798034
 21
252.2555764999858
 31
0.0
  0
SPLINE
  5
E2
330
2
100
AcDbEntity
  8
0
100
AcDbSpline
210
0.0
220
0.0
230
1.0
 70
     8
 71
     3
 72
     9
 73
     5
 74
     0
 42
0.000000001
 43
0.0000000001
 40
0.0
 40
0.0
 40
0.0
 40
0.0
 40
0.1702170488936785
 40
1.0
 40
1.0
 40
1.0
 40
1.0
 10
411.908177926782
 20
252.6712003339239
 30
0.0
 10
411.9095597144114
 20
252.6721304204418
 30
0.0
 10
411.9176775124714
 20
252.6775945412443
 30
0.0
 10
411.9251687332505
 20
252.6769345708772
 30
0.0
 10
411.931384820536
 20
252.6763869387182
 30
0.0
  0
LINE
  5
E3
330
2
100
AcDbEntity
  8
0
100
AcDbLine
 10
411.9313848205164
 20
252.676386938748
 30
0.0
 11
411.9461004797878
 21
252.6700792122343
 31
0.0
  0
LINE
  5
E4
330
2
100
AcDbEntity
  8
0
100
AcDbLine
 10
411.893153439941
 20
252.6919905196551
 30
0.0
 11
411.9044323058903
 21
252.7039328226237
 31
0.0
  0
LINE
  5
E5
330
2
100
AcDbEntity
  8
0
100
AcDbLine
 10
411.9044323058903
 20
252.7039328226237
 30
0.0
 11
411.9047320587958
 21
252.6880987199866
 31
0.0
  0
SPLINE
  5
E6
330
2
100
AcDbEntity
  8
0
100
AcDbSpline
210
0.0
220
0.0
230
1.0
 70
     8
 71
     3
 72
    17
 73
    13
 74
     0
 42
0.000000001
 43
0.0000000001
 40
0.0
 40
0.0
 40
0.0
 40
0.0
 40
0.0976203816572015
 40
0.1933175296578034
 40
0.2870911826410618
 40
0.3911748127619237
 40
0.4866212495266699
 40
0.5734280435164321
 40
0.7179002030854356
 40
0.8556757173318287
 40
0.9891860170668678
 40
1.0
 40
1.0
 40
1.0
 40
1.0
 10
398.6733206179865
 20
255.8663366369433
 30
0.0
 10
398.6063447094061
 20
255.8830253091079
 30
0.0
 10
398.4737123945803
 20
255.9160738674248
 30
0.0
 10
398.2803412990333
 20
255.9317461257846
 30
0.0
 10
398.0894682126112
 20
255.9228603553479
 30
0.0
 10
397.909145157511
 20
255.8855735128915
 30
0.0
 10
397.7467483790326
 20
255.8225835647125
 30
0.0
 10
397.5790950215292
 20
255.7239188642478
 30
0.0
 10
397.4164270659573
 20
255.5765169889363
 30
0.0
 10
397.2869028349037
 20
255.3640152402248
 30
0.0
 10
397.2181005283244
 20
255.2024522477964
 30
0.0
 10
397.2097269564178
 20
255.1080803215697
 30
0.0
 10
397.2090995383423
 20
255.1010091871721
 30
0.0
  0
ARC
  5
E7
330
2
100
AcDbEntity
  8
0
100
AcDbCircle
 10
434.1995946029438
 20
221.3802059402167
 30
0.0
 40
0.0140011264790722
100
AcDbArc
 50
42.7814522991015
 51
83.10396692279971
  0
ARC
  5
E8
330
2
100
AcDbEntity
  8
0
100
AcDbCircle
 10
434.7287477840267
 20
223.1583010362105
 30
0.0
 40
0.0139637762371682
100
AcDbArc
 50
42.7251731009994
 51
83.16024612089941
  0
ARC
  5
E9
330
2
100
AcDbEntity
  8
0
100
AcDbCircle
 10
434.05253234269
 20
220.6003397746564
 30
0.0
 40
0.0334609638785303
100
AcDbArc
 50
307.9378435267987
 51
357.3663661942991
  0
ARC
  5
EA
330
2
100
AcDbEntity
  8
0
100
AcDbCircle
 10
434.05253234269
 20
218.6220498752845
 30
0.0
 40
0.0334609638784393
100
AcDbArc
 50
307.937843526699
 51
357.3663661944002
  0
SPLINE
  5
EB
330
2
100
AcDbEntity
  8
0
100
AcDbSpline
210
0.0
220
0.0
230
1.0
 70
     8
 71
     3
 72
    10
 73
     6
 74
     0
 42
0.000000001
 43
0.0000000001
 40
0.0
 40
0.0
 40
0.0
 40
0.0
 40
0.3162749934890551
 40
0.6158127696341909
 40
1.0
 40
1.0
 40
1.0
 40
1.0
 10
434.0731043524328
 20
218.5956599431362
 30
0.0
 10
434.071006836346
 20
218.5630972801413
 30
0.0
 10
434.0669228043565
 20
218.4996951645824
 30
0.0
 10
434.0357888895952
 20
218.4063637582839
 30
0.0
 10
433.9908339899369
 20
218.3623789548106
 30
0.0
 10
433.9655736905084
 20
218.337663755478
 30
0.0
  0
LINE
  5
EC
330
2
100
AcDbEntity
  8
0
100
AcDbLine
 10
434.6161255239963
 20
231.1884276528671
 30
0.0
 11
435.0600658026475
 21
231.0602731332262
 31
0.0
  0
LINE
  5
ED
330
2
100
AcDbEntity
  8
0
100
AcDbLine
 10
439.800556793825
 20
240.4267785690028
 30
0.0
 11
439.3566165151737
 21
240.5549330886437
 31
0.0
  0
LINE
  5
EE
330
2
100
AcDbEntity
  8
0
100
AcDbLine
 10
441.7234898789392
 20
223.5142591419003
 30
0.0
 11
445.7603636937448
 21
227.0102944174612
 31
0.0
  0
LINE
  5
EF
330
2
100
AcDbEntity
  8
0
100
AcDbLine
 10
433.7500181921919
 20
231.4384513034543
 30
0.0
 11
434.5606319556449
 21
231.2044472662145
 31
0.0
  0
LINE
  5
F0
330
2
100
AcDbEntity
  8
0
100
AcDbLine
 10
436.2644692683389
 20
238.7158525783414
 30
0.0
 11
435.8826419296419
 21
238.8260766367555
 31
0.0
  0
SPLINE
  5
F1
330
2
100
AcDbEntity
  8
0
100
AcDbSpline
210
0.0
220
0.0
230
1.0
 70
     8
 71
     3
 72
     9
 73
     5
 74
     0
 42
0.000000001
 43
0.0000000001
 40
0.0
 40
0.0
 40
0.0
 40
0.0
 40
0.4999705185875544
 40
1.0
 40
1.0
 40
1.0
 40
1.0
 10
432.9307489973984
 20
235.2842628555828
 30
0.0
 10
432.9957045392987
 20
235.4832598675433
 30
0.0
 10
433.1256232834748
 20
235.8812773597003
 30
0.0
 10
433.3010652807016
 20
236.2596353369683
 30
0.0
 10
433.3887914515919
 20
236.4488254801302
 30
0.0
  0
SPLINE
  5
F2
330
2
100
AcDbEntity
  8
0
100
AcDbSpline
210
0.0
220
0.0
230
1.0
 70
     8
 71
     3
 72
    12
 73
     8
 74
     0
 42
0.000000001
 43
0.0000000001
 40
0.0
 40
0.0
 40
0.0
 40
0.0
 40
0.1902244263956465
 40
0.3554407250304459
 40
0.4954054675878088
 40
0.6100255067271694
 40
1.0
 40
1.0
 40
1.0
 40
1.0
 10
434.489370666628
 20
238.475454147028
 30
0.0
 10
434.4974006981757
 20
238.5514008232973
 30
0.0
 10
434.5124050816276
 20
238.6933097368276
 30
0.0
 10
434.5764327905828
 20
238.897516336942
 30
0.0
 10
434.6461293279544
 20
239.0494960719589
 30
0.0
 10
434.7114743601051
 20
239.1524979989218
 30
0.0
 10
434.7696370862333
 20
239.2203224293236
 30
0.0
 10
434.7871655554626
 20
239.2291469836236
 30
0.0
  0
SPLINE
  5
F3
330
2
100
AcDbEntity
  8
0
100
AcDbSpline
210
0.0
220
0.0
230
1.0
 70
     8
 71
     3
 72
    11
 73
     7
 74
     0
 42
0.000000001
 43
0.0000000001
 40
0.0
 40
0.0
 40
0.0
 40
0.0
 40
0.1938732068710249
 40
0.4876476247607053
 40
0.7712881275228579
 40
1.0
 40
1.0
 40
1.0
 40
1.0
 10
434.4608707195597
 20
238.3886033296227
 30
0.0
 10
434.463801171271
 20
238.3926806912902
 30
0.0
 10
434.4711721114844
 20
238.4029364443387
 30
0.0
 10
434.4802949555533
 20
238.4242441629515
 30
0.0
 10
434.4873237313856
 20
238.4474519603319
 30
0.0
 10
434.4886538462708
 20
238.4608658528134
 30
0.0
 10
434.4892476037723
 20
238.4668537560902
 30
0.0
  0
SPLINE
  5
F4
330
2
100
AcDbEntity
  8
0
100
AcDbSpline
210
0.0
220
0.0
230
1.0
 70
     8
 71
     3
 72
    11
 73
     7
 74
     0
 42
0.000000001
 43
0.0000000001
 40
0.0
 40
0.0
 40
0.0
 40
0.0
 40
0.2527244815215816
 40
0.5069002775611166
 40
0.7576743614202687
 40
1.0
 40
1.0
 40
1.0
 40
1.0
 10
435.0182307283795
 20
238.9614079632421
 30
0.0
 10
435.0256645929407
 20
238.9592099593267
 30
0.0
 10
435.0405750123306
 20
238.9548013290737
 30
0.0
 10
435.0642705938021
 20
238.9549807034214
 30
0.0
 10
435.0875922468699
 20
238.9598188898991
 30
0.0
 10
435.1017527533892
 20
238.9671685923965
 30
0.0
 10
435.1087116982611
 20
238.9707804811689
 30
0.0
  0
LINE
  5
F5
330
2
100
AcDbEntity
  8
0
100
AcDbLine
 10
435.1113205946206
 20
238.9724190414032
 30
0.0
 11
435.2186384446108
 21
239.0310090784957
 31
0.0
  0
LINE
  5
F6
330
2
100
AcDbEntity
  8
0
100
AcDbLine
 10
435.3186087304794
 20
239.2908944832064
 30
0.0
 11
435.2878029263634
 21
239.5297695087486
 31
0.0
  0
SPLINE
  5
F7
330
2
100
AcDbEntity
  8
0
100
AcDbSpline
210
0.0
220
0.0
230
1.0
 70
     8
 71
     3
 72
    15
 73
    11
 74
     0
 42
0.000000001
 43
0.0000000001
 40
0.0
 40
0.0
 40
0.0
 40
0.0
 40
0.0883618188712277
 40
0.2222796949408273
 40
0.35505708343078
 40
0.4866585558831659
 40
0.6169833420761302
 40
0.7459738042405256
 40
0.8736356771114735
 40
1.0
 40
1.0
 40
1.0
 40
1.0
 10
435.2270877666269
 20
239.0370767505042
 30
0.0
 10
435.2319815092414
 20
239.0402730067383
 30
0.0
 10
435.2442920255851
 20
239.0483133896748
 30
0.0
 10
435.263835246805
 20
239.0722839114416
 30
0.0
 10
435.2838628948699
 20
239.1053381959221
 30
0.0
 10
435.3006201857164
 20
239.1437683685615
 30
0.0
 10
435.3131068195258
 20
239.1843461804033
 30
0.0
 10
435.3205118195695
 20
239.2241380718017
 30
0.0
 10
435.3229731548402
 20
239.2610685751013
 30
0.0
 10
435.3201979471203
 20
239.2805075551692
 30
0.0
 10
435.318817431053
 20
239.2901773986534
 30
0.0
  0
LWPOLYLINE
  5
F8
330
2
100
AcDbEntity
  8
0
100
AcDbPolyline
 90
       12
 70
   128
 43
0.0
 10
440.6982571595634
 20
239.5458389973567
 10
440.5499037478286
 20
239.8171923451451
 10
440.3802786958084
 20
240.0438882443005
 10
440.19091879782
 20
240.2238741625251
 10
439.9835389235453
 20
240.3555202708012
 10
439.7600167405776
 20
240.4376339660125
 10
439.5223764825977
 20
240.4694716540042
 10
439.2727708076615
 20
240.4507453654427
 10
439.0134593140818
 20
240.3816237888703
 10
438.7467913544981
 20
240.2627341312579
 10
438.4751812092221
 20
240.0951524024636
 10
438.2010889906726
 20
239.8803961789763
  0
LINE
  5
F9
330
2
100
AcDbEntity
  8
0
100
AcDbLine
 10
446.0070519904181
 20
228.2170048334899
 30
0.0
 11
440.6982571595634
 21
239.5458389973567
 31
0.0
  0
LINE
  5
FA
330
2
100
AcDbEntity
  8
0
100
AcDbLine
 10
438.2336739011357
 20
232.6945738152413
 30
0.0
 11
441.9701781754847
 21
224.720969557929
 31
0.0
  0
LWPOLYLINE
  5
FB
330
2
100
AcDbEntity
  8
0
100
AcDbPolyline
 90
        9
 70
   128
 43
0.0
 10
437.6787479066349
 20
232.7689201885614
 10
437.7623855177659
 20
232.8318575524261
 10
437.8445923203418
 20
232.8747282151674
 10
437.923961376548
 20
232.8967987127504
 10
437.9991344445533
 20
232.8976909428202
 10
438.0688263270076
 20
232.8773904346567
 10
438.131843012503
 20
232.8362436611282
 10
438.1871079334512
 20
232.7749555586408
 10
438.2336739011357
 20
232.6945738152413
  0
LINE
  5
FC
330
2
100
AcDbEntity
  8
0
100
AcDbLine
 10
436.059248624141
 20
231.3804035015564
 30
0.0
 11
437.6787479066349
 21
232.7689201885614
 31
0.0
  0
LINE
  5
FD
330
2
100
AcDbEntity
  8
0
100
AcDbLine
 10
438.2010889906726
 20
239.8803961789763
 30
0.0
 11
436.1653810243575
 21
238.0618545322994
 31
0.0
  0
LINE
  5
FE
330
2
100
AcDbEntity
  8
0
100
AcDbLine
 10
437.7571487121509
 20
240.0085506986171
 30
0.0
 11
435.4947373672932
 21
238.0048059072677
 31
0.0
  0
LWPOLYLINE
  5
FF
330
2
100
AcDbEntity
  8
0
100
AcDbPolyline
 90
        8
 70
   128
 43
0.0
 10
437.7571487121509
 20
240.0085506986171
 10
438.0312409306993
 20
240.2233069221041
 10
438.3028510758481
 20
240.3908886510268
 10
438.5695190355601
 20
240.5097783085112
 10
438.8288305290116
 20
240.5788998850834
 10
439.0784362039475
 20
240.5976261736451
 10
439.3160764619274
 20
240.5657884856536
 10
439.3566165151737
 20
240.5549330886437
  0
LINE
  5
100
330
2
100
AcDbEntity
  8
0
100
AcDbLine
 10
437.7897336226141
 20
232.8227283348822
 30
0.0
 11
437.7799461663283
 21
232.8426311020029
 31
0.0
  0
LINE
  5
101
330
2
100
AcDbEntity
  8
0
100
AcDbLine
 10
437.7897336226141
 20
232.8227283348822
 30
0.0
 11
441.5262378969627
 21
224.8491240775698
 31
0.0
  0
SPLINE
  5
102
330
2
100
AcDbEntity
  8
0
100
AcDbSpline
210
0.0
220
0.0
230
1.0
 70
     8
 71
     3
 72
    15
 73
    11
 74
     0
 42
0.000000001
 43
0.0000000001
 40
0.0
 40
0.0
 40
0.0
 40
0.0
 40
0.1249999321019801
 40
0.249999947699833
 40
0.3749998879970478
 40
0.5000000828249857
 40
0.6250002238090282
 40
0.750000175921977
 40
0.8750001246241076
 40
1.0
 40
1.0
 40
1.0
 40
1.0
 10
441.5262378969356
 20
224.8491240776133
 30
0.0
 10
441.5523386112455
 20
224.751618288172
 30
0.0
 10
441.6045400573021
 20
224.5566066441581
 30
0.0
 10
441.6001124806746
 20
224.2992913691943
 30
0.0
 10
441.538282718085
 20
224.0808217647085
 30
0.0
 10
441.4177705617473
 20
223.9119952598267
 30
0.0
 10
441.2467003574035
 20
223.7994050196518
 30
0.0
 10
441.0322851879532
 20
223.7506597815076
 30
0.0
 10
440.785013263592
 20
223.7634628628885
 30
0.0
 10
440.6021860535297
 20
223.8298763310375
 30
0.0
 10
440.510772475311
 20
223.8630830553721
 30
0.0
  0
SPLINE
  5
103
330
2
100
AcDbEntity
  8
0
100
AcDbSpline
210
0.0
220
0.0
230
1.0
 70
     8
 71
     3
 72
    15
 73
    11
 74
     0
 42
0.000000001
 43
0.0000000001
 40
0.0
 40
0.0
 40
0.0
 40
0.0
 40
0.125000029502023
 40
0.2500000900787609
 40
0.3750000532297443
 40
0.4999997968549247
 40
0.62500000246262
 40
0.7499997849133431
 40
0.8749998812030387
 40
1.0
 40
1.0
 40
1.0
 40
1.0
 10
441.9701781755294
 20
224.7209695579384
 30
0.0
 10
441.995665173239
 20
224.5936585928912
 30
0.0
 10
442.0466391749938
 20
224.3390366311484
 30
0.0
 10
442.0160218050914
 20
224.0032455536792
 30
0.0
 10
441.9114429604885
 20
223.7187360165638
 30
0.0
 10
441.7317052603556
 20
223.4997783545379
 30
0.0
 10
441.4879367130118
 20
223.3549936030932
 30
0.0
 10
441.1903053779375
 20
223.2941051031136
 30
0.0
 10
440.8527728508375
 20
223.3138268139436
 30
0.0
 10
440.6077906408775
 20
223.4020231932993
 30
0.0
 10
440.4852995248698
 20
223.4461213869473
 30
0.0
  0
SPLINE
  5
104
330
2
100
AcDbEntity
  8
0
100
AcDbSpline
210
0.0
220
0.0
230
1.0
 70
     8
 71
     3
 72
     9
 73
     5
 74
     0
 42
0.000000001
 43
0.0000000001
 40
0.0
 40
0.0
 40
0.0
 40
0.0
 40
0.5640085712236115
 40
1.0
 40
1.0
 40
1.0
 40
1.0
 10
440.4852995248698
 20
223.4461213869473
 30
0.0
 10
440.4306626483668
 20
223.4691818609653
 30
0.0
 10
440.3337902260475
 20
223.5100686048812
 30
0.0
 10
440.2223963709536
 20
223.5569252383284
 30
0.0
 10
440.1738296049148
 20
223.5773543288929
 30
0.0
  0
SPLINE
  5
105
330
2
100
AcDbEntity
  8
0
100
AcDbSpline
210
0.0
220
0.0
230
1.0
 70
     8
 71
     3
 72
    11
 73
     7
 74
     0
 42
0.000000001
 43
0.0000000001
 40
0.0
 40
0.0
 40
0.0
 40
0.0
 40
0.250725912406606
 40
0.5014518871430873
 40
0.7521776664623249
 40
1.0
 40
1.0
 40
1.0
 40
1.0
 10
446.0070519903796
 20
228.2170048334707
 30
0.0
 10
446.0326046367267
 20
228.0896183091305
 30
0.0
 10
446.0837099357751
 20
227.8348452287827
 30
0.0
 10
446.0521078362487
 20
227.5001875407728
 30
0.0
 10
445.9516601363689
 20
227.2124858077292
 30
0.0
 10
445.8236171019227
 20
227.0776966930547
 30
0.0
 10
445.7599684333776
 20
227.0106946283137
 30
0.0
  0
LINE
  5
106
330
2
100
AcDbEntity
  8
0
100
AcDbLine
 10
440.1652858111467
 20
224.0138954650572
 30
0.0
 11
440.5107724752602
 21
223.8630830553363
 31
0.0
  0
LINE
  5
107
330
2
100
AcDbEntity
  8
0
100
AcDbLine
 10
440.1738296049066
 20
223.5773543288363
 30
0.0
 11
439.7939835579282
 21
223.7107749837142
 31
0.0
  0
LINE
  5
108
330
2
100
AcDbEntity
  8
0
100
AcDbLine
 10
439.7133901268673
 20
224.1779805819353
 30
0.0
 11
440.1652858111467
 21
224.0138954650572
 31
0.0
  0
LINE
  5
109
330
2
100
AcDbEntity
  8
0
100
AcDbLine
 10
435.2045921113894
 20
230.1409399257658
 30
0.0
 11
439.6474561133461
 21
228.8583955621049
 31
0.0
  0
LINE
  5
10A
330
2
100
AcDbEntity
  8
0
100
AcDbLine
 10
439.7133901268673
 20
224.1779805819353
 30
0.0
 11
434.9482439805552
 21
225.5535597870927
 31
0.0
  0
LINE
  5
10B
330
2
100
AcDbEntity
  8
0
100
AcDbLine
 10
439.7939835579282
 20
223.7107749837142
 30
0.0
 11
434.9238296218932
 21
225.1166673267058
 31
0.0
  0
SPLINE
  5
10C
330
2
100
AcDbEntity
  8
0
100
AcDbSpline
210
0.0
220
0.0
230
1.0
 70
     8
 71
     3
 72
    10
 73
     6
 74
     0
 42
0.000000001
 43
0.0000000001
 40
0.0
 40
0.0
 40
0.0
 40
0.0
 40
0.2035067230391646
 40
0.6039134700866377
 40
1.0
 40
1.0
 40
1.0
 40
1.0
 10
435.7973261994849
 20
238.8503257551675
 30
0.0
 10
435.7996563284422
 20
238.8496969876845
 30
0.0
 10
435.8065710693569
 20
238.8478310977182
 30
0.0
 10
435.8210713627567
 20
238.8437478382653
 30
0.0
 10
435.8332015196697
 20
238.8402825780268
 30
0.0
 10
435.8392337008539
 20
238.838559345775
 30
0.0
  0
LINE
  5
10D
330
2
100
AcDbEntity
  8
0
100
AcDbLine
 10
435.8392337008373
 20
238.8385593458241
 30
0.0
 11
435.8826173427712
 21
238.8259918789286
 31
0.0
  0
SPLINE
  5
10E
330
2
100
AcDbEntity
  8
0
100
AcDbSpline
210
0.0
220
0.0
230
1.0
 70
     8
 71
     3
 72
     9
 73
     5
 74
     0
 42
0.000000001
 43
0.0000000001
 40
0.0
 40
0.0
 40
0.0
 40
0.0
 40
0.5
 40
1.0
 40
1.0
 40
1.0
 40
1.0
 10
433.3762679772598
 20
236.4572697369621
 30
0.0
 10
433.2837333973928
 20
236.2672985124088
 30
0.0
 10
433.1145587030795
 20
235.881190929453
 30
0.0
 10
432.9760590305601
 20
235.483557789561
 30
0.0
 10
432.9146713034123
 20
235.2817802698906
 30
0.0
  0
SPLINE
  5
10F
330
2
100
AcDbEntity
  8
0
100
AcDbSpline
210
0.0
220
0.0
230
1.0
 70
     8
 71
     3
 72
    21
 73
    17
 74
     0
 42
0.000000001
 43
0.0000000001
 40
0.0
 40
0.0
 40
0.0
 40
0.0
 40
0.125
 40
0.125
 40
0.25
 40
0.25
 40
0.375
 40
0.375
 40
0.5
 40
0.625
 40
0.625
 40
0.75
 40
0.75
 40
0.875
 40
0.875
 40
1.0
 40
1.0
 40
1.0
 40
1.0
 10
432.9146713034123
 20
235.2817802698906
 30
0.0
 10
432.8955974494043
 20
235.2190823958342
 30
0.0
 10
432.876583665396
 20
235.1535028597142
 30
0.0
 10
432.8392168457892
 20
235.0170240413586
 30
0.0
 10
432.8208874911675
 20
234.9462740215956
 30
0.0
 10
432.7852406909422
 20
234.7987037141883
 30
0.0
 10
432.7678774680493
 20
234.7216706508389
 30
0.0
 10
432.7345298495604
 20
234.5605042507704
 30
0.0
 10
432.7026968055831
 20
234.3927901552096
 30
0.0
 10
432.6761673284856
 20
234.2162975392784
 30
0.0
 10
432.6531119640453
 20
234.0389233055282
 30
0.0
 10
432.6433742253355
 20
233.9499639563989
 30
0.0
 10
432.6277720923289
 20
233.7733226694431
 30
0.0
 10
432.6218836127239
 20
233.6856152640897
 30
0.0
 10
432.6140236715719
 20
233.5122470415408
 30
0.0
 10
432.6120474934519
 20
233.4264685827433
 30
0.0
 10
432.6120474470643
 20
233.3414176243667
 30
0.0
  0
SPLINE
  5
110
330
2
100
AcDbEntity
  8
0
100
AcDbSpline
210
0.0
220
0.0
230
1.0
 70
     8
 71
     3
 72
    21
 73
    17
 74
     0
 42
0.000000001
 43
0.0000000001
 40
0.0
 40
0.0
 40
0.0
 40
0.0
 40
0.1250000000000002
 40
0.1250000000000002
 40
0.2500000000000003
 40
0.2500000000000003
 40
0.3750000000000005
 40
0.3750000000000005
 40
0.5000000000000006
 40
0.6250000000000005
 40
0.6250000000000005
 40
0.7500000000000002
 40
0.7500000000000002
 40
0.875
 40
0.875
 40
1.0
 40
1.0
 40
1.0
 40
1.0
 10
432.9146713034123
 20
231.8008332725639
 30
0.0
 10
432.8955974494043
 20
231.8383338737476
 30
0.0
 10
432.876583665396
 20
231.8787954686207
 30
0.0
 10
432.8392168457892
 20
231.9659112803688
 30
0.0
 10
432.8208874911675
 20
232.0124475223377
 30
0.0
 10
432.7852406909422
 20
232.1129270621493
 30
0.0
 10
432.7678774680493
 20
232.1670226616646
 30
0.0
 10
432.7345298495604
 20
232.2841356162284
 30
0.0
 10
432.7026968055831
 20
232.4097970694473
 30
0.0
 10
432.6761673284856
 20
232.5512431438119
 30
0.0
 10
432.6531119640453
 20
232.6981604159604
 30
0.0
 10
432.6433742253366
 20
232.7742560113123
 30
0.0
 10
432.6277720923289
 20
232.930286403928
 30
0.0
 10
432.6218836127215
 20
233.0102147053215
 30
0.0
 10
432.6140236715604
 20
233.1731987500356
 30
0.0
 10
432.6120474934378
 20
233.2563661247124
 30
0.0
 10
432.6120474470643
 20
233.3414176243667
 30
0.0
  0
SPLINE
  5
111
330
2
100
AcDbEntity
  8
0
100
AcDbSpline
210
0.0
220
0.0
230
1.0
 70
     8
 71
     3
 72
     9
 73
     5
 74
     0
 42
0.000000001
 43
0.0000000001
 40
0.0
 40
0.0
 40
0.0
 40
0.0
 40
0.5
 40
1.0
 40
1.0
 40
1.0
 40
1.0
 10
433.3762679772598
 20
231.2351304038612
 30
0.0
 10
433.2837333973928
 20
231.302860018303
 30
0.0
 10
433.1145587030795
 20
231.4654812114972
 30
0.0
 10
432.9760590305601
 20
231.6801514973543
 30
0.0
 10
432.9146713034123
 20
231.8008332725639
 30
0.0
  0
SPLINE
  5
112
330
2
100
AcDbEntity
  8
0
100
AcDbSpline
210
0.0
220
0.0
230
1.0
 70
     8
 71
     3
 72
    10
 73
     6
 74
     0
 42
0.000000001
 43
0.0000000001
 40
0.0
 40
0.0
 40
0.0
 40
0.0
 40
0.5
 40
0.5
 40
1.0
 40
1.0
 40
1.0
 40
1.0
 10
434.466717579862
 20
238.4218951411154
 30
0.0
 10
434.46871251933
 20
238.4242948206319
 30
0.0
 10
434.470853285094
 20
238.4277052044252
 30
0.0
 10
434.4748399134887
 20
238.4375371323848
 30
0.0
 10
434.4766681967846
 20
238.4439962954738
 30
0.0
 10
434.4770216084055
 20
238.4509705535274
 30
0.0
  0
SPLINE
  5
113
330
2
100
AcDbEntity
  8
0
100
AcDbSpline
210
0.0
220
0.0
230
1.0
 70
     8
 71
     3
 72
    21
 73
    17
 74
     0
 42
0.000000001
 43
0.0000000001
 40
0.0
 40
0.0
 40
0.0
 40
0.0
 40
0.125
 40
0.125
 40
0.25
 40
0.25
 40
0.375
 40
0.375
 40
0.5
 40
0.625
 40
0.625
 40
0.75
 40
0.75
 40
0.875
 40
0.875
 40
1.0
 40
1.0
 40
1.0
 40
1.0
 10
433.3779951278438
 20
236.4495412077225
 30
0.0
 10
433.4144463289113
 20
236.54621646849
 30
0.0
 10
433.4529631039631
 20
236.6437613821709
 30
0.0
 10
433.5357400749017
 20
236.8424081378542
 30
0.0
 10
433.5803231650787
 20
236.9441887208507
 30
0.0
 10
433.6742618848173
 20
237.1476945097065
 30
0.0
 10
433.7234687634138
 20
237.2489791212747
 30
0.0
 10
433.8235218847571
 20
237.4439749643269
 30
0.0
 10
433.9251635855307
 20
237.631802322471
 30
0.0
 10
434.0238032513606
 20
237.7960680338336
 30
0.0
 10
434.119636882246
 20
237.9485123641245
 30
0.0
 10
434.1659881381229
 20
238.0186163609808
 30
0.0
 10
434.2558799342073
 20
238.1486222379601
 30
0.0
 10
434.2995504956548
 20
238.2087158420625
 30
0.0
 10
434.3848889947818
 20
238.3212288777456
 30
0.0
 10
434.426459432074
 20
238.3734723391191
 30
0.0
 10
434.466717579862
 20
238.4218951411154
 30
0.0
  0
SPLINE
  5
114
330
2
100
AcDbEntity
  8
0
100
AcDbSpline
210
0.0
220
0.0
230
1.0
 70
     8
 71
     3
 72
     8
 73
     4
 74
     0
 42
0.000000001
 43
0.0000000001
 40
0.0
 40
0.0
 40
0.0
 40
0.0
 40
1.0
 40
1.0
 40
1.0
 40
1.0
 10
433.3779951278438
 20
236.4495412077225
 30
0.0
 10
433.3767507559655
 20
236.4506841272385
 30
0.0
 10
433.3762679772927
 20
236.4534247390431
 30
0.0
 10
433.3762679772598
 20
236.4572697369621
 30
0.0
  0
SPLINE
  5
115
330
2
100
AcDbEntity
  8
0
100
AcDbSpline
210
0.0
220
0.0
230
1.0
 70
     8
 71
     3
 72
    14
 73
    10
 74
     0
 42
0.000000001
 43
0.0000000001
 40
0.0
 40
0.0
 40
0.0
 40
0.0
 40
0.2500000000000007
 40
0.2500000000000007
 40
0.5000000000000015
 40
0.5000000000000015
 40
0.7500000000000023
 40
0.7500000000000023
 40
1.0
 40
1.0
 40
1.0
 40
1.0
 10
434.8841068496017
 20
239.0058027563878
 30
0.0
 10
434.8850794567245
 20
238.9885727229228
 30
0.0
 10
434.8876597145437
 20
238.9738714229709
 30
0.0
 10
434.8956913376698
 20
238.9489143561189
 30
0.0
 10
434.9010967369733
 20
238.9387618780358
 30
0.0
 10
434.914601050236
 20
238.9240455191392
 30
0.0
 10
434.9229029662052
 20
238.9194439155928
 30
0.0
 10
434.9418353039549
 20
238.9171594225316
 30
0.0
 10
434.9522359952609
 20
238.9195090628481
 30
0.0
 10
434.9638012745999
 20
238.9261451014186
 30
0.0
  0
ARC
  5
116
330
2
100
AcDbEntity
  8
0
100
AcDbCircle
 10
435.6840251493086
 20
239.3223138022406
 30
0.0
 40
0.4535375836285648
100
AcDbArc
 50
208.0904109604968
 51
232.1762434457984
  0
ARC
  5
117
330
2
100
AcDbEntity
  8
0
100
AcDbCircle
 10
438.3173515273029
 20
233.620940803152
 30
0.0
 40
5.644723018886241
100
AcDbArc
 50
166.8565279539996
 51
193.1183868406993
  0
SPLINE
  5
118
330
2
100
AcDbEntity
  8
0
100
AcDbSpline
210
0.0
220
0.0
230
1.0
 70
     8
 71
     3
 72
    17
 73
    13
 74
     0
 42
0.000000001
 43
0.0000000001
 40
0.0
 40
0.0
 40
0.0
 40
0.0
 40
0.0476816977243034
 40
0.0991840826062574
 40
0.1416754119882044
 40
0.1923377337393759
 40
0.3615891049150511
 40
0.4723560088858344
 40
0.585235501523079
 40
0.7387303129296614
 40
0.8769790822369426
 40
1.0
 40
1.0
 40
1.0
 40
1.0
 10
435.5995909179496
 20
238.8937169452779
 30
0.0
 10
435.5968634064311
 20
238.8940044981286
 30
0.0
 10
435.5911898306001
 20
238.8946026451542
 30
0.0
 10
435.5819387073453
 20
238.8960595143969
 30
0.0
 10
435.5719764388687
 20
238.8979236949509
 30
0.0
 10
435.5533461683476
 20
238.9018385335627
 30
0.0
 10
435.5291808398709
 20
238.9081167579846
 30
0.0
 10
435.5012662968028
 20
238.917013597132
 30
0.0
 10
435.4753345223002
 20
238.9266306218225
 30
0.0
 10
435.4492210266043
 20
238.9381592698833
 30
0.0
 10
435.4247007394909
 20
238.9511455343624
 30
0.0
 10
435.4119187571191
 20
238.9599285523817
 30
0.0
 10
435.4059002586854
 20
238.9640641065271
 30
0.0
  0
ARC
  5
119
330
2
100
AcDbEntity
  8
0
100
AcDbCircle
 10
435.4094047857682
 20
237.5547924604941
 30
0.0
 40
1.352364426043552
100
AcDbArc
 50
73.33072737669673
 51
81.91556310021665
  0
SPLINE
  5
11A
330
2
100
AcDbEntity
  8
0
100
AcDbSpline
210
0.0
220
0.0
230
1.0
 70
     8
 71
     3
 72
     9
 73
     5
 74
     0
 42
0.000000001
 43
0.0000000001
 40
0.0
 40
0.0
 40
0.0
 40
0.0
 40
0.3496866558566489
 40
1.0
 40
1.0
 40
1.0
 40
1.0
 10
433.3811089439391
 20
236.4378277084739
 30
0.0
 10
433.3826958322718
 20
236.4383770251932
 30
0.0
 10
433.387233861695
 20
236.4399479078963
 30
0.0
 10
433.3816355276689
 20
236.4457610052842
 30
0.0
 10
433.377994856347
 20
236.449541340086
 30
0.0
  0
LINE
  5
11B
330
2
100
AcDbEntity
  8
0
100
AcDbLine
 10
434.4521377869047
 20
238.3772141207227
 30
0.0
 11
434.4560351051079
 21
238.3813862128075
 31
0.0
  0
SPLINE
  5
11C
330
2
100
AcDbEntity
  8
0
100
AcDbSpline
210
0.0
220
0.0
230
1.0
 70
     8
 71
     3
 72
     8
 73
     4
 74
     0
 42
0.000000001
 43
0.0000000001
 40
0.0
 40
0.0
 40
0.0
 40
0.0
 40
1.0
 40
1.0
 40
1.0
 40
1.0
 10
433.3779951278438
 20
231.2459748208628
 30
0.0
 10
433.3767507559655
 20
231.2425869950532
 30
0.0
 10
433.3762679772927
 20
231.2389754018377
 30
0.0
 10
433.3762679772598
 20
231.2351304038612
 30
0.0
  0
LINE
  5
11D
330
2
100
AcDbEntity
  8
0
100
AcDbLine
 10
435.1086755189029
 20
238.9707588138251
 30
0.0
 11
435.1112969467394
 21
238.9724035416005
 31
0.0
  0
SPLINE
  5
11E
330
2
100
AcDbEntity
  8
0
100
AcDbSpline
210
0.0
220
0.0
230
1.0
 70
     8
 71
     3
 72
    21
 73
    17
 74
     0
 42
0.000000001
 43
0.0000000001
 40
0.0
 40
0.0
 40
0.0
 40
0.0
 40
0.125
 40
0.125
 40
0.25
 40
0.25
 40
0.375
 40
0.375
 40
0.5
 40
0.625
 40
0.625
 40
0.75
 40
0.75
 40
0.875
 40
0.875
 40
1.0
 40
1.0
 40
1.0
 40
1.0
 10
433.3779951278438
 20
231.2459748208628
 30
0.0
 10
433.4144463289113
 20
231.2150592216015
 30
0.0
 10
433.4529631039631
 20
231.187000412403
 30
0.0
 10
433.5357400749017
 20
231.1376872818634
 30
0.0
 10
433.5803231650787
 20
231.1163367285033
 30
0.0
 10
433.6742618848173
 20
231.0823008735261
 30
0.0
 10
433.7234687634138
 20
231.0697878170722
 30
0.0
 10
433.8235218847571
 20
231.0552925821518
 30
0.0
 10
433.9251635855307
 20
231.0508317086024
 30
0.0
 10
434.0238032513606
 20
231.0645166634726
 30
0.0
 10
434.119636882246
 20
231.0849607800209
 30
0.0
 10
434.1659881381229
 20
231.0984766641414
 30
0.0
 10
434.2558799342073
 20
231.1306398814692
 30
0.0
 10
434.2995504956548
 20
231.1493300529214
 30
0.0
 10
434.3848889947818
 20
231.1907717360286
 30
0.0
 10
434.426459432074
 20
231.2135233261858
 30
0.0
 10
434.466717579862
 20
231.2377281647691
 30
0.0
  0
ARC
  5
11F
330
2
100
AcDbEntity
  8
0
100
AcDbCircle
 10
434.6502420326159
 20
239.0370056963766
 30
0.0
 40
0.2359371216531152
100
AcDbArc
 50
352.4002486107995
 51
56.19887108879588
  0
ARC
  5
120
330
2
100
AcDbEntity
  8
0
100
AcDbCircle
 10
435.7800173875621
 20
237.5052780109395
 30
0.0
 40
1.638618873661522
100
AcDbArc
 50
117.5438224244065
 51
119.8751911185017
  0
ARC
  5
121
330
2
100
AcDbEntity
  8
0
100
AcDbCircle
 10
435.6493777726329
 20
237.5441837087426
 30
0.0
 40
1.440604609534644
100
AcDbArc
 50
99.73030320610511
 51
129.0275095442003
  0
LWPOLYLINE
  5
122
330
2
100
AcDbEntity
  8
0
100
AcDbPolyline
 90
        3
 70
   128
 43
0.0
 10
434.7294607478087
 20
238.6534654929779
 10
434.5683945281211
 20
238.5169582193318
 10
434.4669484348523
 20
238.4191538023492
  0
LWPOLYLINE
  5
123
330
2
100
AcDbEntity
  8
0
100
AcDbPolyline
 90
        9
 70
   128
 43
0.0
 10
432.8199378161916
 20
232.3397927048342
 10
432.8606730123232
 20
232.2145651335392
 10
432.9627309110548
 20
231.9755550741696
 10
433.0849254590462
 20
231.7753718557892
 10
433.22577918045
 20
231.6164358281199
 10
433.383588842677
 20
231.50066866581
 10
433.5564464622312
 20
231.4294705249799
 10
433.7422616836134
 20
231.4037020065981
 10
433.8511560257728
 20
231.4092551879418
  0
LWPOLYLINE
  5
124
330
2
100
AcDbEntity
  8
0
100
AcDbPolyline
 90
        5
 70
   128
 43
0.0
 10
432.9146707785714
 20
235.2817797307616
 10
432.9240771507266
 20
235.2810637315254
 10
432.92960169346
 20
235.2816956497202
 10
432.9310084540354
 20
235.2836490907236
 10
432.9306838926791
 20
235.284372161282
  0
ARC
  5
125
330
2
100
AcDbEntity
  8
0
100
AcDbCircle
 10
434.4145768885276
 20
238.4139821773861
 30
0.0
 40
0.052737848128031
100
AcDbArc
 50
321.8242770126984
 51
8.629468532099878
  0
ARC
  5
126
330
2
100
AcDbEntity
  8
0
100
AcDbCircle
 10
434.4633892536922
 20
238.4738028586626
 30
0.0
 40
0.0265922084866701
100
AcDbArc
 50
300.8395310016986
 51
351.5392410112998
  0
SPLINE
  5
127
330
2
100
AcDbEntity
  8
0
100
AcDbSpline
210
0.0
220
0.0
230
1.0
 70
     8
 71
     3
 72
    12
 73
     8
 74
     0
 42
0.000000001
 43
0.0000000001
 40
0.0
 40
0.0
 40
0.0
 40
0.0
 40
0.2097939275994974
 40
0.4184431592036713
 40
0.6271195813951218
 40
0.835849230792116
 40
1.0
 40
1.0
 40
1.0
 40
1.0
 10
434.4770213605907
 20
231.2272419132313
 30
0.0
 10
434.4852931335995
 20
231.1627547808749
 30
0.0
 10
434.5017915464438
 20
231.0341323765005
 30
0.0
 10
434.5797080572068
 20
230.9275147901807
 30
0.0
 10
434.684483579032
 20
230.9076319523239
 30
0.0
 10
434.7990537769584
 20
230.9670496728298
 30
0.0
 10
434.8696570020885
 20
231.0637133939051
 30
0.0
 10
434.9007382097241
 20
231.1062670475089
 30
0.0
  0
LINE
  5
128
330
2
100
AcDbEntity
  8
0
100
AcDbLine
 10
437.9254593697124
 20
235.3218452794312
 30
0.0
 11
436.8489064827278
 21
235.6326193289439
 31
0.0
  0
LINE
  5
129
330
2
100
AcDbEntity
  8
0
100
AcDbLine
 10
437.9205849262362
 20
235.3238278732146
 30
0.0
 11
436.844033971414
 21
235.6346016463679
 31
0.0
  0
LINE
  5
12A
330
2
100
AcDbEntity
  8
0
100
AcDbLine
 10
436.2633646744844
 20
233.6231044081391
 30
0.0
 11
437.3399156293069
 21
233.3123306349856
 31
0.0
  0
LINE
  5
12B
330
2
100
AcDbEntity
  8
0
100
AcDbLine
 10
436.8948426172702
 20
235.8106075357849
 30
0.0
 11
436.5548799696314
 21
235.9087462990182
 31
0.0
  0
LINE
  5
12C
330
2
100
AcDbEntity
  8
0
100
AcDbLine
 10
435.8725919363823
 20
233.5452362914054
 30
0.0
 11
436.2125560288907
 21
233.4470968299454
 31
0.0
  0
LINE
  5
12D
330
2
100
AcDbEntity
  8
0
100
AcDbLine
 10
436.5948011528441
 20
236.0470373344057
 30
0.0
 11
436.3681582619872
 21
236.1124635012489
 31
0.0
  0
LINE
  5
12E
330
2
100
AcDbEntity
  8
0
100
AcDbLine
 10
435.6060295508275
 20
233.4723726243447
 30
0.0
 11
435.8326707529069
 21
233.4069469447944
 31
0.0
  0
LINE
  5
12F
330
2
100
AcDbEntity
  8
0
100
AcDbLine
 10
436.2187480142141
 20
233.642148427456
 30
0.0
 11
436.2633646744844
 21
233.6231044081391
 31
0.0
  0
LINE
  5
130
330
2
100
AcDbEntity
  8
0
100
AcDbLine
 10
437.983056064473
 20
234.4211333859275
 30
0.0
 11
437.9035125123545
 21
234.8649920371165
 31
0.0
  0
LINE
  5
131
330
2
100
AcDbEntity
  8
0
100
AcDbLine
 10
437.9035125123545
 20
234.8649920371165
 30
0.0
 11
437.607368170605
 21
234.7455801699458
 31
0.0
  0
LINE
  5
132
330
2
100
AcDbEntity
  8
0
100
AcDbLine
 10
437.3907673809751
 20
234.1823113401012
 30
0.0
 11
437.607368170605
 21
234.7455801699458
 31
0.0
  0
LINE
  5
133
330
2
100
AcDbEntity
  8
0
100
AcDbLine
 10
437.4703111770017
 20
233.7384528998456
 30
0.0
 11
437.3907673809751
 21
234.1823113401012
 31
0.0
  0
LINE
  5
134
330
2
100
AcDbEntity
  8
0
100
AcDbLine
 10
437.4703111770017
 20
233.7384528998456
 30
0.0
 11
437.7664555187512
 21
233.8578630785014
 31
0.0
  0
LINE
  5
135
330
2
100
AcDbEntity
  8
0
100
AcDbLine
 10
437.983056064473
 20
234.4211333859275
 30
0.0
 11
437.7664555187512
 21
233.8578630785014
 31
0.0
  0
LINE
  5
136
330
2
100
AcDbEntity
  8
0
100
AcDbLine
 10
437.4315874307537
 20
233.9545311689009
 30
0.0
 11
437.7664555187512
 21
233.8578630785014
 31
0.0
  0
LINE
  5
137
330
2
100
AcDbEntity
  8
0
100
AcDbLine
 10
437.5326074044934
 20
234.5511669949683
 30
0.0
 11
437.983056064473
 21
234.4211333859275
 31
0.0
  0
LINE
  5
138
330
2
100
AcDbEntity
  8
0
100
AcDbLine
 10
436.5548799696314
 20
235.9087462990182
 30
0.0
 11
436.5391283681568
 21
235.9126987197792
 31
0.0
  0
LINE
  5
139
330
2
100
AcDbEntity
  8
0
100
AcDbLine
 10
436.4420460430269
 20
233.4846405004196
 30
0.0
 11
436.3594625058103
 21
233.5084803142704
 31
0.0
  0
LINE
  5
13A
330
2
100
AcDbEntity
  8
0
100
AcDbLine
 10
436.3488116346993
 20
233.4470463825473
 30
0.0
 11
436.3488116346993
 21
233.4470463825473
 31
0.0
  0
LINE
  5
13B
330
2
100
AcDbEntity
  8
0
100
AcDbLine
 10
436.3738069770004
 20
233.5912224614667
 30
0.0
 11
436.3488116346993
 21
233.4470463825473
 31
0.0
  0
LINE
  5
13C
330
2
100
AcDbEntity
  8
0
100
AcDbLine
 10
436.4502919494192
 20
233.5691423075054
 30
0.0
 11
436.4420460430269
 21
233.4846405004196
 31
0.0
  0
LINE
  5
13D
330
2
100
AcDbEntity
  8
0
100
AcDbLine
 10
436.0363986300495
 20
233.4238683064512
 30
0.0
 11
436.0363986300495
 21
233.4238683064512
 31
0.0
  0
LINE
  5
13E
330
2
100
AcDbEntity
  8
0
100
AcDbLine
 10
435.5819786660462
 20
233.4806185665906
 30
0.0
 11
435.6060295508275
 21
233.4723726243447
 31
0.0
  0
ELLIPSE
  5
13F
330
2
100
AcDbEntity
  8
0
100
AcDbEllipse
 10
437.6373728618075
 20
234.3136631571645
 30
0.0
 11
-0.2974572325001651
 21
-1.001332522178863
 31
0.0
210
0.0
220
0.0
230
1.0
 40
0.4371239547278868
 41
0.0
 42
6.283185307179584
  0
ELLIPSE
  5
140
330
2
100
AcDbEntity
  8
0
100
AcDbEllipse
 10
436.5313909928139
 20
234.6383750369118
 30
0.0
 11
0.3126429786001907
 21
0.9962266094560131
 31
0.0
210
0.0
220
0.0
230
1.0
 40
0.4076744545455246
 41
0.0
 42
3.141592653589792
  0
ELLIPSE
  5
141
330
2
100
AcDbEntity
  8
0
100
AcDbEllipse
 10
436.5536993230806
 20
234.6288521828649
 30
0.0
 11
0.3411432941900212
 21
1.181755352919731
 31
0.0
210
0.0
220
0.0
230
1.0
 40
0.4391595104879257
 41
5.999143157104827
 42
9.977568273525797
  0
ARC
  5
142
330
2
100
AcDbEntity
  8
0
100
AcDbCircle
 10
436.6094784920355
 20
235.39788412192
 30
0.0
 40
0.5278053650695794
100
AcDbArc
 50
17.55019796121922
 51
37.78505631591166
  0
ELLIPSE
  5
143
330
2
100
AcDbEntity
  8
0
100
AcDbEllipse
 10
436.2058601522697
 20
234.7289675055921
 30
0.0
 11
0.3332682158872633
 21
1.183731214186862
 31
0.0
210
0.0
220
0.0
230
1.0
 40
0.4271225323414707
 41
0.0
 42
3.141592653589792
  0
ELLIPSE
  5
144
330
2
100
AcDbEntity
  8
0
100
AcDbEllipse
 10
436.2137359528754
 20
234.7269921396001
 30
0.0
 11
0.3810651999684833
 21
1.320045194805572
 31
0.0
210
0.0
220
0.0
230
1.0
 40
0.4392531529546967
 41
5.821353584842302
 42
9.886607296654599
  0
ELLIPSE
  5
145
330
2
100
AcDbEntity
  8
0
100
AcDbEllipse
 10
435.9750684640174
 20
234.7965410339198
 30
0.0
 11
0.3930897979704386
 21
1.315922467329197
 31
0.0
210
0.0
220
0.0
230
0.9999999999999998
 40
0.4229334210521108
 41
0.0
 42
3.141592653589792
  0
ELLIPSE
  5
146
330
2
100
AcDbEntity
  8
0
100
AcDbEllipse
 10
434.908907586078
 20
233.6997257776108
 30
0.0
 11
-0.1041256964363858
 21
-0.4025526691784855
 31
0.0
210
0.0
220
0.0
230
1.0
 40
0.4377124451218317
 41
0.0
 42
6.283185307179585
  0
ELLIPSE
  5
147
330
2
100
AcDbEntity
  8
0
100
AcDbEllipse
 10
436.126343347419
 20
232.647831489188
 30
0.0
 11
-0.1041256964363858
 21
-0.4025526691784855
 31
0.0
210
0.0
220
0.0
230
1.0
 40
0.4377124451218317
 41
0.0
 42
6.283185307179585
  0
ELLIPSE
  5
148
330
2
100
AcDbEntity
  8
0
100
AcDbEllipse
 10
437.3457529204268
 20
235.810232604782
 30
0.0
 11
-0.1041256964363858
 21
-0.4025526691784855
 31
0.0
210
0.0
220
0.0
230
1.0
 40
0.4377124451218317
 41
0.7224588986309298
 42
5.536280207029361
  0
ELLIPSE
  5
149
330
2
100
AcDbEntity
  8
0
100
AcDbEllipse
 10
436.1251150189706
 20
236.8601772473282
 30
0.0
 11
-0.1041256964363858
 21
-0.4025526691784855
 31
0.0
210
0.0
220
0.0
230
1.0
 40
0.4377124451218317
 41
0.0
 42
6.283185307179585
  0
ELLIPSE
  5
14A
330
2
100
AcDbEntity
  8
0
100
AcDbEllipse
 10
436.0198034214678
 20
234.6511529750189
 30
0.0
 11
-0.930280422378081
 21
-3.596488474308293
 31
0.0
210
0.0
220
0.0
230
1.0
 40
0.4377124451218317
 41
3.595628911269336
 42
6.848972302752059
  0
ELLIPSE
  5
14B
330
2
100
AcDbEntity
  8
0
100
AcDbEllipse
 10
436.0198034214678
 20
234.6511529750189
 30
0.0
 11
-0.930280422378081
 21
-3.596488474308293
 31
0.0
210
0.0
220
0.0
230
1.0
 40
0.4377124451218317
 41
7.591373539602846
 42
7.592733789180028
  0
ELLIPSE
  5
14C
330
2
100
AcDbEntity
  8
0
100
AcDbEllipse
 10
436.0198034214678
 20
234.6511529750189
 30
0.0
 11
-0.930280422378081
 21
-3.596488474308293
 31
0.0
210
0.0
220
0.0
230
1.0
 40
0.4377124451218317
 41
8.163095797098671
 42
8.163252719515911
  0
ELLIPSE
  5
14D
330
2
100
AcDbEntity
  8
0
100
AcDbEllipse
 10
435.5812470978119
 20
234.7750583424104
 30
0.0
 11
-0.930280422378081
 21
-3.596488474308293
 31
0.0
210
0.0
220
0.0
230
1.0
 40
0.4377124451218317
 41
3.722654796734591
 42
6.277738922631801
  0
ELLIPSE
  5
14E
330
2
100
AcDbEntity
  8
0
100
AcDbEllipse
 10
435.7516678898437
 20
226.2085772935581
 30
0.0
 11
-0.5171116017478496
 21
0.0
 31
0.0
210
0.0
220
0.0
230
1.0
 40
0.4913462840122514
 41
0.0
 42
6.283185307179586
  0
ARC
  5
14F
330
2
100
AcDbEntity
  8
0
100
AcDbCircle
 10
425.8849729316064
 20
223.8354687865939
 30
0.0
 40
1.97305616829799
100
AcDbArc
 50
182.763222425599
 51
252.8590425800974
  0
LINE
  5
150
330
2
100
AcDbEntity
  8
0
100
AcDbLine
 10
423.8397000896831
 20
247.5127201831052
 30
0.0
 11
423.8397000896831
 21
223.3179184460629
 31
0.0
  0
LINE
  5
151
330
2
100
AcDbEntity
  8
0
100
AcDbLine
 10
423.2157033992437
 20
247.6928525116526
 30
0.0
 11
423.2394521153845
 21
247.8053936837146
 31
0.0
  0
LINE
  5
152
330
2
100
AcDbEntity
  8
0
100
AcDbLine
 10
423.2394521153845
 20
247.8053936837146
 30
0.0
 11
423.3070855152871
 21
247.8870894097461
 31
0.0
  0
LINE
  5
153
330
2
100
AcDbEntity
  8
0
100
AcDbLine
 10
423.3070855152871
 20
247.8870894097461
 30
0.0
 11
423.4083044950966
 21
247.9255025800144
 31
0.0
  0
LINE
  5
154
330
2
100
AcDbEntity
  8
0
100
AcDbLine
 10
423.4083044950966
 20
247.9255025800144
 30
0.0
 11
423.5277013309083
 21
247.9147852254663
 31
0.0
  0
LINE
  5
155
330
2
100
AcDbEntity
  8
0
100
AcDbLine
 10
423.5277013309083
 20
247.9147852254663
 30
0.0
 11
423.6470981669764
 21
247.8565687846712
 31
0.0
  0
LINE
  5
156
330
2
100
AcDbEntity
  8
0
100
AcDbLine
 10
423.6470981669764
 20
247.8565687846712
 30
0.0
 11
423.7483179736404
 21
247.7597165702193
 31
0.0
  0
LINE
  5
157
330
2
100
AcDbEntity
  8
0
100
AcDbLine
 10
423.7483179736404
 20
247.7597165702193
 30
0.0
 11
423.8159505466877
 21
247.6389729215469
 31
0.0
  0
LINE
  5
158
330
2
100
AcDbEntity
  8
0
100
AcDbLine
 10
423.8159505466877
 20
247.6389729215469
 30
0.0
 11
423.8397000896831
 21
247.5127201831052
 31
0.0
  0
LINE
  5
159
330
2
100
AcDbEntity
  8
0
100
AcDbLine
 10
423.2157033992437
 20
223.4980507748666
 30
0.0
 11
423.2157033992437
 21
247.6928525116526
 31
0.0
  0
LINE
  5
15A
330
2
100
AcDbEntity
  8
0
100
AcDbLine
 10
423.8397000896831
 20
223.3179184460629
 30
0.0
 11
423.8159505466877
 21
223.2053775126253
 31
0.0
  0
LINE
  5
15B
330
2
100
AcDbEntity
  8
0
100
AcDbLine
 10
423.8159505466877
 20
223.2053775126253
 30
0.0
 11
423.7483179736404
 21
223.1236815482262
 31
0.0
  0
LINE
  5
15C
330
2
100
AcDbEntity
  8
0
100
AcDbLine
 10
423.7483179736404
 20
223.1236815482262
 30
0.0
 11
423.6470981669764
 21
223.085268616582
 31
0.0
  0
LINE
  5
15D
330
2
100
AcDbEntity
  8
0
100
AcDbLine
 10
423.6470981669764
 20
223.085268616582
 30
0.0
 11
423.5277013309083
 21
223.09598597113
 31
0.0
  0
LINE
  5
15E
330
2
100
AcDbEntity
  8
0
100
AcDbLine
 10
423.5277013309083
 20
223.09598597113
 30
0.0
 11
423.4083044950966
 21
223.154202411925
 31
0.0
  0
LINE
  5
15F
330
2
100
AcDbEntity
  8
0
100
AcDbLine
 10
423.4083044950966
 20
223.154202411925
 30
0.0
 11
423.3070855152871
 21
223.2510543874961
 31
0.0
  0
LINE
  5
160
330
2
100
AcDbEntity
  8
0
100
AcDbLine
 10
423.3070855152871
 20
223.2510543874961
 30
0.0
 11
423.2394521153845
 21
223.3717982750492
 31
0.0
  0
LINE
  5
161
330
2
100
AcDbEntity
  8
0
100
AcDbLine
 10
423.2394521153845
 20
223.3717982750492
 30
0.0
 11
423.2157033992437
 21
223.4980507748666
 31
0.0
  0
ARC
  5
162
330
2
100
AcDbEntity
  8
0
100
AcDbCircle
 10
430.0291554644343
 20
244.5924319968879
 30
0.0
 40
1.297076998596188
100
AcDbArc
 50
2.830928776799636
 51
72.79129716839237
  0
LINE
  5
163
330
2
100
AcDbEntity
  8
0
100
AcDbLine
 10
424.1738534887988
 20
223.6305568245313
 30
0.0
 11
424.1689025491642
 21
223.7408175063924
 31
0.0
  0
LINE
  5
164
330
2
100
AcDbEntity
  8
0
100
AcDbLine
 10
425.085603599637
 20
247.3693012546182
 30
0.0
 11
430.4128997761071
 21
245.8314433138421
 31
0.0
  0
LINE
  5
165
330
2
100
AcDbEntity
  8
0
100
AcDbLine
 10
431.3246495391342
 20
244.6564932384931
 30
0.0
 11
431.3246495391342
 21
221.3495743009074
 31
0.0
  0
ARC
  5
166
330
2
100
AcDbEntity
  8
0
100
AcDbCircle
 10
424.8418488259583
 20
246.7468214505351
 30
0.0
 40
0.6685039239431458
100
AcDbArc
 50
68.61535273919319
 51
182.2350630238958
  0
LINE
  5
167
330
2
100
AcDbEntity
  8
0
100
AcDbLine
 10
424.1738534749577
 20
245.943853011872
 30
0.0
 11
424.1738534749577
 21
246.7207502547791
 31
0.0
  0
LINE
  5
168
330
2
100
AcDbEntity
  8
0
100
AcDbLine
 10
424.1738534749577
 20
223.4138304903384
 30
0.0
 11
424.1738534749577
 21
245.943853011872
 31
0.0
  0
ARC
  5
169
330
2
100
AcDbEntity
  8
0
100
AcDbCircle
 10
430.6566539561739
 20
221.3235034670604
 30
0.0
 40
0.6685041416011432
100
AcDbArc
 50
248.6154146923929
 51
2.235031262597407
  0
LINE
  5
16A
330
2
100
AcDbEntity
  8
0
100
AcDbLine
 10
430.4128997761071
 20
220.7010231964941
 30
0.0
 11
425.085603599637
 21
222.2388811372701
 31
0.0
  0
ARC
  5
16B
330
2
100
AcDbEntity
  8
0
100
AcDbCircle
 10
425.4693470424212
 20
223.477892218163
 30
0.0
 40
1.297076516009558
100
AcDbArc
 50
182.8309513434963
 51
252.7913307512936
  0
ARC
  5
16C
330
2
100
AcDbEntity
  8
0
100
AcDbCircle
 10
430.0492583178754
 20
244.612207699262
 30
0.0
 40
1.973053919534891
100
AcDbArc
 50
2.763176137199782
 51
72.85906323360087
  0
LINE
  5
16D
330
2
100
AcDbEntity
  8
0
100
AcDbLine
 10
430.6307629771117
 20
246.4976238605582
 30
0.0
 11
425.3034668006415
 21
248.0354818013343
 31
0.0
  0
ARC
  5
16E
330
2
100
AcDbEntity
  8
0
100
AcDbCircle
 10
424.933823904112
 20
247.0845027209743
 30
0.0
 40
1.020292645378331
100
AcDbArc
 50
68.7590357596972
 51
182.0913482619
  0
LINE
  5
16F
330
2
100
AcDbEntity
  8
0
100
AcDbLine
 10
423.9142108596865
 20
247.0472693768077
 30
0.0
 11
423.9142108596865
 21
223.7403504394784
 31
0.0
  0
ARC
  5
170
330
2
100
AcDbEntity
  8
0
100
AcDbCircle
 10
425.8849717969241
 20
223.8354679038635
 30
0.0
 40
1.97305499258419
100
AcDbArc
 50
182.7631984015016
 51
252.8590625988027
  0
LINE
  5
171
330
2
100
AcDbEntity
  8
0
100
AcDbLine
 10
425.3034668006415
 20
221.9500507237361
 30
0.0
 11
430.6307629771117
 21
220.4121927829603
 31
0.0
  0
ARC
  5
172
330
2
100
AcDbEntity
  8
0
100
AcDbCircle
 10
431.0004054763616
 20
221.3631717092782
 30
0.0
 40
1.020292358004776
100
AcDbArc
 50
248.7590534155914
 51
2.091368819801985
  0
LINE
  5
173
330
2
100
AcDbEntity
  8
0
100
AcDbLine
 10
432.0200182201348
 20
221.4004054086899
 30
0.0
 11
432.0200182201348
 21
244.7073243460191
 31
0.0
  0
ARC
  5
174
330
2
100
AcDbEntity
  8
0
100
AcDbCircle
 10
417.0061519068267
 20
226.39856364095
 30
0.0
 40
1.97305616829799
100
AcDbArc
 50
182.763222425599
 51
252.8590425800974
  0
LINE
  5
175
330
2
100
AcDbEntity
  8
0
100
AcDbLine
 10
414.9608790649034
 20
250.0758150374613
 30
0.0
 11
414.9608790649034
 21
225.881013300419
 31
0.0
  0
LINE
  5
176
330
2
100
AcDbEntity
  8
0
100
AcDbLine
 10
414.3368823744641
 20
250.2559473660087
 30
0.0
 11
414.3606310906049
 21
250.3684885380707
 31
0.0
  0
LINE
  5
177
330
2
100
AcDbEntity
  8
0
100
AcDbLine
 10
414.3606310906049
 20
250.3684885380707
 30
0.0
 11
414.4282644905075
 21
250.4501842641022
 31
0.0
  0
LINE
  5
178
330
2
100
AcDbEntity
  8
0
100
AcDbLine
 10
414.4282644905075
 20
250.4501842641022
 30
0.0
 11
414.529483470317
 21
250.4885974343705
 31
0.0
  0
LINE
  5
179
330
2
100
AcDbEntity
  8
0
100
AcDbLine
 10
414.529483470317
 20
250.4885974343705
 30
0.0
 11
414.6488803061287
 21
250.4778800798225
 31
0.0
  0
LINE
  5
17A
330
2
100
AcDbEntity
  8
0
100
AcDbLine
 10
414.6488803061287
 20
250.4778800798225
 30
0.0
 11
414.7682771421968
 21
250.4196636390273
 31
0.0
  0
LINE
  5
17B
330
2
100
AcDbEntity
  8
0
100
AcDbLine
 10
414.7682771421968
 20
250.4196636390273
 30
0.0
 11
414.8694969488608
 21
250.3228114245754
 31
0.0
  0
LINE
  5
17C
330
2
100
AcDbEntity
  8
0
100
AcDbLine
 10
414.8694969488608
 20
250.3228114245754
 30
0.0
 11
414.9371295219081
 21
250.2020677759031
 31
0.0
  0
LINE
  5
17D
330
2
100
AcDbEntity
  8
0
100
AcDbLine
 10
414.9371295219081
 20
250.2020677759031
 30
0.0
 11
414.9608790649034
 21
250.0758150374613
 31
0.0
  0
LINE
  5
17E
330
2
100
AcDbEntity
  8
0
100
AcDbLine
 10
414.3368823744641
 20
226.0611456292227
 30
0.0
 11
414.3368823744641
 21
250.2559473660087
 31
0.0
  0
LINE
  5
17F
330
2
100
AcDbEntity
  8
0
100
AcDbLine
 10
414.9608790649034
 20
225.881013300419
 30
0.0
 11
414.9371295219081
 21
225.7684723669814
 31
0.0
  0
LINE
  5
180
330
2
100
AcDbEntity
  8
0
100
AcDbLine
 10
414.9371295219081
 20
225.7684723669814
 30
0.0
 11
414.8694969488608
 21
225.6867764025824
 31
0.0
  0
LINE
  5
181
330
2
100
AcDbEntity
  8
0
100
AcDbLine
 10
414.8694969488608
 20
225.6867764025824
 30
0.0
 11
414.7682771421968
 21
225.6483634709381
 31
0.0
  0
LINE
  5
182
330
2
100
AcDbEntity
  8
0
100
AcDbLine
 10
414.7682771421968
 20
225.6483634709381
 30
0.0
 11
414.6488803061287
 21
225.6590808254861
 31
0.0
  0
LINE
  5
183
330
2
100
AcDbEntity
  8
0
100
AcDbLine
 10
414.6488803061287
 20
225.6590808254861
 30
0.0
 11
414.529483470317
 21
225.7172972662811
 31
0.0
  0
LINE
  5
184
330
2
100
AcDbEntity
  8
0
100
AcDbLine
 10
414.529483470317
 20
225.7172972662811
 30
0.0
 11
414.4282644905075
 21
225.8141492418522
 31
0.0
  0
LINE
  5
185
330
2
100
AcDbEntity
  8
0
100
AcDbLine
 10
414.4282644905075
 20
225.8141492418522
 30
0.0
 11
414.3606310906049
 21
225.9348931294053
 31
0.0
  0
LINE
  5
186
330
2
100
AcDbEntity
  8
0
100
AcDbLine
 10
414.3606310906049
 20
225.9348931294053
 30
0.0
 11
414.3368823744641
 21
226.0611456292227
 31
0.0
  0
ARC
  5
187
330
2
100
AcDbEntity
  8
0
100
AcDbCircle
 10
421.1503344396547
 20
247.155526851244
 30
0.0
 40
1.297076998596188
100
AcDbArc
 50
2.830928776799636
 51
72.79129716839237
  0
LINE
  5
188
330
2
100
AcDbEntity
  8
0
100
AcDbLine
 10
415.2950324640193
 20
226.1936516788875
 30
0.0
 11
415.2900815243846
 21
226.3039123607485
 31
0.0
  0
LINE
  5
189
330
2
100
AcDbEntity
  8
0
100
AcDbLine
 10
416.2067825748575
 20
249.9323961089743
 30
0.0
 11
421.5340787513274
 21
248.3945381681982
 31
0.0
  0
LINE
  5
18A
330
2
100
AcDbEntity
  8
0
100
AcDbLine
 10
422.4458285143545
 20
247.2195880928492
 30
0.0
 11
422.4458285143545
 21
223.9126691552635
 31
0.0
  0
ARC
  5
18B
330
2
100
AcDbEntity
  8
0
100
AcDbCircle
 10
415.9630278011786
 20
249.3099163048913
 30
0.0
 40
0.6685039239431458
100
AcDbArc
 50
68.61535273919319
 51
182.2350630238958
  0
LINE
  5
18C
330
2
100
AcDbEntity
  8
0
100
AcDbLine
 10
415.2950324501782
 20
248.5069478662282
 30
0.0
 11
415.2950324501782
 21
249.2838451091353
 31
0.0
  0
LINE
  5
18D
330
2
100
AcDbEntity
  8
0
100
AcDbLine
 10
415.2950324501782
 20
225.9769253446946
 30
0.0
 11
415.2950324501782
 21
248.5069478662282
 31
0.0
  0
ARC
  5
18E
330
2
100
AcDbEntity
  8
0
100
AcDbCircle
 10
421.7778329313943
 20
223.8865983214165
 30
0.0
 40
0.6685041416011432
100
AcDbArc
 50
248.6154146923929
 51
2.235031262597407
  0
LINE
  5
18F
330
2
100
AcDbEntity
  8
0
100
AcDbLine
 10
421.5340787513274
 20
223.2641180508502
 30
0.0
 11
416.2067825748575
 21
224.8019759916262
 31
0.0
  0
ARC
  5
190
330
2
100
AcDbEntity
  8
0
100
AcDbCircle
 10
416.5905260176416
 20
226.0409870725192
 30
0.0
 40
1.297076516009558
100
AcDbArc
 50
182.8309513434963
 51
252.7913307512936
  0
ARC
  5
191
330
2
100
AcDbEntity
  8
0
100
AcDbCircle
 10
421.1704372930958
 20
247.1753025536181
 30
0.0
 40
1.973053919534891
100
AcDbArc
 50
2.763176137199782
 51
72.85906323360087
  0
LINE
  5
192
330
2
100
AcDbEntity
  8
0
100
AcDbLine
 10
421.7519419523321
 20
249.0607187149143
 30
0.0
 11
416.4246457758619
 21
250.5985766556904
 31
0.0
  0
ARC
  5
193
330
2
100
AcDbEntity
  8
0
100
AcDbCircle
 10
416.0550028793323
 20
249.6475975753304
 30
0.0
 40
1.020292645378331
100
AcDbArc
 50
68.7590357596972
 51
182.0913482619
  0
LINE
  5
194
330
2
100
AcDbEntity
  8
0
100
AcDbLine
 10
415.0353898349069
 20
249.6103642311638
 30
0.0
 11
415.0353898349069
 21
226.3034452938345
 31
0.0
  0
ARC
  5
195
330
2
100
AcDbEntity
  8
0
100
AcDbCircle
 10
417.0061507721446
 20
226.3985627582196
 30
0.0
 40
1.97305499258419
100
AcDbArc
 50
182.7631984015016
 51
252.8590625988027
  0
LINE
  5
196
330
2
100
AcDbEntity
  8
0
100
AcDbLine
 10
416.4246457758619
 20
224.5131455780922
 30
0.0
 11
421.7519419523321
 21
222.9752876373164
 31
0.0
  0
ARC
  5
197
330
2
100
AcDbEntity
  8
0
100
AcDbCircle
 10
422.1215844515819
 20
223.9262665636343
 30
0.0
 40
1.020292358004776
100
AcDbArc
 50
248.7590534155914
 51
2.091368819801985
  0
LINE
  5
198
330
2
100
AcDbEntity
  8
0
100
AcDbLine
 10
423.1411971953552
 20
223.963500263046
 30
0.0
 11
423.1411971953552
 21
247.2704192003752
 31
0.0
  0
ARC
  5
199
330
2
100
AcDbEntity
  8
0
100
AcDbCircle
 10
408.1273311921816
 20
228.9616584058541
 30
0.0
 40
1.97305616829799
100
AcDbArc
 50
182.763222425599
 51
252.8590425800974
  0
LINE
  5
19A
330
2
100
AcDbEntity
  8
0
100
AcDbLine
 10
406.0820583502583
 20
252.6389098023654
 30
0.0
 11
406.0820583502583
 21
228.4441080653231
 31
0.0
  0
LINE
  5
19B
330
2
100
AcDbEntity
  8
0
100
AcDbLine
 10
405.4580616598189
 20
252.8190421309128
 30
0.0
 11
405.4818103759599
 21
252.9315833029748
 31
0.0
  0
LINE
  5
19C
330
2
100
AcDbEntity
  8
0
100
AcDbLine
 10
405.4818103759599
 20
252.9315833029748
 30
0.0
 11
405.5494437758624
 21
253.0132790290062
 31
0.0
  0
LINE
  5
19D
330
2
100
AcDbEntity
  8
0
100
AcDbLine
 10
405.5494437758624
 20
253.0132790290062
 30
0.0
 11
405.650662755672
 21
253.0516921992746
 31
0.0
  0
LINE
  5
19E
330
2
100
AcDbEntity
  8
0
100
AcDbLine
 10
405.650662755672
 20
253.0516921992746
 30
0.0
 11
405.7700595914836
 21
253.0409748447265
 31
0.0
  0
LINE
  5
19F
330
2
100
AcDbEntity
  8
0
100
AcDbLine
 10
405.7700595914836
 20
253.0409748447265
 30
0.0
 11
405.8894564275517
 21
252.9827584039314
 31
0.0
  0
LINE
  5
1A0
330
2
100
AcDbEntity
  8
0
100
AcDbLine
 10
405.8894564275517
 20
252.9827584039314
 30
0.0
 11
405.9906762342157
 21
252.8859061894795
 31
0.0
  0
LINE
  5
1A1
330
2
100
AcDbEntity
  8
0
100
AcDbLine
 10
405.9906762342157
 20
252.8859061894795
 30
0.0
 11
406.0583088072631
 21
252.7651625408071
 31
0.0
  0
LINE
  5
1A2
330
2
100
AcDbEntity
  8
0
100
AcDbLine
 10
406.0583088072631
 20
252.7651625408071
 30
0.0
 11
406.0820583502583
 21
252.6389098023654
 31
0.0
  0
LINE
  5
1A3
330
2
100
AcDbEntity
  8
0
100
AcDbLine
 10
405.4580616598189
 20
228.6242403941268
 30
0.0
 11
405.4580616598189
 21
252.8190421309128
 31
0.0
  0
LINE
  5
1A4
330
2
100
AcDbEntity
  8
0
100
AcDbLine
 10
406.0820583502583
 20
228.4441080653231
 30
0.0
 11
406.0583088072631
 21
228.3315671318855
 31
0.0
  0
LINE
  5
1A5
330
2
100
AcDbEntity
  8
0
100
AcDbLine
 10
406.0583088072631
 20
228.3315671318855
 30
0.0
 11
405.9906762342157
 21
228.2498711674864
 31
0.0
  0
LINE
  5
1A6
330
2
100
AcDbEntity
  8
0
100
AcDbLine
 10
405.9906762342157
 20
228.2498711674864
 30
0.0
 11
405.8894564275517
 21
228.2114582358422
 31
0.0
  0
LINE
  5
1A7
330
2
100
AcDbEntity
  8
0
100
AcDbLine
 10
405.8894564275517
 20
228.2114582358422
 30
0.0
 11
405.7700595914836
 21
228.2221755903902
 31
0.0
  0
LINE
  5
1A8
330
2
100
AcDbEntity
  8
0
100
AcDbLine
 10
405.7700595914836
 20
228.2221755903902
 30
0.0
 11
405.650662755672
 21
228.2803920311852
 31
0.0
  0
LINE
  5
1A9
330
2
100
AcDbEntity
  8
0
100
AcDbLine
 10
405.650662755672
 20
228.2803920311852
 30
0.0
 11
405.5494437758624
 21
228.3772440067563
 31
0.0
  0
LINE
  5
1AA
330
2
100
AcDbEntity
  8
0
100
AcDbLine
 10
405.5494437758624
 20
228.3772440067563
 30
0.0
 11
405.4818103759599
 21
228.4979878943094
 31
0.0
  0
LINE
  5
1AB
330
2
100
AcDbEntity
  8
0
100
AcDbLine
 10
405.4818103759599
 20
228.4979878943094
 30
0.0
 11
405.4580616598189
 21
228.6242403941268
 31
0.0
  0
ARC
  5
1AC
330
2
100
AcDbEntity
  8
0
100
AcDbCircle
 10
412.2715137250096
 20
249.7186216161481
 30
0.0
 40
1.297076998596188
100
AcDbArc
 50
2.830928776799636
 51
72.79129716839237
  0
LINE
  5
1AD
330
2
100
AcDbEntity
  8
0
100
AcDbLine
 10
406.4162117493742
 20
228.7567464437915
 30
0.0
 11
406.4112608097394
 21
228.8670071256525
 31
0.0
  0
LINE
  5
1AE
330
2
100
AcDbEntity
  8
0
100
AcDbLine
 10
407.3279618602124
 20
252.4954908738784
 30
0.0
 11
412.6552580366824
 21
250.9576329331023
 31
0.0
  0
LINE
  5
1AF
330
2
100
AcDbEntity
  8
0
100
AcDbLine
 10
413.5670077997095
 20
249.7826828577533
 30
0.0
 11
413.5670077997095
 21
226.4757639201676
 31
0.0
  0
ARC
  5
1B0
330
2
100
AcDbEntity
  8
0
100
AcDbCircle
 10
407.0842070865335
 20
251.8730110697954
 30
0.0
 40
0.6685039239431458
100
AcDbArc
 50
68.61535273919319
 51
182.2350630238958
  0
LINE
  5
1B1
330
2
100
AcDbEntity
  8
0
100
AcDbLine
 10
406.416211735533
 20
251.0700426311322
 30
0.0
 11
406.416211735533
 21
251.8469398740393
 31
0.0
  0
LINE
  5
1B2
330
2
100
AcDbEntity
  8
0
100
AcDbLine
 10
406.416211735533
 20
228.5400201095987
 30
0.0
 11
406.416211735533
 21
251.0700426311322
 31
0.0
  0
ARC
  5
1B3
330
2
100
AcDbEntity
  8
0
100
AcDbCircle
 10
412.8990122167492
 20
226.4496930863206
 30
0.0
 40
0.6685041416011432
100
AcDbArc
 50
248.6154146923929
 51
2.235031262597407
  0
LINE
  5
1B4
330
2
100
AcDbEntity
  8
0
100
AcDbLine
 10
412.6552580366824
 20
225.8272128157543
 30
0.0
 11
407.3279618602124
 21
227.3650707565303
 31
0.0
  0
ARC
  5
1B5
330
2
100
AcDbEntity
  8
0
100
AcDbCircle
 10
407.7117053029965
 20
228.6040818374233
 30
0.0
 40
1.297076516009558
100
AcDbArc
 50
182.8309513434963
 51
252.7913307512936
  0
ARC
  5
1B6
330
2
100
AcDbEntity
  8
0
100
AcDbCircle
 10
412.2916165784507
 20
249.7383973185222
 30
0.0
 40
1.973053919534891
100
AcDbArc
 50
2.763176137199782
 51
72.85906323360087
  0
LINE
  5
1B7
330
2
100
AcDbEntity
  8
0
100
AcDbLine
 10
412.873121237687
 20
251.6238134798185
 30
0.0
 11
407.5458250612168
 21
253.1616714205945
 31
0.0
  0
ARC
  5
1B8
330
2
100
AcDbEntity
  8
0
100
AcDbCircle
 10
407.1761821646872
 20
252.2106923402345
 30
0.0
 40
1.020292645378331
100
AcDbArc
 50
68.7590357596972
 51
182.0913482619
  0
LINE
  5
1B9
330
2
100
AcDbEntity
  8
0
100
AcDbLine
 10
406.1565691202617
 20
252.1734589960679
 30
0.0
 11
406.1565691202617
 21
228.8665400587386
 31
0.0
  0
ARC
  5
1BA
330
2
100
AcDbEntity
  8
0
100
AcDbCircle
 10
408.1273300574994
 20
228.9616575231237
 30
0.0
 40
1.97305499258419
100
AcDbArc
 50
182.7631984015016
 51
252.8590625988027
  0
LINE
  5
1BB
330
2
100
AcDbEntity
  8
0
100
AcDbLine
 10
407.5458250612168
 20
227.0762403429963
 30
0.0
 11
412.873121237687
 21
225.5383824022205
 31
0.0
  0
ARC
  5
1BC
330
2
100
AcDbEntity
  8
0
100
AcDbCircle
 10
413.2427637369367
 20
226.4893613285384
 30
0.0
 40
1.020292358004776
100
AcDbArc
 50
248.7590534155914
 51
2.091368819801985
  0
LINE
  5
1BD
330
2
100
AcDbEntity
  8
0
100
AcDbLine
 10
414.26237648071
 20
226.5265950279501
 30
0.0
 11
414.26237648071
 21
249.8335139652793
 31
0.0
  0
ARC
  5
1BE
330
2
100
AcDbEntity
  8
0
100
AcDbCircle
 10
399.2485102731306
 20
231.5247535236754
 30
0.0
 40
1.97305616829799
100
AcDbArc
 50
182.763222425599
 51
252.8590425800974
  0
ARC
  5
1BF
330
2
100
AcDbEntity
  8
0
100
AcDbCircle
 10
403.3926928059585
 20
252.2817167339694
 30
0.0
 40
1.297076998596188
100
AcDbArc
 50
2.830928776799636
 51
72.79129716839237
  0
LINE
  5
1C0
330
2
100
AcDbEntity
  8
0
100
AcDbLine
 10
397.5373908303232
 20
231.3198415616128
 30
0.0
 11
397.5324398906884
 21
231.4301022434738
 31
0.0
  0
LINE
  5
1C1
330
2
100
AcDbEntity
  8
0
100
AcDbLine
 10
398.4491409411614
 20
255.0585859916996
 30
0.0
 11
403.7764371176312
 21
253.5207280509236
 31
0.0
  0
LINE
  5
1C2
330
2
100
AcDbEntity
  8
0
100
AcDbLine
 10
404.6881868806583
 20
252.3457779755745
 30
0.0
 11
404.6881868806583
 21
229.0388590379889
 31
0.0
  0
ARC
  5
1C3
330
2
100
AcDbEntity
  8
0
100
AcDbCircle
 10
398.2053861674825
 20
254.4361061876166
 30
0.0
 40
0.6685039239431458
100
AcDbArc
 50
68.61535273919319
 51
182.2350630238958
  0
LINE
  5
1C4
330
2
100
AcDbEntity
  8
0
100
AcDbLine
 10
397.537390816482
 20
253.6331377489535
 30
0.0
 11
397.537390816482
 21
254.4100349918606
 31
0.0
  0
LINE
  5
1C5
330
2
100
AcDbEntity
  8
0
100
AcDbLine
 10
397.537390816482
 20
231.1031152274199
 30
0.0
 11
397.537390816482
 21
253.6331377489535
 31
0.0
  0
ARC
  5
1C6
330
2
100
AcDbEntity
  8
0
100
AcDbCircle
 10
404.0201912976981
 20
229.0127882041418
 30
0.0
 40
0.6685041416011432
100
AcDbArc
 50
248.6154146923929
 51
2.235031262597407
  0
LINE
  5
1C7
330
2
100
AcDbEntity
  8
0
100
AcDbLine
 10
403.7764371176312
 20
228.3903079335756
 30
0.0
 11
398.4491409411614
 21
229.9281658743515
 31
0.0
  0
ARC
  5
1C8
330
2
100
AcDbEntity
  8
0
100
AcDbCircle
 10
398.8328843839454
 20
231.1671769552445
 30
0.0
 40
1.297076516009558
100
AcDbArc
 50
182.8309513434963
 51
252.7913307512936
  0
ARC
  5
1C9
330
2
100
AcDbEntity
  8
0
100
AcDbCircle
 10
403.4127956593996
 20
252.3014924363435
 30
0.0
 40
1.973053919534891
100
AcDbArc
 50
2.763176137199782
 51
72.85906323360087
  0
LINE
  5
1CA
330
2
100
AcDbEntity
  8
0
100
AcDbLine
 10
403.9943003186359
 20
254.1869085976397
 30
0.0
 11
398.6670041421658
 21
255.7247665384158
 31
0.0
  0
ARC
  5
1CB
330
2
100
AcDbEntity
  8
0
100
AcDbCircle
 10
398.2973612456362
 20
254.7737874580557
 30
0.0
 40
1.020292645378331
100
AcDbArc
 50
68.7590357596972
 51
182.0913482619
  0
LINE
  5
1CC
330
2
100
AcDbEntity
  8
0
100
AcDbLine
 10
397.2777482012108
 20
254.7365541138892
 30
0.0
 11
397.2777482012108
 21
231.4296351765598
 31
0.0
  0
ARC
  5
1CD
330
2
100
AcDbEntity
  8
0
100
AcDbCircle
 10
399.2485091384485
 20
231.524752640945
 30
0.0
 40
1.97305499258419
100
AcDbArc
 50
182.7631984015016
 51
252.8590625988027
  0
LINE
  5
1CE
330
2
100
AcDbEntity
  8
0
100
AcDbLine
 10
398.6670041421658
 20
229.6393354608176
 30
0.0
 11
403.9943003186359
 21
228.1014775200417
 31
0.0
  0
ARC
  5
1CF
330
2
100
AcDbEntity
  8
0
100
AcDbCircle
 10
404.3639428178857
 20
229.0524564463597
 30
0.0
 40
1.020292358004776
100
AcDbArc
 50
248.7590534155914
 51
2.091368819801985
  0
LINE
  5
1D0
330
2
100
AcDbEntity
  8
0
100
AcDbLine
 10
405.3835555616591
 20
229.0896901457713
 30
0.0
 11
405.3835555616591
 21
252.3966090831005
 31
0.0
  0
SPLINE
  5
1D1
330
2
100
AcDbEntity
  8
0
100
AcDbSpline
210
0.0
220
0.0
230
1.0
 70
     8
 71
     3
 72
    19
 73
    15
 74
     0
 42
0.000000001
 43
0.0000000001
 40
0.0
 40
0.0
 40
0.0
 40
0.0
 40
0.0505351770616866
 40
0.1005708611555903
 40
0.1501391878782621
 40
0.199274094173808
 40
0.2480113773811158
 40
0.3714970545984871
 40
0.4980855719807286
 40
0.5991678642666143
 40
0.6996020901173337
 40
0.7996776443191576
 40
0.8997025868406202
 40
1.0
 40
1.0
 40
1.0
 40
1.0
 10
431.369263685678
 20
219.5891746596534
 30
0.0
 10
431.3666327375289
 20
219.5854261674534
 30
0.0
 10
431.361396845693
 20
219.5779662333934
 30
0.0
 10
431.3525081537993
 20
219.5674340551079
 30
0.0
 10
431.342912907416
 20
219.5574800085832
 30
0.0
 10
431.3325375471245
 20
219.54816165015
 30
0.0
 10
431.3156972991251
 20
219.5350262809124
 30
0.0
 10
431.2898449191057
 20
219.5194941760156
 30
0.0
 10
431.2546555947429
 20
219.5052693550397
 30
0.0
 10
431.2182842521901
 20
219.4954513597195
 30
0.0
 10
431.1822066460146
 20
219.4893665379795
 30
0.0
 10
431.1437268098956
 20
219.4864952731557
 30
0.0
 10
431.1031141679844
 20
219.4866320746761
 30
0.0
 10
431.0743760609222
 20
219.4895496938717
 30
0.0
 10
431.0599874631662
 20
219.4910104876853
 30
0.0
  0
SPLINE
  5
1D2
330
2
100
AcDbEntity
  8
0
100
AcDbSpline
210
0.0
220
0.0
230
1.0
 70
     8
 71
     3
 72
     8
 73
     4
 74
     0
 42
0.000000001
 43
0.0000000001
 40
0.0
 40
0.0
 40
0.0
 40
0.0
 40
1.0
 40
1.0
 40
1.0
 40
1.0
 10
431.3998606487643
 20
219.6357685677804
 30
0.0
 10
431.3895183086568
 20
219.6199955902228
 30
0.0
 10
431.3793193693803
 20
219.6044719004364
 30
0.0
 10
431.3692636856783
 20
219.5891746596545
 30
0.0
  0
SPLINE
  5
1D3
330
2
100
AcDbEntity
  8
0
100
AcDbSpline
210
0.0
220
0.0
230
1.0
 70
     8
 71
     3
 72
    24
 73
    20
 74
     0
 42
0.000000001
 43
0.0000000001
 40
0.0
 40
0.0
 40
0.0
 40
0.0
 40
0.024277573610001
 40
0.0483727692570691
 40
0.0724066923157691
 40
0.0965053312731593
 40
0.1457031313052387
 40
0.195472418840771
 40
0.2475822090048136
 40
0.3013215774329706
 40
0.4197662907714136
 40
0.5548255591140241
 40
0.6266301508557836
 40
0.700389849650798
 40
0.7738624971332762
 40
0.8483187001407126
 40
0.8983959828757082
 40
0.9488982700427296
 40
1.0
 40
1.0
 40
1.0
 40
1.0
 10
431.0626315228591
 20
220.0297037848901
 30
0.0
 10
431.0688474954305
 20
220.0283581523673
 30
0.0
 10
431.0812327449506
 20
220.025676995981
 30
0.0
 10
431.1000908277345
 20
220.020821511513
 30
0.0
 10
431.1190171751765
 20
220.0153668462951
 30
0.0
 10
431.1445669422609
 20
220.0071337549865
 30
0.0
 10
431.1767298267981
 20
219.9951642374531
 30
0.0
 10
431.2149985741793
 20
219.9781197901504
 30
0.0
 10
431.2523031300854
 20
219.9584467752692
 30
0.0
 10
431.3017110577328
 20
219.9275478522586
 30
0.0
 10
431.3583989611212
 20
219.880964402845
 30
0.0
 10
431.3986106146729
 20
219.8294676007043
 30
0.0
 10
431.4200100236345
 20
219.7858779572671
 30
0.0
 10
431.4297099202176
 20
219.7526891566114
 30
0.0
 10
431.4327205785363
 20
219.7204411458051
 30
0.0
 10
431.429294108501
 20
219.6932785300277
 30
0.0
 10
431.4219003932683
 20
219.6708299517373
 30
0.0
 10
431.4127236283514
 20
219.6524818629294
 30
0.0
 10
431.4041651397333
 20
219.6413615353766
 30
0.0
 10
431.3998606487635
 20
219.6357685677782
 30
0.0
  0
SPLINE
  5
1D4
330
2
100
AcDbEntity
  8
0
100
AcDbSpline
210
0.0
220
0.0
230
1.0
 70
     8
 71
     3
 72
    12
 73
     8
 74
     0
 42
0.000000001
 43
0.0000000001
 40
0.0
 40
0.0
 40
0.0
 40
0.0
 40
0.162664142884185
 40
0.3267841493371361
 40
0.4921301595904229
 40
0.7435611602912794
 40
1.0
 40
1.0
 40
1.0
 40
1.0
 10
430.7302371431486
 20
220.1149378900836
 30
0.0
 10
430.7477132632462
 20
220.1099654668102
 30
0.0
 10
430.7828219168105
 20
220.0999761164793
 30
0.0
 10
430.8365100949109
 20
220.0853762739679
 30
0.0
 10
430.9005419532983
 20
220.0686132549778
 30
0.0
 10
430.9757141229801
 20
220.0497610337166
 30
0.0
 10
431.0334692252753
 20
220.0364333403048
 30
0.0
 10
431.0626315228591
 20
220.02970378489
 30
0.0
  0
SPLINE
  5
1D5
330
2
100
AcDbEntity
  8
0
100
AcDbSpline
210
0.0
220
0.0
230
1.0
 70
     8
 71
     3
 72
     8
 73
     4
 74
     0
 42
0.000000001
 43
0.0000000001
 40
0.0
 40
0.0
 40
0.0
 40
0.0
 40
1.0
 40
1.0
 40
1.0
 40
1.0
 10
431.0599874631653
 20
219.4910104876838
 30
0.0
 10
431.0077086000675
 20
219.4971216030907
 30
0.0
 10
430.9512541494185
 20
219.5088575898685
 30
0.0
 10
430.8920696402737
 20
219.5259183774246
 30
0.0
  0
SPLINE
  5
1D6
330
2
100
AcDbEntity
  8
0
100
AcDbSpline
210
0.0
220
0.0
230
1.0
 70
     8
 71
     3
 72
     8
 73
     4
 74
     0
 42
0.000000001
 43
0.0000000001
 40
0.0
 40
0.0
 40
0.0
 40
0.0
 40
1.0
 40
1.0
 40
1.0
 40
1.0
 10
398.9383705139126
 20
228.7637225839123
 30
0.0
 10
398.9998572972514
 20
228.7369923860219
 30
0.0
 10
399.0609882632164
 20
228.7147843868323
 30
0.0
 10
399.1201976965544
 20
228.697667787107
 30
0.0
  0
SPLINE
  5
1D7
330
2
100
AcDbEntity
  8
0
100
AcDbSpline
210
0.0
220
0.0
230
1.0
 70
     8
 71
     3
 72
    12
 73
     8
 74
     0
 42
0.000000001
 43
0.0000000001
 40
0.0
 40
0.0
 40
0.0
 40
0.0
 40
0.1640679824131984
 40
0.3281099996996862
 40
0.492132075864575
 40
0.7762585991390291
 40
1.0
 40
1.0
 40
1.0
 40
1.0
 10
398.7259940792912
 20
229.3537670641474
 30
0.0
 10
398.7084737043612
 20
229.3589006207647
 30
0.0
 10
398.6734357272463
 20
229.3691669215711
 30
0.0
 10
398.6217435539146
 20
229.3850085027499
 30
0.0
 10
398.5582897975422
 20
229.4051095720655
 30
0.0
 10
398.4898963573256
 20
229.4277689214118
 30
0.0
 10
398.4396833312647
 20
229.4456473050959
 30
0.0
 10
398.4175619641565
 20
229.4535236336068
 30
0.0
  0
SPLINE
  5
1D8
330
2
100
AcDbEntity
  8
0
100
AcDbSpline
210
0.0
220
0.0
230
1.0
 70
     8
 71
     3
 72
    25
 73
    21
 74
     0
 42
0.000000001
 43
0.0000000001
 40
0.0
 40
0.0
 40
0.0
 40
0.0
 40
0.0235737597006877
 40
0.0473997570532455
 40
0.0716987839538936
 40
0.0964751318441833
 40
0.1442437961298869
 40
0.195412333337609
 40
0.2458102324401843
 40
0.3012284987081159
 40
0.4196388607215643
 40
0.4951720926771828
 40
0.5752959455378433
 40
0.6379004014367155
 40
0.700460549418188
 40
0.7602003390405022
 40
0.8199848277463619
 40
0.8798564660317776
 40
0.9398508288248942
 40
1.0
 40
1.0
 40
1.0
 40
1.0
 10
398.4175619641551
 20
229.4535236336048
 30
0.0
 10
398.4123286884565
 20
229.45546740457
 30
0.0
 10
398.4018061413594
 20
229.4593757447199
 30
0.0
 10
398.3865389565291
 20
229.4643932628464
 30
0.0
 10
398.3715996319057
 20
229.4687404349692
 30
0.0
 10
398.3527164737304
 20
229.4733567145683
 30
0.0
 10
398.3305523799458
 20
229.4770760672437
 30
0.0
 10
398.3075691816339
 20
229.4778283805898
 30
0.0
 10
398.2878846677516
 20
229.4745588856613
 30
0.0
 10
398.2666624920468
 20
229.4641203185561
 30
0.0
 10
398.2552774234876
 20
229.4428409253069
 30
0.0
 10
398.2560832690897
 20
229.4106309260078
 30
0.0
 10
398.2640087175955
 20
229.3804676771768
 30
0.0
 10
398.2771458812175
 20
229.3490283962795
 30
0.0
 10
398.2930881159403
 20
229.3187319413205
 30
0.0
 10
398.3124114361595
 20
229.2874207534829
 30
0.0
 10
398.3346861206674
 20
229.255491033794
 30
0.0
 10
398.3600993592395
 20
229.2227729204865
 30
0.0
 10
398.3882712846811
 20
229.1895483883898
 30
0.0
 10
398.4093522457132
 20
229.1673665408088
 30
0.0
 10
398.4199063079401
 20
229.1562613260456
 30
0.0
  0
SPLINE
  5
1D9
330
2
100
AcDbEntity
  8
0
100
AcDbSpline
210
0.0
220
0.0
230
1.0
 70
     8
 71
     3
 72
     8
 73
     4
 74
     0
 42
0.000000001
 43
0.0000000001
 40
0.0
 40
0.0
 40
0.0
 40
0.0
 40
1.0
 40
1.0
 40
1.0
 40
1.0
 10
398.4199063079419
 20
229.156261326048
 30
0.0
 10
398.4435533064304
 20
229.1306764715965
 30
0.0
 10
398.4671817869491
 20
229.1053876468478
 30
0.0
 10
398.4907933008084
 20
229.0803715232784
 30
0.0
  0
SPLINE
  5
1DA
330
2
100
AcDbEntity
  8
0
100
AcDbSpline
210
0.0
220
0.0
230
1.0
 70
     8
 71
     3
 72
    17
 73
    13
 74
     0
 42
0.000000001
 43
0.0000000001
 40
0.0
 40
0.0
 40
0.0
 40
0.0
 40
0.0548483114358953
 40
0.1374792539378433
 40
0.2480004522058223
 40
0.3729705539238236
 40
0.4980973165827459
 40
0.6029955965319198
 40
0.7490828469807517
 40
0.8450938430744781
 40
0.9287472560154515
 40
1.0
 40
1.0
 40
1.0
 40
1.0
 10
398.4907933008071
 20
229.0803715232766
 30
0.0
 10
398.4972686197218
 20
229.0736103010342
 30
0.0
 10
398.513499238133
 20
229.056663055709
 30
0.0
 10
398.5443918255462
 20
229.0262769593361
 30
0.0
 10
398.586310477351
 20
228.9878231047429
 30
0.0
 10
398.636993672312
 20
228.9454289361891
 30
0.0
 10
398.6898800014675
 20
228.9055523845598
 30
0.0
 10
398.7482068375269
 20
228.8655041212139
 30
0.0
 10
398.8040680829883
 20
228.8310485401282
 30
0.0
 10
398.8579304063443
 20
228.8016428302306
 30
0.0
 10
398.9000304695044
 20
228.7806881015064
 30
0.0
 10
398.9262912485931
 20
228.7690676739222
 30
0.0
 10
398.9383705139132
 20
228.7637225839136
 30
0.0
  0
LINE
  5
1DB
330
2
100
AcDbEntity
  8
0
100
AcDbLine
 10
398.7259948117592
 20
229.3537664526284
 30
0.0
 11
430.7302364087037
 21
220.1149377019777
 31
0.0
  0
LINE
  5
1DC
330
2
100
AcDbEntity
  8
0
100
AcDbLine
 10
430.7383939656626
 20
219.9710732040094
 30
0.0
 11
430.6697482424807
 21
220.1323991315036
 31
0.0
  0
LINE
  5
1DD
330
2
100
AcDbEntity
  8
0
100
AcDbLine
 10
430.7981401664928
 20
219.8317473711841
 30
0.0
 11
430.7383939656626
 21
219.9710732040094
 31
0.0
  0
LINE
  5
1DE
330
2
100
AcDbEntity
  8
0
100
AcDbLine
 10
430.7981401664928
 20
219.8317473711841
 30
0.0
 11
430.4764333253284
 21
219.9246161369636
 31
0.0
  0
LINE
  5
1DF
330
2
100
AcDbEntity
  8
0
100
AcDbLine
 10
430.4764333253284
 20
219.9246161369636
 30
0.0
 11
430.4110103534931
 21
220.0655807120966
 31
0.0
  0
LINE
  5
1E0
330
2
100
AcDbEntity
  8
0
100
AcDbLine
 10
430.4110103534931
 20
220.0655807120966
 30
0.0
 11
430.3345624014123
 21
220.2291589492888
 31
0.0
  0
LINE
  5
1E1
330
2
100
AcDbEntity
  8
0
100
AcDbLine
 10
430.8920692297538
 20
219.5259183592695
 30
0.0
 11
399.120198111618
 21
228.697667530745
 31
0.0
  0
LINE
  5
1E2
330
2
100
AcDbEntity
  8
0
100
AcDbLine
 10
415.6575585166857
 20
224.2024568169174
 30
0.0
 11
415.9792643757732
 21
224.109588334661
 31
0.0
  0
LINE
  5
1E3
330
2
100
AcDbEntity
  8
0
100
AcDbLine
 10
415.9792643757732
 20
224.109588334661
 30
0.0
 11
416.1001524547128
 21
224.3382791565513
 31
0.0
  0
LINE
  5
1E4
330
2
100
AcDbEntity
  8
0
100
AcDbLine
 10
417.1560963442726
 20
223.7698662076056
 30
0.0
 11
417.4778023584519
 21
223.6769976807444
 31
0.0
  0
LINE
  5
1E5
330
2
100
AcDbEntity
  8
0
100
AcDbLine
 10
417.4778023584519
 20
223.6769976807444
 30
0.0
 11
417.5986904374232
 21
223.9056885026946
 31
0.0
  0
LINE
  5
1E6
330
2
100
AcDbEntity
  8
0
100
AcDbLine
 10
418.6546344305168
 20
223.3372755239524
 30
0.0
 11
418.976340444696
 21
223.2444069970911
 31
0.0
  0
LINE
  5
1E7
330
2
100
AcDbEntity
  8
0
100
AcDbLine
 10
418.976340444696
 20
223.2444069970911
 30
0.0
 11
419.0972282602224
 21
223.4730978950004
 31
0.0
  0
LINE
  5
1E8
330
2
100
AcDbEntity
  8
0
100
AcDbLine
 10
420.4193770128044
 20
222.8278382213912
 30
0.0
 11
420.097670998625
 21
222.9207067485088
 31
0.0
  0
LINE
  5
1E9
330
2
100
AcDbEntity
  8
0
100
AcDbLine
 10
420.4193770128044
 20
222.8278382213912
 30
0.0
 11
420.5402648285441
 21
223.0565291194128
 31
0.0
  0
LINE
  5
1EA
330
2
100
AcDbEntity
  8
0
100
AcDbLine
 10
421.917914685556
 20
222.395247657197
 30
0.0
 11
421.5962086713767
 21
222.4881161840583
 31
0.0
  0
LINE
  5
1EB
330
2
100
AcDbEntity
  8
0
100
AcDbLine
 10
421.917914685556
 20
222.395247657197
 30
0.0
 11
422.0388030277501
 21
222.6239384030593
 31
0.0
  0
LINE
  5
1EC
330
2
100
AcDbEntity
  8
0
100
AcDbLine
 10
423.4164523580512
 20
221.9626570927465
 30
0.0
 11
423.0947471708571
 21
222.0555253809459
 31
0.0
  0
LINE
  5
1ED
330
2
100
AcDbEntity
  8
0
100
AcDbLine
 10
423.4164523580512
 20
221.9626570927465
 30
0.0
 11
423.5373407003119
 21
222.1913478387349
 31
0.0
  0
LINE
  5
1EE
330
2
100
AcDbEntity
  8
0
100
AcDbLine
 10
424.5377833257292
 20
221.6389567247051
 30
0.0
 11
424.8594893399085
 21
221.5460881978438
 31
0.0
  0
LINE
  5
1EF
330
2
100
AcDbEntity
  8
0
100
AcDbLine
 10
424.8594893399085
 20
221.5460881978438
 30
0.0
 11
424.9803776821405
 21
221.7747789437781
 31
0.0
  0
LINE
  5
1F0
330
2
100
AcDbEntity
  8
0
100
AcDbLine
 10
426.0363209982243
 20
221.2063661605109
 30
0.0
 11
426.3580270124037
 21
221.1134976336497
 31
0.0
  0
LINE
  5
1F1
330
2
100
AcDbEntity
  8
0
100
AcDbLine
 10
426.3580270124037
 20
221.1134976336497
 30
0.0
 11
426.4789153550179
 21
221.3421883793625
 31
0.0
  0
LINE
  5
1F2
330
2
100
AcDbEntity
  8
0
100
AcDbLine
 10
427.5348594979611
 20
220.7737753573986
 30
0.0
 11
427.8565655121403
 21
220.6809068305373
 31
0.0
  0
LINE
  5
1F3
330
2
100
AcDbEntity
  8
0
100
AcDbLine
 10
427.8565655121403
 20
220.6809068305373
 30
0.0
 11
427.9774528008276
 21
220.9095978804958
 31
0.0
  0
LINE
  5
1F4
330
2
100
AcDbEntity
  8
0
100
AcDbLine
 10
429.2996016667562
 20
220.2643381742965
 30
0.0
 11
428.9778964798183
 21
220.3572064624959
 31
0.0
  0
LINE
  5
1F5
330
2
100
AcDbEntity
  8
0
100
AcDbLine
 10
429.2996016667562
 20
220.2643381742965
 30
0.0
 11
429.4204889557635
 21
220.4930292242424
 31
0.0
  0
LINE
  5
1F6
330
2
100
AcDbEntity
  8
0
100
AcDbLine
 10
430.7981401664928
 20
219.8317473711841
 30
0.0
 11
430.9207082692767
 21
220.06361813627
 31
0.0
  0
LINE
  5
1F7
330
2
100
AcDbEntity
  8
0
100
AcDbLine
 10
399.395646209384
 20
228.8968665409695
 30
0.0
 11
399.7173530505485
 21
228.8039977751901
 31
0.0
  0
LINE
  5
1F8
330
2
100
AcDbEntity
  8
0
100
AcDbLine
 10
399.7173530505485
 20
228.8039977751901
 30
0.0
 11
399.838240339296
 21
229.0326888252625
 31
0.0
  0
LINE
  5
1F9
330
2
100
AcDbEntity
  8
0
100
AcDbLine
 10
400.8941847088644
 20
228.4642757378572
 30
0.0
 11
401.2158898960585
 21
228.3714074496578
 31
0.0
  0
LINE
  5
1FA
330
2
100
AcDbEntity
  8
0
100
AcDbLine
 10
401.2158898960585
 20
228.3714074496578
 30
0.0
 11
401.33677929221
 21
228.6000978913323
 31
0.0
  0
LINE
  5
1FB
330
2
100
AcDbEntity
  8
0
100
AcDbLine
 10
402.6589268779158
 20
227.9548385547551
 30
0.0
 11
402.3372208637365
 21
228.0477070816164
 31
0.0
  0
LINE
  5
1FC
330
2
100
AcDbEntity
  8
0
100
AcDbLine
 10
402.6589268779158
 20
227.9548385547551
 30
0.0
 11
402.7798152202601
 21
228.1835293005751
 31
0.0
  0
LINE
  5
1FD
330
2
100
AcDbEntity
  8
0
100
AcDbLine
 10
404.1574653773961
 20
227.5222477516428
 30
0.0
 11
403.8357593632168
 21
227.615116278504
 31
0.0
  0
LINE
  5
1FE
330
2
100
AcDbEntity
  8
0
100
AcDbLine
 10
404.1574653773961
 20
227.5222477516428
 30
0.0
 11
404.278352666414
 21
227.750938801609
 31
0.0
  0
LINE
  5
1FF
330
2
100
AcDbEntity
  8
0
100
AcDbLine
 10
405.6560030501477
 20
227.0896571871922
 30
0.0
 11
405.3342970359684
 21
227.1825257143099
 31
0.0
  0
LINE
  5
200
330
2
100
AcDbEntity
  8
0
100
AcDbLine
 10
405.6560030501477
 20
227.0896571871922
 30
0.0
 11
405.7768913924102
 21
227.3183479331843
 31
0.0
  0
LINE
  5
201
330
2
100
AcDbEntity
  8
0
100
AcDbLine
 10
406.7773340178256
 20
226.7659568191508
 30
0.0
 11
407.0990392047635
 21
226.6730885309514
 31
0.0
  0
LINE
  5
202
330
2
100
AcDbEntity
  8
0
100
AcDbLine
 10
407.0990392047635
 20
226.6730885309514
 30
0.0
 11
407.219927547346
 21
226.9017792769309
 31
0.0
  0
LINE
  5
203
330
2
100
AcDbEntity
  8
0
100
AcDbLine
 10
408.2758716903209
 20
226.3333662549567
 30
0.0
 11
408.5975777045002
 21
226.2404977280954
 31
0.0
  0
LINE
  5
204
330
2
100
AcDbEntity
  8
0
100
AcDbLine
 10
408.5975777045002
 20
226.2404977280954
 30
0.0
 11
408.7184655200105
 21
226.4691886259742
 31
0.0
  0
LINE
  5
205
330
2
100
AcDbEntity
  8
0
100
AcDbLine
 10
409.7744093628161
 20
225.9007756905062
 30
0.0
 11
410.0961153769954
 21
225.8079071636449
 31
0.0
  0
LINE
  5
206
330
2
100
AcDbEntity
  8
0
100
AcDbLine
 10
410.0961153769954
 20
225.8079071636449
 30
0.0
 11
410.2170037195284
 21
226.0365979095308
 31
0.0
  0
LINE
  5
207
330
2
100
AcDbEntity
  8
0
100
AcDbLine
 10
411.5391519453601
 20
225.3913383882013
 30
0.0
 11
411.2174459311808
 21
225.4842069150626
 31
0.0
  0
LINE
  5
208
330
2
100
AcDbEntity
  8
0
100
AcDbLine
 10
411.5391519453601
 20
225.3913383882013
 30
0.0
 11
411.6600402876878
 21
225.6200291339899
 31
0.0
  0
LINE
  5
209
330
2
100
AcDbEntity
  8
0
100
AcDbLine
 10
413.0376900316042
 20
224.9587477042917
 30
0.0
 11
412.7159840174249
 21
225.0516162314093
 31
0.0
  0
LINE
  5
20A
330
2
100
AcDbEntity
  8
0
100
AcDbLine
 10
413.0376900316042
 20
224.9587477042917
 30
0.0
 11
413.158578110305
 21
225.1874385263482
 31
0.0
  0
LINE
  5
20B
330
2
100
AcDbEntity
  8
0
100
AcDbLine
 10
414.5362278591912
 20
224.5261570952363
 30
0.0
 11
414.2145220001037
 21
224.6190255774926
 31
0.0
  0
LINE
  5
20C
330
2
100
AcDbEntity
  8
0
100
AcDbLine
 10
414.5362278591912
 20
224.5261570952363
 30
0.0
 11
414.6571160038041
 21
224.7548478982448
 31
0.0
  0
LINE
  5
20D
330
2
100
AcDbEntity
  8
0
100
AcDbLine
 10
429.2398554659258
 20
220.4036640068654
 30
0.0
 11
429.1712097430951
 21
220.5649899345115
 31
0.0
  0
LINE
  5
20E
330
2
100
AcDbEntity
  8
0
100
AcDbLine
 10
429.2996016667562
 20
220.2643381742965
 30
0.0
 11
429.2398554659258
 21
220.4036640068654
 31
0.0
  0
LINE
  5
20F
330
2
100
AcDbEntity
  8
0
100
AcDbLine
 10
428.9778964798183
 20
220.3572064624959
 30
0.0
 11
428.9124718537565
 21
220.498171515209
 31
0.0
  0
LINE
  5
210
330
2
100
AcDbEntity
  8
0
100
AcDbLine
 10
428.9124718537565
 20
220.498171515209
 30
0.0
 11
428.8360248427761
 21
220.6617494807257
 31
0.0
  0
LINE
  5
211
330
2
100
AcDbEntity
  8
0
100
AcDbLine
 10
427.7968193113101
 20
220.8202326631063
 30
0.0
 11
427.7281735881855
 21
220.9815585907573
 31
0.0
  0
LINE
  5
212
330
2
100
AcDbEntity
  8
0
100
AcDbLine
 10
427.8565655121403
 20
220.6809068305373
 30
0.0
 11
427.7968193113101
 21
220.8202326631063
 31
0.0
  0
LINE
  5
213
330
2
100
AcDbEntity
  8
0
100
AcDbLine
 10
427.5348594979611
 20
220.7737753573986
 30
0.0
 11
427.4694356991406
 21
220.9147401714498
 31
0.0
  0
LINE
  5
214
330
2
100
AcDbEntity
  8
0
100
AcDbLine
 10
427.4694356991406
 20
220.9147401714498
 30
0.0
 11
427.3929886878662
 21
221.0783181369716
 31
0.0
  0
LINE
  5
215
330
2
100
AcDbEntity
  8
0
100
AcDbLine
 10
426.2982808115734
 20
221.2528234662186
 30
0.0
 11
426.2296350887828
 21
221.4141493937701
 31
0.0
  0
LINE
  5
216
330
2
100
AcDbEntity
  8
0
100
AcDbLine
 10
426.3580270124037
 20
221.1134976336497
 30
0.0
 11
426.2982808115734
 21
221.2528234662186
 31
0.0
  0
LINE
  5
217
330
2
100
AcDbEntity
  8
0
100
AcDbLine
 10
426.0363209982243
 20
221.2063661605109
 30
0.0
 11
425.9708980263891
 21
221.3473307359004
 31
0.0
  0
LINE
  5
218
330
2
100
AcDbEntity
  8
0
100
AcDbLine
 10
425.9708980263891
 20
221.3473307359004
 30
0.0
 11
425.8944500742339
 21
221.5109089729597
 31
0.0
  0
LINE
  5
219
330
2
100
AcDbEntity
  8
0
100
AcDbLine
 10
424.7997431390781
 20
221.6854140306691
 30
0.0
 11
424.7310974158841
 21
221.8467399581918
 31
0.0
  0
LINE
  5
21A
330
2
100
AcDbEntity
  8
0
100
AcDbLine
 10
424.8594893399085
 20
221.5460881978438
 30
0.0
 11
424.7997431390781
 21
221.6854140306691
 31
0.0
  0
LINE
  5
21B
330
2
100
AcDbEntity
  8
0
100
AcDbLine
 10
424.5377833257292
 20
221.6389567247051
 30
0.0
 11
424.472360353894
 21
221.7799213000945
 31
0.0
  0
LINE
  5
21C
330
2
100
AcDbEntity
  8
0
100
AcDbLine
 10
424.472360353894
 20
221.7799213000945
 30
0.0
 11
424.3959124018362
 21
221.9434995372367
 31
0.0
  0
LINE
  5
21D
330
2
100
AcDbEntity
  8
0
100
AcDbLine
 10
423.3567069842059
 20
222.1019826869099
 30
0.0
 11
423.2880603202412
 21
222.263308886004
 31
0.0
  0
LINE
  5
21E
330
2
100
AcDbEntity
  8
0
100
AcDbLine
 10
423.4164523580512
 20
221.9626570927465
 30
0.0
 11
423.3567069842059
 21
222.1019826869099
 31
0.0
  0
LINE
  5
21F
330
2
100
AcDbEntity
  8
0
100
AcDbLine
 10
423.0947471708571
 20
222.0555253809459
 30
0.0
 11
423.0293233720366
 21
222.1964901949972
 31
0.0
  0
LINE
  5
220
330
2
100
AcDbEntity
  8
0
100
AcDbLine
 10
423.0952732609215
 20
222.0553735118258
 30
0.0
 11
422.9528763608645
 21
222.3600681605916
 31
0.0
  0
LINE
  5
221
330
2
100
AcDbEntity
  8
0
100
AcDbLine
 10
421.8581688982182
 20
222.5345733705632
 30
0.0
 11
421.7895227046319
 21
222.6958994338876
 31
0.0
  0
LINE
  5
222
330
2
100
AcDbEntity
  8
0
100
AcDbLine
 10
421.917914685556
 20
222.395247657197
 30
0.0
 11
421.8581688982182
 21
222.5345733705632
 31
0.0
  0
LINE
  5
223
330
2
100
AcDbEntity
  8
0
100
AcDbLine
 10
421.5962086713767
 20
222.4881161840583
 30
0.0
 11
421.5307856995414
 21
222.6290807594477
 31
0.0
  0
LINE
  5
224
330
2
100
AcDbEntity
  8
0
100
AcDbLine
 10
421.5307856995414
 20
222.6290807594477
 30
0.0
 11
421.4543382179094
 21
222.7926588607068
 31
0.0
  0
LINE
  5
225
330
2
100
AcDbEntity
  8
0
100
AcDbLine
 10
420.3596308119741
 20
222.9671640542164
 30
0.0
 11
420.2909846186762
 21
223.1284901175486
 31
0.0
  0
LINE
  5
226
330
2
100
AcDbEntity
  8
0
100
AcDbLine
 10
420.4193770128044
 20
222.8278382213912
 30
0.0
 11
420.3596308119741
 21
222.9671640542164
 31
0.0
  0
LINE
  5
227
330
2
100
AcDbEntity
  8
0
100
AcDbLine
 10
420.097670998625
 20
222.9207067485088
 30
0.0
 11
420.0322476132972
 21
223.0616714431009
 31
0.0
  0
LINE
  5
228
330
2
100
AcDbEntity
  8
0
100
AcDbLine
 10
420.0322476132972
 20
223.0616714431009
 30
0.0
 11
419.9558001316161
 21
223.2252495444652
 31
0.0
  0
LINE
  5
229
330
2
100
AcDbEntity
  8
0
100
AcDbLine
 10
418.9165942436093
 20
223.38373282966
 30
0.0
 11
418.8479485207638
 21
223.5450587573408
 31
0.0
  0
LINE
  5
22A
330
2
100
AcDbEntity
  8
0
100
AcDbLine
 10
418.976340444696
 20
223.2444069970911
 30
0.0
 11
418.9165942436093
 21
223.38373282966
 31
0.0
  0
LINE
  5
22B
330
2
100
AcDbEntity
  8
0
100
AcDbLine
 10
418.6546344305168
 20
223.3372755239524
 30
0.0
 11
418.5892114586814
 21
223.4782400993418
 31
0.0
  0
LINE
  5
22C
330
2
100
AcDbEntity
  8
0
100
AcDbLine
 10
418.5892114586814
 20
223.4782400993418
 30
0.0
 11
418.512763506505
 21
223.6418183364466
 31
0.0
  0
LINE
  5
22D
330
2
100
AcDbEntity
  8
0
100
AcDbLine
 10
417.4180563642397
 20
223.8163234538401
 30
0.0
 11
417.3494104059684
 21
223.9776494493271
 31
0.0
  0
LINE
  5
22E
330
2
100
AcDbEntity
  8
0
100
AcDbLine
 10
417.4778023584519
 20
223.6769976807444
 30
0.0
 11
417.4180563642397
 21
223.8163234538401
 31
0.0
  0
LINE
  5
22F
330
2
100
AcDbEntity
  8
0
100
AcDbLine
 10
417.1560963442726
 20
223.7698662076056
 30
0.0
 11
417.0906733724374
 21
223.910830782995
 31
0.0
  0
LINE
  5
230
330
2
100
AcDbEntity
  8
0
100
AcDbLine
 10
417.0906733724374
 20
223.910830782995
 30
0.0
 11
417.0142256557284
 21
224.0744089522172
 31
0.0
  0
LINE
  5
231
330
2
100
AcDbEntity
  8
0
100
AcDbLine
 10
415.9195183815611
 20
224.2489141077568
 30
0.0
 11
415.8508724233232
 21
224.4102401031648
 31
0.0
  0
LINE
  5
232
330
2
100
AcDbEntity
  8
0
100
AcDbLine
 10
415.9792643757732
 20
224.109588334661
 30
0.0
 11
415.9195183815611
 21
224.2489141077568
 31
0.0
  0
LINE
  5
233
330
2
100
AcDbEntity
  8
0
100
AcDbLine
 10
415.6575585166857
 20
224.2024568169174
 30
0.0
 11
415.5921353897586
 21
224.3434214369117
 31
0.0
  0
LINE
  5
234
330
2
100
AcDbEntity
  8
0
100
AcDbLine
 10
415.5921353897586
 20
224.3434214369117
 30
0.0
 11
415.5156876141236
 21
224.5069996230752
 31
0.0
  0
LINE
  5
235
330
2
100
AcDbEntity
  8
0
100
AcDbLine
 10
414.4764818134526
 20
224.6654828832003
 30
0.0
 11
414.4078359138007
 21
224.8268088617786
 31
0.0
  0
LINE
  5
236
330
2
100
AcDbEntity
  8
0
100
AcDbLine
 10
414.5362278591912
 20
224.5261570952363
 30
0.0
 11
414.4764818134526
 21
224.6654828832003
 31
0.0
  0
LINE
  5
237
330
2
100
AcDbEntity
  8
0
100
AcDbLine
 10
414.2145220001037
 20
224.6190255774926
 30
0.0
 11
414.149098821394
 21
224.7599902123552
 31
0.0
  0
LINE
  5
238
330
2
100
AcDbEntity
  8
0
100
AcDbLine
 10
414.149098821394
 20
224.7599902123552
 30
0.0
 11
414.0726511046377
 21
224.9235683816784
 31
0.0
  0
LINE
  5
239
330
2
100
AcDbEntity
  8
0
100
AcDbLine
 10
412.9779438305176
 20
225.098073537117
 30
0.0
 11
412.9092978722374
 21
225.2593995326246
 31
0.0
  0
LINE
  5
23A
330
2
100
AcDbEntity
  8
0
100
AcDbLine
 10
413.0376900316042
 20
224.9587477042917
 30
0.0
 11
412.9779438305176
 21
225.098073537117
 31
0.0
  0
LINE
  5
23B
330
2
100
AcDbEntity
  8
0
100
AcDbLine
 10
412.7159840174249
 20
225.0516162314093
 30
0.0
 11
412.6505608387152
 21
225.1925808662719
 31
0.0
  0
LINE
  5
23C
330
2
100
AcDbEntity
  8
0
100
AcDbLine
 10
412.6505608387152
 20
225.1925808662719
 30
0.0
 11
412.5741131219965
 21
225.356159035515
 31
0.0
  0
LINE
  5
23D
330
2
100
AcDbEntity
  8
0
100
AcDbLine
 10
411.4794057445298
 20
225.5306642207703
 30
0.0
 11
411.41076002141
 21
225.6919901484098
 31
0.0
  0
LINE
  5
23E
330
2
100
AcDbEntity
  8
0
100
AcDbLine
 10
411.5391519453601
 20
225.3913383882013
 30
0.0
 11
411.4794057445298
 21
225.5306642207703
 31
0.0
  0
LINE
  5
23F
330
2
100
AcDbEntity
  8
0
100
AcDbLine
 10
411.2174459311808
 20
225.4842069150626
 30
0.0
 11
411.1520229593455
 21
225.625171490452
 31
0.0
  0
LINE
  5
240
330
2
100
AcDbEntity
  8
0
100
AcDbLine
 10
411.1520229593455
 20
225.625171490452
 30
0.0
 11
411.0755750071941
 21
225.7887497275033
 31
0.0
  0
LINE
  5
241
330
2
100
AcDbEntity
  8
0
100
AcDbLine
 10
410.0363695896576
 20
225.9472328770111
 30
0.0
 11
409.967723396345
 21
226.108558940378
 31
0.0
  0
LINE
  5
242
330
2
100
AcDbEntity
  8
0
100
AcDbLine
 10
410.0961153769954
 20
225.8079071636449
 30
0.0
 11
410.0363695896576
 21
225.9472328770111
 31
0.0
  0
LINE
  5
243
330
2
100
AcDbEntity
  8
0
100
AcDbLine
 10
409.7744093628161
 20
225.9007756905062
 30
0.0
 11
409.7089863912372
 21
226.0417402658956
 31
0.0
  0
LINE
  5
244
330
2
100
AcDbEntity
  8
0
100
AcDbLine
 10
409.7089863912372
 20
226.0417402658956
 30
0.0
 11
409.6325389095796
 21
226.2053183672095
 31
0.0
  0
LINE
  5
245
330
2
100
AcDbEntity
  8
0
100
AcDbLine
 10
408.5378315036699
 20
226.3798235606643
 30
0.0
 11
408.47749486032
 21
226.5216212720496
 31
0.0
  0
LINE
  5
246
330
2
100
AcDbEntity
  8
0
100
AcDbLine
 10
408.5975777045002
 20
226.2404977280954
 30
0.0
 11
408.5378315036699
 21
226.3798235606643
 31
0.0
  0
LINE
  5
247
330
2
100
AcDbEntity
  8
0
100
AcDbLine
 10
408.2758716903209
 20
226.3333662549567
 30
0.0
 11
408.210448304993
 21
226.4743309495488
 31
0.0
  0
LINE
  5
248
330
2
100
AcDbEntity
  8
0
100
AcDbLine
 10
408.210448304993
 20
226.4743309495488
 30
0.0
 11
408.1340008232864
 21
226.6379090509679
 31
0.0
  0
LINE
  5
249
330
2
100
AcDbEntity
  8
0
100
AcDbLine
 10
407.0392938309184
 20
226.8124141251149
 30
0.0
 11
406.9706471672453
 21
226.9737403242087
 31
0.0
  0
LINE
  5
24A
330
2
100
AcDbEntity
  8
0
100
AcDbLine
 10
407.0990392047635
 20
226.6730885309514
 30
0.0
 11
407.0392938309184
 21
226.8124141251149
 31
0.0
  0
LINE
  5
24B
330
2
100
AcDbEntity
  8
0
100
AcDbLine
 10
406.7773340178256
 20
226.7659568191508
 30
0.0
 11
406.7119102190053
 21
226.9069216332021
 31
0.0
  0
LINE
  5
24C
330
2
100
AcDbEntity
  8
0
100
AcDbLine
 10
406.7119102190053
 20
226.9069216332021
 30
0.0
 11
406.6354632078279
 21
227.070499598808
 31
0.0
  0
LINE
  5
24D
330
2
100
AcDbEntity
  8
0
100
AcDbLine
 10
405.5962568493173
 20
227.2289830200175
 30
0.0
 11
405.5276111262324
 21
227.3903089475754
 31
0.0
  0
LINE
  5
24E
330
2
100
AcDbEntity
  8
0
100
AcDbLine
 10
405.6560030501477
 20
227.0896571871922
 30
0.0
 11
405.5962568493173
 21
227.2289830200175
 31
0.0
  0
LINE
  5
24F
330
2
100
AcDbEntity
  8
0
100
AcDbLine
 10
405.3342970359684
 20
227.1825257143099
 30
0.0
 11
405.2688740641331
 21
227.3234902894429
 31
0.0
  0
LINE
  5
250
330
2
100
AcDbEntity
  8
0
100
AcDbLine
 10
405.2688740641331
 20
227.3234902894429
 30
0.0
 11
405.1924261120395
 21
227.4870685266622
 31
0.0
  0
LINE
  5
251
330
2
100
AcDbEntity
  8
0
100
AcDbLine
 10
404.0977191765659
 20
227.6615735842117
 30
0.0
 11
404.0290734537236
 21
227.8228995118845
 31
0.0
  0
LINE
  5
252
330
2
100
AcDbEntity
  8
0
100
AcDbLine
 10
404.1574653773961
 20
227.5222477516428
 30
0.0
 11
404.0977191765659
 21
227.6615735842117
 31
0.0
  0
LINE
  5
253
330
2
100
AcDbEntity
  8
0
100
AcDbLine
 10
403.8357593632168
 20
227.615116278504
 30
0.0
 11
403.7703363916379
 21
227.7560808538934
 31
0.0
  0
LINE
  5
254
330
2
100
AcDbEntity
  8
0
100
AcDbLine
 10
403.7703363916379
 20
227.7560808538934
 30
0.0
 11
403.6938884394652
 21
227.9196590909902
 31
0.0
  0
LINE
  5
255
330
2
100
AcDbEntity
  8
0
100
AcDbLine
 10
402.5991815040707
 20
228.0941641486621
 30
0.0
 11
402.5305348400515
 21
228.2554903478841
 31
0.0
  0
LINE
  5
256
330
2
100
AcDbEntity
  8
0
100
AcDbLine
 10
402.6589268779158
 20
227.9548385547551
 30
0.0
 11
402.5991815040707
 21
228.0941641486621
 31
0.0
  0
LINE
  5
257
330
2
100
AcDbEntity
  8
0
100
AcDbLine
 10
402.3372208637365
 20
228.0477070816164
 30
0.0
 11
402.2717978919012
 21
228.1886716570058
 31
0.0
  0
LINE
  5
258
330
2
100
AcDbEntity
  8
0
100
AcDbLine
 10
402.2717978919012
 20
228.1886716570058
 30
0.0
 11
402.1953499397302
 21
228.3522498940989
 31
0.0
  0
LINE
  5
259
330
2
100
AcDbEntity
  8
0
100
AcDbLine
 10
401.1561453491983
 20
228.510732804903
 30
0.0
 11
401.0874986855145
 21
228.6720590040224
 31
0.0
  0
LINE
  5
25A
330
2
100
AcDbEntity
  8
0
100
AcDbLine
 10
401.2158898960585
 20
228.3714074496578
 30
0.0
 11
401.1561453491983
 21
228.510732804903
 31
0.0
  0
LINE
  5
25B
330
2
100
AcDbEntity
  8
0
100
AcDbLine
 10
400.8941847088644
 20
228.4642757378572
 30
0.0
 11
400.8287617370291
 21
228.6052403132466
 31
0.0
  0
LINE
  5
25C
330
2
100
AcDbEntity
  8
0
100
AcDbLine
 10
400.8287617370291
 20
228.6052403132466
 30
0.0
 11
400.7523137848612
 21
228.7688185503331
 31
0.0
  0
LINE
  5
25D
330
2
100
AcDbEntity
  8
0
100
AcDbLine
 10
399.6576068497181
 20
228.9433236080153
 30
0.0
 11
399.5889611265127
 21
229.1046495355649
 31
0.0
  0
LINE
  5
25E
330
2
100
AcDbEntity
  8
0
100
AcDbLine
 10
399.7173530505485
 20
228.8039977751901
 30
0.0
 11
399.6576068497181
 21
228.9433236080153
 31
0.0
  0
LINE
  5
25F
330
2
100
AcDbEntity
  8
0
100
AcDbLine
 10
399.395646209384
 20
228.8968665409695
 30
0.0
 11
399.3302232375487
 21
229.0378311161026
 31
0.0
  0
LINE
  5
260
330
2
100
AcDbEntity
  8
0
100
AcDbLine
 10
399.3302232375487
 20
229.0378311161026
 30
0.0
 11
399.2537752854417
 21
229.2014093533508
 31
0.0
  0
SPLINE
  5
261
330
2
100
AcDbEntity
  8
0
100
AcDbSpline
210
0.0
220
0.0
230
1.0
 70
     8
 71
     3
 72
    15
 73
    11
 74
     0
 42
0.000000001
 43
0.0000000001
 40
0.0
 40
0.0
 40
0.0
 40
0.0
 40
0.0963511121633696
 40
0.1952141889461218
 40
0.3009540179886477
 40
0.4195984467789815
 40
0.5552999397323392
 40
0.7004195668145591
 40
0.8498830823178719
 40
1.0
 40
1.0
 40
1.0
 40
1.0
 10
431.0677919051356
 20
246.8459992556009
 30
0.0
 10
431.0928869565708
 20
246.8425241336841
 30
0.0
 10
431.1437313111659
 20
246.8354832901355
 30
0.0
 10
431.2224541397133
 20
246.8557639670257
 30
0.0
 10
431.2974034134263
 20
246.9011374059927
 30
0.0
 10
431.3636012679736
 20
246.9751216560118
 30
0.0
 10
431.4129261279754
 20
247.0746813244793
 30
0.0
 10
431.4381760378943
 20
247.1919888389346
 30
0.0
 10
431.4383213358606
 20
247.3169643091522
 30
0.0
 10
431.4161378234904
 20
247.3971569309599
 30
0.0
 10
431.3744249729263
 20
247.5481221870771
 30
0.0
  0
SPLINE
  5
262
330
2
100
AcDbEntity
  8
0
100
AcDbSpline
210
0.0
220
0.0
230
1.0
 70
     8
 71
     3
 72
    10
 73
     6
 74
     0
 42
0.000000001
 43
0.0000000001
 40
0.0
 40
0.0
 40
0.0
 40
0.0
 40
0.0931001383357514
 40
0.4988362274197499
 40
1.0
 40
1.0
 40
1.0
 40
1.0
 10
431.3744249729263
 20
247.5481221870771
 30
0.0
 10
431.3694704452407
 20
247.5647819916944
 30
0.0
 10
431.3429237832965
 20
247.6540462423546
 30
0.0
 10
431.2577528559451
 20
247.8247675578126
 30
0.0
 10
431.1337012691417
 20
247.92767431331
 30
0.0
 10
431.0651488700675
 20
247.9845418242549
 30
0.0
  0
SPLINE
  5
263
330
2
100
AcDbEntity
  8
0
100
AcDbSpline
210
0.0
220
0.0
230
1.0
 70
     8
 71
     3
 72
     9
 73
     5
 74
     0
 42
0.000000001
 43
0.0000000001
 40
0.0
 40
0.0
 40
0.0
 40
0.0
 40
0.5599475811448509
 40
1.0
 40
1.0
 40
1.0
 40
1.0
 10
398.9435311029499
 20
257.2572541565808
 30
0.0
 10
398.9779580176787
 20
257.2567943734762
 30
0.0
 10
399.039440406188
 20
257.2559732553573
 30
0.0
 10
399.0991040049662
 20
257.2409884632005
 30
0.0
 10
399.1253591159262
 20
257.2343943691659
 30
0.0
  0
SPLINE
  5
264
330
2
100
AcDbEntity
  8
0
100
AcDbSpline
210
0.0
220
0.0
230
1.0
 70
     8
 71
     3
 72
     9
 73
     5
 74
     0
 42
0.000000001
 43
0.0000000001
 40
0.0
 40
0.0
 40
0.0
 40
0.0
 40
0.5599475811448509
 40
1.0
 40
1.0
 40
1.0
 40
1.0
 10
431.0651488700675
 20
247.9845418242549
 30
0.0
 10
431.0351715462417
 20
248.0026739433836
 30
0.0
 10
430.981635599601
 20
248.035055758645
 30
0.0
 10
430.9230228960299
 20
248.0542143939883
 30
0.0
 10
430.8972302340478
 20
248.0626451978131
 30
0.0
  0
SPLINE
  5
265
330
2
100
AcDbEntity
  8
0
100
AcDbSpline
210
0.0
220
0.0
230
1.0
 70
     8
 71
     3
 72
     9
 73
     5
 74
     0
 42
0.000000001
 43
0.0000000001
 40
0.0
 40
0.0
 40
0.0
 40
0.0
 40
0.5718308887998629
 40
1.0
 40
1.0
 40
1.0
 40
1.0
 10
430.4161713578399
 20
247.8657895324721
 30
0.0
 10
430.3909384763202
 20
247.7706457152024
 30
0.0
 10
430.3468120011441
 20
247.6042611789118
 30
0.0
 10
430.3017341595422
 20
247.438171123276
 30
0.0
 10
430.2824332201686
 20
247.3670564917752
 30
0.0
  0
SPLINE
  5
266
330
2
100
AcDbEntity
  8
0
100
AcDbSpline
210
0.0
220
0.0
230
1.0
 70
     8
 71
     3
 72
     9
 73
     5
 74
     0
 42
0.000000001
 43
0.0000000001
 40
0.0
 40
0.0
 40
0.0
 40
0.0
 40
0.5718308887998629
 40
1.0
 40
1.0
 40
1.0
 40
1.0
 10
430.7435549699639
 20
247.7712820241781
 30
0.0
 10
430.7206994657439
 20
247.6754519171964
 30
0.0
 10
430.6807304737437
 20
247.5078672188903
 30
0.0
 10
430.6417228923205
 20
247.3400248300805
 30
0.0
 10
430.6250210508523
 20
247.2681599036421
 30
0.0
  0
SPLINE
  5
267
330
2
100
AcDbEntity
  8
0
100
AcDbSpline
210
0.0
220
0.0
230
1.0
 70
     8
 71
     3
 72
     9
 73
     5
 74
     0
 42
0.000000001
 43
0.0000000001
 40
0.0
 40
0.0
 40
0.0
 40
0.0
 40
0.5718308564225351
 40
1.0
 40
1.0
 40
1.0
 40
1.0
 10
428.9176328582189
 20
248.2983803355457
 30
0.0
 10
428.8924004354879
 20
248.2032363819629
 30
0.0
 10
428.8482747601287
 20
248.0368515978713
 30
0.0
 10
428.8031960382767
 20
247.8707618149564
 30
0.0
 10
428.7838947205477
 20
247.7996472948489
 30
0.0
  0
SPLINE
  5
268
330
2
100
AcDbEntity
  8
0
100
AcDbSpline
210
0.0
220
0.0
230
1.0
 70
     8
 71
     3
 72
     9
 73
     5
 74
     0
 42
0.000000001
 43
0.0000000001
 40
0.0
 40
0.0
 40
0.0
 40
0.0
 40
0.5718308887998629
 40
1.0
 40
1.0
 40
1.0
 40
1.0
 10
429.2450164703429
 20
248.2038728272516
 30
0.0
 10
429.222160966123
 20
248.1080427202701
 30
0.0
 10
429.1821919741227
 20
247.9404580219639
 30
0.0
 10
429.1431843926995
 20
247.7726156331541
 30
0.0
 10
429.1264825512315
 20
247.7007507067157
 30
0.0
  0
SPLINE
  5
269
330
2
100
AcDbEntity
  8
0
100
AcDbSpline
210
0.0
220
0.0
230
1.0
 70
     8
 71
     3
 72
     9
 73
     5
 74
     0
 42
0.000000001
 43
0.0000000001
 40
0.0
 40
0.0
 40
0.0
 40
0.0
 40
0.5718308564225351
 40
1.0
 40
1.0
 40
1.0
 40
1.0
 10
427.4745967034379
 20
248.7149489917522
 30
0.0
 10
427.4493642807071
 20
248.6198050381694
 30
0.0
 10
427.4052386053478
 20
248.4534202540778
 30
0.0
 10
427.3601598834957
 20
248.2873304711631
 30
0.0
 10
427.3408585657668
 20
248.2162159510555
 30
0.0
  0
SPLINE
  5
26A
330
2
100
AcDbEntity
  8
0
100
AcDbSpline
210
0.0
220
0.0
230
1.0
 70
     8
 71
     3
 72
     9
 73
     5
 74
     0
 42
0.000000001
 43
0.0000000001
 40
0.0
 40
0.0
 40
0.0
 40
0.0
 40
0.5718308564225351
 40
1.0
 40
1.0
 40
1.0
 40
1.0
 10
427.8019803155619
 20
248.6204414834582
 30
0.0
 10
427.7791243507353
 20
248.5246115055701
 30
0.0
 10
427.7391545509774
 20
248.3570270235299
 30
0.0
 10
427.7001478585436
 20
248.1891843967055
 30
0.0
 10
427.6834463964505
 20
248.1173193629223
 30
0.0
  0
SPLINE
  5
26B
330
2
100
AcDbEntity
  8
0
100
AcDbSpline
210
0.0
220
0.0
230
1.0
 70
     8
 71
     3
 72
     9
 73
     5
 74
     0
 42
0.000000001
 43
0.0000000001
 40
0.0
 40
0.0
 40
0.0
 40
0.0
 40
0.5718308683588581
 40
1.0
 40
1.0
 40
1.0
 40
1.0
 10
425.9760590308524
 20
249.1475395560813
 30
0.0
 10
425.9508262539827
 20
249.0523957061571
 30
0.0
 10
425.9066999602376
 20
248.8860111068135
 30
0.0
 10
425.8616213398799
 20
248.7199212877373
 30
0.0
 10
425.8423200661459
 20
248.6488067541291
 30
0.0
  0
SPLINE
  5
26C
330
2
100
AcDbEntity
  8
0
100
AcDbSpline
210
0.0
220
0.0
230
1.0
 70
     8
 71
     3
 72
     9
 73
     5
 74
     0
 42
0.000000001
 43
0.0000000001
 40
0.0
 40
0.0
 40
0.0
 40
0.0
 40
0.5718308683588581
 40
1.0
 40
1.0
 40
1.0
 40
1.0
 10
426.3034418159409
 20
249.0530322865318
 30
0.0
 10
426.2805862059234
 20
248.9572022076466
 30
0.0
 10
426.2406170274787
 20
248.7896175524842
 30
0.0
 10
426.2016102303287
 20
248.6217749490263
 30
0.0
 10
426.1849087238649
 20
248.5499099272513
 30
0.0
  0
SPLINE
  5
26D
330
2
100
AcDbEntity
  8
0
100
AcDbSpline
210
0.0
220
0.0
230
1.0
 70
     8
 71
     3
 72
     9
 73
     5
 74
     0
 42
0.000000001
 43
0.0000000001
 40
0.0
 40
0.0
 40
0.0
 40
0.0
 40
0.5718308683588581
 40
1.0
 40
1.0
 40
1.0
 40
1.0
 10
424.4775213582668
 20
249.5801301204103
 30
0.0
 10
424.452288581397
 20
249.4849862704862
 30
0.0
 10
424.408162287652
 20
249.3186016711426
 30
0.0
 10
424.3630836672943
 20
249.1525118520664
 30
0.0
 10
424.3437823935602
 20
249.081397318458
 30
0.0
  0
SPLINE
  5
26E
330
2
100
AcDbEntity
  8
0
100
AcDbSpline
210
0.0
220
0.0
230
1.0
 70
     8
 71
     3
 72
     9
 73
     5
 74
     0
 42
0.000000001
 43
0.0000000001
 40
0.0
 40
0.0
 40
0.0
 40
0.0
 40
0.5718308683588581
 40
1.0
 40
1.0
 40
1.0
 40
1.0
 10
424.8049041433553
 20
249.4856228508609
 30
0.0
 10
424.7820485333377
 20
249.3897927719757
 30
0.0
 10
424.7420793548931
 20
249.2222081168133
 30
0.0
 10
424.703072557743
 20
249.0543655133553
 30
0.0
 10
424.6863710512793
 20
248.9825004915804
 30
0.0
  0
SPLINE
  5
26F
330
2
100
AcDbEntity
  8
0
100
AcDbSpline
210
0.0
220
0.0
230
1.0
 70
     8
 71
     3
 72
     9
 73
     5
 74
     0
 42
0.000000001
 43
0.0000000001
 40
0.0
 40
0.0
 40
0.0
 40
0.0
 40
0.5718308564225351
 40
1.0
 40
1.0
 40
1.0
 40
1.0
 10
423.0344843764505
 20
249.9966990153615
 30
0.0
 10
423.0092519537197
 20
249.9015550617787
 30
0.0
 10
422.9651262783604
 20
249.735170277687
 30
0.0
 10
422.9200475565083
 20
249.5690804947722
 30
0.0
 10
422.9007462387793
 20
249.4979659746646
 30
0.0
  0
SPLINE
  5
270
330
2
100
AcDbEntity
  8
0
100
AcDbSpline
210
0.0
220
0.0
230
1.0
 70
     8
 71
     3
 72
     9
 73
     5
 74
     0
 42
0.000000001
 43
0.0000000001
 40
0.0
 40
0.0
 40
0.0
 40
0.0
 40
0.5718308564225351
 40
1.0
 40
1.0
 40
1.0
 40
1.0
 10
423.3618679885745
 20
249.9021915070674
 30
0.0
 10
423.3390120237479
 20
249.8063615291792
 30
0.0
 10
423.2990422239899
 20
249.6387770471391
 30
0.0
 10
423.2600355315562
 20
249.4709344203147
 30
0.0
 10
423.2433340694631
 20
249.3990693865314
 30
0.0
  0
SPLINE
  5
271
330
2
100
AcDbEntity
  8
0
100
AcDbSpline
210
0.0
220
0.0
230
1.0
 70
     8
 71
     3
 72
     9
 73
     5
 74
     0
 42
0.000000001
 43
0.0000000001
 40
0.0
 40
0.0
 40
0.0
 40
0.0
 40
0.5718308623903785
 40
1.0
 40
1.0
 40
1.0
 40
1.0
 10
421.5359467038648
 20
250.4292895796904
 30
0.0
 10
421.5107141040646
 20
250.334145677937
 30
0.0
 10
421.4665881195124
 20
250.1677609862192
 30
0.0
 10
421.4215094484076
 20
250.0016711852238
 30
0.0
 10
421.402208152676
 20
249.930556658366
 30
0.0
  0
SPLINE
  5
272
330
2
100
AcDbEntity
  8
0
100
AcDbSpline
210
0.0
220
0.0
230
1.0
 70
     8
 71
     3
 72
     9
 73
     5
 74
     0
 42
0.000000001
 43
0.0000000001
 40
0.0
 40
0.0
 40
0.0
 40
0.0
 40
0.5718308623903785
 40
1.0
 40
1.0
 40
1.0
 40
1.0
 10
421.8633299024712
 20
250.3347821907687
 30
0.0
 10
421.840474115049
 20
250.238952162382
 30
0.0
 10
421.8005046259477
 20
250.0713675937806
 30
0.0
 10
421.7614978811559
 20
249.9035249786396
 30
0.0
 10
421.7447963968774
 20
249.8316599508605
 30
0.0
  0
SPLINE
  5
273
330
2
100
AcDbEntity
  8
0
100
AcDbSpline
210
0.0
220
0.0
230
1.0
 70
     8
 71
     3
 72
     9
 73
     5
 74
     0
 42
0.000000001
 43
0.0000000001
 40
0.0
 40
0.0
 40
0.0
 40
0.0
 40
0.5718308623903785
 40
1.0
 40
1.0
 40
1.0
 40
1.0
 10
420.0374086177616
 20
250.8618802633918
 30
0.0
 10
420.0121760179613
 20
250.7667363616383
 30
0.0
 10
419.9680500334091
 20
250.6003516699205
 30
0.0
 10
419.9229713623043
 20
250.4342618689252
 30
0.0
 10
419.9036700665728
 20
250.3631473420673
 30
0.0
  0
SPLINE
  5
274
330
2
100
AcDbEntity
  8
0
100
AcDbSpline
210
0.0
220
0.0
230
1.0
 70
     8
 71
     3
 72
     9
 73
     5
 74
     0
 42
0.000000001
 43
0.0000000001
 40
0.0
 40
0.0
 40
0.0
 40
0.0
 40
0.5718308623903785
 40
1.0
 40
1.0
 40
1.0
 40
1.0
 10
420.3647918163679
 20
250.7673728744701
 30
0.0
 10
420.3419360289458
 20
250.6715428460834
 30
0.0
 10
420.3019665398444
 20
250.5039582774819
 30
0.0
 10
420.2629597950526
 20
250.3361156623409
 30
0.0
 10
420.2462583107742
 20
250.2642506345619
 30
0.0
  0
SPLINE
  5
275
330
2
100
AcDbEntity
  8
0
100
AcDbSpline
210
0.0
220
0.0
230
1.0
 70
     8
 71
     3
 72
     9
 73
     5
 74
     0
 42
0.000000001
 43
0.0000000001
 40
0.0
 40
0.0
 40
0.0
 40
0.0
 40
0.5718308683588581
 40
1.0
 40
1.0
 40
1.0
 40
1.0
 10
418.5943724629807
 20
251.2784489195984
 30
0.0
 10
418.5691396861109
 20
251.1833050696742
 30
0.0
 10
418.5250133923659
 20
251.0169204703306
 30
0.0
 10
418.4799347720083
 20
250.8508306512544
 30
0.0
 10
418.4606334982742
 20
250.7797161176462
 30
0.0
  0
SPLINE
  5
276
330
2
100
AcDbEntity
  8
0
100
AcDbSpline
210
0.0
220
0.0
230
1.0
 70
     8
 71
     3
 72
     9
 73
     5
 74
     0
 42
0.000000001
 43
0.0000000001
 40
0.0
 40
0.0
 40
0.0
 40
0.0
 40
0.5718308623903785
 40
1.0
 40
1.0
 40
1.0
 40
1.0
 10
418.9217552480693
 20
251.1839416500489
 30
0.0
 10
418.8988994606472
 20
251.0881116216622
 30
0.0
 10
418.8589299715458
 20
250.9205270530606
 30
0.0
 10
418.819923226754
 20
250.7526844379197
 30
0.0
 10
418.8032217424755
 20
250.6808194101406
 30
0.0
  0
SPLINE
  5
277
330
2
100
AcDbEntity
  8
0
100
AcDbSpline
210
0.0
220
0.0
230
1.0
 70
     8
 71
     3
 72
     9
 73
     5
 74
     0
 42
0.000000001
 43
0.0000000001
 40
0.0
 40
0.0
 40
0.0
 40
0.0
 40
0.5718308572794185
 40
1.0
 40
1.0
 40
1.0
 40
1.0
 10
417.4232173687248
 20
251.616532274064
 30
0.0
 10
417.4003615548533
 20
251.5207022527014
 30
0.0
 10
417.3603920191408
 20
251.3531176948855
 30
0.0
 10
417.3213854704174
 20
251.1852750260828
 30
0.0
 10
417.30468406989
 20
251.1134099744697
 30
0.0
  0
SPLINE
  5
278
330
2
100
AcDbEntity
  8
0
100
AcDbSpline
210
0.0
220
0.0
230
1.0
 70
     8
 71
     3
 72
     9
 73
     5
 74
     0
 42
0.000000001
 43
0.0000000001
 40
0.0
 40
0.0
 40
0.0
 40
0.0
 40
0.5718308653745387
 40
1.0
 40
1.0
 40
1.0
 40
1.0
 10
417.0958343768774
 20
251.7110396032997
 30
0.0
 10
417.0706016885423
 20
251.6158957274608
 30
0.0
 10
417.0264755493938
 20
251.44951108193
 30
0.0
 10
416.9813969036626
 20
251.2834212718944
 30
0.0
 10
416.9620956189298
 20
251.2123067416613
 30
0.0
  0
SPLINE
  5
279
330
2
100
AcDbEntity
  8
0
100
AcDbSpline
210
0.0
220
0.0
230
1.0
 70
     8
 71
     3
 72
     9
 73
     5
 74
     0
 42
0.000000001
 43
0.0000000001
 40
0.0
 40
0.0
 40
0.0
 40
0.0
 40
0.5718308646284839
 40
1.0
 40
1.0
 40
1.0
 40
1.0
 10
415.5972963941535
 20
252.1436302571579
 30
0.0
 10
415.5720637279522
 20
252.0484863748404
 30
0.0
 10
415.5279376274527
 20
251.8821017177629
 30
0.0
 10
415.4828589753781
 20
251.7160119099873
 30
0.0
 10
415.4635576878956
 20
251.644897380598
 30
0.0
  0
SPLINE
  5
27A
330
2
100
AcDbEntity
  8
0
100
AcDbSpline
210
0.0
220
0.0
230
1.0
 70
     8
 71
     3
 72
     9
 73
     5
 74
     0
 42
0.000000001
 43
0.0000000001
 40
0.0
 40
0.0
 40
0.0
 40
0.0
 40
0.5718308638824388
 40
1.0
 40
1.0
 40
1.0
 40
1.0
 10
415.924679386001
 20
252.0491229279223
 30
0.0
 10
415.9018236429299
 20
251.953292886911
 30
0.0
 10
415.8618542314928
 20
251.7857082966692
 30
0.0
 10
415.8228474736114
 20
251.6178656844491
 30
0.0
 10
415.8061459837867
 20
251.5460006581711
 30
0.0
  0
SPLINE
  5
27B
330
2
100
AcDbEntity
  8
0
100
AcDbSpline
210
0.0
220
0.0
230
1.0
 70
     8
 71
     3
 72
     9
 73
     5
 74
     0
 42
0.000000001
 43
0.0000000001
 40
0.0
 40
0.0
 40
0.0
 40
0.0
 40
0.5718308638824388
 40
1.0
 40
1.0
 40
1.0
 40
1.0
 10
414.1542598258549
 20
252.5601990327368
 30
0.0
 10
414.1290271817872
 20
252.4650551439405
 30
0.0
 10
414.0849011199369
 20
252.2986704753163
 30
0.0
 10
414.0398224615188
 20
252.1325806698008
 30
0.0
 10
414.0205211712866
 20
252.0614661412553
 30
0.0
  0
SPLINE
  5
27C
330
2
100
AcDbEntity
  8
0
100
AcDbSpline
210
0.0
220
0.0
230
1.0
 70
     8
 71
     3
 72
     9
 73
     5
 74
     0
 42
0.000000001
 43
0.0000000001
 40
0.0
 40
0.0
 40
0.0
 40
0.0
 40
0.5718308646284839
 40
1.0
 40
1.0
 40
1.0
 40
1.0
 10
414.4816428177024
 20
252.4656917035011
 30
0.0
 10
414.458787096807
 20
252.3698616561775
 30
0.0
 10
414.4188177242019
 20
252.2022770551156
 30
0.0
 10
414.3798109597757
 20
252.0344344443559
 30
0.0
 10
414.3631094671778
 20
251.9625694188284
 30
0.0
  0
SPLINE
  5
27D
330
2
100
AcDbEntity
  8
0
100
AcDbSpline
210
0.0
220
0.0
230
1.0
 70
     8
 71
     3
 72
     9
 73
     5
 74
     0
 42
0.000000001
 43
0.0000000001
 40
0.0
 40
0.0
 40
0.0
 40
0.0
 40
0.5718308572794185
 40
1.0
 40
1.0
 40
1.0
 40
1.0
 10
412.6557218431311
 20
252.992789686595
 30
0.0
 10
412.6304892694932
 20
252.8976457766777
 30
0.0
 10
412.5863633302987
 20
252.7312610691964
 30
0.0
 10
412.5412844645051
 20
252.5651713273414
 30
0.0
 10
412.5219830851833
 20
252.4940568249566
 30
0.0
  0
SPLINE
  5
27E
330
2
100
AcDbEntity
  8
0
100
AcDbSpline
210
0.0
220
0.0
230
1.0
 70
     8
 71
     3
 72
     9
 73
     5
 74
     0
 42
0.000000001
 43
0.0000000001
 40
0.0
 40
0.0
 40
0.0
 40
0.0
 40
0.5718308653745387
 40
1.0
 40
1.0
 40
1.0
 40
1.0
 10
412.9831048349785
 20
252.8982823573595
 30
0.0
 10
412.9602491362587
 20
252.8024523037235
 30
0.0
 10
412.9202798024857
 20
252.6348676918413
 30
0.0
 10
412.8812730315147
 20
252.4670250825421
 30
0.0
 10
412.8645715361436
 20
252.395160057765
 30
0.0
  0
SPLINE
  5
27F
330
2
100
AcDbEntity
  8
0
100
AcDbSpline
210
0.0
220
0.0
230
1.0
 70
     8
 71
     3
 72
     9
 73
     5
 74
     0
 42
0.000000001
 43
0.0000000001
 40
0.0
 40
0.0
 40
0.0
 40
0.0
 40
0.5718308683588581
 40
1.0
 40
1.0
 40
1.0
 40
1.0
 10
411.4845667488753
 20
253.3308730410607
 30
0.0
 10
411.4617111388577
 20
253.2350429621756
 30
0.0
 10
411.421741960413
 20
253.0674583070131
 30
0.0
 10
411.382735163263
 20
252.8996157035552
 30
0.0
 10
411.3660336567993
 20
252.8277506817802
 30
0.0
  0
SPLINE
  5
280
330
2
100
AcDbEntity
  8
0
100
AcDbSpline
210
0.0
220
0.0
230
1.0
 70
     8
 71
     3
 72
     9
 73
     5
 74
     0
 42
0.000000001
 43
0.0000000001
 40
0.0
 40
0.0
 40
0.0
 40
0.0
 40
0.5718308623903785
 40
1.0
 40
1.0
 40
1.0
 40
1.0
 10
411.1571839637866
 20
253.4253803106102
 30
0.0
 10
411.1319513639863
 20
253.3302364088566
 30
0.0
 10
411.0878253794342
 20
253.163851717139
 30
0.0
 10
411.0427467083293
 20
252.9977619161436
 30
0.0
 10
411.0234454125977
 20
252.9266473892857
 30
0.0
  0
SPLINE
  5
281
330
2
100
AcDbEntity
  8
0
100
AcDbSpline
210
0.0
220
0.0
230
1.0
 70
     8
 71
     3
 72
     9
 73
     5
 74
     0
 42
0.000000001
 43
0.0000000001
 40
0.0
 40
0.0
 40
0.0
 40
0.0
 40
0.5718308623903785
 40
1.0
 40
1.0
 40
1.0
 40
1.0
 10
409.714147395488
 20
253.841949086189
 30
0.0
 10
409.6889147956877
 20
253.7468051844355
 30
0.0
 10
409.6447888111355
 20
253.5804204927178
 30
0.0
 10
409.5997101400308
 20
253.4143306917224
 30
0.0
 10
409.5804088442992
 20
253.3432161648645
 30
0.0
  0
SPLINE
  5
282
330
2
100
AcDbEntity
  8
0
100
AcDbSpline
210
0.0
220
0.0
230
1.0
 70
     8
 71
     3
 72
     9
 73
     5
 74
     0
 42
0.000000001
 43
0.0000000001
 40
0.0
 40
0.0
 40
0.0
 40
0.0
 40
0.5718308623903785
 40
1.0
 40
1.0
 40
1.0
 40
1.0
 10
410.0415305940944
 20
253.7474416972673
 30
0.0
 10
410.0186748066723
 20
253.6516116688806
 30
0.0
 10
409.9787053175709
 20
253.4840271002792
 30
0.0
 10
409.9396985727791
 20
253.3161844851381
 30
0.0
 10
409.9229970885006
 20
253.2443194573591
 30
0.0
  0
SPLINE
  5
283
330
2
100
AcDbEntity
  8
0
100
AcDbSpline
210
0.0
220
0.0
230
1.0
 70
     8
 71
     3
 72
     9
 73
     5
 74
     0
 42
0.000000001
 43
0.0000000001
 40
0.0
 40
0.0
 40
0.0
 40
0.0
 40
0.5718308623903785
 40
1.0
 40
1.0
 40
1.0
 40
1.0
 10
408.2156093093847
 20
254.2745397698904
 30
0.0
 10
408.1903767095845
 20
254.1793958681369
 30
0.0
 10
408.1462507250322
 20
254.0130111764191
 30
0.0
 10
408.1011720539275
 20
253.8469213754237
 30
0.0
 10
408.0818707581959
 20
253.7758068485659
 30
0.0
  0
SPLINE
  5
284
330
2
100
AcDbEntity
  8
0
100
AcDbSpline
210
0.0
220
0.0
230
1.0
 70
     8
 71
     3
 72
     9
 73
     5
 74
     0
 42
0.000000001
 43
0.0000000001
 40
0.0
 40
0.0
 40
0.0
 40
0.0
 40
0.5718308623903785
 40
1.0
 40
1.0
 40
1.0
 40
1.0
 10
408.542992507991
 20
254.1800323809686
 30
0.0
 10
408.5201367205689
 20
254.0842023525819
 30
0.0
 10
408.4801672314676
 20
253.9166177839804
 30
0.0
 10
408.4411604866758
 20
253.7487751688395
 30
0.0
 10
408.4244590023973
 20
253.6769101410604
 30
0.0
  0
SPLINE
  5
285
330
2
100
AcDbEntity
  8
0
100
AcDbSpline
210
0.0
220
0.0
230
1.0
 70
     8
 71
     3
 72
     9
 73
     5
 74
     0
 42
0.000000001
 43
0.0000000001
 40
0.0
 40
0.0
 40
0.0
 40
0.0
 40
0.5718308564225351
 40
1.0
 40
1.0
 40
1.0
 40
1.0
 10
406.7170712232814
 20
254.7071304535917
 30
0.0
 10
406.6918388005505
 20
254.6119865000089
 30
0.0
 10
406.6477131251913
 20
254.4456017159172
 30
0.0
 10
406.6026344033393
 20
254.2795119330025
 30
0.0
 10
406.5833330856102
 20
254.2083974128949
 30
0.0
  0
SPLINE
  5
286
330
2
100
AcDbEntity
  8
0
100
AcDbSpline
210
0.0
220
0.0
230
1.0
 70
     8
 71
     3
 72
     9
 73
     5
 74
     0
 42
0.000000001
 43
0.0000000001
 40
0.0
 40
0.0
 40
0.0
 40
0.0
 40
0.5718308564225351
 40
1.0
 40
1.0
 40
1.0
 40
1.0
 10
407.0444548354054
 20
254.6126229452977
 30
0.0
 10
407.0215988705788
 20
254.5167929674094
 30
0.0
 10
406.9816290708208
 20
254.3492084853693
 30
0.0
 10
406.9426223783871
 20
254.181365858545
 30
0.0
 10
406.925920916294
 20
254.1095008247617
 30
0.0
  0
SPLINE
  5
287
330
2
100
AcDbEntity
  8
0
100
AcDbSpline
210
0.0
220
0.0
230
1.0
 70
     8
 71
     3
 72
     9
 73
     5
 74
     0
 42
0.000000001
 43
0.0000000001
 40
0.0
 40
0.0
 40
0.0
 40
0.0
 40
0.5718308683588581
 40
1.0
 40
1.0
 40
1.0
 40
1.0
 10
405.6014178535892
 20
255.0291918402488
 30
0.0
 10
405.5785622435716
 20
254.9333617613636
 30
0.0
 10
405.5385930651269
 20
254.7657771062012
 30
0.0
 10
405.499586267977
 20
254.5979345027433
 30
0.0
 10
405.4828847615131
 20
254.5260694809682
 30
0.0
  0
SPLINE
  5
288
330
2
100
AcDbEntity
  8
0
100
AcDbSpline
210
0.0
220
0.0
230
1.0
 70
     8
 71
     3
 72
     9
 73
     5
 74
     0
 42
0.000000001
 43
0.0000000001
 40
0.0
 40
0.0
 40
0.0
 40
0.0
 40
0.5718308683588581
 40
1.0
 40
1.0
 40
1.0
 40
1.0
 10
405.2740350685006
 20
255.1236991097983
 30
0.0
 10
405.2488022916308
 20
255.0285552598741
 30
0.0
 10
405.2046759978859
 20
254.8621706605304
 30
0.0
 10
405.1595973775281
 20
254.6960808414543
 30
0.0
 10
405.1402961037941
 20
254.624966307846
 30
0.0
  0
SPLINE
  5
289
330
2
100
AcDbEntity
  8
0
100
AcDbSpline
210
0.0
220
0.0
230
1.0
 70
     8
 71
     3
 72
     9
 73
     5
 74
     0
 42
0.000000001
 43
0.0000000001
 40
0.0
 40
0.0
 40
0.0
 40
0.0
 40
0.5718308683588581
 40
1.0
 40
1.0
 40
1.0
 40
1.0
 10
403.775497395915
 20
255.5562896741273
 30
0.0
 10
403.7502646190453
 20
255.4611458242031
 30
0.0
 10
403.7061383253002
 20
255.2947612248595
 30
0.0
 10
403.6610597049426
 20
255.1286714057833
 30
0.0
 10
403.6417584312085
 20
255.057556872175
 30
0.0
  0
SPLINE
  5
28A
330
2
100
AcDbEntity
  8
0
100
AcDbSpline
210
0.0
220
0.0
230
1.0
 70
     8
 71
     3
 72
     9
 73
     5
 74
     0
 42
0.000000001
 43
0.0000000001
 40
0.0
 40
0.0
 40
0.0
 40
0.0
 40
0.5718308683588581
 40
1.0
 40
1.0
 40
1.0
 40
1.0
 10
404.1028801810035
 20
255.4617824045778
 30
0.0
 10
404.0800245709859
 20
255.3659523256926
 30
0.0
 10
404.0400553925413
 20
255.1983676705302
 30
0.0
 10
404.0010485953913
 20
255.0305250670723
 30
0.0
 10
403.9843470889275
 20
254.9586600452973
 30
0.0
  0
SPLINE
  5
28B
330
2
100
AcDbEntity
  8
0
100
AcDbSpline
210
0.0
220
0.0
230
1.0
 70
     8
 71
     3
 72
     9
 73
     5
 74
     0
 42
0.000000001
 43
0.0000000001
 40
0.0
 40
0.0
 40
0.0
 40
0.0
 40
0.5718308564225351
 40
1.0
 40
1.0
 40
1.0
 40
1.0
 10
402.2769588962939
 20
255.9888804772008
 30
0.0
 10
402.2517264735631
 20
255.8937365236181
 30
0.0
 10
402.2076007982038
 20
255.7273517395265
 30
0.0
 10
402.1625220763518
 20
255.5612619566117
 30
0.0
 10
402.1432207586228
 20
255.4901474365041
 30
0.0
  0
SPLINE
  5
28C
330
2
100
AcDbEntity
  8
0
100
AcDbSpline
210
0.0
220
0.0
230
1.0
 70
     8
 71
     3
 72
     9
 73
     5
 74
     0
 42
0.000000001
 43
0.0000000001
 40
0.0
 40
0.0
 40
0.0
 40
0.0
 40
0.5718308564225351
 40
1.0
 40
1.0
 40
1.0
 40
1.0
 10
402.604342508418
 20
255.8943729689068
 30
0.0
 10
402.5814865435914
 20
255.7985429910187
 30
0.0
 10
402.5415167438334
 20
255.6309585089785
 30
0.0
 10
402.5025100513998
 20
255.463115882154
 30
0.0
 10
402.4858085893065
 20
255.3912508483709
 30
0.0
  0
SPLINE
  5
28D
330
2
100
AcDbEntity
  8
0
100
AcDbSpline
210
0.0
220
0.0
230
1.0
 70
     8
 71
     3
 72
     9
 73
     5
 74
     0
 42
0.000000001
 43
0.0000000001
 40
0.0
 40
0.0
 40
0.0
 40
0.0
 40
0.4981692180306485
 40
1.0
 40
1.0
 40
1.0
 40
1.0
 10
398.4959540414968
 20
257.0393192084791
 30
0.0
 10
398.5600754431159
 20
257.0998957467952
 30
0.0
 10
398.6887895412545
 20
257.2214940634386
 30
0.0
 10
398.8584102233937
 20
257.2453050637001
 30
0.0
 10
398.9435311029499
 20
257.2572541565808
 30
0.0
  0
SPLINE
  5
28E
330
2
100
AcDbEntity
  8
0
100
AcDbSpline
210
0.0
220
0.0
230
1.0
 70
     8
 71
     3
 72
     9
 73
     5
 74
     0
 42
0.000000001
 43
0.0000000001
 40
0.0
 40
0.0
 40
0.0
 40
0.0
 40
0.561215280618309
 40
1.0
 40
1.0
 40
1.0
 40
1.0
 10
398.4250670858149
 20
256.9578335820836
 30
0.0
 10
398.438288011336
 20
256.973074658032
 30
0.0
 10
398.4618456833695
 20
257.000231929893
 30
0.0
 10
398.4855520500467
 20
257.027398800697
 30
0.0
 10
398.4959540414968
 20
257.0393192084791
 30
0.0
  0
SPLINE
  5
28F
330
2
100
AcDbEntity
  8
0
100
AcDbSpline
210
0.0
220
0.0
230
1.0
 70
     8
 71
     3
 72
    15
 73
    11
 74
     0
 42
0.000000001
 43
0.0000000001
 40
0.0
 40
0.0
 40
0.0
 40
0.0
 40
0.0963509274014347
 40
0.195212221227588
 40
0.3009515942447997
 40
0.4195954329937355
 40
0.5548829956202319
 40
0.7004210106289215
 40
0.8483495573845994
 40
1.0
 40
1.0
 40
1.0
 40
1.0
 10
398.4227235925617
 20
256.2698187445901
 30
0.0
 10
398.4018491547001
 20
256.2796152697904
 30
0.0
 10
398.3595564078448
 20
256.2994635628606
 30
0.0
 10
398.3095040899082
 20
256.3569133835437
 30
0.0
 10
398.2740079036622
 20
256.4341704901947
 30
0.0
 10
398.257799334066
 20
256.5318383975501
 30
0.0
 10
398.2646185465414
 20
256.6436429172181
 30
0.0
 10
398.2960581466667
 20
256.75873491829
 30
0.0
 10
398.3487168446406
 20
256.8686802955164
 30
0.0
 10
398.3994070843897
 20
256.9278706975505
 30
0.0
 10
398.4250670858149
 20
256.9578335820836
 30
0.0
  0
SPLINE
  5
290
330
2
100
AcDbEntity
  8
0
100
AcDbSpline
210
0.0
220
0.0
230
1.0
 70
     8
 71
     3
 72
     9
 73
     5
 74
     0
 42
0.000000001
 43
0.0000000001
 40
0.0
 40
0.0
 40
0.0
 40
0.0
 40
0.5718308564225351
 40
1.0
 40
1.0
 40
1.0
 40
1.0
 10
401.1613063536371
 20
256.3109416251134
 30
0.0
 10
401.1384503888104
 20
256.2151116472253
 30
0.0
 10
401.0984805890526
 20
256.047527165185
 30
0.0
 10
401.0594738966188
 20
255.8796845383606
 30
0.0
 10
401.0427724345257
 20
255.8078195045775
 30
0.0
  0
SPLINE
  5
291
330
2
100
AcDbEntity
  8
0
100
AcDbSpline
210
0.0
220
0.0
230
1.0
 70
     8
 71
     3
 72
     9
 73
     5
 74
     0
 42
0.000000001
 43
0.0000000001
 40
0.0
 40
0.0
 40
0.0
 40
0.0
 40
0.5718308887998629
 40
1.0
 40
1.0
 40
1.0
 40
1.0
 10
400.8339227415131
 20
256.4054491334074
 30
0.0
 10
400.8086898599934
 20
256.3103053161377
 30
0.0
 10
400.7645633848171
 20
256.1439207798471
 30
0.0
 10
400.7194855432153
 20
255.9778307242114
 30
0.0
 10
400.7001846038419
 20
255.9067160927106
 30
0.0
  0
SPLINE
  5
292
330
2
100
AcDbEntity
  8
0
100
AcDbSpline
210
0.0
220
0.0
230
1.0
 70
     8
 71
     3
 72
     9
 73
     5
 74
     0
 42
0.000000001
 43
0.0000000001
 40
0.0
 40
0.0
 40
0.0
 40
0.0
 40
0.5718308887998629
 40
1.0
 40
1.0
 40
1.0
 40
1.0
 10
399.6627678540162
 20
256.743532428187
 30
0.0
 10
399.6399123497962
 20
256.6477023212053
 30
0.0
 10
399.599943357796
 20
256.4801176228992
 30
0.0
 10
399.5609357763728
 20
256.3122752340895
 30
0.0
 10
399.5442339349047
 20
256.2404103076511
 30
0.0
  0
LINE
  5
293
330
2
100
AcDbEntity
  8
0
100
AcDbLine
 10
430.7353974130662
 20
246.9250023888194
 30
0.0
 11
431.0677919050424
 21
246.8459992556979
 31
0.0
  0
LINE
  5
294
330
2
100
AcDbEntity
  8
0
100
AcDbLine
 10
430.8972302341162
 20
248.0626451978506
 30
0.0
 11
399.1253591159804
 21
257.2343943690698
 31
0.0
  0
LINE
  5
295
330
2
100
AcDbEntity
  8
0
100
AcDbLine
 10
425.8423200662135
 20
248.6488067542312
 30
0.0
 11
426.1849087239516
 21
248.5499099271845
 31
0.0
  0
LINE
  5
296
330
2
100
AcDbEntity
  8
0
100
AcDbLine
 10
427.1444384882774
 20
248.2729175433736
 30
0.0
 11
426.3813288013682
 21
248.4932083349298
 31
0.0
  0
LINE
  5
297
330
2
100
AcDbEntity
  8
0
100
AcDbLine
 10
427.3408585656938
 20
248.2162159511188
 30
0.0
 11
427.6834463964469
 21
248.1173193629903
 31
0.0
  0
LINE
  5
298
330
2
100
AcDbEntity
  8
0
100
AcDbLine
 10
429.1264825513191
 20
247.7007507067495
 30
0.0
 11
428.7838947205661
 21
247.799647294878
 31
0.0
  0
LINE
  5
299
330
2
100
AcDbEntity
  8
0
100
AcDbLine
 10
430.6250210507994
 20
247.2681599036372
 30
0.0
 11
430.2824332200463
 21
247.3670564917656
 31
0.0
  0
LINE
  5
29A
330
2
100
AcDbEntity
  8
0
100
AcDbLine
 10
399.201646104102
 20
256.3393068957716
 30
0.0
 11
399.544233934855
 21
256.2404103076431
 31
0.0
  0
LINE
  5
29B
330
2
100
AcDbEntity
  8
0
100
AcDbLine
 10
400.7001846038386
 20
255.9067160926592
 30
0.0
 11
401.0427724345917
 21
255.8078195045308
 31
0.0
  0
LINE
  5
29C
330
2
100
AcDbEntity
  8
0
100
AcDbLine
 10
402.4858085892075
 20
255.3912508482899
 30
0.0
 11
402.1432207587108
 21
255.4901474364184
 31
0.0
  0
LINE
  5
29D
330
2
100
AcDbEntity
  8
0
100
AcDbLine
 10
403.9843470889442
 20
254.9586600451775
 30
0.0
 11
403.641758431206
 21
255.0575568722242
 31
0.0
  0
LINE
  5
29E
330
2
100
AcDbEntity
  8
0
100
AcDbLine
 10
405.4828847614394
 20
254.5260694809834
 30
0.0
 11
405.1402961037012
 21
254.6249663077738
 31
0.0
  0
LINE
  5
29F
330
2
100
AcDbEntity
  8
0
100
AcDbLine
 10
406.5833330855585
 20
254.208397412871
 30
0.0
 11
406.9259209163115
 21
254.1095008247426
 31
0.0
  0
LINE
  5
2A0
330
2
100
AcDbEntity
  8
0
100
AcDbLine
 10
408.08187075831
 20
253.7758068486769
 30
0.0
 11
408.4244590022994
 21
253.6769101410893
 31
0.0
  0
LINE
  5
2A1
330
2
100
AcDbEntity
  8
0
100
AcDbLine
 10
409.5804088442977
 20
253.3432161647673
 30
0.0
 11
409.9229970885434
 21
253.2443194574361
 31
0.0
  0
LINE
  5
2A2
330
2
100
AcDbEntity
  8
0
100
AcDbLine
 10
411.3660336569082
 20
252.8277506817362
 30
0.0
 11
411.0234454126625
 21
252.9266473893237
 31
0.0
  0
LINE
  5
2A3
330
2
100
AcDbEntity
  8
0
100
AcDbLine
 10
412.8645715360215
 20
252.3951600578125
 30
0.0
 11
412.5219830851577
 21
252.4940568248732
 31
0.0
  0
LINE
  5
2A4
330
2
100
AcDbEntity
  8
0
100
AcDbLine
 10
414.3631094671738
 20
251.9625694187641
 30
0.0
 11
414.0205211714019
 21
252.0614661412199
 31
0.0
  0
LINE
  5
2A5
330
2
100
AcDbEntity
  8
0
100
AcDbLine
 10
415.4635576879838
 20
251.6448973806447
 30
0.0
 11
415.8061459837559
 21
251.5460006581888
 31
0.0
  0
LINE
  5
2A6
330
2
100
AcDbEntity
  8
0
100
AcDbLine
 10
416.9620956188799
 20
251.2123067415963
 30
0.0
 11
417.30468407
 21
251.1134099745356
 31
0.0
  0
LINE
  5
2A7
330
2
100
AcDbEntity
  8
0
100
AcDbLine
 10
418.4606334982495
 20
250.7797161176726
 30
0.0
 11
418.8032217424952
 21
250.6808194100851
 31
0.0
  0
LINE
  5
2A8
330
2
100
AcDbEntity
  8
0
100
AcDbLine
 10
420.2462583108599
 20
250.2642506346415
 30
0.0
 11
419.9036700666142
 21
250.3631473419727
 31
0.0
  0
LINE
  5
2A9
330
2
100
AcDbEntity
  8
0
100
AcDbLine
 10
421.7447963968477
 20
249.8316599509883
 30
0.0
 11
421.4022081526021
 21
249.9305566583194
 31
0.0
  0
LINE
  5
2AA
330
2
100
AcDbEntity
  8
0
100
AcDbLine
 10
423.2433340693429
 20
249.3990693865377
 30
0.0
 11
422.9007462388461
 21
249.4979659746661
 31
0.0
  0
LINE
  5
2AB
330
2
100
AcDbEntity
  8
0
100
AcDbLine
 10
424.343782393462
 20
249.0813973184253
 30
0.0
 11
424.6863710512002
 21
248.982500491635
 31
0.0
  0
LINE
  5
2AC
330
2
100
AcDbEntity
  8
0
100
AcDbLine
 10
398.7311558161216
 20
256.1638311394702
 30
0.0
 11
430.7353974130662
 21
246.9250023888194
 31
0.0
  0
LINE
  5
2AD
330
2
100
AcDbEntity
  8
0
100
AcDbLine
 10
429.3202506708984
 20
248.517879985509
 30
0.0
 11
429.2450164702883
 21
248.203872827316
 31
0.0
  0
LINE
  5
2AE
330
2
100
AcDbEntity
  8
0
100
AcDbLine
 10
430.4985560808633
 20
248.1777325126986
 30
0.0
 11
430.4161713578555
 21
247.8657895325472
 31
0.0
  0
LINE
  5
2AF
330
2
100
AcDbEntity
  8
0
100
AcDbLine
 10
430.8187891705604
 20
248.08528918243
 30
0.0
 11
430.743554970025
 21
247.7712820242036
 31
0.0
  0
LINE
  5
2B0
330
2
100
AcDbEntity
  8
0
100
AcDbLine
 10
427.8772156285771
 20
248.9344483205699
 30
0.0
 11
427.8019803156725
 21
248.6204414835568
 31
0.0
  0
LINE
  5
2B1
330
2
100
AcDbEntity
  8
0
100
AcDbLine
 10
429.0000175811238
 20
248.6103233158
 30
0.0
 11
428.917632858119
 21
248.2983803356596
 31
0.0
  0
LINE
  5
2B2
330
2
100
AcDbEntity
  8
0
100
AcDbLine
 10
427.5569814264646
 20
249.0268919719651
 30
0.0
 11
427.4745967035031
 21
248.7149489916441
 31
0.0
  0
LINE
  5
2B3
330
2
100
AcDbEntity
  8
0
100
AcDbLine
 10
424.8801394563654
 20
249.7996296879609
 30
0.0
 11
424.8049041434406
 21
249.4856228508633
 31
0.0
  0
LINE
  5
2B4
330
2
100
AcDbEntity
  8
0
100
AcDbLine
 10
426.0584426413811
 20
249.4594828574382
 30
0.0
 11
425.9760590307515
 21
249.1475395560945
 31
0.0
  0
LINE
  5
2B5
330
2
100
AcDbEntity
  8
0
100
AcDbLine
 10
426.3786771288179
 20
249.3670391236769
 30
0.0
 11
426.3034418159358
 21
249.0530322864128
 31
0.0
  0
LINE
  5
2B6
330
2
100
AcDbEntity
  8
0
100
AcDbLine
 10
423.4371021890986
 20
250.2161986653083
 30
0.0
 11
423.3618679885685
 21
249.9021915071041
 31
0.0
  0
LINE
  5
2B7
330
2
100
AcDbEntity
  8
0
100
AcDbLine
 10
424.5599049689111
 20
249.8920734217274
 30
0.0
 11
424.4775213582564
 21
249.5801301202887
 31
0.0
  0
LINE
  5
2B8
330
2
100
AcDbEntity
  8
0
100
AcDbLine
 10
423.1168690994009
 20
250.3086419955771
 30
0.0
 11
423.034484376399
 21
249.9966990154477
 31
0.0
  0
LINE
  5
2B9
330
2
100
AcDbEntity
  8
0
100
AcDbLine
 10
420.4400265730828
 20
251.0813798721395
 30
0.0
 11
420.3647918163366
 21
250.7673728744107
 31
0.0
  0
LINE
  5
2BA
330
2
100
AcDbEntity
  8
0
100
AcDbLine
 10
421.6183308707325
 20
250.7412327204269
 30
0.0
 11
421.5359467039038
 21
250.4292895796419
 31
0.0
  0
LINE
  5
2BB
330
2
100
AcDbEntity
  8
0
100
AcDbLine
 10
421.9385646589859
 20
250.6487891885025
 30
0.0
 11
421.8633299025807
 21
250.3347821907574
 31
0.0
  0
LINE
  5
2BC
330
2
100
AcDbEntity
  8
0
100
AcDbLine
 10
418.9969905608895
 20
251.4979484871783
 30
0.0
 11
418.9217552479719
 21
251.1839416501105
 31
0.0
  0
LINE
  5
2BD
330
2
100
AcDbEntity
  8
0
100
AcDbLine
 10
420.1197927845085
 20
251.1738234041566
 30
0.0
 11
420.0374086176598
 21
250.8618802632951
 31
0.0
  0
LINE
  5
2BE
330
2
100
AcDbEntity
  8
0
100
AcDbLine
 10
418.6767560733522
 20
251.5903922209686
 30
0.0
 11
418.5943724630439
 21
251.278448919536
 31
0.0
  0
LINE
  5
2BF
330
2
100
AcDbEntity
  8
0
100
AcDbLine
 10
415.9999144209077
 20
252.3631298452654
 30
0.0
 11
415.9246793859235
 21
252.0491229279509
 31
0.0
  0
LINE
  5
2C0
330
2
100
AcDbEntity
  8
0
100
AcDbLine
 10
417.1782182657081
 20
252.0229828242792
 30
0.0
 11
417.0958343767998
 21
251.7110396031892
 31
0.0
  0
LINE
  5
2C1
330
2
100
AcDbEntity
  8
0
100
AcDbLine
 10
417.4984524036038
 20
251.9305391914217
 30
0.0
 11
417.4232173686022
 21
251.6165322740343
 31
0.0
  0
LINE
  5
2C2
330
2
100
AcDbEntity
  8
0
100
AcDbLine
 10
414.5568778524161
 20
252.7796986208938
 30
0.0
 11
414.4816428178151
 21
252.4656917033945
 31
0.0
  0
LINE
  5
2C3
330
2
100
AcDbEntity
  8
0
100
AcDbLine
 10
415.6796802826898
 20
252.455573478216
 30
0.0
 11
415.5972963941211
 21
252.1436302571059
 31
0.0
  0
LINE
  5
2C4
330
2
100
AcDbEntity
  8
0
100
AcDbLine
 10
414.2366437147035
 20
252.8721422536984
 30
0.0
 11
414.1542598257564
 21
252.5601990328058
 31
0.0
  0
LINE
  5
2C5
330
2
100
AcDbEntity
  8
0
100
AcDbLine
 10
411.5598020617534
 20
253.6448798781412
 30
0.0
 11
411.4845667488922
 21
253.3308730409644
 31
0.0
  0
LINE
  5
2C6
330
2
100
AcDbEntity
  8
0
100
AcDbLine
 10
412.7381057316854
 20
253.3047329076351
 30
0.0
 11
412.6557218430776
 21
252.9927896867225
 31
0.0
  0
LINE
  5
2C7
330
2
100
AcDbEntity
  8
0
100
AcDbLine
 10
413.0583398698799
 20
253.2122892746913
 30
0.0
 11
412.98310483488
 21
252.8982823573112
 31
0.0
  0
LINE
  5
2C8
330
2
100
AcDbEntity
  8
0
100
AcDbLine
 10
410.1167653507596
 20
254.0614486949063
 30
0.0
 11
410.0415305940201
 21
253.7474416972052
 31
0.0
  0
LINE
  5
2C9
330
2
100
AcDbEntity
  8
0
100
AcDbLine
 10
411.2395675743993
 20
253.7373236118786
 30
0.0
 11
411.157183963708
 21
253.4253803106461
 31
0.0
  0
LINE
  5
2CA
330
2
100
AcDbEntity
  8
0
100
AcDbLine
 10
409.7965315621025
 20
254.1538922269473
 30
0.0
 11
409.7141473955996
 21
253.8419490860897
 31
0.0
  0
LINE
  5
2CB
330
2
100
AcDbEntity
  8
0
100
AcDbLine
 10
407.1196890358084
 20
254.9266301035028
 30
0.0
 11
407.0444548352808
 21
254.612622945309
 31
0.0
  0
LINE
  5
2CC
330
2
100
AcDbEntity
  8
0
100
AcDbLine
 10
408.2979934762207
 20
254.5864829105782
 30
0.0
 11
408.2156093093555
 21
254.2745397699993
 31
0.0
  0
LINE
  5
2CD
330
2
100
AcDbEntity
  8
0
100
AcDbLine
 10
408.6182272646964
 20
254.4940393785896
 30
0.0
 11
408.5429925080323
 21
254.1800323808586
 31
0.0
  0
LINE
  5
2CE
330
2
100
AcDbEntity
  8
0
100
AcDbLine
 10
405.6766531665172
 20
255.3431986772893
 30
0.0
 11
405.6014178536798
 21
255.0291918402117
 31
0.0
  0
LINE
  5
2CF
330
2
100
AcDbEntity
  8
0
100
AcDbLine
 10
406.7994559463488
 20
255.0190734337029
 30
0.0
 11
406.7170712233678
 21
254.7071304536526
 31
0.0
  0
LINE
  5
2D0
330
2
100
AcDbEntity
  8
0
100
AcDbLine
 10
405.3564186791608
 20
255.4356424110274
 30
0.0
 11
405.2740350684955
 21
255.1236991098934
 31
0.0
  0
LINE
  5
2D1
330
2
100
AcDbEntity
  8
0
100
AcDbLine
 10
402.6795767089613
 20
256.2083801270522
 30
0.0
 11
402.6043425084331
 21
255.8943729688564
 31
0.0
  0
LINE
  5
2D2
330
2
100
AcDbEntity
  8
0
100
AcDbLine
 10
403.8578810062857
 20
255.8682329754335
 30
0.0
 11
403.7754973960004
 21
255.5562896740876
 31
0.0
  0
LINE
  5
2D3
330
2
100
AcDbEntity
  8
0
100
AcDbLine
 10
404.178115493825
 20
255.7757892416426
 30
0.0
 11
404.1028801809283
 21
255.4617824046622
 31
0.0
  0
LINE
  5
2D4
330
2
100
AcDbEntity
  8
0
100
AcDbLine
 10
401.2365405540858
 20
256.6249487832798
 30
0.0
 11
401.1613063535609
 21
256.3109416250972
 31
0.0
  0
LINE
  5
2D5
330
2
100
AcDbEntity
  8
0
100
AcDbLine
 10
402.3593425068666
 20
256.3008237784424
 30
0.0
 11
402.2769588962637
 21
255.9888804772
 31
0.0
  0
LINE
  5
2D6
330
2
100
AcDbEntity
  8
0
100
AcDbLine
 10
398.7311558161216
 20
256.1638311394702
 30
0.0
 11
398.422723592666
 21
256.2698187446968
 31
0.0
  0
LINE
  5
2D7
330
2
100
AcDbEntity
  8
0
100
AcDbLine
 10
400.9163074643877
 20
256.7173921135487
 30
0.0
 11
400.8339227413915
 21
256.4054491334407
 31
0.0
  0
LINE
  5
2D8
330
2
100
AcDbEntity
  8
0
100
AcDbLine
 10
399.7380020545864
 20
257.0575395863118
 30
0.0
 11
399.6627678540806
 21
256.7435324282095
 31
0.0
  0
LINE
  5
2D9
330
2
100
AcDbEntity
  8
0
100
AcDbLine
 10
427.8019803156725
 20
248.6204414835568
 30
0.0
 11
428.0795396316484
 21
248.8760424117523
 31
0.0
  0
LINE
  5
2DA
330
2
100
AcDbEntity
  8
0
100
AcDbLine
 10
424.8049041434406
 20
249.4856228508633
 30
0.0
 11
425.0824645720028
 21
249.7412234579733
 31
0.0
  0
LINE
  5
2DB
330
2
100
AcDbEntity
  8
0
100
AcDbLine
 10
426.3034418159358
 20
249.0530322864128
 30
0.0
 11
426.5810022443402
 21
249.3086328937224
 31
0.0
  0
LINE
  5
2DC
330
2
100
AcDbEntity
  8
0
100
AcDbLine
 10
423.3618679885685
 20
249.9021915071041
 30
0.0
 11
423.63942730487
 21
250.1577924352819
 31
0.0
  0
LINE
  5
2DD
330
2
100
AcDbEntity
  8
0
100
AcDbLine
 10
420.3647918163366
 20
250.7673728744107
 30
0.0
 11
420.6423516886948
 21
251.0229736421592
 31
0.0
  0
LINE
  5
2DE
330
2
100
AcDbEntity
  8
0
100
AcDbLine
 10
421.8633299025807
 20
250.3347821907574
 30
0.0
 11
422.1408897746084
 21
250.5903829585191
 31
0.0
  0
LINE
  5
2DF
330
2
100
AcDbEntity
  8
0
100
AcDbLine
 10
418.9217552479719
 20
251.1839416501105
 30
0.0
 11
419.1993151202405
 21
251.4395424177767
 31
0.0
  0
LINE
  5
2E0
330
2
100
AcDbEntity
  8
0
100
AcDbLine
 10
415.9246793859235
 20
252.0491229279509
 30
0.0
 11
416.2022391193454
 21
252.3047237357129
 31
0.0
  0
LINE
  5
2E1
330
2
100
AcDbEntity
  8
0
100
AcDbLine
 10
417.4232173686022
 20
251.6165322740343
 30
0.0
 11
417.7007772409472
 21
251.8721330417706
 31
0.0
  0
LINE
  5
2E2
330
2
100
AcDbEntity
  8
0
100
AcDbLine
 10
414.4816428178151
 20
252.4656917033945
 30
0.0
 11
414.7592026205964
 21
252.7212924912083
 31
0.0
  0
LINE
  5
2E3
330
2
100
AcDbEntity
  8
0
100
AcDbLine
 10
411.4845667488922
 20
253.3308730409644
 30
0.0
 11
411.7621266212376
 21
253.5864738087011
 31
0.0
  0
LINE
  5
2E4
330
2
100
AcDbEntity
  8
0
100
AcDbLine
 10
412.98310483488
 20
252.8982823573112
 30
0.0
 11
413.2606647072186
 21
253.1538831250416
 31
0.0
  0
LINE
  5
2E5
330
2
100
AcDbEntity
  8
0
100
AcDbLine
 10
410.0415305940201
 20
253.7474416972052
 30
0.0
 11
410.3190899100868
 21
254.0030426255115
 31
0.0
  0
LINE
  5
2E6
330
2
100
AcDbEntity
  8
0
100
AcDbLine
 10
407.0444548352808
 20
254.612622945309
 30
0.0
 11
407.3220141515731
 21
254.8682238734784
 31
0.0
  0
LINE
  5
2E7
330
2
100
AcDbEntity
  8
0
100
AcDbLine
 10
408.5429925080323
 20
254.1800323808586
 30
0.0
 11
408.8205523803727
 21
254.4356331485907
 31
0.0
  0
LINE
  5
2E8
330
2
100
AcDbEntity
  8
0
100
AcDbLine
 10
405.6014178536798
 20
255.0291918402117
 30
0.0
 11
405.8789782819419
 21
255.284792447363
 31
0.0
  0
LINE
  5
2E9
330
2
100
AcDbEntity
  8
0
100
AcDbLine
 10
402.6043425084331
 20
255.8943729688564
 30
0.0
 11
402.8819018244423
 21
256.1499738971097
 31
0.0
  0
LINE
  5
2EA
330
2
100
AcDbEntity
  8
0
100
AcDbLine
 10
404.1028801809283
 20
255.4617824046622
 30
0.0
 11
404.3804394971379
 21
255.7173833327554
 31
0.0
  0
LINE
  5
2EB
330
2
100
AcDbEntity
  8
0
100
AcDbLine
 10
401.1613063535609
 20
256.3109416250972
 30
0.0
 11
401.3676638309294
 21
256.5009746643292
 31
0.0
  0
LINE
  5
2EC
330
2
100
AcDbEntity
  8
0
100
AcDbLine
 10
399.6627678540806
 20
256.7435324282095
 30
0.0
 11
399.940328282541
 21
256.9991330352259
 31
0.0
  0
LINE
  5
2ED
330
2
100
AcDbEntity
  8
0
100
AcDbLine
 10
398.264100858595
 20
256.6099528957057
 30
0.0
 11
431.396401687598
 21
247.0454814945069
 31
0.0
  0
LINE
  5
2EE
330
2
100
AcDbEntity
  8
0
100
AcDbLine
 10
429.2450164702883
 20
248.203872827316
 30
0.0
 11
429.5225757863372
 21
248.4594737555787
 31
0.0
  0
LINE
  5
2EF
330
2
100
AcDbEntity
  8
0
100
AcDbLine
 10
430.7435549699639
 20
247.7712820241781
 30
0.0
 11
431.0100656458092
 21
248.0167083968457
 31
0.0
  0
LINE
  5
2F0
330
2
100
AcDbEntity
  8
0
100
AcDbLine
 10
399.4177689648864
 20
257.1499829165813
 30
0.0
 11
399.201646104221
 21
256.3393068957842
 31
0.0
  0
ELLIPSE
  5
2F1
330
2
100
AcDbEntity
  8
0
100
AcDbEllipse
 10
396.6009266300133
 20
246.1608024351921
 30
0.0
 11
-0.2811356312563185
 21
-0.9853773621686972
 31
0.0
210
0.0
220
0.0
230
1.0
 40
0.460484873336336
 41
3.078702321273086
 42
6.331946567686849
  0
ELLIPSE
  5
2F2
330
2
100
AcDbEntity
  8
0
100
AcDbEllipse
 10
398.6066099847177
 20
245.557867871423
 30
0.0
 11
-1.068559861748793
 21
-3.701603518553994
 31
0.0
210
0.0
220
0.0
230
1.0
 40
0.4322293424115272
 41
4.567000015194523
 42
6.035454284493272
  0
ELLIPSE
  5
2F3
330
2
100
AcDbEntity
  8
0
100
AcDbEllipse
 10
398.1682952185362
 20
245.7067361929257
 30
0.0
 11
-1.068559861748793
 21
-3.701603518553994
 31
0.0
210
0.0
220
0.0
230
1.0
 40
0.4322293424115272
 41
4.270890366929602
 42
6.283185307179584
  0
LINE
  5
2F4
330
2
100
AcDbEntity
  8
0
100
AcDbLine
 10
397.0997353567874
 20
242.0051326743717
 30
0.0
 11
397.1815083158068
 21
241.9865960820699
 31
0.0
  0
ELLIPSE
  5
2F5
330
2
100
AcDbEntity
  8
0
100
AcDbEllipse
 10
417.8527491501697
 20
257.0469673183018
 30
0.0
 11
-1.537856874314641
 21
-0.0000000653268812
 31
0.0
210
0.0
220
0.0
230
0.9999999999999998
 40
0.5047304618416549
 41
0.0
 42
6.283185307179586
  0
ELLIPSE
  5
2F6
330
2
100
AcDbEntity
  8
0
100
AcDbEllipse
 10
420.8645871235922
 20
257.5907421622996
 30
0.0
 11
-1.537856874314641
 21
-0.0000000653268812
 31
0.0
210
0.0
220
0.0
230
0.9999999999999998
 40
0.5047304618416549
 41
2.663899361151758
 42
5.721816538170251
  0
ENDSEC
  0
SECTION
  2
OBJECTS
  0
DICTIONARY
  5
9
330
0
100
AcDbDictionary
281
     1
  3
ACAD_COLOR
350
3E
  3
ACAD_GROUP
350
35
  3
ACAD_LAYOUT
350
16
  3
ACAD_MATERIAL
350
B
  3
ACAD_MLEADERSTYLE
350
41
  3
ACAD_MLINESTYLE
350
36
  3
ACAD_PLOTSETTINGS
350
37
  3
ACAD_PLOTSTYLENAME
350
8
  3
ACAD_SCALELIST
350
3F
  3
ACAD_TABLESTYLE
350
40
  3
ACAD_VISUALSTYLE
350
2B
  3
ACDB_RECOMPOSE_DATA
350
2F8
  3
AcDbVariableDictionary
350
42
  0
DICTIONARY
  5
1E
330
1D
100
AcDbDictionary
280
     1
281
     1
  3
ACAD_LAYERSTATES
360
1F
  0
DICTIONARY
  5
6
330
5
100
AcDbDictionary
280
     1
281
     1
  0
DICTIONARY
  5
3
330
2
100
AcDbDictionary
280
     1
281
     1
  0
DICTIONARY
  5
3E
102
{ACAD_REACTORS
330
9
102
}
330
9
100
AcDbDictionary
281
     1
  0
DICTIONARY
  5
35
102
{ACAD_REACTORS
330
9
102
}
330
9
100
AcDbDictionary
281
     1
  0
DICTIONARY
  5
16
102
{ACAD_REACTORS
330
9
102
}
330
9
100
AcDbDictionary
281
     1
  3
Model
350
15
  3
レイアウト1
350
1C
  0
DICTIONARY
  5
B
102
{ACAD_REACTORS
330
9
102
}
330
9
100
AcDbDictionary
281
     1
  3
ByBlock
350
3B
  3
ByLayer
350
38
  3
Global
350
A
  0
DICTIONARY
  5
41
102
{ACAD_REACTORS
330
9
102
}
330
9
100
AcDbDictionary
281
     1
  0
DICTIONARY
  5
36
102
{ACAD_REACTORS
330
9
102
}
330
9
100
AcDbDictionary
281
     1
  3
Standard
350
4E
  0
DICTIONARY
  5
37
102
{ACAD_REACTORS
330
9
102
}
330
9
100
AcDbDictionary
281
     1
  0
ACDBDICTIONARYWDFLT
  5
8
102
{ACAD_REACTORS
330
9
102
}
330
9
100
AcDbDictionary
281
     1
  3
Normal
350
7
100
AcDbDictionaryWithDefault
340
7
  0
DICTIONARY
  5
3F
102
{ACAD_REACTORS
330
9
102
}
330
9
100
AcDbDictionary
281
     1
  3
A0
350
53
  3
A1
350
54
  3
A2
350
55
  3
A3
350
56
  3
A4
350
57
  3
A5
350
58
  3
A6
350
59
  3
A7
350
5A
  3
A8
350
5B
  3
A9
350
5C
  3
B0
350
5D
  3
B1
350
5E
  3
B2
350
5F
  3
B3
350
60
  3
B4
350
61
  3
B5
350
62
  3
B6
350
63
  0
DICTIONARY
  5
40
102
{ACAD_REACTORS
330
9
102
}
330
9
100
AcDbDictionary
281
     1
  3
Standard
350
4F
  0
DICTIONARY
  5
2B
102
{ACAD_REACTORS
330
9
102
}
330
9
100
AcDbDictionary
281
     1
  3
2dWireframe
350
2A
  3
Realistic
350
51
  3
Wireframe
350
52
  0
XRECORD
  5
2F8
102
{ACAD_REACTORS
330
9
102
}
330
9
100
AcDbXrecord
280
     1
 90
        1
330
4F
  0
DICTIONARY
  5
42
102
{ACAD_REACTORS
330
9
102
}
330
9
100
AcDbDictionary
281
     1
  3
CANNOSCALE
350
43
  3
CENTEREXE
350
44
  3
CENTERLTYPEFILE
350
45
  3
CMLEADERSTYLE
350
46
  3
CTABLESTYLE
350
47
  3
CVIEWDETAILSTYLE
350
48
  3
CVIEWSECTIONSTYLE
350
49
  3
DIMASSOC
350
4A
  3
HIDETEXT
350
4B
  3
LAYEREVAL
350
4C
  3
LAYERNOTIFY
350
4D
  0
DICTIONARY
  5
1F
102
{ACAD_REACTORS
330
1E
102
}
330
1E
100
AcDbDictionary
281
     1
  0
LAYOUT
  5
15
102
{ACAD_XDICTIONARY
360
17
102
}
102
{ACAD_REACTORS
330
16
102
}
330
16
100
AcDbPlotSettings
  1

  2
none_device
  4
ISO_A4_(210.00_x_297.00_MM)
  6

 40
7.5
 41
20.0
 42
7.5
 43
20.0
 44
210.0
 45
297.0
 46
11.54999923706054
 47
-13.65000009536743
 48
0.0
 49
0.0
140
0.0
141
0.0
142
1.0
143
8.704084754739808
 70
 11952
 72
     1
 73
     0
 74
     0
  7

 75
     0
147
0.1148885871608098
 76
     0
 77
     2
 78
   300
148
0.0
149
0.0
100
AcDbLayout
  1
Model
 70
     1
 71
     0
 10
0.0
 20
0.0
 11
12.0
 21
9.0
 12
0.0
 22
0.0
 32
0.0
 14
0.0
 24
0.0
 34
0.0
 15
0.0
 25
0.0
 35
0.0
146
0.0
 13
0.0
 23
0.0
 33
0.0
 16
1.0
 26
0.0
 36
0.0
 17
0.0
 27
1.0
 37
0.0
 76
     0
330
2
331
29
1001
ACAD_PSEXT
1000
None
1000
None
1000
Not applicable
1000
The layout will not be plotted unless a new plotter configuration name is selected.
1070
     0
  0
LAYOUT
  5
1C
102
{ACAD_REACTORS
330
16
102
}
330
16
100
AcDbPlotSettings
  1

  2
C:\Documents and Settings\basas\Application Data\Autodesk\AutoCAD 2005\R16.1\enu\plotters\Default Windows System Printer.pc3
  4

  6

 40
0.0
 41
0.0
 42
0.0
 43
0.0
 44
0.0
 45
0.0
 46
0.0
 47
0.0
 48
0.0
 49
0.0
140
0.0
141
0.0
142
1.0
143
1.0
 70
   688
 72
     0
 73
     0
 74
     5
  7

 75
    16
147
1.0
 76
     0
 77
     2
 78
   300
148
0.0
149
0.0
100
AcDbLayout
  1
レイアウト1
 70
     1
 71
     1
 10
0.0
 20
0.0
 11
12.0
 21
9.0
 12
0.0
 22
0.0
 32
0.0
 14
0.0
 24
0.0
 34
0.0
 15
0.0
 25
0.0
 35
0.0
146
0.0
 13
0.0
 23
0.0
 33
0.0
 16
1.0
 26
0.0
 36
0.0
 17
0.0
 27
1.0
 37
0.0
 76
     0
330
19
  0
MATERIAL
  5
3B
102
{ACAD_XDICTIONARY
360
3C
102
}
102
{ACAD_REACTORS
330
B
102
}
330
B
100
AcDbMaterial
  1
ByBlock
 94
       63
  0
MATERIAL
  5
38
102
{ACAD_XDICTIONARY
360
39
102
}
102
{ACAD_REACTORS
330
B
102
}
330
B
100
AcDbMaterial
  1
ByLayer
 94
       63
  0
MATERIAL
  5
A
102
{ACAD_XDICTIONARY
360
C
102
}
102
{ACAD_REACTORS
330
B
102
}
330
B
100
AcDbMaterial
  1
Global
 43
0.0007999999797903
 43
0.0
 43
0.0
 43
0.0
 43
0.0
 43
0.0007999999797903
 43
0.0
 43
0.0
 43
0.0
 43
0.0
 43
1.0
 43
0.0
 43
0.0
 43
0.0
 43
0.0
 43
1.0
 49
0.0007999999797903
 49
0.0
 49
0.0
 49
0.0
 49
0.0
 49
0.0007999999797903
 49
0.0
 49
0.0
 49
0.0
 49
0.0
 49
1.0
 49
0.0
 49
0.0
 49
0.0
 49
0.0
 49
1.0
142
0.0007999999797903
142
0.0
142
0.0
142
0.0
142
0.0
142
0.0007999999797903
142
0.0
142
0.0
142
0.0
142
0.0
142
1.0
142
0.0
142
0.0
142
0.0
142
0.0
142
1.0
144
0.0007999999797903
144
0.0
144
0.0
144
0.0
144
0.0
144
0.0007999999797903
144
0.0
144
0.0
144
0.0
144
0.0
144
1.0
144
0.0
144
0.0
144
0.0
144
0.0
144
1.0
 94
       63
1001
ACAD
1070
    -1
1070
     3
1070
     0
1000

1071
        0
1070
     0
  0
MLINESTYLE
  5
4E
102
{ACAD_REACTORS
330
36
102
}
330
36
100
AcDbMlineStyle
  2
STANDARD
 70
     0
  3

 62
   256
 51
90.0
 52
90.0
 71
     2
 49
0.5
 62
   256
  6
BYLAYER
 49
-0.5
 62
   256
  6
BYLAYER
  0
ACDBPLACEHOLDER
  5
7
102
{ACAD_REACTORS
330
8
102
}
330
8
  0
SCALE
  5
53
102
{ACAD_REACTORS
330
3F
102
}
330
3F
100
AcDbScale
 70
     0
300
1:1
140
1.0
141
1.0
290
     1
  0
SCALE
  5
54
102
{ACAD_REACTORS
330
3F
102
}
330
3F
100
AcDbScale
 70
     0
300
1:2
140
1.0
141
2.0
290
     0
  0
SCALE
  5
55
102
{ACAD_REACTORS
330
3F
102
}
330
3F
100
AcDbScale
 70
     0
300
1:4
140
1.0
141
4.0
290
     0
  0
SCALE
  5
56
102
{ACAD_REACTORS
330
3F
102
}
330
3F
100
AcDbScale
 70
     0
300
1:5
140
1.0
141
5.0
290
     0
  0
SCALE
  5
57
102
{ACAD_REACTORS
330
3F
102
}
330
3F
100
AcDbScale
 70
     0
300
1:8
140
1.0
141
8.0
290
     0
  0
SCALE
  5
58
102
{ACAD_REACTORS
330
3F
102
}
330
3F
100
AcDbScale
 70
     0
300
1:10
140
1.0
141
10.0
290
     0
  0
SCALE
  5
59
102
{ACAD_REACTORS
330
3F
102
}
330
3F
100
AcDbScale
 70
     0
300
1:16
140
1.0
141
16.0
290
     0
  0
SCALE
  5
5A
102
{ACAD_REACTORS
330
3F
102
}
330
3F
100
AcDbScale
 70
     0
300
1:20
140
1.0
141
20.0
290
     0
  0
SCALE
  5
5B
102
{ACAD_REACTORS
330
3F
102
}
330
3F
100
AcDbScale
 70
     0
300
1:30
140
1.0
141
30.0
290
     0
  0
SCALE
  5
5C
102
{ACAD_REACTORS
330
3F
102
}
330
3F
100
AcDbScale
 70
     0
300
1:40
140
1.0
141
40.0
290
     0
  0
SCALE
  5
5D
102
{ACAD_REACTORS
330
3F
102
}
330
3F
100
AcDbScale
 70
     0
300
1:50
140
1.0
141
50.0
290
     0
  0
SCALE
  5
5E
102
{ACAD_REACTORS
330
3F
102
}
330
3F
100
AcDbScale
 70
     0
300
1:100
140
1.0
141
100.0
290
     0
  0
SCALE
  5
5F
102
{ACAD_REACTORS
330
3F
102
}
330
3F
100
AcDbScale
 70
     0
300
2:1
140
2.0
141
1.0
290
     0
  0
SCALE
  5
60
102
{ACAD_REACTORS
330
3F
102
}
330
3F
100
AcDbScale
 70
     0
300
4:1
140
4.0
141
1.0
290
     0
  0
SCALE
  5
61
102
{ACAD_REACTORS
330
3F
102
}
330
3F
100
AcDbScale
 70
     0
300
8:1
140
8.0
141
1.0
290
     0
  0
SCALE
  5
62
102
{ACAD_REACTORS
330
3F
102
}
330
3F
100
AcDbScale
 70
     0
300
10:1
140
10.0
141
1.0
290
     0
  0
SCALE
  5
63
102
{ACAD_REACTORS
330
3F
102
}
330
3F
100
AcDbScale
 70
     0
300
100:1
140
100.0
141
1.0
290
     0
  0
TABLESTYLE
  5
4F
102
{ACAD_XDICTIONARY
360
50
102
}
102
{ACAD_REACTORS
330
40
102
}
330
40
100
AcDbTableStyle
280
     0
  3
Standard
 70
     0
 71
     0
 40
1.5
 41
1.5
280
     0
281
     0
  7
Standard
140
4.5
170
     2
 62
     0
 63
     7
283
     0
 90
      512
 91
        0
  1

274
    -2
284
     1
 64
     0
275
    -2
285
     1
 65
     0
276
    -2
286
     1
 66
     0
277
    -2
287
     1
 67
     0
278
    -2
288
     1
 68
     0
279
    -2
289
     1
 69
     0
  7
Standard
140
6.0
170
     5
 62
     0
 63
     7
283
     0
 90
      512
 91
        0
  1

274
    -2
284
     1
 64
     0
275
    -2
285
     1
 65
     0
276
    -2
286
     1
 66
     0
277
    -2
287
     1
 67
     0
278
    -2
288
     1
 68
     0
279
    -2
289
     1
 69
     0
  7
Standard
140
4.5
170
     5
 62
     0
 63
     7
283
     0
 90
      512
 91
        0
  1

274
    -2
284
     1
 64
     0
275
    -2
285
     1
 65
     0
276
    -2
286
     1
 66
     0
277
    -2
287
     1
 67
     0
278
    -2
288
     1
 68
     0
279
    -2
289
     1
 69
     0
  0
VISUALSTYLE
  5
2A
102
{ACAD_REACTORS
330
2B
102
}
330
2B
100
AcDbVisualStyle
  2
2dWireframe
 70
     4
177
     3
291
     0
 70
    58
 90
        0
176
     1
 90
        2
176
     1
 90
        1
176
     1
 90
        0
176
     1
 40
0.6
176
     1
 40
30.0
176
     1
 62
     7
420
 16777215
176
     1
 90
        1
176
     1
 90
        4
176
     1
 62
     7
176
     1
 62
   257
176
     1
 90
        1
176
     1
 90
        1
176
     1
 40
1.0
176
     1
 90
        0
176
     1
 62
   257
176
     1
 40
1.0
176
     1
 90
        1
176
     1
 90
        6
176
     1
 90
        2
176
     1
 62
     7
176
     1
 90
        5
176
     1
 90
        0
176
     1
 90
        0
176
     1
290
     0
176
     1
 90
        1
176
     1
 40
0.0
176
     1
 90
        0
176
     1
290
     1
176
     1
290
     1
176
     1
290
     0
176
     1
290
     0
176
     1
290
     0
176
     1
290
     0
176
     1
290
     0
176
     1
290
     0
176
     1
290
     0
176
     1
 90
       50
176
     1
 40
0.0
176
     1
 40
1.0
176
     1
 90
        0
176
     1
 62
    18
420
        0
176
     1
 90
       50
176
     1
 90
        3
176
     1
 62
     5
420
      255
176
     1
290
     0
176
     1
 90
       50
176
     1
 90
       50
176
     1
 90
       50
176
     1
290
     0
176
     1
 90
       50
176
     1
 62
   256
176
     0
 40
1.0
176
     0
 90
        2
176
     1
  1
strokes_ogs.tif
176
     1
290
     0
176
     1
 40
1.0
176
     1
 40
1.0
176
     1
  0
VISUALSTYLE
  5
51
102
{ACAD_REACTORS
330
2B
102
}
330
2B
100
AcDbVisualStyle
  2
Realistic
 70
     8
177
     3
291
     0
 70
    58
 90
        2
176
     1
 90
        3
176
     1
 90
        0
176
     1
 90
        2
176
     1
 40
0.6
176
     1
 40
30.0
176
     1
 62
     7
420
 16777215
176
     1
 90
        0
176
     1
 90
        0
176
     1
 62
     7
176
     1
 62
   257
176
     1
 90
        1
176
     1
 90
        1
176
     1
 40
1.0
176
     1
 90
        8
176
     1
 62
   257
176
     1
 40
1.0
176
     1
 90
        1
176
     1
 90
        6
176
     1
 90
        2
176
     1
 62
     7
176
     1
 90
        3
176
     1
 90
        0
176
     1
 90
        0
176
     1
290
     0
176
     1
 90
       13
176
     1
 40
0.0
176
     1
 90
        0
176
     1
290
     0
176
     1
290
     1
176
     1
290
     1
176
     1
290
     0
176
     1
290
     0
176
     1
290
     0
176
     1
290
     0
176
     1
290
     0
176
     1
290
     0
176
     1
 90
       50
176
     1
 40
0.0
176
     1
 40
1.0
176
     1
 90
        0
176
     1
 62
    18
420
        0
176
     1
 90
       50
176
     1
 90
        3
176
     1
 62
     5
420
      255
176
     1
290
     0
176
     1
 90
       50
176
     1
 90
       50
176
     1
 90
       50
176
     1
290
     0
176
     1
 90
       50
176
     1
 62
   256
176
     0
 40
1.0
176
     0
 90
        2
176
     1
  1
strokes_ogs.tif
176
     1
290
     0
176
     1
 40
1.0
176
     1
 40
1.0
176
     1
  0
VISUALSTYLE
  5
52
102
{ACAD_REACTORS
330
2B
102
}
330
2B
100
AcDbVisualStyle
  2
Wireframe
 70
     5
177
     3
291
     0
 70
    58
 90
        0
176
     1
 90
        2
176
     1
 90
        0
176
     1
 90
        0
176
     1
 40
0.6
176
     1
 40
30.0
176
     1
 62
     7
420
 16777215
176
     1
 90
        1
176
     1
 90
        4
176
     1
 62
     7
176
     1
 62
   257
176
     1
 90
        1
176
     1
 90
        1
176
     1
 40
1.0
176
     1
 90
        0
176
     1
 62
   257
176
     1
 40
1.0
176
     1
 90
        1
176
     1
 90
        6
176
     1
 90
        2
176
     1
 62
     7
176
     1
 90
        3
176
     1
 90
        0
176
     1
 90
        0
176
     1
290
     0
176
     1
 90
        1
176
     1
 40
0.0
176
     1
 90
        0
176
     1
290
     0
176
     1
290
     1
176
     1
290
     1
176
     1
290
     0
176
     1
290
     0
176
     1
290
     0
176
     1
290
     0
176
     1
290
     0
176
     1
290
     0
176
     1
 90
       50
176
     1
 40
0.0
176
     1
 40
1.0
176
     1
 90
        0
176
     1
 62
    18
420
        0
176
     1
 90
       50
176
     1
 90
        3
176
     1
 62
     5
420
      255
176
     1
290
     0
176
     1
 90
       50
176
     1
 90
       50
176
     1
 90
       50
176
     1
290
     0
176
     1
 90
       50
176
     1
 62
   256
176
     0
 40
1.0
176
     0
 90
        2
176
     1
  1
strokes_ogs.tif
176
     1
290
     0
176
     1
 40
1.0
176
     1
 40
1.0
176
     1
  0
DICTIONARYVAR
  5
43
102
{ACAD_REACTORS
330
42
102
}
330
42
100
DictionaryVariables
280
     0
  1
1:1
  0
DICTIONARYVAR
  5
44
102
{ACAD_REACTORS
330
42
102
}
330
42
100
DictionaryVariables
280
     0
  1
3.500000
  0
DICTIONARYVAR
  5
45
102
{ACAD_REACTORS
330
42
102
}
330
42
100
DictionaryVariables
280
     0
  1
acadiso.lin
  0
DICTIONARYVAR
  5
46
102
{ACAD_REACTORS
330
42
102
}
330
42
100
DictionaryVariables
280
     0
  1
STANDARD
  0
DICTIONARYVAR
  5
47
102
{ACAD_REACTORS
330
42
102
}
330
42
100
DictionaryVariables
280
     0
  1
STANDARD
  0
DICTIONARYVAR
  5
48
102
{ACAD_REACTORS
330
42
102
}
330
42
100
DictionaryVariables
280
     0
  1

  0
DICTIONARYVAR
  5
49
102
{ACAD_REACTORS
330
42
102
}
330
42
100
DictionaryVariables
280
     0
  1

  0
DICTIONARYVAR
  5
4A
102
{ACAD_REACTORS
330
42
102
}
330
42
100
DictionaryVariables
280
     0
  1
2
  0
DICTIONARYVAR
  5
4B
102
{ACAD_REACTORS
330
42
102
}
330
42
100
DictionaryVariables
280
     0
  1
1
  0
DICTIONARYVAR
  5
4C
102
{ACAD_REACTORS
330
42
102
}
330
42
100
DictionaryVariables
280
     0
  1
0
  0
DICTIONARYVAR
  5
4D
102
{ACAD_REACTORS
330
42
102
}
330
42
100
DictionaryVariables
280
     0
  1
0
  0
DICTIONARY
  5
17
330
15
100
AcDbDictionary
280
     1
281
     1
  0
DICTIONARY
  5
3C
330
3B
100
AcDbDictionary
280
     1
281
     1
  3
FBXASSET
360
3D
  0
DICTIONARY
  5
39
330
38
100
AcDbDictionary
280
     1
281
     1
  3
FBXASSET
360
3A
  0
DICTIONARY
  5
C
330
A
100
AcDbDictionary
280
     1
281
     1
  3
BUMPTILE
360
D
  3
DIFFUSETILE
360
E
  3
FBXASSET
360
F
  3
OPACITYTILE
360
10
  3
REFLECTIONTILE
360
11
  0
DICTIONARY
  5
50
330
4F
100
AcDbDictionary
280
     1
281
     1
  3
ACAD_ROUNDTRIP_2008_TABLESTYLE_CELLSTYLEMAP
360
2F7
  0
XRECORD
  5
3D
102
{ACAD_REACTORS
330
3C
102
}
330
3C
100
AcDbXrecord
280
     1
 70
     1
 90
429727718
  1
D62C5603-E3A1-4AEA-B7FB-FE5D8D0755AF
310
504B03040A0000080000CC70623B3DEE336E79000000790000001B0000006175746F6465736B2D64657369676E2D7061636B6167652E786D6C3C3F786D6C2076657273696F6E3D22312E302220656E636F64696E673D227574662D3822203F3E3C666F726D6174733E3C666F726D61743E687474703A2F2F736368656D612E
310
6175746F6465736B2E636F6D2F64657369676E2D7061636B6167652F323030393C2F666F726D61743E3C2F666F726D6174733E504B0304140006080800CC70623BD486FD9CA0000000F4000000130000005B436F6E74656E745F54797065735D2E786D6C7D8EC10E82300C865F65E91D8A1E8C310C0EEA1BF002731658846E
310
D98AC1B77784ABF1D8FE5FBFBF75BBCE937A534CCEB38643598122B6FEE978D0B0485F9C41B54DDD7D022595594E1A469170414C76A4D9A4D207E29CF43ECE46F218070CC6BECC4078ACAA135ACF422C856C0E68EA1BF5669944DDD7BCDE7B1F8E415D77AECB980613C2E4AC91FC167A2B244592486606FC29C8FD7F045B9A
310
EF7053A7E60B504B0304140006080800CC70623B853B8169EB0000007C01000008000000636F72652E786D6C8D90416EC3201045AF62CDB6C206821CC7C244919D9CA01740401C94182C03558F5F9C3852BBEB6A467FFE9B197D7EFC9E1EC5975982F5AE035262288C535E5B377690E21535501C055FBC8FBF6C503839990E
310
5619041F179FE64D52DE45E362569DD7661365082642A11EB9E920A89B99642953CC8E702F67A9EE7234257977194EC9EAE275C4EABCCF5EAD5940D4AC6F0E35A568B8F43562CD7046CD199FD07E60174276A7BE677B5EADB0E0D14EEFFB6A31321A0D82627C4084204C3F096B71DD52F6819B16635EADF63F509AF53FA164
310
5DDCD1EDDD17164090FCC8732078B56691CB33A85CD7DCC40F504B0304140006080800CC70623B55019EA25F0000007C00000007000000636E782E786D6C4DCB3B0E80201045D1AD90E915ED2CF8AC45050C11660C8261F98AB1B07AC9C97D42D718D865D3E909258CFD00CCE24AC6E326A164D74DC0B4128928FF32603847
310
2BA13128B1252AC747C6BAB984FC68F0B87FE8960A5C09FE86CFB69FBA01504B0304140006080800CC70623BDBABAAF470010000D40300000C0000006662782F636F72652E786D6CC553D16E823014FD95A6AF4B694182CC941A83FA05FB810A9511A125A5257EFE2E82712ECEB8A7F100CD39F7F69E734AF9FADC366850B6
310
AF8DCE7018308C942E4C59EB2AC3DE1D498AD15A706B8CFB56869196ADCAF00863C12B6B7C374385D14E6907A836A59A41D9F7CA615434B0C8705F7CAA5606D23BA8E84F41278B93AC54100640439DE0BDB320004D43C63716C7C399D30917DCFBBA9CD9BA8469F5B156168B24CED3F7248AC8769F27244EB73B92EED8862C
310
B7F13E0C179B3C8F979C8ECD82BBBABDAA2BAC924E9558448CBD9330242CFA08E3154B5651FCC6D215639C8EE5774DBE2B5F6CF2B5768B68963BB5F5588420E442FC700B1139D4CB01F450C1E918227C2E09DF070D8140C84E1E9AAB8F1340832A9CB13130A5F1376A908D57309505ECF2A0DF179C4E9D30F5B239B87E3823
310
7A79C6F31DE1A8A5AEC08474B03C7837EAE4938639B44E5932B833D2C6B6B279CDC613877FA26EE21F4A2A4C63EC7F29A2F301D1F9F7A0E37D145F504B0304140006080800CC70623B9C113CC27E0000009D0000000B0000006662782F636E782E786D6C4DCCDF0A83201C86E15B91DFB94BFB330DD428C8FB886521330DA7
310
6397BF1A1DECE883878F57749FCDA1B7892F1BBC047A23808C7F84D9FA55424E0BE6803A256208E9EF06C84F9B91703228B1C690F78B66B34CD9A5439DF5CF0BFBF65E35BCA1B8D6A5C6F540381E886698B5741C695F9503EBA150A2F8958E3DC3EA0B504B0304140006080800CC70623B7DF2F77C2A010000120200003100
310
00006662782F41393633353835312D344632462D344230382D423046372D3739314545314133324237412F636F72652E786D6C8D51DB8EC22014FC15C2939B0D2DB4B45643319AE817EC0F6041255A68B86CFCFC856D4D76DF7CE190393373060EDB3DC707F856CE6B6B7A480A0C81328395DA5C7B18C3057510EC3873D686
310
3F34088C18550F330C39BB3A1BA7051AAC09CA84841A2BD5020AEF55806078A44B0FFD7053A328440C89E1EFC52486BBB8AA8214A99D789CF9E05200300FC927E4FB4D5B375D43103D5527440FB843077C5AA3F5861C8F645F5787F59E95B390B318B55CE45AA638FAA2957BD7248B390B7A7CC51F9C124149C82B8C378810
310
84AB2F42B7B8DD56F413775B8C5999E9FF4471926F8AA236A1AE96B8B3CC434E5839373893369E1FAF30EA395917409EB7F26AF8801C171837A4A6AC9C89E9F9C9B1A58BA30FD6A5EF5DDDCF894B9AD9B6A59C957943A9FCAE2FD5BC4DFE03504B0304140006080800CC70623BAD7543B64E01000033030000300000006662
310
782F41393633353835312D344632462D344230382D423046372D3739314545314133324237412F636E782E786D6CD593CD6EC32010845F0571AD6CE3D48AD20813A9873E410FBD12D82434182C7EAAE6EDBB2424CD25871E7B41D6EC30B3FA84F9E67BB2E40B4234DE8DB46F1925E094D7C6ED479AD3AE5951B2113C789FEE
310
6C943839C1488B4C05DF079FE72A69D8C96C13AAD6B8631503449F83828872B949AC57D26200B826A308D316B4064D6E46FCDA41C05550DC9E483A00797BFD207EFB092A45DE9514C1BBD22178396BD39D891265658C238DEA00936C654E5E433CB65A26D9F6EDB5EBC14EBF49A45CB856E66048291F6939A9A81BB5C89177
310
38143CA680F4AA299D66A042CEB3354A2684DC9D8D178FE0D9B8B41CAAD720F880EE7EF93C0C18769E099ECC04D5A102C8049A8A05632F4DDF376CF1DE0F6BB65C2F8627B65A33C6BB62177CEBBDAD973006829F89F22E814B54F4BC2BE347F8AA8F681390B50FA73F804400B5F542E796F19FF974E7F78DB802FE05E20750
310
4B0304140006080800CC70623BE75B7789680500003C100000340000006662782F41393633353835312D344632462D344230382D423046372D3739314545314133324237412F6F626A656374732E786D6CAD575B8F9B3818FD2B887D06C22499CB8AA1CA655245D5B455A356FB305264C061D8018C6C3393D95FBFC7600890
310
A4CD5EF210B0B1BFEBF98E3F7B1FF6596ABC522E1296DF9BAE3D320D9A872C4AF2F8DE2CE5CEBA358D0FBEC719939D65A691938CDE9B6ADAF4BD98B3B2D05311DD91329583D9D5FC0F438434A7A611A644887B5384CF34233629258BA878B12322891DEFF6B66BD70BFB62634E8AE781D082709A4B588AF91C528CDA28B73F
310
1C998EEF39EABBEFA97FBD6A7C7E9553F9D3D79FE442923C3C523610337627CB87ABE99D359D4CC6D6E4FACAB5E6ABF9D2726FC6A3C5F56271377BB88362213924694B38DD99FE47C48627A1E7D49F5A8BB5E1A74C0A599ED3B0F21F1E56366B89112D681E218F0915D0D6F17AD41FBA2A369DCF6335D62ABBD39779D5DDD1
310
11D4D8DE3CBB96B2E04FB8202E41051754A1AA8E8F76B4C6DFE810B580B1547F4B84911149794252234D024EF8BBE963A95AE27B3D310A9D5C215C7960FAEE415ED75694C6AFB17BCACA5D99A60A9AA65F217B0BFC53292ACB92BF283FAD0D3621576592CB5BED907C2FA8E9DF794E35E97BEA31BED21FEB401ABB94C44839
310
DCACBF0E1C5DA8DA5B2F4DFFD32AD86F543D9E565E7056502E157C00AD2671CD534549AB752FCA9CDA00677A313F04E51B22FF19E57B300579E3C97EB29F682D92935CEC18CF901B7B54FD8C51F362B56FC72FE0B3C1EAE335EDCCBF5AEC39ADB17DC238973F804BA5E6F6BFE7AF1FB32E523BE9F3BD571418E3631DCA4D48
310
5250CF639223210A9446CA30052EDF057BD35F8329C1ECD84552BF0DC8D18BE7BCE23BFE6BD960AB4A7DE79923A103BEBD80F911CBAA2C60DB19B01CF164A5583B772EE6D3FFA56666CBCDA74DC97724A48F9A58967497E489C4D979006FD7A05E227A1EBDD0F737C623387A9C844D3709995625106D157315F8B8392CD4E0
310
A0B9A720C4BE9829CEF37EA1E13111214D53925356365ADA634861B52519DD27A00AEB808EAF0628E6F435519D446F45CF2C9CF5214F0A15B2F6D06B79DA3EE3CBF7F56780D2F4E7EF73A0F5E5B02A38D07DC852C6B7C1FBB6664213E0C39E3EBA7FF4E1AD23EA2829407C85E586727488B751B2DB9502BC7B228A3FD68B6E
310
A65A22397E690AA8D158D7E404EC8CDA235CC3B7D1898680131CEC2CDF2638C65196279577750F15884AEE19F94199155B92B13297978469D4F8D358DF0AEF7631E28DC8F0D9F437D5D39A83B2231A1D52D543813A824EF8D44BCFF2FA6A31BD1E8DAD87F1CCB526B3879935BF59CDADD5C37479BB1CDD4CA7B3556B516589
310
EF352754B706114D9C885EC9131DE6EFEB43D99AFE2391C2F958179413D7CFEF6B1B6DB1E7600F00DE6E5C67454A339A4BA2E0FBA85ED26F045D454F463DBFCE484C2F90F2E5E3666003662ED8F755951A7D1BECD5B30B550B2785C8E7320B7292A4838DDA71BBC863ED7613CAF659337A3354231D4FF4A182A54904C2898C
310
98B28C4AD0CE056CCF332A80986E571EE9DBC305BB5FEB7E509220A58D25CF042D712A806AC0AD0C657FDEF80D2D9CEAA2EE4D1C76F60BFE74219A06527D6F82DF6412526107381E55E353090704D085B52408A8913C4ED159D79BDA71BB4BC506F4831350EB6F975CD22D69BF7AC49B91A2C0A9DDA3D5CA36AD20FC478E37
310
E61844E2352865EBCB61A275A65283CAAA9DD27703B4102F5AF51EF5F573B75CBB5AD38BC845F7A49F82A0966A49C2E3EA5EA0ECD326CD965F1DB402C6FA8B51A4658C5C5E2EC9E214602E55810345408596591009A82E7E7FFACA19EEA299B14A0081A705CB3296EBC14CDF658DCD336EA6D1136881AAEB87B81AB9EE53D5
310
F5EB8BC8362082DA24122F98680A4E7930C01A0079749CEA14382A0783E5EBA5A10F8C098456A03D6A4AEB6BB881E2513747552A5DB22C7EDAF83BD5528081A365F7FF06504B0304140006080000CC70623B000000000000000000000000350000006662782F41393633353835312D344632462D344230382D423046372D37
310
39314545314133324237412F76657274696365732E62696E504B0304140006080800CC70623BF270F1330600000004000000360000006662782F41393633353835312D344632462D344230382D423046372D3739314545314133324237412F747269616E676C65732E62696E636660600000504B0304140006080000CC7062
310
3B000000000000000000000000370000006662782F41393633353835312D344632462D344230382D423046372D3739314545314133324237412F617474726962757465732E62696E504B0304140006080800CC70623B08DA0BD19000000041010000360000006662782F41393633353835312D344632462D344230382D4230
310
46372D3739314545314133324237412F6469726563746F72792E786D6C858F410AC3201045AF22B36F53E9A60B35CBEEBAE80D244E44489C6234F4F835464A48035D0DF398FF9F8AF63D0E6CC63039F212F8F9020C7D47C6792B21C5FE7403D62A1188E2E60C98D7234A5830286103A55745067B9D86B8A3CF9C7F90C11DE6
310
07FB144396D7B6A82D282E9A152AD114D5EF2CB866EEE831B8EEA07A7BB5A8D7D61A2BAAEB7FD5F70921FF497D00504B0304140006080800CC70623BEDD1DC58FD000000A00100003B0000006662782F41393633353835312D344632462D344230382D423046372D3739314545314133324237412F7265736F75726365732F
310
636F72652E786D6C8D504B6E833010BD0A9A6D65B00922041947112427E8052C33A156828DFCA97AFC9A40A576D7CDCCE87D344F8F9FBFE667F689CE6B6B3A6039850C8DB2A336530731DC4903D95970676DF82583CCC8193B5861107C72362E3BA4AC096842428D1D7107A5F7182053CF7474E0D507CE32973124857FE48B
310
540F3961CEF244279DE03EB81420DB9EAC1384436FA353E879B1B182C7A8C75DA3C7F453DF353A1075D537A7BA6464B8F535A99AE14A9A2BBD90E350DD183B5CFABE3AF262350B1EF4FC9351399401471025A527C218A1E53BAB5A5AB765F5469B96525EACF23FA6B88CFF34456DC2A1DCE36E360F82A5202F42F062ED2BAD
310
579969AFDD8A6F504B010214000A0000080000CC70623B3DEE336E79000000790000001B00000000000000000000000000000000006175746F6465736B2D64657369676E2D7061636B6167652E786D6C504B01021400140006080800CC70623BD486FD9CA0000000F40000001300000000000000000000000000B20000005B
310
436F6E74656E745F54797065735D2E786D6C504B01021400140006080800CC70623B853B8169EB0000007C010000080000000000000000000000000083010000636F72652E786D6C504B01021400140006080800CC70623B55019EA25F0000007C000000070000000000000000000000000094020000636E782E786D6C504B
310
01021400140006080800CC70623BDBABAAF470010000D40300000C00000000000000000000000000180300006662782F636F72652E786D6C504B01021400140006080800CC70623B9C113CC27E0000009D0000000B00000000000000000000000000B20400006662782F636E782E786D6C504B01021400140006080800CC70
310
623B7DF2F77C2A010000120200003100000000000000000000000000590500006662782F41393633353835312D344632462D344230382D423046372D3739314545314133324237412F636F72652E786D6C504B01021400140006080800CC70623BAD7543B64E010000330300003000000000000000000000000000D2060000
310
6662782F41393633353835312D344632462D344230382D423046372D3739314545314133324237412F636E782E786D6C504B01021400140006080800CC70623BE75B7789680500003C10000034000000000000000000000000006E0800006662782F41393633353835312D344632462D344230382D423046372D3739314545
310
314133324237412F6F626A656374732E786D6C504B01021400140006080000CC70623B0000000000000000000000003500000000000000000000000000280E00006662782F41393633353835312D344632462D344230382D423046372D3739314545314133324237412F76657274696365732E62696E504B01021400140006
310
080800CC70623BF270F133060000000400000036000000000000000000000000007B0E00006662782F41393633353835312D344632462D344230382D423046372D3739314545314133324237412F747269616E676C65732E62696E504B01021400140006080000CC70623B0000000000000000000000003700000000000000
310
000000000000D50E00006662782F41393633353835312D344632462D344230382D423046372D3739314545314133324237412F617474726962757465732E62696E504B01021400140006080800CC70623B08DA0BD1900000004101000036000000000000000000000000002A0F00006662782F41393633353835312D344632
310
462D344230382D423046372D3739314545314133324237412F6469726563746F72792E786D6C504B01021400140006080800CC70623BEDD1DC58FD000000A00100003B000000000000000000000000000E1000006662782F41393633353835312D344632462D344230382D423046372D3739314545314133324237412F7265
310
736F75726365732F636F72652E786D6C504B0506000000000E000E0080040000641100000000
  0
XRECORD
  5
3A
102
{ACAD_REACTORS
330
39
102
}
330
39
100
AcDbXrecord
280
     1
 70
     1
 90
429727718
  1
30362254-06B7-45E0-A893-8CFA70E3D6BC
310
504B03040A0000080000CC70623B3DEE336E79000000790000001B0000006175746F6465736B2D64657369676E2D7061636B6167652E786D6C3C3F786D6C2076657273696F6E3D22312E302220656E636F64696E673D227574662D3822203F3E3C666F726D6174733E3C666F726D61743E687474703A2F2F736368656D612E
310
6175746F6465736B2E636F6D2F64657369676E2D7061636B6167652F323030393C2F666F726D61743E3C2F666F726D6174733E504B0304140006080800CC70623BD486FD9CA0000000F4000000130000005B436F6E74656E745F54797065735D2E786D6C7D8EC10E82300C865F65E91D8A1E8C310C0EEA1BF002731658846E
310
D98AC1B77784ABF1D8FE5FBFBF75BBCE937A534CCEB38643598122B6FEE978D0B0485F9C41B54DDD7D022595594E1A469170414C76A4D9A4D207E29CF43ECE46F218070CC6BECC4078ACAA135ACF422C856C0E68EA1BF5669944DDD7BCDE7B1F8E415D77AECB980613C2E4AC91FC167A2B244592486606FC29C8FD7F045B9A
310
EF7053A7E60B504B0304140006080800CC70623B1EC5D7A3EB0000007C01000008000000636F72652E786D6C8D90416EC3201045AF82665B6103C6756C6122AB4D4ED00B204C5C94182C03558F5F9C3852BBEB6A467FFE9B197D71FC9E6FE8CBACC17AD7032D0820E3B41FAD9B7A48F1820F808E52ACDEC75F36404ECDA687
310
4D0629A6D5A76597B477D1B89855E747B38B2A041301E95B6E7A08FAD3CCAA50296647B8168BD2573599823EBB0CA76447F43862C7BCCF5EAC59410E4DDD9C7973C2755553CCCFA4C603E3040F1565ED3B1FDE4E432BCA0D9622DAF9795FAF464533826484B498524CD807E51D79ED187F21878E10516EF63F505AC67F42C9
310
BA58B1FDDD071640D2FCC87D2045B96591CB3DA85CB7DCE40F504B0304140006080800CC70623B55019EA25F0000007C00000007000000636E782E786D6C4DCB3B0E80201045D1AD90E915ED2CF8AC45050C11660C8261F98AB1B07AC9C97D42D718D865D3E909258CFD00CCE24AC6E326A164D74DC0B4128928FF32603847
310
2BA13128B1252AC747C6BAB984FC68F0B87FE8960A5C09FE86CFB69FBA01504B0304140006080800CC70623B8C9102E971010000D40300000C0000006662782F636F72652E786D6CC5535B6E833010BC8AE5DF0A6C08340F1947A84D4ED00B38C6A128602363A31CBFCB234A53A551FA553EC09AD9F5CE8C31DB9E9B1AF5CA
310
7695D1198E428A91D2D214952E33ECDD315861B4E5CC1AE3BE9561A445A3323CC098B3D21ADFCE9034DA29ED00D5A6503328BA4E398C640D8B0C77F253352214DE4145770A5B214FA2546114020D759C75CE8200340D19DE981F0F6746269C33EFAB6266AB02A655C74A59CCF365BADC27CB5D902ED22848F6340DF238A141
310
BE88E2F57B92BFEDF23523433367AE6A2EEAA455C2A902F398D2751045018D3FA264435F3771F242571B4A1919CA6F9A7C5B3CD9E42BED16F12C776AEB308F40C848FC700B1139D4891EF410CEC810227CC6846F8386402064270EF5C5C709A05E49676C024C61FC95EA45ED154CA5211D1FF4FB8291A913A68E9B83EBBB33
310
E2A7673CDE118E5AE8124C0807CB8377834E366998436B950D7A7746DAD846D4CFD978E0F04FD455FC5D49D2D4C6FE9722321F10997F0F32DC47FE05504B0304140006080800CC70623BFFEA85907E0000009D0000000B0000006662782F636E782E786D6C4DCCD10A83201886E15B91FFDC95D95A811AB6F23E625948A6C3
310
E9D8E5AF46073BFAE0E1E365ED67B3E8ADC3CB78C7815C7240DA3DFC64DCC221C519D7805AC182F7F1EF06C88D9BE6703008B6049F9E274D7A1E938DBB5AE3D6131B2589BA0D3D965551E0B2EA732C9B9A624AAEB41E3A557677029960D9AFB4EF11165F504B0304140006080800CC70623B4FEEA4082C0100001202000031
310
0000006662782F39464131463745442D413632322D343644302D413938332D3331353338454246344243312F636F72652E786D6C8D515B6EC32010BC0AE2AB55850DD871ED0813254D72825EC00192A2C460F1A872FC42ED48ED5F7E00CDCECCCEB26C731F6FE05B39AFADE921293004CA082BB5B9F43086336A21D870E6AC
310
0D7F68109861543DCC30E4ECE26C9C164858139409093556AA051CBC570102714B8F1E7AF1A5C6A11862480C7F2DA6415C878B2A4891CA89C7990F2E050073937C42DE1DB7E4F87ED8A36D4329AA9B3D46DBAEAD504556557BD81DEBDD0761E52CE42C462D17B996298E3E6BE59E35C962CE821E1FF18553435012728A7187
310
0841987E927A8D9B35ADDF70BBC6989599FE4F1427F9A4286A132ABAC49D651EF234CD5CE04CDA78BA3DC2A8FB645D00B9DF8B57E215725C60BCA2A463E54C4CE327C7A65E1C7DB02E7DEFCBF594B864C5CA6CDBD49C957943E9FA5D5FBAF336F90F504B0304140006080800CC70623BAD7543B64E01000033030000300000
310
006662782F39464131463745442D413632322D343644302D413938332D3331353338454246344243312F636E782E786D6CD593CD6EC32010845F0571AD6CE3D48AD20813A9873E410FBD12D82434182C7EAAE6EDBB2424CD25871E7B41D6EC30B3FA84F9E67BB2E40B4234DE8DB46F1925E094D7C6ED479AD3AE5951B2113C
310
789FEE6C943839C1488B4C05DF079FE72A69D8C96C13AAD6B8631503449F83828872B949AC57D26200B826A308D316B4064D6E46FCDA41C05550DC9E483A00797BFD207EFB092A45DE9514C1BBD22178396BD39D891265658C238DEA00936C654E5E433CB65A26D9F6EDB5EBC14EBF49A45CB856E66048291F6939A9A81BB5
310
C8917738143CA680F4AA299D66A042CEB3354A2684DC9D8D178FE0D9B8B41CAAD720F880EE7EF93C0C18769E099ECC04D5A102C8049A8A05632F4DDF376CF1DE0F6BB65C2F8627B65A33C6BB62177CEBBDAD973006829F89F22E814B54F4BC2BE347F8AA8F681390B50FA73F804400B5F542E796F19FF974E7F78DB802FE05
310
E207504B0304140006080800CC70623B16AB87BA640500003C100000340000006662782F39464131463745442D413632322D343644302D413938332D3331353338454246344243312F6F626A656374732E786D6CAD575B6FA33818FD2B887DE6924B3BED8A326A92B68A663B534DD4D13E548A0C38942D60649B369D5FBFC7
310
600890A493BDE42160637FD7F31D7FF63E6FB3D478A55C242CBF3247B66B1A340F5994E4F19559CA8D75611A9F7D8F33263BCB4C232719BD32D5B4E97B316765A1A722BA21652A07B3B7B33F0D11D29C9A46981221AE4C113ED38CD8A4942CA2E2C58E882476BCD9DA23BB5ED8171B73523C0F841684D35CC252CCE79062D4
310
468DFA43D7747CCF51DF7D4FFDEB5593E3AB9CCA9FBEFE241792E4E19EB28198C968BAB8199F5D5A67D3E9C49A9E8F47D6EC76B6B0469F26EEFC7C3EBFBCBEB98462213924694B38DD98FE1D62C393D073EA4FADC5DAF04326852CCF6958F90F0F2B9BB5C48816348F90C7840A68EB78EDF68723159BCEE7891A6B95DDE9D3
310
BCEAEEE8086A6C6F9E5D4B59F0175C10A7A0820BAA5055C7473B5AE3CFDD452D602CD5DF12616444529E90D448938013FE6EFA58AA96F85E4F8C42275708571E98FE6827AF6B2B4AE3D7D83D64E5A64C53054DD3AF90BD06FEA9149565C94FCA0F6B834DC85599E4F2423B24DF0B6AFA979E534DFA9E7A4CC6FA631D486393
310
921829879BF5D781A373557BCB85E97FB90DB62B558F8795179C15944B051F40AB495CF35451D26A4727654E6D8033BD98EF82F21D91FF8AF2DD9982BCF1643BDD4EB516C9492E368C67C88DED563FC36D5EACF66DFF057C3658BDBFA69DF9578B3DA735B64F18C7F20770A9D45CFCF7FCF563D6456A277DBEF78A02637CA2
310
43B90A490AEAB94F72244481D24819A6C0E59B606BFA4B3025981DBB48EAB701D97BF19C577CC77F2D1B6C55A9EF3C732474C0B727303F625995056C3B02963D9EAC146BE78EC5FCEC7FA999EBC5EACBAAE41B12D27B4D2C0BBA49F244E2ECDC81B76B502F113D8F5EE8FB1BE3111CDD4FC2AA9B844CAB1288B68AB90A7CDC
310
1C166AB0D3DC5310625FCC14E779BFD0709F8890A629C9292B1B2DED31A4B0DA928CEE135085754027E3018A397D4D5427D15BD1330B677DC8934285AC3DF45A9EB68FF8F2B8FC0A509AFEECFD0FF2DE25CC6047F7214B195F07EFEB9A094D800F7BFAE8FED187B78EA8A3A400F115961BCAD1215E47C966530AF0EE8128FE
310
58CEBB996A8964FFA529A046635D9353B0336A8F700DDF46271A024E70B0B37C9DE01847591E54DED53D54202AB947E4076556AC49C6CA5C9E1226B7F1A7B1BE15DEED62C41B91E1B3E9AFAAA735036547343A925075041DF0A9979E893B391F8FCFA6967B3EFB644DCF6E5CEBFAE272625DCC6FAF3FB93793C5F90CE1EF57
310
407342756B10D1C489E8953CD1617E5CEECAD6F4EF8914CE5D5D504E5C3F1F9736DA62CFC11E00BCDDB8CC8A9466349744C1F75EBDA4DF09BA8A9E8C7A7E9991989E20E5DBDD6A6003664ED8F7A04A8DBE0DF6EAD9B9AA858342E47399053949D2C146EDB85DE4B176BB0965FBAC19BD19AA918E27FA50C1D22402E144464C
310
59462568E704B6E71915404CB72B8FF4EDE184DDAF753F284990D2C6926782963815403548A70C657FDEF80D2D9CEAA2AE4C1C76F60BFE74219A06527D6582DF6412526107381E55E353090704D085B52408D0933C4ED159D79BDA71BB4BC506F4831350EB6F979CD22D69BF7AC49B91A2C0A9DDA3D5CA36AD20FC478E37E6
310
1844E2352865EBCB6EA275A652E3836BE04EFB400BF1A2556F515F1FBB35B2AB35BD889C744FFA1004B5544B121E57F70215746DD2F5E2C1412B602CBF19455AC6C8E5E9922C4E01E65215385004546899059180EAFCF7A707CE7017CD8CDB0410789AB32C63B91E5CEBBBACB17AC6CD347A022D5075FD106377347AAABA7E
310
7D11590744509B44E205134DC1290F06580320F78E537D3D73540E06CB970B431F185308AD40BBD794D6D77003C5A36E8EAA54BA64597CD8F83BD552A080A365F7FF06504B0304140006080000CC70623B000000000000000000000000350000006662782F39464131463745442D413632322D343644302D413938332D3331
310
353338454246344243312F76657274696365732E62696E504B0304140006080800CC70623BF270F1330600000004000000360000006662782F39464131463745442D413632322D343644302D413938332D3331353338454246344243312F747269616E676C65732E62696E636660600000504B0304140006080000CC70623B
310
000000000000000000000000370000006662782F39464131463745442D413632322D343644302D413938332D3331353338454246344243312F617474726962757465732E62696E504B0304140006080800CC70623B08DA0BD19000000041010000360000006662782F39464131463745442D413632322D343644302D413938
310
332D3331353338454246344243312F6469726563746F72792E786D6C858F410AC3201045AF22B36F53E9A60B35CBEEBAE80D244E44489C6234F4F835464A48035D0DF398FF9F8AF63D0E6CC63039F212F8F9020C7D47C6792B21C5FE7403D62A1188E2E60C98D7234A5830286103A55745067B9D86B8A3CF9C7F90C11DE607
310
FB144396D7B6A82D282E9A152AD114D5EF2CB866EEE831B8EEA07A7BB5A8D7D61A2BAAEB7FD5F70921FF497D00504B0304140006080800CC70623B0D6EF93BFE000000A00100003B0000006662782F39464131463745442D413632322D343644302D413938332D3331353338454246344243312F7265736F75726365732F63
310
6F72652E786D6C8D50596E833010BD0A9ADFCA60B334011947A8694ED00B586642AC041B79A97AFC9A40A5F6AF3F33A3B7689E1E3F7DCD8FEC139DD7D6F4C0720A191A65476DA61E62B892236427C19DB5E1970C322367EC618541F0C9D9B8EC90B226A009093576C41D94DE63804C3DD2D18357379C652E63480A7FCF17A9
310
EE72C29CE5894E3AC17D702940B63D59270887DE46A7D0F36263058F518FBB468FE9A7BE6A7420864373B8D4873369AA8691FA421B3294352543C5CAF65C0F6FEF43CB8BD52C78D0F34F46E550061C419494B6843142CB0F5677F4B52BEB177AEC28E5C52AFF638ACBF84F53D42654E51E77B379102C05791282176B5F693D
310
CB4C7BED567C03504B010214000A0000080000CC70623B3DEE336E79000000790000001B00000000000000000000000000000000006175746F6465736B2D64657369676E2D7061636B6167652E786D6C504B01021400140006080800CC70623BD486FD9CA0000000F40000001300000000000000000000000000B20000005B
310
436F6E74656E745F54797065735D2E786D6C504B01021400140006080800CC70623B1EC5D7A3EB0000007C010000080000000000000000000000000083010000636F72652E786D6C504B01021400140006080800CC70623B55019EA25F0000007C000000070000000000000000000000000094020000636E782E786D6C504B
310
01021400140006080800CC70623B8C9102E971010000D40300000C00000000000000000000000000180300006662782F636F72652E786D6C504B01021400140006080800CC70623BFFEA85907E0000009D0000000B00000000000000000000000000B30400006662782F636E782E786D6C504B01021400140006080800CC70
310
623B4FEEA4082C0100001202000031000000000000000000000000005A0500006662782F39464131463745442D413632322D343644302D413938332D3331353338454246344243312F636F72652E786D6C504B01021400140006080800CC70623BAD7543B64E010000330300003000000000000000000000000000D5060000
310
6662782F39464131463745442D413632322D343644302D413938332D3331353338454246344243312F636E782E786D6C504B01021400140006080800CC70623B16AB87BA640500003C1000003400000000000000000000000000710800006662782F39464131463745442D413632322D343644302D413938332D3331353338
310
454246344243312F6F626A656374732E786D6C504B01021400140006080000CC70623B0000000000000000000000003500000000000000000000000000270E00006662782F39464131463745442D413632322D343644302D413938332D3331353338454246344243312F76657274696365732E62696E504B01021400140006
310
080800CC70623BF270F133060000000400000036000000000000000000000000007A0E00006662782F39464131463745442D413632322D343644302D413938332D3331353338454246344243312F747269616E676C65732E62696E504B01021400140006080000CC70623B0000000000000000000000003700000000000000
310
000000000000D40E00006662782F39464131463745442D413632322D343644302D413938332D3331353338454246344243312F617474726962757465732E62696E504B01021400140006080800CC70623B08DA0BD190000000410100003600000000000000000000000000290F00006662782F39464131463745442D413632
310
322D343644302D413938332D3331353338454246344243312F6469726563746F72792E786D6C504B01021400140006080800CC70623B0D6EF93BFE000000A00100003B000000000000000000000000000D1000006662782F39464131463745442D413632322D343644302D413938332D3331353338454246344243312F7265
310
736F75726365732F636F72652E786D6C504B0506000000000E000E0080040000641100000000
  0
XRECORD
  5
D
102
{ACAD_REACTORS
330
C
102
}
330
C
100
AcDbXrecord
280
     1
270
     1
271
     1
  0
XRECORD
  5
E
102
{ACAD_REACTORS
330
C
102
}
330
C
100
AcDbXrecord
280
     1
270
     1
271
     1
  0
XRECORD
  5
F
102
{ACAD_REACTORS
330
C
102
}
330
C
100
AcDbXrecord
280
     1
 70
     0
 90
1673772943
  1
ECE7A1D2-D628-4531-984C-D00F80459256
310
504B03040A0000080000CC70623B3DEE336E79000000790000001B0000006175746F6465736B2D64657369676E2D7061636B6167652E786D6C3C3F786D6C2076657273696F6E3D22312E302220656E636F64696E673D227574662D3822203F3E3C666F726D6174733E3C666F726D61743E687474703A2F2F736368656D612E
310
6175746F6465736B2E636F6D2F64657369676E2D7061636B6167652F323030393C2F666F726D61743E3C2F666F726D6174733E504B0304140006080800CC70623BD486FD9CA0000000F4000000130000005B436F6E74656E745F54797065735D2E786D6C7D8EC10E82300C865F65E91D8A1E8C310C0EEA1BF002731658846E
310
D98AC1B77784ABF1D8FE5FBFBF75BBCE937A534CCEB38643598122B6FEE978D0B0485F9C41B54DDD7D022595594E1A469170414C76A4D9A4D207E29CF43ECE46F218070CC6BECC4078ACAA135ACF422C856C0E68EA1BF5669944DDD7BCDE7B1F8E415D77AECB980613C2E4AC91FC167A2B244592486606FC29C8FD7F045B9A
310
EF7053A7E60B504B0304140006080800CC70623BD9DDAED0EC0000007C01000008000000636F72652E786D6C8D90416EC3201045AF82665B61836D9CD8C2444DD39CA01740405C94182C03558F5F9C3852BBEB6A467FFE9B197D7EF89E6EE8CB2CC17A37002D0820E394D7D68D03A478C17B4007C117EFE32F1B20272733C0
310
2A83E0E3E2D3BC49CABB685CCCAAF3DA6CA20CC14440EA969B0182FA34932C648AD911AEC52CD5558EA6A0CF2EC329598D1E47ACCEFBECC59A050463A7EA5833865FEBDD0E37353BE3EE8DBDE3F6786A48D375FBF6CC78B9C282473B3DEFABC5C86834888A900E538A49F5419B9EB47DD5BC907D4F082F57FB1F28CDFA9F50
310
B22ED6D5F6EE030B20687EE43E10BC5CB3C8E51E54AE6B6EE207504B0304140006080800CC70623B55019EA25F0000007C00000007000000636E782E786D6C4DCB3B0E80201045D1AD90E915ED2CF8AC45050C11660C8261F98AB1B07AC9C97D42D718D865D3E909258CFD00CCE24AC6E326A164D74DC0B4128928FF326038
310
472BA13128B1252AC747C6BAB984FC68F0B87FE8960A5C09FE86CFB69FBA01504B0304140006080800CC70623BA24EB22D72010000D40300000C0000006662782F636F72652E786D6CC5535B6E833010BC8AE5DF0A6C5E49888CA3A6694ED00B38E05014B091B1518EDFE511A5A9D228FD2A1F60CDEC7A67C6986DCE4D8D7A
310
69BA4AAB0C073EC548AA5C17952A33ECECD15B61B4E1CC686DBF9561A44423333CC098B3D268D7CE50AE9595CA02AA74216750749DB418E5352C32DCE59FB211BE70162ABA93DF8AFC244AE9073ED050C759670D0840D390E18DF9F1706664C23973AE2A66B62A605A75ACA4C13C4976E1364A12EF355A2EBD384AF65EFA96
310
BC7B8BED2EA6719AAE16FB8491A199335B351775B991C2CA02F390D2D40B028F861F41BCA68B7518BFD0D59A524686F29B26D7164F36B94AD9289CE54E6D1DE6010819891F6E21228B3AD1831EC219194284CF98F06DD01008846CC5A1BEF83801D4CBDC6A1303536877A57A513B0953A94FC707FDBE6064EA84A9E3E6E0FA
310
EE8CF0E9198F7784A316AA0413C2C2F2E0ECA0934D1AE6D05A69BCDE9E91D2A611F573361E38FC1375157F5752AE6B6DFE4B11990F88CCBF0719EE23FF02504B0304140006080800CC70623B408A7D3B7C0000009D0000000B0000006662782F636E782E786D6C4DCCD10A83201886E15B91FFDC552A92A0064DBC8F581632
310
D3703A76F9ABD1C18E3E78F878E5F0D9027ABBFCF2292AE86E2D20171F69F6715550CB827B40839639A5F2770314A7CD293819B45C73AAFB45B35BA61ACAA1C1C7E7855C58C15BC331339661262CC762340413D68D77DA5B42298546CBE6573AF60CEB2F504B0304140006080800CC70623B449FB9BD290100001202000031
310
0000006662782F36394639363044362D344446342D343946362D394244322D3234314243333846323333332F636F72652E786D6C8D515B6EC32010BC0AE22B55850D98B871848994463E412FE002495162B07854397EA176A4F62F3F2C9A9D991D587EB84F37F0AD7D30CEF6905418026DA553C65E7A98E219ED203808EE9D
310
8B7F6810D871D23D2C3014FCE25D9A57483A1BB58D19B54EE9151C43D0110279CB971E06F9A5A7B11A53CC8C70ADE6515EC78BAE4895DB992778883E0700CB907242D17643D7E2538BD869608875438BBAE38922CAC8F1BDD90DB4691A5E2F42C153326A951B95E398B3D1FE599322163C9AE9115F7A3D46ADA0A018778810
310
84E907617BDCEE297BC5BB3DC6BC2EF47FA234AB2745C9D8D8D035EE220B50105E2F0DC1954B9FB747187D9F9D8FA0CCDB042D5FA0C015C65B42DF78BD10F3F3B363CB56C7109DCFDFBBB97E662ED92EB62D13BC2E1BCAE5777DB9966D8A1F504B0304140006080800CC70623BAD7543B64E01000033030000300000006662
310
782F36394639363044362D344446342D343946362D394244322D3234314243333846323333332F636E782E786D6CD593CD6EC32010845F0571AD6CE3D48AD20813A9873E410FBD12D82434182C7EAAE6EDBB2424CD25871E7B41D6EC30B3FA84F9E67BB2E40B4234DE8DB46F1925E094D7C6ED479AD3AE5951B2113C789FEE
310
6C943839C1488B4C05DF079FE72A69D8C96C13AAD6B8631503449F83828872B949AC57D26200B826A308D316B4064D6E46FCDA41C05550DC9E483A00797BFD207EFB092A45DE9514C1BBD22178396BD39D891265658C238DEA00936C654E5E433CB65A26D9F6EDB5EBC14EBF49A45CB856E66048291F6939A9A81BB5C89177
310
38143CA680F4AA299D66A042CEB3354A2684DC9D8D178FE0D9B8B41CAAD720F880EE7EF93C0C18769E099ECC04D5A102C8049A8A05632F4DDF376CF1DE0F6BB65C2F8627B65A33C6BB62177CEBBDAD973006829F89F22E814B54F4BC2BE347F8AA8F681390B50FA73F804400B5F542E796F19FF974E7F78DB802FE05E20750
310
4B0304140006080800CC70623B8D05915C650500003B100000340000006662782F36394639363044362D344446342D343946362D394244322D3234314243333846323333332F6F626A656374732E786D6CAD575B6FA33814FE2B887D06429276DA1565D4266D158D3A339A6846FB502932E050B66023DB74D2FDF5FB190C01
310
9276B2973C046C8ECFF53B17071F77456EBD502133CEAE6CDF9DD81665314F32965ED995DA3A17B6F5310C04E7AA47665B8C14F4CAD6DB7618A48257A5D94AE89654B91AEDDEDDFC61C998326A5B714EA4BCB265FC440BE2924AF184CA6737218AB8E976E7FA6E4338649B0A523E8D98964450A6A029F619B8588D52FE7039
310
B1BD30F0F4F730D0FF866AF6369557DB33949F31A9088B0F848DD8CCFCF9F2767A76E99CCDE733677E3EF59D9BBB9BA5E37F984D16E78BC5E5F5ED25044B25C0C96822E8D60EEFE11B91C581D77CEA34368A1F5329E68CD1B8B61F16D63A1B8E092D294B10C78C4A48EB593D192E7DED9BDEE7995E1B91FDEDD3ACEA9FE831
310
6A756F9F7D4D79F4274C90A7A04248AA51D5F8C718DAE06FB2F75AC4796EBE65D22A88A22223B995679120E2D50E41AA49C260C046A35368846B0BECD0DFF3EBEB8AD4F835768F69B9ADF25C43D30E6B646F807FAA64AD59F61715C7A54127C4AACA98BA3006A9D792DAE165E0D59B61A01FB3A9F9D838D2DAE62445C86166
310
F37564E842E7DE6A69879FEEA2DD5AE7E371E1A5E025154AC307D06A03D73EB5978C58FFA4C8E9033066E0F3BD53BEC1F39F91BE7B55103791EDE6BBB991A2046172CB4581D8B893FA674DDA17A77B3B7C413D1B511FD2743BFF8A38F03A658705E3ADF8015C3A3417FF3D7E439FF591DA0B5F18BC20C1B8981957AE6392A3
310
F43C640C01D1A0B4728E2DD4F26DB4B3C3152A252A3B4E913CEC1C72F012782FF88EFF8637AA552DBEF76408E8A8DE9E50F9E1CB3A2DA0DB1B6039A893B56063DC5B3E3FFB5F72E67AB9FEB4AEC496C4F4C1149625DD662C53E89D7BF0F6151A046260D1337DFDC94502430F83B0EE07A130A224BCAD7DAE1D9FB6CD422FF6
310
920702629C4BB9AE79C12F243C6432A6794E18E5552BA56B431AAB5D91317302B2B071E86C3A42B1A02F999E24061403B5D0EB639195DA655DD3EBEAB4FB862DDF579F014AD0E73C22F99E28DA57FB98E75C6CA2D74D53086D600F4786E0FE3144B771A8A7B900F03594DB8A633CBC49B2EDB69228BB479CF863B5E807AAAB
310
23872F6DFEB4129B949CA33823F58830E86D65621E10047D9DB34D862E8EAC3C2ABC2F7B2C40D67CDFE01F5545B92105AF983AC54D93D69E56FB8E797F88913F898A9FEC705D3F9D1B54EC8426FB500D40A03BD0119B06E1B95DDC7EB8F6975367793EBD70E66733DFB9BC982F9CE564727731999F5D4ECFCE3B8D6A4DC2A0
310
6D50FD148437D110834A64C6CDDF57FBACB5C307A2A477DFE4939736CFEF2B175371E0E10CF0DD1D5C15654E0BCA14D1E87DD02FF93782A162C0A3D95F1524A52770F972BF1EE9809D13CE7DD599467F8ECE9ADD85CE85A34CD45355448C64F9E8A031DC2D596ACC6E5DD93D9B82DE2EF5CAF81363A8E47996A0DE24564A79
310
4115AACE09C55E14540231FDA13C319787134EBF34E3A022514E5B4D9E0826E25C02D5805B15ABE1BEF51B26383D445DD9E875EE33FE4C22DA16427D65A3BCA92CA6D28DD01DF5DC53330704308475351050232CCD31583787BA75774AFB06E5070DD0C8EF484E19968C5D83BA5B90B244D31E54D55A372320FE4786B7EA58
310
44E135AA5467CB7EA333A61683CC6A8C3257034C10CF46F40EF9F5BE59BE5BD30C3C72D235E95D10345C1D45445A5F0BB47E46A5EBE5570F9380B5FA629579952296A773720405982B9DE04011506178964401AA8BDF1FBF0A8EAB6861DD6580C0E38217056766716DAEB2D6FA0917D3E4116581EADB879C4E7CFFB11EFACD
310
3D641311495D92C8676CB409A72D18610D803CE8A626049E8EC1887CB5B44CC39883690DDA8399B4B9855B481E7D71D4A9D22F96E5BB73BF5793020C02137BF837504B0304140006080000CC70623B000000000000000000000000350000006662782F36394639363044362D344446342D343946362D394244322D32343142
310
43333846323333332F76657274696365732E62696E504B0304140006080800CC70623BF270F1330600000004000000360000006662782F36394639363044362D344446342D343946362D394244322D3234314243333846323333332F747269616E676C65732E62696E636660600000504B0304140006080000CC70623B0000
310
00000000000000000000370000006662782F36394639363044362D344446342D343946362D394244322D3234314243333846323333332F617474726962757465732E62696E504B0304140006080800CC70623B08DA0BD19000000041010000360000006662782F36394639363044362D344446342D343946362D394244322D
310
3234314243333846323333332F6469726563746F72792E786D6C858F410AC3201045AF22B36F53E9A60B35CBEEBAE80D244E44489C6234F4F835464A48035D0DF398FF9F8AF63D0E6CC63039F212F8F9020C7D47C6792B21C5FE7403D62A1188E2E60C98D7234A5830286103A55745067B9D86B8A3CF9C7F90C11DE607FB14
310
4396D7B6A82D282E9A152AD114D5EF2CB866EEE831B8EEA07A7BB5A8D7D61A2BAAEB7FD5F70921FF497D00504B0304140006080800CC70623BCA768048FE000000A00100003B0000006662782F36394639363044362D344446342D343946362D394244322D3234314243333846323333332F7265736F75726365732F636F72
310
652E786D6C8D50596E833010BD0A9ADFCA60D600328E9AA639412F609909B1126CE4A5EAF16B0295DABFFECC8CDEA2797AECF8353F924FB44E193D409E5248504B332A3D0D10FC95B4901C39B3C6F85F3248B49871801506CE266BC2B243D2688FDA47549B11775038871E12F988C7004EDE7016A9083E2ADC3D5D84BC8B09
310
D33C8D74D471E6BC8D0192EDC93A815B742658898E651BCB59086ADC356A8C3FD555A1055ED7E7E254D615792D0F075295F585746FF53B694EE78A565DD736979A65AB9933AFE69F8CD2A2F038022F28ED489E135A7CE4554F9BBEA85E68DB53CAB255FEC71496F19FA6A0B42F8B3DEE6673C0F318E4497096AD7DC5F52C33
310
EEB55BFE0D504B010214000A0000080000CC70623B3DEE336E79000000790000001B00000000000000000000000000000000006175746F6465736B2D64657369676E2D7061636B6167652E786D6C504B01021400140006080800CC70623BD486FD9CA0000000F40000001300000000000000000000000000B20000005B436F
310
6E74656E745F54797065735D2E786D6C504B01021400140006080800CC70623BD9DDAED0EC0000007C010000080000000000000000000000000083010000636F72652E786D6C504B01021400140006080800CC70623B55019EA25F0000007C000000070000000000000000000000000095020000636E782E786D6C504B0102
310
1400140006080800CC70623BA24EB22D72010000D40300000C00000000000000000000000000190300006662782F636F72652E786D6C504B01021400140006080800CC70623B408A7D3B7C0000009D0000000B00000000000000000000000000B50400006662782F636E782E786D6C504B01021400140006080800CC70623B
310
449FB9BD290100001202000031000000000000000000000000005A0500006662782F36394639363044362D344446342D343946362D394244322D3234314243333846323333332F636F72652E786D6C504B01021400140006080800CC70623BAD7543B64E010000330300003000000000000000000000000000D20600006662
310
782F36394639363044362D344446342D343946362D394244322D3234314243333846323333332F636E782E786D6C504B01021400140006080800CC70623B8D05915C650500003B10000034000000000000000000000000006E0800006662782F36394639363044362D344446342D343946362D394244322D32343142433338
310
46323333332F6F626A656374732E786D6C504B01021400140006080000CC70623B0000000000000000000000003500000000000000000000000000250E00006662782F36394639363044362D344446342D343946362D394244322D3234314243333846323333332F76657274696365732E62696E504B010214001400060808
310
00CC70623BF270F13306000000040000003600000000000000000000000000780E00006662782F36394639363044362D344446342D343946362D394244322D3234314243333846323333332F747269616E676C65732E62696E504B01021400140006080000CC70623B00000000000000000000000037000000000000000000
310
00000000D20E00006662782F36394639363044362D344446342D343946362D394244322D3234314243333846323333332F617474726962757465732E62696E504B01021400140006080800CC70623B08DA0BD190000000410100003600000000000000000000000000270F00006662782F36394639363044362D344446342D
310
343946362D394244322D3234314243333846323333332F6469726563746F72792E786D6C504B01021400140006080800CC70623BCA768048FE000000A00100003B000000000000000000000000000B1000006662782F36394639363044362D344446342D343946362D394244322D3234314243333846323333332F7265736F
310
75726365732F636F72652E786D6C504B0506000000000E000E0080040000621100000000
  0
XRECORD
  5
10
102
{ACAD_REACTORS
330
C
102
}
330
C
100
AcDbXrecord
280
     1
270
     1
271
     1
  0
XRECORD
  5
11
102
{ACAD_REACTORS
330
C
102
}
330
C
100
AcDbXrecord
280
     1
270
     1
271
     1
  0
CELLSTYLEMAP
  5
2F7
102
{ACAD_REACTORS
330
50
102
}
330
50
100
AcDbCellStyleMap
 90
        3
300
CELLSTYLE
  1
TABLEFORMAT_BEGIN
 90
        5
170
     1
 91
        0
 92
    32768
 62
   257
 93
        1
300
CONTENTFORMAT
  1
CONTENTFORMAT_BEGIN
 90
        0
 91
        0
 92
      512
 93
        0
300

 40
0.0
140
1.0
 94
        5
 62
     0
340
21
144
6.0
309
CONTENTFORMAT_END
171
     1
301
MARGIN
  1
CELLMARGIN_BEGIN
 40
1.5
 40
1.5
 40
1.5
 40
1.5
 40
4.5
 40
4.5
309
CELLMARGIN_END
 94
        6
 95
        1
302
GRIDFORMAT
  1
GRIDFORMAT_BEGIN
 90
        0
 91
        1
 62
     0
 92
       -2
340
24
 93
        0
 40
1.125
309
GRIDFORMAT_END
 95
        2
302
GRIDFORMAT
  1
GRIDFORMAT_BEGIN
 90
        0
 91
        1
 62
     0
 92
       -2
340
24
 93
        0
 40
1.125
309
GRIDFORMAT_END
 95
        4
302
GRIDFORMAT
  1
GRIDFORMAT_BEGIN
 90
        0
 91
        1
 62
     0
 92
       -2
340
24
 93
        0
 40
1.125
309
GRIDFORMAT_END
 95
        8
302
GRIDFORMAT
  1
GRIDFORMAT_BEGIN
 90
        0
 91
        1
 62
     0
 92
       -2
340
24
 93
        0
 40
1.125
309
GRIDFORMAT_END
 95
       16
302
GRIDFORMAT
  1
GRIDFORMAT_BEGIN
 90
        0
 91
        1
 62
     0
 92
       -2
340
24
 93
        0
 40
1.125
309
GRIDFORMAT_END
 95
       32
302
GRIDFORMAT
  1
GRIDFORMAT_BEGIN
 90
        0
 91
        1
 62
     0
 92
       -2
340
24
 93
        0
 40
1.125
309
GRIDFORMAT_END
309
TABLEFORMAT_END
  1
CELLSTYLE_BEGIN
 90
        1
 91
        1
300
_TITLE
309
CELLSTYLE_END
300
CELLSTYLE
  1
TABLEFORMAT_BEGIN
 90
        5
170
     1
 91
        0
 92
        0
 62
   257
 93
        1
300
CONTENTFORMAT
  1
CONTENTFORMAT_BEGIN
 90
        0
 91
        0
 92
      512
 93
        0
300

 40
0.0
140
1.0
 94
        5
 62
     0
340
21
144
4.5
309
CONTENTFORMAT_END
171
     1
301
MARGIN
  1
CELLMARGIN_BEGIN
 40
1.5
 40
1.5
 40
1.5
 40
1.5
 40
4.5
 40
4.5
309
CELLMARGIN_END
 94
        6
 95
        1
302
GRIDFORMAT
  1
GRIDFORMAT_BEGIN
 90
        0
 91
        1
 62
     0
 92
       -2
340
24
 93
        0
 40
1.125
309
GRIDFORMAT_END
 95
        2
302
GRIDFORMAT
  1
GRIDFORMAT_BEGIN
 90
        0
 91
        1
 62
     0
 92
       -2
340
24
 93
        0
 40
1.125
309
GRIDFORMAT_END
 95
        4
302
GRIDFORMAT
  1
GRIDFORMAT_BEGIN
 90
        0
 91
        1
 62
     0
 92
       -2
340
24
 93
        0
 40
1.125
309
GRIDFORMAT_END
 95
        8
302
GRIDFORMAT
  1
GRIDFORMAT_BEGIN
 90
        0
 91
        1
 62
     0
 92
       -2
340
24
 93
        0
 40
1.125
309
GRIDFORMAT_END
 95
       16
302
GRIDFORMAT
  1
GRIDFORMAT_BEGIN
 90
        0
 91
        1
 62
     0
 92
       -2
340
24
 93
        0
 40
1.125
309
GRIDFORMAT_END
 95
       32
302
GRIDFORMAT
  1
GRIDFORMAT_BEGIN
 90
        0
 91
        1
 62
     0
 92
       -2
340
24
 93
        0
 40
1.125
309
GRIDFORMAT_END
309
TABLEFORMAT_END
  1
CELLSTYLE_BEGIN
 90
        2
 91
        1
300
_HEADER
309
CELLSTYLE_END
300
CELLSTYLE
  1
TABLEFORMAT_BEGIN
 90
        5
170
     1
 91
        0
 92
        0
 62
   257
 93
        1
300
CONTENTFORMAT
  1
CONTENTFORMAT_BEGIN
 90
        0
 91
        0
 92
      512
 93
        0
300

 40
0.0
140
1.0
 94
        2
 62
     0
340
21
144
4.5
309
CONTENTFORMAT_END
171
     1
301
MARGIN
  1
CELLMARGIN_BEGIN
 40
1.5
 40
1.5
 40
1.5
 40
1.5
 40
4.5
 40
4.5
309
CELLMARGIN_END
 94
        6
 95
        1
302
GRIDFORMAT
  1
GRIDFORMAT_BEGIN
 90
        0
 91
        1
 62
     0
 92
       -2
340
24
 93
        0
 40
1.125
309
GRIDFORMAT_END
 95
        2
302
GRIDFORMAT
  1
GRIDFORMAT_BEGIN
 90
        0
 91
        1
 62
     0
 92
       -2
340
24
 93
        0
 40
1.125
309
GRIDFORMAT_END
 95
        4
302
GRIDFORMAT
  1
GRIDFORMAT_BEGIN
 90
        0
 91
        1
 62
     0
 92
       -2
340
24
 93
        0
 40
1.125
309
GRIDFORMAT_END
 95
        8
302
GRIDFORMAT
  1
GRIDFORMAT_BEGIN
 90
        0
 91
        1
 62
     0
 92
       -2
340
24
 93
        0
 40
1.125
309
GRIDFORMAT_END
 95
       16
302
GRIDFORMAT
  1
GRIDFORMAT_BEGIN
 90
        0
 91
        1
 62
     0
 92
       -2
340
24
 93
        0
 40
1.125
309
GRIDFORMAT_END
 95
       32
302
GRIDFORMAT
  1
GRIDFORMAT_BEGIN
 90
        0
 91
        1
 62
     0
 92
       -2
340
24
 93
        0
 40
1.125
309
GRIDFORMAT_END
309
TABLEFORMAT_END
  1
CELLSTYLE_BEGIN
 90
        3
 91
        2
300
_DATA
309
CELLSTYLE_END
  0
ENDSEC
  0
SECTION
  2
ACDSDATA
 70
     2
 71
     8
  0
ACDSSCHEMA
 90
        0
  1
AcDb_Thumbnail_Schema
  2
AcDbDs::ID
280
    10
 91
        8
  2
Thumbnail_Data
280
    15
 91
        0
101
ACDSRECORD
 95
        0
 90
        1
  2
AcDbDs::TreatedAsObjectData
280
     1
291
     1
101
ACDSRECORD
 95
        0
 90
        2
  2
AcDbDs::Legacy
280
     1
291
     1
101
ACDSRECORD
  1
AcDbDs::ID
 90
        3
  2
AcDs:Indexable
280
     1
291
     1
101
ACDSRECORD
  1
AcDbDs::ID
 90
        4
  2
AcDbDs::HandleAttribute
280
     7
282
     1
  0
ACDSSCHEMA
 90
        1
  1
AcDbDs::TreatedAsObjectDataSchema
  2
AcDbDs::TreatedAsObjectData
280
     1
 91
        0
  0
ACDSSCHEMA
 90
        2
  1
AcDbDs::LegacySchema
  2
AcDbDs::Legacy
280
     1
 91
        0
  0
ACDSSCHEMA
 90
        3
  1
AcDbDs::IndexedPropertySchema
  2
AcDs:Indexable
280
     1
 91
        0
  0
ACDSSCHEMA
 90
        4
  1
AcDbDs::HandleAttributeSchema
  2
AcDbDs::HandleAttribute
280
     7
 91
        1
284
     1
  0
ACDSRECORD
 90
        0
  2
AcDbDs::ID
280
    10
320
15
  2
Thumbnail_Data
280
    15
 94
      896
310
89504E470D0A1A0A0000000D49484452000001000000009108030000001BE1960600000300504C5445212830FFFFFF2128300000000000000000000000000000000000000000000000000000330000660000990000CC0000FF0033000033330033660033990033CC0033FF0066000066330066660066990066CC0066FF0099
310
000099330099660099990099CC0099FF00CC0000CC3300CC6600CC9900CCCC00CCFF00FF0000FF3300FF6600FF9900FFCC00FFFF3300003300333300663300993300CC3300FF3333003333333333663333993333CC3333FF3366003366333366663366993366CC3366FF3399003399333399663399993399CC3399FF33CC00
310
33CC3333CC6633CC9933CCCC33CCFF33FF0033FF3333FF6633FF9933FFCC33FFFF6600006600336600666600996600CC6600FF6633006633336633666633996633CC6633FF6666006666336666666666996666CC6666FF6699006699336699666699996699CC6699FF66CC0066CC3366CC6666CC9966CCCC66CCFF66FF0066
310
FF3366FF6666FF9966FFCC66FFFF9900009900339900669900999900CC9900FF9933009933339933669933999933CC9933FF9966009966339966669966999966CC9966FF9999009999339999669999999999CC9999FF99CC0099CC3399CC6699CC9999CCCC99CCFF99FF0099FF3399FF6699FF9999FFCC99FFFFCC0000CC00
310
33CC0066CC0099CC00CCCC00FFCC3300CC3333CC3366CC3399CC33CCCC33FFCC6600CC6633CC6666CC6699CC66CCCC66FFCC9900CC9933CC9966CC9999CC99CCCC99FFCCCC00CCCC33CCCC66CCCC99CCCCCCCCCCFFCCFF00CCFF33CCFF66CCFF99CCFFCCCCFFFFFF0000FF0033FF0066FF0099FF00CCFF00FFFF3300FF3333
310
FF3366FF3399FF33CCFF33FFFF6600FF6633FF6666FF6699FF66CCFF66FFFF9900FF9933FF9966FF9999FF99CCFF99FFFFCC00FFCC33FFCC66FFCC99FFCCCCFFCCFFFFFF00FFFF33FFFF66FFFF99FFFFCCFFFFFF0000000D0D0D1A1A1A2828283535354343435050505D5D5D6B6B6B787878868686939393A1A1A1AEAEAEBB
310
BBBBC9C9C9D6D6D6E4E4E4F1F1F1FFFFFF0000000000000000000000000000000000000000000000000000000000002E4550F10000003B4944415478DAEDC13101000000C2A0F54F6D0B2FA0000000000000000000000000000000000000000000000000000000000000000000000000CE06919100016C9A5B1B0000000049
310
454E44AE426082
  0
ENDSEC
  0
EOF
