  0
SECTION
  2
HEADER
  9
$ACADVER
  1
AC1018
  9
$ACADMAINTVER
 70
     0
  9
$DWGCODEPAGE
  3
ANSI_932
  9
$INSBASE
 10
0.0
 20
0.0
 30
0.0
  9
$EXTMIN
 10
1.000000000000000E+20
 20
1.000000000000000E+20
 30
1.000000000000000E+20
  9
$EXTMAX
 10
-1.000000000000000E+20
 20
-1.000000000000000E+20
 30
-1.000000000000000E+20
  9
$LIMMIN
 10
0.0
 20
0.0
  9
$LIMMAX
 10
12.0
 20
9.0
  9
$ORTHOMODE
 70
     0
  9
$REGENMODE
 70
     1
  9
$FILLMODE
 70
     1
  9
$QTEXTMODE
 70
     0
  9
$MIRRTEXT
 70
     1
  9
$LTSCALE
 40
1.0
  9
$ATTMODE
 70
     1
  9
$TEXTSIZE
 40
0.2
  9
$TRACEWID
 40
0.05
  9
$TEXTSTYLE
  7
Standard
  9
$CLAYER
  8
0
  9
$CELTYPE
  6
ByLayer
  9
$CECOLOR
 62
   256
  9
$CELTSCALE
 40
1.0
  9
$DISPSILH
 70
     0
  9
$DIMSCALE
 40
1.0
  9
$DIMASZ
 40
0.18
  9
$DIMEXO
 40
0.0625
  9
$DIMDLI
 40
0.38
  9
$DIMRND
 40
0.0
  9
$DIMDLE
 40
0.0
  9
$DIMEXE
 40
0.18
  9
$DIMTP
 40
0.0
  9
$DIMTM
 40
0.0
  9
$DIMTXT
 40
0.18
  9
$DIMCEN
 40
0.09
  9
$DIMTSZ
 40
0.0
  9
$DIMTOL
 70
     0
  9
$DIMLIM
 70
     0
  9
$DIMTIH
 70
     1
  9
$DIMTOH
 70
     1
  9
$DIMSE1
 70
     0
  9
$DIMSE2
 70
     0
  9
$DIMTAD
 70
     0
  9
$DIMZIN
 70
     0
  9
$DIMBLK
  1

  9
$DIMASO
 70
     1
  9
$DIMSHO
 70
     1
  9
$DIMPOST
  1

  9
$DIMAPOST
  1

  9
$DIMALT
 70
     0
  9
$DIMALTD
 70
     2
  9
$DIMALTF
 40
25.4
  9
$DIMLFAC
 40
1.0
  9
$DIMTOFL
 70
     0
  9
$DIMTVP
 40
0.0
  9
$DIMTIX
 70
     0
  9
$DIMSOXD
 70
     0
  9
$DIMSAH
 70
     0
  9
$DIMBLK1
  1

  9
$DIMBLK2
  1

  9
$DIMSTYLE
  2
Standard
  9
$DIMCLRD
 70
     0
  9
$DIMCLRE
 70
     0
  9
$DIMCLRT
 70
     0
  9
$DIMTFAC
 40
1.0
  9
$DIMGAP
 40
0.09
  9
$DIMJUST
 70
     0
  9
$DIMSD1
 70
     0
  9
$DIMSD2
 70
     0
  9
$DIMTOLJ
 70
     1
  9
$DIMTZIN
 70
     0
  9
$DIMALTZ
 70
     0
  9
$DIMALTTZ
 70
     0
  9
$DIMUPT
 70
     0
  9
$DIMDEC
 70
     4
  9
$DIMTDEC
 70
     4
  9
$DIMALTU
 70
     2
  9
$DIMALTTD
 70
     2
  9
$DIMTXSTY
  7
Standard
  9
$DIMAUNIT
 70
     0
  9
$DIMADEC
 70
     0
  9
$DIMALTRND
 40
0.0
  9
$DIMAZIN
 70
     0
  9
$DIMDSEP
 70
    46
  9
$DIMATFIT
 70
     3
  9
$DIMFRAC
 70
     0
  9
$DIMLDRBLK
  1

  9
$DIMLUNIT
 70
     2
  9
$DIMLWD
 70
    -2
  9
$DIMLWE
 70
    -2
  9
$DIMTMOVE
 70
     0
  9
$LUNITS
 70
     2
  9
$LUPREC
 70
     4
  9
$SKETCHINC
 40
0.1
  9
$FILLETRAD
 40
0.5
  9
$AUNITS
 70
     0
  9
$AUPREC
 70
     0
  9
$MENU
  1
.
  9
$ELEVATION
 40
0.0
  9
$PELEVATION
 40
0.0
  9
$THICKNESS
 40
0.0
  9
$LIMCHECK
 70
     0
  9
$CHAMFERA
 40
0.5
  9
$CHAMFERB
 40
0.5
  9
$CHAMFERC
 40
1.0
  9
$CHAMFERD
 40
0.0
  9
$SKPOLY
 70
     0
  9
$TDCREATE
 40
2457410.655661204
  9
$TDUCREATE
 40
2457410.280661204
  9
$TDUPDATE
 40
2457410.655661215
  9
$TDUUPDATE
 40
2457410.280661215
  9
$TDINDWG
 40
0.0000000116
  9
$TDUSRTIMER
 40
0.0000000116
  9
$USRTIMER
 70
     1
  9
$ANGBASE
 50
0.0
  9
$ANGDIR
 70
     0
  9
$PDMODE
 70
     0
  9
$PDSIZE
 40
0.0
  9
$PLINEWID
 40
0.0
  9
$SPLFRAME
 70
     0
  9
$SPLINETYPE
 70
     6
  9
$SPLINESEGS
 70
     8
  9
$HANDSEED
  5
2A6
  9
$SURFTAB1
 70
     6
  9
$SURFTAB2
 70
     6
  9
$SURFTYPE
 70
     6
  9
$SURFU
 70
     6
  9
$SURFV
 70
     6
  9
$UCSBASE
  2

  9
$UCSNAME
  2

  9
$UCSORG
 10
0.0
 20
0.0
 30
0.0
  9
$UCSXDIR
 10
1.0
 20
0.0
 30
0.0
  9
$UCSYDIR
 10
0.0
 20
1.0
 30
0.0
  9
$UCSORTHOREF
  2

  9
$UCSORTHOVIEW
 70
     0
  9
$UCSORGTOP
 10
0.0
 20
0.0
 30
0.0
  9
$UCSORGBOTTOM
 10
0.0
 20
0.0
 30
0.0
  9
$UCSORGLEFT
 10
0.0
 20
0.0
 30
0.0
  9
$UCSORGRIGHT
 10
0.0
 20
0.0
 30
0.0
  9
$UCSORGFRONT
 10
0.0
 20
0.0
 30
0.0
  9
$UCSORGBACK
 10
0.0
 20
0.0
 30
0.0
  9
$PUCSBASE
  2

  9
$PUCSNAME
  2

  9
$PUCSORG
 10
0.0
 20
0.0
 30
0.0
  9
$PUCSXDIR
 10
1.0
 20
0.0
 30
0.0
  9
$PUCSYDIR
 10
0.0
 20
1.0
 30
0.0
  9
$PUCSORTHOREF
  2

  9
$PUCSORTHOVIEW
 70
     0
  9
$PUCSORGTOP
 10
0.0
 20
0.0
 30
0.0
  9
$PUCSORGBOTTOM
 10
0.0
 20
0.0
 30
0.0
  9
$PUCSORGLEFT
 10
0.0
 20
0.0
 30
0.0
  9
$PUCSORGRIGHT
 10
0.0
 20
0.0
 30
0.0
  9
$PUCSORGFRONT
 10
0.0
 20
0.0
 30
0.0
  9
$PUCSORGBACK
 10
0.0
 20
0.0
 30
0.0
  9
$USERI1
 70
     0
  9
$USERI2
 70
     0
  9
$USERI3
 70
     0
  9
$USERI4
 70
     0
  9
$USERI5
 70
     0
  9
$USERR1
 40
0.0
  9
$USERR2
 40
0.0
  9
$USERR3
 40
0.0
  9
$USERR4
 40
0.0
  9
$USERR5
 40
0.0
  9
$WORLDVIEW
 70
     1
  9
$SHADEDGE
 70
     3
  9
$SHADEDIF
 70
    70
  9
$TILEMODE
 70
     1
  9
$MAXACTVP
 70
    64
  9
$PINSBASE
 10
0.0
 20
0.0
 30
0.0
  9
$PLIMCHECK
 70
     0
  9
$PEXTMIN
 10
1.000000000000000E+20
 20
1.000000000000000E+20
 30
1.000000000000000E+20
  9
$PEXTMAX
 10
-1.000000000000000E+20
 20
-1.000000000000000E+20
 30
-1.000000000000000E+20
  9
$PLIMMIN
 10
0.0
 20
0.0
  9
$PLIMMAX
 10
12.0
 20
9.0
  9
$UNITMODE
 70
     0
  9
$VISRETAIN
 70
     1
  9
$PLINEGEN
 70
     0
  9
$PSLTSCALE
 70
     1
  9
$TREEDEPTH
 70
  3020
  9
$CMLSTYLE
  2
Standard
  9
$CMLJUST
 70
     0
  9
$CMLSCALE
 40
1.0
  9
$PROXYGRAPHICS
 70
     1
  9
$MEASUREMENT
 70
     0
  9
$CELWEIGHT
370
    -1
  9
$ENDCAPS
280
     0
  9
$JOINSTYLE
280
     0
  9
$LWDISPLAY
290
     1
  9
$INSUNITS
 70
     1
  9
$HYPERLINKBASE
  1

  9
$STYLESHEET
  1

  9
$XEDIT
290
     1
  9
$CEPSNTYPE
380
     0
  9
$PSTYLEMODE
290
     1
  9
$FINGERPRINTGUID
  2
{EDB7A650-16C9-4EF8-81D8-13986CFFD673}
  9
$VERSIONGUID
  2
{FAEB1C32-E019-11D5-929B-00C0DF256EC4}
  9
$EXTNAMES
290
     1
  9
$PSVPSCALE
 40
0.0
  9
$OLESTARTUP
290
     0
  9
$SORTENTS
280
   127
  9
$INDEXCTL
280
     0
  9
$HIDETEXT
280
     1
  9
$XCLIPFRAME
290
     0
  9
$HALOGAP
280
     0
  9
$OBSCOLOR
 70
   257
  9
$OBSLTYPE
280
     0
  9
$INTERSECTIONDISPLAY
280
     0
  9
$INTERSECTIONCOLOR
 70
   257
  9
$DIMASSOC
280
     2
  9
$PROJECTNAME
  1

  0
ENDSEC
  0
SECTION
  2
CLASSES
  0
CLASS
  1
ACDBDICTIONARYWDFLT
  2
AcDbDictionaryWithDefault
  3
ObjectDBX Classes
 90
        0
 91
        3
280
     0
281
     0
  0
CLASS
  1
VISUALSTYLE
  2
AcDbVisualStyle
  3
ObjectDBX Classes
 90
     4095
 91
        3
280
     0
281
     0
  0
ENDSEC
  0
SECTION
  2
TABLES
  0
TABLE
  2
VPORT
  5
8
330
0
100
AcDbSymbolTable
 70
     1
  0
VPORT
  5
29
330
8
100
AcDbSymbolTableRecord
100
AcDbViewportTableRecord
  2
*Active
 70
     0
 10
0.0
 20
0.0
 11
1.0
 21
1.0
 12
0.0
 22
0.0
 13
0.0
 23
0.0
 14
0.5
 24
0.5
 15
0.5
 25
0.5
 16
0.0
 26
0.0
 36
1.0
 17
105.0008259828644
 27
-148.4999796178229
 37
0.0
 40
296.9999592356459
 41
0.7070763662937379
 42
50.0
 43
0.0
 44
0.0
 50
0.0
 51
0.0
 71
     0
 72
   100
 73
     1
 74
     3
 75
     0
 76
     0
 77
     0
 78
     0
281
     0
 65
     1
110
0.0
120
0.0
130
0.0
111
1.0
121
0.0
131
0.0
112
0.0
122
1.0
132
0.0
 79
     0
146
0.0
  0
ENDTAB
  0
TABLE
  2
LTYPE
  5
5
330
0
100
AcDbSymbolTable
 70
     1
  0
LTYPE
  5
14
330
5
100
AcDbSymbolTableRecord
100
AcDbLinetypeTableRecord
  2
ByBlock
 70
     0
  3

 72
    65
 73
     0
 40
0.0
  0
LTYPE
  5
15
330
5
100
AcDbSymbolTableRecord
100
AcDbLinetypeTableRecord
  2
ByLayer
 70
     0
  3

 72
    65
 73
     0
 40
0.0
  0
LTYPE
  5
16
330
5
100
AcDbSymbolTableRecord
100
AcDbLinetypeTableRecord
  2
Continuous
 70
     0
  3
Solid line
 72
    65
 73
     0
 40
0.0
  0
ENDTAB
  0
TABLE
  2
LAYER
  5
2
330
0
100
AcDbSymbolTable
 70
     2
  0
LAYER
  5
10
330
2
100
AcDbSymbolTableRecord
100
AcDbLayerTableRecord
  2
0
 70
     0
 62
     7
  6
Continuous
370
    -3
390
F
  0
LAYER
  5
3B
330
2
100
AcDbSymbolTableRecord
100
AcDbLayerTableRecord
  2
\U+30EC\U+30A4\U+30E4\U+30FC 1
 70
     0
 62
     7
  6
Continuous
370
    -3
390
F
  0
ENDTAB
  0
TABLE
  2
STYLE
  5
3
330
0
100
AcDbSymbolTable
 70
     1
  0
STYLE
  5
11
330
3
100
AcDbSymbolTableRecord
100
AcDbTextStyleTableRecord
  2
Standard
 70
     0
 40
0.0
 41
1.0
 50
0.0
 71
     0
 42
0.2
  3
txt
  4

  0
ENDTAB
  0
TABLE
  2
VIEW
  5
6
330
0
100
AcDbSymbolTable
 70
     0
  0
ENDTAB
  0
TABLE
  2
UCS
  5
7
330
0
100
AcDbSymbolTable
 70
     0
  0
ENDTAB
  0
TABLE
  2
APPID
  5
9
330
0
100
AcDbSymbolTable
 70
     1
  0
APPID
  5
12
330
9
100
AcDbSymbolTableRecord
100
AcDbRegAppTableRecord
  2
ACAD
 70
     0
  0
ENDTAB
  0
TABLE
  2
DIMSTYLE
  5
A
330
0
100
AcDbSymbolTable
 70
     1
100
AcDbDimStyleTable
  0
DIMSTYLE
105
27
330
A
100
AcDbSymbolTableRecord
100
AcDbDimStyleTableRecord
  2
Standard
 70
     0
340
11
  0
ENDTAB
  0
TABLE
  2
BLOCK_RECORD
  5
1
330
0
100
AcDbSymbolTable
 70
     1
  0
BLOCK_RECORD
  5
1F
330
1
100
AcDbSymbolTableRecord
100
AcDbBlockTableRecord
  2
*Model_Space
340
22
  0
BLOCK_RECORD
  5
1B
330
1
100
AcDbSymbolTableRecord
100
AcDbBlockTableRecord
  2
*Paper_Space
340
1E
  0
BLOCK_RECORD
  5
23
330
1
100
AcDbSymbolTableRecord
100
AcDbBlockTableRecord
  2
*Paper_Space0
340
26
  0
ENDTAB
  0
ENDSEC
  0
SECTION
  2
BLOCKS
  0
BLOCK
  5
20
330
1F
100
AcDbEntity
  8
0
100
AcDbBlockBegin
  2
*Model_Space
 70
     0
 71
     0
 10
0.0
 20
0.0
 30
0.0
  3
*Model_Space
  1

  0
ENDBLK
  5
21
330
1F
100
AcDbEntity
  8
0
100
AcDbBlockEnd
  0
BLOCK
  5
1C
330
1B
100
AcDbEntity
 67
     1
  8
0
100
AcDbBlockBegin
  2
*Paper_Space
 70
     0
 71
     0
 10
0.0
 20
0.0
 30
0.0
  3
*Paper_Space
  1

  0
ENDBLK
  5
1D
330
1B
100
AcDbEntity
 67
     1
  8
0
100
AcDbBlockEnd
  0
BLOCK
  5
24
330
23
100
AcDbEntity
  8
0
100
AcDbBlockBegin
  2
*Paper_Space0
 70
     0
 71
     0
 10
0.0
 20
0.0
 30
0.0
  3
*Paper_Space0
  1

  0
ENDBLK
  5
25
330
23
100
AcDbEntity
  8
0
100
AcDbBlockEnd
  0
ENDSEC
  0
SECTION
  2
ENTITIES
  0
POLYLINE
  5
3C
330
1F
100
AcDbEntity
  8
\U+30EC\U+30A4\U+30E4\U+30FC 1
 62
    18
370
    25
100
AcDb2dPolyline
 66
     1
 10
0.0
 20
0.0
 30
0.0
  0
VERTEX
  5
3D
330
3C
100
AcDbEntity
  8
\U+30EC\U+30A4\U+30E4\U+30FC 1
 62
    18
370
    25
100
AcDbVertex
100
AcDb2dVertex
 10
179.1249836791771
 20
-127.9730671880588
 30
0.0
  0
VERTEX
  5
3E
330
3C
100
AcDbEntity
  8
\U+30EC\U+30A4\U+30E4\U+30FC 1
 62
    18
370
    25
100
AcDbVertex
100
AcDb2dVertex
 10
179.1842393215234
 20
-128.3303235898792
 30
0.0
  0
VERTEX
  5
3F
330
3C
100
AcDbEntity
  8
\U+30EC\U+30A4\U+30E4\U+30FC 1
 62
    18
370
    25
100
AcDbVertex
100
AcDb2dVertex
 10
179.2441839829667
 20
-128.6872354821511
 30
0.0
  0
VERTEX
  5
40
330
3C
100
AcDbEntity
  8
\U+30EC\U+30A4\U+30E4\U+30FC 1
 62
    18
370
    25
100
AcDbVertex
100
AcDb2dVertex
 10
179.2441839829667
 20
-129.0444918839715
 30
0.0
  0
VERTEX
  5
41
330
3C
100
AcDbEntity
  8
\U+30EC\U+30A4\U+30E4\U+30FC 1
 62
    18
370
    25
100
AcDbVertex
100
AcDb2dVertex
 10
179.303439625313
 20
-129.4611761829125
 30
0.0
  0
VERTEX
  5
42
330
3C
100
AcDbEntity
  8
\U+30EC\U+30A4\U+30E4\U+30FC 1
 62
    18
370
    25
100
AcDbVertex
100
AcDb2dVertex
 10
179.303439625313
 20
-129.8184325847329
 30
0.0
  0
VERTEX
  5
43
330
3C
100
AcDbEntity
  8
\U+30EC\U+30A4\U+30E4\U+30FC 1
 62
    18
370
    25
100
AcDbVertex
100
AcDb2dVertex
 10
179.3626952676593
 20
-130.1753444770048
 30
0.0
  0
VERTEX
  5
44
330
3C
100
AcDbEntity
  8
\U+30EC\U+30A4\U+30E4\U+30FC 1
 62
    18
370
    25
100
AcDbVertex
100
AcDb2dVertex
 10
179.3626952676593
 20
-130.5326008788252
 30
0.0
  0
VERTEX
  5
45
330
3C
100
AcDbEntity
  8
\U+30EC\U+30A4\U+30E4\U+30FC 1
 62
    18
370
    25
100
AcDbVertex
100
AcDb2dVertex
 10
179.3626952676593
 20
-130.8898572806456
 30
0.0
  0
SEQEND
  5
46
330
3C
100
AcDbEntity
  8
\U+30EC\U+30A4\U+30E4\U+30FC 1
370
    25
  0
POLYLINE
  5
47
330
1F
100
AcDbEntity
  8
\U+30EC\U+30A4\U+30E4\U+30FC 1
 62
    18
370
    25
100
AcDb2dPolyline
 66
     1
 10
0.0
 20
0.0
 30
0.0
  0
VERTEX
  5
48
330
47
100
AcDbEntity
  8
\U+30EC\U+30A4\U+30E4\U+30FC 1
 62
    18
370
    25
100
AcDbVertex
100
AcDb2dVertex
 10
53.40569795756872
 20
-113.448889131794
 30
0.0
  0
VERTEX
  5
49
330
47
100
AcDbEntity
  8
\U+30EC\U+30A4\U+30E4\U+30FC 1
 62
    18
370
    25
100
AcDbVertex
100
AcDb2dVertex
 10
53.82255451128395
 20
-113.1512328818685
 30
0.0
  0
VERTEX
  5
4A
330
47
100
AcDbEntity
  8
\U+30EC\U+30A4\U+30E4\U+30FC 1
 62
    18
370
    25
100
AcDbVertex
100
AcDb2dVertex
 10
54.17946640355583
 20
-112.793976480048
 30
0.0
  0
VERTEX
  5
4B
330
47
100
AcDbEntity
  8
\U+30EC\U+30A4\U+30E4\U+30FC 1
 62
    18
370
    25
100
AcDbVertex
100
AcDb2dVertex
 10
54.59632295727106
 20
-112.4963202301224
 30
0.0
  0
VERTEX
  5
4C
330
47
100
AcDbEntity
  8
\U+30EC\U+30A4\U+30E4\U+30FC 1
 62
    18
370
    25
100
AcDbVertex
100
AcDb2dVertex
 10
55.01300725621203
 20
-112.1986639801969
 30
0.0
  0
VERTEX
  5
4D
330
47
100
AcDbEntity
  8
\U+30EC\U+30A4\U+30E4\U+30FC 1
 62
    18
370
    25
100
AcDbVertex
100
AcDb2dVertex
 10
55.36991914848391
 20
-111.9010077302713
 30
0.0
  0
VERTEX
  5
4E
330
47
100
AcDbEntity
  8
\U+30EC\U+30A4\U+30E4\U+30FC 1
 62
    18
370
    25
100
AcDbVertex
100
AcDb2dVertex
 10
55.78677570219914
 20
-111.60352373512
 30
0.0
  0
VERTEX
  5
4F
330
47
100
AcDbEntity
  8
\U+30EC\U+30A4\U+30E4\U+30FC 1
 62
    18
370
    25
100
AcDbVertex
100
AcDb2dVertex
 10
56.26288789826067
 20
-111.3058674851944
 30
0.0
  0
VERTEX
  5
50
330
47
100
AcDbEntity
  8
\U+30EC\U+30A4\U+30E4\U+30FC 1
 62
    18
370
    25
100
AcDbVertex
100
AcDb2dVertex
 10
56.6797444519759
 20
-111.0082112352688
 30
0.0
  0
SEQEND
  5
51
330
47
100
AcDbEntity
  8
\U+30EC\U+30A4\U+30E4\U+30FC 1
370
    25
  0
POLYLINE
  5
52
330
1F
100
AcDbEntity
  8
\U+30EC\U+30A4\U+30E4\U+30FC 1
 62
    18
370
    25
100
AcDb2dPolyline
 66
     1
 10
0.0
 20
0.0
 30
0.0
  0
VERTEX
  5
53
330
52
100
AcDbEntity
  8
\U+30EC\U+30A4\U+30E4\U+30FC 1
 62
    18
370
    25
100
AcDbVertex
100
AcDb2dVertex
 10
126.8012179587511
 20
-97.85294187006802
 30
0.0
  0
VERTEX
  5
54
330
52
100
AcDbEntity
  8
\U+30EC\U+30A4\U+30E4\U+30FC 1
 62
    18
370
    25
100
AcDbVertex
100
AcDb2dVertex
 10
127.5157307623919
 20
-97.9719699190834
 30
0.0
  0
VERTEX
  5
55
330
52
100
AcDbEntity
  8
\U+30EC\U+30A4\U+30E4\U+30FC 1
 62
    18
370
    25
100
AcDbVertex
100
AcDb2dVertex
 10
128.2302435660327
 20
-98.03139781620396
 30
0.0
  0
VERTEX
  5
56
330
52
100
AcDbEntity
  8
\U+30EC\U+30A4\U+30E4\U+30FC 1
 62
    18
370
    25
100
AcDbVertex
100
AcDb2dVertex
 10
128.944411860125
 20
-98.15042586521935
 30
0.0
  0
VERTEX
  5
57
330
52
100
AcDbEntity
  8
\U+30EC\U+30A4\U+30E4\U+30FC 1
 62
    18
370
    25
100
AcDbVertex
100
AcDb2dVertex
 10
129.6585801542173
 20
-98.21002601711416
 30
0.0
  0
VERTEX
  5
58
330
52
100
AcDbEntity
  8
\U+30EC\U+30A4\U+30E4\U+30FC 1
 62
    18
370
    25
100
AcDbVertex
100
AcDb2dVertex
 10
130.3727484483096
 20
-98.32888181135529
 30
0.0
  0
VERTEX
  5
59
330
52
100
AcDbEntity
  8
\U+30EC\U+30A4\U+30E4\U+30FC 1
 62
    18
370
    25
100
AcDbVertex
100
AcDb2dVertex
 10
131.0872612519504
 20
-98.44808211514493
 30
0.0
  0
VERTEX
  5
5A
330
52
100
AcDbEntity
  8
\U+30EC\U+30A4\U+30E4\U+30FC 1
 62
    18
370
    25
100
AcDbVertex
100
AcDb2dVertex
 10
131.8017740555912
 20
-98.56728241893457
 30
0.0
  0
VERTEX
  5
5B
330
52
100
AcDbEntity
  8
\U+30EC\U+30A4\U+30E4\U+30FC 1
 62
    18
370
    25
100
AcDbVertex
100
AcDb2dVertex
 10
132.5162868592321
 20
-98.6861382131757
 30
0.0
  0
SEQEND
  5
5C
330
52
100
AcDbEntity
  8
\U+30EC\U+30A4\U+30E4\U+30FC 1
370
    25
  0
POLYLINE
  5
5D
330
1F
100
AcDbEntity
  8
\U+30EC\U+30A4\U+30E4\U+30FC 1
 62
    18
370
    25
100
AcDb2dPolyline
 66
     1
 10
0.0
 20
0.0
 30
0.0
  0
VERTEX
  5
5E
330
5D
100
AcDbEntity
  8
\U+30EC\U+30A4\U+30E4\U+30FC 1
 62
    18
370
    25
100
AcDbVertex
100
AcDb2dVertex
 10
57.09642875091686
 20
-111.0082112352688
 30
0.0
  0
VERTEX
  5
5F
330
5D
100
AcDbEntity
  8
\U+30EC\U+30A4\U+30E4\U+30FC 1
 62
    18
370
    25
100
AcDbVertex
100
AcDb2dVertex
 10
59.53676213789359
 20
-109.4605020885203
 30
0.0
  0
VERTEX
  5
60
330
5D
100
AcDbEntity
  8
\U+30EC\U+30A4\U+30E4\U+30FC 1
 62
    18
370
    25
100
AcDbVertex
100
AcDb2dVertex
 10
62.09629582865995
 20
-108.0318209907872
 30
0.0
  0
VERTEX
  5
61
330
5D
100
AcDbEntity
  8
\U+30EC\U+30A4\U+30E4\U+30FC 1
 62
    18
370
    25
100
AcDbVertex
100
AcDb2dVertex
 10
64.83480222988506
 20
-106.6033121478283
 30
0.0
  0
VERTEX
  5
62
330
5D
100
AcDbEntity
  8
\U+30EC\U+30A4\U+30E4\U+30FC 1
 62
    18
370
    25
100
AcDbVertex
100
AcDb2dVertex
 10
67.7512478129233
 20
-105.2936590991106
 30
0.0
  0
VERTEX
  5
63
330
5D
100
AcDbEntity
  8
\U+30EC\U+30A4\U+30E4\U+30FC 1
 62
    18
370
    25
100
AcDbVertex
100
AcDb2dVertex
 10
70.84683836119454
 20
-104.0434339475134
 30
0.0
  0
VERTEX
  5
64
330
5D
100
AcDbEntity
  8
\U+30EC\U+30A4\U+30E4\U+30FC 1
 62
    18
370
    25
100
AcDbVertex
100
AcDb2dVertex
 10
74.00151229703782
 20
-102.9125813544802
 30
0.0
  0
VERTEX
  5
65
330
5D
100
AcDbEntity
  8
\U+30EC\U+30A4\U+30E4\U+30FC 1
 62
    18
370
    25
100
AcDbVertex
100
AcDb2dVertex
 10
77.33533119811409
 20
-101.9005845556881
 30
0.0
  0
VERTEX
  5
66
330
5D
100
AcDbEntity
  8
\U+30EC\U+30A4\U+30E4\U+30FC 1
 62
    18
370
    25
100
AcDbVertex
100
AcDb2dVertex
 10
80.78783363865722
 20
-100.948360163565
 30
0.0
  0
VERTEX
  5
67
330
5D
100
AcDbEntity
  8
\U+30EC\U+30A4\U+30E4\U+30FC 1
 62
    18
370
    25
100
AcDbVertex
100
AcDb2dVertex
 10
84.30010848586942
 20
-100.1148193109088
 30
0.0
  0
VERTEX
  5
68
330
5D
100
AcDbEntity
  8
\U+30EC\U+30A4\U+30E4\U+30FC 1
 62
    18
370
    25
100
AcDbVertex
100
AcDb2dVertex
 10
87.93089461777423
 20
-99.34105086492168
 30
0.0
  0
VERTEX
  5
69
330
5D
100
AcDbEntity
  8
\U+30EC\U+30A4\U+30E4\U+30FC 1
 62
    18
370
    25
100
AcDbVertex
100
AcDb2dVertex
 10
91.62162541112238
 20
-98.6861382131757
 30
0.0
  0
VERTEX
  5
6A
330
5D
100
AcDbEntity
  8
\U+30EC\U+30A4\U+30E4\U+30FC 1
 62
    18
370
    25
100
AcDbVertex
100
AcDb2dVertex
 10
95.43086748916312
 20
-98.21002601711416
 30
0.0
  0
VERTEX
  5
6B
330
5D
100
AcDbEntity
  8
\U+30EC\U+30A4\U+30E4\U+30FC 1
 62
    18
370
    25
100
AcDbVertex
100
AcDb2dVertex
 10
99.24079858630091
 20
-97.7933417181732
 30
0.0
  0
VERTEX
  5
6C
330
5D
100
AcDbEntity
  8
\U+30EC\U+30A4\U+30E4\U+30FC 1
 62
    18
370
    25
100
AcDbVertex
100
AcDb2dVertex
 10
103.109985325785
 20
-97.49568546824761
 30
0.0
  0
VERTEX
  5
6D
330
5D
100
AcDbEntity
  8
\U+30EC\U+30A4\U+30E4\U+30FC 1
 62
    18
370
    25
100
AcDbVertex
100
AcDb2dVertex
 10
107.0384277076154
 20
-97.31722952211167
 30
0.0
  0
VERTEX
  5
6E
330
5D
100
AcDbEntity
  8
\U+30EC\U+30A4\U+30E4\U+30FC 1
 62
    18
370
    25
100
AcDbVertex
100
AcDb2dVertex
 10
110.9675591085428
 20
-97.19802921832202
 30
0.0
  0
VERTEX
  5
6F
330
5D
100
AcDbEntity
  8
\U+30EC\U+30A4\U+30E4\U+30FC 1
 62
    18
370
    25
100
AcDbVertex
100
AcDb2dVertex
 10
114.8960014903732
 20
-97.25762937021685
 30
0.0
  0
VERTEX
  5
70
330
5D
100
AcDbEntity
  8
\U+30EC\U+30A4\U+30E4\U+30FC 1
 62
    18
370
    25
100
AcDbVertex
100
AcDb2dVertex
 10
118.7651882298573
 20
-97.43608531635279
 30
0.0
  0
VERTEX
  5
71
330
5D
100
AcDbEntity
  8
\U+30EC\U+30A4\U+30E4\U+30FC 1
 62
    18
370
    25
100
AcDbVertex
100
AcDb2dVertex
 10
122.6943196307848
 20
-97.67431366915781
 30
0.0
  0
VERTEX
  5
72
330
5D
100
AcDbEntity
  8
\U+30EC\U+30A4\U+30E4\U+30FC 1
 62
    18
370
    25
100
AcDbVertex
100
AcDb2dVertex
 10
126.5035617088255
 20
-98.03139781620396
 30
0.0
  0
SEQEND
  5
73
330
5D
100
AcDbEntity
  8
\U+30EC\U+30A4\U+30E4\U+30FC 1
370
    25
  0
POLYLINE
  5
74
330
1F
100
AcDbEntity
  8
\U+30EC\U+30A4\U+30E4\U+30FC 1
 62
    18
370
    25
100
AcDb2dPolyline
 66
     1
 10
0.0
 20
0.0
 30
0.0
  0
VERTEX
  5
75
330
74
100
AcDbEntity
  8
\U+30EC\U+30A4\U+30E4\U+30FC 1
 62
    18
370
    25
100
AcDbVertex
100
AcDb2dVertex
 10
44.29841578753651
 20
-128.8064357859407
 30
0.0
  0
VERTEX
  5
76
330
74
100
AcDbEntity
  8
\U+30EC\U+30A4\U+30E4\U+30FC 1
 62
    18
370
    25
100
AcDbVertex
100
AcDb2dVertex
 10
44.29841578753651
 20
-128.4491793841204
 30
0.0
  0
VERTEX
  5
77
330
74
100
AcDbEntity
  8
\U+30EC\U+30A4\U+30E4\U+30FC 1
 62
    18
370
    25
100
AcDbVertex
100
AcDb2dVertex
 10
44.71510008647748
 20
-126.4849581932052
 30
0.0
  0
VERTEX
  5
78
330
74
100
AcDbEntity
  8
\U+30EC\U+30A4\U+30E4\U+30FC 1
 62
    18
370
    25
100
AcDbVertex
100
AcDb2dVertex
 10
45.36966822867495
 20
-124.5799926446363
 30
0.0
  0
VERTEX
  5
79
330
74
100
AcDbEntity
  8
\U+30EC\U+30A4\U+30E4\U+30FC 1
 62
    18
370
    25
100
AcDbVertex
100
AcDb2dVertex
 10
46.20338133610541
 20
-122.6753716056159
 30
0.0
  0
VERTEX
  5
7A
330
74
100
AcDbEntity
  8
\U+30EC\U+30A4\U+30E4\U+30FC 1
 62
    18
370
    25
100
AcDbVertex
100
AcDb2dVertex
 10
47.27463377724384
 20
-120.770406057047
 30
0.0
  0
VERTEX
  5
7B
330
74
100
AcDbEntity
  8
\U+30EC\U+30A4\U+30E4\U+30FC 1
 62
    18
370
    25
100
AcDbVertex
100
AcDb2dVertex
 10
48.52451441929249
 20
-118.9250406603729
 30
0.0
  0
VERTEX
  5
7C
330
74
100
AcDbEntity
  8
\U+30EC\U+30A4\U+30E4\U+30FC 1
 62
    18
370
    25
100
AcDbVertex
100
AcDb2dVertex
 10
50.0725680755895
 20
-117.1392754155937
 30
0.0
  0
VERTEX
  5
7D
330
74
100
AcDbEntity
  8
\U+30EC\U+30A4\U+30E4\U+30FC 1
 62
    18
370
    25
100
AcDbVertex
100
AcDb2dVertex
 10
51.73913301657911
 20
-115.3535101708144
 30
0.0
  0
VERTEX
  5
7E
330
74
100
AcDbEntity
  8
\U+30EC\U+30A4\U+30E4\U+30FC 1
 62
    18
370
    25
100
AcDbVertex
100
AcDb2dVertex
 10
53.7033542074943
 20
-113.62734507793
 30
0.0
  0
SEQEND
  5
7F
330
74
100
AcDbEntity
  8
\U+30EC\U+30A4\U+30E4\U+30FC 1
370
    25
  0
POLYLINE
  5
80
330
1F
100
AcDbEntity
  8
\U+30EC\U+30A4\U+30E4\U+30FC 1
 62
    18
370
    25
100
AcDb2dPolyline
 66
     1
 10
0.0
 20
0.0
 30
0.0
  0
VERTEX
  5
81
330
80
100
AcDbEntity
  8
\U+30EC\U+30A4\U+30E4\U+30FC 1
 62
    18
370
    25
100
AcDbVertex
100
AcDb2dVertex
 10
132.5162868592321
 20
-98.86493866886016
 30
0.0
  0
VERTEX
  5
82
330
80
100
AcDbEntity
  8
\U+30EC\U+30A4\U+30E4\U+30FC 1
 62
    18
370
    25
100
AcDbVertex
100
AcDb2dVertex
 10
136.2063286334831
 20
-99.57910696295245
 30
0.0
  0
VERTEX
  5
83
330
80
100
AcDbEntity
  8
\U+30EC\U+30A4\U+30E4\U+30FC 1
 62
    18
370
    25
100
AcDbVertex
100
AcDb2dVertex
 10
139.837803784485
 20
-100.3530476637138
 30
0.0
  0
VERTEX
  5
84
330
80
100
AcDbEntity
  8
\U+30EC\U+30A4\U+30E4\U+30FC 1
 62
    18
370
    25
100
AcDbVertex
100
AcDb2dVertex
 10
143.3493896126002
 20
-101.1864162615958
 30
0.0
  0
VERTEX
  5
85
330
80
100
AcDbEntity
  8
\U+30EC\U+30A4\U+30E4\U+30FC 1
 62
    18
370
    25
100
AcDbVertex
100
AcDb2dVertex
 10
146.7424641560227
 20
-102.1980685508394
 30
0.0
  0
VERTEX
  5
86
330
80
100
AcDbEntity
  8
\U+30EC\U+30A4\U+30E4\U+30FC 1
 62
    18
370
    25
100
AcDbVertex
100
AcDb2dVertex
 10
150.0163383956557
 20
-103.2698377563006
 30
0.0
  0
VERTEX
  5
87
330
80
100
AcDbEntity
  8
\U+30EC\U+30A4\U+30E4\U+30FC 1
 62
    18
370
    25
100
AcDbVertex
100
AcDb2dVertex
 10
153.1713568410474
 20
-104.4006903493339
 30
0.0
  0
VERTEX
  5
88
330
80
100
AcDbEntity
  8
\U+30EC\U+30A4\U+30E4\U+30FC 1
 62
    18
370
    25
100
AcDbVertex
100
AcDb2dVertex
 10
156.2075194921981
 20
-105.650915500931
 30
0.0
  0
VERTEX
  5
89
330
80
100
AcDbEntity
  8
\U+30EC\U+30A4\U+30E4\U+30FC 1
 62
    18
370
    25
100
AcDbVertex
100
AcDb2dVertex
 10
159.0645371781158
 20
-107.019824191995
 30
0.0
  0
VERTEX
  5
8A
330
80
100
AcDbEntity
  8
\U+30EC\U+30A4\U+30E4\U+30FC 1
 62
    18
370
    25
100
AcDbVertex
100
AcDb2dVertex
 10
161.7430989178976
 20
-108.4483330349539
 30
0.0
  0
VERTEX
  5
8B
330
80
100
AcDbEntity
  8
\U+30EC\U+30A4\U+30E4\U+30FC 1
 62
    18
370
    25
100
AcDbVertex
100
AcDb2dVertex
 10
164.3028048634382
 20
-109.9366142845818
 30
0.0
  0
VERTEX
  5
8C
330
80
100
AcDbEntity
  8
\U+30EC\U+30A4\U+30E4\U+30FC 1
 62
    18
370
    25
100
AcDbVertex
100
AcDb2dVertex
 10
166.6244547109481
 20
-111.4843234313303
 30
0.0
  0
VERTEX
  5
8D
330
80
100
AcDbEntity
  8
\U+30EC\U+30A4\U+30E4\U+30FC 1
 62
    18
370
    25
100
AcDbVertex
100
AcDb2dVertex
 10
168.8269042546683
 20
-113.1512328818685
 30
0.0
  0
VERTEX
  5
8E
330
80
100
AcDbEntity
  8
\U+30EC\U+30A4\U+30E4\U+30FC 1
 62
    18
370
    25
100
AcDbVertex
100
AcDb2dVertex
 10
170.7912977003577
 20
-114.8177978228581
 30
0.0
  0
VERTEX
  5
8F
330
80
100
AcDbEntity
  8
\U+30EC\U+30A4\U+30E4\U+30FC 1
 62
    18
370
    25
100
AcDbVertex
100
AcDb2dVertex
 10
172.5172905384679
 20
-116.6035630676373
 30
0.0
  0
VERTEX
  5
90
330
80
100
AcDbEntity
  8
\U+30EC\U+30A4\U+30E4\U+30FC 1
 62
    18
370
    25
100
AcDbVertex
100
AcDb2dVertex
 10
174.1244275823369
 20
-118.3893283124166
 30
0.0
  0
VERTEX
  5
91
330
80
100
AcDbEntity
  8
\U+30EC\U+30A4\U+30E4\U+30FC 1
 62
    18
370
    25
100
AcDbVertex
100
AcDb2dVertex
 10
175.434252885829
 20
-120.2346937090906
 30
0.0
  0
VERTEX
  5
92
330
80
100
AcDbEntity
  8
\U+30EC\U+30A4\U+30E4\U+30FC 1
 62
    18
370
    25
100
AcDbVertex
100
AcDb2dVertex
 10
176.6248778855313
 20
-122.0800591057647
 30
0.0
  0
VERTEX
  5
93
330
80
100
AcDbEntity
  8
\U+30EC\U+30A4\U+30E4\U+30FC 1
 62
    18
370
    25
100
AcDbVertex
100
AcDb2dVertex
 10
177.5175021257595
 20
-123.9846801447851
 30
0.0
  0
VERTEX
  5
94
330
80
100
AcDbEntity
  8
\U+30EC\U+30A4\U+30E4\U+30FC 1
 62
    18
370
    25
100
AcDbVertex
100
AcDb2dVertex
 10
178.2320149294003
 20
-125.9492458452488
 30
0.0
  0
VERTEX
  5
95
330
80
100
AcDbEntity
  8
\U+30EC\U+30A4\U+30E4\U+30FC 1
 62
    18
370
    25
100
AcDbVertex
100
AcDb2dVertex
 10
178.6488714831156
 20
-127.913467036164
 30
0.0
  0
SEQEND
  5
96
330
80
100
AcDbEntity
  8
\U+30EC\U+30A4\U+30E4\U+30FC 1
370
    25
  0
POLYLINE
  5
97
330
1F
100
AcDbEntity
  8
\U+30EC\U+30A4\U+30E4\U+30FC 1
 62
    18
370
    25
100
AcDb2dPolyline
 66
     1
 10
0.0
 20
0.0
 30
0.0
  0
VERTEX
  5
98
330
97
100
AcDbEntity
  8
\U+30EC\U+30A4\U+30E4\U+30FC 1
 62
    18
370
    25
100
AcDbVertex
100
AcDb2dVertex
 10
46.38183728224135
 20
-158.7475883934728
 30
0.0
  0
VERTEX
  5
99
330
97
100
AcDbEntity
  8
\U+30EC\U+30A4\U+30E4\U+30FC 1
 62
    18
370
    25
100
AcDbVertex
100
AcDb2dVertex
 10
46.50103758603099
 20
-156.8434841187753
 30
0.0
  0
VERTEX
  5
9A
330
97
100
AcDbEntity
  8
\U+30EC\U+30A4\U+30E4\U+30FC 1
 62
    18
370
    25
100
AcDbVertex
100
AcDb2dVertex
 10
46.85794947830288
 20
-154.9383463154321
 30
0.0
  0
VERTEX
  5
9B
330
97
100
AcDbEntity
  8
\U+30EC\U+30A4\U+30E4\U+30FC 1
 62
    18
370
    25
100
AcDbVertex
100
AcDb2dVertex
 10
47.39383408103349
 20
-153.0924641544352
 30
0.0
  0
VERTEX
  5
9C
330
97
100
AcDbEntity
  8
\U+30EC\U+30A4\U+30E4\U+30FC 1
 62
    18
370
    25
100
AcDbVertex
100
AcDb2dVertex
 10
48.1676025270206
 20
-151.1883598797376
 30
0.0
  0
VERTEX
  5
9D
330
97
100
AcDbEntity
  8
\U+30EC\U+30A4\U+30E4\U+30FC 1
 62
    18
370
    25
100
AcDbVertex
100
AcDb2dVertex
 10
49.17959932581274
 20
-149.3431667378378
 30
0.0
  0
VERTEX
  5
9E
330
97
100
AcDbEntity
  8
\U+30EC\U+30A4\U+30E4\U+30FC 1
 62
    18
370
    25
100
AcDbVertex
100
AcDb2dVertex
 10
50.42947996786138
 20
-147.5574014930586
 30
0.0
  0
VERTEX
  5
9F
330
97
100
AcDbEntity
  8
\U+30EC\U+30A4\U+30E4\U+30FC 1
 62
    18
370
    25
100
AcDbVertex
100
AcDb2dVertex
 10
51.7983886589254
 20
-145.7716362482793
 30
0.0
  0
VERTEX
  5
A0
330
97
100
AcDbEntity
  8
\U+30EC\U+30A4\U+30E4\U+30FC 1
 62
    18
370
    25
100
AcDbVertex
100
AcDb2dVertex
 10
53.46512585468928
 20
-144.0451266458464
 30
0.0
  0
VERTEX
  5
A1
330
97
100
AcDbEntity
  8
\U+30EC\U+30A4\U+30E4\U+30FC 1
 62
    18
370
    25
100
AcDbVertex
100
AcDb2dVertex
 10
55.31066350613762
 20
-142.3782171953082
 30
0.0
  0
VERTEX
  5
A2
330
97
100
AcDbEntity
  8
\U+30EC\U+30A4\U+30E4\U+30FC 1
 62
    18
370
    25
100
AcDbVertex
100
AcDb2dVertex
 10
57.33431259417337
 20
-140.7116522543186
 30
0.0
  0
VERTEX
  5
A3
330
97
100
AcDbEntity
  8
\U+30EC\U+30A4\U+30E4\U+30FC 1
 62
    18
370
    25
100
AcDbVertex
100
AcDb2dVertex
 10
59.53676213789359
 20
-139.1639431075701
 30
0.0
  0
VERTEX
  5
A4
330
97
100
AcDbEntity
  8
\U+30EC\U+30A4\U+30E4\U+30FC 1
 62
    18
370
    25
100
AcDbVertex
100
AcDb2dVertex
 10
61.91783988252401
 20
-137.6756618579422
 30
0.0
  0
VERTEX
  5
A5
330
97
100
AcDbEntity
  8
\U+30EC\U+30A4\U+30E4\U+30FC 1
 62
    18
370
    25
100
AcDbVertex
100
AcDb2dVertex
 10
64.47737357329038
 20
-136.2471530149834
 30
0.0
  0
VERTEX
  5
A6
330
97
100
AcDbEntity
  8
\U+30EC\U+30A4\U+30E4\U+30FC 1
 62
    18
370
    25
100
AcDbVertex
100
AcDb2dVertex
 10
67.21587997451547
 20
-134.9374999662656
 30
0.0
  0
VERTEX
  5
A7
330
97
100
AcDbEntity
  8
\U+30EC\U+30A4\U+30E4\U+30FC 1
 62
    18
370
    25
100
AcDbVertex
100
AcDb2dVertex
 10
70.07306991520743
 20
-133.6280191723222
 30
0.0
  0
VERTEX
  5
A8
330
97
100
AcDbEntity
  8
\U+30EC\U+30A4\U+30E4\U+30FC 1
 62
    18
370
    25
100
AcDbVertex
100
AcDb2dVertex
 10
73.10871580203532
 20
-132.4971665792889
 30
0.0
  0
VERTEX
  5
A9
330
97
100
AcDbEntity
  8
\U+30EC\U+30A4\U+30E4\U+30FC 1
 62
    18
370
    25
100
AcDbVertex
100
AcDb2dVertex
 10
76.26407875697565
 20
-131.3659694767071
 30
0.0
  0
VERTEX
  5
AA
330
97
100
AcDbEntity
  8
\U+30EC\U+30A4\U+30E4\U+30FC 1
 62
    18
370
    25
100
AcDbVertex
100
AcDb2dVertex
 10
79.53795299660857
 20
-130.4137450845841
 30
0.0
  0
VERTEX
  5
AB
330
97
100
AcDbEntity
  8
\U+30EC\U+30A4\U+30E4\U+30FC 1
 62
    18
370
    25
100
AcDbVertex
100
AcDb2dVertex
 10
82.93051077570834
 20
-129.5207763348073
 30
0.0
  0
VERTEX
  5
AC
330
97
100
AcDbEntity
  8
\U+30EC\U+30A4\U+30E4\U+30FC 1
 62
    18
370
    25
100
AcDbVertex
100
AcDb2dVertex
 10
86.3833577258
 20
-128.7468356340459
 30
0.0
  0
VERTEX
  5
AD
330
97
100
AcDbEntity
  8
\U+30EC\U+30A4\U+30E4\U+30FC 1
 62
    18
370
    25
100
AcDbVertex
100
AcDb2dVertex
 10
89.95488821535851
 20
-128.0326673399536
 30
0.0
  0
VERTEX
  5
AE
330
97
100
AcDbEntity
  8
\U+30EC\U+30A4\U+30E4\U+30FC 1
 62
    18
370
    25
100
AcDbVertex
100
AcDb2dVertex
 10
93.58601885681183
 20
-127.4375270948767
 30
0.0
  0
VERTEX
  5
AF
330
97
100
AcDbEntity
  8
\U+30EC\U+30A4\U+30E4\U+30FC 1
 62
    18
370
    25
100
AcDbVertex
100
AcDb2dVertex
 10
97.33600529250629
 20
-126.9610703892667
 30
0.0
  0
VERTEX
  5
B0
330
97
100
AcDbEntity
  8
\U+30EC\U+30A4\U+30E4\U+30FC 1
 62
    18
370
    25
100
AcDbVertex
100
AcDb2dVertex
 10
101.0859917282007
 20
-126.6038139874463
 30
0.0
  0
VERTEX
  5
B1
330
97
100
AcDbEntity
  8
\U+30EC\U+30A4\U+30E4\U+30FC 1
 62
    18
370
    25
100
AcDbVertex
100
AcDb2dVertex
 10
104.8366671829922
 20
-126.3657578894155
 30
0.0
  0
VERTEX
  5
B2
330
97
100
AcDbEntity
  8
\U+30EC\U+30A4\U+30E4\U+30FC 1
 62
    18
370
    25
100
AcDbVertex
100
AcDb2dVertex
 10
108.645909261033
 20
-126.2469020951744
 30
0.0
  0
VERTEX
  5
B3
330
97
100
AcDbEntity
  8
\U+30EC\U+30A4\U+30E4\U+30FC 1
 62
    18
370
    25
100
AcDbVertex
100
AcDb2dVertex
 10
112.5150960005171
 20
-126.1873019432796
 30
0.0
  0
VERTEX
  5
B4
330
97
100
AcDbEntity
  8
\U+30EC\U+30A4\U+30E4\U+30FC 1
 62
    18
370
    25
100
AcDbVertex
100
AcDb2dVertex
 10
116.3250270976549
 20
-126.3061577375207
 30
0.0
  0
VERTEX
  5
B5
330
97
100
AcDbEntity
  8
\U+30EC\U+30A4\U+30E4\U+30FC 1
 62
    18
370
    25
100
AcDbVertex
100
AcDb2dVertex
 10
120.1342691756956
 20
-126.4849581932052
 30
0.0
  0
VERTEX
  5
B6
330
97
100
AcDbEntity
  8
\U+30EC\U+30A4\U+30E4\U+30FC 1
 62
    18
370
    25
100
AcDbVertex
100
AcDb2dVertex
 10
123.8849446304871
 20
-126.7826144431307
 30
0.0
  0
VERTEX
  5
B7
330
97
100
AcDbEntity
  8
\U+30EC\U+30A4\U+30E4\U+30FC 1
 62
    18
370
    25
100
AcDbVertex
100
AcDb2dVertex
 10
127.6349310661816
 20
-127.1991264872974
 30
0.0
  0
VERTEX
  5
B8
330
97
100
AcDbEntity
  8
\U+30EC\U+30A4\U+30E4\U+30FC 1
 62
    18
370
    25
100
AcDbVertex
100
AcDb2dVertex
 10
131.3256618595297
 20
-127.7350110900281
 30
0.0
  0
VERTEX
  5
B9
330
97
100
AcDbEntity
  8
\U+30EC\U+30A4\U+30E4\U+30FC 1
 62
    18
370
    25
100
AcDbVertex
100
AcDb2dVertex
 10
134.8971923490882
 20
-128.3895792322255
 30
0.0
  0
VERTEX
  5
BA
330
97
100
AcDbEntity
  8
\U+30EC\U+30A4\U+30E4\U+30FC 1
 62
    18
370
    25
100
AcDbVertex
100
AcDb2dVertex
 10
138.4687228386467
 20
-129.1040920358663
 30
0.0
  0
VERTEX
  5
BB
330
97
100
AcDbEntity
  8
\U+30EC\U+30A4\U+30E4\U+30FC 1
 62
    18
370
    25
100
AcDbVertex
100
AcDb2dVertex
 10
141.8611083629722
 20
-129.937288378974
 30
0.0
  0
VERTEX
  5
BC
330
97
100
AcDbEntity
  8
\U+30EC\U+30A4\U+30E4\U+30FC 1
 62
    18
370
    25
100
AcDbVertex
100
AcDb2dVertex
 10
145.1949272640485
 20
-130.8898572806456
 30
0.0
  0
VERTEX
  5
BD
330
97
100
AcDbEntity
  8
\U+30EC\U+30A4\U+30E4\U+30FC 1
 62
    18
370
    25
100
AcDbVertex
100
AcDb2dVertex
 10
148.4092013517866
 20
-131.9018540794377
 30
0.0
  0
VERTEX
  5
BE
330
97
100
AcDbEntity
  8
\U+30EC\U+30A4\U+30E4\U+30FC 1
 62
    18
370
    25
100
AcDbVertex
100
AcDb2dVertex
 10
151.5046196452836
 20
-133.0328789272453
 30
0.0
  0
VERTEX
  5
BF
330
97
100
AcDbEntity
  8
\U+30EC\U+30A4\U+30E4\U+30FC 1
 62
    18
370
    25
100
AcDbVertex
100
AcDb2dVertex
 10
154.4808376349909
 20
-134.2829318240682
 30
0.0
  0
VERTEX
  5
C0
330
97
100
AcDbEntity
  8
\U+30EC\U+30A4\U+30E4\U+30FC 1
 62
    18
370
    25
100
AcDbVertex
100
AcDb2dVertex
 10
157.2785996785623
 20
-135.5924126180116
 30
0.0
  0
VERTEX
  5
C1
330
97
100
AcDbEntity
  8
\U+30EC\U+30A4\U+30E4\U+30FC 1
 62
    18
370
    25
100
AcDbVertex
100
AcDb2dVertex
 10
159.8982502855463
 20
-136.9616658186242
 30
0.0
  0
VERTEX
  5
C2
330
97
100
AcDbEntity
  8
\U+30EC\U+30A4\U+30E4\U+30FC 1
 62
    18
370
    25
100
AcDbVertex
100
AcDb2dVertex
 10
162.397667060095
 20
-138.390174661583
 30
0.0
  0
VERTEX
  5
C3
330
97
100
AcDbEntity
  8
\U+30EC\U+30A4\U+30E4\U+30FC 1
 62
    18
370
    25
100
AcDbVertex
100
AcDb2dVertex
 10
164.6600612652586
 20
-139.9378838083315
 30
0.0
  0
VERTEX
  5
C4
330
97
100
AcDbEntity
  8
\U+30EC\U+30A4\U+30E4\U+30FC 1
 62
    18
370
    25
100
AcDbVertex
100
AcDb2dVertex
 10
166.802910657084
 20
-141.5450208522006
 30
0.0
  0
VERTEX
  5
C5
330
97
100
AcDbEntity
  8
\U+30EC\U+30A4\U+30E4\U+30FC 1
 62
    18
370
    25
100
AcDbVertex
100
AcDb2dVertex
 10
168.7077039508786
 20
-143.1523301508439
 30
0.0
  0
VERTEX
  5
C6
330
97
100
AcDbEntity
  8
\U+30EC\U+30A4\U+30E4\U+30FC 1
 62
    18
370
    25
100
AcDbVertex
100
AcDb2dVertex
 10
170.4936414504322
 20
-144.8786674985026
 30
0.0
  0
VERTEX
  5
C7
330
97
100
AcDbEntity
  8
\U+30EC\U+30A4\U+30E4\U+30FC 1
 62
    18
370
    25
100
AcDbVertex
100
AcDb2dVertex
 10
171.9819227000601
 20
-146.6646049980561
 30
0.0
  0
VERTEX
  5
C8
330
97
100
AcDbEntity
  8
\U+30EC\U+30A4\U+30E4\U+30FC 1
 62
    18
370
    25
100
AcDbVertex
100
AcDb2dVertex
 10
173.2914034940035
 20
-148.4503702428353
 30
0.0
  0
VERTEX
  5
C9
330
97
100
AcDbEntity
  8
\U+30EC\U+30A4\U+30E4\U+30FC 1
 62
    18
370
    25
100
AcDbVertex
100
AcDb2dVertex
 10
174.4220838322625
 20
-150.2361354876146
 30
0.0
  0
VERTEX
  5
CA
330
97
100
AcDbEntity
  8
\U+30EC\U+30A4\U+30E4\U+30FC 1
 62
    18
370
    25
100
AcDbVertex
100
AcDb2dVertex
 10
175.3150525820393
 20
-152.1402397623122
 30
0.0
  0
VERTEX
  5
CB
330
97
100
AcDbEntity
  8
\U+30EC\U+30A4\U+30E4\U+30FC 1
 62
    18
370
    25
100
AcDbVertex
100
AcDb2dVertex
 10
175.9703097433338
 20
-153.985432904212
 30
0.0
  0
VERTEX
  5
CC
330
97
100
AcDbEntity
  8
\U+30EC\U+30A4\U+30E4\U+30FC 1
 62
    18
370
    25
100
AcDbVertex
100
AcDb2dVertex
 10
176.2676214837109
 20
-155.116802261568
 30
0.0
  0
SEQEND
  5
CD
330
97
100
AcDbEntity
  8
\U+30EC\U+30A4\U+30E4\U+30FC 1
370
    25
  0
POLYLINE
  5
CE
330
1F
100
AcDbEntity
  8
\U+30EC\U+30A4\U+30E4\U+30FC 1
 62
    18
370
    25
100
AcDb2dPolyline
 66
     1
 10
0.0
 20
0.0
 30
0.0
  0
VERTEX
  5
CF
330
CE
100
AcDbEntity
  8
\U+30EC\U+30A4\U+30E4\U+30FC 1
 62
    18
370
    25
100
AcDbVertex
100
AcDb2dVertex
 10
47.03640542443882
 20
-159.4624457066622
 30
0.0
  0
VERTEX
  5
D0
330
CE
100
AcDbEntity
  8
\U+30EC\U+30A4\U+30E4\U+30FC 1
 62
    18
370
    25
100
AcDbVertex
100
AcDb2dVertex
 10
47.1554334734542
 20
-157.4980522609727
 30
0.0
  0
VERTEX
  5
D1
330
CE
100
AcDbEntity
  8
\U+30EC\U+30A4\U+30E4\U+30FC 1
 62
    18
370
    25
100
AcDbVertex
100
AcDb2dVertex
 10
47.51251762050035
 20
-155.5936034767266
 30
0.0
  0
VERTEX
  5
D2
330
CE
100
AcDbEntity
  8
\U+30EC\U+30A4\U+30E4\U+30FC 1
 62
    18
370
    25
100
AcDbVertex
100
AcDb2dVertex
 10
48.04840222323096
 20
-153.7477213157297
 30
0.0
  0
VERTEX
  5
D3
330
CE
100
AcDbEntity
  8
\U+30EC\U+30A4\U+30E4\U+30FC 1
 62
    18
370
    25
100
AcDbVertex
100
AcDb2dVertex
 10
48.88194307588716
 20
-151.8425835123866
 30
0.0
  0
VERTEX
  5
D4
330
CE
100
AcDbEntity
  8
\U+30EC\U+30A4\U+30E4\U+30FC 1
 62
    18
370
    25
100
AcDbVertex
100
AcDb2dVertex
 10
49.83416746801021
 20
-149.9977348800353
 30
0.0
  0
VERTEX
  5
D5
330
CE
100
AcDbEntity
  8
\U+30EC\U+30A4\U+30E4\U+30FC 1
 62
    18
370
    25
100
AcDbVertex
100
AcDb2dVertex
 10
51.08404811005885
 20
-148.2119696352561
 30
0.0
  0
VERTEX
  5
D6
330
CE
100
AcDbEntity
  8
\U+30EC\U+30A4\U+30E4\U+30FC 1
 62
    18
370
    25
100
AcDbVertex
100
AcDb2dVertex
 10
52.51290146256622
 20
-146.4262043904768
 30
0.0
  0
VERTEX
  5
D7
330
CE
100
AcDbEntity
  8
\U+30EC\U+30A4\U+30E4\U+30FC 1
 62
    18
370
    25
100
AcDbVertex
100
AcDb2dVertex
 10
54.17946640355583
 20
-144.6996947880438
 30
0.0
  0
VERTEX
  5
D8
330
CE
100
AcDbEntity
  8
\U+30EC\U+30A4\U+30E4\U+30FC 1
 62
    18
370
    25
100
AcDbVertex
100
AcDb2dVertex
 10
56.02517630977843
 20
-143.0331298470542
 30
0.0
  0
VERTEX
  5
D9
330
CE
100
AcDbEntity
  8
\U+30EC\U+30A4\U+30E4\U+30FC 1
 62
    18
370
    25
100
AcDbVertex
100
AcDb2dVertex
 10
58.04865314303992
 20
-141.4259928031852
 30
0.0
  0
VERTEX
  5
DA
330
CE
100
AcDbEntity
  8
\U+30EC\U+30A4\U+30E4\U+30FC 1
 62
    18
370
    25
100
AcDbVertex
100
AcDb2dVertex
 10
60.31053058388071
 20
-139.8782836564367
 30
0.0
  0
VERTEX
  5
DB
330
CE
100
AcDbEntity
  8
\U+30EC\U+30A4\U+30E4\U+30FC 1
 62
    18
370
    25
100
AcDbVertex
100
AcDb2dVertex
 10
62.69160832851113
 20
-138.390174661583
 30
0.0
  0
VERTEX
  5
DC
330
CE
100
AcDbEntity
  8
\U+30EC\U+30A4\U+30E4\U+30FC 1
 62
    18
370
    25
100
AcDbVertex
100
AcDb2dVertex
 10
65.25165878360028
 20
-136.9616658186242
 30
0.0
  0
VERTEX
  5
DD
330
CE
100
AcDbEntity
  8
\U+30EC\U+30A4\U+30E4\U+30FC 1
 62
    18
370
    25
100
AcDbVertex
100
AcDb2dVertex
 10
67.98964842050259
 20
-135.6518405151322
 30
0.0
  0
VERTEX
  5
DE
330
CE
100
AcDbEntity
  8
\U+30EC\U+30A4\U+30E4\U+30FC 1
 62
    18
370
    25
100
AcDbVertex
100
AcDb2dVertex
 10
70.90661076786363
 20
-134.4017876183093
 30
0.0
  0
VERTEX
  5
DF
330
CE
100
AcDbEntity
  8
\U+30EC\U+30A4\U+30E4\U+30FC 1
 62
    18
370
    25
100
AcDbVertex
100
AcDb2dVertex
 10
73.94225665469152
 20
-133.2113348733812
 30
0.0
  0
VERTEX
  5
E0
330
CE
100
AcDbEntity
  8
\U+30EC\U+30A4\U+30E4\U+30FC 1
 62
    18
370
    25
100
AcDbVertex
100
AcDb2dVertex
 10
77.09710284530907
 20
-132.1399101774685
 30
0.0
  0
VERTEX
  5
E1
330
CE
100
AcDbEntity
  8
\U+30EC\U+30A4\U+30E4\U+30FC 1
 62
    18
370
    25
100
AcDbVertex
100
AcDb2dVertex
 10
80.43074949161107
 20
-131.1875135305712
 30
0.0
  0
VERTEX
  5
E2
330
CE
100
AcDbEntity
  8
\U+30EC\U+30A4\U+30E4\U+30FC 1
 62
    18
370
    25
100
AcDbVertex
100
AcDb2dVertex
 10
83.82330727071084
 20
-130.2945447807944
 30
0.0
  0
VERTEX
  5
E3
330
CE
100
AcDbEntity
  8
\U+30EC\U+30A4\U+30E4\U+30FC 1
 62
    18
370
    25
100
AcDbVertex
100
AcDb2dVertex
 10
87.27632647557675
 20
-129.5802042319279
 30
0.0
  0
VERTEX
  5
E4
330
CE
100
AcDbEntity
  8
\U+30EC\U+30A4\U+30E4\U+30FC 1
 62
    18
370
    25
100
AcDbVertex
100
AcDb2dVertex
 10
90.90711260748157
 20
-128.8660359378356
 30
0.0
  0
VERTEX
  5
E5
330
CE
100
AcDbEntity
  8
\U+30EC\U+30A4\U+30E4\U+30FC 1
 62
    18
370
    25
100
AcDbVertex
100
AcDb2dVertex
 10
94.53789873938636
 20
-128.3303235898792
 30
0.0
  0
VERTEX
  5
E6
330
CE
100
AcDbEntity
  8
\U+30EC\U+30A4\U+30E4\U+30FC 1
 62
    18
370
    25
100
AcDbVertex
100
AcDb2dVertex
 10
98.22862953273452
 20
-127.8538668842692
 30
0.0
  0
VERTEX
  5
E7
330
CE
100
AcDbEntity
  8
\U+30EC\U+30A4\U+30E4\U+30FC 1
 62
    18
370
    25
100
AcDbVertex
100
AcDb2dVertex
 10
102.0385606298723
 20
-127.5563828891179
 30
0.0
  0
VERTEX
  5
E8
330
CE
100
AcDbEntity
  8
\U+30EC\U+30A4\U+30E4\U+30FC 1
 62
    18
370
    25
100
AcDbVertex
100
AcDb2dVertex
 10
105.7885470655668
 20
-127.3183267910871
 30
0.0
  0
VERTEX
  5
E9
330
CE
100
AcDbEntity
  8
\U+30EC\U+30A4\U+30E4\U+30FC 1
 62
    18
370
    25
100
AcDbVertex
100
AcDb2dVertex
 10
109.6577338050509
 20
-127.1991264872974
 30
0.0
  0
VERTEX
  5
EA
330
CE
100
AcDbEntity
  8
\U+30EC\U+30A4\U+30E4\U+30FC 1
 62
    18
370
    25
100
AcDbVertex
100
AcDb2dVertex
 10
113.4676649021886
 20
-127.1991264872974
 30
0.0
  0
VERTEX
  5
EB
330
CE
100
AcDbEntity
  8
\U+30EC\U+30A4\U+30E4\U+30FC 1
 62
    18
370
    25
100
AcDbVertex
100
AcDb2dVertex
 10
117.2772514897779
 20
-127.3183267910871
 30
0.0
  0
VERTEX
  5
EC
330
CE
100
AcDbEntity
  8
\U+30EC\U+30A4\U+30E4\U+30FC 1
 62
    18
370
    25
100
AcDbVertex
100
AcDb2dVertex
 10
121.0871825869157
 20
-127.5563828891179
 30
0.0
  0
VERTEX
  5
ED
330
CE
100
AcDbEntity
  8
\U+30EC\U+30A4\U+30E4\U+30FC 1
 62
    18
370
    25
100
AcDbVertex
100
AcDb2dVertex
 10
124.8371690226102
 20
-127.8538668842692
 30
0.0
  0
VERTEX
  5
EE
330
CE
100
AcDbEntity
  8
\U+30EC\U+30A4\U+30E4\U+30FC 1
 62
    18
370
    25
100
AcDbVertex
100
AcDb2dVertex
 10
128.5278998159583
 20
-128.3303235898792
 30
0.0
  0
VERTEX
  5
EF
330
CE
100
AcDbEntity
  8
\U+30EC\U+30A4\U+30E4\U+30FC 1
 62
    18
370
    25
100
AcDbVertex
100
AcDb2dVertex
 10
132.2186306093065
 20
-128.8660359378356
 30
0.0
  0
VERTEX
  5
F0
330
CE
100
AcDbEntity
  8
\U+30EC\U+30A4\U+30E4\U+30FC 1
 62
    18
370
    25
100
AcDbVertex
100
AcDb2dVertex
 10
135.790161098865
 20
-129.5802042319279
 30
0.0
  0
VERTEX
  5
F1
330
CE
100
AcDbEntity
  8
\U+30EC\U+30A4\U+30E4\U+30FC 1
 62
    18
370
    25
100
AcDbVertex
100
AcDb2dVertex
 10
139.3017469269801
 20
-130.2945447807944
 30
0.0
  0
VERTEX
  5
F2
330
CE
100
AcDbEntity
  8
\U+30EC\U+30A4\U+30E4\U+30FC 1
 62
    18
370
    25
100
AcDbVertex
100
AcDb2dVertex
 10
142.6948214704027
 20
-131.1875135305712
 30
0.0
  0
VERTEX
  5
F3
330
CE
100
AcDbEntity
  8
\U+30EC\U+30A4\U+30E4\U+30FC 1
 62
    18
370
    25
100
AcDbVertex
100
AcDb2dVertex
 10
145.9686957100356
 20
-132.1399101774685
 30
0.0
  0
VERTEX
  5
F4
330
CE
100
AcDbEntity
  8
\U+30EC\U+30A4\U+30E4\U+30FC 1
 62
    18
370
    25
100
AcDbVertex
100
AcDb2dVertex
 10
149.1237141554274
 20
-133.2113348733812
 30
0.0
  0
VERTEX
  5
F5
330
CE
100
AcDbEntity
  8
\U+30EC\U+30A4\U+30E4\U+30FC 1
 62
    18
370
    25
100
AcDbVertex
100
AcDb2dVertex
 10
152.1598768065781
 20
-134.4017876183093
 30
0.0
  0
VERTEX
  5
F6
330
CE
100
AcDbEntity
  8
\U+30EC\U+30A4\U+30E4\U+30FC 1
 62
    18
370
    25
100
AcDbVertex
100
AcDb2dVertex
 10
155.0761501348421
 20
-135.6518405151322
 30
0.0
  0
VERTEX
  5
F7
330
CE
100
AcDbEntity
  8
\U+30EC\U+30A4\U+30E4\U+30FC 1
 62
    18
370
    25
100
AcDbVertex
100
AcDb2dVertex
 10
157.8146565360672
 20
-136.9616658186242
 30
0.0
  0
VERTEX
  5
F8
330
CE
100
AcDbEntity
  8
\U+30EC\U+30A4\U+30E4\U+30FC 1
 62
    18
370
    25
100
AcDbVertex
100
AcDb2dVertex
 10
160.3743624816078
 20
-138.390174661583
 30
0.0
  0
VERTEX
  5
F9
330
CE
100
AcDbEntity
  8
\U+30EC\U+30A4\U+30E4\U+30FC 1
 62
    18
370
    25
100
AcDbVertex
100
AcDb2dVertex
 10
162.8145236138103
 20
-139.8782836564367
 30
0.0
  0
VERTEX
  5
FA
330
CE
100
AcDbEntity
  8
\U+30EC\U+30A4\U+30E4\U+30FC 1
 62
    18
370
    25
100
AcDbVertex
100
AcDb2dVertex
 10
165.017317667079
 20
-141.4259928031852
 30
0.0
  0
VERTEX
  5
FB
330
CE
100
AcDbEntity
  8
\U+30EC\U+30A4\U+30E4\U+30FC 1
 62
    18
370
    25
100
AcDbVertex
100
AcDb2dVertex
 10
167.0413112646633
 20
-143.0331298470542
 30
0.0
  0
VERTEX
  5
FC
330
CE
100
AcDbEntity
  8
\U+30EC\U+30A4\U+30E4\U+30FC 1
 62
    18
370
    25
100
AcDbVertex
100
AcDb2dVertex
 10
168.8861598970146
 20
-144.6996947880438
 30
0.0
  0
VERTEX
  5
FD
330
CE
100
AcDbEntity
  8
\U+30EC\U+30A4\U+30E4\U+30FC 1
 62
    18
370
    25
100
AcDbVertex
100
AcDb2dVertex
 10
170.5528970927784
 20
-146.4262043904768
 30
0.0
  0
VERTEX
  5
FE
330
CE
100
AcDbEntity
  8
\U+30EC\U+30A4\U+30E4\U+30FC 1
 62
    18
370
    25
100
AcDbVertex
100
AcDb2dVertex
 10
171.9819227000601
 20
-148.2119696352561
 30
0.0
  0
VERTEX
  5
FF
330
CE
100
AcDbEntity
  8
\U+30EC\U+30A4\U+30E4\U+30FC 1
 62
    18
370
    25
100
AcDbVertex
100
AcDb2dVertex
 10
173.2318033421087
 20
-149.9977348800353
 30
0.0
  0
VERTEX
  5
100
330
CE
100
AcDbEntity
  8
\U+30EC\U+30A4\U+30E4\U+30FC 1
 62
    18
370
    25
100
AcDbVertex
100
AcDb2dVertex
 10
174.2436278861266
 20
-151.8425835123866
 30
0.0
  0
VERTEX
  5
101
330
CE
100
AcDbEntity
  8
\U+30EC\U+30A4\U+30E4\U+30FC 1
 62
    18
370
    25
100
AcDbVertex
100
AcDb2dVertex
 10
175.0173963321137
 20
-153.7477213157297
 30
0.0
  0
VERTEX
  5
102
330
CE
100
AcDbEntity
  8
\U+30EC\U+30A4\U+30E4\U+30FC 1
 62
    18
370
    25
100
AcDbVertex
100
AcDb2dVertex
 10
175.5534531896186
 20
-155.5936034767266
 30
0.0
  0
VERTEX
  5
103
330
CE
100
AcDbEntity
  8
\U+30EC\U+30A4\U+30E4\U+30FC 1
 62
    18
370
    25
100
AcDbVertex
100
AcDb2dVertex
 10
175.9103650818905
 20
-157.4980522609727
 30
0.0
  0
VERTEX
  5
104
330
CE
100
AcDbEntity
  8
\U+30EC\U+30A4\U+30E4\U+30FC 1
 62
    18
370
    25
100
AcDbVertex
100
AcDb2dVertex
 10
176.0295653856801
 20
-159.4624457066622
 30
0.0
  0
VERTEX
  5
105
330
CE
100
AcDbEntity
  8
\U+30EC\U+30A4\U+30E4\U+30FC 1
 62
    18
370
    25
100
AcDbVertex
100
AcDb2dVertex
 10
175.9103650818905
 20
-161.3668944909083
 30
0.0
  0
VERTEX
  5
106
330
CE
100
AcDbEntity
  8
\U+30EC\U+30A4\U+30E4\U+30FC 1
 62
    18
370
    25
100
AcDbVertex
100
AcDb2dVertex
 10
175.5534531896186
 20
-163.2727213133485
 30
0.0
  0
VERTEX
  5
107
330
CE
100
AcDbEntity
  8
\U+30EC\U+30A4\U+30E4\U+30FC 1
 62
    18
370
    25
100
AcDbVertex
100
AcDb2dVertex
 10
175.0173963321137
 20
-165.1175699456998
 30
0.0
  0
VERTEX
  5
108
330
CE
100
AcDbEntity
  8
\U+30EC\U+30A4\U+30E4\U+30FC 1
 62
    18
370
    25
100
AcDbVertex
100
AcDb2dVertex
 10
174.2436278861266
 20
-167.0220187299459
 30
0.0
  0
VERTEX
  5
109
330
CE
100
AcDbEntity
  8
\U+30EC\U+30A4\U+30E4\U+30FC 1
 62
    18
370
    25
100
AcDbVertex
100
AcDb2dVertex
 10
173.2318033421087
 20
-168.8672118718457
 30
0.0
  0
VERTEX
  5
10A
330
CE
100
AcDbEntity
  8
\U+30EC\U+30A4\U+30E4\U+30FC 1
 62
    18
370
    25
100
AcDbVertex
100
AcDb2dVertex
 10
171.9819227000601
 20
-170.6528048618507
 30
0.0
  0
VERTEX
  5
10B
330
CE
100
AcDbEntity
  8
\U+30EC\U+30A4\U+30E4\U+30FC 1
 62
    18
370
    25
100
AcDbVertex
100
AcDb2dVertex
 10
170.5528970927784
 20
-172.4387423614042
 30
0.0
  0
VERTEX
  5
10C
330
CE
100
AcDbEntity
  8
\U+30EC\U+30A4\U+30E4\U+30FC 1
 62
    18
370
    25
100
AcDbVertex
100
AcDb2dVertex
 10
168.8861598970146
 20
-174.1650797090629
 30
0.0
  0
VERTEX
  5
10D
330
CE
100
AcDbEntity
  8
\U+30EC\U+30A4\U+30E4\U+30FC 1
 62
    18
370
    25
100
AcDbVertex
100
AcDb2dVertex
 10
167.0413112646633
 20
-175.8321614143753
 30
0.0
  0
VERTEX
  5
10E
330
CE
100
AcDbEntity
  8
\U+30EC\U+30A4\U+30E4\U+30FC 1
 62
    18
370
    25
100
AcDbVertex
100
AcDb2dVertex
 10
165.017317667079
 20
-177.4389539486958
 30
0.0
  0
VERTEX
  5
10F
330
CE
100
AcDbEntity
  8
\U+30EC\U+30A4\U+30E4\U+30FC 1
 62
    18
370
    25
100
AcDbVertex
100
AcDb2dVertex
 10
162.8145236138103
 20
-178.9864908406701
 30
0.0
  0
VERTEX
  5
110
330
CE
100
AcDbEntity
  8
\U+30EC\U+30A4\U+30E4\U+30FC 1
 62
    18
370
    25
100
AcDbVertex
100
AcDb2dVertex
 10
160.3743624816078
 20
-180.474772090298
 30
0.0
  0
VERTEX
  5
111
330
CE
100
AcDbEntity
  8
\U+30EC\U+30A4\U+30E4\U+30FC 1
 62
    18
370
    25
100
AcDbVertex
100
AcDb2dVertex
 10
157.8146565360672
 20
-181.9034531880311
 30
0.0
  0
VERTEX
  5
112
330
CE
100
AcDbEntity
  8
\U+30EC\U+30A4\U+30E4\U+30FC 1
 62
    18
370
    25
100
AcDbVertex
100
AcDb2dVertex
 10
155.0761501348421
 20
-183.2136230010716
 30
0.0
  0
VERTEX
  5
113
330
CE
100
AcDbEntity
  8
\U+30EC\U+30A4\U+30E4\U+30FC 1
 62
    18
370
    25
100
AcDbVertex
100
AcDb2dVertex
 10
152.1598768065781
 20
-184.4635036431202
 30
0.0
  0
VERTEX
  5
114
330
CE
100
AcDbEntity
  8
\U+30EC\U+30A4\U+30E4\U+30FC 1
 62
    18
370
    25
100
AcDbVertex
100
AcDb2dVertex
 10
149.1237141554274
 20
-185.6541286428226
 30
0.0
  0
VERTEX
  5
115
330
CE
100
AcDbEntity
  8
\U+30EC\U+30A4\U+30E4\U+30FC 1
 62
    18
370
    25
100
AcDbVertex
100
AcDb2dVertex
 10
145.9686957100356
 20
-186.7248643196382
 30
0.0
  0
VERTEX
  5
116
330
CE
100
AcDbEntity
  8
\U+30EC\U+30A4\U+30E4\U+30FC 1
 62
    18
370
    25
100
AcDbVertex
100
AcDb2dVertex
 10
142.6948214704027
 20
-187.6781222404069
 30
0.0
  0
VERTEX
  5
117
330
CE
100
AcDbEntity
  8
\U+30EC\U+30A4\U+30E4\U+30FC 1
 62
    18
370
    25
100
AcDbVertex
100
AcDb2dVertex
 10
139.3017469269801
 20
-188.5710909901836
 30
0.0
  0
VERTEX
  5
118
330
CE
100
AcDbEntity
  8
\U+30EC\U+30A4\U+30E4\U+30FC 1
 62
    18
370
    25
100
AcDbVertex
100
AcDb2dVertex
 10
135.790161098865
 20
-189.2849147747274
 30
0.0
  0
VERTEX
  5
119
330
CE
100
AcDbEntity
  8
\U+30EC\U+30A4\U+30E4\U+30FC 1
 62
    18
370
    25
100
AcDbVertex
100
AcDb2dVertex
 10
132.2186306093065
 20
-189.9987385592711
 30
0.0
  0
VERTEX
  5
11A
330
CE
100
AcDbEntity
  8
\U+30EC\U+30A4\U+30E4\U+30FC 1
 62
    18
370
    25
100
AcDbVertex
100
AcDb2dVertex
 10
128.5278998159583
 20
-190.534795416776
 30
0.0
  0
VERTEX
  5
11B
330
CE
100
AcDbEntity
  8
\U+30EC\U+30A4\U+30E4\U+30FC 1
 62
    18
370
    25
100
AcDbVertex
100
AcDb2dVertex
 10
124.8371690226102
 20
-191.0115966319346
 30
0.0
  0
VERTEX
  5
11C
330
CE
100
AcDbEntity
  8
\U+30EC\U+30A4\U+30E4\U+30FC 1
 62
    18
370
    25
100
AcDbVertex
100
AcDb2dVertex
 10
121.0871825869157
 20
-191.3092528818602
 30
0.0
  0
VERTEX
  5
11D
330
CE
100
AcDbEntity
  8
\U+30EC\U+30A4\U+30E4\U+30FC 1
 62
    18
370
    25
100
AcDbVertex
100
AcDb2dVertex
 10
117.2772514897779
 20
-191.547308979891
 30
0.0
  0
VERTEX
  5
11E
330
CE
100
AcDbEntity
  8
\U+30EC\U+30A4\U+30E4\U+30FC 1
 62
    18
370
    25
100
AcDbVertex
100
AcDb2dVertex
 10
113.4676649021886
 20
-191.6661647741321
 30
0.0
  0
VERTEX
  5
11F
330
CE
100
AcDbEntity
  8
\U+30EC\U+30A4\U+30E4\U+30FC 1
 62
    18
370
    25
100
AcDbVertex
100
AcDb2dVertex
 10
109.6577338050509
 20
-191.6661647741321
 30
0.0
  0
VERTEX
  5
120
330
CE
100
AcDbEntity
  8
\U+30EC\U+30A4\U+30E4\U+30FC 1
 62
    18
370
    25
100
AcDbVertex
100
AcDb2dVertex
 10
105.7885470655668
 20
-191.547308979891
 30
0.0
  0
VERTEX
  5
121
330
CE
100
AcDbEntity
  8
\U+30EC\U+30A4\U+30E4\U+30FC 1
 62
    18
370
    25
100
AcDbVertex
100
AcDb2dVertex
 10
102.0385606298723
 20
-191.3092528818602
 30
0.0
  0
VERTEX
  5
122
330
CE
100
AcDbEntity
  8
\U+30EC\U+30A4\U+30E4\U+30FC 1
 62
    18
370
    25
100
AcDbVertex
100
AcDb2dVertex
 10
98.22862953273452
 20
-191.0115966319346
 30
0.0
  0
VERTEX
  5
123
330
CE
100
AcDbEntity
  8
\U+30EC\U+30A4\U+30E4\U+30FC 1
 62
    18
370
    25
100
AcDbVertex
100
AcDb2dVertex
 10
94.53789873938636
 20
-190.534795416776
 30
0.0
  0
VERTEX
  5
124
330
CE
100
AcDbEntity
  8
\U+30EC\U+30A4\U+30E4\U+30FC 1
 62
    18
370
    25
100
AcDbVertex
100
AcDb2dVertex
 10
90.90711260748157
 20
-189.9987385592711
 30
0.0
  0
VERTEX
  5
125
330
CE
100
AcDbEntity
  8
\U+30EC\U+30A4\U+30E4\U+30FC 1
 62
    18
370
    25
100
AcDbVertex
100
AcDb2dVertex
 10
87.27632647557675
 20
-189.2849147747274
 30
0.0
  0
VERTEX
  5
126
330
CE
100
AcDbEntity
  8
\U+30EC\U+30A4\U+30E4\U+30FC 1
 62
    18
370
    25
100
AcDbVertex
100
AcDb2dVertex
 10
83.82330727071084
 20
-188.5710909901836
 30
0.0
  0
VERTEX
  5
127
330
CE
100
AcDbEntity
  8
\U+30EC\U+30A4\U+30E4\U+30FC 1
 62
    18
370
    25
100
AcDbVertex
100
AcDb2dVertex
 10
80.43074949161107
 20
-187.6781222404069
 30
0.0
  0
VERTEX
  5
128
330
CE
100
AcDbEntity
  8
\U+30EC\U+30A4\U+30E4\U+30FC 1
 62
    18
370
    25
100
AcDbVertex
100
AcDb2dVertex
 10
77.09710284530907
 20
-186.7248643196382
 30
0.0
  0
VERTEX
  5
129
330
CE
100
AcDbEntity
  8
\U+30EC\U+30A4\U+30E4\U+30FC 1
 62
    18
370
    25
100
AcDbVertex
100
AcDb2dVertex
 10
73.94225665469152
 20
-185.6541286428226
 30
0.0
  0
VERTEX
  5
12A
330
CE
100
AcDbEntity
  8
\U+30EC\U+30A4\U+30E4\U+30FC 1
 62
    18
370
    25
100
AcDbVertex
100
AcDb2dVertex
 10
70.90661076786363
 20
-184.4635036431202
 30
0.0
  0
VERTEX
  5
12B
330
CE
100
AcDbEntity
  8
\U+30EC\U+30A4\U+30E4\U+30FC 1
 62
    18
370
    25
100
AcDbVertex
100
AcDb2dVertex
 10
67.98964842050259
 20
-183.2136230010716
 30
0.0
  0
VERTEX
  5
12C
330
CE
100
AcDbEntity
  8
\U+30EC\U+30A4\U+30E4\U+30FC 1
 62
    18
370
    25
100
AcDbVertex
100
AcDb2dVertex
 10
65.25165878360028
 20
-181.9034531880311
 30
0.0
  0
VERTEX
  5
12D
330
CE
100
AcDbEntity
  8
\U+30EC\U+30A4\U+30E4\U+30FC 1
 62
    18
370
    25
100
AcDbVertex
100
AcDb2dVertex
 10
62.69160832851113
 20
-180.474772090298
 30
0.0
  0
VERTEX
  5
12E
330
CE
100
AcDbEntity
  8
\U+30EC\U+30A4\U+30E4\U+30FC 1
 62
    18
370
    25
100
AcDbVertex
100
AcDb2dVertex
 10
60.31053058388071
 20
-178.9864908406701
 30
0.0
  0
VERTEX
  5
12F
330
CE
100
AcDbEntity
  8
\U+30EC\U+30A4\U+30E4\U+30FC 1
 62
    18
370
    25
100
AcDbVertex
100
AcDb2dVertex
 10
58.04865314303992
 20
-177.4389539486958
 30
0.0
  0
VERTEX
  5
130
330
CE
100
AcDbEntity
  8
\U+30EC\U+30A4\U+30E4\U+30FC 1
 62
    18
370
    25
100
AcDbVertex
100
AcDb2dVertex
 10
56.02517630977843
 20
-175.8321614143753
 30
0.0
  0
VERTEX
  5
131
330
CE
100
AcDbEntity
  8
\U+30EC\U+30A4\U+30E4\U+30FC 1
 62
    18
370
    25
100
AcDbVertex
100
AcDb2dVertex
 10
54.17946640355583
 20
-174.1650797090629
 30
0.0
  0
VERTEX
  5
132
330
CE
100
AcDbEntity
  8
\U+30EC\U+30A4\U+30E4\U+30FC 1
 62
    18
370
    25
100
AcDbVertex
100
AcDb2dVertex
 10
52.51290146256622
 20
-172.4387423614042
 30
0.0
  0
VERTEX
  5
133
330
CE
100
AcDbEntity
  8
\U+30EC\U+30A4\U+30E4\U+30FC 1
 62
    18
370
    25
100
AcDbVertex
100
AcDb2dVertex
 10
51.08404811005885
 20
-170.6528048618507
 30
0.0
  0
VERTEX
  5
134
330
CE
100
AcDbEntity
  8
\U+30EC\U+30A4\U+30E4\U+30FC 1
 62
    18
370
    25
100
AcDbVertex
100
AcDb2dVertex
 10
49.83416746801021
 20
-168.8672118718457
 30
0.0
  0
VERTEX
  5
135
330
CE
100
AcDbEntity
  8
\U+30EC\U+30A4\U+30E4\U+30FC 1
 62
    18
370
    25
100
AcDbVertex
100
AcDb2dVertex
 10
48.88194307588716
 20
-167.0220187299459
 30
0.0
  0
VERTEX
  5
136
330
CE
100
AcDbEntity
  8
\U+30EC\U+30A4\U+30E4\U+30FC 1
 62
    18
370
    25
100
AcDbVertex
100
AcDb2dVertex
 10
48.04840222323096
 20
-165.1175699456998
 30
0.0
  0
VERTEX
  5
137
330
CE
100
AcDbEntity
  8
\U+30EC\U+30A4\U+30E4\U+30FC 1
 62
    18
370
    25
100
AcDbVertex
100
AcDb2dVertex
 10
47.51251762050035
 20
-163.2727213133485
 30
0.0
  0
VERTEX
  5
138
330
CE
100
AcDbEntity
  8
\U+30EC\U+30A4\U+30E4\U+30FC 1
 62
    18
370
    25
100
AcDbVertex
100
AcDb2dVertex
 10
47.1554334734542
 20
-161.3668944909083
 30
0.0
  0
VERTEX
  5
139
330
CE
100
AcDbEntity
  8
\U+30EC\U+30A4\U+30E4\U+30FC 1
 62
    18
370
    25
100
AcDbVertex
100
AcDb2dVertex
 10
47.03640542443882
 20
-159.4624457066622
 30
0.0
  0
SEQEND
  5
13A
330
CE
100
AcDbEntity
  8
\U+30EC\U+30A4\U+30E4\U+30FC 1
370
    25
  0
POLYLINE
  5
13B
330
1F
100
AcDbEntity
  8
\U+30EC\U+30A4\U+30E4\U+30FC 1
 62
    18
370
    25
100
AcDb2dPolyline
 66
     1
 10
0.0
 20
0.0
 30
0.0
  0
VERTEX
  5
13C
330
13B
100
AcDbEntity
  8
\U+30EC\U+30A4\U+30E4\U+30FC 1
 62
    18
370
    25
100
AcDbVertex
100
AcDb2dVertex
 10
178.9465277330412
 20
-131.0683132267815
 30
0.0
  0
VERTEX
  5
13D
330
13B
100
AcDbEntity
  8
\U+30EC\U+30A4\U+30E4\U+30FC 1
 62
    18
370
    25
100
AcDbVertex
100
AcDb2dVertex
 10
179.3626952676593
 20
-131.0683132267815
 30
0.0
  0
SEQEND
  5
13E
330
13B
100
AcDbEntity
  8
\U+30EC\U+30A4\U+30E4\U+30FC 1
370
    25
  0
POLYLINE
  5
13F
330
1F
100
AcDbEntity
  8
\U+30EC\U+30A4\U+30E4\U+30FC 1
 62
    18
370
    25
100
AcDb2dPolyline
 66
     1
 10
0.0
 20
0.0
 30
0.0
  0
VERTEX
  5
140
330
13F
100
AcDbEntity
  8
\U+30EC\U+30A4\U+30E4\U+30FC 1
 62
    18
370
    25
100
AcDbVertex
100
AcDb2dVertex
 10
179.0650390177337
 20
-128.0919229822999
 30
0.0
  0
VERTEX
  5
141
330
13F
100
AcDbEntity
  8
\U+30EC\U+30A4\U+30E4\U+30FC 1
 62
    18
370
    25
100
AcDbVertex
100
AcDb2dVertex
 10
179.1249836791771
 20
-128.4491793841204
 30
0.0
  0
VERTEX
  5
142
330
13F
100
AcDbEntity
  8
\U+30EC\U+30A4\U+30E4\U+30FC 1
 62
    18
370
    25
100
AcDbVertex
100
AcDb2dVertex
 10
179.1842393215234
 20
-128.8660359378356
 30
0.0
  0
VERTEX
  5
143
330
13F
100
AcDbEntity
  8
\U+30EC\U+30A4\U+30E4\U+30FC 1
 62
    18
370
    25
100
AcDbVertex
100
AcDb2dVertex
 10
179.2441839829667
 20
-129.223292339656
 30
0.0
  0
VERTEX
  5
144
330
13F
100
AcDbEntity
  8
\U+30EC\U+30A4\U+30E4\U+30FC 1
 62
    18
370
    25
100
AcDbVertex
100
AcDb2dVertex
 10
179.303439625313
 20
-129.5802042319279
 30
0.0
  0
VERTEX
  5
145
330
13F
100
AcDbEntity
  8
\U+30EC\U+30A4\U+30E4\U+30FC 1
 62
    18
370
    25
100
AcDbVertex
100
AcDb2dVertex
 10
179.303439625313
 20
-129.937288378974
 30
0.0
  0
VERTEX
  5
146
330
13F
100
AcDbEntity
  8
\U+30EC\U+30A4\U+30E4\U+30FC 1
 62
    18
370
    25
100
AcDbVertex
100
AcDb2dVertex
 10
179.3626952676593
 20
-130.2945447807944
 30
0.0
  0
VERTEX
  5
147
330
13F
100
AcDbEntity
  8
\U+30EC\U+30A4\U+30E4\U+30FC 1
 62
    18
370
    25
100
AcDbVertex
100
AcDb2dVertex
 10
179.3626952676593
 20
-130.7114013345096
 30
0.0
  0
VERTEX
  5
148
330
13F
100
AcDbEntity
  8
\U+30EC\U+30A4\U+30E4\U+30FC 1
 62
    18
370
    25
100
AcDbVertex
100
AcDb2dVertex
 10
179.3626952676593
 20
-131.0683132267815
 30
0.0
  0
SEQEND
  5
149
330
13F
100
AcDbEntity
  8
\U+30EC\U+30A4\U+30E4\U+30FC 1
370
    25
  0
POLYLINE
  5
14A
330
1F
100
AcDbEntity
  8
\U+30EC\U+30A4\U+30E4\U+30FC 1
 62
    18
370
    25
100
AcDb2dPolyline
 66
     1
 10
0.0
 20
0.0
 30
0.0
  0
VERTEX
  5
14B
330
14A
100
AcDbEntity
  8
\U+30EC\U+30A4\U+30E4\U+30FC 1
 62
    18
370
    25
100
AcDbVertex
100
AcDb2dVertex
 10
179.3626952676593
 20
-131.0683132267815
 30
0.0
  0
VERTEX
  5
14C
330
14A
100
AcDbEntity
  8
\U+30EC\U+30A4\U+30E4\U+30FC 1
 62
    18
370
    25
100
AcDbVertex
100
AcDb2dVertex
 10
179.3626952676593
 20
-130.8898572806456
 30
0.0
  0
SEQEND
  5
14D
330
14A
100
AcDbEntity
  8
\U+30EC\U+30A4\U+30E4\U+30FC 1
370
    25
  0
POLYLINE
  5
14E
330
1F
100
AcDbEntity
  8
\U+30EC\U+30A4\U+30E4\U+30FC 1
 62
    18
370
    25
100
AcDb2dPolyline
 66
     1
 10
0.0
 20
0.0
 30
0.0
  0
VERTEX
  5
14F
330
14E
100
AcDbEntity
  8
\U+30EC\U+30A4\U+30E4\U+30FC 1
 62
    18
370
    25
100
AcDbVertex
100
AcDb2dVertex
 10
179.1249836791771
 20
-127.9730671880588
 30
0.0
  0
VERTEX
  5
150
330
14E
100
AcDbEntity
  8
\U+30EC\U+30A4\U+30E4\U+30FC 1
 62
    18
370
    25
100
AcDbVertex
100
AcDb2dVertex
 10
179.0650390177337
 20
-128.0919229822999
 30
0.0
  0
SEQEND
  5
151
330
14E
100
AcDbEntity
  8
\U+30EC\U+30A4\U+30E4\U+30FC 1
370
    25
  0
POLYLINE
  5
152
330
1F
100
AcDbEntity
  8
\U+30EC\U+30A4\U+30E4\U+30FC 1
 62
    18
370
    25
100
AcDb2dPolyline
 66
     1
 10
0.0
 20
0.0
 30
0.0
  0
VERTEX
  5
153
330
152
100
AcDbEntity
  8
\U+30EC\U+30A4\U+30E4\U+30FC 1
 62
    18
370
    25
100
AcDbVertex
100
AcDb2dVertex
 10
178.5296711793259
 20
-126.9610703892667
 30
0.0
  0
VERTEX
  5
154
330
152
100
AcDbEntity
  8
\U+30EC\U+30A4\U+30E4\U+30FC 1
 62
    18
370
    25
100
AcDbVertex
100
AcDb2dVertex
 10
178.5296711793259
 20
-126.9610703892667
 30
0.0
  0
VERTEX
  5
155
330
152
100
AcDbEntity
  8
\U+30EC\U+30A4\U+30E4\U+30FC 1
 62
    18
370
    25
100
AcDbVertex
100
AcDb2dVertex
 10
178.8273274292515
 20
-127.2587266391923
 30
0.0
  0
VERTEX
  5
156
330
152
100
AcDbEntity
  8
\U+30EC\U+30A4\U+30E4\U+30FC 1
 62
    18
370
    25
100
AcDbVertex
100
AcDb2dVertex
 10
179.0650390177337
 20
-127.5563828891179
 30
0.0
  0
VERTEX
  5
157
330
152
100
AcDbEntity
  8
\U+30EC\U+30A4\U+30E4\U+30FC 1
 62
    18
370
    25
100
AcDbVertex
100
AcDb2dVertex
 10
179.1249836791771
 20
-127.9730671880588
 30
0.0
  0
SEQEND
  5
158
330
152
100
AcDbEntity
  8
\U+30EC\U+30A4\U+30E4\U+30FC 1
370
    25
  0
POLYLINE
  5
159
330
1F
100
AcDbEntity
  8
\U+30EC\U+30A4\U+30E4\U+30FC 1
 62
    18
370
    25
100
AcDb2dPolyline
 66
     1
 10
0.0
 20
0.0
 30
0.0
  0
VERTEX
  5
15A
330
159
100
AcDbEntity
  8
\U+30EC\U+30A4\U+30E4\U+30FC 1
 62
    18
370
    25
100
AcDbVertex
100
AcDb2dVertex
 10
179.0650390177337
 20
-128.0919229822999
 30
0.0
  0
VERTEX
  5
15B
330
159
100
AcDbEntity
  8
\U+30EC\U+30A4\U+30E4\U+30FC 1
 62
    18
370
    25
100
AcDbVertex
100
AcDb2dVertex
 10
178.6488714831156
 20
-128.0919229822999
 30
0.0
  0
SEQEND
  5
15C
330
159
100
AcDbEntity
  8
\U+30EC\U+30A4\U+30E4\U+30FC 1
370
    25
  0
POLYLINE
  5
15D
330
1F
100
AcDbEntity
  8
\U+30EC\U+30A4\U+30E4\U+30FC 1
 62
    18
370
    25
100
AcDb2dPolyline
 66
     1
 10
0.0
 20
0.0
 30
0.0
  0
VERTEX
  5
15E
330
15D
100
AcDbEntity
  8
\U+30EC\U+30A4\U+30E4\U+30FC 1
 62
    18
370
    25
100
AcDbVertex
100
AcDb2dVertex
 10
53.40569795756872
 20
-113.5677449260351
 30
0.0
  0
VERTEX
  5
15F
330
15D
100
AcDbEntity
  8
\U+30EC\U+30A4\U+30E4\U+30FC 1
 62
    18
370
    25
100
AcDbVertex
100
AcDb2dVertex
 10
53.7626098498406
 20
-113.6867729750505
 30
0.0
  0
SEQEND
  5
160
330
15D
100
AcDbEntity
  8
\U+30EC\U+30A4\U+30E4\U+30FC 1
370
    25
  0
POLYLINE
  5
161
330
1F
100
AcDbEntity
  8
\U+30EC\U+30A4\U+30E4\U+30FC 1
 62
    18
370
    25
100
AcDb2dPolyline
 66
     1
 10
0.0
 20
0.0
 30
0.0
  0
VERTEX
  5
162
330
161
100
AcDbEntity
  8
\U+30EC\U+30A4\U+30E4\U+30FC 1
 62
    18
370
    25
100
AcDbVertex
100
AcDb2dVertex
 10
53.40569795756872
 20
-113.5677449260351
 30
0.0
  0
VERTEX
  5
163
330
161
100
AcDbEntity
  8
\U+30EC\U+30A4\U+30E4\U+30FC 1
 62
    18
370
    25
100
AcDbVertex
100
AcDb2dVertex
 10
53.82255451128395
 20
-113.2700886761096
 30
0.0
  0
VERTEX
  5
164
330
161
100
AcDbEntity
  8
\U+30EC\U+30A4\U+30E4\U+30FC 1
 62
    18
370
    25
100
AcDbVertex
100
AcDb2dVertex
 10
54.17946640355583
 20
-112.972432426184
 30
0.0
  0
VERTEX
  5
165
330
161
100
AcDbEntity
  8
\U+30EC\U+30A4\U+30E4\U+30FC 1
 62
    18
370
    25
100
AcDbVertex
100
AcDb2dVertex
 10
54.59632295727106
 20
-112.6747761762584
 30
0.0
  0
VERTEX
  5
166
330
161
100
AcDbEntity
  8
\U+30EC\U+30A4\U+30E4\U+30FC 1
 62
    18
370
    25
100
AcDbVertex
100
AcDb2dVertex
 10
55.01300725621203
 20
-112.317519774438
 30
0.0
  0
VERTEX
  5
167
330
161
100
AcDbEntity
  8
\U+30EC\U+30A4\U+30E4\U+30FC 1
 62
    18
370
    25
100
AcDbVertex
100
AcDb2dVertex
 10
55.42986380992726
 20
-112.0200357792867
 30
0.0
  0
VERTEX
  5
168
330
161
100
AcDbEntity
  8
\U+30EC\U+30A4\U+30E4\U+30FC 1
 62
    18
370
    25
100
AcDbVertex
100
AcDb2dVertex
 10
55.84603134454544
 20
-111.7223795293611
 30
0.0
  0
VERTEX
  5
169
330
161
100
AcDbEntity
  8
\U+30EC\U+30A4\U+30E4\U+30FC 1
 62
    18
370
    25
100
AcDbVertex
100
AcDb2dVertex
 10
56.26288789826067
 20
-111.4247232794355
 30
0.0
  0
VERTEX
  5
16A
330
161
100
AcDbEntity
  8
\U+30EC\U+30A4\U+30E4\U+30FC 1
 62
    18
370
    25
100
AcDbVertex
100
AcDb2dVertex
 10
56.6797444519759
 20
-111.1270670295099
 30
0.0
  0
SEQEND
  5
16B
330
161
100
AcDbEntity
  8
\U+30EC\U+30A4\U+30E4\U+30FC 1
370
    25
  0
POLYLINE
  5
16C
330
1F
100
AcDbEntity
  8
\U+30EC\U+30A4\U+30E4\U+30FC 1
 62
    18
370
    25
100
AcDb2dPolyline
 66
     1
 10
0.0
 20
0.0
 30
0.0
  0
VERTEX
  5
16D
330
16C
100
AcDbEntity
  8
\U+30EC\U+30A4\U+30E4\U+30FC 1
 62
    18
370
    25
100
AcDbVertex
100
AcDb2dVertex
 10
53.40569795756872
 20
-113.448889131794
 30
0.0
  0
VERTEX
  5
16E
330
16C
100
AcDbEntity
  8
\U+30EC\U+30A4\U+30E4\U+30FC 1
 62
    18
370
    25
100
AcDbVertex
100
AcDb2dVertex
 10
53.40569795756872
 20
-113.5677449260351
 30
0.0
  0
SEQEND
  5
16F
330
16C
100
AcDbEntity
  8
\U+30EC\U+30A4\U+30E4\U+30FC 1
370
    25
  0
POLYLINE
  5
170
330
1F
100
AcDbEntity
  8
\U+30EC\U+30A4\U+30E4\U+30FC 1
 62
    18
370
    25
100
AcDb2dPolyline
 66
     1
 10
0.0
 20
0.0
 30
0.0
  0
VERTEX
  5
171
330
170
100
AcDbEntity
  8
\U+30EC\U+30A4\U+30E4\U+30FC 1
 62
    18
370
    25
100
AcDbVertex
100
AcDb2dVertex
 10
53.7033542074943
 20
-112.7343763281532
 30
0.0
  0
VERTEX
  5
172
330
170
100
AcDbEntity
  8
\U+30EC\U+30A4\U+30E4\U+30FC 1
 62
    18
370
    25
100
AcDbVertex
100
AcDb2dVertex
 10
53.58415390370466
 20
-112.793976480048
 30
0.0
  0
VERTEX
  5
173
330
170
100
AcDbEntity
  8
\U+30EC\U+30A4\U+30E4\U+30FC 1
 62
    18
370
    25
100
AcDbVertex
100
AcDb2dVertex
 10
53.46512585468928
 20
-113.0916327299736
 30
0.0
  0
VERTEX
  5
174
330
170
100
AcDbEntity
  8
\U+30EC\U+30A4\U+30E4\U+30FC 1
 62
    18
370
    25
100
AcDbVertex
100
AcDb2dVertex
 10
53.40569795756872
 20
-113.448889131794
 30
0.0
  0
SEQEND
  5
175
330
170
100
AcDbEntity
  8
\U+30EC\U+30A4\U+30E4\U+30FC 1
370
    25
  0
POLYLINE
  5
176
330
1F
100
AcDbEntity
  8
\U+30EC\U+30A4\U+30E4\U+30FC 1
 62
    18
370
    25
100
AcDb2dPolyline
 66
     1
 10
0.0
 20
0.0
 30
0.0
  0
VERTEX
  5
177
330
176
100
AcDbEntity
  8
\U+30EC\U+30A4\U+30E4\U+30FC 1
 62
    18
370
    25
100
AcDbVertex
100
AcDb2dVertex
 10
56.6797444519759
 20
-111.0082112352688
 30
0.0
  0
VERTEX
  5
178
330
176
100
AcDbEntity
  8
\U+30EC\U+30A4\U+30E4\U+30FC 1
 62
    18
370
    25
100
AcDbVertex
100
AcDb2dVertex
 10
56.6797444519759
 20
-110.6509548334484
 30
0.0
  0
VERTEX
  5
179
330
176
100
AcDbEntity
  8
\U+30EC\U+30A4\U+30E4\U+30FC 1
 62
    18
370
    25
100
AcDbVertex
100
AcDb2dVertex
 10
56.85820039811184
 20
-110.3532985835228
 30
0.0
  0
VERTEX
  5
17A
330
176
100
AcDbEntity
  8
\U+30EC\U+30A4\U+30E4\U+30FC 1
 62
    18
370
    25
100
AcDbVertex
100
AcDb2dVertex
 10
57.09642875091686
 20
-110.1748426373868
 30
0.0
  0
VERTEX
  5
17B
330
176
100
AcDbEntity
  8
\U+30EC\U+30A4\U+30E4\U+30FC 1
 62
    18
370
    25
100
AcDbVertex
100
AcDb2dVertex
 10
57.39408500084245
 20
-110.115242485492
 30
0.0
  0
VERTEX
  5
17C
330
176
100
AcDbEntity
  8
\U+30EC\U+30A4\U+30E4\U+30FC 1
 62
    18
370
    25
100
AcDbVertex
100
AcDb2dVertex
 10
57.75099689311433
 20
-110.1748426373868
 30
0.0
  0
SEQEND
  5
17D
330
176
100
AcDbEntity
  8
\U+30EC\U+30A4\U+30E4\U+30FC 1
370
    25
  0
POLYLINE
  5
17E
330
1F
100
AcDbEntity
  8
\U+30EC\U+30A4\U+30E4\U+30FC 1
 62
    18
370
    25
100
AcDb2dPolyline
 66
     1
 10
0.0
 20
0.0
 30
0.0
  0
VERTEX
  5
17F
330
17E
100
AcDbEntity
  8
\U+30EC\U+30A4\U+30E4\U+30FC 1
 62
    18
370
    25
100
AcDbVertex
100
AcDb2dVertex
 10
56.6797444519759
 20
-111.1270670295099
 30
0.0
  0
VERTEX
  5
180
330
17E
100
AcDbEntity
  8
\U+30EC\U+30A4\U+30E4\U+30FC 1
 62
    18
370
    25
100
AcDbVertex
100
AcDb2dVertex
 10
56.6797444519759
 20
-111.0082112352688
 30
0.0
  0
SEQEND
  5
181
330
17E
100
AcDbEntity
  8
\U+30EC\U+30A4\U+30E4\U+30FC 1
370
    25
  0
POLYLINE
  5
182
330
1F
100
AcDbEntity
  8
\U+30EC\U+30A4\U+30E4\U+30FC 1
 62
    18
370
    25
100
AcDb2dPolyline
 66
     1
 10
0.0
 20
0.0
 30
0.0
  0
VERTEX
  5
183
330
182
100
AcDbEntity
  8
\U+30EC\U+30A4\U+30E4\U+30FC 1
 62
    18
370
    25
100
AcDbVertex
100
AcDb2dVertex
 10
57.03665634424778
 20
-111.2462673332996
 30
0.0
  0
VERTEX
  5
184
330
182
100
AcDbEntity
  8
\U+30EC\U+30A4\U+30E4\U+30FC 1
 62
    18
370
    25
100
AcDbVertex
100
AcDb2dVertex
 10
56.6797444519759
 20
-111.1270670295099
 30
0.0
  0
SEQEND
  5
185
330
182
100
AcDbEntity
  8
\U+30EC\U+30A4\U+30E4\U+30FC 1
370
    25
  0
POLYLINE
  5
186
330
1F
100
AcDbEntity
  8
\U+30EC\U+30A4\U+30E4\U+30FC 1
 62
    18
370
    25
100
AcDb2dPolyline
 66
     1
 10
0.0
 20
0.0
 30
0.0
  0
VERTEX
  5
187
330
186
100
AcDbEntity
  8
\U+30EC\U+30A4\U+30E4\U+30FC 1
 62
    18
370
    25
100
AcDbVertex
100
AcDb2dVertex
 10
132.3970865554424
 20
-99.0433946149961
 30
0.0
  0
VERTEX
  5
188
330
186
100
AcDbEntity
  8
\U+30EC\U+30A4\U+30E4\U+30FC 1
 62
    18
370
    25
100
AcDbVertex
100
AcDb2dVertex
 10
132.5162868592321
 20
-98.80533851696534
 30
0.0
  0
SEQEND
  5
189
330
186
100
AcDbEntity
  8
\U+30EC\U+30A4\U+30E4\U+30FC 1
370
    25
  0
POLYLINE
  5
18A
330
1F
100
AcDbEntity
  8
\U+30EC\U+30A4\U+30E4\U+30FC 1
 62
    18
370
    25
100
AcDb2dPolyline
 66
     1
 10
0.0
 20
0.0
 30
0.0
  0
VERTEX
  5
18B
330
18A
100
AcDbEntity
  8
\U+30EC\U+30A4\U+30E4\U+30FC 1
 62
    18
370
    25
100
AcDbVertex
100
AcDb2dVertex
 10
126.8012179587511
 20
-98.03139781620396
 30
0.0
  0
VERTEX
  5
18C
330
18A
100
AcDbEntity
  8
\U+30EC\U+30A4\U+30E4\U+30FC 1
 62
    18
370
    25
100
AcDbVertex
100
AcDb2dVertex
 10
127.5157307623919
 20
-98.09082571332452
 30
0.0
  0
VERTEX
  5
18D
330
18A
100
AcDbEntity
  8
\U+30EC\U+30A4\U+30E4\U+30FC 1
 62
    18
370
    25
100
AcDbVertex
100
AcDb2dVertex
 10
128.2302435660327
 20
-98.21002601711416
 30
0.0
  0
VERTEX
  5
18E
330
18A
100
AcDbEntity
  8
\U+30EC\U+30A4\U+30E4\U+30FC 1
 62
    18
370
    25
100
AcDbVertex
100
AcDb2dVertex
 10
128.944411860125
 20
-98.26962616900899
 30
0.0
  0
VERTEX
  5
18F
330
18A
100
AcDbEntity
  8
\U+30EC\U+30A4\U+30E4\U+30FC 1
 62
    18
370
    25
100
AcDbVertex
100
AcDb2dVertex
 10
129.6585801542173
 20
-98.3884819632501
 30
0.0
  0
VERTEX
  5
190
330
18A
100
AcDbEntity
  8
\U+30EC\U+30A4\U+30E4\U+30FC 1
 62
    18
370
    25
100
AcDbVertex
100
AcDb2dVertex
 10
130.3727484483096
 20
-98.50768226703975
 30
0.0
  0
VERTEX
  5
191
330
18A
100
AcDbEntity
  8
\U+30EC\U+30A4\U+30E4\U+30FC 1
 62
    18
370
    25
100
AcDbVertex
100
AcDb2dVertex
 10
131.0872612519504
 20
-98.56728241893457
 30
0.0
  0
VERTEX
  5
192
330
18A
100
AcDbEntity
  8
\U+30EC\U+30A4\U+30E4\U+30FC 1
 62
    18
370
    25
100
AcDbVertex
100
AcDb2dVertex
 10
131.8017740555912
 20
-98.6861382131757
 30
0.0
  0
VERTEX
  5
193
330
18A
100
AcDbEntity
  8
\U+30EC\U+30A4\U+30E4\U+30FC 1
 62
    18
370
    25
100
AcDbVertex
100
AcDb2dVertex
 10
132.5162868592321
 20
-98.80533851696534
 30
0.0
  0
SEQEND
  5
194
330
18A
100
AcDbEntity
  8
\U+30EC\U+30A4\U+30E4\U+30FC 1
370
    25
  0
POLYLINE
  5
195
330
1F
100
AcDbEntity
  8
\U+30EC\U+30A4\U+30E4\U+30FC 1
 62
    18
370
    25
100
AcDb2dPolyline
 66
     1
 10
0.0
 20
0.0
 30
0.0
  0
VERTEX
  5
196
330
195
100
AcDbEntity
  8
\U+30EC\U+30A4\U+30E4\U+30FC 1
 62
    18
370
    25
100
AcDbVertex
100
AcDb2dVertex
 10
132.5162868592321
 20
-98.80533851696534
 30
0.0
  0
VERTEX
  5
197
330
195
100
AcDbEntity
  8
\U+30EC\U+30A4\U+30E4\U+30FC 1
 62
    18
370
    25
100
AcDbVertex
100
AcDb2dVertex
 10
132.5162868592321
 20
-98.6861382131757
 30
0.0
  0
SEQEND
  5
198
330
195
100
AcDbEntity
  8
\U+30EC\U+30A4\U+30E4\U+30FC 1
370
    25
  0
POLYLINE
  5
199
330
1F
100
AcDbEntity
  8
\U+30EC\U+30A4\U+30E4\U+30FC 1
 62
    18
370
    25
100
AcDb2dPolyline
 66
     1
 10
0.0
 20
0.0
 30
0.0
  0
VERTEX
  5
19A
330
199
100
AcDbEntity
  8
\U+30EC\U+30A4\U+30E4\U+30FC 1
 62
    18
370
    25
100
AcDbVertex
100
AcDb2dVertex
 10
132.5162868592321
 20
-98.6861382131757
 30
0.0
  0
VERTEX
  5
19B
330
199
100
AcDbEntity
  8
\U+30EC\U+30A4\U+30E4\U+30FC 1
 62
    18
370
    25
100
AcDbVertex
100
AcDb2dVertex
 10
132.4563421977887
 20
-98.32888181135529
 30
0.0
  0
VERTEX
  5
19C
330
199
100
AcDbEntity
  8
\U+30EC\U+30A4\U+30E4\U+30FC 1
 62
    18
370
    25
100
AcDbVertex
100
AcDb2dVertex
 10
132.4563421977887
 20
-98.09082571332452
 30
0.0
  0
VERTEX
  5
19D
330
199
100
AcDbEntity
  8
\U+30EC\U+30A4\U+30E4\U+30FC 1
 62
    18
370
    25
100
AcDbVertex
100
AcDb2dVertex
 10
132.337141893999
 20
-97.9719699190834
 30
0.0
  0
SEQEND
  5
19E
330
199
100
AcDbEntity
  8
\U+30EC\U+30A4\U+30E4\U+30FC 1
370
    25
  0
POLYLINE
  5
19F
330
1F
100
AcDbEntity
  8
\U+30EC\U+30A4\U+30E4\U+30FC 1
 62
    18
370
    25
100
AcDb2dPolyline
 66
     1
 10
0.0
 20
0.0
 30
0.0
  0
VERTEX
  5
1A0
330
19F
100
AcDbEntity
  8
\U+30EC\U+30A4\U+30E4\U+30FC 1
 62
    18
370
    25
100
AcDbVertex
100
AcDb2dVertex
 10
126.8012179587511
 20
-97.85294187006802
 30
0.0
  0
VERTEX
  5
1A1
330
19F
100
AcDbEntity
  8
\U+30EC\U+30A4\U+30E4\U+30FC 1
 62
    18
370
    25
100
AcDbVertex
100
AcDb2dVertex
 10
126.8012179587511
 20
-98.03139781620396
 30
0.0
  0
SEQEND
  5
1A2
330
19F
100
AcDbEntity
  8
\U+30EC\U+30A4\U+30E4\U+30FC 1
370
    25
  0
POLYLINE
  5
1A3
330
1F
100
AcDbEntity
  8
\U+30EC\U+30A4\U+30E4\U+30FC 1
 62
    18
370
    25
100
AcDb2dPolyline
 66
     1
 10
0.0
 20
0.0
 30
0.0
  0
VERTEX
  5
1A4
330
1A3
100
AcDbEntity
  8
\U+30EC\U+30A4\U+30E4\U+30FC 1
 62
    18
370
    25
100
AcDbVertex
100
AcDb2dVertex
 10
126.4443060664792
 20
-97.31722952211167
 30
0.0
  0
VERTEX
  5
1A5
330
1A3
100
AcDbEntity
  8
\U+30EC\U+30A4\U+30E4\U+30FC 1
 62
    18
370
    25
100
AcDbVertex
100
AcDb2dVertex
 10
126.5635063702689
 20
-97.19802921832202
 30
0.0
  0
VERTEX
  5
1A6
330
1A3
100
AcDbEntity
  8
\U+30EC\U+30A4\U+30E4\U+30FC 1
 62
    18
370
    25
100
AcDbVertex
100
AcDb2dVertex
 10
126.6820176549614
 20
-97.13842906642721
 30
0.0
  0
VERTEX
  5
1A7
330
1A3
100
AcDbEntity
  8
\U+30EC\U+30A4\U+30E4\U+30FC 1
 62
    18
370
    25
100
AcDbVertex
100
AcDb2dVertex
 10
126.7419623164048
 20
-97.25762937021685
 30
0.0
  0
VERTEX
  5
1A8
330
1A3
100
AcDbEntity
  8
\U+30EC\U+30A4\U+30E4\U+30FC 1
 62
    18
370
    25
100
AcDbVertex
100
AcDb2dVertex
 10
126.8012179587511
 20
-97.55528562014243
 30
0.0
  0
VERTEX
  5
1A9
330
1A3
100
AcDbEntity
  8
\U+30EC\U+30A4\U+30E4\U+30FC 1
 62
    18
370
    25
100
AcDbVertex
100
AcDb2dVertex
 10
126.8012179587511
 20
-97.85294187006802
 30
0.0
  0
SEQEND
  5
1AA
330
1A3
100
AcDbEntity
  8
\U+30EC\U+30A4\U+30E4\U+30FC 1
370
    25
  0
POLYLINE
  5
1AB
330
1F
100
AcDbEntity
  8
\U+30EC\U+30A4\U+30E4\U+30FC 1
 62
    18
370
    25
100
AcDb2dPolyline
 66
     1
 10
0.0
 20
0.0
 30
0.0
  0
VERTEX
  5
1AC
330
1AB
100
AcDbEntity
  8
\U+30EC\U+30A4\U+30E4\U+30FC 1
 62
    18
370
    25
100
AcDbVertex
100
AcDb2dVertex
 10
126.8012179587511
 20
-98.03139781620396
 30
0.0
  0
VERTEX
  5
1AD
330
1AB
100
AcDbEntity
  8
\U+30EC\U+30A4\U+30E4\U+30FC 1
 62
    18
370
    25
100
AcDbVertex
100
AcDb2dVertex
 10
126.6820176549614
 20
-98.21002601711416
 30
0.0
  0
SEQEND
  5
1AE
330
1AB
100
AcDbEntity
  8
\U+30EC\U+30A4\U+30E4\U+30FC 1
370
    25
  0
POLYLINE
  5
1AF
330
1F
100
AcDbEntity
  8
\U+30EC\U+30A4\U+30E4\U+30FC 1
 62
    18
370
    25
100
AcDb2dPolyline
 66
     1
 10
0.0
 20
0.0
 30
0.0
  0
VERTEX
  5
1B0
330
1AF
100
AcDbEntity
  8
\U+30EC\U+30A4\U+30E4\U+30FC 1
 62
    18
370
    25
100
AcDbVertex
100
AcDb2dVertex
 10
178.6488714831156
 20
-127.913467036164
 30
0.0
  0
VERTEX
  5
1B1
330
1AF
100
AcDbEntity
  8
\U+30EC\U+30A4\U+30E4\U+30FC 1
 62
    18
370
    25
100
AcDbVertex
100
AcDb2dVertex
 10
178.6488714831156
 20
-127.6159830410127
 30
0.0
  0
SEQEND
  5
1B2
330
1AF
100
AcDbEntity
  8
\U+30EC\U+30A4\U+30E4\U+30FC 1
370
    25
  0
POLYLINE
  5
1B3
330
1F
100
AcDbEntity
  8
\U+30EC\U+30A4\U+30E4\U+30FC 1
 62
    18
370
    25
100
AcDb2dPolyline
 66
     1
 10
0.0
 20
0.0
 30
0.0
  0
VERTEX
  5
1B4
330
1B3
100
AcDbEntity
  8
\U+30EC\U+30A4\U+30E4\U+30FC 1
 62
    18
370
    25
100
AcDbVertex
100
AcDb2dVertex
 10
132.5162868592321
 20
-98.74573836507051
 30
0.0
  0
VERTEX
  5
1B5
330
1B3
100
AcDbEntity
  8
\U+30EC\U+30A4\U+30E4\U+30FC 1
 62
    18
370
    25
100
AcDbVertex
100
AcDb2dVertex
 10
132.5162868592321
 20
-98.86493866886016
 30
0.0
  0
SEQEND
  5
1B6
330
1B3
100
AcDbEntity
  8
\U+30EC\U+30A4\U+30E4\U+30FC 1
370
    25
  0
POLYLINE
  5
1B7
330
1F
100
AcDbEntity
  8
\U+30EC\U+30A4\U+30E4\U+30FC 1
 62
    18
370
    25
100
AcDb2dPolyline
 66
     1
 10
0.0
 20
0.0
 30
0.0
  0
VERTEX
  5
1B8
330
1B7
100
AcDbEntity
  8
\U+30EC\U+30A4\U+30E4\U+30FC 1
 62
    18
370
    25
100
AcDbVertex
100
AcDb2dVertex
 10
126.5035617088255
 20
-98.03139781620396
 30
0.0
  0
VERTEX
  5
1B9
330
1B7
100
AcDbEntity
  8
\U+30EC\U+30A4\U+30E4\U+30FC 1
 62
    18
370
    25
100
AcDbVertex
100
AcDb2dVertex
 10
126.5035617088255
 20
-97.73374156627837
 30
0.0
  0
VERTEX
  5
1BA
330
1B7
100
AcDbEntity
  8
\U+30EC\U+30A4\U+30E4\U+30FC 1
 62
    18
370
    25
100
AcDbVertex
100
AcDb2dVertex
 10
126.4443060664792
 20
-97.43608531635279
 30
0.0
  0
VERTEX
  5
1BB
330
1B7
100
AcDbEntity
  8
\U+30EC\U+30A4\U+30E4\U+30FC 1
 62
    18
370
    25
100
AcDbVertex
100
AcDb2dVertex
 10
126.3843614050359
 20
-97.31722952211167
 30
0.0
  0
VERTEX
  5
1BC
330
1B7
100
AcDbEntity
  8
\U+30EC\U+30A4\U+30E4\U+30FC 1
 62
    18
370
    25
100
AcDbVertex
100
AcDb2dVertex
 10
126.3843614050359
 20
-97.37682967400649
 30
0.0
  0
SEQEND
  5
1BD
330
1B7
100
AcDbEntity
  8
\U+30EC\U+30A4\U+30E4\U+30FC 1
370
    25
  0
POLYLINE
  5
1BE
330
1F
100
AcDbEntity
  8
\U+30EC\U+30A4\U+30E4\U+30FC 1
 62
    18
370
    25
100
AcDb2dPolyline
 66
     1
 10
0.0
 20
0.0
 30
0.0
  0
VERTEX
  5
1BF
330
1BE
100
AcDbEntity
  8
\U+30EC\U+30A4\U+30E4\U+30FC 1
 62
    18
370
    25
100
AcDbVertex
100
AcDb2dVertex
 10
57.45334064318875
 20
-110.293698431628
 30
0.0
  0
VERTEX
  5
1C0
330
1BE
100
AcDbEntity
  8
\U+30EC\U+30A4\U+30E4\U+30FC 1
 62
    18
370
    25
100
AcDbVertex
100
AcDb2dVertex
 10
57.39408500084245
 20
-110.3532985835228
 30
0.0
  0
VERTEX
  5
1C1
330
1BE
100
AcDbEntity
  8
\U+30EC\U+30A4\U+30E4\U+30FC 1
 62
    18
370
    25
100
AcDbVertex
100
AcDb2dVertex
 10
57.21562905470651
 20
-110.5913546815536
 30
0.0
  0
VERTEX
  5
1C2
330
1BE
100
AcDbEntity
  8
\U+30EC\U+30A4\U+30E4\U+30FC 1
 62
    18
370
    25
100
AcDbVertex
100
AcDb2dVertex
 10
57.09642875091686
 20
-110.948611083374
 30
0.0
  0
VERTEX
  5
1C3
330
1BE
100
AcDbEntity
  8
\U+30EC\U+30A4\U+30E4\U+30FC 1
 62
    18
370
    25
100
AcDbVertex
100
AcDb2dVertex
 10
57.09642875091686
 20
-111.0082112352688
 30
0.0
  0
SEQEND
  5
1C4
330
1BE
100
AcDbEntity
  8
\U+30EC\U+30A4\U+30E4\U+30FC 1
370
    25
  0
POLYLINE
  5
1C5
330
1F
100
AcDbEntity
  8
\U+30EC\U+30A4\U+30E4\U+30FC 1
 62
    18
370
    25
100
AcDb2dPolyline
 66
     1
 10
0.0
 20
0.0
 30
0.0
  0
VERTEX
  5
1C6
330
1C5
100
AcDbEntity
  8
\U+30EC\U+30A4\U+30E4\U+30FC 1
 62
    18
370
    25
100
AcDbVertex
100
AcDb2dVertex
 10
126.5035617088255
 20
-98.21002601711416
 30
0.0
  0
VERTEX
  5
1C7
330
1C5
100
AcDbEntity
  8
\U+30EC\U+30A4\U+30E4\U+30FC 1
 62
    18
370
    25
100
AcDbVertex
100
AcDb2dVertex
 10
127.2773301548126
 20
-98.26962616900899
 30
0.0
  0
VERTEX
  5
1C8
330
1C5
100
AcDbEntity
  8
\U+30EC\U+30A4\U+30E4\U+30FC 1
 62
    18
370
    25
100
AcDbVertex
100
AcDb2dVertex
 10
128.0517876198968
 20
-98.3884819632501
 30
0.0
  0
VERTEX
  5
1C9
330
1C5
100
AcDbEntity
  8
\U+30EC\U+30A4\U+30E4\U+30FC 1
 62
    18
370
    25
100
AcDbVertex
100
AcDb2dVertex
 10
128.8255560658839
 20
-98.50768226703975
 30
0.0
  0
VERTEX
  5
1CA
330
1C5
100
AcDbEntity
  8
\U+30EC\U+30A4\U+30E4\U+30FC 1
 62
    18
370
    25
100
AcDbVertex
100
AcDb2dVertex
 10
129.5397243599762
 20
-98.56728241893457
 30
0.0
  0
VERTEX
  5
1CB
330
1C5
100
AcDbEntity
  8
\U+30EC\U+30A4\U+30E4\U+30FC 1
 62
    18
370
    25
100
AcDbVertex
100
AcDb2dVertex
 10
130.3134928059633
 20
-98.6861382131757
 30
0.0
  0
VERTEX
  5
1CC
330
1C5
100
AcDbEntity
  8
\U+30EC\U+30A4\U+30E4\U+30FC 1
 62
    18
370
    25
100
AcDbVertex
100
AcDb2dVertex
 10
131.0280056096041
 20
-98.80533851696534
 30
0.0
  0
VERTEX
  5
1CD
330
1C5
100
AcDbEntity
  8
\U+30EC\U+30A4\U+30E4\U+30FC 1
 62
    18
370
    25
100
AcDbVertex
100
AcDb2dVertex
 10
131.8017740555912
 20
-98.92419431120645
 30
0.0
  0
VERTEX
  5
1CE
330
1C5
100
AcDbEntity
  8
\U+30EC\U+30A4\U+30E4\U+30FC 1
 62
    18
370
    25
100
AcDbVertex
100
AcDb2dVertex
 10
132.5162868592321
 20
-99.0433946149961
 30
0.0
  0
SEQEND
  5
1CF
330
1C5
100
AcDbEntity
  8
\U+30EC\U+30A4\U+30E4\U+30FC 1
370
    25
  0
POLYLINE
  5
1D0
330
1F
100
AcDbEntity
  8
\U+30EC\U+30A4\U+30E4\U+30FC 1
 62
    18
370
    25
100
AcDb2dPolyline
 66
     1
 10
0.0
 20
0.0
 30
0.0
  0
VERTEX
  5
1D1
330
1D0
100
AcDbEntity
  8
\U+30EC\U+30A4\U+30E4\U+30FC 1
 62
    18
370
    25
100
AcDbVertex
100
AcDb2dVertex
 10
126.5035617088255
 20
-98.21002601711416
 30
0.0
  0
VERTEX
  5
1D2
330
1D0
100
AcDbEntity
  8
\U+30EC\U+30A4\U+30E4\U+30FC 1
 62
    18
370
    25
100
AcDbVertex
100
AcDb2dVertex
 10
126.5035617088255
 20
-98.03139781620396
 30
0.0
  0
SEQEND
  5
1D3
330
1D0
100
AcDbEntity
  8
\U+30EC\U+30A4\U+30E4\U+30FC 1
370
    25
  0
POLYLINE
  5
1D4
330
1F
100
AcDbEntity
  8
\U+30EC\U+30A4\U+30E4\U+30FC 1
 62
    18
370
    25
100
AcDb2dPolyline
 66
     1
 10
0.0
 20
0.0
 30
0.0
  0
VERTEX
  5
1D5
330
1D4
100
AcDbEntity
  8
\U+30EC\U+30A4\U+30E4\U+30FC 1
 62
    18
370
    25
100
AcDbVertex
100
AcDb2dVertex
 10
57.09642875091686
 20
-111.0082112352688
 30
0.0
  0
VERTEX
  5
1D6
330
1D4
100
AcDbEntity
  8
\U+30EC\U+30A4\U+30E4\U+30FC 1
 62
    18
370
    25
100
AcDbVertex
100
AcDb2dVertex
 10
57.15585664803743
 20
-111.1866671814047
 30
0.0
  0
SEQEND
  5
1D7
330
1D4
100
AcDbEntity
  8
\U+30EC\U+30A4\U+30E4\U+30FC 1
370
    25
  0
POLYLINE
  5
1D8
330
1F
100
AcDbEntity
  8
\U+30EC\U+30A4\U+30E4\U+30FC 1
 62
    18
370
    25
100
AcDb2dPolyline
 66
     1
 10
0.0
 20
0.0
 30
0.0
  0
VERTEX
  5
1D9
330
1D8
100
AcDbEntity
  8
\U+30EC\U+30A4\U+30E4\U+30FC 1
 62
    18
370
    25
100
AcDbVertex
100
AcDb2dVertex
 10
53.7033542074943
 20
-113.8058010240659
 30
0.0
  0
VERTEX
  5
1DA
330
1D8
100
AcDbEntity
  8
\U+30EC\U+30A4\U+30E4\U+30FC 1
 62
    18
370
    25
100
AcDbVertex
100
AcDb2dVertex
 10
54.06026609976619
 20
-113.448889131794
 30
0.0
  0
VERTEX
  5
1DB
330
1D8
100
AcDbEntity
  8
\U+30EC\U+30A4\U+30E4\U+30FC 1
 62
    18
370
    25
100
AcDbVertex
100
AcDb2dVertex
 10
54.47712265348142
 20
-113.0916327299736
 30
0.0
  0
VERTEX
  5
1DC
330
1D8
100
AcDbEntity
  8
\U+30EC\U+30A4\U+30E4\U+30FC 1
 62
    18
370
    25
100
AcDbVertex
100
AcDb2dVertex
 10
54.89397920719664
 20
-112.793976480048
 30
0.0
  0
VERTEX
  5
1DD
330
1D8
100
AcDbEntity
  8
\U+30EC\U+30A4\U+30E4\U+30FC 1
 62
    18
370
    25
100
AcDbVertex
100
AcDb2dVertex
 10
55.36991914848391
 20
-112.4367200782276
 30
0.0
  0
VERTEX
  5
1DE
330
1D8
100
AcDbEntity
  8
\U+30EC\U+30A4\U+30E4\U+30FC 1
 62
    18
370
    25
100
AcDbVertex
100
AcDb2dVertex
 10
55.78677570219914
 20
-112.139063828302
 30
0.0
  0
VERTEX
  5
1DF
330
1D8
100
AcDbEntity
  8
\U+30EC\U+30A4\U+30E4\U+30FC 1
 62
    18
370
    25
100
AcDbVertex
100
AcDb2dVertex
 10
56.20363225591437
 20
-111.8415798331507
 30
0.0
  0
VERTEX
  5
1E0
330
1D8
100
AcDbEntity
  8
\U+30EC\U+30A4\U+30E4\U+30FC 1
 62
    18
370
    25
100
AcDbVertex
100
AcDb2dVertex
 10
56.6797444519759
 20
-111.4843234313303
 30
0.0
  0
VERTEX
  5
1E1
330
1D8
100
AcDbEntity
  8
\U+30EC\U+30A4\U+30E4\U+30FC 1
 62
    18
370
    25
100
AcDbVertex
100
AcDb2dVertex
 10
57.15585664803743
 20
-111.1866671814047
 30
0.0
  0
SEQEND
  5
1E2
330
1D8
100
AcDbEntity
  8
\U+30EC\U+30A4\U+30E4\U+30FC 1
370
    25
  0
POLYLINE
  5
1E3
330
1F
100
AcDbEntity
  8
\U+30EC\U+30A4\U+30E4\U+30FC 1
 62
    18
370
    25
100
AcDb2dPolyline
 66
     1
 10
0.0
 20
0.0
 30
0.0
  0
VERTEX
  5
1E4
330
1E3
100
AcDbEntity
  8
\U+30EC\U+30A4\U+30E4\U+30FC 1
 62
    18
370
    25
100
AcDbVertex
100
AcDb2dVertex
 10
53.7033542074943
 20
-113.8058010240659
 30
0.0
  0
VERTEX
  5
1E5
330
1E3
100
AcDbEntity
  8
\U+30EC\U+30A4\U+30E4\U+30FC 1
 62
    18
370
    25
100
AcDbVertex
100
AcDb2dVertex
 10
53.7033542074943
 20
-113.6867729750505
 30
0.0
  0
SEQEND
  5
1E6
330
1E3
100
AcDbEntity
  8
\U+30EC\U+30A4\U+30E4\U+30FC 1
370
    25
  0
POLYLINE
  5
1E7
330
1F
100
AcDbEntity
  8
\U+30EC\U+30A4\U+30E4\U+30FC 1
 62
    18
370
    25
100
AcDb2dPolyline
 66
     1
 10
0.0
 20
0.0
 30
0.0
  0
VERTEX
  5
1E8
330
1E7
100
AcDbEntity
  8
\U+30EC\U+30A4\U+30E4\U+30FC 1
 62
    18
370
    25
100
AcDbVertex
100
AcDb2dVertex
 10
44.17921548374687
 20
-132.2587659717096
 30
0.0
  0
VERTEX
  5
1E9
330
1E7
100
AcDbEntity
  8
\U+30EC\U+30A4\U+30E4\U+30FC 1
 62
    18
370
    25
100
AcDbVertex
100
AcDb2dVertex
 10
44.17921548374687
 20
-130.4137450845841
 30
0.0
  0
VERTEX
  5
1EA
330
1E7
100
AcDbEntity
  8
\U+30EC\U+30A4\U+30E4\U+30FC 1
 62
    18
370
    25
100
AcDbVertex
100
AcDb2dVertex
 10
44.29841578753651
 20
-128.8064357859407
 30
0.0
  0
SEQEND
  5
1EB
330
1E7
100
AcDbEntity
  8
\U+30EC\U+30A4\U+30E4\U+30FC 1
370
    25
  0
POLYLINE
  5
1EC
330
1F
100
AcDbEntity
  8
\U+30EC\U+30A4\U+30E4\U+30FC 1
 62
    18
370
    25
100
AcDb2dPolyline
 66
     1
 10
0.0
 20
0.0
 30
0.0
  0
VERTEX
  5
1ED
330
1EC
100
AcDbEntity
  8
\U+30EC\U+30A4\U+30E4\U+30FC 1
 62
    18
370
    25
100
AcDbVertex
100
AcDb2dVertex
 10
178.9465277330412
 20
-131.0683132267815
 30
0.0
  0
VERTEX
  5
1EE
330
1EC
100
AcDbEntity
  8
\U+30EC\U+30A4\U+30E4\U+30FC 1
 62
    18
370
    25
100
AcDbVertex
100
AcDb2dVertex
 10
178.8865830715978
 20
-132.2587659717096
 30
0.0
  0
SEQEND
  5
1EF
330
1EC
100
AcDbEntity
  8
\U+30EC\U+30A4\U+30E4\U+30FC 1
370
    25
  0
POLYLINE
  5
1F0
330
1F
100
AcDbEntity
  8
\U+30EC\U+30A4\U+30E4\U+30FC 1
 62
    18
370
    25
100
AcDb2dPolyline
 66
     1
 10
0.0
 20
0.0
 30
0.0
  0
VERTEX
  5
1F1
330
1F0
100
AcDbEntity
  8
\U+30EC\U+30A4\U+30E4\U+30FC 1
 62
    18
370
    25
100
AcDbVertex
100
AcDb2dVertex
 10
178.9465277330412
 20
-131.0683132267815
 30
0.0
  0
VERTEX
  5
1F2
330
1F0
100
AcDbEntity
  8
\U+30EC\U+30A4\U+30E4\U+30FC 1
 62
    18
370
    25
100
AcDbVertex
100
AcDb2dVertex
 10
178.9465277330412
 20
-131.1279133786764
 30
0.0
  0
SEQEND
  5
1F3
330
1F0
100
AcDbEntity
  8
\U+30EC\U+30A4\U+30E4\U+30FC 1
370
    25
  0
POLYLINE
  5
1F4
330
1F
100
AcDbEntity
  8
\U+30EC\U+30A4\U+30E4\U+30FC 1
 62
    18
370
    25
100
AcDb2dPolyline
 66
     1
 10
0.0
 20
0.0
 30
0.0
  0
VERTEX
  5
1F5
330
1F4
100
AcDbEntity
  8
\U+30EC\U+30A4\U+30E4\U+30FC 1
 62
    18
370
    25
100
AcDbVertex
100
AcDb2dVertex
 10
178.6488714831156
 20
-128.0326673399536
 30
0.0
  0
VERTEX
  5
1F6
330
1F4
100
AcDbEntity
  8
\U+30EC\U+30A4\U+30E4\U+30FC 1
 62
    18
370
    25
100
AcDbVertex
100
AcDb2dVertex
 10
178.7081271254619
 20
-128.3895792322255
 30
0.0
  0
VERTEX
  5
1F7
330
1F4
100
AcDbEntity
  8
\U+30EC\U+30A4\U+30E4\U+30FC 1
 62
    18
370
    25
100
AcDbVertex
100
AcDb2dVertex
 10
178.7673827678082
 20
-128.8064357859407
 30
0.0
  0
VERTEX
  5
1F8
330
1F4
100
AcDbEntity
  8
\U+30EC\U+30A4\U+30E4\U+30FC 1
 62
    18
370
    25
100
AcDbVertex
100
AcDb2dVertex
 10
178.8273274292515
 20
-129.223292339656
 30
0.0
  0
VERTEX
  5
1F9
330
1F4
100
AcDbEntity
  8
\U+30EC\U+30A4\U+30E4\U+30FC 1
 62
    18
370
    25
100
AcDbVertex
100
AcDb2dVertex
 10
178.8865830715978
 20
-129.5802042319279
 30
0.0
  0
VERTEX
  5
1FA
330
1F4
100
AcDbEntity
  8
\U+30EC\U+30A4\U+30E4\U+30FC 1
 62
    18
370
    25
100
AcDbVertex
100
AcDb2dVertex
 10
178.8865830715978
 20
-129.9968885308688
 30
0.0
  0
VERTEX
  5
1FB
330
1F4
100
AcDbEntity
  8
\U+30EC\U+30A4\U+30E4\U+30FC 1
 62
    18
370
    25
100
AcDbVertex
100
AcDb2dVertex
 10
178.8865830715978
 20
-130.3541449326893
 30
0.0
  0
VERTEX
  5
1FC
330
1F4
100
AcDbEntity
  8
\U+30EC\U+30A4\U+30E4\U+30FC 1
 62
    18
370
    25
100
AcDbVertex
100
AcDb2dVertex
 10
178.9465277330412
 20
-130.7706569768559
 30
0.0
  0
VERTEX
  5
1FD
330
1F4
100
AcDbEntity
  8
\U+30EC\U+30A4\U+30E4\U+30FC 1
 62
    18
370
    25
100
AcDbVertex
100
AcDb2dVertex
 10
178.9465277330412
 20
-131.1279133786764
 30
0.0
  0
SEQEND
  5
1FE
330
1F4
100
AcDbEntity
  8
\U+30EC\U+30A4\U+30E4\U+30FC 1
370
    25
  0
POLYLINE
  5
1FF
330
1F
100
AcDbEntity
  8
\U+30EC\U+30A4\U+30E4\U+30FC 1
 62
    18
370
    25
100
AcDb2dPolyline
 66
     1
 10
0.0
 20
0.0
 30
0.0
  0
VERTEX
  5
200
330
1FF
100
AcDbEntity
  8
\U+30EC\U+30A4\U+30E4\U+30FC 1
 62
    18
370
    25
100
AcDbVertex
100
AcDb2dVertex
 10
178.6488714831156
 20
-128.0326673399536
 30
0.0
  0
VERTEX
  5
201
330
1FF
100
AcDbEntity
  8
\U+30EC\U+30A4\U+30E4\U+30FC 1
 62
    18
370
    25
100
AcDbVertex
100
AcDb2dVertex
 10
178.6488714831156
 20
-127.913467036164
 30
0.0
  0
SEQEND
  5
202
330
1FF
100
AcDbEntity
  8
\U+30EC\U+30A4\U+30E4\U+30FC 1
370
    25
  0
POLYLINE
  5
203
330
1F
100
AcDbEntity
  8
\U+30EC\U+30A4\U+30E4\U+30FC 1
 62
    18
370
    25
100
AcDb2dPolyline
 66
     1
 10
0.0
 20
0.0
 30
0.0
  0
VERTEX
  5
204
330
203
100
AcDbEntity
  8
\U+30EC\U+30A4\U+30E4\U+30FC 1
 62
    18
370
    25
100
AcDbVertex
100
AcDb2dVertex
 10
132.5162868592321
 20
-98.86493866886016
 30
0.0
  0
VERTEX
  5
205
330
203
100
AcDbEntity
  8
\U+30EC\U+30A4\U+30E4\U+30FC 1
 62
    18
370
    25
100
AcDbVertex
100
AcDb2dVertex
 10
132.5162868592321
 20
-99.0433946149961
 30
0.0
  0
SEQEND
  5
206
330
203
100
AcDbEntity
  8
\U+30EC\U+30A4\U+30E4\U+30FC 1
370
    25
  0
POLYLINE
  5
207
330
1F
100
AcDbEntity
  8
\U+30EC\U+30A4\U+30E4\U+30FC 1
 62
    18
370
    25
100
AcDb2dPolyline
 66
     1
 10
0.0
 20
0.0
 30
0.0
  0
VERTEX
  5
208
330
207
100
AcDbEntity
  8
\U+30EC\U+30A4\U+30E4\U+30FC 1
 62
    18
370
    25
100
AcDbVertex
100
AcDb2dVertex
 10
47.81000161565167
 20
-165.4744818379717
 30
0.0
  0
VERTEX
  5
209
330
207
100
AcDbEntity
  8
\U+30EC\U+30A4\U+30E4\U+30FC 1
 62
    18
370
    25
100
AcDbVertex
100
AcDb2dVertex
 10
47.39383408103349
 20
-164.4630018035023
 30
0.0
  0
VERTEX
  5
20A
330
207
100
AcDbEntity
  8
\U+30EC\U+30A4\U+30E4\U+30FC 1
 62
    18
370
    25
100
AcDbVertex
100
AcDb2dVertex
 10
46.85794947830288
 20
-162.6167751329569
 30
0.0
  0
VERTEX
  5
20B
330
207
100
AcDbEntity
  8
\U+30EC\U+30A4\U+30E4\U+30FC 1
 62
    18
370
    25
100
AcDbVertex
100
AcDb2dVertex
 10
46.50103758603099
 20
-160.7123263487108
 30
0.0
  0
VERTEX
  5
20C
330
207
100
AcDbEntity
  8
\U+30EC\U+30A4\U+30E4\U+30FC 1
 62
    18
370
    25
100
AcDbVertex
100
AcDb2dVertex
 10
46.38183728224135
 20
-158.7475883934728
 30
0.0
  0
SEQEND
  5
20D
330
207
100
AcDbEntity
  8
\U+30EC\U+30A4\U+30E4\U+30FC 1
370
    25
  0
POLYLINE
  5
20E
330
1F
100
AcDbEntity
  8
\U+30EC\U+30A4\U+30E4\U+30FC 1
 62
    18
370
    25
100
AcDb2dPolyline
 66
     1
 10
0.0
 20
0.0
 30
0.0
  0
VERTEX
  5
20F
330
20E
100
AcDbEntity
  8
\U+30EC\U+30A4\U+30E4\U+30FC 1
 62
    18
370
    25
100
AcDbVertex
100
AcDb2dVertex
 10
176.2676214837109
 20
-155.116802261568
 30
0.0
  0
VERTEX
  5
210
330
20E
100
AcDbEntity
  8
\U+30EC\U+30A4\U+30E4\U+30FC 1
 62
    18
370
    25
100
AcDbVertex
100
AcDb2dVertex
 10
176.4464219393953
 20
-155.8912597266522
 30
0.0
  0
VERTEX
  5
211
330
20E
100
AcDbEntity
  8
\U+30EC\U+30A4\U+30E4\U+30FC 1
 62
    18
370
    25
100
AcDbVertex
100
AcDb2dVertex
 10
176.6841335278776
 20
-157.7953640013498
 30
0.0
  0
VERTEX
  5
212
330
20E
100
AcDbEntity
  8
\U+30EC\U+30A4\U+30E4\U+30FC 1
 62
    18
370
    25
100
AcDbVertex
100
AcDb2dVertex
 10
176.6841335278776
 20
-159.7001572951444
 30
0.0
  0
VERTEX
  5
213
330
20E
100
AcDbEntity
  8
\U+30EC\U+30A4\U+30E4\U+30FC 1
 62
    18
370
    25
100
AcDbVertex
100
AcDb2dVertex
 10
176.4464219393953
 20
-161.6645507408339
 30
0.0
  0
VERTEX
  5
214
330
20E
100
AcDbEntity
  8
\U+30EC\U+30A4\U+30E4\U+30FC 1
 62
    18
370
    25
100
AcDbVertex
100
AcDb2dVertex
 10
175.9703097433338
 20
-163.5097438827337
 30
0.0
  0
VERTEX
  5
215
330
20E
100
AcDbEntity
  8
\U+30EC\U+30A4\U+30E4\U+30FC 1
 62
    18
370
    25
100
AcDbVertex
100
AcDb2dVertex
 10
175.3749972434827
 20
-165.2953368727387
 30
0.0
  0
SEQEND
  5
216
330
20E
100
AcDbEntity
  8
\U+30EC\U+30A4\U+30E4\U+30FC 1
370
    25
  0
POLYLINE
  5
217
330
1F
100
AcDbEntity
  8
\U+30EC\U+30A4\U+30E4\U+30FC 1
 62
    18
370
    25
100
AcDb2dPolyline
 66
     1
 10
0.0
 20
0.0
 30
0.0
  0
VERTEX
  5
218
330
217
100
AcDbEntity
  8
\U+30EC\U+30A4\U+30E4\U+30FC 1
 62
    18
370
    25
100
AcDbVertex
100
AcDb2dVertex
 10
179.3626952676593
 20
-130.8898572806456
 30
0.0
  0
VERTEX
  5
219
330
217
100
AcDbEntity
  8
\U+30EC\U+30A4\U+30E4\U+30FC 1
 62
    18
370
    25
100
AcDbVertex
100
AcDb2dVertex
 10
179.3626952676593
 20
-129.8184325847329
 30
0.0
  0
VERTEX
  5
21A
330
217
100
AcDbEntity
  8
\U+30EC\U+30A4\U+30E4\U+30FC 1
 62
    18
370
    25
100
AcDbVertex
100
AcDb2dVertex
 10
179.1249836791771
 20
-128.0326673399536
 30
0.0
  0
VERTEX
  5
21B
330
217
100
AcDbEntity
  8
\U+30EC\U+30A4\U+30E4\U+30FC 1
 62
    18
370
    25
100
AcDbVertex
100
AcDb2dVertex
 10
179.0650390177337
 20
-127.6754109381332
 30
0.0
  0
SEQEND
  5
21C
330
217
100
AcDbEntity
  8
\U+30EC\U+30A4\U+30E4\U+30FC 1
370
    25
  0
POLYLINE
  5
21D
330
1F
100
AcDbEntity
  8
\U+30EC\U+30A4\U+30E4\U+30FC 1
 62
    18
370
    25
100
AcDb2dPolyline
 66
     1
 10
0.0
 20
0.0
 30
0.0
  0
VERTEX
  5
21E
330
21D
100
AcDbEntity
  8
\U+30EC\U+30A4\U+30E4\U+30FC 1
 62
    18
370
    25
100
AcDbVertex
100
AcDb2dVertex
 10
57.03665634424778
 20
-110.1748426373868
 30
0.0
  0
VERTEX
  5
21F
330
21D
100
AcDbEntity
  8
\U+30EC\U+30A4\U+30E4\U+30FC 1
 62
    18
370
    25
100
AcDbVertex
100
AcDb2dVertex
 10
55.90597600598878
 20
-111.0082112352688
 30
0.0
  0
VERTEX
  5
220
330
21D
100
AcDbEntity
  8
\U+30EC\U+30A4\U+30E4\U+30FC 1
 62
    18
370
    25
100
AcDbVertex
100
AcDb2dVertex
 10
53.94175481507359
 20
-112.4963202301224
 30
0.0
  0
VERTEX
  5
221
330
21D
100
AcDbEntity
  8
\U+30EC\U+30A4\U+30E4\U+30FC 1
 62
    18
370
    25
100
AcDbVertex
100
AcDb2dVertex
 10
53.64409856514801
 20
-112.7343763281532
 30
0.0
  0
SEQEND
  5
222
330
21D
100
AcDbEntity
  8
\U+30EC\U+30A4\U+30E4\U+30FC 1
370
    25
  0
POLYLINE
  5
223
330
1F
100
AcDbEntity
  8
\U+30EC\U+30A4\U+30E4\U+30FC 1
 62
    18
370
    25
100
AcDb2dPolyline
 66
     1
 10
0.0
 20
0.0
 30
0.0
  0
VERTEX
  5
224
330
223
100
AcDbEntity
  8
\U+30EC\U+30A4\U+30E4\U+30FC 1
 62
    18
370
    25
100
AcDbVertex
100
AcDb2dVertex
 10
132.3970865554424
 20
-97.9719699190834
 30
0.0
  0
VERTEX
  5
225
330
223
100
AcDbEntity
  8
\U+30EC\U+30A4\U+30E4\U+30FC 1
 62
    18
370
    25
100
AcDbVertex
100
AcDb2dVertex
 10
130.5512043944455
 20
-97.67431366915781
 30
0.0
  0
VERTEX
  5
226
330
223
100
AcDbEntity
  8
\U+30EC\U+30A4\U+30E4\U+30FC 1
 62
    18
370
    25
100
AcDbVertex
100
AcDb2dVertex
 10
127.15881887012
 20
-97.19802921832202
 30
0.0
  0
VERTEX
  5
227
330
223
100
AcDbEntity
  8
\U+30EC\U+30A4\U+30E4\U+30FC 1
 62
    18
370
    25
100
AcDbVertex
100
AcDb2dVertex
 10
126.5635063702689
 20
-97.13842906642721
 30
0.0
  0
SEQEND
  5
228
330
223
100
AcDbEntity
  8
\U+30EC\U+30A4\U+30E4\U+30FC 1
370
    25
  0
POLYLINE
  5
229
330
1F
100
AcDbEntity
  8
\U+30EC\U+30A4\U+30E4\U+30FC 1
 62
    18
370
    25
100
AcDb2dPolyline
 66
     1
 10
0.0
 20
0.0
 30
0.0
  0
VERTEX
  5
22A
330
229
100
AcDbEntity
  8
\U+30EC\U+30A4\U+30E4\U+30FC 1
 62
    18
370
    25
100
AcDbVertex
100
AcDb2dVertex
 10
53.34644231522242
 20
-113.448889131794
 30
0.0
  0
VERTEX
  5
22B
330
229
100
AcDbEntity
  8
\U+30EC\U+30A4\U+30E4\U+30FC 1
 62
    18
370
    25
100
AcDbVertex
100
AcDb2dVertex
 10
53.16746960476369
 20
-113.5677449260351
 30
0.0
  0
VERTEX
  5
22C
330
229
100
AcDbEntity
  8
\U+30EC\U+30A4\U+30E4\U+30FC 1
 62
    18
370
    25
100
AcDbVertex
100
AcDb2dVertex
 10
51.44147676665352
 20
-115.2346543765733
 30
0.0
  0
VERTEX
  5
22D
330
229
100
AcDbEntity
  8
\U+30EC\U+30A4\U+30E4\U+30FC 1
 62
    18
370
    25
100
AcDbVertex
100
AcDb2dVertex
 10
49.83416746801021
 20
-116.9608194694577
 30
0.0
  0
VERTEX
  5
22E
330
229
100
AcDbEntity
  8
\U+30EC\U+30A4\U+30E4\U+30FC 1
 62
    18
370
    25
100
AcDbVertex
100
AcDb2dVertex
 10
48.40531411550284
 20
-118.746584714237
 30
0.0
  0
VERTEX
  5
22F
330
229
100
AcDbEntity
  8
\U+30EC\U+30A4\U+30E4\U+30FC 1
 62
    18
370
    25
100
AcDbVertex
100
AcDb2dVertex
 10
47.21486137057476
 20
-120.5323499590162
 30
0.0
  0
VERTEX
  5
230
330
229
100
AcDbEntity
  8
\U+30EC\U+30A4\U+30E4\U+30FC 1
 62
    18
370
    25
100
AcDbVertex
100
AcDb2dVertex
 10
46.20338133610541
 20
-122.3777153556903
 30
0.0
  0
VERTEX
  5
231
330
229
100
AcDbEntity
  8
\U+30EC\U+30A4\U+30E4\U+30FC 1
 62
    18
370
    25
100
AcDbVertex
100
AcDb2dVertex
 10
45.36966822867495
 20
-124.2227362428159
 30
0.0
  0
VERTEX
  5
232
330
229
100
AcDbEntity
  8
\U+30EC\U+30A4\U+30E4\U+30FC 1
 62
    18
370
    25
100
AcDbVertex
100
AcDb2dVertex
 10
44.77452798359803
 20
-126.1277017913848
 30
0.0
  0
VERTEX
  5
233
330
229
100
AcDbEntity
  8
\U+30EC\U+30A4\U+30E4\U+30FC 1
 62
    18
370
    25
100
AcDbVertex
100
AcDb2dVertex
 10
44.35767142988281
 20
-128.0326673399536
 30
0.0
  0
VERTEX
  5
234
330
229
100
AcDbEntity
  8
\U+30EC\U+30A4\U+30E4\U+30FC 1
 62
    18
370
    25
100
AcDbVertex
100
AcDb2dVertex
 10
44.29841578753651
 20
-128.6279798398048
 30
0.0
  0
SEQEND
  5
235
330
229
100
AcDbEntity
  8
\U+30EC\U+30A4\U+30E4\U+30FC 1
370
    25
  0
POLYLINE
  5
236
330
1F
100
AcDbEntity
  8
\U+30EC\U+30A4\U+30E4\U+30FC 1
 62
    18
370
    25
100
AcDb2dPolyline
 66
     1
 10
0.0
 20
0.0
 30
0.0
  0
VERTEX
  5
237
330
236
100
AcDbEntity
  8
\U+30EC\U+30A4\U+30E4\U+30FC 1
 62
    18
370
    25
100
AcDbVertex
100
AcDb2dVertex
 10
178.6488714831156
 20
-127.6159830410127
 30
0.0
  0
VERTEX
  5
238
330
236
100
AcDbEntity
  8
\U+30EC\U+30A4\U+30E4\U+30FC 1
 62
    18
370
    25
100
AcDbVertex
100
AcDb2dVertex
 10
178.4697265178826
 20
-126.8422145950256
 30
0.0
  0
VERTEX
  5
239
330
236
100
AcDbEntity
  8
\U+30EC\U+30A4\U+30E4\U+30FC 1
 62
    18
370
    25
100
AcDbVertex
100
AcDb2dVertex
 10
177.993614321821
 20
-124.9968491983515
 30
0.0
  0
VERTEX
  5
23A
330
236
100
AcDbEntity
  8
\U+30EC\U+30A4\U+30E4\U+30FC 1
 62
    18
370
    25
100
AcDbVertex
100
AcDb2dVertex
 10
177.2791015181802
 20
-123.1514838016774
 30
0.0
  0
VERTEX
  5
23B
330
236
100
AcDbEntity
  8
\U+30EC\U+30A4\U+30E4\U+30FC 1
 62
    18
370
    25
100
AcDbVertex
100
AcDb2dVertex
 10
176.3272216356057
 20
-121.3061184050033
 30
0.0
  0
VERTEX
  5
23C
330
236
100
AcDbEntity
  8
\U+30EC\U+30A4\U+30E4\U+30FC 1
 62
    18
370
    25
100
AcDbVertex
100
AcDb2dVertex
 10
175.1958522782496
 20
-119.5203531602241
 30
0.0
  0
VERTEX
  5
23D
330
236
100
AcDbEntity
  8
\U+30EC\U+30A4\U+30E4\U+30FC 1
 62
    18
370
    25
100
AcDbVertex
100
AcDb2dVertex
 10
173.8867159938547
 20
-117.7345879154448
 30
0.0
  0
VERTEX
  5
23E
330
236
100
AcDbEntity
  8
\U+30EC\U+30A4\U+30E4\U+30FC 1
 62
    18
370
    25
100
AcDbVertex
100
AcDb2dVertex
 10
172.3987792537753
 20
-116.0082505677861
 30
0.0
  0
VERTEX
  5
23F
330
236
100
AcDbEntity
  8
\U+30EC\U+30A4\U+30E4\U+30FC 1
 62
    18
370
    25
100
AcDbVertex
100
AcDb2dVertex
 10
170.7313530389144
 20
-114.3416856267965
 30
0.0
  0
VERTEX
  5
240
330
236
100
AcDbEntity
  8
\U+30EC\U+30A4\U+30E4\U+30FC 1
 62
    18
370
    25
100
AcDbVertex
100
AcDb2dVertex
 10
168.8861598970146
 20
-112.6747761762584
 30
0.0
  0
VERTEX
  5
241
330
236
100
AcDbEntity
  8
\U+30EC\U+30A4\U+30E4\U+30FC 1
 62
    18
370
    25
100
AcDbVertex
100
AcDb2dVertex
 10
166.802910657084
 20
-111.1270670295099
 30
0.0
  0
VERTEX
  5
242
330
236
100
AcDbEntity
  8
\U+30EC\U+30A4\U+30E4\U+30FC 1
 62
    18
370
    25
100
AcDbVertex
100
AcDb2dVertex
 10
164.6004611133638
 20
-109.5795301375357
 30
0.0
  0
VERTEX
  5
243
330
236
100
AcDbEntity
  8
\U+30EC\U+30A4\U+30E4\U+30FC 1
 62
    18
370
    25
100
AcDbVertex
100
AcDb2dVertex
 10
162.2791557754024
 20
-108.1506767850283
 30
0.0
  0
VERTEX
  5
244
330
236
100
AcDbEntity
  8
\U+30EC\U+30A4\U+30E4\U+30FC 1
 62
    18
370
    25
100
AcDbVertex
100
AcDb2dVertex
 10
159.7191053203133
 20
-106.7817680939643
 30
0.0
  0
VERTEX
  5
245
330
236
100
AcDbEntity
  8
\U+30EC\U+30A4\U+30E4\U+30FC 1
 62
    18
370
    25
100
AcDbVertex
100
AcDb2dVertex
 10
157.1001437324263
 20
-105.4721150452466
 30
0.0
  0
VERTEX
  5
246
330
236
100
AcDbEntity
  8
\U+30EC\U+30A4\U+30E4\U+30FC 1
 62
    18
370
    25
100
AcDbVertex
100
AcDb2dVertex
 10
154.302381688855
 20
-104.2222344031979
 30
0.0
  0
VERTEX
  5
247
330
236
100
AcDbEntity
  8
\U+30EC\U+30A4\U+30E4\U+30FC 1
 62
    18
370
    25
100
AcDbVertex
100
AcDb2dVertex
 10
151.3854193414939
 20
-103.0910373006161
 30
0.0
  0
VERTEX
  5
248
330
236
100
AcDbEntity
  8
\U+30EC\U+30A4\U+30E4\U+30FC 1
 62
    18
370
    25
100
AcDbVertex
100
AcDb2dVertex
 10
148.3499457094403
 20
-102.0196126047034
 30
0.0
  0
VERTEX
  5
249
330
236
100
AcDbEntity
  8
\U+30EC\U+30A4\U+30E4\U+30FC 1
 62
    18
370
    25
100
AcDbVertex
100
AcDb2dVertex
 10
145.1949272640485
 20
-101.0672159578061
 30
0.0
  0
VERTEX
  5
24A
330
236
100
AcDbEntity
  8
\U+30EC\U+30A4\U+30E4\U+30FC 1
 62
    18
370
    25
100
AcDbVertex
100
AcDb2dVertex
 10
141.9210530244156
 20
-100.1742472080294
 30
0.0
  0
VERTEX
  5
24B
330
236
100
AcDbEntity
  8
\U+30EC\U+30A4\U+30E4\U+30FC 1
 62
    18
370
    25
100
AcDbVertex
100
AcDb2dVertex
 10
138.5872341233393
 20
-99.34105086492168
 30
0.0
  0
VERTEX
  5
24C
330
236
100
AcDbEntity
  8
\U+30EC\U+30A4\U+30E4\U+30FC 1
 62
    18
370
    25
100
AcDbVertex
100
AcDb2dVertex
 10
135.1948485990138
 20
-98.6861382131757
 30
0.0
  0
VERTEX
  5
24D
330
236
100
AcDbEntity
  8
\U+30EC\U+30A4\U+30E4\U+30FC 1
 62
    18
370
    25
100
AcDbVertex
100
AcDb2dVertex
 10
132.3970865554424
 20
-98.15042586521935
 30
0.0
  0
SEQEND
  5
24E
330
236
100
AcDbEntity
  8
\U+30EC\U+30A4\U+30E4\U+30FC 1
370
    25
  0
POLYLINE
  5
24F
330
1F
100
AcDbEntity
  8
\U+30EC\U+30A4\U+30E4\U+30FC 1
 62
    18
370
    25
100
AcDb2dPolyline
 66
     1
 10
0.0
 20
0.0
 30
0.0
  0
VERTEX
  5
250
330
24F
100
AcDbEntity
  8
\U+30EC\U+30A4\U+30E4\U+30FC 1
 62
    18
370
    25
100
AcDbVertex
100
AcDb2dVertex
 10
126.3843614050359
 20
-97.31722952211167
 30
0.0
  0
VERTEX
  5
251
330
24F
100
AcDbEntity
  8
\U+30EC\U+30A4\U+30E4\U+30FC 1
 62
    18
370
    25
100
AcDbVertex
100
AcDb2dVertex
 10
124.9563693263998
 20
-97.19802921832202
 30
0.0
  0
VERTEX
  5
252
330
24F
100
AcDbEntity
  8
\U+30EC\U+30A4\U+30E4\U+30FC 1
 62
    18
370
    25
100
AcDbVertex
100
AcDb2dVertex
 10
121.3248941753979
 20
-96.84077281650161
 30
0.0
  0
VERTEX
  5
253
330
24F
100
AcDbEntity
  8
\U+30EC\U+30A4\U+30E4\U+30FC 1
 62
    18
370
    25
100
AcDbVertex
100
AcDb2dVertex
 10
117.6345078915983
 20
-96.66231687036567
 30
0.0
  0
VERTEX
  5
254
330
24F
100
AcDbEntity
  8
\U+30EC\U+30A4\U+30E4\U+30FC 1
 62
    18
370
    25
100
AcDbVertex
100
AcDb2dVertex
 10
114.0030327405965
 20
-96.54311656657603
 30
0.0
  0
VERTEX
  5
255
330
24F
100
AcDbEntity
  8
\U+30EC\U+30A4\U+30E4\U+30FC 1
 62
    18
370
    25
100
AcDbVertex
100
AcDb2dVertex
 10
110.3123019472483
 20
-96.48386092422973
 30
0.0
  0
VERTEX
  5
256
330
24F
100
AcDbEntity
  8
\U+30EC\U+30A4\U+30E4\U+30FC 1
 62
    18
370
    25
100
AcDbVertex
100
AcDb2dVertex
 10
106.6222601729972
 20
-96.60271671847086
 30
0.0
  0
VERTEX
  5
257
330
24F
100
AcDbEntity
  8
\U+30EC\U+30A4\U+30E4\U+30FC 1
 62
    18
370
    25
100
AcDbVertex
100
AcDb2dVertex
 10
102.9315293796491
 20
-96.78151717415533
 30
0.0
  0
VERTEX
  5
258
330
24F
100
AcDbEntity
  8
\U+30EC\U+30A4\U+30E4\U+30FC 1
 62
    18
370
    25
100
AcDbVertex
100
AcDb2dVertex
 10
99.30005422864721
 20
-97.0791734240809
 30
0.0
  0
VERTEX
  5
259
330
24F
100
AcDbEntity
  8
\U+30EC\U+30A4\U+30E4\U+30FC 1
 62
    18
370
    25
100
AcDbVertex
100
AcDb2dVertex
 10
95.7285237390887
 20
-97.43608531635279
 30
0.0
  0
VERTEX
  5
25A
330
24F
100
AcDbEntity
  8
\U+30EC\U+30A4\U+30E4\U+30FC 1
 62
    18
370
    25
100
AcDbVertex
100
AcDb2dVertex
 10
92.1569932495302
 20
-97.9719699190834
 30
0.0
  0
VERTEX
  5
25B
330
24F
100
AcDbEntity
  8
\U+30EC\U+30A4\U+30E4\U+30FC 1
 62
    18
370
    25
100
AcDbVertex
100
AcDb2dVertex
 10
88.64540742141504
 20
-98.50768226703975
 30
0.0
  0
VERTEX
  5
25C
330
24F
100
AcDbEntity
  8
\U+30EC\U+30A4\U+30E4\U+30FC 1
 62
    18
370
    25
100
AcDbVertex
100
AcDb2dVertex
 10
85.19307723564619
 20
-99.22185056113204
 30
0.0
  0
VERTEX
  5
25D
330
24F
100
AcDbEntity
  8
\U+30EC\U+30A4\U+30E4\U+30FC 1
 62
    18
370
    25
100
AcDbVertex
100
AcDb2dVertex
 10
81.85908607979565
 20
-99.99579126189342
 30
0.0
  0
VERTEX
  5
25E
330
24F
100
AcDbEntity
  8
\U+30EC\U+30A4\U+30E4\U+30FC 1
 62
    18
370
    25
100
AcDbVertex
100
AcDb2dVertex
 10
78.58521184016273
 20
-100.8291598597754
 30
0.0
  0
VERTEX
  5
25F
330
24F
100
AcDbEntity
  8
\U+30EC\U+30A4\U+30E4\U+30FC 1
 62
    18
370
    25
100
AcDbVertex
100
AcDb2dVertex
 10
75.4303656495452
 20
-101.7815565066727
 30
0.0
  0
VERTEX
  5
260
330
24F
100
AcDbEntity
  8
\U+30EC\U+30A4\U+30E4\U+30FC 1
 62
    18
370
    25
100
AcDbVertex
100
AcDb2dVertex
 10
72.3349473560482
 20
-102.8529812025854
 30
0.0
  0
VERTEX
  5
261
330
24F
100
AcDbEntity
  8
\U+30EC\U+30A4\U+30E4\U+30FC 1
 62
    18
370
    25
100
AcDbVertex
100
AcDb2dVertex
 10
69.41850177300996
 20
-103.9840060503929
 30
0.0
  0
VERTEX
  5
262
330
24F
100
AcDbEntity
  8
\U+30EC\U+30A4\U+30E4\U+30FC 1
 62
    18
370
    25
100
AcDbVertex
100
AcDb2dVertex
 10
66.56079506799522
 20
-105.174458795321
 30
0.0
  0
VERTEX
  5
263
330
24F
100
AcDbEntity
  8
\U+30EC\U+30A4\U+30E4\U+30FC 1
 62
    18
370
    25
100
AcDbVertex
100
AcDb2dVertex
 10
63.88206107343921
 20
-106.4841118440387
 30
0.0
  0
VERTEX
  5
264
330
24F
100
AcDbEntity
  8
\U+30EC\U+30A4\U+30E4\U+30FC 1
 62
    18
370
    25
100
AcDbVertex
100
AcDb2dVertex
 10
61.38247204411619
 20
-107.853192789877
 30
0.0
  0
VERTEX
  5
265
330
24F
100
AcDbEntity
  8
\U+30EC\U+30A4\U+30E4\U+30FC 1
 62
    18
370
    25
100
AcDbVertex
100
AcDb2dVertex
 10
58.94162189281668
 20
-109.2820461423844
 30
0.0
  0
VERTEX
  5
266
330
24F
100
AcDbEntity
  8
\U+30EC\U+30A4\U+30E4\U+30FC 1
 62
    18
370
    25
100
AcDbVertex
100
AcDb2dVertex
 10
57.45334064318875
 20
-110.293698431628
 30
0.0
  0
SEQEND
  5
267
330
24F
100
AcDbEntity
  8
\U+30EC\U+30A4\U+30E4\U+30FC 1
370
    25
  0
POLYLINE
  5
268
330
1F
100
AcDbEntity
  8
\U+30EC\U+30A4\U+30E4\U+30FC 1
 62
    18
370
    25
100
AcDb2dPolyline
 66
     1
 10
0.0
 20
0.0
 30
0.0
  0
VERTEX
  5
269
330
268
100
AcDbEntity
  8
\U+30EC\U+30A4\U+30E4\U+30FC 1
 62
    18
370
    25
100
AcDbVertex
100
AcDb2dVertex
 10
47.86994627709502
 20
-165.6536268032046
 30
0.0
  0
VERTEX
  5
26A
330
268
100
AcDbEntity
  8
\U+30EC\U+30A4\U+30E4\U+30FC 1
 62
    18
370
    25
100
AcDbVertex
100
AcDb2dVertex
 10
48.46525877694619
 20
-167.0220187299459
 30
0.0
  0
VERTEX
  5
26B
330
268
100
AcDbEntity
  8
\U+30EC\U+30A4\U+30E4\U+30FC 1
 62
    18
370
    25
100
AcDbVertex
100
AcDb2dVertex
 10
49.47725557573833
 20
-168.8076117199509
 30
0.0
  0
VERTEX
  5
26C
330
268
100
AcDbEntity
  8
\U+30EC\U+30A4\U+30E4\U+30FC 1
 62
    18
370
    25
100
AcDbVertex
100
AcDb2dVertex
 10
50.66770832066641
 20
-170.5342935771581
 30
0.0
  0
VERTEX
  5
26D
330
268
100
AcDbEntity
  8
\U+30EC\U+30A4\U+30E4\U+30FC 1
 62
    18
370
    25
100
AcDbVertex
100
AcDb2dVertex
 10
52.03678926650469
 20
-172.2606309248168
 30
0.0
  0
VERTEX
  5
26E
330
268
100
AcDbEntity
  8
\U+30EC\U+30A4\U+30E4\U+30FC 1
 62
    18
370
    25
100
AcDbVertex
100
AcDb2dVertex
 10
53.64409856514801
 20
-173.8674234591373
 30
0.0
  0
VERTEX
  5
26F
330
268
100
AcDbEntity
  8
\U+30EC\U+30A4\U+30E4\U+30FC 1
 62
    18
370
    25
100
AcDbVertex
100
AcDb2dVertex
 10
55.36991914848391
 20
-175.5348496739983
 30
0.0
  0
VERTEX
  5
270
330
268
100
AcDbEntity
  8
\U+30EC\U+30A4\U+30E4\U+30FC 1
 62
    18
370
    25
100
AcDbVertex
100
AcDb2dVertex
 10
57.33431259417337
 20
-177.0820420564239
 30
0.0
  0
VERTEX
  5
271
330
268
100
AcDbEntity
  8
\U+30EC\U+30A4\U+30E4\U+30FC 1
 62
    18
370
    25
100
AcDbVertex
100
AcDb2dVertex
 10
59.41773408887821
 20
-178.5703233060519
 30
0.0
  0
VERTEX
  5
272
330
268
100
AcDbEntity
  8
\U+30EC\U+30A4\U+30E4\U+30FC 1
 62
    18
370
    25
100
AcDbVertex
100
AcDb2dVertex
 10
61.68012829404178
 20
-179.999004403785
 30
0.0
  0
VERTEX
  5
273
330
268
100
AcDbEntity
  8
\U+30EC\U+30A4\U+30E4\U+30FC 1
 62
    18
370
    25
100
AcDbVertex
100
AcDb2dVertex
 10
64.1204616810185
 20
-181.3673963305262
 30
0.0
  0
VERTEX
  5
274
330
268
100
AcDbEntity
  8
\U+30EC\U+30A4\U+30E4\U+30FC 1
 62
    18
370
    25
100
AcDbVertex
100
AcDb2dVertex
 10
66.67999537178487
 20
-182.6779106531152
 30
0.0
  0
VERTEX
  5
275
330
268
100
AcDbEntity
  8
\U+30EC\U+30A4\U+30E4\U+30FC 1
 62
    18
370
    25
100
AcDbVertex
100
AcDb2dVertex
 10
69.35855711156661
 20
-183.9277912951639
 30
0.0
  0
VERTEX
  5
276
330
268
100
AcDbEntity
  8
\U+30EC\U+30A4\U+30E4\U+30FC 1
 62
    18
370
    25
100
AcDbVertex
100
AcDb2dVertex
 10
72.21574705225856
 20
-185.0588161429714
 30
0.0
  0
VERTEX
  5
277
330
268
100
AcDbEntity
  8
\U+30EC\U+30A4\U+30E4\U+30FC 1
 62
    18
370
    25
100
AcDbVertex
100
AcDb2dVertex
 10
75.19213729674016
 20
-186.1295518197871
 30
0.0
  0
VERTEX
  5
278
330
268
100
AcDbEntity
  8
\U+30EC\U+30A4\U+30E4\U+30FC 1
 62
    18
370
    25
100
AcDbVertex
100
AcDb2dVertex
 10
78.22829994789085
 20
-187.0828097405557
 30
0.0
  0
VERTEX
  5
279
330
268
100
AcDbEntity
  8
\U+30EC\U+30A4\U+30E4\U+30FC 1
 62
    18
370
    25
100
AcDbVertex
100
AcDb2dVertex
 10
81.38297388373412
 20
-187.9757784903325
 30
0.0
  0
VERTEX
  5
27A
330
268
100
AcDbEntity
  8
\U+30EC\U+30A4\U+30E4\U+30FC 1
 62
    18
370
    25
100
AcDbVertex
100
AcDb2dVertex
 10
84.65702037814131
 20
-188.8084580691173
 30
0.0
  0
VERTEX
  5
27B
330
268
100
AcDbEntity
  8
\U+30EC\U+30A4\U+30E4\U+30FC 1
 62
    18
370
    25
100
AcDbVertex
100
AcDb2dVertex
 10
87.99015026012052
 20
-189.5233153823067
 30
0.0
  0
VERTEX
  5
27C
330
268
100
AcDbEntity
  8
\U+30EC\U+30A4\U+30E4\U+30FC 1
 62
    18
370
    25
100
AcDbVertex
100
AcDb2dVertex
 10
91.44316946498644
 20
-190.1186278821579
 30
0.0
  0
VERTEX
  5
27D
330
268
100
AcDbEntity
  8
\U+30EC\U+30A4\U+30E4\U+30FC 1
 62
    18
370
    25
100
AcDbVertex
100
AcDb2dVertex
 10
94.8954996507553
 20
-190.6546847396627
 30
0.0
  0
VERTEX
  5
27E
330
268
100
AcDbEntity
  8
\U+30EC\U+30A4\U+30E4\U+30FC 1
 62
    18
370
    25
100
AcDbVertex
100
AcDb2dVertex
 10
98.40708547887046
 20
-191.0708522742809
 30
0.0
  0
VERTEX
  5
27F
330
268
100
AcDbEntity
  8
\U+30EC\U+30A4\U+30E4\U+30FC 1
 62
    18
370
    25
100
AcDbVertex
100
AcDb2dVertex
 10
101.9789604779775
 20
-191.3685085242065
 30
0.0
  0
VERTEX
  5
280
330
268
100
AcDbEntity
  8
\U+30EC\U+30A4\U+30E4\U+30FC 1
 62
    18
370
    25
100
AcDbVertex
100
AcDb2dVertex
 10
105.6100911194308
 20
-191.6065646222372
 30
0.0
  0
VERTEX
  5
281
330
268
100
AcDbEntity
  8
\U+30EC\U+30A4\U+30E4\U+30FC 1
 62
    18
370
    25
100
AcDbVertex
100
AcDb2dVertex
 10
109.2412217608841
 20
-191.6661647741321
 30
0.0
  0
VERTEX
  5
282
330
268
100
AcDbEntity
  8
\U+30EC\U+30A4\U+30E4\U+30FC 1
 62
    18
370
    25
100
AcDbVertex
100
AcDb2dVertex
 10
112.8127522504427
 20
-191.7254204164784
 30
0.0
  0
VERTEX
  5
283
330
268
100
AcDbEntity
  8
\U+30EC\U+30A4\U+30E4\U+30FC 1
 62
    18
370
    25
100
AcDbVertex
100
AcDb2dVertex
 10
116.4442274014445
 20
-191.6065646222372
 30
0.0
  0
VERTEX
  5
284
330
268
100
AcDbEntity
  8
\U+30EC\U+30A4\U+30E4\U+30FC 1
 62
    18
370
    25
100
AcDbVertex
100
AcDb2dVertex
 10
120.0750135333493
 20
-191.4277641665528
 30
0.0
  0
VERTEX
  5
285
330
268
100
AcDbEntity
  8
\U+30EC\U+30A4\U+30E4\U+30FC 1
 62
    18
370
    25
100
AcDbVertex
100
AcDb2dVertex
 10
123.6465440229078
 20
-191.1301079166272
 30
0.0
  0
VERTEX
  5
286
330
268
100
AcDbEntity
  8
\U+30EC\U+30A4\U+30E4\U+30FC 1
 62
    18
370
    25
100
AcDbVertex
100
AcDb2dVertex
 10
127.15881887012
 20
-190.7731960243553
 30
0.0
  0
VERTEX
  5
287
330
268
100
AcDbEntity
  8
\U+30EC\U+30A4\U+30E4\U+30FC 1
 62
    18
370
    25
100
AcDbVertex
100
AcDb2dVertex
 10
130.6704046982352
 20
-190.2963948091968
 30
0.0
  0
VERTEX
  5
288
330
268
100
AcDbEntity
  8
\U+30EC\U+30A4\U+30E4\U+30FC 1
 62
    18
370
    25
100
AcDbVertex
100
AcDb2dVertex
 10
134.122734884004
 20
-189.7010823093456
 30
0.0
  0
VERTEX
  5
289
330
268
100
AcDbEntity
  8
\U+30EC\U+30A4\U+30E4\U+30FC 1
 62
    18
370
    25
100
AcDbVertex
100
AcDb2dVertex
 10
137.4565537850803
 20
-188.9872585248018
 30
0.0
  0
VERTEX
  5
28A
330
268
100
AcDbEntity
  8
\U+30EC\U+30A4\U+30E4\U+30FC 1
 62
    18
370
    25
100
AcDbVertex
100
AcDb2dVertex
 10
140.790028176608
 20
-188.2131455692662
 30
0.0
  0
VERTEX
  5
28B
330
268
100
AcDbEntity
  8
\U+30EC\U+30A4\U+30E4\U+30FC 1
 62
    18
370
    25
100
AcDbVertex
100
AcDb2dVertex
 10
143.9447021124513
 20
-187.3804659904813
 30
0.0
  0
VERTEX
  5
28C
330
268
100
AcDbEntity
  8
\U+30EC\U+30A4\U+30E4\U+30FC 1
 62
    18
370
    25
100
AcDbVertex
100
AcDb2dVertex
 10
147.0401204059483
 20
-186.4272080697127
 30
0.0
  0
VERTEX
  5
28D
330
268
100
AcDbEntity
  8
\U+30EC\U+30A4\U+30E4\U+30FC 1
 62
    18
370
    25
100
AcDbVertex
100
AcDb2dVertex
 10
150.0163383956557
 20
-185.356472392897
 30
0.0
  0
VERTEX
  5
28E
330
268
100
AcDbEntity
  8
\U+30EC\U+30A4\U+30E4\U+30FC 1
 62
    18
370
    25
100
AcDbVertex
100
AcDb2dVertex
 10
152.9333007430167
 20
-184.225103035541
 30
0.0
  0
VERTEX
  5
28F
330
268
100
AcDbEntity
  8
\U+30EC\U+30A4\U+30E4\U+30FC 1
 62
    18
370
    25
100
AcDbVertex
100
AcDb2dVertex
 10
155.6714626346933
 20
-183.0348225453871
 30
0.0
  0
VERTEX
  5
290
330
268
100
AcDbEntity
  8
\U+30EC\U+30A4\U+30E4\U+30FC 1
 62
    18
370
    25
100
AcDbVertex
100
AcDb2dVertex
 10
158.2308240706853
 20
-181.7849419033385
 30
0.0
  0
VERTEX
  5
291
330
268
100
AcDbEntity
  8
\U+30EC\U+30A4\U+30E4\U+30FC 1
 62
    18
370
    25
100
AcDbVertex
100
AcDb2dVertex
 10
160.7312743738797
 20
-180.4155164479517
 30
0.0
  0
VERTEX
  5
292
330
268
100
AcDbEntity
  8
\U+30EC\U+30A4\U+30E4\U+30FC 1
 62
    18
370
    25
100
AcDbVertex
100
AcDb2dVertex
 10
163.0529242213896
 20
-178.9864908406701
 30
0.0
  0
VERTEX
  5
293
330
268
100
AcDbEntity
  8
\U+30EC\U+30A4\U+30E4\U+30FC 1
 62
    18
370
    25
100
AcDbVertex
100
AcDb2dVertex
 10
165.195773613215
 20
-177.4982095910421
 30
0.0
  0
VERTEX
  5
294
330
268
100
AcDbEntity
  8
\U+30EC\U+30A4\U+30E4\U+30FC 1
 62
    18
370
    25
100
AcDbVertex
100
AcDb2dVertex
 10
167.1598225493559
 20
-175.9510172086164
 30
0.0
  0
VERTEX
  5
295
330
268
100
AcDbEntity
  8
\U+30EC\U+30A4\U+30E4\U+30FC 1
 62
    18
370
    25
100
AcDbVertex
100
AcDb2dVertex
 10
168.9457600489094
 20
-174.3442246742959
 30
0.0
  0
VERTEX
  5
296
330
268
100
AcDbEntity
  8
\U+30EC\U+30A4\U+30E4\U+30FC 1
 62
    18
370
    25
100
AcDbVertex
100
AcDb2dVertex
 10
170.6128417542218
 20
-172.676798459435
 30
0.0
  0
VERTEX
  5
297
330
268
100
AcDbEntity
  8
\U+30EC\U+30A4\U+30E4\U+30FC 1
 62
    18
370
    25
100
AcDbVertex
100
AcDb2dVertex
 10
172.0411783424064
 20
-171.0110947923167
 30
0.0
  0
VERTEX
  5
298
330
268
100
AcDbEntity
  8
\U+30EC\U+30A4\U+30E4\U+30FC 1
 62
    18
370
    25
100
AcDbVertex
100
AcDb2dVertex
 10
173.2914034940035
 20
-169.2844129351095
 30
0.0
  0
VERTEX
  5
299
330
268
100
AcDbEntity
  8
\U+30EC\U+30A4\U+30E4\U+30FC 1
 62
    18
370
    25
100
AcDbVertex
100
AcDb2dVertex
 10
174.3628281899163
 20
-167.4988199451045
 30
0.0
  0
VERTEX
  5
29A
330
268
100
AcDbEntity
  8
\U+30EC\U+30A4\U+30E4\U+30FC 1
 62
    18
370
    25
100
AcDbVertex
100
AcDb2dVertex
 10
175.255796939693
 20
-165.6536268032046
 30
0.0
  0
VERTEX
  5
29B
330
268
100
AcDbEntity
  8
\U+30EC\U+30A4\U+30E4\U+30FC 1
 62
    18
370
    25
100
AcDbVertex
100
AcDb2dVertex
 10
175.3150525820393
 20
-165.4744818379717
 30
0.0
  0
SEQEND
  5
29C
330
268
100
AcDbEntity
  8
\U+30EC\U+30A4\U+30E4\U+30FC 1
370
    25
  0
POLYLINE
  5
29D
330
1F
100
AcDbEntity
  8
\U+30EC\U+30A4\U+30E4\U+30FC 1
 62
    18
370
    25
100
AcDb2dPolyline
 66
     1
 10
0.0
 20
0.0
 30
0.0
  0
VERTEX
  5
29E
330
29D
100
AcDbEntity
  8
\U+30EC\U+30A4\U+30E4\U+30FC 1
 62
    18
370
    25
100
AcDbVertex
100
AcDb2dVertex
 10
176.6248778855313
 20
-160.1170138488596
 30
0.0
  0
VERTEX
  5
29F
330
29D
100
AcDbEntity
  8
\U+30EC\U+30A4\U+30E4\U+30FC 1
 62
    18
370
    25
100
AcDbVertex
100
AcDb2dVertex
 10
178.8865830715978
 20
-132.2587659717096
 30
0.0
  0
SEQEND
  5
2A0
330
29D
100
AcDbEntity
  8
\U+30EC\U+30A4\U+30E4\U+30FC 1
370
    25
  0
POLYLINE
  5
2A1
330
1F
100
AcDbEntity
  8
\U+30EC\U+30A4\U+30E4\U+30FC 1
 62
    18
370
    25
100
AcDb2dPolyline
 66
     1
 10
0.0
 20
0.0
 30
0.0
  0
VERTEX
  5
2A2
330
2A1
100
AcDbEntity
  8
\U+30EC\U+30A4\U+30E4\U+30FC 1
 62
    18
370
    25
100
AcDbVertex
100
AcDb2dVertex
 10
44.17921548374687
 20
-132.2587659717096
 30
0.0
  0
VERTEX
  5
2A3
330
2A1
100
AcDbEntity
  8
\U+30EC\U+30A4\U+30E4\U+30FC 1
 62
    18
370
    25
100
AcDbVertex
100
AcDb2dVertex
 10
46.44109292458764
 20
-160.1170138488596
 30
0.0
  0
SEQEND
  5
2A4
330
2A1
100
AcDbEntity
  8
\U+30EC\U+30A4\U+30E4\U+30FC 1
370
    25
  0
ENDSEC
  0
SECTION
  2
OBJECTS
  0
DICTIONARY
  5
C
330
0
100
AcDbDictionary
281
     1
  3
ACAD_GROUP
350
D
  3
ACAD_LAYOUT
350
1A
  3
ACAD_MLINESTYLE
350
17
  3
ACAD_PLOTSETTINGS
350
19
  3
ACAD_PLOTSTYLENAME
350
E
  3
ACAD_TABLESTYLE
350
2A5
  3
ACAD_VISUALSTYLE
350
2A
  0
DICTIONARY
  5
D
102
{ACAD_REACTORS
330
C
102
}
330
C
100
AcDbDictionary
281
     1
  0
DICTIONARY
  5
1A
102
{ACAD_REACTORS
330
C
102
}
330
C
100
AcDbDictionary
281
     1
  3
Layout1
350
1E
  3
Layout2
350
26
  3
Model
350
22
  0
DICTIONARY
  5
17
102
{ACAD_REACTORS
330
C
102
}
330
C
100
AcDbDictionary
281
     1
  3
Standard
350
18
  0
DICTIONARY
  5
19
102
{ACAD_REACTORS
330
C
102
}
330
C
100
AcDbDictionary
281
     1
  0
ACDBDICTIONARYWDFLT
  5
E
102
{ACAD_REACTORS
330
C
102
}
330
C
100
AcDbDictionary
281
     1
  3
Normal
350
F
100
AcDbDictionaryWithDefault
340
F
  0
DICTIONARY
  5
2A5
102
{ACAD_REACTORS
330
C
102
}
330
C
100
AcDbDictionary
281
     1
  0
DICTIONARY
  5
2A
102
{ACAD_REACTORS
330
C
102
}
330
C
100
AcDbDictionary
281
     1
  3
2dWireframe
350
2F
  3
3D Hidden
350
31
  3
3dWireframe
350
30
  3
Basic
350
32
  3
Brighten
350
36
  3
ColorChange
350
3A
  3
Conceptual
350
34
  3
Dim
350
35
  3
Facepattern
350
39
  3
Flat
350
2B
  3
FlatWithEdges
350
2C
  3
Gouraud
350
2D
  3
GouraudWithEdges
350
2E
  3
Linepattern
350
38
  3
Realistic
350
33
  3
Thicken
350
37
  0
LAYOUT
  5
1E
102
{ACAD_REACTORS
330
1A
102
}
330
1A
100
AcDbPlotSettings
  1

  2
none_device
  4

  6

 40
0.0
 41
0.0
 42
0.0
 43
0.0
 44
0.0
 45
0.0
 46
0.0
 47
0.0
 48
0.0
 49
0.0
140
0.0
141
0.0
142
1.0
143
1.0
 70
   688
 72
     0
 73
     0
 74
     5
  7

 75
    16
 76
     0
 77
     2
 78
   300
147
1.0
148
0.0
149
0.0
100
AcDbLayout
  1
Layout1
 70
     1
 71
     1
 10
0.0
 20
0.0
 11
12.0
 21
9.0
 12
0.0
 22
0.0
 32
0.0
 14
1.000000000000000E+20
 24
1.000000000000000E+20
 34
1.000000000000000E+20
 15
-1.000000000000000E+20
 25
-1.000000000000000E+20
 35
-1.000000000000000E+20
146
0.0
 13
0.0
 23
0.0
 33
0.0
 16
1.0
 26
0.0
 36
0.0
 17
0.0
 27
1.0
 37
0.0
 76
     0
330
1B
  0
LAYOUT
  5
26
102
{ACAD_REACTORS
330
1A
102
}
330
1A
100
AcDbPlotSettings
  1

  2
none_device
  4

  6

 40
0.0
 41
0.0
 42
0.0
 43
0.0
 44
0.0
 45
0.0
 46
0.0
 47
0.0
 48
0.0
 49
0.0
140
0.0
141
0.0
142
1.0
143
1.0
 70
   688
 72
     0
 73
     0
 74
     5
  7

 75
    16
 76
     0
 77
     2
 78
   300
147
1.0
148
0.0
149
0.0
100
AcDbLayout
  1
Layout2
 70
     1
 71
     2
 10
0.0
 20
0.0
 11
0.0
 21
0.0
 12
0.0
 22
0.0
 32
0.0
 14
0.0
 24
0.0
 34
0.0
 15
0.0
 25
0.0
 35
0.0
146
0.0
 13
0.0
 23
0.0
 33
0.0
 16
1.0
 26
0.0
 36
0.0
 17
0.0
 27
1.0
 37
0.0
 76
     0
330
23
  0
LAYOUT
  5
22
102
{ACAD_REACTORS
330
1A
102
}
330
1A
100
AcDbPlotSettings
  1

  2
none_device
  4

  6

 40
0.0
 41
0.0
 42
0.0
 43
0.0
 44
0.0
 45
0.0
 46
0.0
 47
0.0
 48
0.0
 49
0.0
140
0.0
141
0.0
142
1.0
143
1.0
 70
  1712
 72
     0
 73
     0
 74
     0
  7

 75
     0
 76
     0
 77
     2
 78
   300
147
1.0
148
0.0
149
0.0
100
AcDbLayout
  1
Model
 70
     1
 71
     0
 10
0.0
 20
0.0
 11
12.0
 21
9.0
 12
0.0
 22
0.0
 32
0.0
 14
1.000000000000000E+20
 24
1.000000000000000E+20
 34
1.000000000000000E+20
 15
-1.000000000000000E+20
 25
-1.000000000000000E+20
 35
-1.000000000000000E+20
146
0.0
 13
0.0
 23
0.0
 33
0.0
 16
1.0
 26
0.0
 36
0.0
 17
0.0
 27
1.0
 37
0.0
 76
     0
330
1F
331
29
  0
MLINESTYLE
  5
18
102
{ACAD_REACTORS
330
17
102
}
330
17
100
AcDbMlineStyle
  2
Standard
 70
     0
  3

 62
   256
 51
90.0
 52
90.0
 71
     2
 49
0.5
 62
   256
  6
BYLAYER
 49
-0.5
 62
   256
  6
BYLAYER
  0
ACDBPLACEHOLDER
  5
F
102
{ACAD_REACTORS
330
E
102
}
330
E
  0
VISUALSTYLE
  5
2F
102
{ACAD_REACTORS
330
2A
102
}
330
2A
100
AcDbVisualStyle
  2
2dWireframe
 70
     4
 71
     0
 72
     2
 73
     0
 90
        0
 40
-0.6
 41
-30.0
 62
     5
 63
     7
421
 16777215
 74
     1
 91
        4
 64
     7
 65
   257
 75
     1
175
     1
 42
1.0
 92
        0
 66
   257
 43
1.0
 76
     1
 77
     6
 78
     2
 67
     7
 79
     5
170
     0
171
     0
290
     0
174
     0
 93
        1
 44
0.0
173
     0
291
     0
 45
0.0
1001
ACAD
1000
AcDbSavedByObjectVersion
1070
     0
  0
VISUALSTYLE
  5
31
102
{ACAD_REACTORS
330
2A
102
}
330
2A
100
AcDbVisualStyle
  2
3D Hidden
 70
     6
 71
     1
 72
     2
 73
     2
 90
        0
 40
-0.6
 41
-30.0
 62
     5
 63
     7
421
 16777215
 74
     2
 91
        2
 64
     7
 65
   257
 75
     2
175
     1
 42
40.0
 92
        0
 66
   257
 43
1.0
 76
     1
 77
     6
 78
     2
 67
     7
 79
     3
170
     0
171
     0
290
     0
174
     0
 93
        1
 44
0.0
173
     0
291
     0
 45
0.0
1001
ACAD
1000
AcDbSavedByObjectVersion
1070
     0
  0
VISUALSTYLE
  5
30
102
{ACAD_REACTORS
330
2A
102
}
330
2A
100
AcDbVisualStyle
  2
3dWireframe
 70
     5
 71
     0
 72
     2
 73
     0
 90
        0
 40
-0.6
 41
-30.0
 62
     5
 63
     7
421
 16777215
 74
     1
 91
        4
 64
     7
 65
   257
 75
     1
175
     1
 42
1.0
 92
        0
 66
   257
 43
1.0
 76
     1
 77
     6
 78
     2
 67
     7
 79
     5
170
     0
171
     0
290
     0
174
     0
 93
        1
 44
0.0
173
     0
291
     0
 45
0.0
1001
ACAD
1000
AcDbSavedByObjectVersion
1070
     0
  0
VISUALSTYLE
  5
32
102
{ACAD_REACTORS
330
2A
102
}
330
2A
100
AcDbVisualStyle
  2
Basic
 70
     7
 71
     1
 72
     0
 73
     1
 90
        0
 40
-0.6
 41
-30.0
 62
     5
 63
     7
421
 16777215
 74
     0
 91
        4
 64
     7
 65
   257
 75
     1
175
     1
 42
1.0
 92
        8
 66
     7
 43
1.0
 76
     1
 77
     6
 78
     2
 67
     7
 79
     5
170
     0
171
     0
290
     0
174
     0
 93
        1
 44
0.0
173
     0
291
     1
 45
0.0
1001
ACAD
1000
AcDbSavedByObjectVersion
1070
     0
  0
VISUALSTYLE
  5
36
102
{ACAD_REACTORS
330
2A
102
}
330
2A
100
AcDbVisualStyle
  2
Brighten
 70
    12
 71
     2
 72
     2
 73
     0
 90
        0
 40
-0.6
 41
-30.0
 62
     5
 63
     7
421
 16777215
 74
     1
 91
        4
 64
     7
 65
   257
 75
     1
175
     1
 42
1.0
 92
        8
 66
     7
 43
1.0
 76
     1
 77
     6
 78
     2
 67
     7
 79
     5
170
     0
171
     0
290
     0
174
     0
 93
        1
 44
50.0
173
     0
291
     1
 45
0.0
1001
ACAD
1000
AcDbSavedByObjectVersion
1070
     0
  0
VISUALSTYLE
  5
3A
102
{ACAD_REACTORS
330
2A
102
}
330
2A
100
AcDbVisualStyle
  2
ColorChange
 70
    16
 71
     2
 72
     2
 73
     3
 90
        0
 40
-0.6
 41
-30.0
 62
     5
 63
     8
421
  8421504
 74
     1
 91
        4
 64
     7
 65
   257
 75
     1
175
     1
 42
1.0
 92
        8
 66
     8
424
  8421504
 43
1.0
 76
     1
 77
     6
 78
     2
 67
     7
 79
     5
170
     0
171
     0
290
     0
174
     0
 93
        1
 44
0.0
173
     0
291
     1
 45
0.0
1001
ACAD
1000
AcDbSavedByObjectVersion
1070
     0
  0
VISUALSTYLE
  5
34
102
{ACAD_REACTORS
330
2A
102
}
330
2A
100
AcDbVisualStyle
  2
Conceptual
 70
     9
 71
     3
 72
     2
 73
     0
 90
        0
 40
-0.6
 41
-30.0
 62
     5
 63
     7
421
 16777215
 74
     2
 91
        2
 64
     7
 65
   257
 75
     1
175
     1
 42
40.0
 92
        8
 66
     7
 43
1.0
 76
     1
 77
     6
 78
     2
 67
     7
 79
     3
170
     0
171
     0
290
     0
174
     0
 93
        1
 44
0.0
173
     0
291
     0
 45
0.0
1001
ACAD
1000
AcDbSavedByObjectVersion
1070
     0
  0
VISUALSTYLE
  5
35
102
{ACAD_REACTORS
330
2A
102
}
330
2A
100
AcDbVisualStyle
  2
Dim
 70
    11
 71
     2
 72
     2
 73
     0
 90
        0
 40
-0.6
 41
-30.0
 62
     5
 63
     7
421
 16777215
 74
     1
 91
        4
 64
     7
 65
   257
 75
     1
175
     1
 42
1.0
 92
        8
 66
     7
 43
1.0
 76
     1
 77
     6
 78
     2
 67
     7
 79
     5
170
     0
171
     0
290
     0
174
     0
 93
        1
 44
-50.0
173
     0
291
     1
 45
0.0
1001
ACAD
1000
AcDbSavedByObjectVersion
1070
     0
  0
VISUALSTYLE
  5
39
102
{ACAD_REACTORS
330
2A
102
}
330
2A
100
AcDbVisualStyle
  2
Facepattern
 70
    15
 71
     2
 72
     2
 73
     0
 90
        0
 40
-0.6
 41
-30.0
 62
     5
 63
     7
421
 16777215
 74
     1
 91
        4
 64
     7
 65
   257
 75
     1
175
     1
 42
1.0
 92
        8
 66
     7
 43
1.0
 76
     1
 77
     6
 78
     2
 67
     7
 79
     5
170
     0
171
     0
290
     0
174
     0
 93
        1
 44
0.0
173
     0
291
     1
 45
0.0
1001
ACAD
1000
AcDbSavedByObjectVersion
1070
     0
  0
VISUALSTYLE
  5
2B
102
{ACAD_REACTORS
330
2A
102
}
330
2A
100
AcDbVisualStyle
  2
Flat
 70
     0
 71
     2
 72
     1
 73
     1
 90
        2
 40
-0.6
 41
30.0
 62
     5
 63
     7
421
 16777215
 74
     0
 91
        4
 64
     7
 65
   257
 75
     1
175
     1
 42
1.0
 92
        8
 66
     7
 43
1.0
 76
     1
 77
     6
 78
     2
 67
     7
 79
     5
170
     0
171
     0
290
     0
174
     0
 93
       13
 44
0.0
173
     0
291
     1
 45
0.0
1001
ACAD
1000
AcDbSavedByObjectVersion
1070
     0
  0
VISUALSTYLE
  5
2C
102
{ACAD_REACTORS
330
2A
102
}
330
2A
100
AcDbVisualStyle
  2
FlatWithEdges
 70
     1
 71
     2
 72
     1
 73
     1
 90
        2
 40
-0.6
 41
30.0
 62
     5
 63
     7
421
 16777215
 74
     1
 91
        4
 64
     7
 65
   257
 75
     1
175
     1
 42
1.0
 92
        0
 66
   257
 43
1.0
 76
     1
 77
     6
 78
     2
 67
     7
 79
     5
170
     0
171
     0
290
     0
174
     0
 93
       13
 44
0.0
173
     0
291
     1
 45
0.0
1001
ACAD
1000
AcDbSavedByObjectVersion
1070
     0
  0
VISUALSTYLE
  5
2D
102
{ACAD_REACTORS
330
2A
102
}
330
2A
100
AcDbVisualStyle
  2
Gouraud
 70
     2
 71
     2
 72
     2
 73
     1
 90
        2
 40
-0.6
 41
30.0
 62
     5
 63
     7
421
 16777215
 74
     0
 91
        4
 64
     7
 65
   257
 75
     1
175
     1
 42
1.0
 92
        0
 66
     7
 43
1.0
 76
     1
 77
     6
 78
     2
 67
     7
 79
     5
170
     0
171
     0
290
     0
174
     0
 93
       13
 44
0.0
173
     0
291
     1
 45
0.0
1001
ACAD
1000
AcDbSavedByObjectVersion
1070
     0
  0
VISUALSTYLE
  5
2E
102
{ACAD_REACTORS
330
2A
102
}
330
2A
100
AcDbVisualStyle
  2
GouraudWithEdges
 70
     3
 71
     2
 72
     2
 73
     1
 90
        2
 40
-0.6
 41
30.0
 62
     5
 63
     7
421
 16777215
 74
     1
 91
        4
 64
     7
 65
   257
 75
     1
175
     1
 42
1.0
 92
        0
 66
   257
 43
1.0
 76
     1
 77
     6
 78
     2
 67
     7
 79
     5
170
     0
171
     0
290
     0
174
     0
 93
       13
 44
0.0
173
     0
291
     1
 45
0.0
1001
ACAD
1000
AcDbSavedByObjectVersion
1070
     0
  0
VISUALSTYLE
  5
38
102
{ACAD_REACTORS
330
2A
102
}
330
2A
100
AcDbVisualStyle
  2
Linepattern
 70
    14
 71
     2
 72
     2
 73
     0
 90
        0
 40
-0.6
 41
-30.0
 62
     5
 63
     7
421
 16777215
 74
     1
 91
        4
 64
     7
 65
   257
 75
     7
175
     7
 42
1.0
 92
        8
 66
     7
 43
1.0
 76
     1
 77
     6
 78
     2
 67
     7
 79
     5
170
     0
171
     0
290
     0
174
     0
 93
        1
 44
0.0
173
     0
291
     1
 45
0.0
1001
ACAD
1000
AcDbSavedByObjectVersion
1070
     0
  0
VISUALSTYLE
  5
33
102
{ACAD_REACTORS
330
2A
102
}
330
2A
100
AcDbVisualStyle
  2
Realistic
 70
     8
 71
     2
 72
     2
 73
     0
 90
        0
 40
-0.6
 41
-30.0
 62
     5
 63
     7
421
 16777215
 74
     1
 91
        0
 64
     7
 65
   257
 75
     1
175
     1
 42
1.0
 92
        8
 66
     8
424
  7895160
 43
1.0
 76
     1
 77
     6
 78
     2
 67
     7
 79
     5
170
     0
171
     0
290
     0
174
     0
 93
       13
 44
0.0
173
     0
291
     0
 45
0.0
1001
ACAD
1000
AcDbSavedByObjectVersion
1070
     0
  0
VISUALSTYLE
  5
37
102
{ACAD_REACTORS
330
2A
102
}
330
2A
100
AcDbVisualStyle
  2
Thicken
 70
    13
 71
     2
 72
     2
 73
     0
 90
        0
 40
-0.6
 41
-30.0
 62
     5
 63
     7
421
 16777215
 74
     1
 91
        4
 64
     7
 65
   257
 75
     1
175
     1
 42
1.0
 92
       12
 66
     7
 43
1.0
 76
     1
 77
     6
 78
     2
 67
     7
 79
     5
170
     0
171
     0
290
     0
174
     0
 93
        1
 44
0.0
173
     0
291
     1
 45
0.0
1001
ACAD
1000
AcDbSavedByObjectVersion
1070
     0
  0
ENDSEC
  0
EOF
