  0
SECTION
  2
HEADER
  9
$ACADVER
  1
AC1009
  9
$INSBASE
 10
0.0
 20
0.0
 30
0.0
  9
$EXTMIN
 10
15.765446000000001
 20
113.107308
 30
0.0
  9
$EXTMAX
 10
193.659842
 20
182.990725
 30
0.0
  9
$LIMMIN
 10
15.649001999999999
 20
112.990864
  9
$LIMMAX
 10
193.776286
 20
183.10717
  9
$ORTHOMODE
 70
     0
  9
$REGENMODE
 70
     1
  9
$FILLMODE
 70
     1
  9
$QTEXTMODE
 70
     0
  9
$MIRRTEXT
 70
     1
  9
$DRAGMODE
 70
     2
  9
$LTSCALE
 40
1.0
  9
$OSMODE
 70
    37
  9
$ATTMODE
 70
     1
  9
$TEXTSIZE
 40
0.0
  9
$TRACEWID
 40
0.05
  9
$TEXTSTYLE
  7
STANDARD
  9
$CLAYER
  8
0
  9
$CELTYPE
  6
CONTINUOUS
  9
$CECOLOR
 62
   256
  9
$DIMSCALE
 40
1.0
  9
$DIMASZ
 40
0.18
  9
$DIMEXO
 40
0.0625
  9
$DIMDLI
 40
0.38
  9
$DIMRND
 40
0.0
  9
$DIMDLE
 40
0.0
  9
$DIMEXE
 40
0.18
  9
$DIMTP
 40
0.0
  9
$DIMTM
 40
0.0
  9
$DIMTXT
 40
0.18
  9
$DIMCEN
 40
0.09
  9
$DIMTSZ
 40
0.0
  9
$DIMTOL
 70
     0
  9
$DIMLIM
 70
     0
  9
$DIMTIH
 70
     1
  9
$DIMTOH
 70
     1
  9
$DIMSE1
 70
     0
  9
$DIMSE2
 70
     0
  9
$DIMTAD
 70
     0
  9
$DIMZIN
 70
     0
  9
$DIMBLK
  1

  9
$DIMASO
 70
     1
  9
$DIMSHO
 70
     1
  9
$DIMPOST
  1

  9
$DIMAPOST
  1

  9
$DIMALT
 70
     0
  9
$DIMALTD
 70
     2
  9
$DIMALTF
 40
25.399999999999999
  9
$DIMLFAC
 40
1.0
  9
$DIMTOFL
 70
     0
  9
$DIMTVP
 40
0.0
  9
$DIMTIX
 70
     0
  9
$DIMSOXD
 70
     0
  9
$DIMSAH
 70
     0
  9
$DIMBLK1
  1

  9
$DIMBLK2
  1

  9
$DIMSTYLE
  2
STANDARD
  9
$DIMCLRD
 70
     0
  9
$DIMCLRE
 70
     0
  9
$DIMCLRT
 70
     0
  9
$DIMTFAC
 40
1.0
  9
$DIMGAP
 40
0.09
  9
$LUNITS
 70
     2
  9
$LUPREC
 70
     4
  9
$SKETCHINC
 40
0.1
  9
$FILLETRAD
 40
0.0
  9
$AUNITS
 70
     0
  9
$AUPREC
 70
     0
  9
$MENU
  1
acad
  9
$ELEVATION
 40
0.0
  9
$PELEVATION
 40
0.0
  9
$THICKNESS
 40
0.0
  9
$LIMCHECK
 70
     0
  9
$BLIPMODE
 70
     0
  9
$CHAMFERA
 40
0.0
  9
$CHAMFERB
 40
0.0
  9
$SKPOLY
 70
     0
  9
$TDCREATE
 40
2456864.351701146
  9
$TDUPDATE
 40
2456864.351835405
  9
$TDINDWG
 40
0.000136412
  9
$TDUSRTIMER
 40
0.000136412
  9
$USRTIMER
 70
     1
  9
$ANGBASE
 50
0.0
  9
$ANGDIR
 70
     0
  9
$PDMODE
 70
     0
  9
$PDSIZE
 40
0.0
  9
$PLINEWID
 40
0.0
  9
$COORDS
 70
     1
  9
$SPLFRAME
 70
     0
  9
$SPLINETYPE
 70
     6
  9
$SPLINESEGS
 70
     8
  9
$ATTDIA
 70
     0
  9
$ATTREQ
 70
     1
  9
$HANDLING
 70
     1
  9
$HANDSEED
  5
722
  9
$SURFTAB1
 70
     6
  9
$SURFTAB2
 70
     6
  9
$SURFTYPE
 70
     6
  9
$SURFU
 70
     6
  9
$SURFV
 70
     6
  9
$UCSNAME
  2

  9
$UCSORG
 10
0.0
 20
0.0
 30
0.0
  9
$UCSXDIR
 10
1.0
 20
0.0
 30
0.0
  9
$UCSYDIR
 10
0.0
 20
1.0
 30
0.0
  9
$PUCSNAME
  2

  9
$PUCSORG
 10
0.0
 20
0.0
 30
0.0
  9
$PUCSXDIR
 10
1.0
 20
0.0
 30
0.0
  9
$PUCSYDIR
 10
0.0
 20
1.0
 30
0.0
  9
$USERI1
 70
     0
  9
$USERI2
 70
     0
  9
$USERI3
 70
     0
  9
$USERI4
 70
     0
  9
$USERI5
 70
     0
  9
$USERR1
 40
0.0
  9
$USERR2
 40
0.0
  9
$USERR3
 40
0.0
  9
$USERR4
 40
0.0
  9
$USERR5
 40
0.0
  9
$WORLDVIEW
 70
     1
  9
$SHADEDGE
 70
     3
  9
$SHADEDIF
 70
    70
  9
$TILEMODE
 70
     1
  9
$MAXACTVP
 70
    16
  9
$PLIMCHECK
 70
     0
  9
$PEXTMIN
 10
1.0000000000000000E+020
 20
1.0000000000000000E+020
 30
1.0000000000000000E+020
  9
$PEXTMAX
 10
-1.0000000000000000E+020
 20
-1.0000000000000000E+020
 30
-1.0000000000000000E+020
  9
$PLIMMIN
 10
0.0
 20
0.0
  9
$PLIMMAX
 10
12.0
 20
9.0
  9
$UNITMODE
 70
     0
  9
$VISRETAIN
 70
     0
  9
$PLINEGEN
 70
     1
  9
$PSLTSCALE
 70
     0
  0
ENDSEC
  0
SECTION
  2
TABLES
  0
TABLE
  2
VPORT
 70
     1
  0
VPORT
  2
*ACTIVE
 70
     0
 10
0.0
 20
0.0
 11
1.0
 21
1.0
 12
188.1922675103902
 22
129.28146851579839
 13
0.0
 23
0.0
 14
1.0
 24
1.0
 15
0.0
 25
0.0
 16
0.0
 26
0.0
 36
1.0
 17
0.0
 27
0.0
 37
0.0
 40
246.06720360911939
 41
1.911550468262226
 42
50.0
 43
0.0
 44
0.0
 50
0.0
 51
0.0
 71
     0
 72
   100
 73
     1
 74
     1
 75
     0
 76
     0
 77
     0
 78
     0
  0
ENDTAB
  0
TABLE
  2
LTYPE
 70
     2
  0
LTYPE
  2
CONTINUOUS
 70
     0
  3
Solid line
 72
    65
 73
     0
 40
0.0
  0
LTYPE
  2
PHANTOM2
 70
     0
  3
___ _ _ ___ _ _ ___ _ _ ___ _ _
 72
    65
 73
     6
 40
1.25
 49
0.625
 49
-0.125
 49
0.125
 49
-0.125
 49
0.125
 49
-0.125
  0
ENDTAB
  0
TABLE
  2
LAYER
 70
     2
  0
LAYER
  2
0
 70
     0
 62
     7
  6
CONTINUOUS
  0
LAYER
  2
レイヤー_1
 70
     0
 62
   160
  6
CONTINUOUS
  0
ENDTAB
  0
TABLE
  2
STYLE
 70
     5
  0
STYLE
  2
STANDARD
 70
     0
 40
0.0
 41
1.0
 50
0.0
 71
     0
 42
0.0
  3
txt
  4

  0
STYLE
  2
STD
 70
     0
 40
0.0
 41
1.0
 50
0.0
 71
     0
 42
0.0
  3
txt
  4

  0
STYLE
  2
TATESTD
 70
     4
 40
0.0
 41
1.0
 50
0.0
 71
     0
 42
0.0
  3
txt
  4

  0
STYLE
  2
KANJISTD
 70
     0
 40
0.0
 41
1.0
 50
0.0
 71
     0
 42
0.0
  3
txt
  4
extfont
  0
STYLE
  2
KANJITATE
 70
     4
 40
0.0
 41
1.0
 50
0.0
 71
     0
 42
0.0
  3
txt
  4
extfont
  0
ENDTAB
  0
TABLE
  2
VIEW
 70
     0
  0
ENDTAB
  0
TABLE
  2
UCS
 70
     0
  0
ENDTAB
  0
TABLE
  2
APPID
 70
     3
  0
APPID
  2
ACAD
 70
     0
  0
APPID
  2
ACAD_NAV_VCDISPLAY
 70
     0
  0
APPID
  2
ACAD_MLEADERVER
 70
     0
  0
ENDTAB
  0
TABLE
  2
DIMSTYLE
 70
     1
  0
DIMSTYLE
  2
STANDARD
 70
     0
  3

  4

  5

  6

  7

 40
1.0
 41
0.18
 42
0.0625
 43
0.38
 44
0.18
 45
0.0
 46
0.0
 47
0.0
 48
0.0
140
0.18
141
0.09
142
0.0
143
25.399999999999999
144
1.0
145
0.0
146
1.0
147
0.09
 71
     0
 72
     0
 73
     1
 74
     1
 75
     0
 76
     0
 77
     0
 78
     0
170
     0
171
     2
172
     0
173
     0
174
     0
175
     0
176
     0
177
     0
178
     0
  0
ENDTAB
  0
ENDSEC
  0
SECTION
  2
BLOCKS
  0
BLOCK
  8
0
  2
$MODEL_SPACE
 70
     0
 10
0.0
 20
0.0
 30
0.0
  3
$MODEL_SPACE
  1

  0
ENDBLK
  5
E
  8
0
  0
BLOCK
 67
     1
  8
0
  2
$PAPER_SPACE
 70
     0
 10
0.0
 20
0.0
 30
0.0
  3
$PAPER_SPACE
  1

  0
ENDBLK
  5
10
 67
     1
  8
0
  0
ENDSEC
  0
SECTION
  2
ENTITIES
  0
LINE
  5
67D
  8
レイヤー_1
 62
     7
 10
31.469913999999999
 20
170.02924300000001
 30
0.0
 11
32.429372999999998
 21
170.98939100000001
 31
0.0
  0
LINE
  5
67C
  8
レイヤー_1
 62
     7
 10
32.429372999999998
 20
171.126678
 30
0.0
 11
32.429372999999998
 21
172.08665400000001
 31
0.0
  0
LINE
  5
67B
  8
レイヤー_1
 62
     7
 10
19.125102999999999
 20
157.959351
 30
0.0
 11
31.332626999999999
 21
169.891783
 31
0.0
  0
LINE
  5
67A
  8
レイヤー_1
 62
     7
 10
31.057535999999999
 20
182.85395500000001
 30
0.0
 11
19.331119999999999
 21
171.40108000000001
 31
0.0
  0
LINE
  5
679
  8
レイヤー_1
 62
     7
 10
18.027151
 20
156.930645
 30
0.0
 11
18.988161000000002
 21
157.82206400000001
 31
0.0
  0
LINE
  5
678
  8
レイヤー_1
 62
     7
 10
19.056546000000001
 20
170.71516099999999
 30
0.0
 11
19.056546000000001
 21
161.86832799999999
 31
0.0
  0
LINE
  5
677
  8
レイヤー_1
 62
     7
 10
15.765446000000001
 20
157.47910400000001
 30
0.0
 11
17.958938
 21
156.862088
 31
0.0
  0
LINE
  5
676
  8
レイヤー_1
 62
     7
 10
179.19112999999999
 20
113.107308
 30
0.0
 11
193.59162900000001
 21
127.166398
 31
0.0
  0
LINE
  5
675
  8
レイヤー_1
 62
     7
 10
190.300873
 20
129.223465
 30
0.0
 11
190.300873
 21
139.44299599999999
 31
0.0
  0
LINE
  5
674
  8
レイヤー_1
 62
     7
 10
188.17387199999999
 20
139.92220900000001
 30
0.0
 11
188.106348
 21
139.92220900000001
 31
0.0
  0
LINE
  5
673
  8
レイヤー_1
 62
     7
 10
176.9972929999999
 20
113.657145
 30
0.0
 11
179.12084999999999
 21
113.107308
 31
0.0
  0
LINE
  5
672
  8
レイヤー_1
 62
     7
 10
33.321136000000003
 20
171.88098099999999
 30
0.0
 11
32.497585999999998
 21
172.154867
 31
0.0
  0
LINE
  5
671
  8
レイヤー_1
 62
     7
 10
189.957742
 20
129.36161299999989
 30
0.0
 11
33.937635999999998
 21
171.743694
 31
0.0
  0
LINE
  5
670
  8
レイヤー_1
 62
     7
 10
31.332626999999999
 20
169.82356999999999
 30
0.0
 11
190.23266100000001
 21
126.685807
 31
0.0
  0
LINE
  5
66F
  8
レイヤー_1
 62
     7
 10
190.23266100000001
 20
139.853996
 30
0.0
 11
31.332626999999999
 21
182.990725
 31
0.0
  0
LINE
  5
66E
  8
レイヤー_1
 62
     7
 10
18.027151
 20
156.862088
 30
0.0
 11
176.92770200000001
 21
113.657145
 31
0.0
  0
LINE
  5
66D
  8
レイヤー_1
 62
     7
 10
191.398481
 20
128.95061299999989
 30
0.0
 11
190.506201
 21
129.223465
 31
0.0
  0
LINE
  5
66C
  8
レイヤー_1
 62
     7
 10
31.332626999999999
 20
169.54968500000001
 30
0.0
 11
19.810849000000001
 21
158.23426900000001
 31
0.0
  0
LINE
  5
66B
  8
レイヤー_1
 62
     7
 10
31.332626999999999
 20
169.82356999999999
 30
0.0
 11
31.332626999999999
 21
169.54968500000001
 31
0.0
  0
LINE
  5
66A
  8
レイヤー_1
 62
     7
 10
19.673562
 20
158.027908
 30
0.0
 11
19.741603000000001
 21
157.959351
 31
0.0
  0
LINE
  5
669
  8
レイヤー_1
 62
     7
 10
19.673562
 20
158.50815399999999
 30
0.0
 11
19.673562
 21
158.027908
 31
0.0
  0
LINE
  5
668
  8
レイヤー_1
 62
     7
 10
189.68351200000001
 20
126.343709
 30
0.0
 11
189.75172499999999
 21
126.54938199999999
 31
0.0
  0
LINE
  5
667
  8
レイヤー_1
 62
     7
 10
189.75172499999999
 20
126.54938199999999
 30
0.0
 11
189.75172499999999
 21
126.823611
 31
0.0
  0
LINE
  5
666
  8
レイヤー_1
 62
     7
 10
177.95709600000001
 20
114.959391
 30
0.0
 11
189.68351200000001
 21
126.343709
 31
0.0
  0
LINE
  5
665
  8
レイヤー_1
 62
     7
 10
32.635905999999999
 20
168.383521
 30
0.0
 11
187.283659
 21
126.343709
 31
0.0
  0
LINE
  5
664
  8
レイヤー_1
 62
     7
 10
21.662759999999999
 20
157.68546499999999
 30
0.0
 11
47.242766999999994
 21
150.689166
 31
0.0
  0
LINE
  5
663
  8
レイヤー_1
 62
     7
 10
47.447404999999989
 20
150.621297
 30
0.0
 11
47.585380999999991
 21
150.621297
 31
0.0
  0
LINE
  5
662
  8
レイヤー_1
 62
     7
 10
47.859783
 20
150.55205100000001
 30
0.0
 11
150.45489900000001
 21
122.639543
 31
0.0
  0
LINE
  5
661
  8
レイヤー_1
 62
     7
 10
150.592703
 20
122.571674
 30
0.0
 11
150.729129
 21
122.571674
 31
0.0
  0
LINE
  5
660
  8
レイヤー_1
 62
     7
 10
151.00404700000001
 20
122.503117
 30
0.0
 11
176.31102999999999
 21
115.644621
 31
0.0
  0
LINE
  5
65F
  8
レイヤー_1
 62
     7
 10
149.63358799999989
 20
122.77734599999999
 30
0.0
 11
149.63358799999989
 21
122.639543
 31
0.0
  0
LINE
  5
65E
  8
レイヤー_1
 62
     7
 10
46.487774000000002
 20
150.758757
 30
0.0
 11
46.487774000000002
 21
150.689166
 31
0.0
  0
LINE
  5
65D
  8
レイヤー_1
 62
     7
 10
47.242766999999994
 20
151.03195299999999
 30
0.0
 11
47.242766999999994
 21
150.621297
 31
0.0
  0
LINE
  5
65C
  8
レイヤー_1
 62
     7
 10
47.927824000000001
 20
150.621297
 30
0.0
 11
47.927824000000001
 21
151.03195299999999
 31
0.0
  0
LINE
  5
65B
  8
レイヤー_1
 62
     7
 10
150.45489900000001
 20
122.982674
 30
0.0
 11
150.45489900000001
 21
122.639543
 31
0.0
  0
LINE
  5
65A
  8
レイヤー_1
 62
     7
 10
151.07294899999999
 20
122.639543
 30
0.0
 11
151.07294899999999
 21
122.982674
 31
0.0
  0
LINE
  5
659
  8
レイヤー_1
 62
     7
 10
129.470133
 20
141.56862000000001
 30
0.0
 11
147.85040699999999
 21
136.56255200000001
 31
0.0
  0
LINE
  5
658
  8
レイヤー_1
 62
     7
 10
119.800439
 20
132.10390899999999
 30
0.0
 11
129.470133
 21
141.56862000000001
 31
0.0
  0
LINE
  5
657
  8
レイヤー_1
 62
     7
 10
148.46776800000001
 20
136.83609199999989
 30
0.0
 11
148.46776800000001
 21
136.905339
 31
0.0
  0
LINE
  5
656
  8
レイヤー_1
 62
     7
 10
147.98683299999999
 20
136.630764
 30
0.0
 11
147.98683299999999
 21
136.630764
 31
0.0
  0
LINE
  5
655
  8
レイヤー_1
 62
     7
 10
138.24892600000001
 20
127.098185
 30
0.0
 11
147.98683299999999
 21
136.630764
 31
0.0
  0
POLYLINE
  5
650
  8
レイヤー_1
 62
     7
 66
     1
 10
0.0
 20
0.0
 30
0.0
  0
VERTEX
  5
651
  8
レイヤー_1
 62
     7
 10
119.595112
 20
132.172122
 30
0.0
  0
VERTEX
  5
652
  8
レイヤー_1
 62
     7
 10
119.595112
 20
132.10390899999999
 30
0.0
  0
VERTEX
  5
653
  8
レイヤー_1
 62
     7
 10
119.66401399999999
 20
132.10390899999999
 30
0.0
  0
SEQEND
  5
654
  8
レイヤー_1
 62
     7
  0
LINE
  5
64F
  8
レイヤー_1
 62
     7
 10
119.66401399999999
 20
132.10390899999999
 30
0.0
 11
138.180024
 21
127.098185
 31
0.0
  0
LINE
  5
64E
  8
レイヤー_1
 62
     7
 10
119.183767
 20
132.44703999999999
 30
0.0
 11
119.183767
 21
132.24205699999999
 31
0.0
  0
POLYLINE
  5
648
  8
レイヤー_1
 62
     7
 66
     1
 10
0.0
 20
0.0
 30
0.0
  0
VERTEX
  5
649
  8
レイヤー_1
 62
     7
 10
138.180024
 20
127.098185
 30
0.0
  0
VERTEX
  5
64A
  8
レイヤー_1
 62
     7
 10
138.180024
 20
127.02893899999999
 30
0.0
  0
VERTEX
  5
64B
  8
レイヤー_1
 62
     7
 10
138.180024
 20
127.098185
 30
0.0
  0
VERTEX
  5
64C
  8
レイヤー_1
 62
     7
 10
138.24892600000001
 20
127.098185
 30
0.0
  0
SEQEND
  5
64D
  8
レイヤー_1
 62
     7
  0
LINE
  5
647
  8
レイヤー_1
 62
     7
 10
138.11181099999999
 20
127.02893899999999
 30
0.0
 11
138.180024
 21
126.961759
 31
0.0
  0
LINE
  5
646
  8
レイヤー_1
 62
     7
 10
138.24892600000001
 20
126.961759
 30
0.0
 11
138.38535200000001
 21
127.02893899999999
 31
0.0
  0
LINE
  5
645
  8
レイヤー_1
 62
     7
 10
32.429372999999998
 20
167.97183200000001
 30
0.0
 11
50.809474000000002
 21
162.96507399999999
 31
0.0
  0
LINE
  5
644
  8
レイヤー_1
 62
     7
 10
22.690432000000001
 20
158.50815399999999
 30
0.0
 11
32.429372999999998
 21
167.97183200000001
 31
0.0
  0
LINE
  5
643
  8
レイヤー_1
 62
     7
 10
51.357244000000001
 20
163.171436
 30
0.0
 11
51.357244000000001
 21
163.24033700000001
 31
0.0
  0
LINE
  5
642
  8
レイヤー_1
 62
     7
 10
50.946071999999987
 20
162.96507399999999
 30
0.0
 11
50.946071999999987
 21
163.03414799999999
 31
0.0
  0
LINE
  5
641
  8
レイヤー_1
 62
     7
 10
41.139263
 20
153.43284
 30
0.0
 11
50.946071999999987
 21
162.96507399999999
 31
0.0
  0
POLYLINE
  5
63C
  8
レイヤー_1
 62
     7
 66
     1
 10
0.0
 20
0.0
 30
0.0
  0
VERTEX
  5
63D
  8
レイヤー_1
 62
     7
 10
22.554351
 20
158.50815399999999
 30
0.0
  0
VERTEX
  5
63E
  8
レイヤー_1
 62
     7
 10
22.622564000000001
 20
158.50815399999999
 30
0.0
  0
VERTEX
  5
63F
  8
レイヤー_1
 62
     7
 10
22.622564000000001
 20
158.43907999999999
 30
0.0
  0
SEQEND
  5
640
  8
レイヤー_1
 62
     7
  0
LINE
  5
63B
  8
レイヤー_1
 62
     7
 10
22.622564000000001
 20
158.43907999999999
 30
0.0
 11
41.070017
 21
153.43284
 31
0.0
  0
LINE
  5
63A
  8
レイヤー_1
 62
     7
 10
41.070017
 20
153.43284
 30
0.0
 11
41.139263
 21
153.43284
 31
0.0
  0
LINE
  5
639
  8
レイヤー_1
 62
     7
 10
41.070017
 20
153.36342099999999
 30
0.0
 11
41.139263
 21
153.36342099999999
 31
0.0
  0
LINE
  5
638
  8
レイヤー_1
 62
     7
 10
41.208853999999988
 20
153.36342099999999
 30
0.0
 11
41.27672299999999
 21
153.36342099999999
 31
0.0
  0
LINE
  5
637
  8
レイヤー_1
 62
     7
 10
71.245435999999984
 20
157.41089099999999
 30
0.0
 11
89.625709000000015
 21
152.40378999999999
 31
0.0
  0
LINE
  5
636
  8
レイヤー_1
 62
     7
 10
61.508045999999993
 20
147.946697
 30
0.0
 11
71.245435999999984
 21
157.41089099999999
 31
0.0
  0
LINE
  5
635
  8
レイヤー_1
 62
     7
 10
90.174513000000005
 20
152.67836399999999
 30
0.0
 11
90.174513000000005
 21
152.74640400000001
 31
0.0
  0
LINE
  5
634
  8
レイヤー_1
 62
     7
 10
89.762135000000001
 20
152.40378999999999
 30
0.0
 11
89.762135000000001
 21
152.472692
 31
0.0
  0
LINE
  5
633
  8
レイヤー_1
 62
     7
 10
80.023195000000001
 20
142.93942300000001
 30
0.0
 11
89.762135000000001
 21
152.40378999999999
 31
0.0
  0
POLYLINE
  5
62E
  8
レイヤー_1
 62
     7
 66
     1
 10
0.0
 20
0.0
 30
0.0
  0
VERTEX
  5
62F
  8
レイヤー_1
 62
     7
 10
61.370069999999998
 20
148.01490999999999
 30
0.0
  0
VERTEX
  5
630
  8
レイヤー_1
 62
     7
 10
61.370069999999998
 20
147.946697
 30
0.0
  0
VERTEX
  5
631
  8
レイヤー_1
 62
     7
 10
61.438282999999998
 20
147.946697
 30
0.0
  0
SEQEND
  5
632
  8
レイヤー_1
 62
     7
  0
LINE
  5
62D
  8
レイヤー_1
 62
     7
 10
61.438282999999998
 20
147.946697
 30
0.0
 11
79.887286000000003
 21
142.87086600000001
 31
0.0
  0
LINE
  5
62C
  8
レイヤー_1
 62
     7
 10
60.958208999999989
 20
148.289312
 30
0.0
 11
60.958208999999989
 21
148.083123
 31
0.0
  0
POLYLINE
  5
626
  8
レイヤー_1
 62
     7
 66
     1
 10
0.0
 20
0.0
 30
0.0
  0
VERTEX
  5
627
  8
レイヤー_1
 62
     7
 10
79.887286000000003
 20
142.87086600000001
 30
0.0
  0
VERTEX
  5
628
  8
レイヤー_1
 62
     7
 10
79.955499000000003
 20
142.87086600000001
 30
0.0
  0
VERTEX
  5
629
  8
レイヤー_1
 62
     7
 10
79.955499000000003
 20
142.93942300000001
 30
0.0
  0
VERTEX
  5
62A
  8
レイヤー_1
 62
     7
 10
80.023195000000001
 20
142.93942300000001
 30
0.0
  0
SEQEND
  5
62B
  8
レイヤー_1
 62
     7
  0
LINE
  5
625
  8
レイヤー_1
 62
     7
 10
79.887286000000003
 20
142.87086600000001
 30
0.0
 11
79.955499000000003
 21
142.802998
 31
0.0
  0
LINE
  5
624
  8
レイヤー_1
 62
     7
 10
80.023195000000001
 20
142.802998
 30
0.0
 11
80.161170999999996
 21
142.87086600000001
 31
0.0
  0
LINE
  5
623
  8
レイヤー_1
 62
     7
 10
42.099410999999989
 20
153.226134
 30
0.0
 11
51.837318000000003
 21
162.69153399999999
 31
0.0
  0
LINE
  5
622
  8
レイヤー_1
 62
     7
 10
51.837318000000003
 20
162.69153399999999
 30
0.0
 11
70.216557999999992
 21
157.68546499999999
 31
0.0
  0
LINE
  5
621
  8
レイヤー_1
 62
     7
 10
70.765361999999996
 20
157.89044899999999
 30
0.0
 11
70.765361999999996
 21
157.959351
 31
0.0
  0
LINE
  5
620
  8
レイヤー_1
 62
     7
 10
70.355568000000005
 20
157.68546499999999
 30
0.0
 11
70.355568000000005
 21
157.75298900000001
 31
0.0
  0
LINE
  5
61F
  8
レイヤー_1
 62
     7
 10
60.548414000000001
 20
148.22040999999999
 30
0.0
 11
70.355568000000005
 21
157.68546499999999
 31
0.0
  0
POLYLINE
  5
61A
  8
レイヤー_1
 62
     7
 66
     1
 10
0.0
 20
0.0
 30
0.0
  0
VERTEX
  5
61B
  8
レイヤー_1
 62
     7
 10
41.962296999999992
 20
153.29537999999999
 30
0.0
  0
VERTEX
  5
61C
  8
レイヤー_1
 62
     7
 10
41.962296999999992
 20
153.226134
 30
0.0
  0
VERTEX
  5
61D
  8
レイヤー_1
 62
     7
 10
42.030164999999997
 20
153.226134
 30
0.0
  0
SEQEND
  5
61E
  8
レイヤー_1
 62
     7
  0
LINE
  5
619
  8
レイヤー_1
 62
     7
 10
42.030164999999997
 20
153.226134
 30
0.0
 11
60.478650999999999
 21
148.152197
 31
0.0
  0
LINE
  5
618
  8
レイヤー_1
 62
     7
 10
41.549919000000003
 20
153.569954
 30
0.0
 11
41.549919000000003
 21
153.36342099999999
 31
0.0
  0
POLYLINE
  5
613
  8
レイヤー_1
 62
     7
 66
     1
 10
0.0
 20
0.0
 30
0.0
  0
VERTEX
  5
614
  8
レイヤー_1
 62
     7
 10
60.478650999999999
 20
148.152197
 30
0.0
  0
VERTEX
  5
615
  8
レイヤー_1
 62
     7
 10
60.548414000000001
 20
148.152197
 30
0.0
  0
VERTEX
  5
616
  8
レイヤー_1
 62
     7
 10
60.548414000000001
 20
148.22040999999999
 30
0.0
  0
SEQEND
  5
617
  8
レイヤー_1
 62
     7
  0
LINE
  5
612
  8
レイヤー_1
 62
     7
 10
60.478650999999999
 20
148.152197
 30
0.0
 11
60.548414000000001
 21
148.083123
 31
0.0
  0
LINE
  5
611
  8
レイヤー_1
 62
     7
 10
60.616627000000001
 20
148.083123
 30
0.0
 11
60.683806999999987
 21
148.152197
 31
0.0
  0
LINE
  5
610
  8
レイヤー_1
 62
     7
 10
148.877734
 20
136.28832199999999
 30
0.0
 11
167.25800799999999
 21
131.35046700000001
 31
0.0
  0
LINE
  5
60F
  8
レイヤー_1
 62
     7
 10
139.209418
 20
126.891824
 30
0.0
 11
148.877734
 21
136.28832199999999
 31
0.0
  0
LINE
  5
60E
  8
レイヤー_1
 62
     7
 10
167.87536900000001
 20
131.555105
 30
0.0
 11
167.87536900000001
 21
131.62504100000001
 31
0.0
  0
LINE
  5
60D
  8
レイヤー_1
 62
     7
 10
167.39443399999999
 20
131.35046700000001
 30
0.0
 11
167.39443399999999
 21
131.418679
 31
0.0
  0
LINE
  5
60C
  8
レイヤー_1
 62
     7
 10
157.6558379999999
 20
121.817887
 30
0.0
 11
167.39443399999999
 21
131.35046700000001
 31
0.0
  0
POLYLINE
  5
607
  8
レイヤー_1
 62
     7
 66
     1
 10
0.0
 20
0.0
 30
0.0
  0
VERTEX
  5
608
  8
レイヤー_1
 62
     7
 10
139.002713
 20
126.891824
 30
0.0
  0
VERTEX
  5
609
  8
レイヤー_1
 62
     7
 10
139.002713
 20
126.823611
 30
0.0
  0
VERTEX
  5
60A
  8
レイヤー_1
 62
     7
 10
139.07092599999999
 20
126.823611
 30
0.0
  0
SEQEND
  5
60B
  8
レイヤー_1
 62
     7
  0
LINE
  5
606
  8
レイヤー_1
 62
     7
 10
139.07092599999999
 20
126.823611
 30
0.0
 11
157.587625
 21
121.817887
 31
0.0
  0
LINE
  5
605
  8
レイヤー_1
 62
     7
 10
138.58999
 20
127.166398
 30
0.0
 11
138.58999
 21
126.961759
 31
0.0
  0
LINE
  5
604
  8
レイヤー_1
 62
     7
 10
157.587625
 20
121.817887
 30
0.0
 11
157.6558379999999
 21
121.817887
 31
0.0
  0
LINE
  5
603
  8
レイヤー_1
 62
     7
 10
157.51941199999999
 20
121.747952
 30
0.0
 11
157.6558379999999
 21
121.747952
 31
0.0
  0
LINE
  5
602
  8
レイヤー_1
 62
     7
 10
157.7261179999999
 20
121.747952
 30
0.0
 11
157.794331
 21
121.747952
 31
0.0
  0
LINE
  5
601
  8
レイヤー_1
 62
     7
 10
158.617019
 20
121.611526
 30
0.0
 11
168.28671299999999
 21
131.07520299999999
 31
0.0
  0
LINE
  5
600
  8
レイヤー_1
 62
     7
 10
168.28671299999999
 20
131.07520299999999
 30
0.0
 11
186.66698700000001
 21
126.068791
 31
0.0
  0
LINE
  5
5FF
  8
レイヤー_1
 62
     7
 10
187.283659
 20
126.343709
 30
0.0
 11
187.213379
 21
126.343709
 31
0.0
  0
POLYLINE
  5
5FA
  8
レイヤー_1
 62
     7
 66
     1
 10
0.0
 20
0.0
 30
0.0
  0
VERTEX
  5
5FB
  8
レイヤー_1
 62
     7
 10
186.80341300000001
 20
126.068791
 30
0.0
  0
VERTEX
  5
5FC
  8
レイヤー_1
 62
     7
 10
186.87162499999999
 20
126.068791
 30
0.0
  0
VERTEX
  5
5FD
  8
レイヤー_1
 62
     7
 10
186.87162499999999
 20
126.13838199999999
 30
0.0
  0
SEQEND
  5
5FE
  8
レイヤー_1
 62
     7
  0
LINE
  5
5F9
  8
レイヤー_1
 62
     7
 10
177.065506
 20
116.536556
 30
0.0
 11
186.80341300000001
 21
126.068791
 31
0.0
  0
LINE
  5
5F8
  8
レイヤー_1
 62
     7
 10
158.41100299999999
 20
121.611526
 30
0.0
 11
158.480594
 21
121.543313
 31
0.0
  0
LINE
  5
5F7
  8
レイヤー_1
 62
     7
 10
158.480594
 20
121.543313
 30
0.0
 11
176.9972929999999
 21
116.536556
 31
0.0
  0
LINE
  5
5F6
  8
レイヤー_1
 62
     7
 10
157.99965800000001
 20
121.8861
 30
0.0
 11
157.99965800000001
 21
121.6797389999999
 31
0.0
  0
LINE
  5
5F5
  8
レイヤー_1
 62
     7
 10
176.9972929999999
 20
116.536556
 30
0.0
 11
177.065506
 21
116.536556
 31
0.0
  0
LINE
  5
5F4
  8
レイヤー_1
 62
     7
 10
176.92770200000001
 20
116.46937699999999
 30
0.0
 11
177.065506
 21
116.46937699999999
 31
0.0
  0
LINE
  5
5F3
  8
レイヤー_1
 62
     7
 10
177.13234
 20
116.46937699999999
 30
0.0
 11
177.065506
 21
116.46937699999999
 31
0.0
  0
LINE
  5
5F2
  8
レイヤー_1
 62
     7
 10
110.06184399999999
 20
146.84926200000001
 30
0.0
 11
128.442117
 21
141.842849
 31
0.0
  0
LINE
  5
5F1
  8
レイヤー_1
 62
     7
 10
100.392494
 20
137.384896
 30
0.0
 11
110.06184399999999
 21
146.84926200000001
 31
0.0
  0
LINE
  5
5F0
  8
レイヤー_1
 62
     7
 10
129.05878899999999
 20
142.117424
 30
0.0
 11
129.05878899999999
 21
142.185981
 31
0.0
  0
LINE
  5
5EF
  8
レイヤー_1
 62
     7
 10
128.578543
 20
141.91106199999999
 30
0.0
 11
128.578543
 21
141.91106199999999
 31
0.0
  0
LINE
  5
5EE
  8
レイヤー_1
 62
     7
 10
118.839258
 20
132.37848299999999
 30
0.0
 11
128.578543
 21
141.91106199999999
 31
0.0
  0
POLYLINE
  5
5E9
  8
レイヤー_1
 62
     7
 66
     1
 10
0.0
 20
0.0
 30
0.0
  0
VERTEX
  5
5EA
  8
レイヤー_1
 62
     7
 10
100.18682200000001
 20
137.45414199999999
 30
0.0
  0
VERTEX
  5
5EB
  8
レイヤー_1
 62
     7
 10
100.18682200000001
 20
137.384896
 30
0.0
  0
VERTEX
  5
5EC
  8
レイヤー_1
 62
     7
 10
100.254518
 20
137.384896
 30
0.0
  0
SEQEND
  5
5ED
  8
レイヤー_1
 62
     7
  0
LINE
  5
5E8
  8
レイヤー_1
 62
     7
 10
100.254518
 20
137.384896
 30
0.0
 11
118.771045
 21
132.31027
 31
0.0
  0
LINE
  5
5E7
  8
レイヤー_1
 62
     7
 10
99.774443999999988
 20
137.72837200000001
 30
0.0
 11
99.774443999999988
 21
137.522355
 31
0.0
  0
POLYLINE
  5
5E2
  8
レイヤー_1
 62
     7
 66
     1
 10
0.0
 20
0.0
 30
0.0
  0
VERTEX
  5
5E3
  8
レイヤー_1
 62
     7
 10
118.771045
 20
132.31027
 30
0.0
  0
VERTEX
  5
5E4
  8
レイヤー_1
 62
     7
 10
118.771045
 20
132.37848299999999
 30
0.0
  0
VERTEX
  5
5E5
  8
レイヤー_1
 62
     7
 10
118.839258
 20
132.37848299999999
 30
0.0
  0
SEQEND
  5
5E6
  8
レイヤー_1
 62
     7
  0
LINE
  5
5E1
  8
レイヤー_1
 62
     7
 10
118.702832
 20
132.31027
 30
0.0
 11
118.771045
 21
132.24205699999999
 31
0.0
  0
LINE
  5
5E0
  8
レイヤー_1
 62
     7
 10
118.839258
 20
132.24205699999999
 30
0.0
 11
118.977751
 21
132.31027
 31
0.0
  0
LINE
  5
5DF
  8
レイヤー_1
 62
     7
 10
90.654069999999976
 20
152.12938799999989
 30
0.0
 11
109.032449
 21
147.12314699999999
 31
0.0
  0
LINE
  5
5DE
  8
レイヤー_1
 62
     7
 10
80.983343000000005
 20
142.66622699999999
 30
0.0
 11
90.654069999999976
 21
152.12938799999989
 31
0.0
  0
LINE
  5
5DD
  8
レイヤー_1
 62
     7
 10
109.58090799999999
 20
147.39772099999999
 30
0.0
 11
109.58090799999999
 21
147.465934
 31
0.0
  0
LINE
  5
5DC
  8
レイヤー_1
 62
     7
 10
109.170942
 20
147.12314699999999
 30
0.0
 11
109.170942
 21
147.193083
 31
0.0
  0
LINE
  5
5DB
  8
レイヤー_1
 62
     7
 10
99.432862999999998
 20
137.66015899999999
 30
0.0
 11
109.170942
 21
147.12314699999999
 31
0.0
  0
POLYLINE
  5
5D6
  8
レイヤー_1
 62
     7
 66
     1
 10
0.0
 20
0.0
 30
0.0
  0
VERTEX
  5
5D7
  8
レイヤー_1
 62
     7
 10
80.778186999999988
 20
142.73443999999989
 30
0.0
  0
VERTEX
  5
5D8
  8
レイヤー_1
 62
     7
 10
80.778186999999988
 20
142.66622699999999
 30
0.0
  0
VERTEX
  5
5D9
  8
レイヤー_1
 62
     7
 10
80.847950999999995
 20
142.66622699999999
 30
0.0
  0
SEQEND
  5
5DA
  8
レイヤー_1
 62
     7
  0
LINE
  5
5D5
  8
レイヤー_1
 62
     7
 10
80.847950999999995
 20
142.66622699999999
 30
0.0
 11
99.294887000000003
 21
137.59056799999999
 31
0.0
  0
LINE
  5
5D4
  8
レイヤー_1
 62
     7
 10
80.367359999999991
 20
143.00867
 30
0.0
 11
80.367359999999991
 21
142.802998
 31
0.0
  0
POLYLINE
  5
5CE
  8
レイヤー_1
 62
     7
 66
     1
 10
0.0
 20
0.0
 30
0.0
  0
VERTEX
  5
5CF
  8
レイヤー_1
 62
     7
 10
99.294887000000003
 20
137.59056799999999
 30
0.0
  0
VERTEX
  5
5D0
  8
レイヤー_1
 62
     7
 10
99.363100000000003
 20
137.59056799999999
 30
0.0
  0
VERTEX
  5
5D1
  8
レイヤー_1
 62
     7
 10
99.363100000000003
 20
137.66015899999999
 30
0.0
  0
VERTEX
  5
5D2
  8
レイヤー_1
 62
     7
 10
99.432862999999998
 20
137.66015899999999
 30
0.0
  0
SEQEND
  5
5D3
  8
レイヤー_1
 62
     7
  0
LINE
  5
5CD
  8
レイヤー_1
 62
     7
 10
99.294887000000003
 20
137.59056799999999
 30
0.0
 11
99.363100000000003
 21
137.522355
 31
0.0
  0
LINE
  5
5CC
  8
レイヤー_1
 62
     7
 10
99.432862999999998
 20
137.522355
 30
0.0
 11
99.569288
 21
137.59056799999999
 31
0.0
  0
LINE
  5
5CB
  8
レイヤー_1
 62
     7
 10
32.429372999999998
 20
170.98939100000001
 30
0.0
 11
32.361159999999998
 21
170.98939100000001
 31
0.0
  0
LINE
  5
5CA
  8
レイヤー_1
 62
     7
 10
32.429372999999998
 20
170.98939100000001
 30
0.0
 11
32.361159999999998
 21
170.98939100000001
 31
0.0
  0
LINE
  5
5C9
  8
レイヤー_1
 62
     7
 10
32.429372999999998
 20
171.126678
 30
0.0
 11
32.361159999999998
 21
171.126678
 31
0.0
  0
LINE
  5
5C8
  8
レイヤー_1
 62
     7
 10
32.429372999999998
 20
171.126678
 30
0.0
 11
32.361159999999998
 21
171.126678
 31
0.0
  0
LINE
  5
5C7
  8
レイヤー_1
 62
     7
 10
32.429372999999998
 20
171.126678
 30
0.0
 11
32.361159999999998
 21
171.126678
 31
0.0
  0
LINE
  5
5C6
  8
レイヤー_1
 62
     7
 10
31.263380000000002
 20
169.891783
 30
0.0
 11
31.194651
 21
169.891783
 31
0.0
  0
LINE
  5
5C5
  8
レイヤー_1
 62
     7
 10
31.332626999999999
 20
169.891783
 30
0.0
 11
31.332626999999999
 21
169.960857
 31
0.0
  0
LINE
  5
5C4
  8
レイヤー_1
 62
     7
 10
19.056546000000001
 20
170.78406299999989
 30
0.0
 11
19.056546000000001
 21
161.86832799999999
 31
0.0
  0
LINE
  5
5C3
  8
レイヤー_1
 62
     7
 10
31.263380000000002
 20
182.64845500000001
 30
0.0
 11
31.263380000000002
 21
172.42978500000001
 31
0.0
  0
LINE
  5
5C2
  8
レイヤー_1
 62
     7
 10
31.401356
 20
182.64845500000001
 30
0.0
 11
31.401356
 21
172.360883
 31
0.0
  0
LINE
  5
5C1
  8
レイヤー_1
 62
     7
 10
18.988161000000002
 20
157.89044899999999
 30
0.0
 11
18.920120000000001
 21
157.89044899999999
 31
0.0
  0
LINE
  5
5C0
  8
レイヤー_1
 62
     7
 10
18.988161000000002
 20
157.89044899999999
 30
0.0
 11
18.920120000000001
 21
157.89044899999999
 31
0.0
  0
LINE
  5
5BF
  8
レイヤー_1
 62
     7
 10
15.834865000000001
 20
157.47910400000001
 30
0.0
 11
15.765446000000001
 21
157.47910400000001
 31
0.0
  0
LINE
  5
5BE
  8
レイヤー_1
 62
     7
 10
191.398481
 20
127.78341500000001
 30
0.0
 11
191.33026799999999
 21
127.78341500000001
 31
0.0
  0
LINE
  5
5BD
  8
レイヤー_1
 62
     7
 10
191.398481
 20
127.78341500000001
 30
0.0
 11
191.33026799999999
 21
127.78341500000001
 31
0.0
  0
LINE
  5
5BC
  8
レイヤー_1
 62
     7
 10
191.398481
 20
127.92121899999999
 30
0.0
 11
191.33026799999999
 21
127.92121899999999
 31
0.0
  0
LINE
  5
5BB
  8
レイヤー_1
 62
     7
 10
191.398481
 20
127.92121899999999
 30
0.0
 11
191.33026799999999
 21
127.92121899999999
 31
0.0
  0
LINE
  5
5BA
  8
レイヤー_1
 62
     7
 10
193.659842
 20
127.166398
 30
0.0
 11
193.59162900000001
 21
127.235989
 31
0.0
  0
LINE
  5
5B9
  8
レイヤー_1
 62
     7
 10
190.300873
 20
139.510175
 30
0.0
 11
190.300873
 21
129.223465
 31
0.0
  0
LINE
  5
5B8
  8
レイヤー_1
 62
     7
 10
190.300873
 20
126.755398
 30
0.0
 11
190.300873
 21
126.685807
 31
0.0
  0
LINE
  5
5B7
  8
レイヤー_1
 62
     7
 10
190.16444799999999
 20
126.685807
 30
0.0
 11
178.09352200000001
 21
114.890145
 31
0.0
  0
LINE
  5
5B6
  8
レイヤー_1
 62
     7
 10
177.95709600000001
 20
114.684817
 30
0.0
 11
177.88681600000001
 21
114.684817
 31
0.0
  0
LINE
  5
5B5
  8
レイヤー_1
 62
     7
 10
177.95709600000001
 20
114.684817
 30
0.0
 11
177.88681600000001
 21
114.684817
 31
0.0
  0
LINE
  5
5B4
  8
レイヤー_1
 62
     7
 10
176.9972929999999
 20
113.657145
 30
0.0
 11
176.92770200000001
 21
113.657145
 31
0.0
  0
LINE
  5
5B3
  8
レイヤー_1
 62
     7
 10
176.9972929999999
 20
113.725358
 30
0.0
 11
176.92770200000001
 21
113.725358
 31
0.0
  0
LINE
  5
5B2
  8
レイヤー_1
 62
     7
 10
33.869767000000003
 20
171.743694
 30
0.0
 11
33.801209999999998
 21
171.743694
 31
0.0
  0
LINE
  5
5B1
  8
レイヤー_1
 62
     7
 10
19.125102999999999
 20
157.959351
 30
0.0
 11
19.125102999999999
 21
158.027908
 31
0.0
  0
LINE
  5
5B0
  8
レイヤー_1
 62
     7
 10
19.193832999999991
 20
158.027908
 30
0.0
 11
20.36017
 21
157.75298900000001
 31
0.0
  0
LINE
  5
5AF
  8
レイヤー_1
 62
     7
 10
21.456399000000001
 20
157.47910400000001
 30
0.0
 11
176.17253700000001
 21
115.371769
 31
0.0
  0
LINE
  5
5AE
  8
レイヤー_1
 62
     7
 10
177.27014399999999
 20
115.097195
 30
0.0
 11
178.09352200000001
 21
114.890145
 31
0.0
  0
LINE
  5
5AD
  8
レイヤー_1
 62
     7
 10
18.027151
 20
156.862088
 30
0.0
 11
18.027151
 21
156.930645
 31
0.0
  0
LINE
  5
5AC
  8
レイヤー_1
 62
     7
 10
17.958938
 20
156.862088
 30
0.0
 11
18.027151
 21
156.930645
 31
0.0
  0
LINE
  5
5AB
  8
レイヤー_1
 62
     7
 10
190.506201
 20
129.15525199999999
 30
0.0
 11
190.43798799999999
 21
129.15525199999999
 31
0.0
  0
LINE
  5
5AA
  8
レイヤー_1
 62
     7
 10
57.119166
 20
162.62263200000001
 30
0.0
 11
55.335296
 21
163.102361
 31
0.0
  0
LINE
  5
5A9
  8
レイヤー_1
 62
     7
 10
165.611941
 20
133.13330300000001
 30
0.0
 11
163.82875999999999
 21
133.61389399999999
 31
0.0
  0
LINE
  5
5A8
  8
レイヤー_1
 62
     7
 10
160.26239699999999
 20
134.57369800000001
 30
0.0
 11
158.547428
 21
135.05428900000001
 31
0.0
  0
LINE
  5
5A7
  8
レイヤー_1
 62
     7
 10
62.46819399999999
 20
161.18223699999999
 30
0.0
 11
60.683806999999987
 21
161.66248400000001
 31
0.0
  0
LINE
  5
5A6
  8
レイヤー_1
 62
     7
 10
19.741603000000001
 20
158.23426900000001
 30
0.0
 11
19.741603000000001
 21
158.576367
 31
0.0
  0
LINE
  5
5A5
  8
レイヤー_1
 62
     7
 10
31.332626999999999
 20
169.82356999999999
 30
0.0
 11
31.332626999999999
 21
169.54968500000001
 31
0.0
  0
LINE
  5
5A4
  8
レイヤー_1
 62
     7
 10
31.469913999999999
 20
169.54968500000001
 30
0.0
 11
31.469913999999999
 21
169.82356999999999
 31
0.0
  0
LINE
  5
5A3
  8
レイヤー_1
 62
     7
 10
19.673562
 20
158.50815399999999
 30
0.0
 11
19.673562
 21
158.027908
 31
0.0
  0
LINE
  5
5A2
  8
レイヤー_1
 62
     7
 10
31.537782
 20
169.75466900000001
 30
0.0
 11
31.537782
 21
169.54968500000001
 31
0.0
  0
LINE
  5
5A1
  8
レイヤー_1
 62
     7
 10
19.810849000000001
 20
158.6452689999999
 30
0.0
 11
19.810849000000001
 21
158.301793
 31
0.0
  0
LINE
  5
5A0
  8
レイヤー_1
 62
     7
 10
189.75172499999999
 20
126.54938199999999
 30
0.0
 11
189.75172499999999
 21
126.823611
 31
0.0
  0
LINE
  5
59F
  8
レイヤー_1
 62
     7
 10
176.242817
 20
115.576408
 30
0.0
 11
176.31102999999999
 21
115.576408
 31
0.0
  0
LINE
  5
59E
  8
レイヤー_1
 62
     7
 10
55.335296
 20
163.102361
 30
0.0
 11
33.252406000000001
 21
169.06943899999999
 31
0.0
  0
LINE
  5
59D
  8
レイヤー_1
 62
     7
 10
187.969233
 20
127.02893899999999
 30
0.0
 11
165.68015399999999
 21
133.06405699999999
 31
0.0
  0
LINE
  5
59C
  8
レイヤー_1
 62
     7
 10
187.89895300000001
 20
126.891824
 30
0.0
 11
33.184193
 21
169.00088199999999
 31
0.0
  0
LINE
  5
59B
  8
レイヤー_1
 62
     7
 10
187.283659
 20
126.343709
 30
0.0
 11
32.635905999999999
 21
168.383521
 31
0.0
  0
LINE
  5
59A
  8
レイヤー_1
 62
     7
 10
22.210702999999999
 20
158.23426900000001
 30
0.0
 11
176.92770200000001
 21
116.19342399999999
 31
0.0
  0
LINE
  5
599
  8
レイヤー_1
 62
     7
 10
176.9972929999999
 20
116.331228
 30
0.0
 11
22.349367999999998
 21
158.370867
 31
0.0
  0
LINE
  5
598
  8
レイヤー_1
 62
     7
 10
21.662759999999999
 20
157.68546499999999
 30
0.0
 11
47.242766999999994
 21
150.689166
 31
0.0
  0
LINE
  5
597
  8
レイヤー_1
 62
     7
 10
47.517169000000003
 20
150.621297
 30
0.0
 11
47.585380999999991
 21
150.621297
 31
0.0
  0
LINE
  5
596
  8
レイヤー_1
 62
     7
 10
47.859783
 20
150.55205100000001
 30
0.0
 11
150.45489900000001
 21
122.639543
 31
0.0
  0
LINE
  5
595
  8
レイヤー_1
 62
     7
 10
150.662983
 20
122.639543
 30
0.0
 11
150.729129
 21
122.571674
 31
0.0
  0
LINE
  5
594
  8
レイヤー_1
 62
     7
 10
151.00404700000001
 20
122.503117
 30
0.0
 11
176.31102999999999
 21
115.644621
 31
0.0
  0
LINE
  5
593
  8
レイヤー_1
 62
     7
 10
149.70180099999999
 20
122.639543
 30
0.0
 11
149.70180099999999
 21
122.846248
 31
0.0
  0
LINE
  5
592
  8
レイヤー_1
 62
     7
 10
46.557536999999989
 20
150.689166
 30
0.0
 11
46.557536999999989
 21
150.89518200000001
 31
0.0
  0
LINE
  5
591
  8
レイヤー_1
 62
     7
 10
129.40192099999999
 20
141.842849
 30
0.0
 11
129.53834599999999
 21
142.04921100000001
 31
0.0
  0
LINE
  5
590
  8
レイヤー_1
 62
     7
 10
129.12631300000001
 20
141.979275
 30
0.0
 11
129.12631300000001
 21
142.117424
 31
0.0
  0
LINE
  5
58F
  8
レイヤー_1
 62
     7
 10
148.26106200000001
 20
136.905339
 30
0.0
 11
148.192849
 21
136.76787899999999
 31
0.0
  0
LINE
  5
58E
  8
レイヤー_1
 62
     7
 10
119.183767
 20
132.44703999999999
 30
0.0
 11
119.183767
 21
132.31027
 31
0.0
  0
POLYLINE
  5
589
  8
レイヤー_1
 62
     7
 66
     1
 10
0.0
 20
0.0
 30
0.0
  0
VERTEX
  5
58A
  8
レイヤー_1
 62
     7
 10
147.91862
 20
136.56255200000001
 30
0.0
  0
VERTEX
  5
58B
  8
レイヤー_1
 62
     7
 10
147.98683299999999
 20
136.56255200000001
 30
0.0
  0
VERTEX
  5
58C
  8
レイヤー_1
 62
     7
 10
147.98683299999999
 20
136.630764
 30
0.0
  0
SEQEND
  5
58D
  8
レイヤー_1
 62
     7
  0
LINE
  5
588
  8
レイヤー_1
 62
     7
 10
138.180024
 20
127.098185
 30
0.0
 11
138.24892600000001
 21
127.098185
 31
0.0
  0
LINE
  5
587
  8
レイヤー_1
 62
     7
 10
119.66401399999999
 20
132.10390899999999
 30
0.0
 11
119.66401399999999
 21
132.10390899999999
 31
0.0
  0
LINE
  5
586
  8
レイヤー_1
 62
     7
 10
138.180024
 20
127.098185
 30
0.0
 11
138.180024
 21
127.098185
 31
0.0
  0
LINE
  5
585
  8
レイヤー_1
 62
     7
 10
51.220646000000002
 20
163.30855
 30
0.0
 11
51.082841999999992
 21
163.102361
 31
0.0
  0
POLYLINE
  5
580
  8
レイヤー_1
 62
     7
 66
     1
 10
0.0
 20
0.0
 30
0.0
  0
VERTEX
  5
581
  8
レイヤー_1
 62
     7
 10
32.292257999999997
 20
168.040389
 30
0.0
  0
VERTEX
  5
582
  8
レイヤー_1
 62
     7
 10
32.361159999999998
 20
168.040389
 30
0.0
  0
VERTEX
  5
583
  8
レイヤー_1
 62
     7
 10
32.361159999999998
 20
167.97183200000001
 30
0.0
  0
SEQEND
  5
584
  8
レイヤー_1
 62
     7
  0
POLYLINE
  5
57B
  8
レイヤー_1
 62
     7
 66
     1
 10
0.0
 20
0.0
 30
0.0
  0
VERTEX
  5
57C
  8
レイヤー_1
 62
     7
 10
22.554351
 20
158.576367
 30
0.0
  0
VERTEX
  5
57D
  8
レイヤー_1
 62
     7
 10
22.554351
 20
158.50815399999999
 30
0.0
  0
VERTEX
  5
57E
  8
レイヤー_1
 62
     7
 10
22.622564000000001
 20
158.50815399999999
 30
0.0
  0
SEQEND
  5
57F
  8
レイヤー_1
 62
     7
  0
LINE
  5
57A
  8
レイヤー_1
 62
     7
 10
50.87717
 20
162.96507399999999
 30
0.0
 11
50.946071999999987
 21
162.96507399999999
 31
0.0
  0
LINE
  5
579
  8
レイヤー_1
 62
     7
 10
41.139263
 20
153.43284
 30
0.0
 11
41.139263
 21
153.43284
 31
0.0
  0
LINE
  5
578
  8
レイヤー_1
 62
     7
 10
22.622564000000001
 20
158.43907999999999
 30
0.0
 11
22.622564000000001
 21
158.50815399999999
 31
0.0
  0
LINE
  5
577
  8
レイヤー_1
 62
     7
 10
41.070017
 20
153.43284
 30
0.0
 11
41.139263
 21
153.43284
 31
0.0
  0
LINE
  5
576
  8
レイヤー_1
 62
     7
 10
71.176190000000005
 20
157.68546499999999
 30
0.0
 11
71.245435999999984
 21
157.89044899999999
 31
0.0
  0
LINE
  5
575
  8
レイヤー_1
 62
     7
 10
70.902821000000003
 20
157.82206400000001
 30
0.0
 11
70.902821000000003
 21
157.959351
 31
0.0
  0
LINE
  5
574
  8
レイヤー_1
 62
     7
 10
90.035503000000006
 20
152.74640400000001
 30
0.0
 11
89.968323999999996
 21
152.54159300000001
 31
0.0
  0
LINE
  5
573
  8
レイヤー_1
 62
     7
 10
60.958208999999989
 20
148.289312
 30
0.0
 11
60.958208999999989
 21
148.152197
 31
0.0
  0
LINE
  5
572
  8
レイヤー_1
 62
     7
 10
89.694438999999988
 20
152.40378999999999
 30
0.0
 11
89.762135000000001
 21
152.40378999999999
 31
0.0
  0
POLYLINE
  5
56D
  8
レイヤー_1
 62
     7
 66
     1
 10
0.0
 20
0.0
 30
0.0
  0
VERTEX
  5
56E
  8
レイヤー_1
 62
     7
 10
79.955499000000003
 20
142.87086600000001
 30
0.0
  0
VERTEX
  5
56F
  8
レイヤー_1
 62
     7
 10
79.955499000000003
 20
142.93942300000001
 30
0.0
  0
VERTEX
  5
570
  8
レイヤー_1
 62
     7
 10
80.023195000000001
 20
142.93942300000001
 30
0.0
  0
SEQEND
  5
571
  8
レイヤー_1
 62
     7
  0
LINE
  5
56C
  8
レイヤー_1
 62
     7
 10
61.438282999999998
 20
147.946697
 30
0.0
 11
61.438282999999998
 21
147.946697
 31
0.0
  0
LINE
  5
56B
  8
レイヤー_1
 62
     7
 10
79.887286000000003
 20
142.87086600000001
 30
0.0
 11
79.955499000000003
 21
142.87086600000001
 31
0.0
  0
LINE
  5
56A
  8
レイヤー_1
 62
     7
 10
51.769449999999992
 20
162.96507399999999
 30
0.0
 11
51.837318000000003
 21
163.171436
 31
0.0
  0
LINE
  5
569
  8
レイヤー_1
 62
     7
 10
51.495736999999998
 20
163.102361
 30
0.0
 11
51.495736999999998
 21
163.24033700000001
 31
0.0
  0
LINE
  5
568
  8
レイヤー_1
 62
     7
 10
70.628418999999994
 20
158.027908
 30
0.0
 11
70.560722999999996
 21
157.82206400000001
 31
0.0
  0
LINE
  5
567
  8
レイヤー_1
 62
     7
 10
41.549919000000003
 20
153.569954
 30
0.0
 11
41.549919000000003
 21
153.43284
 31
0.0
  0
LINE
  5
566
  8
レイヤー_1
 62
     7
 10
70.285805000000011
 20
157.68546499999999
 30
0.0
 11
70.355568000000005
 21
157.68546499999999
 31
0.0
  0
LINE
  5
565
  8
レイヤー_1
 62
     7
 10
60.548414000000001
 20
148.152197
 30
0.0
 11
60.548414000000001
 21
148.22040999999999
 31
0.0
  0
LINE
  5
564
  8
レイヤー_1
 62
     7
 10
42.030164999999997
 20
153.226134
 30
0.0
 11
42.030164999999997
 21
153.226134
 31
0.0
  0
LINE
  5
563
  8
レイヤー_1
 62
     7
 10
60.478650999999999
 20
148.152197
 30
0.0
 11
60.548414000000001
 21
148.152197
 31
0.0
  0
LINE
  5
562
  8
レイヤー_1
 62
     7
 10
148.80952099999999
 20
136.56255200000001
 30
0.0
 11
148.948014
 21
136.76787899999999
 31
0.0
  0
LINE
  5
561
  8
レイヤー_1
 62
     7
 10
148.53598099999999
 20
136.69897700000001
 30
0.0
 11
148.53598099999999
 21
136.83609199999989
 31
0.0
  0
LINE
  5
560
  8
レイヤー_1
 62
     7
 10
167.669352
 20
131.62504100000001
 30
0.0
 11
167.60113899999999
 21
131.48689200000001
 31
0.0
  0
LINE
  5
55F
  8
レイヤー_1
 62
     7
 10
138.66027
 20
127.235989
 30
0.0
 11
138.66027
 21
127.02893899999999
 31
0.0
  0
POLYLINE
  5
559
  8
レイヤー_1
 62
     7
 66
     1
 10
0.0
 20
0.0
 30
0.0
  0
VERTEX
  5
55A
  8
レイヤー_1
 62
     7
 10
167.326221
 20
131.35046700000001
 30
0.0
  0
VERTEX
  5
55B
  8
レイヤー_1
 62
     7
 10
167.326221
 20
131.28225399999999
 30
0.0
  0
VERTEX
  5
55C
  8
レイヤー_1
 62
     7
 10
167.39443399999999
 20
131.28225399999999
 30
0.0
  0
VERTEX
  5
55D
  8
レイヤー_1
 62
     7
 10
167.39443399999999
 20
131.35046700000001
 30
0.0
  0
SEQEND
  5
55E
  8
レイヤー_1
 62
     7
  0
LINE
  5
558
  8
レイヤー_1
 62
     7
 10
157.587625
 20
121.817887
 30
0.0
 11
157.6558379999999
 21
121.817887
 31
0.0
  0
LINE
  5
557
  8
レイヤー_1
 62
     7
 10
139.07092599999999
 20
126.823611
 30
0.0
 11
139.14120600000001
 21
126.823611
 31
0.0
  0
LINE
  5
556
  8
レイヤー_1
 62
     7
 10
157.587625
 20
121.817887
 30
0.0
 11
157.587625
 21
121.817887
 31
0.0
  0
LINE
  5
555
  8
レイヤー_1
 62
     7
 10
168.21850000000001
 20
131.28225399999999
 30
0.0
 11
168.35492600000001
 21
131.48689200000001
 31
0.0
  0
LINE
  5
554
  8
レイヤー_1
 62
     7
 10
167.942204
 20
131.418679
 30
0.0
 11
167.942204
 21
131.555105
 31
0.0
  0
LINE
  5
553
  8
レイヤー_1
 62
     7
 10
187.076953
 20
126.411233
 30
0.0
 11
187.00873999999999
 21
126.20659499999999
 31
0.0
  0
LINE
  5
552
  8
レイヤー_1
 62
     7
 10
158.067871
 20
121.95465799999999
 30
0.0
 11
158.067871
 21
121.747952
 31
0.0
  0
LINE
  5
551
  8
レイヤー_1
 62
     7
 10
187.076953
 20
126.13838199999999
 30
0.0
 11
187.00873999999999
 21
126.13838199999999
 31
0.0
  0
LINE
  5
550
  8
レイヤー_1
 62
     7
 10
186.73519999999999
 20
126.068791
 30
0.0
 11
186.80341300000001
 21
126.068791
 31
0.0
  0
LINE
  5
54F
  8
レイヤー_1
 62
     7
 10
176.9972929999999
 20
116.536556
 30
0.0
 11
177.065506
 21
116.536556
 31
0.0
  0
LINE
  5
54E
  8
レイヤー_1
 62
     7
 10
177.201931
 20
116.46937699999999
 30
0.0
 11
177.13234
 21
116.46937699999999
 31
0.0
  0
LINE
  5
54D
  8
レイヤー_1
 62
     7
 10
158.480594
 20
121.543313
 30
0.0
 11
158.547428
 21
121.543313
 31
0.0
  0
LINE
  5
54C
  8
レイヤー_1
 62
     7
 10
176.9972929999999
 20
116.536556
 30
0.0
 11
176.9972929999999
 21
116.536556
 31
0.0
  0
LINE
  5
54B
  8
レイヤー_1
 62
     7
 10
109.99363099999999
 20
147.12314699999999
 30
0.0
 11
110.06184399999999
 21
147.329508
 31
0.0
  0
LINE
  5
54A
  8
レイヤー_1
 62
     7
 10
109.719401
 20
147.26026200000001
 30
0.0
 11
109.719401
 21
147.39772099999999
 31
0.0
  0
LINE
  5
549
  8
レイヤー_1
 62
     7
 10
128.85346100000001
 20
142.185981
 30
0.0
 11
128.785248
 21
141.979275
 31
0.0
  0
LINE
  5
548
  8
レイヤー_1
 62
     7
 10
99.774443999999988
 20
137.72837200000001
 30
0.0
 11
99.774443999999988
 21
137.59056799999999
 31
0.0
  0
POLYLINE
  5
543
  8
レイヤー_1
 62
     7
 66
     1
 10
0.0
 20
0.0
 30
0.0
  0
VERTEX
  5
544
  8
レイヤー_1
 62
     7
 10
128.51033000000001
 20
141.842849
 30
0.0
  0
VERTEX
  5
545
  8
レイヤー_1
 62
     7
 10
128.578543
 20
141.842849
 30
0.0
  0
VERTEX
  5
546
  8
レイヤー_1
 62
     7
 10
128.578543
 20
141.91106199999999
 30
0.0
  0
SEQEND
  5
547
  8
レイヤー_1
 62
     7
  0
LINE
  5
542
  8
レイヤー_1
 62
     7
 10
118.771045
 20
132.37848299999999
 30
0.0
 11
118.839258
 21
132.37848299999999
 31
0.0
  0
LINE
  5
541
  8
レイヤー_1
 62
     7
 10
100.254518
 20
137.384896
 30
0.0
 11
100.254518
 21
137.384896
 31
0.0
  0
LINE
  5
540
  8
レイヤー_1
 62
     7
 10
118.771045
 20
132.31027
 30
0.0
 11
118.771045
 21
132.37848299999999
 31
0.0
  0
LINE
  5
53F
  8
レイヤー_1
 62
     7
 10
90.585341000000014
 20
152.40378999999999
 30
0.0
 11
90.654069999999976
 21
152.609117
 31
0.0
  0
LINE
  5
53E
  8
レイヤー_1
 62
     7
 10
90.309904999999986
 20
152.54159300000001
 30
0.0
 11
90.309904999999986
 21
152.67836399999999
 31
0.0
  0
LINE
  5
53D
  8
レイヤー_1
 62
     7
 10
109.44448199999999
 20
147.465934
 30
0.0
 11
109.37627000000001
 21
147.26026200000001
 31
0.0
  0
LINE
  5
53C
  8
レイヤー_1
 62
     7
 10
80.367359999999991
 20
143.00867
 30
0.0
 11
80.367359999999991
 21
142.87086600000001
 31
0.0
  0
LINE
  5
53B
  8
レイヤー_1
 62
     7
 10
109.102729
 20
147.12314699999999
 30
0.0
 11
109.170942
 21
147.12314699999999
 31
0.0
  0
POLYLINE
  5
535
  8
レイヤー_1
 62
     7
 66
     1
 10
0.0
 20
0.0
 30
0.0
  0
VERTEX
  5
536
  8
レイヤー_1
 62
     7
 10
99.363100000000003
 20
137.66015899999999
 30
0.0
  0
VERTEX
  5
537
  8
レイヤー_1
 62
     7
 10
99.363100000000003
 20
137.59056799999999
 30
0.0
  0
VERTEX
  5
538
  8
レイヤー_1
 62
     7
 10
99.363100000000003
 20
137.66015899999999
 30
0.0
  0
VERTEX
  5
539
  8
レイヤー_1
 62
     7
 10
99.432862999999998
 20
137.66015899999999
 30
0.0
  0
SEQEND
  5
53A
  8
レイヤー_1
 62
     7
  0
LINE
  5
534
  8
レイヤー_1
 62
     7
 10
80.847950999999995
 20
142.66622699999999
 30
0.0
 11
80.847950999999995
 21
142.66622699999999
 31
0.0
  0
POLYLINE
  5
52F
  8
レイヤー_1
 62
     7
 66
     1
 10
0.0
 20
0.0
 30
0.0
  0
VERTEX
  5
530
  8
レイヤー_1
 62
     7
 10
99.294887000000003
 20
137.59056799999999
 30
0.0
  0
VERTEX
  5
531
  8
レイヤー_1
 62
     7
 10
99.363100000000003
 20
137.59056799999999
 30
0.0
  0
VERTEX
  5
532
  8
レイヤー_1
 62
     7
 10
99.363100000000003
 20
137.66015899999999
 30
0.0
  0
SEQEND
  5
533
  8
レイヤー_1
 62
     7
  0
LINE
  5
52E
  8
レイヤー_1
 62
     7
 10
32.429372999999998
 20
171.057604
 30
0.0
 11
30.235019000000001
 21
171.675309
 31
0.0
  0
POLYLINE
  5
529
  8
レイヤー_1
 62
     7
 66
     1
 10
0.0
 20
0.0
 30
0.0
  0
VERTEX
  5
52A
  8
レイヤー_1
 62
     7
 10
32.361159999999998
 20
170.98939100000001
 30
0.0
  0
VERTEX
  5
52B
  8
レイヤー_1
 62
     7
 10
32.429372999999998
 20
170.98939100000001
 30
0.0
  0
VERTEX
  5
52C
  8
レイヤー_1
 62
     7
 10
32.429372999999998
 20
171.057604
 30
0.0
  0
SEQEND
  5
52D
  8
レイヤー_1
 62
     7
  0
LINE
  5
528
  8
レイヤー_1
 62
     7
 10
30.235019000000001
 20
171.53784999999999
 30
0.0
 11
32.361159999999998
 21
170.98939100000001
 31
0.0
  0
LINE
  5
527
  8
レイヤー_1
 62
     7
 10
30.235019000000001
 20
171.53784999999999
 30
0.0
 11
30.235019000000001
 21
171.675309
 31
0.0
  0
POLYLINE
  5
522
  8
レイヤー_1
 62
     7
 66
     1
 10
0.0
 20
0.0
 30
0.0
  0
VERTEX
  5
523
  8
レイヤー_1
 62
     7
 10
30.235019000000001
 20
171.675309
 30
0.0
  0
VERTEX
  5
524
  8
レイヤー_1
 62
     7
 10
30.235019000000001
 20
171.60640699999999
 30
0.0
  0
VERTEX
  5
525
  8
レイヤー_1
 62
     7
 10
30.235019000000001
 20
171.53784999999999
 30
0.0
  0
SEQEND
  5
526
  8
レイヤー_1
 62
     7
  0
LINE
  5
521
  8
レイヤー_1
 62
     7
 10
15.765446000000001
 20
157.54800599999999
 30
0.0
 11
30.166806000000001
 21
171.60640699999999
 31
0.0
  0
POLYLINE
  5
51C
  8
レイヤー_1
 62
     7
 66
     1
 10
0.0
 20
0.0
 30
0.0
  0
VERTEX
  5
51D
  8
レイヤー_1
 62
     7
 10
30.235019000000001
 20
171.53784999999999
 30
0.0
  0
VERTEX
  5
51E
  8
レイヤー_1
 62
     7
 10
30.166806000000001
 20
171.53784999999999
 30
0.0
  0
VERTEX
  5
51F
  8
レイヤー_1
 62
     7
 10
30.166806000000001
 20
171.60640699999999
 30
0.0
  0
SEQEND
  5
520
  8
レイヤー_1
 62
     7
  0
LINE
  5
51B
  8
レイヤー_1
 62
     7
 10
15.834865000000001
 20
157.47910400000001
 30
0.0
 11
30.235019000000001
 21
171.53784999999999
 31
0.0
  0
POLYLINE
  5
516
  8
レイヤー_1
 62
     7
 66
     1
 10
0.0
 20
0.0
 30
0.0
  0
VERTEX
  5
517
  8
レイヤー_1
 62
     7
 10
15.834865000000001
 20
157.47910400000001
 30
0.0
  0
VERTEX
  5
518
  8
レイヤー_1
 62
     7
 10
15.765446000000001
 20
157.47910400000001
 30
0.0
  0
VERTEX
  5
519
  8
レイヤー_1
 62
     7
 10
15.765446000000001
 20
157.54800599999999
 30
0.0
  0
SEQEND
  5
51A
  8
レイヤー_1
 62
     7
  0
LINE
  5
515
  8
レイヤー_1
 62
     7
 10
30.166806000000001
 20
171.60640699999999
 30
0.0
 11
30.235019000000001
 21
171.60640699999999
 31
0.0
  0
LINE
  5
514
  8
レイヤー_1
 62
     7
 10
30.235019000000001
 20
171.53784999999999
 30
0.0
 11
30.235019000000001
 21
171.60640699999999
 31
0.0
  0
LINE
  5
513
  8
レイヤー_1
 62
     7
 10
32.429372999999998
 20
171.19489100000001
 30
0.0
 11
32.429372999999998
 21
171.057604
 31
0.0
  0
LINE
  5
512
  8
レイヤー_1
 62
     7
 10
30.235019000000001
 20
171.675309
 30
0.0
 11
30.235019000000001
 21
172.70366999999999
 31
0.0
  0
LINE
  5
511
  8
レイヤー_1
 62
     7
 10
30.235019000000001
 20
172.70366999999999
 30
0.0
 11
32.429372999999998
 21
172.08665400000001
 31
0.0
  0
LINE
  5
510
  8
レイヤー_1
 62
     7
 10
32.429372999999998
 20
172.08665400000001
 30
0.0
 11
32.429372999999998
 21
171.19489100000001
 31
0.0
  0
LINE
  5
50F
  8
レイヤー_1
 62
     7
 10
30.235019000000001
 20
172.70366999999999
 30
0.0
 11
30.235019000000001
 21
172.63511299999999
 31
0.0
  0
LINE
  5
50E
  8
レイヤー_1
 62
     7
 10
30.235019000000001
 20
171.60640699999999
 30
0.0
 11
30.235019000000001
 21
172.63511299999999
 31
0.0
  0
LINE
  5
50D
  8
レイヤー_1
 62
     7
 10
19.056546000000001
 20
157.959351
 30
0.0
 11
18.988161000000002
 21
157.959351
 31
0.0
  0
LINE
  5
50C
  8
レイヤー_1
 62
     7
 10
18.920120000000001
 20
157.82206400000001
 30
0.0
 11
19.056546000000001
 21
157.959351
 31
0.0
  0
LINE
  5
50B
  8
レイヤー_1
 62
     7
 10
18.920120000000001
 20
157.82206400000001
 30
0.0
 11
17.958938
 21
156.930645
 31
0.0
  0
LINE
  5
50A
  8
レイヤー_1
 62
     7
 10
17.958938
 20
156.862088
 30
0.0
 11
17.958938
 21
156.930645
 31
0.0
  0
LINE
  5
509
  8
レイヤー_1
 62
     7
 10
15.834865000000001
 20
157.47910400000001
 30
0.0
 11
17.958938
 21
156.862088
 31
0.0
  0
LINE
  5
508
  8
レイヤー_1
 62
     7
 10
15.834865000000001
 20
157.47910400000001
 30
0.0
 11
15.765446000000001
 21
157.47910400000001
 31
0.0
  0
LINE
  5
507
  8
レイヤー_1
 62
     7
 10
30.235019000000001
 20
171.53784999999999
 30
0.0
 11
30.166806000000001
 21
171.53784999999999
 31
0.0
  0
LINE
  5
506
  8
レイヤー_1
 62
     7
 10
32.361159999999998
 20
170.98939100000001
 30
0.0
 11
32.361159999999998
 21
170.920489
 31
0.0
  0
LINE
  5
505
  8
レイヤー_1
 62
     7
 10
31.401356
 20
170.02924300000001
 30
0.0
 11
32.361159999999998
 21
170.920489
 31
0.0
  0
LINE
  5
504
  8
レイヤー_1
 62
     7
 10
31.401356
 20
170.02924300000001
 30
0.0
 11
31.263380000000002
 21
169.891783
 31
0.0
  0
LINE
  5
503
  8
レイヤー_1
 62
     7
 10
31.263380000000002
 20
169.891783
 30
0.0
 11
31.194651
 21
169.891783
 31
0.0
  0
LINE
  5
502
  8
レイヤー_1
 62
     7
 10
19.056546000000001
 20
157.959351
 30
0.0
 11
31.263380000000002
 21
169.891783
 31
0.0
  0
LINE
  5
501
  8
レイヤー_1
 62
     7
 10
30.235019000000001
 20
171.60640699999999
 30
0.0
 11
30.166806000000001
 21
171.60640699999999
 31
0.0
  0
LINE
  5
500
  8
レイヤー_1
 62
     7
 10
30.166806000000001
 20
171.60640699999999
 30
0.0
 11
30.166806000000001
 21
172.63511299999999
 31
0.0
  0
LINE
  5
4FF
  8
レイヤー_1
 62
     7
 10
30.166806000000001
 20
172.63511299999999
 30
0.0
 11
30.235019000000001
 21
172.63511299999999
 31
0.0
  0
LINE
  5
4FE
  8
レイヤー_1
 62
     7
 10
30.235019000000001
 20
171.60640699999999
 30
0.0
 11
30.235019000000001
 21
172.63511299999999
 31
0.0
  0
LINE
  5
4FD
  8
レイヤー_1
 62
     7
 10
15.765446000000001
 20
158.6452689999999
 30
0.0
 11
15.765446000000001
 21
157.54800599999999
 31
0.0
  0
LINE
  5
4FC
  8
レイヤー_1
 62
     7
 10
30.166806000000001
 20
172.63511299999999
 30
0.0
 11
15.765446000000001
 21
158.6452689999999
 31
0.0
  0
POLYLINE
  5
4F7
  8
レイヤー_1
 62
     7
 66
     1
 10
0.0
 20
0.0
 30
0.0
  0
VERTEX
  5
4F8
  8
レイヤー_1
 62
     7
 10
32.361159999999998
 20
170.920489
 30
0.0
  0
VERTEX
  5
4F9
  8
レイヤー_1
 62
     7
 10
32.429372999999998
 20
170.920489
 30
0.0
  0
VERTEX
  5
4FA
  8
レイヤー_1
 62
     7
 10
32.429372999999998
 20
170.98939100000001
 30
0.0
  0
SEQEND
  5
4FB
  8
レイヤー_1
 62
     7
  0
LINE
  5
4F6
  8
レイヤー_1
 62
     7
 10
31.401356
 20
170.02924300000001
 30
0.0
 11
31.469913999999999
 21
170.02924300000001
 31
0.0
  0
LINE
  5
4F5
  8
レイヤー_1
 62
     7
 10
32.429372999999998
 20
170.98939100000001
 30
0.0
 11
32.361159999999998
 21
170.98939100000001
 31
0.0
  0
LINE
  5
4F4
  8
レイヤー_1
 62
     7
 10
32.429372999999998
 20
171.19489100000001
 30
0.0
 11
32.429372999999998
 21
171.126678
 31
0.0
  0
LINE
  5
4F3
  8
レイヤー_1
 62
     7
 10
32.429372999999998
 20
172.08665400000001
 30
0.0
 11
32.429372999999998
 21
172.08665400000001
 31
0.0
  0
POLYLINE
  5
4EE
  8
レイヤー_1
 62
     7
 66
     1
 10
0.0
 20
0.0
 30
0.0
  0
VERTEX
  5
4EF
  8
レイヤー_1
 62
     7
 10
32.429372999999998
 20
171.057604
 30
0.0
  0
VERTEX
  5
4F0
  8
レイヤー_1
 62
     7
 10
32.429372999999998
 20
171.057604
 30
0.0
  0
VERTEX
  5
4F1
  8
レイヤー_1
 62
     7
 10
32.429372999999998
 20
170.98939100000001
 30
0.0
  0
SEQEND
  5
4F2
  8
レイヤー_1
 62
     7
  0
LINE
  5
4ED
  8
レイヤー_1
 62
     7
 10
32.497585999999998
 20
171.057604
 30
0.0
 11
32.429372999999998
 21
171.057604
 31
0.0
  0
LINE
  5
4EC
  8
レイヤー_1
 62
     7
 10
32.429372999999998
 20
170.98939100000001
 30
0.0
 11
32.361159999999998
 21
170.98939100000001
 31
0.0
  0
LINE
  5
4EB
  8
レイヤー_1
 62
     7
 10
32.429372999999998
 20
171.126678
 30
0.0
 11
32.361159999999998
 21
171.126678
 31
0.0
  0
LINE
  5
4EA
  8
レイヤー_1
 62
     7
 10
32.497585999999998
 20
172.017752
 30
0.0
 11
32.429372999999998
 21
172.017752
 31
0.0
  0
LINE
  5
4E9
  8
レイヤー_1
 62
     7
 10
32.429372999999998
 20
171.126678
 30
0.0
 11
32.497585999999998
 21
171.126678
 31
0.0
  0
LINE
  5
4E8
  8
レイヤー_1
 62
     7
 10
32.429372999999998
 20
171.126678
 30
0.0
 11
32.497585999999998
 21
171.057604
 31
0.0
  0
LINE
  5
4E7
  8
レイヤー_1
 62
     7
 10
31.332626999999999
 20
169.891783
 30
0.0
 11
31.263380000000002
 21
169.891783
 31
0.0
  0
LINE
  5
4E6
  8
レイヤー_1
 62
     7
 10
19.125102999999999
 20
157.959351
 30
0.0
 11
19.056546000000001
 21
157.959351
 31
0.0
  0
LINE
  5
4E5
  8
レイヤー_1
 62
     7
 10
19.331119999999999
 20
171.40108000000001
 30
0.0
 11
19.056546000000001
 21
170.78406299999989
 31
0.0
  0
LINE
  5
4E4
  8
レイヤー_1
 62
     7
 10
31.057535999999999
 20
182.85395500000001
 30
0.0
 11
19.331119999999999
 21
171.40108000000001
 31
0.0
  0
LINE
  5
4E3
  8
レイヤー_1
 62
     7
 10
31.263380000000002
 20
182.64845500000001
 30
0.0
 11
31.057535999999999
 21
182.85395500000001
 31
0.0
  0
LINE
  5
4E2
  8
レイヤー_1
 62
     7
 10
31.332626999999999
 20
169.891783
 30
0.0
 11
31.332626999999999
 21
169.960857
 31
0.0
  0
LINE
  5
4E1
  8
レイヤー_1
 62
     7
 10
31.263380000000002
 20
182.64845500000001
 30
0.0
 11
31.401356
 21
182.64845500000001
 31
0.0
  0
LINE
  5
4E0
  8
レイヤー_1
 62
     7
 10
33.252406000000001
 20
182.168037
 30
0.0
 11
31.401356
 21
182.64845500000001
 31
0.0
  0
POLYLINE
  5
4D6
  8
レイヤー_1
 62
     7
 66
     1
 10
0.0
 20
0.0
 30
0.0
  0
VERTEX
  5
4D7
  8
レイヤー_1
 62
     7
 10
33.526808000000003
 20
181.82525000000001
 30
0.0
  0
VERTEX
  5
4D8
  8
レイヤー_1
 62
     7
 10
33.526808000000003
 20
181.893462
 30
0.0
  0
VERTEX
  5
4D9
  8
レイヤー_1
 62
     7
 10
33.457388999999999
 20
181.96236400000001
 30
0.0
  0
VERTEX
  5
4DA
  8
レイヤー_1
 62
     7
 10
33.457388999999999
 20
182.03057699999999
 30
0.0
  0
VERTEX
  5
4DB
  8
レイヤー_1
 62
     7
 10
33.389349000000003
 20
182.09965099999999
 30
0.0
  0
VERTEX
  5
4DC
  8
レイヤー_1
 62
     7
 10
33.321136000000003
 20
182.09965099999999
 30
0.0
  0
VERTEX
  5
4DD
  8
レイヤー_1
 62
     7
 10
33.321136000000003
 20
182.168037
 30
0.0
  0
VERTEX
  5
4DE
  8
レイヤー_1
 62
     7
 10
33.252406000000001
 20
182.168037
 30
0.0
  0
SEQEND
  5
4DF
  8
レイヤー_1
 62
     7
  0
LINE
  5
4D5
  8
レイヤー_1
 62
     7
 10
33.526808000000003
 20
173.93804800000001
 30
0.0
 11
33.526808000000003
 21
181.82525000000001
 31
0.0
  0
POLYLINE
  5
4D0
  8
レイヤー_1
 62
     7
 66
     1
 10
0.0
 20
0.0
 30
0.0
  0
VERTEX
  5
4D1
  8
レイヤー_1
 62
     7
 10
33.457388999999999
 20
173.80093299999999
 30
0.0
  0
VERTEX
  5
4D2
  8
レイヤー_1
 62
     7
 10
33.526808000000003
 20
173.86983499999999
 30
0.0
  0
VERTEX
  5
4D3
  8
レイヤー_1
 62
     7
 10
33.526808000000003
 20
173.93804800000001
 30
0.0
  0
SEQEND
  5
4D4
  8
レイヤー_1
 62
     7
  0
POLYLINE
  5
4C3
  8
レイヤー_1
 62
     7
 66
     1
 10
0.0
 20
0.0
 30
0.0
  0
VERTEX
  5
4C4
  8
レイヤー_1
 62
     7
 10
32.977488000000001
 20
174.6241389999999
 30
0.0
  0
VERTEX
  5
4C5
  8
レイヤー_1
 62
     7
 10
32.977488000000001
 20
174.69321299999999
 30
0.0
  0
VERTEX
  5
4C6
  8
レイヤー_1
 62
     7
 10
32.909790999999998
 20
174.761426
 30
0.0
  0
VERTEX
  5
4C7
  8
レイヤー_1
 62
     7
 10
32.841062000000001
 20
174.83032800000001
 30
0.0
  0
VERTEX
  5
4C8
  8
レイヤー_1
 62
     7
 10
32.703946999999999
 20
174.83032800000001
 30
0.0
  0
VERTEX
  5
4C9
  8
レイヤー_1
 62
     7
 10
32.635905999999999
 20
174.761426
 30
0.0
  0
VERTEX
  5
4CA
  8
レイヤー_1
 62
     7
 10
32.635905999999999
 20
174.6241389999999
 30
0.0
  0
VERTEX
  5
4CB
  8
レイヤー_1
 62
     7
 10
32.772331999999999
 20
174.486852
 30
0.0
  0
VERTEX
  5
4CC
  8
レイヤー_1
 62
     7
 10
32.909790999999998
 20
174.486852
 30
0.0
  0
VERTEX
  5
4CD
  8
レイヤー_1
 62
     7
 10
32.977488000000001
 20
174.555926
 30
0.0
  0
VERTEX
  5
4CE
  8
レイヤー_1
 62
     7
 10
32.977488000000001
 20
174.6241389999999
 30
0.0
  0
SEQEND
  5
4CF
  8
レイヤー_1
 62
     7
  0
POLYLINE
  5
4B6
  8
レイヤー_1
 62
     7
 66
     1
 10
0.0
 20
0.0
 30
0.0
  0
VERTEX
  5
4B7
  8
レイヤー_1
 62
     7
 10
32.977488000000001
 20
180.86544599999991
 30
0.0
  0
VERTEX
  5
4B8
  8
レイヤー_1
 62
     7
 10
32.977488000000001
 20
180.93365900000001
 30
0.0
  0
VERTEX
  5
4B9
  8
レイヤー_1
 62
     7
 10
32.909790999999998
 20
181.002216
 30
0.0
  0
VERTEX
  5
4BA
  8
レイヤー_1
 62
     7
 10
32.841062000000001
 20
181.07042899999999
 30
0.0
  0
VERTEX
  5
4BB
  8
レイヤー_1
 62
     7
 10
32.703946999999999
 20
181.07042899999999
 30
0.0
  0
VERTEX
  5
4BC
  8
レイヤー_1
 62
     7
 10
32.635905999999999
 20
181.002216
 30
0.0
  0
VERTEX
  5
4BD
  8
レイヤー_1
 62
     7
 10
32.635905999999999
 20
180.86544599999991
 30
0.0
  0
VERTEX
  5
4BE
  8
レイヤー_1
 62
     7
 10
32.772331999999999
 20
180.727642
 30
0.0
  0
VERTEX
  5
4BF
  8
レイヤー_1
 62
     7
 10
32.909790999999998
 20
180.727642
 30
0.0
  0
VERTEX
  5
4C0
  8
レイヤー_1
 62
     7
 10
32.977488000000001
 20
180.7962
 30
0.0
  0
VERTEX
  5
4C1
  8
レイヤー_1
 62
     7
 10
32.977488000000001
 20
180.86544599999991
 30
0.0
  0
SEQEND
  5
4C2
  8
レイヤー_1
 62
     7
  0
LINE
  5
4B5
  8
レイヤー_1
 62
     7
 10
32.292257999999997
 20
172.154867
 30
0.0
 11
33.457388999999999
 21
173.80093299999999
 31
0.0
  0
POLYLINE
  5
4AE
  8
レイヤー_1
 62
     7
 66
     1
 10
0.0
 20
0.0
 30
0.0
  0
VERTEX
  5
4AF
  8
レイヤー_1
 62
     7
 10
32.977488000000001
 20
174.555926
 30
0.0
  0
VERTEX
  5
4B0
  8
レイヤー_1
 62
     7
 10
32.909790999999998
 20
174.6241389999999
 30
0.0
  0
VERTEX
  5
4B1
  8
レイヤー_1
 62
     7
 10
32.909790999999998
 20
174.69321299999999
 30
0.0
  0
VERTEX
  5
4B2
  8
レイヤー_1
 62
     7
 10
32.841062000000001
 20
174.761426
 30
0.0
  0
VERTEX
  5
4B3
  8
レイヤー_1
 62
     7
 10
32.635905999999999
 20
174.761426
 30
0.0
  0
SEQEND
  5
4B4
  8
レイヤー_1
 62
     7
  0
LINE
  5
4AD
  8
レイヤー_1
 62
     7
 10
32.909790999999998
 20
174.486852
 30
0.0
 11
32.977488000000001
 21
174.555926
 31
0.0
  0
POLYLINE
  5
4A6
  8
レイヤー_1
 62
     7
 66
     1
 10
0.0
 20
0.0
 30
0.0
  0
VERTEX
  5
4A7
  8
レイヤー_1
 62
     7
 10
32.977488000000001
 20
180.7962
 30
0.0
  0
VERTEX
  5
4A8
  8
レイヤー_1
 62
     7
 10
32.909790999999998
 20
180.86544599999991
 30
0.0
  0
VERTEX
  5
4A9
  8
レイヤー_1
 62
     7
 10
32.909790999999998
 20
180.93365900000001
 30
0.0
  0
VERTEX
  5
4AA
  8
レイヤー_1
 62
     7
 10
32.841062000000001
 20
181.002216
 30
0.0
  0
VERTEX
  5
4AB
  8
レイヤー_1
 62
     7
 10
32.635905999999999
 20
181.002216
 30
0.0
  0
SEQEND
  5
4AC
  8
レイヤー_1
 62
     7
  0
LINE
  5
4A5
  8
レイヤー_1
 62
     7
 10
32.909790999999998
 20
180.727642
 30
0.0
 11
32.977488000000001
 21
180.7962
 31
0.0
  0
LINE
  5
4A4
  8
レイヤー_1
 62
     7
 10
31.126954000000001
 20
182.85395500000001
 30
0.0
 11
31.057535999999999
 21
182.85395500000001
 31
0.0
  0
LINE
  5
4A3
  8
レイヤー_1
 62
     7
 10
31.263380000000002
 20
182.64845500000001
 30
0.0
 11
31.126954000000001
 21
182.85395500000001
 31
0.0
  0
LINE
  5
4A2
  8
レイヤー_1
 62
     7
 10
31.126954000000001
 20
182.922168
 30
0.0
 11
31.126954000000001
 21
182.85395500000001
 31
0.0
  0
POLYLINE
  5
49D
  8
レイヤー_1
 62
     7
 66
     1
 10
0.0
 20
0.0
 30
0.0
  0
VERTEX
  5
49E
  8
レイヤー_1
 62
     7
 10
31.057535999999999
 20
182.85395500000001
 30
0.0
  0
VERTEX
  5
49F
  8
レイヤー_1
 62
     7
 10
31.057535999999999
 20
182.922168
 30
0.0
  0
VERTEX
  5
4A0
  8
レイヤー_1
 62
     7
 10
31.126954000000001
 20
182.922168
 30
0.0
  0
SEQEND
  5
4A1
  8
レイヤー_1
 62
     7
  0
LINE
  5
49C
  8
レイヤー_1
 62
     7
 10
19.331119999999999
 20
171.40108000000001
 30
0.0
 11
19.331119999999999
 21
171.40108000000001
 31
0.0
  0
LINE
  5
49B
  8
レイヤー_1
 62
     7
 10
31.126954000000001
 20
182.922168
 30
0.0
 11
31.194651
 21
182.85395500000001
 31
0.0
  0
POLYLINE
  5
496
  8
レイヤー_1
 62
     7
 66
     1
 10
0.0
 20
0.0
 30
0.0
  0
VERTEX
  5
497
  8
レイヤー_1
 62
     7
 10
18.920120000000001
 20
157.82206400000001
 30
0.0
  0
VERTEX
  5
498
  8
レイヤー_1
 62
     7
 10
18.988161000000002
 20
157.82206400000001
 30
0.0
  0
VERTEX
  5
499
  8
レイヤー_1
 62
     7
 10
18.988161000000002
 20
157.89044899999999
 30
0.0
  0
SEQEND
  5
49A
  8
レイヤー_1
 62
     7
  0
LINE
  5
495
  8
レイヤー_1
 62
     7
 10
17.958938
 20
156.930645
 30
0.0
 11
18.027151
 21
156.930645
 31
0.0
  0
LINE
  5
494
  8
レイヤー_1
 62
     7
 10
18.988161000000002
 20
157.89044899999999
 30
0.0
 11
18.920120000000001
 21
157.89044899999999
 31
0.0
  0
LINE
  5
493
  8
レイヤー_1
 62
     7
 10
18.988161000000002
 20
157.89044899999999
 30
0.0
 11
18.920120000000001
 21
157.89044899999999
 31
0.0
  0
LINE
  5
492
  8
レイヤー_1
 62
     7
 10
18.988161000000002
 20
157.89044899999999
 30
0.0
 11
18.920120000000001
 21
157.89044899999999
 31
0.0
  0
LINE
  5
491
  8
レイヤー_1
 62
     7
 10
19.056546000000001
 20
157.959351
 30
0.0
 11
19.056546000000001
 21
157.89044899999999
 31
0.0
  0
LINE
  5
490
  8
レイヤー_1
 62
     7
 10
19.056546000000001
 20
170.78406299999989
 30
0.0
 11
19.056546000000001
 21
170.71516099999999
 31
0.0
  0
LINE
  5
48F
  8
レイヤー_1
 62
     7
 10
15.834865000000001
 20
157.47910400000001
 30
0.0
 11
15.765446000000001
 21
157.47910400000001
 31
0.0
  0
LINE
  5
48E
  8
レイヤー_1
 62
     7
 10
17.958938
 20
156.862088
 30
0.0
 11
17.958938
 21
156.862088
 31
0.0
  0
LINE
  5
48D
  8
レイヤー_1
 62
     7
 10
191.46669399999999
 20
127.85300599999999
 30
0.0
 11
193.59162900000001
 21
127.235989
 31
0.0
  0
LINE
  5
48C
  8
レイヤー_1
 62
     7
 10
193.59162900000001
 20
127.166398
 30
0.0
 11
193.59162900000001
 21
127.235989
 31
0.0
  0
LINE
  5
48B
  8
レイヤー_1
 62
     7
 10
193.59162900000001
 20
127.166398
 30
0.0
 11
191.398481
 21
127.71520200000001
 31
0.0
  0
POLYLINE
  5
486
  8
レイヤー_1
 62
     7
 66
     1
 10
0.0
 20
0.0
 30
0.0
  0
VERTEX
  5
487
  8
レイヤー_1
 62
     7
 10
191.398481
 20
127.71520200000001
 30
0.0
  0
VERTEX
  5
488
  8
レイヤー_1
 62
     7
 10
191.46669399999999
 20
127.78341500000001
 30
0.0
  0
VERTEX
  5
489
  8
レイヤー_1
 62
     7
 10
191.46669399999999
 20
127.85300599999999
 30
0.0
  0
SEQEND
  5
48A
  8
レイヤー_1
 62
     7
  0
LINE
  5
485
  8
レイヤー_1
 62
     7
 10
191.46669399999999
 20
127.85300599999999
 30
0.0
 11
191.398481
 21
127.78341500000001
 31
0.0
  0
POLYLINE
  5
480
  8
レイヤー_1
 62
     7
 66
     1
 10
0.0
 20
0.0
 30
0.0
  0
VERTEX
  5
481
  8
レイヤー_1
 62
     7
 10
191.398481
 20
127.78341500000001
 30
0.0
  0
VERTEX
  5
482
  8
レイヤー_1
 62
     7
 10
191.398481
 20
127.71520200000001
 30
0.0
  0
VERTEX
  5
483
  8
レイヤー_1
 62
     7
 10
191.33026799999999
 20
127.78341500000001
 30
0.0
  0
SEQEND
  5
484
  8
レイヤー_1
 62
     7
  0
LINE
  5
47F
  8
レイヤー_1
 62
     7
 10
190.43798799999999
 20
126.823611
 30
0.0
 11
191.398481
 21
127.71520200000001
 31
0.0
  0
LINE
  5
47E
  8
レイヤー_1
 62
     7
 10
190.43798799999999
 20
126.823611
 30
0.0
 11
190.43798799999999
 21
126.823611
 31
0.0
  0
LINE
  5
47D
  8
レイヤー_1
 62
     7
 10
191.398481
 20
127.71520200000001
 30
0.0
 11
191.398481
 21
127.78341500000001
 31
0.0
  0
LINE
  5
47C
  8
レイヤー_1
 62
     7
 10
191.398481
 20
127.92121899999999
 30
0.0
 11
191.398481
 21
127.78341500000001
 31
0.0
  0
LINE
  5
47B
  8
レイヤー_1
 62
     7
 10
191.46669399999999
 20
127.99012
 30
0.0
 11
191.398481
 21
127.92121899999999
 31
0.0
  0
LINE
  5
47A
  8
レイヤー_1
 62
     7
 10
191.46669399999999
 20
127.99012
 30
0.0
 11
191.46669399999999
 21
127.85300599999999
 31
0.0
  0
LINE
  5
479
  8
レイヤー_1
 62
     7
 10
193.59162900000001
 20
128.26400599999999
 30
0.0
 11
191.46669399999999
 21
128.881022
 31
0.0
  0
LINE
  5
478
  8
レイヤー_1
 62
     7
 10
193.59162900000001
 20
127.235989
 30
0.0
 11
193.59162900000001
 21
128.26400599999999
 31
0.0
  0
LINE
  5
477
  8
レイヤー_1
 62
     7
 10
191.46669399999999
 20
128.881022
 30
0.0
 11
191.46669399999999
 21
127.99012
 31
0.0
  0
LINE
  5
476
  8
レイヤー_1
 62
     7
 10
190.300873
 20
126.61793900000001
 30
0.0
 11
190.23266100000001
 21
126.61793900000001
 31
0.0
  0
LINE
  5
475
  8
レイヤー_1
 62
     7
 10
190.43798799999999
 20
126.823611
 30
0.0
 11
190.300873
 21
126.61793900000001
 31
0.0
  0
LINE
  5
474
  8
レイヤー_1
 62
     7
 10
191.398481
 20
127.71520200000001
 30
0.0
 11
191.33026799999999
 21
127.71520200000001
 31
0.0
  0
LINE
  5
473
  8
レイヤー_1
 62
     7
 10
193.59162900000001
 20
127.166398
 30
0.0
 11
193.52548300000001
 21
127.166398
 31
0.0
  0
LINE
  5
472
  8
レイヤー_1
 62
     7
 10
193.59162900000001
 20
127.166398
 30
0.0
 11
179.12084999999999
 21
113.107308
 31
0.0
  0
LINE
  5
471
  8
レイヤー_1
 62
     7
 10
179.12084999999999
 20
113.107308
 30
0.0
 11
179.052637
 21
113.107308
 31
0.0
  0
LINE
  5
470
  8
レイヤー_1
 62
     7
 10
179.12084999999999
 20
113.107308
 30
0.0
 11
176.9972929999999
 21
113.657145
 31
0.0
  0
LINE
  5
46F
  8
レイヤー_1
 62
     7
 10
176.9972929999999
 20
113.657145
 30
0.0
 11
176.92770200000001
 21
113.657145
 31
0.0
  0
LINE
  5
46E
  8
レイヤー_1
 62
     7
 10
177.95709600000001
 20
114.616604
 30
0.0
 11
176.9972929999999
 21
113.657145
 31
0.0
  0
LINE
  5
46D
  8
レイヤー_1
 62
     7
 10
177.95709600000001
 20
114.616604
 30
0.0
 11
178.09352200000001
 21
114.753719
 31
0.0
  0
LINE
  5
46C
  8
レイヤー_1
 62
     7
 10
178.09352200000001
 20
114.753719
 30
0.0
 11
178.02530899999999
 21
114.753719
 31
0.0
  0
LINE
  5
46B
  8
レイヤー_1
 62
     7
 10
190.300873
 20
126.61793900000001
 30
0.0
 11
178.09352200000001
 21
114.753719
 31
0.0
  0
LINE
  5
46A
  8
レイヤー_1
 62
     7
 10
191.398481
 20
127.78341500000001
 30
0.0
 11
191.33026799999999
 21
127.78341500000001
 31
0.0
  0
LINE
  5
469
  8
レイヤー_1
 62
     7
 10
191.398481
 20
127.78341500000001
 30
0.0
 11
191.33026799999999
 21
127.78341500000001
 31
0.0
  0
LINE
  5
468
  8
レイヤー_1
 62
     7
 10
191.46669399999999
 20
128.881022
 30
0.0
 11
191.398481
 21
128.881022
 31
0.0
  0
LINE
  5
467
  8
レイヤー_1
 62
     7
 10
191.46669399999999
 20
127.99012
 30
0.0
 11
191.398481
 21
127.99012
 31
0.0
  0
LINE
  5
466
  8
レイヤー_1
 62
     7
 10
191.398481
 20
127.78341500000001
 30
0.0
 11
191.398481
 21
127.85300599999999
 31
0.0
  0
LINE
  5
465
  8
レイヤー_1
 62
     7
 10
191.398481
 20
127.92121899999999
 30
0.0
 11
191.33026799999999
 21
127.92121899999999
 31
0.0
  0
LINE
  5
464
  8
レイヤー_1
 62
     7
 10
191.398481
 20
127.92121899999999
 30
0.0
 11
191.398481
 21
127.92121899999999
 31
0.0
  0
LINE
  5
463
  8
レイヤー_1
 62
     7
 10
179.12084999999999
 20
113.107308
 30
0.0
 11
179.19112999999999
 21
113.107308
 31
0.0
  0
LINE
  5
462
  8
レイヤー_1
 62
     7
 10
193.59162900000001
 20
127.166398
 30
0.0
 11
193.659842
 21
127.166398
 31
0.0
  0
LINE
  5
461
  8
レイヤー_1
 62
     7
 10
193.659842
 20
128.26400599999999
 30
0.0
 11
193.59162900000001
 21
128.26400599999999
 31
0.0
  0
LINE
  5
460
  8
レイヤー_1
 62
     7
 10
193.659842
 20
128.26400599999999
 30
0.0
 11
193.659842
 21
127.166398
 31
0.0
  0
POLYLINE
  5
459
  8
レイヤー_1
 62
     7
 66
     1
 10
0.0
 20
0.0
 30
0.0
  0
VERTEX
  5
45A
  8
レイヤー_1
 62
     7
 10
188.38126600000001
 20
139.99180000000001
 30
0.0
  0
VERTEX
  5
45B
  8
レイヤー_1
 62
     7
 10
188.17387199999999
 20
139.99180000000001
 30
0.0
  0
VERTEX
  5
45C
  8
レイヤー_1
 62
     7
 10
188.17387199999999
 20
139.92220900000001
 30
0.0
  0
VERTEX
  5
45D
  8
レイヤー_1
 62
     7
 10
188.106348
 20
139.853996
 30
0.0
  0
VERTEX
  5
45E
  8
レイヤー_1
 62
     7
 10
188.106348
 20
139.78474900000001
 30
0.0
  0
SEQEND
  5
45F
  8
レイヤー_1
 62
     7
  0
LINE
  5
458
  8
レイヤー_1
 62
     7
 10
188.38126600000001
 20
139.99180000000001
 30
0.0
 11
190.300873
 21
139.510175
 31
0.0
  0
LINE
  5
457
  8
レイヤー_1
 62
     7
 10
189.34038100000001
 20
129.49803900000001
 30
0.0
 11
188.17387199999999
 21
131.829679
 31
0.0
  0
POLYLINE
  5
452
  8
レイヤー_1
 62
     7
 66
     1
 10
0.0
 20
0.0
 30
0.0
  0
VERTEX
  5
453
  8
レイヤー_1
 62
     7
 10
188.106348
 20
131.96748299999999
 30
0.0
  0
VERTEX
  5
454
  8
レイヤー_1
 62
     7
 10
188.106348
 20
131.829679
 30
0.0
  0
VERTEX
  5
455
  8
レイヤー_1
 62
     7
 10
188.17387199999999
 20
131.829679
 30
0.0
  0
SEQEND
  5
456
  8
レイヤー_1
 62
     7
  0
LINE
  5
451
  8
レイヤー_1
 62
     7
 10
188.106348
 20
131.96748299999999
 30
0.0
 11
188.106348
 21
139.78474900000001
 31
0.0
  0
POLYLINE
  5
441
  8
レイヤー_1
 62
     7
 66
     1
 10
0.0
 20
0.0
 30
0.0
  0
VERTEX
  5
442
  8
レイヤー_1
 62
     7
 10
188.998627
 20
132.172122
 30
0.0
  0
VERTEX
  5
443
  8
レイヤー_1
 62
     7
 10
188.998627
 20
132.24205699999999
 30
0.0
  0
VERTEX
  5
444
  8
レイヤー_1
 62
     7
 10
188.93041400000001
 20
132.31027
 30
0.0
  0
VERTEX
  5
445
  8
レイヤー_1
 62
     7
 10
188.93041400000001
 20
132.37848299999999
 30
0.0
  0
VERTEX
  5
446
  8
レイヤー_1
 62
     7
 10
188.86013500000001
 20
132.37848299999999
 30
0.0
  0
VERTEX
  5
447
  8
レイヤー_1
 62
     7
 10
188.791922
 20
132.44703999999999
 30
0.0
  0
VERTEX
  5
448
  8
レイヤー_1
 62
     7
 10
188.72370900000001
 20
132.37848299999999
 30
0.0
  0
VERTEX
  5
449
  8
レイヤー_1
 62
     7
 10
188.65411800000001
 20
132.37848299999999
 30
0.0
  0
VERTEX
  5
44A
  8
レイヤー_1
 62
     7
 10
188.65411800000001
 20
132.24205699999999
 30
0.0
  0
VERTEX
  5
44B
  8
レイヤー_1
 62
     7
 10
188.86013500000001
 20
132.035696
 30
0.0
  0
VERTEX
  5
44C
  8
レイヤー_1
 62
     7
 10
188.93041400000001
 20
132.035696
 30
0.0
  0
VERTEX
  5
44D
  8
レイヤー_1
 62
     7
 10
188.93041400000001
 20
132.10390899999999
 30
0.0
  0
VERTEX
  5
44E
  8
レイヤー_1
 62
     7
 10
188.998627
 20
132.10390899999999
 30
0.0
  0
VERTEX
  5
44F
  8
レイヤー_1
 62
     7
 10
188.998627
 20
132.172122
 30
0.0
  0
SEQEND
  5
450
  8
レイヤー_1
 62
     7
  0
POLYLINE
  5
431
  8
レイヤー_1
 62
     7
 66
     1
 10
0.0
 20
0.0
 30
0.0
  0
VERTEX
  5
432
  8
レイヤー_1
 62
     7
 10
188.998627
 20
138.413601
 30
0.0
  0
VERTEX
  5
433
  8
レイヤー_1
 62
     7
 10
188.998627
 20
138.48250300000001
 30
0.0
  0
VERTEX
  5
434
  8
レイヤー_1
 62
     7
 10
188.93041400000001
 20
138.550027
 30
0.0
  0
VERTEX
  5
435
  8
レイヤー_1
 62
     7
 10
188.93041400000001
 20
138.61996300000001
 30
0.0
  0
VERTEX
  5
436
  8
レイヤー_1
 62
     7
 10
188.86013500000001
 20
138.688175
 30
0.0
  0
VERTEX
  5
437
  8
レイヤー_1
 62
     7
 10
188.791922
 20
138.688175
 30
0.0
  0
VERTEX
  5
438
  8
レイヤー_1
 62
     7
 10
188.72370900000001
 20
138.61996300000001
 30
0.0
  0
VERTEX
  5
439
  8
レイヤー_1
 62
     7
 10
188.65411800000001
 20
138.61996300000001
 30
0.0
  0
VERTEX
  5
43A
  8
レイヤー_1
 62
     7
 10
188.65411800000001
 20
138.48250300000001
 30
0.0
  0
VERTEX
  5
43B
  8
レイヤー_1
 62
     7
 10
188.86013500000001
 20
138.277176
 30
0.0
  0
VERTEX
  5
43C
  8
レイヤー_1
 62
     7
 10
188.93041400000001
 20
138.277176
 30
0.0
  0
VERTEX
  5
43D
  8
レイヤー_1
 62
     7
 10
188.93041400000001
 20
138.34538800000001
 30
0.0
  0
VERTEX
  5
43E
  8
レイヤー_1
 62
     7
 10
188.998627
 20
138.34538800000001
 30
0.0
  0
VERTEX
  5
43F
  8
レイヤー_1
 62
     7
 10
188.998627
 20
138.413601
 30
0.0
  0
SEQEND
  5
440
  8
レイヤー_1
 62
     7
  0
LINE
  5
430
  8
レイヤー_1
 62
     7
 10
189.271479
 20
129.56763000000001
 30
0.0
 11
188.106348
 21
131.76146600000001
 31
0.0
  0
LINE
  5
42F
  8
レイヤー_1
 62
     7
 10
188.17387199999999
 20
131.829679
 30
0.0
 11
188.106348
 21
131.76146600000001
 31
0.0
  0
LINE
  5
42E
  8
レイヤー_1
 62
     7
 10
190.300873
 20
126.685807
 30
0.0
 11
190.300873
 21
126.61793900000001
 31
0.0
  0
LINE
  5
42D
  8
レイヤー_1
 62
     7
 10
190.43798799999999
 20
126.823611
 30
0.0
 11
190.300873
 21
126.685807
 31
0.0
  0
LINE
  5
42C
  8
レイヤー_1
 62
     7
 10
190.300873
 20
126.61793900000001
 30
0.0
 11
190.300873
 21
126.685807
 31
0.0
  0
POLYLINE
  5
427
  8
レイヤー_1
 62
     7
 66
     1
 10
0.0
 20
0.0
 30
0.0
  0
VERTEX
  5
428
  8
レイヤー_1
 62
     7
 10
190.23266100000001
 20
126.685807
 30
0.0
  0
VERTEX
  5
429
  8
レイヤー_1
 62
     7
 10
190.300873
 20
126.685807
 30
0.0
  0
VERTEX
  5
42A
  8
レイヤー_1
 62
     7
 10
190.300873
 20
126.61793900000001
 30
0.0
  0
SEQEND
  5
42B
  8
レイヤー_1
 62
     7
  0
POLYLINE
  5
422
  8
レイヤー_1
 62
     7
 66
     1
 10
0.0
 20
0.0
 30
0.0
  0
VERTEX
  5
423
  8
レイヤー_1
 62
     7
 10
178.02530899999999
 20
114.822965
 30
0.0
  0
VERTEX
  5
424
  8
レイヤー_1
 62
     7
 10
178.09352200000001
 20
114.822965
 30
0.0
  0
VERTEX
  5
425
  8
レイヤー_1
 62
     7
 10
178.09352200000001
 20
114.753719
 30
0.0
  0
SEQEND
  5
426
  8
レイヤー_1
 62
     7
  0
LINE
  5
421
  8
レイヤー_1
 62
     7
 10
190.300873
 20
126.685807
 30
0.0
 11
190.23266100000001
 21
126.685807
 31
0.0
  0
LINE
  5
420
  8
レイヤー_1
 62
     7
 10
190.300873
 20
126.755398
 30
0.0
 11
190.300873
 21
126.685807
 31
0.0
  0
LINE
  5
41F
  8
レイヤー_1
 62
     7
 10
190.300873
 20
139.44299599999999
 30
0.0
 11
190.300873
 21
139.510175
 31
0.0
  0
LINE
  5
41E
  8
レイヤー_1
 62
     7
 10
188.106348
 20
131.89927
 30
0.0
 11
188.106348
 21
131.96748299999999
 31
0.0
  0
LINE
  5
41D
  8
レイヤー_1
 62
     7
 10
188.106348
 20
131.76146600000001
 30
0.0
 11
188.106348
 21
131.89927
 31
0.0
  0
LINE
  5
41C
  8
レイヤー_1
 62
     7
 10
188.106348
 20
139.78474900000001
 30
0.0
 11
188.03744599999999
 21
139.78474900000001
 31
0.0
  0
LINE
  5
41B
  8
レイヤー_1
 62
     7
 10
188.106348
 20
131.89927
 30
0.0
 11
188.106348
 21
139.78474900000001
 31
0.0
  0
POLYLINE
  5
413
  8
レイヤー_1
 62
     7
 66
     1
 10
0.0
 20
0.0
 30
0.0
  0
VERTEX
  5
414
  8
レイヤー_1
 62
     7
 10
188.998627
 20
132.172122
 30
0.0
  0
VERTEX
  5
415
  8
レイヤー_1
 62
     7
 10
188.998627
 20
132.24205699999999
 30
0.0
  0
VERTEX
  5
416
  8
レイヤー_1
 62
     7
 10
188.93041400000001
 20
132.31027
 30
0.0
  0
VERTEX
  5
417
  8
レイヤー_1
 62
     7
 10
188.86013500000001
 20
132.31027
 30
0.0
  0
VERTEX
  5
418
  8
レイヤー_1
 62
     7
 10
188.791922
 20
132.37848299999999
 30
0.0
  0
VERTEX
  5
419
  8
レイヤー_1
 62
     7
 10
188.65411800000001
 20
132.37848299999999
 30
0.0
  0
SEQEND
  5
41A
  8
レイヤー_1
 62
     7
  0
POLYLINE
  5
40E
  8
レイヤー_1
 62
     7
 66
     1
 10
0.0
 20
0.0
 30
0.0
  0
VERTEX
  5
40F
  8
レイヤー_1
 62
     7
 10
188.93041400000001
 20
132.10390899999999
 30
0.0
  0
VERTEX
  5
410
  8
レイヤー_1
 62
     7
 10
188.998627
 20
132.10390899999999
 30
0.0
  0
VERTEX
  5
411
  8
レイヤー_1
 62
     7
 10
188.998627
 20
132.172122
 30
0.0
  0
SEQEND
  5
412
  8
レイヤー_1
 62
     7
  0
POLYLINE
  5
407
  8
レイヤー_1
 62
     7
 66
     1
 10
0.0
 20
0.0
 30
0.0
  0
VERTEX
  5
408
  8
レイヤー_1
 62
     7
 10
188.998627
 20
138.413601
 30
0.0
  0
VERTEX
  5
409
  8
レイヤー_1
 62
     7
 10
188.998627
 20
138.48250300000001
 30
0.0
  0
VERTEX
  5
40A
  8
レイヤー_1
 62
     7
 10
188.93041400000001
 20
138.550027
 30
0.0
  0
VERTEX
  5
40B
  8
レイヤー_1
 62
     7
 10
188.86013500000001
 20
138.61996300000001
 30
0.0
  0
VERTEX
  5
40C
  8
レイヤー_1
 62
     7
 10
188.65411800000001
 20
138.61996300000001
 30
0.0
  0
SEQEND
  5
40D
  8
レイヤー_1
 62
     7
  0
POLYLINE
  5
402
  8
レイヤー_1
 62
     7
 66
     1
 10
0.0
 20
0.0
 30
0.0
  0
VERTEX
  5
403
  8
レイヤー_1
 62
     7
 10
188.93041400000001
 20
138.34538800000001
 30
0.0
  0
VERTEX
  5
404
  8
レイヤー_1
 62
     7
 10
188.998627
 20
138.34538800000001
 30
0.0
  0
VERTEX
  5
405
  8
レイヤー_1
 62
     7
 10
188.998627
 20
138.413601
 30
0.0
  0
SEQEND
  5
406
  8
レイヤー_1
 62
     7
  0
POLYLINE
  5
3FD
  8
レイヤー_1
 62
     7
 66
     1
 10
0.0
 20
0.0
 30
0.0
  0
VERTEX
  5
3FE
  8
レイヤー_1
 62
     7
 10
188.106348
 20
139.78474900000001
 30
0.0
  0
VERTEX
  5
3FF
  8
レイヤー_1
 62
     7
 10
188.106348
 20
139.92220900000001
 30
0.0
  0
VERTEX
  5
400
  8
レイヤー_1
 62
     7
 10
188.17387199999999
 20
139.92220900000001
 30
0.0
  0
SEQEND
  5
401
  8
レイヤー_1
 62
     7
  0
LINE
  5
3FC
  8
レイヤー_1
 62
     7
 10
177.95709600000001
 20
114.616604
 30
0.0
 11
177.95709600000001
 21
114.684817
 31
0.0
  0
LINE
  5
3FB
  8
レイヤー_1
 62
     7
 10
177.95709600000001
 20
114.684817
 30
0.0
 11
178.09352200000001
 21
114.753719
 31
0.0
  0
LINE
  5
3FA
  8
レイヤー_1
 62
     7
 10
177.95709600000001
 20
114.616604
 30
0.0
 11
177.88681600000001
 21
114.616604
 31
0.0
  0
POLYLINE
  5
3F5
  8
レイヤー_1
 62
     7
 66
     1
 10
0.0
 20
0.0
 30
0.0
  0
VERTEX
  5
3F6
  8
レイヤー_1
 62
     7
 10
176.9972929999999
 20
113.657145
 30
0.0
  0
VERTEX
  5
3F7
  8
レイヤー_1
 62
     7
 10
176.9972929999999
 20
113.725358
 30
0.0
  0
VERTEX
  5
3F8
  8
レイヤー_1
 62
     7
 10
176.92770200000001
 20
113.725358
 30
0.0
  0
SEQEND
  5
3F9
  8
レイヤー_1
 62
     7
  0
LINE
  5
3F4
  8
レイヤー_1
 62
     7
 10
177.95709600000001
 20
114.684817
 30
0.0
 11
177.88681600000001
 21
114.684817
 31
0.0
  0
LINE
  5
3F3
  8
レイヤー_1
 62
     7
 10
177.95709600000001
 20
114.684817
 30
0.0
 11
177.95709600000001
 21
114.684817
 31
0.0
  0
LINE
  5
3F2
  8
レイヤー_1
 62
     7
 10
176.9972929999999
 20
113.657145
 30
0.0
 11
176.9972929999999
 21
113.725358
 31
0.0
  0
LINE
  5
3F1
  8
レイヤー_1
 62
     7
 10
179.12084999999999
 20
113.107308
 30
0.0
 11
179.12084999999999
 21
113.107308
 31
0.0
  0
LINE
  5
3F0
  8
レイヤー_1
 62
     7
 10
176.9972929999999
 20
113.725358
 30
0.0
 11
176.92770200000001
 21
113.725358
 31
0.0
  0
LINE
  5
3EF
  8
レイヤー_1
 62
     7
 10
32.497585999999998
 20
171.057604
 30
0.0
 11
191.398481
 21
127.85300599999999
 31
0.0
  0
POLYLINE
  5
3EA
  8
レイヤー_1
 62
     7
 66
     1
 10
0.0
 20
0.0
 30
0.0
  0
VERTEX
  5
3EB
  8
レイヤー_1
 62
     7
 10
191.33026799999999
 20
127.78341500000001
 30
0.0
  0
VERTEX
  5
3EC
  8
レイヤー_1
 62
     7
 10
191.398481
 20
127.78341500000001
 30
0.0
  0
VERTEX
  5
3ED
  8
レイヤー_1
 62
     7
 10
191.398481
 20
127.85300599999999
 30
0.0
  0
SEQEND
  5
3EE
  8
レイヤー_1
 62
     7
  0
LINE
  5
3E9
  8
レイヤー_1
 62
     7
 10
191.33026799999999
 20
127.78341500000001
 30
0.0
 11
32.497585999999998
 21
170.920489
 31
0.0
  0
LINE
  5
3E8
  8
レイヤー_1
 62
     7
 10
32.497585999999998
 20
170.920489
 30
0.0
 11
32.497585999999998
 21
171.057604
 31
0.0
  0
LINE
  5
3E7
  8
レイヤー_1
 62
     7
 10
32.497585999999998
 20
171.057604
 30
0.0
 11
32.497585999999998
 21
170.98939100000001
 31
0.0
  0
LINE
  5
3E6
  8
レイヤー_1
 62
     7
 10
32.497585999999998
 20
170.920489
 30
0.0
 11
32.497585999999998
 21
170.98939100000001
 31
0.0
  0
LINE
  5
3E5
  8
レイヤー_1
 62
     7
 10
32.497585999999998
 20
172.08665400000001
 30
0.0
 11
32.497585999999998
 21
171.057604
 31
0.0
  0
LINE
  5
3E4
  8
レイヤー_1
 62
     7
 10
33.389349000000003
 20
171.88098099999999
 30
0.0
 11
32.497585999999998
 21
172.08665400000001
 31
0.0
  0
LINE
  5
3E3
  8
レイヤー_1
 62
     7
 10
33.937635999999998
 20
171.743694
 30
0.0
 11
33.389349000000003
 21
171.88098099999999
 31
0.0
  0
LINE
  5
3E2
  8
レイヤー_1
 62
     7
 10
189.957742
 20
129.29236700000001
 30
0.0
 11
33.937635999999998
 21
171.743694
 31
0.0
  0
LINE
  5
3E1
  8
レイヤー_1
 62
     7
 10
190.506201
 20
129.15525199999999
 30
0.0
 11
189.957742
 21
129.29236700000001
 31
0.0
  0
LINE
  5
3E0
  8
レイヤー_1
 62
     7
 10
191.398481
 20
128.95061299999989
 30
0.0
 11
190.506201
 21
129.15525199999999
 31
0.0
  0
LINE
  5
3DF
  8
レイヤー_1
 62
     7
 10
191.398481
 20
127.85300599999999
 30
0.0
 11
191.398481
 21
128.95061299999989
 31
0.0
  0
LINE
  5
3DE
  8
レイヤー_1
 62
     7
 10
32.497585999999998
 20
172.08665400000001
 30
0.0
 11
32.429372999999998
 21
172.08665400000001
 31
0.0
  0
LINE
  5
3DD
  8
レイヤー_1
 62
     7
 10
32.497585999999998
 20
172.08665400000001
 30
0.0
 11
32.497585999999998
 21
170.98939100000001
 31
0.0
  0
LINE
  5
3DC
  8
レイヤー_1
 62
     7
 10
32.497585999999998
 20
170.920489
 30
0.0
 11
31.332626999999999
 21
169.82356999999999
 31
0.0
  0
LINE
  5
3DB
  8
レイヤー_1
 62
     7
 10
31.332626999999999
 20
169.82356999999999
 30
0.0
 11
31.332626999999999
 21
169.891783
 31
0.0
  0
LINE
  5
3DA
  8
レイヤー_1
 62
     7
 10
32.497585999999998
 20
170.98939100000001
 30
0.0
 11
32.429372999999998
 21
170.98939100000001
 31
0.0
  0
LINE
  5
3D9
  8
レイヤー_1
 62
     7
 10
31.469913999999999
 20
170.02924300000001
 30
0.0
 11
31.332626999999999
 21
169.891783
 31
0.0
  0
LINE
  5
3D8
  8
レイヤー_1
 62
     7
 10
190.23266100000001
 20
126.685807
 30
0.0
 11
191.33026799999999
 21
127.78341500000001
 31
0.0
  0
LINE
  5
3D7
  8
レイヤー_1
 62
     7
 10
31.332626999999999
 20
169.82356999999999
 30
0.0
 11
190.23266100000001
 21
126.685807
 31
0.0
  0
LINE
  5
3D6
  8
レイヤー_1
 62
     7
 10
33.389349000000003
 20
171.88098099999999
 30
0.0
 11
33.321136000000003
 21
171.88098099999999
 31
0.0
  0
LINE
  5
3D5
  8
レイヤー_1
 62
     7
 10
32.497585999999998
 20
172.08665400000001
 30
0.0
 11
32.497585999999998
 21
172.154867
 31
0.0
  0
LINE
  5
3D4
  8
レイヤー_1
 62
     7
 10
32.497585999999998
 20
172.154867
 30
0.0
 11
32.497585999999998
 21
172.08665400000001
 31
0.0
  0
LINE
  5
3D3
  8
レイヤー_1
 62
     7
 10
32.497585999999998
 20
172.08665400000001
 30
0.0
 11
32.429372999999998
 21
172.017752
 31
0.0
  0
LINE
  5
3D2
  8
レイヤー_1
 62
     7
 10
32.497585999999998
 20
172.154867
 30
0.0
 11
32.429372999999998
 21
172.08665400000001
 31
0.0
  0
LINE
  5
3D1
  8
レイヤー_1
 62
     7
 10
189.957742
 20
129.29236700000001
 30
0.0
 11
189.957742
 21
129.36161299999989
 31
0.0
  0
POLYLINE
  5
3CC
  8
レイヤー_1
 62
     7
 66
     1
 10
0.0
 20
0.0
 30
0.0
  0
VERTEX
  5
3CD
  8
レイヤー_1
 62
     7
 10
33.937635999999998
 20
171.743694
 30
0.0
  0
VERTEX
  5
3CE
  8
レイヤー_1
 62
     7
 10
33.869767000000003
 20
171.743694
 30
0.0
  0
VERTEX
  5
3CF
  8
レイヤー_1
 62
     7
 10
33.801209999999998
 20
171.743694
 30
0.0
  0
SEQEND
  5
3D0
  8
レイヤー_1
 62
     7
  0
LINE
  5
3CB
  8
レイヤー_1
 62
     7
 10
31.332626999999999
 20
169.891783
 30
0.0
 11
31.332626999999999
 21
169.82356999999999
 31
0.0
  0
LINE
  5
3CA
  8
レイヤー_1
 62
     7
 10
190.23266100000001
 20
126.685807
 30
0.0
 11
190.23266100000001
 21
126.685807
 31
0.0
  0
LINE
  5
3C9
  8
レイヤー_1
 62
     7
 10
31.332626999999999
 20
182.922168
 30
0.0
 11
31.332626999999999
 21
182.64845500000001
 31
0.0
  0
LINE
  5
3C8
  8
レイヤー_1
 62
     7
 10
31.332626999999999
 20
182.922168
 30
0.0
 11
31.332626999999999
 21
182.990725
 31
0.0
  0
LINE
  5
3C7
  8
レイヤー_1
 62
     7
 10
31.332626999999999
 20
182.990725
 30
0.0
 11
31.332626999999999
 21
182.64845500000001
 31
0.0
  0
LINE
  5
3C6
  8
レイヤー_1
 62
     7
 10
31.332626999999999
 20
169.960857
 30
0.0
 11
31.332626999999999
 21
169.891783
 31
0.0
  0
POLYLINE
  5
3C1
  8
レイヤー_1
 62
     7
 66
     1
 10
0.0
 20
0.0
 30
0.0
  0
VERTEX
  5
3C2
  8
レイヤー_1
 62
     7
 10
188.998627
 20
138.413601
 30
0.0
  0
VERTEX
  5
3C3
  8
レイヤー_1
 62
     7
 10
188.998627
 20
138.34538800000001
 30
0.0
  0
VERTEX
  5
3C4
  8
レイヤー_1
 62
     7
 10
188.93041400000001
 20
138.34538800000001
 30
0.0
  0
SEQEND
  5
3C5
  8
レイヤー_1
 62
     7
  0
LINE
  5
3C0
  8
レイヤー_1
 62
     7
 10
31.332626999999999
 20
182.990725
 30
0.0
 11
190.23266100000001
 21
139.78474900000001
 31
0.0
  0
LINE
  5
3BF
  8
レイヤー_1
 62
     7
 10
190.23266100000001
 20
139.78474900000001
 30
0.0
 11
190.23266100000001
 21
139.510175
 31
0.0
  0
LINE
  5
3BE
  8
レイヤー_1
 62
     7
 10
32.909790999999998
 20
174.486852
 30
0.0
 11
32.977488000000001
 21
174.555926
 31
0.0
  0
LINE
  5
3BD
  8
レイヤー_1
 62
     7
 10
32.909790999999998
 20
180.727642
 30
0.0
 11
32.977488000000001
 21
180.7962
 31
0.0
  0
POLYLINE
  5
3B8
  8
レイヤー_1
 62
     7
 66
     1
 10
0.0
 20
0.0
 30
0.0
  0
VERTEX
  5
3B9
  8
レイヤー_1
 62
     7
 10
188.998627
 20
132.172122
 30
0.0
  0
VERTEX
  5
3BA
  8
レイヤー_1
 62
     7
 10
188.998627
 20
132.10390899999999
 30
0.0
  0
VERTEX
  5
3BB
  8
レイヤー_1
 62
     7
 10
188.93041400000001
 20
132.035696
 30
0.0
  0
SEQEND
  5
3BC
  8
レイヤー_1
 62
     7
  0
LINE
  5
3B7
  8
レイヤー_1
 62
     7
 10
32.703946999999999
 20
174.761426
 30
0.0
 11
32.635905999999999
 21
174.761426
 31
0.0
  0
POLYLINE
  5
3B0
  8
レイヤー_1
 62
     7
 66
     1
 10
0.0
 20
0.0
 30
0.0
  0
VERTEX
  5
3B1
  8
レイヤー_1
 62
     7
 10
32.909790999999998
 20
174.486852
 30
0.0
  0
VERTEX
  5
3B2
  8
レイヤー_1
 62
     7
 10
32.909790999999998
 20
174.6241389999999
 30
0.0
  0
VERTEX
  5
3B3
  8
レイヤー_1
 62
     7
 10
32.841062000000001
 20
174.69321299999999
 30
0.0
  0
VERTEX
  5
3B4
  8
レイヤー_1
 62
     7
 10
32.772331999999999
 20
174.69321299999999
 30
0.0
  0
VERTEX
  5
3B5
  8
レイヤー_1
 62
     7
 10
32.703946999999999
 20
174.761426
 30
0.0
  0
SEQEND
  5
3B6
  8
レイヤー_1
 62
     7
  0
LINE
  5
3AF
  8
レイヤー_1
 62
     7
 10
32.703946999999999
 20
181.002216
 30
0.0
 11
32.635905999999999
 21
181.002216
 31
0.0
  0
POLYLINE
  5
3A9
  8
レイヤー_1
 62
     7
 66
     1
 10
0.0
 20
0.0
 30
0.0
  0
VERTEX
  5
3AA
  8
レイヤー_1
 62
     7
 10
32.909790999999998
 20
180.727642
 30
0.0
  0
VERTEX
  5
3AB
  8
レイヤー_1
 62
     7
 10
32.909790999999998
 20
180.86544599999991
 30
0.0
  0
VERTEX
  5
3AC
  8
レイヤー_1
 62
     7
 10
32.772331999999999
 20
181.002216
 30
0.0
  0
VERTEX
  5
3AD
  8
レイヤー_1
 62
     7
 10
32.703946999999999
 20
181.002216
 30
0.0
  0
SEQEND
  5
3AE
  8
レイヤー_1
 62
     7
  0
LINE
  5
3A8
  8
レイヤー_1
 62
     7
 10
31.332626999999999
 20
182.990725
 30
0.0
 11
31.332626999999999
 21
182.990725
 31
0.0
  0
LINE
  5
3A7
  8
レイヤー_1
 62
     7
 10
31.332626999999999
 20
182.922168
 30
0.0
 11
31.332626999999999
 21
182.990725
 31
0.0
  0
LINE
  5
3A6
  8
レイヤー_1
 62
     7
 10
190.23266100000001
 20
139.853996
 30
0.0
 11
190.23266100000001
 21
139.78474900000001
 31
0.0
  0
LINE
  5
3A5
  8
レイヤー_1
 62
     7
 10
19.193832999999991
 20
171.19489100000001
 30
0.0
 11
19.261528999999999
 21
171.26396500000001
 31
0.0
  0
LINE
  5
3A4
  8
レイヤー_1
 62
     7
 10
31.126954000000001
 20
182.85395500000001
 30
0.0
 11
31.332626999999999
 21
182.990725
 31
0.0
  0
LINE
  5
3A3
  8
レイヤー_1
 62
     7
 10
19.193832999999991
 20
171.126678
 30
0.0
 11
19.125102999999999
 21
171.126678
 31
0.0
  0
LINE
  5
3A2
  8
レイヤー_1
 62
     7
 10
31.126954000000001
 20
182.785742
 30
0.0
 11
31.332626999999999
 21
182.922168
 31
0.0
  0
LINE
  5
3A1
  8
レイヤー_1
 62
     7
 10
19.193832999999991
 20
171.126678
 30
0.0
 11
19.193832999999991
 21
171.19489100000001
 31
0.0
  0
LINE
  5
3A0
  8
レイヤー_1
 62
     7
 10
19.193832999999991
 20
171.126678
 30
0.0
 11
19.125102999999999
 21
171.126678
 31
0.0
  0
LINE
  5
39F
  8
レイヤー_1
 62
     7
 10
188.72370900000001
 20
138.34538800000001
 30
0.0
 11
188.93041400000001
 21
138.48250300000001
 31
0.0
  0
POLYLINE
  5
39A
  8
レイヤー_1
 62
     7
 66
     1
 10
0.0
 20
0.0
 30
0.0
  0
VERTEX
  5
39B
  8
レイヤー_1
 62
     7
 10
19.193832999999991
 20
158.027908
 30
0.0
  0
VERTEX
  5
39C
  8
レイヤー_1
 62
     7
 10
19.193832999999991
 20
157.959351
 30
0.0
  0
VERTEX
  5
39D
  8
レイヤー_1
 62
     7
 10
19.125102999999999
 20
157.959351
 30
0.0
  0
SEQEND
  5
39E
  8
レイヤー_1
 62
     7
  0
LINE
  5
399
  8
レイヤー_1
 62
     7
 10
19.125102999999999
 20
157.959351
 30
0.0
 11
178.02530899999999
 21
114.753719
 31
0.0
  0
POLYLINE
  5
393
  8
レイヤー_1
 62
     7
 66
     1
 10
0.0
 20
0.0
 30
0.0
  0
VERTEX
  5
394
  8
レイヤー_1
 62
     7
 10
178.09352200000001
 20
114.890145
 30
0.0
  0
VERTEX
  5
395
  8
レイヤー_1
 62
     7
 10
178.09352200000001
 20
114.822965
 30
0.0
  0
VERTEX
  5
396
  8
レイヤー_1
 62
     7
 10
178.02530899999999
 20
114.822965
 30
0.0
  0
VERTEX
  5
397
  8
レイヤー_1
 62
     7
 10
178.02530899999999
 20
114.753719
 30
0.0
  0
SEQEND
  5
398
  8
レイヤー_1
 62
     7
  0
LINE
  5
392
  8
レイヤー_1
 62
     7
 10
19.193832999999991
 20
171.126678
 30
0.0
 11
19.125102999999999
 21
171.057604
 31
0.0
  0
LINE
  5
391
  8
レイヤー_1
 62
     7
 10
19.193832999999991
 20
171.057604
 30
0.0
 11
19.193832999999991
 21
171.126678
 31
0.0
  0
LINE
  5
390
  8
レイヤー_1
 62
     7
 10
19.125102999999999
 20
170.920489
 30
0.0
 11
19.125102999999999
 21
171.057604
 31
0.0
  0
LINE
  5
38F
  8
レイヤー_1
 62
     7
 10
178.09352200000001
 20
114.890145
 30
0.0
 11
178.09352200000001
 21
115.097195
 31
0.0
  0
LINE
  5
38E
  8
レイヤー_1
 62
     7
 10
45.527970000000003
 20
151.16941199999999
 30
0.0
 11
45.527970000000003
 21
150.89518200000001
 31
0.0
  0
LINE
  5
38D
  8
レイヤー_1
 62
     7
 10
45.527970000000003
 20
150.89518200000001
 30
0.0
 11
48.546219000000001
 21
150.14174
 31
0.0
  0
LINE
  5
38C
  8
レイヤー_1
 62
     7
 10
48.546219000000001
 20
150.14174
 30
0.0
 11
48.546219000000001
 21
150.34655100000001
 31
0.0
  0
LINE
  5
38B
  8
レイヤー_1
 62
     7
 10
148.741309
 20
122.91549500000001
 30
0.0
 11
151.69031000000001
 21
122.092117
 31
0.0
  0
LINE
  5
38A
  8
レイヤー_1
 62
     7
 10
151.69031000000001
 20
122.092117
 30
0.0
 11
151.69031000000001
 21
122.297445
 31
0.0
  0
LINE
  5
389
  8
レイヤー_1
 62
     7
 10
148.741309
 20
123.120133
 30
0.0
 11
148.741309
 21
122.91549500000001
 31
0.0
  0
LINE
  5
388
  8
レイヤー_1
 62
     7
 10
18.027151
 20
156.862088
 30
0.0
 11
19.125102999999999
 21
157.959351
 31
0.0
  0
LINE
  5
387
  8
レイヤー_1
 62
     7
 10
18.988161000000002
 20
157.89044899999999
 30
0.0
 11
19.125102999999999
 21
157.959351
 31
0.0
  0
LINE
  5
386
  8
レイヤー_1
 62
     7
 10
178.02530899999999
 20
114.753719
 30
0.0
 11
176.92770200000001
 21
113.657145
 31
0.0
  0
LINE
  5
385
  8
レイヤー_1
 62
     7
 10
176.92770200000001
 20
113.657145
 30
0.0
 11
18.027151
 21
156.862088
 31
0.0
  0
LINE
  5
384
  8
レイヤー_1
 62
     7
 10
18.027151
 20
156.862088
 30
0.0
 11
17.958938
 21
156.862088
 31
0.0
  0
LINE
  5
383
  8
レイヤー_1
 62
     7
 10
176.92770200000001
 20
113.657145
 30
0.0
 11
176.92770200000001
 21
113.657145
 31
0.0
  0
LINE
  5
382
  8
レイヤー_1
 62
     7
 10
17.958938
 20
156.930645
 30
0.0
 11
17.958938
 21
156.862088
 31
0.0
  0
LINE
  5
381
  8
レイヤー_1
 62
     7
 10
45.527970000000003
 20
151.03195299999999
 30
0.0
 11
46.487774000000002
 21
150.82628
 31
0.0
  0
LINE
  5
380
  8
レイヤー_1
 62
     7
 10
47.447404999999989
 20
150.55205100000001
 30
0.0
 11
47.585380999999991
 21
150.48383799999999
 31
0.0
  0
LINE
  5
37F
  8
レイヤー_1
 62
     7
 10
47.653249999999993
 20
150.48383799999999
 30
0.0
 11
48.546219000000001
 21
150.27851000000001
 31
0.0
  0
LINE
  5
37E
  8
レイヤー_1
 62
     7
 10
148.741309
 20
123.05192099999999
 30
0.0
 11
149.63358799999989
 21
122.77734599999999
 31
0.0
  0
LINE
  5
37D
  8
レイヤー_1
 62
     7
 10
150.662983
 20
122.503117
 30
0.0
 11
150.729129
 21
122.434904
 31
0.0
  0
LINE
  5
37C
  8
レイヤー_1
 62
     7
 10
150.79734199999999
 20
122.434904
 30
0.0
 11
151.69031000000001
 21
122.229232
 31
0.0
  0
LINE
  5
37B
  8
レイヤー_1
 62
     7
 10
45.527970000000003
 20
151.10154399999999
 30
0.0
 11
46.487774000000002
 21
150.89518200000001
 31
0.0
  0
LINE
  5
37A
  8
レイヤー_1
 62
     7
 10
47.517169000000003
 20
150.621297
 30
0.0
 11
47.585380999999991
 21
150.55205100000001
 31
0.0
  0
LINE
  5
379
  8
レイヤー_1
 62
     7
 10
47.79157
 20
150.48383799999999
 30
0.0
 11
48.546219000000001
 21
150.34655100000001
 31
0.0
  0
LINE
  5
378
  8
レイヤー_1
 62
     7
 10
148.741309
 20
123.120133
 30
0.0
 11
149.63358799999989
 21
122.846248
 31
0.0
  0
LINE
  5
377
  8
レイヤー_1
 62
     7
 10
150.662983
 20
122.571674
 30
0.0
 11
150.729129
 21
122.503117
 31
0.0
  0
LINE
  5
376
  8
レイヤー_1
 62
     7
 10
150.935834
 20
122.503117
 30
0.0
 11
151.69031000000001
 21
122.297445
 31
0.0
  0
POLYLINE
  5
370
  8
レイヤー_1
 62
     7
 66
     1
 10
0.0
 20
0.0
 30
0.0
  0
VERTEX
  5
371
  8
レイヤー_1
 62
     7
 10
19.125102999999999
 20
171.057604
 30
0.0
  0
VERTEX
  5
372
  8
レイヤー_1
 62
     7
 10
19.125102999999999
 20
171.126678
 30
0.0
  0
VERTEX
  5
373
  8
レイヤー_1
 62
     7
 10
19.193832999999991
 20
171.126678
 30
0.0
  0
VERTEX
  5
374
  8
レイヤー_1
 62
     7
 10
19.193832999999991
 20
171.19489100000001
 30
0.0
  0
SEQEND
  5
375
  8
レイヤー_1
 62
     7
  0
LINE
  5
36F
  8
レイヤー_1
 62
     7
 10
48.546219000000001
 20
150.34655100000001
 30
0.0
 11
48.477316999999999
 21
150.34655100000001
 31
0.0
  0
LINE
  5
36E
  8
レイヤー_1
 62
     7
 10
48.546219000000001
 20
150.14174
 30
0.0
 11
48.546219000000001
 21
150.34655100000001
 31
0.0
  0
POLYLINE
  5
369
  8
レイヤー_1
 62
     7
 66
     1
 10
0.0
 20
0.0
 30
0.0
  0
VERTEX
  5
36A
  8
レイヤー_1
 62
     7
 10
190.506201
 20
129.15525199999999
 30
0.0
  0
VERTEX
  5
36B
  8
レイヤー_1
 62
     7
 10
190.506201
 20
129.223465
 30
0.0
  0
VERTEX
  5
36C
  8
レイヤー_1
 62
     7
 10
190.506201
 20
129.15525199999999
 30
0.0
  0
SEQEND
  5
36D
  8
レイヤー_1
 62
     7
  0
LINE
  5
368
  8
レイヤー_1
 62
     7
 10
191.398481
 20
128.95061299999989
 30
0.0
 11
191.398481
 21
128.95061299999989
 31
0.0
  0
LINE
  5
367
  8
レイヤー_1
 62
     7
 10
190.506201
 20
129.15525199999999
 30
0.0
 11
190.43798799999999
 21
129.15525199999999
 31
0.0
  0
POLYLINE
  5
360
  8
レイヤー_1
 62
     7
 66
     1
 10
0.0
 20
0.0
 30
0.0
  0
VERTEX
  5
361
  8
レイヤー_1
 62
     7
 10
188.791922
 20
132.37848299999999
 30
0.0
  0
VERTEX
  5
362
  8
レイヤー_1
 62
     7
 10
188.86013500000001
 20
132.31027
 30
0.0
  0
VERTEX
  5
363
  8
レイヤー_1
 62
     7
 10
188.86013500000001
 20
132.24205699999999
 30
0.0
  0
VERTEX
  5
364
  8
レイヤー_1
 62
     7
 10
188.93041400000001
 20
132.172122
 30
0.0
  0
VERTEX
  5
365
  8
レイヤー_1
 62
     7
 10
188.93041400000001
 20
132.035696
 30
0.0
  0
SEQEND
  5
366
  8
レイヤー_1
 62
     7
  0
LINE
  5
35F
  8
レイヤー_1
 62
     7
 10
188.65411800000001
 20
132.37848299999999
 30
0.0
 11
188.791922
 21
132.37848299999999
 31
0.0
  0
POLYLINE
  5
358
  8
レイヤー_1
 62
     7
 66
     1
 10
0.0
 20
0.0
 30
0.0
  0
VERTEX
  5
359
  8
レイヤー_1
 62
     7
 10
188.791922
 20
138.61996300000001
 30
0.0
  0
VERTEX
  5
35A
  8
レイヤー_1
 62
     7
 10
188.86013500000001
 20
138.550027
 30
0.0
  0
VERTEX
  5
35B
  8
レイヤー_1
 62
     7
 10
188.86013500000001
 20
138.48250300000001
 30
0.0
  0
VERTEX
  5
35C
  8
レイヤー_1
 62
     7
 10
188.93041400000001
 20
138.413601
 30
0.0
  0
VERTEX
  5
35D
  8
レイヤー_1
 62
     7
 10
188.93041400000001
 20
138.277176
 30
0.0
  0
SEQEND
  5
35E
  8
レイヤー_1
 62
     7
  0
LINE
  5
357
  8
レイヤー_1
 62
     7
 10
188.65411800000001
 20
138.61996300000001
 30
0.0
 11
188.791922
 21
138.61996300000001
 31
0.0
  0
LINE
  5
356
  8
レイヤー_1
 62
     7
 10
151.69031000000001
 20
122.297445
 30
0.0
 11
151.622097
 21
122.297445
 31
0.0
  0
LINE
  5
355
  8
レイヤー_1
 62
     7
 10
151.69031000000001
 20
122.092117
 30
0.0
 11
151.69031000000001
 21
122.297445
 31
0.0
  0
LINE
  5
354
  8
レイヤー_1
 62
     7
 10
57.119166
 20
162.62263200000001
 30
0.0
 11
57.049919999999993
 21
162.62263200000001
 31
0.0
  0
LINE
  5
353
  8
レイヤー_1
 62
     7
 10
163.82875999999999
 20
133.61389399999999
 30
0.0
 11
163.82875999999999
 21
133.818533
 31
0.0
  0
LINE
  5
352
  8
レイヤー_1
 62
     7
 10
160.26239699999999
 20
134.77833699999999
 30
0.0
 11
160.26239699999999
 21
134.57369800000001
 31
0.0
  0
LINE
  5
351
  8
レイヤー_1
 62
     7
 10
60.683806999999987
 20
161.66248400000001
 30
0.0
 11
60.683806999999987
 21
161.86832799999999
 31
0.0
  0
LINE
  5
350
  8
レイヤー_1
 62
     7
 10
57.119166
 20
162.82864900000001
 30
0.0
 11
57.119166
 21
162.62263200000001
 31
0.0
  0
LINE
  5
34F
  8
レイヤー_1
 62
     7
 10
60.683806999999987
 20
161.66248400000001
 30
0.0
 11
60.616627000000001
 21
161.66248400000001
 31
0.0
  0
LINE
  5
34E
  8
レイヤー_1
 62
     7
 10
60.683806999999987
 20
161.66248400000001
 30
0.0
 11
60.683806999999987
 21
161.86832799999999
 31
0.0
  0
LINE
  5
34D
  8
レイヤー_1
 62
     7
 10
160.26239699999999
 20
134.57369800000001
 30
0.0
 11
160.19418400000001
 21
134.57369800000001
 31
0.0
  0
LINE
  5
34C
  8
レイヤー_1
 62
     7
 10
163.82875999999999
 20
133.61389399999999
 30
0.0
 11
163.760547
 21
133.61389399999999
 31
0.0
  0
LINE
  5
34B
  8
レイヤー_1
 62
     7
 10
163.82875999999999
 20
133.61389399999999
 30
0.0
 11
163.82875999999999
 21
133.818533
 31
0.0
  0
LINE
  5
34A
  8
レイヤー_1
 62
     7
 10
31.537782
 20
169.54968500000001
 30
0.0
 11
33.252406000000001
 21
169.13799599999999
 31
0.0
  0
LINE
  5
349
  8
レイヤー_1
 62
     7
 10
33.252406000000001
 20
169.13799599999999
 30
0.0
 11
33.184193
 21
168.86342200000001
 31
0.0
  0
LINE
  5
348
  8
レイヤー_1
 62
     7
 10
33.184193
 20
168.86342200000001
 30
0.0
 11
31.469913999999999
 21
169.34366900000001
 31
0.0
  0
LINE
  5
347
  8
レイヤー_1
 62
     7
 10
31.469913999999999
 20
169.34366900000001
 30
0.0
 11
31.401356
 21
169.34366900000001
 31
0.0
  0
LINE
  5
346
  8
レイヤー_1
 62
     7
 10
31.537782
 20
169.54968500000001
 30
0.0
 11
31.469913999999999
 21
169.34366900000001
 31
0.0
  0
LINE
  5
345
  8
レイヤー_1
 62
     7
 10
31.537782
 20
169.54968500000001
 30
0.0
 11
31.469913999999999
 21
169.54968500000001
 31
0.0
  0
POLYLINE
  5
340
  8
レイヤー_1
 62
     7
 66
     1
 10
0.0
 20
0.0
 30
0.0
  0
VERTEX
  5
341
  8
レイヤー_1
 62
     7
 10
31.469913999999999
 20
169.34366900000001
 30
0.0
  0
VERTEX
  5
342
  8
レイヤー_1
 62
     7
 10
31.401356
 20
169.34366900000001
 30
0.0
  0
VERTEX
  5
343
  8
レイヤー_1
 62
     7
 10
31.401356
 20
169.41205400000001
 30
0.0
  0
SEQEND
  5
344
  8
レイヤー_1
 62
     7
  0
LINE
  5
33F
  8
レイヤー_1
 62
     7
 10
31.401356
 20
169.41205400000001
 30
0.0
 11
31.469913999999999
 21
169.54968500000001
 31
0.0
  0
LINE
  5
33E
  8
レイヤー_1
 62
     7
 10
31.537782
 20
169.54968500000001
 30
0.0
 11
31.469913999999999
 21
169.54968500000001
 31
0.0
  0
LINE
  5
33D
  8
レイヤー_1
 62
     7
 10
31.332626999999999
 20
169.54968500000001
 30
0.0
 11
19.741603000000001
 21
158.23426900000001
 31
0.0
  0
LINE
  5
33C
  8
レイヤー_1
 62
     7
 10
19.741603000000001
 20
157.959351
 30
0.0
 11
31.401356
 21
169.41205400000001
 31
0.0
  0
LINE
  5
33B
  8
レイヤー_1
 62
     7
 10
19.673562
 20
158.027908
 30
0.0
 11
19.741603000000001
 21
157.959351
 31
0.0
  0
LINE
  5
33A
  8
レイヤー_1
 62
     7
 10
33.252406000000001
 20
169.13799599999999
 30
0.0
 11
33.252406000000001
 21
169.34366900000001
 31
0.0
  0
LINE
  5
339
  8
レイヤー_1
 62
     7
 10
21.388013999999998
 20
157.41089099999999
 30
0.0
 11
33.184193
 21
168.86342200000001
 31
0.0
  0
LINE
  5
338
  8
レイヤー_1
 62
     7
 10
19.741603000000001
 20
157.959351
 30
0.0
 11
21.388013999999998
 21
157.41089099999999
 31
0.0
  0
LINE
  5
337
  8
レイヤー_1
 62
     7
 10
31.469913999999999
 20
169.34366900000001
 30
0.0
 11
19.741603000000001
 21
157.959351
 31
0.0
  0
LINE
  5
336
  8
レイヤー_1
 62
     7
 10
19.741603000000001
 20
157.959351
 30
0.0
 11
19.673562
 21
157.959351
 31
0.0
  0
LINE
  5
335
  8
レイヤー_1
 62
     7
 10
19.741603000000001
 20
157.959351
 30
0.0
 11
19.741603000000001
 21
157.959351
 31
0.0
  0
LINE
  5
334
  8
レイヤー_1
 62
     7
 10
31.332626999999999
 20
169.54968500000001
 30
0.0
 11
31.332626999999999
 21
169.54968500000001
 31
0.0
  0
LINE
  5
333
  8
レイヤー_1
 62
     7
 10
19.810849000000001
 20
158.23426900000001
 30
0.0
 11
19.741603000000001
 21
158.23426900000001
 31
0.0
  0
LINE
  5
332
  8
レイヤー_1
 62
     7
 10
19.810849000000001
 20
158.6452689999999
 30
0.0
 11
19.810849000000001
 21
158.301793
 31
0.0
  0
LINE
  5
331
  8
レイヤー_1
 62
     7
 10
19.673562
 20
158.027908
 30
0.0
 11
19.673562
 21
158.027908
 31
0.0
  0
LINE
  5
330
  8
レイヤー_1
 62
     7
 10
189.61323200000001
 20
126.343709
 30
0.0
 11
187.969233
 21
126.823611
 31
0.0
  0
LINE
  5
32F
  8
レイヤー_1
 62
     7
 10
187.969233
 20
126.823611
 30
0.0
 11
188.03744599999999
 21
127.02893899999999
 31
0.0
  0
LINE
  5
32E
  8
レイヤー_1
 62
     7
 10
188.03744599999999
 20
127.02893899999999
 30
0.0
 11
189.75172499999999
 21
126.54938199999999
 31
0.0
  0
LINE
  5
32D
  8
レイヤー_1
 62
     7
 10
189.75172499999999
 20
126.54938199999999
 30
0.0
 11
189.68351200000001
 21
126.54938199999999
 31
0.0
  0
LINE
  5
32C
  8
レイヤー_1
 62
     7
 10
189.61323200000001
 20
126.343709
 30
0.0
 11
189.75172499999999
 21
126.54938199999999
 31
0.0
  0
LINE
  5
32B
  8
レイヤー_1
 62
     7
 10
189.61323200000001
 20
126.343709
 30
0.0
 11
189.54501999999999
 21
126.343709
 31
0.0
  0
POLYLINE
  5
326
  8
レイヤー_1
 62
     7
 66
     1
 10
0.0
 20
0.0
 30
0.0
  0
VERTEX
  5
327
  8
レイヤー_1
 62
     7
 10
176.242817
 20
115.644621
 30
0.0
  0
VERTEX
  5
328
  8
レイヤー_1
 62
     7
 10
176.242817
 20
115.576408
 30
0.0
  0
VERTEX
  5
329
  8
レイヤー_1
 62
     7
 10
176.242817
 20
115.576408
 30
0.0
  0
SEQEND
  5
32A
  8
レイヤー_1
 62
     7
  0
LINE
  5
325
  8
レイヤー_1
 62
     7
 10
176.242817
 20
115.576408
 30
0.0
 11
187.89895300000001
 21
126.961759
 31
0.0
  0
POLYLINE
  5
320
  8
レイヤー_1
 62
     7
 66
     1
 10
0.0
 20
0.0
 30
0.0
  0
VERTEX
  5
321
  8
レイヤー_1
 62
     7
 10
187.969233
 20
127.02893899999999
 30
0.0
  0
VERTEX
  5
322
  8
レイヤー_1
 62
     7
 10
187.969233
 20
126.961759
 30
0.0
  0
VERTEX
  5
323
  8
レイヤー_1
 62
     7
 10
187.89895300000001
 20
126.961759
 30
0.0
  0
SEQEND
  5
324
  8
レイヤー_1
 62
     7
  0
LINE
  5
31F
  8
レイヤー_1
 62
     7
 10
187.969233
 20
127.02893899999999
 30
0.0
 11
187.969233
 21
127.304202
 31
0.0
  0
LINE
  5
31E
  8
レイヤー_1
 62
     7
 10
188.03744599999999
 20
127.235989
 30
0.0
 11
188.03744599999999
 21
127.02893899999999
 31
0.0
  0
LINE
  5
31D
  8
レイヤー_1
 62
     7
 10
187.969233
 20
126.823611
 30
0.0
 11
176.242817
 21
115.371769
 31
0.0
  0
LINE
  5
31C
  8
レイヤー_1
 62
     7
 10
176.17253700000001
 20
115.439982
 30
0.0
 11
176.242817
 21
115.371769
 31
0.0
  0
LINE
  5
31B
  8
レイヤー_1
 62
     7
 10
176.17253700000001
 20
115.439982
 30
0.0
 11
176.17253700000001
 21
115.644621
 31
0.0
  0
LINE
  5
31A
  8
レイヤー_1
 62
     7
 10
177.95709600000001
 20
114.959391
 30
0.0
 11
189.61323200000001
 21
126.343709
 31
0.0
  0
LINE
  5
319
  8
レイヤー_1
 62
     7
 10
176.242817
 20
115.371769
 30
0.0
 11
177.95709600000001
 21
114.959391
 31
0.0
  0
LINE
  5
318
  8
レイヤー_1
 62
     7
 10
189.61323200000001
 20
126.343709
 30
0.0
 11
189.68351200000001
 21
126.343709
 31
0.0
  0
LINE
  5
317
  8
レイヤー_1
 62
     7
 10
189.75172499999999
 20
126.54938199999999
 30
0.0
 11
189.75172499999999
 21
126.54938199999999
 31
0.0
  0
LINE
  5
316
  8
レイヤー_1
 62
     7
 10
177.95709600000001
 20
114.959391
 30
0.0
 11
177.88681600000001
 21
114.959391
 31
0.0
  0
LINE
  5
315
  8
レイヤー_1
 62
     7
 10
177.95709600000001
 20
114.959391
 30
0.0
 11
177.95709600000001
 21
114.959391
 31
0.0
  0
LINE
  5
314
  8
レイヤー_1
 62
     7
 10
62.535890000000002
 20
161.114025
 30
0.0
 11
55.335296
 21
163.102361
 31
0.0
  0
LINE
  5
313
  8
レイヤー_1
 62
     7
 10
158.547428
 20
135.05428900000001
 30
0.0
 11
62.535890000000002
 21
161.114025
 31
0.0
  0
LINE
  5
312
  8
レイヤー_1
 62
     7
 10
165.68015399999999
 20
133.06405699999999
 30
0.0
 11
158.547428
 21
135.05428900000001
 31
0.0
  0
LINE
  5
311
  8
レイヤー_1
 62
     7
 10
55.335296
 20
163.102361
 30
0.0
 11
55.335296
 21
163.30855
 31
0.0
  0
LINE
  5
310
  8
レイヤー_1
 62
     7
 10
62.46819399999999
 20
161.114025
 30
0.0
 11
62.46819399999999
 21
161.38791000000001
 31
0.0
  0
LINE
  5
30F
  8
レイヤー_1
 62
     7
 10
62.535890000000002
 20
161.38791000000001
 30
0.0
 11
62.535890000000002
 21
161.114025
 31
0.0
  0
LINE
  5
30E
  8
レイヤー_1
 62
     7
 10
158.547428
 20
135.05428900000001
 30
0.0
 11
158.547428
 21
135.258927
 31
0.0
  0
POLYLINE
  5
306
  8
レイヤー_1
 62
     7
 66
     1
 10
0.0
 20
0.0
 30
0.0
  0
VERTEX
  5
307
  8
レイヤー_1
 62
     7
 10
47.79157
 20
151.10154399999999
 30
0.0
  0
VERTEX
  5
308
  8
レイヤー_1
 62
     7
 10
47.653249999999993
 20
151.16941199999999
 30
0.0
  0
VERTEX
  5
309
  8
レイヤー_1
 62
     7
 10
47.517169000000003
 20
151.10154399999999
 30
0.0
  0
VERTEX
  5
30A
  8
レイヤー_1
 62
     7
 10
47.379708999999998
 20
151.10154399999999
 30
0.0
  0
VERTEX
  5
30B
  8
レイヤー_1
 62
     7
 10
47.242766999999994
 20
150.9635669999999
 30
0.0
  0
VERTEX
  5
30C
  8
レイヤー_1
 62
     7
 10
47.242766999999994
 20
150.89518200000001
 30
0.0
  0
SEQEND
  5
30D
  8
レイヤー_1
 62
     7
  0
POLYLINE
  5
300
  8
レイヤー_1
 62
     7
 66
     1
 10
0.0
 20
0.0
 30
0.0
  0
VERTEX
  5
301
  8
レイヤー_1
 62
     7
 10
47.927824000000001
 20
150.89518200000001
 30
0.0
  0
VERTEX
  5
302
  8
レイヤー_1
 62
     7
 10
47.927824000000001
 20
151.03195299999999
 30
0.0
  0
VERTEX
  5
303
  8
レイヤー_1
 62
     7
 10
47.859783
 20
151.10154399999999
 30
0.0
  0
VERTEX
  5
304
  8
レイヤー_1
 62
     7
 10
47.79157
 20
151.10154399999999
 30
0.0
  0
SEQEND
  5
305
  8
レイヤー_1
 62
     7
  0
POLYLINE
  5
2F3
  8
レイヤー_1
 62
     7
 66
     1
 10
0.0
 20
0.0
 30
0.0
  0
VERTEX
  5
2F4
  8
レイヤー_1
 62
     7
 10
151.07294899999999
 20
122.846248
 30
0.0
  0
VERTEX
  5
2F5
  8
レイヤー_1
 62
     7
 10
151.14116200000001
 20
122.91549500000001
 30
0.0
  0
VERTEX
  5
2F6
  8
レイヤー_1
 62
     7
 10
151.07294899999999
 20
122.982674
 30
0.0
  0
VERTEX
  5
2F7
  8
レイヤー_1
 62
     7
 10
151.07294899999999
 20
123.05192099999999
 30
0.0
  0
VERTEX
  5
2F8
  8
レイヤー_1
 62
     7
 10
150.935834
 20
123.05192099999999
 30
0.0
  0
VERTEX
  5
2F9
  8
レイヤー_1
 62
     7
 10
150.79734199999999
 20
123.120133
 30
0.0
  0
VERTEX
  5
2FA
  8
レイヤー_1
 62
     7
 10
150.662983
 20
123.120133
 30
0.0
  0
VERTEX
  5
2FB
  8
レイヤー_1
 62
     7
 10
150.52448999999999
 20
123.05192099999999
 30
0.0
  0
VERTEX
  5
2FC
  8
レイヤー_1
 62
     7
 10
150.38806400000001
 20
122.91549500000001
 30
0.0
  0
VERTEX
  5
2FD
  8
レイヤー_1
 62
     7
 10
150.38806400000001
 20
122.846248
 30
0.0
  0
VERTEX
  5
2FE
  8
レイヤー_1
 62
     7
 10
150.45489900000001
 20
122.846248
 30
0.0
  0
SEQEND
  5
2FF
  8
レイヤー_1
 62
     7
  0
LINE
  5
2F2
  8
レイヤー_1
 62
     7
 10
47.242766999999994
 20
150.9635669999999
 30
0.0
 11
47.242766999999994
 21
150.9635669999999
 31
0.0
  0
LINE
  5
2F1
  8
レイヤー_1
 62
     7
 10
47.927824000000001
 20
150.9635669999999
 30
0.0
 11
47.859783
 21
150.9635669999999
 31
0.0
  0
LINE
  5
2F0
  8
レイヤー_1
 62
     7
 10
165.68015399999999
 20
133.33863099999999
 30
0.0
 11
165.68015399999999
 21
133.06405699999999
 31
0.0
  0
LINE
  5
2EF
  8
レイヤー_1
 62
     7
 10
165.611941
 20
133.13330300000001
 30
0.0
 11
165.611941
 21
133.33863099999999
 31
0.0
  0
LINE
  5
2EE
  8
レイヤー_1
 62
     7
 10
151.07294899999999
 20
122.91549500000001
 30
0.0
 11
151.14116200000001
 21
122.982674
 31
0.0
  0
POLYLINE
  5
2E9
  8
レイヤー_1
 62
     7
 66
     1
 10
0.0
 20
0.0
 30
0.0
  0
VERTEX
  5
2EA
  8
レイヤー_1
 62
     7
 10
150.38806400000001
 20
122.982674
 30
0.0
  0
VERTEX
  5
2EB
  8
レイヤー_1
 62
     7
 10
150.38806400000001
 20
122.91549500000001
 30
0.0
  0
VERTEX
  5
2EC
  8
レイヤー_1
 62
     7
 10
150.45489900000001
 20
122.91549500000001
 30
0.0
  0
SEQEND
  5
2ED
  8
レイヤー_1
 62
     7
  0
LINE
  5
2E8
  8
レイヤー_1
 62
     7
 10
150.52448999999999
 20
122.434904
 30
0.0
 11
150.729129
 21
122.571674
 31
0.0
  0
LINE
  5
2E7
  8
レイヤー_1
 62
     7
 10
149.70180099999999
 20
122.639543
 30
0.0
 11
149.63358799999989
 21
122.639543
 31
0.0
  0
LINE
  5
2E6
  8
レイヤー_1
 62
     7
 10
150.52448999999999
 20
122.364969
 30
0.0
 11
150.52448999999999
 21
122.434904
 31
0.0
  0
LINE
  5
2E5
  8
レイヤー_1
 62
     7
 10
149.83822699999999
 20
122.77734599999999
 30
0.0
 11
149.70180099999999
 21
122.639543
 31
0.0
  0
LINE
  5
2E4
  8
レイヤー_1
 62
     7
 10
149.70180099999999
 20
122.846248
 30
0.0
 11
149.63358799999989
 21
122.77734599999999
 31
0.0
  0
LINE
  5
2E3
  8
レイヤー_1
 62
     7
 10
47.379708999999998
 20
150.48383799999999
 30
0.0
 11
47.517169000000003
 21
150.621297
 31
0.0
  0
LINE
  5
2E2
  8
レイヤー_1
 62
     7
 10
46.557536999999989
 20
150.689166
 30
0.0
 11
46.487774000000002
 21
150.689166
 31
0.0
  0
LINE
  5
2E1
  8
レイヤー_1
 62
     7
 10
47.379708999999998
 20
150.41476399999999
 30
0.0
 11
47.379708999999998
 21
150.48383799999999
 31
0.0
  0
LINE
  5
2E0
  8
レイヤー_1
 62
     7
 10
46.693446000000002
 20
150.82628
 30
0.0
 11
46.557536999999989
 21
150.689166
 31
0.0
  0
LINE
  5
2DF
  8
レイヤー_1
 62
     7
 10
46.487774000000002
 20
150.89518200000001
 30
0.0
 11
46.487774000000002
 21
150.758757
 31
0.0
  0
POLYLINE
  5
2D7
  8
レイヤー_1
 62
     7
 66
     1
 10
0.0
 20
0.0
 30
0.0
  0
VERTEX
  5
2D8
  8
レイヤー_1
 62
     7
 10
47.379708999999998
 20
150.55205100000001
 30
0.0
  0
VERTEX
  5
2D9
  8
レイヤー_1
 62
     7
 10
47.312013
 20
150.55205100000001
 30
0.0
  0
VERTEX
  5
2DA
  8
レイヤー_1
 62
     7
 10
47.312013
 20
150.758757
 30
0.0
  0
VERTEX
  5
2DB
  8
レイヤー_1
 62
     7
 10
47.379708999999998
 20
150.758757
 30
0.0
  0
VERTEX
  5
2DC
  8
レイヤー_1
 62
     7
 10
47.447404999999989
 20
150.82628
 30
0.0
  0
VERTEX
  5
2DD
  8
レイヤー_1
 62
     7
 10
47.653249999999993
 20
150.82628
 30
0.0
  0
SEQEND
  5
2DE
  8
レイヤー_1
 62
     7
  0
LINE
  5
2D6
  8
レイヤー_1
 62
     7
 10
47.447404999999989
 20
150.621297
 30
0.0
 11
47.585380999999991
 21
150.621297
 31
0.0
  0
LINE
  5
2D5
  8
レイヤー_1
 62
     7
 10
47.585380999999991
 20
150.621297
 30
0.0
 11
47.585380999999991
 21
150.48383799999999
 31
0.0
  0
POLYLINE
  5
2CE
  8
レイヤー_1
 62
     7
 66
     1
 10
0.0
 20
0.0
 30
0.0
  0
VERTEX
  5
2CF
  8
レイヤー_1
 62
     7
 10
47.859783
 20
150.758757
 30
0.0
  0
VERTEX
  5
2D0
  8
レイヤー_1
 62
     7
 10
47.927824000000001
 20
150.689166
 30
0.0
  0
VERTEX
  5
2D1
  8
レイヤー_1
 62
     7
 10
47.927824000000001
 20
150.621297
 30
0.0
  0
VERTEX
  5
2D2
  8
レイヤー_1
 62
     7
 10
47.79157
 20
150.48383799999999
 30
0.0
  0
VERTEX
  5
2D3
  8
レイヤー_1
 62
     7
 10
47.585380999999991
 20
150.48383799999999
 30
0.0
  0
SEQEND
  5
2D4
  8
レイヤー_1
 62
     7
  0
POLYLINE
  5
2C8
  8
レイヤー_1
 62
     7
 66
     1
 10
0.0
 20
0.0
 30
0.0
  0
VERTEX
  5
2C9
  8
レイヤー_1
 62
     7
 10
47.859783
 20
150.758757
 30
0.0
  0
VERTEX
  5
2CA
  8
レイヤー_1
 62
     7
 10
47.859783
 20
150.89518200000001
 30
0.0
  0
VERTEX
  5
2CB
  8
レイヤー_1
 62
     7
 10
47.79157
 20
150.9635669999999
 30
0.0
  0
VERTEX
  5
2CC
  8
レイヤー_1
 62
     7
 10
47.653249999999993
 20
150.9635669999999
 30
0.0
  0
SEQEND
  5
2CD
  8
レイヤー_1
 62
     7
  0
LINE
  5
2C7
  8
レイヤー_1
 62
     7
 10
47.653249999999993
 20
150.9635669999999
 30
0.0
 11
47.653249999999993
 21
150.82628
 31
0.0
  0
LINE
  5
2C6
  8
レイヤー_1
 62
     7
 10
47.653249999999993
 20
150.82628
 30
0.0
 11
47.379708999999998
 21
150.55205100000001
 31
0.0
  0
LINE
  5
2C5
  8
レイヤー_1
 62
     7
 10
47.927824000000001
 20
150.9635669999999
 30
0.0
 11
47.859783
 21
150.9635669999999
 31
0.0
  0
LINE
  5
2C4
  8
レイヤー_1
 62
     7
 10
47.242766999999994
 20
150.9635669999999
 30
0.0
 11
47.173003000000001
 21
150.9635669999999
 31
0.0
  0
LINE
  5
2C3
  8
レイヤー_1
 62
     7
 10
47.859783
 20
150.89518200000001
 30
0.0
 11
47.585380999999991
 21
150.621297
 31
0.0
  0
LINE
  5
2C2
  8
レイヤー_1
 62
     7
 10
47.585380999999991
 20
150.48383799999999
 30
0.0
 11
47.859783
 21
150.758757
 31
0.0
  0
POLYLINE
  5
2BA
  8
レイヤー_1
 62
     7
 66
     1
 10
0.0
 20
0.0
 30
0.0
  0
VERTEX
  5
2BB
  8
レイヤー_1
 62
     7
 10
150.52448999999999
 20
122.503117
 30
0.0
  0
VERTEX
  5
2BC
  8
レイヤー_1
 62
     7
 10
150.45489900000001
 20
122.571674
 30
0.0
  0
VERTEX
  5
2BD
  8
レイヤー_1
 62
     7
 10
150.45489900000001
 20
122.70913400000001
 30
0.0
  0
VERTEX
  5
2BE
  8
レイヤー_1
 62
     7
 10
150.52448999999999
 20
122.70913400000001
 30
0.0
  0
VERTEX
  5
2BF
  8
レイヤー_1
 62
     7
 10
150.592703
 20
122.77734599999999
 30
0.0
  0
VERTEX
  5
2C0
  8
レイヤー_1
 62
     7
 10
150.79734199999999
 20
122.77734599999999
 30
0.0
  0
SEQEND
  5
2C1
  8
レイヤー_1
 62
     7
  0
POLYLINE
  5
2B4
  8
レイヤー_1
 62
     7
 66
     1
 10
0.0
 20
0.0
 30
0.0
  0
VERTEX
  5
2B5
  8
レイヤー_1
 62
     7
 10
150.592703
 20
122.639543
 30
0.0
  0
VERTEX
  5
2B6
  8
レイヤー_1
 62
     7
 10
150.662983
 20
122.639543
 30
0.0
  0
VERTEX
  5
2B7
  8
レイヤー_1
 62
     7
 10
150.662983
 20
122.571674
 30
0.0
  0
VERTEX
  5
2B8
  8
レイヤー_1
 62
     7
 10
150.729129
 20
122.571674
 30
0.0
  0
SEQEND
  5
2B9
  8
レイヤー_1
 62
     7
  0
LINE
  5
2B3
  8
レイヤー_1
 62
     7
 10
150.729129
 20
122.571674
 30
0.0
 11
150.729129
 21
122.434904
 31
0.0
  0
POLYLINE
  5
2AB
  8
レイヤー_1
 62
     7
 66
     1
 10
0.0
 20
0.0
 30
0.0
  0
VERTEX
  5
2AC
  8
レイヤー_1
 62
     7
 10
151.00404700000001
 20
122.70913400000001
 30
0.0
  0
VERTEX
  5
2AD
  8
レイヤー_1
 62
     7
 10
151.07294899999999
 20
122.70913400000001
 30
0.0
  0
VERTEX
  5
2AE
  8
レイヤー_1
 62
     7
 10
151.07294899999999
 20
122.503117
 30
0.0
  0
VERTEX
  5
2AF
  8
レイヤー_1
 62
     7
 10
151.00404700000001
 20
122.503117
 30
0.0
  0
VERTEX
  5
2B0
  8
レイヤー_1
 62
     7
 10
150.935834
 20
122.434904
 30
0.0
  0
VERTEX
  5
2B1
  8
レイヤー_1
 62
     7
 10
150.729129
 20
122.434904
 30
0.0
  0
SEQEND
  5
2B2
  8
レイヤー_1
 62
     7
  0
POLYLINE
  5
2A5
  8
レイヤー_1
 62
     7
 66
     1
 10
0.0
 20
0.0
 30
0.0
  0
VERTEX
  5
2A6
  8
レイヤー_1
 62
     7
 10
151.00404700000001
 20
122.70913400000001
 30
0.0
  0
VERTEX
  5
2A7
  8
レイヤー_1
 62
     7
 10
151.00404700000001
 20
122.846248
 30
0.0
  0
VERTEX
  5
2A8
  8
レイヤー_1
 62
     7
 10
151.00404700000001
 20
122.91549500000001
 30
0.0
  0
VERTEX
  5
2A9
  8
レイヤー_1
 62
     7
 10
150.79734199999999
 20
122.91549500000001
 30
0.0
  0
SEQEND
  5
2AA
  8
レイヤー_1
 62
     7
  0
LINE
  5
2A4
  8
レイヤー_1
 62
     7
 10
150.79734199999999
 20
122.91549500000001
 30
0.0
 11
150.79734199999999
 21
122.77734599999999
 31
0.0
  0
LINE
  5
2A3
  8
レイヤー_1
 62
     7
 10
150.79734199999999
 20
122.77734599999999
 30
0.0
 11
150.52448999999999
 21
122.503117
 31
0.0
  0
LINE
  5
2A2
  8
レイヤー_1
 62
     7
 10
151.14116200000001
 20
122.91549500000001
 30
0.0
 11
151.07294899999999
 21
122.91549500000001
 31
0.0
  0
LINE
  5
2A1
  8
レイヤー_1
 62
     7
 10
150.45489900000001
 20
122.91549500000001
 30
0.0
 11
150.38806400000001
 21
122.91549500000001
 31
0.0
  0
LINE
  5
2A0
  8
レイヤー_1
 62
     7
 10
151.00404700000001
 20
122.846248
 30
0.0
 11
150.729129
 21
122.571674
 31
0.0
  0
LINE
  5
29F
  8
レイヤー_1
 62
     7
 10
150.729129
 20
122.434904
 30
0.0
 11
151.00404700000001
 21
122.70913400000001
 31
0.0
  0
LINE
  5
29E
  8
レイヤー_1
 62
     7
 10
129.40192099999999
 20
141.842849
 30
0.0
 11
129.333708
 21
141.842849
 31
0.0
  0
LINE
  5
29D
  8
レイヤー_1
 62
     7
 10
129.333708
 20
141.842849
 30
0.0
 11
129.12631300000001
 21
141.979275
 31
0.0
  0
POLYLINE
  5
298
  8
レイヤー_1
 62
     7
 66
     1
 10
0.0
 20
0.0
 30
0.0
  0
VERTEX
  5
299
  8
レイヤー_1
 62
     7
 10
129.12631300000001
 20
141.979275
 30
0.0
  0
VERTEX
  5
29A
  8
レイヤー_1
 62
     7
 10
129.19521499999999
 20
142.04921100000001
 30
0.0
  0
VERTEX
  5
29B
  8
レイヤー_1
 62
     7
 10
129.40192099999999
 20
142.04921100000001
 30
0.0
  0
SEQEND
  5
29C
  8
レイヤー_1
 62
     7
  0
LINE
  5
297
  8
レイヤー_1
 62
     7
 10
148.192849
 20
136.76787899999999
 30
0.0
 11
129.40192099999999
 21
141.842849
 31
0.0
  0
LINE
  5
296
  8
レイヤー_1
 62
     7
 10
129.333708
 20
141.842849
 30
0.0
 11
119.390473
 21
132.172122
 31
0.0
  0
LINE
  5
295
  8
レイヤー_1
 62
     7
 10
119.390473
 20
132.172122
 30
0.0
 11
119.183767
 21
132.31027
 31
0.0
  0
LINE
  5
294
  8
レイヤー_1
 62
     7
 10
119.183767
 20
132.31027
 30
0.0
 11
129.12631300000001
 21
141.979275
 31
0.0
  0
LINE
  5
293
  8
レイヤー_1
 62
     7
 10
147.98683299999999
 20
136.69897700000001
 30
0.0
 11
147.98683299999999
 21
136.630764
 31
0.0
  0
LINE
  5
292
  8
レイヤー_1
 62
     7
 10
147.98683299999999
 20
136.69897700000001
 30
0.0
 11
129.470133
 21
141.706424
 31
0.0
  0
LINE
  5
291
  8
レイヤー_1
 62
     7
 10
129.40192099999999
 20
141.706424
 30
0.0
 11
129.470133
 21
141.706424
 31
0.0
  0
LINE
  5
290
  8
レイヤー_1
 62
     7
 10
129.40192099999999
 20
141.706424
 30
0.0
 11
119.595112
 21
132.172122
 31
0.0
  0
LINE
  5
28F
  8
レイヤー_1
 62
     7
 10
119.595112
 20
132.172122
 30
0.0
 11
119.595112
 21
132.172122
 31
0.0
  0
POLYLINE
  5
289
  8
レイヤー_1
 62
     7
 66
     1
 10
0.0
 20
0.0
 30
0.0
  0
VERTEX
  5
28A
  8
レイヤー_1
 62
     7
 10
148.192849
 20
136.69897700000001
 30
0.0
  0
VERTEX
  5
28B
  8
レイヤー_1
 62
     7
 10
148.26106200000001
 20
136.69897700000001
 30
0.0
  0
VERTEX
  5
28C
  8
レイヤー_1
 62
     7
 10
148.192849
 20
136.69897700000001
 30
0.0
  0
VERTEX
  5
28D
  8
レイヤー_1
 62
     7
 10
148.192849
 20
136.76787899999999
 30
0.0
  0
SEQEND
  5
28E
  8
レイヤー_1
 62
     7
  0
LINE
  5
288
  8
レイヤー_1
 62
     7
 10
138.31645
 20
127.02893899999999
 30
0.0
 11
148.192849
 21
136.69897700000001
 31
0.0
  0
POLYLINE
  5
283
  8
レイヤー_1
 62
     7
 66
     1
 10
0.0
 20
0.0
 30
0.0
  0
VERTEX
  5
284
  8
レイヤー_1
 62
     7
 10
138.180024
 20
126.961759
 30
0.0
  0
VERTEX
  5
285
  8
レイヤー_1
 62
     7
 10
138.24892600000001
 20
126.961759
 30
0.0
  0
VERTEX
  5
286
  8
レイヤー_1
 62
     7
 10
138.31645
 20
127.02893899999999
 30
0.0
  0
SEQEND
  5
287
  8
レイヤー_1
 62
     7
  0
LINE
  5
282
  8
レイヤー_1
 62
     7
 10
119.456619
 20
132.10390899999999
 30
0.0
 11
138.180024
 21
126.961759
 31
0.0
  0
POLYLINE
  5
27D
  8
レイヤー_1
 62
     7
 66
     1
 10
0.0
 20
0.0
 30
0.0
  0
VERTEX
  5
27E
  8
レイヤー_1
 62
     7
 10
119.390473
 20
132.172122
 30
0.0
  0
VERTEX
  5
27F
  8
レイヤー_1
 62
     7
 10
119.390473
 20
132.10390899999999
 30
0.0
  0
VERTEX
  5
280
  8
レイヤー_1
 62
     7
 10
119.456619
 20
132.10390899999999
 30
0.0
  0
SEQEND
  5
281
  8
レイヤー_1
 62
     7
  0
POLYLINE
  5
277
  8
レイヤー_1
 62
     7
 66
     1
 10
0.0
 20
0.0
 30
0.0
  0
VERTEX
  5
278
  8
レイヤー_1
 62
     7
 10
129.40192099999999
 20
141.706424
 30
0.0
  0
VERTEX
  5
279
  8
レイヤー_1
 62
     7
 10
129.40192099999999
 20
141.636833
 30
0.0
  0
VERTEX
  5
27A
  8
レイヤー_1
 62
     7
 10
129.470133
 20
141.636833
 30
0.0
  0
VERTEX
  5
27B
  8
レイヤー_1
 62
     7
 10
129.470133
 20
141.706424
 30
0.0
  0
SEQEND
  5
27C
  8
レイヤー_1
 62
     7
  0
LINE
  5
276
  8
レイヤー_1
 62
     7
 10
129.470133
 20
141.636833
 30
0.0
 11
147.91862
 21
136.56255200000001
 31
0.0
  0
POLYLINE
  5
270
  8
レイヤー_1
 62
     7
 66
     1
 10
0.0
 20
0.0
 30
0.0
  0
VERTEX
  5
271
  8
レイヤー_1
 62
     7
 10
147.91862
 20
136.56255200000001
 30
0.0
  0
VERTEX
  5
272
  8
レイヤー_1
 62
     7
 10
147.91862
 20
136.630764
 30
0.0
  0
VERTEX
  5
273
  8
レイヤー_1
 62
     7
 10
147.98683299999999
 20
136.630764
 30
0.0
  0
VERTEX
  5
274
  8
レイヤー_1
 62
     7
 10
147.98683299999999
 20
136.69897700000001
 30
0.0
  0
SEQEND
  5
275
  8
レイヤー_1
 62
     7
  0
LINE
  5
26F
  8
レイヤー_1
 62
     7
 10
119.66401399999999
 20
132.10390899999999
 30
0.0
 11
129.470133
 21
141.636833
 31
0.0
  0
POLYLINE
  5
26A
  8
レイヤー_1
 62
     7
 66
     1
 10
0.0
 20
0.0
 30
0.0
  0
VERTEX
  5
26B
  8
レイヤー_1
 62
     7
 10
119.595112
 20
132.172122
 30
0.0
  0
VERTEX
  5
26C
  8
レイヤー_1
 62
     7
 10
119.66401399999999
 20
132.172122
 30
0.0
  0
VERTEX
  5
26D
  8
レイヤー_1
 62
     7
 10
119.66401399999999
 20
132.10390899999999
 30
0.0
  0
SEQEND
  5
26E
  8
レイヤー_1
 62
     7
  0
LINE
  5
269
  8
レイヤー_1
 62
     7
 10
147.85040699999999
 20
136.56255200000001
 30
0.0
 11
147.91862
 21
136.56255200000001
 31
0.0
  0
LINE
  5
268
  8
レイヤー_1
 62
     7
 10
129.470133
 20
141.56862000000001
 30
0.0
 11
129.470133
 21
141.636833
 31
0.0
  0
LINE
  5
267
  8
レイヤー_1
 62
     7
 10
119.66401399999999
 20
132.10390899999999
 30
0.0
 11
119.800439
 21
132.10390899999999
 31
0.0
  0
LINE
  5
266
  8
レイヤー_1
 62
     7
 10
138.11181099999999
 20
127.166398
 30
0.0
 11
147.78012699999999
 21
136.630764
 31
0.0
  0
LINE
  5
265
  8
レイヤー_1
 62
     7
 10
119.800439
 20
132.172122
 30
0.0
 11
138.11181099999999
 21
127.166398
 31
0.0
  0
POLYLINE
  5
25F
  8
レイヤー_1
 62
     7
 66
     1
 10
0.0
 20
0.0
 30
0.0
  0
VERTEX
  5
260
  8
レイヤー_1
 62
     7
 10
148.39748800000001
 20
136.905339
 30
0.0
  0
VERTEX
  5
261
  8
レイヤー_1
 62
     7
 10
148.39748800000001
 20
136.83609199999989
 30
0.0
  0
VERTEX
  5
262
  8
レイヤー_1
 62
     7
 10
148.46776800000001
 20
136.83609199999989
 30
0.0
  0
VERTEX
  5
263
  8
レイヤー_1
 62
     7
 10
148.39748800000001
 20
136.76787899999999
 30
0.0
  0
SEQEND
  5
264
  8
レイヤー_1
 62
     7
  0
LINE
  5
25E
  8
レイヤー_1
 62
     7
 10
148.39748800000001
 20
136.76787899999999
 30
0.0
 11
148.192849
 21
136.69897700000001
 31
0.0
  0
LINE
  5
25D
  8
レイヤー_1
 62
     7
 10
138.180024
 20
127.098185
 30
0.0
 11
147.91862
 21
136.56255200000001
 31
0.0
  0
POLYLINE
  5
258
  8
レイヤー_1
 62
     7
 66
     1
 10
0.0
 20
0.0
 30
0.0
  0
VERTEX
  5
259
  8
レイヤー_1
 62
     7
 10
138.180024
 20
127.098185
 30
0.0
  0
VERTEX
  5
25A
  8
レイヤー_1
 62
     7
 10
138.180024
 20
127.166398
 30
0.0
  0
VERTEX
  5
25B
  8
レイヤー_1
 62
     7
 10
138.11181099999999
 20
127.166398
 30
0.0
  0
SEQEND
  5
25C
  8
レイヤー_1
 62
     7
  0
LINE
  5
257
  8
レイヤー_1
 62
     7
 10
148.39748800000001
 20
136.76787899999999
 30
0.0
 11
138.523844
 21
127.098185
 31
0.0
  0
LINE
  5
256
  8
レイヤー_1
 62
     7
 10
138.523844
 20
127.098185
 30
0.0
 11
138.31645
 21
127.02893899999999
 31
0.0
  0
LINE
  5
255
  8
レイヤー_1
 62
     7
 10
138.180024
 20
127.098185
 30
0.0
 11
119.66401399999999
 21
132.10390899999999
 31
0.0
  0
POLYLINE
  5
24E
  8
レイヤー_1
 62
     7
 66
     1
 10
0.0
 20
0.0
 30
0.0
  0
VERTEX
  5
24F
  8
レイヤー_1
 62
     7
 10
119.456619
 20
132.10390899999999
 30
0.0
  0
VERTEX
  5
250
  8
レイヤー_1
 62
     7
 10
119.320193
 20
132.10390899999999
 30
0.0
  0
VERTEX
  5
251
  8
レイヤー_1
 62
     7
 10
119.25198
 20
132.172122
 30
0.0
  0
VERTEX
  5
252
  8
レイヤー_1
 62
     7
 10
119.183767
 20
132.172122
 30
0.0
  0
VERTEX
  5
253
  8
レイヤー_1
 62
     7
 10
119.183767
 20
132.31027
 30
0.0
  0
SEQEND
  5
254
  8
レイヤー_1
 62
     7
  0
LINE
  5
24D
  8
レイヤー_1
 62
     7
 10
138.11181099999999
 20
127.02893899999999
 30
0.0
 11
138.180024
 21
126.961759
 31
0.0
  0
LINE
  5
24C
  8
レイヤー_1
 62
     7
 10
138.11181099999999
 20
127.02893899999999
 30
0.0
 11
119.320193
 21
132.10390899999999
 31
0.0
  0
POLYLINE
  5
247
  8
レイヤー_1
 62
     7
 66
     1
 10
0.0
 20
0.0
 30
0.0
  0
VERTEX
  5
248
  8
レイヤー_1
 62
     7
 10
138.523844
 20
127.098185
 30
0.0
  0
VERTEX
  5
249
  8
レイヤー_1
 62
     7
 10
138.453564
 20
127.02893899999999
 30
0.0
  0
VERTEX
  5
24A
  8
レイヤー_1
 62
     7
 10
138.38535200000001
 20
127.02893899999999
 30
0.0
  0
SEQEND
  5
24B
  8
レイヤー_1
 62
     7
  0
LINE
  5
246
  8
レイヤー_1
 62
     7
 10
138.11181099999999
 20
127.02893899999999
 30
0.0
 11
138.043598
 21
127.02893899999999
 31
0.0
  0
LINE
  5
245
  8
レイヤー_1
 62
     7
 10
51.082841999999992
 20
163.102361
 30
0.0
 11
32.429372999999998
 21
168.17784800000001
 31
0.0
  0
POLYLINE
  5
240
  8
レイヤー_1
 62
     7
 66
     1
 10
0.0
 20
0.0
 30
0.0
  0
VERTEX
  5
241
  8
レイヤー_1
 62
     7
 10
50.87717
 20
163.102361
 30
0.0
  0
VERTEX
  5
242
  8
レイヤー_1
 62
     7
 10
50.946071999999987
 20
163.102361
 30
0.0
  0
VERTEX
  5
243
  8
レイヤー_1
 62
     7
 10
50.946071999999987
 20
163.03414799999999
 30
0.0
  0
SEQEND
  5
244
  8
レイヤー_1
 62
     7
  0
LINE
  5
23F
  8
レイヤー_1
 62
     7
 10
50.87717
 20
163.102361
 30
0.0
 11
32.429372999999998
 21
168.10860199999999
 31
0.0
  0
LINE
  5
23E
  8
レイヤー_1
 62
     7
 10
32.361159999999998
 20
168.10860199999999
 30
0.0
 11
32.429372999999998
 21
168.10860199999999
 31
0.0
  0
POLYLINE
  5
239
  8
レイヤー_1
 62
     7
 66
     1
 10
0.0
 20
0.0
 30
0.0
  0
VERTEX
  5
23A
  8
レイヤー_1
 62
     7
 10
51.151571999999987
 20
163.03414799999999
 30
0.0
  0
VERTEX
  5
23B
  8
レイヤー_1
 62
     7
 10
51.151571999999987
 20
163.102361
 30
0.0
  0
VERTEX
  5
23C
  8
レイヤー_1
 62
     7
 10
51.082841999999992
 20
163.102361
 30
0.0
  0
SEQEND
  5
23D
  8
レイヤー_1
 62
     7
  0
LINE
  5
238
  8
レイヤー_1
 62
     7
 10
41.27672299999999
 20
153.36342099999999
 30
0.0
 11
51.151571999999987
 21
163.03414799999999
 31
0.0
  0
LINE
  5
237
  8
レイヤー_1
 62
     7
 10
41.139263
 20
153.36342099999999
 30
0.0
 11
41.27672299999999
 21
153.36342099999999
 31
0.0
  0
LINE
  5
236
  8
レイヤー_1
 62
     7
 10
22.485105000000001
 20
158.43907999999999
 30
0.0
 11
41.139263
 21
153.36342099999999
 31
0.0
  0
POLYLINE
  5
230
  8
レイヤー_1
 62
     7
 66
     1
 10
0.0
 20
0.0
 30
0.0
  0
VERTEX
  5
231
  8
レイヤー_1
 62
     7
 10
32.361159999999998
 20
167.97183200000001
 30
0.0
  0
VERTEX
  5
232
  8
レイヤー_1
 62
     7
 10
32.361159999999998
 20
168.040389
 30
0.0
  0
VERTEX
  5
233
  8
レイヤー_1
 62
     7
 10
32.429372999999998
 20
168.040389
 30
0.0
  0
VERTEX
  5
234
  8
レイヤー_1
 62
     7
 10
32.429372999999998
 20
168.10860199999999
 30
0.0
  0
SEQEND
  5
235
  8
レイヤー_1
 62
     7
  0
LINE
  5
22F
  8
レイヤー_1
 62
     7
 10
32.361159999999998
 20
167.97183200000001
 30
0.0
 11
50.87717
 21
162.96507399999999
 31
0.0
  0
LINE
  5
22E
  8
レイヤー_1
 62
     7
 10
50.87717
 20
162.96507399999999
 30
0.0
 11
50.87717
 21
163.102361
 31
0.0
  0
LINE
  5
22D
  8
レイヤー_1
 62
     7
 10
22.622564000000001
 20
158.50815399999999
 30
0.0
 11
32.361159999999998
 21
167.97183200000001
 31
0.0
  0
LINE
  5
22C
  8
レイヤー_1
 62
     7
 10
50.809474000000002
 20
162.96507399999999
 30
0.0
 11
50.87717
 21
162.96507399999999
 31
0.0
  0
LINE
  5
22B
  8
レイヤー_1
 62
     7
 10
32.429372999999998
 20
167.97183200000001
 30
0.0
 11
32.361159999999998
 21
167.97183200000001
 31
0.0
  0
LINE
  5
22A
  8
レイヤー_1
 62
     7
 10
22.622564000000001
 20
158.50815399999999
 30
0.0
 11
22.690432000000001
 21
158.50815399999999
 31
0.0
  0
LINE
  5
229
  8
レイヤー_1
 62
     7
 10
41.070017
 20
153.569954
 30
0.0
 11
50.740228000000002
 21
162.96507399999999
 31
0.0
  0
LINE
  5
228
  8
レイヤー_1
 62
     7
 10
22.760023
 20
158.576367
 30
0.0
 11
41.070017
 21
153.569954
 31
0.0
  0
POLYLINE
  5
223
  8
レイヤー_1
 62
     7
 66
     1
 10
0.0
 20
0.0
 30
0.0
  0
VERTEX
  5
224
  8
レイヤー_1
 62
     7
 10
51.289031000000001
 20
163.30855
 30
0.0
  0
VERTEX
  5
225
  8
レイヤー_1
 62
     7
 10
51.357244000000001
 20
163.24033700000001
 30
0.0
  0
VERTEX
  5
226
  8
レイヤー_1
 62
     7
 10
51.357244000000001
 20
163.102361
 30
0.0
  0
SEQEND
  5
227
  8
レイヤー_1
 62
     7
  0
LINE
  5
222
  8
レイヤー_1
 62
     7
 10
51.357244000000001
 20
163.102361
 30
0.0
 11
51.151571999999987
 21
163.03414799999999
 31
0.0
  0
LINE
  5
221
  8
レイヤー_1
 62
     7
 10
41.139263
 20
153.43284
 30
0.0
 11
50.87717
 21
162.96507399999999
 31
0.0
  0
POLYLINE
  5
21C
  8
レイヤー_1
 62
     7
 66
     1
 10
0.0
 20
0.0
 30
0.0
  0
VERTEX
  5
21D
  8
レイヤー_1
 62
     7
 10
41.139263
 20
153.43284
 30
0.0
  0
VERTEX
  5
21E
  8
レイヤー_1
 62
     7
 10
41.070017
 20
153.501397
 30
0.0
  0
VERTEX
  5
21F
  8
レイヤー_1
 62
     7
 10
41.070017
 20
153.569954
 30
0.0
  0
SEQEND
  5
220
  8
レイヤー_1
 62
     7
  0
LINE
  5
21B
  8
レイヤー_1
 62
     7
 10
51.357244000000001
 20
163.102361
 30
0.0
 11
41.413665000000002
 21
153.43284
 31
0.0
  0
LINE
  5
21A
  8
レイヤー_1
 62
     7
 10
41.413665000000002
 20
153.43284
 30
0.0
 11
41.27672299999999
 21
153.36342099999999
 31
0.0
  0
LINE
  5
219
  8
レイヤー_1
 62
     7
 10
41.139263
 20
153.43284
 30
0.0
 11
22.622564000000001
 21
158.50815399999999
 31
0.0
  0
LINE
  5
218
  8
レイヤー_1
 62
     7
 10
41.070017
 20
153.43284
 30
0.0
 11
41.139263
 21
153.36342099999999
 31
0.0
  0
LINE
  5
217
  8
レイヤー_1
 62
     7
 10
41.070017
 20
153.43284
 30
0.0
 11
22.417408999999999
 21
158.43907999999999
 31
0.0
  0
POLYLINE
  5
212
  8
レイヤー_1
 62
     7
 66
     1
 10
0.0
 20
0.0
 30
0.0
  0
VERTEX
  5
213
  8
レイヤー_1
 62
     7
 10
41.413665000000002
 20
153.43284
 30
0.0
  0
VERTEX
  5
214
  8
レイヤー_1
 62
     7
 10
41.344935
 20
153.43284
 30
0.0
  0
VERTEX
  5
215
  8
レイヤー_1
 62
     7
 10
41.27672299999999
 20
153.36342099999999
 30
0.0
  0
SEQEND
  5
216
  8
レイヤー_1
 62
     7
  0
LINE
  5
211
  8
レイヤー_1
 62
     7
 10
41.070017
 20
153.36342099999999
 30
0.0
 11
41.070017
 21
153.43284
 31
0.0
  0
POLYLINE
  5
20C
  8
レイヤー_1
 62
     7
 66
     1
 10
0.0
 20
0.0
 30
0.0
  0
VERTEX
  5
20D
  8
レイヤー_1
 62
     7
 10
71.176190000000005
 20
157.68546499999999
 30
0.0
  0
VERTEX
  5
20E
  8
レイヤー_1
 62
     7
 10
71.109009999999998
 20
157.68546499999999
 30
0.0
  0
VERTEX
  5
20F
  8
レイヤー_1
 62
     7
 10
71.040796999999984
 20
157.616219
 30
0.0
  0
SEQEND
  5
210
  8
レイヤー_1
 62
     7
  0
LINE
  5
20B
  8
レイヤー_1
 62
     7
 10
71.040796999999984
 20
157.616219
 30
0.0
 11
70.902821000000003
 21
157.82206400000001
 31
0.0
  0
POLYLINE
  5
206
  8
レイヤー_1
 62
     7
 66
     1
 10
0.0
 20
0.0
 30
0.0
  0
VERTEX
  5
207
  8
レイヤー_1
 62
     7
 10
70.902821000000003
 20
157.82206400000001
 30
0.0
  0
VERTEX
  5
208
  8
レイヤー_1
 62
     7
 10
70.971034000000003
 20
157.89044899999999
 30
0.0
  0
VERTEX
  5
209
  8
レイヤー_1
 62
     7
 10
71.109009999999998
 20
157.89044899999999
 30
0.0
  0
SEQEND
  5
20A
  8
レイヤー_1
 62
     7
  0
LINE
  5
205
  8
レイヤー_1
 62
     7
 10
89.968323999999996
 20
152.54159300000001
 30
0.0
 11
71.176190000000005
 21
157.68546499999999
 31
0.0
  0
LINE
  5
204
  8
レイヤー_1
 62
     7
 10
71.040796999999984
 20
157.616219
 30
0.0
 11
61.163881000000003
 21
147.946697
 31
0.0
  0
LINE
  5
203
  8
レイヤー_1
 62
     7
 10
61.163881000000003
 20
147.946697
 30
0.0
 11
60.958208999999989
 21
148.152197
 31
0.0
  0
LINE
  5
202
  8
レイヤー_1
 62
     7
 10
60.958208999999989
 20
148.152197
 30
0.0
 11
70.902821000000003
 21
157.82206400000001
 31
0.0
  0
POLYLINE
  5
1FD
  8
レイヤー_1
 62
     7
 66
     1
 10
0.0
 20
0.0
 30
0.0
  0
VERTEX
  5
1FE
  8
レイヤー_1
 62
     7
 10
89.694438999999988
 20
152.54159300000001
 30
0.0
  0
VERTEX
  5
1FF
  8
レイヤー_1
 62
     7
 10
89.762135000000001
 20
152.54159300000001
 30
0.0
  0
VERTEX
  5
200
  8
レイヤー_1
 62
     7
 10
89.762135000000001
 20
152.472692
 30
0.0
  0
SEQEND
  5
201
  8
レイヤー_1
 62
     7
  0
LINE
  5
1FC
  8
レイヤー_1
 62
     7
 10
89.694438999999988
 20
152.54159300000001
 30
0.0
 11
71.245435999999984
 21
157.54800599999999
 31
0.0
  0
LINE
  5
1FB
  8
レイヤー_1
 62
     7
 10
71.109009999999998
 20
157.54800599999999
 30
0.0
 11
71.245435999999984
 21
157.54800599999999
 31
0.0
  0
LINE
  5
1FA
  8
レイヤー_1
 62
     7
 10
71.109009999999998
 20
157.54800599999999
 30
0.0
 11
61.370069999999998
 21
148.01490999999999
 31
0.0
  0
LINE
  5
1F9
  8
レイヤー_1
 62
     7
 10
61.370069999999998
 20
148.01490999999999
 30
0.0
 11
61.370069999999998
 21
148.01490999999999
 31
0.0
  0
LINE
  5
1F8
  8
レイヤー_1
 62
     7
 10
89.968323999999996
 20
152.472692
 30
0.0
 11
89.968323999999996
 21
152.54159300000001
 31
0.0
  0
LINE
  5
1F7
  8
レイヤー_1
 62
     7
 10
80.092957999999996
 20
142.87086600000001
 30
0.0
 11
89.968323999999996
 21
152.472692
 31
0.0
  0
POLYLINE
  5
1F2
  8
レイヤー_1
 62
     7
 66
     1
 10
0.0
 20
0.0
 30
0.0
  0
VERTEX
  5
1F3
  8
レイヤー_1
 62
     7
 10
79.955499000000003
 20
142.802998
 30
0.0
  0
VERTEX
  5
1F4
  8
レイヤー_1
 62
     7
 10
80.092957999999996
 20
142.802998
 30
0.0
  0
VERTEX
  5
1F5
  8
レイヤー_1
 62
     7
 10
80.092957999999996
 20
142.87086600000001
 30
0.0
  0
SEQEND
  5
1F6
  8
レイヤー_1
 62
     7
  0
LINE
  5
1F1
  8
レイヤー_1
 62
     7
 10
61.163881000000003
 20
147.946697
 30
0.0
 11
79.955499000000003
 21
142.802998
 31
0.0
  0
LINE
  5
1F0
  8
レイヤー_1
 62
     7
 10
61.163881000000003
 20
147.946697
 30
0.0
 11
61.163881000000003
 21
147.946697
 31
0.0
  0
POLYLINE
  5
1EA
  8
レイヤー_1
 62
     7
 66
     1
 10
0.0
 20
0.0
 30
0.0
  0
VERTEX
  5
1EB
  8
レイヤー_1
 62
     7
 10
71.109009999999998
 20
157.54800599999999
 30
0.0
  0
VERTEX
  5
1EC
  8
レイヤー_1
 62
     7
 10
71.109009999999998
 20
157.47910400000001
 30
0.0
  0
VERTEX
  5
1ED
  8
レイヤー_1
 62
     7
 10
71.176190000000005
 20
157.47910400000001
 30
0.0
  0
VERTEX
  5
1EE
  8
レイヤー_1
 62
     7
 10
71.176190000000005
 20
157.41089099999999
 30
0.0
  0
SEQEND
  5
1EF
  8
レイヤー_1
 62
     7
  0
POLYLINE
  5
1E5
  8
レイヤー_1
 62
     7
 66
     1
 10
0.0
 20
0.0
 30
0.0
  0
VERTEX
  5
1E6
  8
レイヤー_1
 62
     7
 10
71.176190000000005
 20
157.41089099999999
 30
0.0
  0
VERTEX
  5
1E7
  8
レイヤー_1
 62
     7
 10
71.245435999999984
 20
157.47910400000001
 30
0.0
  0
VERTEX
  5
1E8
  8
レイヤー_1
 62
     7
 10
71.245435999999984
 20
157.54800599999999
 30
0.0
  0
SEQEND
  5
1E9
  8
レイヤー_1
 62
     7
  0
LINE
  5
1E4
  8
レイヤー_1
 62
     7
 10
71.176190000000005
 20
157.41089099999999
 30
0.0
 11
89.694438999999988
 21
152.40378999999999
 31
0.0
  0
LINE
  5
1E3
  8
レイヤー_1
 62
     7
 10
89.694438999999988
 20
152.40378999999999
 30
0.0
 11
89.694438999999988
 21
152.54159300000001
 31
0.0
  0
LINE
  5
1E2
  8
レイヤー_1
 62
     7
 10
61.438282999999998
 20
147.946697
 30
0.0
 11
71.176190000000005
 21
157.41089099999999
 31
0.0
  0
POLYLINE
  5
1DD
  8
レイヤー_1
 62
     7
 66
     1
 10
0.0
 20
0.0
 30
0.0
  0
VERTEX
  5
1DE
  8
レイヤー_1
 62
     7
 10
61.370069999999998
 20
148.01490999999999
 30
0.0
  0
VERTEX
  5
1DF
  8
レイヤー_1
 62
     7
 10
61.370069999999998
 20
147.946697
 30
0.0
  0
VERTEX
  5
1E0
  8
レイヤー_1
 62
     7
 10
61.438282999999998
 20
147.946697
 30
0.0
  0
SEQEND
  5
1E1
  8
レイヤー_1
 62
     7
  0
LINE
  5
1DC
  8
レイヤー_1
 62
     7
 10
89.625709000000015
 20
152.40378999999999
 30
0.0
 11
89.694438999999988
 21
152.40378999999999
 31
0.0
  0
LINE
  5
1DB
  8
レイヤー_1
 62
     7
 10
71.245435999999984
 20
157.41089099999999
 30
0.0
 11
71.176190000000005
 21
157.41089099999999
 31
0.0
  0
LINE
  5
1DA
  8
レイヤー_1
 62
     7
 10
61.438282999999998
 20
147.946697
 30
0.0
 11
61.508045999999993
 21
147.946697
 31
0.0
  0
LINE
  5
1D9
  8
レイヤー_1
 62
     7
 10
79.887286000000003
 20
143.00867
 30
0.0
 11
89.555945999999992
 21
152.472692
 31
0.0
  0
LINE
  5
1D8
  8
レイヤー_1
 62
     7
 10
61.576258999999993
 20
148.01490999999999
 30
0.0
 11
79.887286000000003
 21
143.00867
 31
0.0
  0
LINE
  5
1D7
  8
レイヤー_1
 62
     7
 10
90.174513000000005
 20
152.74640400000001
 30
0.0
 11
90.174513000000005
 21
152.609117
 31
0.0
  0
LINE
  5
1D6
  8
レイヤー_1
 62
     7
 10
90.174513000000005
 20
152.609117
 30
0.0
 11
89.968323999999996
 21
152.472692
 31
0.0
  0
LINE
  5
1D5
  8
レイヤー_1
 62
     7
 10
79.955499000000003
 20
142.87086600000001
 30
0.0
 11
89.694438999999988
 21
152.40378999999999
 31
0.0
  0
POLYLINE
  5
1CF
  8
レイヤー_1
 62
     7
 66
     1
 10
0.0
 20
0.0
 30
0.0
  0
VERTEX
  5
1D0
  8
レイヤー_1
 62
     7
 10
79.955499000000003
 20
142.87086600000001
 30
0.0
  0
VERTEX
  5
1D1
  8
レイヤー_1
 62
     7
 10
79.955499000000003
 20
142.93942300000001
 30
0.0
  0
VERTEX
  5
1D2
  8
レイヤー_1
 62
     7
 10
79.887286000000003
 20
142.93942300000001
 30
0.0
  0
VERTEX
  5
1D3
  8
レイヤー_1
 62
     7
 10
79.887286000000003
 20
143.00867
 30
0.0
  0
SEQEND
  5
1D4
  8
レイヤー_1
 62
     7
  0
LINE
  5
1CE
  8
レイヤー_1
 62
     7
 10
90.174513000000005
 20
152.609117
 30
0.0
 11
80.229383999999996
 21
142.93942300000001
 31
0.0
  0
LINE
  5
1CD
  8
レイヤー_1
 62
     7
 10
80.229383999999996
 20
142.93942300000001
 30
0.0
 11
80.092957999999996
 21
142.87086600000001
 31
0.0
  0
LINE
  5
1CC
  8
レイヤー_1
 62
     7
 10
79.955499000000003
 20
142.87086600000001
 30
0.0
 11
61.438282999999998
 21
147.946697
 31
0.0
  0
POLYLINE
  5
1C4
  8
レイヤー_1
 62
     7
 66
     1
 10
0.0
 20
0.0
 30
0.0
  0
VERTEX
  5
1C5
  8
レイヤー_1
 62
     7
 10
61.163881000000003
 20
147.946697
 30
0.0
  0
VERTEX
  5
1C6
  8
レイヤー_1
 62
     7
 10
61.096184999999991
 20
147.946697
 30
0.0
  0
VERTEX
  5
1C7
  8
レイヤー_1
 62
     7
 10
61.027971999999998
 20
147.946697
 30
0.0
  0
VERTEX
  5
1C8
  8
レイヤー_1
 62
     7
 10
61.027971999999998
 20
148.01490999999999
 30
0.0
  0
VERTEX
  5
1C9
  8
レイヤー_1
 62
     7
 10
60.958208999999989
 20
148.01490999999999
 30
0.0
  0
VERTEX
  5
1CA
  8
レイヤー_1
 62
     7
 10
60.958208999999989
 20
148.152197
 30
0.0
  0
SEQEND
  5
1CB
  8
レイヤー_1
 62
     7
  0
LINE
  5
1C3
  8
レイヤー_1
 62
     7
 10
79.887286000000003
 20
142.87086600000001
 30
0.0
 11
79.955499000000003
 21
142.802998
 31
0.0
  0
LINE
  5
1C2
  8
レイヤー_1
 62
     7
 10
79.887286000000003
 20
142.87086600000001
 30
0.0
 11
61.096184999999991
 21
147.946697
 31
0.0
  0
POLYLINE
  5
1BD
  8
レイヤー_1
 62
     7
 66
     1
 10
0.0
 20
0.0
 30
0.0
  0
VERTEX
  5
1BE
  8
レイヤー_1
 62
     7
 10
80.229383999999996
 20
142.93942300000001
 30
0.0
  0
VERTEX
  5
1BF
  8
レイヤー_1
 62
     7
 10
80.229383999999996
 20
142.87086600000001
 30
0.0
  0
VERTEX
  5
1C0
  8
レイヤー_1
 62
     7
 10
80.161170999999996
 20
142.87086600000001
 30
0.0
  0
SEQEND
  5
1C1
  8
レイヤー_1
 62
     7
  0
LINE
  5
1BC
  8
レイヤー_1
 62
     7
 10
79.887286000000003
 20
142.87086600000001
 30
0.0
 11
79.817522999999994
 21
142.87086600000001
 31
0.0
  0
POLYLINE
  5
1B7
  8
レイヤー_1
 62
     7
 66
     1
 10
0.0
 20
0.0
 30
0.0
  0
VERTEX
  5
1B8
  8
レイヤー_1
 62
     7
 10
51.769449999999992
 20
162.96507399999999
 30
0.0
  0
VERTEX
  5
1B9
  8
レイヤー_1
 62
     7
 10
51.700375999999999
 20
162.96507399999999
 30
0.0
  0
VERTEX
  5
1BA
  8
レイヤー_1
 62
     7
 10
51.631646000000003
 20
162.896861
 30
0.0
  0
SEQEND
  5
1BB
  8
レイヤー_1
 62
     7
  0
LINE
  5
1B6
  8
レイヤー_1
 62
     7
 10
51.631646000000003
 20
162.896861
 30
0.0
 11
51.495736999999998
 21
163.102361
 31
0.0
  0
POLYLINE
  5
1B1
  8
レイヤー_1
 62
     7
 66
     1
 10
0.0
 20
0.0
 30
0.0
  0
VERTEX
  5
1B2
  8
レイヤー_1
 62
     7
 10
51.495736999999998
 20
163.102361
 30
0.0
  0
VERTEX
  5
1B3
  8
レイヤー_1
 62
     7
 10
51.563433000000003
 20
163.171436
 30
0.0
  0
VERTEX
  5
1B4
  8
レイヤー_1
 62
     7
 10
51.700375999999999
 20
163.171436
 30
0.0
  0
SEQEND
  5
1B5
  8
レイヤー_1
 62
     7
  0
LINE
  5
1B0
  8
レイヤー_1
 62
     7
 10
70.560722999999996
 20
157.82206400000001
 30
0.0
 11
51.769449999999992
 21
162.96507399999999
 31
0.0
  0
LINE
  5
1AF
  8
レイヤー_1
 62
     7
 10
51.631646000000003
 20
162.896861
 30
0.0
 11
41.75627999999999
 21
153.226134
 31
0.0
  0
LINE
  5
1AE
  8
レイヤー_1
 62
     7
 10
41.75627999999999
 20
153.226134
 30
0.0
 11
41.549919000000003
 21
153.43284
 31
0.0
  0
LINE
  5
1AD
  8
レイヤー_1
 62
     7
 10
41.549919000000003
 20
153.43284
 30
0.0
 11
51.495736999999998
 21
163.102361
 31
0.0
  0
POLYLINE
  5
1A8
  8
レイヤー_1
 62
     7
 66
     1
 10
0.0
 20
0.0
 30
0.0
  0
VERTEX
  5
1A9
  8
レイヤー_1
 62
     7
 10
70.285805000000011
 20
157.82206400000001
 30
0.0
  0
VERTEX
  5
1AA
  8
レイヤー_1
 62
     7
 10
70.355568000000005
 20
157.82206400000001
 30
0.0
  0
VERTEX
  5
1AB
  8
レイヤー_1
 62
     7
 10
70.355568000000005
 20
157.75298900000001
 30
0.0
  0
SEQEND
  5
1AC
  8
レイヤー_1
 62
     7
  0
LINE
  5
1A7
  8
レイヤー_1
 62
     7
 10
70.285805000000011
 20
157.82206400000001
 30
0.0
 11
51.837318000000003
 21
162.82864900000001
 31
0.0
  0
LINE
  5
1A6
  8
レイヤー_1
 62
     7
 10
51.700375999999999
 20
162.82864900000001
 30
0.0
 11
51.837318000000003
 21
162.82864900000001
 31
0.0
  0
LINE
  5
1A5
  8
レイヤー_1
 62
     7
 10
51.700375999999999
 20
162.82864900000001
 30
0.0
 11
41.962296999999992
 21
153.29537999999999
 31
0.0
  0
LINE
  5
1A4
  8
レイヤー_1
 62
     7
 10
41.962296999999992
 20
153.29537999999999
 30
0.0
 11
41.962296999999992
 21
153.29537999999999
 31
0.0
  0
LINE
  5
1A3
  8
レイヤー_1
 62
     7
 10
70.560722999999996
 20
157.75298900000001
 30
0.0
 11
70.560722999999996
 21
157.82206400000001
 31
0.0
  0
LINE
  5
1A2
  8
レイヤー_1
 62
     7
 10
60.683806999999987
 20
148.083123
 30
0.0
 11
70.560722999999996
 21
157.75298900000001
 31
0.0
  0
LINE
  5
1A1
  8
レイヤー_1
 62
     7
 10
60.548414000000001
 20
148.083123
 30
0.0
 11
60.683806999999987
 21
148.083123
 31
0.0
  0
LINE
  5
1A0
  8
レイヤー_1
 62
     7
 10
41.75627999999999
 20
153.226134
 30
0.0
 11
60.548414000000001
 21
148.083123
 31
0.0
  0
LINE
  5
19F
  8
レイヤー_1
 62
     7
 10
41.75627999999999
 20
153.226134
 30
0.0
 11
41.75627999999999
 21
153.226134
 31
0.0
  0
POLYLINE
  5
199
  8
レイヤー_1
 62
     7
 66
     1
 10
0.0
 20
0.0
 30
0.0
  0
VERTEX
  5
19A
  8
レイヤー_1
 62
     7
 10
51.700375999999999
 20
162.82864900000001
 30
0.0
  0
VERTEX
  5
19B
  8
レイヤー_1
 62
     7
 10
51.700375999999999
 20
162.76009099999999
 30
0.0
  0
VERTEX
  5
19C
  8
レイヤー_1
 62
     7
 10
51.769449999999992
 20
162.76009099999999
 30
0.0
  0
VERTEX
  5
19D
  8
レイヤー_1
 62
     7
 10
51.769449999999992
 20
162.69153399999999
 30
0.0
  0
SEQEND
  5
19E
  8
レイヤー_1
 62
     7
  0
POLYLINE
  5
193
  8
レイヤー_1
 62
     7
 66
     1
 10
0.0
 20
0.0
 30
0.0
  0
VERTEX
  5
194
  8
レイヤー_1
 62
     7
 10
51.769449999999992
 20
162.69153399999999
 30
0.0
  0
VERTEX
  5
195
  8
レイヤー_1
 62
     7
 10
51.769449999999992
 20
162.76009099999999
 30
0.0
  0
VERTEX
  5
196
  8
レイヤー_1
 62
     7
 10
51.837318000000003
 20
162.76009099999999
 30
0.0
  0
VERTEX
  5
197
  8
レイヤー_1
 62
     7
 10
51.837318000000003
 20
162.82864900000001
 30
0.0
  0
SEQEND
  5
198
  8
レイヤー_1
 62
     7
  0
LINE
  5
192
  8
レイヤー_1
 62
     7
 10
51.769449999999992
 20
162.69153399999999
 30
0.0
 11
70.285805000000011
 21
157.68546499999999
 31
0.0
  0
LINE
  5
191
  8
レイヤー_1
 62
     7
 10
70.285805000000011
 20
157.68546499999999
 30
0.0
 11
70.285805000000011
 21
157.82206400000001
 31
0.0
  0
LINE
  5
190
  8
レイヤー_1
 62
     7
 10
42.030164999999997
 20
153.226134
 30
0.0
 11
51.769449999999992
 21
162.69153399999999
 31
0.0
  0
POLYLINE
  5
18A
  8
レイヤー_1
 62
     7
 66
     1
 10
0.0
 20
0.0
 30
0.0
  0
VERTEX
  5
18B
  8
レイヤー_1
 62
     7
 10
41.962296999999992
 20
153.29537999999999
 30
0.0
  0
VERTEX
  5
18C
  8
レイヤー_1
 62
     7
 10
41.962296999999992
 20
153.226134
 30
0.0
  0
VERTEX
  5
18D
  8
レイヤー_1
 62
     7
 10
42.030164999999997
 20
153.226134
 30
0.0
  0
VERTEX
  5
18E
  8
レイヤー_1
 62
     7
 10
42.099410999999989
 20
153.226134
 30
0.0
  0
SEQEND
  5
18F
  8
レイヤー_1
 62
     7
  0
LINE
  5
189
  8
レイヤー_1
 62
     7
 10
51.837318000000003
 20
162.69153399999999
 30
0.0
 11
51.769449999999992
 21
162.69153399999999
 31
0.0
  0
LINE
  5
188
  8
レイヤー_1
 62
     7
 10
70.216557999999992
 20
157.68546499999999
 30
0.0
 11
70.285805000000011
 21
157.68546499999999
 31
0.0
  0
LINE
  5
187
  8
レイヤー_1
 62
     7
 10
60.478650999999999
 20
148.289312
 30
0.0
 11
70.148344999999992
 21
157.75298900000001
 31
0.0
  0
LINE
  5
186
  8
レイヤー_1
 62
     7
 10
42.168312999999991
 20
153.29537999999999
 30
0.0
 11
60.478650999999999
 21
148.289312
 31
0.0
  0
LINE
  5
185
  8
レイヤー_1
 62
     7
 10
70.765361999999996
 20
158.027908
 30
0.0
 11
70.765361999999996
 21
157.82206400000001
 31
0.0
  0
LINE
  5
184
  8
レイヤー_1
 62
     7
 10
70.765361999999996
 20
157.82206400000001
 30
0.0
 11
70.560722999999996
 21
157.75298900000001
 31
0.0
  0
LINE
  5
183
  8
レイヤー_1
 62
     7
 10
60.548414000000001
 20
148.152197
 30
0.0
 11
70.285805000000011
 21
157.68546499999999
 31
0.0
  0
POLYLINE
  5
17D
  8
レイヤー_1
 62
     7
 66
     1
 10
0.0
 20
0.0
 30
0.0
  0
VERTEX
  5
17E
  8
レイヤー_1
 62
     7
 10
60.548414000000001
 20
148.152197
 30
0.0
  0
VERTEX
  5
17F
  8
レイヤー_1
 62
     7
 10
60.548414000000001
 20
148.22040999999999
 30
0.0
  0
VERTEX
  5
180
  8
レイヤー_1
 62
     7
 10
60.478650999999999
 20
148.22040999999999
 30
0.0
  0
VERTEX
  5
181
  8
レイヤー_1
 62
     7
 10
60.478650999999999
 20
148.289312
 30
0.0
  0
SEQEND
  5
182
  8
レイヤー_1
 62
     7
  0
LINE
  5
17C
  8
レイヤー_1
 62
     7
 10
70.765361999999996
 20
157.82206400000001
 30
0.0
 11
60.821782999999989
 21
148.152197
 31
0.0
  0
LINE
  5
17B
  8
レイヤー_1
 62
     7
 10
60.821782999999989
 20
148.152197
 30
0.0
 11
60.683806999999987
 21
148.083123
 31
0.0
  0
LINE
  5
17A
  8
レイヤー_1
 62
     7
 10
60.548414000000001
 20
148.152197
 30
0.0
 11
42.030164999999997
 21
153.226134
 31
0.0
  0
POLYLINE
  5
173
  8
レイヤー_1
 62
     7
 66
     1
 10
0.0
 20
0.0
 30
0.0
  0
VERTEX
  5
174
  8
レイヤー_1
 62
     7
 10
41.75627999999999
 20
153.226134
 30
0.0
  0
VERTEX
  5
175
  8
レイヤー_1
 62
     7
 10
41.688583999999999
 20
153.226134
 30
0.0
  0
VERTEX
  5
176
  8
レイヤー_1
 62
     7
 10
41.619337000000002
 20
153.226134
 30
0.0
  0
VERTEX
  5
177
  8
レイヤー_1
 62
     7
 10
41.549919000000003
 20
153.29537999999999
 30
0.0
  0
VERTEX
  5
178
  8
レイヤー_1
 62
     7
 10
41.549919000000003
 20
153.43284
 30
0.0
  0
SEQEND
  5
179
  8
レイヤー_1
 62
     7
  0
LINE
  5
172
  8
レイヤー_1
 62
     7
 10
60.478650999999999
 20
148.152197
 30
0.0
 11
60.548414000000001
 21
148.083123
 31
0.0
  0
LINE
  5
171
  8
レイヤー_1
 62
     7
 10
60.478650999999999
 20
148.152197
 30
0.0
 11
41.688583999999999
 21
153.226134
 31
0.0
  0
LINE
  5
170
  8
レイヤー_1
 62
     7
 10
60.821782999999989
 20
148.152197
 30
0.0
 11
60.683806999999987
 21
148.152197
 31
0.0
  0
LINE
  5
16F
  8
レイヤー_1
 62
     7
 10
60.478650999999999
 20
148.152197
 30
0.0
 11
60.409405000000007
 21
148.152197
 31
0.0
  0
LINE
  5
16E
  8
レイヤー_1
 62
     7
 10
148.80952099999999
 20
136.56255200000001
 30
0.0
 11
148.741309
 21
136.56255200000001
 31
0.0
  0
LINE
  5
16D
  8
レイヤー_1
 62
     7
 10
148.741309
 20
136.56255200000001
 30
0.0
 11
148.53598099999999
 21
136.69897700000001
 31
0.0
  0
POLYLINE
  5
168
  8
レイヤー_1
 62
     7
 66
     1
 10
0.0
 20
0.0
 30
0.0
  0
VERTEX
  5
169
  8
レイヤー_1
 62
     7
 10
148.53598099999999
 20
136.69897700000001
 30
0.0
  0
VERTEX
  5
16A
  8
レイヤー_1
 62
     7
 10
148.53598099999999
 20
136.76787899999999
 30
0.0
  0
VERTEX
  5
16B
  8
レイヤー_1
 62
     7
 10
148.80952099999999
 20
136.76787899999999
 30
0.0
  0
SEQEND
  5
16C
  8
レイヤー_1
 62
     7
  0
LINE
  5
167
  8
レイヤー_1
 62
     7
 10
167.60113899999999
 20
131.48689200000001
 30
0.0
 11
148.80952099999999
 21
136.56255200000001
 31
0.0
  0
LINE
  5
166
  8
レイヤー_1
 62
     7
 10
148.741309
 20
136.56255200000001
 30
0.0
 11
138.796696
 21
126.891824
 31
0.0
  0
LINE
  5
165
  8
レイヤー_1
 62
     7
 10
138.796696
 20
126.891824
 30
0.0
 11
138.66027
 21
127.02893899999999
 31
0.0
  0
LINE
  5
164
  8
レイヤー_1
 62
     7
 10
138.66027
 20
127.02893899999999
 30
0.0
 11
148.53598099999999
 21
136.69897700000001
 31
0.0
  0
LINE
  5
163
  8
レイヤー_1
 62
     7
 10
167.39443399999999
 20
131.418679
 30
0.0
 11
167.39443399999999
 21
131.418679
 31
0.0
  0
LINE
  5
162
  8
レイヤー_1
 62
     7
 10
167.39443399999999
 20
131.418679
 30
0.0
 11
148.877734
 21
136.42474799999999
 31
0.0
  0
LINE
  5
161
  8
レイヤー_1
 62
     7
 10
148.80952099999999
 20
136.42474799999999
 30
0.0
 11
148.877734
 21
136.42474799999999
 31
0.0
  0
LINE
  5
160
  8
レイヤー_1
 62
     7
 10
148.80952099999999
 20
136.42474799999999
 30
0.0
 11
139.002713
 21
126.891824
 31
0.0
  0
LINE
  5
15F
  8
レイヤー_1
 62
     7
 10
139.002713
 20
126.891824
 30
0.0
 11
139.002713
 21
126.891824
 31
0.0
  0
POLYLINE
  5
159
  8
レイヤー_1
 62
     7
 66
     1
 10
0.0
 20
0.0
 30
0.0
  0
VERTEX
  5
15A
  8
レイヤー_1
 62
     7
 10
167.60113899999999
 20
131.418679
 30
0.0
  0
VERTEX
  5
15B
  8
レイヤー_1
 62
     7
 10
167.669352
 20
131.418679
 30
0.0
  0
VERTEX
  5
15C
  8
レイヤー_1
 62
     7
 10
167.60113899999999
 20
131.418679
 30
0.0
  0
VERTEX
  5
15D
  8
レイヤー_1
 62
     7
 10
167.60113899999999
 20
131.48689200000001
 30
0.0
  0
SEQEND
  5
15E
  8
レイヤー_1
 62
     7
  0
LINE
  5
158
  8
レイヤー_1
 62
     7
 10
157.7261179999999
 20
121.747952
 30
0.0
 11
167.60113899999999
 21
131.418679
 31
0.0
  0
POLYLINE
  5
153
  8
レイヤー_1
 62
     7
 66
     1
 10
0.0
 20
0.0
 30
0.0
  0
VERTEX
  5
154
  8
レイヤー_1
 62
     7
 10
157.587625
 20
121.747952
 30
0.0
  0
VERTEX
  5
155
  8
レイヤー_1
 62
     7
 10
157.6558379999999
 20
121.6797389999999
 30
0.0
  0
VERTEX
  5
156
  8
レイヤー_1
 62
     7
 10
157.7261179999999
 20
121.747952
 30
0.0
  0
SEQEND
  5
157
  8
レイヤー_1
 62
     7
  0
LINE
  5
152
  8
レイヤー_1
 62
     7
 10
138.86490900000001
 20
126.823611
 30
0.0
 11
157.587625
 21
121.747952
 31
0.0
  0
POLYLINE
  5
14D
  8
レイヤー_1
 62
     7
 66
     1
 10
0.0
 20
0.0
 30
0.0
  0
VERTEX
  5
14E
  8
レイヤー_1
 62
     7
 10
138.796696
 20
126.891824
 30
0.0
  0
VERTEX
  5
14F
  8
レイヤー_1
 62
     7
 10
138.796696
 20
126.823611
 30
0.0
  0
VERTEX
  5
150
  8
レイヤー_1
 62
     7
 10
138.86490900000001
 20
126.823611
 30
0.0
  0
SEQEND
  5
151
  8
レイヤー_1
 62
     7
  0
POLYLINE
  5
147
  8
レイヤー_1
 62
     7
 66
     1
 10
0.0
 20
0.0
 30
0.0
  0
VERTEX
  5
148
  8
レイヤー_1
 62
     7
 10
148.80952099999999
 20
136.42474799999999
 30
0.0
  0
VERTEX
  5
149
  8
レイヤー_1
 62
     7
 10
148.80952099999999
 20
136.35653500000001
 30
0.0
  0
VERTEX
  5
14A
  8
レイヤー_1
 62
     7
 10
148.877734
 20
136.35653500000001
 30
0.0
  0
VERTEX
  5
14B
  8
レイヤー_1
 62
     7
 10
148.877734
 20
136.42474799999999
 30
0.0
  0
SEQEND
  5
14C
  8
レイヤー_1
 62
     7
  0
LINE
  5
146
  8
レイヤー_1
 62
     7
 10
148.877734
 20
136.35653500000001
 30
0.0
 11
167.326221
 21
131.35046700000001
 31
0.0
  0
POLYLINE
  5
141
  8
レイヤー_1
 62
     7
 66
     1
 10
0.0
 20
0.0
 30
0.0
  0
VERTEX
  5
142
  8
レイヤー_1
 62
     7
 10
167.326221
 20
131.35046700000001
 30
0.0
  0
VERTEX
  5
143
  8
レイヤー_1
 62
     7
 10
167.39443399999999
 20
131.35046700000001
 30
0.0
  0
VERTEX
  5
144
  8
レイヤー_1
 62
     7
 10
167.39443399999999
 20
131.418679
 30
0.0
  0
SEQEND
  5
145
  8
レイヤー_1
 62
     7
  0
LINE
  5
140
  8
レイヤー_1
 62
     7
 10
139.14120600000001
 20
126.823611
 30
0.0
 11
148.877734
 21
136.35653500000001
 31
0.0
  0
POLYLINE
  5
13A
  8
レイヤー_1
 62
     7
 66
     1
 10
0.0
 20
0.0
 30
0.0
  0
VERTEX
  5
13B
  8
レイヤー_1
 62
     7
 10
139.002713
 20
126.891824
 30
0.0
  0
VERTEX
  5
13C
  8
レイヤー_1
 62
     7
 10
139.07092599999999
 20
126.891824
 30
0.0
  0
VERTEX
  5
13D
  8
レイヤー_1
 62
     7
 10
139.07092599999999
 20
126.823611
 30
0.0
  0
VERTEX
  5
13E
  8
レイヤー_1
 62
     7
 10
139.14120600000001
 20
126.823611
 30
0.0
  0
SEQEND
  5
13F
  8
レイヤー_1
 62
     7
  0
POLYLINE
  5
135
  8
レイヤー_1
 62
     7
 66
     1
 10
0.0
 20
0.0
 30
0.0
  0
VERTEX
  5
136
  8
レイヤー_1
 62
     7
 10
167.25800799999999
 20
131.35046700000001
 30
0.0
  0
VERTEX
  5
137
  8
レイヤー_1
 62
     7
 10
167.326221
 20
131.28225399999999
 30
0.0
  0
VERTEX
  5
138
  8
レイヤー_1
 62
     7
 10
167.326221
 20
131.35046700000001
 30
0.0
  0
SEQEND
  5
139
  8
レイヤー_1
 62
     7
  0
LINE
  5
134
  8
レイヤー_1
 62
     7
 10
148.877734
 20
136.28832199999999
 30
0.0
 11
148.877734
 21
136.35653500000001
 31
0.0
  0
POLYLINE
  5
12F
  8
レイヤー_1
 62
     7
 66
     1
 10
0.0
 20
0.0
 30
0.0
  0
VERTEX
  5
130
  8
レイヤー_1
 62
     7
 10
139.14120600000001
 20
126.823611
 30
0.0
  0
VERTEX
  5
131
  8
レイヤー_1
 62
     7
 10
139.209418
 20
126.823611
 30
0.0
  0
VERTEX
  5
132
  8
レイヤー_1
 62
     7
 10
139.209418
 20
126.891824
 30
0.0
  0
SEQEND
  5
133
  8
レイヤー_1
 62
     7
  0
LINE
  5
12E
  8
レイヤー_1
 62
     7
 10
157.587625
 20
121.95465799999999
 30
0.0
 11
167.18910600000001
 21
131.35046700000001
 31
0.0
  0
LINE
  5
12D
  8
レイヤー_1
 62
     7
 10
139.209418
 20
126.891824
 30
0.0
 11
157.587625
 21
121.95465799999999
 31
0.0
  0
POLYLINE
  5
127
  8
レイヤー_1
 62
     7
 66
     1
 10
0.0
 20
0.0
 30
0.0
  0
VERTEX
  5
128
  8
レイヤー_1
 62
     7
 10
167.80715599999999
 20
131.62504100000001
 30
0.0
  0
VERTEX
  5
129
  8
レイヤー_1
 62
     7
 10
167.87536900000001
 20
131.555105
 30
0.0
  0
VERTEX
  5
12A
  8
レイヤー_1
 62
     7
 10
167.87536900000001
 20
131.48689200000001
 30
0.0
  0
VERTEX
  5
12B
  8
レイヤー_1
 62
     7
 10
167.80715599999999
 20
131.48689200000001
 30
0.0
  0
SEQEND
  5
12C
  8
レイヤー_1
 62
     7
  0
LINE
  5
126
  8
レイヤー_1
 62
     7
 10
167.80715599999999
 20
131.48689200000001
 30
0.0
 11
167.60113899999999
 21
131.418679
 31
0.0
  0
LINE
  5
125
  8
レイヤー_1
 62
     7
 10
157.587625
 20
121.817887
 30
0.0
 11
167.326221
 21
131.35046700000001
 31
0.0
  0
LINE
  5
124
  8
レイヤー_1
 62
     7
 10
157.587625
 20
121.817887
 30
0.0
 11
157.587625
 21
121.95465799999999
 31
0.0
  0
LINE
  5
123
  8
レイヤー_1
 62
     7
 10
167.80715599999999
 20
131.48689200000001
 30
0.0
 11
157.930756
 21
121.817887
 31
0.0
  0
LINE
  5
122
  8
レイヤー_1
 62
     7
 10
157.930756
 20
121.817887
 30
0.0
 11
157.7261179999999
 21
121.747952
 31
0.0
  0
LINE
  5
121
  8
レイヤー_1
 62
     7
 10
157.587625
 20
121.817887
 30
0.0
 11
139.14120600000001
 21
126.823611
 31
0.0
  0
LINE
  5
120
  8
レイヤー_1
 62
     7
 10
138.86490900000001
 20
126.823611
 30
0.0
 11
138.72848300000001
 21
126.823611
 31
0.0
  0
POLYLINE
  5
118
  8
レイヤー_1
 62
     7
 66
     1
 10
0.0
 20
0.0
 30
0.0
  0
VERTEX
  5
119
  8
レイヤー_1
 62
     7
 10
138.72848300000001
 20
126.823611
 30
0.0
  0
VERTEX
  5
11A
  8
レイヤー_1
 62
     7
 10
138.72848300000001
 20
126.891824
 30
0.0
  0
VERTEX
  5
11B
  8
レイヤー_1
 62
     7
 10
138.66027
 20
126.891824
 30
0.0
  0
VERTEX
  5
11C
  8
レイヤー_1
 62
     7
 10
138.58999
 20
126.961759
 30
0.0
  0
VERTEX
  5
11D
  8
レイヤー_1
 62
     7
 10
138.58999
 20
127.02893899999999
 30
0.0
  0
VERTEX
  5
11E
  8
レイヤー_1
 62
     7
 10
138.66027
 20
127.02893899999999
 30
0.0
  0
SEQEND
  5
11F
  8
レイヤー_1
 62
     7
  0
LINE
  5
117
  8
レイヤー_1
 62
     7
 10
157.51941199999999
 20
121.747952
 30
0.0
 11
157.587625
 21
121.747952
 31
0.0
  0
LINE
  5
116
  8
レイヤー_1
 62
     7
 10
157.51941199999999
 20
121.747952
 30
0.0
 11
138.72848300000001
 21
126.823611
 31
0.0
  0
POLYLINE
  5
111
  8
レイヤー_1
 62
     7
 66
     1
 10
0.0
 20
0.0
 30
0.0
  0
VERTEX
  5
112
  8
レイヤー_1
 62
     7
 10
157.930756
 20
121.817887
 30
0.0
  0
VERTEX
  5
113
  8
レイヤー_1
 62
     7
 10
157.86254299999999
 20
121.747952
 30
0.0
  0
VERTEX
  5
114
  8
レイヤー_1
 62
     7
 10
157.794331
 20
121.747952
 30
0.0
  0
SEQEND
  5
115
  8
レイヤー_1
 62
     7
  0
LINE
  5
110
  8
レイヤー_1
 62
     7
 10
157.51941199999999
 20
121.747952
 30
0.0
 11
157.4498209999999
 21
121.747952
 31
0.0
  0
LINE
  5
10F
  8
レイヤー_1
 62
     7
 10
168.21850000000001
 20
131.28225399999999
 30
0.0
 11
168.15028799999999
 21
131.28225399999999
 31
0.0
  0
LINE
  5
10E
  8
レイヤー_1
 62
     7
 10
168.15028799999999
 20
131.28225399999999
 30
0.0
 11
167.942204
 21
131.418679
 31
0.0
  0
POLYLINE
  5
109
  8
レイヤー_1
 62
     7
 66
     1
 10
0.0
 20
0.0
 30
0.0
  0
VERTEX
  5
10A
  8
レイヤー_1
 62
     7
 10
167.942204
 20
131.418679
 30
0.0
  0
VERTEX
  5
10B
  8
レイヤー_1
 62
     7
 10
168.01179500000001
 20
131.48689200000001
 30
0.0
  0
VERTEX
  5
10C
  8
レイヤー_1
 62
     7
 10
168.21850000000001
 20
131.48689200000001
 30
0.0
  0
SEQEND
  5
10D
  8
レイヤー_1
 62
     7
  0
LINE
  5
108
  8
レイヤー_1
 62
     7
 10
187.00873999999999
 20
126.20659499999999
 30
0.0
 11
168.21850000000001
 21
131.28225399999999
 31
0.0
  0
LINE
  5
107
  8
レイヤー_1
 62
     7
 10
168.15028799999999
 20
131.28225399999999
 30
0.0
 11
158.20636400000001
 21
121.611526
 31
0.0
  0
LINE
  5
106
  8
レイヤー_1
 62
     7
 10
158.20636400000001
 20
121.611526
 30
0.0
 11
158.067871
 21
121.747952
 31
0.0
  0
LINE
  5
105
  8
レイヤー_1
 62
     7
 10
158.067871
 20
121.747952
 30
0.0
 11
167.942204
 21
131.418679
 31
0.0
  0
LINE
  5
104
  8
レイヤー_1
 62
     7
 10
186.80341300000001
 20
126.13838199999999
 30
0.0
 11
186.87162499999999
 21
126.13838199999999
 31
0.0
  0
LINE
  5
103
  8
レイヤー_1
 62
     7
 10
186.80341300000001
 20
126.13838199999999
 30
0.0
 11
168.28671299999999
 21
131.14445000000001
 31
0.0
  0
LINE
  5
102
  8
レイヤー_1
 62
     7
 10
168.21850000000001
 20
131.14445000000001
 30
0.0
 11
168.28671299999999
 21
131.14445000000001
 31
0.0
  0
LINE
  5
101
  8
レイヤー_1
 62
     7
 10
168.21850000000001
 20
131.14445000000001
 30
0.0
 11
158.480594
 21
121.611526
 31
0.0
  0
LINE
  5
100
  8
レイヤー_1
 62
     7
 10
158.41100299999999
 20
121.611526
 30
0.0
 11
158.480594
 21
121.611526
 31
0.0
  0
POLYLINE
  5
FB
  8
レイヤー_1
 62
     7
 66
     1
 10
0.0
 20
0.0
 30
0.0
  0
VERTEX
  5
FC
  8
レイヤー_1
 62
     7
 10
187.076953
 20
126.13838199999999
 30
0.0
  0
VERTEX
  5
FD
  8
レイヤー_1
 62
     7
 10
187.00873999999999
 20
126.13838199999999
 30
0.0
  0
VERTEX
  5
FE
  8
レイヤー_1
 62
     7
 10
187.00873999999999
 20
126.20659499999999
 30
0.0
  0
SEQEND
  5
FF
  8
レイヤー_1
 62
     7
  0
LINE
  5
FA
  8
レイヤー_1
 62
     7
 10
177.13234
 20
116.46937699999999
 30
0.0
 11
187.076953
 21
126.13838199999999
 31
0.0
  0
LINE
  5
F9
  8
レイヤー_1
 62
     7
 10
177.065506
 20
116.46937699999999
 30
0.0
 11
177.13234
 21
116.46937699999999
 31
0.0
  0
LINE
  5
F8
  8
レイヤー_1
 62
     7
 10
158.27251000000001
 20
121.543313
 30
0.0
 11
177.065506
 21
116.46937699999999
 31
0.0
  0
POLYLINE
  5
F3
  8
レイヤー_1
 62
     7
 66
     1
 10
0.0
 20
0.0
 30
0.0
  0
VERTEX
  5
F4
  8
レイヤー_1
 62
     7
 10
158.20636400000001
 20
121.611526
 30
0.0
  0
VERTEX
  5
F5
  8
レイヤー_1
 62
     7
 10
158.20636400000001
 20
121.543313
 30
0.0
  0
VERTEX
  5
F6
  8
レイヤー_1
 62
     7
 10
158.27251000000001
 20
121.543313
 30
0.0
  0
SEQEND
  5
F7
  8
レイヤー_1
 62
     7
  0
POLYLINE
  5
ED
  8
レイヤー_1
 62
     7
 66
     1
 10
0.0
 20
0.0
 30
0.0
  0
VERTEX
  5
EE
  8
レイヤー_1
 62
     7
 10
168.21850000000001
 20
131.14445000000001
 30
0.0
  0
VERTEX
  5
EF
  8
レイヤー_1
 62
     7
 10
168.21850000000001
 20
131.07520299999999
 30
0.0
  0
VERTEX
  5
F0
  8
レイヤー_1
 62
     7
 10
168.28671299999999
 20
131.07520299999999
 30
0.0
  0
VERTEX
  5
F1
  8
レイヤー_1
 62
     7
 10
168.28671299999999
 20
131.14445000000001
 30
0.0
  0
SEQEND
  5
F2
  8
レイヤー_1
 62
     7
  0
LINE
  5
EC
  8
レイヤー_1
 62
     7
 10
168.28671299999999
 20
131.07520299999999
 30
0.0
 11
186.73519999999999
 21
126.068791
 31
0.0
  0
POLYLINE
  5
E7
  8
レイヤー_1
 62
     7
 66
     1
 10
0.0
 20
0.0
 30
0.0
  0
VERTEX
  5
E8
  8
レイヤー_1
 62
     7
 10
186.73519999999999
 20
126.068791
 30
0.0
  0
VERTEX
  5
E9
  8
レイヤー_1
 62
     7
 10
186.80341300000001
 20
126.068791
 30
0.0
  0
VERTEX
  5
EA
  8
レイヤー_1
 62
     7
 10
186.80341300000001
 20
126.13838199999999
 30
0.0
  0
SEQEND
  5
EB
  8
レイヤー_1
 62
     7
  0
LINE
  5
E6
  8
レイヤー_1
 62
     7
 10
158.547428
 20
121.543313
 30
0.0
 11
168.28671299999999
 21
131.07520299999999
 31
0.0
  0
POLYLINE
  5
DF
  8
レイヤー_1
 62
     7
 66
     1
 10
0.0
 20
0.0
 30
0.0
  0
VERTEX
  5
E0
  8
レイヤー_1
 62
     7
 10
158.480594
 20
121.611526
 30
0.0
  0
VERTEX
  5
E1
  8
レイヤー_1
 62
     7
 10
158.480594
 20
121.543313
 30
0.0
  0
VERTEX
  5
E2
  8
レイヤー_1
 62
     7
 10
158.547428
 20
121.543313
 30
0.0
  0
VERTEX
  5
E3
  8
レイヤー_1
 62
     7
 10
158.617019
 20
121.543313
 30
0.0
  0
VERTEX
  5
E4
  8
レイヤー_1
 62
     7
 10
158.617019
 20
121.611526
 30
0.0
  0
SEQEND
  5
E5
  8
レイヤー_1
 62
     7
  0
LINE
  5
DE
  8
レイヤー_1
 62
     7
 10
168.28671299999999
 20
131.07520299999999
 30
0.0
 11
168.28671299999999
 21
131.07520299999999
 31
0.0
  0
LINE
  5
DD
  8
レイヤー_1
 62
     7
 10
186.66698700000001
 20
126.068791
 30
0.0
 11
186.73519999999999
 21
126.068791
 31
0.0
  0
LINE
  5
DC
  8
レイヤー_1
 62
     7
 10
176.9972929999999
 20
116.674015
 30
0.0
 11
186.59670700000001
 21
126.068791
 31
0.0
  0
LINE
  5
DB
  8
レイヤー_1
 62
     7
 10
158.617019
 20
121.611526
 30
0.0
 11
176.9972929999999
 21
116.674015
 31
0.0
  0
POLYLINE
  5
D6
  8
レイヤー_1
 62
     7
 66
     1
 10
0.0
 20
0.0
 30
0.0
  0
VERTEX
  5
D7
  8
レイヤー_1
 62
     7
 10
187.213379
 20
126.343709
 30
0.0
  0
VERTEX
  5
D8
  8
レイヤー_1
 62
     7
 10
187.283659
 20
126.343709
 30
0.0
  0
VERTEX
  5
D9
  8
レイヤー_1
 62
     7
 10
187.283659
 20
126.275496
 30
0.0
  0
SEQEND
  5
DA
  8
レイヤー_1
 62
     7
  0
LINE
  5
D5
  8
レイヤー_1
 62
     7
 10
176.9972929999999
 20
116.536556
 30
0.0
 11
186.73519999999999
 21
126.068791
 31
0.0
  0
LINE
  5
D4
  8
レイヤー_1
 62
     7
 10
176.9972929999999
 20
116.536556
 30
0.0
 11
176.9972929999999
 21
116.674015
 31
0.0
  0
LINE
  5
D3
  8
レイヤー_1
 62
     7
 10
176.9972929999999
 20
116.536556
 30
0.0
 11
158.547428
 21
121.543313
 31
0.0
  0
LINE
  5
D2
  8
レイヤー_1
 62
     7
 10
158.27251000000001
 20
121.543313
 30
0.0
 11
158.13608400000001
 21
121.543313
 31
0.0
  0
POLYLINE
  5
CA
  8
レイヤー_1
 62
     7
 66
     1
 10
0.0
 20
0.0
 30
0.0
  0
VERTEX
  5
CB
  8
レイヤー_1
 62
     7
 10
158.13608400000001
 20
121.543313
 30
0.0
  0
VERTEX
  5
CC
  8
レイヤー_1
 62
     7
 10
158.13608400000001
 20
121.611526
 30
0.0
  0
VERTEX
  5
CD
  8
レイヤー_1
 62
     7
 10
158.067871
 20
121.611526
 30
0.0
  0
VERTEX
  5
CE
  8
レイヤー_1
 62
     7
 10
157.99965800000001
 20
121.6797389999999
 30
0.0
  0
VERTEX
  5
CF
  8
レイヤー_1
 62
     7
 10
157.99965800000001
 20
121.747952
 30
0.0
  0
VERTEX
  5
D0
  8
レイヤー_1
 62
     7
 10
158.067871
 20
121.747952
 30
0.0
  0
SEQEND
  5
D1
  8
レイヤー_1
 62
     7
  0
LINE
  5
C9
  8
レイヤー_1
 62
     7
 10
176.92770200000001
 20
116.46937699999999
 30
0.0
 11
177.065506
 21
116.46937699999999
 31
0.0
  0
LINE
  5
C8
  8
レイヤー_1
 62
     7
 10
176.92770200000001
 20
116.46937699999999
 30
0.0
 11
158.13608400000001
 21
121.543313
 31
0.0
  0
LINE
  5
C7
  8
レイヤー_1
 62
     7
 10
176.92770200000001
 20
116.46937699999999
 30
0.0
 11
176.859489
 21
116.46937699999999
 31
0.0
  0
LINE
  5
C6
  8
レイヤー_1
 62
     7
 10
109.99363099999999
 20
147.12314699999999
 30
0.0
 11
109.92541799999999
 21
147.12314699999999
 31
0.0
  0
LINE
  5
C5
  8
レイヤー_1
 62
     7
 10
109.92541799999999
 20
147.12314699999999
 30
0.0
 11
109.719401
 21
147.26026200000001
 31
0.0
  0
POLYLINE
  5
C0
  8
レイヤー_1
 62
     7
 66
     1
 10
0.0
 20
0.0
 30
0.0
  0
VERTEX
  5
C1
  8
レイヤー_1
 62
     7
 10
109.719401
 20
147.26026200000001
 30
0.0
  0
VERTEX
  5
C2
  8
レイヤー_1
 62
     7
 10
109.787614
 20
147.329508
 30
0.0
  0
VERTEX
  5
C3
  8
レイヤー_1
 62
     7
 10
109.99363099999999
 20
147.329508
 30
0.0
  0
SEQEND
  5
C4
  8
レイヤー_1
 62
     7
  0
LINE
  5
BF
  8
レイヤー_1
 62
     7
 10
128.785248
 20
141.979275
 30
0.0
 11
109.99363099999999
 21
147.12314699999999
 31
0.0
  0
LINE
  5
BE
  8
レイヤー_1
 62
     7
 10
109.92541799999999
 20
147.12314699999999
 30
0.0
 11
99.98011600000001
 21
137.45414199999999
 31
0.0
  0
LINE
  5
BD
  8
レイヤー_1
 62
     7
 10
99.98011600000001
 20
137.45414199999999
 30
0.0
 11
99.774443999999988
 21
137.59056799999999
 31
0.0
  0
LINE
  5
BC
  8
レイヤー_1
 62
     7
 10
99.774443999999988
 20
137.59056799999999
 30
0.0
 11
109.719401
 21
147.26026200000001
 31
0.0
  0
LINE
  5
BB
  8
レイヤー_1
 62
     7
 10
128.578543
 20
141.979275
 30
0.0
 11
128.578543
 21
141.91106199999999
 31
0.0
  0
LINE
  5
BA
  8
レイヤー_1
 62
     7
 10
128.578543
 20
141.979275
 30
0.0
 11
110.06184399999999
 21
146.98568800000001
 31
0.0
  0
LINE
  5
B9
  8
レイヤー_1
 62
     7
 10
109.99363099999999
 20
146.98568800000001
 30
0.0
 11
110.06184399999999
 21
146.98568800000001
 31
0.0
  0
LINE
  5
B8
  8
レイヤー_1
 62
     7
 10
109.99363099999999
 20
146.98568800000001
 30
0.0
 11
100.18682200000001
 21
137.45414199999999
 31
0.0
  0
LINE
  5
B7
  8
レイヤー_1
 62
     7
 10
100.18682200000001
 20
137.45414199999999
 30
0.0
 11
100.18682200000001
 21
137.45414199999999
 31
0.0
  0
LINE
  5
B6
  8
レイヤー_1
 62
     7
 10
128.785248
 20
141.979275
 30
0.0
 11
128.785248
 21
141.979275
 31
0.0
  0
LINE
  5
B5
  8
レイヤー_1
 62
     7
 10
118.909538
 20
132.31027
 30
0.0
 11
128.785248
 21
141.979275
 31
0.0
  0
POLYLINE
  5
B0
  8
レイヤー_1
 62
     7
 66
     1
 10
0.0
 20
0.0
 30
0.0
  0
VERTEX
  5
B1
  8
レイヤー_1
 62
     7
 10
118.771045
 20
132.24205699999999
 30
0.0
  0
VERTEX
  5
B2
  8
レイヤー_1
 62
     7
 10
118.909538
 20
132.24205699999999
 30
0.0
  0
VERTEX
  5
B3
  8
レイヤー_1
 62
     7
 10
118.909538
 20
132.31027
 30
0.0
  0
SEQEND
  5
B4
  8
レイヤー_1
 62
     7
  0
LINE
  5
AF
  8
レイヤー_1
 62
     7
 10
100.048846
 20
137.384896
 30
0.0
 11
118.771045
 21
132.24205699999999
 31
0.0
  0
POLYLINE
  5
AA
  8
レイヤー_1
 62
     7
 66
     1
 10
0.0
 20
0.0
 30
0.0
  0
VERTEX
  5
AB
  8
レイヤー_1
 62
     7
 10
99.98011600000001
 20
137.45414199999999
 30
0.0
  0
VERTEX
  5
AC
  8
レイヤー_1
 62
     7
 10
99.98011600000001
 20
137.384896
 30
0.0
  0
VERTEX
  5
AD
  8
レイヤー_1
 62
     7
 10
100.048846
 20
137.384896
 30
0.0
  0
SEQEND
  5
AE
  8
レイヤー_1
 62
     7
  0
POLYLINE
  5
A4
  8
レイヤー_1
 62
     7
 66
     1
 10
0.0
 20
0.0
 30
0.0
  0
VERTEX
  5
A5
  8
レイヤー_1
 62
     7
 10
109.99363099999999
 20
146.98568800000001
 30
0.0
  0
VERTEX
  5
A6
  8
レイヤー_1
 62
     7
 10
109.99363099999999
 20
146.91713100000001
 30
0.0
  0
VERTEX
  5
A7
  8
レイヤー_1
 62
     7
 10
110.06184399999999
 20
146.91713100000001
 30
0.0
  0
VERTEX
  5
A8
  8
レイヤー_1
 62
     7
 10
110.06184399999999
 20
146.98568800000001
 30
0.0
  0
SEQEND
  5
A9
  8
レイヤー_1
 62
     7
  0
LINE
  5
A3
  8
レイヤー_1
 62
     7
 10
110.06184399999999
 20
146.91713100000001
 30
0.0
 11
128.51033000000001
 21
141.842849
 31
0.0
  0
POLYLINE
  5
9D
  8
レイヤー_1
 62
     7
 66
     1
 10
0.0
 20
0.0
 30
0.0
  0
VERTEX
  5
9E
  8
レイヤー_1
 62
     7
 10
128.51033000000001
 20
141.842849
 30
0.0
  0
VERTEX
  5
9F
  8
レイヤー_1
 62
     7
 10
128.51033000000001
 20
141.91106199999999
 30
0.0
  0
VERTEX
  5
A0
  8
レイヤー_1
 62
     7
 10
128.578543
 20
141.91106199999999
 30
0.0
  0
VERTEX
  5
A1
  8
レイヤー_1
 62
     7
 10
128.578543
 20
141.979275
 30
0.0
  0
SEQEND
  5
A2
  8
レイヤー_1
 62
     7
  0
LINE
  5
9C
  8
レイヤー_1
 62
     7
 10
100.254518
 20
137.384896
 30
0.0
 11
110.06184399999999
 21
146.91713100000001
 31
0.0
  0
LINE
  5
9B
  8
レイヤー_1
 62
     7
 10
100.18682200000001
 20
137.45414199999999
 30
0.0
 11
100.254518
 21
137.384896
 31
0.0
  0
LINE
  5
9A
  8
レイヤー_1
 62
     7
 10
128.442117
 20
141.842849
 30
0.0
 11
128.51033000000001
 21
141.842849
 31
0.0
  0
LINE
  5
99
  8
レイヤー_1
 62
     7
 10
110.06184399999999
 20
146.84926200000001
 30
0.0
 11
110.06184399999999
 21
146.91713100000001
 31
0.0
  0
LINE
  5
98
  8
レイヤー_1
 62
     7
 10
100.254518
 20
137.384896
 30
0.0
 11
100.392494
 21
137.384896
 31
0.0
  0
LINE
  5
97
  8
レイヤー_1
 62
     7
 10
118.702832
 20
132.44703999999999
 30
0.0
 11
128.37252599999999
 21
141.91106199999999
 31
0.0
  0
LINE
  5
96
  8
レイヤー_1
 62
     7
 10
100.392494
 20
137.45414199999999
 30
0.0
 11
118.702832
 21
132.44703999999999
 31
0.0
  0
POLYLINE
  5
8F
  8
レイヤー_1
 62
     7
 66
     1
 10
0.0
 20
0.0
 30
0.0
  0
VERTEX
  5
90
  8
レイヤー_1
 62
     7
 10
128.990576
 20
142.185981
 30
0.0
  0
VERTEX
  5
91
  8
レイヤー_1
 62
     7
 10
128.990576
 20
142.117424
 30
0.0
  0
VERTEX
  5
92
  8
レイヤー_1
 62
     7
 10
129.05878899999999
 20
142.117424
 30
0.0
  0
VERTEX
  5
93
  8
レイヤー_1
 62
     7
 10
129.05878899999999
 20
142.04921100000001
 30
0.0
  0
VERTEX
  5
94
  8
レイヤー_1
 62
     7
 10
128.990576
 20
142.04921100000001
 30
0.0
  0
SEQEND
  5
95
  8
レイヤー_1
 62
     7
  0
LINE
  5
8E
  8
レイヤー_1
 62
     7
 10
128.990576
 20
142.04921100000001
 30
0.0
 11
128.785248
 21
141.979275
 31
0.0
  0
LINE
  5
8D
  8
レイヤー_1
 62
     7
 10
118.771045
 20
132.37848299999999
 30
0.0
 11
128.51033000000001
 21
141.842849
 31
0.0
  0
LINE
  5
8C
  8
レイヤー_1
 62
     7
 10
118.771045
 20
132.37848299999999
 30
0.0
 11
118.702832
 21
132.44703999999999
 31
0.0
  0
LINE
  5
8B
  8
レイヤー_1
 62
     7
 10
128.990576
 20
142.04921100000001
 30
0.0
 11
119.114176
 21
132.37848299999999
 31
0.0
  0
LINE
  5
8A
  8
レイヤー_1
 62
     7
 10
119.114176
 20
132.37848299999999
 30
0.0
 11
118.909538
 21
132.31027
 31
0.0
  0
LINE
  5
89
  8
レイヤー_1
 62
     7
 10
118.771045
 20
132.37848299999999
 30
0.0
 11
100.254518
 21
137.384896
 31
0.0
  0
POLYLINE
  5
81
  8
レイヤー_1
 62
     7
 66
     1
 10
0.0
 20
0.0
 30
0.0
  0
VERTEX
  5
82
  8
レイヤー_1
 62
     7
 10
100.048846
 20
137.384896
 30
0.0
  0
VERTEX
  5
83
  8
レイヤー_1
 62
     7
 10
99.912419999999983
 20
137.384896
 30
0.0
  0
VERTEX
  5
84
  8
レイヤー_1
 62
     7
 10
99.844207000000011
 20
137.384896
 30
0.0
  0
VERTEX
  5
85
  8
レイヤー_1
 62
     7
 10
99.844207000000011
 20
137.45414199999999
 30
0.0
  0
VERTEX
  5
86
  8
レイヤー_1
 62
     7
 10
99.774443999999988
 20
137.45414199999999
 30
0.0
  0
VERTEX
  5
87
  8
レイヤー_1
 62
     7
 10
99.774443999999988
 20
137.59056799999999
 30
0.0
  0
SEQEND
  5
88
  8
レイヤー_1
 62
     7
  0
LINE
  5
80
  8
レイヤー_1
 62
     7
 10
118.702832
 20
132.31027
 30
0.0
 11
118.771045
 21
132.24205699999999
 31
0.0
  0
LINE
  5
7F
  8
レイヤー_1
 62
     7
 10
118.702832
 20
132.31027
 30
0.0
 11
99.912419999999983
 21
137.384896
 31
0.0
  0
POLYLINE
  5
7A
  8
レイヤー_1
 62
     7
 66
     1
 10
0.0
 20
0.0
 30
0.0
  0
VERTEX
  5
7B
  8
レイヤー_1
 62
     7
 10
119.114176
 20
132.37848299999999
 30
0.0
  0
VERTEX
  5
7C
  8
レイヤー_1
 62
     7
 10
119.045964
 20
132.31027
 30
0.0
  0
VERTEX
  5
7D
  8
レイヤー_1
 62
     7
 10
118.977751
 20
132.31027
 30
0.0
  0
SEQEND
  5
7E
  8
レイヤー_1
 62
     7
  0
LINE
  5
79
  8
レイヤー_1
 62
     7
 10
118.702832
 20
132.31027
 30
0.0
 11
118.63393000000001
 21
132.31027
 31
0.0
  0
LINE
  5
78
  8
レイヤー_1
 62
     7
 10
90.585341000000014
 20
152.40378999999999
 30
0.0
 11
90.44788100000001
 21
152.40378999999999
 31
0.0
  0
LINE
  5
77
  8
レイヤー_1
 62
     7
 10
90.44788100000001
 20
152.40378999999999
 30
0.0
 11
90.309904999999986
 21
152.54159300000001
 31
0.0
  0
POLYLINE
  5
72
  8
レイヤー_1
 62
     7
 66
     1
 10
0.0
 20
0.0
 30
0.0
  0
VERTEX
  5
73
  8
レイヤー_1
 62
     7
 10
90.309904999999986
 20
152.54159300000001
 30
0.0
  0
VERTEX
  5
74
  8
レイヤー_1
 62
     7
 10
90.379668999999978
 20
152.609117
 30
0.0
  0
VERTEX
  5
75
  8
レイヤー_1
 62
     7
 10
90.515578000000005
 20
152.609117
 30
0.0
  0
SEQEND
  5
76
  8
レイヤー_1
 62
     7
  0
LINE
  5
71
  8
レイヤー_1
 62
     7
 10
109.37627000000001
 20
147.26026200000001
 30
0.0
 11
90.585341000000014
 21
152.40378999999999
 31
0.0
  0
LINE
  5
70
  8
レイヤー_1
 62
     7
 10
90.44788100000001
 20
152.40378999999999
 30
0.0
 11
80.573548999999986
 21
142.73443999999989
 31
0.0
  0
LINE
  5
6F
  8
レイヤー_1
 62
     7
 10
80.573548999999986
 20
142.73443999999989
 30
0.0
 11
80.367359999999991
 21
142.87086600000001
 31
0.0
  0
LINE
  5
6E
  8
レイヤー_1
 62
     7
 10
80.367359999999991
 20
142.87086600000001
 30
0.0
 11
90.309904999999986
 21
152.54159300000001
 31
0.0
  0
LINE
  5
6D
  8
レイヤー_1
 62
     7
 10
109.170942
 20
147.26026200000001
 30
0.0
 11
109.170942
 21
147.193083
 31
0.0
  0
LINE
  5
6C
  8
レイヤー_1
 62
     7
 10
109.170942
 20
147.26026200000001
 30
0.0
 11
90.654069999999976
 21
152.26667499999999
 31
0.0
  0
LINE
  5
6B
  8
レイヤー_1
 62
     7
 10
90.515578000000005
 20
152.26667499999999
 30
0.0
 11
90.654069999999976
 21
152.26667499999999
 31
0.0
  0
LINE
  5
6A
  8
レイヤー_1
 62
     7
 10
90.515578000000005
 20
152.26667499999999
 30
0.0
 11
80.778186999999988
 21
142.73443999999989
 31
0.0
  0
LINE
  5
69
  8
レイヤー_1
 62
     7
 10
80.778186999999988
 20
142.73443999999989
 30
0.0
 11
80.778186999999988
 21
142.73443999999989
 31
0.0
  0
LINE
  5
68
  8
レイヤー_1
 62
     7
 10
109.37627000000001
 20
147.26026200000001
 30
0.0
 11
109.37627000000001
 21
147.26026200000001
 31
0.0
  0
LINE
  5
67
  8
レイヤー_1
 62
     7
 10
99.500042000000022
 20
137.59056799999999
 30
0.0
 11
109.37627000000001
 21
147.26026200000001
 31
0.0
  0
POLYLINE
  5
62
  8
レイヤー_1
 62
     7
 66
     1
 10
0.0
 20
0.0
 30
0.0
  0
VERTEX
  5
63
  8
レイヤー_1
 62
     7
 10
99.363100000000003
 20
137.522355
 30
0.0
  0
VERTEX
  5
64
  8
レイヤー_1
 62
     7
 10
99.500042000000022
 20
137.522355
 30
0.0
  0
VERTEX
  5
65
  8
レイヤー_1
 62
     7
 10
99.500042000000022
 20
137.59056799999999
 30
0.0
  0
SEQEND
  5
66
  8
レイヤー_1
 62
     7
  0
LINE
  5
61
  8
レイヤー_1
 62
     7
 10
80.641762
 20
142.66622699999999
 30
0.0
 11
99.363100000000003
 21
137.522355
 31
0.0
  0
POLYLINE
  5
5C
  8
レイヤー_1
 62
     7
 66
     1
 10
0.0
 20
0.0
 30
0.0
  0
VERTEX
  5
5D
  8
レイヤー_1
 62
     7
 10
80.573548999999986
 20
142.73443999999989
 30
0.0
  0
VERTEX
  5
5E
  8
レイヤー_1
 62
     7
 10
80.573548999999986
 20
142.66622699999999
 30
0.0
  0
VERTEX
  5
5F
  8
レイヤー_1
 62
     7
 10
80.641762
 20
142.66622699999999
 30
0.0
  0
SEQEND
  5
60
  8
レイヤー_1
 62
     7
  0
LINE
  5
5B
  8
レイヤー_1
 62
     7
 10
90.515578000000005
 20
152.26667499999999
 30
0.0
 11
90.585341000000014
 21
152.19846200000001
 31
0.0
  0
POLYLINE
  5
56
  8
レイヤー_1
 62
     7
 66
     1
 10
0.0
 20
0.0
 30
0.0
  0
VERTEX
  5
57
  8
レイヤー_1
 62
     7
 10
90.585341000000014
 20
152.19846200000001
 30
0.0
  0
VERTEX
  5
58
  8
レイヤー_1
 62
     7
 10
90.654069999999976
 20
152.19846200000001
 30
0.0
  0
VERTEX
  5
59
  8
レイヤー_1
 62
     7
 10
90.654069999999976
 20
152.26667499999999
 30
0.0
  0
SEQEND
  5
5A
  8
レイヤー_1
 62
     7
  0
LINE
  5
55
  8
レイヤー_1
 62
     7
 10
90.585341000000014
 20
152.19846200000001
 30
0.0
 11
109.102729
 21
147.12314699999999
 31
0.0
  0
POLYLINE
  5
4F
  8
レイヤー_1
 62
     7
 66
     1
 10
0.0
 20
0.0
 30
0.0
  0
VERTEX
  5
50
  8
レイヤー_1
 62
     7
 10
109.102729
 20
147.12314699999999
 30
0.0
  0
VERTEX
  5
51
  8
レイヤー_1
 62
     7
 10
109.102729
 20
147.193083
 30
0.0
  0
VERTEX
  5
52
  8
レイヤー_1
 62
     7
 10
109.170942
 20
147.193083
 30
0.0
  0
VERTEX
  5
53
  8
レイヤー_1
 62
     7
 10
109.170942
 20
147.26026200000001
 30
0.0
  0
SEQEND
  5
54
  8
レイヤー_1
 62
     7
  0
LINE
  5
4E
  8
レイヤー_1
 62
     7
 10
80.847950999999995
 20
142.66622699999999
 30
0.0
 11
90.585341000000014
 21
152.19846200000001
 31
0.0
  0
POLYLINE
  5
49
  8
レイヤー_1
 62
     7
 66
     1
 10
0.0
 20
0.0
 30
0.0
  0
VERTEX
  5
4A
  8
レイヤー_1
 62
     7
 10
80.778186999999988
 20
142.73443999999989
 30
0.0
  0
VERTEX
  5
4B
  8
レイヤー_1
 62
     7
 10
80.778186999999988
 20
142.66622699999999
 30
0.0
  0
VERTEX
  5
4C
  8
レイヤー_1
 62
     7
 10
80.847950999999995
 20
142.66622699999999
 30
0.0
  0
SEQEND
  5
4D
  8
レイヤー_1
 62
     7
  0
LINE
  5
48
  8
レイヤー_1
 62
     7
 10
109.032449
 20
147.12314699999999
 30
0.0
 11
109.102729
 21
147.12314699999999
 31
0.0
  0
LINE
  5
47
  8
レイヤー_1
 62
     7
 10
90.654069999999976
 20
152.12938799999989
 30
0.0
 11
90.585341000000014
 21
152.19846200000001
 31
0.0
  0
LINE
  5
46
  8
レイヤー_1
 62
     7
 10
80.847950999999995
 20
142.66622699999999
 30
0.0
 11
80.983343000000005
 21
142.66622699999999
 31
0.0
  0
LINE
  5
45
  8
レイヤー_1
 62
     7
 10
99.294887000000003
 20
137.72837200000001
 30
0.0
 11
108.964236
 21
147.193083
 31
0.0
  0
LINE
  5
44
  8
レイヤー_1
 62
     7
 10
80.983343000000005
 20
142.73443999999989
 30
0.0
 11
99.294887000000003
 21
137.72837200000001
 31
0.0
  0
LINE
  5
43
  8
レイヤー_1
 62
     7
 10
109.58090799999999
 20
147.465934
 30
0.0
 11
109.58090799999999
 21
147.329508
 31
0.0
  0
LINE
  5
42
  8
レイヤー_1
 62
     7
 10
109.58090799999999
 20
147.329508
 30
0.0
 11
109.37627000000001
 21
147.26026200000001
 31
0.0
  0
LINE
  5
41
  8
レイヤー_1
 62
     7
 10
99.363100000000003
 20
137.66015899999999
 30
0.0
 11
109.102729
 21
147.12314699999999
 31
0.0
  0
POLYLINE
  5
3C
  8
レイヤー_1
 62
     7
 66
     1
 10
0.0
 20
0.0
 30
0.0
  0
VERTEX
  5
3D
  8
レイヤー_1
 62
     7
 10
99.363100000000003
 20
137.66015899999999
 30
0.0
  0
VERTEX
  5
3E
  8
レイヤー_1
 62
     7
 10
99.294887000000003
 20
137.66015899999999
 30
0.0
  0
VERTEX
  5
3F
  8
レイヤー_1
 62
     7
 10
99.294887000000003
 20
137.72837200000001
 30
0.0
  0
SEQEND
  5
40
  8
レイヤー_1
 62
     7
  0
LINE
  5
3B
  8
レイヤー_1
 62
     7
 10
109.58090799999999
 20
147.329508
 30
0.0
 11
99.707265000000007
 21
137.66015899999999
 31
0.0
  0
LINE
  5
3A
  8
レイヤー_1
 62
     7
 10
99.707265000000007
 20
137.66015899999999
 30
0.0
 11
99.500042000000022
 21
137.59056799999999
 31
0.0
  0
LINE
  5
39
  8
レイヤー_1
 62
     7
 10
99.363100000000003
 20
137.66015899999999
 30
0.0
 11
80.847950999999995
 21
142.66622699999999
 31
0.0
  0
POLYLINE
  5
31
  8
レイヤー_1
 62
     7
 66
     1
 10
0.0
 20
0.0
 30
0.0
  0
VERTEX
  5
32
  8
レイヤー_1
 62
     7
 10
80.641762
 20
142.66622699999999
 30
0.0
  0
VERTEX
  5
33
  8
レイヤー_1
 62
     7
 10
80.503786000000005
 20
142.66622699999999
 30
0.0
  0
VERTEX
  5
34
  8
レイヤー_1
 62
     7
 10
80.435573000000005
 20
142.66622699999999
 30
0.0
  0
VERTEX
  5
35
  8
レイヤー_1
 62
     7
 10
80.435573000000005
 20
142.73443999999989
 30
0.0
  0
VERTEX
  5
36
  8
レイヤー_1
 62
     7
 10
80.367359999999991
 20
142.73443999999989
 30
0.0
  0
VERTEX
  5
37
  8
レイヤー_1
 62
     7
 10
80.367359999999991
 20
142.87086600000001
 30
0.0
  0
SEQEND
  5
38
  8
レイヤー_1
 62
     7
  0
LINE
  5
30
  8
レイヤー_1
 62
     7
 10
99.294887000000003
 20
137.59056799999999
 30
0.0
 11
99.363100000000003
 21
137.522355
 31
0.0
  0
LINE
  5
2F
  8
レイヤー_1
 62
     7
 10
99.294887000000003
 20
137.59056799999999
 30
0.0
 11
80.503786000000005
 21
142.66622699999999
 31
0.0
  0
POLYLINE
  5
2A
  8
レイヤー_1
 62
     7
 66
     1
 10
0.0
 20
0.0
 30
0.0
  0
VERTEX
  5
2B
  8
レイヤー_1
 62
     7
 10
99.707265000000007
 20
137.66015899999999
 30
0.0
  0
VERTEX
  5
2C
  8
レイヤー_1
 62
     7
 10
99.638018000000002
 20
137.59056799999999
 30
0.0
  0
VERTEX
  5
2D
  8
レイヤー_1
 62
     7
 10
99.569288
 20
137.59056799999999
 30
0.0
  0
SEQEND
  5
2E
  8
レイヤー_1
 62
     7
  0
LINE
  5
29
  8
レイヤー_1
 62
     7
 10
99.294887000000003
 20
137.59056799999999
 30
0.0
 11
99.226674000000017
 21
137.59056799999999
 31
0.0
  0
ENDSEC
  0
EOF
