  0
SECTION
  2
HEADER
  9
$ACADVER
  1
AC1015
  9
$ACADMAINTVER
 70
     6
  9
$DWGCODEPAGE
  3
ANSI_932
  9
$INSBASE
 10
0.0
 20
0.0
 30
0.0
  9
$EXTMIN
 10
1.000000000000000E+20
 20
1.000000000000000E+20
 30
1.000000000000000E+20
  9
$EXTMAX
 10
-1.000000000000000E+20
 20
-1.000000000000000E+20
 30
-1.000000000000000E+20
  9
$LIMMIN
 10
0.0
 20
0.0
  9
$LIMMAX
 10
12.0
 20
9.0
  9
$ORTHOMODE
 70
     0
  9
$REGENMODE
 70
     1
  9
$FILLMODE
 70
     1
  9
$QTEXTMODE
 70
     0
  9
$MIRRTEXT
 70
     1
  9
$LTSCALE
 40
1.0
  9
$ATTMODE
 70
     1
  9
$TEXTSIZE
 40
0.2
  9
$TRACEWID
 40
0.05
  9
$TEXTSTYLE
  7
Standard
  9
$CLAYER
  8
0
  9
$CELTYPE
  6
ByLayer
  9
$CECOLOR
 62
   256
  9
$CELTSCALE
 40
1.0
  9
$DISPSILH
 70
     0
  9
$DIMSCALE
 40
1.0
  9
$DIMASZ
 40
0.18
  9
$DIMEXO
 40
0.0625
  9
$DIMDLI
 40
0.38
  9
$DIMRND
 40
0.0
  9
$DIMDLE
 40
0.0
  9
$DIMEXE
 40
0.18
  9
$DIMTP
 40
0.0
  9
$DIMTM
 40
0.0
  9
$DIMTXT
 40
0.18
  9
$DIMCEN
 40
0.09
  9
$DIMTSZ
 40
0.0
  9
$DIMTOL
 70
     0
  9
$DIMLIM
 70
     0
  9
$DIMTIH
 70
     1
  9
$DIMTOH
 70
     1
  9
$DIMSE1
 70
     0
  9
$DIMSE2
 70
     0
  9
$DIMTAD
 70
     0
  9
$DIMZIN
 70
     0
  9
$DIMBLK
  1

  9
$DIMASO
 70
     1
  9
$DIMSHO
 70
     1
  9
$DIMPOST
  1

  9
$DIMAPOST
  1

  9
$DIMALT
 70
     0
  9
$DIMALTD
 70
     2
  9
$DIMALTF
 40
25.4
  9
$DIMLFAC
 40
1.0
  9
$DIMTOFL
 70
     0
  9
$DIMTVP
 40
0.0
  9
$DIMTIX
 70
     0
  9
$DIMSOXD
 70
     0
  9
$DIMSAH
 70
     0
  9
$DIMBLK1
  1

  9
$DIMBLK2
  1

  9
$DIMSTYLE
  2
Standard
  9
$DIMCLRD
 70
     0
  9
$DIMCLRE
 70
     0
  9
$DIMCLRT
 70
     0
  9
$DIMTFAC
 40
1.0
  9
$DIMGAP
 40
0.09
  9
$DIMJUST
 70
     0
  9
$DIMSD1
 70
     0
  9
$DIMSD2
 70
     0
  9
$DIMTOLJ
 70
     1
  9
$DIMTZIN
 70
     0
  9
$DIMALTZ
 70
     0
  9
$DIMALTTZ
 70
     0
  9
$DIMUPT
 70
     0
  9
$DIMDEC
 70
     4
  9
$DIMTDEC
 70
     4
  9
$DIMALTU
 70
     2
  9
$DIMALTTD
 70
     2
  9
$DIMTXSTY
  7
Standard
  9
$DIMAUNIT
 70
     0
  9
$DIMADEC
 70
     0
  9
$DIMALTRND
 40
0.0
  9
$DIMAZIN
 70
     0
  9
$DIMDSEP
 70
    46
  9
$DIMATFIT
 70
     3
  9
$DIMFRAC
 70
     0
  9
$DIMLDRBLK
  1

  9
$DIMLUNIT
 70
     2
  9
$DIMLWD
 70
    -2
  9
$DIMLWE
 70
    -2
  9
$DIMTMOVE
 70
     0
  9
$LUNITS
 70
     2
  9
$LUPREC
 70
     4
  9
$SKETCHINC
 40
0.1
  9
$FILLETRAD
 40
0.5
  9
$AUNITS
 70
     0
  9
$AUPREC
 70
     0
  9
$MENU
  1
.
  9
$ELEVATION
 40
0.0
  9
$PELEVATION
 40
0.0
  9
$THICKNESS
 40
0.0
  9
$LIMCHECK
 70
     0
  9
$CHAMFERA
 40
0.5
  9
$CHAMFERB
 40
0.5
  9
$CHAMFERC
 40
1.0
  9
$CHAMFERD
 40
0.0
  9
$SKPOLY
 70
     0
  9
$TDCREATE
 40
2456351.607716713
  9
$TDUCREATE
 40
2456351.232716713
  9
$TDUPDATE
 40
2456351.607716725
  9
$TDUUPDATE
 40
2456351.232716725
  9
$TDINDWG
 40
0.0000000116
  9
$TDUSRTIMER
 40
0.0000000116
  9
$USRTIMER
 70
     1
  9
$ANGBASE
 50
0.0
  9
$ANGDIR
 70
     0
  9
$PDMODE
 70
     0
  9
$PDSIZE
 40
0.0
  9
$PLINEWID
 40
0.0
  9
$SPLFRAME
 70
     0
  9
$SPLINETYPE
 70
     6
  9
$SPLINESEGS
 70
     8
  9
$HANDSEED
  5
742
  9
$SURFTAB1
 70
     6
  9
$SURFTAB2
 70
     6
  9
$SURFTYPE
 70
     6
  9
$SURFU
 70
     6
  9
$SURFV
 70
     6
  9
$UCSBASE
  2

  9
$UCSNAME
  2

  9
$UCSORG
 10
0.0
 20
0.0
 30
0.0
  9
$UCSXDIR
 10
1.0
 20
0.0
 30
0.0
  9
$UCSYDIR
 10
0.0
 20
1.0
 30
0.0
  9
$UCSORTHOREF
  2

  9
$UCSORTHOVIEW
 70
     0
  9
$UCSORGTOP
 10
0.0
 20
0.0
 30
0.0
  9
$UCSORGBOTTOM
 10
0.0
 20
0.0
 30
0.0
  9
$UCSORGLEFT
 10
0.0
 20
0.0
 30
0.0
  9
$UCSORGRIGHT
 10
0.0
 20
0.0
 30
0.0
  9
$UCSORGFRONT
 10
0.0
 20
0.0
 30
0.0
  9
$UCSORGBACK
 10
0.0
 20
0.0
 30
0.0
  9
$PUCSBASE
  2

  9
$PUCSNAME
  2

  9
$PUCSORG
 10
0.0
 20
0.0
 30
0.0
  9
$PUCSXDIR
 10
1.0
 20
0.0
 30
0.0
  9
$PUCSYDIR
 10
0.0
 20
1.0
 30
0.0
  9
$PUCSORTHOREF
  2

  9
$PUCSORTHOVIEW
 70
     0
  9
$PUCSORGTOP
 10
0.0
 20
0.0
 30
0.0
  9
$PUCSORGBOTTOM
 10
0.0
 20
0.0
 30
0.0
  9
$PUCSORGLEFT
 10
0.0
 20
0.0
 30
0.0
  9
$PUCSORGRIGHT
 10
0.0
 20
0.0
 30
0.0
  9
$PUCSORGFRONT
 10
0.0
 20
0.0
 30
0.0
  9
$PUCSORGBACK
 10
0.0
 20
0.0
 30
0.0
  9
$USERI1
 70
     0
  9
$USERI2
 70
     0
  9
$USERI3
 70
     0
  9
$USERI4
 70
     0
  9
$USERI5
 70
     0
  9
$USERR1
 40
0.0
  9
$USERR2
 40
0.0
  9
$USERR3
 40
0.0
  9
$USERR4
 40
0.0
  9
$USERR5
 40
0.0
  9
$WORLDVIEW
 70
     1
  9
$SHADEDGE
 70
     3
  9
$SHADEDIF
 70
    70
  9
$TILEMODE
 70
     1
  9
$MAXACTVP
 70
    64
  9
$PINSBASE
 10
0.0
 20
0.0
 30
0.0
  9
$PLIMCHECK
 70
     0
  9
$PEXTMIN
 10
1.000000000000000E+20
 20
1.000000000000000E+20
 30
1.000000000000000E+20
  9
$PEXTMAX
 10
-1.000000000000000E+20
 20
-1.000000000000000E+20
 30
-1.000000000000000E+20
  9
$PLIMMIN
 10
0.0
 20
0.0
  9
$PLIMMAX
 10
12.0
 20
9.0
  9
$UNITMODE
 70
     0
  9
$VISRETAIN
 70
     1
  9
$PLINEGEN
 70
     0
  9
$PSLTSCALE
 70
     1
  9
$TREEDEPTH
 70
  3020
  9
$CMLSTYLE
  2
Standard
  9
$CMLJUST
 70
     0
  9
$CMLSCALE
 40
1.0
  9
$PROXYGRAPHICS
 70
     1
  9
$MEASUREMENT
 70
     0
  9
$CELWEIGHT
370
    -1
  9
$ENDCAPS
280
     0
  9
$JOINSTYLE
280
     0
  9
$LWDISPLAY
290
     1
  9
$INSUNITS
 70
     1
  9
$HYPERLINKBASE
  1

  9
$STYLESHEET
  1

  9
$XEDIT
290
     1
  9
$CEPSNTYPE
380
     0
  9
$PSTYLEMODE
290
     1
  9
$FINGERPRINTGUID
  2
{155ED10B-D144-4DE7-BFD3-CC7B792AB6EC}
  9
$VERSIONGUID
  2
{FAEB1C32-E019-11D5-929B-00C0DF256EC4}
  9
$EXTNAMES
290
     1
  9
$PSVPSCALE
 40
0.0
  9
$OLESTARTUP
290
     0
  0
ENDSEC
  0
SECTION
  2
CLASSES
  0
CLASS
  1
ACDBDICTIONARYWDFLT
  2
AcDbDictionaryWithDefault
  3
ObjectDBX Classes
 90
        0
280
     0
281
     0
  0
CLASS
  1
VISUALSTYLE
  2
AcDbVisualStyle
  3
ObjectDBX Classes
 90
     4095
280
     0
281
     0
  0
CLASS
  1
ACDBPLACEHOLDER
  2
AcDbPlaceHolder
  3
ObjectDBX Classes
 90
        0
280
     0
281
     0
  0
CLASS
  1
LAYOUT
  2
AcDbLayout
  3
ObjectDBX Classes
 90
        0
280
     0
281
     0
  0
ENDSEC
  0
SECTION
  2
TABLES
  0
TABLE
  2
VPORT
  5
8
330
0
100
AcDbSymbolTable
 70
     1
  0
VPORT
  5
29
330
8
100
AcDbSymbolTableRecord
100
AcDbViewportTableRecord
  2
*Active
 70
     0
 10
0.0
 20
0.0
 11
1.0
 21
1.0
 12
0.0
 22
0.0
 13
0.0
 23
0.0
 14
0.5
 24
0.5
 15
0.5
 25
0.5
 16
0.0
 26
0.0
 36
1.0
 17
148.4999796178229
 27
104.9999647089931
 37
0.0
 40
209.9999294179862
 41
1.414285995518093
 42
50.0
 43
0.0
 44
0.0
 50
0.0
 51
0.0
 71
     0
 72
   100
 73
     1
 74
     3
 75
     0
 76
     0
 77
     0
 78
     0
281
     0
 65
     1
110
0.0
120
0.0
130
0.0
111
1.0
121
0.0
131
0.0
112
0.0
122
1.0
132
0.0
 79
     0
146
0.0
  0
ENDTAB
  0
TABLE
  2
LTYPE
  5
5
330
0
100
AcDbSymbolTable
 70
     1
  0
LTYPE
  5
14
330
5
100
AcDbSymbolTableRecord
100
AcDbLinetypeTableRecord
  2
ByBlock
 70
     0
  3

 72
    65
 73
     0
 40
0.0
  0
LTYPE
  5
15
330
5
100
AcDbSymbolTableRecord
100
AcDbLinetypeTableRecord
  2
ByLayer
 70
     0
  3

 72
    65
 73
     0
 40
0.0
  0
LTYPE
  5
16
330
5
100
AcDbSymbolTableRecord
100
AcDbLinetypeTableRecord
  2
Continuous
 70
     0
  3
Solid line
 72
    65
 73
     0
 40
0.0
  0
ENDTAB
  0
TABLE
  2
LAYER
  5
2
330
0
100
AcDbSymbolTable
 70
     1
  0
LAYER
  5
10
330
2
100
AcDbSymbolTableRecord
100
AcDbLayerTableRecord
  2
0
 70
     0
 62
     7
  6
Continuous
370
    -3
390
F
  0
ENDTAB
  0
TABLE
  2
STYLE
  5
3
330
0
100
AcDbSymbolTable
 70
     1
  0
STYLE
  5
11
330
3
100
AcDbSymbolTableRecord
100
AcDbTextStyleTableRecord
  2
Standard
 70
     0
 40
0.0
 41
1.0
 50
0.0
 71
     0
 42
0.2
  3
txt
  4

  0
ENDTAB
  0
TABLE
  2
VIEW
  5
6
330
0
100
AcDbSymbolTable
 70
     0
  0
ENDTAB
  0
TABLE
  2
UCS
  5
7
330
0
100
AcDbSymbolTable
 70
     0
  0
ENDTAB
  0
TABLE
  2
APPID
  5
9
330
0
100
AcDbSymbolTable
 70
     1
  0
APPID
  5
12
330
9
100
AcDbSymbolTableRecord
100
AcDbRegAppTableRecord
  2
ACAD
 70
     0
  0
ENDTAB
  0
TABLE
  2
DIMSTYLE
  5
A
330
0
100
AcDbSymbolTable
 70
     1
100
AcDbDimStyleTable
  0
DIMSTYLE
105
27
330
A
100
AcDbSymbolTableRecord
100
AcDbDimStyleTableRecord
  2
Standard
 70
     0
340
11
  0
ENDTAB
  0
TABLE
  2
BLOCK_RECORD
  5
1
330
0
100
AcDbSymbolTable
 70
   185
  0
BLOCK_RECORD
  5
1F
330
1
100
AcDbSymbolTableRecord
100
AcDbBlockTableRecord
  2
*Model_Space
340
22
  0
BLOCK_RECORD
  5
1B
330
1
100
AcDbSymbolTableRecord
100
AcDbBlockTableRecord
  2
*Paper_Space
340
1E
  0
BLOCK_RECORD
  5
23
330
1
100
AcDbSymbolTableRecord
100
AcDbBlockTableRecord
  2
*Paper_Space0
340
26
  0
BLOCK_RECORD
  5
3B
330
1
100
AcDbSymbolTableRecord
100
AcDbBlockTableRecord
  2
block 2
340
0
102
{BLKREFS
331
3C
102
}
  0
BLOCK_RECORD
  5
52
330
1
100
AcDbSymbolTableRecord
100
AcDbBlockTableRecord
  2
block 3
340
0
102
{BLKREFS
331
53
102
}
  0
BLOCK_RECORD
  5
5A
330
1
100
AcDbSymbolTableRecord
100
AcDbBlockTableRecord
  2
block 4
340
0
102
{BLKREFS
331
5B
102
}
  0
BLOCK_RECORD
  5
5F
330
1
100
AcDbSymbolTableRecord
100
AcDbBlockTableRecord
  2
block 5
340
0
102
{BLKREFS
331
60
102
}
  0
BLOCK_RECORD
  5
64
330
1
100
AcDbSymbolTableRecord
100
AcDbBlockTableRecord
  2
block 6
340
0
102
{BLKREFS
331
65
102
}
  0
BLOCK_RECORD
  5
6C
330
1
100
AcDbSymbolTableRecord
100
AcDbBlockTableRecord
  2
block 7
340
0
102
{BLKREFS
331
6D
102
}
  0
BLOCK_RECORD
  5
74
330
1
100
AcDbSymbolTableRecord
100
AcDbBlockTableRecord
  2
block 8
340
0
102
{BLKREFS
331
75
102
}
  0
BLOCK_RECORD
  5
7C
330
1
100
AcDbSymbolTableRecord
100
AcDbBlockTableRecord
  2
block 9
340
0
102
{BLKREFS
331
7D
102
}
  0
BLOCK_RECORD
  5
84
330
1
100
AcDbSymbolTableRecord
100
AcDbBlockTableRecord
  2
block 10
340
0
102
{BLKREFS
331
85
102
}
  0
BLOCK_RECORD
  5
8C
330
1
100
AcDbSymbolTableRecord
100
AcDbBlockTableRecord
  2
block 11
340
0
102
{BLKREFS
331
8D
102
}
  0
BLOCK_RECORD
  5
94
330
1
100
AcDbSymbolTableRecord
100
AcDbBlockTableRecord
  2
block 12
340
0
102
{BLKREFS
331
95
102
}
  0
BLOCK_RECORD
  5
9C
330
1
100
AcDbSymbolTableRecord
100
AcDbBlockTableRecord
  2
block 13
340
0
102
{BLKREFS
331
9D
102
}
  0
BLOCK_RECORD
  5
A4
330
1
100
AcDbSymbolTableRecord
100
AcDbBlockTableRecord
  2
block 14
340
0
102
{BLKREFS
331
A5
102
}
  0
BLOCK_RECORD
  5
AC
330
1
100
AcDbSymbolTableRecord
100
AcDbBlockTableRecord
  2
block 15
340
0
102
{BLKREFS
331
AD
102
}
  0
BLOCK_RECORD
  5
B4
330
1
100
AcDbSymbolTableRecord
100
AcDbBlockTableRecord
  2
block 16
340
0
102
{BLKREFS
331
B5
102
}
  0
BLOCK_RECORD
  5
BC
330
1
100
AcDbSymbolTableRecord
100
AcDbBlockTableRecord
  2
block 17
340
0
102
{BLKREFS
331
BD
102
}
  0
BLOCK_RECORD
  5
C4
330
1
100
AcDbSymbolTableRecord
100
AcDbBlockTableRecord
  2
block 18
340
0
102
{BLKREFS
331
C5
102
}
  0
BLOCK_RECORD
  5
CC
330
1
100
AcDbSymbolTableRecord
100
AcDbBlockTableRecord
  2
block 19
340
0
102
{BLKREFS
331
CD
102
}
  0
BLOCK_RECORD
  5
D4
330
1
100
AcDbSymbolTableRecord
100
AcDbBlockTableRecord
  2
block 20
340
0
102
{BLKREFS
331
D5
102
}
  0
BLOCK_RECORD
  5
DC
330
1
100
AcDbSymbolTableRecord
100
AcDbBlockTableRecord
  2
block 21
340
0
102
{BLKREFS
331
DD
102
}
  0
BLOCK_RECORD
  5
E4
330
1
100
AcDbSymbolTableRecord
100
AcDbBlockTableRecord
  2
block 22
340
0
102
{BLKREFS
331
E5
102
}
  0
BLOCK_RECORD
  5
EC
330
1
100
AcDbSymbolTableRecord
100
AcDbBlockTableRecord
  2
block 23
340
0
102
{BLKREFS
331
ED
102
}
  0
BLOCK_RECORD
  5
F4
330
1
100
AcDbSymbolTableRecord
100
AcDbBlockTableRecord
  2
block 24
340
0
102
{BLKREFS
331
F5
102
}
  0
BLOCK_RECORD
  5
FC
330
1
100
AcDbSymbolTableRecord
100
AcDbBlockTableRecord
  2
block 25
340
0
102
{BLKREFS
331
FD
102
}
  0
BLOCK_RECORD
  5
104
330
1
100
AcDbSymbolTableRecord
100
AcDbBlockTableRecord
  2
block 26
340
0
102
{BLKREFS
331
105
102
}
  0
BLOCK_RECORD
  5
10C
330
1
100
AcDbSymbolTableRecord
100
AcDbBlockTableRecord
  2
block 27
340
0
102
{BLKREFS
331
10D
102
}
  0
BLOCK_RECORD
  5
114
330
1
100
AcDbSymbolTableRecord
100
AcDbBlockTableRecord
  2
block 28
340
0
102
{BLKREFS
331
115
102
}
  0
BLOCK_RECORD
  5
11C
330
1
100
AcDbSymbolTableRecord
100
AcDbBlockTableRecord
  2
block 29
340
0
102
{BLKREFS
331
11D
102
}
  0
BLOCK_RECORD
  5
124
330
1
100
AcDbSymbolTableRecord
100
AcDbBlockTableRecord
  2
block 30
340
0
102
{BLKREFS
331
125
102
}
  0
BLOCK_RECORD
  5
12C
330
1
100
AcDbSymbolTableRecord
100
AcDbBlockTableRecord
  2
block 31
340
0
102
{BLKREFS
331
12D
102
}
  0
BLOCK_RECORD
  5
134
330
1
100
AcDbSymbolTableRecord
100
AcDbBlockTableRecord
  2
block 32
340
0
102
{BLKREFS
331
135
102
}
  0
BLOCK_RECORD
  5
139
330
1
100
AcDbSymbolTableRecord
100
AcDbBlockTableRecord
  2
block 33
340
0
102
{BLKREFS
331
13A
102
}
  0
BLOCK_RECORD
  5
13E
330
1
100
AcDbSymbolTableRecord
100
AcDbBlockTableRecord
  2
block 34
340
0
102
{BLKREFS
331
13F
102
}
  0
BLOCK_RECORD
  5
146
330
1
100
AcDbSymbolTableRecord
100
AcDbBlockTableRecord
  2
block 35
340
0
102
{BLKREFS
331
147
102
}
  0
BLOCK_RECORD
  5
14E
330
1
100
AcDbSymbolTableRecord
100
AcDbBlockTableRecord
  2
block 36
340
0
102
{BLKREFS
331
14F
102
}
  0
BLOCK_RECORD
  5
156
330
1
100
AcDbSymbolTableRecord
100
AcDbBlockTableRecord
  2
block 37
340
0
102
{BLKREFS
331
157
102
}
  0
BLOCK_RECORD
  5
15B
330
1
100
AcDbSymbolTableRecord
100
AcDbBlockTableRecord
  2
block 38
340
0
102
{BLKREFS
331
15C
102
}
  0
BLOCK_RECORD
  5
163
330
1
100
AcDbSymbolTableRecord
100
AcDbBlockTableRecord
  2
block 39
340
0
102
{BLKREFS
331
164
102
}
  0
BLOCK_RECORD
  5
168
330
1
100
AcDbSymbolTableRecord
100
AcDbBlockTableRecord
  2
block 40
340
0
102
{BLKREFS
331
169
102
}
  0
BLOCK_RECORD
  5
170
330
1
100
AcDbSymbolTableRecord
100
AcDbBlockTableRecord
  2
block 41
340
0
102
{BLKREFS
331
171
102
}
  0
BLOCK_RECORD
  5
178
330
1
100
AcDbSymbolTableRecord
100
AcDbBlockTableRecord
  2
block 42
340
0
102
{BLKREFS
331
179
102
}
  0
BLOCK_RECORD
  5
17D
330
1
100
AcDbSymbolTableRecord
100
AcDbBlockTableRecord
  2
block 43
340
0
102
{BLKREFS
331
17E
102
}
  0
BLOCK_RECORD
  5
182
330
1
100
AcDbSymbolTableRecord
100
AcDbBlockTableRecord
  2
block 44
340
0
102
{BLKREFS
331
183
102
}
  0
BLOCK_RECORD
  5
18A
330
1
100
AcDbSymbolTableRecord
100
AcDbBlockTableRecord
  2
block 45
340
0
102
{BLKREFS
331
18B
102
}
  0
BLOCK_RECORD
  5
18F
330
1
100
AcDbSymbolTableRecord
100
AcDbBlockTableRecord
  2
block 46
340
0
102
{BLKREFS
331
190
102
}
  0
BLOCK_RECORD
  5
194
330
1
100
AcDbSymbolTableRecord
100
AcDbBlockTableRecord
  2
block 47
340
0
102
{BLKREFS
331
195
102
}
  0
BLOCK_RECORD
  5
19C
330
1
100
AcDbSymbolTableRecord
100
AcDbBlockTableRecord
  2
block 48
340
0
102
{BLKREFS
331
19D
102
}
  0
BLOCK_RECORD
  5
1A4
330
1
100
AcDbSymbolTableRecord
100
AcDbBlockTableRecord
  2
block 49
340
0
102
{BLKREFS
331
1A5
102
}
  0
BLOCK_RECORD
  5
1A9
330
1
100
AcDbSymbolTableRecord
100
AcDbBlockTableRecord
  2
block 50
340
0
102
{BLKREFS
331
1AA
102
}
  0
BLOCK_RECORD
  5
1AE
330
1
100
AcDbSymbolTableRecord
100
AcDbBlockTableRecord
  2
block 51
340
0
102
{BLKREFS
331
1AF
102
}
  0
BLOCK_RECORD
  5
1B6
330
1
100
AcDbSymbolTableRecord
100
AcDbBlockTableRecord
  2
block 52
340
0
102
{BLKREFS
331
1B7
102
}
  0
BLOCK_RECORD
  5
1BE
330
1
100
AcDbSymbolTableRecord
100
AcDbBlockTableRecord
  2
block 53
340
0
102
{BLKREFS
331
1BF
102
}
  0
BLOCK_RECORD
  5
1C6
330
1
100
AcDbSymbolTableRecord
100
AcDbBlockTableRecord
  2
block 54
340
0
102
{BLKREFS
331
1C7
102
}
  0
BLOCK_RECORD
  5
1CE
330
1
100
AcDbSymbolTableRecord
100
AcDbBlockTableRecord
  2
block 55
340
0
102
{BLKREFS
331
1CF
102
}
  0
BLOCK_RECORD
  5
1D3
330
1
100
AcDbSymbolTableRecord
100
AcDbBlockTableRecord
  2
block 56
340
0
102
{BLKREFS
331
1D4
102
}
  0
BLOCK_RECORD
  5
1D8
330
1
100
AcDbSymbolTableRecord
100
AcDbBlockTableRecord
  2
block 57
340
0
102
{BLKREFS
331
1D9
102
}
  0
BLOCK_RECORD
  5
1DD
330
1
100
AcDbSymbolTableRecord
100
AcDbBlockTableRecord
  2
block 58
340
0
102
{BLKREFS
331
1DE
102
}
  0
BLOCK_RECORD
  5
1E2
330
1
100
AcDbSymbolTableRecord
100
AcDbBlockTableRecord
  2
block 59
340
0
102
{BLKREFS
331
1E3
102
}
  0
BLOCK_RECORD
  5
1E7
330
1
100
AcDbSymbolTableRecord
100
AcDbBlockTableRecord
  2
block 60
340
0
102
{BLKREFS
331
1E8
102
}
  0
BLOCK_RECORD
  5
1EC
330
1
100
AcDbSymbolTableRecord
100
AcDbBlockTableRecord
  2
block 61
340
0
102
{BLKREFS
331
1ED
102
}
  0
BLOCK_RECORD
  5
1F1
330
1
100
AcDbSymbolTableRecord
100
AcDbBlockTableRecord
  2
block 62
340
0
102
{BLKREFS
331
1F2
102
}
  0
BLOCK_RECORD
  5
1F9
330
1
100
AcDbSymbolTableRecord
100
AcDbBlockTableRecord
  2
block 63
340
0
102
{BLKREFS
331
1FA
102
}
  0
BLOCK_RECORD
  5
1FE
330
1
100
AcDbSymbolTableRecord
100
AcDbBlockTableRecord
  2
block 64
340
0
102
{BLKREFS
331
1FF
102
}
  0
BLOCK_RECORD
  5
206
330
1
100
AcDbSymbolTableRecord
100
AcDbBlockTableRecord
  2
block 65
340
0
102
{BLKREFS
331
207
102
}
  0
BLOCK_RECORD
  5
20E
330
1
100
AcDbSymbolTableRecord
100
AcDbBlockTableRecord
  2
block 66
340
0
102
{BLKREFS
331
20F
102
}
  0
BLOCK_RECORD
  5
216
330
1
100
AcDbSymbolTableRecord
100
AcDbBlockTableRecord
  2
block 67
340
0
102
{BLKREFS
331
217
102
}
  0
BLOCK_RECORD
  5
22D
330
1
100
AcDbSymbolTableRecord
100
AcDbBlockTableRecord
  2
block 68
340
0
102
{BLKREFS
331
22E
102
}
  0
BLOCK_RECORD
  5
235
330
1
100
AcDbSymbolTableRecord
100
AcDbBlockTableRecord
  2
block 69
340
0
102
{BLKREFS
331
236
102
}
  0
BLOCK_RECORD
  5
23D
330
1
100
AcDbSymbolTableRecord
100
AcDbBlockTableRecord
  2
block 70
340
0
102
{BLKREFS
331
23E
102
}
  0
BLOCK_RECORD
  5
254
330
1
100
AcDbSymbolTableRecord
100
AcDbBlockTableRecord
  2
block 71
340
0
102
{BLKREFS
331
255
102
}
  0
BLOCK_RECORD
  5
259
330
1
100
AcDbSymbolTableRecord
100
AcDbBlockTableRecord
  2
block 72
340
0
102
{BLKREFS
331
25A
102
}
  0
BLOCK_RECORD
  5
261
330
1
100
AcDbSymbolTableRecord
100
AcDbBlockTableRecord
  2
block 73
340
0
102
{BLKREFS
331
262
102
}
  0
BLOCK_RECORD
  5
269
330
1
100
AcDbSymbolTableRecord
100
AcDbBlockTableRecord
  2
block 74
340
0
102
{BLKREFS
331
26A
102
}
  0
BLOCK_RECORD
  5
271
330
1
100
AcDbSymbolTableRecord
100
AcDbBlockTableRecord
  2
block 75
340
0
102
{BLKREFS
331
272
102
}
  0
BLOCK_RECORD
  5
279
330
1
100
AcDbSymbolTableRecord
100
AcDbBlockTableRecord
  2
block 76
340
0
102
{BLKREFS
331
27A
102
}
  0
BLOCK_RECORD
  5
27E
330
1
100
AcDbSymbolTableRecord
100
AcDbBlockTableRecord
  2
block 77
340
0
102
{BLKREFS
331
27F
102
}
  0
BLOCK_RECORD
  5
286
330
1
100
AcDbSymbolTableRecord
100
AcDbBlockTableRecord
  2
block 78
340
0
102
{BLKREFS
331
287
102
}
  0
BLOCK_RECORD
  5
28E
330
1
100
AcDbSymbolTableRecord
100
AcDbBlockTableRecord
  2
block 79
340
0
102
{BLKREFS
331
28F
102
}
  0
BLOCK_RECORD
  5
296
330
1
100
AcDbSymbolTableRecord
100
AcDbBlockTableRecord
  2
block 80
340
0
102
{BLKREFS
331
297
102
}
  0
BLOCK_RECORD
  5
29B
330
1
100
AcDbSymbolTableRecord
100
AcDbBlockTableRecord
  2
block 81
340
0
102
{BLKREFS
331
29C
102
}
  0
BLOCK_RECORD
  5
2A0
330
1
100
AcDbSymbolTableRecord
100
AcDbBlockTableRecord
  2
block 82
340
0
102
{BLKREFS
331
2A1
102
}
  0
BLOCK_RECORD
  5
2A8
330
1
100
AcDbSymbolTableRecord
100
AcDbBlockTableRecord
  2
block 83
340
0
102
{BLKREFS
331
2A9
102
}
  0
BLOCK_RECORD
  5
2B5
330
1
100
AcDbSymbolTableRecord
100
AcDbBlockTableRecord
  2
block 84
340
0
102
{BLKREFS
331
2B6
102
}
  0
BLOCK_RECORD
  5
2BA
330
1
100
AcDbSymbolTableRecord
100
AcDbBlockTableRecord
  2
block 85
340
0
102
{BLKREFS
331
2BB
102
}
  0
BLOCK_RECORD
  5
2C2
330
1
100
AcDbSymbolTableRecord
100
AcDbBlockTableRecord
  2
block 86
340
0
102
{BLKREFS
331
2C3
102
}
  0
BLOCK_RECORD
  5
2CF
330
1
100
AcDbSymbolTableRecord
100
AcDbBlockTableRecord
  2
block 87
340
0
102
{BLKREFS
331
2D0
102
}
  0
BLOCK_RECORD
  5
2D4
330
1
100
AcDbSymbolTableRecord
100
AcDbBlockTableRecord
  2
block 88
340
0
102
{BLKREFS
331
2D5
102
}
  0
BLOCK_RECORD
  5
2DC
330
1
100
AcDbSymbolTableRecord
100
AcDbBlockTableRecord
  2
block 89
340
0
102
{BLKREFS
331
2DD
102
}
  0
BLOCK_RECORD
  5
2E9
330
1
100
AcDbSymbolTableRecord
100
AcDbBlockTableRecord
  2
block 90
340
0
102
{BLKREFS
331
2EA
102
}
  0
BLOCK_RECORD
  5
2F1
330
1
100
AcDbSymbolTableRecord
100
AcDbBlockTableRecord
  2
block 91
340
0
102
{BLKREFS
331
2F2
102
}
  0
BLOCK_RECORD
  5
2F6
330
1
100
AcDbSymbolTableRecord
100
AcDbBlockTableRecord
  2
block 92
340
0
102
{BLKREFS
331
2F7
102
}
  0
BLOCK_RECORD
  5
302
330
1
100
AcDbSymbolTableRecord
100
AcDbBlockTableRecord
  2
block 93
340
0
102
{BLKREFS
331
303
102
}
  0
BLOCK_RECORD
  5
30E
330
1
100
AcDbSymbolTableRecord
100
AcDbBlockTableRecord
  2
block 94
340
0
102
{BLKREFS
331
30F
102
}
  0
BLOCK_RECORD
  5
319
330
1
100
AcDbSymbolTableRecord
100
AcDbBlockTableRecord
  2
block 95
340
0
102
{BLKREFS
331
31A
102
}
  0
BLOCK_RECORD
  5
31E
330
1
100
AcDbSymbolTableRecord
100
AcDbBlockTableRecord
  2
block 96
340
0
102
{BLKREFS
331
31F
102
}
  0
BLOCK_RECORD
  5
323
330
1
100
AcDbSymbolTableRecord
100
AcDbBlockTableRecord
  2
block 97
340
0
102
{BLKREFS
331
324
102
}
  0
BLOCK_RECORD
  5
32B
330
1
100
AcDbSymbolTableRecord
100
AcDbBlockTableRecord
  2
block 98
340
0
102
{BLKREFS
331
32C
102
}
  0
BLOCK_RECORD
  5
338
330
1
100
AcDbSymbolTableRecord
100
AcDbBlockTableRecord
  2
block 99
340
0
102
{BLKREFS
331
339
102
}
  0
BLOCK_RECORD
  5
34F
330
1
100
AcDbSymbolTableRecord
100
AcDbBlockTableRecord
  2
block 100
340
0
102
{BLKREFS
331
350
102
}
  0
BLOCK_RECORD
  5
354
330
1
100
AcDbSymbolTableRecord
100
AcDbBlockTableRecord
  2
block 101
340
0
102
{BLKREFS
331
355
102
}
  0
BLOCK_RECORD
  5
369
330
1
100
AcDbSymbolTableRecord
100
AcDbBlockTableRecord
  2
block 102
340
0
102
{BLKREFS
331
36A
102
}
  0
BLOCK_RECORD
  5
376
330
1
100
AcDbSymbolTableRecord
100
AcDbBlockTableRecord
  2
block 103
340
0
102
{BLKREFS
331
377
102
}
  0
BLOCK_RECORD
  5
38E
330
1
100
AcDbSymbolTableRecord
100
AcDbBlockTableRecord
  2
block 104
340
0
102
{BLKREFS
331
38F
102
}
  0
BLOCK_RECORD
  5
39B
330
1
100
AcDbSymbolTableRecord
100
AcDbBlockTableRecord
  2
block 105
340
0
102
{BLKREFS
331
39C
102
}
  0
BLOCK_RECORD
  5
3B2
330
1
100
AcDbSymbolTableRecord
100
AcDbBlockTableRecord
  2
block 106
340
0
102
{BLKREFS
331
3B3
102
}
  0
BLOCK_RECORD
  5
3CF
330
1
100
AcDbSymbolTableRecord
100
AcDbBlockTableRecord
  2
block 107
340
0
102
{BLKREFS
331
3D0
102
}
  0
BLOCK_RECORD
  5
3EC
330
1
100
AcDbSymbolTableRecord
100
AcDbBlockTableRecord
  2
block 108
340
0
102
{BLKREFS
331
3ED
102
}
  0
BLOCK_RECORD
  5
405
330
1
100
AcDbSymbolTableRecord
100
AcDbBlockTableRecord
  2
block 109
340
0
102
{BLKREFS
331
406
102
}
  0
BLOCK_RECORD
  5
412
330
1
100
AcDbSymbolTableRecord
100
AcDbBlockTableRecord
  2
block 110
340
0
102
{BLKREFS
331
413
102
}
  0
BLOCK_RECORD
  5
429
330
1
100
AcDbSymbolTableRecord
100
AcDbBlockTableRecord
  2
block 111
340
0
102
{BLKREFS
331
42A
102
}
  0
BLOCK_RECORD
  5
446
330
1
100
AcDbSymbolTableRecord
100
AcDbBlockTableRecord
  2
block 112
340
0
102
{BLKREFS
331
447
102
}
  0
BLOCK_RECORD
  5
44B
330
1
100
AcDbSymbolTableRecord
100
AcDbBlockTableRecord
  2
block 113
340
0
102
{BLKREFS
331
44C
102
}
  0
BLOCK_RECORD
  5
45F
330
1
100
AcDbSymbolTableRecord
100
AcDbBlockTableRecord
  2
block 114
340
0
102
{BLKREFS
331
460
102
}
  0
BLOCK_RECORD
  5
464
330
1
100
AcDbSymbolTableRecord
100
AcDbBlockTableRecord
  2
block 115
340
0
102
{BLKREFS
331
465
102
}
  0
BLOCK_RECORD
  5
46C
330
1
100
AcDbSymbolTableRecord
100
AcDbBlockTableRecord
  2
block 116
340
0
102
{BLKREFS
331
46D
102
}
  0
BLOCK_RECORD
  5
471
330
1
100
AcDbSymbolTableRecord
100
AcDbBlockTableRecord
  2
block 117
340
0
102
{BLKREFS
331
472
102
}
  0
BLOCK_RECORD
  5
476
330
1
100
AcDbSymbolTableRecord
100
AcDbBlockTableRecord
  2
block 118
340
0
102
{BLKREFS
331
477
102
}
  0
BLOCK_RECORD
  5
47E
330
1
100
AcDbSymbolTableRecord
100
AcDbBlockTableRecord
  2
block 119
340
0
102
{BLKREFS
331
47F
102
}
  0
BLOCK_RECORD
  5
483
330
1
100
AcDbSymbolTableRecord
100
AcDbBlockTableRecord
  2
block 120
340
0
102
{BLKREFS
331
484
102
}
  0
BLOCK_RECORD
  5
488
330
1
100
AcDbSymbolTableRecord
100
AcDbBlockTableRecord
  2
block 121
340
0
102
{BLKREFS
331
489
102
}
  0
BLOCK_RECORD
  5
490
330
1
100
AcDbSymbolTableRecord
100
AcDbBlockTableRecord
  2
block 122
340
0
102
{BLKREFS
331
491
102
}
  0
BLOCK_RECORD
  5
495
330
1
100
AcDbSymbolTableRecord
100
AcDbBlockTableRecord
  2
block 123
340
0
102
{BLKREFS
331
496
102
}
  0
BLOCK_RECORD
  5
49A
330
1
100
AcDbSymbolTableRecord
100
AcDbBlockTableRecord
  2
block 124
340
0
102
{BLKREFS
331
49B
102
}
  0
BLOCK_RECORD
  5
4A2
330
1
100
AcDbSymbolTableRecord
100
AcDbBlockTableRecord
  2
block 125
340
0
102
{BLKREFS
331
4A3
102
}
  0
BLOCK_RECORD
  5
4B8
330
1
100
AcDbSymbolTableRecord
100
AcDbBlockTableRecord
  2
block 126
340
0
102
{BLKREFS
331
4B9
102
}
  0
BLOCK_RECORD
  5
4C0
330
1
100
AcDbSymbolTableRecord
100
AcDbBlockTableRecord
  2
block 127
340
0
102
{BLKREFS
331
4C1
102
}
  0
BLOCK_RECORD
  5
4C5
330
1
100
AcDbSymbolTableRecord
100
AcDbBlockTableRecord
  2
block 128
340
0
102
{BLKREFS
331
4C6
102
}
  0
BLOCK_RECORD
  5
4CD
330
1
100
AcDbSymbolTableRecord
100
AcDbBlockTableRecord
  2
block 129
340
0
102
{BLKREFS
331
4CE
102
}
  0
BLOCK_RECORD
  5
4E4
330
1
100
AcDbSymbolTableRecord
100
AcDbBlockTableRecord
  2
block 130
340
0
102
{BLKREFS
331
4E5
102
}
  0
BLOCK_RECORD
  5
4EC
330
1
100
AcDbSymbolTableRecord
100
AcDbBlockTableRecord
  2
block 131
340
0
102
{BLKREFS
331
4ED
102
}
  0
BLOCK_RECORD
  5
4F1
330
1
100
AcDbSymbolTableRecord
100
AcDbBlockTableRecord
  2
block 132
340
0
102
{BLKREFS
331
4F2
102
}
  0
BLOCK_RECORD
  5
505
330
1
100
AcDbSymbolTableRecord
100
AcDbBlockTableRecord
  2
block 133
340
0
102
{BLKREFS
331
506
102
}
  0
BLOCK_RECORD
  5
50A
330
1
100
AcDbSymbolTableRecord
100
AcDbBlockTableRecord
  2
block 134
340
0
102
{BLKREFS
331
50B
102
}
  0
BLOCK_RECORD
  5
519
330
1
100
AcDbSymbolTableRecord
100
AcDbBlockTableRecord
  2
block 135
340
0
102
{BLKREFS
331
51A
102
}
  0
BLOCK_RECORD
  5
521
330
1
100
AcDbSymbolTableRecord
100
AcDbBlockTableRecord
  2
block 136
340
0
102
{BLKREFS
331
522
102
}
  0
BLOCK_RECORD
  5
536
330
1
100
AcDbSymbolTableRecord
100
AcDbBlockTableRecord
  2
block 137
340
0
102
{BLKREFS
331
537
102
}
  0
BLOCK_RECORD
  5
546
330
1
100
AcDbSymbolTableRecord
100
AcDbBlockTableRecord
  2
block 138
340
0
102
{BLKREFS
331
547
102
}
  0
BLOCK_RECORD
  5
552
330
1
100
AcDbSymbolTableRecord
100
AcDbBlockTableRecord
  2
block 139
340
0
102
{BLKREFS
331
553
102
}
  0
BLOCK_RECORD
  5
55A
330
1
100
AcDbSymbolTableRecord
100
AcDbBlockTableRecord
  2
block 140
340
0
102
{BLKREFS
331
55B
102
}
  0
BLOCK_RECORD
  5
56E
330
1
100
AcDbSymbolTableRecord
100
AcDbBlockTableRecord
  2
block 141
340
0
102
{BLKREFS
331
56F
102
}
  0
BLOCK_RECORD
  5
592
330
1
100
AcDbSymbolTableRecord
100
AcDbBlockTableRecord
  2
block 142
340
0
102
{BLKREFS
331
593
102
}
  0
BLOCK_RECORD
  5
5A3
330
1
100
AcDbSymbolTableRecord
100
AcDbBlockTableRecord
  2
block 143
340
0
102
{BLKREFS
331
5A4
102
}
  0
BLOCK_RECORD
  5
5BE
330
1
100
AcDbSymbolTableRecord
100
AcDbBlockTableRecord
  2
block 144
340
0
102
{BLKREFS
331
5BF
102
}
  0
BLOCK_RECORD
  5
5DB
330
1
100
AcDbSymbolTableRecord
100
AcDbBlockTableRecord
  2
block 145
340
0
102
{BLKREFS
331
5DC
102
}
  0
BLOCK_RECORD
  5
5E0
330
1
100
AcDbSymbolTableRecord
100
AcDbBlockTableRecord
  2
block 146
340
0
102
{BLKREFS
331
5E1
102
}
  0
BLOCK_RECORD
  5
5E5
330
1
100
AcDbSymbolTableRecord
100
AcDbBlockTableRecord
  2
block 147
340
0
102
{BLKREFS
331
5E6
102
}
  0
BLOCK_RECORD
  5
5EA
330
1
100
AcDbSymbolTableRecord
100
AcDbBlockTableRecord
  2
block 148
340
0
102
{BLKREFS
331
5EB
102
}
  0
BLOCK_RECORD
  5
5F9
330
1
100
AcDbSymbolTableRecord
100
AcDbBlockTableRecord
  2
block 149
340
0
102
{BLKREFS
331
5FA
102
}
  0
BLOCK_RECORD
  5
5FE
330
1
100
AcDbSymbolTableRecord
100
AcDbBlockTableRecord
  2
block 150
340
0
102
{BLKREFS
331
5FF
102
}
  0
BLOCK_RECORD
  5
603
330
1
100
AcDbSymbolTableRecord
100
AcDbBlockTableRecord
  2
block 151
340
0
102
{BLKREFS
331
604
102
}
  0
BLOCK_RECORD
  5
608
330
1
100
AcDbSymbolTableRecord
100
AcDbBlockTableRecord
  2
block 152
340
0
102
{BLKREFS
331
609
102
}
  0
BLOCK_RECORD
  5
60D
330
1
100
AcDbSymbolTableRecord
100
AcDbBlockTableRecord
  2
block 153
340
0
102
{BLKREFS
331
60E
102
}
  0
BLOCK_RECORD
  5
612
330
1
100
AcDbSymbolTableRecord
100
AcDbBlockTableRecord
  2
block 154
340
0
102
{BLKREFS
331
613
102
}
  0
BLOCK_RECORD
  5
61A
330
1
100
AcDbSymbolTableRecord
100
AcDbBlockTableRecord
  2
block 155
340
0
102
{BLKREFS
331
61B
102
}
  0
BLOCK_RECORD
  5
61F
330
1
100
AcDbSymbolTableRecord
100
AcDbBlockTableRecord
  2
block 156
340
0
102
{BLKREFS
331
620
102
}
  0
BLOCK_RECORD
  5
624
330
1
100
AcDbSymbolTableRecord
100
AcDbBlockTableRecord
  2
block 157
340
0
102
{BLKREFS
331
625
102
}
  0
BLOCK_RECORD
  5
629
330
1
100
AcDbSymbolTableRecord
100
AcDbBlockTableRecord
  2
block 158
340
0
102
{BLKREFS
331
62A
102
}
  0
BLOCK_RECORD
  5
631
330
1
100
AcDbSymbolTableRecord
100
AcDbBlockTableRecord
  2
block 159
340
0
102
{BLKREFS
331
632
102
}
  0
BLOCK_RECORD
  5
639
330
1
100
AcDbSymbolTableRecord
100
AcDbBlockTableRecord
  2
block 160
340
0
102
{BLKREFS
331
63A
102
}
  0
BLOCK_RECORD
  5
649
330
1
100
AcDbSymbolTableRecord
100
AcDbBlockTableRecord
  2
block 161
340
0
102
{BLKREFS
331
64A
102
}
  0
BLOCK_RECORD
  5
64E
330
1
100
AcDbSymbolTableRecord
100
AcDbBlockTableRecord
  2
block 162
340
0
102
{BLKREFS
331
64F
102
}
  0
BLOCK_RECORD
  5
653
330
1
100
AcDbSymbolTableRecord
100
AcDbBlockTableRecord
  2
block 163
340
0
102
{BLKREFS
331
654
102
}
  0
BLOCK_RECORD
  5
658
330
1
100
AcDbSymbolTableRecord
100
AcDbBlockTableRecord
  2
block 164
340
0
102
{BLKREFS
331
659
102
}
  0
BLOCK_RECORD
  5
65D
330
1
100
AcDbSymbolTableRecord
100
AcDbBlockTableRecord
  2
block 165
340
0
102
{BLKREFS
331
65E
102
}
  0
BLOCK_RECORD
  5
674
330
1
100
AcDbSymbolTableRecord
100
AcDbBlockTableRecord
  2
block 166
340
0
102
{BLKREFS
331
675
102
}
  0
BLOCK_RECORD
  5
683
330
1
100
AcDbSymbolTableRecord
100
AcDbBlockTableRecord
  2
block 167
340
0
102
{BLKREFS
331
684
102
}
  0
BLOCK_RECORD
  5
698
330
1
100
AcDbSymbolTableRecord
100
AcDbBlockTableRecord
  2
block 168
340
0
102
{BLKREFS
331
699
102
}
  0
BLOCK_RECORD
  5
6AF
330
1
100
AcDbSymbolTableRecord
100
AcDbBlockTableRecord
  2
block 169
340
0
102
{BLKREFS
331
6B0
102
}
  0
BLOCK_RECORD
  5
6BE
330
1
100
AcDbSymbolTableRecord
100
AcDbBlockTableRecord
  2
block 170
340
0
102
{BLKREFS
331
6BF
102
}
  0
BLOCK_RECORD
  5
6C6
330
1
100
AcDbSymbolTableRecord
100
AcDbBlockTableRecord
  2
block 171
340
0
102
{BLKREFS
331
6C7
102
}
  0
BLOCK_RECORD
  5
6DA
330
1
100
AcDbSymbolTableRecord
100
AcDbBlockTableRecord
  2
block 172
340
0
102
{BLKREFS
331
6DB
102
}
  0
BLOCK_RECORD
  5
6DF
330
1
100
AcDbSymbolTableRecord
100
AcDbBlockTableRecord
  2
block 173
340
0
102
{BLKREFS
331
6E0
102
}
  0
BLOCK_RECORD
  5
6E8
330
1
100
AcDbSymbolTableRecord
100
AcDbBlockTableRecord
  2
block 174
340
0
102
{BLKREFS
331
6E9
102
}
  0
BLOCK_RECORD
  5
6ED
330
1
100
AcDbSymbolTableRecord
100
AcDbBlockTableRecord
  2
block 175
340
0
102
{BLKREFS
331
6EE
102
}
  0
BLOCK_RECORD
  5
6F2
330
1
100
AcDbSymbolTableRecord
100
AcDbBlockTableRecord
  2
block 176
340
0
102
{BLKREFS
331
6F3
102
}
  0
BLOCK_RECORD
  5
6F7
330
1
100
AcDbSymbolTableRecord
100
AcDbBlockTableRecord
  2
block 177
340
0
102
{BLKREFS
331
6F8
102
}
  0
BLOCK_RECORD
  5
6FC
330
1
100
AcDbSymbolTableRecord
100
AcDbBlockTableRecord
  2
block 178
340
0
102
{BLKREFS
331
6FD
102
}
  0
BLOCK_RECORD
  5
701
330
1
100
AcDbSymbolTableRecord
100
AcDbBlockTableRecord
  2
block 179
340
0
102
{BLKREFS
331
702
102
}
  0
BLOCK_RECORD
  5
709
330
1
100
AcDbSymbolTableRecord
100
AcDbBlockTableRecord
  2
block 180
340
0
102
{BLKREFS
331
70A
102
}
  0
BLOCK_RECORD
  5
717
330
1
100
AcDbSymbolTableRecord
100
AcDbBlockTableRecord
  2
block 181
340
0
102
{BLKREFS
331
718
102
}
  0
BLOCK_RECORD
  5
720
330
1
100
AcDbSymbolTableRecord
100
AcDbBlockTableRecord
  2
block 182
340
0
102
{BLKREFS
331
721
102
}
  0
BLOCK_RECORD
  5
728
330
1
100
AcDbSymbolTableRecord
100
AcDbBlockTableRecord
  2
block 183
340
0
102
{BLKREFS
331
729
102
}
  0
BLOCK_RECORD
  5
72D
330
1
100
AcDbSymbolTableRecord
100
AcDbBlockTableRecord
  2
block 184
340
0
102
{BLKREFS
331
72E
102
}
  0
BLOCK_RECORD
  5
732
330
1
100
AcDbSymbolTableRecord
100
AcDbBlockTableRecord
  2
block 185
340
0
102
{BLKREFS
331
733
102
}
  0
ENDTAB
  0
ENDSEC
  0
SECTION
  2
BLOCKS
  0
BLOCK
  5
20
330
1F
100
AcDbEntity
  8
0
100
AcDbBlockBegin
  2
*Model_Space
 70
     0
 71
     0
 10
0.0
 20
0.0
 30
0.0
  3
*Model_Space
  1

  0
ENDBLK
  5
21
330
1F
100
AcDbEntity
  8
0
100
AcDbBlockEnd
  0
BLOCK
  5
1C
330
1B
100
AcDbEntity
 67
     1
  8
0
100
AcDbBlockBegin
  2
*Paper_Space
 70
     0
 71
     0
 10
0.0
 20
0.0
 30
0.0
  3
*Paper_Space
  1

  0
ENDBLK
  5
1D
330
1B
100
AcDbEntity
 67
     1
  8
0
100
AcDbBlockEnd
  0
BLOCK
  5
24
330
23
100
AcDbEntity
  8
0
100
AcDbBlockBegin
  2
*Paper_Space0
 70
     0
 71
     0
 10
0.0
 20
0.0
 30
0.0
  3
*Paper_Space0
  1

  0
ENDBLK
  5
25
330
23
100
AcDbEntity
  8
0
100
AcDbBlockEnd
  0
BLOCK
  5
3D
330
3B
100
AcDbEntity
  8
0
100
AcDbBlockBegin
  2
block 2
 70
     0
 71
     0
 10
0.0
 20
0.0
 30
0.0
  3
block 2
  1

  0
POLYLINE
  5
3F
330
3B
100
AcDbEntity
  8
0
 62
     7
370
     9
100
AcDb2dPolyline
 66
     1
 10
0.0
 20
0.0
 30
0.0
  0
VERTEX
  5
40
330
3F
100
AcDbEntity
  8
0
 62
     7
370
     9
100
AcDbVertex
100
AcDb2dVertex
 10
230.8934000073808
 20
156.9296115059065
 30
0.0
  0
VERTEX
  5
41
330
3F
100
AcDbEntity
  8
0
 62
     7
370
     9
100
AcDbVertex
100
AcDb2dVertex
 10
230.9588568216006
 20
157.0322753513669
 30
0.0
  0
VERTEX
  5
42
330
3F
100
AcDbEntity
  8
0
 62
     7
370
     9
100
AcDbVertex
100
AcDb2dVertex
 10
231.0656547816433
 20
157.0713771851245
 30
0.0
  0
VERTEX
  5
43
330
3F
100
AcDbEntity
  8
0
 62
     7
370
     9
100
AcDbVertex
100
AcDb2dVertex
 10
231.1976019387284
 20
157.0410603448543
 30
0.0
  0
VERTEX
  5
44
330
3F
100
AcDbEntity
  8
0
 62
     7
370
     9
100
AcDbVertex
100
AcDb2dVertex
 10
231.3347167390413
 20
156.9458034546872
 30
0.0
  0
VERTEX
  5
45
330
3F
100
AcDbEntity
  8
0
 62
     7
370
     9
100
AcDbVertex
100
AcDb2dVertex
 10
231.4563286096707
 20
156.8004204252096
 30
0.0
  0
VERTEX
  5
46
330
3F
100
AcDbEntity
  8
0
 62
     7
370
     9
100
AcDbVertex
100
AcDb2dVertex
 10
231.543834034996
 20
156.6266153579788
 30
0.0
  0
VERTEX
  5
47
330
3F
100
AcDbEntity
  8
0
 62
     7
370
     9
100
AcDbVertex
100
AcDb2dVertex
 10
231.5834526330764
 20
156.4510877430053
 30
0.0
  0
VERTEX
  5
48
330
3F
100
AcDbEntity
  8
0
 62
     7
370
     9
100
AcDbVertex
100
AcDb2dVertex
 10
231.5696722511354
 20
156.3005370702999
 30
0.0
  0
VERTEX
  5
49
330
3F
100
AcDbEntity
  8
0
 62
     7
370
     9
100
AcDbVertex
100
AcDb2dVertex
 10
231.5042154369156
 20
156.1978732248394
 30
0.0
  0
VERTEX
  5
4A
330
3F
100
AcDbEntity
  8
0
 62
     7
370
     9
100
AcDbVertex
100
AcDb2dVertex
 10
231.3974174768729
 20
156.1587713910818
 30
0.0
  0
VERTEX
  5
4B
330
3F
100
AcDbEntity
  8
0
 62
     7
370
     9
100
AcDbVertex
100
AcDb2dVertex
 10
231.2654703197878
 20
156.1892604861263
 30
0.0
  0
VERTEX
  5
4C
330
3F
100
AcDbEntity
  8
0
 62
     7
370
     9
100
AcDbVertex
100
AcDb2dVertex
 10
231.1280110099264
 20
156.2843451215192
 30
0.0
  0
VERTEX
  5
4D
330
3F
100
AcDbEntity
  8
0
 62
     7
370
     9
100
AcDbVertex
100
AcDb2dVertex
 10
231.0067436488455
 20
156.429900405771
 30
0.0
  0
VERTEX
  5
4E
330
3F
100
AcDbEntity
  8
0
 62
     7
370
     9
100
AcDbVertex
100
AcDb2dVertex
 10
230.9192382235202
 20
156.6037054730019
 30
0.0
  0
VERTEX
  5
4F
330
3F
100
AcDbEntity
  8
0
 62
     7
370
     9
100
AcDbVertex
100
AcDb2dVertex
 10
230.8796196254398
 20
156.7790608332011
 30
0.0
  0
VERTEX
  5
50
330
3F
100
AcDbEntity
  8
0
 62
     7
370
     9
100
AcDbVertex
100
AcDb2dVertex
 10
230.8934000073808
 20
156.9296115059065
 30
0.0
  0
SEQEND
  5
51
330
3F
100
AcDbEntity
  8
0
370
     9
  0
ENDBLK
  5
3E
330
3B
100
AcDbEntity
  8
0
100
AcDbBlockEnd
  0
BLOCK
  5
54
330
52
100
AcDbEntity
  8
0
100
AcDbBlockBegin
  2
block 3
 70
     0
 71
     0
 10
0.0
 20
0.0
 30
0.0
  3
block 3
  1

  0
POLYLINE
  5
56
330
52
100
AcDbEntity
  8
0
 62
     7
370
     9
100
AcDb2dPolyline
 66
     1
 10
0.0
 20
0.0
 30
0.0
  0
VERTEX
  5
57
330
56
100
AcDbEntity
  8
0
 62
     7
370
     9
100
AcDbVertex
100
AcDb2dVertex
 10
229.544300615357
 20
156.5341145441998
 30
0.0
  0
VERTEX
  5
58
330
56
100
AcDbEntity
  8
0
 62
     7
370
     9
100
AcDbVertex
100
AcDb2dVertex
 10
229.5108831891501
 20
156.609734390101
 30
0.0
  0
SEQEND
  5
59
330
56
100
AcDbEntity
  8
0
370
     9
  0
ENDBLK
  5
55
330
52
100
AcDbEntity
  8
0
100
AcDbBlockEnd
  0
BLOCK
  5
5C
330
5A
100
AcDbEntity
  8
0
100
AcDbBlockBegin
  2
block 4
 70
     0
 71
     0
 10
0.0
 20
0.0
 30
0.0
  3
block 4
  1

  0
SPLINE
  5
5E
330
5A
100
AcDbEntity
  8
0
 62
     7
370
     9
100
AcDbSpline
210
0.0
220
0.0
230
1.0
 70
     8
 71
     3
 72
    17
 73
    13
 74
     0
 42
0.0000000001
 43
0.0000000001
 40
0.0
 40
0.0
 40
0.0
 40
0.0
 40
1.0
 40
1.0
 40
1.0
 40
2.0
 40
2.0
 40
2.0
 40
3.0
 40
3.0
 40
3.0
 40
4.0
 40
4.0
 40
4.0
 40
4.0
 10
229.462307342808
 20
156.6739854209009
 30
0.0
 10
229.4526610754494
 20
156.6875935480677
 30
0.0
 10
229.4433593176392
 20
156.7012016752344
 30
0.0
 10
229.4326795216349
 20
156.7129149998843
 30
0.0
 10
229.4219997256306
 20
156.7249728340826
 30
0.0
 10
229.4095973818837
 20
156.7351358657641
 30
0.0
 10
229.3971950381368
 20
156.7449543878971
 30
0.0
 10
229.3775579938709
 20
156.7611463366778
 30
0.0
 10
229.3572319305079
 20
156.7764770115871
 30
0.0
 10
229.3355278289509
 20
156.7854342598488
 30
0.0
 10
229.3293266570774
 20
156.788190336237
 30
0.0
 10
229.3224364661069
 20
156.7902573935282
 30
0.0
 10
229.3158907846849
 20
156.7924967055935
 30
0.0
  0
ENDBLK
  5
5D
330
5A
100
AcDbEntity
  8
0
100
AcDbBlockEnd
  0
BLOCK
  5
61
330
5F
100
AcDbEntity
  8
0
100
AcDbBlockBegin
  2
block 5
 70
     0
 71
     0
 10
0.0
 20
0.0
 30
0.0
  3
block 5
  1

  0
SPLINE
  5
63
330
5F
100
AcDbEntity
  8
0
 62
     7
370
     9
100
AcDbSpline
210
0.0
220
0.0
230
1.0
 70
     8
 71
     3
 72
    17
 73
    13
 74
     0
 42
0.0000000001
 43
0.0000000001
 40
0.0
 40
0.0
 40
0.0
 40
0.0
 40
1.0
 40
1.0
 40
1.0
 40
2.0
 40
2.0
 40
2.0
 40
3.0
 40
3.0
 40
3.0
 40
4.0
 40
4.0
 40
4.0
 40
4.0
 10
229.571861379239
 20
156.3456678211566
 30
0.0
 10
229.572550398336
 20
156.3482516427706
 30
0.0
 10
229.5732394174331
 20
156.3510077191588
 30
0.0
 10
229.5739284365301
 20
156.353763795547
 30
0.0
 10
229.5794405893065
 20
156.3739176041357
 30
0.0
 10
229.5766845129183
 20
156.3968274891126
 30
0.0
 10
229.5742729460787
 20
156.4199096288638
 30
0.0
 10
229.571861379239
 20
156.4433362781635
 30
0.0
 10
229.5701388314964
 20
156.4665906726889
 30
0.0
 10
229.5615260927833
 20
156.4898450672144
 30
0.0
 10
229.5591145259436
 20
156.4953572199908
 30
0.0
 10
229.5567029591039
 20
156.5008693727671
 30
0.0
 10
229.5542913922642
 20
156.5065537803178
 30
0.0
  0
ENDBLK
  5
62
330
5F
100
AcDbEntity
  8
0
100
AcDbBlockEnd
  0
BLOCK
  5
66
330
64
100
AcDbEntity
  8
0
100
AcDbBlockBegin
  2
block 6
 70
     0
 71
     0
 10
0.0
 20
0.0
 30
0.0
  3
block 6
  1

  0
POLYLINE
  5
68
330
64
100
AcDbEntity
  8
0
 62
     7
370
     9
100
AcDb2dPolyline
 66
     1
 10
0.0
 20
0.0
 30
0.0
  0
VERTEX
  5
69
330
68
100
AcDbEntity
  8
0
 62
     7
370
     9
100
AcDbVertex
100
AcDb2dVertex
 10
229.3462076249551
 20
156.6416015233396
 30
0.0
  0
VERTEX
  5
6A
330
68
100
AcDbEntity
  8
0
 62
     7
370
     9
100
AcDbVertex
100
AcDb2dVertex
 10
229.3858262230355
 20
156.6643391535422
 30
0.0
  0
SEQEND
  5
6B
330
68
100
AcDbEntity
  8
0
370
     9
  0
ENDBLK
  5
67
330
64
100
AcDbEntity
  8
0
100
AcDbBlockEnd
  0
BLOCK
  5
6E
330
6C
100
AcDbEntity
  8
0
100
AcDbBlockBegin
  2
block 7
 70
     0
 71
     0
 10
0.0
 20
0.0
 30
0.0
  3
block 7
  1

  0
POLYLINE
  5
70
330
6C
100
AcDbEntity
  8
0
 62
     7
370
     9
100
AcDb2dPolyline
 66
     1
 10
0.0
 20
0.0
 30
0.0
  0
VERTEX
  5
71
330
70
100
AcDbEntity
  8
0
 62
     7
370
     9
100
AcDbVertex
100
AcDb2dVertex
 10
229.5098496605045
 20
156.5454833593011
 30
0.0
  0
VERTEX
  5
72
330
70
100
AcDbEntity
  8
0
 62
     7
370
     9
100
AcDbVertex
100
AcDb2dVertex
 10
229.4230332542762
 20
156.4953572199908
 30
0.0
  0
SEQEND
  5
73
330
70
100
AcDbEntity
  8
0
370
     9
  0
ENDBLK
  5
6F
330
6C
100
AcDbEntity
  8
0
100
AcDbBlockEnd
  0
BLOCK
  5
76
330
74
100
AcDbEntity
  8
0
100
AcDbBlockBegin
  2
block 8
 70
     0
 71
     0
 10
0.0
 20
0.0
 30
0.0
  3
block 8
  1

  0
POLYLINE
  5
78
330
74
100
AcDbEntity
  8
0
 62
     7
370
     9
100
AcDb2dPolyline
 66
     1
 10
0.0
 20
0.0
 30
0.0
  0
VERTEX
  5
79
330
78
100
AcDbEntity
  8
0
 62
     7
370
     9
100
AcDbVertex
100
AcDb2dVertex
 10
68.19239228980955
 20
57.70500486838625
 30
0.0
  0
VERTEX
  5
7A
330
78
100
AcDbEntity
  8
0
 62
     7
370
     9
100
AcDbVertex
100
AcDb2dVertex
 10
232.0571532622982
 20
152.3023315048932
 30
0.0
  0
SEQEND
  5
7B
330
78
100
AcDbEntity
  8
0
370
     9
  0
ENDBLK
  5
77
330
74
100
AcDbEntity
  8
0
100
AcDbBlockEnd
  0
BLOCK
  5
7E
330
7C
100
AcDbEntity
  8
0
100
AcDbBlockBegin
  2
block 9
 70
     0
 71
     0
 10
0.0
 20
0.0
 30
0.0
  3
block 9
  1

  0
POLYLINE
  5
80
330
7C
100
AcDbEntity
  8
0
 62
     7
370
     9
100
AcDb2dPolyline
 66
     1
 10
0.0
 20
0.0
 30
0.0
  0
VERTEX
  5
81
330
80
100
AcDbEntity
  8
0
 62
     7
370
     9
100
AcDbVertex
100
AcDb2dVertex
 10
228.2193168917299
 20
156.7709648588107
 30
0.0
  0
VERTEX
  5
82
330
80
100
AcDbEntity
  8
0
 62
     7
370
     9
100
AcDbVertex
100
AcDb2dVertex
 10
64.22347003602746
 20
62.09819063117684
 30
0.0
  0
SEQEND
  5
83
330
80
100
AcDbEntity
  8
0
370
     9
  0
ENDBLK
  5
7F
330
7C
100
AcDbEntity
  8
0
100
AcDbBlockEnd
  0
BLOCK
  5
86
330
84
100
AcDbEntity
  8
0
100
AcDbBlockBegin
  2
block 10
 70
     0
 71
     0
 10
0.0
 20
0.0
 30
0.0
  3
block 10
  1

  0
POLYLINE
  5
88
330
84
100
AcDbEntity
  8
0
 62
     7
370
     9
100
AcDb2dPolyline
 66
     1
 10
0.0
 20
0.0
 30
0.0
  0
VERTEX
  5
89
330
88
100
AcDbEntity
  8
0
 62
     7
370
     9
100
AcDbVertex
100
AcDb2dVertex
 10
228.2423990314811
 20
156.9390855184909
 30
0.0
  0
VERTEX
  5
8A
330
88
100
AcDbEntity
  8
0
 62
     7
370
     9
100
AcDbVertex
100
AcDb2dVertex
 10
64.24534639235881
 20
62.26562227175999
 30
0.0
  0
SEQEND
  5
8B
330
88
100
AcDbEntity
  8
0
370
     9
  0
ENDBLK
  5
87
330
84
100
AcDbEntity
  8
0
100
AcDbBlockEnd
  0
BLOCK
  5
8E
330
8C
100
AcDbEntity
  8
0
100
AcDbBlockBegin
  2
block 11
 70
     0
 71
     0
 10
0.0
 20
0.0
 30
0.0
  3
block 11
  1

  0
POLYLINE
  5
90
330
8C
100
AcDbEntity
  8
0
 62
     7
370
     9
100
AcDb2dPolyline
 66
     1
 10
0.0
 20
0.0
 30
0.0
  0
VERTEX
  5
91
330
90
100
AcDbEntity
  8
0
 62
     7
370
     9
100
AcDbVertex
100
AcDb2dVertex
 10
228.2761609672365
 20
157.098593439458
 30
0.0
  0
VERTEX
  5
92
330
90
100
AcDbEntity
  8
0
 62
     7
370
     9
100
AcDbVertex
100
AcDb2dVertex
 10
64.27807479946868
 20
62.42444117363
 30
0.0
  0
SEQEND
  5
93
330
90
100
AcDbEntity
  8
0
370
     9
  0
ENDBLK
  5
8F
330
8C
100
AcDbEntity
  8
0
100
AcDbBlockEnd
  0
BLOCK
  5
96
330
94
100
AcDbEntity
  8
0
100
AcDbBlockBegin
  2
block 12
 70
     0
 71
     0
 10
0.0
 20
0.0
 30
0.0
  3
block 12
  1

  0
POLYLINE
  5
98
330
94
100
AcDbEntity
  8
0
 62
     7
370
     9
100
AcDb2dPolyline
 66
     1
 10
0.0
 20
0.0
 30
0.0
  0
VERTEX
  5
99
330
98
100
AcDbEntity
  8
0
 62
     7
370
     9
100
AcDbVertex
100
AcDb2dVertex
 10
228.3206026989963
 20
157.2489718573892
 30
0.0
  0
VERTEX
  5
9A
330
98
100
AcDbEntity
  8
0
 62
     7
370
     9
100
AcDbVertex
100
AcDb2dVertex
 10
64.32148300258282
 20
62.57430282723837
 30
0.0
  0
SEQEND
  5
9B
330
98
100
AcDbEntity
  8
0
370
     9
  0
ENDBLK
  5
97
330
94
100
AcDbEntity
  8
0
100
AcDbBlockEnd
  0
BLOCK
  5
9E
330
9C
100
AcDbEntity
  8
0
100
AcDbBlockBegin
  2
block 13
 70
     0
 71
     0
 10
0.0
 20
0.0
 30
0.0
  3
block 13
  1

  0
POLYLINE
  5
A0
330
9C
100
AcDbEntity
  8
0
 62
     7
370
     9
100
AcDb2dPolyline
 66
     1
 10
0.0
 20
0.0
 30
0.0
  0
VERTEX
  5
A1
330
A0
100
AcDbEntity
  8
0
 62
     7
370
     9
100
AcDbVertex
100
AcDb2dVertex
 10
228.3757242267602
 20
157.3893594984131
 30
0.0
  0
VERTEX
  5
A2
330
A0
100
AcDbEntity
  8
0
 62
     7
370
     9
100
AcDbVertex
100
AcDb2dVertex
 10
64.37539874692699
 20
62.71417370393952
 30
0.0
  0
SEQEND
  5
A3
330
A0
100
AcDbEntity
  8
0
370
     9
  0
ENDBLK
  5
9F
330
9C
100
AcDbEntity
  8
0
100
AcDbBlockEnd
  0
BLOCK
  5
A6
330
A4
100
AcDbEntity
  8
0
100
AcDbBlockBegin
  2
block 14
 70
     0
 71
     0
 10
0.0
 20
0.0
 30
0.0
  3
block 14
  1

  0
POLYLINE
  5
A8
330
A4
100
AcDbEntity
  8
0
 62
     7
370
     9
100
AcDb2dPolyline
 66
     1
 10
0.0
 20
0.0
 30
0.0
  0
VERTEX
  5
A9
330
A8
100
AcDbEntity
  8
0
 62
     7
370
     9
100
AcDbVertex
100
AcDb2dVertex
 10
228.4408365314315
 20
157.5190673434327
 30
0.0
  0
VERTEX
  5
AA
330
A8
100
AcDbEntity
  8
0
 62
     7
370
     9
100
AcDbVertex
100
AcDb2dVertex
 10
64.43947752295263
 20
62.84302027508786
 30
0.0
  0
SEQEND
  5
AB
330
A8
100
AcDbEntity
  8
0
370
     9
  0
ENDBLK
  5
A7
330
A4
100
AcDbEntity
  8
0
100
AcDbBlockEnd
  0
BLOCK
  5
AE
330
AC
100
AcDbEntity
  8
0
100
AcDbBlockBegin
  2
block 15
 70
     0
 71
     0
 10
0.0
 20
0.0
 30
0.0
  3
block 15
  1

  0
POLYLINE
  5
B0
330
AC
100
AcDbEntity
  8
0
 62
     7
370
     9
100
AcDb2dPolyline
 66
     1
 10
0.0
 20
0.0
 30
0.0
  0
VERTEX
  5
B1
330
B0
100
AcDbEntity
  8
0
 62
     7
370
     9
100
AcDbVertex
100
AcDb2dVertex
 10
228.5155951034614
 20
157.6375786281253
 30
0.0
  0
VERTEX
  5
B2
330
B0
100
AcDbEntity
  8
0
 62
     7
370
     9
100
AcDbVertex
100
AcDb2dVertex
 10
64.51337482111124
 20
62.96118705023193
 30
0.0
  0
SEQEND
  5
B3
330
B0
100
AcDbEntity
  8
0
370
     9
  0
ENDBLK
  5
AF
330
AC
100
AcDbEntity
  8
0
100
AcDbBlockEnd
  0
BLOCK
  5
B6
330
B4
100
AcDbEntity
  8
0
100
AcDbBlockBegin
  2
block 16
 70
     0
 71
     0
 10
0.0
 20
0.0
 30
0.0
  3
block 16
  1

  0
POLYLINE
  5
B8
330
B4
100
AcDbEntity
  8
0
 62
     7
370
     9
100
AcDb2dPolyline
 66
     1
 10
0.0
 20
0.0
 30
0.0
  0
VERTEX
  5
B9
330
B8
100
AcDbEntity
  8
0
 62
     7
370
     9
100
AcDbVertex
100
AcDb2dVertex
 10
228.6003444523985
 20
157.7442043333938
 30
0.0
  0
VERTEX
  5
BA
330
B8
100
AcDbEntity
  8
0
 62
     7
370
     9
100
AcDbVertex
100
AcDb2dVertex
 10
64.59674613185429
 20
63.0669514816291
 30
0.0
  0
SEQEND
  5
BB
330
B8
100
AcDbEntity
  8
0
370
     9
  0
ENDBLK
  5
B7
330
B4
100
AcDbEntity
  8
0
100
AcDbBlockEnd
  0
BLOCK
  5
BE
330
BC
100
AcDbEntity
  8
0
100
AcDbBlockBegin
  2
block 17
 70
     0
 71
     0
 10
0.0
 20
0.0
 30
0.0
  3
block 17
  1

  0
POLYLINE
  5
C0
330
BC
100
AcDbEntity
  8
0
 62
     7
370
     9
100
AcDb2dPolyline
 66
     1
 10
0.0
 20
0.0
 30
0.0
  0
VERTEX
  5
C1
330
C0
100
AcDbEntity
  8
0
 62
     7
370
     9
100
AcDbVertex
100
AcDb2dVertex
 10
228.6937065400488
 20
157.8384276949154
 30
0.0
  0
VERTEX
  5
C2
330
C0
100
AcDbEntity
  8
0
 62
     7
370
     9
100
AcDbVertex
100
AcDb2dVertex
 10
64.68924694563324
 20
63.16065807882789
 30
0.0
  0
SEQEND
  5
C3
330
C0
100
AcDbEntity
  8
0
370
     9
  0
ENDBLK
  5
BF
330
BC
100
AcDbEntity
  8
0
100
AcDbBlockEnd
  0
BLOCK
  5
C6
330
C4
100
AcDbEntity
  8
0
100
AcDbBlockBegin
  2
block 18
 70
     0
 71
     0
 10
0.0
 20
0.0
 30
0.0
  3
block 18
  1

  0
POLYLINE
  5
C8
330
C4
100
AcDbEntity
  8
0
 62
     7
370
     9
100
AcDb2dPolyline
 66
     1
 10
0.0
 20
0.0
 30
0.0
  0
VERTEX
  5
C9
330
C8
100
AcDbEntity
  8
0
 62
     7
370
     9
100
AcDbVertex
100
AcDb2dVertex
 10
228.7960258759607
 20
157.9199042031416
 30
0.0
  0
VERTEX
  5
CA
330
C8
100
AcDbEntity
  8
0
 62
     7
370
     9
100
AcDbVertex
100
AcDb2dVertex
 10
64.7905327528996
 20
63.24161782273126
 30
0.0
  0
SEQEND
  5
CB
330
C8
100
AcDbEntity
  8
0
370
     9
  0
ENDBLK
  5
C7
330
C4
100
AcDbEntity
  8
0
100
AcDbBlockEnd
  0
BLOCK
  5
CE
330
CC
100
AcDbEntity
  8
0
100
AcDbBlockBegin
  2
block 19
 70
     0
 71
     0
 10
0.0
 20
0.0
 30
0.0
  3
block 19
  1

  0
POLYLINE
  5
D0
330
CC
100
AcDbEntity
  8
0
 62
     7
370
     9
100
AcDb2dPolyline
 66
     1
 10
0.0
 20
0.0
 30
0.0
  0
VERTEX
  5
D1
330
D0
100
AcDbEntity
  8
0
 62
     7
370
     9
100
AcDbVertex
100
AcDb2dVertex
 10
228.8504583846277
 20
157.9559054509624
 30
0.0
  0
VERTEX
  5
D2
330
D0
100
AcDbEntity
  8
0
 62
     7
370
     9
100
AcDbVertex
100
AcDb2dVertex
 10
64.89991453455627
 20
63.30914169424216
 30
0.0
  0
SEQEND
  5
D3
330
D0
100
AcDbEntity
  8
0
370
     9
  0
ENDBLK
  5
CF
330
CC
100
AcDbEntity
  8
0
100
AcDbBlockEnd
  0
BLOCK
  5
D6
330
D4
100
AcDbEntity
  8
0
100
AcDbBlockBegin
  2
block 20
 70
     0
 71
     0
 10
0.0
 20
0.0
 30
0.0
  3
block 20
  1

  0
POLYLINE
  5
D8
330
D4
100
AcDbEntity
  8
0
 62
     7
370
     9
100
AcDb2dPolyline
 66
     1
 10
0.0
 20
0.0
 30
0.0
  0
VERTEX
  5
D9
330
D8
100
AcDbEntity
  8
0
 62
     7
370
     9
100
AcDbVertex
100
AcDb2dVertex
 10
228.9979084713964
 20
158.0453056788047
 30
0.0
  0
VERTEX
  5
DA
330
D8
100
AcDbEntity
  8
0
 62
     7
370
     9
100
AcDbVertex
100
AcDb2dVertex
 10
228.8583821042438
 20
157.9607285846418
 30
0.0
  0
SEQEND
  5
DB
330
D8
100
AcDbEntity
  8
0
370
     9
  0
ENDBLK
  5
D7
330
D4
100
AcDbEntity
  8
0
100
AcDbBlockEnd
  0
BLOCK
  5
DE
330
DC
100
AcDbEntity
  8
0
100
AcDbBlockBegin
  2
block 21
 70
     0
 71
     0
 10
0.0
 20
0.0
 30
0.0
  3
block 21
  1

  0
POLYLINE
  5
E0
330
DC
100
AcDbEntity
  8
0
 62
     7
370
     9
100
AcDb2dPolyline
 66
     1
 10
0.0
 20
0.0
 30
0.0
  0
VERTEX
  5
E1
330
E0
100
AcDbEntity
  8
0
 62
     7
370
     9
100
AcDbVertex
100
AcDb2dVertex
 10
232.1077961659314
 20
152.3317870712921
 30
0.0
  0
VERTEX
  5
E2
330
E0
100
AcDbEntity
  8
0
 62
     7
370
     9
100
AcDbVertex
100
AcDb2dVertex
 10
232.2511121381178
 20
152.4103352483558
 30
0.0
  0
SEQEND
  5
E3
330
E0
100
AcDbEntity
  8
0
370
     9
  0
ENDBLK
  5
DF
330
DC
100
AcDbEntity
  8
0
100
AcDbBlockEnd
  0
BLOCK
  5
E6
330
E4
100
AcDbEntity
  8
0
100
AcDbBlockBegin
  2
block 22
 70
     0
 71
     0
 10
0.0
 20
0.0
 30
0.0
  3
block 22
  1

  0
POLYLINE
  5
E8
330
E4
100
AcDbEntity
  8
0
 62
     7
370
     9
100
AcDb2dPolyline
 66
     1
 10
0.0
 20
0.0
 30
0.0
  0
VERTEX
  5
E9
330
E8
100
AcDbEntity
  8
0
 62
     7
370
     9
100
AcDbVertex
100
AcDb2dVertex
 10
68.00205076424949
 20
57.591316717373
 30
0.0
  0
VERTEX
  5
EA
330
E8
100
AcDbEntity
  8
0
 62
     7
370
     9
100
AcDbVertex
100
AcDb2dVertex
 10
68.14157713140212
 20
57.67606606631016
 30
0.0
  0
SEQEND
  5
EB
330
E8
100
AcDbEntity
  8
0
370
     9
  0
ENDBLK
  5
E7
330
E4
100
AcDbEntity
  8
0
100
AcDbBlockEnd
  0
BLOCK
  5
EE
330
EC
100
AcDbEntity
  8
0
100
AcDbBlockBegin
  2
block 23
 70
     0
 71
     0
 10
0.0
 20
0.0
 30
0.0
  3
block 23
  1

  0
POLYLINE
  5
F0
330
EC
100
AcDbEntity
  8
0
 62
     7
370
     9
100
AcDb2dPolyline
 66
     1
 10
0.0
 20
0.0
 30
0.0
  0
VERTEX
  5
F1
330
F0
100
AcDbEntity
  8
0
 62
     7
370
     9
100
AcDbVertex
100
AcDb2dVertex
 10
64.89216306971446
 20
63.30500757965986
 30
0.0
  0
VERTEX
  5
F2
330
F0
100
AcDbEntity
  8
0
 62
     7
370
     9
100
AcDbVertex
100
AcDb2dVertex
 10
64.74901935230233
 20
63.22645940259616
 30
0.0
  0
SEQEND
  5
F3
330
F0
100
AcDbEntity
  8
0
370
     9
  0
ENDBLK
  5
EF
330
EC
100
AcDbEntity
  8
0
100
AcDbBlockEnd
  0
BLOCK
  5
F6
330
F4
100
AcDbEntity
  8
0
100
AcDbBlockBegin
  2
block 24
 70
     0
 71
     0
 10
0.0
 20
0.0
 30
0.0
  3
block 24
  1

  0
POLYLINE
  5
F8
330
F4
100
AcDbEntity
  8
0
 62
     7
370
     9
100
AcDb2dPolyline
 66
     1
 10
0.0
 20
0.0
 30
0.0
  0
VERTEX
  5
F9
330
F8
100
AcDbEntity
  8
0
 62
     7
370
     9
100
AcDbVertex
100
AcDb2dVertex
 10
64.63980982541992
 20
63.1592800406338
 30
0.0
  0
VERTEX
  5
FA
330
F8
100
AcDbEntity
  8
0
 62
     7
370
     9
100
AcDbVertex
100
AcDb2dVertex
 10
64.12511255992358
 20
62.84749889921869
 30
0.0
  0
SEQEND
  5
FB
330
F8
100
AcDbEntity
  8
0
370
     9
  0
ENDBLK
  5
F7
330
F4
100
AcDbEntity
  8
0
100
AcDbBlockEnd
  0
BLOCK
  5
FE
330
FC
100
AcDbEntity
  8
0
100
AcDbBlockBegin
  2
block 25
 70
     0
 71
     0
 10
0.0
 20
0.0
 30
0.0
  3
block 25
  1

  0
POLYLINE
  5
100
330
FC
100
AcDbEntity
  8
0
 62
     7
370
     9
100
AcDb2dPolyline
 66
     1
 10
0.0
 20
0.0
 30
0.0
  0
VERTEX
  5
101
330
100
100
AcDbEntity
  8
0
 62
     7
370
     9
100
AcDbVertex
100
AcDb2dVertex
 10
67.36177976831581
 20
57.24060599697457
 30
0.0
  0
VERTEX
  5
102
330
100
100
AcDbEntity
  8
0
 62
     7
370
     9
100
AcDbVertex
100
AcDb2dVertex
 10
67.88939614188182
 20
57.53033852728409
 30
0.0
  0
SEQEND
  5
103
330
100
100
AcDbEntity
  8
0
370
     9
  0
ENDBLK
  5
FF
330
FC
100
AcDbEntity
  8
0
100
AcDbBlockEnd
  0
BLOCK
  5
106
330
104
100
AcDbEntity
  8
0
100
AcDbBlockBegin
  2
block 26
 70
     0
 71
     0
 10
0.0
 20
0.0
 30
0.0
  3
block 26
  1

  0
POLYLINE
  5
108
330
104
100
AcDbEntity
  8
0
 62
     7
370
     9
100
AcDb2dPolyline
 66
     1
 10
0.0
 20
0.0
 30
0.0
  0
VERTEX
  5
109
330
108
100
AcDbEntity
  8
0
 62
     7
370
     9
100
AcDbVertex
100
AcDb2dVertex
 10
63.47450627753415
 20
61.37713214611405
 30
0.0
  0
VERTEX
  5
10A
330
108
100
AcDbEntity
  8
0
 62
     7
370
     9
100
AcDbVertex
100
AcDb2dVertex
 10
63.47450627753415
 20
61.24415146038341
 30
0.0
  0
SEQEND
  5
10B
330
108
100
AcDbEntity
  8
0
370
     9
  0
ENDBLK
  5
107
330
104
100
AcDbEntity
  8
0
100
AcDbBlockEnd
  0
BLOCK
  5
10E
330
10C
100
AcDbEntity
  8
0
100
AcDbBlockBegin
  2
block 27
 70
     0
 71
     0
 10
0.0
 20
0.0
 30
0.0
  3
block 27
  1

  0
POLYLINE
  5
110
330
10C
100
AcDbEntity
  8
0
 62
     7
370
     9
100
AcDb2dPolyline
 66
     1
 10
0.0
 20
0.0
 30
0.0
  0
VERTEX
  5
111
330
110
100
AcDbEntity
  8
0
 62
     7
370
     9
100
AcDbVertex
100
AcDb2dVertex
 10
65.64801701917828
 20
57.47900660455386
 30
0.0
  0
VERTEX
  5
112
330
110
100
AcDbEntity
  8
0
 62
     7
370
     9
100
AcDbVertex
100
AcDb2dVertex
 10
65.76308320838562
 20
57.41251626168854
 30
0.0
  0
SEQEND
  5
113
330
110
100
AcDbEntity
  8
0
370
     9
  0
ENDBLK
  5
10F
330
10C
100
AcDbEntity
  8
0
100
AcDbBlockEnd
  0
BLOCK
  5
116
330
114
100
AcDbEntity
  8
0
100
AcDbBlockBegin
  2
block 28
 70
     0
 71
     0
 10
0.0
 20
0.0
 30
0.0
  3
block 28
  1

  0
POLYLINE
  5
118
330
114
100
AcDbEntity
  8
0
 62
     7
370
     9
100
AcDb2dPolyline
 66
     1
 10
0.0
 20
0.0
 30
0.0
  0
VERTEX
  5
119
330
118
100
AcDbEntity
  8
0
 62
     7
370
     9
100
AcDbVertex
100
AcDb2dVertex
 10
65.18568520505775
 20
56.6700981846172
 30
0.0
  0
VERTEX
  5
11A
330
118
100
AcDbEntity
  8
0
 62
     7
370
     9
100
AcDbVertex
100
AcDb2dVertex
 10
66.18011201687511
 20
57.2161458190293
 30
0.0
  0
SEQEND
  5
11B
330
118
100
AcDbEntity
  8
0
370
     9
  0
ENDBLK
  5
117
330
114
100
AcDbEntity
  8
0
100
AcDbBlockEnd
  0
BLOCK
  5
11E
330
11C
100
AcDbEntity
  8
0
100
AcDbBlockBegin
  2
block 29
 70
     0
 71
     0
 10
0.0
 20
0.0
 30
0.0
  3
block 29
  1

  0
POLYLINE
  5
120
330
11C
100
AcDbEntity
  8
0
 62
     7
370
     9
100
AcDb2dPolyline
 66
     1
 10
0.0
 20
0.0
 30
0.0
  0
VERTEX
  5
121
330
120
100
AcDbEntity
  8
0
 62
     7
370
     9
100
AcDbVertex
100
AcDb2dVertex
 10
63.57286375363804
 20
60.48829751091959
 30
0.0
  0
VERTEX
  5
122
330
120
100
AcDbEntity
  8
0
 62
     7
370
     9
100
AcDbVertex
100
AcDb2dVertex
 10
62.13401962422344
 20
59.59808483753104
 30
0.0
  0
SEQEND
  5
123
330
120
100
AcDbEntity
  8
0
370
     9
  0
ENDBLK
  5
11F
330
11C
100
AcDbEntity
  8
0
100
AcDbBlockEnd
  0
BLOCK
  5
126
330
124
100
AcDbEntity
  8
0
100
AcDbBlockBegin
  2
block 30
 70
     0
 71
     0
 10
0.0
 20
0.0
 30
0.0
  3
block 30
  1

  0
POLYLINE
  5
128
330
124
100
AcDbEntity
  8
0
 62
     7
370
     9
100
AcDb2dPolyline
 66
     1
 10
0.0
 20
0.0
 30
0.0
  0
VERTEX
  5
129
330
128
100
AcDbEntity
  8
0
 62
     7
370
     9
100
AcDbVertex
100
AcDb2dVertex
 10
63.67656112774406
 20
56.93502602743291
 30
0.0
  0
VERTEX
  5
12A
330
128
100
AcDbEntity
  8
0
 62
     7
370
     9
100
AcDbVertex
100
AcDb2dVertex
 10
63.81247014463716
 20
56.85062118804429
 30
0.0
  0
SEQEND
  5
12B
330
128
100
AcDbEntity
  8
0
370
     9
  0
ENDBLK
  5
127
330
124
100
AcDbEntity
  8
0
100
AcDbBlockEnd
  0
BLOCK
  5
12E
330
12C
100
AcDbEntity
  8
0
100
AcDbBlockBegin
  2
block 31
 70
     0
 71
     0
 10
0.0
 20
0.0
 30
0.0
  3
block 31
  1

  0
POLYLINE
  5
130
330
12C
100
AcDbEntity
  8
0
 62
     7
370
     9
100
AcDb2dPolyline
 66
     1
 10
0.0
 20
0.0
 30
0.0
  0
VERTEX
  5
131
330
130
100
AcDbEntity
  8
0
 62
     7
370
     9
100
AcDbVertex
100
AcDb2dVertex
 10
63.51274683742043
 20
61.83636337429785
 30
0.0
  0
VERTEX
  5
132
330
130
100
AcDbEntity
  8
0
 62
     7
370
     9
100
AcDbVertex
100
AcDb2dVertex
 10
62.54260794877408
 20
61.24828557496571
 30
0.0
  0
SEQEND
  5
133
330
130
100
AcDbEntity
  8
0
370
     9
  0
ENDBLK
  5
12F
330
12C
100
AcDbEntity
  8
0
100
AcDbBlockEnd
  0
BLOCK
  5
136
330
134
100
AcDbEntity
  8
0
100
AcDbBlockBegin
  2
block 32
 70
     0
 71
     0
 10
0.0
 20
0.0
 30
0.0
  3
block 32
  1

  0
SPLINE
  5
138
330
134
100
AcDbEntity
  8
0
 62
     7
370
     9
100
AcDbSpline
210
0.0
220
0.0
230
1.0
 70
     8
 71
     3
 72
    20
 73
    16
 74
     0
 42
0.0000000001
 43
0.0000000001
 40
0.0
 40
0.0
 40
0.0
 40
0.0
 40
1.0
 40
1.0
 40
1.0
 40
2.0
 40
2.0
 40
2.0
 40
3.0
 40
3.0
 40
3.0
 40
4.0
 40
4.0
 40
4.0
 40
5.0
 40
5.0
 40
5.0
 40
5.0
 10
62.0850992683329
 20
60.300884316522
 30
0.0
 10
62.10353052917898
 20
60.28538138683838
 30
0.0
 10
62.12196179002507
 20
60.26987845715475
 30
0.0
 10
62.14022079609689
 20
60.25196396063146
 30
0.0
 10
62.17536077004644
 20
60.21820202487601
 30
0.0
 10
62.21015623444747
 20
60.17617185995596
 30
0.0
 10
62.24098983904045
 20
60.13104110909919
 30
0.0
 10
62.27302922705327
 20
60.08418781049979
 30
0.0
 10
62.3009345004838
 20
60.03423392596367
 30
0.0
 10
62.32418889500924
 20
59.9822129841364
 30
0.0
 10
62.34744328953467
 20
59.93053655185765
 30
0.0
 10
62.36621905992928
 20
59.87679306228775
 30
0.0
 10
62.3748317986424
 20
59.82993976368835
 30
0.0
 10
62.37982718709602
 20
59.80237899980635
 30
0.0
 10
62.38137748006438
 20
59.77722980276403
 30
0.0
 10
62.38275551825848
 20
59.75173609617318
 30
0.0
  0
ENDBLK
  5
137
330
134
100
AcDbEntity
  8
0
100
AcDbBlockEnd
  0
BLOCK
  5
13B
330
139
100
AcDbEntity
  8
0
100
AcDbBlockBegin
  2
block 33
 70
     0
 71
     0
 10
0.0
 20
0.0
 30
0.0
  3
block 33
  1

  0
SPLINE
  5
13D
330
139
100
AcDbEntity
  8
0
 62
     7
370
     9
100
AcDbSpline
210
0.0
220
0.0
230
1.0
 70
     8
 71
     3
 72
    11
 73
     7
 74
     0
 42
0.0000000001
 43
0.0000000001
 40
0.0
 40
0.0
 40
0.0
 40
0.0
 40
1.0
 40
1.0
 40
1.0
 40
2.0
 40
2.0
 40
2.0
 40
2.0
 10
62.07097437684337
 20
60.53205022358227
 30
0.0
 10
62.07149114116616
 20
60.5227484657721
 30
0.0
 10
62.07218016026321
 20
60.51344670796192
 30
0.0
 10
62.07252466981173
 20
60.5034559310547
 30
0.0
 10
62.07441947232862
 20
60.46004772794055
 30
0.0
 10
62.07321368890878
 20
60.40182561423983
 30
0.0
 10
62.07200790548895
 20
60.34325899099058
 30
0.0
  0
ENDBLK
  5
13C
330
139
100
AcDbEntity
  8
0
100
AcDbBlockEnd
  0
BLOCK
  5
140
330
13E
100
AcDbEntity
  8
0
100
AcDbBlockBegin
  2
block 34
 70
     0
 71
     0
 10
0.0
 20
0.0
 30
0.0
  3
block 34
  1

  0
POLYLINE
  5
142
330
13E
100
AcDbEntity
  8
0
 62
     7
370
     9
100
AcDb2dPolyline
 66
     1
 10
0.0
 20
0.0
 30
0.0
  0
VERTEX
  5
143
330
142
100
AcDbEntity
  8
0
 62
     7
370
     9
100
AcDbVertex
100
AcDb2dVertex
 10
232.7117214044957
 20
153.3301757429175
 30
0.0
  0
VERTEX
  5
144
330
142
100
AcDbEntity
  8
0
 62
     7
370
     9
100
AcDbVertex
100
AcDb2dVertex
 10
234.4573512868718
 20
154.3883368212119
 30
0.0
  0
SEQEND
  5
145
330
142
100
AcDbEntity
  8
0
370
     9
  0
ENDBLK
  5
141
330
13E
100
AcDbEntity
  8
0
100
AcDbBlockEnd
  0
BLOCK
  5
148
330
146
100
AcDbEntity
  8
0
100
AcDbBlockBegin
  2
block 35
 70
     0
 71
     0
 10
0.0
 20
0.0
 30
0.0
  3
block 35
  1

  0
POLYLINE
  5
14A
330
146
100
AcDbEntity
  8
0
 62
     7
370
     9
100
AcDb2dPolyline
 66
     1
 10
0.0
 20
0.0
 30
0.0
  0
VERTEX
  5
14B
330
14A
100
AcDbEntity
  8
0
 62
     7
370
     9
100
AcDbVertex
100
AcDb2dVertex
 10
232.3599771554517
 20
152.4775146103181
 30
0.0
  0
VERTEX
  5
14C
330
14A
100
AcDbEntity
  8
0
 62
     7
370
     9
100
AcDbVertex
100
AcDb2dVertex
 10
232.8750189304965
 20
152.7894680065075
 30
0.0
  0
SEQEND
  5
14D
330
14A
100
AcDbEntity
  8
0
370
     9
  0
ENDBLK
  5
149
330
146
100
AcDbEntity
  8
0
100
AcDbBlockEnd
  0
BLOCK
  5
150
330
14E
100
AcDbEntity
  8
0
100
AcDbBlockBegin
  2
block 36
 70
     0
 71
     0
 10
0.0
 20
0.0
 30
0.0
  3
block 36
  1

  0
POLYLINE
  5
152
330
14E
100
AcDbEntity
  8
0
 62
     7
370
     9
100
AcDb2dPolyline
 66
     1
 10
0.0
 20
0.0
 30
0.0
  0
VERTEX
  5
153
330
152
100
AcDbEntity
  8
0
 62
     7
370
     9
100
AcDbVertex
100
AcDb2dVertex
 10
229.6383517221043
 20
158.3960163992031
 30
0.0
  0
VERTEX
  5
154
330
152
100
AcDbEntity
  8
0
 62
     7
370
     9
100
AcDbVertex
100
AcDb2dVertex
 10
229.110563093764
 20
158.1062838688936
 30
0.0
  0
SEQEND
  5
155
330
152
100
AcDbEntity
  8
0
370
     9
  0
ENDBLK
  5
151
330
14E
100
AcDbEntity
  8
0
100
AcDbBlockEnd
  0
BLOCK
  5
158
330
156
100
AcDbEntity
  8
0
100
AcDbBlockBegin
  2
block 37
 70
     0
 71
     0
 10
0.0
 20
0.0
 30
0.0
  3
block 37
  1

  0
SPLINE
  5
15A
330
156
100
AcDbEntity
  8
0
 62
     7
370
     9
100
AcDbSpline
210
0.0
220
0.0
230
1.0
 70
     8
 71
     3
 72
    11
 73
     7
 74
     0
 42
0.0000000001
 43
0.0000000001
 40
0.0
 40
0.0
 40
0.0
 40
0.0
 40
1.0
 40
1.0
 40
1.0
 40
2.0
 40
2.0
 40
2.0
 40
2.0
 10
231.502492889173
 20
157.2961696655371
 30
0.0
 10
231.4904350549746
 20
157.2923800605033
 30
0.0
 10
231.4780327112277
 20
157.2885904554695
 30
0.0
 10
231.4656303674808
 20
157.2856621243071
 30
0.0
 10
231.4242892216578
 20
157.2761881117226
 30
0.0
 10
231.3805365089952
 20
157.2765326212711
 30
0.0
 10
231.3367837963325
 20
157.2770493855939
 30
0.0
  0
ENDBLK
  5
159
330
156
100
AcDbEntity
  8
0
100
AcDbBlockEnd
  0
BLOCK
  5
15D
330
15B
100
AcDbEntity
  8
0
100
AcDbBlockBegin
  2
block 38
 70
     0
 71
     0
 10
0.0
 20
0.0
 30
0.0
  3
block 38
  1

  0
POLYLINE
  5
15F
330
15B
100
AcDbEntity
  8
0
 62
     7
370
     9
100
AcDb2dPolyline
 66
     1
 10
0.0
 20
0.0
 30
0.0
  0
VERTEX
  5
160
330
15F
100
AcDbEntity
  8
0
 62
     7
370
     9
100
AcDbVertex
100
AcDb2dVertex
 10
231.3288600767164
 20
157.2698146850749
 30
0.0
  0
VERTEX
  5
161
330
15F
100
AcDbEntity
  8
0
 62
     7
370
     9
100
AcDbVertex
100
AcDb2dVertex
 10
229.5477457108422
 20
156.3174180381776
 30
0.0
  0
SEQEND
  5
162
330
15F
100
AcDbEntity
  8
0
370
     9
  0
ENDBLK
  5
15E
330
15B
100
AcDbEntity
  8
0
100
AcDbBlockEnd
  0
BLOCK
  5
165
330
163
100
AcDbEntity
  8
0
100
AcDbBlockBegin
  2
block 39
 70
     0
 71
     0
 10
0.0
 20
0.0
 30
0.0
  3
block 39
  1

  0
SPLINE
  5
167
330
163
100
AcDbEntity
  8
0
 62
     7
370
     9
100
AcDbSpline
210
0.0
220
0.0
230
1.0
 70
     8
 71
     3
 72
    14
 73
    10
 74
     0
 42
0.0000000001
 43
0.0000000001
 40
0.0
 40
0.0
 40
0.0
 40
0.0
 40
1.0
 40
1.0
 40
1.0
 40
2.0
 40
2.0
 40
2.0
 40
3.0
 40
3.0
 40
3.0
 40
3.0
 10
231.5903428240469
 20
157.2891072197923
 30
0.0
 10
231.5889647858528
 20
157.2880736911467
 30
0.0
 10
231.5879312572072
 20
157.2868679077269
 30
0.0
 10
231.5837971426249
 20
157.2858343790813
 30
0.0
 10
231.5772514612029
 20
157.2844563408872
 30
0.0
 10
231.5634710792619
 20
157.2832505574674
 30
0.0
 10
231.5410779586078
 20
157.2892794745666
 30
0.0
 10
231.5334987485402
 20
157.2911742770835
 30
0.0
 10
231.5252305193756
 20
157.2939303534717
 30
0.0
 10
231.516962290211
 20
157.2966864298599
 30
0.0
  0
ENDBLK
  5
166
330
163
100
AcDbEntity
  8
0
100
AcDbBlockEnd
  0
BLOCK
  5
16A
330
168
100
AcDbEntity
  8
0
100
AcDbBlockBegin
  2
block 40
 70
     0
 71
     0
 10
0.0
 20
0.0
 30
0.0
  3
block 40
  1

  0
POLYLINE
  5
16C
330
168
100
AcDbEntity
  8
0
 62
     7
370
     9
100
AcDb2dPolyline
 66
     1
 10
0.0
 20
0.0
 30
0.0
  0
VERTEX
  5
16D
330
16C
100
AcDbEntity
  8
0
 62
     7
370
     9
100
AcDbVertex
100
AcDb2dVertex
 10
233.3235703626761
 20
158.701768623519
 30
0.0
  0
VERTEX
  5
16E
330
16C
100
AcDbEntity
  8
0
 62
     7
370
     9
100
AcDbVertex
100
AcDb2dVertex
 10
233.1874890910087
 20
158.7860012081334
 30
0.0
  0
SEQEND
  5
16F
330
16C
100
AcDbEntity
  8
0
370
     9
  0
ENDBLK
  5
16B
330
168
100
AcDbEntity
  8
0
100
AcDbBlockEnd
  0
BLOCK
  5
172
330
170
100
AcDbEntity
  8
0
100
AcDbBlockBegin
  2
block 41
 70
     0
 71
     0
 10
0.0
 20
0.0
 30
0.0
  3
block 41
  1

  0
POLYLINE
  5
174
330
170
100
AcDbEntity
  8
0
 62
     7
370
     9
100
AcDb2dPolyline
 66
     1
 10
0.0
 20
0.0
 30
0.0
  0
VERTEX
  5
175
330
174
100
AcDbEntity
  8
0
 62
     7
370
     9
100
AcDbVertex
100
AcDb2dVertex
 10
231.8142740305881
 20
158.966868721109
 30
0.0
  0
VERTEX
  5
176
330
174
100
AcDbEntity
  8
0
 62
     7
370
     9
100
AcDbVertex
100
AcDb2dVertex
 10
230.0248914355493
 20
157.9843274887157
 30
0.0
  0
SEQEND
  5
177
330
174
100
AcDbEntity
  8
0
370
     9
  0
ENDBLK
  5
173
330
170
100
AcDbEntity
  8
0
100
AcDbBlockEnd
  0
BLOCK
  5
17A
330
178
100
AcDbEntity
  8
0
100
AcDbBlockBegin
  2
block 42
 70
     0
 71
     0
 10
0.0
 20
0.0
 30
0.0
  3
block 42
  1

  0
SPLINE
  5
17C
330
178
100
AcDbEntity
  8
0
 62
     7
370
     9
100
AcDbSpline
210
0.0
220
0.0
230
1.0
 70
     8
 71
     3
 72
    29
 73
    25
 74
     0
 42
0.0000000001
 43
0.0000000001
 40
0.0
 40
0.0
 40
0.0
 40
0.0
 40
1.0
 40
1.0
 40
1.0
 40
2.0
 40
2.0
 40
2.0
 40
3.0
 40
3.0
 40
3.0
 40
4.0
 40
4.0
 40
4.0
 40
5.0
 40
5.0
 40
5.0
 40
6.0
 40
6.0
 40
6.0
 40
7.0
 40
7.0
 40
7.0
 40
8.0
 40
8.0
 40
8.0
 40
8.0
 10
234.914859967313
 20
155.3359103344299
 30
0.0
 10
234.8966009612411
 20
155.3515855188878
 30
0.0
 10
234.8779974456208
 20
155.3670884485714
 30
0.0
 10
234.859738439549
 20
155.3846584355462
 30
0.0
 10
234.8245984655994
 20
155.4187648808502
 30
0.0
 10
234.7901475107469
 20
155.460622790996
 30
0.0
 10
234.7587971418311
 20
155.505925796627
 30
0.0
 10
234.7267577538183
 20
155.5527790952264
 30
0.0
 10
234.6985079708393
 20
155.6032497440853
 30
0.0
 10
234.6757703406366
 20
155.6545816668155
 30
0.0
 10
234.653032710434
 20
155.7059135895458
 30
0.0
 10
234.6358072330077
 20
155.757934531373
 30
0.0
 10
234.6251274370034
 20
155.8068548872636
 30
0.0
 10
234.6147921505477
 20
155.85439720496
 30
0.0
 10
234.6106580359654
 20
155.8988389367198
 30
0.0
 10
234.6120360741595
 20
155.9355292036377
 30
0.0
 10
234.6134141123536
 20
155.9703246680387
 30
0.0
 10
234.6196152842271
 20
155.9980576866949
 30
0.0
 10
234.626160965649
 20
156.0159721832182
 30
0.0
 10
234.6323621375225
 20
156.033542170193
 30
0.0
 10
234.6385633093959
 20
156.0414658898091
 30
0.0
 10
234.6426974239782
 20
156.0445664757458
 30
0.0
 10
234.6447644812694
 20
156.0459445139399
 30
0.0
 10
234.6461425194635
 20
156.0462890234884
 30
0.0
 10
234.6475205576576
 20
156.0468057878112
 30
0.0
  0
ENDBLK
  5
17B
330
178
100
AcDbEntity
  8
0
100
AcDbBlockEnd
  0
BLOCK
  5
17F
330
17D
100
AcDbEntity
  8
0
100
AcDbBlockBegin
  2
block 43
 70
     0
 71
     0
 10
0.0
 20
0.0
 30
0.0
  3
block 43
  1

  0
SPLINE
  5
181
330
17D
100
AcDbEntity
  8
0
 62
     7
370
     9
100
AcDbSpline
210
0.0
220
0.0
230
1.0
 70
     8
 71
     3
 72
    11
 73
     7
 74
     0
 42
0.0000000001
 43
0.0000000001
 40
0.0
 40
0.0
 40
0.0
 40
0.0
 40
1.0
 40
1.0
 40
1.0
 40
2.0
 40
2.0
 40
2.0
 40
2.0
 10
234.9289848588025
 20
156.1654893272781
 30
0.0
 10
234.9279513301569
 20
156.1773749067022
 30
0.0
 10
234.9272623110598
 20
156.1894327409006
 30
0.0
 10
234.9269178015113
 20
156.1997680273563
 30
0.0
 10
234.9255397633172
 20
156.2306016319493
 30
0.0
 10
234.9265732919628
 20
156.2461045616329
 30
0.0
 10
234.9276068206084
 20
156.2616074913165
 30
0.0
  0
ENDBLK
  5
180
330
17D
100
AcDbEntity
  8
0
100
AcDbBlockEnd
  0
BLOCK
  5
184
330
182
100
AcDbEntity
  8
0
100
AcDbBlockBegin
  2
block 44
 70
     0
 71
     0
 10
0.0
 20
0.0
 30
0.0
  3
block 44
  1

  0
POLYLINE
  5
186
330
182
100
AcDbEntity
  8
0
 62
     7
370
     9
100
AcDb2dPolyline
 66
     1
 10
0.0
 20
0.0
 30
0.0
  0
VERTEX
  5
187
330
186
100
AcDbEntity
  8
0
 62
     7
370
     9
100
AcDbVertex
100
AcDb2dVertex
 10
234.6172037173874
 20
155.8847140452302
 30
0.0
  0
VERTEX
  5
188
330
186
100
AcDbEntity
  8
0
 62
     7
370
     9
100
AcDbVertex
100
AcDb2dVertex
 10
234.8659396114224
 20
156.0388820681951
 30
0.0
  0
SEQEND
  5
189
330
186
100
AcDbEntity
  8
0
370
     9
  0
ENDBLK
  5
185
330
182
100
AcDbEntity
  8
0
100
AcDbBlockEnd
  0
BLOCK
  5
18C
330
18A
100
AcDbEntity
  8
0
100
AcDbBlockBegin
  2
block 45
 70
     0
 71
     0
 10
0.0
 20
0.0
 30
0.0
  3
block 45
  1

  0
SPLINE
  5
18E
330
18A
100
AcDbEntity
  8
0
 62
     7
370
     9
100
AcDbSpline
210
0.0
220
0.0
230
1.0
 70
     8
 71
     3
 72
    26
 73
    22
 74
     0
 42
0.0000000001
 43
0.0000000001
 40
0.0
 40
0.0
 40
0.0
 40
0.0
 40
1.0
 40
1.0
 40
1.0
 40
2.0
 40
2.0
 40
2.0
 40
3.0
 40
3.0
 40
3.0
 40
4.0
 40
4.0
 40
4.0
 40
5.0
 40
5.0
 40
5.0
 40
6.0
 40
6.0
 40
6.0
 40
7.0
 40
7.0
 40
7.0
 40
7.0
 10
233.3969508965119
 20
157.6005438516589
 30
0.0
 10
233.412109316647
 20
157.6115681572117
 30
0.0
 10
233.4276122463306
 20
157.6224202079902
 30
0.0
 10
233.4393255709805
 20
157.6365450994797
 30
0.0
 10
233.4510388956303
 20
157.650497736195
 30
0.0
 10
233.4589626152464
 20
157.667550958847
 30
0.0
 10
233.4648192775713
 20
157.6849486910475
 30
0.0
 10
233.4706759398962
 20
157.7038967162164
 30
0.0
 10
233.473776525833
 20
157.7233615057081
 30
0.0
 10
233.4741210353815
 20
157.7433430595225
 30
0.0
 10
233.47446554493
 20
157.7671142183707
 30
0.0
 10
233.4706759398962
 20
157.7917466510903
 30
0.0
 10
233.4637857489257
 20
157.815862319487
 30
0.0
 10
233.4558620293097
 20
157.8430785738205
 30
0.0
 10
233.4438041951113
 20
157.8699503186054
 30
0.0
 10
233.4286457749762
 20
157.8949272608735
 30
0.0
 10
233.4131428452926
 20
157.9204209674643
 30
0.0
 10
233.3938503105751
 20
157.9440198715383
 30
0.0
 10
233.3724907185666
 20
157.9624511323844
 30
0.0
 10
233.3593993557227
 20
157.9733031831629
 30
0.0
 10
233.3459634833302
 20
157.9824326861988
 30
0.0
 10
233.3321831013892
 20
157.991734444009
 30
0.0
  0
ENDBLK
  5
18D
330
18A
100
AcDbEntity
  8
0
100
AcDbBlockEnd
  0
BLOCK
  5
191
330
18F
100
AcDbEntity
  8
0
100
AcDbBlockBegin
  2
block 46
 70
     0
 71
     0
 10
0.0
 20
0.0
 30
0.0
  3
block 46
  1

  0
SPLINE
  5
193
330
18F
100
AcDbEntity
  8
0
 62
     7
370
     9
100
AcDbSpline
210
0.0
220
0.0
230
1.0
 70
     8
 71
     3
 72
    14
 73
    10
 74
     0
 42
0.0000000001
 43
0.0000000001
 40
0.0
 40
0.0
 40
0.0
 40
0.0
 40
1.0
 40
1.0
 40
1.0
 40
2.0
 40
2.0
 40
2.0
 40
3.0
 40
3.0
 40
3.0
 40
3.0
 10
233.3321831013892
 20
157.991734444009
 30
0.0
 10
233.3111680189292
 20
158.0012084565934
 30
0.0
 10
233.2901529364691
 20
158.0108547239521
 30
0.0
 10
233.267759815815
 20
158.015333348083
 30
0.0
 10
233.2481227715491
 20
158.019295207891
 30
0.0
 10
233.2274521986376
 20
158.0194674626653
 30
0.0
 10
233.2081596639202
 20
158.0141275646631
 30
0.0
 10
233.1947237915277
 20
158.0101657048551
 30
0.0
 10
233.1816324286838
 20
158.0034477686589
 30
0.0
 10
233.1688855753883
 20
157.9969020872369
 30
0.0
  0
ENDBLK
  5
192
330
18F
100
AcDbEntity
  8
0
100
AcDbBlockEnd
  0
BLOCK
  5
196
330
194
100
AcDbEntity
  8
0
100
AcDbBlockBegin
  2
block 47
 70
     0
 71
     0
 10
0.0
 20
0.0
 30
0.0
  3
block 47
  1

  0
POLYLINE
  5
198
330
194
100
AcDbEntity
  8
0
 62
     7
370
     9
100
AcDb2dPolyline
 66
     1
 10
0.0
 20
0.0
 30
0.0
  0
VERTEX
  5
199
330
198
100
AcDbEntity
  8
0
 62
     7
370
     9
100
AcDbVertex
100
AcDb2dVertex
 10
232.4777994210472
 20
157.0691378730591
 30
0.0
  0
VERTEX
  5
19A
330
198
100
AcDbEntity
  8
0
 62
     7
370
     9
100
AcDbVertex
100
AcDb2dVertex
 10
233.3969508965119
 20
157.5996825777876
 30
0.0
  0
SEQEND
  5
19B
330
198
100
AcDbEntity
  8
0
370
     9
  0
ENDBLK
  5
197
330
194
100
AcDbEntity
  8
0
100
AcDbBlockEnd
  0
BLOCK
  5
19E
330
19C
100
AcDbEntity
  8
0
100
AcDbBlockBegin
  2
block 48
 70
     0
 71
     0
 10
0.0
 20
0.0
 30
0.0
  3
block 48
  1

  0
POLYLINE
  5
1A0
330
19C
100
AcDbEntity
  8
0
 62
     7
370
     9
100
AcDb2dPolyline
 66
     1
 10
0.0
 20
0.0
 30
0.0
  0
VERTEX
  5
1A1
330
1A0
100
AcDbEntity
  8
0
 62
     7
370
     9
100
AcDbVertex
100
AcDb2dVertex
 10
233.1671630276457
 20
157.9981078706567
 30
0.0
  0
VERTEX
  5
1A2
330
1A0
100
AcDbEntity
  8
0
 62
     7
370
     9
100
AcDbVertex
100
AcDb2dVertex
 10
232.2480115521811
 20
157.467390911154
 30
0.0
  0
SEQEND
  5
1A3
330
1A0
100
AcDbEntity
  8
0
370
     9
  0
ENDBLK
  5
19F
330
19C
100
AcDbEntity
  8
0
100
AcDbBlockEnd
  0
BLOCK
  5
1A6
330
1A4
100
AcDbEntity
  8
0
100
AcDbBlockBegin
  2
block 49
 70
     0
 71
     0
 10
0.0
 20
0.0
 30
0.0
  3
block 49
  1

  0
SPLINE
  5
1A8
330
1A4
100
AcDbEntity
  8
0
 62
     7
370
     9
100
AcDbSpline
210
0.0
220
0.0
230
1.0
 70
     8
 71
     3
 72
    26
 73
    22
 74
     0
 42
0.0000000001
 43
0.0000000001
 40
0.0
 40
0.0
 40
0.0
 40
0.0
 40
1.0
 40
1.0
 40
1.0
 40
2.0
 40
2.0
 40
2.0
 40
3.0
 40
3.0
 40
3.0
 40
4.0
 40
4.0
 40
4.0
 40
5.0
 40
5.0
 40
5.0
 40
6.0
 40
6.0
 40
6.0
 40
7.0
 40
7.0
 40
7.0
 40
7.0
 10
235.1939127016182
 20
156.5646036392443
 30
0.0
 10
235.2087266122048
 20
156.5752834352485
 30
0.0
 10
235.2238850323399
 20
156.5861354860271
 30
0.0
 10
235.2352538474412
 20
156.5997436131938
 30
0.0
 10
235.246967172091
 20
156.6136962499091
 30
0.0
 10
235.2552354012556
 20
156.6305772177868
 30
0.0
 10
235.260747554032
 20
156.6481472047616
 30
0.0
 10
235.266604216357
 20
156.6670952299305
 30
0.0
 10
235.2697048022937
 20
156.6865600194221
 30
0.0
 10
235.2700493118422
 20
156.7065415732366
 30
0.0
 10
235.2703938213907
 20
156.7303127320848
 30
0.0
 10
235.266604216357
 20
156.7549451648043
 30
0.0
 10
235.2597140253865
 20
156.7790608332011
 30
0.0
 10
235.2521348153189
 20
156.8062770875345
 30
0.0
 10
235.2400769811206
 20
156.8331488323195
 30
0.0
 10
235.2245740514369
 20
156.8581257745876
 30
0.0
 10
235.2090711217533
 20
156.8836194811784
 30
0.0
 10
235.1901230965844
 20
156.9070461304781
 30
0.0
 10
235.1684189950273
 20
156.9256496460985
 30
0.0
 10
235.1556721417319
 20
156.936501696877
 30
0.0
 10
235.1418917597909
 20
156.9456311999129
 30
0.0
 10
235.1281113778499
 20
156.9547607029488
 30
0.0
  0
ENDBLK
  5
1A7
330
1A4
100
AcDbEntity
  8
0
100
AcDbBlockEnd
  0
BLOCK
  5
1AB
330
1A9
100
AcDbEntity
  8
0
100
AcDbBlockBegin
  2
block 50
 70
     0
 71
     0
 10
0.0
 20
0.0
 30
0.0
  3
block 50
  1

  0
SPLINE
  5
1AD
330
1A9
100
AcDbEntity
  8
0
 62
     7
370
     9
100
AcDbSpline
210
0.0
220
0.0
230
1.0
 70
     8
 71
     3
 72
    14
 73
    10
 74
     0
 42
0.0000000001
 43
0.0000000001
 40
0.0
 40
0.0
 40
0.0
 40
0.0
 40
1.0
 40
1.0
 40
1.0
 40
2.0
 40
2.0
 40
2.0
 40
3.0
 40
3.0
 40
3.0
 40
3.0
 10
235.1281113778499
 20
156.9547607029488
 30
0.0
 10
235.1070962953899
 20
156.9644069703075
 30
0.0
 10
235.0864257224784
 20
156.973880982892
 30
0.0
 10
235.0640326018243
 20
156.9785318617971
 30
0.0
 10
235.0440510480098
 20
156.9824937216051
 30
0.0
 10
235.0233804750983
 20
156.9826659763793
 30
0.0
 10
235.0044324499295
 20
156.9771538236029
 30
0.0
 10
234.9903075584399
 20
156.9733642185692
 30
0.0
 10
234.9775607051445
 20
156.9664740275987
 30
0.0
 10
234.9644693423006
 20
156.9597560914024
 30
0.0
  0
ENDBLK
  5
1AC
330
1A9
100
AcDbEntity
  8
0
100
AcDbBlockEnd
  0
BLOCK
  5
1B0
330
1AE
100
AcDbEntity
  8
0
100
AcDbBlockBegin
  2
block 51
 70
     0
 71
     0
 10
0.0
 20
0.0
 30
0.0
  3
block 51
  1

  0
POLYLINE
  5
1B2
330
1AE
100
AcDbEntity
  8
0
 62
     7
370
     9
100
AcDb2dPolyline
 66
     1
 10
0.0
 20
0.0
 30
0.0
  0
VERTEX
  5
1B3
330
1B2
100
AcDbEntity
  8
0
 62
     7
370
     9
100
AcDbVertex
100
AcDb2dVertex
 10
234.273727697508
 20
156.0321641319989
 30
0.0
  0
VERTEX
  5
1B4
330
1B2
100
AcDbEntity
  8
0
 62
     7
370
     9
100
AcDbVertex
100
AcDb2dVertex
 10
235.1932236825211
 20
156.5628810915017
 30
0.0
  0
SEQEND
  5
1B5
330
1B2
100
AcDbEntity
  8
0
370
     9
  0
ENDBLK
  5
1B1
330
1AE
100
AcDbEntity
  8
0
100
AcDbBlockEnd
  0
BLOCK
  5
1B8
330
1B6
100
AcDbEntity
  8
0
100
AcDbBlockBegin
  2
block 52
 70
     0
 71
     0
 10
0.0
 20
0.0
 30
0.0
  3
block 52
  1

  0
POLYLINE
  5
1BA
330
1B6
100
AcDbEntity
  8
0
 62
     7
370
     9
100
AcDb2dPolyline
 66
     1
 10
0.0
 20
0.0
 30
0.0
  0
VERTEX
  5
1BB
330
1BA
100
AcDbEntity
  8
0
 62
     7
370
     9
100
AcDbVertex
100
AcDb2dVertex
 10
234.9630913041065
 20
156.9613063843708
 30
0.0
  0
VERTEX
  5
1BC
330
1BA
100
AcDbEntity
  8
0
 62
     7
370
     9
100
AcDbVertex
100
AcDb2dVertex
 10
234.0439398286418
 20
156.4305894248681
 30
0.0
  0
SEQEND
  5
1BD
330
1BA
100
AcDbEntity
  8
0
370
     9
  0
ENDBLK
  5
1B9
330
1B6
100
AcDbEntity
  8
0
100
AcDbBlockEnd
  0
BLOCK
  5
1C0
330
1BE
100
AcDbEntity
  8
0
100
AcDbBlockBegin
  2
block 53
 70
     0
 71
     0
 10
0.0
 20
0.0
 30
0.0
  3
block 53
  1

  0
POLYLINE
  5
1C2
330
1BE
100
AcDbEntity
  8
0
 62
     7
370
     9
100
AcDb2dPolyline
 66
     1
 10
0.0
 20
0.0
 30
0.0
  0
VERTEX
  5
1C3
330
1C2
100
AcDbEntity
  8
0
 62
     7
370
     9
100
AcDbVertex
100
AcDb2dVertex
 10
62.09526230001438
 20
59.24048392616211
 30
0.0
  0
VERTEX
  5
1C4
330
1C2
100
AcDbEntity
  8
0
 62
     7
370
     9
100
AcDbVertex
100
AcDb2dVertex
 10
61.80690780789897
 20
59.07408581422454
 30
0.0
  0
SEQEND
  5
1C5
330
1C2
100
AcDbEntity
  8
0
370
     9
  0
ENDBLK
  5
1C1
330
1BE
100
AcDbEntity
  8
0
100
AcDbBlockEnd
  0
BLOCK
  5
1C8
330
1C6
100
AcDbEntity
  8
0
100
AcDbBlockBegin
  2
block 54
 70
     0
 71
     0
 10
0.0
 20
0.0
 30
0.0
  3
block 54
  1

  0
POLYLINE
  5
1CA
330
1C6
100
AcDbEntity
  8
0
 62
     7
370
     9
100
AcDb2dPolyline
 66
     1
 10
0.0
 20
0.0
 30
0.0
  0
VERTEX
  5
1CB
330
1CA
100
AcDbEntity
  8
0
 62
     7
370
     9
100
AcDbVertex
100
AcDb2dVertex
 10
62.0368679315394
 20
58.67548826658113
 30
0.0
  0
VERTEX
  5
1CC
330
1CA
100
AcDbEntity
  8
0
 62
     7
370
     9
100
AcDbVertex
100
AcDb2dVertex
 10
62.23358288374716
 20
58.78917641759438
 30
0.0
  0
SEQEND
  5
1CD
330
1CA
100
AcDbEntity
  8
0
370
     9
  0
ENDBLK
  5
1C9
330
1C6
100
AcDbEntity
  8
0
100
AcDbBlockEnd
  0
BLOCK
  5
1D0
330
1CE
100
AcDbEntity
  8
0
100
AcDbBlockBegin
  2
block 55
 70
     0
 71
     0
 10
0.0
 20
0.0
 30
0.0
  3
block 55
  1

  0
SPLINE
  5
1D2
330
1CE
100
AcDbEntity
  8
0
 62
     7
370
     9
100
AcDbSpline
210
0.0
220
0.0
230
1.0
 70
     8
 71
     3
 72
    38
 73
    34
 74
     0
 42
0.0000000001
 43
0.0000000001
 40
0.0
 40
0.0
 40
0.0
 40
0.0
 40
1.0
 40
1.0
 40
1.0
 40
2.0
 40
2.0
 40
2.0
 40
3.0
 40
3.0
 40
3.0
 40
4.0
 40
4.0
 40
4.0
 40
5.0
 40
5.0
 40
5.0
 40
6.0
 40
6.0
 40
6.0
 40
7.0
 40
7.0
 40
7.0
 40
8.0
 40
8.0
 40
8.0
 40
9.0
 40
9.0
 40
9.0
 40
10.0
 40
10.0
 40
10.0
 40
11.0
 40
11.0
 40
11.0
 40
11.0
 10
61.80880261041586
 20
59.07270777603043
 30
0.0
 10
61.8044962410593
 20
59.07098522828781
 30
0.0
 10
61.80018987170273
 20
59.06926268054519
 30
0.0
 10
61.79605575712043
 20
59.06719562325404
 30
0.0
 10
61.77917478924271
 20
59.05823837499238
 30
0.0
 10
61.76642793594728
 20
59.04204642621171
 30
0.0
 10
61.75643715904006
 20
59.02516545833399
 30
0.0
 10
61.74679089168136
 20
59.00931801910184
 30
0.0
 10
61.7397284459366
 20
58.99243705122412
 30
0.0
 10
61.73524982180577
 20
58.97452255470082
 30
0.0
 10
61.73042668812642
 20
58.95488551043489
 30
0.0
 10
61.72904864993232
 20
58.93421493752339
 30
0.0
 10
61.73042668812642
 20
58.91285534551484
 30
0.0
 10
61.73214923586905
 20
58.88770614847252
 30
0.0
 10
61.73766138864545
 20
58.86221244188167
 30
0.0
 10
61.74679089168136
 20
58.83706324483935
 30
0.0
 10
61.75678166858859
 20
58.80984699050587
 30
0.0
 10
61.77090656007811
 20
58.78331975526945
 30
0.0
 10
61.7879597827301
 20
58.75954859642123
 30
0.0
 10
61.80552976970487
 20
58.73543292802448
 30
0.0
 10
61.82637259739063
 20
58.71407333601593
 30
0.0
 10
61.84945473714181
 20
58.69684785858968
 30
0.0
 10
61.87029756482757
 20
58.68100041935753
 30
0.0
 10
61.89320744980448
 20
58.66894258515916
 30
0.0
 10
61.91715086342697
 20
58.66274141328571
 30
0.0
 10
61.93696016246715
 20
58.6572292605093
 30
0.0
 10
61.95728622583012
 20
58.65550671276668
 30
0.0
 10
61.97847356306441
 20
58.65688475096078
 30
0.0
 10
61.99793835255608
 20
58.65791827960636
 30
0.0
 10
62.01826441591905
 20
58.66170788464013
 30
0.0
 10
62.03307832650562
 20
58.67342120928998
 30
0.0
 10
62.03428410992546
 20
58.67445473793556
 30
0.0
 10
62.0354898933453
 20
58.67548826658113
 30
0.0
 10
62.03652342199087
 20
58.67652179522671
 30
0.0
  0
ENDBLK
  5
1D1
330
1CE
100
AcDbEntity
  8
0
100
AcDbBlockEnd
  0
BLOCK
  5
1D5
330
1D3
100
AcDbEntity
  8
0
100
AcDbBlockBegin
  2
block 56
 70
     0
 71
     0
 10
0.0
 20
0.0
 30
0.0
  3
block 56
  1

  0
SPLINE
  5
1D7
330
1D3
100
AcDbEntity
  8
0
 62
     7
370
     9
100
AcDbSpline
210
0.0
220
0.0
230
1.0
 70
     8
 71
     3
 72
     8
 73
     4
 74
     0
 42
0.0000000001
 43
0.0000000001
 40
0.0
 40
0.0
 40
0.0
 40
0.0
 40
1.0
 40
1.0
 40
1.0
 40
1.0
 10
229.4175211014998
 20
156.6858710003251
 30
0.0
 10
229.4085638532381
 20
156.6920721721985
 30
0.0
 10
229.399262095428
 20
156.6972398154264
 30
0.0
 10
229.3892713185207
 20
156.7013739300087
 30
0.0
  0
ENDBLK
  5
1D6
330
1D3
100
AcDbEntity
  8
0
100
AcDbBlockEnd
  0
BLOCK
  5
1DA
330
1D8
100
AcDbEntity
  8
0
100
AcDbBlockBegin
  2
block 57
 70
     0
 71
     0
 10
0.0
 20
0.0
 30
0.0
  3
block 57
  1

  0
SPLINE
  5
1DC
330
1D8
100
AcDbEntity
  8
0
 62
     7
370
     9
100
AcDbSpline
210
0.0
220
0.0
230
1.0
 70
     8
 71
     3
 72
    23
 73
    19
 74
     0
 42
0.0000000001
 43
0.0000000001
 40
0.0
 40
0.0
 40
0.0
 40
0.0
 40
1.0
 40
1.0
 40
1.0
 40
2.0
 40
2.0
 40
2.0
 40
3.0
 40
3.0
 40
3.0
 40
4.0
 40
4.0
 40
4.0
 40
5.0
 40
5.0
 40
5.0
 40
6.0
 40
6.0
 40
6.0
 40
6.0
 10
229.3406954721787
 20
156.6691622872216
 30
0.0
 10
229.344140567664
 20
156.6676119942532
 30
0.0
 10
229.3475856631492
 20
156.6660617012849
 30
0.0
 10
229.350686249086
 20
156.6646836630908
 30
0.0
 10
229.357920949605
 20
156.6620998414768
 30
0.0
 10
229.3644666310269
 20
156.6610663128313
 30
0.0
 10
229.3703232933519
 20
156.6610663128313
 30
0.0
 10
229.3758354461283
 20
156.6610663128313
 30
0.0
 10
229.3806585798076
 20
156.6617553319283
 30
0.0
 10
229.3844481848414
 20
156.6636501344452
 30
0.0
 10
229.3882377898752
 20
156.6653726821878
 30
0.0
 10
229.3909938662634
 20
156.668128758576
 30
0.0
 10
229.392716414006
 20
156.6715738540613
 30
0.0
 10
229.3944389617486
 20
156.6750189495465
 30
0.0
 10
229.3951279808457
 20
156.6793253189031
 30
0.0
 10
229.3944389617486
 20
156.6839761978082
 30
0.0
 10
229.3937499426516
 20
156.6893160958103
 30
0.0
 10
229.3916828853604
 20
156.6953450129095
 30
0.0
 10
229.3892713185207
 20
156.7013739300087
 30
0.0
  0
ENDBLK
  5
1DB
330
1D8
100
AcDbEntity
  8
0
100
AcDbBlockEnd
  0
BLOCK
  5
1DF
330
1DD
100
AcDbEntity
  8
0
100
AcDbBlockBegin
  2
block 58
 70
     0
 71
     0
 10
0.0
 20
0.0
 30
0.0
  3
block 58
  1

  0
SPLINE
  5
1E1
330
1DD
100
AcDbEntity
  8
0
 62
     7
370
     9
100
AcDbSpline
210
0.0
220
0.0
230
1.0
 70
     8
 71
     3
 72
     8
 73
     4
 74
     0
 42
0.0000000001
 43
0.0000000001
 40
0.0
 40
0.0
 40
0.0
 40
0.0
 40
1.0
 40
1.0
 40
1.0
 40
1.0
 10
229.5084716223104
 20
156.4094020876338
 30
0.0
 10
229.5139837750868
 20
156.4156032595072
 30
0.0
 10
229.5184623992176
 20
156.422665705252
 30
0.0
 10
229.5219074947029
 20
156.4302449153195
 30
0.0
  0
ENDBLK
  5
1E0
330
1DD
100
AcDbEntity
  8
0
100
AcDbBlockEnd
  0
BLOCK
  5
1E4
330
1E2
100
AcDbEntity
  8
0
100
AcDbBlockBegin
  2
block 59
 70
     0
 71
     0
 10
0.0
 20
0.0
 30
0.0
  3
block 59
  1

  0
SPLINE
  5
1E6
330
1E2
100
AcDbEntity
  8
0
 62
     7
370
     9
100
AcDbSpline
210
0.0
220
0.0
230
1.0
 70
     8
 71
     3
 72
    26
 73
    22
 74
     0
 42
0.0000000001
 43
0.0000000001
 40
0.0
 40
0.0
 40
0.0
 40
0.0
 40
1.0
 40
1.0
 40
1.0
 40
2.0
 40
2.0
 40
2.0
 40
3.0
 40
3.0
 40
3.0
 40
4.0
 40
4.0
 40
4.0
 40
5.0
 40
5.0
 40
5.0
 40
6.0
 40
6.0
 40
6.0
 40
7.0
 40
7.0
 40
7.0
 40
7.0
 10
229.5188069087662
 20
156.5456556140754
 30
0.0
 10
229.5157063228294
 20
156.5461723783982
 30
0.0
 10
229.5126057368927
 20
156.5468613974952
 30
0.0
 10
229.5098496605045
 20
156.5454833593011
 30
0.0
 10
229.5070935841163
 20
156.5442775758813
 30
0.0
 10
229.5050265268251
 20
156.5410047351703
 30
0.0
 10
229.5033039790825
 20
156.5365261110395
 30
0.0
 10
229.5019259408884
 20
156.5323919964572
 30
0.0
 10
229.5008924122428
 20
156.5268798436808
 30
0.0
 10
229.5005479026943
 20
156.5203341622588
 30
0.0
 10
229.5002033931458
 20
156.5143052451596
 30
0.0
 10
229.5005479026943
 20
156.5072427994149
 30
0.0
 10
229.5015814313399
 20
156.4998358441216
 30
0.0
 10
229.502270450437
 20
156.4926011436025
 30
0.0
 10
229.503648488631
 20
156.4848496787608
 30
0.0
 10
229.5053710363737
 20
156.4770982139189
 30
0.0
 10
229.5074380936648
 20
156.4690022395286
 30
0.0
 10
229.509505150956
 20
156.4610785199125
 30
0.0
 10
229.5122612273442
 20
156.4536715646192
 30
0.0
 10
229.5150173037324
 20
156.4454033354546
 30
0.0
 10
229.5184623992176
 20
156.4378241253871
 30
0.0
 10
229.5219074947029
 20
156.4302449153195
 30
0.0
  0
ENDBLK
  5
1E5
330
1E2
100
AcDbEntity
  8
0
100
AcDbBlockEnd
  0
BLOCK
  5
1E9
330
1E7
100
AcDbEntity
  8
0
100
AcDbBlockBegin
  2
block 60
 70
     0
 71
     0
 10
0.0
 20
0.0
 30
0.0
  3
block 60
  1

  0
SPLINE
  5
1EB
330
1E7
100
AcDbEntity
  8
0
 62
     7
370
     9
100
AcDbSpline
210
0.0
220
0.0
230
1.0
 70
     8
 71
     3
 72
     8
 73
     4
 74
     0
 42
0.0000000001
 43
0.0000000001
 40
0.0
 40
0.0
 40
0.0
 40
0.0
 40
1.0
 40
1.0
 40
1.0
 40
1.0
 10
229.5188069087662
 20
156.5456556140754
 30
0.0
 10
229.5150173037324
 20
156.5580579578223
 30
0.0
 10
229.5098496605045
 20
156.5702880467949
 30
0.0
 10
229.5039929981796
 20
156.5820013714448
 30
0.0
  0
ENDBLK
  5
1EA
330
1E7
100
AcDbEntity
  8
0
100
AcDbBlockEnd
  0
BLOCK
  5
1EE
330
1EC
100
AcDbEntity
  8
0
100
AcDbBlockBegin
  2
block 61
 70
     0
 71
     0
 10
0.0
 20
0.0
 30
0.0
  3
block 61
  1

  0
SPLINE
  5
1F0
330
1EC
100
AcDbEntity
  8
0
 62
     7
370
     9
100
AcDbSpline
210
0.0
220
0.0
230
1.0
 70
     8
 71
     3
 72
    26
 73
    22
 74
     0
 42
0.0000000001
 43
0.0000000001
 40
0.0
 40
0.0
 40
0.0
 40
0.0
 40
1.0
 40
1.0
 40
1.0
 40
2.0
 40
2.0
 40
2.0
 40
3.0
 40
3.0
 40
3.0
 40
4.0
 40
4.0
 40
4.0
 40
5.0
 40
5.0
 40
5.0
 40
6.0
 40
6.0
 40
6.0
 40
7.0
 40
7.0
 40
7.0
 40
7.0
 10
229.4175211014998
 20
156.6858710003251
 30
0.0
 10
229.419588158791
 20
156.6800143380001
 30
0.0
 10
229.4216552160821
 20
156.6741576756752
 30
0.0
 10
229.4251003115673
 20
156.667439739479
 30
0.0
 10
229.4282008975041
 20
156.6607218032827
 30
0.0
 10
229.4323350120864
 20
156.6533148479895
 30
0.0
 10
229.4371581457657
 20
156.6457356379219
 30
0.0
 10
229.4416367698965
 20
156.6386731921772
 30
0.0
 10
229.4464599035759
 20
156.6316107464324
 30
0.0
 10
229.4516275468038
 20
156.6247205554619
 30
0.0
 10
229.4567951900316
 20
156.6183471288142
 30
0.0
 10
229.4619628332595
 20
156.612318211715
 30
0.0
 10
229.4671304764874
 20
156.6068060589386
 30
0.0
 10
229.4719536101667
 20
156.6016384157107
 30
0.0
 10
229.4767767438461
 20
156.5969875368056
 30
0.0
 10
229.4812553679769
 20
156.5931979317718
 30
0.0
 10
229.4860785016563
 20
156.5894083267381
 30
0.0
 10
229.4905571257871
 20
156.5863077408013
 30
0.0
 10
229.4940022212724
 20
156.5845851930587
 30
0.0
 10
229.4981363358546
 20
156.5826903905418
 30
0.0
 10
229.5008924122428
 20
156.5823458809933
 30
0.0
 10
229.5039929981796
 20
156.5820013714448
 30
0.0
  0
ENDBLK
  5
1EF
330
1EC
100
AcDbEntity
  8
0
100
AcDbBlockEnd
  0
BLOCK
  5
1F3
330
1F1
100
AcDbEntity
  8
0
100
AcDbBlockBegin
  2
block 62
 70
     0
 71
     0
 10
0.0
 20
0.0
 30
0.0
  3
block 62
  1

  0
POLYLINE
  5
1F5
330
1F1
100
AcDbEntity
  8
0
 62
     7
370
     9
100
AcDb2dPolyline
 66
     1
 10
0.0
 20
0.0
 30
0.0
  0
VERTEX
  5
1F6
330
1F5
100
AcDbEntity
  8
0
 62
     7
370
     9
100
AcDbVertex
100
AcDb2dVertex
 10
229.4643744000992
 20
156.6774305163862
 30
0.0
  0
VERTEX
  5
1F7
330
1F5
100
AcDbEntity
  8
0
 62
     7
370
     9
100
AcDbVertex
100
AcDb2dVertex
 10
229.4712645910697
 20
156.6688177776731
 30
0.0
  0
SEQEND
  5
1F8
330
1F5
100
AcDbEntity
  8
0
370
     9
  0
ENDBLK
  5
1F4
330
1F1
100
AcDbEntity
  8
0
100
AcDbBlockEnd
  0
BLOCK
  5
1FB
330
1F9
100
AcDbEntity
  8
0
100
AcDbBlockBegin
  2
block 63
 70
     0
 71
     0
 10
0.0
 20
0.0
 30
0.0
  3
block 63
  1

  0
SPLINE
  5
1FD
330
1F9
100
AcDbEntity
  8
0
 62
     7
370
     9
100
AcDbSpline
210
0.0
220
0.0
230
1.0
 70
     8
 71
     3
 72
     8
 73
     4
 74
     0
 42
0.0000000001
 43
0.0000000001
 40
0.0
 40
0.0
 40
0.0
 40
0.0
 40
1.0
 40
1.0
 40
1.0
 40
1.0
 10
229.4257893306644
 20
156.4969075129591
 30
0.0
 10
229.4219997256306
 20
156.5079318185119
 30
0.0
 10
229.4175211014998
 20
156.5186116145162
 30
0.0
 10
229.4123534582719
 20
156.5289469009719
 30
0.0
  0
ENDBLK
  5
1FC
330
1F9
100
AcDbEntity
  8
0
100
AcDbBlockEnd
  0
BLOCK
  5
200
330
1FE
100
AcDbEntity
  8
0
100
AcDbBlockBegin
  2
block 64
 70
     0
 71
     0
 10
0.0
 20
0.0
 30
0.0
  3
block 64
  1

  0
POLYLINE
  5
202
330
1FE
100
AcDbEntity
  8
0
 62
     7
370
     9
100
AcDb2dPolyline
 66
     1
 10
0.0
 20
0.0
 30
0.0
  0
VERTEX
  5
203
330
202
100
AcDbEntity
  8
0
 62
     7
370
     9
100
AcDbVertex
100
AcDb2dVertex
 10
229.5033039790825
 20
156.4197373740895
 30
0.0
  0
VERTEX
  5
204
330
202
100
AcDbEntity
  8
0
 62
     7
370
     9
100
AcDbVertex
100
AcDb2dVertex
 10
229.5219074947029
 20
156.4302449153195
 30
0.0
  0
SEQEND
  5
205
330
202
100
AcDbEntity
  8
0
370
     9
  0
ENDBLK
  5
201
330
1FE
100
AcDbEntity
  8
0
100
AcDbBlockEnd
  0
BLOCK
  5
208
330
206
100
AcDbEntity
  8
0
100
AcDbBlockBegin
  2
block 65
 70
     0
 71
     0
 10
0.0
 20
0.0
 30
0.0
  3
block 65
  1

  0
POLYLINE
  5
20A
330
206
100
AcDbEntity
  8
0
 62
     7
370
     9
100
AcDb2dPolyline
 66
     1
 10
0.0
 20
0.0
 30
0.0
  0
VERTEX
  5
20B
330
20A
100
AcDbEntity
  8
0
 62
     7
370
     9
100
AcDbVertex
100
AcDb2dVertex
 10
229.4123534582719
 20
156.5289469009719
 30
0.0
  0
VERTEX
  5
20C
330
20A
100
AcDbEntity
  8
0
 62
     7
370
     9
100
AcDbVertex
100
AcDb2dVertex
 10
229.5039929981796
 20
156.5820013714448
 30
0.0
  0
SEQEND
  5
20D
330
20A
100
AcDbEntity
  8
0
370
     9
  0
ENDBLK
  5
209
330
206
100
AcDbEntity
  8
0
100
AcDbBlockEnd
  0
BLOCK
  5
210
330
20E
100
AcDbEntity
  8
0
100
AcDbBlockBegin
  2
block 66
 70
     0
 71
     0
 10
0.0
 20
0.0
 30
0.0
  3
block 66
  1

  0
POLYLINE
  5
212
330
20E
100
AcDbEntity
  8
0
 62
     7
370
     9
100
AcDb2dPolyline
 66
     1
 10
0.0
 20
0.0
 30
0.0
  0
VERTEX
  5
213
330
212
100
AcDbEntity
  8
0
 62
     7
370
     9
100
AcDbVertex
100
AcDb2dVertex
 10
229.392716414006
 20
156.6715738540613
 30
0.0
  0
VERTEX
  5
214
330
212
100
AcDbEntity
  8
0
 62
     7
370
     9
100
AcDbVertex
100
AcDb2dVertex
 10
229.4175211014998
 20
156.6858710003251
 30
0.0
  0
SEQEND
  5
215
330
212
100
AcDbEntity
  8
0
370
     9
  0
ENDBLK
  5
211
330
20E
100
AcDbEntity
  8
0
100
AcDbBlockEnd
  0
BLOCK
  5
218
330
216
100
AcDbEntity
  8
0
100
AcDbBlockBegin
  2
block 67
 70
     0
 71
     0
 10
0.0
 20
0.0
 30
0.0
  3
block 67
  1

  0
POLYLINE
  5
21A
330
216
100
AcDbEntity
  8
0
 62
     7
370
     9
100
AcDb2dPolyline
 66
     1
 10
0.0
 20
0.0
 30
0.0
  0
VERTEX
  5
21B
330
21A
100
AcDbEntity
  8
0
 62
     7
370
     9
100
AcDbVertex
100
AcDb2dVertex
 10
228.1345675427928
 20
156.4600449912669
 30
0.0
  0
VERTEX
  5
21C
330
21A
100
AcDbEntity
  8
0
 62
     7
370
     9
100
AcDbVertex
100
AcDb2dVertex
 10
228.1579941920924
 20
156.0490450998766
 30
0.0
  0
VERTEX
  5
21D
330
21A
100
AcDbEntity
  8
0
 62
     7
370
     9
100
AcDbVertex
100
AcDb2dVertex
 10
228.2330972736709
 20
155.6170301260263
 30
0.0
  0
VERTEX
  5
21E
330
21A
100
AcDbEntity
  8
0
 62
     7
370
     9
100
AcDbVertex
100
AcDb2dVertex
 10
228.3574652206884
 20
155.1739908466232
 30
0.0
  0
VERTEX
  5
21F
330
21A
100
AcDbEntity
  8
0
 62
     7
370
     9
100
AcDbVertex
100
AcDb2dVertex
 10
228.5286864663053
 20
154.7294012742517
 30
0.0
  0
VERTEX
  5
220
330
21A
100
AcDbEntity
  8
0
 62
     7
370
     9
100
AcDbVertex
100
AcDb2dVertex
 10
228.7429714054879
 20
154.2937689501418
 30
0.0
  0
VERTEX
  5
221
330
21A
100
AcDbEntity
  8
0
 62
     7
370
     9
100
AcDbVertex
100
AcDb2dVertex
 10
228.9948078854596
 20
153.8765678868781
 30
0.0
  0
VERTEX
  5
222
330
21A
100
AcDbEntity
  8
0
 62
     7
370
     9
100
AcDbVertex
100
AcDb2dVertex
 10
229.2793727725413
 20
153.4872720970449
 30
0.0
  0
VERTEX
  5
223
330
21A
100
AcDbEntity
  8
0
 62
     7
370
     9
100
AcDbVertex
100
AcDb2dVertex
 10
229.5897758757623
 20
153.1346665741295
 30
0.0
  0
VERTEX
  5
224
330
21A
100
AcDbEntity
  8
0
 62
     7
370
     9
100
AcDbVertex
100
AcDb2dVertex
 10
229.9191270041522
 20
152.8266750377482
 30
0.0
  0
VERTEX
  5
225
330
21A
100
AcDbEntity
  8
0
 62
     7
370
     9
100
AcDbVertex
100
AcDb2dVertex
 10
230.2601914571919
 20
152.5701876788713
 30
0.0
  0
VERTEX
  5
226
330
21A
100
AcDbEntity
  8
0
 62
     7
370
     9
100
AcDbVertex
100
AcDb2dVertex
 10
230.6047010057169
 20
152.3712334145982
 30
0.0
  0
VERTEX
  5
227
330
21A
100
AcDbEntity
  8
0
 62
     7
370
     9
100
AcDbVertex
100
AcDb2dVertex
 10
230.9457654587566
 20
152.233946359511
 30
0.0
  0
VERTEX
  5
228
330
21A
100
AcDbEntity
  8
0
 62
     7
370
     9
100
AcDbVertex
100
AcDb2dVertex
 10
231.2751165871465
 20
152.1615993543207
 30
0.0
  0
VERTEX
  5
229
330
21A
100
AcDbEntity
  8
0
 62
     7
370
     9
100
AcDbVertex
100
AcDb2dVertex
 10
231.5855196903675
 20
152.1557426919958
 30
0.0
  0
VERTEX
  5
22A
330
21A
100
AcDbEntity
  8
0
 62
     7
370
     9
100
AcDbVertex
100
AcDb2dVertex
 10
231.8700845774491
 20
152.2167208820847
 30
0.0
  0
VERTEX
  5
22B
330
21A
100
AcDbEntity
  8
0
 62
     7
370
     9
100
AcDbVertex
100
AcDb2dVertex
 10
232.0922932362478
 20
152.3235188421275
 30
0.0
  0
SEQEND
  5
22C
330
21A
100
AcDbEntity
  8
0
370
     9
  0
ENDBLK
  5
219
330
216
100
AcDbEntity
  8
0
100
AcDbBlockEnd
  0
BLOCK
  5
22F
330
22D
100
AcDbEntity
  8
0
100
AcDbBlockBegin
  2
block 68
 70
     0
 71
     0
 10
0.0
 20
0.0
 30
0.0
  3
block 68
  1

  0
POLYLINE
  5
231
330
22D
100
AcDbEntity
  8
0
 62
     7
370
     9
100
AcDb2dPolyline
 66
     1
 10
0.0
 20
0.0
 30
0.0
  0
VERTEX
  5
232
330
231
100
AcDbEntity
  8
0
 62
     7
370
     9
100
AcDbVertex
100
AcDb2dVertex
 10
228.2058810193374
 20
156.4187038454439
 30
0.0
  0
VERTEX
  5
233
330
231
100
AcDbEntity
  8
0
 62
     7
370
     9
100
AcDbVertex
100
AcDb2dVertex
 10
228.1345675427928
 20
156.4600449912669
 30
0.0
  0
SEQEND
  5
234
330
231
100
AcDbEntity
  8
0
370
     9
  0
ENDBLK
  5
230
330
22D
100
AcDbEntity
  8
0
100
AcDbBlockEnd
  0
BLOCK
  5
237
330
235
100
AcDbEntity
  8
0
100
AcDbBlockBegin
  2
block 69
 70
     0
 71
     0
 10
0.0
 20
0.0
 30
0.0
  3
block 69
  1

  0
POLYLINE
  5
239
330
235
100
AcDbEntity
  8
0
 62
     7
370
     9
100
AcDb2dPolyline
 66
     1
 10
0.0
 20
0.0
 30
0.0
  0
VERTEX
  5
23A
330
239
100
AcDbEntity
  8
0
 62
     7
370
     9
100
AcDbVertex
100
AcDb2dVertex
 10
228.1345675427928
 20
156.4600449912669
 30
0.0
  0
VERTEX
  5
23B
330
239
100
AcDbEntity
  8
0
 62
     7
370
     9
100
AcDbVertex
100
AcDb2dVertex
 10
64.26946206075556
 20
61.86289060953428
 30
0.0
  0
SEQEND
  5
23C
330
239
100
AcDbEntity
  8
0
370
     9
  0
ENDBLK
  5
238
330
235
100
AcDbEntity
  8
0
100
AcDbBlockEnd
  0
BLOCK
  5
23F
330
23D
100
AcDbEntity
  8
0
100
AcDbBlockBegin
  2
block 70
 70
     0
 71
     0
 10
0.0
 20
0.0
 30
0.0
  3
block 70
  1

  0
POLYLINE
  5
241
330
23D
100
AcDbEntity
  8
0
 62
     7
370
     9
100
AcDb2dPolyline
 66
     1
 10
0.0
 20
0.0
 30
0.0
  0
VERTEX
  5
242
330
241
100
AcDbEntity
  8
0
 62
     7
370
     9
100
AcDbVertex
100
AcDb2dVertex
 10
64.26946206075556
 20
61.86289060953428
 30
0.0
  0
VERTEX
  5
243
330
241
100
AcDbEntity
  8
0
 62
     7
370
     9
100
AcDbVertex
100
AcDb2dVertex
 10
64.29323321960378
 20
61.45189071814397
 30
0.0
  0
VERTEX
  5
244
330
241
100
AcDbEntity
  8
0
 62
     7
370
     9
100
AcDbVertex
100
AcDb2dVertex
 10
64.36816404640795
 20
61.01987574429364
 30
0.0
  0
VERTEX
  5
245
330
241
100
AcDbEntity
  8
0
 62
     7
370
     9
100
AcDbVertex
100
AcDb2dVertex
 10
64.49270424819974
 20
60.57683646489052
 30
0.0
  0
VERTEX
  5
246
330
241
100
AcDbEntity
  8
0
 62
     7
370
     9
100
AcDbVertex
100
AcDb2dVertex
 10
64.66392549381666
 20
60.13207463774476
 30
0.0
  0
VERTEX
  5
247
330
241
100
AcDbEntity
  8
0
 62
     7
370
     9
100
AcDbVertex
100
AcDb2dVertex
 10
64.87786592345067
 20
59.69661456840918
 30
0.0
  0
VERTEX
  5
248
330
241
100
AcDbEntity
  8
0
 62
     7
370
     9
100
AcDbVertex
100
AcDb2dVertex
 10
65.13004691297097
 20
59.27941350514543
 30
0.0
  0
VERTEX
  5
249
330
241
100
AcDbEntity
  8
0
 62
     7
370
     9
100
AcDbVertex
100
AcDb2dVertex
 10
65.41443954527834
 20
58.89011771531219
 30
0.0
  0
VERTEX
  5
24A
330
241
100
AcDbEntity
  8
0
 62
     7
370
     9
100
AcDbVertex
100
AcDb2dVertex
 10
65.72484264849935
 20
58.53733993762261
 30
0.0
  0
VERTEX
  5
24B
330
241
100
AcDbEntity
  8
0
 62
     7
370
     9
100
AcDbVertex
100
AcDb2dVertex
 10
66.05419377688924
 20
58.22934840124127
 30
0.0
  0
VERTEX
  5
24C
330
241
100
AcDbEntity
  8
0
 62
     7
370
     9
100
AcDbVertex
100
AcDb2dVertex
 10
66.3950859751547
 20
57.97303329713869
 30
0.0
  0
VERTEX
  5
24D
330
241
100
AcDbEntity
  8
0
 62
     7
370
     9
100
AcDbVertex
100
AcDb2dVertex
 10
66.73994003322821
 20
57.77390677809124
 30
0.0
  0
VERTEX
  5
24E
330
241
100
AcDbEntity
  8
0
 62
     7
370
     9
100
AcDbVertex
100
AcDb2dVertex
 10
67.08083223149369
 20
57.6367919777783
 30
0.0
  0
VERTEX
  5
24F
330
241
100
AcDbEntity
  8
0
 62
     7
370
     9
100
AcDbVertex
100
AcDb2dVertex
 10
67.41018335988358
 20
57.56444497258806
 30
0.0
  0
VERTEX
  5
250
330
241
100
AcDbEntity
  8
0
 62
     7
370
     9
100
AcDbVertex
100
AcDb2dVertex
 10
67.72058646310458
 20
57.55858831026313
 30
0.0
  0
VERTEX
  5
251
330
241
100
AcDbEntity
  8
0
 62
     7
370
     9
100
AcDbVertex
100
AcDb2dVertex
 10
68.00515135018621
 20
57.61956650035206
 30
0.0
  0
VERTEX
  5
252
330
241
100
AcDbEntity
  8
0
 62
     7
370
     9
100
AcDbVertex
100
AcDb2dVertex
 10
68.19239228980955
 20
57.70500486838625
 30
0.0
  0
SEQEND
  5
253
330
241
100
AcDbEntity
  8
0
370
     9
  0
ENDBLK
  5
240
330
23D
100
AcDbEntity
  8
0
100
AcDbBlockEnd
  0
BLOCK
  5
256
330
254
100
AcDbEntity
  8
0
100
AcDbBlockBegin
  2
block 71
 70
     0
 71
     0
 10
0.0
 20
0.0
 30
0.0
  3
block 71
  1

  0
SPLINE
  5
258
330
254
100
AcDbEntity
  8
0
 62
     7
370
     9
100
AcDbSpline
210
0.0
220
0.0
230
1.0
 70
     8
 71
     3
 72
     8
 73
     4
 74
     0
 42
0.0000000001
 43
0.0000000001
 40
0.0
 40
0.0
 40
0.0
 40
0.0
 40
1.0
 40
1.0
 40
1.0
 40
1.0
 10
228.2175943439873
 20
156.7546006552558
 30
0.0
 10
228.2100151339197
 20
156.6757079686436
 30
0.0
 10
228.2058810193374
 20
156.5964707724828
 30
0.0
 10
228.2051920002404
 20
156.5170613215478
 30
0.0
  0
ENDBLK
  5
257
330
254
100
AcDbEntity
  8
0
100
AcDbBlockEnd
  0
BLOCK
  5
25B
330
259
100
AcDbEntity
  8
0
100
AcDbBlockBegin
  2
block 72
 70
     0
 71
     0
 10
0.0
 20
0.0
 30
0.0
  3
block 72
  1

  0
POLYLINE
  5
25D
330
259
100
AcDbEntity
  8
0
 62
     7
370
     9
100
AcDb2dPolyline
 66
     1
 10
0.0
 20
0.0
 30
0.0
  0
VERTEX
  5
25E
330
25D
100
AcDbEntity
  8
0
 62
     7
370
     9
100
AcDbVertex
100
AcDb2dVertex
 10
228.6031005287867
 20
157.7459268811365
 30
0.0
  0
VERTEX
  5
25F
330
25D
100
AcDbEntity
  8
0
 62
     7
370
     9
100
AcDbVertex
100
AcDb2dVertex
 10
228.5979328855589
 20
157.7416205117799
 30
0.0
  0
SEQEND
  5
260
330
25D
100
AcDbEntity
  8
0
370
     9
  0
ENDBLK
  5
25C
330
259
100
AcDbEntity
  8
0
100
AcDbBlockEnd
  0
BLOCK
  5
263
330
261
100
AcDbEntity
  8
0
100
AcDbBlockBegin
  2
block 73
 70
     0
 71
     0
 10
0.0
 20
0.0
 30
0.0
  3
block 73
  1

  0
POLYLINE
  5
265
330
261
100
AcDbEntity
  8
0
 62
     7
370
     9
100
AcDb2dPolyline
 66
     1
 10
0.0
 20
0.0
 30
0.0
  0
VERTEX
  5
266
330
265
100
AcDbEntity
  8
0
 62
     7
370
     9
100
AcDbVertex
100
AcDb2dVertex
 10
228.69577359734
 20
157.8396334783352
 30
0.0
  0
VERTEX
  5
267
330
265
100
AcDbEntity
  8
0
 62
     7
370
     9
100
AcDbVertex
100
AcDb2dVertex
 10
228.6923285018547
 20
157.8370496567213
 30
0.0
  0
SEQEND
  5
268
330
265
100
AcDbEntity
  8
0
370
     9
  0
ENDBLK
  5
264
330
261
100
AcDbEntity
  8
0
100
AcDbBlockEnd
  0
BLOCK
  5
26B
330
269
100
AcDbEntity
  8
0
100
AcDbBlockBegin
  2
block 74
 70
     0
 71
     0
 10
0.0
 20
0.0
 30
0.0
  3
block 74
  1

  0
POLYLINE
  5
26D
330
269
100
AcDbEntity
  8
0
 62
     7
370
     9
100
AcDb2dPolyline
 66
     1
 10
0.0
 20
0.0
 30
0.0
  0
VERTEX
  5
26E
330
26D
100
AcDbEntity
  8
0
 62
     7
370
     9
100
AcDbVertex
100
AcDb2dVertex
 10
228.7967148950578
 20
157.9204209674643
 30
0.0
  0
VERTEX
  5
26F
330
26D
100
AcDbEntity
  8
0
 62
     7
370
     9
100
AcDbVertex
100
AcDb2dVertex
 10
228.7953368568637
 20
157.9193874388188
 30
0.0
  0
SEQEND
  5
270
330
26D
100
AcDbEntity
  8
0
370
     9
  0
ENDBLK
  5
26C
330
269
100
AcDbEntity
  8
0
100
AcDbBlockEnd
  0
BLOCK
  5
273
330
271
100
AcDbEntity
  8
0
100
AcDbBlockBegin
  2
block 75
 70
     0
 71
     0
 10
0.0
 20
0.0
 30
0.0
  3
block 75
  1

  0
POLYLINE
  5
275
330
271
100
AcDbEntity
  8
0
 62
     7
370
     9
100
AcDb2dPolyline
 66
     1
 10
0.0
 20
0.0
 30
0.0
  0
VERTEX
  5
276
330
275
100
AcDbEntity
  8
0
 62
     7
370
     9
100
AcDbVertex
100
AcDb2dVertex
 10
228.2051920002404
 20
156.5170613215478
 30
0.0
  0
VERTEX
  5
277
330
275
100
AcDbEntity
  8
0
 62
     7
370
     9
100
AcDbVertex
100
AcDb2dVertex
 10
64.19883760330794
 20
61.83808592204048
 30
0.0
  0
SEQEND
  5
278
330
275
100
AcDbEntity
  8
0
370
     9
  0
ENDBLK
  5
274
330
271
100
AcDbEntity
  8
0
100
AcDbBlockEnd
  0
BLOCK
  5
27B
330
279
100
AcDbEntity
  8
0
100
AcDbBlockBegin
  2
block 76
 70
     0
 71
     0
 10
0.0
 20
0.0
 30
0.0
  3
block 76
  1

  0
SPLINE
  5
27D
330
279
100
AcDbEntity
  8
0
 62
     7
370
     9
100
AcDbSpline
210
0.0
220
0.0
230
1.0
 70
     8
 71
     3
 72
     8
 73
     4
 74
     0
 42
0.0000000001
 43
0.0000000001
 40
0.0
 40
0.0
 40
0.0
 40
0.0
 40
1.0
 40
1.0
 40
1.0
 40
1.0
 10
64.21123994705484
 20
62.07579751052272
 30
0.0
 10
64.20383299176154
 20
61.9969048239105
 30
0.0
 10
64.19969887717924
 20
61.91766762774975
 30
0.0
 10
64.19883760330794
 20
61.83808592204048
 30
0.0
  0
ENDBLK
  5
27C
330
279
100
AcDbEntity
  8
0
100
AcDbBlockEnd
  0
BLOCK
  5
280
330
27E
100
AcDbEntity
  8
0
100
AcDbBlockBegin
  2
block 77
 70
     0
 71
     0
 10
0.0
 20
0.0
 30
0.0
  3
block 77
  1

  0
POLYLINE
  5
282
330
27E
100
AcDbEntity
  8
0
 62
     7
370
     9
100
AcDb2dPolyline
 66
     1
 10
0.0
 20
0.0
 30
0.0
  0
VERTEX
  5
283
330
282
100
AcDbEntity
  8
0
 62
     7
370
     9
100
AcDbVertex
100
AcDb2dVertex
 10
64.21123994705484
 20
62.07579751052272
 30
0.0
  0
VERTEX
  5
284
330
282
100
AcDbEntity
  8
0
 62
     7
370
     9
100
AcDbVertex
100
AcDb2dVertex
 10
228.2175943439873
 20
156.7546006552558
 30
0.0
  0
SEQEND
  5
285
330
282
100
AcDbEntity
  8
0
370
     9
  0
ENDBLK
  5
281
330
27E
100
AcDbEntity
  8
0
100
AcDbBlockEnd
  0
BLOCK
  5
288
330
286
100
AcDbEntity
  8
0
100
AcDbBlockBegin
  2
block 78
 70
     0
 71
     0
 10
0.0
 20
0.0
 30
0.0
  3
block 78
  1

  0
POLYLINE
  5
28A
330
286
100
AcDbEntity
  8
0
 62
     7
370
     9
100
AcDb2dPolyline
 66
     1
 10
0.0
 20
0.0
 30
0.0
  0
VERTEX
  5
28B
330
28A
100
AcDbEntity
  8
0
 62
     7
370
     9
100
AcDbVertex
100
AcDb2dVertex
 10
228.2058810193374
 20
156.419392864541
 30
0.0
  0
VERTEX
  5
28C
330
28A
100
AcDbEntity
  8
0
 62
     7
370
     9
100
AcDbVertex
100
AcDb2dVertex
 10
228.2051920002404
 20
156.4190483549925
 30
0.0
  0
SEQEND
  5
28D
330
28A
100
AcDbEntity
  8
0
370
     9
  0
ENDBLK
  5
289
330
286
100
AcDbEntity
  8
0
100
AcDbBlockEnd
  0
BLOCK
  5
290
330
28E
100
AcDbEntity
  8
0
100
AcDbBlockBegin
  2
block 79
 70
     0
 71
     0
 10
0.0
 20
0.0
 30
0.0
  3
block 79
  1

  0
POLYLINE
  5
292
330
28E
100
AcDbEntity
  8
0
 62
     7
370
     9
100
AcDb2dPolyline
 66
     1
 10
0.0
 20
0.0
 30
0.0
  0
VERTEX
  5
293
330
292
100
AcDbEntity
  8
0
 62
     7
370
     9
100
AcDbVertex
100
AcDb2dVertex
 10
64.19883760330794
 20
61.83808592204048
 30
0.0
  0
VERTEX
  5
294
330
292
100
AcDbEntity
  8
0
 62
     7
370
     9
100
AcDbVertex
100
AcDb2dVertex
 10
64.26980657030408
 20
61.79743379531453
 30
0.0
  0
SEQEND
  5
295
330
292
100
AcDbEntity
  8
0
370
     9
  0
ENDBLK
  5
291
330
28E
100
AcDbEntity
  8
0
100
AcDbBlockEnd
  0
BLOCK
  5
298
330
296
100
AcDbEntity
  8
0
100
AcDbBlockBegin
  2
block 80
 70
     0
 71
     0
 10
0.0
 20
0.0
 30
0.0
  3
block 80
  1

  0
SPLINE
  5
29A
330
296
100
AcDbEntity
  8
0
 62
     7
370
     9
100
AcDbSpline
210
0.0
220
0.0
230
1.0
 70
     8
 71
     3
 72
     8
 73
     4
 74
     0
 42
0.0000000001
 43
0.0000000001
 40
0.0
 40
0.0
 40
0.0
 40
0.0
 40
1.0
 40
1.0
 40
1.0
 40
1.0
 10
64.22347003602746
 20
62.09819063117684
 30
0.0
 10
64.21589082595992
 20
62.0933674974975
 30
0.0
 10
64.21141220182909
 20
62.08475475878437
 30
0.0
 10
64.21123994705484
 20
62.07579751052272
 30
0.0
  0
ENDBLK
  5
299
330
296
100
AcDbEntity
  8
0
100
AcDbBlockEnd
  0
BLOCK
  5
29D
330
29B
100
AcDbEntity
  8
0
100
AcDbBlockBegin
  2
block 81
 70
     0
 71
     0
 10
0.0
 20
0.0
 30
0.0
  3
block 81
  1

  0
SPLINE
  5
29F
330
29B
100
AcDbEntity
  8
0
 62
     7
370
     9
100
AcDbSpline
210
0.0
220
0.0
230
1.0
 70
     8
 71
     3
 72
     8
 73
     4
 74
     0
 42
0.0000000001
 43
0.0000000001
 40
0.0
 40
0.0
 40
0.0
 40
0.0
 40
1.0
 40
1.0
 40
1.0
 40
1.0
 10
64.26842853210998
 20
62.16950410772152
 30
0.0
 10
64.26601696527031
 20
62.15296764939232
 30
0.0
 10
64.2637776532049
 20
62.13677570061164
 30
0.0
 10
64.26171059591374
 20
62.12023924228244
 30
0.0
  0
ENDBLK
  5
29E
330
29B
100
AcDbEntity
  8
0
100
AcDbBlockEnd
  0
BLOCK
  5
2A2
330
2A0
100
AcDbEntity
  8
0
100
AcDbBlockBegin
  2
block 82
 70
     0
 71
     0
 10
0.0
 20
0.0
 30
0.0
  3
block 82
  1

  0
POLYLINE
  5
2A4
330
2A0
100
AcDbEntity
  8
0
 62
     7
370
     9
100
AcDb2dPolyline
 66
     1
 10
0.0
 20
0.0
 30
0.0
  0
VERTEX
  5
2A5
330
2A4
100
AcDbEntity
  8
0
 62
     7
370
     9
100
AcDbVertex
100
AcDb2dVertex
 10
64.26842853210998
 20
62.16950410772152
 30
0.0
  0
VERTEX
  5
2A6
330
2A4
100
AcDbEntity
  8
0
 62
     7
370
     9
100
AcDbVertex
100
AcDb2dVertex
 10
228.2248290445063
 20
156.8193684503785
 30
0.0
  0
SEQEND
  5
2A7
330
2A4
100
AcDbEntity
  8
0
370
     9
  0
ENDBLK
  5
2A3
330
2A0
100
AcDbEntity
  8
0
100
AcDbBlockEnd
  0
BLOCK
  5
2AA
330
2A8
100
AcDbEntity
  8
0
100
AcDbBlockBegin
  2
block 83
 70
     0
 71
     0
 10
0.0
 20
0.0
 30
0.0
  3
block 83
  1

  0
POLYLINE
  5
2AC
330
2A8
100
AcDbEntity
  8
0
 62
     7
370
     9
100
AcDb2dPolyline
 66
     1
 10
0.0
 20
0.0
 30
0.0
  0
VERTEX
  5
2AD
330
2AC
100
AcDbEntity
  8
0
 62
     7
370
     9
100
AcDbVertex
100
AcDb2dVertex
 10
64.24534639235881
 20
62.26562227175999
 30
0.0
  0
VERTEX
  5
2AE
330
2AC
100
AcDbEntity
  8
0
 62
     7
370
     9
100
AcDbVertex
100
AcDb2dVertex
 10
64.23966198480814
 20
62.26079913808064
 30
0.0
  0
VERTEX
  5
2AF
330
2AC
100
AcDbEntity
  8
0
 62
     7
370
     9
100
AcDbVertex
100
AcDb2dVertex
 10
64.23363306770895
 20
62.24632973704259
 30
0.0
  0
VERTEX
  5
2B0
330
2AC
100
AcDbEntity
  8
0
 62
     7
370
     9
100
AcDbVertex
100
AcDb2dVertex
 10
64.23397757725748
 20
62.22669269277667
 30
0.0
  0
VERTEX
  5
2B1
330
2AC
100
AcDbEntity
  8
0
 62
     7
370
     9
100
AcDbVertex
100
AcDb2dVertex
 10
64.24069551345372
 20
62.20533310076812
 30
0.0
  0
VERTEX
  5
2B2
330
2AC
100
AcDbEntity
  8
0
 62
     7
370
     9
100
AcDbVertex
100
AcDb2dVertex
 10
64.25292560242636
 20
62.18535154695366
 30
0.0
  0
VERTEX
  5
2B3
330
2AC
100
AcDbEntity
  8
0
 62
     7
370
     9
100
AcDbVertex
100
AcDb2dVertex
 10
64.26842853210998
 20
62.16950410772152
 30
0.0
  0
SEQEND
  5
2B4
330
2AC
100
AcDbEntity
  8
0
370
     9
  0
ENDBLK
  5
2AB
330
2A8
100
AcDbEntity
  8
0
100
AcDbBlockEnd
  0
BLOCK
  5
2B7
330
2B5
100
AcDbEntity
  8
0
100
AcDbBlockBegin
  2
block 84
 70
     0
 71
     0
 10
0.0
 20
0.0
 30
0.0
  3
block 84
  1

  0
SPLINE
  5
2B9
330
2B5
100
AcDbEntity
  8
0
 62
     7
370
     9
100
AcDbSpline
210
0.0
220
0.0
230
1.0
 70
     8
 71
     3
 72
     8
 73
     4
 74
     0
 42
0.0000000001
 43
0.0000000001
 40
0.0
 40
0.0
 40
0.0
 40
0.0
 40
1.0
 40
1.0
 40
1.0
 40
1.0
 10
64.29822860805739
 20
62.3307345764312
 30
0.0
 10
64.29530027689493
 20
62.31764321358726
 30
0.0
 10
64.29254420050673
 20
62.30455185074331
 30
0.0
 10
64.28978812411853
 20
62.29111597835084
 30
0.0
  0
ENDBLK
  5
2B8
330
2B5
100
AcDbEntity
  8
0
100
AcDbBlockEnd
  0
BLOCK
  5
2BC
330
2BA
100
AcDbEntity
  8
0
100
AcDbBlockBegin
  2
block 85
 70
     0
 71
     0
 10
0.0
 20
0.0
 30
0.0
  3
block 85
  1

  0
POLYLINE
  5
2BE
330
2BA
100
AcDbEntity
  8
0
 62
     7
370
     9
100
AcDb2dPolyline
 66
     1
 10
0.0
 20
0.0
 30
0.0
  0
VERTEX
  5
2BF
330
2BE
100
AcDbEntity
  8
0
 62
     7
370
     9
100
AcDbVertex
100
AcDb2dVertex
 10
64.29822860805739
 20
62.3307345764312
 30
0.0
  0
VERTEX
  5
2C0
330
2BE
100
AcDbEntity
  8
0
 62
     7
370
     9
100
AcDbVertex
100
AcDb2dVertex
 10
228.2492892224516
 20
156.9776705879257
 30
0.0
  0
SEQEND
  5
2C1
330
2BE
100
AcDbEntity
  8
0
370
     9
  0
ENDBLK
  5
2BD
330
2BA
100
AcDbEntity
  8
0
100
AcDbBlockEnd
  0
BLOCK
  5
2C4
330
2C2
100
AcDbEntity
  8
0
100
AcDbBlockBegin
  2
block 86
 70
     0
 71
     0
 10
0.0
 20
0.0
 30
0.0
  3
block 86
  1

  0
POLYLINE
  5
2C6
330
2C2
100
AcDbEntity
  8
0
 62
     7
370
     9
100
AcDb2dPolyline
 66
     1
 10
0.0
 20
0.0
 30
0.0
  0
VERTEX
  5
2C7
330
2C6
100
AcDbEntity
  8
0
 62
     7
370
     9
100
AcDbVertex
100
AcDb2dVertex
 10
64.27807479946868
 20
62.42444117363
 30
0.0
  0
VERTEX
  5
2C8
330
2C6
100
AcDbEntity
  8
0
 62
     7
370
     9
100
AcDbVertex
100
AcDb2dVertex
 10
64.27411293966064
 20
62.42168509724181
 30
0.0
  0
VERTEX
  5
2C9
330
2C6
100
AcDbEntity
  8
0
 62
     7
370
     9
100
AcDbVertex
100
AcDb2dVertex
 10
64.26705049391587
 20
62.40824922484933
 30
0.0
  0
VERTEX
  5
2CA
330
2C6
100
AcDbEntity
  8
0
 62
     7
370
     9
100
AcDbVertex
100
AcDb2dVertex
 10
64.26618922004457
 20
62.38930119968045
 30
0.0
  0
VERTEX
  5
2CB
330
2C6
100
AcDbEntity
  8
0
 62
     7
370
     9
100
AcDbVertex
100
AcDb2dVertex
 10
64.27187362759523
 20
62.36828611722043
 30
0.0
  0
VERTEX
  5
2CC
330
2C6
100
AcDbEntity
  8
0
 62
     7
370
     9
100
AcDbVertex
100
AcDb2dVertex
 10
64.28324244269655
 20
62.34761554430893
 30
0.0
  0
VERTEX
  5
2CD
330
2C6
100
AcDbEntity
  8
0
 62
     7
370
     9
100
AcDbVertex
100
AcDb2dVertex
 10
64.29822860805739
 20
62.3307345764312
 30
0.0
  0
SEQEND
  5
2CE
330
2C6
100
AcDbEntity
  8
0
370
     9
  0
ENDBLK
  5
2C5
330
2C2
100
AcDbEntity
  8
0
100
AcDbBlockEnd
  0
BLOCK
  5
2D1
330
2CF
100
AcDbEntity
  8
0
100
AcDbBlockBegin
  2
block 87
 70
     0
 71
     0
 10
0.0
 20
0.0
 30
0.0
  3
block 87
  1

  0
SPLINE
  5
2D3
330
2CF
100
AcDbEntity
  8
0
 62
     7
370
     9
100
AcDbSpline
210
0.0
220
0.0
230
1.0
 70
     8
 71
     3
 72
     8
 73
     4
 74
     0
 42
0.0000000001
 43
0.0000000001
 40
0.0
 40
0.0
 40
0.0
 40
0.0
 40
1.0
 40
1.0
 40
1.0
 40
1.0
 10
64.33888073478334
 20
62.48300779687925
 30
0.0
 10
64.33595240362088
 20
62.47370603906908
 30
0.0
 10
64.33302407245841
 20
62.46405977171037
 30
0.0
 10
64.33026799607022
 20
62.4547580139002
 30
0.0
  0
ENDBLK
  5
2D2
330
2CF
100
AcDbEntity
  8
0
100
AcDbBlockEnd
  0
BLOCK
  5
2D6
330
2D4
100
AcDbEntity
  8
0
100
AcDbBlockBegin
  2
block 88
 70
     0
 71
     0
 10
0.0
 20
0.0
 30
0.0
  3
block 88
  1

  0
POLYLINE
  5
2D8
330
2D4
100
AcDbEntity
  8
0
 62
     7
370
     9
100
AcDb2dPolyline
 66
     1
 10
0.0
 20
0.0
 30
0.0
  0
VERTEX
  5
2D9
330
2D8
100
AcDbEntity
  8
0
 62
     7
370
     9
100
AcDbVertex
100
AcDb2dVertex
 10
64.33888073478334
 20
62.48300779687925
 30
0.0
  0
VERTEX
  5
2DA
330
2D8
100
AcDbEntity
  8
0
 62
     7
370
     9
100
AcDbVertex
100
AcDb2dVertex
 10
228.2833956677555
 20
157.12615420334
 30
0.0
  0
SEQEND
  5
2DB
330
2D8
100
AcDbEntity
  8
0
370
     9
  0
ENDBLK
  5
2D7
330
2D4
100
AcDbEntity
  8
0
100
AcDbBlockEnd
  0
BLOCK
  5
2DE
330
2DC
100
AcDbEntity
  8
0
100
AcDbBlockBegin
  2
block 89
 70
     0
 71
     0
 10
0.0
 20
0.0
 30
0.0
  3
block 89
  1

  0
POLYLINE
  5
2E0
330
2DC
100
AcDbEntity
  8
0
 62
     7
370
     9
100
AcDb2dPolyline
 66
     1
 10
0.0
 20
0.0
 30
0.0
  0
VERTEX
  5
2E1
330
2E0
100
AcDbEntity
  8
0
 62
     7
370
     9
100
AcDbVertex
100
AcDb2dVertex
 10
64.32148300258282
 20
62.57430282723837
 30
0.0
  0
VERTEX
  5
2E2
330
2E0
100
AcDbEntity
  8
0
 62
     7
370
     9
100
AcDbVertex
100
AcDb2dVertex
 10
64.31941594529168
 20
62.57292478904427
 30
0.0
  0
VERTEX
  5
2E3
330
2E0
100
AcDbEntity
  8
0
 62
     7
370
     9
100
AcDbVertex
100
AcDb2dVertex
 10
64.31114771612708
 20
62.5608669548459
 30
0.0
  0
VERTEX
  5
2E4
330
2E0
100
AcDbEntity
  8
0
 62
     7
370
     9
100
AcDbVertex
100
AcDb2dVertex
 10
64.3092529136102
 20
62.5429524583226
 30
0.0
  0
VERTEX
  5
2E5
330
2E0
100
AcDbEntity
  8
0
 62
     7
370
     9
100
AcDbVertex
100
AcDb2dVertex
 10
64.31390379251528
 20
62.52159286631405
 30
0.0
  0
VERTEX
  5
2E6
330
2E0
100
AcDbEntity
  8
0
 62
     7
370
     9
100
AcDbVertex
100
AcDb2dVertex
 10
64.32423907897103
 20
62.50057778385403
 30
0.0
  0
VERTEX
  5
2E7
330
2E0
100
AcDbEntity
  8
0
 62
     7
370
     9
100
AcDbVertex
100
AcDb2dVertex
 10
64.33888073478334
 20
62.48300779687925
 30
0.0
  0
SEQEND
  5
2E8
330
2E0
100
AcDbEntity
  8
0
370
     9
  0
ENDBLK
  5
2DF
330
2DC
100
AcDbEntity
  8
0
100
AcDbBlockEnd
  0
BLOCK
  5
2EB
330
2E9
100
AcDbEntity
  8
0
100
AcDbBlockBegin
  2
block 90
 70
     0
 71
     0
 10
0.0
 20
0.0
 30
0.0
  3
block 90
  1

  0
POLYLINE
  5
2ED
330
2E9
100
AcDbEntity
  8
0
 62
     7
370
     9
100
AcDb2dPolyline
 66
     1
 10
0.0
 20
0.0
 30
0.0
  0
VERTEX
  5
2EE
330
2ED
100
AcDbEntity
  8
0
 62
     7
370
     9
100
AcDbVertex
100
AcDb2dVertex
 10
64.38986814796503
 20
62.6256347499686
 30
0.0
  0
VERTEX
  5
2EF
330
2ED
100
AcDbEntity
  8
0
 62
     7
370
     9
100
AcDbVertex
100
AcDb2dVertex
 10
228.3257703422241
 20
157.2636135132015
 30
0.0
  0
SEQEND
  5
2F0
330
2ED
100
AcDbEntity
  8
0
370
     9
  0
ENDBLK
  5
2EC
330
2E9
100
AcDbEntity
  8
0
100
AcDbBlockEnd
  0
BLOCK
  5
2F3
330
2F1
100
AcDbEntity
  8
0
100
AcDbBlockBegin
  2
block 91
 70
     0
 71
     0
 10
0.0
 20
0.0
 30
0.0
  3
block 91
  1

  0
SPLINE
  5
2F5
330
2F1
100
AcDbEntity
  8
0
 62
     7
370
     9
100
AcDbSpline
210
0.0
220
0.0
230
1.0
 70
     8
 71
     3
 72
    20
 73
    16
 74
     0
 42
0.0000000001
 43
0.0000000001
 40
0.0
 40
0.0
 40
0.0
 40
0.0
 40
1.0
 40
1.0
 40
1.0
 40
2.0
 40
2.0
 40
2.0
 40
3.0
 40
3.0
 40
3.0
 40
4.0
 40
4.0
 40
4.0
 40
5.0
 40
5.0
 40
5.0
 40
5.0
 10
64.37539874692699
 20
62.71417370393952
 30
0.0
 10
64.37522649215272
 20
62.71382919439099
 30
0.0
 10
64.36609698911681
 20
62.70314939838671
 30
0.0
 10
64.36609698911681
 20
62.70314939838671
 30
0.0
 10
64.36609698911681
 20
62.70314939838671
 30
0.0
 10
64.36299640318009
 20
62.68592392096047
 30
0.0
 10
64.36299640318009
 20
62.68592392096047
 30
0.0
 10
64.36299640318009
 20
62.68592392096047
 30
0.0
 10
64.36644149866534
 20
62.66525334804897
 30
0.0
 10
64.36644149866534
 20
62.66525334804897
 30
0.0
 10
64.36644149866534
 20
62.66525334804897
 30
0.0
 10
64.37591551124977
 20
62.64389375604042
 30
0.0
 10
64.37591551124977
 20
62.64389375604042
 30
0.0
 10
64.37591551124977
 20
62.64389375604042
 30
0.0
 10
64.38986814796503
 20
62.6256347499686
 30
0.0
 10
64.38986814796503
 20
62.6256347499686
 30
0.0
  0
ENDBLK
  5
2F4
330
2F1
100
AcDbEntity
  8
0
100
AcDbBlockEnd
  0
BLOCK
  5
2F8
330
2F6
100
AcDbEntity
  8
0
100
AcDbBlockBegin
  2
block 92
 70
     0
 71
     0
 10
0.0
 20
0.0
 30
0.0
  3
block 92
  1

  0
POLYLINE
  5
2FA
330
2F6
100
AcDbEntity
  8
0
 62
     7
370
     9
100
AcDb2dPolyline
 66
     1
 10
0.0
 20
0.0
 30
0.0
  0
VERTEX
  5
2FB
330
2FA
100
AcDbEntity
  8
0
 62
     7
370
     9
100
AcDbVertex
100
AcDb2dVertex
 10
64.43947752295263
 20
62.84302027508786
 30
0.0
  0
VERTEX
  5
2FC
330
2FA
100
AcDbEntity
  8
0
 62
     7
370
     9
100
AcDbVertex
100
AcDb2dVertex
 10
64.4313815485623
 20
62.83475204592326
 30
0.0
  0
VERTEX
  5
2FD
330
2FA
100
AcDbEntity
  8
0
 62
     7
370
     9
100
AcDbVertex
100
AcDb2dVertex
 10
64.42707517920573
 20
62.81856009714259
 30
0.0
  0
VERTEX
  5
2FE
330
2FA
100
AcDbEntity
  8
0
 62
     7
370
     9
100
AcDbVertex
100
AcDb2dVertex
 10
64.42931449127114
 20
62.79823403377961
 30
0.0
  0
VERTEX
  5
2FF
330
2FA
100
AcDbEntity
  8
0
 62
     7
370
     9
100
AcDbVertex
100
AcDb2dVertex
 10
64.43792722998427
 20
62.77687444177106
 30
0.0
  0
VERTEX
  5
300
330
2FA
100
AcDbEntity
  8
0
 62
     7
370
     9
100
AcDbVertex
100
AcDb2dVertex
 10
64.45119084760249
 20
62.75758190705366
 30
0.0
  0
SEQEND
  5
301
330
2FA
100
AcDbEntity
  8
0
370
     9
  0
ENDBLK
  5
2F9
330
2F6
100
AcDbEntity
  8
0
100
AcDbBlockEnd
  0
BLOCK
  5
304
330
302
100
AcDbEntity
  8
0
100
AcDbBlockBegin
  2
block 93
 70
     0
 71
     0
 10
0.0
 20
0.0
 30
0.0
  3
block 93
  1

  0
POLYLINE
  5
306
330
302
100
AcDbEntity
  8
0
 62
     7
370
     9
100
AcDb2dPolyline
 66
     1
 10
0.0
 20
0.0
 30
0.0
  0
VERTEX
  5
307
330
306
100
AcDbEntity
  8
0
 62
     7
370
     9
100
AcDbVertex
100
AcDb2dVertex
 10
64.51337482111124
 20
62.96118705023193
 30
0.0
  0
VERTEX
  5
308
330
306
100
AcDbEntity
  8
0
 62
     7
370
     9
100
AcDbVertex
100
AcDb2dVertex
 10
64.506656884915
 20
62.95464136880995
 30
0.0
  0
VERTEX
  5
309
330
306
100
AcDbEntity
  8
0
 62
     7
370
     9
100
AcDbVertex
100
AcDb2dVertex
 10
64.50131698691287
 20
62.93948294867486
 30
0.0
  0
VERTEX
  5
30A
330
306
100
AcDbEntity
  8
0
 62
     7
370
     9
100
AcDbVertex
100
AcDb2dVertex
 10
64.50235051555845
 20
62.91984590440893
 30
0.0
  0
VERTEX
  5
30B
330
306
100
AcDbEntity
  8
0
 62
     7
370
     9
100
AcDbVertex
100
AcDb2dVertex
 10
64.509929725626
 20
62.89814180285185
 30
0.0
  0
VERTEX
  5
30C
330
306
100
AcDbEntity
  8
0
 62
     7
370
     9
100
AcDbVertex
100
AcDb2dVertex
 10
64.51595864272518
 20
62.88746200684758
 30
0.0
  0
SEQEND
  5
30D
330
306
100
AcDbEntity
  8
0
370
     9
  0
ENDBLK
  5
305
330
302
100
AcDbEntity
  8
0
100
AcDbBlockEnd
  0
BLOCK
  5
310
330
30E
100
AcDbEntity
  8
0
100
AcDbBlockBegin
  2
block 94
 70
     0
 71
     0
 10
0.0
 20
0.0
 30
0.0
  3
block 94
  1

  0
POLYLINE
  5
312
330
30E
100
AcDbEntity
  8
0
 62
     7
370
     9
100
AcDb2dPolyline
 66
     1
 10
0.0
 20
0.0
 30
0.0
  0
VERTEX
  5
313
330
312
100
AcDbEntity
  8
0
 62
     7
370
     9
100
AcDbVertex
100
AcDb2dVertex
 10
64.59674613185429
 20
63.0669514816291
 30
0.0
  0
VERTEX
  5
314
330
312
100
AcDbEntity
  8
0
 62
     7
370
     9
100
AcDbVertex
100
AcDb2dVertex
 10
64.59157848862641
 20
63.0628173670468
 30
0.0
  0
VERTEX
  5
315
330
312
100
AcDbEntity
  8
0
 62
     7
370
     9
100
AcDbVertex
100
AcDb2dVertex
 10
64.5852050619787
 20
63.04869247555727
 30
0.0
  0
VERTEX
  5
316
330
312
100
AcDbEntity
  8
0
 62
     7
370
     9
100
AcDbVertex
100
AcDb2dVertex
 10
64.5852050619787
 20
63.02939994083987
 30
0.0
  0
VERTEX
  5
317
330
312
100
AcDbEntity
  8
0
 62
     7
370
     9
100
AcDbVertex
100
AcDb2dVertex
 10
64.59157848862641
 20
63.00804034883133
 30
0.0
  0
SEQEND
  5
318
330
312
100
AcDbEntity
  8
0
370
     9
  0
ENDBLK
  5
311
330
30E
100
AcDbEntity
  8
0
100
AcDbBlockEnd
  0
BLOCK
  5
31B
330
319
100
AcDbEntity
  8
0
100
AcDbBlockBegin
  2
block 95
 70
     0
 71
     0
 10
0.0
 20
0.0
 30
0.0
  3
block 95
  1

  0
SPLINE
  5
31D
330
319
100
AcDbEntity
  8
0
 62
     7
370
     9
100
AcDbSpline
210
0.0
220
0.0
230
1.0
 70
     8
 71
     3
 72
     8
 73
     4
 74
     0
 42
0.0000000001
 43
0.0000000001
 40
0.0
 40
0.0
 40
0.0
 40
0.0
 40
1.0
 40
1.0
 40
1.0
 40
1.0
 10
64.68924694563324
 20
63.16065807882789
 30
0.0
 10
64.67615558278929
 20
63.14928926372657
 30
0.0
 10
64.67219372298126
 20
63.13068574810622
 30
0.0
 10
64.67960067827455
 20
63.11483830887407
 30
0.0
  0
ENDBLK
  5
31C
330
319
100
AcDbEntity
  8
0
100
AcDbBlockEnd
  0
BLOCK
  5
320
330
31E
100
AcDbEntity
  8
0
100
AcDbBlockBegin
  2
block 96
 70
     0
 71
     0
 10
0.0
 20
0.0
 30
0.0
  3
block 96
  1

  0
SPLINE
  5
322
330
31E
100
AcDbEntity
  8
0
 62
     7
370
     9
100
AcDbSpline
210
0.0
220
0.0
230
1.0
 70
     8
 71
     3
 72
     8
 73
     4
 74
     0
 42
0.0000000001
 43
0.0000000001
 40
0.0
 40
0.0
 40
0.0
 40
0.0
 40
1.0
 40
1.0
 40
1.0
 40
1.0
 10
64.7905327528996
 20
63.24161782273126
 30
0.0
 10
64.78088648554089
 20
63.23507214130929
 30
0.0
 10
64.77606335186154
 20
63.22335881665944
 30
0.0
 10
64.7781304091527
 20
63.21199000155811
 30
0.0
  0
ENDBLK
  5
321
330
31E
100
AcDbEntity
  8
0
100
AcDbBlockEnd
  0
BLOCK
  5
325
330
323
100
AcDbEntity
  8
0
100
AcDbBlockBegin
  2
block 97
 70
     0
 71
     0
 10
0.0
 20
0.0
 30
0.0
  3
block 97
  1

  0
POLYLINE
  5
327
330
323
100
AcDbEntity
  8
0
 62
     7
370
     9
100
AcDb2dPolyline
 66
     1
 10
0.0
 20
0.0
 30
0.0
  0
VERTEX
  5
328
330
327
100
AcDbEntity
  8
0
 62
     7
370
     9
100
AcDbVertex
100
AcDb2dVertex
 10
64.89991453455627
 20
63.30914169424216
 30
0.0
  0
VERTEX
  5
329
330
327
100
AcDbEntity
  8
0
 62
     7
370
     9
100
AcDbVertex
100
AcDb2dVertex
 10
64.89112954106889
 20
63.29983993643199
 30
0.0
  0
SEQEND
  5
32A
330
327
100
AcDbEntity
  8
0
370
     9
  0
ENDBLK
  5
326
330
323
100
AcDbEntity
  8
0
100
AcDbBlockEnd
  0
BLOCK
  5
32D
330
32B
100
AcDbEntity
  8
0
100
AcDbBlockBegin
  2
block 98
 70
     0
 71
     0
 10
0.0
 20
0.0
 30
0.0
  3
block 98
  1

  0
POLYLINE
  5
32F
330
32B
100
AcDbEntity
  8
0
 62
     7
370
     9
100
AcDb2dPolyline
 66
     1
 10
0.0
 20
0.0
 30
0.0
  0
VERTEX
  5
330
330
32F
100
AcDbEntity
  8
0
 62
     7
370
     9
100
AcDbVertex
100
AcDb2dVertex
 10
228.4453151555623
 20
156.5906141101579
 30
0.0
  0
VERTEX
  5
331
330
32F
100
AcDbEntity
  8
0
 62
     7
370
     9
100
AcDbVertex
100
AcDb2dVertex
 10
228.4708088621531
 20
156.9666462823729
 30
0.0
  0
VERTEX
  5
332
330
32F
100
AcDbEntity
  8
0
 62
     7
370
     9
100
AcDbVertex
100
AcDb2dVertex
 10
228.5462564532801
 20
157.3049546590245
 30
0.0
  0
VERTEX
  5
333
330
32F
100
AcDbEntity
  8
0
 62
     7
370
     9
100
AcDbVertex
100
AcDb2dVertex
 10
228.6702798907491
 20
157.5981322848192
 30
0.0
  0
VERTEX
  5
334
330
32F
100
AcDbEntity
  8
0
 62
     7
370
     9
100
AcDbVertex
100
AcDb2dVertex
 10
228.8397785886234
 20
157.839461223561
 30
0.0
  0
VERTEX
  5
335
330
32F
100
AcDbEntity
  8
0
 62
     7
370
     9
100
AcDbVertex
100
AcDb2dVertex
 10
229.0513074514177
 20
158.0236015772476
 30
0.0
  0
VERTEX
  5
336
330
32F
100
AcDbEntity
  8
0
 62
     7
370
     9
100
AcDbVertex
100
AcDb2dVertex
 10
229.110563093764
 20
158.0602918441655
 30
0.0
  0
SEQEND
  5
337
330
32F
100
AcDbEntity
  8
0
370
     9
  0
ENDBLK
  5
32E
330
32B
100
AcDbEntity
  8
0
100
AcDbBlockEnd
  0
BLOCK
  5
33A
330
338
100
AcDbEntity
  8
0
100
AcDbBlockBegin
  2
block 99
 70
     0
 71
     0
 10
0.0
 20
0.0
 30
0.0
  3
block 99
  1

  0
POLYLINE
  5
33C
330
338
100
AcDbEntity
  8
0
 62
     7
370
     9
100
AcDb2dPolyline
 66
     1
 10
0.0
 20
0.0
 30
0.0
  0
VERTEX
  5
33D
330
33C
100
AcDbEntity
  8
0
 62
     7
370
     9
100
AcDbVertex
100
AcDb2dVertex
 10
232.3203585573713
 20
152.5002522405208
 30
0.0
  0
VERTEX
  5
33E
330
33C
100
AcDbEntity
  8
0
 62
     7
370
     9
100
AcDbVertex
100
AcDb2dVertex
 10
232.130533796134
 20
152.4141248533895
 30
0.0
  0
VERTEX
  5
33F
330
33C
100
AcDbEntity
  8
0
 62
     7
370
     9
100
AcDbVertex
100
AcDb2dVertex
 10
231.8501030236347
 20
152.3552137205918
 30
0.0
  0
VERTEX
  5
340
330
33C
100
AcDbEntity
  8
0
 62
     7
370
     9
100
AcDbVertex
100
AcDb2dVertex
 10
231.544523054093
 20
152.3617594020137
 30
0.0
  0
VERTEX
  5
341
330
33C
100
AcDbEntity
  8
0
 62
     7
370
     9
100
AcDbVertex
100
AcDb2dVertex
 10
231.220339568931
 20
152.4334173881069
 30
0.0
  0
VERTEX
  5
342
330
33C
100
AcDbEntity
  8
0
 62
     7
370
     9
100
AcDbVertex
100
AcDb2dVertex
 10
230.8847872686677
 20
152.568637385903
 30
0.0
  0
VERTEX
  5
343
330
33C
100
AcDbEntity
  8
0
 62
     7
370
     9
100
AcDbVertex
100
AcDb2dVertex
 10
230.5457898729191
 20
152.7644910642395
 30
0.0
  0
VERTEX
  5
344
330
33C
100
AcDbEntity
  8
0
 62
     7
370
     9
100
AcDbVertex
100
AcDb2dVertex
 10
230.2102375726558
 20
153.0164997989855
 30
0.0
  0
VERTEX
  5
345
330
33C
100
AcDbEntity
  8
0
 62
     7
370
     9
100
AcDbVertex
100
AcDb2dVertex
 10
229.8860540874938
 20
153.3191514373647
 30
0.0
  0
VERTEX
  5
346
330
33C
100
AcDbEntity
  8
0
 62
     7
370
     9
100
AcDbVertex
100
AcDb2dVertex
 10
229.5804741179521
 20
153.6655557884065
 30
0.0
  0
VERTEX
  5
347
330
33C
100
AcDbEntity
  8
0
 62
     7
370
     9
100
AcDbVertex
100
AcDb2dVertex
 10
229.3000433454528
 20
154.0479613872693
 30
0.0
  0
VERTEX
  5
348
330
33C
100
AcDbEntity
  8
0
 62
     7
370
     9
100
AcDbVertex
100
AcDb2dVertex
 10
229.0513074514177
 20
154.4581000047883
 30
0.0
  0
VERTEX
  5
349
330
33C
100
AcDbEntity
  8
0
 62
     7
370
     9
100
AcDbVertex
100
AcDb2dVertex
 10
228.8397785886234
 20
154.8864976283791
 30
0.0
  0
VERTEX
  5
34A
330
33C
100
AcDbEntity
  8
0
 62
     7
370
     9
100
AcDbVertex
100
AcDb2dVertex
 10
228.6702798907491
 20
155.3236802454573
 30
0.0
  0
VERTEX
  5
34B
330
33C
100
AcDbEntity
  8
0
 62
     7
370
     9
100
AcDbVertex
100
AcDb2dVertex
 10
228.5462564532801
 20
155.7598293338899
 30
0.0
  0
VERTEX
  5
34C
330
33C
100
AcDbEntity
  8
0
 62
     7
370
     9
100
AcDbVertex
100
AcDb2dVertex
 10
228.4708088621531
 20
156.1852986263183
 30
0.0
  0
VERTEX
  5
34D
330
33C
100
AcDbEntity
  8
0
 62
     7
370
     9
100
AcDbVertex
100
AcDb2dVertex
 10
228.4453151555623
 20
156.5906141101579
 30
0.0
  0
SEQEND
  5
34E
330
33C
100
AcDbEntity
  8
0
370
     9
  0
ENDBLK
  5
33B
330
338
100
AcDbEntity
  8
0
100
AcDbBlockEnd
  0
BLOCK
  5
351
330
34F
100
AcDbEntity
  8
0
100
AcDbBlockBegin
  2
block 100
 70
     0
 71
     0
 10
0.0
 20
0.0
 30
0.0
  3
block 100
  1

  0
SPLINE
  5
353
330
34F
100
AcDbEntity
  8
0
 62
     7
370
     9
100
AcDbSpline
210
0.0
220
0.0
230
1.0
 70
     8
 71
     3
 72
     8
 73
     4
 74
     0
 42
0.0000000001
 43
0.0000000001
 40
0.0
 40
0.0
 40
0.0
 40
0.0
 40
1.0
 40
1.0
 40
1.0
 40
1.0
 10
228.6744140053314
 20
157.6785752643998
 30
0.0
 10
228.4608180852459
 20
157.3421616902652
 30
0.0
 10
228.3560871824943
 20
156.9478705119783
 30
0.0
 10
228.3746906981147
 20
156.5497897286577
 30
0.0
  0
ENDBLK
  5
352
330
34F
100
AcDbEntity
  8
0
100
AcDbBlockEnd
  0
BLOCK
  5
356
330
354
100
AcDbEntity
  8
0
100
AcDbBlockBegin
  2
block 101
 70
     0
 71
     0
 10
0.0
 20
0.0
 30
0.0
  3
block 101
  1

  0
POLYLINE
  5
358
330
354
100
AcDbEntity
  8
0
 62
     7
370
     9
100
AcDb2dPolyline
 66
     1
 10
0.0
 20
0.0
 30
0.0
  0
VERTEX
  5
359
330
358
100
AcDbEntity
  8
0
 62
     7
370
     9
100
AcDbVertex
100
AcDb2dVertex
 10
231.771554846571
 20
152.3137003199945
 30
0.0
  0
VERTEX
  5
35A
330
358
100
AcDbEntity
  8
0
 62
     7
370
     9
100
AcDbVertex
100
AcDb2dVertex
 10
231.4738985966454
 20
152.3207627657393
 30
0.0
  0
VERTEX
  5
35B
330
358
100
AcDbEntity
  8
0
 62
     7
370
     9
100
AcDbVertex
100
AcDb2dVertex
 10
231.1497151114834
 20
152.3924207518324
 30
0.0
  0
VERTEX
  5
35C
330
358
100
AcDbEntity
  8
0
 62
     7
370
     9
100
AcDbVertex
100
AcDb2dVertex
 10
230.8141628112201
 20
152.5278130044028
 30
0.0
  0
VERTEX
  5
35D
330
358
100
AcDbEntity
  8
0
 62
     7
370
     9
100
AcDbVertex
100
AcDb2dVertex
 10
230.474820905923
 20
152.7236666827392
 30
0.0
  0
VERTEX
  5
35E
330
358
100
AcDbEntity
  8
0
 62
     7
370
     9
100
AcDbVertex
100
AcDb2dVertex
 10
230.1396131152082
 20
152.9756754174853
 30
0.0
  0
VERTEX
  5
35F
330
358
100
AcDbEntity
  8
0
 62
     7
370
     9
100
AcDbVertex
100
AcDb2dVertex
 10
229.8154296300461
 20
153.2783270558645
 30
0.0
  0
VERTEX
  5
360
330
358
100
AcDbEntity
  8
0
 62
     7
370
     9
100
AcDbVertex
100
AcDb2dVertex
 10
229.5098496605045
 20
153.6247314069063
 30
0.0
  0
VERTEX
  5
361
330
358
100
AcDbEntity
  8
0
 62
     7
370
     9
100
AcDbVertex
100
AcDb2dVertex
 10
229.2294188880051
 20
154.0071370057691
 30
0.0
  0
VERTEX
  5
362
330
358
100
AcDbEntity
  8
0
 62
     7
370
     9
100
AcDbVertex
100
AcDb2dVertex
 10
228.9806829939701
 20
154.417275623288
 30
0.0
  0
VERTEX
  5
363
330
358
100
AcDbEntity
  8
0
 62
     7
370
     9
100
AcDbVertex
100
AcDb2dVertex
 10
228.7691541311758
 20
154.8456732468789
 30
0.0
  0
VERTEX
  5
364
330
358
100
AcDbEntity
  8
0
 62
     7
370
     9
100
AcDbVertex
100
AcDb2dVertex
 10
228.5996554333015
 20
155.2828558639571
 30
0.0
  0
VERTEX
  5
365
330
358
100
AcDbEntity
  8
0
 62
     7
370
     9
100
AcDbVertex
100
AcDb2dVertex
 10
228.4756319958325
 20
155.7190049523897
 30
0.0
  0
VERTEX
  5
366
330
358
100
AcDbEntity
  8
0
 62
     7
370
     9
100
AcDbVertex
100
AcDb2dVertex
 10
228.4001844047055
 20
156.144474244818
 30
0.0
  0
VERTEX
  5
367
330
358
100
AcDbEntity
  8
0
 62
     7
370
     9
100
AcDbVertex
100
AcDb2dVertex
 10
228.3746906981147
 20
156.5497897286577
 30
0.0
  0
SEQEND
  5
368
330
358
100
AcDbEntity
  8
0
370
     9
  0
ENDBLK
  5
357
330
354
100
AcDbEntity
  8
0
100
AcDbBlockEnd
  0
BLOCK
  5
36B
330
369
100
AcDbEntity
  8
0
100
AcDbBlockBegin
  2
block 102
 70
     0
 71
     0
 10
0.0
 20
0.0
 30
0.0
  3
block 102
  1

  0
POLYLINE
  5
36D
330
369
100
AcDbEntity
  8
0
 62
     7
370
     9
100
AcDb2dPolyline
 66
     1
 10
0.0
 20
0.0
 30
0.0
  0
VERTEX
  5
36E
330
36D
100
AcDbEntity
  8
0
 62
     7
370
     9
100
AcDbVertex
100
AcDb2dVertex
 10
228.3440293482959
 20
156.5675319704067
 30
0.0
  0
VERTEX
  5
36F
330
36D
100
AcDbEntity
  8
0
 62
     7
370
     9
100
AcDbVertex
100
AcDb2dVertex
 10
228.3698675644353
 20
156.9487317858496
 30
0.0
  0
VERTEX
  5
370
330
36D
100
AcDbEntity
  8
0
 62
     7
370
     9
100
AcDbVertex
100
AcDb2dVertex
 10
228.4463486842079
 20
157.2916910414062
 30
0.0
  0
VERTEX
  5
371
330
36D
100
AcDbEntity
  8
0
 62
     7
370
     9
100
AcDbVertex
100
AcDb2dVertex
 10
228.571750159871
 20
157.5886582722348
 30
0.0
  0
VERTEX
  5
372
330
36D
100
AcDbEntity
  8
0
 62
     7
370
     9
100
AcDbVertex
100
AcDb2dVertex
 10
228.7436604245849
 20
157.8332600516875
 30
0.0
  0
VERTEX
  5
373
330
36D
100
AcDbEntity
  8
0
 62
     7
370
     9
100
AcDbVertex
100
AcDb2dVertex
 10
228.958289873316
 20
158.0199842269881
 30
0.0
  0
VERTEX
  5
374
330
36D
100
AcDbEntity
  8
0
 62
     7
370
     9
100
AcDbVertex
100
AcDb2dVertex
 10
229.0950601640804
 20
158.0976711301805
 30
0.0
  0
SEQEND
  5
375
330
36D
100
AcDbEntity
  8
0
370
     9
  0
ENDBLK
  5
36C
330
369
100
AcDbEntity
  8
0
100
AcDbBlockEnd
  0
BLOCK
  5
378
330
376
100
AcDbEntity
  8
0
100
AcDbBlockBegin
  2
block 103
 70
     0
 71
     0
 10
0.0
 20
0.0
 30
0.0
  3
block 103
  1

  0
POLYLINE
  5
37A
330
376
100
AcDbEntity
  8
0
 62
     7
370
     9
100
AcDb2dPolyline
 66
     1
 10
0.0
 20
0.0
 30
0.0
  0
VERTEX
  5
37B
330
37A
100
AcDbEntity
  8
0
 62
     7
370
     9
100
AcDbVertex
100
AcDb2dVertex
 10
232.3448187353166
 20
152.4683851072822
 30
0.0
  0
VERTEX
  5
37C
330
37A
100
AcDbEntity
  8
0
 62
     7
370
     9
100
AcDbVertex
100
AcDb2dVertex
 10
232.3310383533756
 20
152.4589110946978
 30
0.0
  0
VERTEX
  5
37D
330
37A
100
AcDbEntity
  8
0
 62
     7
370
     9
100
AcDbVertex
100
AcDb2dVertex
 10
232.0788573638553
 20
152.334370892906
 30
0.0
  0
VERTEX
  5
37E
330
37A
100
AcDbEntity
  8
0
 62
     7
370
     9
100
AcDbVertex
100
AcDb2dVertex
 10
231.7949814958707
 20
152.2747707410112
 30
0.0
  0
VERTEX
  5
37F
330
37A
100
AcDbEntity
  8
0
 62
     7
370
     9
100
AcDbVertex
100
AcDb2dVertex
 10
231.4849229021982
 20
152.2813164224332
 30
0.0
  0
VERTEX
  5
380
330
37A
100
AcDbEntity
  8
0
 62
     7
370
     9
100
AcDbVertex
100
AcDb2dVertex
 10
231.1566053024539
 20
152.3540079371719
 30
0.0
  0
VERTEX
  5
381
330
37A
100
AcDbEntity
  8
0
 62
     7
370
     9
100
AcDbVertex
100
AcDb2dVertex
 10
230.8165743780598
 20
152.4909504827106
 30
0.0
  0
VERTEX
  5
382
330
37A
100
AcDbEntity
  8
0
 62
     7
370
     9
100
AcDbVertex
100
AcDb2dVertex
 10
230.4727538486318
 20
152.6895602374352
 30
0.0
  0
VERTEX
  5
383
330
37A
100
AcDbEntity
  8
0
 62
     7
370
     9
100
AcDbVertex
100
AcDb2dVertex
 10
230.1327229242377
 20
152.9450140676665
 30
0.0
  0
VERTEX
  5
384
330
37A
100
AcDbEntity
  8
0
 62
     7
370
     9
100
AcDbVertex
100
AcDb2dVertex
 10
229.8040608149448
 20
153.2516275658538
 30
0.0
  0
VERTEX
  5
385
330
37A
100
AcDbEntity
  8
0
 62
     7
370
     9
100
AcDbVertex
100
AcDb2dVertex
 10
229.4943467308209
 20
153.602855050575
 30
0.0
  0
VERTEX
  5
386
330
37A
100
AcDbEntity
  8
0
 62
     7
370
     9
100
AcDbVertex
100
AcDb2dVertex
 10
229.2101263532878
 20
153.9904282926656
 30
0.0
  0
VERTEX
  5
387
330
37A
100
AcDbEntity
  8
0
 62
     7
370
     9
100
AcDbVertex
100
AcDb2dVertex
 10
228.958289873316
 20
154.406079062961
 30
0.0
  0
VERTEX
  5
388
330
37A
100
AcDbEntity
  8
0
 62
     7
370
     9
100
AcDbVertex
100
AcDb2dVertex
 10
228.7436604245849
 20
154.8403333488767
 30
0.0
  0
VERTEX
  5
389
330
37A
100
AcDbEntity
  8
0
 62
     7
370
     9
100
AcDbVertex
100
AcDb2dVertex
 10
228.571750159871
 20
155.2833726282799
 30
0.0
  0
VERTEX
  5
38A
330
37A
100
AcDbEntity
  8
0
 62
     7
370
     9
100
AcDbVertex
100
AcDb2dVertex
 10
228.4463486842079
 20
155.7255506338117
 30
0.0
  0
VERTEX
  5
38B
330
37A
100
AcDbEntity
  8
0
 62
     7
370
     9
100
AcDbVertex
100
AcDb2dVertex
 10
228.3698675644353
 20
156.1567043337907
 30
0.0
  0
VERTEX
  5
38C
330
37A
100
AcDbEntity
  8
0
 62
     7
370
     9
100
AcDbVertex
100
AcDb2dVertex
 10
228.3440293482959
 20
156.5675319704067
 30
0.0
  0
SEQEND
  5
38D
330
37A
100
AcDbEntity
  8
0
370
     9
  0
ENDBLK
  5
379
330
376
100
AcDbEntity
  8
0
100
AcDbBlockEnd
  0
BLOCK
  5
390
330
38E
100
AcDbEntity
  8
0
100
AcDbBlockBegin
  2
block 104
 70
     0
 71
     0
 10
0.0
 20
0.0
 30
0.0
  3
block 104
  1

  0
POLYLINE
  5
392
330
38E
100
AcDbEntity
  8
0
 62
     7
370
     9
100
AcDb2dPolyline
 66
     1
 10
0.0
 20
0.0
 30
0.0
  0
VERTEX
  5
393
330
392
100
AcDbEntity
  8
0
 62
     7
370
     9
100
AcDbVertex
100
AcDb2dVertex
 10
228.2051920002404
 20
156.4845051692122
 30
0.0
  0
VERTEX
  5
394
330
392
100
AcDbEntity
  8
0
 62
     7
370
     9
100
AcDbVertex
100
AcDb2dVertex
 10
228.2306857068312
 20
156.8651882203323
 30
0.0
  0
VERTEX
  5
395
330
392
100
AcDbEntity
  8
0
 62
     7
370
     9
100
AcDbVertex
100
AcDb2dVertex
 10
228.3071668266038
 20
157.2078029663404
 30
0.0
  0
VERTEX
  5
396
330
392
100
AcDbEntity
  8
0
 62
     7
370
     9
100
AcDbVertex
100
AcDb2dVertex
 10
228.4325683022669
 20
157.5045979423947
 30
0.0
  0
VERTEX
  5
397
330
392
100
AcDbEntity
  8
0
 62
     7
370
     9
100
AcDbVertex
100
AcDb2dVertex
 10
228.6044785669808
 20
157.7488552122989
 30
0.0
  0
VERTEX
  5
398
330
392
100
AcDbEntity
  8
0
 62
     7
370
     9
100
AcDbVertex
100
AcDb2dVertex
 10
228.8184189966148
 20
157.9354071328252
 30
0.0
  0
VERTEX
  5
399
330
392
100
AcDbEntity
  8
0
 62
     7
370
     9
100
AcDbVertex
100
AcDb2dVertex
 10
228.8583821042438
 20
157.9607285846418
 30
0.0
  0
SEQEND
  5
39A
330
392
100
AcDbEntity
  8
0
370
     9
  0
ENDBLK
  5
391
330
38E
100
AcDbEntity
  8
0
100
AcDbBlockEnd
  0
BLOCK
  5
39D
330
39B
100
AcDbEntity
  8
0
100
AcDbBlockBegin
  2
block 105
 70
     0
 71
     0
 10
0.0
 20
0.0
 30
0.0
  3
block 105
  1

  0
POLYLINE
  5
39F
330
39B
100
AcDbEntity
  8
0
 62
     7
370
     9
100
AcDb2dPolyline
 66
     1
 10
0.0
 20
0.0
 30
0.0
  0
VERTEX
  5
3A0
330
39F
100
AcDbEntity
  8
0
 62
     7
370
     9
100
AcDbVertex
100
AcDb2dVertex
 10
232.1077961659314
 20
152.3317870712921
 30
0.0
  0
VERTEX
  5
3A1
330
39F
100
AcDbEntity
  8
0
 62
     7
370
     9
100
AcDbVertex
100
AcDb2dVertex
 10
231.9358859012174
 20
152.2558227158423
 30
0.0
  0
VERTEX
  5
3A2
330
39F
100
AcDbEntity
  8
0
 62
     7
370
     9
100
AcDbVertex
100
AcDb2dVertex
 10
231.6523545427814
 20
152.1962225639475
 30
0.0
  0
VERTEX
  5
3A3
330
39F
100
AcDbEntity
  8
0
 62
     7
370
     9
100
AcDbVertex
100
AcDb2dVertex
 10
231.3426404586574
 20
152.2027682453694
 30
0.0
  0
VERTEX
  5
3A4
330
39F
100
AcDbEntity
  8
0
 62
     7
370
     9
100
AcDbVertex
100
AcDb2dVertex
 10
231.0146673684616
 20
152.2754597601082
 30
0.0
  0
VERTEX
  5
3A5
330
39F
100
AcDbEntity
  8
0
 62
     7
370
     9
100
AcDbVertex
100
AcDb2dVertex
 10
230.674980953616
 20
152.4124023056469
 30
0.0
  0
VERTEX
  5
3A6
330
39F
100
AcDbEntity
  8
0
 62
     7
370
     9
100
AcDbVertex
100
AcDb2dVertex
 10
230.3315049337366
 20
152.610667550823
 30
0.0
  0
VERTEX
  5
3A7
330
39F
100
AcDbEntity
  8
0
 62
     7
370
     9
100
AcDbVertex
100
AcDb2dVertex
 10
229.9918185188909
 20
152.8657768715058
 30
0.0
  0
VERTEX
  5
3A8
330
39F
100
AcDbEntity
  8
0
 62
     7
370
     9
100
AcDbVertex
100
AcDb2dVertex
 10
229.6635009191466
 20
153.1722181149188
 30
0.0
  0
VERTEX
  5
3A9
330
39F
100
AcDbEntity
  8
0
 62
     7
370
     9
100
AcDbVertex
100
AcDb2dVertex
 10
229.3541313445712
 20
153.5229288353172
 30
0.0
  0
VERTEX
  5
3AA
330
39F
100
AcDbEntity
  8
0
 62
     7
370
     9
100
AcDbVertex
100
AcDb2dVertex
 10
229.0702554765866
 20
153.9101575678593
 30
0.0
  0
VERTEX
  5
3AB
330
39F
100
AcDbEntity
  8
0
 62
     7
370
     9
100
AcDbVertex
100
AcDb2dVertex
 10
228.8184189966148
 20
154.3252915738319
 30
0.0
  0
VERTEX
  5
3AC
330
39F
100
AcDbEntity
  8
0
 62
     7
370
     9
100
AcDbVertex
100
AcDb2dVertex
 10
228.6044785669808
 20
154.7590290954248
 30
0.0
  0
VERTEX
  5
3AD
330
39F
100
AcDbEntity
  8
0
 62
     7
370
     9
100
AcDbVertex
100
AcDb2dVertex
 10
228.4325683022669
 20
155.2017238652794
 30
0.0
  0
VERTEX
  5
3AE
330
39F
100
AcDbEntity
  8
0
 62
     7
370
     9
100
AcDbVertex
100
AcDb2dVertex
 10
228.3071668266038
 20
155.6433851064885
 30
0.0
  0
VERTEX
  5
3AF
330
39F
100
AcDbEntity
  8
0
 62
     7
370
     9
100
AcDbVertex
100
AcDb2dVertex
 10
228.2306857068312
 20
156.074194296919
 30
0.0
  0
VERTEX
  5
3B0
330
39F
100
AcDbEntity
  8
0
 62
     7
370
     9
100
AcDbVertex
100
AcDb2dVertex
 10
228.2051920002404
 20
156.4845051692122
 30
0.0
  0
SEQEND
  5
3B1
330
39F
100
AcDbEntity
  8
0
370
     9
  0
ENDBLK
  5
39E
330
39B
100
AcDbEntity
  8
0
100
AcDbBlockEnd
  0
BLOCK
  5
3B4
330
3B2
100
AcDbEntity
  8
0
100
AcDbBlockBegin
  2
block 106
 70
     0
 71
     0
 10
0.0
 20
0.0
 30
0.0
  3
block 106
  1

  0
POLYLINE
  5
3B6
330
3B2
100
AcDbEntity
  8
0
 62
     7
370
     9
100
AcDb2dPolyline
 66
     1
 10
0.0
 20
0.0
 30
0.0
  0
VERTEX
  5
3B7
330
3B6
100
AcDbEntity
  8
0
 62
     7
370
     9
100
AcDbVertex
100
AcDb2dVertex
 10
64.74901935230233
 20
63.22645940259616
 30
0.0
  0
VERTEX
  5
3B8
330
3B6
100
AcDbEntity
  8
0
 62
     7
370
     9
100
AcDbVertex
100
AcDb2dVertex
 10
64.66892088227027
 20
63.17788355625414
 30
0.0
  0
VERTEX
  5
3B9
330
3B6
100
AcDbEntity
  8
0
 62
     7
370
     9
100
AcDbVertex
100
AcDb2dVertex
 10
64.45463594308774
 20
62.9911593809536
 30
0.0
  0
VERTEX
  5
3BA
330
3B6
100
AcDbEntity
  8
0
 62
     7
370
     9
100
AcDbVertex
100
AcDb2dVertex
 10
64.28272567837377
 20
62.74655760150086
 30
0.0
  0
VERTEX
  5
3BB
330
3B6
100
AcDbEntity
  8
0
 62
     7
370
     9
100
AcDbVertex
100
AcDb2dVertex
 10
64.15697969316214
 20
62.44959037067233
 30
0.0
  0
VERTEX
  5
3BC
330
3B6
100
AcDbEntity
  8
0
 62
     7
370
     9
100
AcDbVertex
100
AcDb2dVertex
 10
64.0804985733896
 20
62.10645886034144
 30
0.0
  0
VERTEX
  5
3BD
330
3B6
100
AcDbEntity
  8
0
 62
     7
370
     9
100
AcDbVertex
100
AcDb2dVertex
 10
64.05483261202448
 20
61.72543129967281
 30
0.0
  0
VERTEX
  5
3BE
330
3B6
100
AcDbEntity
  8
0
 62
     7
370
     9
100
AcDbVertex
100
AcDb2dVertex
 10
64.0804985733896
 20
61.31477591783103
 30
0.0
  0
VERTEX
  5
3BF
330
3B6
100
AcDbEntity
  8
0
 62
     7
370
     9
100
AcDbVertex
100
AcDb2dVertex
 10
64.15697969316214
 20
60.88344996307775
 30
0.0
  0
VERTEX
  5
3C0
330
3B6
100
AcDbEntity
  8
0
 62
     7
370
     9
100
AcDbVertex
100
AcDb2dVertex
 10
64.28272567837377
 20
60.44109970277167
 30
0.0
  0
VERTEX
  5
3C1
330
3B6
100
AcDbEntity
  8
0
 62
     7
370
     9
100
AcDbVertex
100
AcDb2dVertex
 10
64.45463594308774
 20
59.99806042336854
 30
0.0
  0
VERTEX
  5
3C2
330
3B6
100
AcDbEntity
  8
0
 62
     7
370
     9
100
AcDbVertex
100
AcDb2dVertex
 10
64.66892088227027
 20
59.56397839222706
 30
0.0
  0
VERTEX
  5
3C3
330
3B6
100
AcDbEntity
  8
0
 62
     7
370
     9
100
AcDbVertex
100
AcDb2dVertex
 10
64.92110187179055
 20
59.14849987670593
 30
0.0
  0
VERTEX
  5
3C4
330
3B6
100
AcDbEntity
  8
0
 62
     7
370
     9
100
AcDbVertex
100
AcDb2dVertex
 10
65.20514999454942
 20
58.7605821250668
 30
0.0
  0
VERTEX
  5
3C5
330
3B6
100
AcDbEntity
  8
0
 62
     7
370
     9
100
AcDbVertex
100
AcDb2dVertex
 10
65.51486407867337
 20
58.40952689511985
 30
0.0
  0
VERTEX
  5
3C6
330
3B6
100
AcDbEntity
  8
0
 62
     7
370
     9
100
AcDbVertex
100
AcDb2dVertex
 10
65.8435261879662
 20
58.10291339693261
 30
0.0
  0
VERTEX
  5
3C7
330
3B6
100
AcDbEntity
  8
0
 62
     7
370
     9
100
AcDbVertex
100
AcDb2dVertex
 10
66.18355711236036
 20
57.84728731192707
 30
0.0
  0
VERTEX
  5
3C8
330
3B6
100
AcDbEntity
  8
0
 62
     7
370
     9
100
AcDbVertex
100
AcDb2dVertex
 10
66.52737764178829
 20
57.64884981197668
 30
0.0
  0
VERTEX
  5
3C9
330
3B6
100
AcDbEntity
  8
0
 62
     7
370
     9
100
AcDbVertex
100
AcDb2dVertex
 10
66.86740856618246
 20
57.51173501166374
 30
0.0
  0
VERTEX
  5
3CA
330
3B6
100
AcDbEntity
  8
0
 62
     7
370
     9
100
AcDbVertex
100
AcDb2dVertex
 10
67.19589842070103
 20
57.43904349692497
 30
0.0
  0
VERTEX
  5
3CB
330
3B6
100
AcDbEntity
  8
0
 62
     7
370
     9
100
AcDbVertex
100
AcDb2dVertex
 10
67.505612504825
 20
57.43249781550299
 30
0.0
  0
VERTEX
  5
3CC
330
3B6
100
AcDbEntity
  8
0
 62
     7
370
     9
100
AcDbVertex
100
AcDb2dVertex
 10
67.7898328823581
 20
57.49244247694634
 30
0.0
  0
VERTEX
  5
3CD
330
3B6
100
AcDbEntity
  8
0
 62
     7
370
     9
100
AcDbVertex
100
AcDb2dVertex
 10
68.00205076424949
 20
57.591316717373
 30
0.0
  0
SEQEND
  5
3CE
330
3B6
100
AcDbEntity
  8
0
370
     9
  0
ENDBLK
  5
3B5
330
3B2
100
AcDbEntity
  8
0
100
AcDbBlockEnd
  0
BLOCK
  5
3D1
330
3CF
100
AcDbEntity
  8
0
100
AcDbBlockBegin
  2
block 107
 70
     0
 71
     0
 10
0.0
 20
0.0
 30
0.0
  3
block 107
  1

  0
POLYLINE
  5
3D3
330
3CF
100
AcDbEntity
  8
0
 62
     7
370
     9
100
AcDb2dPolyline
 66
     1
 10
0.0
 20
0.0
 30
0.0
  0
VERTEX
  5
3D4
330
3D3
100
AcDbEntity
  8
0
 62
     7
370
     9
100
AcDbVertex
100
AcDb2dVertex
 10
64.89216306971446
 20
63.30500757965986
 30
0.0
  0
VERTEX
  5
3D5
330
3D3
100
AcDbEntity
  8
0
 62
     7
370
     9
100
AcDbVertex
100
AcDb2dVertex
 10
64.81223685445667
 20
63.25643173331784
 30
0.0
  0
VERTEX
  5
3D6
330
3D3
100
AcDbEntity
  8
0
 62
     7
370
     9
100
AcDbVertex
100
AcDb2dVertex
 10
64.5981241700484
 20
63.07005206756583
 30
0.0
  0
VERTEX
  5
3D7
330
3D3
100
AcDbEntity
  8
0
 62
     7
370
     9
100
AcDbVertex
100
AcDb2dVertex
 10
64.42638616010868
 20
62.82579479766161
 30
0.0
  0
VERTEX
  5
3D8
330
3D3
100
AcDbEntity
  8
0
 62
     7
370
     9
100
AcDbVertex
100
AcDb2dVertex
 10
64.30081242967132
 20
62.52882756683307
 30
0.0
  0
VERTEX
  5
3D9
330
3D3
100
AcDbEntity
  8
0
 62
     7
370
     9
100
AcDbVertex
100
AcDb2dVertex
 10
64.22433130989879
 20
62.18638507559924
 30
0.0
  0
VERTEX
  5
3DA
330
3D3
100
AcDbEntity
  8
0
 62
     7
370
     9
100
AcDbVertex
100
AcDb2dVertex
 10
64.19866534853367
 20
61.80570202447913
 30
0.0
  0
VERTEX
  5
3DB
330
3D3
100
AcDbEntity
  8
0
 62
     7
370
     9
100
AcDbVertex
100
AcDb2dVertex
 10
64.22433130989879
 20
61.39539115218588
 30
0.0
  0
VERTEX
  5
3DC
330
3D3
100
AcDbEntity
  8
0
 62
     7
370
     9
100
AcDbVertex
100
AcDb2dVertex
 10
64.30081242967132
 20
60.96440970698112
 30
0.0
  0
VERTEX
  5
3DD
330
3D3
100
AcDbEntity
  8
0
 62
     7
370
     9
100
AcDbVertex
100
AcDb2dVertex
 10
64.42638616010868
 20
60.5227484657721
 30
0.0
  0
VERTEX
  5
3DE
330
3D3
100
AcDbEntity
  8
0
 62
     7
370
     9
100
AcDbVertex
100
AcDb2dVertex
 10
64.5981241700484
 20
60.08005369591749
 30
0.0
  0
VERTEX
  5
3DF
330
3D3
100
AcDbEntity
  8
0
 62
     7
370
     9
100
AcDbVertex
100
AcDb2dVertex
 10
64.81223685445667
 20
59.64631617432453
 30
0.0
  0
VERTEX
  5
3E0
330
3D3
100
AcDbEntity
  8
0
 62
     7
370
     9
100
AcDbVertex
100
AcDb2dVertex
 10
65.06390107965417
 20
59.23118216835193
 30
0.0
  0
VERTEX
  5
3E1
330
3D3
100
AcDbEntity
  8
0
 62
     7
370
     9
100
AcDbVertex
100
AcDb2dVertex
 10
65.34777694763875
 20
58.84395343580984
 30
0.0
  0
VERTEX
  5
3E2
330
3D3
100
AcDbEntity
  8
0
 62
     7
370
     9
100
AcDbVertex
100
AcDb2dVertex
 10
65.65731877698845
 20
58.49324271541141
 30
0.0
  0
VERTEX
  5
3E3
330
3D3
100
AcDbEntity
  8
0
 62
     7
370
     9
100
AcDbVertex
100
AcDb2dVertex
 10
65.9854641219585
 20
58.18697372677271
 30
0.0
  0
VERTEX
  5
3E4
330
3D3
100
AcDbEntity
  8
0
 62
     7
370
     9
100
AcDbVertex
100
AcDb2dVertex
 10
66.32515053680413
 20
57.93169215131569
 30
0.0
  0
VERTEX
  5
3E5
330
3D3
100
AcDbEntity
  8
0
 62
     7
370
     9
100
AcDbVertex
100
AcDb2dVertex
 10
66.66862655668353
 20
57.73359916091383
 30
0.0
  0
VERTEX
  5
3E6
330
3D3
100
AcDbEntity
  8
0
 62
     7
370
     9
100
AcDbVertex
100
AcDb2dVertex
 10
67.00814071675491
 20
57.59648436060088
 30
0.0
  0
VERTEX
  5
3E7
330
3D3
100
AcDbEntity
  8
0
 62
     7
370
     9
100
AcDbVertex
100
AcDb2dVertex
 10
67.33645831649922
 20
57.52413735541064
 30
0.0
  0
VERTEX
  5
3E8
330
3D3
100
AcDbEntity
  8
0
 62
     7
370
     9
100
AcDbVertex
100
AcDb2dVertex
 10
67.64582789107466
 20
57.51759167398866
 30
0.0
  0
VERTEX
  5
3E9
330
3D3
100
AcDbEntity
  8
0
 62
     7
370
     9
100
AcDbVertex
100
AcDb2dVertex
 10
67.92970375905924
 20
57.57719182588348
 30
0.0
  0
VERTEX
  5
3EA
330
3D3
100
AcDbEntity
  8
0
 62
     7
370
     9
100
AcDbVertex
100
AcDb2dVertex
 10
68.14157713140212
 20
57.67606606631016
 30
0.0
  0
SEQEND
  5
3EB
330
3D3
100
AcDbEntity
  8
0
370
     9
  0
ENDBLK
  5
3D2
330
3CF
100
AcDbEntity
  8
0
100
AcDbBlockEnd
  0
BLOCK
  5
3EE
330
3EC
100
AcDbEntity
  8
0
100
AcDbBlockBegin
  2
block 108
 70
     0
 71
     0
 10
0.0
 20
0.0
 30
0.0
  3
block 108
  1

  0
POLYLINE
  5
3F0
330
3EC
100
AcDbEntity
  8
0
 62
     7
370
     9
100
AcDb2dPolyline
 66
     1
 10
0.0
 20
0.0
 30
0.0
  0
VERTEX
  5
3F1
330
3F0
100
AcDbEntity
  8
0
 62
     7
370
     9
100
AcDbVertex
100
AcDb2dVertex
 10
64.28599851908476
 20
62.75241426382579
 30
0.0
  0
VERTEX
  5
3F2
330
3F0
100
AcDbEntity
  8
0
 62
     7
370
     9
100
AcDbVertex
100
AcDb2dVertex
 10
64.23966198480814
 20
62.67421059631062
 30
0.0
  0
VERTEX
  5
3F3
330
3F0
100
AcDbEntity
  8
0
 62
     7
370
     9
100
AcDbVertex
100
AcDb2dVertex
 10
64.11563854733915
 20
62.38137748006438
 30
0.0
  0
VERTEX
  5
3F4
330
3F0
100
AcDbEntity
  8
0
 62
     7
370
     9
100
AcDbVertex
100
AcDb2dVertex
 10
64.04019095621217
 20
62.04272459386432
 30
0.0
  0
VERTEX
  5
3F5
330
3F0
100
AcDbEntity
  8
0
 62
     7
370
     9
100
AcDbVertex
100
AcDb2dVertex
 10
64.01486950439559
 20
61.66686467642356
 30
0.0
  0
VERTEX
  5
3F6
330
3F0
100
AcDbEntity
  8
0
 62
     7
370
     9
100
AcDbVertex
100
AcDb2dVertex
 10
64.04019095621217
 20
61.26172144735818
 30
0.0
  0
VERTEX
  5
3F7
330
3F0
100
AcDbEntity
  8
0
 62
     7
370
     9
100
AcDbVertex
100
AcDb2dVertex
 10
64.11563854733915
 20
60.8359076453813
 30
0.0
  0
VERTEX
  5
3F8
330
3F0
100
AcDbEntity
  8
0
 62
     7
370
     9
100
AcDbVertex
100
AcDb2dVertex
 10
64.23966198480814
 20
60.39975855694868
 30
0.0
  0
VERTEX
  5
3F9
330
3F0
100
AcDbEntity
  8
0
 62
     7
370
     9
100
AcDbVertex
100
AcDb2dVertex
 10
64.4093329374567
 20
59.96257593987047
 30
0.0
  0
VERTEX
  5
3FA
330
3F0
100
AcDbEntity
  8
0
 62
     7
370
     9
100
AcDbVertex
100
AcDb2dVertex
 10
64.62086180025103
 20
59.53435057105391
 30
0.0
  0
VERTEX
  5
3FB
330
3F0
100
AcDbEntity
  8
0
 62
     7
370
     9
100
AcDbVertex
100
AcDb2dVertex
 10
64.86942543951182
 20
59.12438420830919
 30
0.0
  0
VERTEX
  5
3FC
330
3F0
100
AcDbEntity
  8
0
 62
     7
370
     9
100
AcDbVertex
100
AcDb2dVertex
 10
65.14985621201114
 20
58.74163409989793
 30
0.0
  0
VERTEX
  5
3FD
330
3F0
100
AcDbEntity
  8
0
 62
     7
370
     9
100
AcDbVertex
100
AcDb2dVertex
 10
65.45543618155281
 20
58.39540200363032
 30
0.0
  0
VERTEX
  5
3FE
330
3F0
100
AcDbEntity
  8
0
 62
     7
370
     9
100
AcDbVertex
100
AcDb2dVertex
 10
65.77961966671482
 20
58.09257811047686
 30
0.0
  0
VERTEX
  5
3FF
330
3F0
100
AcDbEntity
  8
0
 62
     7
370
     9
100
AcDbVertex
100
AcDb2dVertex
 10
66.1149997122039
 20
57.84074163050509
 30
0.0
  0
VERTEX
  5
400
330
3F0
100
AcDbEntity
  8
0
 62
     7
370
     9
100
AcDbVertex
100
AcDb2dVertex
 10
66.454341617501
 20
57.64471569739438
 30
0.0
  0
VERTEX
  5
401
330
3F0
100
AcDbEntity
  8
0
 62
     7
370
     9
100
AcDbVertex
100
AcDb2dVertex
 10
66.78972166299008
 20
57.50966795437259
 30
0.0
  0
VERTEX
  5
402
330
3F0
100
AcDbEntity
  8
0
 62
     7
370
     9
100
AcDbVertex
100
AcDb2dVertex
 10
67.11390514815209
 20
57.43800996827939
 30
0.0
  0
VERTEX
  5
403
330
3F0
100
AcDbEntity
  8
0
 62
     7
370
     9
100
AcDbVertex
100
AcDb2dVertex
 10
67.36005722057318
 20
57.42733017227511
 30
0.0
  0
SEQEND
  5
404
330
3F0
100
AcDbEntity
  8
0
370
     9
  0
ENDBLK
  5
3EF
330
3EC
100
AcDbEntity
  8
0
100
AcDbBlockEnd
  0
BLOCK
  5
407
330
405
100
AcDbEntity
  8
0
100
AcDbBlockBegin
  2
block 109
 70
     0
 71
     0
 10
0.0
 20
0.0
 30
0.0
  3
block 109
  1

  0
POLYLINE
  5
409
330
405
100
AcDbEntity
  8
0
 62
     7
370
     9
100
AcDb2dPolyline
 66
     1
 10
0.0
 20
0.0
 30
0.0
  0
VERTEX
  5
40A
330
409
100
AcDbEntity
  8
0
 62
     7
370
     9
100
AcDbVertex
100
AcDb2dVertex
 10
63.98661972141655
 20
61.68305662520424
 30
0.0
  0
VERTEX
  5
40B
330
409
100
AcDbEntity
  8
0
 62
     7
370
     9
100
AcDbVertex
100
AcDb2dVertex
 10
64.01228568278165
 20
62.06373967632435
 30
0.0
  0
VERTEX
  5
40C
330
409
100
AcDbEntity
  8
0
 62
     7
370
     9
100
AcDbVertex
100
AcDb2dVertex
 10
64.0887668025542
 20
62.4065266771067
 30
0.0
  0
VERTEX
  5
40D
330
409
100
AcDbEntity
  8
0
 62
     7
370
     9
100
AcDbVertex
100
AcDb2dVertex
 10
64.2141682782173
 20
62.70314939838671
 30
0.0
  0
VERTEX
  5
40E
330
409
100
AcDbEntity
  8
0
 62
     7
370
     9
100
AcDbVertex
100
AcDb2dVertex
 10
64.385906288157
 20
62.94740666829093
 30
0.0
  0
VERTEX
  5
40F
330
409
100
AcDbEntity
  8
0
 62
     7
370
     9
100
AcDbVertex
100
AcDb2dVertex
 10
64.60001897256528
 20
63.13413084359147
 30
0.0
  0
VERTEX
  5
410
330
409
100
AcDbEntity
  8
0
 62
     7
370
     9
100
AcDbVertex
100
AcDb2dVertex
 10
64.63980982541992
 20
63.1592800406338
 30
0.0
  0
SEQEND
  5
411
330
409
100
AcDbEntity
  8
0
370
     9
  0
ENDBLK
  5
408
330
405
100
AcDbEntity
  8
0
100
AcDbBlockEnd
  0
BLOCK
  5
414
330
412
100
AcDbEntity
  8
0
100
AcDbBlockBegin
  2
block 110
 70
     0
 71
     0
 10
0.0
 20
0.0
 30
0.0
  3
block 110
  1

  0
POLYLINE
  5
416
330
412
100
AcDbEntity
  8
0
 62
     7
370
     9
100
AcDb2dPolyline
 66
     1
 10
0.0
 20
0.0
 30
0.0
  0
VERTEX
  5
417
330
416
100
AcDbEntity
  8
0
 62
     7
370
     9
100
AcDbVertex
100
AcDb2dVertex
 10
67.88939614188182
 20
57.53033852728409
 30
0.0
  0
VERTEX
  5
418
330
416
100
AcDbEntity
  8
0
 62
     7
370
     9
100
AcDbVertex
100
AcDb2dVertex
 10
67.71748587716786
 20
57.45454642660859
 30
0.0
  0
VERTEX
  5
419
330
416
100
AcDbEntity
  8
0
 62
     7
370
     9
100
AcDbVertex
100
AcDb2dVertex
 10
67.43378226395753
 20
57.39494627471377
 30
0.0
  0
VERTEX
  5
41A
330
416
100
AcDbEntity
  8
0
 62
     7
370
     9
100
AcDbVertex
100
AcDb2dVertex
 10
67.12424043460783
 20
57.40149195613574
 30
0.0
  0
VERTEX
  5
41B
330
416
100
AcDbEntity
  8
0
 62
     7
370
     9
100
AcDbVertex
100
AcDb2dVertex
 10
66.79609508963779
 20
57.47418347087451
 30
0.0
  0
VERTEX
  5
41C
330
416
100
AcDbEntity
  8
0
 62
     7
370
     9
100
AcDbVertex
100
AcDb2dVertex
 10
66.45640867479216
 20
57.61095376163893
 30
0.0
  0
VERTEX
  5
41D
330
416
100
AcDbEntity
  8
0
 62
     7
370
     9
100
AcDbVertex
100
AcDb2dVertex
 10
66.11293265491274
 20
57.80939126158932
 30
0.0
  0
VERTEX
  5
41E
330
416
100
AcDbEntity
  8
0
 62
     7
370
     9
100
AcDbVertex
100
AcDb2dVertex
 10
65.77324624006711
 20
58.06432832749781
 30
0.0
  0
VERTEX
  5
41F
330
416
100
AcDbEntity
  8
0
 62
     7
370
     9
100
AcDbVertex
100
AcDb2dVertex
 10
65.44510089509706
 20
58.37094182568504
 30
0.0
  0
VERTEX
  5
420
330
416
100
AcDbEntity
  8
0
 62
     7
370
     9
100
AcDbVertex
100
AcDb2dVertex
 10
65.13555906574736
 20
58.72165254608348
 30
0.0
  0
VERTEX
  5
421
330
416
100
AcDbEntity
  8
0
 62
     7
370
     9
100
AcDbVertex
100
AcDb2dVertex
 10
64.85185545253704
 20
59.10888127862556
 30
0.0
  0
VERTEX
  5
422
330
416
100
AcDbEntity
  8
0
 62
     7
370
     9
100
AcDbVertex
100
AcDb2dVertex
 10
64.60001897256528
 20
59.52401528459816
 30
0.0
  0
VERTEX
  5
423
330
416
100
AcDbEntity
  8
0
 62
     7
370
     9
100
AcDbVertex
100
AcDb2dVertex
 10
64.385906288157
 20
59.95775280619112
 30
0.0
  0
VERTEX
  5
424
330
416
100
AcDbEntity
  8
0
 62
     7
370
     9
100
AcDbVertex
100
AcDb2dVertex
 10
64.2141682782173
 20
60.40044757604572
 30
0.0
  0
VERTEX
  5
425
330
416
100
AcDbEntity
  8
0
 62
     7
370
     9
100
AcDbVertex
100
AcDb2dVertex
 10
64.0887668025542
 20
60.84210881725475
 30
0.0
  0
VERTEX
  5
426
330
416
100
AcDbEntity
  8
0
 62
     7
370
     9
100
AcDbVertex
100
AcDb2dVertex
 10
64.01228568278165
 20
61.27274575291099
 30
0.0
  0
VERTEX
  5
427
330
416
100
AcDbEntity
  8
0
 62
     7
370
     9
100
AcDbVertex
100
AcDb2dVertex
 10
63.98661972141655
 20
61.68305662520424
 30
0.0
  0
SEQEND
  5
428
330
416
100
AcDbEntity
  8
0
370
     9
  0
ENDBLK
  5
415
330
412
100
AcDbEntity
  8
0
100
AcDbBlockEnd
  0
BLOCK
  5
42B
330
429
100
AcDbEntity
  8
0
100
AcDbBlockBegin
  2
block 111
 70
     0
 71
     0
 10
0.0
 20
0.0
 30
0.0
  3
block 111
  1

  0
POLYLINE
  5
42D
330
429
100
AcDbEntity
  8
0
 62
     7
370
     9
100
AcDb2dPolyline
 66
     1
 10
0.0
 20
0.0
 30
0.0
  0
VERTEX
  5
42E
330
42D
100
AcDbEntity
  8
0
 62
     7
370
     9
100
AcDbVertex
100
AcDb2dVertex
 10
64.12511255992358
 20
62.84749889921869
 30
0.0
  0
VERTEX
  5
42F
330
42D
100
AcDbEntity
  8
0
 62
     7
370
     9
100
AcDbVertex
100
AcDb2dVertex
 10
64.08549396184321
 20
62.82200519262783
 30
0.0
  0
VERTEX
  5
430
330
42D
100
AcDbEntity
  8
0
 62
     7
370
     9
100
AcDbVertex
100
AcDb2dVertex
 10
63.87224255130625
 20
62.63631454597287
 30
0.0
  0
VERTEX
  5
431
330
42D
100
AcDbEntity
  8
0
 62
     7
370
     9
100
AcDbVertex
100
AcDb2dVertex
 10
63.70119356046359
 20
62.39309080471423
 30
0.0
  0
VERTEX
  5
432
330
42D
100
AcDbEntity
  8
0
 62
     7
370
     9
100
AcDbVertex
100
AcDb2dVertex
 10
63.57613659434902
 20
62.0975016120798
 30
0.0
  0
VERTEX
  5
433
330
42D
100
AcDbEntity
  8
0
 62
     7
370
     9
100
AcDbVertex
100
AcDb2dVertex
 10
63.499999984125
 20
61.75609264949153
 30
0.0
  0
VERTEX
  5
434
330
42D
100
AcDbEntity
  8
0
 62
     7
370
     9
100
AcDbVertex
100
AcDb2dVertex
 10
63.47450627753415
 20
61.37713214611405
 30
0.0
  0
VERTEX
  5
435
330
42D
100
AcDbEntity
  8
0
 62
     7
370
     9
100
AcDbVertex
100
AcDb2dVertex
 10
63.499999984125
 20
60.9681993120149
 30
0.0
  0
VERTEX
  5
436
330
42D
100
AcDbEntity
  8
0
 62
     7
370
     9
100
AcDbVertex
100
AcDb2dVertex
 10
63.57613659434902
 20
60.5392849241013
 30
0.0
  0
VERTEX
  5
437
330
42D
100
AcDbEntity
  8
0
 62
     7
370
     9
100
AcDbVertex
100
AcDb2dVertex
 10
63.70119356046359
 20
60.09934623063489
 30
0.0
  0
VERTEX
  5
438
330
42D
100
AcDbEntity
  8
0
 62
     7
370
     9
100
AcDbVertex
100
AcDb2dVertex
 10
63.87224255130625
 20
59.65837400852291
 30
0.0
  0
VERTEX
  5
439
330
42D
100
AcDbEntity
  8
0
 62
     7
370
     9
100
AcDbVertex
100
AcDb2dVertex
 10
64.08549396184321
 20
59.22635903467258
 30
0.0
  0
VERTEX
  5
43A
330
42D
100
AcDbEntity
  8
0
 62
     7
370
     9
100
AcDbVertex
100
AcDb2dVertex
 10
64.3362969131694
 20
58.8129475764426
 30
0.0
  0
VERTEX
  5
43B
330
42D
100
AcDbEntity
  8
0
 62
     7
370
     9
100
AcDbVertex
100
AcDb2dVertex
 10
64.61896699773415
 20
58.42709688209462
 30
0.0
  0
VERTEX
  5
43C
330
42D
100
AcDbEntity
  8
0
 62
     7
370
     9
100
AcDbVertex
100
AcDb2dVertex
 10
64.92713078888974
 20
58.07776419989028
 30
0.0
  0
VERTEX
  5
43D
330
42D
100
AcDbEntity
  8
0
 62
     7
370
     9
100
AcDbVertex
100
AcDb2dVertex
 10
65.25407035043996
 20
57.77252873989715
 30
0.0
  0
VERTEX
  5
43E
330
42D
100
AcDbEntity
  8
0
 62
     7
370
     9
100
AcDbVertex
100
AcDb2dVertex
 10
65.59237872709149
 20
57.51862520263423
 30
0.0
  0
VERTEX
  5
43F
330
42D
100
AcDbEntity
  8
0
 62
     7
370
     9
100
AcDbVertex
100
AcDb2dVertex
 10
65.9344767087768
 20
57.32087672178089
 30
0.0
  0
VERTEX
  5
440
330
42D
100
AcDbEntity
  8
0
 62
     7
370
     9
100
AcDbVertex
100
AcDb2dVertex
 10
66.27278508542834
 20
57.184450940565
 30
0.0
  0
VERTEX
  5
441
330
42D
100
AcDbEntity
  8
0
 62
     7
370
     9
100
AcDbVertex
100
AcDb2dVertex
 10
66.59972464697854
 20
57.11244844492328
 30
0.0
  0
VERTEX
  5
442
330
42D
100
AcDbEntity
  8
0
 62
     7
370
     9
100
AcDbVertex
100
AcDb2dVertex
 10
66.90788843813414
 20
57.10590276350131
 30
0.0
  0
VERTEX
  5
443
330
42D
100
AcDbEntity
  8
0
 62
     7
370
     9
100
AcDbVertex
100
AcDb2dVertex
 10
67.1905585226989
 20
57.1651584058476
 30
0.0
  0
VERTEX
  5
444
330
42D
100
AcDbEntity
  8
0
 62
     7
370
     9
100
AcDbVertex
100
AcDb2dVertex
 10
67.36177976831581
 20
57.24060599697457
 30
0.0
  0
SEQEND
  5
445
330
42D
100
AcDbEntity
  8
0
370
     9
  0
ENDBLK
  5
42C
330
429
100
AcDbEntity
  8
0
100
AcDbBlockEnd
  0
BLOCK
  5
448
330
446
100
AcDbEntity
  8
0
100
AcDbBlockBegin
  2
block 112
 70
     0
 71
     0
 10
0.0
 20
0.0
 30
0.0
  3
block 112
  1

  0
SPLINE
  5
44A
330
446
100
AcDbEntity
  8
0
 62
     7
370
     9
100
AcDbSpline
210
0.0
220
0.0
230
1.0
 70
     8
 71
     3
 72
     8
 73
     4
 74
     0
 42
0.0000000001
 43
0.0000000001
 40
0.0
 40
0.0
 40
0.0
 40
0.0
 40
1.0
 40
1.0
 40
1.0
 40
1.0
 10
63.47450627753415
 20
61.24415146038341
 30
0.0
 10
63.53927407265685
 20
59.70901691215608
 30
0.0
 10
64.35111082375597
 20
58.3027289350771
 30
0.0
 10
65.64801701917828
 20
57.47900660455386
 30
0.0
  0
ENDBLK
  5
449
330
446
100
AcDbEntity
  8
0
100
AcDbBlockEnd
  0
BLOCK
  5
44D
330
44B
100
AcDbEntity
  8
0
100
AcDbBlockBegin
  2
block 113
 70
     0
 71
     0
 10
0.0
 20
0.0
 30
0.0
  3
block 113
  1

  0
POLYLINE
  5
44F
330
44B
100
AcDbEntity
  8
0
 62
     7
370
     9
100
AcDb2dPolyline
 66
     1
 10
0.0
 20
0.0
 30
0.0
  0
VERTEX
  5
450
330
44F
100
AcDbEntity
  8
0
 62
     7
370
     9
100
AcDbVertex
100
AcDb2dVertex
 10
62.07665878439403
 20
59.44374455979185
 30
0.0
  0
VERTEX
  5
451
330
44F
100
AcDbEntity
  8
0
 62
     7
370
     9
100
AcDbVertex
100
AcDb2dVertex
 10
62.18035615850005
 20
59.05307073176451
 30
0.0
  0
VERTEX
  5
452
330
44F
100
AcDbEntity
  8
0
 62
     7
370
     9
100
AcDbVertex
100
AcDb2dVertex
 10
62.32901202868858
 20
58.66032984644603
 30
0.0
  0
VERTEX
  5
453
330
44F
100
AcDbEntity
  8
0
 62
     7
370
     9
100
AcDbVertex
100
AcDb2dVertex
 10
62.51900904470011
 20
58.27551268074362
 30
0.0
  0
VERTEX
  5
454
330
44F
100
AcDbEntity
  8
0
 62
     7
370
     9
100
AcDbVertex
100
AcDb2dVertex
 10
62.74517956330676
 20
57.90929903066156
 30
0.0
  0
VERTEX
  5
455
330
44F
100
AcDbEntity
  8
0
 62
     7
370
     9
100
AcDbVertex
100
AcDb2dVertex
 10
63.00149466740935
 20
57.57099065401003
 30
0.0
  0
VERTEX
  5
456
330
44F
100
AcDbEntity
  8
0
 62
     7
370
     9
100
AcDbVertex
100
AcDb2dVertex
 10
63.28123642081164
 20
57.2698893085992
 30
0.0
  0
VERTEX
  5
457
330
44F
100
AcDbEntity
  8
0
 62
     7
370
     9
100
AcDbVertex
100
AcDb2dVertex
 10
63.57682561344608
 20
57.01391871404513
 30
0.0
  0
VERTEX
  5
458
330
44F
100
AcDbEntity
  8
0
 62
     7
370
     9
100
AcDbVertex
100
AcDb2dVertex
 10
63.88051078047085
 20
56.80996906131834
 30
0.0
  0
VERTEX
  5
459
330
44F
100
AcDbEntity
  8
0
 62
     7
370
     9
100
AcDbVertex
100
AcDb2dVertex
 10
64.18419594749562
 20
56.66355250319523
 30
0.0
  0
VERTEX
  5
45A
330
44F
100
AcDbEntity
  8
0
 62
     7
370
     9
100
AcDbVertex
100
AcDb2dVertex
 10
64.47978514013006
 20
56.57811413516103
 30
0.0
  0
VERTEX
  5
45B
330
44F
100
AcDbEntity
  8
0
 62
     7
370
     9
100
AcDbVertex
100
AcDb2dVertex
 10
64.75952689353234
 20
56.55606552405543
 30
0.0
  0
VERTEX
  5
45C
330
44F
100
AcDbEntity
  8
0
 62
     7
370
     9
100
AcDbVertex
100
AcDb2dVertex
 10
65.01584199763494
 20
56.598440198524
 30
0.0
  0
VERTEX
  5
45D
330
44F
100
AcDbEntity
  8
0
 62
     7
370
     9
100
AcDbVertex
100
AcDb2dVertex
 10
65.18568520505775
 20
56.6700981846172
 30
0.0
  0
SEQEND
  5
45E
330
44F
100
AcDbEntity
  8
0
370
     9
  0
ENDBLK
  5
44E
330
44B
100
AcDbEntity
  8
0
100
AcDbBlockEnd
  0
BLOCK
  5
461
330
45F
100
AcDbEntity
  8
0
100
AcDbBlockBegin
  2
block 114
 70
     0
 71
     0
 10
0.0
 20
0.0
 30
0.0
  3
block 114
  1

  0
SPLINE
  5
463
330
45F
100
AcDbEntity
  8
0
 62
     7
370
     9
100
AcDbSpline
210
0.0
220
0.0
230
1.0
 70
     8
 71
     3
 72
    11
 73
     7
 74
     0
 42
0.0000000001
 43
0.0000000001
 40
0.0
 40
0.0
 40
0.0
 40
0.0
 40
1.0
 40
1.0
 40
1.0
 40
2.0
 40
2.0
 40
2.0
 40
2.0
 10
62.24426267975144
 20
60.34256997189352
 30
0.0
 10
62.24357366065438
 20
60.3394693859568
 30
0.0
 10
62.24271238678308
 20
60.33636880002008
 30
0.0
 10
62.24202336768602
 20
60.33326821408335
 30
0.0
 10
62.23685572445815
 20
60.3132866602689
 30
0.0
 10
62.23134357168175
 20
60.29227157780888
 30
0.0
 10
62.22600367367961
 20
60.27125649534886
 30
0.0
  0
ENDBLK
  5
462
330
45F
100
AcDbEntity
  8
0
100
AcDbBlockEnd
  0
BLOCK
  5
466
330
464
100
AcDbEntity
  8
0
100
AcDbBlockBegin
  2
block 115
 70
     0
 71
     0
 10
0.0
 20
0.0
 30
0.0
  3
block 115
  1

  0
POLYLINE
  5
468
330
464
100
AcDbEntity
  8
0
 62
     7
370
     9
100
AcDb2dPolyline
 66
     1
 10
0.0
 20
0.0
 30
0.0
  0
VERTEX
  5
469
330
468
100
AcDbEntity
  8
0
 62
     7
370
     9
100
AcDbVertex
100
AcDb2dVertex
 10
62.07665878439403
 20
59.44374455979185
 30
0.0
  0
VERTEX
  5
46A
330
468
100
AcDbEntity
  8
0
 62
     7
370
     9
100
AcDbVertex
100
AcDb2dVertex
 10
62.07476398187715
 20
59.45304631760202
 30
0.0
  0
SEQEND
  5
46B
330
468
100
AcDbEntity
  8
0
370
     9
  0
ENDBLK
  5
467
330
464
100
AcDbEntity
  8
0
100
AcDbBlockEnd
  0
BLOCK
  5
46E
330
46C
100
AcDbEntity
  8
0
100
AcDbBlockBegin
  2
block 116
 70
     0
 71
     0
 10
0.0
 20
0.0
 30
0.0
  3
block 116
  1

  0
SPLINE
  5
470
330
46C
100
AcDbEntity
  8
0
 62
     7
370
     9
100
AcDbSpline
210
0.0
220
0.0
230
1.0
 70
     8
 71
     3
 72
    17
 73
    13
 74
     0
 42
0.0000000001
 43
0.0000000001
 40
0.0
 40
0.0
 40
0.0
 40
0.0
 40
1.0
 40
1.0
 40
1.0
 40
2.0
 40
2.0
 40
2.0
 40
3.0
 40
3.0
 40
3.0
 40
4.0
 40
4.0
 40
4.0
 40
4.0
 10
62.07476398187715
 20
59.45304631760202
 30
0.0
 10
62.072696924586
 20
59.47130532367385
 30
0.0
 10
62.07080212206911
 20
59.48956432974567
 30
0.0
 10
62.07321368890878
 20
59.50610078807487
 30
0.0
 10
62.07562525574846
 20
59.52298175595259
 30
0.0
 10
62.08234319194469
 20
59.53848468563621
 30
0.0
 10
62.09112818543208
 20
59.55295408667426
 30
0.0
 10
62.09991317891947
 20
59.56742348771231
 30
0.0
 10
62.11093748447227
 20
59.58120386965332
 30
0.0
 10
62.12661266893016
 20
59.58912758926939
 30
0.0
 10
62.12971325486688
 20
59.59085013701201
 30
0.0
 10
62.13298609557787
 20
59.59222817520611
 30
0.0
 10
62.13625893628885
 20
59.59360621340021
 30
0.0
  0
ENDBLK
  5
46F
330
46C
100
AcDbEntity
  8
0
100
AcDbBlockEnd
  0
BLOCK
  5
473
330
471
100
AcDbEntity
  8
0
100
AcDbBlockBegin
  2
block 117
 70
     0
 71
     0
 10
0.0
 20
0.0
 30
0.0
  3
block 117
  1

  0
SPLINE
  5
475
330
471
100
AcDbEntity
  8
0
 62
     7
370
     9
100
AcDbSpline
210
0.0
220
0.0
230
1.0
 70
     8
 71
     3
 72
     8
 73
     4
 74
     0
 42
0.0000000001
 43
0.0000000001
 40
0.0
 40
0.0
 40
0.0
 40
0.0
 40
1.0
 40
1.0
 40
1.0
 40
1.0
 10
62.07665878439403
 20
59.3245442560022
 30
0.0
 10
62.27888588937819
 20
58.35027125277355
 30
0.0
 10
62.85266654244656
 20
57.49313149604339
 30
0.0
 10
63.67656112774406
 20
56.93502602743291
 30
0.0
  0
ENDBLK
  5
474
330
471
100
AcDbEntity
  8
0
100
AcDbBlockEnd
  0
BLOCK
  5
478
330
476
100
AcDbEntity
  8
0
100
AcDbBlockBegin
  2
block 118
 70
     0
 71
     0
 10
0.0
 20
0.0
 30
0.0
  3
block 118
  1

  0
POLYLINE
  5
47A
330
476
100
AcDbEntity
  8
0
 62
     7
370
     9
100
AcDb2dPolyline
 66
     1
 10
0.0
 20
0.0
 30
0.0
  0
VERTEX
  5
47B
330
47A
100
AcDbEntity
  8
0
 62
     7
370
     9
100
AcDbVertex
100
AcDb2dVertex
 10
62.07579751052272
 20
59.32902288013302
 30
0.0
  0
VERTEX
  5
47C
330
47A
100
AcDbEntity
  8
0
 62
     7
370
     9
100
AcDbVertex
100
AcDb2dVertex
 10
62.07665878439403
 20
59.3245442560022
 30
0.0
  0
SEQEND
  5
47D
330
47A
100
AcDbEntity
  8
0
370
     9
  0
ENDBLK
  5
479
330
476
100
AcDbEntity
  8
0
100
AcDbBlockEnd
  0
BLOCK
  5
480
330
47E
100
AcDbEntity
  8
0
100
AcDbBlockBegin
  2
block 119
 70
     0
 71
     0
 10
0.0
 20
0.0
 30
0.0
  3
block 119
  1

  0
SPLINE
  5
482
330
47E
100
AcDbEntity
  8
0
 62
     7
370
     9
100
AcDbSpline
210
0.0
220
0.0
230
1.0
 70
     8
 71
     3
 72
    11
 73
     7
 74
     0
 42
0.0000000001
 43
0.0000000001
 40
0.0
 40
0.0
 40
0.0
 40
0.0
 40
1.0
 40
1.0
 40
1.0
 40
2.0
 40
2.0
 40
2.0
 40
2.0
 10
62.07476398187715
 20
59.45304631760202
 30
0.0
 10
62.07545300097419
 20
59.43582084017577
 30
0.0
 10
62.07614202007125
 20
59.41859536274952
 30
0.0
 10
62.07648652961977
 20
59.40309243306589
 30
0.0
 10
62.07717554871682
 20
59.3741536309898
 30
0.0
 10
62.07648652961977
 20
59.35141600078715
 30
0.0
 10
62.07579751052272
 20
59.32902288013302
 30
0.0
  0
ENDBLK
  5
481
330
47E
100
AcDbEntity
  8
0
100
AcDbBlockEnd
  0
BLOCK
  5
485
330
483
100
AcDbEntity
  8
0
100
AcDbBlockBegin
  2
block 120
 70
     0
 71
     0
 10
0.0
 20
0.0
 30
0.0
  3
block 120
  1

  0
SPLINE
  5
487
330
483
100
AcDbEntity
  8
0
 62
     7
370
     9
100
AcDbSpline
210
0.0
220
0.0
230
1.0
 70
     8
 71
     3
 72
    20
 73
    16
 74
     0
 42
0.0000000001
 43
0.0000000001
 40
0.0
 40
0.0
 40
0.0
 40
0.0
 40
1.0
 40
1.0
 40
1.0
 40
2.0
 40
2.0
 40
2.0
 40
3.0
 40
3.0
 40
3.0
 40
4.0
 40
4.0
 40
4.0
 40
5.0
 40
5.0
 40
5.0
 40
5.0
 10
62.24426267975144
 20
60.34256997189352
 30
0.0
 10
62.22066377567747
 20
60.35118271060665
 30
0.0
 10
62.1989596741204
 20
60.36220701615945
 30
0.0
 10
62.17880586553169
 20
60.37564288855192
 30
0.0
 10
62.15951333081429
 20
60.38804523229882
 30
0.0
 10
62.14177108906525
 20
60.4028591428854
 30
0.0
 10
62.12661266893016
 20
60.41905109166607
 30
0.0
 10
62.11231552266637
 20
60.43420951180117
 30
0.0
 10
62.10042994324225
 20
60.45074597013037
 30
0.0
 10
62.09112818543208
 20
60.46797144755662
 30
0.0
 10
62.08199868239617
 20
60.48485241543435
 30
0.0
 10
62.07545300097419
 20
60.50242240240912
 30
0.0
 10
62.07321368890878
 20
60.51930337028684
 30
0.0
 10
62.07097437684337
 20
60.53618433816457
 30
0.0
 10
62.07286917936026
 20
60.55237628694524
 30
0.0
 10
62.07476398187715
 20
60.56856823572592
 30
0.0
  0
ENDBLK
  5
486
330
483
100
AcDbEntity
  8
0
100
AcDbBlockEnd
  0
BLOCK
  5
48A
330
488
100
AcDbEntity
  8
0
100
AcDbBlockBegin
  2
block 121
 70
     0
 71
     0
 10
0.0
 20
0.0
 30
0.0
  3
block 121
  1

  0
POLYLINE
  5
48C
330
488
100
AcDbEntity
  8
0
 62
     7
370
     9
100
AcDb2dPolyline
 66
     1
 10
0.0
 20
0.0
 30
0.0
  0
VERTEX
  5
48D
330
48C
100
AcDbEntity
  8
0
 62
     7
370
     9
100
AcDbVertex
100
AcDb2dVertex
 10
62.07476398187715
 20
60.56856823572592
 30
0.0
  0
VERTEX
  5
48E
330
48C
100
AcDbEntity
  8
0
 62
     7
370
     9
100
AcDbVertex
100
AcDb2dVertex
 10
62.07665878439403
 20
60.57614744579347
 30
0.0
  0
SEQEND
  5
48F
330
48C
100
AcDbEntity
  8
0
370
     9
  0
ENDBLK
  5
48B
330
488
100
AcDbEntity
  8
0
100
AcDbBlockEnd
  0
BLOCK
  5
492
330
490
100
AcDbEntity
  8
0
100
AcDbBlockBegin
  2
block 122
 70
     0
 71
     0
 10
0.0
 20
0.0
 30
0.0
  3
block 122
  1

  0
SPLINE
  5
494
330
490
100
AcDbEntity
  8
0
 62
     7
370
     9
100
AcDbSpline
210
0.0
220
0.0
230
1.0
 70
     8
 71
     3
 72
     8
 73
     4
 74
     0
 42
0.0000000001
 43
0.0000000001
 40
0.0
 40
0.0
 40
0.0
 40
0.0
 40
1.0
 40
1.0
 40
1.0
 40
1.0
 10
62.54260794877408
 20
61.24828557496571
 30
0.0
 10
62.30420734119478
 20
61.09497882587209
 30
0.0
 10
62.13643119106312
 20
60.85313312280756
 30
0.0
 10
62.07665878439403
 20
60.57614744579347
 30
0.0
  0
ENDBLK
  5
493
330
490
100
AcDbEntity
  8
0
100
AcDbBlockEnd
  0
BLOCK
  5
497
330
495
100
AcDbEntity
  8
0
100
AcDbBlockBegin
  2
block 123
 70
     0
 71
     0
 10
0.0
 20
0.0
 30
0.0
  3
block 123
  1

  0
SPLINE
  5
499
330
495
100
AcDbEntity
  8
0
 62
     7
370
     9
100
AcDbSpline
210
0.0
220
0.0
230
1.0
 70
     8
 71
     3
 72
    20
 73
    16
 74
     0
 42
0.0000000001
 43
0.0000000001
 40
0.0
 40
0.0
 40
0.0
 40
0.0
 40
1.0
 40
1.0
 40
1.0
 40
2.0
 40
2.0
 40
2.0
 40
3.0
 40
3.0
 40
3.0
 40
4.0
 40
4.0
 40
4.0
 40
5.0
 40
5.0
 40
5.0
 40
5.0
 10
62.07579751052272
 20
60.3656521116447
 30
0.0
 10
62.07390270800583
 20
60.35221623925223
 30
0.0
 10
62.07183565071468
 20
60.33878036685975
 30
0.0
 10
62.0740749627801
 20
60.32672253266138
 30
0.0
 10
62.07631427484551
 20
60.31500920801153
 30
0.0
 10
62.08268770149322
 20
60.30432941200726
 30
0.0
 10
62.09164494975487
 20
60.29606118284266
 30
0.0
 10
62.10077445279078
 20
60.287103934581
 30
0.0
 10
62.11248777744063
 20
60.28055825315903
 30
0.0
 10
62.12626815938163
 20
60.27573511947968
 30
0.0
 10
62.14125432474247
 20
60.27056747625181
 30
0.0
 10
62.15865205694298
 20
60.26815590941213
 30
0.0
 10
62.17725557256333
 20
60.2678113998636
 30
0.0
 10
62.19241399269843
 20
60.26746689031508
 30
0.0
 10
62.20826143193057
 20
60.26850041896066
 30
0.0
 10
62.22462563548552
 20
60.27091198580033
 30
0.0
  0
ENDBLK
  5
498
330
495
100
AcDbEntity
  8
0
100
AcDbBlockEnd
  0
BLOCK
  5
49C
330
49A
100
AcDbEntity
  8
0
100
AcDbBlockBegin
  2
block 124
 70
     0
 71
     0
 10
0.0
 20
0.0
 30
0.0
  3
block 124
  1

  0
POLYLINE
  5
49E
330
49A
100
AcDbEntity
  8
0
 62
     7
370
     9
100
AcDb2dPolyline
 66
     1
 10
0.0
 20
0.0
 30
0.0
  0
VERTEX
  5
49F
330
49E
100
AcDbEntity
  8
0
 62
     7
370
     9
100
AcDbVertex
100
AcDb2dVertex
 10
231.5986110532115
 20
157.1873046482032
 30
0.0
  0
VERTEX
  5
4A0
330
49E
100
AcDbEntity
  8
0
 62
     7
370
     9
100
AcDbVertex
100
AcDb2dVertex
 10
231.5975775245659
 20
157.1916110175598
 30
0.0
  0
SEQEND
  5
4A1
330
49E
100
AcDbEntity
  8
0
370
     9
  0
ENDBLK
  5
49D
330
49A
100
AcDbEntity
  8
0
100
AcDbBlockEnd
  0
BLOCK
  5
4A4
330
4A2
100
AcDbEntity
  8
0
100
AcDbBlockBegin
  2
block 125
 70
     0
 71
     0
 10
0.0
 20
0.0
 30
0.0
  3
block 125
  1

  0
POLYLINE
  5
4A6
330
4A2
100
AcDbEntity
  8
0
 62
     7
370
     9
100
AcDb2dPolyline
 66
     1
 10
0.0
 20
0.0
 30
0.0
  0
VERTEX
  5
4A7
330
4A6
100
AcDbEntity
  8
0
 62
     7
370
     9
100
AcDbVertex
100
AcDb2dVertex
 10
231.5986110532115
 20
157.1873046482032
 30
0.0
  0
VERTEX
  5
4A8
330
4A6
100
AcDbEntity
  8
0
 62
     7
370
     9
100
AcDbVertex
100
AcDb2dVertex
 10
231.7019639177689
 20
156.8031765015978
 30
0.0
  0
VERTEX
  5
4A9
330
4A6
100
AcDbEntity
  8
0
 62
     7
370
     9
100
AcDbVertex
100
AcDb2dVertex
 10
231.8525145904744
 20
156.4173258072499
 30
0.0
  0
VERTEX
  5
4AA
330
4A6
100
AcDbEntity
  8
0
 62
     7
370
     9
100
AcDbVertex
100
AcDb2dVertex
 10
232.0454399376484
 20
156.0414658898091
 30
0.0
  0
VERTEX
  5
4AB
330
4A6
100
AcDbEntity
  8
0
 62
     7
370
     9
100
AcDbVertex
100
AcDb2dVertex
 10
232.2752278065146
 20
155.6871378191511
 30
0.0
  0
VERTEX
  5
4AC
330
4A6
100
AcDbEntity
  8
0
 62
     7
370
     9
100
AcDbVertex
100
AcDb2dVertex
 10
232.5346434965539
 20
155.364849136506
 30
0.0
  0
VERTEX
  5
4AD
330
4A6
100
AcDbEntity
  8
0
 62
     7
370
     9
100
AcDbVertex
100
AcDb2dVertex
 10
232.8161077976987
 20
155.0844183640067
 30
0.0
  0
VERTEX
  5
4AE
330
4A6
100
AcDbEntity
  8
0
 62
     7
370
     9
100
AcDbVertex
100
AcDb2dVertex
 10
233.1110079712361
 20
154.854285985592
 30
0.0
  0
VERTEX
  5
4AF
330
4A6
100
AcDbEntity
  8
0
 62
     7
370
     9
100
AcDbVertex
100
AcDb2dVertex
 10
233.4107312784529
 20
154.6815144470067
 30
0.0
  0
VERTEX
  5
4B0
330
4A6
100
AcDbEntity
  8
0
 62
     7
370
     9
100
AcDbVertex
100
AcDb2dVertex
 10
233.7056314519903
 20
154.5710991367044
 30
0.0
  0
VERTEX
  5
4B1
330
4A6
100
AcDbEntity
  8
0
 62
     7
370
     9
100
AcDbVertex
100
AcDb2dVertex
 10
233.9870957531352
 20
154.5264851501705
 30
0.0
  0
VERTEX
  5
4B2
330
4A6
100
AcDbEntity
  8
0
 62
     7
370
     9
100
AcDbVertex
100
AcDb2dVertex
 10
234.2465114431745
 20
154.5490505255989
 30
0.0
  0
VERTEX
  5
4B3
330
4A6
100
AcDbEntity
  8
0
 62
     7
370
     9
100
AcDbVertex
100
AcDb2dVertex
 10
234.4762993120407
 20
154.6382784986668
 30
0.0
  0
VERTEX
  5
4B4
330
4A6
100
AcDbEntity
  8
0
 62
     7
370
     9
100
AcDbVertex
100
AcDb2dVertex
 10
234.6692246592146
 20
154.7910684834377
 30
0.0
  0
VERTEX
  5
4B5
330
4A6
100
AcDbEntity
  8
0
 62
     7
370
     9
100
AcDbVertex
100
AcDb2dVertex
 10
234.8197753319201
 20
155.0031141105548
 30
0.0
  0
VERTEX
  5
4B6
330
4A6
100
AcDbEntity
  8
0
 62
     7
370
     9
100
AcDbVertex
100
AcDb2dVertex
 10
234.9231281964776
 20
155.2680419533705
 30
0.0
  0
SEQEND
  5
4B7
330
4A6
100
AcDbEntity
  8
0
370
     9
  0
ENDBLK
  5
4A5
330
4A2
100
AcDbEntity
  8
0
100
AcDbBlockEnd
  0
BLOCK
  5
4BA
330
4B8
100
AcDbEntity
  8
0
100
AcDbBlockBegin
  2
block 126
 70
     0
 71
     0
 10
0.0
 20
0.0
 30
0.0
  3
block 126
  1

  0
POLYLINE
  5
4BC
330
4B8
100
AcDbEntity
  8
0
 62
     7
370
     9
100
AcDb2dPolyline
 66
     1
 10
0.0
 20
0.0
 30
0.0
  0
VERTEX
  5
4BD
330
4BC
100
AcDbEntity
  8
0
 62
     7
370
     9
100
AcDbVertex
100
AcDb2dVertex
 10
234.9241617251231
 20
155.2711425393072
 30
0.0
  0
VERTEX
  5
4BE
330
4BC
100
AcDbEntity
  8
0
 62
     7
370
     9
100
AcDbVertex
100
AcDb2dVertex
 10
234.9231281964776
 20
155.2680419533705
 30
0.0
  0
SEQEND
  5
4BF
330
4BC
100
AcDbEntity
  8
0
370
     9
  0
ENDBLK
  5
4BB
330
4B8
100
AcDbEntity
  8
0
100
AcDbBlockEnd
  0
BLOCK
  5
4C2
330
4C0
100
AcDbEntity
  8
0
100
AcDbBlockBegin
  2
block 127
 70
     0
 71
     0
 10
0.0
 20
0.0
 30
0.0
  3
block 127
  1

  0
SPLINE
  5
4C4
330
4C0
100
AcDbEntity
  8
0
 62
     7
370
     9
100
AcDbSpline
210
0.0
220
0.0
230
1.0
 70
     8
 71
     3
 72
    11
 73
     7
 74
     0
 42
0.0000000001
 43
0.0000000001
 40
0.0
 40
0.0
 40
0.0
 40
0.0
 40
1.0
 40
1.0
 40
1.0
 40
2.0
 40
2.0
 40
2.0
 40
2.0
 10
234.9251952537687
 20
155.068226415226
 30
0.0
 10
234.9245062346717
 20
155.0894137524603
 30
0.0
 10
234.9238172155746
 20
155.1104288349203
 30
0.0
 10
234.9234727060261
 20
155.1329942103487
 30
0.0
 10
234.922783686929
 20
155.1755411395915
 30
0.0
 10
234.9234727060261
 20
155.2232557120622
 30
0.0
 10
234.9241617251231
 20
155.2711425393072
 30
0.0
  0
ENDBLK
  5
4C3
330
4C0
100
AcDbEntity
  8
0
100
AcDbBlockEnd
  0
BLOCK
  5
4C7
330
4C5
100
AcDbEntity
  8
0
100
AcDbBlockBegin
  2
block 128
 70
     0
 71
     0
 10
0.0
 20
0.0
 30
0.0
  3
block 128
  1

  0
POLYLINE
  5
4C9
330
4C5
100
AcDbEntity
  8
0
 62
     7
370
     9
100
AcDb2dPolyline
 66
     1
 10
0.0
 20
0.0
 30
0.0
  0
VERTEX
  5
4CA
330
4C9
100
AcDbEntity
  8
0
 62
     7
370
     9
100
AcDbVertex
100
AcDb2dVertex
 10
234.9234727060261
 20
155.0608194599327
 30
0.0
  0
VERTEX
  5
4CB
330
4C9
100
AcDbEntity
  8
0
 62
     7
370
     9
100
AcDbVertex
100
AcDb2dVertex
 10
234.9251952537687
 20
155.068226415226
 30
0.0
  0
SEQEND
  5
4CC
330
4C9
100
AcDbEntity
  8
0
370
     9
  0
ENDBLK
  5
4C8
330
4C5
100
AcDbEntity
  8
0
100
AcDbBlockEnd
  0
BLOCK
  5
4CF
330
4CD
100
AcDbEntity
  8
0
100
AcDbBlockBegin
  2
block 129
 70
     0
 71
     0
 10
0.0
 20
0.0
 30
0.0
  3
block 129
  1

  0
POLYLINE
  5
4D1
330
4CD
100
AcDbEntity
  8
0
 62
     7
370
     9
100
AcDb2dPolyline
 66
     1
 10
0.0
 20
0.0
 30
0.0
  0
VERTEX
  5
4D2
330
4D1
100
AcDbEntity
  8
0
 62
     7
370
     9
100
AcDbVertex
100
AcDb2dVertex
 10
234.9234727060261
 20
155.0608194599327
 30
0.0
  0
VERTEX
  5
4D3
330
4D1
100
AcDbEntity
  8
0
 62
     7
370
     9
100
AcDbVertex
100
AcDb2dVertex
 10
234.8197753319201
 20
154.7896904452436
 30
0.0
  0
VERTEX
  5
4D4
330
4D1
100
AcDbEntity
  8
0
 62
     7
370
     9
100
AcDbVertex
100
AcDb2dVertex
 10
234.6709472069573
 20
154.5685153150905
 30
0.0
  0
VERTEX
  5
4D5
330
4D1
100
AcDbEntity
  8
0
 62
     7
370
     9
100
AcDbVertex
100
AcDb2dVertex
 10
234.4807779361715
 20
154.4031507317985
 30
0.0
  0
VERTEX
  5
4D6
330
4D1
100
AcDbEntity
  8
0
 62
     7
370
     9
100
AcDbVertex
100
AcDb2dVertex
 10
234.2547796723391
 20
154.2980753194984
 30
0.0
  0
VERTEX
  5
4D7
330
4D1
100
AcDbEntity
  8
0
 62
     7
370
     9
100
AcDbVertex
100
AcDb2dVertex
 10
233.9984645682365
 20
154.2558728998041
 30
0.0
  0
VERTEX
  5
4D8
330
4D1
100
AcDbEntity
  8
0
 62
     7
370
     9
100
AcDbVertex
100
AcDb2dVertex
 10
233.7187228148342
 20
154.2775770013612
 30
0.0
  0
VERTEX
  5
4D9
330
4D1
100
AcDbEntity
  8
0
 62
     7
370
     9
100
AcDbVertex
100
AcDb2dVertex
 10
233.4231336221998
 20
154.3630153693954
 30
0.0
  0
VERTEX
  5
4DA
330
4D1
100
AcDbEntity
  8
0
 62
     7
370
     9
100
AcDbVertex
100
AcDb2dVertex
 10
233.1196207099493
 20
154.509776437067
 30
0.0
  0
VERTEX
  5
4DB
330
4D1
100
AcDbEntity
  8
0
 62
     7
370
     9
100
AcDbVertex
100
AcDb2dVertex
 10
232.8157632881502
 20
154.7137260897938
 30
0.0
  0
VERTEX
  5
4DC
330
4D1
100
AcDbEntity
  8
0
 62
     7
370
     9
100
AcDbVertex
100
AcDb2dVertex
 10
232.5201740955158
 20
154.9695244295736
 30
0.0
  0
VERTEX
  5
4DD
330
4D1
100
AcDbEntity
  8
0
 62
     7
370
     9
100
AcDbVertex
100
AcDb2dVertex
 10
232.2404323421135
 20
155.2706257749844
 30
0.0
  0
VERTEX
  5
4DE
330
4D1
100
AcDbEntity
  8
0
 62
     7
370
     9
100
AcDbVertex
100
AcDb2dVertex
 10
231.9841172380109
 20
155.6087618968617
 30
0.0
  0
VERTEX
  5
4DF
330
4D1
100
AcDbEntity
  8
0
 62
     7
370
     9
100
AcDbVertex
100
AcDb2dVertex
 10
231.7581189741785
 20
155.975147801718
 30
0.0
  0
VERTEX
  5
4E0
330
4D1
100
AcDbEntity
  8
0
 62
     7
370
     9
100
AcDbVertex
100
AcDb2dVertex
 10
231.5679497033927
 20
156.3597927126462
 30
0.0
  0
VERTEX
  5
4E1
330
4D1
100
AcDbEntity
  8
0
 62
     7
370
     9
100
AcDbVertex
100
AcDb2dVertex
 10
231.41912157843
 20
156.7527058527389
 30
0.0
  0
VERTEX
  5
4E2
330
4D1
100
AcDbEntity
  8
0
 62
     7
370
     9
100
AcDbVertex
100
AcDb2dVertex
 10
231.3157687138724
 20
157.1433796807663
 30
0.0
  0
SEQEND
  5
4E3
330
4D1
100
AcDbEntity
  8
0
370
     9
  0
ENDBLK
  5
4D0
330
4CD
100
AcDbEntity
  8
0
100
AcDbBlockEnd
  0
BLOCK
  5
4E6
330
4E4
100
AcDbEntity
  8
0
100
AcDbBlockBegin
  2
block 130
 70
     0
 71
     0
 10
0.0
 20
0.0
 30
0.0
  3
block 130
  1

  0
POLYLINE
  5
4E8
330
4E4
100
AcDbEntity
  8
0
 62
     7
370
     9
100
AcDb2dPolyline
 66
     1
 10
0.0
 20
0.0
 30
0.0
  0
VERTEX
  5
4E9
330
4E8
100
AcDbEntity
  8
0
 62
     7
370
     9
100
AcDbVertex
100
AcDb2dVertex
 10
231.3140461661298
 20
157.1530259481249
 30
0.0
  0
VERTEX
  5
4EA
330
4E8
100
AcDbEntity
  8
0
 62
     7
370
     9
100
AcDbVertex
100
AcDb2dVertex
 10
231.3157687138724
 20
157.1433796807663
 30
0.0
  0
SEQEND
  5
4EB
330
4E8
100
AcDbEntity
  8
0
370
     9
  0
ENDBLK
  5
4E7
330
4E4
100
AcDbEntity
  8
0
100
AcDbBlockEnd
  0
BLOCK
  5
4EE
330
4EC
100
AcDbEntity
  8
0
100
AcDbBlockBegin
  2
block 131
 70
     0
 71
     0
 10
0.0
 20
0.0
 30
0.0
  3
block 131
  1

  0
SPLINE
  5
4F0
330
4EC
100
AcDbEntity
  8
0
 62
     7
370
     9
100
AcDbSpline
210
0.0
220
0.0
230
1.0
 70
     8
 71
     3
 72
    14
 73
    10
 74
     0
 42
0.0000000001
 43
0.0000000001
 40
0.0
 40
0.0
 40
0.0
 40
0.0
 40
1.0
 40
1.0
 40
1.0
 40
2.0
 40
2.0
 40
2.0
 40
3.0
 40
3.0
 40
3.0
 40
3.0
 10
231.5975775245659
 20
157.1916110175598
 30
0.0
 10
231.5762179325573
 20
157.1866156291061
 30
0.0
 10
231.5552028500973
 20
157.1816202406525
 30
0.0
 10
231.5338432580888
 20
157.177313871296
 30
0.0
 10
231.4942246600084
 20
157.1690456421314
 30
0.0
 10
231.453917042831
 20
157.1630167250322
 30
0.0
 10
231.413264916105
 20
157.1592271199984
 30
0.0
 10
231.3801919994466
 20
157.1561265340617
 30
0.0
 10
231.3471190827882
 20
157.1545762410933
 30
0.0
 10
231.3140461661298
 20
157.1530259481249
 30
0.0
  0
ENDBLK
  5
4EF
330
4EC
100
AcDbEntity
  8
0
100
AcDbBlockEnd
  0
BLOCK
  5
4F3
330
4F1
100
AcDbEntity
  8
0
100
AcDbBlockBegin
  2
block 132
 70
     0
 71
     0
 10
0.0
 20
0.0
 30
0.0
  3
block 132
  1

  0
POLYLINE
  5
4F5
330
4F1
100
AcDbEntity
  8
0
 62
     7
370
     9
100
AcDb2dPolyline
 66
     1
 10
0.0
 20
0.0
 30
0.0
  0
VERTEX
  5
4F6
330
4F5
100
AcDbEntity
  8
0
 62
     7
370
     9
100
AcDbVertex
100
AcDb2dVertex
 10
229.5088161318589
 20
156.177891671025
 30
0.0
  0
VERTEX
  5
4F7
330
4F5
100
AcDbEntity
  8
0
 62
     7
370
     9
100
AcDbVertex
100
AcDb2dVertex
 10
229.6101019391253
 20
155.7758490278963
 30
0.0
  0
VERTEX
  5
4F8
330
4F5
100
AcDbEntity
  8
0
 62
     7
370
     9
100
AcDbVertex
100
AcDb2dVertex
 10
229.7592745736366
 20
155.3701890345081
 30
0.0
  0
VERTEX
  5
4F9
330
4F5
100
AcDbEntity
  8
0
 62
     7
370
     9
100
AcDbVertex
100
AcDb2dVertex
 10
229.951855411262
 20
154.9721082511875
 30
0.0
  0
VERTEX
  5
4FA
330
4F5
100
AcDbEntity
  8
0
 62
     7
370
     9
100
AcDbVertex
100
AcDb2dVertex
 10
230.1830213183223
 20
154.592458728713
 30
0.0
  0
VERTEX
  5
4FB
330
4F5
100
AcDbEntity
  8
0
 62
     7
370
     9
100
AcDbVertex
100
AcDb2dVertex
 10
230.4458821038469
 20
154.2417480083146
 30
0.0
  0
VERTEX
  5
4FC
330
4F5
100
AcDbEntity
  8
0
 62
     7
370
     9
100
AcDbVertex
100
AcDb2dVertex
 10
230.7335475768652
 20
153.9296223573509
 30
0.0
  0
VERTEX
  5
4FD
330
4F5
100
AcDbEntity
  8
0
 62
     7
370
     9
100
AcDbVertex
100
AcDb2dVertex
 10
231.0384385273098
 20
153.6643500049867
 30
0.0
  0
VERTEX
  5
4FE
330
4F5
100
AcDbEntity
  8
0
 62
     7
370
     9
100
AcDbVertex
100
AcDb2dVertex
 10
231.3515977069191
 20
153.4535101612894
 30
0.0
  0
VERTEX
  5
4FF
330
4F5
100
AcDbEntity
  8
0
 62
     7
370
     9
100
AcDbVertex
100
AcDb2dVertex
 10
231.6651013960768
 20
153.3026149790355
 30
0.0
  0
VERTEX
  5
500
330
4F5
100
AcDbEntity
  8
0
 62
     7
370
     9
100
AcDbVertex
100
AcDb2dVertex
 10
231.9696478369729
 20
153.2161430823557
 30
0.0
  0
VERTEX
  5
501
330
4F5
100
AcDbEntity
  8
0
 62
     7
370
     9
100
AcDbVertex
100
AcDb2dVertex
 10
232.2576578195398
 20
153.195989273767
 30
0.0
  0
VERTEX
  5
502
330
4F5
100
AcDbEntity
  8
0
 62
     7
370
     9
100
AcDbVertex
100
AcDb2dVertex
 10
232.5205186050643
 20
153.2430148271407
 30
0.0
  0
VERTEX
  5
503
330
4F5
100
AcDbEntity
  8
0
 62
     7
370
     9
100
AcDbVertex
100
AcDb2dVertex
 10
232.7117214044957
 20
153.3301757429175
 30
0.0
  0
SEQEND
  5
504
330
4F5
100
AcDbEntity
  8
0
370
     9
  0
ENDBLK
  5
4F4
330
4F1
100
AcDbEntity
  8
0
100
AcDbBlockEnd
  0
BLOCK
  5
507
330
505
100
AcDbEntity
  8
0
100
AcDbBlockBegin
  2
block 133
 70
     0
 71
     0
 10
0.0
 20
0.0
 30
0.0
  3
block 133
  1

  0
SPLINE
  5
509
330
505
100
AcDbEntity
  8
0
 62
     7
370
     9
100
AcDbSpline
210
0.0
220
0.0
230
1.0
 70
     8
 71
     3
 72
    11
 73
     7
 74
     0
 42
0.0000000001
 43
0.0000000001
 40
0.0
 40
0.0
 40
0.0
 40
0.0
 40
1.0
 40
1.0
 40
1.0
 40
2.0
 40
2.0
 40
2.0
 40
2.0
 10
231.3157687138724
 20
157.1433796807663
 30
0.0
 10
231.0126003111705
 20
156.9812879381852
 30
0.0
 10
230.7094319084685
 20
156.81902394083
 30
0.0
 10
230.4062635057665
 20
156.6571044530232
 30
0.0
 10
230.1068847080983
 20
156.4972520225076
 30
0.0
 10
229.8078504199786
 20
156.3375718467663
 30
0.0
 10
229.5088161318589
 20
156.177891671025
 30
0.0
  0
ENDBLK
  5
508
330
505
100
AcDbEntity
  8
0
100
AcDbBlockEnd
  0
BLOCK
  5
50C
330
50A
100
AcDbEntity
  8
0
100
AcDbBlockBegin
  2
block 134
 70
     0
 71
     0
 10
0.0
 20
0.0
 30
0.0
  3
block 134
  1

  0
POLYLINE
  5
50E
330
50A
100
AcDbEntity
  8
0
 62
     7
370
     9
100
AcDb2dPolyline
 66
     1
 10
0.0
 20
0.0
 30
0.0
  0
VERTEX
  5
50F
330
50E
100
AcDbEntity
  8
0
 62
     7
370
     9
100
AcDbVertex
100
AcDb2dVertex
 10
231.5986110532115
 20
158.2316853445567
 30
0.0
  0
VERTEX
  5
510
330
50E
100
AcDbEntity
  8
0
 62
     7
370
     9
100
AcDbVertex
100
AcDb2dVertex
 10
231.7453721208831
 20
158.0811346718513
 30
0.0
  0
VERTEX
  5
511
330
50E
100
AcDbEntity
  8
0
 62
     7
370
     9
100
AcDbVertex
100
AcDb2dVertex
 10
231.8642279151242
 20
157.8935492226794
 30
0.0
  0
VERTEX
  5
512
330
50E
100
AcDbEntity
  8
0
 62
     7
370
     9
100
AcDbVertex
100
AcDb2dVertex
 10
231.9417425635424
 20
157.6904608438239
 30
0.0
  0
VERTEX
  5
513
330
50E
100
AcDbEntity
  8
0
 62
     7
370
     9
100
AcDbVertex
100
AcDb2dVertex
 10
231.9686143083273
 20
157.4958129489073
 30
0.0
  0
VERTEX
  5
514
330
50E
100
AcDbEntity
  8
0
 62
     7
370
     9
100
AcDbVertex
100
AcDb2dVertex
 10
231.9417425635424
 20
157.3321709133579
 30
0.0
  0
VERTEX
  5
515
330
50E
100
AcDbEntity
  8
0
 62
     7
370
     9
100
AcDbVertex
100
AcDb2dVertex
 10
231.8642279151242
 20
157.2186550171189
 30
0.0
  0
VERTEX
  5
516
330
50E
100
AcDbEntity
  8
0
 62
     7
370
     9
100
AcDbVertex
100
AcDb2dVertex
 10
231.7453721208831
 20
157.1683566230343
 30
0.0
  0
VERTEX
  5
517
330
50E
100
AcDbEntity
  8
0
 62
     7
370
     9
100
AcDbVertex
100
AcDb2dVertex
 10
231.5986110532115
 20
157.1873046482032
 30
0.0
  0
SEQEND
  5
518
330
50E
100
AcDbEntity
  8
0
370
     9
  0
ENDBLK
  5
50D
330
50A
100
AcDbEntity
  8
0
100
AcDbBlockEnd
  0
BLOCK
  5
51B
330
519
100
AcDbEntity
  8
0
100
AcDbBlockBegin
  2
block 135
 70
     0
 71
     0
 10
0.0
 20
0.0
 30
0.0
  3
block 135
  1

  0
POLYLINE
  5
51D
330
519
100
AcDbEntity
  8
0
 62
     7
370
     9
100
AcDb2dPolyline
 66
     1
 10
0.0
 20
0.0
 30
0.0
  0
VERTEX
  5
51E
330
51D
100
AcDbEntity
  8
0
 62
     7
370
     9
100
AcDbVertex
100
AcDb2dVertex
 10
234.9231281964776
 20
156.3122503949497
 30
0.0
  0
VERTEX
  5
51F
330
51D
100
AcDbEntity
  8
0
 62
     7
370
     9
100
AcDbVertex
100
AcDb2dVertex
 10
234.9048691904057
 20
156.3963107247898
 30
0.0
  0
SEQEND
  5
520
330
51D
100
AcDbEntity
  8
0
370
     9
  0
ENDBLK
  5
51C
330
519
100
AcDbEntity
  8
0
100
AcDbBlockEnd
  0
BLOCK
  5
523
330
521
100
AcDbEntity
  8
0
100
AcDbBlockBegin
  2
block 136
 70
     0
 71
     0
 10
0.0
 20
0.0
 30
0.0
  3
block 136
  1

  0
POLYLINE
  5
525
330
521
100
AcDbEntity
  8
0
 62
     7
370
     9
100
AcDb2dPolyline
 66
     1
 10
0.0
 20
0.0
 30
0.0
  0
VERTEX
  5
526
330
525
100
AcDbEntity
  8
0
 62
     7
370
     9
100
AcDbVertex
100
AcDb2dVertex
 10
234.7663763518987
 20
156.8476182333575
 30
0.0
  0
VERTEX
  5
527
330
525
100
AcDbEntity
  8
0
 62
     7
370
     9
100
AcDbVertex
100
AcDb2dVertex
 10
234.6692246592146
 20
157.0824014906773
 30
0.0
  0
VERTEX
  5
528
330
525
100
AcDbEntity
  8
0
 62
     7
370
     9
100
AcDbVertex
100
AcDb2dVertex
 10
234.4762993120407
 20
157.4580891533438
 30
0.0
  0
VERTEX
  5
529
330
525
100
AcDbEntity
  8
0
 62
     7
370
     9
100
AcDbVertex
100
AcDb2dVertex
 10
234.2465114431745
 20
157.8124172240018
 30
0.0
  0
VERTEX
  5
52A
330
525
100
AcDbEntity
  8
0
 62
     7
370
     9
100
AcDbVertex
100
AcDb2dVertex
 10
233.9870957531352
 20
158.1347059066469
 30
0.0
  0
VERTEX
  5
52B
330
525
100
AcDbEntity
  8
0
 62
     7
370
     9
100
AcDbVertex
100
AcDb2dVertex
 10
233.7056314519903
 20
158.4151366791462
 30
0.0
  0
VERTEX
  5
52C
330
525
100
AcDbEntity
  8
0
 62
     7
370
     9
100
AcDbVertex
100
AcDb2dVertex
 10
233.4107312784529
 20
158.6452690575609
 30
0.0
  0
VERTEX
  5
52D
330
525
100
AcDbEntity
  8
0
 62
     7
370
     9
100
AcDbVertex
100
AcDb2dVertex
 10
233.1110079712361
 20
158.8182128509204
 30
0.0
  0
VERTEX
  5
52E
330
525
100
AcDbEntity
  8
0
 62
     7
370
     9
100
AcDbVertex
100
AcDb2dVertex
 10
232.8161077976987
 20
158.9284559064484
 30
0.0
  0
VERTEX
  5
52F
330
525
100
AcDbEntity
  8
0
 62
     7
370
     9
100
AcDbVertex
100
AcDb2dVertex
 10
232.5346434965539
 20
158.9730698929824
 30
0.0
  0
VERTEX
  5
530
330
525
100
AcDbEntity
  8
0
 62
     7
370
     9
100
AcDbVertex
100
AcDb2dVertex
 10
232.2752278065146
 20
158.950504517554
 30
0.0
  0
VERTEX
  5
531
330
525
100
AcDbEntity
  8
0
 62
     7
370
     9
100
AcDbVertex
100
AcDb2dVertex
 10
232.0454399376484
 20
158.8614487992603
 30
0.0
  0
VERTEX
  5
532
330
525
100
AcDbEntity
  8
0
 62
     7
370
     9
100
AcDbVertex
100
AcDb2dVertex
 10
231.8525145904744
 20
158.7084865597153
 30
0.0
  0
VERTEX
  5
533
330
525
100
AcDbEntity
  8
0
 62
     7
370
     9
100
AcDbVertex
100
AcDb2dVertex
 10
231.7019639177689
 20
158.4964409325981
 30
0.0
  0
VERTEX
  5
534
330
525
100
AcDbEntity
  8
0
 62
     7
370
     9
100
AcDbVertex
100
AcDb2dVertex
 10
231.5986110532115
 20
158.2316853445567
 30
0.0
  0
SEQEND
  5
535
330
525
100
AcDbEntity
  8
0
370
     9
  0
ENDBLK
  5
524
330
521
100
AcDbEntity
  8
0
100
AcDbBlockEnd
  0
BLOCK
  5
538
330
536
100
AcDbEntity
  8
0
100
AcDbBlockBegin
  2
block 137
 70
     0
 71
     0
 10
0.0
 20
0.0
 30
0.0
  3
block 137
  1

  0
POLYLINE
  5
53A
330
536
100
AcDbEntity
  8
0
 62
     7
370
     9
100
AcDb2dPolyline
 66
     1
 10
0.0
 20
0.0
 30
0.0
  0
VERTEX
  5
53B
330
53A
100
AcDbEntity
  8
0
 62
     7
370
     9
100
AcDbVertex
100
AcDb2dVertex
 10
234.1590060178492
 20
155.9046955990447
 30
0.0
  0
VERTEX
  5
53C
330
53A
100
AcDbEntity
  8
0
 62
     7
370
     9
100
AcDbVertex
100
AcDb2dVertex
 10
234.0508300196123
 20
155.99220102437
 30
0.0
  0
VERTEX
  5
53D
330
53A
100
AcDbEntity
  8
0
 62
     7
370
     9
100
AcDbVertex
100
AcDb2dVertex
 10
233.9588459701561
 20
156.1158799522905
 30
0.0
  0
VERTEX
  5
53E
330
53A
100
AcDbEntity
  8
0
 62
     7
370
     9
100
AcDbVertex
100
AcDb2dVertex
 10
233.8975232705187
 20
156.25730112196
 30
0.0
  0
VERTEX
  5
53F
330
53A
100
AcDbEntity
  8
0
 62
     7
370
     9
100
AcDbVertex
100
AcDb2dVertex
 10
233.8761636785101
 20
156.3947604318215
 30
0.0
  0
VERTEX
  5
540
330
53A
100
AcDbEntity
  8
0
 62
     7
370
     9
100
AcDbVertex
100
AcDb2dVertex
 10
233.8975232705187
 20
156.5072427994149
 30
0.0
  0
VERTEX
  5
541
330
53A
100
AcDbEntity
  8
0
 62
     7
370
     9
100
AcDbVertex
100
AcDb2dVertex
 10
233.9588459701561
 20
156.5778672568625
 30
0.0
  0
VERTEX
  5
542
330
53A
100
AcDbEntity
  8
0
 62
     7
370
     9
100
AcDbVertex
100
AcDb2dVertex
 10
234.0508300196123
 20
156.5956094986115
 30
0.0
  0
VERTEX
  5
543
330
53A
100
AcDbEntity
  8
0
 62
     7
370
     9
100
AcDbVertex
100
AcDb2dVertex
 10
234.1590060178492
 20
156.5580579578223
 30
0.0
  0
VERTEX
  5
544
330
53A
100
AcDbEntity
  8
0
 62
     7
370
     9
100
AcDbVertex
100
AcDb2dVertex
 10
234.2075818641912
 20
156.5251572959382
 30
0.0
  0
SEQEND
  5
545
330
53A
100
AcDbEntity
  8
0
370
     9
  0
ENDBLK
  5
539
330
536
100
AcDbEntity
  8
0
100
AcDbBlockEnd
  0
BLOCK
  5
548
330
546
100
AcDbEntity
  8
0
100
AcDbBlockBegin
  2
block 138
 70
     0
 71
     0
 10
0.0
 20
0.0
 30
0.0
  3
block 138
  1

  0
POLYLINE
  5
54A
330
546
100
AcDbEntity
  8
0
 62
     7
370
     9
100
AcDb2dPolyline
 66
     1
 10
0.0
 20
0.0
 30
0.0
  0
VERTEX
  5
54B
330
54A
100
AcDbEntity
  8
0
 62
     7
370
     9
100
AcDbVertex
100
AcDb2dVertex
 10
234.4377142426059
 20
156.126732003069
 30
0.0
  0
VERTEX
  5
54C
330
54A
100
AcDbEntity
  8
0
 62
     7
370
     9
100
AcDbVertex
100
AcDb2dVertex
 10
234.4418483571881
 20
156.0681653798198
 30
0.0
  0
VERTEX
  5
54D
330
54A
100
AcDbEntity
  8
0
 62
     7
370
     9
100
AcDbVertex
100
AcDb2dVertex
 10
234.4201442556311
 20
155.9555107574521
 30
0.0
  0
VERTEX
  5
54E
330
54A
100
AcDbEntity
  8
0
 62
     7
370
     9
100
AcDbVertex
100
AcDb2dVertex
 10
234.3588215559936
 20
155.8850585547787
 30
0.0
  0
VERTEX
  5
54F
330
54A
100
AcDbEntity
  8
0
 62
     7
370
     9
100
AcDbVertex
100
AcDb2dVertex
 10
234.267182016086
 20
155.8671440582554
 30
0.0
  0
VERTEX
  5
550
330
54A
100
AcDbEntity
  8
0
 62
     7
370
     9
100
AcDbVertex
100
AcDb2dVertex
 10
234.1590060178492
 20
155.9046955990447
 30
0.0
  0
SEQEND
  5
551
330
54A
100
AcDbEntity
  8
0
370
     9
  0
ENDBLK
  5
549
330
546
100
AcDbEntity
  8
0
100
AcDbBlockEnd
  0
BLOCK
  5
554
330
552
100
AcDbEntity
  8
0
100
AcDbBlockBegin
  2
block 139
 70
     0
 71
     0
 10
0.0
 20
0.0
 30
0.0
  3
block 139
  1

  0
POLYLINE
  5
556
330
552
100
AcDbEntity
  8
0
 62
     7
370
     9
100
AcDb2dPolyline
 66
     1
 10
0.0
 20
0.0
 30
0.0
  0
VERTEX
  5
557
330
556
100
AcDbEntity
  8
0
 62
     7
370
     9
100
AcDbVertex
100
AcDb2dVertex
 10
232.3627332318399
 20
157.5948594441082
 30
0.0
  0
VERTEX
  5
558
330
556
100
AcDbEntity
  8
0
 62
     7
370
     9
100
AcDbVertex
100
AcDb2dVertex
 10
232.4116535877304
 20
157.5619587822241
 30
0.0
  0
SEQEND
  5
559
330
556
100
AcDbEntity
  8
0
370
     9
  0
ENDBLK
  5
555
330
552
100
AcDbEntity
  8
0
100
AcDbBlockEnd
  0
BLOCK
  5
55C
330
55A
100
AcDbEntity
  8
0
100
AcDbBlockBegin
  2
block 140
 70
     0
 71
     0
 10
0.0
 20
0.0
 30
0.0
  3
block 140
  1

  0
POLYLINE
  5
55E
330
55A
100
AcDbEntity
  8
0
 62
     7
370
     9
100
AcDb2dPolyline
 66
     1
 10
0.0
 20
0.0
 30
0.0
  0
VERTEX
  5
55F
330
55E
100
AcDbEntity
  8
0
 62
     7
370
     9
100
AcDbVertex
100
AcDb2dVertex
 10
232.6414414565966
 20
157.163533489355
 30
0.0
  0
VERTEX
  5
560
330
55E
100
AcDbEntity
  8
0
 62
     7
370
     9
100
AcDbVertex
100
AcDb2dVertex
 10
232.6455755711789
 20
157.1049668661057
 30
0.0
  0
VERTEX
  5
561
330
55E
100
AcDbEntity
  8
0
 62
     7
370
     9
100
AcDbVertex
100
AcDb2dVertex
 10
232.6242159791703
 20
156.992312243738
 30
0.0
  0
VERTEX
  5
562
330
55E
100
AcDbEntity
  8
0
 62
     7
370
     9
100
AcDbVertex
100
AcDb2dVertex
 10
232.5628932795329
 20
156.9218600410647
 30
0.0
  0
VERTEX
  5
563
330
55E
100
AcDbEntity
  8
0
 62
     7
370
     9
100
AcDbVertex
100
AcDb2dVertex
 10
232.4712537396252
 20
156.9039455445414
 30
0.0
  0
VERTEX
  5
564
330
55E
100
AcDbEntity
  8
0
 62
     7
370
     9
100
AcDbVertex
100
AcDb2dVertex
 10
232.3627332318399
 20
156.9416693401049
 30
0.0
  0
VERTEX
  5
565
330
55E
100
AcDbEntity
  8
0
 62
     7
370
     9
100
AcDbVertex
100
AcDb2dVertex
 10
232.254557233603
 20
157.0290025106559
 30
0.0
  0
VERTEX
  5
566
330
55E
100
AcDbEntity
  8
0
 62
     7
370
     9
100
AcDbVertex
100
AcDb2dVertex
 10
232.1629176936954
 20
157.1526814385764
 30
0.0
  0
VERTEX
  5
567
330
55E
100
AcDbEntity
  8
0
 62
     7
370
     9
100
AcDbVertex
100
AcDb2dVertex
 10
232.1015949940579
 20
157.2941026082459
 30
0.0
  0
VERTEX
  5
568
330
55E
100
AcDbEntity
  8
0
 62
     7
370
     9
100
AcDbVertex
100
AcDb2dVertex
 10
232.0798908925009
 20
157.4315619181074
 30
0.0
  0
VERTEX
  5
569
330
55E
100
AcDbEntity
  8
0
 62
     7
370
     9
100
AcDbVertex
100
AcDb2dVertex
 10
232.1015949940579
 20
157.5440442857008
 30
0.0
  0
VERTEX
  5
56A
330
55E
100
AcDbEntity
  8
0
 62
     7
370
     9
100
AcDbVertex
100
AcDb2dVertex
 10
232.1629176936954
 20
157.6146687431484
 30
0.0
  0
VERTEX
  5
56B
330
55E
100
AcDbEntity
  8
0
 62
     7
370
     9
100
AcDbVertex
100
AcDb2dVertex
 10
232.254557233603
 20
157.6324109848975
 30
0.0
  0
VERTEX
  5
56C
330
55E
100
AcDbEntity
  8
0
 62
     7
370
     9
100
AcDbVertex
100
AcDb2dVertex
 10
232.3627332318399
 20
157.5948594441082
 30
0.0
  0
SEQEND
  5
56D
330
55E
100
AcDbEntity
  8
0
370
     9
  0
ENDBLK
  5
55D
330
55A
100
AcDbEntity
  8
0
100
AcDbBlockEnd
  0
BLOCK
  5
570
330
56E
100
AcDbEntity
  8
0
100
AcDbBlockBegin
  2
block 141
 70
     0
 71
     0
 10
0.0
 20
0.0
 30
0.0
  3
block 141
  1

  0
POLYLINE
  5
572
330
56E
100
AcDbEntity
  8
0
 62
     7
370
     9
100
AcDb2dPolyline
 66
     1
 10
0.0
 20
0.0
 30
0.0
  0
VERTEX
  5
573
330
572
100
AcDbEntity
  8
0
 62
     7
370
     9
100
AcDbVertex
100
AcDb2dVertex
 10
230.7810898945617
 20
158.3994614946883
 30
0.0
  0
VERTEX
  5
574
330
572
100
AcDbEntity
  8
0
 62
     7
370
     9
100
AcDbVertex
100
AcDb2dVertex
 10
230.7755777417853
 20
158.4006672781082
 30
0.0
  0
VERTEX
  5
575
330
572
100
AcDbEntity
  8
0
 62
     7
370
     9
100
AcDbVertex
100
AcDb2dVertex
 10
230.4624185621761
 20
158.4516546912899
 30
0.0
  0
VERTEX
  5
576
330
572
100
AcDbEntity
  8
0
 62
     7
370
     9
100
AcDbVertex
100
AcDb2dVertex
 10
230.1699299554784
 20
158.4368407807033
 30
0.0
  0
VERTEX
  5
577
330
572
100
AcDbEntity
  8
0
 62
     7
370
     9
100
AcDbVertex
100
AcDb2dVertex
 10
229.9053466222112
 20
158.3567423106713
 30
0.0
  0
VERTEX
  5
578
330
572
100
AcDbEntity
  8
0
 62
     7
370
     9
100
AcDbVertex
100
AcDb2dVertex
 10
229.6745252246994
 20
158.2129095741621
 30
0.0
  0
VERTEX
  5
579
330
572
100
AcDbEntity
  8
0
 62
     7
370
     9
100
AcDbVertex
100
AcDb2dVertex
 10
229.4829779157195
 20
158.0091321762095
 30
0.0
  0
VERTEX
  5
57A
330
572
100
AcDbEntity
  8
0
 62
     7
370
     9
100
AcDbVertex
100
AcDb2dVertex
 10
229.3355278289509
 20
157.7500609957187
 30
0.0
  0
VERTEX
  5
57B
330
572
100
AcDbEntity
  8
0
 62
     7
370
     9
100
AcDbVertex
100
AcDb2dVertex
 10
229.2349310407816
 20
157.4415526950146
 30
0.0
  0
VERTEX
  5
57C
330
572
100
AcDbEntity
  8
0
 62
     7
370
     9
100
AcDbVertex
100
AcDb2dVertex
 10
229.1842881371484
 20
157.0911864841647
 30
0.0
  0
VERTEX
  5
57D
330
572
100
AcDbEntity
  8
0
 62
     7
370
     9
100
AcDbVertex
100
AcDb2dVertex
 10
229.1842881371484
 20
156.7067138280108
 30
0.0
  0
VERTEX
  5
57E
330
572
100
AcDbEntity
  8
0
 62
     7
370
     9
100
AcDbVertex
100
AcDb2dVertex
 10
229.2349310407816
 20
156.2976087391374
 30
0.0
  0
VERTEX
  5
57F
330
572
100
AcDbEntity
  8
0
 62
     7
370
     9
100
AcDbVertex
100
AcDb2dVertex
 10
229.3355278289509
 20
155.8731729753546
 30
0.0
  0
VERTEX
  5
580
330
572
100
AcDbEntity
  8
0
 62
     7
370
     9
100
AcDbVertex
100
AcDb2dVertex
 10
229.4829779157195
 20
155.443569568344
 30
0.0
  0
VERTEX
  5
581
330
572
100
AcDbEntity
  8
0
 62
     7
370
     9
100
AcDbVertex
100
AcDb2dVertex
 10
229.6745252246994
 20
155.0186170402384
 30
0.0
  0
VERTEX
  5
582
330
572
100
AcDbEntity
  8
0
 62
     7
370
     9
100
AcDbVertex
100
AcDb2dVertex
 10
229.9053466222112
 20
154.6086506774937
 30
0.0
  0
VERTEX
  5
583
330
572
100
AcDbEntity
  8
0
 62
     7
370
     9
100
AcDbVertex
100
AcDb2dVertex
 10
230.1699299554784
 20
154.2227999831457
 30
0.0
  0
VERTEX
  5
584
330
572
100
AcDbEntity
  8
0
 62
     7
370
     9
100
AcDbVertex
100
AcDb2dVertex
 10
230.4624185621761
 20
153.8703667150046
 30
0.0
  0
VERTEX
  5
585
330
572
100
AcDbEntity
  8
0
 62
     7
370
     9
100
AcDbVertex
100
AcDb2dVertex
 10
230.7755777417853
 20
153.5596191022351
 30
0.0
  0
VERTEX
  5
586
330
572
100
AcDbEntity
  8
0
 62
     7
370
     9
100
AcDbVertex
100
AcDb2dVertex
 10
231.1025173033355
 20
153.2977918453561
 30
0.0
  0
VERTEX
  5
587
330
572
100
AcDbEntity
  8
0
 62
     7
370
     9
100
AcDbVertex
100
AcDb2dVertex
 10
231.4349690176621
 20
153.0910861162411
 30
0.0
  0
VERTEX
  5
588
330
572
100
AcDbEntity
  8
0
 62
     7
370
     9
100
AcDbVertex
100
AcDb2dVertex
 10
231.7656981842461
 20
152.9443250485695
 30
0.0
  0
VERTEX
  5
589
330
572
100
AcDbEntity
  8
0
 62
     7
370
     9
100
AcDbVertex
100
AcDb2dVertex
 10
232.0864365739228
 20
152.8609537378264
 30
0.0
  0
VERTEX
  5
58A
330
572
100
AcDbEntity
  8
0
 62
     7
370
     9
100
AcDbVertex
100
AcDb2dVertex
 10
232.3902939957219
 20
152.8428669865289
 30
0.0
  0
VERTEX
  5
58B
330
572
100
AcDbEntity
  8
0
 62
     7
370
     9
100
AcDbVertex
100
AcDb2dVertex
 10
232.6696912395757
 20
152.8905815589996
 30
0.0
  0
VERTEX
  5
58C
330
572
100
AcDbEntity
  8
0
 62
     7
370
     9
100
AcDbVertex
100
AcDb2dVertex
 10
232.9180826240622
 20
153.0027194170445
 30
0.0
  0
VERTEX
  5
58D
330
572
100
AcDbEntity
  8
0
 62
     7
370
     9
100
AcDbVertex
100
AcDb2dVertex
 10
233.1296114868565
 20
153.1770412485981
 30
0.0
  0
VERTEX
  5
58E
330
572
100
AcDbEntity
  8
0
 62
     7
370
     9
100
AcDbVertex
100
AcDb2dVertex
 10
233.2997992038278
 20
153.4092406843039
 30
0.0
  0
VERTEX
  5
58F
330
572
100
AcDbEntity
  8
0
 62
     7
370
     9
100
AcDbVertex
100
AcDb2dVertex
 10
233.4241671508454
 20
153.6938055713856
 30
0.0
  0
VERTEX
  5
590
330
572
100
AcDbEntity
  8
0
 62
     7
370
     9
100
AcDbVertex
100
AcDb2dVertex
 10
233.4493163478877
 20
153.7773491369029
 30
0.0
  0
SEQEND
  5
591
330
572
100
AcDbEntity
  8
0
370
     9
  0
ENDBLK
  5
571
330
56E
100
AcDbEntity
  8
0
100
AcDbBlockEnd
  0
BLOCK
  5
594
330
592
100
AcDbEntity
  8
0
100
AcDbBlockBegin
  2
block 142
 70
     0
 71
     0
 10
0.0
 20
0.0
 30
0.0
  3
block 142
  1

  0
POLYLINE
  5
596
330
592
100
AcDbEntity
  8
0
 62
     7
370
     9
100
AcDb2dPolyline
 66
     1
 10
0.0
 20
0.0
 30
0.0
  0
VERTEX
  5
597
330
596
100
AcDbEntity
  8
0
 62
     7
370
     9
100
AcDbVertex
100
AcDb2dVertex
 10
228.9476100773117
 20
156.9025675063473
 30
0.0
  0
VERTEX
  5
598
330
596
100
AcDbEntity
  8
0
 62
     7
370
     9
100
AcDbVertex
100
AcDb2dVertex
 10
228.9731037839026
 20
157.2818725192733
 30
0.0
  0
VERTEX
  5
599
330
596
100
AcDbEntity
  8
0
 62
     7
370
     9
100
AcDbVertex
100
AcDb2dVertex
 10
229.0492403941266
 20
157.6231092270873
 30
0.0
  0
VERTEX
  5
59A
330
596
100
AcDbEntity
  8
0
 62
     7
370
     9
100
AcDbVertex
100
AcDb2dVertex
 10
229.1742973602412
 20
157.9186984197217
 30
0.0
  0
VERTEX
  5
59B
330
596
100
AcDbEntity
  8
0
 62
     7
370
     9
100
AcDbVertex
100
AcDb2dVertex
 10
229.3451740963096
 20
158.1619221609804
 30
0.0
  0
VERTEX
  5
59C
330
596
100
AcDbEntity
  8
0
 62
     7
370
     9
100
AcDbVertex
100
AcDb2dVertex
 10
229.558770016395
 20
158.3477850624096
 30
0.0
  0
VERTEX
  5
59D
330
596
100
AcDbEntity
  8
0
 62
     7
370
     9
100
AcDbVertex
100
AcDb2dVertex
 10
229.8092284581727
 20
158.4716362451043
 30
0.0
  0
VERTEX
  5
59E
330
596
100
AcDbEntity
  8
0
 62
     7
370
     9
100
AcDbVertex
100
AcDb2dVertex
 10
230.0920707975117
 20
158.5310641422249
 30
0.0
  0
VERTEX
  5
59F
330
596
100
AcDbEntity
  8
0
 62
     7
370
     9
100
AcDbVertex
100
AcDb2dVertex
 10
230.4004068434416
 20
158.5245184608029
 30
0.0
  0
VERTEX
  5
5A0
330
596
100
AcDbEntity
  8
0
 62
     7
370
     9
100
AcDbVertex
100
AcDb2dVertex
 10
230.7273464049918
 20
158.4521714556127
 30
0.0
  0
VERTEX
  5
5A1
330
596
100
AcDbEntity
  8
0
 62
     7
370
     9
100
AcDbVertex
100
AcDb2dVertex
 10
230.820019473545
 20
158.4208210866969
 30
0.0
  0
SEQEND
  5
5A2
330
596
100
AcDbEntity
  8
0
370
     9
  0
ENDBLK
  5
595
330
592
100
AcDbEntity
  8
0
100
AcDbBlockEnd
  0
BLOCK
  5
5A5
330
5A3
100
AcDbEntity
  8
0
100
AcDbBlockBegin
  2
block 143
 70
     0
 71
     0
 10
0.0
 20
0.0
 30
0.0
  3
block 143
  1

  0
POLYLINE
  5
5A7
330
5A3
100
AcDbEntity
  8
0
 62
     7
370
     9
100
AcDb2dPolyline
 66
     1
 10
0.0
 20
0.0
 30
0.0
  0
VERTEX
  5
5A8
330
5A7
100
AcDbEntity
  8
0
 62
     7
370
     9
100
AcDbVertex
100
AcDb2dVertex
 10
233.4872123982254
 20
153.8004312766541
 30
0.0
  0
VERTEX
  5
5A9
330
5A7
100
AcDbEntity
  8
0
 62
     7
370
     9
100
AcDbVertex
100
AcDb2dVertex
 10
233.4238226412968
 20
153.5392930388721
 30
0.0
  0
VERTEX
  5
5AA
330
5A7
100
AcDbEntity
  8
0
 62
     7
370
     9
100
AcDbVertex
100
AcDb2dVertex
 10
233.2987656751823
 20
153.2437038462377
 30
0.0
  0
VERTEX
  5
5AB
330
5A7
100
AcDbEntity
  8
0
 62
     7
370
     9
100
AcDbVertex
100
AcDb2dVertex
 10
233.1278889391139
 20
153.0004801049791
 30
0.0
  0
VERTEX
  5
5AC
330
5A7
100
AcDbEntity
  8
0
 62
     7
370
     9
100
AcDbVertex
100
AcDb2dVertex
 10
232.9146375285769
 20
152.8146172035498
 30
0.0
  0
VERTEX
  5
5AD
330
5A7
100
AcDbEntity
  8
0
 62
     7
370
     9
100
AcDbVertex
100
AcDb2dVertex
 10
232.6638345772507
 20
152.6907660208551
 30
0.0
  0
VERTEX
  5
5AE
330
5A7
100
AcDbEntity
  8
0
 62
     7
370
     9
100
AcDbVertex
100
AcDb2dVertex
 10
232.3809922379117
 20
152.6313381237345
 30
0.0
  0
VERTEX
  5
5AF
330
5A7
100
AcDbEntity
  8
0
 62
     7
370
     9
100
AcDbVertex
100
AcDb2dVertex
 10
232.0730007015304
 20
152.6378838051565
 30
0.0
  0
VERTEX
  5
5B0
330
5A7
100
AcDbEntity
  8
0
 62
     7
370
     9
100
AcDbVertex
100
AcDb2dVertex
 10
231.7460611399802
 20
152.7102308103468
 30
0.0
  0
VERTEX
  5
5B1
330
5A7
100
AcDbEntity
  8
0
 62
     7
370
     9
100
AcDbVertex
100
AcDb2dVertex
 10
231.4077527633286
 20
152.8466565915626
 30
0.0
  0
VERTEX
  5
5B2
330
5A7
100
AcDbEntity
  8
0
 62
     7
370
     9
100
AcDbVertex
100
AcDb2dVertex
 10
231.0656547816433
 20
153.0440605628675
 30
0.0
  0
VERTEX
  5
5B3
330
5A7
100
AcDbEntity
  8
0
 62
     7
370
     9
100
AcDbVertex
100
AcDb2dVertex
 10
230.7273464049918
 20
153.2983086096789
 30
0.0
  0
VERTEX
  5
5B4
330
5A7
100
AcDbEntity
  8
0
 62
     7
370
     9
100
AcDbVertex
100
AcDb2dVertex
 10
230.4004068434416
 20
153.6033718148978
 30
0.0
  0
VERTEX
  5
5B5
330
5A7
100
AcDbEntity
  8
0
 62
     7
370
     9
100
AcDbVertex
100
AcDb2dVertex
 10
230.0920707975117
 20
153.9527044971021
 30
0.0
  0
VERTEX
  5
5B6
330
5A7
100
AcDbEntity
  8
0
 62
     7
370
     9
100
AcDbVertex
100
AcDb2dVertex
 10
229.8092284581727
 20
154.3385551914501
 30
0.0
  0
VERTEX
  5
5B7
330
5A7
100
AcDbEntity
  8
0
 62
     7
370
     9
100
AcDbVertex
100
AcDb2dVertex
 10
229.558770016395
 20
154.7519666496801
 30
0.0
  0
VERTEX
  5
5B8
330
5A7
100
AcDbEntity
  8
0
 62
     7
370
     9
100
AcDbVertex
100
AcDb2dVertex
 10
229.3451740963096
 20
155.1839816235304
 30
0.0
  0
VERTEX
  5
5B9
330
5A7
100
AcDbEntity
  8
0
 62
     7
370
     9
100
AcDbVertex
100
AcDb2dVertex
 10
229.1742973602412
 20
155.6249538456424
 30
0.0
  0
VERTEX
  5
5BA
330
5A7
100
AcDbEntity
  8
0
 62
     7
370
     9
100
AcDbVertex
100
AcDb2dVertex
 10
229.0492403941266
 20
156.0647202843345
 30
0.0
  0
VERTEX
  5
5BB
330
5A7
100
AcDbEntity
  8
0
 62
     7
370
     9
100
AcDbVertex
100
AcDb2dVertex
 10
228.9731037839026
 20
156.4938069270224
 30
0.0
  0
VERTEX
  5
5BC
330
5A7
100
AcDbEntity
  8
0
 62
     7
370
     9
100
AcDbVertex
100
AcDb2dVertex
 10
228.9476100773117
 20
156.9025675063473
 30
0.0
  0
SEQEND
  5
5BD
330
5A7
100
AcDbEntity
  8
0
370
     9
  0
ENDBLK
  5
5A6
330
5A3
100
AcDbEntity
  8
0
100
AcDbBlockEnd
  0
BLOCK
  5
5C0
330
5BE
100
AcDbEntity
  8
0
100
AcDbBlockBegin
  2
block 144
 70
     0
 71
     0
 10
0.0
 20
0.0
 30
0.0
  3
block 144
  1

  0
POLYLINE
  5
5C2
330
5BE
100
AcDbEntity
  8
0
 62
     7
370
     9
100
AcDb2dPolyline
 66
     1
 10
0.0
 20
0.0
 30
0.0
  0
VERTEX
  5
5C3
330
5C2
100
AcDbEntity
  8
0
 62
     7
370
     9
100
AcDbVertex
100
AcDb2dVertex
 10
229.110563093764
 20
158.1062838688936
 30
0.0
  0
VERTEX
  5
5C4
330
5C2
100
AcDbEntity
  8
0
 62
     7
370
     9
100
AcDbVertex
100
AcDb2dVertex
 10
229.0306368785062
 20
158.0578802773258
 30
0.0
  0
VERTEX
  5
5C5
330
5C2
100
AcDbEntity
  8
0
 62
     7
370
     9
100
AcDbVertex
100
AcDb2dVertex
 10
228.8166964488722
 20
157.8713283567995
 30
0.0
  0
VERTEX
  5
5C6
330
5C2
100
AcDbEntity
  8
0
 62
     7
370
     9
100
AcDbVertex
100
AcDb2dVertex
 10
228.6447861841582
 20
157.6270710868953
 30
0.0
  0
VERTEX
  5
5C7
330
5C2
100
AcDbEntity
  8
0
 62
     7
370
     9
100
AcDbVertex
100
AcDb2dVertex
 10
228.5193847084952
 20
157.3302761108411
 30
0.0
  0
VERTEX
  5
5C8
330
5C2
100
AcDbEntity
  8
0
 62
     7
370
     9
100
AcDbVertex
100
AcDb2dVertex
 10
228.4429035887226
 20
156.9876613648329
 30
0.0
  0
VERTEX
  5
5C9
330
5C2
100
AcDbEntity
  8
0
 62
     7
370
     9
100
AcDbVertex
100
AcDb2dVertex
 10
228.4170653725832
 20
156.6069783137129
 30
0.0
  0
VERTEX
  5
5CA
330
5C2
100
AcDbEntity
  8
0
 62
     7
370
     9
100
AcDbVertex
100
AcDb2dVertex
 10
228.4429035887226
 20
156.1966674414196
 30
0.0
  0
VERTEX
  5
5CB
330
5C2
100
AcDbEntity
  8
0
 62
     7
370
     9
100
AcDbVertex
100
AcDb2dVertex
 10
228.5193847084952
 20
155.7658582509891
 30
0.0
  0
VERTEX
  5
5CC
330
5C2
100
AcDbEntity
  8
0
 62
     7
370
     9
100
AcDbVertex
100
AcDb2dVertex
 10
228.6447861841582
 20
155.3241970097801
 30
0.0
  0
VERTEX
  5
5CD
330
5C2
100
AcDbEntity
  8
0
 62
     7
370
     9
100
AcDbVertex
100
AcDb2dVertex
 10
228.8166964488722
 20
154.8815022399255
 30
0.0
  0
VERTEX
  5
5CE
330
5C2
100
AcDbEntity
  8
0
 62
     7
370
     9
100
AcDbVertex
100
AcDb2dVertex
 10
229.0306368785062
 20
154.4477647183325
 30
0.0
  0
VERTEX
  5
5CF
330
5C2
100
AcDbEntity
  8
0
 62
     7
370
     9
100
AcDbVertex
100
AcDb2dVertex
 10
229.282473358478
 20
154.0326307123599
 30
0.0
  0
VERTEX
  5
5D0
330
5C2
100
AcDbEntity
  8
0
 62
     7
370
     9
100
AcDbVertex
100
AcDb2dVertex
 10
229.5663492264626
 20
153.6454019798178
 30
0.0
  0
VERTEX
  5
5D1
330
5C2
100
AcDbEntity
  8
0
 62
     7
370
     9
100
AcDbVertex
100
AcDb2dVertex
 10
229.875718801038
 20
153.2946912594194
 30
0.0
  0
VERTEX
  5
5D2
330
5C2
100
AcDbEntity
  8
0
 62
     7
370
     9
100
AcDbVertex
100
AcDb2dVertex
 10
230.2040364007823
 20
152.9882500160064
 30
0.0
  0
VERTEX
  5
5D3
330
5C2
100
AcDbEntity
  8
0
 62
     7
370
     9
100
AcDbVertex
100
AcDb2dVertex
 10
230.543722815628
 20
152.7331406953237
 30
0.0
  0
VERTEX
  5
5D4
330
5C2
100
AcDbEntity
  8
0
 62
     7
370
     9
100
AcDbVertex
100
AcDb2dVertex
 10
230.8871988355074
 20
152.5348754501475
 30
0.0
  0
VERTEX
  5
5D5
330
5C2
100
AcDbEntity
  8
0
 62
     7
370
     9
100
AcDbVertex
100
AcDb2dVertex
 10
231.2265407408045
 20
152.3979329046089
 30
0.0
  0
VERTEX
  5
5D6
330
5C2
100
AcDbEntity
  8
0
 62
     7
370
     9
100
AcDbVertex
100
AcDb2dVertex
 10
231.5548583405488
 20
152.3252413898701
 30
0.0
  0
VERTEX
  5
5D7
330
5C2
100
AcDbEntity
  8
0
 62
     7
370
     9
100
AcDbVertex
100
AcDb2dVertex
 10
231.8642279151242
 20
152.3186957084481
 30
0.0
  0
VERTEX
  5
5D8
330
5C2
100
AcDbEntity
  8
0
 62
     7
370
     9
100
AcDbVertex
100
AcDb2dVertex
 10
232.1481037831088
 20
152.3782958603429
 30
0.0
  0
VERTEX
  5
5D9
330
5C2
100
AcDbEntity
  8
0
 62
     7
370
     9
100
AcDbVertex
100
AcDb2dVertex
 10
232.3599771554517
 20
152.4775146103181
 30
0.0
  0
SEQEND
  5
5DA
330
5C2
100
AcDbEntity
  8
0
370
     9
  0
ENDBLK
  5
5C1
330
5BE
100
AcDbEntity
  8
0
100
AcDbBlockEnd
  0
BLOCK
  5
5DD
330
5DB
100
AcDbEntity
  8
0
100
AcDbBlockBegin
  2
block 145
 70
     0
 71
     0
 10
0.0
 20
0.0
 30
0.0
  3
block 145
  1

  0
SPLINE
  5
5DF
330
5DB
100
AcDbEntity
  8
0
 62
     7
370
     9
100
AcDbSpline
210
0.0
220
0.0
230
1.0
 70
     8
 71
     3
 72
    17
 73
    13
 74
     0
 42
0.0000000001
 43
0.0000000001
 40
0.0
 40
0.0
 40
0.0
 40
0.0
 40
1.0
 40
1.0
 40
1.0
 40
2.0
 40
2.0
 40
2.0
 40
3.0
 40
3.0
 40
3.0
 40
4.0
 40
4.0
 40
4.0
 40
4.0
 10
229.5088161318589
 20
156.177891671025
 30
0.0
 10
229.5064045650192
 20
156.1977009700652
 30
0.0
 10
229.5039929981796
 20
156.2173380143311
 30
0.0
 10
229.5050265268251
 20
156.2347357465316
 30
0.0
 10
229.5060600554707
 20
156.2521334787321
 30
0.0
 10
229.5108831891501
 20
156.267119644093
 30
0.0
 10
229.5170843610235
 20
156.2807277712597
 30
0.0
 10
229.5236300424455
 20
156.2941636436522
 30
0.0
 10
229.5315537620616
 20
156.3062214778505
 30
0.0
 10
229.5439561058085
 20
156.3105278472071
 30
0.0
 10
229.5460231630996
 20
156.3112168663041
 30
0.0
 10
229.5480902203908
 20
156.3117336306269
 30
0.0
 10
229.5501572776819
 20
156.3122503949497
 30
0.0
  0
ENDBLK
  5
5DE
330
5DB
100
AcDbEntity
  8
0
100
AcDbBlockEnd
  0
BLOCK
  5
5E2
330
5E0
100
AcDbEntity
  8
0
100
AcDbBlockBegin
  2
block 146
 70
     0
 71
     0
 10
0.0
 20
0.0
 30
0.0
  3
block 146
  1

  0
SPLINE
  5
5E4
330
5E0
100
AcDbEntity
  8
0
 62
     7
370
     9
100
AcDbSpline
210
0.0
220
0.0
230
1.0
 70
     8
 71
     3
 72
     8
 73
     4
 74
     0
 42
0.0000000001
 43
0.0000000001
 40
0.0
 40
0.0
 40
0.0
 40
0.0
 40
1.0
 40
1.0
 40
1.0
 40
1.0
 10
230.0248914355493
 20
157.9843274887157
 30
0.0
 10
229.7544514399572
 20
157.8237860391031
 30
0.0
 10
229.5663492264626
 20
157.5545518269308
 30
0.0
 10
229.5088161318589
 20
157.2453545071296
 30
0.0
  0
ENDBLK
  5
5E3
330
5E0
100
AcDbEntity
  8
0
100
AcDbBlockEnd
  0
BLOCK
  5
5E7
330
5E5
100
AcDbEntity
  8
0
100
AcDbBlockBegin
  2
block 147
 70
     0
 71
     0
 10
0.0
 20
0.0
 30
0.0
  3
block 147
  1

  0
SPLINE
  5
5E9
330
5E5
100
AcDbEntity
  8
0
 62
     7
370
     9
100
AcDbSpline
210
0.0
220
0.0
230
1.0
 70
     8
 71
     3
 72
    20
 73
    16
 74
     0
 42
0.0000000001
 43
0.0000000001
 40
0.0
 40
0.0
 40
0.0
 40
0.0
 40
1.0
 40
1.0
 40
1.0
 40
2.0
 40
2.0
 40
2.0
 40
3.0
 40
3.0
 40
3.0
 40
4.0
 40
4.0
 40
4.0
 40
5.0
 40
5.0
 40
5.0
 40
5.0
 10
229.6300834929397
 20
156.9731919637949
 30
0.0
 10
229.6145805632561
 20
156.9861110718646
 30
0.0
 10
229.5987331240239
 20
156.99885792516
 30
0.0
 10
229.5846082325344
 20
157.0147053643922
 30
0.0
 10
229.5701388314964
 20
157.0305528036243
 30
0.0
 10
229.5570474686524
 20
157.0491563192447
 30
0.0
 10
229.5456786535511
 20
157.0687933635106
 30
0.0
 10
229.5346543479983
 20
157.0884304077765
 30
0.0
 10
229.5253525901881
 20
157.1087564711395
 30
0.0
 10
229.5184623992176
 20
157.129427044051
 30
0.0
 10
229.5112276986986
 20
157.1499253621882
 30
0.0
 10
229.5067490745678
 20
157.170768189874
 30
0.0
 10
229.5053710363737
 20
157.1895439602686
 30
0.0
 10
229.5039929981796
 20
157.2095255140831
 30
0.0
 10
229.5064045650192
 20
157.2274400106063
 30
0.0
 10
229.5088161318589
 20
157.2453545071296
 30
0.0
  0
ENDBLK
  5
5E8
330
5E5
100
AcDbEntity
  8
0
100
AcDbBlockEnd
  0
BLOCK
  5
5EC
330
5EA
100
AcDbEntity
  8
0
100
AcDbBlockBegin
  2
block 148
 70
     0
 71
     0
 10
0.0
 20
0.0
 30
0.0
  3
block 148
  1

  0
POLYLINE
  5
5EE
330
5EA
100
AcDbEntity
  8
0
 62
     7
370
     9
100
AcDb2dPolyline
 66
     1
 10
0.0
 20
0.0
 30
0.0
  0
VERTEX
  5
5EF
330
5EE
100
AcDbEntity
  8
0
 62
     7
370
     9
100
AcDbVertex
100
AcDb2dVertex
 10
229.6300834929397
 20
156.9731919637949
 30
0.0
  0
VERTEX
  5
5F0
330
5EE
100
AcDbEntity
  8
0
 62
     7
370
     9
100
AcDbVertex
100
AcDb2dVertex
 10
229.510194170053
 20
157.0286580011074
 30
0.0
  0
VERTEX
  5
5F1
330
5EE
100
AcDbEntity
  8
0
 62
     7
370
     9
100
AcDbVertex
100
AcDb2dVertex
 10
229.4054632673014
 20
157.0200452623943
 30
0.0
  0
VERTEX
  5
5F2
330
5EE
100
AcDbEntity
  8
0
 62
     7
370
     9
100
AcDbVertex
100
AcDb2dVertex
 10
229.3341497907568
 20
156.9485595310754
 30
0.0
  0
VERTEX
  5
5F3
330
5EE
100
AcDbEntity
  8
0
 62
     7
370
     9
100
AcDbVertex
100
AcDb2dVertex
 10
229.3090005937144
 20
156.8269476604461
 30
0.0
  0
VERTEX
  5
5F4
330
5EE
100
AcDbEntity
  8
0
 62
     7
370
     9
100
AcDbVertex
100
AcDb2dVertex
 10
229.3341497907568
 20
156.6760524781921
 30
0.0
  0
VERTEX
  5
5F5
330
5EE
100
AcDbEntity
  8
0
 62
     7
370
     9
100
AcDbVertex
100
AcDb2dVertex
 10
229.4054632673014
 20
156.5225734743242
 30
0.0
  0
VERTEX
  5
5F6
330
5EE
100
AcDbEntity
  8
0
 62
     7
370
     9
100
AcDbVertex
100
AcDb2dVertex
 10
229.510194170053
 20
156.3928656293046
 30
0.0
  0
VERTEX
  5
5F7
330
5EE
100
AcDbEntity
  8
0
 62
     7
370
     9
100
AcDbVertex
100
AcDb2dVertex
 10
229.5825411752433
 20
156.3356770442494
 30
0.0
  0
SEQEND
  5
5F8
330
5EE
100
AcDbEntity
  8
0
370
     9
  0
ENDBLK
  5
5ED
330
5EA
100
AcDbEntity
  8
0
100
AcDbBlockEnd
  0
BLOCK
  5
5FB
330
5F9
100
AcDbEntity
  8
0
100
AcDbBlockBegin
  2
block 149
 70
     0
 71
     0
 10
0.0
 20
0.0
 30
0.0
  3
block 149
  1

  0
SPLINE
  5
5FD
330
5F9
100
AcDbEntity
  8
0
 62
     7
370
     9
100
AcDbSpline
210
0.0
220
0.0
230
1.0
 70
     8
 71
     3
 72
    17
 73
    13
 74
     0
 42
0.0000000001
 43
0.0000000001
 40
0.0
 40
0.0
 40
0.0
 40
0.0
 40
1.0
 40
1.0
 40
1.0
 40
2.0
 40
2.0
 40
2.0
 40
3.0
 40
3.0
 40
3.0
 40
4.0
 40
4.0
 40
4.0
 40
4.0
 10
231.5038709273671
 20
157.2910020223092
 30
0.0
 10
231.5117946469832
 20
157.2925523152776
 30
0.0
 10
231.5193738570507
 20
157.2942748630202
 30
0.0
 10
231.5269530671183
 20
157.2930690796003
 30
0.0
 10
231.5369438440255
 20
157.291518786632
 30
0.0
 10
231.5465901113842
 20
157.2853176147585
 30
0.0
 10
231.5555473596459
 20
157.2763603664969
 30
0.0
 10
231.5645046079075
 20
157.2675753730095
 30
0.0
 10
231.5731173466206
 20
157.2562065579082
 30
0.0
 10
231.5800075375911
 20
157.2417371568701
 30
0.0
 10
231.5865532190131
 20
157.2270955010578
 30
0.0
 10
231.5920653717895
 20
157.2093532593088
 30
0.0
 10
231.5975775245659
 20
157.1916110175598
 30
0.0
  0
ENDBLK
  5
5FC
330
5F9
100
AcDbEntity
  8
0
100
AcDbBlockEnd
  0
BLOCK
  5
600
330
5FE
100
AcDbEntity
  8
0
100
AcDbBlockBegin
  2
block 150
 70
     0
 71
     0
 10
0.0
 20
0.0
 30
0.0
  3
block 150
  1

  0
SPLINE
  5
602
330
5FE
100
AcDbEntity
  8
0
 62
     7
370
     9
100
AcDbSpline
210
0.0
220
0.0
230
1.0
 70
     8
 71
     3
 72
    17
 73
    13
 74
     0
 42
0.0000000001
 43
0.0000000001
 40
0.0
 40
0.0
 40
0.0
 40
0.0
 40
1.0
 40
1.0
 40
1.0
 40
2.0
 40
2.0
 40
2.0
 40
3.0
 40
3.0
 40
3.0
 40
4.0
 40
4.0
 40
4.0
 40
4.0
 10
231.3374728154295
 20
157.2680921373323
 30
0.0
 10
231.3333387008472
 20
157.2680921373323
 30
0.0
 10
231.3292045862649
 20
157.2682643921065
 30
0.0
 10
231.3257594907797
 20
157.2656805704926
 30
0.0
 10
231.3209363571003
 20
157.2624077297816
 30
0.0
 10
231.3174912616151
 20
157.254139500617
 30
0.0
 10
231.3147351852269
 20
157.243631959387
 30
0.0
 10
231.3123236183872
 20
157.233124418157
 30
0.0
 10
231.3106010706446
 20
157.2205498196358
 30
0.0
 10
231.3106010706446
 20
157.2050468899522
 30
0.0
 10
231.3106010706446
 20
157.1895439602686
 30
0.0
 10
231.3123236183872
 20
157.1712849541968
 30
0.0
 10
231.3140461661298
 20
157.1530259481249
 30
0.0
  0
ENDBLK
  5
601
330
5FE
100
AcDbEntity
  8
0
100
AcDbBlockEnd
  0
BLOCK
  5
605
330
603
100
AcDbEntity
  8
0
100
AcDbBlockBegin
  2
block 151
 70
     0
 71
     0
 10
0.0
 20
0.0
 30
0.0
  3
block 151
  1

  0
SPLINE
  5
607
330
603
100
AcDbEntity
  8
0
 62
     7
370
     9
100
AcDbSpline
210
0.0
220
0.0
230
1.0
 70
     8
 71
     3
 72
    11
 73
     7
 74
     0
 42
0.0000000001
 43
0.0000000001
 40
0.0
 40
0.0
 40
0.0
 40
0.0
 40
1.0
 40
1.0
 40
1.0
 40
2.0
 40
2.0
 40
2.0
 40
2.0
 10
231.4697644820631
 20
157.9736476927115
 30
0.0
 10
231.44013666089
 20
157.9743367118085
 30
0.0
 10
231.4101643301683
 20
157.9751979856798
 30
0.0
 10
231.3801919994466
 20
157.9748534761313
 30
0.0
 10
231.3753688657673
 20
157.9748534761313
 30
0.0
 10
231.3708902416365
 20
157.974681221357
 30
0.0
 10
231.3660671079571
 20
157.9745089665828
 30
0.0
  0
ENDBLK
  5
606
330
603
100
AcDbEntity
  8
0
100
AcDbBlockEnd
  0
BLOCK
  5
60A
330
608
100
AcDbEntity
  8
0
100
AcDbBlockBegin
  2
block 152
 70
     0
 71
     0
 10
0.0
 20
0.0
 30
0.0
  3
block 152
  1

  0
SPLINE
  5
60C
330
608
100
AcDbEntity
  8
0
 62
     7
370
     9
100
AcDbSpline
210
0.0
220
0.0
230
1.0
 70
     8
 71
     3
 72
    14
 73
    10
 74
     0
 42
0.0000000001
 43
0.0000000001
 40
0.0
 40
0.0
 40
0.0
 40
0.0
 40
1.0
 40
1.0
 40
1.0
 40
2.0
 40
2.0
 40
2.0
 40
3.0
 40
3.0
 40
3.0
 40
3.0
 10
231.3660671079571
 20
157.9745089665828
 30
0.0
 10
231.0846028068122
 20
157.8124172240018
 30
0.0
 10
230.8031385056673
 20
157.6503254814208
 30
0.0
 10
230.5216742045224
 20
157.4880614840655
 30
0.0
 10
230.2674261577109
 20
157.3413004163938
 30
0.0
 10
230.0131781108995
 20
157.1945393487222
 30
0.0
 10
229.758930064088
 20
157.0477782810506
 30
0.0
 10
229.7162108800709
 20
157.0228013387825
 30
0.0
 10
229.6731471865053
 20
156.9979966512887
 30
0.0
 10
229.6300834929397
 20
156.9731919637949
 30
0.0
  0
ENDBLK
  5
60B
330
608
100
AcDbEntity
  8
0
100
AcDbBlockEnd
  0
BLOCK
  5
60F
330
60D
100
AcDbEntity
  8
0
100
AcDbBlockBegin
  2
block 153
 70
     0
 71
     0
 10
0.0
 20
0.0
 30
0.0
  3
block 153
  1

  0
SPLINE
  5
611
330
60D
100
AcDbEntity
  8
0
 62
     7
370
     9
100
AcDbSpline
210
0.0
220
0.0
230
1.0
 70
     8
 71
     3
 72
    20
 73
    16
 74
     0
 42
0.0000000001
 43
0.0000000001
 40
0.0
 40
0.0
 40
0.0
 40
0.0
 40
1.0
 40
1.0
 40
1.0
 40
2.0
 40
2.0
 40
2.0
 40
3.0
 40
3.0
 40
3.0
 40
4.0
 40
4.0
 40
4.0
 40
5.0
 40
5.0
 40
5.0
 40
5.0
 10
231.4697644820631
 20
157.9736476927115
 30
0.0
 10
231.4783772207763
 20
157.9860500364584
 30
0.0
 10
231.4866454499409
 20
157.9987968897538
 30
0.0
 10
231.4949136791055
 20
158.012749526469
 30
0.0
 10
231.5055934751097
 20
158.0299750038953
 30
0.0
 10
231.5166177806625
 20
158.0489230290642
 30
0.0
 10
231.5269530671183
 20
158.0687323281043
 30
0.0
 10
231.5369438440255
 20
158.0871635889504
 30
0.0
 10
231.5465901113842
 20
158.1062838688936
 30
0.0
 10
231.5555473596459
 20
158.1254041488367
 30
0.0
 10
231.5645046079075
 20
158.1443521740056
 30
0.0
 10
231.5731173466206
 20
158.1633001991745
 30
0.0
 10
231.5800075375911
 20
158.1803534218265
 30
0.0
 10
231.5865532190131
 20
158.1975788992527
 30
0.0
 10
231.5920653717895
 20
158.2129095741621
 30
0.0
 10
231.5975775245659
 20
158.2284125038457
 30
0.0
  0
ENDBLK
  5
610
330
60D
100
AcDbEntity
  8
0
100
AcDbBlockEnd
  0
BLOCK
  5
614
330
612
100
AcDbEntity
  8
0
100
AcDbBlockBegin
  2
block 154
 70
     0
 71
     0
 10
0.0
 20
0.0
 30
0.0
  3
block 154
  1

  0
POLYLINE
  5
616
330
612
100
AcDbEntity
  8
0
 62
     7
370
     9
100
AcDb2dPolyline
 66
     1
 10
0.0
 20
0.0
 30
0.0
  0
VERTEX
  5
617
330
616
100
AcDbEntity
  8
0
 62
     7
370
     9
100
AcDbVertex
100
AcDb2dVertex
 10
231.5975775245659
 20
158.2284125038457
 30
0.0
  0
VERTEX
  5
618
330
616
100
AcDbEntity
  8
0
 62
     7
370
     9
100
AcDbVertex
100
AcDb2dVertex
 10
231.5986110532115
 20
158.2316853445567
 30
0.0
  0
SEQEND
  5
619
330
616
100
AcDbEntity
  8
0
370
     9
  0
ENDBLK
  5
615
330
612
100
AcDbEntity
  8
0
100
AcDbBlockEnd
  0
BLOCK
  5
61C
330
61A
100
AcDbEntity
  8
0
100
AcDbBlockBegin
  2
block 155
 70
     0
 71
     0
 10
0.0
 20
0.0
 30
0.0
  3
block 155
  1

  0
SPLINE
  5
61E
330
61A
100
AcDbEntity
  8
0
 62
     7
370
     9
100
AcDbSpline
210
0.0
220
0.0
230
1.0
 70
     8
 71
     3
 72
    20
 73
    16
 74
     0
 42
0.0000000001
 43
0.0000000001
 40
0.0
 40
0.0
 40
0.0
 40
0.0
 40
1.0
 40
1.0
 40
1.0
 40
2.0
 40
2.0
 40
2.0
 40
3.0
 40
3.0
 40
3.0
 40
4.0
 40
4.0
 40
4.0
 40
5.0
 40
5.0
 40
5.0
 40
5.0
 10
231.3660671079571
 20
157.9745089665828
 30
0.0
 10
231.3577988787925
 20
157.9920789535576
 30
0.0
 10
231.3498751591764
 20
158.0110269787264
 30
0.0
 10
231.3429849682059
 20
158.0320420611864
 30
0.0
 10
231.336439286784
 20
158.0520236150009
 30
0.0
 10
231.330582624459
 20
158.0735554617837
 30
0.0
 10
231.3257594907797
 20
158.0957763276636
 30
0.0
 10
231.3212808666489
 20
158.1164469005751
 30
0.0
 10
231.3174912616151
 20
158.1378064925836
 30
0.0
 10
231.3147351852269
 20
158.1588215750436
 30
0.0
 10
231.3123236183872
 20
158.1794921479551
 30
0.0
 10
231.3106010706446
 20
158.1998182113181
 30
0.0
 10
231.3106010706446
 20
158.2180772173899
 30
0.0
 10
231.3109455801931
 20
158.2363362234618
 30
0.0
 10
231.3123236183872
 20
158.2523559174682
 30
0.0
 10
231.3140461661298
 20
158.2683756114746
 30
0.0
  0
ENDBLK
  5
61D
330
61A
100
AcDbEntity
  8
0
100
AcDbBlockEnd
  0
BLOCK
  5
621
330
61F
100
AcDbEntity
  8
0
100
AcDbBlockBegin
  2
block 156
 70
     0
 71
     0
 10
0.0
 20
0.0
 30
0.0
  3
block 156
  1

  0
SPLINE
  5
623
330
61F
100
AcDbEntity
  8
0
 62
     7
370
     9
100
AcDbSpline
210
0.0
220
0.0
230
1.0
 70
     8
 71
     3
 72
    11
 73
     7
 74
     0
 42
0.0000000001
 43
0.0000000001
 40
0.0
 40
0.0
 40
0.0
 40
0.0
 40
1.0
 40
1.0
 40
1.0
 40
2.0
 40
2.0
 40
2.0
 40
2.0
 10
231.3140461661298
 20
158.2683756114746
 30
0.0
 10
231.3471190827882
 20
158.2659640446349
 30
0.0
 10
231.3805365089952
 20
158.2637247325695
 30
0.0
 10
231.413264916105
 20
158.2599351275357
 30
0.0
 10
231.4752766348395
 20
158.252872681791
 30
0.0
 10
231.536599334477
 20
158.2406425928183
 30
0.0
 10
231.5975775245659
 20
158.2284125038457
 30
0.0
  0
ENDBLK
  5
622
330
61F
100
AcDbEntity
  8
0
100
AcDbBlockEnd
  0
BLOCK
  5
626
330
624
100
AcDbEntity
  8
0
100
AcDbBlockBegin
  2
block 157
 70
     0
 71
     0
 10
0.0
 20
0.0
 30
0.0
  3
block 157
  1

  0
SPLINE
  5
628
330
624
100
AcDbEntity
  8
0
 62
     7
370
     9
100
AcDbSpline
210
0.0
220
0.0
230
1.0
 70
     8
 71
     3
 72
    14
 73
    10
 74
     0
 42
0.0000000001
 43
0.0000000001
 40
0.0
 40
0.0
 40
0.0
 40
0.0
 40
1.0
 40
1.0
 40
1.0
 40
2.0
 40
2.0
 40
2.0
 40
3.0
 40
3.0
 40
3.0
 40
3.0
 10
229.5088161318589
 20
157.2453545071296
 30
0.0
 10
229.6555771995306
 20
157.3292425821955
 30
0.0
 10
229.8026827767507
 20
157.4133029120356
 30
0.0
 10
229.9497883539709
 20
157.4971909871014
 30
0.0
 10
230.1020615744189
 20
157.5840073933297
 30
0.0
 10
230.2539902853185
 20
157.6706515447837
 30
0.0
 10
230.4062635057665
 20
157.757467951012
 30
0.0
 10
230.7094319084685
 20
157.9302394895973
 30
0.0
 10
231.0126003111705
 20
158.1030110281826
 30
0.0
 10
231.3157687138724
 20
158.2756103119936
 30
0.0
  0
ENDBLK
  5
627
330
624
100
AcDbEntity
  8
0
100
AcDbBlockEnd
  0
BLOCK
  5
62B
330
629
100
AcDbEntity
  8
0
100
AcDbBlockBegin
  2
block 158
 70
     0
 71
     0
 10
0.0
 20
0.0
 30
0.0
  3
block 158
  1

  0
POLYLINE
  5
62D
330
629
100
AcDbEntity
  8
0
 62
     7
370
     9
100
AcDb2dPolyline
 66
     1
 10
0.0
 20
0.0
 30
0.0
  0
VERTEX
  5
62E
330
62D
100
AcDbEntity
  8
0
 62
     7
370
     9
100
AcDbVertex
100
AcDb2dVertex
 10
231.3157687138724
 20
158.2756103119936
 30
0.0
  0
VERTEX
  5
62F
330
62D
100
AcDbEntity
  8
0
 62
     7
370
     9
100
AcDbVertex
100
AcDb2dVertex
 10
231.3140461661298
 20
158.2683756114746
 30
0.0
  0
SEQEND
  5
630
330
62D
100
AcDbEntity
  8
0
370
     9
  0
ENDBLK
  5
62C
330
629
100
AcDbEntity
  8
0
100
AcDbBlockEnd
  0
BLOCK
  5
633
330
631
100
AcDbEntity
  8
0
100
AcDbBlockBegin
  2
block 159
 70
     0
 71
     0
 10
0.0
 20
0.0
 30
0.0
  3
block 159
  1

  0
POLYLINE
  5
635
330
631
100
AcDbEntity
  8
0
 62
     7
370
     9
100
AcDb2dPolyline
 66
     1
 10
0.0
 20
0.0
 30
0.0
  0
VERTEX
  5
636
330
635
100
AcDbEntity
  8
0
 62
     7
370
     9
100
AcDbVertex
100
AcDb2dVertex
 10
234.9231281964776
 20
156.3122503949497
 30
0.0
  0
VERTEX
  5
637
330
635
100
AcDbEntity
  8
0
 62
     7
370
     9
100
AcDbVertex
100
AcDb2dVertex
 10
234.9241617251231
 20
156.3079440255932
 30
0.0
  0
SEQEND
  5
638
330
635
100
AcDbEntity
  8
0
370
     9
  0
ENDBLK
  5
634
330
631
100
AcDbEntity
  8
0
100
AcDbBlockEnd
  0
BLOCK
  5
63B
330
639
100
AcDbEntity
  8
0
100
AcDbBlockBegin
  2
block 160
 70
     0
 71
     0
 10
0.0
 20
0.0
 30
0.0
  3
block 160
  1

  0
POLYLINE
  5
63D
330
639
100
AcDbEntity
  8
0
 62
     7
370
     9
100
AcDb2dPolyline
 66
     1
 10
0.0
 20
0.0
 30
0.0
  0
VERTEX
  5
63E
330
63D
100
AcDbEntity
  8
0
 62
     7
370
     9
100
AcDbVertex
100
AcDb2dVertex
 10
231.3157687138724
 20
158.2756103119936
 30
0.0
  0
VERTEX
  5
63F
330
63D
100
AcDbEntity
  8
0
 62
     7
370
     9
100
AcDbVertex
100
AcDb2dVertex
 10
231.41912157843
 20
158.5467393266828
 30
0.0
  0
VERTEX
  5
640
330
63D
100
AcDbEntity
  8
0
 62
     7
370
     9
100
AcDbVertex
100
AcDb2dVertex
 10
231.5679497033927
 20
158.7677422020616
 30
0.0
  0
VERTEX
  5
641
330
63D
100
AcDbEntity
  8
0
 62
     7
370
     9
100
AcDbVertex
100
AcDb2dVertex
 10
231.7581189741785
 20
158.9332790401278
 30
0.0
  0
VERTEX
  5
642
330
63D
100
AcDbEntity
  8
0
 62
     7
370
     9
100
AcDbVertex
100
AcDb2dVertex
 10
231.9841172380109
 20
159.0383544524279
 30
0.0
  0
VERTEX
  5
643
330
63D
100
AcDbEntity
  8
0
 62
     7
370
     9
100
AcDbVertex
100
AcDb2dVertex
 10
232.2404323421135
 20
159.0805568721222
 30
0.0
  0
VERTEX
  5
644
330
63D
100
AcDbEntity
  8
0
 62
     7
370
     9
100
AcDbVertex
100
AcDb2dVertex
 10
232.5201740955158
 20
159.0586805157909
 30
0.0
  0
VERTEX
  5
645
330
63D
100
AcDbEntity
  8
0
 62
     7
370
     9
100
AcDbVertex
100
AcDb2dVertex
 10
232.8157632881502
 20
158.9734144025309
 30
0.0
  0
VERTEX
  5
646
330
63D
100
AcDbEntity
  8
0
 62
     7
370
     9
100
AcDbVertex
100
AcDb2dVertex
 10
233.1196207099493
 20
158.8266533348593
 30
0.0
  0
VERTEX
  5
647
330
63D
100
AcDbEntity
  8
0
 62
     7
370
     9
100
AcDbVertex
100
AcDb2dVertex
 10
233.1874890910087
 20
158.7860012081334
 30
0.0
  0
SEQEND
  5
648
330
63D
100
AcDbEntity
  8
0
370
     9
  0
ENDBLK
  5
63C
330
639
100
AcDbEntity
  8
0
100
AcDbBlockEnd
  0
BLOCK
  5
64B
330
649
100
AcDbEntity
  8
0
100
AcDbBlockBegin
  2
block 161
 70
     0
 71
     0
 10
0.0
 20
0.0
 30
0.0
  3
block 161
  1

  0
SPLINE
  5
64D
330
649
100
AcDbEntity
  8
0
 62
     7
370
     9
100
AcDbSpline
210
0.0
220
0.0
230
1.0
 70
     8
 71
     3
 72
    20
 73
    16
 74
     0
 42
0.0000000001
 43
0.0000000001
 40
0.0
 40
0.0
 40
0.0
 40
0.0
 40
1.0
 40
1.0
 40
1.0
 40
2.0
 40
2.0
 40
2.0
 40
3.0
 40
3.0
 40
3.0
 40
4.0
 40
4.0
 40
4.0
 40
5.0
 40
5.0
 40
5.0
 40
5.0
 10
234.9241617251231
 20
156.3079440255932
 30
0.0
 10
234.9262287824143
 20
156.2883069813272
 30
0.0
 10
234.9282958397054
 20
156.2686699370613
 30
0.0
 10
234.9258842728658
 20
156.2486883832469
 30
0.0
 10
234.9238172155746
 20
156.2288790842067
 30
0.0
 10
234.9172715341526
 20
156.2088975303922
 30
0.0
 10
234.908314285891
 20
156.1899495052234
 30
0.0
 10
234.8993570376293
 20
156.1708292252802
 30
0.0
 10
234.8876437129795
 20
156.1529147287569
 30
0.0
 10
234.8738633310385
 20
156.1367227799763
 30
0.0
 10
234.8587049109034
 20
156.11949730255
 30
0.0
 10
234.8414794334771
 20
156.1041666276406
 30
0.0
 10
234.8225314083083
 20
156.0917642838937
 30
0.0
 10
234.8077174977217
 20
156.0816012522122
 30
0.0
 10
234.7918700584895
 20
156.0731607682734
 30
0.0
 10
234.7753336001603
 20
156.0666150868514
 30
0.0
  0
ENDBLK
  5
64C
330
649
100
AcDbEntity
  8
0
100
AcDbBlockEnd
  0
BLOCK
  5
650
330
64E
100
AcDbEntity
  8
0
100
AcDbBlockBegin
  2
block 162
 70
     0
 71
     0
 10
0.0
 20
0.0
 30
0.0
  3
block 162
  1

  0
SPLINE
  5
652
330
64E
100
AcDbEntity
  8
0
 62
     7
370
     9
100
AcDbSpline
210
0.0
220
0.0
230
1.0
 70
     8
 71
     3
 72
    14
 73
    10
 74
     0
 42
0.0000000001
 43
0.0000000001
 40
0.0
 40
0.0
 40
0.0
 40
0.0
 40
1.0
 40
1.0
 40
1.0
 40
2.0
 40
2.0
 40
2.0
 40
3.0
 40
3.0
 40
3.0
 40
3.0
 10
234.9241617251231
 20
155.2711425393072
 30
0.0
 10
234.9258842728658
 20
155.2844061569254
 30
0.0
 10
234.9276068206084
 20
155.2976697745436
 30
0.0
 10
234.9258842728658
 20
155.3100721182905
 30
0.0
 10
234.9241617251231
 20
155.3223022072632
 30
0.0
 10
234.9189940818952
 20
155.3338432771388
 30
0.0
 10
234.908314285891
 20
155.3409057228835
 30
0.0
 10
234.9065917381484
 20
155.3421115063034
 30
0.0
 10
234.9041801713087
 20
155.3433172897232
 30
0.0
 10
234.9021131140175
 20
155.3445230731431
 30
0.0
  0
ENDBLK
  5
651
330
64E
100
AcDbEntity
  8
0
100
AcDbBlockEnd
  0
BLOCK
  5
655
330
653
100
AcDbEntity
  8
0
100
AcDbBlockBegin
  2
block 163
 70
     0
 71
     0
 10
0.0
 20
0.0
 30
0.0
  3
block 163
  1

  0
SPLINE
  5
657
330
653
100
AcDbEntity
  8
0
 62
     7
370
     9
100
AcDbSpline
210
0.0
220
0.0
230
1.0
 70
     8
 71
     3
 72
    11
 73
     7
 74
     0
 42
0.0000000001
 43
0.0000000001
 40
0.0
 40
0.0
 40
0.0
 40
0.0
 40
1.0
 40
1.0
 40
1.0
 40
2.0
 40
2.0
 40
2.0
 40
2.0
 10
234.7556965558944
 20
156.0178669857351
 30
0.0
 10
234.7563855749915
 20
156.0202785525748
 30
0.0
 10
234.757419103637
 20
156.0225178646402
 30
0.0
 10
234.7581081227341
 20
156.0247571767056
 30
0.0
 10
234.763275765962
 20
156.0395710872922
 30
0.0
 10
234.7684434091898
 20
156.0528347049104
 30
0.0
 10
234.7739555619662
 20
156.0662705773029
 30
0.0
  0
ENDBLK
  5
656
330
653
100
AcDbEntity
  8
0
100
AcDbBlockEnd
  0
BLOCK
  5
65A
330
658
100
AcDbEntity
  8
0
100
AcDbBlockBegin
  2
block 164
 70
     0
 71
     0
 10
0.0
 20
0.0
 30
0.0
  3
block 164
  1

  0
SPLINE
  5
65C
330
658
100
AcDbEntity
  8
0
 62
     7
370
     9
100
AcDbSpline
210
0.0
220
0.0
230
1.0
 70
     8
 71
     3
 72
    20
 73
    16
 74
     0
 42
0.0000000001
 43
0.0000000001
 40
0.0
 40
0.0
 40
0.0
 40
0.0
 40
1.0
 40
1.0
 40
1.0
 40
2.0
 40
2.0
 40
2.0
 40
3.0
 40
3.0
 40
3.0
 40
4.0
 40
4.0
 40
4.0
 40
5.0
 40
5.0
 40
5.0
 40
5.0
 10
234.7556965558944
 20
156.0178669857351
 30
0.0
 10
234.7794677147427
 20
156.0166612023153
 30
0.0
 10
234.8011718162997
 20
156.0189005143807
 30
0.0
 10
234.8211533701142
 20
156.0240681576086
 30
0.0
 10
234.8404459048316
 20
156.0290635460622
 30
0.0
 10
234.8583604013549
 20
156.0369872656782
 30
0.0
 10
234.87351882149
 20
156.0476670616825
 30
0.0
 10
234.8876437129795
 20
156.0574855838155
 30
0.0
 10
234.8997015471779
 20
156.0698879275624
 30
0.0
 10
234.909003304988
 20
156.0840128190519
 30
0.0
 10
234.9179605532497
 20
156.0979654557672
 30
0.0
 10
234.9245062346717
 20
156.1136406402251
 30
0.0
 10
234.9269178015113
 20
156.1305216081028
 30
0.0
 10
234.9289848588025
 20
156.1475748307548
 30
0.0
 10
234.9272623110598
 20
156.1654893272781
 30
0.0
 10
234.9251952537687
 20
156.1835760785756
 30
0.0
  0
ENDBLK
  5
65B
330
658
100
AcDbEntity
  8
0
100
AcDbBlockEnd
  0
BLOCK
  5
65F
330
65D
100
AcDbEntity
  8
0
100
AcDbBlockBegin
  2
block 165
 70
     0
 71
     0
 10
0.0
 20
0.0
 30
0.0
  3
block 165
  1

  0
POLYLINE
  5
661
330
65D
100
AcDbEntity
  8
0
 62
     7
370
     9
100
AcDb2dPolyline
 66
     1
 10
0.0
 20
0.0
 30
0.0
  0
VERTEX
  5
662
330
661
100
AcDbEntity
  8
0
 62
     7
370
     9
100
AcDbVertex
100
AcDb2dVertex
 10
233.3528536743007
 20
157.9459146740552
 30
0.0
  0
VERTEX
  5
663
330
661
100
AcDbEntity
  8
0
 62
     7
370
     9
100
AcDbVertex
100
AcDb2dVertex
 10
233.3177137003511
 20
157.9581447630278
 30
0.0
  0
VERTEX
  5
664
330
661
100
AcDbEntity
  8
0
 62
     7
370
     9
100
AcDbVertex
100
AcDb2dVertex
 10
233.2877413696295
 20
157.9522881007029
 30
0.0
  0
VERTEX
  5
665
330
661
100
AcDbEntity
  8
0
 62
     7
370
     9
100
AcDbVertex
100
AcDb2dVertex
 10
233.267759815815
 20
157.929378215726
 30
0.0
  0
VERTEX
  5
666
330
661
100
AcDbEntity
  8
0
 62
     7
370
     9
100
AcDbVertex
100
AcDb2dVertex
 10
233.2608696248445
 20
157.8928602035824
 30
0.0
  0
VERTEX
  5
667
330
661
100
AcDbEntity
  8
0
 62
     7
370
     9
100
AcDbVertex
100
AcDb2dVertex
 10
233.267759815815
 20
157.8480739622741
 30
0.0
  0
VERTEX
  5
668
330
661
100
AcDbEntity
  8
0
 62
     7
370
     9
100
AcDbVertex
100
AcDb2dVertex
 10
233.2877413696295
 20
157.8022541923203
 30
0.0
  0
VERTEX
  5
669
330
661
100
AcDbEntity
  8
0
 62
     7
370
     9
100
AcDbVertex
100
AcDb2dVertex
 10
233.3177137003511
 20
157.7619465751428
 30
0.0
  0
VERTEX
  5
66A
330
661
100
AcDbEntity
  8
0
 62
     7
370
     9
100
AcDbVertex
100
AcDb2dVertex
 10
233.3528536743007
 20
157.7335245373895
 30
0.0
  0
VERTEX
  5
66B
330
661
100
AcDbEntity
  8
0
 62
     7
370
     9
100
AcDbVertex
100
AcDb2dVertex
 10
233.3879936482502
 20
157.7212944484169
 30
0.0
  0
VERTEX
  5
66C
330
661
100
AcDbEntity
  8
0
 62
     7
370
     9
100
AcDbVertex
100
AcDb2dVertex
 10
233.4179659789719
 20
157.7271511107418
 30
0.0
  0
VERTEX
  5
66D
330
661
100
AcDbEntity
  8
0
 62
     7
370
     9
100
AcDbVertex
100
AcDb2dVertex
 10
233.4376030232378
 20
157.7500609957187
 30
0.0
  0
VERTEX
  5
66E
330
661
100
AcDbEntity
  8
0
 62
     7
370
     9
100
AcDbVertex
100
AcDb2dVertex
 10
233.4448377237568
 20
157.7867512626366
 30
0.0
  0
VERTEX
  5
66F
330
661
100
AcDbEntity
  8
0
 62
     7
370
     9
100
AcDbVertex
100
AcDb2dVertex
 10
233.4376030232378
 20
157.8313652491706
 30
0.0
  0
VERTEX
  5
670
330
661
100
AcDbEntity
  8
0
 62
     7
370
     9
100
AcDbVertex
100
AcDb2dVertex
 10
233.4179659789719
 20
157.8773572738987
 30
0.0
  0
VERTEX
  5
671
330
661
100
AcDbEntity
  8
0
 62
     7
370
     9
100
AcDbVertex
100
AcDb2dVertex
 10
233.3879936482502
 20
157.9174926363019
 30
0.0
  0
VERTEX
  5
672
330
661
100
AcDbEntity
  8
0
 62
     7
370
     9
100
AcDbVertex
100
AcDb2dVertex
 10
233.3528536743007
 20
157.9459146740552
 30
0.0
  0
SEQEND
  5
673
330
661
100
AcDbEntity
  8
0
370
     9
  0
ENDBLK
  5
660
330
65D
100
AcDbEntity
  8
0
100
AcDbBlockEnd
  0
BLOCK
  5
676
330
674
100
AcDbEntity
  8
0
100
AcDbBlockBegin
  2
block 166
 70
     0
 71
     0
 10
0.0
 20
0.0
 30
0.0
  3
block 166
  1

  0
POLYLINE
  5
678
330
674
100
AcDbEntity
  8
0
 62
     7
370
     9
100
AcDb2dPolyline
 66
     1
 10
0.0
 20
0.0
 30
0.0
  0
VERTEX
  5
679
330
678
100
AcDbEntity
  8
0
 62
     7
370
     9
100
AcDbVertex
100
AcDb2dVertex
 10
232.2480115521811
 20
157.467390911154
 30
0.0
  0
VERTEX
  5
67A
330
678
100
AcDbEntity
  8
0
 62
     7
370
     9
100
AcDbVertex
100
AcDb2dVertex
 10
232.212527068683
 20
157.4269110392023
 30
0.0
  0
VERTEX
  5
67B
330
678
100
AcDbEntity
  8
0
 62
     7
370
     9
100
AcDbVertex
100
AcDb2dVertex
 10
232.2001247249361
 20
157.3621432440796
 30
0.0
  0
VERTEX
  5
67C
330
678
100
AcDbEntity
  8
0
 62
     7
370
     9
100
AcDbVertex
100
AcDb2dVertex
 10
232.212527068683
 20
157.2830783026931
 30
0.0
  0
VERTEX
  5
67D
330
678
100
AcDbEntity
  8
0
 62
     7
370
     9
100
AcDbVertex
100
AcDb2dVertex
 10
232.2480115521811
 20
157.2017740492412
 30
0.0
  0
VERTEX
  5
67E
330
678
100
AcDbEntity
  8
0
 62
     7
370
     9
100
AcDbVertex
100
AcDb2dVertex
 10
232.3007215131054
 20
157.1306328274708
 30
0.0
  0
VERTEX
  5
67F
330
678
100
AcDbEntity
  8
0
 62
     7
370
     9
100
AcDbVertex
100
AcDb2dVertex
 10
232.3627332318399
 20
157.0805066881604
 30
0.0
  0
VERTEX
  5
680
330
678
100
AcDbEntity
  8
0
 62
     7
370
     9
100
AcDbVertex
100
AcDb2dVertex
 10
232.4250894601229
 20
157.0588025866033
 30
0.0
  0
VERTEX
  5
681
330
678
100
AcDbEntity
  8
0
 62
     7
370
     9
100
AcDbVertex
100
AcDb2dVertex
 10
232.4777994210472
 20
157.0691378730591
 30
0.0
  0
SEQEND
  5
682
330
678
100
AcDbEntity
  8
0
370
     9
  0
ENDBLK
  5
677
330
674
100
AcDbEntity
  8
0
100
AcDbBlockEnd
  0
BLOCK
  5
685
330
683
100
AcDbEntity
  8
0
100
AcDbBlockBegin
  2
block 167
 70
     0
 71
     0
 10
0.0
 20
0.0
 30
0.0
  3
block 167
  1

  0
POLYLINE
  5
687
330
683
100
AcDbEntity
  8
0
 62
     7
370
     9
100
AcDb2dPolyline
 66
     1
 10
0.0
 20
0.0
 30
0.0
  0
VERTEX
  5
688
330
687
100
AcDbEntity
  8
0
 62
     7
370
     9
100
AcDbVertex
100
AcDb2dVertex
 10
232.4116535877304
 20
157.5619587822241
 30
0.0
  0
VERTEX
  5
689
330
687
100
AcDbEntity
  8
0
 62
     7
370
     9
100
AcDbVertex
100
AcDb2dVertex
 10
232.3627332318399
 20
157.5948594441082
 30
0.0
  0
VERTEX
  5
68A
330
687
100
AcDbEntity
  8
0
 62
     7
370
     9
100
AcDbVertex
100
AcDb2dVertex
 10
232.254557233603
 20
157.6324109848975
 30
0.0
  0
VERTEX
  5
68B
330
687
100
AcDbEntity
  8
0
 62
     7
370
     9
100
AcDbVertex
100
AcDb2dVertex
 10
232.1629176936954
 20
157.6146687431484
 30
0.0
  0
VERTEX
  5
68C
330
687
100
AcDbEntity
  8
0
 62
     7
370
     9
100
AcDbVertex
100
AcDb2dVertex
 10
232.1015949940579
 20
157.5440442857008
 30
0.0
  0
VERTEX
  5
68D
330
687
100
AcDbEntity
  8
0
 62
     7
370
     9
100
AcDbVertex
100
AcDb2dVertex
 10
232.0798908925009
 20
157.4315619181074
 30
0.0
  0
VERTEX
  5
68E
330
687
100
AcDbEntity
  8
0
 62
     7
370
     9
100
AcDbVertex
100
AcDb2dVertex
 10
232.1015949940579
 20
157.2941026082459
 30
0.0
  0
VERTEX
  5
68F
330
687
100
AcDbEntity
  8
0
 62
     7
370
     9
100
AcDbVertex
100
AcDb2dVertex
 10
232.1629176936954
 20
157.1526814385764
 30
0.0
  0
VERTEX
  5
690
330
687
100
AcDbEntity
  8
0
 62
     7
370
     9
100
AcDbVertex
100
AcDb2dVertex
 10
232.254557233603
 20
157.0290025106559
 30
0.0
  0
VERTEX
  5
691
330
687
100
AcDbEntity
  8
0
 62
     7
370
     9
100
AcDbVertex
100
AcDb2dVertex
 10
232.3627332318399
 20
156.9416693401049
 30
0.0
  0
VERTEX
  5
692
330
687
100
AcDbEntity
  8
0
 62
     7
370
     9
100
AcDbVertex
100
AcDb2dVertex
 10
232.4712537396252
 20
156.9039455445414
 30
0.0
  0
VERTEX
  5
693
330
687
100
AcDbEntity
  8
0
 62
     7
370
     9
100
AcDbVertex
100
AcDb2dVertex
 10
232.5628932795329
 20
156.9218600410647
 30
0.0
  0
VERTEX
  5
694
330
687
100
AcDbEntity
  8
0
 62
     7
370
     9
100
AcDbVertex
100
AcDb2dVertex
 10
232.6242159791703
 20
156.992312243738
 30
0.0
  0
VERTEX
  5
695
330
687
100
AcDbEntity
  8
0
 62
     7
370
     9
100
AcDbVertex
100
AcDb2dVertex
 10
232.6455755711789
 20
157.1049668661057
 30
0.0
  0
VERTEX
  5
696
330
687
100
AcDbEntity
  8
0
 62
     7
370
     9
100
AcDbVertex
100
AcDb2dVertex
 10
232.6421304756936
 20
157.1593993747726
 30
0.0
  0
SEQEND
  5
697
330
687
100
AcDbEntity
  8
0
370
     9
  0
ENDBLK
  5
686
330
683
100
AcDbEntity
  8
0
100
AcDbBlockEnd
  0
BLOCK
  5
69A
330
698
100
AcDbEntity
  8
0
100
AcDbBlockBegin
  2
block 168
 70
     0
 71
     0
 10
0.0
 20
0.0
 30
0.0
  3
block 168
  1

  0
POLYLINE
  5
69C
330
698
100
AcDbEntity
  8
0
 62
     7
370
     9
100
AcDb2dPolyline
 66
     1
 10
0.0
 20
0.0
 30
0.0
  0
VERTEX
  5
69D
330
69C
100
AcDbEntity
  8
0
 62
     7
370
     9
100
AcDbVertex
100
AcDb2dVertex
 10
235.1487819507614
 20
156.9091131877693
 30
0.0
  0
VERTEX
  5
69E
330
69C
100
AcDbEntity
  8
0
 62
     7
370
     9
100
AcDbVertex
100
AcDb2dVertex
 10
235.183921924711
 20
156.8806911500159
 30
0.0
  0
VERTEX
  5
69F
330
69C
100
AcDbEntity
  8
0
 62
     7
370
     9
100
AcDbVertex
100
AcDb2dVertex
 10
235.2138942554326
 20
156.8403835328385
 30
0.0
  0
VERTEX
  5
6A0
330
69C
100
AcDbEntity
  8
0
 62
     7
370
     9
100
AcDbVertex
100
AcDb2dVertex
 10
235.2338758092471
 20
156.7945637628847
 30
0.0
  0
VERTEX
  5
6A1
330
69C
100
AcDbEntity
  8
0
 62
     7
370
     9
100
AcDbVertex
100
AcDb2dVertex
 10
235.2407660002176
 20
156.7497775215764
 30
0.0
  0
VERTEX
  5
6A2
330
69C
100
AcDbEntity
  8
0
 62
     7
370
     9
100
AcDbVertex
100
AcDb2dVertex
 10
235.2338758092471
 20
156.7132595094328
 30
0.0
  0
VERTEX
  5
6A3
330
69C
100
AcDbEntity
  8
0
 62
     7
370
     9
100
AcDbVertex
100
AcDb2dVertex
 10
235.2138942554326
 20
156.6903496244559
 30
0.0
  0
VERTEX
  5
6A4
330
69C
100
AcDbEntity
  8
0
 62
     7
370
     9
100
AcDbVertex
100
AcDb2dVertex
 10
235.183921924711
 20
156.684492962131
 30
0.0
  0
VERTEX
  5
6A5
330
69C
100
AcDbEntity
  8
0
 62
     7
370
     9
100
AcDbVertex
100
AcDb2dVertex
 10
235.1487819507614
 20
156.6967230511036
 30
0.0
  0
VERTEX
  5
6A6
330
69C
100
AcDbEntity
  8
0
 62
     7
370
     9
100
AcDbVertex
100
AcDb2dVertex
 10
235.1136419768119
 20
156.7251450888569
 30
0.0
  0
VERTEX
  5
6A7
330
69C
100
AcDbEntity
  8
0
 62
     7
370
     9
100
AcDbVertex
100
AcDb2dVertex
 10
235.0840141556387
 20
156.7652804512601
 30
0.0
  0
VERTEX
  5
6A8
330
69C
100
AcDbEntity
  8
0
 62
     7
370
     9
100
AcDbVertex
100
AcDb2dVertex
 10
235.0640326018243
 20
156.8112724759881
 30
0.0
  0
VERTEX
  5
6A9
330
69C
100
AcDbEntity
  8
0
 62
     7
370
     9
100
AcDbVertex
100
AcDb2dVertex
 10
235.0567979013053
 20
156.8558864625221
 30
0.0
  0
VERTEX
  5
6AA
330
69C
100
AcDbEntity
  8
0
 62
     7
370
     9
100
AcDbVertex
100
AcDb2dVertex
 10
235.0640326018243
 20
156.8925767294401
 30
0.0
  0
VERTEX
  5
6AB
330
69C
100
AcDbEntity
  8
0
 62
     7
370
     9
100
AcDbVertex
100
AcDb2dVertex
 10
235.0840141556387
 20
156.915486614417
 30
0.0
  0
VERTEX
  5
6AC
330
69C
100
AcDbEntity
  8
0
 62
     7
370
     9
100
AcDbVertex
100
AcDb2dVertex
 10
235.1136419768119
 20
156.9213432767419
 30
0.0
  0
VERTEX
  5
6AD
330
69C
100
AcDbEntity
  8
0
 62
     7
370
     9
100
AcDbVertex
100
AcDb2dVertex
 10
235.1487819507614
 20
156.9091131877693
 30
0.0
  0
SEQEND
  5
6AE
330
69C
100
AcDbEntity
  8
0
370
     9
  0
ENDBLK
  5
69B
330
698
100
AcDbEntity
  8
0
100
AcDbBlockEnd
  0
BLOCK
  5
6B1
330
6AF
100
AcDbEntity
  8
0
100
AcDbBlockBegin
  2
block 169
 70
     0
 71
     0
 10
0.0
 20
0.0
 30
0.0
  3
block 169
  1

  0
POLYLINE
  5
6B3
330
6AF
100
AcDbEntity
  8
0
 62
     7
370
     9
100
AcDb2dPolyline
 66
     1
 10
0.0
 20
0.0
 30
0.0
  0
VERTEX
  5
6B4
330
6B3
100
AcDbEntity
  8
0
 62
     7
370
     9
100
AcDbVertex
100
AcDb2dVertex
 10
234.273727697508
 20
156.0321641319989
 30
0.0
  0
VERTEX
  5
6B5
330
6B3
100
AcDbEntity
  8
0
 62
     7
370
     9
100
AcDbVertex
100
AcDb2dVertex
 10
234.2210177365836
 20
156.0220011003174
 30
0.0
  0
VERTEX
  5
6B6
330
6B3
100
AcDbEntity
  8
0
 62
     7
370
     9
100
AcDbVertex
100
AcDb2dVertex
 10
234.1590060178492
 20
156.0435329471002
 30
0.0
  0
VERTEX
  5
6B7
330
6B3
100
AcDbEntity
  8
0
 62
     7
370
     9
100
AcDbVertex
100
AcDb2dVertex
 10
234.0966497895661
 20
156.0938313411849
 30
0.0
  0
VERTEX
  5
6B8
330
6B3
100
AcDbEntity
  8
0
 62
     7
370
     9
100
AcDbVertex
100
AcDb2dVertex
 10
234.0439398286418
 20
156.1649725629553
 30
0.0
  0
VERTEX
  5
6B9
330
6B3
100
AcDbEntity
  8
0
 62
     7
370
     9
100
AcDbVertex
100
AcDb2dVertex
 10
234.0087998546923
 20
156.2462768164072
 30
0.0
  0
VERTEX
  5
6BA
330
6B3
100
AcDbEntity
  8
0
 62
     7
370
     9
100
AcDbVertex
100
AcDb2dVertex
 10
233.9963975109453
 20
156.3253417577937
 30
0.0
  0
VERTEX
  5
6BB
330
6B3
100
AcDbEntity
  8
0
 62
     7
370
     9
100
AcDbVertex
100
AcDb2dVertex
 10
234.0087998546923
 20
156.3901095529164
 30
0.0
  0
VERTEX
  5
6BC
330
6B3
100
AcDbEntity
  8
0
 62
     7
370
     9
100
AcDbVertex
100
AcDb2dVertex
 10
234.0439398286418
 20
156.4305894248681
 30
0.0
  0
SEQEND
  5
6BD
330
6B3
100
AcDbEntity
  8
0
370
     9
  0
ENDBLK
  5
6B2
330
6AF
100
AcDbEntity
  8
0
100
AcDbBlockEnd
  0
BLOCK
  5
6C0
330
6BE
100
AcDbEntity
  8
0
100
AcDbBlockBegin
  2
block 170
 70
     0
 71
     0
 10
0.0
 20
0.0
 30
0.0
  3
block 170
  1

  0
POLYLINE
  5
6C2
330
6BE
100
AcDbEntity
  8
0
 62
     7
370
     9
100
AcDb2dPolyline
 66
     1
 10
0.0
 20
0.0
 30
0.0
  0
VERTEX
  5
6C3
330
6C2
100
AcDbEntity
  8
0
 62
     7
370
     9
100
AcDbVertex
100
AcDb2dVertex
 10
234.1590060178492
 20
156.5580579578223
 30
0.0
  0
VERTEX
  5
6C4
330
6C2
100
AcDbEntity
  8
0
 62
     7
370
     9
100
AcDbVertex
100
AcDb2dVertex
 10
234.2075818641912
 20
156.5251572959382
 30
0.0
  0
SEQEND
  5
6C5
330
6C2
100
AcDbEntity
  8
0
370
     9
  0
ENDBLK
  5
6C1
330
6BE
100
AcDbEntity
  8
0
100
AcDbBlockEnd
  0
BLOCK
  5
6C8
330
6C6
100
AcDbEntity
  8
0
100
AcDbBlockBegin
  2
block 171
 70
     0
 71
     0
 10
0.0
 20
0.0
 30
0.0
  3
block 171
  1

  0
POLYLINE
  5
6CA
330
6C6
100
AcDbEntity
  8
0
 62
     7
370
     9
100
AcDb2dPolyline
 66
     1
 10
0.0
 20
0.0
 30
0.0
  0
VERTEX
  5
6CB
330
6CA
100
AcDbEntity
  8
0
 62
     7
370
     9
100
AcDbVertex
100
AcDb2dVertex
 10
234.4377142426059
 20
156.126732003069
 30
0.0
  0
VERTEX
  5
6CC
330
6CA
100
AcDbEntity
  8
0
 62
     7
370
     9
100
AcDbVertex
100
AcDb2dVertex
 10
234.4418483571881
 20
156.0681653798198
 30
0.0
  0
VERTEX
  5
6CD
330
6CA
100
AcDbEntity
  8
0
 62
     7
370
     9
100
AcDbVertex
100
AcDb2dVertex
 10
234.4201442556311
 20
155.9555107574521
 30
0.0
  0
VERTEX
  5
6CE
330
6CA
100
AcDbEntity
  8
0
 62
     7
370
     9
100
AcDbVertex
100
AcDb2dVertex
 10
234.3588215559936
 20
155.8850585547787
 30
0.0
  0
VERTEX
  5
6CF
330
6CA
100
AcDbEntity
  8
0
 62
     7
370
     9
100
AcDbVertex
100
AcDb2dVertex
 10
234.267182016086
 20
155.8671440582554
 30
0.0
  0
VERTEX
  5
6D0
330
6CA
100
AcDbEntity
  8
0
 62
     7
370
     9
100
AcDbVertex
100
AcDb2dVertex
 10
234.1590060178492
 20
155.9046955990447
 30
0.0
  0
VERTEX
  5
6D1
330
6CA
100
AcDbEntity
  8
0
 62
     7
370
     9
100
AcDbVertex
100
AcDb2dVertex
 10
234.0508300196123
 20
155.99220102437
 30
0.0
  0
VERTEX
  5
6D2
330
6CA
100
AcDbEntity
  8
0
 62
     7
370
     9
100
AcDbVertex
100
AcDb2dVertex
 10
233.9588459701561
 20
156.1158799522905
 30
0.0
  0
VERTEX
  5
6D3
330
6CA
100
AcDbEntity
  8
0
 62
     7
370
     9
100
AcDbVertex
100
AcDb2dVertex
 10
233.8975232705187
 20
156.25730112196
 30
0.0
  0
VERTEX
  5
6D4
330
6CA
100
AcDbEntity
  8
0
 62
     7
370
     9
100
AcDbVertex
100
AcDb2dVertex
 10
233.8761636785101
 20
156.3947604318215
 30
0.0
  0
VERTEX
  5
6D5
330
6CA
100
AcDbEntity
  8
0
 62
     7
370
     9
100
AcDbVertex
100
AcDb2dVertex
 10
233.8975232705187
 20
156.5072427994149
 30
0.0
  0
VERTEX
  5
6D6
330
6CA
100
AcDbEntity
  8
0
 62
     7
370
     9
100
AcDbVertex
100
AcDb2dVertex
 10
233.9588459701561
 20
156.5778672568625
 30
0.0
  0
VERTEX
  5
6D7
330
6CA
100
AcDbEntity
  8
0
 62
     7
370
     9
100
AcDbVertex
100
AcDb2dVertex
 10
234.0508300196123
 20
156.5956094986115
 30
0.0
  0
VERTEX
  5
6D8
330
6CA
100
AcDbEntity
  8
0
 62
     7
370
     9
100
AcDbVertex
100
AcDb2dVertex
 10
234.1590060178492
 20
156.5580579578223
 30
0.0
  0
SEQEND
  5
6D9
330
6CA
100
AcDbEntity
  8
0
370
     9
  0
ENDBLK
  5
6C9
330
6C6
100
AcDbEntity
  8
0
100
AcDbBlockEnd
  0
BLOCK
  5
6DC
330
6DA
100
AcDbEntity
  8
0
100
AcDbBlockBegin
  2
block 172
 70
     0
 71
     0
 10
0.0
 20
0.0
 30
0.0
  3
block 172
  1

  0
SPLINE
  5
6DE
330
6DA
100
AcDbEntity
  8
0
 62
     7
370
     9
100
AcDbSpline
210
0.0
220
0.0
230
1.0
 70
     8
 71
     3
 72
     8
 73
     4
 74
     0
 42
0.0000000001
 43
0.0000000001
 40
0.0
 40
0.0
 40
0.0
 40
0.0
 40
1.0
 40
1.0
 40
1.0
 40
1.0
 10
229.4643744000992
 20
156.6774305163862
 30
0.0
 10
229.4257893306644
 20
156.730484986859
 30
0.0
 10
229.3720458410945
 20
156.771137113585
 30
0.0
 10
229.3103786319085
 20
156.7940469985619
 30
0.0
  0
ENDBLK
  5
6DD
330
6DA
100
AcDbEntity
  8
0
100
AcDbBlockEnd
  0
BLOCK
  5
6E1
330
6DF
100
AcDbEntity
  8
0
100
AcDbBlockBegin
  2
block 173
 70
     0
 71
     0
 10
0.0
 20
0.0
 30
0.0
  3
block 173
  1

  0
POLYLINE
  5
6E3
330
6DF
100
AcDbEntity
  8
0
 62
     7
370
     9
100
AcDb2dPolyline
 66
     1
 10
0.0
 20
0.0
 30
0.0
  0
VERTEX
  5
6E4
330
6E3
100
AcDbEntity
  8
0
 62
     7
370
     9
100
AcDbVertex
100
AcDb2dVertex
 10
229.5467121821967
 20
156.5348035632969
 30
0.0
  0
VERTEX
  5
6E5
330
6E3
100
AcDbEntity
  8
0
 62
     7
370
     9
100
AcDbVertex
100
AcDb2dVertex
 10
229.5722058887875
 20
156.4355848133217
 30
0.0
  0
VERTEX
  5
6E6
330
6E3
100
AcDbEntity
  8
0
 62
     7
370
     9
100
AcDbVertex
100
AcDb2dVertex
 10
229.5701388314964
 20
156.343945273414
 30
0.0
  0
SEQEND
  5
6E7
330
6E3
100
AcDbEntity
  8
0
370
     9
  0
ENDBLK
  5
6E2
330
6DF
100
AcDbEntity
  8
0
100
AcDbBlockEnd
  0
BLOCK
  5
6EA
330
6E8
100
AcDbEntity
  8
0
100
AcDbBlockBegin
  2
block 174
 70
     0
 71
     0
 10
0.0
 20
0.0
 30
0.0
  3
block 174
  1

  0
SPLINE
  5
6EC
330
6E8
100
AcDbEntity
  8
0
 62
     7
370
     9
100
AcDbSpline
210
0.0
220
0.0
230
1.0
 70
     8
 71
     3
 72
    14
 73
    10
 74
     0
 42
0.0000000001
 43
0.0000000001
 40
0.0
 40
0.0
 40
0.0
 40
0.0
 40
1.0
 40
1.0
 40
1.0
 40
2.0
 40
2.0
 40
2.0
 40
3.0
 40
3.0
 40
3.0
 40
3.0
 10
63.60128579139135
 20
60.39252385642965
 30
0.0
 10
63.52859427665258
 20
60.34704859602435
 30
0.0
 10
63.4559027619138
 20
60.30191784516758
 30
0.0
 10
63.38321124717503
 20
60.25644258476228
 30
0.0
 10
63.23765596292323
 20
60.16583657350021
 30
0.0
 10
63.09227293344568
 20
60.07523056223814
 30
0.0
 10
62.94671764919388
 20
59.98462455097607
 30
0.0
 10
62.65664060933585
 20
59.8044460570975
 30
0.0
 10
62.36673582425207
 20
59.62426756321894
 30
0.0
 10
62.07665878439403
 20
59.44374455979185
 30
0.0
  0
ENDBLK
  5
6EB
330
6E8
100
AcDbEntity
  8
0
100
AcDbBlockEnd
  0
BLOCK
  5
6EF
330
6ED
100
AcDbEntity
  8
0
100
AcDbBlockBegin
  2
block 175
 70
     0
 71
     0
 10
0.0
 20
0.0
 30
0.0
  3
block 175
  1

  0
SPLINE
  5
6F1
330
6ED
100
AcDbEntity
  8
0
 62
     7
370
     9
100
AcDbSpline
210
0.0
220
0.0
230
1.0
 70
     8
 71
     3
 72
     8
 73
     4
 74
     0
 42
0.0000000001
 43
0.0000000001
 40
0.0
 40
0.0
 40
0.0
 40
0.0
 40
1.0
 40
1.0
 40
1.0
 40
1.0
 10
62.44425047267019
 20
59.78480901283158
 30
0.0
 10
62.44132214150773
 20
59.97015514993802
 30
0.0
 10
62.3624294548955
 20
60.14585501968576
 30
0.0
 10
62.22600367367961
 20
60.27125649534886
 30
0.0
  0
ENDBLK
  5
6F0
330
6ED
100
AcDbEntity
  8
0
100
AcDbBlockEnd
  0
BLOCK
  5
6F4
330
6F2
100
AcDbEntity
  8
0
100
AcDbBlockBegin
  2
block 176
 70
     0
 71
     0
 10
0.0
 20
0.0
 30
0.0
  3
block 176
  1

  0
SPLINE
  5
6F6
330
6F2
100
AcDbEntity
  8
0
 62
     7
370
     9
100
AcDbSpline
210
0.0
220
0.0
230
1.0
 70
     8
 71
     3
 72
    14
 73
    10
 74
     0
 42
0.0000000001
 43
0.0000000001
 40
0.0
 40
0.0
 40
0.0
 40
0.0
 40
1.0
 40
1.0
 40
1.0
 40
2.0
 40
2.0
 40
2.0
 40
3.0
 40
3.0
 40
3.0
 40
3.0
 10
63.49224851928319
 20
61.06397296650484
 30
0.0
 10
63.45073511868593
 20
61.0398572981081
 30
0.0
 10
63.40904946331441
 20
61.01608613925987
 30
0.0
 10
63.36753606271715
 20
60.99197047086312
 30
0.0
 10
63.18115639696513
 20
60.88448349172332
 30
0.0
 10
62.99477673121311
 20
60.776652003035
 30
0.0
 10
62.8083970654611
 20
60.66882051434668
 30
0.0
 10
62.62046710674072
 20
60.56030000656132
 30
0.0
 10
62.43236489324608
 20
60.45143498922742
 30
0.0
 10
62.24426267975144
 20
60.34256997189352
 30
0.0
  0
ENDBLK
  5
6F5
330
6F2
100
AcDbEntity
  8
0
100
AcDbBlockEnd
  0
BLOCK
  5
6F9
330
6F7
100
AcDbEntity
  8
0
100
AcDbBlockBegin
  2
block 177
 70
     0
 71
     0
 10
0.0
 20
0.0
 30
0.0
  3
block 177
  1

  0
SPLINE
  5
6FB
330
6F7
100
AcDbEntity
  8
0
 62
     7
370
     9
100
AcDbSpline
210
0.0
220
0.0
230
1.0
 70
     8
 71
     3
 72
    11
 73
     7
 74
     0
 42
0.0000000001
 43
0.0000000001
 40
0.0
 40
0.0
 40
0.0
 40
0.0
 40
1.0
 40
1.0
 40
1.0
 40
2.0
 40
2.0
 40
2.0
 40
2.0
 10
62.07665878439403
 20
60.57614744579347
 30
0.0
 10
62.36673582425207
 20
60.74564614366776
 30
0.0
 10
62.65664060933585
 20
60.91548935109058
 30
0.0
 10
62.94671764919388
 20
61.08498804896487
 30
0.0
 10
63.13051349333196
 20
61.19247502810466
 30
0.0
 10
63.31430933747004
 20
61.29996200724446
 30
0.0
 10
63.49827743638238
 20
61.40744898638425
 30
0.0
  0
ENDBLK
  5
6FA
330
6F7
100
AcDbEntity
  8
0
100
AcDbBlockEnd
  0
BLOCK
  5
6FE
330
6FC
100
AcDbEntity
  8
0
100
AcDbBlockBegin
  2
block 178
 70
     0
 71
     0
 10
0.0
 20
0.0
 30
0.0
  3
block 178
  1

  0
SPLINE
  5
700
330
6FC
100
AcDbEntity
  8
0
 62
     7
370
     9
100
AcDbSpline
210
0.0
220
0.0
230
1.0
 70
     8
 71
     3
 72
     8
 73
     4
 74
     0
 42
0.0000000001
 43
0.0000000001
 40
0.0
 40
0.0
 40
0.0
 40
0.0
 40
1.0
 40
1.0
 40
1.0
 40
1.0
 10
234.6092799977713
 20
156.22577849827
 30
0.0
 10
234.4818114648171
 20
155.872139446709
 30
0.0
 10
234.6113470550625
 20
155.4773315040994
 30
0.0
 10
234.9231281964776
 20
155.2680419533705
 30
0.0
  0
ENDBLK
  5
6FF
330
6FC
100
AcDbEntity
  8
0
100
AcDbBlockEnd
  0
BLOCK
  5
703
330
701
100
AcDbEntity
  8
0
100
AcDbBlockBegin
  2
block 179
 70
     0
 71
     0
 10
0.0
 20
0.0
 30
0.0
  3
block 179
  1

  0
POLYLINE
  5
705
330
701
100
AcDbEntity
  8
0
 62
     7
370
     9
100
AcDb2dPolyline
 66
     1
 10
0.0
 20
0.0
 30
0.0
  0
VERTEX
  5
706
330
705
100
AcDbEntity
  8
0
 62
     7
370
     9
100
AcDbVertex
100
AcDb2dVertex
 10
234.7942816253292
 20
156.332748713087
 30
0.0
  0
VERTEX
  5
707
330
705
100
AcDbEntity
  8
0
 62
     7
370
     9
100
AcDbVertex
100
AcDb2dVertex
 10
234.9231281964776
 20
156.3122503949497
 30
0.0
  0
SEQEND
  5
708
330
705
100
AcDbEntity
  8
0
370
     9
  0
ENDBLK
  5
704
330
701
100
AcDbEntity
  8
0
100
AcDbBlockEnd
  0
BLOCK
  5
70B
330
709
100
AcDbEntity
  8
0
100
AcDbBlockBegin
  2
block 180
 70
     0
 71
     0
 10
0.0
 20
0.0
 30
0.0
  3
block 180
  1

  0
POLYLINE
  5
70D
330
709
100
AcDbEntity
  8
0
 62
     7
370
     9
100
AcDb2dPolyline
 66
     1
 10
0.0
 20
0.0
 30
0.0
  0
VERTEX
  5
70E
330
70D
100
AcDbEntity
  8
0
 62
     7
370
     9
100
AcDbVertex
100
AcDb2dVertex
 10
231.591720862241
 20
157.2885904554695
 30
0.0
  0
VERTEX
  5
70F
330
70D
100
AcDbEntity
  8
0
 62
     7
370
     9
100
AcDbVertex
100
AcDb2dVertex
 10
231.6278943648361
 20
157.3161512193515
 30
0.0
  0
VERTEX
  5
710
330
70D
100
AcDbEntity
  8
0
 62
     7
370
     9
100
AcDbVertex
100
AcDb2dVertex
 10
231.6726806061444
 20
157.3928045938983
 30
0.0
  0
VERTEX
  5
711
330
70D
100
AcDbEntity
  8
0
 62
     7
370
     9
100
AcDbVertex
100
AcDb2dVertex
 10
231.688183535828
 20
157.4973632418757
 30
0.0
  0
VERTEX
  5
712
330
70D
100
AcDbEntity
  8
0
 62
     7
370
     9
100
AcDbVertex
100
AcDb2dVertex
 10
231.6726806061444
 20
157.619664131602
 30
0.0
  0
VERTEX
  5
713
330
70D
100
AcDbEntity
  8
0
 62
     7
370
     9
100
AcDbVertex
100
AcDb2dVertex
 10
231.6278943648361
 20
157.7478216836533
 30
0.0
  0
VERTEX
  5
714
330
70D
100
AcDbEntity
  8
0
 62
     7
370
     9
100
AcDbVertex
100
AcDb2dVertex
 10
231.5579589264855
 20
157.8697780638312
 30
0.0
  0
VERTEX
  5
715
330
70D
100
AcDbEntity
  8
0
 62
     7
370
     9
100
AcDbVertex
100
AcDb2dVertex
 10
231.4697644820631
 20
157.9736476927115
 30
0.0
  0
SEQEND
  5
716
330
70D
100
AcDbEntity
  8
0
370
     9
  0
ENDBLK
  5
70C
330
709
100
AcDbEntity
  8
0
100
AcDbBlockEnd
  0
BLOCK
  5
719
330
717
100
AcDbEntity
  8
0
100
AcDbBlockBegin
  2
block 181
 70
     0
 71
     0
 10
0.0
 20
0.0
 30
0.0
  3
block 181
  1

  0
POLYLINE
  5
71B
330
717
100
AcDbEntity
  8
0
 62
     7
370
     9
100
AcDb2dPolyline
 66
     1
 10
0.0
 20
0.0
 30
0.0
  0
VERTEX
  5
71C
330
71B
100
AcDbEntity
  8
0
 62
     7
370
     9
100
AcDbVertex
100
AcDb2dVertex
 10
234.7739555619662
 20
156.0662705773029
 30
0.0
  0
VERTEX
  5
71D
330
71B
100
AcDbEntity
  8
0
 62
     7
370
     9
100
AcDbVertex
100
AcDb2dVertex
 10
234.6857611175438
 20
156.0642035200117
 30
0.0
  0
VERTEX
  5
71E
330
71B
100
AcDbEntity
  8
0
 62
     7
370
     9
100
AcDbVertex
100
AcDb2dVertex
 10
234.6478650672061
 20
156.0481838260053
 30
0.0
  0
SEQEND
  5
71F
330
71B
100
AcDbEntity
  8
0
370
     9
  0
ENDBLK
  5
71A
330
717
100
AcDbEntity
  8
0
100
AcDbBlockEnd
  0
BLOCK
  5
722
330
720
100
AcDbEntity
  8
0
100
AcDbBlockBegin
  2
block 182
 70
     0
 71
     0
 10
0.0
 20
0.0
 30
0.0
  3
block 182
  1

  0
POLYLINE
  5
724
330
720
100
AcDbEntity
  8
0
 62
     7
370
     9
100
AcDb2dPolyline
 66
     1
 10
0.0
 20
0.0
 30
0.0
  0
VERTEX
  5
725
330
724
100
AcDbEntity
  8
0
 62
     7
370
     9
100
AcDbVertex
100
AcDb2dVertex
 10
234.6127250932566
 20
155.9301893056355
 30
0.0
  0
VERTEX
  5
726
330
724
100
AcDbEntity
  8
0
 62
     7
370
     9
100
AcDbVertex
100
AcDb2dVertex
 10
234.7556965558944
 20
156.0178669857351
 30
0.0
  0
SEQEND
  5
727
330
724
100
AcDbEntity
  8
0
370
     9
  0
ENDBLK
  5
723
330
720
100
AcDbEntity
  8
0
100
AcDbBlockEnd
  0
BLOCK
  5
72A
330
728
100
AcDbEntity
  8
0
100
AcDbBlockBegin
  2
block 183
 70
     0
 71
     0
 10
0.0
 20
0.0
 30
0.0
  3
block 183
  1

  0
SPLINE
  5
72C
330
728
100
AcDbEntity
  8
0
 62
     7
370
     9
100
AcDbSpline
210
0.0
220
0.0
230
1.0
 70
     8
 71
     3
 72
    29
 73
    25
 74
     0
 42
0.0000000001
 43
0.0000000001
 40
0.0
 40
0.0
 40
0.0
 40
0.0
 40
1.0
 40
1.0
 40
1.0
 40
2.0
 40
2.0
 40
2.0
 40
3.0
 40
3.0
 40
3.0
 40
4.0
 40
4.0
 40
4.0
 40
5.0
 40
5.0
 40
5.0
 40
6.0
 40
6.0
 40
6.0
 40
7.0
 40
7.0
 40
7.0
 40
8.0
 40
8.0
 40
8.0
 40
8.0
 10
233.3972954060604
 20
157.5998548325618
 30
0.0
 10
233.3969508965119
 20
157.5996825777876
 30
0.0
 10
233.3442409355875
 20
157.5895195461061
 30
0.0
 10
233.3442409355875
 20
157.5895195461061
 30
0.0
 10
233.3442409355875
 20
157.5895195461061
 30
0.0
 10
233.2822292168531
 20
157.6110513928889
 30
0.0
 10
233.2822292168531
 20
157.6110513928889
 30
0.0
 10
233.2822292168531
 20
157.6110513928889
 30
0.0
 10
233.21987298857
 20
157.6613497869735
 30
0.0
 10
233.21987298857
 20
157.6613497869735
 30
0.0
 10
233.21987298857
 20
157.6613497869735
 30
0.0
 10
233.1671630276457
 20
157.732491008744
 30
0.0
 10
233.1671630276457
 20
157.732491008744
 30
0.0
 10
233.1671630276457
 20
157.732491008744
 30
0.0
 10
233.1320230536962
 20
157.8137952621959
 30
0.0
 10
233.1320230536962
 20
157.8137952621959
 30
0.0
 10
233.1320230536962
 20
157.8137952621959
 30
0.0
 10
233.1196207099493
 20
157.8928602035824
 30
0.0
 10
233.1196207099493
 20
157.8928602035824
 30
0.0
 10
233.1196207099493
 20
157.8928602035824
 30
0.0
 10
233.1320230536962
 20
157.9574557439308
 30
0.0
 10
233.1320230536962
 20
157.9574557439308
 30
0.0
 10
233.1320230536962
 20
157.9574557439308
 30
0.0
 10
233.1671630276457
 20
157.9981078706567
 30
0.0
 10
233.1671630276457
 20
157.9981078706567
 30
0.0
  0
ENDBLK
  5
72B
330
728
100
AcDbEntity
  8
0
100
AcDbBlockEnd
  0
BLOCK
  5
72F
330
72D
100
AcDbEntity
  8
0
100
AcDbBlockBegin
  2
block 184
 70
     0
 71
     0
 10
0.0
 20
0.0
 30
0.0
  3
block 184
  1

  0
SPLINE
  5
731
330
72D
100
AcDbEntity
  8
0
 62
     7
370
     9
100
AcDbSpline
210
0.0
220
0.0
230
1.0
 70
     8
 71
     3
 72
    29
 73
    25
 74
     0
 42
0.0000000001
 43
0.0000000001
 40
0.0
 40
0.0
 40
0.0
 40
0.0
 40
1.0
 40
1.0
 40
1.0
 40
2.0
 40
2.0
 40
2.0
 40
3.0
 40
3.0
 40
3.0
 40
4.0
 40
4.0
 40
4.0
 40
5.0
 40
5.0
 40
5.0
 40
6.0
 40
6.0
 40
6.0
 40
7.0
 40
7.0
 40
7.0
 40
8.0
 40
8.0
 40
8.0
 40
8.0
 10
234.963435813655
 20
156.961478639145
 30
0.0
 10
234.9630913041065
 20
156.9613063843708
 30
0.0
 10
234.9279513301569
 20
156.9206542576449
 30
0.0
 10
234.9279513301569
 20
156.9206542576449
 30
0.0
 10
234.9279513301569
 20
156.9206542576449
 30
0.0
 10
234.91554898641
 20
156.8558864625221
 30
0.0
 10
234.91554898641
 20
156.8558864625221
 30
0.0
 10
234.91554898641
 20
156.8558864625221
 30
0.0
 10
234.9279513301569
 20
156.7769937759099
 30
0.0
 10
234.9279513301569
 20
156.7769937759099
 30
0.0
 10
234.9279513301569
 20
156.7769937759099
 30
0.0
 10
234.9630913041065
 20
156.695689522458
 30
0.0
 10
234.9630913041065
 20
156.695689522458
 30
0.0
 10
234.9630913041065
 20
156.695689522458
 30
0.0
 10
235.0158012650308
 20
156.6245483006876
 30
0.0
 10
235.0158012650308
 20
156.6245483006876
 30
0.0
 10
235.0158012650308
 20
156.6245483006876
 30
0.0
 10
235.0781574933138
 20
156.574249906603
 30
0.0
 10
235.0781574933138
 20
156.574249906603
 30
0.0
 10
235.0781574933138
 20
156.574249906603
 30
0.0
 10
235.1405137215968
 20
156.5527180598202
 30
0.0
 10
235.1405137215968
 20
156.5527180598202
 30
0.0
 10
235.1405137215968
 20
156.5527180598202
 30
0.0
 10
235.1932236825211
 20
156.5628810915017
 30
0.0
 10
235.1932236825211
 20
156.5628810915017
 30
0.0
  0
ENDBLK
  5
730
330
72D
100
AcDbEntity
  8
0
100
AcDbBlockEnd
  0
BLOCK
  5
734
330
732
100
AcDbEntity
  8
0
100
AcDbBlockBegin
  2
block 185
 70
     0
 71
     0
 10
0.0
 20
0.0
 30
0.0
  3
block 185
  1

  0
POLYLINE
  5
736
330
732
100
AcDbEntity
  8
0
 62
     7
370
     9
100
AcDb2dPolyline
 66
     1
 10
0.0
 20
0.0
 30
0.0
  0
VERTEX
  5
737
330
736
100
AcDbEntity
  8
0
 62
     7
370
     9
100
AcDbVertex
100
AcDb2dVertex
 10
62.0368679315394
 20
58.67548826658113
 30
0.0
  0
VERTEX
  5
738
330
736
100
AcDbEntity
  8
0
 62
     7
370
     9
100
AcDbVertex
100
AcDb2dVertex
 10
61.98415797061507
 20
58.66515298012538
 30
0.0
  0
VERTEX
  5
739
330
736
100
AcDbEntity
  8
0
 62
     7
370
     9
100
AcDbVertex
100
AcDb2dVertex
 10
61.92180174233205
 20
58.68685708168245
 30
0.0
  0
VERTEX
  5
73A
330
736
100
AcDbEntity
  8
0
 62
     7
370
     9
100
AcDbVertex
100
AcDb2dVertex
 10
61.85961776882329
 20
58.7371554757671
 30
0.0
  0
VERTEX
  5
73B
330
736
100
AcDbEntity
  8
0
 62
     7
370
     9
100
AcDbVertex
100
AcDb2dVertex
 10
61.80690780789897
 20
58.80846895231178
 30
0.0
  0
VERTEX
  5
73C
330
736
100
AcDbEntity
  8
0
 62
     7
370
     9
100
AcDbVertex
100
AcDb2dVertex
 10
61.77159557917516
 20
58.88977320576367
 30
0.0
  0
VERTEX
  5
73D
330
736
100
AcDbEntity
  8
0
 62
     7
370
     9
100
AcDbVertex
100
AcDb2dVertex
 10
61.75919323542826
 20
58.96866589237589
 30
0.0
  0
VERTEX
  5
73E
330
736
100
AcDbEntity
  8
0
 62
     7
370
     9
100
AcDbVertex
100
AcDb2dVertex
 10
61.77159557917516
 20
59.03343368749859
 30
0.0
  0
VERTEX
  5
73F
330
736
100
AcDbEntity
  8
0
 62
     7
370
     9
100
AcDbVertex
100
AcDb2dVertex
 10
61.80690780789897
 20
59.07408581422454
 30
0.0
  0
SEQEND
  5
740
330
736
100
AcDbEntity
  8
0
370
     9
  0
ENDBLK
  5
735
330
732
100
AcDbEntity
  8
0
100
AcDbBlockEnd
  0
ENDSEC
  0
SECTION
  2
ENTITIES
  0
INSERT
  5
3C
330
1F
100
AcDbEntity
  8
0
100
AcDbBlockReference
  2
block 2
 10
0.0
 20
0.0
 30
0.0
  0
INSERT
  5
53
330
1F
100
AcDbEntity
  8
0
100
AcDbBlockReference
  2
block 3
 10
0.0
 20
0.0
 30
0.0
  0
INSERT
  5
5B
330
1F
100
AcDbEntity
  8
0
100
AcDbBlockReference
  2
block 4
 10
0.0
 20
0.0
 30
0.0
  0
INSERT
  5
60
330
1F
100
AcDbEntity
  8
0
100
AcDbBlockReference
  2
block 5
 10
0.0
 20
0.0
 30
0.0
  0
INSERT
  5
65
330
1F
100
AcDbEntity
  8
0
100
AcDbBlockReference
  2
block 6
 10
0.0
 20
0.0
 30
0.0
  0
INSERT
  5
6D
330
1F
100
AcDbEntity
  8
0
100
AcDbBlockReference
  2
block 7
 10
0.0
 20
0.0
 30
0.0
  0
INSERT
  5
75
330
1F
100
AcDbEntity
  8
0
100
AcDbBlockReference
  2
block 8
 10
0.0
 20
0.0
 30
0.0
  0
INSERT
  5
7D
330
1F
100
AcDbEntity
  8
0
100
AcDbBlockReference
  2
block 9
 10
0.0
 20
0.0
 30
0.0
  0
INSERT
  5
85
330
1F
100
AcDbEntity
  8
0
100
AcDbBlockReference
  2
block 10
 10
0.0
 20
0.0
 30
0.0
  0
INSERT
  5
8D
330
1F
100
AcDbEntity
  8
0
100
AcDbBlockReference
  2
block 11
 10
0.0
 20
0.0
 30
0.0
  0
INSERT
  5
95
330
1F
100
AcDbEntity
  8
0
100
AcDbBlockReference
  2
block 12
 10
0.0
 20
0.0
 30
0.0
  0
INSERT
  5
9D
330
1F
100
AcDbEntity
  8
0
100
AcDbBlockReference
  2
block 13
 10
0.0
 20
0.0
 30
0.0
  0
INSERT
  5
A5
330
1F
100
AcDbEntity
  8
0
100
AcDbBlockReference
  2
block 14
 10
0.0
 20
0.0
 30
0.0
  0
INSERT
  5
AD
330
1F
100
AcDbEntity
  8
0
100
AcDbBlockReference
  2
block 15
 10
0.0
 20
0.0
 30
0.0
  0
INSERT
  5
B5
330
1F
100
AcDbEntity
  8
0
100
AcDbBlockReference
  2
block 16
 10
0.0
 20
0.0
 30
0.0
  0
INSERT
  5
BD
330
1F
100
AcDbEntity
  8
0
100
AcDbBlockReference
  2
block 17
 10
0.0
 20
0.0
 30
0.0
  0
INSERT
  5
C5
330
1F
100
AcDbEntity
  8
0
100
AcDbBlockReference
  2
block 18
 10
0.0
 20
0.0
 30
0.0
  0
INSERT
  5
CD
330
1F
100
AcDbEntity
  8
0
100
AcDbBlockReference
  2
block 19
 10
0.0
 20
0.0
 30
0.0
  0
INSERT
  5
D5
330
1F
100
AcDbEntity
  8
0
100
AcDbBlockReference
  2
block 20
 10
0.0
 20
0.0
 30
0.0
  0
INSERT
  5
DD
330
1F
100
AcDbEntity
  8
0
100
AcDbBlockReference
  2
block 21
 10
0.0
 20
0.0
 30
0.0
  0
INSERT
  5
E5
330
1F
100
AcDbEntity
  8
0
100
AcDbBlockReference
  2
block 22
 10
0.0
 20
0.0
 30
0.0
  0
INSERT
  5
ED
330
1F
100
AcDbEntity
  8
0
100
AcDbBlockReference
  2
block 23
 10
0.0
 20
0.0
 30
0.0
  0
INSERT
  5
F5
330
1F
100
AcDbEntity
  8
0
100
AcDbBlockReference
  2
block 24
 10
0.0
 20
0.0
 30
0.0
  0
INSERT
  5
FD
330
1F
100
AcDbEntity
  8
0
100
AcDbBlockReference
  2
block 25
 10
0.0
 20
0.0
 30
0.0
  0
INSERT
  5
105
330
1F
100
AcDbEntity
  8
0
100
AcDbBlockReference
  2
block 26
 10
0.0
 20
0.0
 30
0.0
  0
INSERT
  5
10D
330
1F
100
AcDbEntity
  8
0
100
AcDbBlockReference
  2
block 27
 10
0.0
 20
0.0
 30
0.0
  0
INSERT
  5
115
330
1F
100
AcDbEntity
  8
0
100
AcDbBlockReference
  2
block 28
 10
0.0
 20
0.0
 30
0.0
  0
INSERT
  5
11D
330
1F
100
AcDbEntity
  8
0
100
AcDbBlockReference
  2
block 29
 10
0.0
 20
0.0
 30
0.0
  0
INSERT
  5
125
330
1F
100
AcDbEntity
  8
0
100
AcDbBlockReference
  2
block 30
 10
0.0
 20
0.0
 30
0.0
  0
INSERT
  5
12D
330
1F
100
AcDbEntity
  8
0
100
AcDbBlockReference
  2
block 31
 10
0.0
 20
0.0
 30
0.0
  0
INSERT
  5
135
330
1F
100
AcDbEntity
  8
0
100
AcDbBlockReference
  2
block 32
 10
0.0
 20
0.0
 30
0.0
  0
INSERT
  5
13A
330
1F
100
AcDbEntity
  8
0
100
AcDbBlockReference
  2
block 33
 10
0.0
 20
0.0
 30
0.0
  0
INSERT
  5
13F
330
1F
100
AcDbEntity
  8
0
100
AcDbBlockReference
  2
block 34
 10
0.0
 20
0.0
 30
0.0
  0
INSERT
  5
147
330
1F
100
AcDbEntity
  8
0
100
AcDbBlockReference
  2
block 35
 10
0.0
 20
0.0
 30
0.0
  0
INSERT
  5
14F
330
1F
100
AcDbEntity
  8
0
100
AcDbBlockReference
  2
block 36
 10
0.0
 20
0.0
 30
0.0
  0
INSERT
  5
157
330
1F
100
AcDbEntity
  8
0
100
AcDbBlockReference
  2
block 37
 10
0.0
 20
0.0
 30
0.0
  0
INSERT
  5
15C
330
1F
100
AcDbEntity
  8
0
100
AcDbBlockReference
  2
block 38
 10
0.0
 20
0.0
 30
0.0
  0
INSERT
  5
164
330
1F
100
AcDbEntity
  8
0
100
AcDbBlockReference
  2
block 39
 10
0.0
 20
0.0
 30
0.0
  0
INSERT
  5
169
330
1F
100
AcDbEntity
  8
0
100
AcDbBlockReference
  2
block 40
 10
0.0
 20
0.0
 30
0.0
  0
INSERT
  5
171
330
1F
100
AcDbEntity
  8
0
100
AcDbBlockReference
  2
block 41
 10
0.0
 20
0.0
 30
0.0
  0
INSERT
  5
179
330
1F
100
AcDbEntity
  8
0
100
AcDbBlockReference
  2
block 42
 10
0.0
 20
0.0
 30
0.0
  0
INSERT
  5
17E
330
1F
100
AcDbEntity
  8
0
100
AcDbBlockReference
  2
block 43
 10
0.0
 20
0.0
 30
0.0
  0
INSERT
  5
183
330
1F
100
AcDbEntity
  8
0
100
AcDbBlockReference
  2
block 44
 10
0.0
 20
0.0
 30
0.0
  0
INSERT
  5
18B
330
1F
100
AcDbEntity
  8
0
100
AcDbBlockReference
  2
block 45
 10
0.0
 20
0.0
 30
0.0
  0
INSERT
  5
190
330
1F
100
AcDbEntity
  8
0
100
AcDbBlockReference
  2
block 46
 10
0.0
 20
0.0
 30
0.0
  0
INSERT
  5
195
330
1F
100
AcDbEntity
  8
0
100
AcDbBlockReference
  2
block 47
 10
0.0
 20
0.0
 30
0.0
  0
INSERT
  5
19D
330
1F
100
AcDbEntity
  8
0
100
AcDbBlockReference
  2
block 48
 10
0.0
 20
0.0
 30
0.0
  0
INSERT
  5
1A5
330
1F
100
AcDbEntity
  8
0
100
AcDbBlockReference
  2
block 49
 10
0.0
 20
0.0
 30
0.0
  0
INSERT
  5
1AA
330
1F
100
AcDbEntity
  8
0
100
AcDbBlockReference
  2
block 50
 10
0.0
 20
0.0
 30
0.0
  0
INSERT
  5
1AF
330
1F
100
AcDbEntity
  8
0
100
AcDbBlockReference
  2
block 51
 10
0.0
 20
0.0
 30
0.0
  0
INSERT
  5
1B7
330
1F
100
AcDbEntity
  8
0
100
AcDbBlockReference
  2
block 52
 10
0.0
 20
0.0
 30
0.0
  0
INSERT
  5
1BF
330
1F
100
AcDbEntity
  8
0
100
AcDbBlockReference
  2
block 53
 10
0.0
 20
0.0
 30
0.0
  0
INSERT
  5
1C7
330
1F
100
AcDbEntity
  8
0
100
AcDbBlockReference
  2
block 54
 10
0.0
 20
0.0
 30
0.0
  0
INSERT
  5
1CF
330
1F
100
AcDbEntity
  8
0
100
AcDbBlockReference
  2
block 55
 10
0.0
 20
0.0
 30
0.0
  0
INSERT
  5
1D4
330
1F
100
AcDbEntity
  8
0
100
AcDbBlockReference
  2
block 56
 10
0.0
 20
0.0
 30
0.0
  0
INSERT
  5
1D9
330
1F
100
AcDbEntity
  8
0
100
AcDbBlockReference
  2
block 57
 10
0.0
 20
0.0
 30
0.0
  0
INSERT
  5
1DE
330
1F
100
AcDbEntity
  8
0
100
AcDbBlockReference
  2
block 58
 10
0.0
 20
0.0
 30
0.0
  0
INSERT
  5
1E3
330
1F
100
AcDbEntity
  8
0
100
AcDbBlockReference
  2
block 59
 10
0.0
 20
0.0
 30
0.0
  0
INSERT
  5
1E8
330
1F
100
AcDbEntity
  8
0
100
AcDbBlockReference
  2
block 60
 10
0.0
 20
0.0
 30
0.0
  0
INSERT
  5
1ED
330
1F
100
AcDbEntity
  8
0
100
AcDbBlockReference
  2
block 61
 10
0.0
 20
0.0
 30
0.0
  0
INSERT
  5
1F2
330
1F
100
AcDbEntity
  8
0
100
AcDbBlockReference
  2
block 62
 10
0.0
 20
0.0
 30
0.0
  0
INSERT
  5
1FA
330
1F
100
AcDbEntity
  8
0
100
AcDbBlockReference
  2
block 63
 10
0.0
 20
0.0
 30
0.0
  0
INSERT
  5
1FF
330
1F
100
AcDbEntity
  8
0
100
AcDbBlockReference
  2
block 64
 10
0.0
 20
0.0
 30
0.0
  0
INSERT
  5
207
330
1F
100
AcDbEntity
  8
0
100
AcDbBlockReference
  2
block 65
 10
0.0
 20
0.0
 30
0.0
  0
INSERT
  5
20F
330
1F
100
AcDbEntity
  8
0
100
AcDbBlockReference
  2
block 66
 10
0.0
 20
0.0
 30
0.0
  0
INSERT
  5
217
330
1F
100
AcDbEntity
  8
0
100
AcDbBlockReference
  2
block 67
 10
0.0
 20
0.0
 30
0.0
  0
INSERT
  5
22E
330
1F
100
AcDbEntity
  8
0
100
AcDbBlockReference
  2
block 68
 10
0.0
 20
0.0
 30
0.0
  0
INSERT
  5
236
330
1F
100
AcDbEntity
  8
0
100
AcDbBlockReference
  2
block 69
 10
0.0
 20
0.0
 30
0.0
  0
INSERT
  5
23E
330
1F
100
AcDbEntity
  8
0
100
AcDbBlockReference
  2
block 70
 10
0.0
 20
0.0
 30
0.0
  0
INSERT
  5
255
330
1F
100
AcDbEntity
  8
0
100
AcDbBlockReference
  2
block 71
 10
0.0
 20
0.0
 30
0.0
  0
INSERT
  5
25A
330
1F
100
AcDbEntity
  8
0
100
AcDbBlockReference
  2
block 72
 10
0.0
 20
0.0
 30
0.0
  0
INSERT
  5
262
330
1F
100
AcDbEntity
  8
0
100
AcDbBlockReference
  2
block 73
 10
0.0
 20
0.0
 30
0.0
  0
INSERT
  5
26A
330
1F
100
AcDbEntity
  8
0
100
AcDbBlockReference
  2
block 74
 10
0.0
 20
0.0
 30
0.0
  0
INSERT
  5
272
330
1F
100
AcDbEntity
  8
0
100
AcDbBlockReference
  2
block 75
 10
0.0
 20
0.0
 30
0.0
  0
INSERT
  5
27A
330
1F
100
AcDbEntity
  8
0
100
AcDbBlockReference
  2
block 76
 10
0.0
 20
0.0
 30
0.0
  0
INSERT
  5
27F
330
1F
100
AcDbEntity
  8
0
100
AcDbBlockReference
  2
block 77
 10
0.0
 20
0.0
 30
0.0
  0
INSERT
  5
287
330
1F
100
AcDbEntity
  8
0
100
AcDbBlockReference
  2
block 78
 10
0.0
 20
0.0
 30
0.0
  0
INSERT
  5
28F
330
1F
100
AcDbEntity
  8
0
100
AcDbBlockReference
  2
block 79
 10
0.0
 20
0.0
 30
0.0
  0
INSERT
  5
297
330
1F
100
AcDbEntity
  8
0
100
AcDbBlockReference
  2
block 80
 10
0.0
 20
0.0
 30
0.0
  0
INSERT
  5
29C
330
1F
100
AcDbEntity
  8
0
100
AcDbBlockReference
  2
block 81
 10
0.0
 20
0.0
 30
0.0
  0
INSERT
  5
2A1
330
1F
100
AcDbEntity
  8
0
100
AcDbBlockReference
  2
block 82
 10
0.0
 20
0.0
 30
0.0
  0
INSERT
  5
2A9
330
1F
100
AcDbEntity
  8
0
100
AcDbBlockReference
  2
block 83
 10
0.0
 20
0.0
 30
0.0
  0
INSERT
  5
2B6
330
1F
100
AcDbEntity
  8
0
100
AcDbBlockReference
  2
block 84
 10
0.0
 20
0.0
 30
0.0
  0
INSERT
  5
2BB
330
1F
100
AcDbEntity
  8
0
100
AcDbBlockReference
  2
block 85
 10
0.0
 20
0.0
 30
0.0
  0
INSERT
  5
2C3
330
1F
100
AcDbEntity
  8
0
100
AcDbBlockReference
  2
block 86
 10
0.0
 20
0.0
 30
0.0
  0
INSERT
  5
2D0
330
1F
100
AcDbEntity
  8
0
100
AcDbBlockReference
  2
block 87
 10
0.0
 20
0.0
 30
0.0
  0
INSERT
  5
2D5
330
1F
100
AcDbEntity
  8
0
100
AcDbBlockReference
  2
block 88
 10
0.0
 20
0.0
 30
0.0
  0
INSERT
  5
2DD
330
1F
100
AcDbEntity
  8
0
100
AcDbBlockReference
  2
block 89
 10
0.0
 20
0.0
 30
0.0
  0
INSERT
  5
2EA
330
1F
100
AcDbEntity
  8
0
100
AcDbBlockReference
  2
block 90
 10
0.0
 20
0.0
 30
0.0
  0
INSERT
  5
2F2
330
1F
100
AcDbEntity
  8
0
100
AcDbBlockReference
  2
block 91
 10
0.0
 20
0.0
 30
0.0
  0
INSERT
  5
2F7
330
1F
100
AcDbEntity
  8
0
100
AcDbBlockReference
  2
block 92
 10
0.0
 20
0.0
 30
0.0
  0
INSERT
  5
303
330
1F
100
AcDbEntity
  8
0
100
AcDbBlockReference
  2
block 93
 10
0.0
 20
0.0
 30
0.0
  0
INSERT
  5
30F
330
1F
100
AcDbEntity
  8
0
100
AcDbBlockReference
  2
block 94
 10
0.0
 20
0.0
 30
0.0
  0
INSERT
  5
31A
330
1F
100
AcDbEntity
  8
0
100
AcDbBlockReference
  2
block 95
 10
0.0
 20
0.0
 30
0.0
  0
INSERT
  5
31F
330
1F
100
AcDbEntity
  8
0
100
AcDbBlockReference
  2
block 96
 10
0.0
 20
0.0
 30
0.0
  0
INSERT
  5
324
330
1F
100
AcDbEntity
  8
0
100
AcDbBlockReference
  2
block 97
 10
0.0
 20
0.0
 30
0.0
  0
INSERT
  5
32C
330
1F
100
AcDbEntity
  8
0
100
AcDbBlockReference
  2
block 98
 10
0.0
 20
0.0
 30
0.0
  0
INSERT
  5
339
330
1F
100
AcDbEntity
  8
0
100
AcDbBlockReference
  2
block 99
 10
0.0
 20
0.0
 30
0.0
  0
INSERT
  5
350
330
1F
100
AcDbEntity
  8
0
100
AcDbBlockReference
  2
block 100
 10
0.0
 20
0.0
 30
0.0
  0
INSERT
  5
355
330
1F
100
AcDbEntity
  8
0
100
AcDbBlockReference
  2
block 101
 10
0.0
 20
0.0
 30
0.0
  0
INSERT
  5
36A
330
1F
100
AcDbEntity
  8
0
100
AcDbBlockReference
  2
block 102
 10
0.0
 20
0.0
 30
0.0
  0
INSERT
  5
377
330
1F
100
AcDbEntity
  8
0
100
AcDbBlockReference
  2
block 103
 10
0.0
 20
0.0
 30
0.0
  0
INSERT
  5
38F
330
1F
100
AcDbEntity
  8
0
100
AcDbBlockReference
  2
block 104
 10
0.0
 20
0.0
 30
0.0
  0
INSERT
  5
39C
330
1F
100
AcDbEntity
  8
0
100
AcDbBlockReference
  2
block 105
 10
0.0
 20
0.0
 30
0.0
  0
INSERT
  5
3B3
330
1F
100
AcDbEntity
  8
0
100
AcDbBlockReference
  2
block 106
 10
0.0
 20
0.0
 30
0.0
  0
INSERT
  5
3D0
330
1F
100
AcDbEntity
  8
0
100
AcDbBlockReference
  2
block 107
 10
0.0
 20
0.0
 30
0.0
  0
INSERT
  5
3ED
330
1F
100
AcDbEntity
  8
0
100
AcDbBlockReference
  2
block 108
 10
0.0
 20
0.0
 30
0.0
  0
INSERT
  5
406
330
1F
100
AcDbEntity
  8
0
100
AcDbBlockReference
  2
block 109
 10
0.0
 20
0.0
 30
0.0
  0
INSERT
  5
413
330
1F
100
AcDbEntity
  8
0
100
AcDbBlockReference
  2
block 110
 10
0.0
 20
0.0
 30
0.0
  0
INSERT
  5
42A
330
1F
100
AcDbEntity
  8
0
100
AcDbBlockReference
  2
block 111
 10
0.0
 20
0.0
 30
0.0
  0
INSERT
  5
447
330
1F
100
AcDbEntity
  8
0
100
AcDbBlockReference
  2
block 112
 10
0.0
 20
0.0
 30
0.0
  0
INSERT
  5
44C
330
1F
100
AcDbEntity
  8
0
100
AcDbBlockReference
  2
block 113
 10
0.0
 20
0.0
 30
0.0
  0
INSERT
  5
460
330
1F
100
AcDbEntity
  8
0
100
AcDbBlockReference
  2
block 114
 10
0.0
 20
0.0
 30
0.0
  0
INSERT
  5
465
330
1F
100
AcDbEntity
  8
0
100
AcDbBlockReference
  2
block 115
 10
0.0
 20
0.0
 30
0.0
  0
INSERT
  5
46D
330
1F
100
AcDbEntity
  8
0
100
AcDbBlockReference
  2
block 116
 10
0.0
 20
0.0
 30
0.0
  0
INSERT
  5
472
330
1F
100
AcDbEntity
  8
0
100
AcDbBlockReference
  2
block 117
 10
0.0
 20
0.0
 30
0.0
  0
INSERT
  5
477
330
1F
100
AcDbEntity
  8
0
100
AcDbBlockReference
  2
block 118
 10
0.0
 20
0.0
 30
0.0
  0
INSERT
  5
47F
330
1F
100
AcDbEntity
  8
0
100
AcDbBlockReference
  2
block 119
 10
0.0
 20
0.0
 30
0.0
  0
INSERT
  5
484
330
1F
100
AcDbEntity
  8
0
100
AcDbBlockReference
  2
block 120
 10
0.0
 20
0.0
 30
0.0
  0
INSERT
  5
489
330
1F
100
AcDbEntity
  8
0
100
AcDbBlockReference
  2
block 121
 10
0.0
 20
0.0
 30
0.0
  0
INSERT
  5
491
330
1F
100
AcDbEntity
  8
0
100
AcDbBlockReference
  2
block 122
 10
0.0
 20
0.0
 30
0.0
  0
INSERT
  5
496
330
1F
100
AcDbEntity
  8
0
100
AcDbBlockReference
  2
block 123
 10
0.0
 20
0.0
 30
0.0
  0
INSERT
  5
49B
330
1F
100
AcDbEntity
  8
0
100
AcDbBlockReference
  2
block 124
 10
0.0
 20
0.0
 30
0.0
  0
INSERT
  5
4A3
330
1F
100
AcDbEntity
  8
0
100
AcDbBlockReference
  2
block 125
 10
0.0
 20
0.0
 30
0.0
  0
INSERT
  5
4B9
330
1F
100
AcDbEntity
  8
0
100
AcDbBlockReference
  2
block 126
 10
0.0
 20
0.0
 30
0.0
  0
INSERT
  5
4C1
330
1F
100
AcDbEntity
  8
0
100
AcDbBlockReference
  2
block 127
 10
0.0
 20
0.0
 30
0.0
  0
INSERT
  5
4C6
330
1F
100
AcDbEntity
  8
0
100
AcDbBlockReference
  2
block 128
 10
0.0
 20
0.0
 30
0.0
  0
INSERT
  5
4CE
330
1F
100
AcDbEntity
  8
0
100
AcDbBlockReference
  2
block 129
 10
0.0
 20
0.0
 30
0.0
  0
INSERT
  5
4E5
330
1F
100
AcDbEntity
  8
0
100
AcDbBlockReference
  2
block 130
 10
0.0
 20
0.0
 30
0.0
  0
INSERT
  5
4ED
330
1F
100
AcDbEntity
  8
0
100
AcDbBlockReference
  2
block 131
 10
0.0
 20
0.0
 30
0.0
  0
INSERT
  5
4F2
330
1F
100
AcDbEntity
  8
0
100
AcDbBlockReference
  2
block 132
 10
0.0
 20
0.0
 30
0.0
  0
INSERT
  5
506
330
1F
100
AcDbEntity
  8
0
100
AcDbBlockReference
  2
block 133
 10
0.0
 20
0.0
 30
0.0
  0
INSERT
  5
50B
330
1F
100
AcDbEntity
  8
0
100
AcDbBlockReference
  2
block 134
 10
0.0
 20
0.0
 30
0.0
  0
INSERT
  5
51A
330
1F
100
AcDbEntity
  8
0
100
AcDbBlockReference
  2
block 135
 10
0.0
 20
0.0
 30
0.0
  0
INSERT
  5
522
330
1F
100
AcDbEntity
  8
0
100
AcDbBlockReference
  2
block 136
 10
0.0
 20
0.0
 30
0.0
  0
INSERT
  5
537
330
1F
100
AcDbEntity
  8
0
100
AcDbBlockReference
  2
block 137
 10
0.0
 20
0.0
 30
0.0
  0
INSERT
  5
547
330
1F
100
AcDbEntity
  8
0
100
AcDbBlockReference
  2
block 138
 10
0.0
 20
0.0
 30
0.0
  0
INSERT
  5
553
330
1F
100
AcDbEntity
  8
0
100
AcDbBlockReference
  2
block 139
 10
0.0
 20
0.0
 30
0.0
  0
INSERT
  5
55B
330
1F
100
AcDbEntity
  8
0
100
AcDbBlockReference
  2
block 140
 10
0.0
 20
0.0
 30
0.0
  0
INSERT
  5
56F
330
1F
100
AcDbEntity
  8
0
100
AcDbBlockReference
  2
block 141
 10
0.0
 20
0.0
 30
0.0
  0
INSERT
  5
593
330
1F
100
AcDbEntity
  8
0
100
AcDbBlockReference
  2
block 142
 10
0.0
 20
0.0
 30
0.0
  0
INSERT
  5
5A4
330
1F
100
AcDbEntity
  8
0
100
AcDbBlockReference
  2
block 143
 10
0.0
 20
0.0
 30
0.0
  0
INSERT
  5
5BF
330
1F
100
AcDbEntity
  8
0
100
AcDbBlockReference
  2
block 144
 10
0.0
 20
0.0
 30
0.0
  0
INSERT
  5
5DC
330
1F
100
AcDbEntity
  8
0
100
AcDbBlockReference
  2
block 145
 10
0.0
 20
0.0
 30
0.0
  0
INSERT
  5
5E1
330
1F
100
AcDbEntity
  8
0
100
AcDbBlockReference
  2
block 146
 10
0.0
 20
0.0
 30
0.0
  0
INSERT
  5
5E6
330
1F
100
AcDbEntity
  8
0
100
AcDbBlockReference
  2
block 147
 10
0.0
 20
0.0
 30
0.0
  0
INSERT
  5
5EB
330
1F
100
AcDbEntity
  8
0
100
AcDbBlockReference
  2
block 148
 10
0.0
 20
0.0
 30
0.0
  0
INSERT
  5
5FA
330
1F
100
AcDbEntity
  8
0
100
AcDbBlockReference
  2
block 149
 10
0.0
 20
0.0
 30
0.0
  0
INSERT
  5
5FF
330
1F
100
AcDbEntity
  8
0
100
AcDbBlockReference
  2
block 150
 10
0.0
 20
0.0
 30
0.0
  0
INSERT
  5
604
330
1F
100
AcDbEntity
  8
0
100
AcDbBlockReference
  2
block 151
 10
0.0
 20
0.0
 30
0.0
  0
INSERT
  5
609
330
1F
100
AcDbEntity
  8
0
100
AcDbBlockReference
  2
block 152
 10
0.0
 20
0.0
 30
0.0
  0
INSERT
  5
60E
330
1F
100
AcDbEntity
  8
0
100
AcDbBlockReference
  2
block 153
 10
0.0
 20
0.0
 30
0.0
  0
INSERT
  5
613
330
1F
100
AcDbEntity
  8
0
100
AcDbBlockReference
  2
block 154
 10
0.0
 20
0.0
 30
0.0
  0
INSERT
  5
61B
330
1F
100
AcDbEntity
  8
0
100
AcDbBlockReference
  2
block 155
 10
0.0
 20
0.0
 30
0.0
  0
INSERT
  5
620
330
1F
100
AcDbEntity
  8
0
100
AcDbBlockReference
  2
block 156
 10
0.0
 20
0.0
 30
0.0
  0
INSERT
  5
625
330
1F
100
AcDbEntity
  8
0
100
AcDbBlockReference
  2
block 157
 10
0.0
 20
0.0
 30
0.0
  0
INSERT
  5
62A
330
1F
100
AcDbEntity
  8
0
100
AcDbBlockReference
  2
block 158
 10
0.0
 20
0.0
 30
0.0
  0
INSERT
  5
632
330
1F
100
AcDbEntity
  8
0
100
AcDbBlockReference
  2
block 159
 10
0.0
 20
0.0
 30
0.0
  0
INSERT
  5
63A
330
1F
100
AcDbEntity
  8
0
100
AcDbBlockReference
  2
block 160
 10
0.0
 20
0.0
 30
0.0
  0
INSERT
  5
64A
330
1F
100
AcDbEntity
  8
0
100
AcDbBlockReference
  2
block 161
 10
0.0
 20
0.0
 30
0.0
  0
INSERT
  5
64F
330
1F
100
AcDbEntity
  8
0
100
AcDbBlockReference
  2
block 162
 10
0.0
 20
0.0
 30
0.0
  0
INSERT
  5
654
330
1F
100
AcDbEntity
  8
0
100
AcDbBlockReference
  2
block 163
 10
0.0
 20
0.0
 30
0.0
  0
INSERT
  5
659
330
1F
100
AcDbEntity
  8
0
100
AcDbBlockReference
  2
block 164
 10
0.0
 20
0.0
 30
0.0
  0
INSERT
  5
65E
330
1F
100
AcDbEntity
  8
0
100
AcDbBlockReference
  2
block 165
 10
0.0
 20
0.0
 30
0.0
  0
INSERT
  5
675
330
1F
100
AcDbEntity
  8
0
100
AcDbBlockReference
  2
block 166
 10
0.0
 20
0.0
 30
0.0
  0
INSERT
  5
684
330
1F
100
AcDbEntity
  8
0
100
AcDbBlockReference
  2
block 167
 10
0.0
 20
0.0
 30
0.0
  0
INSERT
  5
699
330
1F
100
AcDbEntity
  8
0
100
AcDbBlockReference
  2
block 168
 10
0.0
 20
0.0
 30
0.0
  0
INSERT
  5
6B0
330
1F
100
AcDbEntity
  8
0
100
AcDbBlockReference
  2
block 169
 10
0.0
 20
0.0
 30
0.0
  0
INSERT
  5
6BF
330
1F
100
AcDbEntity
  8
0
100
AcDbBlockReference
  2
block 170
 10
0.0
 20
0.0
 30
0.0
  0
INSERT
  5
6C7
330
1F
100
AcDbEntity
  8
0
100
AcDbBlockReference
  2
block 171
 10
0.0
 20
0.0
 30
0.0
  0
INSERT
  5
6DB
330
1F
100
AcDbEntity
  8
0
100
AcDbBlockReference
  2
block 172
 10
0.0
 20
0.0
 30
0.0
  0
INSERT
  5
6E0
330
1F
100
AcDbEntity
  8
0
100
AcDbBlockReference
  2
block 173
 10
0.0
 20
0.0
 30
0.0
  0
INSERT
  5
6E9
330
1F
100
AcDbEntity
  8
0
100
AcDbBlockReference
  2
block 174
 10
0.0
 20
0.0
 30
0.0
  0
INSERT
  5
6EE
330
1F
100
AcDbEntity
  8
0
100
AcDbBlockReference
  2
block 175
 10
0.0
 20
0.0
 30
0.0
  0
INSERT
  5
6F3
330
1F
100
AcDbEntity
  8
0
100
AcDbBlockReference
  2
block 176
 10
0.0
 20
0.0
 30
0.0
  0
INSERT
  5
6F8
330
1F
100
AcDbEntity
  8
0
100
AcDbBlockReference
  2
block 177
 10
0.0
 20
0.0
 30
0.0
  0
INSERT
  5
6FD
330
1F
100
AcDbEntity
  8
0
100
AcDbBlockReference
  2
block 178
 10
0.0
 20
0.0
 30
0.0
  0
INSERT
  5
702
330
1F
100
AcDbEntity
  8
0
100
AcDbBlockReference
  2
block 179
 10
0.0
 20
0.0
 30
0.0
  0
INSERT
  5
70A
330
1F
100
AcDbEntity
  8
0
100
AcDbBlockReference
  2
block 180
 10
0.0
 20
0.0
 30
0.0
  0
INSERT
  5
718
330
1F
100
AcDbEntity
  8
0
100
AcDbBlockReference
  2
block 181
 10
0.0
 20
0.0
 30
0.0
  0
INSERT
  5
721
330
1F
100
AcDbEntity
  8
0
100
AcDbBlockReference
  2
block 182
 10
0.0
 20
0.0
 30
0.0
  0
INSERT
  5
729
330
1F
100
AcDbEntity
  8
0
100
AcDbBlockReference
  2
block 183
 10
0.0
 20
0.0
 30
0.0
  0
INSERT
  5
72E
330
1F
100
AcDbEntity
  8
0
100
AcDbBlockReference
  2
block 184
 10
0.0
 20
0.0
 30
0.0
  0
INSERT
  5
733
330
1F
100
AcDbEntity
  8
0
100
AcDbBlockReference
  2
block 185
 10
0.0
 20
0.0
 30
0.0
  0
ENDSEC
  0
SECTION
  2
OBJECTS
  0
DICTIONARY
  5
C
330
0
100
AcDbDictionary
281
     1
  3
ACAD_GROUP
350
D
  3
ACAD_LAYOUT
350
1A
  3
ACAD_MLINESTYLE
350
17
  3
ACAD_PLOTSETTINGS
350
19
  3
ACAD_PLOTSTYLENAME
350
E
  3
ACAD_TABLESTYLE
350
741
  3
ACAD_VISUALSTYLE
350
2A
  0
DICTIONARY
  5
D
102
{ACAD_REACTORS
330
C
102
}
330
C
100
AcDbDictionary
281
     1
  0
DICTIONARY
  5
1A
102
{ACAD_REACTORS
330
C
102
}
330
C
100
AcDbDictionary
281
     1
  3
Layout1
350
1E
  3
Layout2
350
26
  3
Model
350
22
  0
DICTIONARY
  5
17
102
{ACAD_REACTORS
330
C
102
}
330
C
100
AcDbDictionary
281
     1
  3
Standard
350
18
  0
DICTIONARY
  5
19
102
{ACAD_REACTORS
330
C
102
}
330
C
100
AcDbDictionary
281
     1
  0
ACDBDICTIONARYWDFLT
  5
E
102
{ACAD_REACTORS
330
C
102
}
330
C
100
AcDbDictionary
281
     1
  3
Normal
350
F
100
AcDbDictionaryWithDefault
340
F
  0
DICTIONARY
  5
741
102
{ACAD_REACTORS
330
C
102
}
330
C
100
AcDbDictionary
281
     1
  0
DICTIONARY
  5
2A
102
{ACAD_REACTORS
330
C
102
}
330
C
100
AcDbDictionary
281
     1
  3
2dWireframe
350
2F
  3
3D Hidden
350
31
  3
3dWireframe
350
30
  3
Basic
350
32
  3
Brighten
350
36
  3
ColorChange
350
3A
  3
Conceptual
350
34
  3
Dim
350
35
  3
Facepattern
350
39
  3
Flat
350
2B
  3
FlatWithEdges
350
2C
  3
Gouraud
350
2D
  3
GouraudWithEdges
350
2E
  3
Linepattern
350
38
  3
Realistic
350
33
  3
Thicken
350
37
  0
LAYOUT
  5
1E
102
{ACAD_REACTORS
330
1A
102
}
330
1A
100
AcDbPlotSettings
  1

  2
none_device
  4

  6

 40
0.0
 41
0.0
 42
0.0
 43
0.0
 44
0.0
 45
0.0
 46
0.0
 47
0.0
 48
0.0
 49
0.0
140
0.0
141
0.0
142
1.0
143
1.0
 70
   688
 72
     0
 73
     0
 74
     5
  7

 75
    16
147
1.0
148
0.0
149
0.0
100
AcDbLayout
  1
Layout1
 70
     1
 71
     1
 10
0.0
 20
0.0
 11
12.0
 21
9.0
 12
0.0
 22
0.0
 32
0.0
 14
1.000000000000000E+20
 24
1.000000000000000E+20
 34
1.000000000000000E+20
 15
-1.000000000000000E+20
 25
-1.000000000000000E+20
 35
-1.000000000000000E+20
146
0.0
 13
0.0
 23
0.0
 33
0.0
 16
1.0
 26
0.0
 36
0.0
 17
0.0
 27
1.0
 37
0.0
 76
     0
330
1B
  0
LAYOUT
  5
26
102
{ACAD_REACTORS
330
1A
102
}
330
1A
100
AcDbPlotSettings
  1

  2
none_device
  4

  6

 40
0.0
 41
0.0
 42
0.0
 43
0.0
 44
0.0
 45
0.0
 46
0.0
 47
0.0
 48
0.0
 49
0.0
140
0.0
141
0.0
142
1.0
143
1.0
 70
   688
 72
     0
 73
     0
 74
     5
  7

 75
    16
147
1.0
148
0.0
149
0.0
100
AcDbLayout
  1
Layout2
 70
     1
 71
     2
 10
0.0
 20
0.0
 11
0.0
 21
0.0
 12
0.0
 22
0.0
 32
0.0
 14
0.0
 24
0.0
 34
0.0
 15
0.0
 25
0.0
 35
0.0
146
0.0
 13
0.0
 23
0.0
 33
0.0
 16
1.0
 26
0.0
 36
0.0
 17
0.0
 27
1.0
 37
0.0
 76
     0
330
23
  0
LAYOUT
  5
22
102
{ACAD_REACTORS
330
1A
102
}
330
1A
100
AcDbPlotSettings
  1

  2
none_device
  4

  6

 40
0.0
 41
0.0
 42
0.0
 43
0.0
 44
0.0
 45
0.0
 46
0.0
 47
0.0
 48
0.0
 49
0.0
140
0.0
141
0.0
142
1.0
143
1.0
 70
  1712
 72
     0
 73
     0
 74
     0
  7

 75
     0
147
1.0
148
0.0
149
0.0
100
AcDbLayout
  1
Model
 70
     1
 71
     0
 10
0.0
 20
0.0
 11
12.0
 21
9.0
 12
0.0
 22
0.0
 32
0.0
 14
1.000000000000000E+20
 24
1.000000000000000E+20
 34
1.000000000000000E+20
 15
-1.000000000000000E+20
 25
-1.000000000000000E+20
 35
-1.000000000000000E+20
146
0.0
 13
0.0
 23
0.0
 33
0.0
 16
1.0
 26
0.0
 36
0.0
 17
0.0
 27
1.0
 37
0.0
 76
     0
330
1F
331
29
  0
MLINESTYLE
  5
18
102
{ACAD_REACTORS
330
17
102
}
330
17
100
AcDbMlineStyle
  2
Standard
 70
     0
  3

 62
   256
 51
90.0
 52
90.0
 71
     2
 49
0.5
 62
   256
  6
BYLAYER
 49
-0.5
 62
   256
  6
BYLAYER
  0
ACDBPLACEHOLDER
  5
F
102
{ACAD_REACTORS
330
E
102
}
330
E
  0
VISUALSTYLE
  5
2F
102
{ACAD_REACTORS
330
2A
102
}
330
2A
100
AcDbVisualStyle
  2
2dWireframe
 70
     4
 71
     0
 72
     2
 73
     0
 90
        0
 40
-0.6
 41
-30.0
 62
     5
 63
     7
 74
     1
 91
        4
 64
     7
 65
   257
 75
     1
175
     1
 42
1.0
 92
        0
 66
   257
 43
1.0
 76
     1
 77
     6
 78
     2
 67
     7
 79
     5
170
     0
171
     0
290
     0
174
     0
 93
        1
 44
0.0
173
     0
291
     0
 45
0.0
1001
ACAD
1000
AcDbSavedByObjectVersion
1070
     0
  0
VISUALSTYLE
  5
31
102
{ACAD_REACTORS
330
2A
102
}
330
2A
100
AcDbVisualStyle
  2
3D Hidden
 70
     6
 71
     1
 72
     2
 73
     2
 90
        0
 40
-0.6
 41
-30.0
 62
     5
 63
     7
 74
     2
 91
        2
 64
     7
 65
   257
 75
     2
175
     1
 42
40.0
 92
        0
 66
   257
 43
1.0
 76
     1
 77
     6
 78
     2
 67
     7
 79
     3
170
     0
171
     0
290
     0
174
     0
 93
        1
 44
0.0
173
     0
291
     0
 45
0.0
1001
ACAD
1000
AcDbSavedByObjectVersion
1070
     0
  0
VISUALSTYLE
  5
30
102
{ACAD_REACTORS
330
2A
102
}
330
2A
100
AcDbVisualStyle
  2
3dWireframe
 70
     5
 71
     0
 72
     2
 73
     0
 90
        0
 40
-0.6
 41
-30.0
 62
     5
 63
     7
 74
     1
 91
        4
 64
     7
 65
   257
 75
     1
175
     1
 42
1.0
 92
        0
 66
   257
 43
1.0
 76
     1
 77
     6
 78
     2
 67
     7
 79
     5
170
     0
171
     0
290
     0
174
     0
 93
        1
 44
0.0
173
     0
291
     0
 45
0.0
1001
ACAD
1000
AcDbSavedByObjectVersion
1070
     0
  0
VISUALSTYLE
  5
32
102
{ACAD_REACTORS
330
2A
102
}
330
2A
100
AcDbVisualStyle
  2
Basic
 70
     7
 71
     1
 72
     0
 73
     1
 90
        0
 40
-0.6
 41
-30.0
 62
     5
 63
     7
 74
     0
 91
        4
 64
     7
 65
   257
 75
     1
175
     1
 42
1.0
 92
        8
 66
     7
 43
1.0
 76
     1
 77
     6
 78
     2
 67
     7
 79
     5
170
     0
171
     0
290
     0
174
     0
 93
        1
 44
0.0
173
     0
291
     1
 45
0.0
1001
ACAD
1000
AcDbSavedByObjectVersion
1070
     0
  0
VISUALSTYLE
  5
36
102
{ACAD_REACTORS
330
2A
102
}
330
2A
100
AcDbVisualStyle
  2
Brighten
 70
    12
 71
     2
 72
     2
 73
     0
 90
        0
 40
-0.6
 41
-30.0
 62
     5
 63
     7
 74
     1
 91
        4
 64
     7
 65
   257
 75
     1
175
     1
 42
1.0
 92
        8
 66
     7
 43
1.0
 76
     1
 77
     6
 78
     2
 67
     7
 79
     5
170
     0
171
     0
290
     0
174
     0
 93
        1
 44
50.0
173
     0
291
     1
 45
0.0
1001
ACAD
1000
AcDbSavedByObjectVersion
1070
     0
  0
VISUALSTYLE
  5
3A
102
{ACAD_REACTORS
330
2A
102
}
330
2A
100
AcDbVisualStyle
  2
ColorChange
 70
    16
 71
     2
 72
     2
 73
     3
 90
        0
 40
-0.6
 41
-30.0
 62
     5
 63
     8
 74
     1
 91
        4
 64
     7
 65
   257
 75
     1
175
     1
 42
1.0
 92
        8
 66
     8
 43
1.0
 76
     1
 77
     6
 78
     2
 67
     7
 79
     5
170
     0
171
     0
290
     0
174
     0
 93
        1
 44
0.0
173
     0
291
     1
 45
0.0
1001
ACAD
1000
AcDbSavedByObjectVersion
1070
     0
  0
VISUALSTYLE
  5
34
102
{ACAD_REACTORS
330
2A
102
}
330
2A
100
AcDbVisualStyle
  2
Conceptual
 70
     9
 71
     3
 72
     2
 73
     0
 90
        0
 40
-0.6
 41
-30.0
 62
     5
 63
     7
 74
     2
 91
        2
 64
     7
 65
   257
 75
     1
175
     1
 42
40.0
 92
        8
 66
     7
 43
1.0
 76
     1
 77
     6
 78
     2
 67
     7
 79
     3
170
     0
171
     0
290
     0
174
     0
 93
        1
 44
0.0
173
     0
291
     0
 45
0.0
1001
ACAD
1000
AcDbSavedByObjectVersion
1070
     0
  0
VISUALSTYLE
  5
35
102
{ACAD_REACTORS
330
2A
102
}
330
2A
100
AcDbVisualStyle
  2
Dim
 70
    11
 71
     2
 72
     2
 73
     0
 90
        0
 40
-0.6
 41
-30.0
 62
     5
 63
     7
 74
     1
 91
        4
 64
     7
 65
   257
 75
     1
175
     1
 42
1.0
 92
        8
 66
     7
 43
1.0
 76
     1
 77
     6
 78
     2
 67
     7
 79
     5
170
     0
171
     0
290
     0
174
     0
 93
        1
 44
-50.0
173
     0
291
     1
 45
0.0
1001
ACAD
1000
AcDbSavedByObjectVersion
1070
     0
  0
VISUALSTYLE
  5
39
102
{ACAD_REACTORS
330
2A
102
}
330
2A
100
AcDbVisualStyle
  2
Facepattern
 70
    15
 71
     2
 72
     2
 73
     0
 90
        0
 40
-0.6
 41
-30.0
 62
     5
 63
     7
 74
     1
 91
        4
 64
     7
 65
   257
 75
     1
175
     1
 42
1.0
 92
        8
 66
     7
 43
1.0
 76
     1
 77
     6
 78
     2
 67
     7
 79
     5
170
     0
171
     0
290
     0
174
     0
 93
        1
 44
0.0
173
     0
291
     1
 45
0.0
1001
ACAD
1000
AcDbSavedByObjectVersion
1070
     0
  0
VISUALSTYLE
  5
2B
102
{ACAD_REACTORS
330
2A
102
}
330
2A
100
AcDbVisualStyle
  2
Flat
 70
     0
 71
     2
 72
     1
 73
     1
 90
        2
 40
-0.6
 41
30.0
 62
     5
 63
     7
 74
     0
 91
        4
 64
     7
 65
   257
 75
     1
175
     1
 42
1.0
 92
        8
 66
     7
 43
1.0
 76
     1
 77
     6
 78
     2
 67
     7
 79
     5
170
     0
171
     0
290
     0
174
     0
 93
       13
 44
0.0
173
     0
291
     1
 45
0.0
1001
ACAD
1000
AcDbSavedByObjectVersion
1070
     0
  0
VISUALSTYLE
  5
2C
102
{ACAD_REACTORS
330
2A
102
}
330
2A
100
AcDbVisualStyle
  2
FlatWithEdges
 70
     1
 71
     2
 72
     1
 73
     1
 90
        2
 40
-0.6
 41
30.0
 62
     5
 63
     7
 74
     1
 91
        4
 64
     7
 65
   257
 75
     1
175
     1
 42
1.0
 92
        0
 66
   257
 43
1.0
 76
     1
 77
     6
 78
     2
 67
     7
 79
     5
170
     0
171
     0
290
     0
174
     0
 93
       13
 44
0.0
173
     0
291
     1
 45
0.0
1001
ACAD
1000
AcDbSavedByObjectVersion
1070
     0
  0
VISUALSTYLE
  5
2D
102
{ACAD_REACTORS
330
2A
102
}
330
2A
100
AcDbVisualStyle
  2
Gouraud
 70
     2
 71
     2
 72
     2
 73
     1
 90
        2
 40
-0.6
 41
30.0
 62
     5
 63
     7
 74
     0
 91
        4
 64
     7
 65
   257
 75
     1
175
     1
 42
1.0
 92
        0
 66
     7
 43
1.0
 76
     1
 77
     6
 78
     2
 67
     7
 79
     5
170
     0
171
     0
290
     0
174
     0
 93
       13
 44
0.0
173
     0
291
     1
 45
0.0
1001
ACAD
1000
AcDbSavedByObjectVersion
1070
     0
  0
VISUALSTYLE
  5
2E
102
{ACAD_REACTORS
330
2A
102
}
330
2A
100
AcDbVisualStyle
  2
GouraudWithEdges
 70
     3
 71
     2
 72
     2
 73
     1
 90
        2
 40
-0.6
 41
30.0
 62
     5
 63
     7
 74
     1
 91
        4
 64
     7
 65
   257
 75
     1
175
     1
 42
1.0
 92
        0
 66
   257
 43
1.0
 76
     1
 77
     6
 78
     2
 67
     7
 79
     5
170
     0
171
     0
290
     0
174
     0
 93
       13
 44
0.0
173
     0
291
     1
 45
0.0
1001
ACAD
1000
AcDbSavedByObjectVersion
1070
     0
  0
VISUALSTYLE
  5
38
102
{ACAD_REACTORS
330
2A
102
}
330
2A
100
AcDbVisualStyle
  2
Linepattern
 70
    14
 71
     2
 72
     2
 73
     0
 90
        0
 40
-0.6
 41
-30.0
 62
     5
 63
     7
 74
     1
 91
        4
 64
     7
 65
   257
 75
     7
175
     7
 42
1.0
 92
        8
 66
     7
 43
1.0
 76
     1
 77
     6
 78
     2
 67
     7
 79
     5
170
     0
171
     0
290
     0
174
     0
 93
        1
 44
0.0
173
     0
291
     1
 45
0.0
1001
ACAD
1000
AcDbSavedByObjectVersion
1070
     0
  0
VISUALSTYLE
  5
33
102
{ACAD_REACTORS
330
2A
102
}
330
2A
100
AcDbVisualStyle
  2
Realistic
 70
     8
 71
     2
 72
     2
 73
     0
 90
        0
 40
-0.6
 41
-30.0
 62
     5
 63
     7
 74
     1
 91
        0
 64
     7
 65
   257
 75
     1
175
     1
 42
1.0
 92
        8
 66
     8
 43
1.0
 76
     1
 77
     6
 78
     2
 67
     7
 79
     5
170
     0
171
     0
290
     0
174
     0
 93
       13
 44
0.0
173
     0
291
     0
 45
0.0
1001
ACAD
1000
AcDbSavedByObjectVersion
1070
     0
  0
VISUALSTYLE
  5
37
102
{ACAD_REACTORS
330
2A
102
}
330
2A
100
AcDbVisualStyle
  2
Thicken
 70
    13
 71
     2
 72
     2
 73
     0
 90
        0
 40
-0.6
 41
-30.0
 62
     5
 63
     7
 74
     1
 91
        4
 64
     7
 65
   257
 75
     1
175
     1
 42
1.0
 92
       12
 66
     7
 43
1.0
 76
     1
 77
     6
 78
     2
 67
     7
 79
     5
170
     0
171
     0
290
     0
174
     0
 93
        1
 44
0.0
173
     0
291
     1
 45
0.0
1001
ACAD
1000
AcDbSavedByObjectVersion
1070
     0
  0
ENDSEC
  0
EOF
