  0
SECTION
  2
HEADER
  9
$ACADVER
  1
AC1012
  9
$DWGCODEPAGE
  3
ansi_932
  9
$INSBASE
 10
0.0
 20
0.0
 30
0.0
  9
$EXTMIN
 10
1.000000000000000E+20
 20
1.000000000000000E+20
 30
1.000000000000000E+20
  9
$EXTMAX
 10
-1.000000000000000E+20
 20
-1.000000000000000E+20
 30
-1.000000000000000E+20
  9
$LIMMIN
 10
0.0
 20
0.0
  9
$LIMMAX
 10
12.0
 20
9.0
  9
$ORTHOMODE
 70
     0
  9
$REGENMODE
 70
     1
  9
$FILLMODE
 70
     1
  9
$QTEXTMODE
 70
     0
  9
$MIRRTEXT
 70
     1
  9
$DRAGMODE
 70
     2
  9
$LTSCALE
 40
1.0
  9
$OSMODE
 70
    37
  9
$ATTMODE
 70
     1
  9
$TEXTSIZE
 40
0.2
  9
$TRACEWID
 40
0.05
  9
$TEXTSTYLE
  7
STANDARD
  9
$CLAYER
  8
0
  9
$CELTYPE
  6
BYLAYER
  9
$CECOLOR
 62
   256
  9
$CELTSCALE
 40
1.0
  9
$DELOBJ
 70
     1
  9
$DISPSILH
 70
     0
  9
$DIMSCALE
 40
1.0
  9
$DIMASZ
 40
0.18
  9
$DIMEXO
 40
0.0625
  9
$DIMDLI
 40
0.38
  9
$DIMRND
 40
0.0
  9
$DIMDLE
 40
0.0
  9
$DIMEXE
 40
0.18
  9
$DIMTP
 40
0.0
  9
$DIMTM
 40
0.0
  9
$DIMTXT
 40
0.18
  9
$DIMCEN
 40
0.09
  9
$DIMTSZ
 40
0.0
  9
$DIMTOL
 70
     0
  9
$DIMLIM
 70
     0
  9
$DIMTIH
 70
     1
  9
$DIMTOH
 70
     1
  9
$DIMSE1
 70
     0
  9
$DIMSE2
 70
     0
  9
$DIMTAD
 70
     0
  9
$DIMZIN
 70
     0
  9
$DIMBLK
  1

  9
$DIMASO
 70
     1
  9
$DIMSHO
 70
     1
  9
$DIMPOST
  1

  9
$DIMAPOST
  1

  9
$DIMALT
 70
     0
  9
$DIMALTD
 70
     2
  9
$DIMALTF
 40
25.4
  9
$DIMLFAC
 40
1.0
  9
$DIMTOFL
 70
     0
  9
$DIMTVP
 40
0.0
  9
$DIMTIX
 70
     0
  9
$DIMSOXD
 70
     0
  9
$DIMSAH
 70
     0
  9
$DIMBLK1
  1

  9
$DIMBLK2
  1

  9
$DIMSTYLE
  2
STANDARD
  9
$DIMCLRD
 70
     0
  9
$DIMCLRE
 70
     0
  9
$DIMCLRT
 70
     0
  9
$DIMTFAC
 40
1.0
  9
$DIMGAP
 40
0.09
  9
$DIMJUST
 70
     0
  9
$DIMSD1
 70
     0
  9
$DIMSD2
 70
     0
  9
$DIMTOLJ
 70
     1
  9
$DIMTZIN
 70
     0
  9
$DIMALTZ
 70
     0
  9
$DIMALTTZ
 70
     0
  9
$DIMFIT
 70
     3
  9
$DIMUPT
 70
     0
  9
$DIMUNIT
 70
     2
  9
$DIMDEC
 70
     4
  9
$DIMTDEC
 70
     4
  9
$DIMALTU
 70
     2
  9
$DIMALTTD
 70
     2
  9
$DIMTXSTY
  7
STANDARD
  9
$DIMAUNIT
 70
     0
  9
$LUNITS
 70
     2
  9
$LUPREC
 70
     4
  9
$SKETCHINC
 40
0.1
  9
$FILLETRAD
 40
0.5
  9
$AUNITS
 70
     0
  9
$AUPREC
 70
     0
  9
$MENU
  1
.
  9
$ELEVATION
 40
0.0
  9
$PELEVATION
 40
0.0
  9
$THICKNESS
 40
0.0
  9
$LIMCHECK
 70
     0
  9
$CHAMFERA
 40
0.5
  9
$CHAMFERB
 40
0.5
  9
$CHAMFERC
 40
1.0
  9
$CHAMFERD
 40
0.0
  9
$SKPOLY
 70
     0
  9
$TDCREATE
 40
2456857.75638088
  9
$TDUPDATE
 40
2456857.756380891
  9
$TDINDWG
 40
0.0000000116
  9
$TDUSRTIMER
 40
0.0000000116
  9
$USRTIMER
 70
     1
  9
$ANGBASE
 50
0.0
  9
$ANGDIR
 70
     0
  9
$PDMODE
 70
     0
  9
$PDSIZE
 40
0.0
  9
$PLINEWID
 40
0.0
  9
$COORDS
 70
     1
  9
$SPLFRAME
 70
     0
  9
$SPLINETYPE
 70
     6
  9
$SPLINESEGS
 70
     8
  9
$ATTDIA
 70
     0
  9
$ATTREQ
 70
     1
  9
$HANDLING
 70
     1
  9
$HANDSEED
  5
6AA
  9
$SURFTAB1
 70
     6
  9
$SURFTAB2
 70
     6
  9
$SURFTYPE
 70
     6
  9
$SURFU
 70
     6
  9
$SURFV
 70
     6
  9
$UCSNAME
  2

  9
$UCSORG
 10
0.0
 20
0.0
 30
0.0
  9
$UCSXDIR
 10
1.0
 20
0.0
 30
0.0
  9
$UCSYDIR
 10
0.0
 20
1.0
 30
0.0
  9
$PUCSNAME
  2

  9
$PUCSORG
 10
0.0
 20
0.0
 30
0.0
  9
$PUCSXDIR
 10
1.0
 20
0.0
 30
0.0
  9
$PUCSYDIR
 10
0.0
 20
1.0
 30
0.0
  9
$USERI1
 70
     0
  9
$USERI2
 70
     0
  9
$USERI3
 70
     0
  9
$USERI4
 70
     0
  9
$USERI5
 70
     0
  9
$USERR1
 40
0.0
  9
$USERR2
 40
0.0
  9
$USERR3
 40
0.0
  9
$USERR4
 40
0.0
  9
$USERR5
 40
0.0
  9
$WORLDVIEW
 70
     1
  9
$SHADEDGE
 70
     3
  9
$SHADEDIF
 70
    70
  9
$TILEMODE
 70
     1
  9
$MAXACTVP
 70
    64
  9
$PINSBASE
 10
0.0
 20
0.0
 30
0.0
  9
$PLIMCHECK
 70
     0
  9
$PEXTMIN
 10
1.000000000000000E+20
 20
1.000000000000000E+20
 30
1.000000000000000E+20
  9
$PEXTMAX
 10
-1.000000000000000E+20
 20
-1.000000000000000E+20
 30
-1.000000000000000E+20
  9
$PLIMMIN
 10
0.0
 20
0.0
  9
$PLIMMAX
 10
12.0
 20
9.0
  9
$UNITMODE
 70
     0
  9
$VISRETAIN
 70
     1
  9
$PLINEGEN
 70
     0
  9
$PSLTSCALE
 70
     1
  9
$TREEDEPTH
 70
  3020
  9
$PICKSTYLE
 70
     1
  9
$CMLSTYLE
  2
STANDARD
  9
$CMLJUST
 70
     0
  9
$CMLSCALE
 40
1.0
  9
$SAVEIMAGES
 70
     1
  0
ENDSEC
  0
SECTION
  2
CLASSES
  0
CLASS
  1
ACDBDICTIONARYWDFLT
  2
AcDbDictionaryWithDefault
  3
ObjectDBX Classes
 90
    32768
280
     0
281
     0
  0
CLASS
  1
VISUALSTYLE
  2
AcDbVisualStyle
  3
ObjectDBX Classes
 90
     4095
280
     0
281
     0
  0
CLASS
  1
XRECORD
  2
AcDbXrecord
  3
AutoCAD 2000
 90
    32768
280
     0
281
     0
  0
CLASS
  1
LWPOLYLINE
  2
AcDbPolyline
  3
AutoCAD 2000
 90
    32768
280
     0
281
     1
  0
CLASS
  1
HATCH
  2
AcDbHatch
  3
AutoCAD 2000
 90
    32768
280
     0
281
     1
  0
CLASS
  1
ACDBPLACEHOLDER
  2
AcDbPlaceHolder
  3
ObjectDBX Classes
 90
        0
280
     0
281
     0
  0
CLASS
  1
LAYOUT
  2
AcDbLayout
  3
ObjectDBX Classes
 90
        0
280
     0
281
     0
  0
ENDSEC
  0
SECTION
  2
TABLES
  0
TABLE
  2
VPORT
  5
8
330
0
100
AcDbSymbolTable
 70
     1
  0
VPORT
  5
29
330
8
100
AcDbSymbolTableRecord
100
AcDbViewportTableRecord
  2
*ACTIVE
 70
     0
 10
0.0
 20
0.0
 11
1.0
 21
1.0
 12
0.0
 22
0.0
 13
0.0
 23
0.0
 14
0.5
 24
0.5
 15
0.5
 25
0.5
 16
0.0
 26
0.0
 36
1.0
 17
148.4999796178229
 27
-105.0008259828644
 37
0.0
 40
210.0016519657288
 41
1.414274394775308
 42
50.0
 43
0.0
 44
0.0
 50
0.0
 51
0.0
 71
     0
 72
   100
 73
     1
 74
     3
 75
     0
 76
     0
 77
     0
 78
     0
  0
ENDTAB
  0
TABLE
  2
LTYPE
  5
5
330
0
100
AcDbSymbolTable
 70
     1
  0
LTYPE
  5
14
330
5
100
AcDbSymbolTableRecord
100
AcDbLinetypeTableRecord
  2
BYBLOCK
 70
     0
  3

 72
    65
 73
     0
 40
0.0
  0
LTYPE
  5
15
330
5
100
AcDbSymbolTableRecord
100
AcDbLinetypeTableRecord
  2
BYLAYER
 70
     0
  3

 72
    65
 73
     0
 40
0.0
  0
LTYPE
  5
16
330
5
100
AcDbSymbolTableRecord
100
AcDbLinetypeTableRecord
  2
CONTINUOUS
 70
     0
  3
Solid line
 72
    65
 73
     0
 40
0.0
  0
ENDTAB
  0
TABLE
  2
LAYER
  5
2
330
0
100
AcDbSymbolTable
 70
     2
  0
LAYER
  5
10
330
2
100
AcDbSymbolTableRecord
100
AcDbLayerTableRecord
  2
0
 70
     0
 62
     7
  6
CONTINUOUS
  0
LAYER
  5
3B
330
2
100
AcDbSymbolTableRecord
100
AcDbLayerTableRecord
  2
\U+838C\U+8343\U+8384\U+815B_1
 70
     0
 62
     7
  6
CONTINUOUS
  0
ENDTAB
  0
TABLE
  2
STYLE
  5
3
330
0
100
AcDbSymbolTable
 70
     1
  0
STYLE
  5
11
330
3
100
AcDbSymbolTableRecord
100
AcDbTextStyleTableRecord
  2
STANDARD
 70
     0
 40
0.0
 41
1.0
 50
0.0
 71
     0
 42
0.2
  3
txt
  4

  0
ENDTAB
  0
TABLE
  2
VIEW
  5
6
330
0
100
AcDbSymbolTable
 70
     0
  0
ENDTAB
  0
TABLE
  2
UCS
  5
7
330
0
100
AcDbSymbolTable
 70
     0
  0
ENDTAB
  0
TABLE
  2
APPID
  5
9
330
0
100
AcDbSymbolTable
 70
     1
  0
APPID
  5
12
330
9
100
AcDbSymbolTableRecord
100
AcDbRegAppTableRecord
  2
ACAD
 70
     0
  0
ENDTAB
  0
TABLE
  2
DIMSTYLE
  5
A
330
0
100
AcDbSymbolTable
 70
     1
  0
DIMSTYLE
105
27
330
A
100
AcDbSymbolTableRecord
100
AcDbDimStyleTableRecord
  2
STANDARD
 70
     0
  3

  4

  5

  6

  7

 40
1.0
 41
0.18
 42
0.0625
 43
0.38
 44
0.18
 45
0.0
 46
0.0
 47
0.0
 48
0.0
140
0.18
141
0.09
142
0.0
143
25.4
144
1.0
145
0.0
146
1.0
147
0.09
 71
     0
 72
     0
 73
     1
 74
     1
 75
     0
 76
     0
 77
     0
 78
     0
170
     0
171
     2
172
     0
173
     0
174
     0
175
     0
176
     0
177
     0
178
     0
270
     2
271
     4
272
     4
273
     2
274
     2
340
11
275
     0
280
     0
281
     0
282
     0
283
     1
284
     0
285
     0
286
     0
287
     3
288
     0
  0
ENDTAB
  0
TABLE
  2
BLOCK_RECORD
  5
1
330
0
100
AcDbSymbolTable
 70
     2
  0
BLOCK_RECORD
  5
1F
330
1
100
AcDbSymbolTableRecord
100
AcDbBlockTableRecord
  2
*MODEL_SPACE
  0
BLOCK_RECORD
  5
1B
330
1
100
AcDbSymbolTableRecord
100
AcDbBlockTableRecord
  2
*PAPER_SPACE
  0
BLOCK_RECORD
  5
3C
330
1
100
AcDbSymbolTableRecord
100
AcDbBlockTableRecord
  2
BLOCK_2
  0
ENDTAB
  0
ENDSEC
  0
SECTION
  2
BLOCKS
  0
BLOCK
  5
20
330
1F
100
AcDbEntity
  8
0
100
AcDbBlockBegin
  2
*MODEL_SPACE
 70
     0
 71
     0
 10
0.0
 20
0.0
 30
0.0
  3
*MODEL_SPACE
  1

  0
ENDBLK
  5
21
330
1F
100
AcDbEntity
  8
0
100
AcDbBlockEnd
  0
BLOCK
  5
1C
330
1B
100
AcDbEntity
 67
     1
  8
0
100
AcDbBlockBegin
  2
*PAPER_SPACE
 70
     0
 71
     0
 10
0.0
 20
0.0
 30
0.0
  3
*PAPER_SPACE
  1

  0
ENDBLK
  5
1D
330
1B
100
AcDbEntity
 67
     1
  8
0
100
AcDbBlockEnd
  0
BLOCK
  5
3E
330
3C
100
AcDbEntity
  8
0
100
AcDbBlockBegin
  2
BLOCK_2
 70
     0
 71
     0
 10
0.0
 20
0.0
 30
0.0
  3
BLOCK_2
  1

  0
POLYLINE
  5
40
330
3C
100
AcDbEntity
  8
\U+838C\U+8343\U+8384\U+815B_1
100
AcDb2dPolyline
 66
     1
 10
0.0
 20
0.0
 30
0.0
  0
VERTEX
  5
41
330
40
100
AcDbEntity
  8
\U+838C\U+8343\U+8384\U+815B_1
100
AcDbVertex
100
AcDb2dVertex
 10
31.52675780461831
 20
-60.04146862648269
 30
0.0
  0
VERTEX
  5
42
330
40
100
AcDbEntity
  8
\U+838C\U+8343\U+8384\U+815B_1
100
AcDbVertex
100
AcDb2dVertex
 10
257.5357014330119
 20
-190.7838758203596
 30
0.0
  0
SEQEND
  5
43
330
40
100
AcDbEntity
  8
\U+838C\U+8343\U+8384\U+815B_1
  0
POLYLINE
  5
44
330
3C
100
AcDbEntity
  8
\U+838C\U+8343\U+8384\U+815B_1
100
AcDb2dPolyline
 66
     1
 10
0.0
 20
0.0
 30
0.0
  0
VERTEX
  5
45
330
44
100
AcDbEntity
  8
\U+838C\U+8343\U+8384\U+815B_1
100
AcDbVertex
100
AcDb2dVertex
 10
265.5779323337791
 20
-184.9003417506499
 30
0.0
  0
VERTEX
  5
46
330
44
100
AcDbEntity
  8
\U+838C\U+8343\U+8384\U+815B_1
100
AcDbVertex
100
AcDb2dVertex
 10
259.5793320748621
 20
-181.4438774502988
 30
0.0
  0
SEQEND
  5
47
330
44
100
AcDbEntity
  8
\U+838C\U+8343\U+8384\U+815B_1
  0
POLYLINE
  5
48
330
3C
100
AcDbEntity
  8
\U+838C\U+8343\U+8384\U+815B_1
100
AcDb2dPolyline
 66
     1
 10
0.0
 20
0.0
 30
0.0
  0
VERTEX
  5
49
330
48
100
AcDbEntity
  8
\U+838C\U+8343\U+8384\U+815B_1
100
AcDbVertex
100
AcDb2dVertex
 10
261.7552543833459
 20
-193.5930066790323
 30
0.0
  0
VERTEX
  5
4A
330
48
100
AcDbEntity
  8
\U+838C\U+8343\U+8384\U+815B_1
100
AcDbVertex
100
AcDb2dVertex
 10
264.8134656456022
 20
-191.7988009503142
 30
0.0
  0
SEQEND
  5
4B
330
48
100
AcDbEntity
  8
\U+838C\U+8343\U+8384\U+815B_1
  0
POLYLINE
  5
4C
330
3C
100
AcDbEntity
  8
\U+838C\U+8343\U+8384\U+815B_1
100
AcDb2dPolyline
 66
     1
 10
0.0
 20
0.0
 30
0.0
  0
VERTEX
  5
4D
330
4C
100
AcDbEntity
  8
\U+838C\U+8343\U+8384\U+815B_1
100
AcDbVertex
100
AcDb2dVertex
 10
42.24496662355335
 20
-16.7106079059786
 30
0.0
  0
VERTEX
  5
4E
330
4C
100
AcDbEntity
  8
\U+838C\U+8343\U+8384\U+815B_1
100
AcDbVertex
100
AcDb2dVertex
 10
39.18692761607132
 20
-18.50498588947098
 30
0.0
  0
SEQEND
  5
4F
330
4C
100
AcDbEntity
  8
\U+838C\U+8343\U+8384\U+815B_1
  0
POLYLINE
  5
50
330
3C
100
AcDbEntity
  8
\U+838C\U+8343\U+8384\U+815B_1
100
AcDb2dPolyline
 66
     1
 10
0.0
 20
0.0
 30
0.0
  0
VERTEX
  5
51
330
50
100
AcDbEntity
  8
\U+838C\U+8343\U+8384\U+815B_1
100
AcDbVertex
100
AcDb2dVertex
 10
37.393238651676
 20
-23.24113090781819
 30
0.0
  0
VERTEX
  5
52
330
50
100
AcDbEntity
  8
\U+838C\U+8343\U+8384\U+815B_1
100
AcDbVertex
100
AcDb2dVertex
 10
263.5343016919289
 20
-153.8510741802872
 30
0.0
  0
SEQEND
  5
53
330
50
100
AcDbEntity
  8
\U+838C\U+8343\U+8384\U+815B_1
  0
POLYLINE
  5
54
330
3C
100
AcDbEntity
  8
\U+838C\U+8343\U+8384\U+815B_1
100
AcDb2dPolyline
 66
     1
 10
0.0
 20
0.0
 30
0.0
  0
VERTEX
  5
55
330
54
100
AcDbEntity
  8
\U+838C\U+8343\U+8384\U+815B_1
100
AcDbVertex
100
AcDb2dVertex
 10
37.393238651676
 20
-22.34402804345913
 30
0.0
  0
VERTEX
  5
56
330
54
100
AcDbEntity
  8
\U+838C\U+8343\U+8384\U+815B_1
100
AcDbVertex
100
AcDb2dVertex
 10
37.393238651676
 20
-23.24113090781819
 30
0.0
  0
SEQEND
  5
57
330
54
100
AcDbEntity
  8
\U+838C\U+8343\U+8384\U+815B_1
  0
POLYLINE
  5
58
330
3C
100
AcDbEntity
  8
\U+838C\U+8343\U+8384\U+815B_1
100
AcDb2dPolyline
 66
     1
 10
0.0
 20
0.0
 30
0.0
  0
VERTEX
  5
59
330
58
100
AcDbEntity
  8
\U+838C\U+8343\U+8384\U+815B_1
100
AcDbVertex
100
AcDb2dVertex
 10
43.40648056640533
 20
-18.88756374310797
 30
0.0
  0
VERTEX
  5
5A
330
58
100
AcDbEntity
  8
\U+838C\U+8343\U+8384\U+815B_1
100
AcDbVertex
100
AcDb2dVertex
 10
43.03888887812917
 20
-18.72564425530123
 30
0.0
  0
VERTEX
  5
5B
330
58
100
AcDbEntity
  8
\U+838C\U+8343\U+8384\U+815B_1
100
AcDbVertex
100
AcDb2dVertex
 10
42.43616942298471
 20
-18.46088866725978
 30
0.0
  0
VERTEX
  5
5C
330
58
100
AcDbEntity
  8
\U+838C\U+8343\U+8384\U+815B_1
100
AcDbVertex
100
AcDb2dVertex
 10
42.25978053413992
 20
-18.38750813342396
 30
0.0
  0
VERTEX
  5
5D
330
58
100
AcDbEntity
  8
\U+838C\U+8343\U+8384\U+815B_1
100
AcDbVertex
100
AcDb2dVertex
 10
42.24496662355335
 20
-18.38750813342396
 30
0.0
  0
VERTEX
  5
5E
330
58
100
AcDbEntity
  8
\U+838C\U+8343\U+8384\U+815B_1
100
AcDbVertex
100
AcDb2dVertex
 10
42.02448051249736
 20
-18.2991414342273
 30
0.0
  0
VERTEX
  5
5F
330
58
100
AcDbEntity
  8
\U+838C\U+8343\U+8384\U+815B_1
100
AcDbVertex
100
AcDb2dVertex
 10
41.34820826874281
 20
-18.15203585700713
 30
0.0
  0
VERTEX
  5
60
330
58
100
AcDbEntity
  8
\U+838C\U+8343\U+8384\U+815B_1
100
AcDbVertex
100
AcDb2dVertex
 10
40.17188041530425
 20
-18.12258029060824
 30
0.0
  0
VERTEX
  5
61
330
58
100
AcDbEntity
  8
\U+838C\U+8343\U+8384\U+815B_1
100
AcDbVertex
100
AcDb2dVertex
 10
39.20156927188363
 20
-18.47570257784635
 30
0.0
  0
VERTEX
  5
62
330
58
100
AcDbEntity
  8
\U+838C\U+8343\U+8384\U+815B_1
100
AcDbVertex
100
AcDb2dVertex
 10
38.42228867312012
 20
-19.18160264277405
 30
0.0
  0
VERTEX
  5
63
330
58
100
AcDbEntity
  8
\U+838C\U+8343\U+8384\U+815B_1
100
AcDbVertex
100
AcDb2dVertex
 10
37.81956921797566
 20
-20.21134168331522
 30
0.0
  0
VERTEX
  5
64
330
58
100
AcDbEntity
  8
\U+838C\U+8343\U+8384\U+815B_1
100
AcDbVertex
100
AcDb2dVertex
 10
37.59908310691968
 20
-20.84368895963283
 30
0.0
  0
VERTEX
  5
65
330
58
100
AcDbEntity
  8
\U+838C\U+8343\U+8384\U+815B_1
100
AcDbVertex
100
AcDb2dVertex
 10
37.52553031830959
 20
-21.06434732546308
 30
0.0
  0
VERTEX
  5
66
330
58
100
AcDbEntity
  8
\U+838C\U+8343\U+8384\U+815B_1
100
AcDbVertex
100
AcDb2dVertex
 10
37.52553031830959
 20
-21.07898898127539
 30
0.0
  0
VERTEX
  5
67
330
58
100
AcDbEntity
  8
\U+838C\U+8343\U+8384\U+815B_1
100
AcDbVertex
100
AcDb2dVertex
 10
37.51071640772302
 20
-21.27019178070676
 30
0.0
  0
VERTEX
  5
68
330
58
100
AcDbEntity
  8
\U+838C\U+8343\U+8384\U+815B_1
100
AcDbVertex
100
AcDb2dVertex
 10
37.43733587388719
 20
-21.93216687819751
 30
0.0
  0
VERTEX
  5
69
330
58
100
AcDbEntity
  8
\U+838C\U+8343\U+8384\U+815B_1
100
AcDbVertex
100
AcDb2dVertex
 10
37.393238651676
 20
-22.34402804345913
 30
0.0
  0
SEQEND
  5
6A
330
58
100
AcDbEntity
  8
\U+838C\U+8343\U+8384\U+815B_1
  0
POLYLINE
  5
6B
330
3C
100
AcDbEntity
  8
\U+838C\U+8343\U+8384\U+815B_1
100
AcDb2dPolyline
 66
     1
 10
0.0
 20
0.0
 30
0.0
  0
VERTEX
  5
6C
330
6B
100
AcDbEntity
  8
\U+838C\U+8343\U+8384\U+815B_1
100
AcDbVertex
100
AcDb2dVertex
 10
43.40648056640533
 20
-18.88756374310797
 30
0.0
  0
VERTEX
  5
6D
330
6B
100
AcDbEntity
  8
\U+838C\U+8343\U+8384\U+815B_1
100
AcDbVertex
100
AcDb2dVertex
 10
257.5357014330119
 20
-142.5993923254613
 30
0.0
  0
SEQEND
  5
6E
330
6B
100
AcDbEntity
  8
\U+838C\U+8343\U+8384\U+815B_1
  0
POLYLINE
  5
6F
330
3C
100
AcDbEntity
  8
\U+838C\U+8343\U+8384\U+815B_1
100
AcDb2dPolyline
 66
     1
 10
0.0
 20
0.0
 30
0.0
  0
VERTEX
  5
70
330
6F
100
AcDbEntity
  8
\U+838C\U+8343\U+8384\U+815B_1
100
AcDbVertex
100
AcDb2dVertex
 10
263.5343016919289
 20
-153.0862629825618
 30
0.0
  0
VERTEX
  5
71
330
6F
100
AcDbEntity
  8
\U+838C\U+8343\U+8384\U+815B_1
100
AcDbVertex
100
AcDb2dVertex
 10
263.4902044697178
 20
-152.6008490286901
 30
0.0
  0
VERTEX
  5
72
330
6F
100
AcDbEntity
  8
\U+838C\U+8343\U+8384\U+815B_1
100
AcDbVertex
100
AcDb2dVertex
 10
263.43129333692
 20
-151.7919406087534
 30
0.0
  0
VERTEX
  5
73
330
6F
100
AcDbEntity
  8
\U+838C\U+8343\U+8384\U+815B_1
100
AcDbVertex
100
AcDb2dVertex
 10
263.4168239358819
 20
-151.5566405871108
 30
0.0
  0
VERTEX
  5
74
330
6F
100
AcDbEntity
  8
\U+838C\U+8343\U+8384\U+815B_1
100
AcDbVertex
100
AcDb2dVertex
 10
263.4020100252953
 20
-151.5418266765243
 30
0.0
  0
VERTEX
  5
75
330
6F
100
AcDbEntity
  8
\U+838C\U+8343\U+8384\U+815B_1
100
AcDbVertex
100
AcDb2dVertex
 10
263.3430988924976
 20
-151.2476155220839
 30
0.0
  0
VERTEX
  5
76
330
6F
100
AcDbEntity
  8
\U+838C\U+8343\U+8384\U+815B_1
100
AcDbVertex
100
AcDb2dVertex
 10
263.107798870855
 20
-150.380140478898
 30
0.0
  0
VERTEX
  5
77
330
6F
100
AcDbEntity
  8
\U+838C\U+8343\U+8384\U+815B_1
100
AcDbVertex
100
AcDb2dVertex
 10
261.7404404727594
 20
-147.0411539345939
 30
0.0
  0
VERTEX
  5
78
330
6F
100
AcDbEntity
  8
\U+838C\U+8343\U+8384\U+815B_1
100
AcDbVertex
100
AcDb2dVertex
 10
259.5941459854487
 20
-144.1582980325368
 30
0.0
  0
VERTEX
  5
79
330
6F
100
AcDbEntity
  8
\U+838C\U+8343\U+8384\U+815B_1
100
AcDbVertex
100
AcDb2dVertex
 10
258.9175292321456
 20
-143.5554063226181
 30
0.0
  0
VERTEX
  5
7A
330
6F
100
AcDbEntity
  8
\U+838C\U+8343\U+8384\U+815B_1
100
AcDbVertex
100
AcDb2dVertex
 10
258.6825737200516
 20
-143.3642035231867
 30
0.0
  0
VERTEX
  5
7B
330
6F
100
AcDbEntity
  8
\U+838C\U+8343\U+8384\U+815B_1
100
AcDbVertex
100
AcDb2dVertex
 10
258.667759809465
 20
-143.3642035231867
 30
0.0
  0
VERTEX
  5
7C
330
6F
100
AcDbEntity
  8
\U+838C\U+8343\U+8384\U+815B_1
100
AcDbVertex
100
AcDb2dVertex
 10
258.5061848312068
 20
-143.2463812575912
 30
0.0
  0
VERTEX
  5
7D
330
6F
100
AcDbEntity
  8
\U+838C\U+8343\U+8384\U+815B_1
100
AcDbVertex
100
AcDb2dVertex
 10
257.9032931212881
 20
-142.8491617481419
 30
0.0
  0
VERTEX
  5
7E
330
6F
100
AcDbEntity
  8
\U+838C\U+8343\U+8384\U+815B_1
100
AcDbVertex
100
AcDb2dVertex
 10
257.5357014330119
 20
-142.5993923254613
 30
0.0
  0
SEQEND
  5
7F
330
6F
100
AcDbEntity
  8
\U+838C\U+8343\U+8384\U+815B_1
  0
POLYLINE
  5
80
330
3C
100
AcDbEntity
  8
\U+838C\U+8343\U+8384\U+815B_1
100
AcDb2dPolyline
 66
     1
 10
0.0
 20
0.0
 30
0.0
  0
VERTEX
  5
81
330
80
100
AcDbEntity
  8
\U+838C\U+8343\U+8384\U+815B_1
100
AcDbVertex
100
AcDb2dVertex
 10
263.5343016919289
 20
-153.0862629825618
 30
0.0
  0
VERTEX
  5
82
330
80
100
AcDbEntity
  8
\U+838C\U+8343\U+8384\U+815B_1
100
AcDbVertex
100
AcDb2dVertex
 10
263.5343016919289
 20
-153.8510741802872
 30
0.0
  0
SEQEND
  5
83
330
80
100
AcDbEntity
  8
\U+838C\U+8343\U+8384\U+815B_1
  0
POLYLINE
  5
84
330
3C
100
AcDbEntity
  8
\U+838C\U+8343\U+8384\U+815B_1
100
AcDb2dPolyline
 66
     1
 10
0.0
 20
0.0
 30
0.0
  0
VERTEX
  5
85
330
84
100
AcDbEntity
  8
\U+838C\U+8343\U+8384\U+815B_1
100
AcDbVertex
100
AcDb2dVertex
 10
266.6069823552233
 20
-151.2920572538437
 30
0.0
  0
VERTEX
  5
86
330
84
100
AcDbEntity
  8
\U+838C\U+8343\U+8384\U+815B_1
100
AcDbVertex
100
AcDb2dVertex
 10
263.5343016919289
 20
-153.0862629825618
 30
0.0
  0
SEQEND
  5
87
330
84
100
AcDbEntity
  8
\U+838C\U+8343\U+8384\U+815B_1
  0
POLYLINE
  5
88
330
3C
100
AcDbEntity
  8
\U+838C\U+8343\U+8384\U+815B_1
100
AcDb2dPolyline
 66
     1
 10
0.0
 20
0.0
 30
0.0
  0
VERTEX
  5
89
330
88
100
AcDbEntity
  8
\U+838C\U+8343\U+8384\U+815B_1
100
AcDbVertex
100
AcDb2dVertex
 10
257.5357014330119
 20
-142.5993923254613
 30
0.0
  0
VERTEX
  5
8A
330
88
100
AcDbEntity
  8
\U+838C\U+8343\U+8384\U+815B_1
100
AcDbVertex
100
AcDb2dVertex
 10
257.9914875657105
 20
-142.3199950816075
 30
0.0
  0
VERTEX
  5
8B
330
88
100
AcDbEntity
  8
\U+838C\U+8343\U+8384\U+815B_1
100
AcDbVertex
100
AcDb2dVertex
 10
259.005723676568
 20
-141.7019449515537
 30
0.0
  0
VERTEX
  5
8C
330
88
100
AcDbEntity
  8
\U+838C\U+8343\U+8384\U+815B_1
100
AcDbVertex
100
AcDb2dVertex
 10
260.0203042969741
 20
-141.0842393310484
 30
0.0
  0
VERTEX
  5
8D
330
88
100
AcDbEntity
  8
\U+838C\U+8343\U+8384\U+815B_1
100
AcDbVertex
100
AcDb2dVertex
 10
260.4760904296726
 20
-140.8048420871946
 30
0.0
  0
VERTEX
  5
8E
330
88
100
AcDbEntity
  8
\U+838C\U+8343\U+8384\U+815B_1
100
AcDbVertex
100
AcDb2dVertex
 10
261.7552543833459
 20
-141.7019449515537
 30
0.0
  0
VERTEX
  5
8F
330
88
100
AcDbEntity
  8
\U+838C\U+8343\U+8384\U+815B_1
100
AcDbVertex
100
AcDb2dVertex
 10
263.4753905591311
 20
-143.3934868348114
 30
0.0
  0
VERTEX
  5
90
330
88
100
AcDbEntity
  8
\U+838C\U+8343\U+8384\U+815B_1
100
AcDbVertex
100
AcDb2dVertex
 10
264.8427489572268
 20
-145.3644259619228
 30
0.0
  0
VERTEX
  5
91
330
88
100
AcDbEntity
  8
\U+838C\U+8343\U+8384\U+815B_1
100
AcDbVertex
100
AcDb2dVertex
 10
265.8573295776329
 20
-147.5558512000902
 30
0.0
  0
VERTEX
  5
92
330
88
100
AcDbEntity
  8
\U+838C\U+8343\U+8384\U+815B_1
100
AcDbVertex
100
AcDb2dVertex
 10
266.4746906885896
 20
-149.8799126144397
 30
0.0
  0
VERTEX
  5
93
330
88
100
AcDbEntity
  8
\U+838C\U+8343\U+8384\U+815B_1
100
AcDbVertex
100
AcDb2dVertex
 10
266.6069823552233
 20
-151.2920572538437
 30
0.0
  0
SEQEND
  5
94
330
88
100
AcDbEntity
  8
\U+838C\U+8343\U+8384\U+815B_1
  0
POLYLINE
  5
95
330
3C
100
AcDbEntity
  8
\U+838C\U+8343\U+8384\U+815B_1
100
AcDb2dPolyline
 66
     1
 10
0.0
 20
0.0
 30
0.0
  0
VERTEX
  5
96
330
95
100
AcDbEntity
  8
\U+838C\U+8343\U+8384\U+815B_1
100
AcDbVertex
100
AcDb2dVertex
 10
259.9613931641763
 20
-156.3956217056928
 30
0.0
  0
VERTEX
  5
97
330
95
100
AcDbEntity
  8
\U+838C\U+8343\U+8384\U+815B_1
100
AcDbVertex
100
AcDb2dVertex
 10
259.4174125870554
 20
-156.7191161717577
 30
0.0
  0
VERTEX
  5
98
330
95
100
AcDbEntity
  8
\U+838C\U+8343\U+8384\U+815B_1
100
AcDbVertex
100
AcDb2dVertex
 10
259.329218142633
 20
-156.7780273045555
 30
0.0
  0
VERTEX
  5
99
330
95
100
AcDbEntity
  8
\U+838C\U+8343\U+8384\U+815B_1
100
AcDbVertex
100
AcDb2dVertex
 10
259.1528292537882
 20
-156.9547607029488
 30
0.0
  0
VERTEX
  5
9A
330
95
100
AcDbEntity
  8
\U+838C\U+8343\U+8384\U+815B_1
100
AcDbVertex
100
AcDb2dVertex
 10
258.6970431210896
 20
-157.3957329250608
 30
0.0
  0
VERTEX
  5
9B
330
95
100
AcDbEntity
  8
\U+838C\U+8343\U+8384\U+815B_1
100
AcDbVertex
100
AcDb2dVertex
 10
257.5505153435985
 20
-158.7785942528401
 30
0.0
  0
VERTEX
  5
9C
330
95
100
AcDbEntity
  8
\U+838C\U+8343\U+8384\U+815B_1
100
AcDbVertex
100
AcDb2dVertex
 10
256.888712500882
 20
-160.4405083149246
 30
0.0
  0
VERTEX
  5
9D
330
95
100
AcDbEntity
  8
\U+838C\U+8343\U+8384\U+815B_1
100
AcDbVertex
100
AcDb2dVertex
 10
256.7123236120372
 20
-161.0289306238053
 30
0.0
  0
VERTEX
  5
9E
330
95
100
AcDbEntity
  8
\U+838C\U+8343\U+8384\U+815B_1
100
AcDbVertex
100
AcDb2dVertex
 10
256.6389430782014
 20
-161.2642306454478
 30
0.0
  0
VERTEX
  5
9F
330
95
100
AcDbEntity
  8
\U+838C\U+8343\U+8384\U+815B_1
100
AcDbVertex
100
AcDb2dVertex
 10
256.6389430782014
 20
-161.3965223120814
 30
0.0
  0
VERTEX
  5
A0
330
95
100
AcDbEntity
  8
\U+838C\U+8343\U+8384\U+815B_1
100
AcDbVertex
100
AcDb2dVertex
 10
256.6389430782014
 20
-162.1465195992203
 30
0.0
  0
SEQEND
  5
A1
330
95
100
AcDbEntity
  8
\U+838C\U+8343\U+8384\U+815B_1
  0
POLYLINE
  5
A2
330
3C
100
AcDbEntity
  8
\U+838C\U+8343\U+8384\U+815B_1
100
AcDb2dPolyline
 66
     1
 10
0.0
 20
0.0
 30
0.0
  0
VERTEX
  5
A3
330
A2
100
AcDbEntity
  8
\U+838C\U+8343\U+8384\U+815B_1
100
AcDbVertex
100
AcDb2dVertex
 10
259.9613931641763
 20
-156.3956217056928
 30
0.0
  0
VERTEX
  5
A4
330
A2
100
AcDbEntity
  8
\U+838C\U+8343\U+8384\U+815B_1
100
AcDbVertex
100
AcDb2dVertex
 10
259.9613931641763
 20
-159.8520860060439
 30
0.0
  0
VERTEX
  5
A5
330
A2
100
AcDbEntity
  8
\U+838C\U+8343\U+8384\U+815B_1
100
AcDbVertex
100
AcDb2dVertex
 10
259.8291014975428
 20
-159.8520860060439
 30
0.0
  0
VERTEX
  5
A6
330
A2
100
AcDbEntity
  8
\U+838C\U+8343\U+8384\U+815B_1
100
AcDbVertex
100
AcDb2dVertex
 10
259.8291014975428
 20
-159.9843776726775
 30
0.0
  0
VERTEX
  5
A7
330
A2
100
AcDbEntity
  8
\U+838C\U+8343\U+8384\U+815B_1
100
AcDbVertex
100
AcDb2dVertex
 10
259.7116237414957
 20
-159.9843776726775
 30
0.0
  0
VERTEX
  5
A8
330
A2
100
AcDbEntity
  8
\U+838C\U+8343\U+8384\U+815B_1
100
AcDbVertex
100
AcDb2dVertex
 10
259.7116237414957
 20
-160.2344916049067
 30
0.0
  0
VERTEX
  5
A9
330
A2
100
AcDbEntity
  8
\U+838C\U+8343\U+8384\U+815B_1
100
AcDbVertex
100
AcDb2dVertex
 10
259.5793320748621
 20
-160.2344916049067
 30
0.0
  0
VERTEX
  5
AA
330
A2
100
AcDbEntity
  8
\U+838C\U+8343\U+8384\U+815B_1
100
AcDbVertex
100
AcDb2dVertex
 10
259.5793320748621
 20
-160.3667832715402
 30
0.0
  0
VERTEX
  5
AB
330
A2
100
AcDbEntity
  8
\U+838C\U+8343\U+8384\U+815B_1
100
AcDbVertex
100
AcDb2dVertex
 10
256.6389430782014
 20
-162.1465195992203
 30
0.0
  0
SEQEND
  5
AC
330
A2
100
AcDbEntity
  8
\U+838C\U+8343\U+8384\U+815B_1
  0
POLYLINE
  5
AD
330
3C
100
AcDbEntity
  8
\U+838C\U+8343\U+8384\U+815B_1
100
AcDb2dPolyline
 66
     1
 10
0.0
 20
0.0
 30
0.0
  0
VERTEX
  5
AE
330
AD
100
AcDbEntity
  8
\U+838C\U+8343\U+8384\U+815B_1
100
AcDbVertex
100
AcDb2dVertex
 10
30.49770778317419
 20
-31.41892631592999
 30
0.0
  0
VERTEX
  5
AF
330
AD
100
AcDbEntity
  8
\U+838C\U+8343\U+8384\U+815B_1
100
AcDbVertex
100
AcDb2dVertex
 10
256.6389430782014
 20
-162.1465195992203
 30
0.0
  0
SEQEND
  5
B0
330
AD
100
AcDbEntity
  8
\U+838C\U+8343\U+8384\U+815B_1
  0
POLYLINE
  5
B1
330
3C
100
AcDbEntity
  8
\U+838C\U+8343\U+8384\U+815B_1
100
AcDb2dPolyline
 66
     1
 10
0.0
 20
0.0
 30
0.0
  0
VERTEX
  5
B2
330
B1
100
AcDbEntity
  8
\U+838C\U+8343\U+8384\U+815B_1
100
AcDbVertex
100
AcDb2dVertex
 10
33.82050237869765
 20
-25.66802842240244
 30
0.0
  0
VERTEX
  5
B3
330
B1
100
AcDbEntity
  8
\U+838C\U+8343\U+8384\U+815B_1
100
AcDbVertex
100
AcDb2dVertex
 10
33.29116345738902
 20
-26.09453124347637
 30
0.0
  0
VERTEX
  5
B4
330
B1
100
AcDbEntity
  8
\U+838C\U+8343\U+8384\U+815B_1
100
AcDbVertex
100
AcDb2dVertex
 10
33.18815510238004
 20
-26.16808403208645
 30
0.0
  0
VERTEX
  5
B5
330
B1
100
AcDbEntity
  8
\U+838C\U+8343\U+8384\U+815B_1
100
AcDbVertex
100
AcDb2dVertex
 10
33.05586343574645
 20
-26.28573404290773
 30
0.0
  0
VERTEX
  5
B6
330
B1
100
AcDbEntity
  8
\U+838C\U+8343\U+8384\U+815B_1
100
AcDbVertex
100
AcDb2dVertex
 10
32.70308565805687
 20
-26.62404241955927
 30
0.0
  0
VERTEX
  5
B7
330
B1
100
AcDbEntity
  8
\U+838C\U+8343\U+8384\U+815B_1
100
AcDbVertex
100
AcDb2dVertex
 10
31.49747449299369
 20
-28.19793429199566
 30
0.0
  0
VERTEX
  5
B8
330
B1
100
AcDbEntity
  8
\U+838C\U+8343\U+8384\U+815B_1
100
AcDbVertex
100
AcDb2dVertex
 10
30.68873832783129
 20
-30.02176784188692
 30
0.0
  0
VERTEX
  5
B9
330
B1
100
AcDbEntity
  8
\U+838C\U+8343\U+8384\U+815B_1
100
AcDbVertex
100
AcDb2dVertex
 10
30.54180500538538
 20
-30.49236788517205
 30
0.0
  0
VERTEX
  5
BA
330
B1
100
AcDbEntity
  8
\U+838C\U+8343\U+8384\U+815B_1
100
AcDbVertex
100
AcDb2dVertex
 10
30.49770778317419
 20
-30.65411511820453
 30
0.0
  0
VERTEX
  5
BB
330
B1
100
AcDbEntity
  8
\U+838C\U+8343\U+8384\U+815B_1
100
AcDbVertex
100
AcDb2dVertex
 10
30.49770778317419
 20
-30.77176512902581
 30
0.0
  0
VERTEX
  5
BC
330
B1
100
AcDbEntity
  8
\U+838C\U+8343\U+8384\U+815B_1
100
AcDbVertex
100
AcDb2dVertex
 10
30.49770778317419
 20
-31.41892631592999
 30
0.0
  0
SEQEND
  5
BD
330
B1
100
AcDbEntity
  8
\U+838C\U+8343\U+8384\U+815B_1
  0
POLYLINE
  5
BE
330
3C
100
AcDbEntity
  8
\U+838C\U+8343\U+8384\U+815B_1
100
AcDb2dPolyline
 66
     1
 10
0.0
 20
0.0
 30
0.0
  0
VERTEX
  5
BF
330
BE
100
AcDbEntity
  8
\U+838C\U+8343\U+8384\U+815B_1
100
AcDbVertex
100
AcDb2dVertex
 10
33.82050237869765
 20
-25.66802842240244
 30
0.0
  0
VERTEX
  5
C0
330
BE
100
AcDbEntity
  8
\U+838C\U+8343\U+8384\U+815B_1
100
AcDbVertex
100
AcDb2dVertex
 10
259.9613931641763
 20
-156.3956217056928
 30
0.0
  0
SEQEND
  5
C1
330
BE
100
AcDbEntity
  8
\U+838C\U+8343\U+8384\U+815B_1
  0
POLYLINE
  5
C2
330
3C
100
AcDbEntity
  8
\U+838C\U+8343\U+8384\U+815B_1
100
AcDb2dPolyline
 66
     1
 10
0.0
 20
0.0
 30
0.0
  0
VERTEX
  5
C3
330
C2
100
AcDbEntity
  8
\U+838C\U+8343\U+8384\U+815B_1
100
AcDbVertex
100
AcDb2dVertex
 10
256.6389430782014
 20
-188.6069199832302
 30
0.0
  0
VERTEX
  5
C4
330
C2
100
AcDbEntity
  8
\U+838C\U+8343\U+8384\U+815B_1
100
AcDbVertex
100
AcDb2dVertex
 10
259.5793320748621
 20
-186.8123697449636
 30
0.0
  0
SEQEND
  5
C5
330
C2
100
AcDbEntity
  8
\U+838C\U+8343\U+8384\U+815B_1
  0
POLYLINE
  5
C6
330
3C
100
AcDbEntity
  8
\U+838C\U+8343\U+8384\U+815B_1
100
AcDb2dPolyline
 66
     1
 10
0.0
 20
0.0
 30
0.0
  0
VERTEX
  5
C7
330
C6
100
AcDbEntity
  8
\U+838C\U+8343\U+8384\U+815B_1
100
AcDbVertex
100
AcDb2dVertex
 10
256.6389430782014
 20
-162.1465195992203
 30
0.0
  0
VERTEX
  5
C8
330
C6
100
AcDbEntity
  8
\U+838C\U+8343\U+8384\U+815B_1
100
AcDbVertex
100
AcDb2dVertex
 10
256.6389430782014
 20
-188.6069199832302
 30
0.0
  0
SEQEND
  5
C9
330
C6
100
AcDbEntity
  8
\U+838C\U+8343\U+8384\U+815B_1
  0
POLYLINE
  5
CA
330
3C
100
AcDbEntity
  8
\U+838C\U+8343\U+8384\U+815B_1
100
AcDb2dPolyline
 66
     1
 10
0.0
 20
0.0
 30
0.0
  0
VERTEX
  5
CB
330
CA
100
AcDbEntity
  8
\U+838C\U+8343\U+8384\U+815B_1
100
AcDbVertex
100
AcDb2dVertex
 10
259.5793320748621
 20
-160.3667832715402
 30
0.0
  0
VERTEX
  5
CC
330
CA
100
AcDbEntity
  8
\U+838C\U+8343\U+8384\U+815B_1
100
AcDbVertex
100
AcDb2dVertex
 10
259.5793320748621
 20
-186.8123697449636
 30
0.0
  0
SEQEND
  5
CD
330
CA
100
AcDbEntity
  8
\U+838C\U+8343\U+8384\U+815B_1
  0
POLYLINE
  5
CE
330
3C
100
AcDbEntity
  8
\U+838C\U+8343\U+8384\U+815B_1
100
AcDb2dPolyline
 66
     1
 10
0.0
 20
0.0
 30
0.0
  0
VERTEX
  5
CF
330
CE
100
AcDbEntity
  8
\U+838C\U+8343\U+8384\U+815B_1
100
AcDbVertex
100
AcDb2dVertex
 10
30.49770778317419
 20
-57.86451278935332
 30
0.0
  0
VERTEX
  5
D0
330
CE
100
AcDbEntity
  8
\U+838C\U+8343\U+8384\U+815B_1
100
AcDbVertex
100
AcDb2dVertex
 10
256.6389430782014
 20
-188.6069199832302
 30
0.0
  0
SEQEND
  5
D1
330
CE
100
AcDbEntity
  8
\U+838C\U+8343\U+8384\U+815B_1
  0
POLYLINE
  5
D2
330
3C
100
AcDbEntity
  8
\U+838C\U+8343\U+8384\U+815B_1
100
AcDb2dPolyline
 66
     1
 10
0.0
 20
0.0
 30
0.0
  0
VERTEX
  5
D3
330
D2
100
AcDbEntity
  8
\U+838C\U+8343\U+8384\U+815B_1
100
AcDbVertex
100
AcDb2dVertex
 10
30.49770778317419
 20
-31.41892631592999
 30
0.0
  0
VERTEX
  5
D4
330
D2
100
AcDbEntity
  8
\U+838C\U+8343\U+8384\U+815B_1
100
AcDbVertex
100
AcDb2dVertex
 10
30.49770778317419
 20
-57.86451278935332
 30
0.0
  0
SEQEND
  5
D5
330
D2
100
AcDbEntity
  8
\U+838C\U+8343\U+8384\U+815B_1
  0
POLYLINE
  5
D6
330
3C
100
AcDbEntity
  8
\U+838C\U+8343\U+8384\U+815B_1
100
AcDb2dPolyline
 66
     1
 10
0.0
 20
0.0
 30
0.0
  0
VERTEX
  5
D7
330
D6
100
AcDbEntity
  8
\U+838C\U+8343\U+8384\U+815B_1
100
AcDbVertex
100
AcDb2dVertex
 10
263.2845322692483
 20
-154.4835937113791
 30
0.0
  0
VERTEX
  5
D8
330
D6
100
AcDbEntity
  8
\U+838C\U+8343\U+8384\U+815B_1
100
AcDbVertex
100
AcDb2dVertex
 10
259.9613931641763
 20
-156.3956217056928
 30
0.0
  0
SEQEND
  5
D9
330
D6
100
AcDbEntity
  8
\U+838C\U+8343\U+8384\U+815B_1
  0
POLYLINE
  5
DA
330
3C
100
AcDbEntity
  8
\U+838C\U+8343\U+8384\U+815B_1
100
AcDb2dPolyline
 66
     1
 10
0.0
 20
0.0
 30
0.0
  0
VERTEX
  5
DB
330
DA
100
AcDbEntity
  8
\U+838C\U+8343\U+8384\U+815B_1
100
AcDbVertex
100
AcDb2dVertex
 10
263.2845322692483
 20
-157.9400580117303
 30
0.0
  0
VERTEX
  5
DC
330
DA
100
AcDbEntity
  8
\U+838C\U+8343\U+8384\U+815B_1
100
AcDbVertex
100
AcDb2dVertex
 10
263.2845322692483
 20
-154.4835937113791
 30
0.0
  0
SEQEND
  5
DD
330
DA
100
AcDbEntity
  8
\U+838C\U+8343\U+8384\U+815B_1
  0
POLYLINE
  5
DE
330
3C
100
AcDbEntity
  8
\U+838C\U+8343\U+8384\U+815B_1
100
AcDb2dPolyline
 66
     1
 10
0.0
 20
0.0
 30
0.0
  0
VERTEX
  5
DF
330
DE
100
AcDbEntity
  8
\U+838C\U+8343\U+8384\U+815B_1
100
AcDbVertex
100
AcDb2dVertex
 10
263.2845322692483
 20
-157.9400580117303
 30
0.0
  0
VERTEX
  5
E0
330
DE
100
AcDbEntity
  8
\U+838C\U+8343\U+8384\U+815B_1
100
AcDbVertex
100
AcDb2dVertex
 10
259.9613931641763
 20
-159.8520860060439
 30
0.0
  0
SEQEND
  5
E1
330
DE
100
AcDbEntity
  8
\U+838C\U+8343\U+8384\U+815B_1
  0
POLYLINE
  5
E2
330
3C
100
AcDbEntity
  8
\U+838C\U+8343\U+8384\U+815B_1
100
AcDb2dPolyline
 66
     1
 10
0.0
 20
0.0
 30
0.0
  0
VERTEX
  5
E3
330
E2
100
AcDbEntity
  8
\U+838C\U+8343\U+8384\U+815B_1
100
AcDbVertex
100
AcDb2dVertex
 10
37.14329697422112
 20
-23.7411865175022
 30
0.0
  0
VERTEX
  5
E4
330
E2
100
AcDbEntity
  8
\U+838C\U+8343\U+8384\U+815B_1
100
AcDbVertex
100
AcDb2dVertex
 10
33.82050237869765
 20
-25.66802842240244
 30
0.0
  0
SEQEND
  5
E5
330
E2
100
AcDbEntity
  8
\U+838C\U+8343\U+8384\U+815B_1
  0
POLYLINE
  5
E6
330
3C
100
AcDbEntity
  8
\U+838C\U+8343\U+8384\U+815B_1
100
AcDb2dPolyline
 66
     1
 10
0.0
 20
0.0
 30
0.0
  0
VERTEX
  5
E7
330
E6
100
AcDbEntity
  8
\U+838C\U+8343\U+8384\U+815B_1
100
AcDbVertex
100
AcDb2dVertex
 10
37.14329697422112
 20
-23.7411865175022
 30
0.0
  0
VERTEX
  5
E8
330
E6
100
AcDbEntity
  8
\U+838C\U+8343\U+8384\U+815B_1
100
AcDbVertex
100
AcDb2dVertex
 10
263.2845322692483
 20
-154.4835937113791
 30
0.0
  0
SEQEND
  5
E9
330
E6
100
AcDbEntity
  8
\U+838C\U+8343\U+8384\U+815B_1
  0
POLYLINE
  5
EA
330
3C
100
AcDbEntity
  8
\U+838C\U+8343\U+8384\U+815B_1
100
AcDb2dPolyline
 66
     1
 10
0.0
 20
0.0
 30
0.0
  0
VERTEX
  5
EB
330
EA
100
AcDbEntity
  8
\U+838C\U+8343\U+8384\U+815B_1
100
AcDbVertex
100
AcDb2dVertex
 10
263.5343016919289
 20
-153.8510741802872
 30
0.0
  0
VERTEX
  5
EC
330
EA
100
AcDbEntity
  8
\U+838C\U+8343\U+8384\U+815B_1
100
AcDbVertex
100
AcDb2dVertex
 10
266.6069823552233
 20
-152.1891601182027
 30
0.0
  0
SEQEND
  5
ED
330
EA
100
AcDbEntity
  8
\U+838C\U+8343\U+8384\U+815B_1
  0
POLYLINE
  5
EE
330
3C
100
AcDbEntity
  8
\U+838C\U+8343\U+8384\U+815B_1
100
AcDb2dPolyline
 66
     1
 10
0.0
 20
0.0
 30
0.0
  0
VERTEX
  5
EF
330
EE
100
AcDbEntity
  8
\U+838C\U+8343\U+8384\U+815B_1
100
AcDbVertex
100
AcDb2dVertex
 10
266.6069823552233
 20
-151.2920572538437
 30
0.0
  0
VERTEX
  5
F0
330
EE
100
AcDbEntity
  8
\U+838C\U+8343\U+8384\U+815B_1
100
AcDbVertex
100
AcDb2dVertex
 10
266.6069823552233
 20
-152.1891601182027
 30
0.0
  0
SEQEND
  5
F1
330
EE
100
AcDbEntity
  8
\U+838C\U+8343\U+8384\U+815B_1
  0
POLYLINE
  5
F2
330
3C
100
AcDbEntity
  8
\U+838C\U+8343\U+8384\U+815B_1
100
AcDb2dPolyline
 66
     1
 10
0.0
 20
0.0
 30
0.0
  0
VERTEX
  5
F3
330
F2
100
AcDbEntity
  8
\U+838C\U+8343\U+8384\U+815B_1
100
AcDbVertex
100
AcDb2dVertex
 10
46.46469182866161
 20
-17.09301350484133
 30
0.0
  0
VERTEX
  5
F4
330
F2
100
AcDbEntity
  8
\U+838C\U+8343\U+8384\U+815B_1
100
AcDbVertex
100
AcDb2dVertex
 10
43.40648056640533
 20
-18.88756374310797
 30
0.0
  0
SEQEND
  5
F5
330
F2
100
AcDbEntity
  8
\U+838C\U+8343\U+8384\U+815B_1
  0
POLYLINE
  5
F6
330
3C
100
AcDbEntity
  8
\U+838C\U+8343\U+8384\U+815B_1
100
AcDb2dPolyline
 66
     1
 10
0.0
 20
0.0
 30
0.0
  0
VERTEX
  5
F7
330
F6
100
AcDbEntity
  8
\U+838C\U+8343\U+8384\U+815B_1
100
AcDbVertex
100
AcDb2dVertex
 10
46.46469182866161
 20
-17.09301350484133
 30
0.0
  0
VERTEX
  5
F8
330
F6
100
AcDbEntity
  8
\U+838C\U+8343\U+8384\U+815B_1
100
AcDbVertex
100
AcDb2dVertex
 10
260.4760904296726
 20
-140.8048420871946
 30
0.0
  0
SEQEND
  5
F9
330
F6
100
AcDbEntity
  8
\U+838C\U+8343\U+8384\U+815B_1
  0
POLYLINE
  5
FA
330
3C
100
AcDbEntity
  8
\U+838C\U+8343\U+8384\U+815B_1
100
AcDb2dPolyline
 66
     1
 10
0.0
 20
0.0
 30
0.0
  0
VERTEX
  5
FB
330
FA
100
AcDbEntity
  8
\U+838C\U+8343\U+8384\U+815B_1
100
AcDbVertex
100
AcDb2dVertex
 10
263.5343016919289
 20
-153.8510741802872
 30
0.0
  0
VERTEX
  5
FC
330
FA
100
AcDbEntity
  8
\U+838C\U+8343\U+8384\U+815B_1
100
AcDbVertex
100
AcDb2dVertex
 10
263.5343016919289
 20
-154.1011881125164
 30
0.0
  0
VERTEX
  5
FD
330
FA
100
AcDbEntity
  8
\U+838C\U+8343\U+8384\U+815B_1
100
AcDbVertex
100
AcDb2dVertex
 10
263.4020100252953
 20
-154.23347977915
 30
0.0
  0
VERTEX
  5
FE
330
FA
100
AcDbEntity
  8
\U+838C\U+8343\U+8384\U+815B_1
100
AcDbVertex
100
AcDb2dVertex
 10
263.4020100252953
 20
-154.3513020447455
 30
0.0
  0
SEQEND
  5
FF
330
FA
100
AcDbEntity
  8
\U+838C\U+8343\U+8384\U+815B_1
  0
POLYLINE
  5
100
330
3C
100
AcDbEntity
  8
\U+838C\U+8343\U+8384\U+815B_1
100
AcDb2dPolyline
 66
     1
 10
0.0
 20
0.0
 30
0.0
  0
VERTEX
  5
101
330
100
100
AcDbEntity
  8
\U+838C\U+8343\U+8384\U+815B_1
100
AcDbVertex
100
AcDb2dVertex
 10
263.4020100252953
 20
-154.3513020447455
 30
0.0
  0
VERTEX
  5
102
330
100
100
AcDbEntity
  8
\U+838C\U+8343\U+8384\U+815B_1
100
AcDbVertex
100
AcDb2dVertex
 10
263.2845322692483
 20
-154.3513020447455
 30
0.0
  0
SEQEND
  5
103
330
100
100
AcDbEntity
  8
\U+838C\U+8343\U+8384\U+815B_1
  0
POLYLINE
  5
104
330
3C
100
AcDbEntity
  8
\U+838C\U+8343\U+8384\U+815B_1
100
AcDb2dPolyline
 66
     1
 10
0.0
 20
0.0
 30
0.0
  0
VERTEX
  5
105
330
104
100
AcDbEntity
  8
\U+838C\U+8343\U+8384\U+815B_1
100
AcDbVertex
100
AcDb2dVertex
 10
263.2845322692483
 20
-154.3513020447455
 30
0.0
  0
VERTEX
  5
106
330
104
100
AcDbEntity
  8
\U+838C\U+8343\U+8384\U+815B_1
100
AcDbVertex
100
AcDb2dVertex
 10
263.2845322692483
 20
-154.4835937113791
 30
0.0
  0
SEQEND
  5
107
330
104
100
AcDbEntity
  8
\U+838C\U+8343\U+8384\U+815B_1
  0
POLYLINE
  5
108
330
3C
100
AcDbEntity
  8
\U+838C\U+8343\U+8384\U+815B_1
100
AcDb2dPolyline
 66
     1
 10
0.0
 20
0.0
 30
0.0
  0
VERTEX
  5
109
330
108
100
AcDbEntity
  8
\U+838C\U+8343\U+8384\U+815B_1
100
AcDbVertex
100
AcDb2dVertex
 10
266.6069823552233
 20
-152.1891601182027
 30
0.0
  0
VERTEX
  5
10A
330
108
100
AcDbEntity
  8
\U+838C\U+8343\U+8384\U+815B_1
100
AcDbVertex
100
AcDb2dVertex
 10
266.3423990219561
 20
-153.7187825136537
 30
0.0
  0
VERTEX
  5
10B
330
108
100
AcDbEntity
  8
\U+838C\U+8343\U+8384\U+815B_1
100
AcDbVertex
100
AcDb2dVertex
 10
265.9603379326419
 20
-154.6158853780127
 30
0.0
  0
VERTEX
  5
10C
330
108
100
AcDbEntity
  8
\U+838C\U+8343\U+8384\U+815B_1
100
AcDbVertex
100
AcDb2dVertex
 10
265.5779323337791
 20
-155.3806965757382
 30
0.0
  0
VERTEX
  5
10D
330
108
100
AcDbEntity
  8
\U+838C\U+8343\U+8384\U+815B_1
100
AcDbVertex
100
AcDb2dVertex
 10
264.563351713373
 20
-156.9106634807376
 30
0.0
  0
VERTEX
  5
10E
330
108
100
AcDbEntity
  8
\U+838C\U+8343\U+8384\U+815B_1
100
AcDbVertex
100
AcDb2dVertex
 10
263.9167072907917
 20
-157.4253607462339
 30
0.0
  0
VERTEX
  5
10F
330
108
100
AcDbEntity
  8
\U+838C\U+8343\U+8384\U+815B_1
100
AcDbVertex
100
AcDb2dVertex
 10
263.2845322692483
 20
-157.9400580117303
 30
0.0
  0
SEQEND
  5
110
330
108
100
AcDbEntity
  8
\U+838C\U+8343\U+8384\U+815B_1
  0
POLYLINE
  5
111
330
3C
100
AcDbEntity
  8
\U+838C\U+8343\U+8384\U+815B_1
100
AcDb2dPolyline
 66
     1
 10
0.0
 20
0.0
 30
0.0
  0
VERTEX
  5
112
330
111
100
AcDbEntity
  8
\U+838C\U+8343\U+8384\U+815B_1
100
AcDbVertex
100
AcDb2dVertex
 10
37.393238651676
 20
-23.24113090781819
 30
0.0
  0
VERTEX
  5
113
330
111
100
AcDbEntity
  8
\U+838C\U+8343\U+8384\U+815B_1
100
AcDbVertex
100
AcDb2dVertex
 10
37.393238651676
 20
-23.62353650668092
 30
0.0
  0
VERTEX
  5
114
330
111
100
AcDbEntity
  8
\U+838C\U+8343\U+8384\U+815B_1
100
AcDbVertex
100
AcDb2dVertex
 10
37.27558864085471
 20
-23.62353650668092
 30
0.0
  0
VERTEX
  5
115
330
111
100
AcDbEntity
  8
\U+838C\U+8343\U+8384\U+815B_1
100
AcDbVertex
100
AcDb2dVertex
 10
37.27558864085471
 20
-23.7411865175022
 30
0.0
  0
VERTEX
  5
116
330
111
100
AcDbEntity
  8
\U+838C\U+8343\U+8384\U+815B_1
100
AcDbVertex
100
AcDb2dVertex
 10
37.14329697422112
 20
-23.7411865175022
 30
0.0
  0
SEQEND
  5
117
330
111
100
AcDbEntity
  8
\U+838C\U+8343\U+8384\U+815B_1
  0
POLYLINE
  5
118
330
3C
100
AcDbEntity
  8
\U+838C\U+8343\U+8384\U+815B_1
100
AcDb2dPolyline
 66
     1
 10
0.0
 20
0.0
 30
0.0
  0
VERTEX
  5
119
330
118
100
AcDbEntity
  8
\U+838C\U+8343\U+8384\U+815B_1
100
AcDbVertex
100
AcDb2dVertex
 10
30.49770778317419
 20
-57.86451278935332
 30
0.0
  0
VERTEX
  5
11A
330
118
100
AcDbEntity
  8
\U+838C\U+8343\U+8384\U+815B_1
100
AcDbVertex
100
AcDb2dVertex
 10
30.49770778317419
 20
-58.62932398707878
 30
0.0
  0
VERTEX
  5
11B
330
118
100
AcDbEntity
  8
\U+838C\U+8343\U+8384\U+815B_1
100
AcDbVertex
100
AcDb2dVertex
 10
30.76229111644137
 20
-59.27665742875723
 30
0.0
  0
VERTEX
  5
11C
330
118
100
AcDbEntity
  8
\U+838C\U+8343\U+8384\U+815B_1
100
AcDbVertex
100
AcDb2dVertex
 10
31.01223279389625
 20
-59.79135469425356
 30
0.0
  0
VERTEX
  5
11D
330
118
100
AcDbEntity
  8
\U+838C\U+8343\U+8384\U+815B_1
100
AcDbVertex
100
AcDb2dVertex
 10
31.52675780461831
 20
-60.04146862648269
 30
0.0
  0
SEQEND
  5
11E
330
118
100
AcDbEntity
  8
\U+838C\U+8343\U+8384\U+815B_1
  0
POLYLINE
  5
11F
330
3C
100
AcDbEntity
  8
\U+838C\U+8343\U+8384\U+815B_1
100
AcDb2dPolyline
 66
     1
 10
0.0
 20
0.0
 30
0.0
  0
VERTEX
  5
120
330
11F
100
AcDbEntity
  8
\U+838C\U+8343\U+8384\U+815B_1
100
AcDbVertex
100
AcDb2dVertex
 10
256.6389430782014
 20
-188.6069199832302
 30
0.0
  0
VERTEX
  5
121
330
11F
100
AcDbEntity
  8
\U+838C\U+8343\U+8384\U+815B_1
100
AcDbVertex
100
AcDb2dVertex
 10
256.6389430782014
 20
-189.1364311593131
 30
0.0
  0
VERTEX
  5
122
330
11F
100
AcDbEntity
  8
\U+838C\U+8343\U+8384\U+815B_1
100
AcDbVertex
100
AcDb2dVertex
 10
256.6389430782014
 20
-189.2394395143221
 30
0.0
  0
VERTEX
  5
123
330
11F
100
AcDbEntity
  8
\U+838C\U+8343\U+8384\U+815B_1
100
AcDbVertex
100
AcDb2dVertex
 10
256.6975097014507
 20
-189.3865450915423
 30
0.0
  0
VERTEX
  5
124
330
11F
100
AcDbEntity
  8
\U+838C\U+8343\U+8384\U+815B_1
100
AcDbVertex
100
AcDb2dVertex
 10
256.8446152786708
 20
-189.7837646009916
 30
0.0
  0
VERTEX
  5
125
330
11F
100
AcDbEntity
  8
\U+838C\U+8343\U+8384\U+815B_1
100
AcDbVertex
100
AcDb2dVertex
 10
257.5208875224254
 20
-190.7542479991864
 30
0.0
  0
VERTEX
  5
126
330
11F
100
AcDbEntity
  8
\U+838C\U+8343\U+8384\U+815B_1
100
AcDbVertex
100
AcDb2dVertex
 10
258.0059569667485
 20
-190.9161674869932
 30
0.0
  0
VERTEX
  5
127
330
11F
100
AcDbEntity
  8
\U+838C\U+8343\U+8384\U+815B_1
100
AcDbVertex
100
AcDb2dVertex
 10
258.7118570316762
 20
-190.8868841753686
 30
0.0
  0
VERTEX
  5
128
330
11F
100
AcDbEntity
  8
\U+838C\U+8343\U+8384\U+815B_1
100
AcDbVertex
100
AcDb2dVertex
 10
259.1528292537882
 20
-190.8131591319842
 30
0.0
  0
VERTEX
  5
129
330
11F
100
AcDbEntity
  8
\U+838C\U+8343\U+8384\U+815B_1
100
AcDbVertex
100
AcDb2dVertex
 10
259.329218142633
 20
-190.769061909773
 30
0.0
  0
VERTEX
  5
12A
330
11F
100
AcDbEntity
  8
\U+838C\U+8343\U+8384\U+815B_1
100
AcDbVertex
100
AcDb2dVertex
 10
259.4174125870554
 20
-190.7397785981484
 30
0.0
  0
VERTEX
  5
12B
330
11F
100
AcDbEntity
  8
\U+838C\U+8343\U+8384\U+815B_1
100
AcDbVertex
100
AcDb2dVertex
 10
259.9613931641763
 20
-190.5189479775439
 30
0.0
  0
SEQEND
  5
12C
330
11F
100
AcDbEntity
  8
\U+838C\U+8343\U+8384\U+815B_1
  0
POLYLINE
  5
12D
330
3C
100
AcDbEntity
  8
\U+838C\U+8343\U+8384\U+815B_1
100
AcDb2dPolyline
 66
     1
 10
0.0
 20
0.0
 30
0.0
  0
VERTEX
  5
12E
330
12D
100
AcDbEntity
  8
\U+838C\U+8343\U+8384\U+815B_1
100
AcDbVertex
100
AcDb2dVertex
 10
259.5793320748621
 20
-186.8123697449636
 30
0.0
  0
VERTEX
  5
12F
330
12D
100
AcDbEntity
  8
\U+838C\U+8343\U+8384\U+815B_1
100
AcDbVertex
100
AcDb2dVertex
 10
259.5793320748621
 20
-186.9450059211457
 30
0.0
  0
VERTEX
  5
130
330
12D
100
AcDbEntity
  8
\U+838C\U+8343\U+8384\U+815B_1
100
AcDbVertex
100
AcDb2dVertex
 10
259.7116237414957
 20
-186.9450059211457
 30
0.0
  0
VERTEX
  5
131
330
12D
100
AcDbEntity
  8
\U+838C\U+8343\U+8384\U+815B_1
100
AcDbVertex
100
AcDb2dVertex
 10
259.7116237414957
 20
-187.0772975877793
 30
0.0
  0
VERTEX
  5
132
330
12D
100
AcDbEntity
  8
\U+838C\U+8343\U+8384\U+815B_1
100
AcDbVertex
100
AcDb2dVertex
 10
259.8291014975428
 20
-187.0772975877793
 30
0.0
  0
VERTEX
  5
133
330
12D
100
AcDbEntity
  8
\U+838C\U+8343\U+8384\U+815B_1
100
AcDbVertex
100
AcDb2dVertex
 10
259.9613931641763
 20
-186.9450059211457
 30
0.0
  0
VERTEX
  5
134
330
12D
100
AcDbEntity
  8
\U+838C\U+8343\U+8384\U+815B_1
100
AcDbVertex
100
AcDb2dVertex
 10
259.9613931641763
 20
-190.5189479775439
 30
0.0
  0
SEQEND
  5
135
330
12D
100
AcDbEntity
  8
\U+838C\U+8343\U+8384\U+815B_1
  0
POLYLINE
  5
136
330
3C
100
AcDbEntity
  8
\U+838C\U+8343\U+8384\U+815B_1
100
AcDb2dPolyline
 66
     1
 10
0.0
 20
0.0
 30
0.0
  0
VERTEX
  5
137
330
136
100
AcDbEntity
  8
\U+838C\U+8343\U+8384\U+815B_1
100
AcDbVertex
100
AcDb2dVertex
 10
259.5793320748621
 20
-186.8123697449636
 30
0.0
  0
VERTEX
  5
138
330
136
100
AcDbEntity
  8
\U+838C\U+8343\U+8384\U+815B_1
100
AcDbVertex
100
AcDb2dVertex
 10
259.9613931641763
 20
-186.9450059211457
 30
0.0
  0
SEQEND
  5
139
330
136
100
AcDbEntity
  8
\U+838C\U+8343\U+8384\U+815B_1
  0
POLYLINE
  5
13A
330
3C
100
AcDbEntity
  8
\U+838C\U+8343\U+8384\U+815B_1
100
AcDb2dPolyline
 66
     1
 10
0.0
 20
0.0
 30
0.0
  0
VERTEX
  5
13B
330
13A
100
AcDbEntity
  8
\U+838C\U+8343\U+8384\U+815B_1
100
AcDbVertex
100
AcDb2dVertex
 10
259.5793320748621
 20
-182.9883137563363
 30
0.0
  0
VERTEX
  5
13C
330
13A
100
AcDbEntity
  8
\U+838C\U+8343\U+8384\U+815B_1
100
AcDbVertex
100
AcDb2dVertex
 10
263.2845322692483
 20
-185.032977926832
 30
0.0
  0
SEQEND
  5
13D
330
13A
100
AcDbEntity
  8
\U+838C\U+8343\U+8384\U+815B_1
  0
POLYLINE
  5
13E
330
3C
100
AcDbEntity
  8
\U+838C\U+8343\U+8384\U+815B_1
100
AcDb2dPolyline
 66
     1
 10
0.0
 20
0.0
 30
0.0
  0
VERTEX
  5
13F
330
13E
100
AcDbEntity
  8
\U+838C\U+8343\U+8384\U+815B_1
100
AcDbVertex
100
AcDb2dVertex
 10
259.9613931641763
 20
-186.9450059211457
 30
0.0
  0
VERTEX
  5
140
330
13E
100
AcDbEntity
  8
\U+838C\U+8343\U+8384\U+815B_1
100
AcDbVertex
100
AcDb2dVertex
 10
263.2845322692483
 20
-185.032977926832
 30
0.0
  0
SEQEND
  5
141
330
13E
100
AcDbEntity
  8
\U+838C\U+8343\U+8384\U+815B_1
  0
POLYLINE
  5
142
330
3C
100
AcDbEntity
  8
\U+838C\U+8343\U+8384\U+815B_1
100
AcDb2dPolyline
 66
     1
 10
0.0
 20
0.0
 30
0.0
  0
VERTEX
  5
143
330
142
100
AcDbEntity
  8
\U+838C\U+8343\U+8384\U+815B_1
100
AcDbVertex
100
AcDb2dVertex
 10
263.2845322692483
 20
-188.6069199832302
 30
0.0
  0
VERTEX
  5
144
330
142
100
AcDbEntity
  8
\U+838C\U+8343\U+8384\U+815B_1
100
AcDbVertex
100
AcDb2dVertex
 10
263.2845322692483
 20
-185.032977926832
 30
0.0
  0
SEQEND
  5
145
330
142
100
AcDbEntity
  8
\U+838C\U+8343\U+8384\U+815B_1
  0
POLYLINE
  5
146
330
3C
100
AcDbEntity
  8
\U+838C\U+8343\U+8384\U+815B_1
100
AcDb2dPolyline
 66
     1
 10
0.0
 20
0.0
 30
0.0
  0
VERTEX
  5
147
330
146
100
AcDbEntity
  8
\U+838C\U+8343\U+8384\U+815B_1
100
AcDbVertex
100
AcDb2dVertex
 10
259.9613931641763
 20
-190.5189479775439
 30
0.0
  0
VERTEX
  5
148
330
146
100
AcDbEntity
  8
\U+838C\U+8343\U+8384\U+815B_1
100
AcDbVertex
100
AcDb2dVertex
 10
263.2845322692483
 20
-188.6069199832302
 30
0.0
  0
SEQEND
  5
149
330
146
100
AcDbEntity
  8
\U+838C\U+8343\U+8384\U+815B_1
  0
POLYLINE
  5
14A
330
3C
100
AcDbEntity
  8
\U+838C\U+8343\U+8384\U+815B_1
100
AcDb2dPolyline
 66
     1
 10
0.0
 20
0.0
 30
0.0
  0
VERTEX
  5
14B
330
14A
100
AcDbEntity
  8
\U+838C\U+8343\U+8384\U+815B_1
100
AcDbVertex
100
AcDb2dVertex
 10
263.2845322692483
 20
-185.032977926832
 30
0.0
  0
VERTEX
  5
14C
330
14A
100
AcDbEntity
  8
\U+838C\U+8343\U+8384\U+815B_1
100
AcDbVertex
100
AcDb2dVertex
 10
263.9167072907917
 20
-184.7680500840163
 30
0.0
  0
VERTEX
  5
14D
330
14A
100
AcDbEntity
  8
\U+838C\U+8343\U+8384\U+815B_1
100
AcDbVertex
100
AcDb2dVertex
 10
264.563351713373
 20
-184.6357584173827
 30
0.0
  0
VERTEX
  5
14E
330
14A
100
AcDbEntity
  8
\U+838C\U+8343\U+8384\U+815B_1
100
AcDbVertex
100
AcDb2dVertex
 10
265.0632350682828
 20
-184.6357584173827
 30
0.0
  0
VERTEX
  5
14F
330
14A
100
AcDbEntity
  8
\U+838C\U+8343\U+8384\U+815B_1
100
AcDbVertex
100
AcDb2dVertex
 10
265.5779323337791
 20
-184.9003417506499
 30
0.0
  0
VERTEX
  5
150
330
14A
100
AcDbEntity
  8
\U+838C\U+8343\U+8384\U+815B_1
100
AcDbVertex
100
AcDb2dVertex
 10
265.9603379326419
 20
-185.1504556828791
 30
0.0
  0
VERTEX
  5
151
330
14A
100
AcDbEntity
  8
\U+838C\U+8343\U+8384\U+815B_1
100
AcDbVertex
100
AcDb2dVertex
 10
266.3423990219561
 20
-185.6651529483754
 30
0.0
  0
VERTEX
  5
152
330
14A
100
AcDbEntity
  8
\U+838C\U+8343\U+8384\U+815B_1
100
AcDbVertex
100
AcDb2dVertex
 10
266.6069823552233
 20
-186.9450059211457
 30
0.0
  0
SEQEND
  5
153
330
14A
100
AcDbEntity
  8
\U+838C\U+8343\U+8384\U+815B_1
  0
POLYLINE
  5
154
330
3C
100
AcDbEntity
  8
\U+838C\U+8343\U+8384\U+815B_1
100
AcDb2dPolyline
 66
     1
 10
0.0
 20
0.0
 30
0.0
  0
VERTEX
  5
155
330
154
100
AcDbEntity
  8
\U+838C\U+8343\U+8384\U+815B_1
100
AcDbVertex
100
AcDb2dVertex
 10
263.2845322692483
 20
-188.6069199832302
 30
0.0
  0
VERTEX
  5
156
330
154
100
AcDbEntity
  8
\U+838C\U+8343\U+8384\U+815B_1
100
AcDbVertex
100
AcDb2dVertex
 10
263.4020100252953
 20
-188.4746283165966
 30
0.0
  0
VERTEX
  5
157
330
154
100
AcDbEntity
  8
\U+838C\U+8343\U+8384\U+815B_1
100
AcDbVertex
100
AcDb2dVertex
 10
263.4020100252953
 20
-188.6069199832302
 30
0.0
  0
VERTEX
  5
158
330
154
100
AcDbEntity
  8
\U+838C\U+8343\U+8384\U+815B_1
100
AcDbVertex
100
AcDb2dVertex
 10
263.5343016919289
 20
-188.6069199832302
 30
0.0
  0
VERTEX
  5
159
330
154
100
AcDbEntity
  8
\U+838C\U+8343\U+8384\U+815B_1
100
AcDbVertex
100
AcDb2dVertex
 10
263.5343016919289
 20
-188.7247422488258
 30
0.0
  0
SEQEND
  5
15A
330
154
100
AcDbEntity
  8
\U+838C\U+8343\U+8384\U+815B_1
  0
POLYLINE
  5
15B
330
3C
100
AcDbEntity
  8
\U+838C\U+8343\U+8384\U+815B_1
100
AcDb2dPolyline
 66
     1
 10
0.0
 20
0.0
 30
0.0
  0
VERTEX
  5
15C
330
15B
100
AcDbEntity
  8
\U+838C\U+8343\U+8384\U+815B_1
100
AcDbVertex
100
AcDb2dVertex
 10
266.6069823552233
 20
-186.9450059211457
 30
0.0
  0
VERTEX
  5
15D
330
15B
100
AcDbEntity
  8
\U+838C\U+8343\U+8384\U+815B_1
100
AcDbVertex
100
AcDb2dVertex
 10
263.5343016919289
 20
-188.7247422488258
 30
0.0
  0
SEQEND
  5
15E
330
15B
100
AcDbEntity
  8
\U+838C\U+8343\U+8384\U+815B_1
  0
POLYLINE
  5
15F
330
3C
100
AcDbEntity
  8
\U+838C\U+8343\U+8384\U+815B_1
100
AcDb2dPolyline
 66
     1
 10
0.0
 20
0.0
 30
0.0
  0
VERTEX
  5
160
330
15F
100
AcDbEntity
  8
\U+838C\U+8343\U+8384\U+815B_1
100
AcDbVertex
100
AcDb2dVertex
 10
263.2845322692483
 20
-188.6069199832302
 30
0.0
  0
VERTEX
  5
161
330
15F
100
AcDbEntity
  8
\U+838C\U+8343\U+8384\U+815B_1
100
AcDbVertex
100
AcDb2dVertex
 10
263.5343016919289
 20
-188.7247422488258
 30
0.0
  0
SEQEND
  5
162
330
15F
100
AcDbEntity
  8
\U+838C\U+8343\U+8384\U+815B_1
  0
POLYLINE
  5
163
330
3C
100
AcDbEntity
  8
\U+838C\U+8343\U+8384\U+815B_1
100
AcDb2dPolyline
 66
     1
 10
0.0
 20
0.0
 30
0.0
  0
VERTEX
  5
164
330
163
100
AcDbEntity
  8
\U+838C\U+8343\U+8384\U+815B_1
100
AcDbVertex
100
AcDb2dVertex
 10
266.6069823552233
 20
-186.9450059211457
 30
0.0
  0
VERTEX
  5
165
330
163
100
AcDbEntity
  8
\U+838C\U+8343\U+8384\U+815B_1
100
AcDbVertex
100
AcDb2dVertex
 10
266.6069823552233
 20
-187.8421087855048
 30
0.0
  0
SEQEND
  5
166
330
163
100
AcDbEntity
  8
\U+838C\U+8343\U+8384\U+815B_1
  0
POLYLINE
  5
167
330
3C
100
AcDbEntity
  8
\U+838C\U+8343\U+8384\U+815B_1
100
AcDb2dPolyline
 66
     1
 10
0.0
 20
0.0
 30
0.0
  0
VERTEX
  5
168
330
167
100
AcDbEntity
  8
\U+838C\U+8343\U+8384\U+815B_1
100
AcDbVertex
100
AcDb2dVertex
 10
263.5343016919289
 20
-189.6218451131848
 30
0.0
  0
VERTEX
  5
169
330
167
100
AcDbEntity
  8
\U+838C\U+8343\U+8384\U+815B_1
100
AcDbVertex
100
AcDb2dVertex
 10
266.6069823552233
 20
-187.8421087855048
 30
0.0
  0
SEQEND
  5
16A
330
167
100
AcDbEntity
  8
\U+838C\U+8343\U+8384\U+815B_1
  0
POLYLINE
  5
16B
330
3C
100
AcDbEntity
  8
\U+838C\U+8343\U+8384\U+815B_1
100
AcDb2dPolyline
 66
     1
 10
0.0
 20
0.0
 30
0.0
  0
VERTEX
  5
16C
330
16B
100
AcDbEntity
  8
\U+838C\U+8343\U+8384\U+815B_1
100
AcDbVertex
100
AcDb2dVertex
 10
263.5343016919289
 20
-188.7247422488258
 30
0.0
  0
VERTEX
  5
16D
330
16B
100
AcDbEntity
  8
\U+838C\U+8343\U+8384\U+815B_1
100
AcDbVertex
100
AcDb2dVertex
 10
263.5343016919289
 20
-189.6218451131848
 30
0.0
  0
SEQEND
  5
16E
330
16B
100
AcDbEntity
  8
\U+838C\U+8343\U+8384\U+815B_1
  0
POLYLINE
  5
16F
330
3C
100
AcDbEntity
  8
\U+838C\U+8343\U+8384\U+815B_1
100
AcDb2dPolyline
 66
     1
 10
0.0
 20
0.0
 30
0.0
  0
VERTEX
  5
170
330
16F
100
AcDbEntity
  8
\U+838C\U+8343\U+8384\U+815B_1
100
AcDbVertex
100
AcDb2dVertex
 10
38.93698593861645
 20
-64.3803941353806
 30
0.0
  0
VERTEX
  5
171
330
16F
100
AcDbEntity
  8
\U+838C\U+8343\U+8384\U+815B_1
100
AcDbVertex
100
AcDb2dVertex
 10
39.18692761607132
 20
-64.89509140087692
 30
0.0
  0
VERTEX
  5
172
330
16F
100
AcDbEntity
  8
\U+838C\U+8343\U+8384\U+815B_1
100
AcDbVertex
100
AcDb2dVertex
 10
40.08368597088186
 20
-66.30723604028083
 30
0.0
  0
VERTEX
  5
173
330
16F
100
AcDbEntity
  8
\U+838C\U+8343\U+8384\U+815B_1
100
AcDbVertex
100
AcDb2dVertex
 10
41.09826659128794
 20
-67.58674450350263
 30
0.0
  0
VERTEX
  5
174
330
16F
100
AcDbEntity
  8
\U+838C\U+8343\U+8384\U+815B_1
100
AcDbVertex
100
AcDb2dVertex
 10
42.24496662355335
 20
-68.60166963345722
 30
0.0
  0
VERTEX
  5
175
330
16F
100
AcDbEntity
  8
\U+838C\U+8343\U+8384\U+815B_1
100
AcDbVertex
100
AcDb2dVertex
 10
43.40648056640533
 20
-69.36648083118268
 30
0.0
  0
SEQEND
  5
176
330
16F
100
AcDbEntity
  8
\U+838C\U+8343\U+8384\U+815B_1
  0
POLYLINE
  5
177
330
3C
100
AcDbEntity
  8
\U+838C\U+8343\U+8384\U+815B_1
100
AcDb2dPolyline
 66
     1
 10
0.0
 20
0.0
 30
0.0
  0
VERTEX
  5
178
330
177
100
AcDbEntity
  8
\U+838C\U+8343\U+8384\U+815B_1
100
AcDbVertex
100
AcDb2dVertex
 10
257.5357014330119
 20
-193.078309413536
 30
0.0
  0
VERTEX
  5
179
330
177
100
AcDbEntity
  8
\U+838C\U+8343\U+8384\U+815B_1
100
AcDbVertex
100
AcDb2dVertex
 10
257.9032931212881
 20
-193.2402289013427
 30
0.0
  0
VERTEX
  5
17A
330
177
100
AcDbEntity
  8
\U+838C\U+8343\U+8384\U+815B_1
100
AcDbVertex
100
AcDb2dVertex
 10
258.5061848312068
 20
-193.5048122346099
 30
0.0
  0
VERTEX
  5
17B
330
177
100
AcDbEntity
  8
\U+838C\U+8343\U+8384\U+815B_1
100
AcDbVertex
100
AcDb2dVertex
 10
258.667759809465
 20
-193.5785372779943
 30
0.0
  0
VERTEX
  5
17C
330
177
100
AcDbEntity
  8
\U+838C\U+8343\U+8384\U+815B_1
100
AcDbVertex
100
AcDb2dVertex
 10
258.6825737200516
 20
-193.5930066790323
 30
0.0
  0
VERTEX
  5
17D
330
177
100
AcDbEntity
  8
\U+838C\U+8343\U+8384\U+815B_1
100
AcDbVertex
100
AcDb2dVertex
 10
258.9323431427322
 20
-193.6519178118301
 30
0.0
  0
VERTEX
  5
17E
330
177
100
AcDbEntity
  8
\U+838C\U+8343\U+8384\U+815B_1
100
AcDbVertex
100
AcDb2dVertex
 10
259.6234292970733
 20
-193.8138372996368
 30
0.0
  0
VERTEX
  5
17F
330
177
100
AcDbEntity
  8
\U+838C\U+8343\U+8384\U+815B_1
100
AcDbVertex
100
AcDb2dVertex
 10
260.8143988063242
 20
-193.857934521848
 30
0.0
  0
VERTEX
  5
180
330
177
100
AcDbEntity
  8
\U+838C\U+8343\U+8384\U+815B_1
100
AcDbVertex
100
AcDb2dVertex
 10
261.7993516055571
 20
-193.5637233674077
 30
0.0
  0
VERTEX
  5
181
330
177
100
AcDbEntity
  8
\U+838C\U+8343\U+8384\U+815B_1
100
AcDbVertex
100
AcDb2dVertex
 10
262.549348892696
 20
-192.8871066141046
 30
0.0
  0
VERTEX
  5
182
330
177
100
AcDbEntity
  8
\U+838C\U+8343\U+8384\U+815B_1
100
AcDbVertex
100
AcDb2dVertex
 10
263.1226127814416
 20
-191.8428981725254
 30
0.0
  0
VERTEX
  5
183
330
177
100
AcDbEntity
  8
\U+838C\U+8343\U+8384\U+815B_1
100
AcDbVertex
100
AcDb2dVertex
 10
263.3430988924976
 20
-191.1514675086358
 30
0.0
  0
VERTEX
  5
184
330
177
100
AcDbEntity
  8
\U+838C\U+8343\U+8384\U+815B_1
100
AcDbVertex
100
AcDb2dVertex
 10
263.4020100252953
 20
-190.9013535764066
 30
0.0
  0
VERTEX
  5
185
330
177
100
AcDbEntity
  8
\U+838C\U+8343\U+8384\U+815B_1
100
AcDbVertex
100
AcDb2dVertex
 10
263.4168239358819
 20
-190.8868841753686
 30
0.0
  0
VERTEX
  5
186
330
177
100
AcDbEntity
  8
\U+838C\U+8343\U+8384\U+815B_1
100
AcDbVertex
100
AcDb2dVertex
 10
263.43129333692
 20
-190.7101507769752
 30
0.0
  0
VERTEX
  5
187
330
177
100
AcDbEntity
  8
\U+838C\U+8343\U+8384\U+815B_1
100
AcDbVertex
100
AcDb2dVertex
 10
263.4902044697178
 20
-190.0335340236722
 30
0.0
  0
VERTEX
  5
188
330
177
100
AcDbEntity
  8
\U+838C\U+8343\U+8384\U+815B_1
100
AcDbVertex
100
AcDb2dVertex
 10
263.5343016919289
 20
-189.6218451131848
 30
0.0
  0
SEQEND
  5
189
330
177
100
AcDbEntity
  8
\U+838C\U+8343\U+8384\U+815B_1
  0
POLYLINE
  5
18A
330
3C
100
AcDbEntity
  8
\U+838C\U+8343\U+8384\U+815B_1
100
AcDb2dPolyline
 66
     1
 10
0.0
 20
0.0
 30
0.0
  0
VERTEX
  5
18B
330
18A
100
AcDbEntity
  8
\U+838C\U+8343\U+8384\U+815B_1
100
AcDbVertex
100
AcDb2dVertex
 10
43.40648056640533
 20
-69.36648083118268
 30
0.0
  0
VERTEX
  5
18C
330
18A
100
AcDbEntity
  8
\U+838C\U+8343\U+8384\U+815B_1
100
AcDbVertex
100
AcDb2dVertex
 10
257.5357014330119
 20
-193.078309413536
 30
0.0
  0
SEQEND
  5
18D
330
18A
100
AcDbEntity
  8
\U+838C\U+8343\U+8384\U+815B_1
  0
POLYLINE
  5
18E
330
3C
100
AcDbEntity
  8
\U+838C\U+8343\U+8384\U+815B_1
100
AcDb2dPolyline
 66
     1
 10
0.0
 20
0.0
 30
0.0
  0
VERTEX
  5
18F
330
18E
100
AcDbEntity
  8
\U+838C\U+8343\U+8384\U+815B_1
100
AcDbVertex
100
AcDb2dVertex
 10
266.6069823552233
 20
-187.8421087855048
 30
0.0
  0
VERTEX
  5
190
330
18E
100
AcDbEntity
  8
\U+838C\U+8343\U+8384\U+815B_1
100
AcDbVertex
100
AcDb2dVertex
 10
266.4746906885896
 20
-189.1216172487266
 30
0.0
  0
VERTEX
  5
191
330
18E
100
AcDbEntity
  8
\U+838C\U+8343\U+8384\U+815B_1
100
AcDbVertex
100
AcDb2dVertex
 10
266.0926295992755
 20
-190.2688340453147
 30
0.0
  0
VERTEX
  5
192
330
18E
100
AcDbEntity
  8
\U+838C\U+8343\U+8384\U+815B_1
100
AcDbVertex
100
AcDb2dVertex
 10
265.5779323337791
 20
-191.1662814192223
 30
0.0
  0
VERTEX
  5
193
330
18E
100
AcDbEntity
  8
\U+838C\U+8343\U+8384\U+815B_1
100
AcDbVertex
100
AcDb2dVertex
 10
264.8134656456022
 20
-191.7988009503142
 30
0.0
  0
SEQEND
  5
194
330
18E
100
AcDbEntity
  8
\U+838C\U+8343\U+8384\U+815B_1
  0
POLYLINE
  5
195
330
3C
100
AcDbEntity
  8
\U+838C\U+8343\U+8384\U+815B_1
100
AcDb2dPolyline
 66
     1
 10
0.0
 20
0.0
 30
0.0
  0
VERTEX
  5
196
330
195
100
AcDbEntity
  8
\U+838C\U+8343\U+8384\U+815B_1
100
AcDbVertex
100
AcDb2dVertex
 10
42.24496662355335
 20
-16.7106079059786
 30
0.0
  0
VERTEX
  5
197
330
195
100
AcDbEntity
  8
\U+838C\U+8343\U+8384\U+815B_1
100
AcDbVertex
100
AcDb2dVertex
 10
43.14189723313814
 20
-16.46066622852372
 30
0.0
  0
VERTEX
  5
198
330
195
100
AcDbEntity
  8
\U+838C\U+8343\U+8384\U+815B_1
100
AcDbVertex
100
AcDb2dVertex
 10
44.17111950935653
 20
-16.32820230711587
 30
0.0
  0
VERTEX
  5
199
330
195
100
AcDbEntity
  8
\U+838C\U+8343\U+8384\U+815B_1
100
AcDbVertex
100
AcDb2dVertex
 10
45.31781954162194
 20
-16.59295789515732
 30
0.0
  0
VERTEX
  5
19A
330
195
100
AcDbEntity
  8
\U+838C\U+8343\U+8384\U+815B_1
100
AcDbVertex
100
AcDb2dVertex
 10
46.46469182866161
 20
-17.09301350484133
 30
0.0
  0
SEQEND
  5
19B
330
195
100
AcDbEntity
  8
\U+838C\U+8343\U+8384\U+815B_1
  0
POLYLINE
  5
19C
330
3C
100
AcDbEntity
  8
\U+838C\U+8343\U+8384\U+815B_1
100
AcDb2dPolyline
 66
     1
 10
0.0
 20
0.0
 30
0.0
  0
VERTEX
  5
19D
330
19C
100
AcDbEntity
  8
\U+838C\U+8343\U+8384\U+815B_1
100
AcDbVertex
100
AcDb2dVertex
 10
50.50785589015081
 20
-54.7022596434425
 30
0.0
  0
VERTEX
  5
19E
330
19C
100
AcDbEntity
  8
\U+838C\U+8343\U+8384\U+815B_1
100
AcDbVertex
100
AcDb2dVertex
 10
49.84622530220859
 20
-56.17314316086991
 30
0.0
  0
VERTEX
  5
19F
330
19C
100
AcDbEntity
  8
\U+838C\U+8343\U+8384\U+815B_1
100
AcDbVertex
100
AcDb2dVertex
 10
49.40525308009661
 20
-57.90878226633878
 30
0.0
  0
VERTEX
  5
1A0
330
19C
100
AcDbEntity
  8
\U+838C\U+8343\U+8384\U+815B_1
100
AcDbVertex
100
AcDb2dVertex
 10
49.25814750287644
 20
-59.74725747204236
 30
0.0
  0
VERTEX
  5
1A1
330
19C
100
AcDbEntity
  8
\U+838C\U+8343\U+8384\U+815B_1
100
AcDbVertex
100
AcDb2dVertex
 10
49.40525308009661
 20
-61.63000215473139
 30
0.0
  0
VERTEX
  5
1A2
330
19C
100
AcDbEntity
  8
\U+838C\U+8343\U+8384\U+815B_1
100
AcDbVertex
100
AcDb2dVertex
 10
49.89032252441978
 20
-63.48311901624728
 30
0.0
  0
VERTEX
  5
1A3
330
19C
100
AcDbEntity
  8
\U+838C\U+8343\U+8384\U+815B_1
100
AcDbVertex
100
AcDb2dVertex
 10
50.65496146737098
 20
-65.24821368811503
 30
0.0
  0
VERTEX
  5
1A4
330
19C
100
AcDbEntity
  8
\U+838C\U+8343\U+8384\U+815B_1
100
AcDbVertex
100
AcDb2dVertex
 10
51.69882539940168
 20
-66.89548609438724
 30
0.0
  0
VERTEX
  5
1A5
330
19C
100
AcDbEntity
  8
\U+838C\U+8343\U+8384\U+815B_1
100
AcDbVertex
100
AcDb2dVertex
 10
52.30171710932041
 20
-67.64565563630039
 30
0.0
  0
VERTEX
  5
1A6
330
19C
100
AcDbEntity
  8
\U+838C\U+8343\U+8384\U+815B_1
100
AcDbVertex
100
AcDb2dVertex
 10
52.77214489783128
 20
-68.14571124598442
 30
0.0
  0
SEQEND
  5
1A7
330
19C
100
AcDbEntity
  8
\U+838C\U+8343\U+8384\U+815B_1
  0
POLYLINE
  5
1A8
330
3C
100
AcDbEntity
  8
\U+838C\U+8343\U+8384\U+815B_1
100
AcDb2dPolyline
 66
     1
 10
0.0
 20
0.0
 30
0.0
  0
VERTEX
  5
1A9
330
1A8
100
AcDbEntity
  8
\U+838C\U+8343\U+8384\U+815B_1
100
AcDbVertex
100
AcDb2dVertex
 10
52.77214489783128
 20
-68.14571124598442
 30
0.0
  0
VERTEX
  5
1AA
330
1A8
100
AcDbEntity
  8
\U+838C\U+8343\U+8384\U+815B_1
100
AcDbVertex
100
AcDb2dVertex
 10
54.09540607371574
 20
-69.27828638676029
 30
0.0
  0
VERTEX
  5
1AB
330
1A8
100
AcDbEntity
  8
\U+838C\U+8343\U+8384\U+815B_1
100
AcDbVertex
100
AcDb2dVertex
 10
55.68325058286739
 20
-70.24894203972943
 30
0.0
  0
VERTEX
  5
1AC
330
1A8
100
AcDbEntity
  8
\U+838C\U+8343\U+8384\U+815B_1
100
AcDbVertex
100
AcDb2dVertex
 10
57.37410344702801
 20
-70.89610322663361
 30
0.0
  0
VERTEX
  5
1AD
330
1A8
100
AcDbEntity
  8
\U+838C\U+8343\U+8384\U+815B_1
100
AcDbVertex
100
AcDb2dVertex
 10
58.24140623543965
 20
-71.11676159246387
 30
0.0
  0
VERTEX
  5
1AE
330
1A8
100
AcDbEntity
  8
\U+838C\U+8343\U+8384\U+815B_1
100
AcDbVertex
100
AcDb2dVertex
 10
58.62381183430238
 20
-71.19031438107395
 30
0.0
  0
VERTEX
  5
1AF
330
1A8
100
AcDbEntity
  8
\U+838C\U+8343\U+8384\U+815B_1
100
AcDbVertex
100
AcDb2dVertex
 10
58.75610350093598
 20
-71.20495603688626
 30
0.0
  0
SEQEND
  5
1B0
330
1A8
100
AcDbEntity
  8
\U+838C\U+8343\U+8384\U+815B_1
  0
POLYLINE
  5
1B1
330
3C
100
AcDbEntity
  8
\U+838C\U+8343\U+8384\U+815B_1
100
AcDb2dPolyline
 66
     1
 10
0.0
 20
0.0
 30
0.0
  0
VERTEX
  5
1B2
330
1B1
100
AcDbEntity
  8
\U+838C\U+8343\U+8384\U+815B_1
100
AcDbVertex
100
AcDb2dVertex
 10
52.96317544248838
 20
-51.98132322919217
 30
0.0
  0
VERTEX
  5
1B3
330
1B1
100
AcDbEntity
  8
\U+838C\U+8343\U+8384\U+815B_1
100
AcDbVertex
100
AcDb2dVertex
 10
51.52243651055689
 20
-53.24619003660165
 30
0.0
  0
VERTEX
  5
1B4
330
1B1
100
AcDbEntity
  8
\U+838C\U+8343\U+8384\U+815B_1
100
AcDbVertex
100
AcDb2dVertex
 10
50.91954480063817
 20
-54.02564289013942
 30
0.0
  0
VERTEX
  5
1B5
330
1B1
100
AcDbEntity
  8
\U+838C\U+8343\U+8384\U+815B_1
100
AcDbVertex
100
AcDb2dVertex
 10
50.50785589015081
 20
-54.71707355402907
 30
0.0
  0
SEQEND
  5
1B6
330
1B1
100
AcDbEntity
  8
\U+838C\U+8343\U+8384\U+815B_1
  0
POLYLINE
  5
1B7
330
3C
100
AcDbEntity
  8
\U+838C\U+8343\U+8384\U+815B_1
100
AcDb2dPolyline
 66
     1
 10
0.0
 20
0.0
 30
0.0
  0
VERTEX
  5
1B8
330
1B7
100
AcDbEntity
  8
\U+838C\U+8343\U+8384\U+815B_1
100
AcDbVertex
100
AcDb2dVertex
 10
58.75610350093598
 20
-71.20495603688626
 30
0.0
  0
VERTEX
  5
1B9
330
1B7
100
AcDbEntity
  8
\U+838C\U+8343\U+8384\U+815B_1
100
AcDbVertex
100
AcDb2dVertex
 10
59.53538409969949
 20
-71.27850882549635
 30
0.0
  0
VERTEX
  5
1BA
330
1B7
100
AcDbEntity
  8
\U+838C\U+8343\U+8384\U+815B_1
100
AcDbVertex
100
AcDb2dVertex
 10
60.535150809519
 20
-71.26386716968403
 30
0.0
  0
VERTEX
  5
1BB
330
1B7
100
AcDbEntity
  8
\U+838C\U+8343\U+8384\U+815B_1
100
AcDbVertex
100
AcDb2dVertex
 10
62.41703421833672
 20
-70.86681991500899
 30
0.0
  0
SEQEND
  5
1BC
330
1B7
100
AcDbEntity
  8
\U+838C\U+8343\U+8384\U+815B_1
  0
POLYLINE
  5
1BD
330
3C
100
AcDbEntity
  8
\U+838C\U+8343\U+8384\U+815B_1
100
AcDb2dPolyline
 66
     1
 10
0.0
 20
0.0
 30
0.0
  0
VERTEX
  5
1BE
330
1BD
100
AcDbEntity
  8
\U+838C\U+8343\U+8384\U+815B_1
100
AcDbVertex
100
AcDb2dVertex
 10
53.63961994101718
 20
-51.51055093113278
 30
0.0
  0
VERTEX
  5
1BF
330
1BD
100
AcDbEntity
  8
\U+838C\U+8343\U+8384\U+815B_1
100
AcDbVertex
100
AcDb2dVertex
 10
52.96317544248838
 20
-51.9665093186056
 30
0.0
  0
SEQEND
  5
1C0
330
1BD
100
AcDbEntity
  8
\U+838C\U+8343\U+8384\U+815B_1
  0
POLYLINE
  5
1C1
330
3C
100
AcDbEntity
  8
\U+838C\U+8343\U+8384\U+815B_1
100
AcDb2dPolyline
 66
     1
 10
0.0
 20
0.0
 30
0.0
  0
VERTEX
  5
1C2
330
1C1
100
AcDbEntity
  8
\U+838C\U+8343\U+8384\U+815B_1
100
AcDbVertex
100
AcDb2dVertex
 10
62.43167587414903
 20
-70.86681991500899
 30
0.0
  0
VERTEX
  5
1C3
330
1C1
100
AcDbEntity
  8
\U+838C\U+8343\U+8384\U+815B_1
100
AcDbVertex
100
AcDb2dVertex
 10
63.19631481710023
 20
-70.60206432696754
 30
0.0
  0
SEQEND
  5
1C4
330
1C1
100
AcDbEntity
  8
\U+838C\U+8343\U+8384\U+815B_1
  0
POLYLINE
  5
1C5
330
3C
100
AcDbEntity
  8
\U+838C\U+8343\U+8384\U+815B_1
100
AcDb2dPolyline
 66
     1
 10
0.0
 20
0.0
 30
0.0
  0
VERTEX
  5
1C6
330
1C5
100
AcDbEntity
  8
\U+838C\U+8343\U+8384\U+815B_1
100
AcDbVertex
100
AcDb2dVertex
 10
63.19631481710023
 20
-70.60206432696754
 30
0.0
  0
VERTEX
  5
1C7
330
1C5
100
AcDbEntity
  8
\U+838C\U+8343\U+8384\U+815B_1
100
AcDbVertex
100
AcDb2dVertex
 10
64.74006210404069
 20
-69.80779756284319
 30
0.0
  0
VERTEX
  5
1C8
330
1C5
100
AcDbEntity
  8
\U+838C\U+8343\U+8384\U+815B_1
100
AcDbVertex
100
AcDb2dVertex
 10
66.04850936933857
 20
-68.63112519985611
 30
0.0
  0
VERTEX
  5
1C9
330
1C5
100
AcDbEntity
  8
\U+838C\U+8343\U+8384\U+815B_1
100
AcDbVertex
100
AcDb2dVertex
 10
67.07773164555697
 20
-67.10150280440519
 30
0.0
  0
VERTEX
  5
1CA
330
1C5
100
AcDbEntity
  8
\U+838C\U+8343\U+8384\U+815B_1
100
AcDbVertex
100
AcDb2dVertex
 10
67.7393622334992
 20
-65.29231091032624
 30
0.0
  0
VERTEX
  5
1CB
330
1C5
100
AcDbEntity
  8
\U+838C\U+8343\U+8384\U+815B_1
100
AcDbVertex
100
AcDb2dVertex
 10
68.03340113316527
 20
-63.26246065041703
 30
0.0
  0
VERTEX
  5
1CC
330
1C5
100
AcDbEntity
  8
\U+838C\U+8343\U+8384\U+815B_1
100
AcDbVertex
100
AcDb2dVertex
 10
67.93056503293056
 20
-61.12977429027311
 30
0.0
  0
VERTEX
  5
1CD
330
1C5
100
AcDbEntity
  8
\U+838C\U+8343\U+8384\U+815B_1
100
AcDbVertex
100
AcDb2dVertex
 10
67.4306816780208
 20
-58.96763236373032
 30
0.0
  0
VERTEX
  5
1CE
330
1C5
100
AcDbEntity
  8
\U+838C\U+8343\U+8384\U+815B_1
100
AcDbVertex
100
AcDb2dVertex
 10
66.57784829064721
 20
-56.89385713638418
 30
0.0
  0
VERTEX
  5
1CF
330
1C5
100
AcDbEntity
  8
\U+838C\U+8343\U+8384\U+815B_1
100
AcDbVertex
100
AcDb2dVertex
 10
65.41633434779523
 20
-54.98165688729625
 30
0.0
  0
VERTEX
  5
1D0
330
1C5
100
AcDbEntity
  8
\U+838C\U+8343\U+8384\U+815B_1
100
AcDbVertex
100
AcDb2dVertex
 10
63.97559541586374
 20
-53.31974282521173
 30
0.0
  0
VERTEX
  5
1D1
330
1C5
100
AcDbEntity
  8
\U+838C\U+8343\U+8384\U+815B_1
100
AcDbVertex
100
AcDb2dVertex
 10
62.29938420751544
 20
-51.9665093186056
 30
0.0
  0
VERTEX
  5
1D2
330
1C5
100
AcDbEntity
  8
\U+838C\U+8343\U+8384\U+815B_1
100
AcDbVertex
100
AcDb2dVertex
 10
60.4910535873078
 20
-50.99585366563645
 30
0.0
  0
VERTEX
  5
1D3
330
1C5
100
AcDbEntity
  8
\U+838C\U+8343\U+8384\U+815B_1
100
AcDbVertex
100
AcDb2dVertex
 10
58.60899792371581
 20
-50.48098414536587
 30
0.0
  0
VERTEX
  5
1D4
330
1C5
100
AcDbEntity
  8
\U+838C\U+8343\U+8384\U+815B_1
100
AcDbVertex
100
AcDb2dVertex
 10
56.75657008129697
 20
-50.40743135675579
 30
0.0
  0
VERTEX
  5
1D5
330
1C5
100
AcDbEntity
  8
\U+838C\U+8343\U+8384\U+815B_1
100
AcDbVertex
100
AcDb2dVertex
 10
55.02161999492515
 20
-50.80465086620509
 30
0.0
  0
VERTEX
  5
1D6
330
1C5
100
AcDbEntity
  8
\U+838C\U+8343\U+8384\U+815B_1
100
AcDbVertex
100
AcDb2dVertex
 10
54.22769774034933
 20
-51.17224255448124
 30
0.0
  0
VERTEX
  5
1D7
330
1C5
100
AcDbEntity
  8
\U+838C\U+8343\U+8384\U+815B_1
100
AcDbVertex
100
AcDb2dVertex
 10
53.63961994101718
 20
-51.52536484171936
 30
0.0
  0
SEQEND
  5
1D8
330
1C5
100
AcDbEntity
  8
\U+838C\U+8343\U+8384\U+815B_1
  0
POLYLINE
  5
1D9
330
3C
100
AcDbEntity
  8
\U+838C\U+8343\U+8384\U+815B_1
100
AcDb2dPolyline
 66
     1
 10
0.0
 20
0.0
 30
0.0
  0
VERTEX
  5
1DA
330
1D9
100
AcDbEntity
  8
\U+838C\U+8343\U+8384\U+815B_1
100
AcDbVertex
100
AcDb2dVertex
 10
53.77191160765077
 20
-67.2043389046399
 30
0.0
  0
VERTEX
  5
1DB
330
1D9
100
AcDbEntity
  8
\U+838C\U+8343\U+8384\U+815B_1
100
AcDbVertex
100
AcDb2dVertex
 10
52.05160317709127
 20
-65.4835137097576
 30
0.0
  0
SEQEND
  5
1DC
330
1D9
100
AcDbEntity
  8
\U+838C\U+8343\U+8384\U+815B_1
  0
POLYLINE
  5
1DD
330
3C
100
AcDbEntity
  8
\U+838C\U+8343\U+8384\U+815B_1
100
AcDb2dPolyline
 66
     1
 10
0.0
 20
0.0
 30
0.0
  0
VERTEX
  5
1DE
330
1DD
100
AcDbEntity
  8
\U+838C\U+8343\U+8384\U+815B_1
100
AcDbVertex
100
AcDb2dVertex
 10
54.44818385140532
 20
-65.92465818664384
 30
0.0
  0
VERTEX
  5
1DF
330
1DD
100
AcDbEntity
  8
\U+838C\U+8343\U+8384\U+815B_1
100
AcDbVertex
100
AcDb2dVertex
 10
53.77191160765077
 20
-67.2043389046399
 30
0.0
  0
SEQEND
  5
1E0
330
1DD
100
AcDbEntity
  8
\U+838C\U+8343\U+8384\U+815B_1
  0
POLYLINE
  5
1E1
330
3C
100
AcDbEntity
  8
\U+838C\U+8343\U+8384\U+815B_1
100
AcDb2dPolyline
 66
     1
 10
0.0
 20
0.0
 30
0.0
  0
VERTEX
  5
1E2
330
1E1
100
AcDbEntity
  8
\U+838C\U+8343\U+8384\U+815B_1
100
AcDbVertex
100
AcDb2dVertex
 10
58.30031736823742
 20
-67.24843612685109
 30
0.0
  0
VERTEX
  5
1E3
330
1E1
100
AcDbEntity
  8
\U+838C\U+8343\U+8384\U+815B_1
100
AcDbVertex
100
AcDb2dVertex
 10
56.75657008129697
 20
-65.93947209723041
 30
0.0
  0
SEQEND
  5
1E4
330
1E1
100
AcDbEntity
  8
\U+838C\U+8343\U+8384\U+815B_1
  0
POLYLINE
  5
1E5
330
3C
100
AcDbEntity
  8
\U+838C\U+8343\U+8384\U+815B_1
100
AcDb2dPolyline
 66
     1
 10
0.0
 20
0.0
 30
0.0
  0
VERTEX
  5
1E6
330
1E5
100
AcDbEntity
  8
\U+838C\U+8343\U+8384\U+815B_1
100
AcDbVertex
100
AcDb2dVertex
 10
59.34418130026813
 20
-65.5422525877811
 30
0.0
  0
VERTEX
  5
1E7
330
1E5
100
AcDbEntity
  8
\U+838C\U+8343\U+8384\U+815B_1
100
AcDbVertex
100
AcDb2dVertex
 10
58.30031736823742
 20
-67.24843612685109
 30
0.0
  0
SEQEND
  5
1E8
330
1E5
100
AcDbEntity
  8
\U+838C\U+8343\U+8384\U+815B_1
  0
POLYLINE
  5
1E9
330
3C
100
AcDbEntity
  8
\U+838C\U+8343\U+8384\U+815B_1
100
AcDb2dPolyline
 66
     1
 10
0.0
 20
0.0
 30
0.0
  0
VERTEX
  5
1EA
330
1E9
100
AcDbEntity
  8
\U+838C\U+8343\U+8384\U+815B_1
100
AcDbVertex
100
AcDb2dVertex
 10
57.78579235751536
 20
-64.24793021397274
 30
0.0
  0
VERTEX
  5
1EB
330
1E9
100
AcDbEntity
  8
\U+838C\U+8343\U+8384\U+815B_1
100
AcDbVertex
100
AcDb2dVertex
 10
59.34418130026813
 20
-65.5422525877811
 30
0.0
  0
SEQEND
  5
1EC
330
1E9
100
AcDbEntity
  8
\U+838C\U+8343\U+8384\U+815B_1
  0
POLYLINE
  5
1ED
330
3C
100
AcDbEntity
  8
\U+838C\U+8343\U+8384\U+815B_1
100
AcDb2dPolyline
 66
     1
 10
0.0
 20
0.0
 30
0.0
  0
VERTEX
  5
1EE
330
1ED
100
AcDbEntity
  8
\U+838C\U+8343\U+8384\U+815B_1
100
AcDbVertex
100
AcDb2dVertex
 10
58.21212292381503
 20
-59.92381861566141
 30
0.0
  0
VERTEX
  5
1EF
330
1ED
100
AcDbEntity
  8
\U+838C\U+8343\U+8384\U+815B_1
100
AcDbVertex
100
AcDb2dVertex
 10
57.21235621399553
 20
-61.37988822250225
 30
0.0
  0
SEQEND
  5
1F0
330
1ED
100
AcDbEntity
  8
\U+838C\U+8343\U+8384\U+815B_1
  0
POLYLINE
  5
1F1
330
3C
100
AcDbEntity
  8
\U+838C\U+8343\U+8384\U+815B_1
100
AcDb2dPolyline
 66
     1
 10
0.0
 20
0.0
 30
0.0
  0
VERTEX
  5
1F2
330
1F1
100
AcDbEntity
  8
\U+838C\U+8343\U+8384\U+815B_1
100
AcDbVertex
100
AcDb2dVertex
 10
56.49181449325552
 20
-58.20282116600485
 30
0.0
  0
VERTEX
  5
1F3
330
1F1
100
AcDbEntity
  8
\U+838C\U+8343\U+8384\U+815B_1
100
AcDbVertex
100
AcDb2dVertex
 10
58.21212292381503
 20
-59.92381861566141
 30
0.0
  0
SEQEND
  5
1F4
330
1F1
100
AcDbEntity
  8
\U+838C\U+8343\U+8384\U+815B_1
  0
POLYLINE
  5
1F5
330
3C
100
AcDbEntity
  8
\U+838C\U+8343\U+8384\U+815B_1
100
AcDb2dPolyline
 66
     1
 10
0.0
 20
0.0
 30
0.0
  0
VERTEX
  5
1F6
330
1F5
100
AcDbEntity
  8
\U+838C\U+8343\U+8384\U+815B_1
100
AcDbVertex
100
AcDb2dVertex
 10
55.49204778343602
 20
-59.64424911703338
 30
0.0
  0
VERTEX
  5
1F7
330
1F5
100
AcDbEntity
  8
\U+838C\U+8343\U+8384\U+815B_1
100
AcDbVertex
100
AcDb2dVertex
 10
56.49181449325552
 20
-58.20282116600485
 30
0.0
  0
SEQEND
  5
1F8
330
1F5
100
AcDbEntity
  8
\U+838C\U+8343\U+8384\U+815B_1
  0
POLYLINE
  5
1F9
330
3C
100
AcDbEntity
  8
\U+838C\U+8343\U+8384\U+815B_1
100
AcDb2dPolyline
 66
     1
 10
0.0
 20
0.0
 30
0.0
  0
VERTEX
  5
1FA
330
1F9
100
AcDbEntity
  8
\U+838C\U+8343\U+8384\U+815B_1
100
AcDbVertex
100
AcDb2dVertex
 10
51.94876707685656
 20
-58.17353785438023
 30
0.0
  0
VERTEX
  5
1FB
330
1F9
100
AcDbEntity
  8
\U+838C\U+8343\U+8384\U+815B_1
100
AcDbVertex
100
AcDb2dVertex
 10
53.18383380831862
 20
-59.62960746122107
 30
0.0
  0
SEQEND
  5
1FC
330
1F9
100
AcDbEntity
  8
\U+838C\U+8343\U+8384\U+815B_1
  0
POLYLINE
  5
1FD
330
3C
100
AcDbEntity
  8
\U+838C\U+8343\U+8384\U+815B_1
100
AcDb2dPolyline
 66
     1
 10
0.0
 20
0.0
 30
0.0
  0
VERTEX
  5
1FE
330
1FD
100
AcDbEntity
  8
\U+838C\U+8343\U+8384\U+815B_1
100
AcDbVertex
100
AcDb2dVertex
 10
50.91954480063817
 20
-59.86490748286364
 30
0.0
  0
VERTEX
  5
1FF
330
1FD
100
AcDbEntity
  8
\U+838C\U+8343\U+8384\U+815B_1
100
AcDbVertex
100
AcDb2dVertex
 10
51.94876707685656
 20
-58.17353785438023
 30
0.0
  0
SEQEND
  5
200
330
1FD
100
AcDbEntity
  8
\U+838C\U+8343\U+8384\U+815B_1
  0
POLYLINE
  5
201
330
3C
100
AcDbEntity
  8
\U+838C\U+8343\U+8384\U+815B_1
100
AcDb2dPolyline
 66
     1
 10
0.0
 20
0.0
 30
0.0
  0
VERTEX
  5
202
330
201
100
AcDbEntity
  8
\U+838C\U+8343\U+8384\U+815B_1
100
AcDbVertex
100
AcDb2dVertex
 10
52.13996987628793
 20
-61.33579100029105
 30
0.0
  0
VERTEX
  5
203
330
201
100
AcDbEntity
  8
\U+838C\U+8343\U+8384\U+815B_1
100
AcDbVertex
100
AcDb2dVertex
 10
50.91954480063817
 20
-59.86490748286364
 30
0.0
  0
SEQEND
  5
204
330
201
100
AcDbEntity
  8
\U+838C\U+8343\U+8384\U+815B_1
  0
POLYLINE
  5
205
330
3C
100
AcDbEntity
  8
\U+838C\U+8343\U+8384\U+815B_1
100
AcDb2dPolyline
 66
     1
 10
0.0
 20
0.0
 30
0.0
  0
VERTEX
  5
206
330
205
100
AcDbEntity
  8
\U+838C\U+8343\U+8384\U+815B_1
100
AcDbVertex
100
AcDb2dVertex
 10
52.05160317709127
 20
-65.4835137097576
 30
0.0
  0
VERTEX
  5
207
330
205
100
AcDbEntity
  8
\U+838C\U+8343\U+8384\U+815B_1
100
AcDbVertex
100
AcDb2dVertex
 10
52.7132337650335
 20
-64.20383299176154
 30
0.0
  0
SEQEND
  5
208
330
205
100
AcDbEntity
  8
\U+838C\U+8343\U+8384\U+815B_1
  0
POLYLINE
  5
209
330
3C
100
AcDbEntity
  8
\U+838C\U+8343\U+8384\U+815B_1
100
AcDb2dPolyline
 66
     1
 10
0.0
 20
0.0
 30
0.0
  0
VERTEX
  5
20A
330
209
100
AcDbEntity
  8
\U+838C\U+8343\U+8384\U+815B_1
100
AcDbVertex
100
AcDb2dVertex
 10
56.83012286990706
 20
-59.96791583787261
 30
0.0
  0
VERTEX
  5
20B
330
209
100
AcDbEntity
  8
\U+838C\U+8343\U+8384\U+815B_1
100
AcDbVertex
100
AcDb2dVertex
 10
57.37410344702801
 20
-59.10009628513817
 30
0.0
  0
SEQEND
  5
20C
330
209
100
AcDbEntity
  8
\U+838C\U+8343\U+8384\U+815B_1
  0
POLYLINE
  5
20D
330
3C
100
AcDbEntity
  8
\U+838C\U+8343\U+8384\U+815B_1
100
AcDb2dPolyline
 66
     1
 10
0.0
 20
0.0
 30
0.0
  0
VERTEX
  5
20E
330
20D
100
AcDbEntity
  8
\U+838C\U+8343\U+8384\U+815B_1
100
AcDbVertex
100
AcDb2dVertex
 10
56.83012286990706
 20
-59.96791583787261
 30
0.0
  0
VERTEX
  5
20F
330
20D
100
AcDbEntity
  8
\U+838C\U+8343\U+8384\U+815B_1
100
AcDbVertex
100
AcDb2dVertex
 10
54.62457274025011
 20
-61.07103541224961
 30
0.0
  0
SEQEND
  5
210
330
20D
100
AcDbEntity
  8
\U+838C\U+8343\U+8384\U+815B_1
  0
POLYLINE
  5
211
330
3C
100
AcDbEntity
  8
\U+838C\U+8343\U+8384\U+815B_1
100
AcDb2dPolyline
 66
     1
 10
0.0
 20
0.0
 30
0.0
  0
VERTEX
  5
212
330
211
100
AcDbEntity
  8
\U+838C\U+8343\U+8384\U+815B_1
100
AcDbVertex
100
AcDb2dVertex
 10
54.62457274025011
 20
-61.07103541224961
 30
0.0
  0
VERTEX
  5
213
330
211
100
AcDbEntity
  8
\U+838C\U+8343\U+8384\U+815B_1
100
AcDbVertex
100
AcDb2dVertex
 10
55.49204778343602
 20
-59.64424911703338
 30
0.0
  0
SEQEND
  5
214
330
211
100
AcDbEntity
  8
\U+838C\U+8343\U+8384\U+815B_1
  0
POLYLINE
  5
215
330
3C
100
AcDbEntity
  8
\U+838C\U+8343\U+8384\U+815B_1
100
AcDb2dPolyline
 66
     1
 10
0.0
 20
0.0
 30
0.0
  0
VERTEX
  5
216
330
215
100
AcDbEntity
  8
\U+838C\U+8343\U+8384\U+815B_1
100
AcDbVertex
100
AcDb2dVertex
 10
56.34488117080961
 20
-62.80650226294421
 30
0.0
  0
VERTEX
  5
217
330
215
100
AcDbEntity
  8
\U+838C\U+8343\U+8384\U+815B_1
100
AcDbVertex
100
AcDb2dVertex
 10
57.78579235751536
 20
-64.24793021397274
 30
0.0
  0
SEQEND
  5
218
330
215
100
AcDbEntity
  8
\U+838C\U+8343\U+8384\U+815B_1
  0
POLYLINE
  5
219
330
3C
100
AcDbEntity
  8
\U+838C\U+8343\U+8384\U+815B_1
100
AcDb2dPolyline
 66
     1
 10
0.0
 20
0.0
 30
0.0
  0
VERTEX
  5
21A
330
219
100
AcDbEntity
  8
\U+838C\U+8343\U+8384\U+815B_1
100
AcDbVertex
100
AcDb2dVertex
 10
57.21235621399553
 20
-61.37988822250225
 30
0.0
  0
VERTEX
  5
21B
330
219
100
AcDbEntity
  8
\U+838C\U+8343\U+8384\U+815B_1
100
AcDbVertex
100
AcDb2dVertex
 10
56.34488117080961
 20
-62.80650226294421
 30
0.0
  0
SEQEND
  5
21C
330
219
100
AcDbEntity
  8
\U+838C\U+8343\U+8384\U+815B_1
  0
POLYLINE
  5
21D
330
3C
100
AcDbEntity
  8
\U+838C\U+8343\U+8384\U+815B_1
100
AcDb2dPolyline
 66
     1
 10
0.0
 20
0.0
 30
0.0
  0
VERTEX
  5
21E
330
21D
100
AcDbEntity
  8
\U+838C\U+8343\U+8384\U+815B_1
100
AcDbVertex
100
AcDb2dVertex
 10
55.78608668310209
 20
-61.67409937694259
 30
0.0
  0
VERTEX
  5
21F
330
21D
100
AcDbEntity
  8
\U+838C\U+8343\U+8384\U+815B_1
100
AcDbVertex
100
AcDb2dVertex
 10
55.00697833911284
 20
-60.87983261281824
 30
0.0
  0
SEQEND
  5
220
330
21D
100
AcDbEntity
  8
\U+838C\U+8343\U+8384\U+815B_1
  0
POLYLINE
  5
221
330
3C
100
AcDbEntity
  8
\U+838C\U+8343\U+8384\U+815B_1
100
AcDb2dPolyline
 66
     1
 10
0.0
 20
0.0
 30
0.0
  0
VERTEX
  5
222
330
221
100
AcDbEntity
  8
\U+838C\U+8343\U+8384\U+815B_1
100
AcDbVertex
100
AcDb2dVertex
 10
54.87451441770499
 20
-65.23339977752846
 30
0.0
  0
VERTEX
  5
223
330
221
100
AcDbEntity
  8
\U+838C\U+8343\U+8384\U+815B_1
100
AcDbVertex
100
AcDb2dVertex
 10
54.09540607371574
 20
-64.468588579803
 30
0.0
  0
SEQEND
  5
224
330
221
100
AcDbEntity
  8
\U+838C\U+8343\U+8384\U+815B_1
  0
POLYLINE
  5
225
330
3C
100
AcDbEntity
  8
\U+838C\U+8343\U+8384\U+815B_1
100
AcDb2dPolyline
 66
     1
 10
0.0
 20
0.0
 30
0.0
  0
VERTEX
  5
226
330
225
100
AcDbEntity
  8
\U+838C\U+8343\U+8384\U+815B_1
100
AcDbVertex
100
AcDb2dVertex
 10
54.09540607371574
 20
-64.468588579803
 30
0.0
  0
VERTEX
  5
227
330
225
100
AcDbEntity
  8
\U+838C\U+8343\U+8384\U+815B_1
100
AcDbVertex
100
AcDb2dVertex
 10
55.78608668310209
 20
-61.67409937694259
 30
0.0
  0
SEQEND
  5
228
330
225
100
AcDbEntity
  8
\U+838C\U+8343\U+8384\U+815B_1
  0
POLYLINE
  5
229
330
3C
100
AcDbEntity
  8
\U+838C\U+8343\U+8384\U+815B_1
100
AcDb2dPolyline
 66
     1
 10
0.0
 20
0.0
 30
0.0
  0
VERTEX
  5
22A
330
229
100
AcDbEntity
  8
\U+838C\U+8343\U+8384\U+815B_1
100
AcDbVertex
100
AcDb2dVertex
 10
53.18383380831862
 20
-59.62960746122107
 30
0.0
  0
VERTEX
  5
22B
330
229
100
AcDbEntity
  8
\U+838C\U+8343\U+8384\U+815B_1
100
AcDbVertex
100
AcDb2dVertex
 10
54.62457274025011
 20
-61.07103541224961
 30
0.0
  0
SEQEND
  5
22C
330
229
100
AcDbEntity
  8
\U+838C\U+8343\U+8384\U+815B_1
  0
POLYLINE
  5
22D
330
3C
100
AcDbEntity
  8
\U+838C\U+8343\U+8384\U+815B_1
100
AcDb2dPolyline
 66
     1
 10
0.0
 20
0.0
 30
0.0
  0
VERTEX
  5
22E
330
22D
100
AcDbEntity
  8
\U+838C\U+8343\U+8384\U+815B_1
100
AcDbVertex
100
AcDb2dVertex
 10
56.75657008129697
 20
-65.93947209723041
 30
0.0
  0
VERTEX
  5
22F
330
22D
100
AcDbEntity
  8
\U+838C\U+8343\U+8384\U+815B_1
100
AcDbVertex
100
AcDb2dVertex
 10
55.30101723877892
 20
-64.49804414620188
 30
0.0
  0
SEQEND
  5
230
330
22D
100
AcDbEntity
  8
\U+838C\U+8343\U+8384\U+815B_1
  0
POLYLINE
  5
231
330
3C
100
AcDbEntity
  8
\U+838C\U+8343\U+8384\U+815B_1
100
AcDb2dPolyline
 66
     1
 10
0.0
 20
0.0
 30
0.0
  0
VERTEX
  5
232
330
231
100
AcDbEntity
  8
\U+838C\U+8343\U+8384\U+815B_1
100
AcDbVertex
100
AcDb2dVertex
 10
57.12416176957313
 20
-63.58612737125625
 30
0.0
  0
VERTEX
  5
233
330
231
100
AcDbEntity
  8
\U+838C\U+8343\U+8384\U+815B_1
100
AcDbVertex
100
AcDb2dVertex
 10
55.30101723877892
 20
-64.49804414620188
 30
0.0
  0
SEQEND
  5
234
330
231
100
AcDbEntity
  8
\U+838C\U+8343\U+8384\U+815B_1
  0
POLYLINE
  5
235
330
3C
100
AcDbEntity
  8
\U+838C\U+8343\U+8384\U+815B_1
100
AcDb2dPolyline
 66
     1
 10
0.0
 20
0.0
 30
0.0
  0
VERTEX
  5
236
330
235
100
AcDbEntity
  8
\U+838C\U+8343\U+8384\U+815B_1
100
AcDbVertex
100
AcDb2dVertex
 10
55.30101723877892
 20
-64.49804414620188
 30
0.0
  0
VERTEX
  5
237
330
235
100
AcDbEntity
  8
\U+838C\U+8343\U+8384\U+815B_1
100
AcDbVertex
100
AcDb2dVertex
 10
54.44818385140532
 20
-65.92465818664384
 30
0.0
  0
SEQEND
  5
238
330
235
100
AcDbEntity
  8
\U+838C\U+8343\U+8384\U+815B_1
  0
POLYLINE
  5
239
330
3C
100
AcDbEntity
  8
\U+838C\U+8343\U+8384\U+815B_1
100
AcDb2dPolyline
 66
     1
 10
0.0
 20
0.0
 30
0.0
  0
VERTEX
  5
23A
330
239
100
AcDbEntity
  8
\U+838C\U+8343\U+8384\U+815B_1
100
AcDbVertex
100
AcDb2dVertex
 10
52.61039766479879
 20
-59.02654349652809
 30
0.0
  0
VERTEX
  5
23B
330
239
100
AcDbEntity
  8
\U+838C\U+8343\U+8384\U+815B_1
100
AcDbVertex
100
AcDb2dVertex
 10
50.91954480063817
 20
-59.86490748286364
 30
0.0
  0
SEQEND
  5
23C
330
239
100
AcDbEntity
  8
\U+838C\U+8343\U+8384\U+815B_1
  0
POLYLINE
  5
23D
330
3C
100
AcDbEntity
  8
\U+838C\U+8343\U+8384\U+815B_1
100
AcDb2dPolyline
 66
     1
 10
0.0
 20
0.0
 30
0.0
  0
VERTEX
  5
23E
330
23D
100
AcDbEntity
  8
\U+838C\U+8343\U+8384\U+815B_1
100
AcDbVertex
100
AcDb2dVertex
 10
55.78608668310209
 20
-61.67409937694259
 30
0.0
  0
VERTEX
  5
23F
330
23D
100
AcDbEntity
  8
\U+838C\U+8343\U+8384\U+815B_1
100
AcDbVertex
100
AcDb2dVertex
 10
53.58070880821941
 20
-62.77721895131959
 30
0.0
  0
SEQEND
  5
240
330
23D
100
AcDbEntity
  8
\U+838C\U+8343\U+8384\U+815B_1
  0
POLYLINE
  5
241
330
3C
100
AcDbEntity
  8
\U+838C\U+8343\U+8384\U+815B_1
100
AcDb2dPolyline
 66
     1
 10
0.0
 20
0.0
 30
0.0
  0
VERTEX
  5
242
330
241
100
AcDbEntity
  8
\U+838C\U+8343\U+8384\U+815B_1
100
AcDbVertex
100
AcDb2dVertex
 10
53.58070880821941
 20
-62.77721895131959
 30
0.0
  0
VERTEX
  5
243
330
241
100
AcDbEntity
  8
\U+838C\U+8343\U+8384\U+815B_1
100
AcDbVertex
100
AcDb2dVertex
 10
52.13996987628793
 20
-61.33579100029105
 30
0.0
  0
SEQEND
  5
244
330
241
100
AcDbEntity
  8
\U+838C\U+8343\U+8384\U+815B_1
  0
POLYLINE
  5
245
330
3C
100
AcDbEntity
  8
\U+838C\U+8343\U+8384\U+815B_1
100
AcDb2dPolyline
 66
     1
 10
0.0
 20
0.0
 30
0.0
  0
VERTEX
  5
246
330
245
100
AcDbEntity
  8
\U+838C\U+8343\U+8384\U+815B_1
100
AcDbVertex
100
AcDb2dVertex
 10
52.7132337650335
 20
-64.20383299176154
 30
0.0
  0
VERTEX
  5
247
330
245
100
AcDbEntity
  8
\U+838C\U+8343\U+8384\U+815B_1
100
AcDbVertex
100
AcDb2dVertex
 10
53.58070880821941
 20
-62.77721895131959
 30
0.0
  0
SEQEND
  5
248
330
245
100
AcDbEntity
  8
\U+838C\U+8343\U+8384\U+815B_1
  0
POLYLINE
  5
249
330
3C
100
AcDbEntity
  8
\U+838C\U+8343\U+8384\U+815B_1
100
AcDb2dPolyline
 66
     1
 10
0.0
 20
0.0
 30
0.0
  0
VERTEX
  5
24A
330
249
100
AcDbEntity
  8
\U+838C\U+8343\U+8384\U+815B_1
100
AcDbVertex
100
AcDb2dVertex
 10
54.09540607371574
 20
-64.468588579803
 30
0.0
  0
VERTEX
  5
24B
330
249
100
AcDbEntity
  8
\U+838C\U+8343\U+8384\U+815B_1
100
AcDbVertex
100
AcDb2dVertex
 10
52.05160317709127
 20
-65.4835137097576
 30
0.0
  0
SEQEND
  5
24C
330
249
100
AcDbEntity
  8
\U+838C\U+8343\U+8384\U+815B_1
  0
POLYLINE
  5
24D
330
3C
100
AcDbEntity
  8
\U+838C\U+8343\U+8384\U+815B_1
100
AcDb2dPolyline
 66
     1
 10
0.0
 20
0.0
 30
0.0
  0
VERTEX
  5
24E
330
24D
100
AcDbEntity
  8
\U+838C\U+8343\U+8384\U+815B_1
100
AcDbVertex
100
AcDb2dVertex
 10
58.77074515674829
 20
-71.20495603688626
 30
0.0
  0
VERTEX
  5
24F
330
24D
100
AcDbEntity
  8
\U+838C\U+8343\U+8384\U+815B_1
100
AcDbVertex
100
AcDb2dVertex
 10
59.19724797782222
 20
-71.24922551387172
 30
0.0
  0
VERTEX
  5
250
330
24D
100
AcDbEntity
  8
\U+838C\U+8343\U+8384\U+815B_1
100
AcDbVertex
100
AcDb2dVertex
 10
59.60876463353531
 20
-71.27850882549635
 30
0.0
  0
VERTEX
  5
251
330
24D
100
AcDbEntity
  8
\U+838C\U+8343\U+8384\U+815B_1
100
AcDbVertex
100
AcDb2dVertex
 10
60.02045354402266
 20
-71.27850882549635
 30
0.0
  0
VERTEX
  5
252
330
24D
100
AcDbEntity
  8
\U+838C\U+8343\U+8384\U+815B_1
100
AcDbVertex
100
AcDb2dVertex
 10
60.41750079869771
 20
-71.23441160328515
 30
0.0
  0
VERTEX
  5
253
330
24D
100
AcDbEntity
  8
\U+838C\U+8343\U+8384\U+815B_1
100
AcDbVertex
100
AcDb2dVertex
 10
60.81437579859849
 20
-71.17567272526163
 30
0.0
  0
VERTEX
  5
254
330
24D
100
AcDbEntity
  8
\U+838C\U+8343\U+8384\U+815B_1
100
AcDbVertex
100
AcDb2dVertex
 10
61.21142305327353
 20
-71.08730602606498
 30
0.0
  0
VERTEX
  5
255
330
24D
100
AcDbEntity
  8
\U+838C\U+8343\U+8384\U+815B_1
100
AcDbVertex
100
AcDb2dVertex
 10
61.593656397362
 20
-70.9696560152437
 30
0.0
  0
VERTEX
  5
256
330
24D
100
AcDbEntity
  8
\U+838C\U+8343\U+8384\U+815B_1
100
AcDbVertex
100
AcDb2dVertex
 10
61.94660642982585
 20
-70.83736434861011
 30
0.0
  0
VERTEX
  5
257
330
24D
100
AcDbEntity
  8
\U+838C\U+8343\U+8384\U+815B_1
100
AcDbVertex
100
AcDb2dVertex
 10
62.31419811810201
 20
-70.67561711557762
 30
0.0
  0
VERTEX
  5
258
330
24D
100
AcDbEntity
  8
\U+838C\U+8343\U+8384\U+815B_1
100
AcDbVertex
100
AcDb2dVertex
 10
62.65233423997928
 20
-70.484242061372
 30
0.0
  0
VERTEX
  5
259
330
24D
100
AcDbEntity
  8
\U+838C\U+8343\U+8384\U+815B_1
100
AcDbVertex
100
AcDb2dVertex
 10
62.99047036185655
 20
-70.27839760612832
 30
0.0
  0
VERTEX
  5
25A
330
24D
100
AcDbEntity
  8
\U+838C\U+8343\U+8384\U+815B_1
100
AcDbVertex
100
AcDb2dVertex
 10
63.29915091733493
 20
-70.04309758448575
 30
0.0
  0
VERTEX
  5
25B
330
24D
100
AcDbEntity
  8
\U+838C\U+8343\U+8384\U+815B_1
100
AcDbVertex
100
AcDb2dVertex
 10
63.60800372758759
 20
-69.77834199644431
 30
0.0
  0
VERTEX
  5
25C
330
24D
100
AcDbEntity
  8
\U+838C\U+8343\U+8384\U+815B_1
100
AcDbVertex
100
AcDb2dVertex
 10
63.88722871666708
 20
-69.49894475259055
 30
0.0
  0
VERTEX
  5
25D
330
24D
100
AcDbEntity
  8
\U+838C\U+8343\U+8384\U+815B_1
100
AcDbVertex
100
AcDb2dVertex
 10
64.15198430470853
 20
-69.20473359815021
 30
0.0
  0
VERTEX
  5
25E
330
24D
100
AcDbEntity
  8
\U+838C\U+8343\U+8384\U+815B_1
100
AcDbVertex
100
AcDb2dVertex
 10
64.41656763797572
 20
-68.86642522149867
 30
0.0
  0
VERTEX
  5
25F
330
24D
100
AcDbEntity
  8
\U+838C\U+8343\U+8384\U+815B_1
100
AcDbVertex
100
AcDb2dVertex
 10
64.63722600380598
 20
-68.52811684484715
 30
0.0
  0
VERTEX
  5
260
330
24D
100
AcDbEntity
  8
\U+838C\U+8343\U+8384\U+815B_1
100
AcDbVertex
100
AcDb2dVertex
 10
64.84289820427539
 20
-68.16035290179671
 30
0.0
  0
VERTEX
  5
261
330
24D
100
AcDbEntity
  8
\U+838C\U+8343\U+8384\U+815B_1
100
AcDbVertex
100
AcDb2dVertex
 10
65.04874265951906
 20
-67.777947302934
 30
0.0
  0
VERTEX
  5
262
330
24D
100
AcDbEntity
  8
\U+838C\U+8343\U+8384\U+815B_1
100
AcDbVertex
100
AcDb2dVertex
 10
65.22530380313812
 20
-67.36608613767237
 30
0.0
  0
VERTEX
  5
263
330
24D
100
AcDbEntity
  8
\U+838C\U+8343\U+8384\U+815B_1
100
AcDbVertex
100
AcDb2dVertex
 10
65.3870510361706
 20
-66.96903888299732
 30
0.0
  0
VERTEX
  5
264
330
24D
100
AcDbEntity
  8
\U+838C\U+8343\U+8384\U+815B_1
100
AcDbVertex
100
AcDb2dVertex
 10
65.5193427028042
 20
-66.52772215133682
 30
0.0
  0
VERTEX
  5
265
330
24D
100
AcDbEntity
  8
\U+838C\U+8343\U+8384\U+815B_1
100
AcDbVertex
100
AcDb2dVertex
 10
65.6221788030389
 20
-66.08657767445058
 30
0.0
  0
VERTEX
  5
266
330
24D
100
AcDbEntity
  8
\U+838C\U+8343\U+8384\U+815B_1
100
AcDbVertex
100
AcDb2dVertex
 10
65.72518715804787
 20
-65.63061928697776
 30
0.0
  0
VERTEX
  5
267
330
24D
100
AcDbEntity
  8
\U+838C\U+8343\U+8384\U+815B_1
100
AcDbVertex
100
AcDb2dVertex
 10
65.78392603607138
 20
-65.15984698891837
 30
0.0
  0
VERTEX
  5
268
330
24D
100
AcDbEntity
  8
\U+838C\U+8343\U+8384\U+815B_1
100
AcDbVertex
100
AcDb2dVertex
 10
65.8426649140949
 20
-64.67460528982093
 30
0.0
  0
VERTEX
  5
269
330
24D
100
AcDbEntity
  8
\U+838C\U+8343\U+8384\U+815B_1
100
AcDbVertex
100
AcDb2dVertex
 10
65.87212048049378
 20
-64.20383299176154
 30
0.0
  0
VERTEX
  5
26A
330
24D
100
AcDbEntity
  8
\U+838C\U+8343\U+8384\U+815B_1
100
AcDbVertex
100
AcDb2dVertex
 10
65.87212048049378
 20
-63.70377738207753
 30
0.0
  0
VERTEX
  5
26B
330
24D
100
AcDbEntity
  8
\U+838C\U+8343\U+8384\U+815B_1
100
AcDbVertex
100
AcDb2dVertex
 10
65.85747882468146
 20
-63.20372177239351
 30
0.0
  0
VERTEX
  5
26C
330
24D
100
AcDbEntity
  8
\U+838C\U+8343\U+8384\U+815B_1
100
AcDbVertex
100
AcDb2dVertex
 10
65.81338160247027
 20
-62.7036661627095
 30
0.0
  0
VERTEX
  5
26D
330
24D
100
AcDbEntity
  8
\U+838C\U+8343\U+8384\U+815B_1
100
AcDbVertex
100
AcDb2dVertex
 10
65.7544704696725
 20
-62.18879664243892
 30
0.0
  0
VERTEX
  5
26E
330
24D
100
AcDbEntity
  8
\U+838C\U+8343\U+8384\U+815B_1
100
AcDbVertex
100
AcDb2dVertex
 10
65.6662760252501
 20
-61.6887410327549
 30
0.0
  0
VERTEX
  5
26F
330
24D
100
AcDbEntity
  8
\U+838C\U+8343\U+8384\U+815B_1
100
AcDbVertex
100
AcDb2dVertex
 10
65.56343992501539
 20
-61.17387151248431
 30
0.0
  0
VERTEX
  5
270
330
24D
100
AcDbEntity
  8
\U+838C\U+8343\U+8384\U+815B_1
100
AcDbVertex
100
AcDb2dVertex
 10
65.4311482583818
 20
-60.65917424698799
 30
0.0
  0
VERTEX
  5
271
330
24D
100
AcDbEntity
  8
\U+838C\U+8343\U+8384\U+815B_1
100
AcDbVertex
100
AcDb2dVertex
 10
65.28404268116164
 20
-60.1443047267174
 30
0.0
  0
VERTEX
  5
272
330
24D
100
AcDbEntity
  8
\U+838C\U+8343\U+8384\U+815B_1
100
AcDbVertex
100
AcDb2dVertex
 10
65.12229544812915
 20
-59.64424911703338
 30
0.0
  0
VERTEX
  5
273
330
24D
100
AcDbEntity
  8
\U+838C\U+8343\U+8384\U+815B_1
100
AcDbVertex
100
AcDb2dVertex
 10
64.94590655928435
 20
-59.14419350734937
 30
0.0
  0
VERTEX
  5
274
330
24D
100
AcDbEntity
  8
\U+838C\U+8343\U+8384\U+815B_1
100
AcDbVertex
100
AcDb2dVertex
 10
64.72542044822838
 20
-58.64413789766536
 30
0.0
  0
VERTEX
  5
275
330
24D
100
AcDbEntity
  8
\U+838C\U+8343\U+8384\U+815B_1
100
AcDbVertex
100
AcDb2dVertex
 10
64.50476208239812
 20
-58.15872394379365
 30
0.0
  0
VERTEX
  5
276
330
24D
100
AcDbEntity
  8
\U+838C\U+8343\U+8384\U+815B_1
100
AcDbVertex
100
AcDb2dVertex
 10
64.25482040494325
 20
-57.68812390050853
 30
0.0
  0
VERTEX
  5
277
330
24D
100
AcDbEntity
  8
\U+838C\U+8343\U+8384\U+815B_1
100
AcDbVertex
100
AcDb2dVertex
 10
63.99023707167606
 20
-57.21735160244913
 30
0.0
  0
VERTEX
  5
278
330
24D
100
AcDbEntity
  8
\U+838C\U+8343\U+8384\U+815B_1
100
AcDbVertex
100
AcDb2dVertex
 10
63.71083982782229
 20
-56.76139321497632
 30
0.0
  0
VERTEX
  5
279
330
24D
100
AcDbEntity
  8
\U+838C\U+8343\U+8384\U+815B_1
100
AcDbVertex
100
AcDb2dVertex
 10
63.41680092815622
 20
-56.32024873809008
 30
0.0
  0
VERTEX
  5
27A
330
24D
100
AcDbEntity
  8
\U+838C\U+8343\U+8384\U+815B_1
100
AcDbVertex
100
AcDb2dVertex
 10
63.10812037267783
 20
-55.87893200642957
 30
0.0
  0
VERTEX
  5
27B
330
24D
100
AcDbEntity
  8
\U+838C\U+8343\U+8384\U+815B_1
100
AcDbVertex
100
AcDb2dVertex
 10
62.76998425080056
 20
-55.46707084116796
 30
0.0
  0
VERTEX
  5
27C
330
24D
100
AcDbEntity
  8
\U+838C\U+8343\U+8384\U+815B_1
100
AcDbVertex
100
AcDb2dVertex
 10
62.43167587414903
 20
-55.07002358649292
 30
0.0
  0
VERTEX
  5
27D
330
24D
100
AcDbEntity
  8
\U+838C\U+8343\U+8384\U+815B_1
100
AcDbVertex
100
AcDb2dVertex
 10
62.09353975227176
 20
-54.68761798763018
 30
0.0
  0
VERTEX
  5
27E
330
24D
100
AcDbEntity
  8
\U+838C\U+8343\U+8384\U+815B_1
100
AcDbVertex
100
AcDb2dVertex
 10
61.7259480639956
 20
-54.31985404457976
 30
0.0
  0
VERTEX
  5
27F
330
24D
100
AcDbEntity
  8
\U+838C\U+8343\U+8384\U+815B_1
100
AcDbVertex
100
AcDb2dVertex
 10
61.3585286304937
 20
-53.98154566792823
 30
0.0
  0
VERTEX
  5
280
330
24D
100
AcDbEntity
  8
\U+838C\U+8343\U+8384\U+815B_1
100
AcDbVertex
100
AcDb2dVertex
 10
60.96148137581866
 20
-53.65805120186327
 30
0.0
  0
VERTEX
  5
281
330
24D
100
AcDbEntity
  8
\U+838C\U+8343\U+8384\U+815B_1
100
AcDbVertex
100
AcDb2dVertex
 10
60.56443412114362
 20
-53.34919839161062
 30
0.0
  0
VERTEX
  5
282
330
24D
100
AcDbEntity
  8
\U+838C\U+8343\U+8384\U+815B_1
100
AcDbVertex
100
AcDb2dVertex
 10
60.16755912124284
 20
-53.06962889298259
 30
0.0
  0
VERTEX
  5
283
330
24D
100
AcDbEntity
  8
\U+838C\U+8343\U+8384\U+815B_1
100
AcDbVertex
100
AcDb2dVertex
 10
59.77051186656779
 20
-52.80487330494115
 30
0.0
  0
VERTEX
  5
284
330
24D
100
AcDbEntity
  8
\U+838C\U+8343\U+8384\U+815B_1
100
AcDbVertex
100
AcDb2dVertex
 10
59.34418130026813
 20
-52.58421493911089
 30
0.0
  0
VERTEX
  5
285
330
24D
100
AcDbEntity
  8
\U+838C\U+8343\U+8384\U+815B_1
100
AcDbVertex
100
AcDb2dVertex
 10
58.93249238978077
 20
-52.3637288280549
 30
0.0
  0
VERTEX
  5
286
330
24D
100
AcDbEntity
  8
\U+838C\U+8343\U+8384\U+815B_1
100
AcDbVertex
100
AcDb2dVertex
 10
58.5061618234811
 20
-52.17252602862354
 30
0.0
  0
VERTEX
  5
287
330
24D
100
AcDbEntity
  8
\U+838C\U+8343\U+8384\U+815B_1
100
AcDbVertex
100
AcDb2dVertex
 10
58.07983125718143
 20
-52.0106065408168
 30
0.0
  0
VERTEX
  5
288
330
24D
100
AcDbEntity
  8
\U+838C\U+8343\U+8384\U+815B_1
100
AcDbVertex
100
AcDb2dVertex
 10
57.6533284361075
 20
-51.8783148741832
 30
0.0
  0
VERTEX
  5
289
330
24D
100
AcDbEntity
  8
\U+838C\U+8343\U+8384\U+815B_1
100
AcDbVertex
100
AcDb2dVertex
 10
57.22699786980784
 20
-51.76066486336192
 30
0.0
  0
VERTEX
  5
28A
330
24D
100
AcDbEntity
  8
\U+838C\U+8343\U+8384\U+815B_1
100
AcDbVertex
100
AcDb2dVertex
 10
56.80066730350817
 20
-51.67229816416526
 30
0.0
  0
VERTEX
  5
28B
330
24D
100
AcDbEntity
  8
\U+838C\U+8343\U+8384\U+815B_1
100
AcDbVertex
100
AcDb2dVertex
 10
56.38897839302081
 20
-51.61355928614175
 30
0.0
  0
VERTEX
  5
28C
330
24D
100
AcDbEntity
  8
\U+838C\U+8343\U+8384\U+815B_1
100
AcDbVertex
100
AcDb2dVertex
 10
55.96264782672115
 20
-51.58410371974286
 30
0.0
  0
VERTEX
  5
28D
330
24D
100
AcDbEntity
  8
\U+838C\U+8343\U+8384\U+815B_1
100
AcDbVertex
100
AcDb2dVertex
 10
55.55095891623379
 20
-51.58410371974286
 30
0.0
  0
VERTEX
  5
28E
330
24D
100
AcDbEntity
  8
\U+838C\U+8343\U+8384\U+815B_1
100
AcDbVertex
100
AcDb2dVertex
 10
55.15391166155874
 20
-51.59891763032944
 30
0.0
  0
VERTEX
  5
28F
330
24D
100
AcDbEntity
  8
\U+838C\U+8343\U+8384\U+815B_1
100
AcDbVertex
100
AcDb2dVertex
 10
54.74222275107139
 20
-51.64301485254064
 30
0.0
  0
VERTEX
  5
290
330
24D
100
AcDbEntity
  8
\U+838C\U+8343\U+8384\U+815B_1
100
AcDbVertex
100
AcDb2dVertex
 10
54.35998940698292
 20
-51.71656764115072
 30
0.0
  0
VERTEX
  5
291
330
24D
100
AcDbEntity
  8
\U+838C\U+8343\U+8384\U+815B_1
100
AcDbVertex
100
AcDb2dVertex
 10
53.96294215230787
 20
-51.81940374138543
 30
0.0
  0
VERTEX
  5
292
330
24D
100
AcDbEntity
  8
\U+838C\U+8343\U+8384\U+815B_1
100
AcDbVertex
100
AcDb2dVertex
 10
53.59552271880598
 20
-51.93705375220671
 30
0.0
  0
VERTEX
  5
293
330
24D
100
AcDbEntity
  8
\U+838C\U+8343\U+8384\U+815B_1
100
AcDbVertex
100
AcDb2dVertex
 10
53.22793103052982
 20
-52.08415932942688
 30
0.0
  0
VERTEX
  5
294
330
24D
100
AcDbEntity
  8
\U+838C\U+8343\U+8384\U+815B_1
100
AcDbVertex
100
AcDb2dVertex
 10
52.87498099806598
 20
-52.26072047304594
 30
0.0
  0
VERTEX
  5
295
330
24D
100
AcDbEntity
  8
\U+838C\U+8343\U+8384\U+815B_1
100
AcDbVertex
100
AcDb2dVertex
 10
52.55165878677528
 20
-52.46656492828961
 30
0.0
  0
VERTEX
  5
296
330
24D
100
AcDbEntity
  8
\U+838C\U+8343\U+8384\U+815B_1
100
AcDbVertex
100
AcDb2dVertex
 10
52.21335041012374
 20
-52.68722329411986
 30
0.0
  0
VERTEX
  5
297
330
24D
100
AcDbEntity
  8
\U+838C\U+8343\U+8384\U+815B_1
100
AcDbVertex
100
AcDb2dVertex
 10
51.91931151045767
 20
-52.937337226349
 30
0.0
  0
VERTEX
  5
298
330
24D
100
AcDbEntity
  8
\U+838C\U+8343\U+8384\U+815B_1
100
AcDbVertex
100
AcDb2dVertex
 10
51.61063095497929
 20
-53.20209281439045
 30
0.0
  0
VERTEX
  5
299
330
24D
100
AcDbEntity
  8
\U+838C\U+8343\U+8384\U+815B_1
100
AcDbVertex
100
AcDb2dVertex
 10
51.3460476217121
 20
-53.49613171405652
 30
0.0
  0
VERTEX
  5
29A
330
24D
100
AcDbEntity
  8
\U+838C\U+8343\U+8384\U+815B_1
100
AcDbVertex
100
AcDb2dVertex
 10
51.08129203367065
 20
-53.81979843489574
 30
0.0
  0
SEQEND
  5
29B
330
24D
100
AcDbEntity
  8
\U+838C\U+8343\U+8384\U+815B_1
  0
POLYLINE
  5
29C
330
3C
100
AcDbEntity
  8
\U+838C\U+8343\U+8384\U+815B_1
100
AcDb2dPolyline
 66
     1
 10
0.0
 20
0.0
 30
0.0
  0
VERTEX
  5
29D
330
29C
100
AcDbEntity
  8
\U+838C\U+8343\U+8384\U+815B_1
100
AcDbVertex
100
AcDb2dVertex
 10
58.77074515674829
 20
-71.20495603688626
 30
0.0
  0
VERTEX
  5
29E
330
29C
100
AcDbEntity
  8
\U+838C\U+8343\U+8384\U+815B_1
100
AcDbVertex
100
AcDb2dVertex
 10
58.80020072314718
 20
-71.20495603688626
 30
0.0
  0
SEQEND
  5
29F
330
29C
100
AcDbEntity
  8
\U+838C\U+8343\U+8384\U+815B_1
  0
POLYLINE
  5
2A0
330
3C
100
AcDbEntity
  8
\U+838C\U+8343\U+8384\U+815B_1
100
AcDb2dPolyline
 66
     1
 10
0.0
 20
0.0
 30
0.0
  0
VERTEX
  5
2A1
330
2A0
100
AcDbEntity
  8
\U+838C\U+8343\U+8384\U+815B_1
100
AcDbVertex
100
AcDb2dVertex
 10
51.08129203367065
 20
-53.81979843489574
 30
0.0
  0
VERTEX
  5
2A2
330
2A0
100
AcDbEntity
  8
\U+838C\U+8343\U+8384\U+815B_1
100
AcDbVertex
100
AcDb2dVertex
 10
50.84599201202808
 20
-54.15810681154728
 30
0.0
  0
SEQEND
  5
2A3
330
2A0
100
AcDbEntity
  8
\U+838C\U+8343\U+8384\U+815B_1
  0
POLYLINE
  5
2A4
330
3C
100
AcDbEntity
  8
\U+838C\U+8343\U+8384\U+815B_1
100
AcDb2dPolyline
 66
     1
 10
0.0
 20
0.0
 30
0.0
  0
VERTEX
  5
2A5
330
2A4
100
AcDbEntity
  8
\U+838C\U+8343\U+8384\U+815B_1
100
AcDbVertex
100
AcDb2dVertex
 10
50.84599201202808
 20
-54.15810681154728
 30
0.0
  0
VERTEX
  5
2A6
330
2A4
100
AcDbEntity
  8
\U+838C\U+8343\U+8384\U+815B_1
100
AcDbVertex
100
AcDb2dVertex
 10
50.6255059009721
 20
-54.51105684401113
 30
0.0
  0
VERTEX
  5
2A7
330
2A4
100
AcDbEntity
  8
\U+838C\U+8343\U+8384\U+815B_1
100
AcDbVertex
100
AcDb2dVertex
 10
50.50785589015081
 20
-54.7022596434425
 30
0.0
  0
SEQEND
  5
2A8
330
2A4
100
AcDbEntity
  8
\U+838C\U+8343\U+8384\U+815B_1
  0
POLYLINE
  5
2A9
330
3C
100
AcDbEntity
  8
\U+838C\U+8343\U+8384\U+815B_1
100
AcDb2dPolyline
 66
     1
 10
0.0
 20
0.0
 30
0.0
  0
VERTEX
  5
2AA
330
2A9
100
AcDbEntity
  8
\U+838C\U+8343\U+8384\U+815B_1
100
AcDbVertex
100
AcDb2dVertex
 10
54.44818385140532
 20
-65.92465818664384
 30
0.0
  0
VERTEX
  5
2AB
330
2A9
100
AcDbEntity
  8
\U+838C\U+8343\U+8384\U+815B_1
100
AcDbVertex
100
AcDb2dVertex
 10
55.59505613844499
 20
-66.24832490748307
 30
0.0
  0
VERTEX
  5
2AC
330
2A9
100
AcDbEntity
  8
\U+838C\U+8343\U+8384\U+815B_1
100
AcDbVertex
100
AcDb2dVertex
 10
56.75657008129697
 20
-65.93947209723041
 30
0.0
  0
SEQEND
  5
2AD
330
2A9
100
AcDbEntity
  8
\U+838C\U+8343\U+8384\U+815B_1
  0
POLYLINE
  5
2AE
330
3C
100
AcDbEntity
  8
\U+838C\U+8343\U+8384\U+815B_1
100
AcDb2dPolyline
 66
     1
 10
0.0
 20
0.0
 30
0.0
  0
VERTEX
  5
2AF
330
2AE
100
AcDbEntity
  8
\U+838C\U+8343\U+8384\U+815B_1
100
AcDbVertex
100
AcDb2dVertex
 10
57.78579235751536
 20
-64.24793021397274
 30
0.0
  0
VERTEX
  5
2B0
330
2AE
100
AcDbEntity
  8
\U+838C\U+8343\U+8384\U+815B_1
100
AcDbVertex
100
AcDb2dVertex
 10
57.7415228805299
 20
-62.76240504073301
 30
0.0
  0
VERTEX
  5
2B1
330
2AE
100
AcDbEntity
  8
\U+838C\U+8343\U+8384\U+815B_1
100
AcDbVertex
100
AcDb2dVertex
 10
57.21235621399553
 20
-61.37988822250225
 30
0.0
  0
SEQEND
  5
2B2
330
2AE
100
AcDbEntity
  8
\U+838C\U+8343\U+8384\U+815B_1
  0
POLYLINE
  5
2B3
330
3C
100
AcDbEntity
  8
\U+838C\U+8343\U+8384\U+815B_1
100
AcDb2dPolyline
 66
     1
 10
0.0
 20
0.0
 30
0.0
  0
VERTEX
  5
2B4
330
2B3
100
AcDbEntity
  8
\U+838C\U+8343\U+8384\U+815B_1
100
AcDbVertex
100
AcDb2dVertex
 10
55.49204778343602
 20
-59.64424911703338
 30
0.0
  0
VERTEX
  5
2B5
330
2B3
100
AcDbEntity
  8
\U+838C\U+8343\U+8384\U+815B_1
100
AcDbVertex
100
AcDb2dVertex
 10
54.33053384058404
 20
-59.33539630678074
 30
0.0
  0
VERTEX
  5
2B6
330
2B3
100
AcDbEntity
  8
\U+838C\U+8343\U+8384\U+815B_1
100
AcDbVertex
100
AcDb2dVertex
 10
53.18383380831862
 20
-59.62960746122107
 30
0.0
  0
SEQEND
  5
2B7
330
2B3
100
AcDbEntity
  8
\U+838C\U+8343\U+8384\U+815B_1
  0
POLYLINE
  5
2B8
330
3C
100
AcDbEntity
  8
\U+838C\U+8343\U+8384\U+815B_1
100
AcDb2dPolyline
 66
     1
 10
0.0
 20
0.0
 30
0.0
  0
VERTEX
  5
2B9
330
2B8
100
AcDbEntity
  8
\U+838C\U+8343\U+8384\U+815B_1
100
AcDbVertex
100
AcDb2dVertex
 10
52.13996987628793
 20
-61.33579100029105
 30
0.0
  0
VERTEX
  5
2BA
330
2B8
100
AcDbEntity
  8
\U+838C\U+8343\U+8384\U+815B_1
100
AcDbVertex
100
AcDb2dVertex
 10
52.18406709849913
 20
-62.82131617353078
 30
0.0
  0
VERTEX
  5
2BB
330
2B8
100
AcDbEntity
  8
\U+838C\U+8343\U+8384\U+815B_1
100
AcDbVertex
100
AcDb2dVertex
 10
52.7132337650335
 20
-64.20383299176154
 30
0.0
  0
SEQEND
  5
2BC
330
2B8
100
AcDbEntity
  8
\U+838C\U+8343\U+8384\U+815B_1
  0
POLYLINE
  5
2BD
330
3C
100
AcDbEntity
  8
\U+838C\U+8343\U+8384\U+815B_1
100
AcDb2dPolyline
 66
     1
 10
0.0
 20
0.0
 30
0.0
  0
VERTEX
  5
2BE
330
2BD
100
AcDbEntity
  8
\U+838C\U+8343\U+8384\U+815B_1
100
AcDbVertex
100
AcDb2dVertex
 10
62.41703421833672
 20
-70.86681991500899
 30
0.0
  0
VERTEX
  5
2BF
330
2BD
100
AcDbEntity
  8
\U+838C\U+8343\U+8384\U+815B_1
100
AcDbVertex
100
AcDb2dVertex
 10
62.66697589579159
 20
-70.77845321581233
 30
0.0
  0
VERTEX
  5
2C0
330
2BD
100
AcDbEntity
  8
\U+838C\U+8343\U+8384\U+815B_1
100
AcDbVertex
100
AcDb2dVertex
 10
63.01992592825544
 20
-70.61670598277985
 30
0.0
  0
SEQEND
  5
2C1
330
2BD
100
AcDbEntity
  8
\U+838C\U+8343\U+8384\U+815B_1
  0
POLYLINE
  5
2C2
330
3C
100
AcDbEntity
  8
\U+838C\U+8343\U+8384\U+815B_1
100
AcDb2dPolyline
 66
     1
 10
0.0
 20
0.0
 30
0.0
  0
VERTEX
  5
2C3
330
2C2
100
AcDbEntity
  8
\U+838C\U+8343\U+8384\U+815B_1
100
AcDbVertex
100
AcDb2dVertex
 10
63.01992592825544
 20
-70.61670598277985
 30
0.0
  0
VERTEX
  5
2C4
330
2C2
100
AcDbEntity
  8
\U+838C\U+8343\U+8384\U+815B_1
100
AcDbVertex
100
AcDb2dVertex
 10
63.37270370594502
 20
-70.42550318334848
 30
0.0
  0
SEQEND
  5
2C5
330
2C2
100
AcDbEntity
  8
\U+838C\U+8343\U+8384\U+815B_1
  0
POLYLINE
  5
2C6
330
3C
100
AcDbEntity
  8
\U+838C\U+8343\U+8384\U+815B_1
100
AcDb2dPolyline
 66
     1
 10
0.0
 20
0.0
 30
0.0
  0
VERTEX
  5
2C7
330
2C6
100
AcDbEntity
  8
\U+838C\U+8343\U+8384\U+815B_1
100
AcDbVertex
100
AcDb2dVertex
 10
63.37270370594502
 20
-70.42550318334848
 30
0.0
  0
VERTEX
  5
2C8
330
2C6
100
AcDbEntity
  8
\U+838C\U+8343\U+8384\U+815B_1
100
AcDbVertex
100
AcDb2dVertex
 10
63.72565373840887
 20
-70.23430038391712
 30
0.0
  0
VERTEX
  5
2C9
330
2C6
100
AcDbEntity
  8
\U+838C\U+8343\U+8384\U+815B_1
100
AcDbVertex
100
AcDb2dVertex
 10
64.04897594969957
 20
-69.96954479587568
 30
0.0
  0
VERTEX
  5
2CA
330
2C6
100
AcDbEntity
  8
\U+838C\U+8343\U+8384\U+815B_1
100
AcDbVertex
100
AcDb2dVertex
 10
64.35782875995221
 20
-69.71943086364654
 30
0.0
  0
VERTEX
  5
2CB
330
2C6
100
AcDbEntity
  8
\U+838C\U+8343\U+8384\U+815B_1
100
AcDbVertex
100
AcDb2dVertex
 10
64.65186765961829
 20
-69.45467527560508
 30
0.0
  0
VERTEX
  5
2CC
330
2C6
100
AcDbEntity
  8
\U+838C\U+8343\U+8384\U+815B_1
100
AcDbVertex
100
AcDb2dVertex
 10
64.91645099288547
 20
-69.13118080954013
 30
0.0
  0
VERTEX
  5
2CD
330
2C6
100
AcDbEntity
  8
\U+838C\U+8343\U+8384\U+815B_1
100
AcDbVertex
100
AcDb2dVertex
 10
65.19584823673924
 20
-68.8075140887009
 30
0.0
  0
VERTEX
  5
2CE
330
2C6
100
AcDbEntity
  8
\U+838C\U+8343\U+8384\U+815B_1
100
AcDbVertex
100
AcDb2dVertex
 10
65.4311482583818
 20
-68.46920571204937
 30
0.0
  0
VERTEX
  5
2CF
330
2C6
100
AcDbEntity
  8
\U+838C\U+8343\U+8384\U+815B_1
100
AcDbVertex
100
AcDb2dVertex
 10
65.65163436943779
 20
-68.10161402377321
 30
0.0
  0
VERTEX
  5
2D0
330
2C6
100
AcDbEntity
  8
\U+838C\U+8343\U+8384\U+815B_1
100
AcDbVertex
100
AcDb2dVertex
 10
65.87212048049378
 20
-67.71920842491048
 30
0.0
  0
VERTEX
  5
2D1
330
2C6
100
AcDbEntity
  8
\U+838C\U+8343\U+8384\U+815B_1
100
AcDbVertex
100
AcDb2dVertex
 10
66.03386771352626
 20
-67.30734725964886
 30
0.0
  0
VERTEX
  5
2D2
330
2C6
100
AcDbEntity
  8
\U+838C\U+8343\U+8384\U+815B_1
100
AcDbVertex
100
AcDb2dVertex
 10
66.19561494655873
 20
-66.89548609438724
 30
0.0
  0
VERTEX
  5
2D3
330
2C6
100
AcDbEntity
  8
\U+838C\U+8343\U+8384\U+815B_1
100
AcDbVertex
100
AcDb2dVertex
 10
66.35736217959122
 20
-66.45416936272674
 30
0.0
  0
VERTEX
  5
2D4
330
2C6
100
AcDbEntity
  8
\U+838C\U+8343\U+8384\U+815B_1
100
AcDbVertex
100
AcDb2dVertex
 10
66.4750121904125
 20
-66.0130248858405
 30
0.0
  0
VERTEX
  5
2D5
330
2C6
100
AcDbEntity
  8
\U+838C\U+8343\U+8384\U+815B_1
100
AcDbVertex
100
AcDb2dVertex
 10
66.57784829064721
 20
-65.55706649836767
 30
0.0
  0
VERTEX
  5
2D6
330
2C6
100
AcDbEntity
  8
\U+838C\U+8343\U+8384\U+815B_1
100
AcDbVertex
100
AcDb2dVertex
 10
66.6514010792573
 20
-65.07165254449598
 30
0.0
  0
VERTEX
  5
2D7
330
2C6
100
AcDbEntity
  8
\U+838C\U+8343\U+8384\U+815B_1
100
AcDbVertex
100
AcDb2dVertex
 10
66.69549830146849
 20
-64.60105250121084
 30
0.0
  0
VERTEX
  5
2D8
330
2C6
100
AcDbEntity
  8
\U+838C\U+8343\U+8384\U+815B_1
100
AcDbVertex
100
AcDb2dVertex
 10
66.73959552367968
 20
-64.10082463675258
 30
0.0
  0
VERTEX
  5
2D9
330
2C6
100
AcDbEntity
  8
\U+838C\U+8343\U+8384\U+815B_1
100
AcDbVertex
100
AcDb2dVertex
 10
66.754237179492
 20
-63.60076902706856
 30
0.0
  0
VERTEX
  5
2DA
330
2C6
100
AcDbEntity
  8
\U+838C\U+8343\U+8384\U+815B_1
100
AcDbVertex
100
AcDb2dVertex
 10
66.73959552367968
 20
-63.10071341738455
 30
0.0
  0
VERTEX
  5
2DB
330
2C6
100
AcDbEntity
  8
\U+838C\U+8343\U+8384\U+815B_1
100
AcDbVertex
100
AcDb2dVertex
 10
66.7101399572808
 20
-62.58601615188822
 30
0.0
  0
VERTEX
  5
2DC
330
2C6
100
AcDbEntity
  8
\U+838C\U+8343\U+8384\U+815B_1
100
AcDbVertex
100
AcDb2dVertex
 10
66.6514010792573
 20
-62.05650497580532
 30
0.0
  0
VERTEX
  5
2DD
330
2C6
100
AcDbEntity
  8
\U+838C\U+8343\U+8384\U+815B_1
100
AcDbVertex
100
AcDb2dVertex
 10
66.57784829064721
 20
-61.54163545553473
 30
0.0
  0
VERTEX
  5
2DE
330
2C6
100
AcDbEntity
  8
\U+838C\U+8343\U+8384\U+815B_1
100
AcDbVertex
100
AcDb2dVertex
 10
66.4750121904125
 20
-61.02693819003841
 30
0.0
  0
VERTEX
  5
2DF
330
2C6
100
AcDbEntity
  8
\U+838C\U+8343\U+8384\U+815B_1
100
AcDbVertex
100
AcDb2dVertex
 10
66.35736217959122
 20
-60.51206866976782
 30
0.0
  0
VERTEX
  5
2E0
330
2C6
100
AcDbEntity
  8
\U+838C\U+8343\U+8384\U+815B_1
100
AcDbVertex
100
AcDb2dVertex
 10
66.21025660237105
 20
-59.98255749368492
 30
0.0
  0
VERTEX
  5
2E1
330
2C6
100
AcDbEntity
  8
\U+838C\U+8343\U+8384\U+815B_1
100
AcDbVertex
100
AcDb2dVertex
 10
66.04850936933857
 20
-59.4825018840009
 30
0.0
  0
VERTEX
  5
2E2
330
2C6
100
AcDbEntity
  8
\U+838C\U+8343\U+8384\U+815B_1
100
AcDbVertex
100
AcDb2dVertex
 10
65.87212048049378
 20
-58.96763236373032
 30
0.0
  0
VERTEX
  5
2E3
330
2C6
100
AcDbEntity
  8
\U+838C\U+8343\U+8384\U+815B_1
100
AcDbVertex
100
AcDb2dVertex
 10
65.6662760252501
 20
-58.45293509823399
 30
0.0
  0
VERTEX
  5
2E4
330
2C6
100
AcDbEntity
  8
\U+838C\U+8343\U+8384\U+815B_1
100
AcDbVertex
100
AcDb2dVertex
 10
65.4311482583818
 20
-57.95287948854997
 30
0.0
  0
VERTEX
  5
2E5
330
2C6
100
AcDbEntity
  8
\U+838C\U+8343\U+8384\U+815B_1
100
AcDbVertex
100
AcDb2dVertex
 10
65.21048989255155
 20
-57.46746553467828
 30
0.0
  0
VERTEX
  5
2E6
330
2C6
100
AcDbEntity
  8
\U+838C\U+8343\U+8384\U+815B_1
100
AcDbVertex
100
AcDb2dVertex
 10
64.94590655928435
 20
-56.98205158080658
 30
0.0
  0
VERTEX
  5
2E7
330
2C6
100
AcDbEntity
  8
\U+838C\U+8343\U+8384\U+815B_1
100
AcDbVertex
100
AcDb2dVertex
 10
64.6665093154306
 20
-56.51145153752145
 30
0.0
  0
VERTEX
  5
2E8
330
2C6
100
AcDbEntity
  8
\U+838C\U+8343\U+8384\U+815B_1
100
AcDbVertex
100
AcDb2dVertex
 10
64.37247041576452
 20
-56.05549315004863
 30
0.0
  0
VERTEX
  5
2E9
330
2C6
100
AcDbEntity
  8
\U+838C\U+8343\U+8384\U+815B_1
100
AcDbVertex
100
AcDb2dVertex
 10
64.06378986028614
 20
-55.61417641838813
 30
0.0
  0
VERTEX
  5
2EA
330
2C6
100
AcDbEntity
  8
\U+838C\U+8343\U+8384\U+815B_1
100
AcDbVertex
100
AcDb2dVertex
 10
63.74029539422118
 20
-55.18767359731419
 30
0.0
  0
VERTEX
  5
2EB
330
2C6
100
AcDbEntity
  8
\U+838C\U+8343\U+8384\U+815B_1
100
AcDbVertex
100
AcDb2dVertex
 10
63.40215927234391
 20
-54.76117077624026
 30
0.0
  0
VERTEX
  5
2EC
330
2C6
100
AcDbEntity
  8
\U+838C\U+8343\U+8384\U+815B_1
100
AcDbVertex
100
AcDb2dVertex
 10
63.04920923988006
 20
-54.37876517737753
 30
0.0
  0
VERTEX
  5
2ED
330
2C6
100
AcDbEntity
  8
\U+838C\U+8343\U+8384\U+815B_1
100
AcDbVertex
100
AcDb2dVertex
 10
62.69643146219047
 20
-53.9963595785148
 30
0.0
  0
VERTEX
  5
2EE
330
2C6
100
AcDbEntity
  8
\U+838C\U+8343\U+8384\U+815B_1
100
AcDbVertex
100
AcDb2dVertex
 10
62.29938420751544
 20
-53.62859563546438
 30
0.0
  0
SEQEND
  5
2EF
330
2C6
100
AcDbEntity
  8
\U+838C\U+8343\U+8384\U+815B_1
  0
POLYLINE
  5
2F0
330
3C
100
AcDbEntity
  8
\U+838C\U+8343\U+8384\U+815B_1
100
AcDb2dPolyline
 66
     1
 10
0.0
 20
0.0
 30
0.0
  0
VERTEX
  5
2F1
330
2F0
100
AcDbEntity
  8
\U+838C\U+8343\U+8384\U+815B_1
100
AcDbVertex
100
AcDb2dVertex
 10
62.29938420751544
 20
-53.62859563546438
 30
0.0
  0
VERTEX
  5
2F2
330
2F0
100
AcDbEntity
  8
\U+838C\U+8343\U+8384\U+815B_1
100
AcDbVertex
100
AcDb2dVertex
 10
61.91715086342697
 20
-53.29028725881285
 30
0.0
  0
SEQEND
  5
2F3
330
2F0
100
AcDbEntity
  8
\U+838C\U+8343\U+8384\U+815B_1
  0
POLYLINE
  5
2F4
330
3C
100
AcDbEntity
  8
\U+838C\U+8343\U+8384\U+815B_1
100
AcDb2dPolyline
 66
     1
 10
0.0
 20
0.0
 30
0.0
  0
VERTEX
  5
2F5
330
2F4
100
AcDbEntity
  8
\U+838C\U+8343\U+8384\U+815B_1
100
AcDbVertex
100
AcDb2dVertex
 10
61.91715086342697
 20
-53.29028725881285
 30
0.0
  0
VERTEX
  5
2F6
330
2F4
100
AcDbEntity
  8
\U+838C\U+8343\U+8384\U+815B_1
100
AcDbVertex
100
AcDb2dVertex
 10
61.53491751933849
 20
-52.96662053797363
 30
0.0
  0
VERTEX
  5
2F7
330
2F4
100
AcDbEntity
  8
\U+838C\U+8343\U+8384\U+815B_1
100
AcDbVertex
100
AcDb2dVertex
 10
61.12322860885114
 20
-52.67258163830755
 30
0.0
  0
VERTEX
  5
2F8
330
2F4
100
AcDbEntity
  8
\U+838C\U+8343\U+8384\U+815B_1
100
AcDbVertex
100
AcDb2dVertex
 10
60.69689804255147
 20
-52.39301213967953
 30
0.0
  0
VERTEX
  5
2F9
330
2F4
100
AcDbEntity
  8
\U+838C\U+8343\U+8384\U+815B_1
100
AcDbVertex
100
AcDb2dVertex
 10
60.28520913206412
 20
-52.14307046222465
 30
0.0
  0
VERTEX
  5
2FA
330
2F4
100
AcDbEntity
  8
\U+838C\U+8343\U+8384\U+815B_1
100
AcDbVertex
100
AcDb2dVertex
 10
59.85870631099019
 20
-51.90777044058209
 30
0.0
  0
VERTEX
  5
2FB
330
2F4
100
AcDbEntity
  8
\U+838C\U+8343\U+8384\U+815B_1
100
AcDbVertex
100
AcDb2dVertex
 10
59.44718965527709
 20
-51.70175373056415
 30
0.0
  0
VERTEX
  5
2FC
330
2F4
100
AcDbEntity
  8
\U+838C\U+8343\U+8384\U+815B_1
100
AcDbVertex
100
AcDb2dVertex
 10
59.00604517839085
 20
-51.52536484171936
 30
0.0
  0
VERTEX
  5
2FD
330
2F4
100
AcDbEntity
  8
\U+838C\U+8343\U+8384\U+815B_1
100
AcDbVertex
100
AcDb2dVertex
 10
58.57971461209119
 20
-51.37825926449919
 30
0.0
  0
VERTEX
  5
2FE
330
2F4
100
AcDbEntity
  8
\U+838C\U+8343\U+8384\U+815B_1
100
AcDbVertex
100
AcDb2dVertex
 10
58.13857013520494
 20
-51.23115368727902
 30
0.0
  0
VERTEX
  5
2FF
330
2F4
100
AcDbEntity
  8
\U+838C\U+8343\U+8384\U+815B_1
100
AcDbVertex
100
AcDb2dVertex
 10
57.71223956890528
 20
-51.14278698808236
 30
0.0
  0
VERTEX
  5
300
330
2F4
100
AcDbEntity
  8
\U+838C\U+8343\U+8384\U+815B_1
100
AcDbVertex
100
AcDb2dVertex
 10
57.28573674783134
 20
-51.06940645424654
 30
0.0
  0
VERTEX
  5
301
330
2F4
100
AcDbEntity
  8
\U+838C\U+8343\U+8384\U+815B_1
100
AcDbVertex
100
AcDb2dVertex
 10
56.85940618153168
 20
-51.01049532144877
 30
0.0
  0
VERTEX
  5
302
330
2F4
100
AcDbEntity
  8
\U+838C\U+8343\U+8384\U+815B_1
100
AcDbVertex
100
AcDb2dVertex
 10
56.43307561523201
 20
-50.99585366563645
 30
0.0
  0
VERTEX
  5
303
330
2F4
100
AcDbEntity
  8
\U+838C\U+8343\U+8384\U+815B_1
100
AcDbVertex
100
AcDb2dVertex
 10
56.02138670474466
 20
-50.99585366563645
 30
0.0
  0
VERTEX
  5
304
330
2F4
100
AcDbEntity
  8
\U+838C\U+8343\U+8384\U+815B_1
100
AcDbVertex
100
AcDb2dVertex
 10
55.6096977942573
 20
-51.02513697726108
 30
0.0
  0
VERTEX
  5
305
330
2F4
100
AcDbEntity
  8
\U+838C\U+8343\U+8384\U+815B_1
100
AcDbVertex
100
AcDb2dVertex
 10
55.19800888376994
 20
-51.06940645424654
 30
0.0
  0
VERTEX
  5
306
330
2F4
100
AcDbEntity
  8
\U+838C\U+8343\U+8384\U+815B_1
100
AcDbVertex
100
AcDb2dVertex
 10
54.80113388386916
 20
-51.17224255448124
 30
0.0
  0
VERTEX
  5
307
330
2F4
100
AcDbEntity
  8
\U+838C\U+8343\U+8384\U+815B_1
100
AcDbVertex
100
AcDb2dVertex
 10
54.40408662919412
 20
-51.27525090949022
 30
0.0
  0
VERTEX
  5
308
330
2F4
100
AcDbEntity
  8
\U+838C\U+8343\U+8384\U+815B_1
100
AcDbVertex
100
AcDb2dVertex
 10
54.03649494091796
 20
-51.40754257612381
 30
0.0
  0
VERTEX
  5
309
330
2F4
100
AcDbEntity
  8
\U+838C\U+8343\U+8384\U+815B_1
100
AcDbVertex
100
AcDb2dVertex
 10
53.6689032526418
 20
-51.56946206393055
 30
0.0
  0
VERTEX
  5
30A
330
2F4
100
AcDbEntity
  8
\U+838C\U+8343\U+8384\U+815B_1
100
AcDbVertex
100
AcDb2dVertex
 10
53.31612547495222
 20
-51.76066486336192
 30
0.0
  0
VERTEX
  5
30B
330
2F4
100
AcDbEntity
  8
\U+838C\U+8343\U+8384\U+815B_1
100
AcDbVertex
100
AcDb2dVertex
 10
52.97798935307495
 20
-51.9665093186056
 30
0.0
  0
VERTEX
  5
30C
330
2F4
100
AcDbEntity
  8
\U+838C\U+8343\U+8384\U+815B_1
100
AcDbVertex
100
AcDb2dVertex
 10
52.96317544248838
 20
-51.9665093186056
 30
0.0
  0
SEQEND
  5
30D
330
2F4
100
AcDbEntity
  8
\U+838C\U+8343\U+8384\U+815B_1
  0
POLYLINE
  5
30E
330
3C
100
AcDbEntity
  8
\U+838C\U+8343\U+8384\U+815B_1
100
AcDb2dPolyline
 66
     1
 10
0.0
 20
0.0
 30
0.0
  0
VERTEX
  5
30F
330
30E
100
AcDbEntity
  8
\U+838C\U+8343\U+8384\U+815B_1
100
AcDbVertex
100
AcDb2dVertex
 10
63.46089815036742
 20
-53.5550428468543
 30
0.0
  0
VERTEX
  5
310
330
30E
100
AcDbEntity
  8
\U+838C\U+8343\U+8384\U+815B_1
100
AcDbVertex
100
AcDb2dVertex
 10
63.81384818283126
 20
-53.93744844571703
 30
0.0
  0
VERTEX
  5
311
330
30E
100
AcDbEntity
  8
\U+838C\U+8343\U+8384\U+815B_1
100
AcDbVertex
100
AcDb2dVertex
 10
64.16662596052085
 20
-54.33466795516634
 30
0.0
  0
SEQEND
  5
312
330
30E
100
AcDbEntity
  8
\U+838C\U+8343\U+8384\U+815B_1
  0
POLYLINE
  5
313
330
3C
100
AcDbEntity
  8
\U+838C\U+8343\U+8384\U+815B_1
100
AcDb2dPolyline
 66
     1
 10
0.0
 20
0.0
 30
0.0
  0
VERTEX
  5
314
330
313
100
AcDbEntity
  8
\U+838C\U+8343\U+8384\U+815B_1
100
AcDbVertex
100
AcDb2dVertex
 10
64.16662596052085
 20
-54.33466795516634
 30
0.0
  0
VERTEX
  5
315
330
313
100
AcDbEntity
  8
\U+838C\U+8343\U+8384\U+815B_1
100
AcDbVertex
100
AcDb2dVertex
 10
64.5195759929847
 20
-54.74635686565369
 30
0.0
  0
SEQEND
  5
316
330
313
100
AcDbEntity
  8
\U+838C\U+8343\U+8384\U+815B_1
  0
POLYLINE
  5
317
330
3C
100
AcDbEntity
  8
\U+838C\U+8343\U+8384\U+815B_1
100
AcDb2dPolyline
 66
     1
 10
0.0
 20
0.0
 30
0.0
  0
VERTEX
  5
318
330
317
100
AcDbEntity
  8
\U+838C\U+8343\U+8384\U+815B_1
100
AcDbVertex
100
AcDb2dVertex
 10
64.5195759929847
 20
-54.74635686565369
 30
0.0
  0
VERTEX
  5
319
330
317
100
AcDbEntity
  8
\U+838C\U+8343\U+8384\U+815B_1
100
AcDbVertex
100
AcDb2dVertex
 10
64.84289820427539
 20
-55.17303194150188
 30
0.0
  0
VERTEX
  5
31A
330
317
100
AcDbEntity
  8
\U+838C\U+8343\U+8384\U+815B_1
100
AcDbVertex
100
AcDb2dVertex
 10
65.13710935871572
 20
-55.6289903289747
 30
0.0
  0
VERTEX
  5
31B
330
317
100
AcDbEntity
  8
\U+838C\U+8343\U+8384\U+815B_1
100
AcDbVertex
100
AcDb2dVertex
 10
65.4311482583818
 20
-56.08494871644751
 30
0.0
  0
VERTEX
  5
31C
330
317
100
AcDbEntity
  8
\U+838C\U+8343\U+8384\U+815B_1
100
AcDbVertex
100
AcDb2dVertex
 10
65.7103732474613
 20
-56.55554875973264
 30
0.0
  0
VERTEX
  5
31D
330
317
100
AcDbEntity
  8
\U+838C\U+8343\U+8384\U+815B_1
100
AcDbVertex
100
AcDb2dVertex
 10
65.97512883550274
 20
-57.04096271360434
 30
0.0
  0
VERTEX
  5
31E
330
317
100
AcDbEntity
  8
\U+838C\U+8343\U+8384\U+815B_1
100
AcDbVertex
100
AcDb2dVertex
 10
66.22507051295763
 20
-57.52620441270179
 30
0.0
  0
VERTEX
  5
31F
330
317
100
AcDbEntity
  8
\U+838C\U+8343\U+8384\U+815B_1
100
AcDbVertex
100
AcDb2dVertex
 10
66.44555662401362
 20
-58.02643227716006
 30
0.0
  0
VERTEX
  5
320
330
317
100
AcDbEntity
  8
\U+838C\U+8343\U+8384\U+815B_1
100
AcDbVertex
100
AcDb2dVertex
 10
66.6514010792573
 20
-58.52648788684407
 30
0.0
  0
VERTEX
  5
321
330
317
100
AcDbEntity
  8
\U+838C\U+8343\U+8384\U+815B_1
100
AcDbVertex
100
AcDb2dVertex
 10
66.84260387868866
 20
-59.0411851523404
 30
0.0
  0
VERTEX
  5
322
330
317
100
AcDbEntity
  8
\U+838C\U+8343\U+8384\U+815B_1
100
AcDbVertex
100
AcDb2dVertex
 10
67.00417885694688
 20
-59.55605467261099
 30
0.0
  0
VERTEX
  5
323
330
317
100
AcDbEntity
  8
\U+838C\U+8343\U+8384\U+815B_1
100
AcDbVertex
100
AcDb2dVertex
 10
67.13664277835473
 20
-60.07075193810731
 30
0.0
  0
VERTEX
  5
324
330
317
100
AcDbEntity
  8
\U+838C\U+8343\U+8384\U+815B_1
100
AcDbVertex
100
AcDb2dVertex
 10
67.26893444498832
 20
-60.60026311419021
 30
0.0
  0
VERTEX
  5
325
330
317
100
AcDbEntity
  8
\U+838C\U+8343\U+8384\U+815B_1
100
AcDbVertex
100
AcDb2dVertex
 10
67.35712888941072
 20
-61.1151326344608
 30
0.0
  0
VERTEX
  5
326
330
317
100
AcDbEntity
  8
\U+838C\U+8343\U+8384\U+815B_1
100
AcDbVertex
100
AcDb2dVertex
 10
67.45996498964543
 20
-61.63000215473139
 30
0.0
  0
VERTEX
  5
327
330
317
100
AcDbEntity
  8
\U+838C\U+8343\U+8384\U+815B_1
100
AcDbVertex
100
AcDb2dVertex
 10
67.5188761224432
 20
-62.15934107604003
 30
0.0
  0
VERTEX
  5
328
330
317
100
AcDbEntity
  8
\U+838C\U+8343\U+8384\U+815B_1
100
AcDbVertex
100
AcDb2dVertex
 10
67.53351777825551
 20
-62.67421059631062
 30
0.0
  0
VERTEX
  5
329
330
317
100
AcDbEntity
  8
\U+838C\U+8343\U+8384\U+815B_1
100
AcDbVertex
100
AcDb2dVertex
 10
67.5629733446544
 20
-63.18890786180694
 30
0.0
  0
VERTEX
  5
32A
330
317
100
AcDbEntity
  8
\U+838C\U+8343\U+8384\U+815B_1
100
AcDbVertex
100
AcDb2dVertex
 10
67.54833168884208
 20
-63.68913572626522
 30
0.0
  0
VERTEX
  5
32B
330
317
100
AcDbEntity
  8
\U+838C\U+8343\U+8384\U+815B_1
100
AcDbVertex
100
AcDb2dVertex
 10
67.53351777825551
 20
-64.17437742536266
 30
0.0
  0
VERTEX
  5
32C
330
317
100
AcDbEntity
  8
\U+838C\U+8343\U+8384\U+815B_1
100
AcDbVertex
100
AcDb2dVertex
 10
67.45996498964543
 20
-64.65979137923436
 30
0.0
  0
VERTEX
  5
32D
330
317
100
AcDbEntity
  8
\U+838C\U+8343\U+8384\U+815B_1
100
AcDbVertex
100
AcDb2dVertex
 10
67.38658445580961
 20
-65.14520533310606
 30
0.0
  0
VERTEX
  5
32E
330
317
100
AcDbEntity
  8
\U+838C\U+8343\U+8384\U+815B_1
100
AcDbVertex
100
AcDb2dVertex
 10
67.29839001138721
 20
-65.60116372057888
 30
0.0
  0
VERTEX
  5
32F
330
317
100
AcDbEntity
  8
\U+838C\U+8343\U+8384\U+815B_1
100
AcDbVertex
100
AcDb2dVertex
 10
67.18074000056593
 20
-66.0571221080517
 30
0.0
  0
VERTEX
  5
330
330
317
100
AcDbEntity
  8
\U+838C\U+8343\U+8384\U+815B_1
100
AcDbVertex
100
AcDb2dVertex
 10
67.03363442334576
 20
-66.4984388397122
 30
0.0
  0
VERTEX
  5
331
330
317
100
AcDbEntity
  8
\U+838C\U+8343\U+8384\U+815B_1
100
AcDbVertex
100
AcDb2dVertex
 10
66.88670110089986
 20
-66.91012775019955
 30
0.0
  0
VERTEX
  5
332
330
317
100
AcDbEntity
  8
\U+838C\U+8343\U+8384\U+815B_1
100
AcDbVertex
100
AcDb2dVertex
 10
66.69549830146849
 20
-67.32198891546118
 30
0.0
  0
VERTEX
  5
333
330
317
100
AcDbEntity
  8
\U+838C\U+8343\U+8384\U+815B_1
100
AcDbVertex
100
AcDb2dVertex
 10
66.50429550203712
 20
-67.70439451432391
 30
0.0
  0
VERTEX
  5
334
330
317
100
AcDbEntity
  8
\U+838C\U+8343\U+8384\U+815B_1
100
AcDbVertex
100
AcDb2dVertex
 10
66.28380939098113
 20
-68.08680011318664
 30
0.0
  0
VERTEX
  5
335
330
317
100
AcDbEntity
  8
\U+838C\U+8343\U+8384\U+815B_1
100
AcDbVertex
100
AcDb2dVertex
 10
66.04850936933857
 20
-68.43992240042475
 30
0.0
  0
VERTEX
  5
336
330
317
100
AcDbEntity
  8
\U+838C\U+8343\U+8384\U+815B_1
100
AcDbVertex
100
AcDb2dVertex
 10
65.78392603607138
 20
-68.77823077707627
 30
0.0
  0
VERTEX
  5
337
330
317
100
AcDbEntity
  8
\U+838C\U+8343\U+8384\U+815B_1
100
AcDbVertex
100
AcDb2dVertex
 10
65.5193427028042
 20
-69.07226967674235
 30
0.0
  0
VERTEX
  5
338
330
317
100
AcDbEntity
  8
\U+838C\U+8343\U+8384\U+815B_1
100
AcDbVertex
100
AcDb2dVertex
 10
65.22530380313812
 20
-69.381122486995
 30
0.0
  0
VERTEX
  5
339
330
317
100
AcDbEntity
  8
\U+838C\U+8343\U+8384\U+815B_1
100
AcDbVertex
100
AcDb2dVertex
 10
64.91645099288547
 20
-69.63123641922414
 30
0.0
  0
VERTEX
  5
33A
330
317
100
AcDbEntity
  8
\U+838C\U+8343\U+8384\U+815B_1
100
AcDbVertex
100
AcDb2dVertex
 10
64.59295652682052
 20
-69.8665364408667
 30
0.0
  0
VERTEX
  5
33B
330
317
100
AcDbEntity
  8
\U+838C\U+8343\U+8384\U+815B_1
100
AcDbVertex
100
AcDb2dVertex
 10
64.26963431552981
 20
-70.10183646250927
 30
0.0
  0
VERTEX
  5
33C
330
317
100
AcDbEntity
  8
\U+838C\U+8343\U+8384\U+815B_1
100
AcDbVertex
100
AcDb2dVertex
 10
63.91668428306597
 20
-70.29303926194063
 30
0.0
  0
VERTEX
  5
33D
330
317
100
AcDbEntity
  8
\U+838C\U+8343\U+8384\U+815B_1
100
AcDbVertex
100
AcDb2dVertex
 10
63.54909259478981
 20
-70.45495874974738
 30
0.0
  0
VERTEX
  5
33E
330
317
100
AcDbEntity
  8
\U+838C\U+8343\U+8384\U+815B_1
100
AcDbVertex
100
AcDb2dVertex
 10
63.19631481710023
 20
-70.60206432696754
 30
0.0
  0
SEQEND
  5
33F
330
317
100
AcDbEntity
  8
\U+838C\U+8343\U+8384\U+815B_1
  0
POLYLINE
  5
340
330
3C
100
AcDbEntity
  8
\U+838C\U+8343\U+8384\U+815B_1
100
AcDb2dPolyline
 66
     1
 10
0.0
 20
0.0
 30
0.0
  0
VERTEX
  5
341
330
340
100
AcDbEntity
  8
\U+838C\U+8343\U+8384\U+815B_1
100
AcDbVertex
100
AcDb2dVertex
 10
63.46089815036742
 20
-53.5550428468543
 30
0.0
  0
VERTEX
  5
342
330
340
100
AcDbEntity
  8
\U+838C\U+8343\U+8384\U+815B_1
100
AcDbVertex
100
AcDb2dVertex
 10
61.4026258527049
 20
-51.74585095277534
 30
0.0
  0
VERTEX
  5
343
330
340
100
AcDbEntity
  8
\U+838C\U+8343\U+8384\U+815B_1
100
AcDbVertex
100
AcDb2dVertex
 10
58.91785073396846
 20
-50.77519529980621
 30
0.0
  0
VERTEX
  5
344
330
340
100
AcDbEntity
  8
\U+838C\U+8343\U+8384\U+815B_1
100
AcDbVertex
100
AcDb2dVertex
 10
56.25668672638722
 20
-50.67218694479723
 30
0.0
  0
VERTEX
  5
345
330
340
100
AcDbEntity
  8
\U+838C\U+8343\U+8384\U+815B_1
100
AcDbVertex
100
AcDb2dVertex
 10
53.63961994101718
 20
-51.51055093113278
 30
0.0
  0
SEQEND
  5
346
330
340
100
AcDbEntity
  8
\U+838C\U+8343\U+8384\U+815B_1
  0
POLYLINE
  5
347
330
3C
100
AcDbEntity
  8
\U+838C\U+8343\U+8384\U+815B_1
100
AcDb2dPolyline
 66
     1
 10
0.0
 20
0.0
 30
0.0
  0
VERTEX
  5
348
330
347
100
AcDbEntity
  8
\U+838C\U+8343\U+8384\U+815B_1
100
AcDbVertex
100
AcDb2dVertex
 10
220.8526692156202
 20
-153.8807020014604
 30
0.0
  0
VERTEX
  5
349
330
347
100
AcDbEntity
  8
\U+838C\U+8343\U+8384\U+815B_1
100
AcDbVertex
100
AcDb2dVertex
 10
220.2056802834903
 20
-155.336599353527
 30
0.0
  0
VERTEX
  5
34A
330
347
100
AcDbEntity
  8
\U+838C\U+8343\U+8384\U+815B_1
100
AcDbVertex
100
AcDb2dVertex
 10
219.7498941507917
 20
-157.0870523695824
 30
0.0
  0
VERTEX
  5
34B
330
347
100
AcDbEntity
  8
\U+838C\U+8343\U+8384\U+815B_1
100
AcDbVertex
100
AcDb2dVertex
 10
219.6027885735715
 20
-158.9108859194737
 30
0.0
  0
VERTEX
  5
34C
330
347
100
AcDbEntity
  8
\U+838C\U+8343\U+8384\U+815B_1
100
AcDbVertex
100
AcDb2dVertex
 10
219.7647080613783
 20
-160.7936306021627
 30
0.0
  0
VERTEX
  5
34D
330
347
100
AcDbEntity
  8
\U+838C\U+8343\U+8384\U+815B_1
100
AcDbVertex
100
AcDb2dVertex
 10
220.2349635951149
 20
-162.6467474636786
 30
0.0
  0
VERTEX
  5
34E
330
347
100
AcDbEntity
  8
\U+838C\U+8343\U+8384\U+815B_1
100
AcDbVertex
100
AcDb2dVertex
 10
220.9994302832918
 20
-164.4264837913587
 30
0.0
  0
VERTEX
  5
34F
330
347
100
AcDbEntity
  8
\U+838C\U+8343\U+8384\U+815B_1
100
AcDbVertex
100
AcDb2dVertex
 10
222.043638724871
 20
-166.0591145418186
 30
0.0
  0
VERTEX
  5
350
330
347
100
AcDbEntity
  8
\U+838C\U+8343\U+8384\U+815B_1
100
AcDbVertex
100
AcDb2dVertex
 10
222.6609998358278
 20
-166.823925739544
 30
0.0
  0
VERTEX
  5
351
330
347
100
AcDbEntity
  8
\U+838C\U+8343\U+8384\U+815B_1
100
AcDbVertex
100
AcDb2dVertex
 10
223.1315998791129
 20
-167.3241536040023
 30
0.0
  0
SEQEND
  5
352
330
347
100
AcDbEntity
  8
\U+838C\U+8343\U+8384\U+815B_1
  0
POLYLINE
  5
353
330
3C
100
AcDbEntity
  8
\U+838C\U+8343\U+8384\U+815B_1
100
AcDb2dPolyline
 66
     1
 10
0.0
 20
0.0
 30
0.0
  0
VERTEX
  5
354
330
353
100
AcDbEntity
  8
\U+838C\U+8343\U+8384\U+815B_1
100
AcDbVertex
100
AcDb2dVertex
 10
223.1315998791129
 20
-167.3241536040023
 30
0.0
  0
VERTEX
  5
355
330
353
100
AcDbEntity
  8
\U+838C\U+8343\U+8384\U+815B_1
100
AcDbVertex
100
AcDb2dVertex
 10
224.4548610549974
 20
-168.4417425794173
 30
0.0
  0
VERTEX
  5
356
330
353
100
AcDbEntity
  8
\U+838C\U+8343\U+8384\U+815B_1
100
AcDbVertex
100
AcDb2dVertex
 10
226.0278916535625
 20
-169.4273843977473
 30
0.0
  0
VERTEX
  5
357
330
353
100
AcDbEntity
  8
\U+838C\U+8343\U+8384\U+815B_1
100
AcDbVertex
100
AcDb2dVertex
 10
227.7187445177231
 20
-170.0743733298773
 30
0.0
  0
VERTEX
  5
358
330
353
100
AcDbEntity
  8
\U+838C\U+8343\U+8384\U+815B_1
100
AcDbVertex
100
AcDb2dVertex
 10
228.586219560909
 20
-170.2803900398952
 30
0.0
  0
VERTEX
  5
359
330
353
100
AcDbEntity
  8
\U+838C\U+8343\U+8384\U+815B_1
100
AcDbVertex
100
AcDb2dVertex
 10
228.9830945608098
 20
-170.353770573731
 30
0.0
  0
VERTEX
  5
35A
330
353
100
AcDbEntity
  8
\U+838C\U+8343\U+8384\U+815B_1
100
AcDbVertex
100
AcDb2dVertex
 10
229.1009168264053
 20
-170.3685844843176
 30
0.0
  0
SEQEND
  5
35B
330
353
100
AcDbEntity
  8
\U+838C\U+8343\U+8384\U+815B_1
  0
POLYLINE
  5
35C
330
3C
100
AcDbEntity
  8
\U+838C\U+8343\U+8384\U+815B_1
100
AcDb2dPolyline
 66
     1
 10
0.0
 20
0.0
 30
0.0
  0
VERTEX
  5
35D
330
35C
100
AcDbEntity
  8
\U+838C\U+8343\U+8384\U+815B_1
100
AcDbVertex
100
AcDb2dVertex
 10
223.3224581689958
 20
-151.1449516766235
 30
0.0
  0
VERTEX
  5
35E
330
35C
100
AcDbEntity
  8
\U+838C\U+8343\U+8384\U+815B_1
100
AcDbVertex
100
AcDb2dVertex
 10
221.8669053264777
 20
-152.4096462292587
 30
0.0
  0
VERTEX
  5
35F
330
35C
100
AcDbEntity
  8
\U+838C\U+8343\U+8384\U+815B_1
100
AcDbVertex
100
AcDb2dVertex
 10
221.2643581261075
 20
-153.1892713375707
 30
0.0
  0
VERTEX
  5
360
330
35C
100
AcDbEntity
  8
\U+838C\U+8343\U+8384\U+815B_1
100
AcDbVertex
100
AcDb2dVertex
 10
220.8526692156202
 20
-153.8807020014604
 30
0.0
  0
SEQEND
  5
361
330
35C
100
AcDbEntity
  8
\U+838C\U+8343\U+8384\U+815B_1
  0
POLYLINE
  5
362
330
3C
100
AcDbEntity
  8
\U+838C\U+8343\U+8384\U+815B_1
100
AcDb2dPolyline
 66
     1
 10
0.0
 20
0.0
 30
0.0
  0
VERTEX
  5
363
330
362
100
AcDbEntity
  8
\U+838C\U+8343\U+8384\U+815B_1
100
AcDbVertex
100
AcDb2dVertex
 10
229.1009168264053
 20
-170.3685844843176
 30
0.0
  0
VERTEX
  5
364
330
362
100
AcDbEntity
  8
\U+838C\U+8343\U+8384\U+815B_1
100
AcDbVertex
100
AcDb2dVertex
 10
229.8798529156203
 20
-170.4423095277019
 30
0.0
  0
VERTEX
  5
365
330
362
100
AcDbEntity
  8
\U+838C\U+8343\U+8384\U+815B_1
100
AcDbVertex
100
AcDb2dVertex
 10
230.8796196254398
 20
-170.4274956171154
 30
0.0
  0
VERTEX
  5
366
330
362
100
AcDbEntity
  8
\U+838C\U+8343\U+8384\U+815B_1
100
AcDbVertex
100
AcDb2dVertex
 10
232.7616752890318
 20
-170.0450900182526
 30
0.0
  0
SEQEND
  5
367
330
362
100
AcDbEntity
  8
\U+838C\U+8343\U+8384\U+815B_1
  0
POLYLINE
  5
368
330
3C
100
AcDbEntity
  8
\U+838C\U+8343\U+8384\U+815B_1
100
AcDb2dPolyline
 66
     1
 10
0.0
 20
0.0
 30
0.0
  0
VERTEX
  5
369
330
368
100
AcDbEntity
  8
\U+838C\U+8343\U+8384\U+815B_1
100
AcDbVertex
100
AcDb2dVertex
 10
223.9842610117123
 20
-150.6888210343764
 30
0.0
  0
VERTEX
  5
36A
330
368
100
AcDbEntity
  8
\U+838C\U+8343\U+8384\U+815B_1
100
AcDbVertex
100
AcDb2dVertex
 10
223.3224581689958
 20
-151.1301377660369
 30
0.0
  0
SEQEND
  5
36B
330
368
100
AcDbEntity
  8
\U+838C\U+8343\U+8384\U+815B_1
  0
POLYLINE
  5
36C
330
3C
100
AcDbEntity
  8
\U+838C\U+8343\U+8384\U+815B_1
100
AcDb2dPolyline
 66
     1
 10
0.0
 20
0.0
 30
0.0
  0
VERTEX
  5
36D
330
36C
100
AcDbEntity
  8
\U+838C\U+8343\U+8384\U+815B_1
100
AcDbVertex
100
AcDb2dVertex
 10
232.7764891996184
 20
-170.0450900182526
 30
0.0
  0
VERTEX
  5
36E
330
36C
100
AcDbEntity
  8
\U+838C\U+8343\U+8384\U+815B_1
100
AcDbVertex
100
AcDb2dVertex
 10
233.5409558877953
 20
-169.7656927743989
 30
0.0
  0
SEQEND
  5
36F
330
36C
100
AcDbEntity
  8
\U+838C\U+8343\U+8384\U+815B_1
  0
POLYLINE
  5
370
330
3C
100
AcDbEntity
  8
\U+838C\U+8343\U+8384\U+815B_1
100
AcDb2dPolyline
 66
     1
 10
0.0
 20
0.0
 30
0.0
  0
VERTEX
  5
371
330
370
100
AcDbEntity
  8
\U+838C\U+8343\U+8384\U+815B_1
100
AcDbVertex
100
AcDb2dVertex
 10
233.5409558877953
 20
-169.7656927743989
 30
0.0
  0
VERTEX
  5
372
330
370
100
AcDbEntity
  8
\U+838C\U+8343\U+8384\U+815B_1
100
AcDbVertex
100
AcDb2dVertex
 10
235.0995170853224
 20
-168.9860676660868
 30
0.0
  0
VERTEX
  5
373
330
370
100
AcDbEntity
  8
\U+838C\U+8343\U+8384\U+815B_1
100
AcDbVertex
100
AcDb2dVertex
 10
236.3931504400337
 20
-167.7947536472874
 30
0.0
  0
VERTEX
  5
374
330
370
100
AcDbEntity
  8
\U+838C\U+8343\U+8384\U+815B_1
100
AcDbVertex
100
AcDb2dVertex
 10
237.4225449710263
 20
-166.2651312518365
 30
0.0
  0
VERTEX
  5
375
330
370
100
AcDbEntity
  8
\U+838C\U+8343\U+8384\U+815B_1
100
AcDbVertex
100
AcDb2dVertex
 10
238.0840033041943
 20
-164.4557671029833
 30
0.0
  0
VERTEX
  5
376
330
370
100
AcDbEntity
  8
\U+838C\U+8343\U+8384\U+815B_1
100
AcDbVertex
100
AcDb2dVertex
 10
238.3782144586346
 20
-162.4407307536607
 30
0.0
  0
VERTEX
  5
377
330
370
100
AcDbEntity
  8
\U+838C\U+8343\U+8384\U+815B_1
100
AcDbVertex
100
AcDb2dVertex
 10
238.2603921930391
 20
-160.2934027377044
 30
0.0
  0
VERTEX
  5
378
330
370
100
AcDbEntity
  8
\U+838C\U+8343\U+8384\U+815B_1
100
AcDbVertex
100
AcDb2dVertex
 10
237.7753227487159
 20
-158.1460747217482
 30
0.0
  0
VERTEX
  5
379
330
370
100
AcDbEntity
  8
\U+838C\U+8343\U+8384\U+815B_1
100
AcDbVertex
100
AcDb2dVertex
 10
236.9371310171546
 20
-156.0721272396278
 30
0.0
  0
VERTEX
  5
37A
330
370
100
AcDbEntity
  8
\U+838C\U+8343\U+8384\U+815B_1
100
AcDbVertex
100
AcDb2dVertex
 10
235.7609754184903
 20
-154.1600992453141
 30
0.0
  0
VERTEX
  5
37B
330
370
100
AcDbEntity
  8
\U+838C\U+8343\U+8384\U+815B_1
100
AcDbVertex
100
AcDb2dVertex
 10
234.3202364865588
 20
-152.483371272643
 30
0.0
  0
VERTEX
  5
37C
330
370
100
AcDbEntity
  8
\U+838C\U+8343\U+8384\U+815B_1
100
AcDbVertex
100
AcDb2dVertex
 10
232.6586669340228
 20
-151.1301377660369
 30
0.0
  0
VERTEX
  5
37D
330
370
100
AcDbEntity
  8
\U+838C\U+8343\U+8384\U+815B_1
100
AcDbVertex
100
AcDb2dVertex
 10
230.8355224032286
 20
-150.1741237688801
 30
0.0
  0
VERTEX
  5
37E
330
370
100
AcDbEntity
  8
\U+838C\U+8343\U+8384\U+815B_1
100
AcDbVertex
100
AcDb2dVertex
 10
228.9538112491852
 20
-149.6446125927972
 30
0.0
  0
VERTEX
  5
37F
330
370
100
AcDbEntity
  8
\U+838C\U+8343\U+8384\U+815B_1
100
AcDbVertex
100
AcDb2dVertex
 10
227.1010388972178
 20
-149.5857014599994
 30
0.0
  0
VERTEX
  5
380
330
370
100
AcDbEntity
  8
\U+838C\U+8343\U+8384\U+815B_1
100
AcDbVertex
100
AcDb2dVertex
 10
225.3664333203945
 20
-149.9829209694487
 30
0.0
  0
VERTEX
  5
381
330
370
100
AcDbEntity
  8
\U+838C\U+8343\U+8384\U+815B_1
100
AcDbVertex
100
AcDb2dVertex
 10
224.5723388110444
 20
-150.3360432566868
 30
0.0
  0
VERTEX
  5
382
330
370
100
AcDbEntity
  8
\U+838C\U+8343\U+8384\U+815B_1
100
AcDbVertex
100
AcDb2dVertex
 10
223.9842610117123
 20
-150.6888210343764
 30
0.0
  0
SEQEND
  5
383
330
370
100
AcDbEntity
  8
\U+838C\U+8343\U+8384\U+815B_1
  0
POLYLINE
  5
384
330
3C
100
AcDbEntity
  8
\U+838C\U+8343\U+8384\U+815B_1
100
AcDb2dPolyline
 66
     1
 10
0.0
 20
0.0
 30
0.0
  0
VERTEX
  5
385
330
384
100
AcDbEntity
  8
\U+838C\U+8343\U+8384\U+815B_1
100
AcDbVertex
100
AcDb2dVertex
 10
224.1165526783459
 20
-166.3826090078835
 30
0.0
  0
VERTEX
  5
386
330
384
100
AcDbEntity
  8
\U+838C\U+8343\U+8384\U+815B_1
100
AcDbVertex
100
AcDb2dVertex
 10
222.3964165025606
 20
-164.6617838130012
 30
0.0
  0
SEQEND
  5
387
330
384
100
AcDbEntity
  8
\U+838C\U+8343\U+8384\U+815B_1
  0
POLYLINE
  5
388
330
3C
100
AcDbEntity
  8
\U+838C\U+8343\U+8384\U+815B_1
100
AcDb2dPolyline
 66
     1
 10
0.0
 20
0.0
 30
0.0
  0
VERTEX
  5
389
330
388
100
AcDbEntity
  8
\U+838C\U+8343\U+8384\U+815B_1
100
AcDbVertex
100
AcDb2dVertex
 10
224.7928249221004
 20
-165.0882866340752
 30
0.0
  0
VERTEX
  5
38A
330
388
100
AcDbEntity
  8
\U+838C\U+8343\U+8384\U+815B_1
100
AcDbVertex
100
AcDb2dVertex
 10
224.1165526783459
 20
-166.3826090078835
 30
0.0
  0
SEQEND
  5
38B
330
388
100
AcDbEntity
  8
\U+838C\U+8343\U+8384\U+815B_1
  0
POLYLINE
  5
38C
330
3C
100
AcDbEntity
  8
\U+838C\U+8343\U+8384\U+815B_1
100
AcDb2dPolyline
 66
     1
 10
0.0
 20
0.0
 30
0.0
  0
VERTEX
  5
38D
330
38C
100
AcDbEntity
  8
\U+838C\U+8343\U+8384\U+815B_1
100
AcDbVertex
100
AcDb2dVertex
 10
228.6596000947448
 20
-166.4122368290567
 30
0.0
  0
VERTEX
  5
38E
330
38C
100
AcDbEntity
  8
\U+838C\U+8343\U+8384\U+815B_1
100
AcDbVertex
100
AcDb2dVertex
 10
227.1010388972178
 20
-165.1031005446617
 30
0.0
  0
SEQEND
  5
38F
330
38C
100
AcDbEntity
  8
\U+838C\U+8343\U+8384\U+815B_1
  0
POLYLINE
  5
390
330
3C
100
AcDbEntity
  8
\U+838C\U+8343\U+8384\U+815B_1
100
AcDb2dPolyline
 66
     1
 10
0.0
 20
0.0
 30
0.0
  0
VERTEX
  5
391
330
390
100
AcDbEntity
  8
\U+838C\U+8343\U+8384\U+815B_1
100
AcDbVertex
100
AcDb2dVertex
 10
229.6889946257375
 20
-164.720694945799
 30
0.0
  0
VERTEX
  5
392
330
390
100
AcDbEntity
  8
\U+838C\U+8343\U+8384\U+815B_1
100
AcDbVertex
100
AcDb2dVertex
 10
228.6596000947448
 20
-166.4122368290567
 30
0.0
  0
SEQEND
  5
393
330
390
100
AcDbEntity
  8
\U+838C\U+8343\U+8384\U+815B_1
  0
POLYLINE
  5
394
330
3C
100
AcDbEntity
  8
\U+838C\U+8343\U+8384\U+815B_1
100
AcDb2dPolyline
 66
     1
 10
0.0
 20
0.0
 30
0.0
  0
VERTEX
  5
395
330
394
100
AcDbEntity
  8
\U+838C\U+8343\U+8384\U+815B_1
100
AcDbVertex
100
AcDb2dVertex
 10
228.145247338797
 20
-163.4115586614041
 30
0.0
  0
VERTEX
  5
396
330
394
100
AcDbEntity
  8
\U+838C\U+8343\U+8384\U+815B_1
100
AcDbVertex
100
AcDb2dVertex
 10
229.6889946257375
 20
-164.720694945799
 30
0.0
  0
SEQEND
  5
397
330
394
100
AcDbEntity
  8
\U+838C\U+8343\U+8384\U+815B_1
  0
POLYLINE
  5
398
330
3C
100
AcDbEntity
  8
\U+838C\U+8343\U+8384\U+815B_1
100
AcDb2dPolyline
 66
     1
 10
0.0
 20
0.0
 30
0.0
  0
VERTEX
  5
399
330
398
100
AcDbEntity
  8
\U+838C\U+8343\U+8384\U+815B_1
100
AcDbVertex
100
AcDb2dVertex
 10
228.5714056503224
 20
-159.0872748083185
 30
0.0
  0
VERTEX
  5
39A
330
398
100
AcDbEntity
  8
\U+838C\U+8343\U+8384\U+815B_1
100
AcDbVertex
100
AcDb2dVertex
 10
227.5568250299164
 20
-160.5435166699336
 30
0.0
  0
SEQEND
  5
39B
330
398
100
AcDbEntity
  8
\U+838C\U+8343\U+8384\U+815B_1
  0
POLYLINE
  5
39C
330
3C
100
AcDbEntity
  8
\U+838C\U+8343\U+8384\U+815B_1
100
AcDb2dPolyline
 66
     1
 10
0.0
 20
0.0
 30
0.0
  0
VERTEX
  5
39D
330
39C
100
AcDbEntity
  8
\U+838C\U+8343\U+8384\U+815B_1
100
AcDbVertex
100
AcDb2dVertex
 10
226.8364555639506
 20
-157.3664496134362
 30
0.0
  0
VERTEX
  5
39E
330
39C
100
AcDbEntity
  8
\U+838C\U+8343\U+8384\U+815B_1
100
AcDbVertex
100
AcDb2dVertex
 10
228.5714056503224
 20
-159.0872748083185
 30
0.0
  0
SEQEND
  5
39F
330
39C
100
AcDbEntity
  8
\U+838C\U+8343\U+8384\U+815B_1
  0
POLYLINE
  5
3A0
330
3C
100
AcDbEntity
  8
\U+838C\U+8343\U+8384\U+815B_1
100
AcDb2dPolyline
 66
     1
 10
0.0
 20
0.0
 30
0.0
  0
VERTEX
  5
3A1
330
3A0
100
AcDbEntity
  8
\U+838C\U+8343\U+8384\U+815B_1
100
AcDbVertex
100
AcDb2dVertex
 10
225.8366888541311
 20
-158.8226914750513
 30
0.0
  0
VERTEX
  5
3A2
330
3A0
100
AcDbEntity
  8
\U+838C\U+8343\U+8384\U+815B_1
100
AcDbVertex
100
AcDb2dVertex
 10
226.8364555639506
 20
-157.3664496134362
 30
0.0
  0
SEQEND
  5
3A3
330
3A0
100
AcDbEntity
  8
\U+838C\U+8343\U+8384\U+815B_1
  0
POLYLINE
  5
3A4
330
3C
100
AcDbEntity
  8
\U+838C\U+8343\U+8384\U+815B_1
100
AcDb2dPolyline
 66
     1
 10
0.0
 20
0.0
 30
0.0
  0
VERTEX
  5
3A5
330
3A4
100
AcDbEntity
  8
\U+838C\U+8343\U+8384\U+815B_1
100
AcDbVertex
100
AcDb2dVertex
 10
222.3082220581382
 20
-157.3371663018115
 30
0.0
  0
VERTEX
  5
3A6
330
3A4
100
AcDbEntity
  8
\U+838C\U+8343\U+8384\U+815B_1
100
AcDbVertex
100
AcDb2dVertex
 10
223.5284748790137
 20
-158.8078775644647
 30
0.0
  0
SEQEND
  5
3A7
330
3A4
100
AcDbEntity
  8
\U+838C\U+8343\U+8384\U+815B_1
  0
POLYLINE
  5
3A8
330
3C
100
AcDbEntity
  8
\U+838C\U+8343\U+8384\U+815B_1
100
AcDb2dPolyline
 66
     1
 10
0.0
 20
0.0
 30
0.0
  0
VERTEX
  5
3A9
330
3A8
100
AcDbEntity
  8
\U+838C\U+8343\U+8384\U+815B_1
100
AcDbVertex
100
AcDb2dVertex
 10
221.2643581261075
 20
-159.0431775861073
 30
0.0
  0
VERTEX
  5
3AA
330
3A8
100
AcDbEntity
  8
\U+838C\U+8343\U+8384\U+815B_1
100
AcDbVertex
100
AcDb2dVertex
 10
222.3082220581382
 20
-157.3371663018115
 30
0.0
  0
SEQEND
  5
3AB
330
3A8
100
AcDbEntity
  8
\U+838C\U+8343\U+8384\U+815B_1
  0
POLYLINE
  5
3AC
330
3C
100
AcDbEntity
  8
\U+838C\U+8343\U+8384\U+815B_1
100
AcDb2dPolyline
 66
     1
 10
0.0
 20
0.0
 30
0.0
  0
VERTEX
  5
3AD
330
3AC
100
AcDbEntity
  8
\U+838C\U+8343\U+8384\U+815B_1
100
AcDbVertex
100
AcDb2dVertex
 10
222.484610946983
 20
-160.4994194477224
 30
0.0
  0
VERTEX
  5
3AE
330
3AC
100
AcDbEntity
  8
\U+838C\U+8343\U+8384\U+815B_1
100
AcDbVertex
100
AcDb2dVertex
 10
221.2643581261075
 20
-159.0431775861073
 30
0.0
  0
SEQEND
  5
3AF
330
3AC
100
AcDbEntity
  8
\U+838C\U+8343\U+8384\U+815B_1
  0
POLYLINE
  5
3B0
330
3C
100
AcDbEntity
  8
\U+838C\U+8343\U+8384\U+815B_1
100
AcDb2dPolyline
 66
     1
 10
0.0
 20
0.0
 30
0.0
  0
VERTEX
  5
3B1
330
3B0
100
AcDbEntity
  8
\U+838C\U+8343\U+8384\U+815B_1
100
AcDbVertex
100
AcDb2dVertex
 10
222.3964165025606
 20
-164.6617838130012
 30
0.0
  0
VERTEX
  5
3B2
330
3B0
100
AcDbEntity
  8
\U+838C\U+8343\U+8384\U+815B_1
100
AcDbVertex
100
AcDb2dVertex
 10
223.0578748357286
 20
-163.3674614391929
 30
0.0
  0
SEQEND
  5
3B3
330
3B0
100
AcDbEntity
  8
\U+838C\U+8343\U+8384\U+815B_1
  0
POLYLINE
  5
3B4
330
3C
100
AcDbEntity
  8
\U+838C\U+8343\U+8384\U+815B_1
100
AcDb2dPolyline
 66
     1
 10
0.0
 20
0.0
 30
0.0
  0
VERTEX
  5
3B5
330
3B4
100
AcDbEntity
  8
\U+838C\U+8343\U+8384\U+815B_1
100
AcDbVertex
100
AcDb2dVertex
 10
227.1747639406022
 20
-159.1313720305297
 30
0.0
  0
VERTEX
  5
3B6
330
3B4
100
AcDbEntity
  8
\U+838C\U+8343\U+8384\U+815B_1
100
AcDbVertex
100
AcDb2dVertex
 10
227.7187445177231
 20
-158.2783663883818
 30
0.0
  0
SEQEND
  5
3B7
330
3B4
100
AcDbEntity
  8
\U+838C\U+8343\U+8384\U+815B_1
  0
POLYLINE
  5
3B8
330
3C
100
AcDbEntity
  8
\U+838C\U+8343\U+8384\U+815B_1
100
AcDb2dPolyline
 66
     1
 10
0.0
 20
0.0
 30
0.0
  0
VERTEX
  5
3B9
330
3B8
100
AcDbEntity
  8
\U+838C\U+8343\U+8384\U+815B_1
100
AcDbVertex
100
AcDb2dVertex
 10
227.1747639406022
 20
-159.1313720305297
 30
0.0
  0
VERTEX
  5
3BA
330
3B8
100
AcDbEntity
  8
\U+838C\U+8343\U+8384\U+815B_1
100
AcDbVertex
100
AcDb2dVertex
 10
224.9692138109452
 20
-160.2344916049067
 30
0.0
  0
SEQEND
  5
3BB
330
3B8
100
AcDbEntity
  8
\U+838C\U+8343\U+8384\U+815B_1
  0
POLYLINE
  5
3BC
330
3C
100
AcDbEntity
  8
\U+838C\U+8343\U+8384\U+815B_1
100
AcDb2dPolyline
 66
     1
 10
0.0
 20
0.0
 30
0.0
  0
VERTEX
  5
3BD
330
3BC
100
AcDbEntity
  8
\U+838C\U+8343\U+8384\U+815B_1
100
AcDbVertex
100
AcDb2dVertex
 10
224.9692138109452
 20
-160.2344916049067
 30
0.0
  0
VERTEX
  5
3BE
330
3BC
100
AcDbEntity
  8
\U+838C\U+8343\U+8384\U+815B_1
100
AcDbVertex
100
AcDb2dVertex
 10
225.8366888541311
 20
-158.8226914750513
 30
0.0
  0
SEQEND
  5
3BF
330
3BC
100
AcDbEntity
  8
\U+838C\U+8343\U+8384\U+815B_1
  0
POLYLINE
  5
3C0
330
3C
100
AcDbEntity
  8
\U+838C\U+8343\U+8384\U+815B_1
100
AcDb2dPolyline
 66
     1
 10
0.0
 20
0.0
 30
0.0
  0
VERTEX
  5
3C1
330
3C0
100
AcDbEntity
  8
\U+838C\U+8343\U+8384\U+815B_1
100
AcDbVertex
100
AcDb2dVertex
 10
226.6893499867305
 20
-161.9701307103755
 30
0.0
  0
VERTEX
  5
3C2
330
3C0
100
AcDbEntity
  8
\U+838C\U+8343\U+8384\U+815B_1
100
AcDbVertex
100
AcDb2dVertex
 10
228.145247338797
 20
-163.4115586614041
 30
0.0
  0
SEQEND
  5
3C3
330
3C0
100
AcDbEntity
  8
\U+838C\U+8343\U+8384\U+815B_1
  0
POLYLINE
  5
3C4
330
3C
100
AcDbEntity
  8
\U+838C\U+8343\U+8384\U+815B_1
100
AcDb2dPolyline
 66
     1
 10
0.0
 20
0.0
 30
0.0
  0
VERTEX
  5
3C5
330
3C4
100
AcDbEntity
  8
\U+838C\U+8343\U+8384\U+815B_1
100
AcDbVertex
100
AcDb2dVertex
 10
227.5568250299164
 20
-160.5435166699336
 30
0.0
  0
VERTEX
  5
3C6
330
3C4
100
AcDbEntity
  8
\U+838C\U+8343\U+8384\U+815B_1
100
AcDbVertex
100
AcDb2dVertex
 10
226.6893499867305
 20
-161.9701307103755
 30
0.0
  0
SEQEND
  5
3C7
330
3C4
100
AcDbEntity
  8
\U+838C\U+8343\U+8384\U+815B_1
  0
POLYLINE
  5
3C8
330
3C
100
AcDbEntity
  8
\U+838C\U+8343\U+8384\U+815B_1
100
AcDb2dPolyline
 66
     1
 10
0.0
 20
0.0
 30
0.0
  0
VERTEX
  5
3C9
330
3C8
100
AcDbEntity
  8
\U+838C\U+8343\U+8384\U+815B_1
100
AcDbVertex
100
AcDb2dVertex
 10
226.1453694096095
 20
-160.8377278243739
 30
0.0
  0
VERTEX
  5
3CA
330
3C8
100
AcDbEntity
  8
\U+838C\U+8343\U+8384\U+815B_1
100
AcDbVertex
100
AcDb2dVertex
 10
225.3516194098079
 20
-160.0432888054753
 30
0.0
  0
SEQEND
  5
3CB
330
3C8
100
AcDbEntity
  8
\U+838C\U+8343\U+8384\U+815B_1
  0
POLYLINE
  5
3CC
330
3C
100
AcDbEntity
  8
\U+838C\U+8343\U+8384\U+815B_1
100
AcDb2dPolyline
 66
     1
 10
0.0
 20
0.0
 30
0.0
  0
VERTEX
  5
3CD
330
3CC
100
AcDbEntity
  8
\U+838C\U+8343\U+8384\U+815B_1
100
AcDbVertex
100
AcDb2dVertex
 10
225.2193277431743
 20
-164.397200479734
 30
0.0
  0
VERTEX
  5
3CE
330
3CC
100
AcDbEntity
  8
\U+838C\U+8343\U+8384\U+815B_1
100
AcDbVertex
100
AcDb2dVertex
 10
224.4400471444108
 20
-163.6320447724601
 30
0.0
  0
SEQEND
  5
3CF
330
3CC
100
AcDbEntity
  8
\U+838C\U+8343\U+8384\U+815B_1
  0
POLYLINE
  5
3D0
330
3C
100
AcDbEntity
  8
\U+838C\U+8343\U+8384\U+815B_1
100
AcDb2dPolyline
 66
     1
 10
0.0
 20
0.0
 30
0.0
  0
VERTEX
  5
3D1
330
3D0
100
AcDbEntity
  8
\U+838C\U+8343\U+8384\U+815B_1
100
AcDbVertex
100
AcDb2dVertex
 10
224.4400471444108
 20
-163.6320447724601
 30
0.0
  0
VERTEX
  5
3D2
330
3D0
100
AcDbEntity
  8
\U+838C\U+8343\U+8384\U+815B_1
100
AcDbVertex
100
AcDb2dVertex
 10
226.1453694096095
 20
-160.8377278243739
 30
0.0
  0
SEQEND
  5
3D3
330
3D0
100
AcDbEntity
  8
\U+838C\U+8343\U+8384\U+815B_1
  0
POLYLINE
  5
3D4
330
3C
100
AcDbEntity
  8
\U+838C\U+8343\U+8384\U+815B_1
100
AcDb2dPolyline
 66
     1
 10
0.0
 20
0.0
 30
0.0
  0
VERTEX
  5
3D5
330
3D4
100
AcDbEntity
  8
\U+838C\U+8343\U+8384\U+815B_1
100
AcDbVertex
100
AcDb2dVertex
 10
223.5284748790137
 20
-158.8078775644647
 30
0.0
  0
VERTEX
  5
3D6
330
3D4
100
AcDbEntity
  8
\U+838C\U+8343\U+8384\U+815B_1
100
AcDbVertex
100
AcDb2dVertex
 10
224.9692138109452
 20
-160.2344916049067
 30
0.0
  0
SEQEND
  5
3D7
330
3D4
100
AcDbEntity
  8
\U+838C\U+8343\U+8384\U+815B_1
  0
POLYLINE
  5
3D8
330
3C
100
AcDbEntity
  8
\U+838C\U+8343\U+8384\U+815B_1
100
AcDb2dPolyline
 66
     1
 10
0.0
 20
0.0
 30
0.0
  0
VERTEX
  5
3D9
330
3D8
100
AcDbEntity
  8
\U+838C\U+8343\U+8384\U+815B_1
100
AcDbVertex
100
AcDb2dVertex
 10
227.1010388972178
 20
-165.1031005446617
 30
0.0
  0
VERTEX
  5
3DA
330
3D8
100
AcDbEntity
  8
\U+838C\U+8343\U+8384\U+815B_1
100
AcDbVertex
100
AcDb2dVertex
 10
225.6602999652863
 20
-163.6764865042198
 30
0.0
  0
SEQEND
  5
3DB
330
3D8
100
AcDbEntity
  8
\U+838C\U+8343\U+8384\U+815B_1
  0
POLYLINE
  5
3DC
330
3C
100
AcDbEntity
  8
\U+838C\U+8343\U+8384\U+815B_1
100
AcDb2dPolyline
 66
     1
 10
0.0
 20
0.0
 30
0.0
  0
VERTEX
  5
3DD
330
3DC
100
AcDbEntity
  8
\U+838C\U+8343\U+8384\U+815B_1
100
AcDbVertex
100
AcDb2dVertex
 10
227.4834444960806
 20
-162.7497558186876
 30
0.0
  0
VERTEX
  5
3DE
330
3DC
100
AcDbEntity
  8
\U+838C\U+8343\U+8384\U+815B_1
100
AcDbVertex
100
AcDb2dVertex
 10
225.6602999652863
 20
-163.6764865042198
 30
0.0
  0
SEQEND
  5
3DF
330
3DC
100
AcDbEntity
  8
\U+838C\U+8343\U+8384\U+815B_1
  0
POLYLINE
  5
3E0
330
3C
100
AcDbEntity
  8
\U+838C\U+8343\U+8384\U+815B_1
100
AcDb2dPolyline
 66
     1
 10
0.0
 20
0.0
 30
0.0
  0
VERTEX
  5
3E1
330
3E0
100
AcDbEntity
  8
\U+838C\U+8343\U+8384\U+815B_1
100
AcDbVertex
100
AcDb2dVertex
 10
225.6602999652863
 20
-163.6764865042198
 30
0.0
  0
VERTEX
  5
3E2
330
3E0
100
AcDbEntity
  8
\U+838C\U+8343\U+8384\U+815B_1
100
AcDbVertex
100
AcDb2dVertex
 10
224.7928249221004
 20
-165.0882866340752
 30
0.0
  0
SEQEND
  5
3E3
330
3E0
100
AcDbEntity
  8
\U+838C\U+8343\U+8384\U+815B_1
  0
POLYLINE
  5
3E4
330
3C
100
AcDbEntity
  8
\U+838C\U+8343\U+8384\U+815B_1
100
AcDb2dPolyline
 66
     1
 10
0.0
 20
0.0
 30
0.0
  0
VERTEX
  5
3E5
330
3E4
100
AcDbEntity
  8
\U+838C\U+8343\U+8384\U+815B_1
100
AcDbVertex
100
AcDb2dVertex
 10
222.9552109902681
 20
-158.1901719439594
 30
0.0
  0
VERTEX
  5
3E6
330
3E4
100
AcDbEntity
  8
\U+838C\U+8343\U+8384\U+815B_1
100
AcDbVertex
100
AcDb2dVertex
 10
221.2643581261075
 20
-159.0431775861073
 30
0.0
  0
SEQEND
  5
3E7
330
3E4
100
AcDbEntity
  8
\U+838C\U+8343\U+8384\U+815B_1
  0
POLYLINE
  5
3E8
330
3C
100
AcDbEntity
  8
\U+838C\U+8343\U+8384\U+815B_1
100
AcDb2dPolyline
 66
     1
 10
0.0
 20
0.0
 30
0.0
  0
VERTEX
  5
3E9
330
3E8
100
AcDbEntity
  8
\U+838C\U+8343\U+8384\U+815B_1
100
AcDbVertex
100
AcDb2dVertex
 10
226.1453694096095
 20
-160.8377278243739
 30
0.0
  0
VERTEX
  5
3EA
330
3E8
100
AcDbEntity
  8
\U+838C\U+8343\U+8384\U+815B_1
100
AcDbVertex
100
AcDb2dVertex
 10
223.9253498789145
 20
-161.9408473987509
 30
0.0
  0
SEQEND
  5
3EB
330
3E8
100
AcDbEntity
  8
\U+838C\U+8343\U+8384\U+815B_1
  0
POLYLINE
  5
3EC
330
3C
100
AcDbEntity
  8
\U+838C\U+8343\U+8384\U+815B_1
100
AcDb2dPolyline
 66
     1
 10
0.0
 20
0.0
 30
0.0
  0
VERTEX
  5
3ED
330
3EC
100
AcDbEntity
  8
\U+838C\U+8343\U+8384\U+815B_1
100
AcDbVertex
100
AcDb2dVertex
 10
223.9253498789145
 20
-161.9408473987509
 30
0.0
  0
VERTEX
  5
3EE
330
3EC
100
AcDbEntity
  8
\U+838C\U+8343\U+8384\U+815B_1
100
AcDbVertex
100
AcDb2dVertex
 10
222.484610946983
 20
-160.4994194477224
 30
0.0
  0
SEQEND
  5
3EF
330
3EC
100
AcDbEntity
  8
\U+838C\U+8343\U+8384\U+815B_1
  0
POLYLINE
  5
3F0
330
3C
100
AcDbEntity
  8
\U+838C\U+8343\U+8384\U+815B_1
100
AcDb2dPolyline
 66
     1
 10
0.0
 20
0.0
 30
0.0
  0
VERTEX
  5
3F1
330
3F0
100
AcDbEntity
  8
\U+838C\U+8343\U+8384\U+815B_1
100
AcDbVertex
100
AcDb2dVertex
 10
223.0578748357286
 20
-163.3674614391929
 30
0.0
  0
VERTEX
  5
3F2
330
3F0
100
AcDbEntity
  8
\U+838C\U+8343\U+8384\U+815B_1
100
AcDbVertex
100
AcDb2dVertex
 10
223.9253498789145
 20
-161.9408473987509
 30
0.0
  0
SEQEND
  5
3F3
330
3F0
100
AcDbEntity
  8
\U+838C\U+8343\U+8384\U+815B_1
  0
POLYLINE
  5
3F4
330
3C
100
AcDbEntity
  8
\U+838C\U+8343\U+8384\U+815B_1
100
AcDb2dPolyline
 66
     1
 10
0.0
 20
0.0
 30
0.0
  0
VERTEX
  5
3F5
330
3F4
100
AcDbEntity
  8
\U+838C\U+8343\U+8384\U+815B_1
100
AcDbVertex
100
AcDb2dVertex
 10
224.4400471444108
 20
-163.6320447724601
 30
0.0
  0
VERTEX
  5
3F6
330
3F4
100
AcDbEntity
  8
\U+838C\U+8343\U+8384\U+815B_1
100
AcDbVertex
100
AcDb2dVertex
 10
222.3964165025606
 20
-164.6617838130012
 30
0.0
  0
SEQEND
  5
3F7
330
3F4
100
AcDbEntity
  8
\U+838C\U+8343\U+8384\U+815B_1
  0
POLYLINE
  5
3F8
330
3C
100
AcDbEntity
  8
\U+838C\U+8343\U+8384\U+815B_1
100
AcDb2dPolyline
 66
     1
 10
0.0
 20
0.0
 30
0.0
  0
VERTEX
  5
3F9
330
3F8
100
AcDbEntity
  8
\U+838C\U+8343\U+8384\U+815B_1
100
AcDbVertex
100
AcDb2dVertex
 10
229.1153862274434
 20
-170.3685844843176
 30
0.0
  0
VERTEX
  5
3FA
330
3F8
100
AcDbEntity
  8
\U+838C\U+8343\U+8384\U+815B_1
100
AcDbVertex
100
AcDb2dVertex
 10
229.5418890485173
 20
-170.4274956171154
 30
0.0
  0
VERTEX
  5
3FB
330
3F8
100
AcDbEntity
  8
\U+838C\U+8343\U+8384\U+815B_1
100
AcDbVertex
100
AcDb2dVertex
 10
229.9535779590047
 20
-170.4423095277019
 30
0.0
  0
VERTEX
  5
3FC
330
3F8
100
AcDbEntity
  8
\U+838C\U+8343\U+8384\U+815B_1
100
AcDbVertex
100
AcDb2dVertex
 10
230.365266869492
 20
-170.4423095277019
 30
0.0
  0
SEQEND
  5
3FD
330
3F8
100
AcDbEntity
  8
\U+838C\U+8343\U+8384\U+815B_1
  0
POLYLINE
  5
3FE
330
3C
100
AcDbEntity
  8
\U+838C\U+8343\U+8384\U+815B_1
100
AcDb2dPolyline
 66
     1
 10
0.0
 20
0.0
 30
0.0
  0
VERTEX
  5
3FF
330
3FE
100
AcDbEntity
  8
\U+838C\U+8343\U+8384\U+815B_1
100
AcDbVertex
100
AcDb2dVertex
 10
229.1153862274434
 20
-170.3685844843176
 30
0.0
  0
VERTEX
  5
400
330
3FE
100
AcDbEntity
  8
\U+838C\U+8343\U+8384\U+815B_1
100
AcDbVertex
100
AcDb2dVertex
 10
229.1450140486165
 20
-170.3685844843176
 30
0.0
  0
SEQEND
  5
401
330
3FE
100
AcDbEntity
  8
\U+838C\U+8343\U+8384\U+815B_1
  0
POLYLINE
  5
402
330
3C
100
AcDbEntity
  8
\U+838C\U+8343\U+8384\U+815B_1
100
AcDb2dPolyline
 66
     1
 10
0.0
 20
0.0
 30
0.0
  0
VERTEX
  5
403
330
402
100
AcDbEntity
  8
\U+838C\U+8343\U+8384\U+815B_1
100
AcDbVertex
100
AcDb2dVertex
 10
230.365266869492
 20
-170.4423095277019
 30
0.0
  0
VERTEX
  5
404
330
402
100
AcDbEntity
  8
\U+838C\U+8343\U+8384\U+815B_1
100
AcDbVertex
100
AcDb2dVertex
 10
230.7621418693928
 20
-170.3978677959422
 30
0.0
  0
SEQEND
  5
405
330
402
100
AcDbEntity
  8
\U+838C\U+8343\U+8384\U+815B_1
  0
POLYLINE
  5
406
330
3C
100
AcDbEntity
  8
\U+838C\U+8343\U+8384\U+815B_1
100
AcDb2dPolyline
 66
     1
 10
0.0
 20
0.0
 30
0.0
  0
VERTEX
  5
407
330
406
100
AcDbEntity
  8
\U+838C\U+8343\U+8384\U+815B_1
100
AcDbVertex
100
AcDb2dVertex
 10
230.7621418693928
 20
-170.3978677959422
 30
0.0
  0
VERTEX
  5
408
330
406
100
AcDbEntity
  8
\U+838C\U+8343\U+8384\U+815B_1
100
AcDbVertex
100
AcDb2dVertex
 10
231.1590168692936
 20
-170.339301172693
 30
0.0
  0
VERTEX
  5
409
330
406
100
AcDbEntity
  8
\U+838C\U+8343\U+8384\U+815B_1
100
AcDbVertex
100
AcDb2dVertex
 10
231.5562363787429
 20
-170.2511067282706
 30
0.0
  0
VERTEX
  5
40A
330
406
100
AcDbEntity
  8
\U+838C\U+8343\U+8384\U+815B_1
100
AcDbVertex
100
AcDb2dVertex
 10
231.9382974680571
 20
-170.1480983732616
 30
0.0
  0
VERTEX
  5
40B
330
406
100
AcDbEntity
  8
\U+838C\U+8343\U+8384\U+815B_1
100
AcDbVertex
100
AcDb2dVertex
 10
232.3058891563333
 20
-170.0009927960414
 30
0.0
  0
VERTEX
  5
40C
330
406
100
AcDbEntity
  8
\U+838C\U+8343\U+8384\U+815B_1
100
AcDbVertex
100
AcDb2dVertex
 10
232.6586669340228
 20
-169.8390733082347
 30
0.0
  0
VERTEX
  5
40D
330
406
100
AcDbEntity
  8
\U+838C\U+8343\U+8384\U+815B_1
100
AcDbVertex
100
AcDb2dVertex
 10
232.9969753106744
 20
-169.6626844193899
 30
0.0
  0
VERTEX
  5
40E
330
406
100
AcDbEntity
  8
\U+838C\U+8343\U+8384\U+815B_1
100
AcDbVertex
100
AcDb2dVertex
 10
233.3349391777774
 20
-169.4418537987854
 30
0.0
  0
VERTEX
  5
40F
330
406
100
AcDbEntity
  8
\U+838C\U+8343\U+8384\U+815B_1
100
AcDbVertex
100
AcDb2dVertex
 10
233.6439642428043
 20
-169.2065537771428
 30
0.0
  0
VERTEX
  5
410
330
406
100
AcDbEntity
  8
\U+838C\U+8343\U+8384\U+815B_1
100
AcDbVertex
100
AcDb2dVertex
 10
233.9526447982827
 20
-168.9419704438756
 30
0.0
  0
VERTEX
  5
411
330
406
100
AcDbEntity
  8
\U+838C\U+8343\U+8384\U+815B_1
100
AcDbVertex
100
AcDb2dVertex
 10
234.2320420421364
 20
-168.6770426010599
 30
0.0
  0
VERTEX
  5
412
330
406
100
AcDbEntity
  8
\U+838C\U+8343\U+8384\U+815B_1
100
AcDbVertex
100
AcDb2dVertex
 10
234.4966253754036
 20
-168.3683620455815
 30
0.0
  0
VERTEX
  5
413
330
406
100
AcDbEntity
  8
\U+838C\U+8343\U+8384\U+815B_1
100
AcDbVertex
100
AcDb2dVertex
 10
234.7612087086708
 20
-168.0448675795166
 30
0.0
  0
VERTEX
  5
414
330
406
100
AcDbEntity
  8
\U+838C\U+8343\U+8384\U+815B_1
100
AcDbVertex
100
AcDb2dVertex
 10
234.9965087303134
 20
-167.6917452922785
 30
0.0
  0
VERTEX
  5
415
330
406
100
AcDbEntity
  8
\U+838C\U+8343\U+8384\U+815B_1
100
AcDbVertex
100
AcDb2dVertex
 10
235.2021809307828
 20
-167.3241536040023
 30
0.0
  0
VERTEX
  5
416
330
406
100
AcDbEntity
  8
\U+838C\U+8343\U+8384\U+815B_1
100
AcDbVertex
100
AcDb2dVertex
 10
235.4081976408008
 20
-166.941403495591
 30
0.0
  0
VERTEX
  5
417
330
406
100
AcDbEntity
  8
\U+838C\U+8343\U+8384\U+815B_1
100
AcDbVertex
100
AcDb2dVertex
 10
235.569772619059
 20
-166.5445284956903
 30
0.0
  0
VERTEX
  5
418
330
406
100
AcDbEntity
  8
\U+838C\U+8343\U+8384\U+815B_1
100
AcDbVertex
100
AcDb2dVertex
 10
235.7316921068657
 20
-166.1324950756544
 30
0.0
  0
VERTEX
  5
419
330
406
100
AcDbEntity
  8
\U+838C\U+8343\U+8384\U+815B_1
100
AcDbVertex
100
AcDb2dVertex
 10
235.8639837734993
 20
-165.7059922545805
 30
0.0
  0
VERTEX
  5
41A
330
406
100
AcDbEntity
  8
\U+838C\U+8343\U+8384\U+815B_1
100
AcDbVertex
100
AcDb2dVertex
 10
235.9814615295463
 20
-165.26467552292
 30
0.0
  0
VERTEX
  5
41B
330
406
100
AcDbEntity
  8
\U+838C\U+8343\U+8384\U+815B_1
100
AcDbVertex
100
AcDb2dVertex
 10
236.0696559739687
 20
-164.8088893902214
 30
0.0
  0
VERTEX
  5
41C
330
406
100
AcDbEntity
  8
\U+838C\U+8343\U+8384\U+815B_1
100
AcDbVertex
100
AcDb2dVertex
 10
236.1285671067665
 20
-164.3382893469363
 30
0.0
  0
VERTEX
  5
41D
330
406
100
AcDbEntity
  8
\U+838C\U+8343\U+8384\U+815B_1
100
AcDbVertex
100
AcDb2dVertex
 10
236.1874782395643
 20
-163.8528753930646
 30
0.0
  0
VERTEX
  5
41E
330
406
100
AcDbEntity
  8
\U+838C\U+8343\U+8384\U+815B_1
100
AcDbVertex
100
AcDb2dVertex
 10
236.2019476406023
 20
-163.3674614391929
 30
0.0
  0
VERTEX
  5
41F
330
406
100
AcDbEntity
  8
\U+838C\U+8343\U+8384\U+815B_1
100
AcDbVertex
100
AcDb2dVertex
 10
236.2315754617755
 20
-162.8820474853212
 30
0.0
  0
VERTEX
  5
420
330
406
100
AcDbEntity
  8
\U+838C\U+8343\U+8384\U+815B_1
100
AcDbVertex
100
AcDb2dVertex
 10
236.2019476406023
 20
-162.3673502198248
 30
0.0
  0
VERTEX
  5
421
330
406
100
AcDbEntity
  8
\U+838C\U+8343\U+8384\U+815B_1
100
AcDbVertex
100
AcDb2dVertex
 10
236.1578504183911
 20
-161.8671223553665
 30
0.0
  0
VERTEX
  5
422
330
406
100
AcDbEntity
  8
\U+838C\U+8343\U+8384\U+815B_1
100
AcDbVertex
100
AcDb2dVertex
 10
236.0992837951418
 20
-161.3524250898702
 30
0.0
  0
VERTEX
  5
423
330
406
100
AcDbEntity
  8
\U+838C\U+8343\U+8384\U+815B_1
100
AcDbVertex
100
AcDb2dVertex
 10
236.0110893507195
 20
-160.852197225412
 30
0.0
  0
VERTEX
  5
424
330
406
100
AcDbEntity
  8
\U+838C\U+8343\U+8384\U+815B_1
100
AcDbVertex
100
AcDb2dVertex
 10
235.9080809957105
 20
-160.3374999599156
 30
0.0
  0
VERTEX
  5
425
330
406
100
AcDbEntity
  8
\U+838C\U+8343\U+8384\U+815B_1
100
AcDbVertex
100
AcDb2dVertex
 10
235.7906032396635
 20
-159.8228026944193
 30
0.0
  0
VERTEX
  5
426
330
406
100
AcDbEntity
  8
\U+838C\U+8343\U+8384\U+815B_1
100
AcDbVertex
100
AcDb2dVertex
 10
235.6286837518567
 20
-159.322574829961
 30
0.0
  0
VERTEX
  5
427
330
406
100
AcDbEntity
  8
\U+838C\U+8343\U+8384\U+815B_1
100
AcDbVertex
100
AcDb2dVertex
 10
235.4815781746366
 20
-158.8078775644647
 30
0.0
  0
VERTEX
  5
428
330
406
100
AcDbEntity
  8
\U+838C\U+8343\U+8384\U+815B_1
100
AcDbVertex
100
AcDb2dVertex
 10
235.2903753752052
 20
-158.3076497000064
 30
0.0
  0
VERTEX
  5
429
330
406
100
AcDbEntity
  8
\U+838C\U+8343\U+8384\U+815B_1
100
AcDbVertex
100
AcDb2dVertex
 10
235.0698892641492
 20
-157.8222357461347
 30
0.0
  0
VERTEX
  5
42A
330
406
100
AcDbEntity
  8
\U+838C\U+8343\U+8384\U+815B_1
100
AcDbVertex
100
AcDb2dVertex
 10
234.8494031530932
 20
-157.322352391225
 30
0.0
  0
VERTEX
  5
42B
330
406
100
AcDbEntity
  8
\U+838C\U+8343\U+8384\U+815B_1
100
AcDbVertex
100
AcDb2dVertex
 10
234.5996337304126
 20
-156.8517523479399
 30
0.0
  0
VERTEX
  5
42C
330
406
100
AcDbEntity
  8
\U+838C\U+8343\U+8384\U+815B_1
100
AcDbVertex
100
AcDb2dVertex
 10
234.3347058875969
 20
-156.3811523046547
 30
0.0
  0
VERTEX
  5
42D
330
406
100
AcDbEntity
  8
\U+838C\U+8343\U+8384\U+815B_1
100
AcDbVertex
100
AcDb2dVertex
 10
234.0556531532916
 20
-155.9398355729942
 30
0.0
  0
VERTEX
  5
42E
330
406
100
AcDbEntity
  8
\U+838C\U+8343\U+8384\U+815B_1
100
AcDbVertex
100
AcDb2dVertex
 10
233.7614419988513
 20
-155.4837049307471
 30
0.0
  0
VERTEX
  5
42F
330
406
100
AcDbEntity
  8
\U+838C\U+8343\U+8384\U+815B_1
100
AcDbVertex
100
AcDb2dVertex
 10
233.4527614433729
 20
-155.0572021096732
 30
0.0
  0
VERTEX
  5
430
330
406
100
AcDbEntity
  8
\U+838C\U+8343\U+8384\U+815B_1
100
AcDbVertex
100
AcDb2dVertex
 10
233.129266977308
 20
-154.6455131991858
 30
0.0
  0
VERTEX
  5
431
330
406
100
AcDbEntity
  8
\U+838C\U+8343\U+8384\U+815B_1
100
AcDbVertex
100
AcDb2dVertex
 10
232.7909586006564
 20
-154.2482936897366
 30
0.0
  0
VERTEX
  5
432
330
406
100
AcDbEntity
  8
\U+838C\U+8343\U+8384\U+815B_1
100
AcDbVertex
100
AcDb2dVertex
 10
232.4381808229668
 20
-153.8658880908738
 30
0.0
  0
VERTEX
  5
433
330
406
100
AcDbEntity
  8
\U+838C\U+8343\U+8384\U+815B_1
100
AcDbVertex
100
AcDb2dVertex
 10
232.0705891346907
 20
-153.4982964025976
 30
0.0
  0
VERTEX
  5
434
330
406
100
AcDbEntity
  8
\U+838C\U+8343\U+8384\U+815B_1
100
AcDbVertex
100
AcDb2dVertex
 10
231.7029974464145
 20
-153.1451741153595
 30
0.0
  0
VERTEX
  5
435
330
406
100
AcDbEntity
  8
\U+838C\U+8343\U+8384\U+815B_1
100
AcDbVertex
100
AcDb2dVertex
 10
231.3061224465138
 20
-152.8216796492946
 30
0.0
  0
VERTEX
  5
436
330
406
100
AcDbEntity
  8
\U+838C\U+8343\U+8384\U+815B_1
100
AcDbVertex
100
AcDb2dVertex
 10
230.909247446613
 20
-152.5274684948542
 30
0.0
  0
VERTEX
  5
437
330
406
100
AcDbEntity
  8
\U+838C\U+8343\U+8384\U+815B_1
100
AcDbVertex
100
AcDb2dVertex
 10
230.5120279371637
 20
-152.2480712510005
 30
0.0
  0
VERTEX
  5
438
330
406
100
AcDbEntity
  8
\U+838C\U+8343\U+8384\U+815B_1
100
AcDbVertex
100
AcDb2dVertex
 10
230.1151529372629
 20
-151.9831434081848
 30
0.0
  0
VERTEX
  5
439
330
406
100
AcDbEntity
  8
\U+838C\U+8343\U+8384\U+815B_1
100
AcDbVertex
100
AcDb2dVertex
 10
229.6889946257375
 20
-151.7478433865422
 30
0.0
  0
VERTEX
  5
43A
330
406
100
AcDbEntity
  8
\U+838C\U+8343\U+8384\U+815B_1
100
AcDbVertex
100
AcDb2dVertex
 10
229.2773057152501
 20
-151.5418266765243
 30
0.0
  0
VERTEX
  5
43B
330
406
100
AcDbEntity
  8
\U+838C\U+8343\U+8384\U+815B_1
100
AcDbVertex
100
AcDb2dVertex
 10
228.8508028941762
 20
-151.3361544760548
 30
0.0
  0
VERTEX
  5
43C
330
406
100
AcDbEntity
  8
\U+838C\U+8343\U+8384\U+815B_1
100
AcDbVertex
100
AcDb2dVertex
 10
228.4243000731023
 20
-151.1742349882481
 30
0.0
  0
VERTEX
  5
43D
330
406
100
AcDbEntity
  8
\U+838C\U+8343\U+8384\U+815B_1
100
AcDbVertex
100
AcDb2dVertex
 10
227.9981417615769
 20
-151.0419433216145
 30
0.0
  0
VERTEX
  5
43E
330
406
100
AcDbEntity
  8
\U+838C\U+8343\U+8384\U+815B_1
100
AcDbVertex
100
AcDb2dVertex
 10
227.5716389405029
 20
-150.9389349666056
 30
0.0
  0
SEQEND
  5
43F
330
406
100
AcDbEntity
  8
\U+838C\U+8343\U+8384\U+815B_1
  0
POLYLINE
  5
440
330
3C
100
AcDbEntity
  8
\U+838C\U+8343\U+8384\U+815B_1
100
AcDb2dPolyline
 66
     1
 10
0.0
 20
0.0
 30
0.0
  0
VERTEX
  5
441
330
440
100
AcDbEntity
  8
\U+838C\U+8343\U+8384\U+815B_1
100
AcDbVertex
100
AcDb2dVertex
 10
227.5716389405029
 20
-150.9389349666056
 30
0.0
  0
VERTEX
  5
442
330
440
100
AcDbEntity
  8
\U+838C\U+8343\U+8384\U+815B_1
100
AcDbVertex
100
AcDb2dVertex
 10
227.1454806289775
 20
-150.8507405221831
 30
0.0
  0
SEQEND
  5
443
330
440
100
AcDbEntity
  8
\U+838C\U+8343\U+8384\U+815B_1
  0
POLYLINE
  5
444
330
3C
100
AcDbEntity
  8
\U+838C\U+8343\U+8384\U+815B_1
100
AcDb2dPolyline
 66
     1
 10
0.0
 20
0.0
 30
0.0
  0
VERTEX
  5
445
330
444
100
AcDbEntity
  8
\U+838C\U+8343\U+8384\U+815B_1
100
AcDbVertex
100
AcDb2dVertex
 10
227.1454806289775
 20
-150.8507405221831
 30
0.0
  0
VERTEX
  5
446
330
444
100
AcDbEntity
  8
\U+838C\U+8343\U+8384\U+815B_1
100
AcDbVertex
100
AcDb2dVertex
 10
226.7334472089416
 20
-150.7770154787988
 30
0.0
  0
VERTEX
  5
447
330
444
100
AcDbEntity
  8
\U+838C\U+8343\U+8384\U+815B_1
100
AcDbVertex
100
AcDb2dVertex
 10
226.3221028080028
 20
-150.7477321671742
 30
0.0
  0
VERTEX
  5
448
330
444
100
AcDbEntity
  8
\U+838C\U+8343\U+8384\U+815B_1
100
AcDbVertex
100
AcDb2dVertex
 10
225.9104138975155
 20
-150.7477321671742
 30
0.0
  0
VERTEX
  5
449
330
444
100
AcDbEntity
  8
\U+838C\U+8343\U+8384\U+815B_1
100
AcDbVertex
100
AcDb2dVertex
 10
225.4987249870281
 20
-150.7625460777608
 30
0.0
  0
VERTEX
  5
44A
330
444
100
AcDbEntity
  8
\U+838C\U+8343\U+8384\U+815B_1
100
AcDbVertex
100
AcDb2dVertex
 10
225.0870360765408
 20
-150.82111270101
 30
0.0
  0
VERTEX
  5
44B
330
444
100
AcDbEntity
  8
\U+838C\U+8343\U+8384\U+815B_1
100
AcDbVertex
100
AcDb2dVertex
 10
224.704630477678
 20
-150.8800238338078
 30
0.0
  0
VERTEX
  5
44C
330
444
100
AcDbEntity
  8
\U+838C\U+8343\U+8384\U+815B_1
100
AcDbVertex
100
AcDb2dVertex
 10
224.3225693883638
 20
-150.9830321888167
 30
0.0
  0
VERTEX
  5
44D
330
444
100
AcDbEntity
  8
\U+838C\U+8343\U+8384\U+815B_1
100
AcDbVertex
100
AcDb2dVertex
 10
223.9401637895011
 20
-151.1008544544123
 30
0.0
  0
VERTEX
  5
44E
330
444
100
AcDbEntity
  8
\U+838C\U+8343\U+8384\U+815B_1
100
AcDbVertex
100
AcDb2dVertex
 10
223.5725721012249
 20
-151.2476155220839
 30
0.0
  0
VERTEX
  5
44F
330
444
100
AcDbEntity
  8
\U+838C\U+8343\U+8384\U+815B_1
100
AcDbVertex
100
AcDb2dVertex
 10
223.2197943235354
 20
-151.4243489204773
 30
0.0
  0
VERTEX
  5
450
330
444
100
AcDbEntity
  8
\U+838C\U+8343\U+8384\U+815B_1
100
AcDbVertex
100
AcDb2dVertex
 10
222.8962998574704
 20
-151.6303656304952
 30
0.0
  0
VERTEX
  5
451
330
444
100
AcDbEntity
  8
\U+838C\U+8343\U+8384\U+815B_1
100
AcDbVertex
100
AcDb2dVertex
 10
222.5728053914054
 20
-151.8656656521377
 30
0.0
  0
VERTEX
  5
452
330
444
100
AcDbEntity
  8
\U+838C\U+8343\U+8384\U+815B_1
100
AcDbVertex
100
AcDb2dVertex
 10
222.264124835927
 20
-152.1154350748184
 30
0.0
  0
VERTEX
  5
453
330
444
100
AcDbEntity
  8
\U+838C\U+8343\U+8384\U+815B_1
100
AcDbVertex
100
AcDb2dVertex
 10
221.9699136814867
 20
-152.3803629176341
 30
0.0
  0
VERTEX
  5
454
330
444
100
AcDbEntity
  8
\U+838C\U+8343\U+8384\U+815B_1
100
AcDbVertex
100
AcDb2dVertex
 10
221.6905164376329
 20
-152.6745740720744
 30
0.0
  0
SEQEND
  5
455
330
444
100
AcDbEntity
  8
\U+838C\U+8343\U+8384\U+815B_1
  0
POLYLINE
  5
456
330
3C
100
AcDbEntity
  8
\U+838C\U+8343\U+8384\U+815B_1
100
AcDb2dPolyline
 66
     1
 10
0.0
 20
0.0
 30
0.0
  0
VERTEX
  5
457
330
456
100
AcDbEntity
  8
\U+838C\U+8343\U+8384\U+815B_1
100
AcDbVertex
100
AcDb2dVertex
 10
221.6905164376329
 20
-152.6745740720744
 30
0.0
  0
VERTEX
  5
458
330
456
100
AcDbEntity
  8
\U+838C\U+8343\U+8384\U+815B_1
100
AcDbVertex
100
AcDb2dVertex
 10
221.4259331043658
 20
-152.9832546275528
 30
0.0
  0
SEQEND
  5
459
330
456
100
AcDbEntity
  8
\U+838C\U+8343\U+8384\U+815B_1
  0
POLYLINE
  5
45A
330
3C
100
AcDbEntity
  8
\U+838C\U+8343\U+8384\U+815B_1
100
AcDb2dPolyline
 66
     1
 10
0.0
 20
0.0
 30
0.0
  0
VERTEX
  5
45B
330
45A
100
AcDbEntity
  8
\U+838C\U+8343\U+8384\U+815B_1
100
AcDbVertex
100
AcDb2dVertex
 10
221.4259331043658
 20
-152.9832546275528
 30
0.0
  0
VERTEX
  5
45C
330
45A
100
AcDbEntity
  8
\U+838C\U+8343\U+8384\U+815B_1
100
AcDbVertex
100
AcDb2dVertex
 10
221.1906330827232
 20
-153.3215630042043
 30
0.0
  0
VERTEX
  5
45D
330
45A
100
AcDbEntity
  8
\U+838C\U+8343\U+8384\U+815B_1
100
AcDbVertex
100
AcDb2dVertex
 10
220.9701469716672
 20
-153.6746852914424
 30
0.0
  0
VERTEX
  5
45E
330
45A
100
AcDbEntity
  8
\U+838C\U+8343\U+8384\U+815B_1
100
AcDbVertex
100
AcDb2dVertex
 10
220.8526692156202
 20
-153.8658880908738
 30
0.0
  0
SEQEND
  5
45F
330
45A
100
AcDbEntity
  8
\U+838C\U+8343\U+8384\U+815B_1
  0
POLYLINE
  5
460
330
3C
100
AcDbEntity
  8
\U+838C\U+8343\U+8384\U+815B_1
100
AcDb2dPolyline
 66
     1
 10
0.0
 20
0.0
 30
0.0
  0
VERTEX
  5
461
330
460
100
AcDbEntity
  8
\U+838C\U+8343\U+8384\U+815B_1
100
AcDbVertex
100
AcDb2dVertex
 10
224.7928249221004
 20
-165.0882866340752
 30
0.0
  0
VERTEX
  5
462
330
460
100
AcDbEntity
  8
\U+838C\U+8343\U+8384\U+815B_1
100
AcDbVertex
100
AcDb2dVertex
 10
225.9396972091401
 20
-165.4117811001401
 30
0.0
  0
VERTEX
  5
463
330
460
100
AcDbEntity
  8
\U+838C\U+8343\U+8384\U+815B_1
100
AcDbVertex
100
AcDb2dVertex
 10
227.1010388972178
 20
-165.1031005446617
 30
0.0
  0
SEQEND
  5
464
330
460
100
AcDbEntity
  8
\U+838C\U+8343\U+8384\U+815B_1
  0
POLYLINE
  5
465
330
3C
100
AcDbEntity
  8
\U+838C\U+8343\U+8384\U+815B_1
100
AcDb2dPolyline
 66
     1
 10
0.0
 20
0.0
 30
0.0
  0
VERTEX
  5
466
330
465
100
AcDbEntity
  8
\U+838C\U+8343\U+8384\U+815B_1
100
AcDbVertex
100
AcDb2dVertex
 10
228.145247338797
 20
-163.4115586614041
 30
0.0
  0
VERTEX
  5
467
330
465
100
AcDbEntity
  8
\U+838C\U+8343\U+8384\U+815B_1
100
AcDbVertex
100
AcDb2dVertex
 10
228.1011501165858
 20
-161.9260334881643
 30
0.0
  0
VERTEX
  5
468
330
465
100
AcDbEntity
  8
\U+838C\U+8343\U+8384\U+815B_1
100
AcDbVertex
100
AcDb2dVertex
 10
227.5568250299164
 20
-160.5435166699336
 30
0.0
  0
SEQEND
  5
469
330
465
100
AcDbEntity
  8
\U+838C\U+8343\U+8384\U+815B_1
  0
POLYLINE
  5
46A
330
3C
100
AcDbEntity
  8
\U+838C\U+8343\U+8384\U+815B_1
100
AcDb2dPolyline
 66
     1
 10
0.0
 20
0.0
 30
0.0
  0
VERTEX
  5
46B
330
46A
100
AcDbEntity
  8
\U+838C\U+8343\U+8384\U+815B_1
100
AcDbVertex
100
AcDb2dVertex
 10
225.8366888541311
 20
-158.8226914750513
 30
0.0
  0
VERTEX
  5
46C
330
46A
100
AcDbEntity
  8
\U+838C\U+8343\U+8384\U+815B_1
100
AcDbVertex
100
AcDb2dVertex
 10
224.6898165670914
 20
-158.4988524994378
 30
0.0
  0
VERTEX
  5
46D
330
46A
100
AcDbEntity
  8
\U+838C\U+8343\U+8384\U+815B_1
100
AcDbVertex
100
AcDb2dVertex
 10
223.5284748790137
 20
-158.8078775644647
 30
0.0
  0
SEQEND
  5
46E
330
46A
100
AcDbEntity
  8
\U+838C\U+8343\U+8384\U+815B_1
  0
POLYLINE
  5
46F
330
3C
100
AcDbEntity
  8
\U+838C\U+8343\U+8384\U+815B_1
100
AcDb2dPolyline
 66
     1
 10
0.0
 20
0.0
 30
0.0
  0
VERTEX
  5
470
330
46F
100
AcDbEntity
  8
\U+838C\U+8343\U+8384\U+815B_1
100
AcDbVertex
100
AcDb2dVertex
 10
222.484610946983
 20
-160.4994194477224
 30
0.0
  0
VERTEX
  5
471
330
46F
100
AcDbEntity
  8
\U+838C\U+8343\U+8384\U+815B_1
100
AcDbVertex
100
AcDb2dVertex
 10
222.5287081691942
 20
-161.9849446209621
 30
0.0
  0
VERTEX
  5
472
330
46F
100
AcDbEntity
  8
\U+838C\U+8343\U+8384\U+815B_1
100
AcDbVertex
100
AcDb2dVertex
 10
223.0578748357286
 20
-163.3674614391929
 30
0.0
  0
SEQEND
  5
473
330
46F
100
AcDbEntity
  8
\U+838C\U+8343\U+8384\U+815B_1
  0
POLYLINE
  5
474
330
3C
100
AcDbEntity
  8
\U+838C\U+8343\U+8384\U+815B_1
100
AcDb2dPolyline
 66
     1
 10
0.0
 20
0.0
 30
0.0
  0
VERTEX
  5
475
330
474
100
AcDbEntity
  8
\U+838C\U+8343\U+8384\U+815B_1
100
AcDbVertex
100
AcDb2dVertex
 10
232.7616752890318
 20
-170.0450900182526
 30
0.0
  0
VERTEX
  5
476
330
474
100
AcDbEntity
  8
\U+838C\U+8343\U+8384\U+815B_1
100
AcDbVertex
100
AcDb2dVertex
 10
233.011789221261
 20
-169.9420816632436
 30
0.0
  0
VERTEX
  5
477
330
474
100
AcDbEntity
  8
\U+838C\U+8343\U+8384\U+815B_1
100
AcDbVertex
100
AcDb2dVertex
 10
233.3790363999886
 20
-169.7949760860235
 30
0.0
  0
SEQEND
  5
478
330
474
100
AcDbEntity
  8
\U+838C\U+8343\U+8384\U+815B_1
  0
POLYLINE
  5
479
330
3C
100
AcDbEntity
  8
\U+838C\U+8343\U+8384\U+815B_1
100
AcDb2dPolyline
 66
     1
 10
0.0
 20
0.0
 30
0.0
  0
VERTEX
  5
47A
330
479
100
AcDbEntity
  8
\U+838C\U+8343\U+8384\U+815B_1
100
AcDbVertex
100
AcDb2dVertex
 10
233.3790363999886
 20
-169.7949760860235
 30
0.0
  0
VERTEX
  5
47B
330
479
100
AcDbEntity
  8
\U+838C\U+8343\U+8384\U+815B_1
100
AcDbVertex
100
AcDb2dVertex
 10
233.7173447766401
 20
-169.5889593760055
 30
0.0
  0
SEQEND
  5
47C
330
479
100
AcDbEntity
  8
\U+838C\U+8343\U+8384\U+815B_1
  0
POLYLINE
  5
47D
330
3C
100
AcDbEntity
  8
\U+838C\U+8343\U+8384\U+815B_1
100
AcDb2dPolyline
 66
     1
 10
0.0
 20
0.0
 30
0.0
  0
VERTEX
  5
47E
330
47D
100
AcDbEntity
  8
\U+838C\U+8343\U+8384\U+815B_1
100
AcDbVertex
100
AcDb2dVertex
 10
233.7173447766401
 20
-169.5889593760055
 30
0.0
  0
VERTEX
  5
47F
330
47D
100
AcDbEntity
  8
\U+838C\U+8343\U+8384\U+815B_1
100
AcDbVertex
100
AcDb2dVertex
 10
234.0701225543297
 20
-169.3977565765742
 30
0.0
  0
VERTEX
  5
480
330
47D
100
AcDbEntity
  8
\U+838C\U+8343\U+8384\U+815B_1
100
AcDbVertex
100
AcDb2dVertex
 10
234.4084309309812
 20
-169.133173243307
 30
0.0
  0
VERTEX
  5
481
330
47D
100
AcDbEntity
  8
\U+838C\U+8343\U+8384\U+815B_1
100
AcDbVertex
100
AcDb2dVertex
 10
234.7171114864596
 20
-168.8830593110779
 30
0.0
  0
VERTEX
  5
482
330
47D
100
AcDbEntity
  8
\U+838C\U+8343\U+8384\U+815B_1
100
AcDbVertex
100
AcDb2dVertex
 10
234.9965087303134
 20
-168.6184759778107
 30
0.0
  0
VERTEX
  5
483
330
47D
100
AcDbEntity
  8
\U+838C\U+8343\U+8384\U+815B_1
100
AcDbVertex
100
AcDb2dVertex
 10
235.2759059741672
 20
-168.3094509127837
 30
0.0
  0
VERTEX
  5
484
330
47D
100
AcDbEntity
  8
\U+838C\U+8343\U+8384\U+815B_1
100
AcDbVertex
100
AcDb2dVertex
 10
235.5404893074343
 20
-167.9859564467188
 30
0.0
  0
VERTEX
  5
485
330
47D
100
AcDbEntity
  8
\U+838C\U+8343\U+8384\U+815B_1
100
AcDbVertex
100
AcDb2dVertex
 10
235.7906032396635
 20
-167.6476480700672
 30
0.0
  0
VERTEX
  5
486
330
47D
100
AcDbEntity
  8
\U+838C\U+8343\U+8384\U+815B_1
100
AcDbVertex
100
AcDb2dVertex
 10
235.9962754401329
 20
-167.2652424712045
 30
0.0
  0
VERTEX
  5
487
330
47D
100
AcDbEntity
  8
\U+838C\U+8343\U+8384\U+815B_1
100
AcDbVertex
100
AcDb2dVertex
 10
236.2019476406023
 20
-166.8973062733799
 30
0.0
  0
VERTEX
  5
488
330
47D
100
AcDbEntity
  8
\U+838C\U+8343\U+8384\U+815B_1
100
AcDbVertex
100
AcDb2dVertex
 10
236.3931504400337
 20
-166.4708034523059
 30
0.0
  0
VERTEX
  5
489
330
47D
100
AcDbEntity
  8
\U+838C\U+8343\U+8384\U+815B_1
100
AcDbVertex
100
AcDb2dVertex
 10
236.5550699278404
 20
-166.0591145418186
 30
0.0
  0
VERTEX
  5
48A
330
47D
100
AcDbEntity
  8
\U+838C\U+8343\U+8384\U+815B_1
100
AcDbVertex
100
AcDb2dVertex
 10
236.7021755050606
 20
-165.6326117207446
 30
0.0
  0
VERTEX
  5
48B
330
47D
100
AcDbEntity
  8
\U+838C\U+8343\U+8384\U+815B_1
100
AcDbVertex
100
AcDb2dVertex
 10
236.8196532611076
 20
-165.1912949890841
 30
0.0
  0
VERTEX
  5
48C
330
47D
100
AcDbEntity
  8
\U+838C\U+8343\U+8384\U+815B_1
100
AcDbVertex
100
AcDb2dVertex
 10
236.9226616161166
 20
-164.720694945799
 30
0.0
  0
VERTEX
  5
48D
330
47D
100
AcDbEntity
  8
\U+838C\U+8343\U+8384\U+815B_1
100
AcDbVertex
100
AcDb2dVertex
 10
236.9960421499524
 20
-164.2500949025139
 30
0.0
  0
VERTEX
  5
48E
330
47D
100
AcDbEntity
  8
\U+838C\U+8343\U+8384\U+815B_1
100
AcDbVertex
100
AcDb2dVertex
 10
237.0549532827501
 20
-163.7646809486422
 30
0.0
  0
VERTEX
  5
48F
330
47D
100
AcDbEntity
  8
\U+838C\U+8343\U+8384\U+815B_1
100
AcDbVertex
100
AcDb2dVertex
 10
237.0842365943748
 20
-163.2644530841839
 30
0.0
  0
VERTEX
  5
490
330
47D
100
AcDbEntity
  8
\U+838C\U+8343\U+8384\U+815B_1
100
AcDbVertex
100
AcDb2dVertex
 10
237.0990505049614
 20
-162.7790391303122
 30
0.0
  0
VERTEX
  5
491
330
47D
100
AcDbEntity
  8
\U+838C\U+8343\U+8384\U+815B_1
100
AcDbVertex
100
AcDb2dVertex
 10
237.0842365943748
 20
-162.2643418648159
 30
0.0
  0
VERTEX
  5
492
330
47D
100
AcDbEntity
  8
\U+838C\U+8343\U+8384\U+815B_1
100
AcDbVertex
100
AcDb2dVertex
 10
237.0694226837882
 20
-161.7496445993195
 30
0.0
  0
VERTEX
  5
493
330
47D
100
AcDbEntity
  8
\U+838C\U+8343\U+8384\U+815B_1
100
AcDbVertex
100
AcDb2dVertex
 10
236.9960421499524
 20
-161.2346028242747
 30
0.0
  0
VERTEX
  5
494
330
47D
100
AcDbEntity
  8
\U+838C\U+8343\U+8384\U+815B_1
100
AcDbVertex
100
AcDb2dVertex
 10
236.9226616161166
 20
-160.7199055587784
 30
0.0
  0
VERTEX
  5
495
330
47D
100
AcDbEntity
  8
\U+838C\U+8343\U+8384\U+815B_1
100
AcDbVertex
100
AcDb2dVertex
 10
236.8196532611076
 20
-160.1903943826955
 30
0.0
  0
VERTEX
  5
496
330
47D
100
AcDbEntity
  8
\U+838C\U+8343\U+8384\U+815B_1
100
AcDbVertex
100
AcDb2dVertex
 10
236.7021755050606
 20
-159.6756971171991
 30
0.0
  0
VERTEX
  5
497
330
47D
100
AcDbEntity
  8
\U+838C\U+8343\U+8384\U+815B_1
100
AcDbVertex
100
AcDb2dVertex
 10
236.5695393288784
 20
-159.1609998517028
 30
0.0
  0
VERTEX
  5
498
330
47D
100
AcDbEntity
  8
\U+838C\U+8343\U+8384\U+815B_1
100
AcDbVertex
100
AcDb2dVertex
 10
236.4079643506202
 20
-158.645958076658
 30
0.0
  0
VERTEX
  5
499
330
47D
100
AcDbEntity
  8
\U+838C\U+8343\U+8384\U+815B_1
100
AcDbVertex
100
AcDb2dVertex
 10
236.2019476406023
 20
-158.1312608111616
 30
0.0
  0
VERTEX
  5
49A
330
47D
100
AcDbEntity
  8
\U+838C\U+8343\U+8384\U+815B_1
100
AcDbVertex
100
AcDb2dVertex
 10
236.0110893507195
 20
-157.6165635456653
 30
0.0
  0
VERTEX
  5
49B
330
47D
100
AcDbEntity
  8
\U+838C\U+8343\U+8384\U+815B_1
100
AcDbVertex
100
AcDb2dVertex
 10
235.7906032396635
 20
-157.116335681207
 30
0.0
  0
VERTEX
  5
49C
330
47D
100
AcDbEntity
  8
\U+838C\U+8343\U+8384\U+815B_1
100
AcDbVertex
100
AcDb2dVertex
 10
235.5553032180209
 20
-156.6309217273353
 30
0.0
  0
VERTEX
  5
49D
330
47D
100
AcDbEntity
  8
\U+838C\U+8343\U+8384\U+815B_1
100
AcDbVertex
100
AcDb2dVertex
 10
235.2903753752052
 20
-156.1603216840502
 30
0.0
  0
VERTEX
  5
49E
330
47D
100
AcDbEntity
  8
\U+838C\U+8343\U+8384\U+815B_1
100
AcDbVertex
100
AcDb2dVertex
 10
235.0113226408999
 20
-155.6897216407651
 30
0.0
  0
VERTEX
  5
49F
330
47D
100
AcDbEntity
  8
\U+838C\U+8343\U+8384\U+815B_1
100
AcDbVertex
100
AcDb2dVertex
 10
234.7319253970462
 20
-155.233590998518
 30
0.0
  0
VERTEX
  5
4A0
330
47D
100
AcDbEntity
  8
\U+838C\U+8343\U+8384\U+815B_1
100
AcDbVertex
100
AcDb2dVertex
 10
234.4232448415678
 20
-154.7778048658194
 30
0.0
  0
VERTEX
  5
4A1
330
47D
100
AcDbEntity
  8
\U+838C\U+8343\U+8384\U+815B_1
100
AcDbVertex
100
AcDb2dVertex
 10
234.0849364649163
 20
-154.3513020447455
 30
0.0
  0
VERTEX
  5
4A2
330
47D
100
AcDbEntity
  8
\U+838C\U+8343\U+8384\U+815B_1
100
AcDbVertex
100
AcDb2dVertex
 10
233.7466280882647
 20
-153.9392686247096
 30
0.0
  0
VERTEX
  5
4A3
330
47D
100
AcDbEntity
  8
\U+838C\U+8343\U+8384\U+815B_1
100
AcDbVertex
100
AcDb2dVertex
 10
233.3938503105751
 20
-153.5423936248089
 30
0.0
  0
VERTEX
  5
4A4
330
47D
100
AcDbEntity
  8
\U+838C\U+8343\U+8384\U+815B_1
100
AcDbVertex
100
AcDb2dVertex
 10
233.0410725328856
 20
-153.1599880259461
 30
0.0
  0
VERTEX
  5
4A5
330
47D
100
AcDbEntity
  8
\U+838C\U+8343\U+8384\U+815B_1
100
AcDbVertex
100
AcDb2dVertex
 10
232.6441975329848
 20
-152.7920518281214
 30
0.0
  0
VERTEX
  5
4A6
330
47D
100
AcDbEntity
  8
\U+838C\U+8343\U+8384\U+815B_1
100
AcDbVertex
100
AcDb2dVertex
 10
232.2617919341221
 20
-152.4537434514699
 30
0.0
  0
VERTEX
  5
4A7
330
47D
100
AcDbEntity
  8
\U+838C\U+8343\U+8384\U+815B_1
100
AcDbVertex
100
AcDb2dVertex
 10
231.8793863352593
 20
-152.1450628959915
 30
0.0
  0
VERTEX
  5
4A8
330
47D
100
AcDbEntity
  8
\U+838C\U+8343\U+8384\U+815B_1
100
AcDbVertex
100
AcDb2dVertex
 10
231.467697424772
 20
-151.8360378309646
 30
0.0
  0
VERTEX
  5
4A9
330
47D
100
AcDbEntity
  8
\U+838C\U+8343\U+8384\U+815B_1
100
AcDbVertex
100
AcDb2dVertex
 10
231.0563530238331
 20
-151.5566405871108
 30
0.0
  0
VERTEX
  5
4AA
330
47D
100
AcDbEntity
  8
\U+838C\U+8343\U+8384\U+815B_1
100
AcDbVertex
100
AcDb2dVertex
 10
230.6446641133458
 20
-151.3065266548817
 30
0.0
  0
VERTEX
  5
4AB
330
47D
100
AcDbEntity
  8
\U+838C\U+8343\U+8384\U+815B_1
100
AcDbVertex
100
AcDb2dVertex
 10
230.2181612922719
 20
-151.0860405438257
 30
0.0
  0
VERTEX
  5
4AC
330
47D
100
AcDbEntity
  8
\U+838C\U+8343\U+8384\U+815B_1
100
AcDbVertex
100
AcDb2dVertex
 10
229.7916584711979
 20
-150.8800238338078
 30
0.0
  0
VERTEX
  5
4AD
330
47D
100
AcDbEntity
  8
\U+838C\U+8343\U+8384\U+815B_1
100
AcDbVertex
100
AcDb2dVertex
 10
229.350686249086
 20
-150.6888210343764
 30
0.0
  0
VERTEX
  5
4AE
330
47D
100
AcDbEntity
  8
\U+838C\U+8343\U+8384\U+815B_1
100
AcDbVertex
100
AcDb2dVertex
 10
228.924183428012
 20
-150.5417154571562
 30
0.0
  0
VERTEX
  5
4AF
330
47D
100
AcDbEntity
  8
\U+838C\U+8343\U+8384\U+815B_1
100
AcDbVertex
100
AcDb2dVertex
 10
228.4980251164866
 20
-150.4094237905227
 30
0.0
  0
VERTEX
  5
4B0
330
47D
100
AcDbEntity
  8
\U+838C\U+8343\U+8384\U+815B_1
100
AcDbVertex
100
AcDb2dVertex
 10
228.0715222954127
 20
-150.3064154355137
 30
0.0
  0
VERTEX
  5
4B1
330
47D
100
AcDbEntity
  8
\U+838C\U+8343\U+8384\U+815B_1
100
AcDbVertex
100
AcDb2dVertex
 10
227.6305500733007
 20
-150.2330349016779
 30
0.0
  0
VERTEX
  5
4B2
330
47D
100
AcDbEntity
  8
\U+838C\U+8343\U+8384\U+815B_1
100
AcDbVertex
100
AcDb2dVertex
 10
227.2040472522268
 20
-150.1889376794666
 30
0.0
  0
VERTEX
  5
4B3
330
47D
100
AcDbEntity
  8
\U+838C\U+8343\U+8384\U+815B_1
100
AcDbVertex
100
AcDb2dVertex
 10
226.7778889407014
 20
-150.1593098582935
 30
0.0
  0
VERTEX
  5
4B4
330
47D
100
AcDbEntity
  8
\U+838C\U+8343\U+8384\U+815B_1
100
AcDbVertex
100
AcDb2dVertex
 10
226.366200030214
 20
-150.1593098582935
 30
0.0
  0
VERTEX
  5
4B5
330
47D
100
AcDbEntity
  8
\U+838C\U+8343\U+8384\U+815B_1
100
AcDbVertex
100
AcDb2dVertex
 10
225.9545111197266
 20
-150.1889376794666
 30
0.0
  0
VERTEX
  5
4B6
330
47D
100
AcDbEntity
  8
\U+838C\U+8343\U+8384\U+815B_1
100
AcDbVertex
100
AcDb2dVertex
 10
225.5428222092393
 20
-150.2475043027159
 30
0.0
  0
VERTEX
  5
4B7
330
47D
100
AcDbEntity
  8
\U+838C\U+8343\U+8384\U+815B_1
100
AcDbVertex
100
AcDb2dVertex
 10
225.14560269979
 20
-150.3360432566868
 30
0.0
  0
VERTEX
  5
4B8
330
47D
100
AcDbEntity
  8
\U+838C\U+8343\U+8384\U+815B_1
100
AcDbVertex
100
AcDb2dVertex
 10
224.7487276998892
 20
-150.4387071021473
 30
0.0
  0
VERTEX
  5
4B9
330
47D
100
AcDbEntity
  8
\U+838C\U+8343\U+8384\U+815B_1
100
AcDbVertex
100
AcDb2dVertex
 10
224.3811360116131
 20
-150.5713432783294
 30
0.0
  0
VERTEX
  5
4BA
330
47D
100
AcDbEntity
  8
\U+838C\U+8343\U+8384\U+815B_1
100
AcDbVertex
100
AcDb2dVertex
 10
224.0135443233369
 20
-150.7329182565876
 30
0.0
  0
VERTEX
  5
4BB
330
47D
100
AcDbEntity
  8
\U+838C\U+8343\U+8384\U+815B_1
100
AcDbVertex
100
AcDb2dVertex
 10
223.6607665456473
 20
-150.924121056019
 30
0.0
  0
VERTEX
  5
4BC
330
47D
100
AcDbEntity
  8
\U+838C\U+8343\U+8384\U+815B_1
100
AcDbVertex
100
AcDb2dVertex
 10
223.3372720795824
 20
-151.1301377660369
 30
0.0
  0
SEQEND
  5
4BD
330
47D
100
AcDbEntity
  8
\U+838C\U+8343\U+8384\U+815B_1
  0
POLYLINE
  5
4BE
330
3C
100
AcDbEntity
  8
\U+838C\U+8343\U+8384\U+815B_1
100
AcDb2dPolyline
 66
     1
 10
0.0
 20
0.0
 30
0.0
  0
VERTEX
  5
4BF
330
4BE
100
AcDbEntity
  8
\U+838C\U+8343\U+8384\U+815B_1
100
AcDbVertex
100
AcDb2dVertex
 10
223.3372720795824
 20
-151.1301377660369
 30
0.0
  0
VERTEX
  5
4C0
330
4BE
100
AcDbEntity
  8
\U+838C\U+8343\U+8384\U+815B_1
100
AcDbVertex
100
AcDb2dVertex
 10
223.3224581689958
 20
-151.1301377660369
 30
0.0
  0
SEQEND
  5
4C1
330
4BE
100
AcDbEntity
  8
\U+838C\U+8343\U+8384\U+815B_1
  0
POLYLINE
  5
4C2
330
3C
100
AcDbEntity
  8
\U+838C\U+8343\U+8384\U+815B_1
100
AcDb2dPolyline
 66
     1
 10
0.0
 20
0.0
 30
0.0
  0
VERTEX
  5
4C3
330
4C2
100
AcDbEntity
  8
\U+838C\U+8343\U+8384\U+815B_1
100
AcDbVertex
100
AcDb2dVertex
 10
233.8055392210625
 20
-152.7334852048722
 30
0.0
  0
VERTEX
  5
4C4
330
4C2
100
AcDbEntity
  8
\U+838C\U+8343\U+8384\U+815B_1
100
AcDbVertex
100
AcDb2dVertex
 10
234.1583169987521
 20
-153.1158908037349
 30
0.0
  0
VERTEX
  5
4C5
330
4C2
100
AcDbEntity
  8
\U+838C\U+8343\U+8384\U+815B_1
100
AcDbVertex
100
AcDb2dVertex
 10
234.5114392859902
 20
-153.4982964025976
 30
0.0
  0
VERTEX
  5
4C6
330
4C2
100
AcDbEntity
  8
\U+838C\U+8343\U+8384\U+815B_1
100
AcDbVertex
100
AcDb2dVertex
 10
234.8642170636798
 20
-153.9247992236716
 30
0.0
  0
VERTEX
  5
4C7
330
4C2
100
AcDbEntity
  8
\U+838C\U+8343\U+8384\U+815B_1
100
AcDbVertex
100
AcDb2dVertex
 10
235.1877115297447
 20
-154.3513020447455
 30
0.0
  0
VERTEX
  5
4C8
330
4C2
100
AcDbEntity
  8
\U+838C\U+8343\U+8384\U+815B_1
100
AcDbVertex
100
AcDb2dVertex
 10
235.4815781746366
 20
-154.792618776406
 30
0.0
  0
VERTEX
  5
4C9
330
4C2
100
AcDbEntity
  8
\U+838C\U+8343\U+8384\U+815B_1
100
AcDbVertex
100
AcDb2dVertex
 10
235.7906032396635
 20
-155.2484049091046
 30
0.0
  0
VERTEX
  5
4CA
330
4C2
100
AcDbEntity
  8
\U+838C\U+8343\U+8384\U+815B_1
100
AcDbVertex
100
AcDb2dVertex
 10
236.0551865729307
 20
-155.7338188629763
 30
0.0
  0
VERTEX
  5
4CB
330
4C2
100
AcDbEntity
  8
\U+838C\U+8343\U+8384\U+815B_1
100
AcDbVertex
100
AcDb2dVertex
 10
236.3197699061978
 20
-156.2044189062614
 30
0.0
  0
VERTEX
  5
4CC
330
4C2
100
AcDbEntity
  8
\U+838C\U+8343\U+8384\U+815B_1
100
AcDbVertex
100
AcDb2dVertex
 10
236.5695393288784
 20
-156.6898328601331
 30
0.0
  0
VERTEX
  5
4CD
330
4C2
100
AcDbEntity
  8
\U+838C\U+8343\U+8384\U+815B_1
100
AcDbVertex
100
AcDb2dVertex
 10
236.804839350521
 20
-157.1900607245914
 30
0.0
  0
VERTEX
  5
4CE
330
4C2
100
AcDbEntity
  8
\U+838C\U+8343\U+8384\U+815B_1
100
AcDbVertex
100
AcDb2dVertex
 10
236.9960421499524
 20
-157.6899440795011
 30
0.0
  0
VERTEX
  5
4CF
330
4C2
100
AcDbEntity
  8
\U+838C\U+8343\U+8384\U+815B_1
100
AcDbVertex
100
AcDb2dVertex
 10
237.1872449493838
 20
-158.219455255584
 30
0.0
  0
VERTEX
  5
4D0
330
4C2
100
AcDbEntity
  8
\U+838C\U+8343\U+8384\U+815B_1
100
AcDbVertex
100
AcDb2dVertex
 10
237.348819927642
 20
-158.7196831200423
 30
0.0
  0
VERTEX
  5
4D1
330
4C2
100
AcDbEntity
  8
\U+838C\U+8343\U+8384\U+815B_1
100
AcDbVertex
100
AcDb2dVertex
 10
237.4811115942756
 20
-159.2491942961252
 30
0.0
  0
VERTEX
  5
4D2
330
4C2
100
AcDbEntity
  8
\U+838C\U+8343\U+8384\U+815B_1
100
AcDbVertex
100
AcDb2dVertex
 10
237.6137477704577
 20
-159.7638915616215
 30
0.0
  0
VERTEX
  5
4D3
330
4C2
100
AcDbEntity
  8
\U+838C\U+8343\U+8384\U+815B_1
100
AcDbVertex
100
AcDb2dVertex
 10
237.7164116159181
 20
-160.2934027377044
 30
0.0
  0
VERTEX
  5
4D4
330
4C2
100
AcDbEntity
  8
\U+838C\U+8343\U+8384\U+815B_1
100
AcDbVertex
100
AcDb2dVertex
 10
237.8046060603405
 20
-160.8081000032008
 30
0.0
  0
VERTEX
  5
4D5
330
4C2
100
AcDbEntity
  8
\U+838C\U+8343\U+8384\U+815B_1
100
AcDbVertex
100
AcDb2dVertex
 10
237.8635171931383
 20
-161.3231417782456
 30
0.0
  0
VERTEX
  5
4D6
330
4C2
100
AcDbEntity
  8
\U+838C\U+8343\U+8384\U+815B_1
100
AcDbVertex
100
AcDb2dVertex
 10
237.8928005047629
 20
-161.8378390437419
 30
0.0
  0
VERTEX
  5
4D7
330
4C2
100
AcDbEntity
  8
\U+838C\U+8343\U+8384\U+815B_1
100
AcDbVertex
100
AcDb2dVertex
 10
237.9076144153495
 20
-162.3525363092383
 30
0.0
  0
VERTEX
  5
4D8
330
4C2
100
AcDbEntity
  8
\U+838C\U+8343\U+8384\U+815B_1
100
AcDbVertex
100
AcDb2dVertex
 10
237.8928005047629
 20
-162.8527641736965
 30
0.0
  0
VERTEX
  5
4D9
330
4C2
100
AcDbEntity
  8
\U+838C\U+8343\U+8384\U+815B_1
100
AcDbVertex
100
AcDb2dVertex
 10
237.8783311037249
 20
-163.3526475286063
 30
0.0
  0
VERTEX
  5
4DA
330
4C2
100
AcDbEntity
  8
\U+838C\U+8343\U+8384\U+815B_1
100
AcDbVertex
100
AcDb2dVertex
 10
237.8046060603405
 20
-163.838061482478
 30
0.0
  0
VERTEX
  5
4DB
330
4C2
100
AcDbEntity
  8
\U+838C\U+8343\U+8384\U+815B_1
100
AcDbVertex
100
AcDb2dVertex
 10
237.7312255265047
 20
-164.3086615257631
 30
0.0
  0
VERTEX
  5
4DC
330
4C2
100
AcDbEntity
  8
\U+838C\U+8343\U+8384\U+815B_1
100
AcDbVertex
100
AcDb2dVertex
 10
237.6430310820823
 20
-164.7647921680102
 30
0.0
  0
VERTEX
  5
4DD
330
4C2
100
AcDbEntity
  8
\U+838C\U+8343\U+8384\U+815B_1
100
AcDbVertex
100
AcDb2dVertex
 10
237.5252088164868
 20
-165.2205783007088
 30
0.0
  0
VERTEX
  5
4DE
330
4C2
100
AcDbEntity
  8
\U+838C\U+8343\U+8384\U+815B_1
100
AcDbVertex
100
AcDb2dVertex
 10
237.3929171498532
 20
-165.6618950323692
 30
0.0
  0
VERTEX
  5
4DF
330
4C2
100
AcDbEntity
  8
\U+838C\U+8343\U+8384\U+815B_1
100
AcDbVertex
100
AcDb2dVertex
 10
237.2313421715949
 20
-166.0883978534432
 30
0.0
  0
VERTEX
  5
4E0
330
4C2
100
AcDbEntity
  8
\U+838C\U+8343\U+8384\U+815B_1
100
AcDbVertex
100
AcDb2dVertex
 10
237.0549532827501
 20
-166.4856173628925
 30
0.0
  0
VERTEX
  5
4E1
330
4C2
100
AcDbEntity
  8
\U+838C\U+8343\U+8384\U+815B_1
100
AcDbVertex
100
AcDb2dVertex
 10
236.8489365727322
 20
-166.8828368723418
 30
0.0
  0
VERTEX
  5
4E2
330
4C2
100
AcDbEntity
  8
\U+838C\U+8343\U+8384\U+815B_1
100
AcDbVertex
100
AcDb2dVertex
 10
236.6432643722628
 20
-167.250428560618
 30
0.0
  0
VERTEX
  5
4E3
330
4C2
100
AcDbEntity
  8
\U+838C\U+8343\U+8384\U+815B_1
100
AcDbVertex
100
AcDb2dVertex
 10
236.4079643506202
 20
-167.6035508478561
 30
0.0
  0
VERTEX
  5
4E4
330
4C2
100
AcDbEntity
  8
\U+838C\U+8343\U+8384\U+815B_1
100
AcDbVertex
100
AcDb2dVertex
 10
236.1285671067665
 20
-167.9418592245076
 30
0.0
  0
VERTEX
  5
4E5
330
4C2
100
AcDbEntity
  8
\U+838C\U+8343\U+8384\U+815B_1
100
AcDbVertex
100
AcDb2dVertex
 10
235.8639837734993
 20
-168.2360703789479
 30
0.0
  0
VERTEX
  5
4E6
330
4C2
100
AcDbEntity
  8
\U+838C\U+8343\U+8384\U+815B_1
100
AcDbVertex
100
AcDb2dVertex
 10
235.569772619059
 20
-168.5447509344263
 30
0.0
  0
VERTEX
  5
4E7
330
4C2
100
AcDbEntity
  8
\U+838C\U+8343\U+8384\U+815B_1
100
AcDbVertex
100
AcDb2dVertex
 10
235.2759059741672
 20
-168.7948648666554
 30
0.0
  0
VERTEX
  5
4E8
330
4C2
100
AcDbEntity
  8
\U+838C\U+8343\U+8384\U+815B_1
100
AcDbVertex
100
AcDb2dVertex
 10
234.9524115081022
 20
-169.0449787988846
 30
0.0
  0
VERTEX
  5
4E9
330
4C2
100
AcDbEntity
  8
\U+838C\U+8343\U+8384\U+815B_1
100
AcDbVertex
100
AcDb2dVertex
 10
234.6141031314507
 20
-169.2654649099406
 30
0.0
  0
VERTEX
  5
4EA
330
4C2
100
AcDbEntity
  8
\U+838C\U+8343\U+8384\U+815B_1
100
AcDbVertex
100
AcDb2dVertex
 10
234.2613253537611
 20
-169.4566677093719
 30
0.0
  0
VERTEX
  5
4EB
330
4C2
100
AcDbEntity
  8
\U+838C\U+8343\U+8384\U+815B_1
100
AcDbVertex
100
AcDb2dVertex
 10
233.9085475760715
 20
-169.6330565982167
 30
0.0
  0
SEQEND
  5
4EC
330
4C2
100
AcDbEntity
  8
\U+838C\U+8343\U+8384\U+815B_1
  0
POLYLINE
  5
4ED
330
3C
100
AcDbEntity
  8
\U+838C\U+8343\U+8384\U+815B_1
100
AcDb2dPolyline
 66
     1
 10
0.0
 20
0.0
 30
0.0
  0
VERTEX
  5
4EE
330
4ED
100
AcDbEntity
  8
\U+838C\U+8343\U+8384\U+815B_1
100
AcDbVertex
100
AcDb2dVertex
 10
233.9085475760715
 20
-169.6330565982167
 30
0.0
  0
VERTEX
  5
4EF
330
4ED
100
AcDbEntity
  8
\U+838C\U+8343\U+8384\U+815B_1
100
AcDbVertex
100
AcDb2dVertex
 10
233.5409558877953
 20
-169.7656927743989
 30
0.0
  0
SEQEND
  5
4F0
330
4ED
100
AcDbEntity
  8
\U+838C\U+8343\U+8384\U+815B_1
  0
POLYLINE
  5
4F1
330
3C
100
AcDbEntity
  8
\U+838C\U+8343\U+8384\U+815B_1
100
AcDb2dPolyline
 66
     1
 10
0.0
 20
0.0
 30
0.0
  0
VERTEX
  5
4F2
330
4F1
100
AcDbEntity
  8
\U+838C\U+8343\U+8384\U+815B_1
100
AcDbVertex
100
AcDb2dVertex
 10
233.8055392210625
 20
-152.7334852048722
 30
0.0
  0
VERTEX
  5
4F3
330
4F1
100
AcDbEntity
  8
\U+838C\U+8343\U+8384\U+815B_1
100
AcDbVertex
100
AcDb2dVertex
 10
231.7470946686257
 20
-150.9096516549809
 30
0.0
  0
VERTEX
  5
4F4
330
4F1
100
AcDbEntity
  8
\U+838C\U+8343\U+8384\U+815B_1
100
AcDbVertex
100
AcDb2dVertex
 10
229.2624918046635
 20
-149.9388237472375
 30
0.0
  0
VERTEX
  5
4F5
330
4F1
100
AcDbEntity
  8
\U+838C\U+8343\U+8384\U+815B_1
100
AcDbVertex
100
AcDb2dVertex
 10
226.601155542308
 20
-149.8358153922285
 30
0.0
  0
VERTEX
  5
4F6
330
4F1
100
AcDbEntity
  8
\U+838C\U+8343\U+8384\U+815B_1
100
AcDbVertex
100
AcDb2dVertex
 10
223.9842610117123
 20
-150.6888210343764
 30
0.0
  0
SEQEND
  5
4F7
330
4F1
100
AcDbEntity
  8
\U+838C\U+8343\U+8384\U+815B_1
  0
POLYLINE
  5
4F8
330
3C
100
AcDbEntity
  8
\U+838C\U+8343\U+8384\U+815B_1
100
AcDb2dPolyline
 66
     1
 10
0.0
 20
0.0
 30
0.0
  0
VERTEX
  5
4F9
330
4F8
100
AcDbEntity
  8
\U+838C\U+8343\U+8384\U+815B_1
100
AcDbVertex
100
AcDb2dVertex
 10
220.8526692156202
 20
-153.8807020014604
 30
0.0
  0
VERTEX
  5
4FA
330
4F8
100
AcDbEntity
  8
\U+838C\U+8343\U+8384\U+815B_1
100
AcDbVertex
100
AcDb2dVertex
 10
220.2056802834903
 20
-155.336599353527
 30
0.0
  0
VERTEX
  5
4FB
330
4F8
100
AcDbEntity
  8
\U+838C\U+8343\U+8384\U+815B_1
100
AcDbVertex
100
AcDb2dVertex
 10
219.7498941507917
 20
-157.0870523695824
 30
0.0
  0
VERTEX
  5
4FC
330
4F8
100
AcDbEntity
  8
\U+838C\U+8343\U+8384\U+815B_1
100
AcDbVertex
100
AcDb2dVertex
 10
219.6027885735715
 20
-158.9108859194737
 30
0.0
  0
VERTEX
  5
4FD
330
4F8
100
AcDbEntity
  8
\U+838C\U+8343\U+8384\U+815B_1
100
AcDbVertex
100
AcDb2dVertex
 10
219.7647080613783
 20
-160.7936306021627
 30
0.0
  0
VERTEX
  5
4FE
330
4F8
100
AcDbEntity
  8
\U+838C\U+8343\U+8384\U+815B_1
100
AcDbVertex
100
AcDb2dVertex
 10
220.2349635951149
 20
-162.6467474636786
 30
0.0
  0
VERTEX
  5
4FF
330
4F8
100
AcDbEntity
  8
\U+838C\U+8343\U+8384\U+815B_1
100
AcDbVertex
100
AcDb2dVertex
 10
220.9994302832918
 20
-164.4264837913587
 30
0.0
  0
VERTEX
  5
500
330
4F8
100
AcDbEntity
  8
\U+838C\U+8343\U+8384\U+815B_1
100
AcDbVertex
100
AcDb2dVertex
 10
222.043638724871
 20
-166.0591145418186
 30
0.0
  0
VERTEX
  5
501
330
4F8
100
AcDbEntity
  8
\U+838C\U+8343\U+8384\U+815B_1
100
AcDbVertex
100
AcDb2dVertex
 10
222.6609998358278
 20
-166.823925739544
 30
0.0
  0
VERTEX
  5
502
330
4F8
100
AcDbEntity
  8
\U+838C\U+8343\U+8384\U+815B_1
100
AcDbVertex
100
AcDb2dVertex
 10
223.1315998791129
 20
-167.3241536040023
 30
0.0
  0
SEQEND
  5
503
330
4F8
100
AcDbEntity
  8
\U+838C\U+8343\U+8384\U+815B_1
  0
POLYLINE
  5
504
330
3C
100
AcDbEntity
  8
\U+838C\U+8343\U+8384\U+815B_1
100
AcDb2dPolyline
 66
     1
 10
0.0
 20
0.0
 30
0.0
  0
VERTEX
  5
505
330
504
100
AcDbEntity
  8
\U+838C\U+8343\U+8384\U+815B_1
100
AcDbVertex
100
AcDb2dVertex
 10
223.1315998791129
 20
-167.3241536040023
 30
0.0
  0
VERTEX
  5
506
330
504
100
AcDbEntity
  8
\U+838C\U+8343\U+8384\U+815B_1
100
AcDbVertex
100
AcDb2dVertex
 10
224.4548610549974
 20
-168.4417425794173
 30
0.0
  0
VERTEX
  5
507
330
504
100
AcDbEntity
  8
\U+838C\U+8343\U+8384\U+815B_1
100
AcDbVertex
100
AcDb2dVertex
 10
226.0278916535625
 20
-169.4273843977473
 30
0.0
  0
VERTEX
  5
508
330
504
100
AcDbEntity
  8
\U+838C\U+8343\U+8384\U+815B_1
100
AcDbVertex
100
AcDb2dVertex
 10
227.7187445177231
 20
-170.0743733298773
 30
0.0
  0
VERTEX
  5
509
330
504
100
AcDbEntity
  8
\U+838C\U+8343\U+8384\U+815B_1
100
AcDbVertex
100
AcDb2dVertex
 10
228.586219560909
 20
-170.2803900398952
 30
0.0
  0
VERTEX
  5
50A
330
504
100
AcDbEntity
  8
\U+838C\U+8343\U+8384\U+815B_1
100
AcDbVertex
100
AcDb2dVertex
 10
228.9830945608098
 20
-170.353770573731
 30
0.0
  0
VERTEX
  5
50B
330
504
100
AcDbEntity
  8
\U+838C\U+8343\U+8384\U+815B_1
100
AcDbVertex
100
AcDb2dVertex
 10
229.1009168264053
 20
-170.3685844843176
 30
0.0
  0
SEQEND
  5
50C
330
504
100
AcDbEntity
  8
\U+838C\U+8343\U+8384\U+815B_1
  0
POLYLINE
  5
50D
330
3C
100
AcDbEntity
  8
\U+838C\U+8343\U+8384\U+815B_1
100
AcDb2dPolyline
 66
     1
 10
0.0
 20
0.0
 30
0.0
  0
VERTEX
  5
50E
330
50D
100
AcDbEntity
  8
\U+838C\U+8343\U+8384\U+815B_1
100
AcDbVertex
100
AcDb2dVertex
 10
223.3224581689958
 20
-151.1449516766235
 30
0.0
  0
VERTEX
  5
50F
330
50D
100
AcDbEntity
  8
\U+838C\U+8343\U+8384\U+815B_1
100
AcDbVertex
100
AcDb2dVertex
 10
221.8669053264777
 20
-152.4096462292587
 30
0.0
  0
VERTEX
  5
510
330
50D
100
AcDbEntity
  8
\U+838C\U+8343\U+8384\U+815B_1
100
AcDbVertex
100
AcDb2dVertex
 10
221.2643581261075
 20
-153.1892713375707
 30
0.0
  0
VERTEX
  5
511
330
50D
100
AcDbEntity
  8
\U+838C\U+8343\U+8384\U+815B_1
100
AcDbVertex
100
AcDb2dVertex
 10
220.8526692156202
 20
-153.8807020014604
 30
0.0
  0
SEQEND
  5
512
330
50D
100
AcDbEntity
  8
\U+838C\U+8343\U+8384\U+815B_1
  0
POLYLINE
  5
513
330
3C
100
AcDbEntity
  8
\U+838C\U+8343\U+8384\U+815B_1
100
AcDb2dPolyline
 66
     1
 10
0.0
 20
0.0
 30
0.0
  0
VERTEX
  5
514
330
513
100
AcDbEntity
  8
\U+838C\U+8343\U+8384\U+815B_1
100
AcDbVertex
100
AcDb2dVertex
 10
229.1009168264053
 20
-170.3685844843176
 30
0.0
  0
VERTEX
  5
515
330
513
100
AcDbEntity
  8
\U+838C\U+8343\U+8384\U+815B_1
100
AcDbVertex
100
AcDb2dVertex
 10
229.8798529156203
 20
-170.4423095277019
 30
0.0
  0
VERTEX
  5
516
330
513
100
AcDbEntity
  8
\U+838C\U+8343\U+8384\U+815B_1
100
AcDbVertex
100
AcDb2dVertex
 10
230.8796196254398
 20
-170.4274956171154
 30
0.0
  0
VERTEX
  5
517
330
513
100
AcDbEntity
  8
\U+838C\U+8343\U+8384\U+815B_1
100
AcDbVertex
100
AcDb2dVertex
 10
232.7616752890318
 20
-170.0450900182526
 30
0.0
  0
SEQEND
  5
518
330
513
100
AcDbEntity
  8
\U+838C\U+8343\U+8384\U+815B_1
  0
POLYLINE
  5
519
330
3C
100
AcDbEntity
  8
\U+838C\U+8343\U+8384\U+815B_1
100
AcDb2dPolyline
 66
     1
 10
0.0
 20
0.0
 30
0.0
  0
VERTEX
  5
51A
330
519
100
AcDbEntity
  8
\U+838C\U+8343\U+8384\U+815B_1
100
AcDbVertex
100
AcDb2dVertex
 10
223.9842610117123
 20
-150.6888210343764
 30
0.0
  0
VERTEX
  5
51B
330
519
100
AcDbEntity
  8
\U+838C\U+8343\U+8384\U+815B_1
100
AcDbVertex
100
AcDb2dVertex
 10
223.3224581689958
 20
-151.1301377660369
 30
0.0
  0
SEQEND
  5
51C
330
519
100
AcDbEntity
  8
\U+838C\U+8343\U+8384\U+815B_1
  0
POLYLINE
  5
51D
330
3C
100
AcDbEntity
  8
\U+838C\U+8343\U+8384\U+815B_1
100
AcDb2dPolyline
 66
     1
 10
0.0
 20
0.0
 30
0.0
  0
VERTEX
  5
51E
330
51D
100
AcDbEntity
  8
\U+838C\U+8343\U+8384\U+815B_1
100
AcDbVertex
100
AcDb2dVertex
 10
232.7764891996184
 20
-170.0450900182526
 30
0.0
  0
VERTEX
  5
51F
330
51D
100
AcDbEntity
  8
\U+838C\U+8343\U+8384\U+815B_1
100
AcDbVertex
100
AcDb2dVertex
 10
233.5409558877953
 20
-169.7656927743989
 30
0.0
  0
SEQEND
  5
520
330
51D
100
AcDbEntity
  8
\U+838C\U+8343\U+8384\U+815B_1
  0
POLYLINE
  5
521
330
3C
100
AcDbEntity
  8
\U+838C\U+8343\U+8384\U+815B_1
100
AcDb2dPolyline
 66
     1
 10
0.0
 20
0.0
 30
0.0
  0
VERTEX
  5
522
330
521
100
AcDbEntity
  8
\U+838C\U+8343\U+8384\U+815B_1
100
AcDbVertex
100
AcDb2dVertex
 10
233.5409558877953
 20
-169.7656927743989
 30
0.0
  0
VERTEX
  5
523
330
521
100
AcDbEntity
  8
\U+838C\U+8343\U+8384\U+815B_1
100
AcDbVertex
100
AcDb2dVertex
 10
235.0995170853224
 20
-168.9860676660868
 30
0.0
  0
VERTEX
  5
524
330
521
100
AcDbEntity
  8
\U+838C\U+8343\U+8384\U+815B_1
100
AcDbVertex
100
AcDb2dVertex
 10
236.3931504400337
 20
-167.7947536472874
 30
0.0
  0
VERTEX
  5
525
330
521
100
AcDbEntity
  8
\U+838C\U+8343\U+8384\U+815B_1
100
AcDbVertex
100
AcDb2dVertex
 10
237.4225449710263
 20
-166.2651312518365
 30
0.0
  0
VERTEX
  5
526
330
521
100
AcDbEntity
  8
\U+838C\U+8343\U+8384\U+815B_1
100
AcDbVertex
100
AcDb2dVertex
 10
238.0840033041943
 20
-164.4557671029833
 30
0.0
  0
VERTEX
  5
527
330
521
100
AcDbEntity
  8
\U+838C\U+8343\U+8384\U+815B_1
100
AcDbVertex
100
AcDb2dVertex
 10
238.3782144586346
 20
-162.4407307536607
 30
0.0
  0
VERTEX
  5
528
330
521
100
AcDbEntity
  8
\U+838C\U+8343\U+8384\U+815B_1
100
AcDbVertex
100
AcDb2dVertex
 10
238.2603921930391
 20
-160.2934027377044
 30
0.0
  0
VERTEX
  5
529
330
521
100
AcDbEntity
  8
\U+838C\U+8343\U+8384\U+815B_1
100
AcDbVertex
100
AcDb2dVertex
 10
237.7753227487159
 20
-158.1460747217482
 30
0.0
  0
VERTEX
  5
52A
330
521
100
AcDbEntity
  8
\U+838C\U+8343\U+8384\U+815B_1
100
AcDbVertex
100
AcDb2dVertex
 10
236.9371310171546
 20
-156.0721272396278
 30
0.0
  0
VERTEX
  5
52B
330
521
100
AcDbEntity
  8
\U+838C\U+8343\U+8384\U+815B_1
100
AcDbVertex
100
AcDb2dVertex
 10
235.7609754184903
 20
-154.1600992453141
 30
0.0
  0
VERTEX
  5
52C
330
521
100
AcDbEntity
  8
\U+838C\U+8343\U+8384\U+815B_1
100
AcDbVertex
100
AcDb2dVertex
 10
234.3202364865588
 20
-152.483371272643
 30
0.0
  0
VERTEX
  5
52D
330
521
100
AcDbEntity
  8
\U+838C\U+8343\U+8384\U+815B_1
100
AcDbVertex
100
AcDb2dVertex
 10
232.6586669340228
 20
-151.1301377660369
 30
0.0
  0
VERTEX
  5
52E
330
521
100
AcDbEntity
  8
\U+838C\U+8343\U+8384\U+815B_1
100
AcDbVertex
100
AcDb2dVertex
 10
230.8355224032286
 20
-150.1741237688801
 30
0.0
  0
VERTEX
  5
52F
330
521
100
AcDbEntity
  8
\U+838C\U+8343\U+8384\U+815B_1
100
AcDbVertex
100
AcDb2dVertex
 10
228.9538112491852
 20
-149.6446125927972
 30
0.0
  0
VERTEX
  5
530
330
521
100
AcDbEntity
  8
\U+838C\U+8343\U+8384\U+815B_1
100
AcDbVertex
100
AcDb2dVertex
 10
227.1010388972178
 20
-149.5857014599994
 30
0.0
  0
VERTEX
  5
531
330
521
100
AcDbEntity
  8
\U+838C\U+8343\U+8384\U+815B_1
100
AcDbVertex
100
AcDb2dVertex
 10
225.3664333203945
 20
-149.9829209694487
 30
0.0
  0
VERTEX
  5
532
330
521
100
AcDbEntity
  8
\U+838C\U+8343\U+8384\U+815B_1
100
AcDbVertex
100
AcDb2dVertex
 10
224.5723388110444
 20
-150.3360432566868
 30
0.0
  0
VERTEX
  5
533
330
521
100
AcDbEntity
  8
\U+838C\U+8343\U+8384\U+815B_1
100
AcDbVertex
100
AcDb2dVertex
 10
223.9842610117123
 20
-150.6888210343764
 30
0.0
  0
SEQEND
  5
534
330
521
100
AcDbEntity
  8
\U+838C\U+8343\U+8384\U+815B_1
  0
POLYLINE
  5
535
330
3C
100
AcDbEntity
  8
\U+838C\U+8343\U+8384\U+815B_1
100
AcDb2dPolyline
 66
     1
 10
0.0
 20
0.0
 30
0.0
  0
VERTEX
  5
536
330
535
100
AcDbEntity
  8
\U+838C\U+8343\U+8384\U+815B_1
100
AcDbVertex
100
AcDb2dVertex
 10
224.1165526783459
 20
-166.3826090078835
 30
0.0
  0
VERTEX
  5
537
330
535
100
AcDbEntity
  8
\U+838C\U+8343\U+8384\U+815B_1
100
AcDbVertex
100
AcDb2dVertex
 10
222.3964165025606
 20
-164.6617838130012
 30
0.0
  0
SEQEND
  5
538
330
535
100
AcDbEntity
  8
\U+838C\U+8343\U+8384\U+815B_1
  0
POLYLINE
  5
539
330
3C
100
AcDbEntity
  8
\U+838C\U+8343\U+8384\U+815B_1
100
AcDb2dPolyline
 66
     1
 10
0.0
 20
0.0
 30
0.0
  0
VERTEX
  5
53A
330
539
100
AcDbEntity
  8
\U+838C\U+8343\U+8384\U+815B_1
100
AcDbVertex
100
AcDb2dVertex
 10
224.7928249221004
 20
-165.0882866340752
 30
0.0
  0
VERTEX
  5
53B
330
539
100
AcDbEntity
  8
\U+838C\U+8343\U+8384\U+815B_1
100
AcDbVertex
100
AcDb2dVertex
 10
224.1165526783459
 20
-166.3826090078835
 30
0.0
  0
SEQEND
  5
53C
330
539
100
AcDbEntity
  8
\U+838C\U+8343\U+8384\U+815B_1
  0
POLYLINE
  5
53D
330
3C
100
AcDbEntity
  8
\U+838C\U+8343\U+8384\U+815B_1
100
AcDb2dPolyline
 66
     1
 10
0.0
 20
0.0
 30
0.0
  0
VERTEX
  5
53E
330
53D
100
AcDbEntity
  8
\U+838C\U+8343\U+8384\U+815B_1
100
AcDbVertex
100
AcDb2dVertex
 10
228.6596000947448
 20
-166.4122368290567
 30
0.0
  0
VERTEX
  5
53F
330
53D
100
AcDbEntity
  8
\U+838C\U+8343\U+8384\U+815B_1
100
AcDbVertex
100
AcDb2dVertex
 10
227.1010388972178
 20
-165.1031005446617
 30
0.0
  0
SEQEND
  5
540
330
53D
100
AcDbEntity
  8
\U+838C\U+8343\U+8384\U+815B_1
  0
POLYLINE
  5
541
330
3C
100
AcDbEntity
  8
\U+838C\U+8343\U+8384\U+815B_1
100
AcDb2dPolyline
 66
     1
 10
0.0
 20
0.0
 30
0.0
  0
VERTEX
  5
542
330
541
100
AcDbEntity
  8
\U+838C\U+8343\U+8384\U+815B_1
100
AcDbVertex
100
AcDb2dVertex
 10
229.6889946257375
 20
-164.720694945799
 30
0.0
  0
VERTEX
  5
543
330
541
100
AcDbEntity
  8
\U+838C\U+8343\U+8384\U+815B_1
100
AcDbVertex
100
AcDb2dVertex
 10
228.6596000947448
 20
-166.4122368290567
 30
0.0
  0
SEQEND
  5
544
330
541
100
AcDbEntity
  8
\U+838C\U+8343\U+8384\U+815B_1
  0
POLYLINE
  5
545
330
3C
100
AcDbEntity
  8
\U+838C\U+8343\U+8384\U+815B_1
100
AcDb2dPolyline
 66
     1
 10
0.0
 20
0.0
 30
0.0
  0
VERTEX
  5
546
330
545
100
AcDbEntity
  8
\U+838C\U+8343\U+8384\U+815B_1
100
AcDbVertex
100
AcDb2dVertex
 10
228.145247338797
 20
-163.4115586614041
 30
0.0
  0
VERTEX
  5
547
330
545
100
AcDbEntity
  8
\U+838C\U+8343\U+8384\U+815B_1
100
AcDbVertex
100
AcDb2dVertex
 10
229.6889946257375
 20
-164.720694945799
 30
0.0
  0
SEQEND
  5
548
330
545
100
AcDbEntity
  8
\U+838C\U+8343\U+8384\U+815B_1
  0
POLYLINE
  5
549
330
3C
100
AcDbEntity
  8
\U+838C\U+8343\U+8384\U+815B_1
100
AcDb2dPolyline
 66
     1
 10
0.0
 20
0.0
 30
0.0
  0
VERTEX
  5
54A
330
549
100
AcDbEntity
  8
\U+838C\U+8343\U+8384\U+815B_1
100
AcDbVertex
100
AcDb2dVertex
 10
228.5714056503224
 20
-159.0872748083185
 30
0.0
  0
VERTEX
  5
54B
330
549
100
AcDbEntity
  8
\U+838C\U+8343\U+8384\U+815B_1
100
AcDbVertex
100
AcDb2dVertex
 10
227.5568250299164
 20
-160.5435166699336
 30
0.0
  0
SEQEND
  5
54C
330
549
100
AcDbEntity
  8
\U+838C\U+8343\U+8384\U+815B_1
  0
POLYLINE
  5
54D
330
3C
100
AcDbEntity
  8
\U+838C\U+8343\U+8384\U+815B_1
100
AcDb2dPolyline
 66
     1
 10
0.0
 20
0.0
 30
0.0
  0
VERTEX
  5
54E
330
54D
100
AcDbEntity
  8
\U+838C\U+8343\U+8384\U+815B_1
100
AcDbVertex
100
AcDb2dVertex
 10
226.8364555639506
 20
-157.3664496134362
 30
0.0
  0
VERTEX
  5
54F
330
54D
100
AcDbEntity
  8
\U+838C\U+8343\U+8384\U+815B_1
100
AcDbVertex
100
AcDb2dVertex
 10
228.5714056503224
 20
-159.0872748083185
 30
0.0
  0
SEQEND
  5
550
330
54D
100
AcDbEntity
  8
\U+838C\U+8343\U+8384\U+815B_1
  0
POLYLINE
  5
551
330
3C
100
AcDbEntity
  8
\U+838C\U+8343\U+8384\U+815B_1
100
AcDb2dPolyline
 66
     1
 10
0.0
 20
0.0
 30
0.0
  0
VERTEX
  5
552
330
551
100
AcDbEntity
  8
\U+838C\U+8343\U+8384\U+815B_1
100
AcDbVertex
100
AcDb2dVertex
 10
225.8366888541311
 20
-158.8226914750513
 30
0.0
  0
VERTEX
  5
553
330
551
100
AcDbEntity
  8
\U+838C\U+8343\U+8384\U+815B_1
100
AcDbVertex
100
AcDb2dVertex
 10
226.8364555639506
 20
-157.3664496134362
 30
0.0
  0
SEQEND
  5
554
330
551
100
AcDbEntity
  8
\U+838C\U+8343\U+8384\U+815B_1
  0
POLYLINE
  5
555
330
3C
100
AcDbEntity
  8
\U+838C\U+8343\U+8384\U+815B_1
100
AcDb2dPolyline
 66
     1
 10
0.0
 20
0.0
 30
0.0
  0
VERTEX
  5
556
330
555
100
AcDbEntity
  8
\U+838C\U+8343\U+8384\U+815B_1
100
AcDbVertex
100
AcDb2dVertex
 10
222.3082220581382
 20
-157.3371663018115
 30
0.0
  0
VERTEX
  5
557
330
555
100
AcDbEntity
  8
\U+838C\U+8343\U+8384\U+815B_1
100
AcDbVertex
100
AcDb2dVertex
 10
223.5284748790137
 20
-158.8078775644647
 30
0.0
  0
SEQEND
  5
558
330
555
100
AcDbEntity
  8
\U+838C\U+8343\U+8384\U+815B_1
  0
POLYLINE
  5
559
330
3C
100
AcDbEntity
  8
\U+838C\U+8343\U+8384\U+815B_1
100
AcDb2dPolyline
 66
     1
 10
0.0
 20
0.0
 30
0.0
  0
VERTEX
  5
55A
330
559
100
AcDbEntity
  8
\U+838C\U+8343\U+8384\U+815B_1
100
AcDbVertex
100
AcDb2dVertex
 10
221.2643581261075
 20
-159.0431775861073
 30
0.0
  0
VERTEX
  5
55B
330
559
100
AcDbEntity
  8
\U+838C\U+8343\U+8384\U+815B_1
100
AcDbVertex
100
AcDb2dVertex
 10
222.3082220581382
 20
-157.3371663018115
 30
0.0
  0
SEQEND
  5
55C
330
559
100
AcDbEntity
  8
\U+838C\U+8343\U+8384\U+815B_1
  0
POLYLINE
  5
55D
330
3C
100
AcDbEntity
  8
\U+838C\U+8343\U+8384\U+815B_1
100
AcDb2dPolyline
 66
     1
 10
0.0
 20
0.0
 30
0.0
  0
VERTEX
  5
55E
330
55D
100
AcDbEntity
  8
\U+838C\U+8343\U+8384\U+815B_1
100
AcDbVertex
100
AcDb2dVertex
 10
222.484610946983
 20
-160.4994194477224
 30
0.0
  0
VERTEX
  5
55F
330
55D
100
AcDbEntity
  8
\U+838C\U+8343\U+8384\U+815B_1
100
AcDbVertex
100
AcDb2dVertex
 10
221.2643581261075
 20
-159.0431775861073
 30
0.0
  0
SEQEND
  5
560
330
55D
100
AcDbEntity
  8
\U+838C\U+8343\U+8384\U+815B_1
  0
POLYLINE
  5
561
330
3C
100
AcDbEntity
  8
\U+838C\U+8343\U+8384\U+815B_1
100
AcDb2dPolyline
 66
     1
 10
0.0
 20
0.0
 30
0.0
  0
VERTEX
  5
562
330
561
100
AcDbEntity
  8
\U+838C\U+8343\U+8384\U+815B_1
100
AcDbVertex
100
AcDb2dVertex
 10
222.3964165025606
 20
-164.6617838130012
 30
0.0
  0
VERTEX
  5
563
330
561
100
AcDbEntity
  8
\U+838C\U+8343\U+8384\U+815B_1
100
AcDbVertex
100
AcDb2dVertex
 10
223.0578748357286
 20
-163.3674614391929
 30
0.0
  0
SEQEND
  5
564
330
561
100
AcDbEntity
  8
\U+838C\U+8343\U+8384\U+815B_1
  0
POLYLINE
  5
565
330
3C
100
AcDbEntity
  8
\U+838C\U+8343\U+8384\U+815B_1
100
AcDb2dPolyline
 66
     1
 10
0.0
 20
0.0
 30
0.0
  0
VERTEX
  5
566
330
565
100
AcDbEntity
  8
\U+838C\U+8343\U+8384\U+815B_1
100
AcDbVertex
100
AcDb2dVertex
 10
227.1747639406022
 20
-159.1313720305297
 30
0.0
  0
VERTEX
  5
567
330
565
100
AcDbEntity
  8
\U+838C\U+8343\U+8384\U+815B_1
100
AcDbVertex
100
AcDb2dVertex
 10
227.7187445177231
 20
-158.2783663883818
 30
0.0
  0
SEQEND
  5
568
330
565
100
AcDbEntity
  8
\U+838C\U+8343\U+8384\U+815B_1
  0
POLYLINE
  5
569
330
3C
100
AcDbEntity
  8
\U+838C\U+8343\U+8384\U+815B_1
100
AcDb2dPolyline
 66
     1
 10
0.0
 20
0.0
 30
0.0
  0
VERTEX
  5
56A
330
569
100
AcDbEntity
  8
\U+838C\U+8343\U+8384\U+815B_1
100
AcDbVertex
100
AcDb2dVertex
 10
227.1747639406022
 20
-159.1313720305297
 30
0.0
  0
VERTEX
  5
56B
330
569
100
AcDbEntity
  8
\U+838C\U+8343\U+8384\U+815B_1
100
AcDbVertex
100
AcDb2dVertex
 10
224.9692138109452
 20
-160.2344916049067
 30
0.0
  0
SEQEND
  5
56C
330
569
100
AcDbEntity
  8
\U+838C\U+8343\U+8384\U+815B_1
  0
POLYLINE
  5
56D
330
3C
100
AcDbEntity
  8
\U+838C\U+8343\U+8384\U+815B_1
100
AcDb2dPolyline
 66
     1
 10
0.0
 20
0.0
 30
0.0
  0
VERTEX
  5
56E
330
56D
100
AcDbEntity
  8
\U+838C\U+8343\U+8384\U+815B_1
100
AcDbVertex
100
AcDb2dVertex
 10
224.9692138109452
 20
-160.2344916049067
 30
0.0
  0
VERTEX
  5
56F
330
56D
100
AcDbEntity
  8
\U+838C\U+8343\U+8384\U+815B_1
100
AcDbVertex
100
AcDb2dVertex
 10
225.8366888541311
 20
-158.8226914750513
 30
0.0
  0
SEQEND
  5
570
330
56D
100
AcDbEntity
  8
\U+838C\U+8343\U+8384\U+815B_1
  0
POLYLINE
  5
571
330
3C
100
AcDbEntity
  8
\U+838C\U+8343\U+8384\U+815B_1
100
AcDb2dPolyline
 66
     1
 10
0.0
 20
0.0
 30
0.0
  0
VERTEX
  5
572
330
571
100
AcDbEntity
  8
\U+838C\U+8343\U+8384\U+815B_1
100
AcDbVertex
100
AcDb2dVertex
 10
226.6893499867305
 20
-161.9701307103755
 30
0.0
  0
VERTEX
  5
573
330
571
100
AcDbEntity
  8
\U+838C\U+8343\U+8384\U+815B_1
100
AcDbVertex
100
AcDb2dVertex
 10
228.145247338797
 20
-163.4115586614041
 30
0.0
  0
SEQEND
  5
574
330
571
100
AcDbEntity
  8
\U+838C\U+8343\U+8384\U+815B_1
  0
POLYLINE
  5
575
330
3C
100
AcDbEntity
  8
\U+838C\U+8343\U+8384\U+815B_1
100
AcDb2dPolyline
 66
     1
 10
0.0
 20
0.0
 30
0.0
  0
VERTEX
  5
576
330
575
100
AcDbEntity
  8
\U+838C\U+8343\U+8384\U+815B_1
100
AcDbVertex
100
AcDb2dVertex
 10
227.5568250299164
 20
-160.5435166699336
 30
0.0
  0
VERTEX
  5
577
330
575
100
AcDbEntity
  8
\U+838C\U+8343\U+8384\U+815B_1
100
AcDbVertex
100
AcDb2dVertex
 10
226.6893499867305
 20
-161.9701307103755
 30
0.0
  0
SEQEND
  5
578
330
575
100
AcDbEntity
  8
\U+838C\U+8343\U+8384\U+815B_1
  0
POLYLINE
  5
579
330
3C
100
AcDbEntity
  8
\U+838C\U+8343\U+8384\U+815B_1
100
AcDb2dPolyline
 66
     1
 10
0.0
 20
0.0
 30
0.0
  0
VERTEX
  5
57A
330
579
100
AcDbEntity
  8
\U+838C\U+8343\U+8384\U+815B_1
100
AcDbVertex
100
AcDb2dVertex
 10
226.1453694096095
 20
-160.8377278243739
 30
0.0
  0
VERTEX
  5
57B
330
579
100
AcDbEntity
  8
\U+838C\U+8343\U+8384\U+815B_1
100
AcDbVertex
100
AcDb2dVertex
 10
225.3516194098079
 20
-160.0432888054753
 30
0.0
  0
SEQEND
  5
57C
330
579
100
AcDbEntity
  8
\U+838C\U+8343\U+8384\U+815B_1
  0
POLYLINE
  5
57D
330
3C
100
AcDbEntity
  8
\U+838C\U+8343\U+8384\U+815B_1
100
AcDb2dPolyline
 66
     1
 10
0.0
 20
0.0
 30
0.0
  0
VERTEX
  5
57E
330
57D
100
AcDbEntity
  8
\U+838C\U+8343\U+8384\U+815B_1
100
AcDbVertex
100
AcDb2dVertex
 10
225.2193277431743
 20
-164.397200479734
 30
0.0
  0
VERTEX
  5
57F
330
57D
100
AcDbEntity
  8
\U+838C\U+8343\U+8384\U+815B_1
100
AcDbVertex
100
AcDb2dVertex
 10
224.4400471444108
 20
-163.6320447724601
 30
0.0
  0
SEQEND
  5
580
330
57D
100
AcDbEntity
  8
\U+838C\U+8343\U+8384\U+815B_1
  0
POLYLINE
  5
581
330
3C
100
AcDbEntity
  8
\U+838C\U+8343\U+8384\U+815B_1
100
AcDb2dPolyline
 66
     1
 10
0.0
 20
0.0
 30
0.0
  0
VERTEX
  5
582
330
581
100
AcDbEntity
  8
\U+838C\U+8343\U+8384\U+815B_1
100
AcDbVertex
100
AcDb2dVertex
 10
224.4400471444108
 20
-163.6320447724601
 30
0.0
  0
VERTEX
  5
583
330
581
100
AcDbEntity
  8
\U+838C\U+8343\U+8384\U+815B_1
100
AcDbVertex
100
AcDb2dVertex
 10
226.1453694096095
 20
-160.8377278243739
 30
0.0
  0
SEQEND
  5
584
330
581
100
AcDbEntity
  8
\U+838C\U+8343\U+8384\U+815B_1
  0
POLYLINE
  5
585
330
3C
100
AcDbEntity
  8
\U+838C\U+8343\U+8384\U+815B_1
100
AcDb2dPolyline
 66
     1
 10
0.0
 20
0.0
 30
0.0
  0
VERTEX
  5
586
330
585
100
AcDbEntity
  8
\U+838C\U+8343\U+8384\U+815B_1
100
AcDbVertex
100
AcDb2dVertex
 10
223.5284748790137
 20
-158.8078775644647
 30
0.0
  0
VERTEX
  5
587
330
585
100
AcDbEntity
  8
\U+838C\U+8343\U+8384\U+815B_1
100
AcDbVertex
100
AcDb2dVertex
 10
224.9692138109452
 20
-160.2344916049067
 30
0.0
  0
SEQEND
  5
588
330
585
100
AcDbEntity
  8
\U+838C\U+8343\U+8384\U+815B_1
  0
POLYLINE
  5
589
330
3C
100
AcDbEntity
  8
\U+838C\U+8343\U+8384\U+815B_1
100
AcDb2dPolyline
 66
     1
 10
0.0
 20
0.0
 30
0.0
  0
VERTEX
  5
58A
330
589
100
AcDbEntity
  8
\U+838C\U+8343\U+8384\U+815B_1
100
AcDbVertex
100
AcDb2dVertex
 10
227.1010388972178
 20
-165.1031005446617
 30
0.0
  0
VERTEX
  5
58B
330
589
100
AcDbEntity
  8
\U+838C\U+8343\U+8384\U+815B_1
100
AcDbVertex
100
AcDb2dVertex
 10
225.6602999652863
 20
-163.6764865042198
 30
0.0
  0
SEQEND
  5
58C
330
589
100
AcDbEntity
  8
\U+838C\U+8343\U+8384\U+815B_1
  0
POLYLINE
  5
58D
330
3C
100
AcDbEntity
  8
\U+838C\U+8343\U+8384\U+815B_1
100
AcDb2dPolyline
 66
     1
 10
0.0
 20
0.0
 30
0.0
  0
VERTEX
  5
58E
330
58D
100
AcDbEntity
  8
\U+838C\U+8343\U+8384\U+815B_1
100
AcDbVertex
100
AcDb2dVertex
 10
227.4834444960806
 20
-162.7497558186876
 30
0.0
  0
VERTEX
  5
58F
330
58D
100
AcDbEntity
  8
\U+838C\U+8343\U+8384\U+815B_1
100
AcDbVertex
100
AcDb2dVertex
 10
225.6602999652863
 20
-163.6764865042198
 30
0.0
  0
SEQEND
  5
590
330
58D
100
AcDbEntity
  8
\U+838C\U+8343\U+8384\U+815B_1
  0
POLYLINE
  5
591
330
3C
100
AcDbEntity
  8
\U+838C\U+8343\U+8384\U+815B_1
100
AcDb2dPolyline
 66
     1
 10
0.0
 20
0.0
 30
0.0
  0
VERTEX
  5
592
330
591
100
AcDbEntity
  8
\U+838C\U+8343\U+8384\U+815B_1
100
AcDbVertex
100
AcDb2dVertex
 10
225.6602999652863
 20
-163.6764865042198
 30
0.0
  0
VERTEX
  5
593
330
591
100
AcDbEntity
  8
\U+838C\U+8343\U+8384\U+815B_1
100
AcDbVertex
100
AcDb2dVertex
 10
224.7928249221004
 20
-165.0882866340752
 30
0.0
  0
SEQEND
  5
594
330
591
100
AcDbEntity
  8
\U+838C\U+8343\U+8384\U+815B_1
  0
POLYLINE
  5
595
330
3C
100
AcDbEntity
  8
\U+838C\U+8343\U+8384\U+815B_1
100
AcDb2dPolyline
 66
     1
 10
0.0
 20
0.0
 30
0.0
  0
VERTEX
  5
596
330
595
100
AcDbEntity
  8
\U+838C\U+8343\U+8384\U+815B_1
100
AcDbVertex
100
AcDb2dVertex
 10
222.9552109902681
 20
-158.1901719439594
 30
0.0
  0
VERTEX
  5
597
330
595
100
AcDbEntity
  8
\U+838C\U+8343\U+8384\U+815B_1
100
AcDbVertex
100
AcDb2dVertex
 10
221.2643581261075
 20
-159.0431775861073
 30
0.0
  0
SEQEND
  5
598
330
595
100
AcDbEntity
  8
\U+838C\U+8343\U+8384\U+815B_1
  0
POLYLINE
  5
599
330
3C
100
AcDbEntity
  8
\U+838C\U+8343\U+8384\U+815B_1
100
AcDb2dPolyline
 66
     1
 10
0.0
 20
0.0
 30
0.0
  0
VERTEX
  5
59A
330
599
100
AcDbEntity
  8
\U+838C\U+8343\U+8384\U+815B_1
100
AcDbVertex
100
AcDb2dVertex
 10
226.1453694096095
 20
-160.8377278243739
 30
0.0
  0
VERTEX
  5
59B
330
599
100
AcDbEntity
  8
\U+838C\U+8343\U+8384\U+815B_1
100
AcDbVertex
100
AcDb2dVertex
 10
223.9253498789145
 20
-161.9408473987509
 30
0.0
  0
SEQEND
  5
59C
330
599
100
AcDbEntity
  8
\U+838C\U+8343\U+8384\U+815B_1
  0
POLYLINE
  5
59D
330
3C
100
AcDbEntity
  8
\U+838C\U+8343\U+8384\U+815B_1
100
AcDb2dPolyline
 66
     1
 10
0.0
 20
0.0
 30
0.0
  0
VERTEX
  5
59E
330
59D
100
AcDbEntity
  8
\U+838C\U+8343\U+8384\U+815B_1
100
AcDbVertex
100
AcDb2dVertex
 10
223.9253498789145
 20
-161.9408473987509
 30
0.0
  0
VERTEX
  5
59F
330
59D
100
AcDbEntity
  8
\U+838C\U+8343\U+8384\U+815B_1
100
AcDbVertex
100
AcDb2dVertex
 10
222.484610946983
 20
-160.4994194477224
 30
0.0
  0
SEQEND
  5
5A0
330
59D
100
AcDbEntity
  8
\U+838C\U+8343\U+8384\U+815B_1
  0
POLYLINE
  5
5A1
330
3C
100
AcDbEntity
  8
\U+838C\U+8343\U+8384\U+815B_1
100
AcDb2dPolyline
 66
     1
 10
0.0
 20
0.0
 30
0.0
  0
VERTEX
  5
5A2
330
5A1
100
AcDbEntity
  8
\U+838C\U+8343\U+8384\U+815B_1
100
AcDbVertex
100
AcDb2dVertex
 10
223.0578748357286
 20
-163.3674614391929
 30
0.0
  0
VERTEX
  5
5A3
330
5A1
100
AcDbEntity
  8
\U+838C\U+8343\U+8384\U+815B_1
100
AcDbVertex
100
AcDb2dVertex
 10
223.9253498789145
 20
-161.9408473987509
 30
0.0
  0
SEQEND
  5
5A4
330
5A1
100
AcDbEntity
  8
\U+838C\U+8343\U+8384\U+815B_1
  0
POLYLINE
  5
5A5
330
3C
100
AcDbEntity
  8
\U+838C\U+8343\U+8384\U+815B_1
100
AcDb2dPolyline
 66
     1
 10
0.0
 20
0.0
 30
0.0
  0
VERTEX
  5
5A6
330
5A5
100
AcDbEntity
  8
\U+838C\U+8343\U+8384\U+815B_1
100
AcDbVertex
100
AcDb2dVertex
 10
224.4400471444108
 20
-163.6320447724601
 30
0.0
  0
VERTEX
  5
5A7
330
5A5
100
AcDbEntity
  8
\U+838C\U+8343\U+8384\U+815B_1
100
AcDbVertex
100
AcDb2dVertex
 10
222.3964165025606
 20
-164.6617838130012
 30
0.0
  0
SEQEND
  5
5A8
330
5A5
100
AcDbEntity
  8
\U+838C\U+8343\U+8384\U+815B_1
  0
POLYLINE
  5
5A9
330
3C
100
AcDbEntity
  8
\U+838C\U+8343\U+8384\U+815B_1
100
AcDb2dPolyline
 66
     1
 10
0.0
 20
0.0
 30
0.0
  0
VERTEX
  5
5AA
330
5A9
100
AcDbEntity
  8
\U+838C\U+8343\U+8384\U+815B_1
100
AcDbVertex
100
AcDb2dVertex
 10
229.1153862274434
 20
-170.3685844843176
 30
0.0
  0
VERTEX
  5
5AB
330
5A9
100
AcDbEntity
  8
\U+838C\U+8343\U+8384\U+815B_1
100
AcDbVertex
100
AcDb2dVertex
 10
229.5418890485173
 20
-170.4274956171154
 30
0.0
  0
SEQEND
  5
5AC
330
5A9
100
AcDbEntity
  8
\U+838C\U+8343\U+8384\U+815B_1
  0
POLYLINE
  5
5AD
330
3C
100
AcDbEntity
  8
\U+838C\U+8343\U+8384\U+815B_1
100
AcDb2dPolyline
 66
     1
 10
0.0
 20
0.0
 30
0.0
  0
VERTEX
  5
5AE
330
5AD
100
AcDbEntity
  8
\U+838C\U+8343\U+8384\U+815B_1
100
AcDbVertex
100
AcDb2dVertex
 10
229.1153862274434
 20
-170.3685844843176
 30
0.0
  0
VERTEX
  5
5AF
330
5AD
100
AcDbEntity
  8
\U+838C\U+8343\U+8384\U+815B_1
100
AcDbVertex
100
AcDb2dVertex
 10
229.1450140486165
 20
-170.3685844843176
 30
0.0
  0
SEQEND
  5
5B0
330
5AD
100
AcDbEntity
  8
\U+838C\U+8343\U+8384\U+815B_1
  0
POLYLINE
  5
5B1
330
3C
100
AcDbEntity
  8
\U+838C\U+8343\U+8384\U+815B_1
100
AcDb2dPolyline
 66
     1
 10
0.0
 20
0.0
 30
0.0
  0
VERTEX
  5
5B2
330
5B1
100
AcDbEntity
  8
\U+838C\U+8343\U+8384\U+815B_1
100
AcDbVertex
100
AcDb2dVertex
 10
229.5418890485173
 20
-170.4274956171154
 30
0.0
  0
VERTEX
  5
5B3
330
5B1
100
AcDbEntity
  8
\U+838C\U+8343\U+8384\U+815B_1
100
AcDbVertex
100
AcDb2dVertex
 10
229.9535779590047
 20
-170.4423095277019
 30
0.0
  0
SEQEND
  5
5B4
330
5B1
100
AcDbEntity
  8
\U+838C\U+8343\U+8384\U+815B_1
  0
POLYLINE
  5
5B5
330
3C
100
AcDbEntity
  8
\U+838C\U+8343\U+8384\U+815B_1
100
AcDb2dPolyline
 66
     1
 10
0.0
 20
0.0
 30
0.0
  0
VERTEX
  5
5B6
330
5B5
100
AcDbEntity
  8
\U+838C\U+8343\U+8384\U+815B_1
100
AcDbVertex
100
AcDb2dVertex
 10
229.9535779590047
 20
-170.4423095277019
 30
0.0
  0
VERTEX
  5
5B7
330
5B5
100
AcDbEntity
  8
\U+838C\U+8343\U+8384\U+815B_1
100
AcDbVertex
100
AcDb2dVertex
 10
230.365266869492
 20
-170.4423095277019
 30
0.0
  0
VERTEX
  5
5B8
330
5B5
100
AcDbEntity
  8
\U+838C\U+8343\U+8384\U+815B_1
100
AcDbVertex
100
AcDb2dVertex
 10
230.7621418693928
 20
-170.3978677959422
 30
0.0
  0
VERTEX
  5
5B9
330
5B5
100
AcDbEntity
  8
\U+838C\U+8343\U+8384\U+815B_1
100
AcDbVertex
100
AcDb2dVertex
 10
231.1590168692936
 20
-170.339301172693
 30
0.0
  0
VERTEX
  5
5BA
330
5B5
100
AcDbEntity
  8
\U+838C\U+8343\U+8384\U+815B_1
100
AcDbVertex
100
AcDb2dVertex
 10
231.5562363787429
 20
-170.2511067282706
 30
0.0
  0
VERTEX
  5
5BB
330
5B5
100
AcDbEntity
  8
\U+838C\U+8343\U+8384\U+815B_1
100
AcDbVertex
100
AcDb2dVertex
 10
231.9382974680571
 20
-170.1480983732616
 30
0.0
  0
VERTEX
  5
5BC
330
5B5
100
AcDbEntity
  8
\U+838C\U+8343\U+8384\U+815B_1
100
AcDbVertex
100
AcDb2dVertex
 10
232.3058891563333
 20
-170.0009927960414
 30
0.0
  0
VERTEX
  5
5BD
330
5B5
100
AcDbEntity
  8
\U+838C\U+8343\U+8384\U+815B_1
100
AcDbVertex
100
AcDb2dVertex
 10
232.6586669340228
 20
-169.8390733082347
 30
0.0
  0
VERTEX
  5
5BE
330
5B5
100
AcDbEntity
  8
\U+838C\U+8343\U+8384\U+815B_1
100
AcDbVertex
100
AcDb2dVertex
 10
232.9969753106744
 20
-169.6626844193899
 30
0.0
  0
VERTEX
  5
5BF
330
5B5
100
AcDbEntity
  8
\U+838C\U+8343\U+8384\U+815B_1
100
AcDbVertex
100
AcDb2dVertex
 10
233.3349391777774
 20
-169.4418537987854
 30
0.0
  0
VERTEX
  5
5C0
330
5B5
100
AcDbEntity
  8
\U+838C\U+8343\U+8384\U+815B_1
100
AcDbVertex
100
AcDb2dVertex
 10
233.6439642428043
 20
-169.2065537771428
 30
0.0
  0
VERTEX
  5
5C1
330
5B5
100
AcDbEntity
  8
\U+838C\U+8343\U+8384\U+815B_1
100
AcDbVertex
100
AcDb2dVertex
 10
233.9526447982827
 20
-168.9419704438756
 30
0.0
  0
VERTEX
  5
5C2
330
5B5
100
AcDbEntity
  8
\U+838C\U+8343\U+8384\U+815B_1
100
AcDbVertex
100
AcDb2dVertex
 10
234.2320420421364
 20
-168.6770426010599
 30
0.0
  0
VERTEX
  5
5C3
330
5B5
100
AcDbEntity
  8
\U+838C\U+8343\U+8384\U+815B_1
100
AcDbVertex
100
AcDb2dVertex
 10
234.4966253754036
 20
-168.3683620455815
 30
0.0
  0
VERTEX
  5
5C4
330
5B5
100
AcDbEntity
  8
\U+838C\U+8343\U+8384\U+815B_1
100
AcDbVertex
100
AcDb2dVertex
 10
234.7612087086708
 20
-168.0448675795166
 30
0.0
  0
VERTEX
  5
5C5
330
5B5
100
AcDbEntity
  8
\U+838C\U+8343\U+8384\U+815B_1
100
AcDbVertex
100
AcDb2dVertex
 10
234.9965087303134
 20
-167.6917452922785
 30
0.0
  0
SEQEND
  5
5C6
330
5B5
100
AcDbEntity
  8
\U+838C\U+8343\U+8384\U+815B_1
  0
POLYLINE
  5
5C7
330
3C
100
AcDbEntity
  8
\U+838C\U+8343\U+8384\U+815B_1
100
AcDb2dPolyline
 66
     1
 10
0.0
 20
0.0
 30
0.0
  0
VERTEX
  5
5C8
330
5C7
100
AcDbEntity
  8
\U+838C\U+8343\U+8384\U+815B_1
100
AcDbVertex
100
AcDb2dVertex
 10
234.9965087303134
 20
-167.6917452922785
 30
0.0
  0
VERTEX
  5
5C9
330
5C7
100
AcDbEntity
  8
\U+838C\U+8343\U+8384\U+815B_1
100
AcDbVertex
100
AcDb2dVertex
 10
235.2021809307828
 20
-167.3241536040023
 30
0.0
  0
SEQEND
  5
5CA
330
5C7
100
AcDbEntity
  8
\U+838C\U+8343\U+8384\U+815B_1
  0
POLYLINE
  5
5CB
330
3C
100
AcDbEntity
  8
\U+838C\U+8343\U+8384\U+815B_1
100
AcDb2dPolyline
 66
     1
 10
0.0
 20
0.0
 30
0.0
  0
VERTEX
  5
5CC
330
5CB
100
AcDbEntity
  8
\U+838C\U+8343\U+8384\U+815B_1
100
AcDbVertex
100
AcDb2dVertex
 10
235.2021809307828
 20
-167.3241536040023
 30
0.0
  0
VERTEX
  5
5CD
330
5CB
100
AcDbEntity
  8
\U+838C\U+8343\U+8384\U+815B_1
100
AcDbVertex
100
AcDb2dVertex
 10
235.4081976408008
 20
-166.941403495591
 30
0.0
  0
VERTEX
  5
5CE
330
5CB
100
AcDbEntity
  8
\U+838C\U+8343\U+8384\U+815B_1
100
AcDbVertex
100
AcDb2dVertex
 10
235.569772619059
 20
-166.5445284956903
 30
0.0
  0
VERTEX
  5
5CF
330
5CB
100
AcDbEntity
  8
\U+838C\U+8343\U+8384\U+815B_1
100
AcDbVertex
100
AcDb2dVertex
 10
235.7316921068657
 20
-166.1324950756544
 30
0.0
  0
VERTEX
  5
5D0
330
5CB
100
AcDbEntity
  8
\U+838C\U+8343\U+8384\U+815B_1
100
AcDbVertex
100
AcDb2dVertex
 10
235.8639837734993
 20
-165.7059922545805
 30
0.0
  0
VERTEX
  5
5D1
330
5CB
100
AcDbEntity
  8
\U+838C\U+8343\U+8384\U+815B_1
100
AcDbVertex
100
AcDb2dVertex
 10
235.9814615295463
 20
-165.26467552292
 30
0.0
  0
VERTEX
  5
5D2
330
5CB
100
AcDbEntity
  8
\U+838C\U+8343\U+8384\U+815B_1
100
AcDbVertex
100
AcDb2dVertex
 10
236.0696559739687
 20
-164.8088893902214
 30
0.0
  0
VERTEX
  5
5D3
330
5CB
100
AcDbEntity
  8
\U+838C\U+8343\U+8384\U+815B_1
100
AcDbVertex
100
AcDb2dVertex
 10
236.1285671067665
 20
-164.3382893469363
 30
0.0
  0
VERTEX
  5
5D4
330
5CB
100
AcDbEntity
  8
\U+838C\U+8343\U+8384\U+815B_1
100
AcDbVertex
100
AcDb2dVertex
 10
236.1874782395643
 20
-163.8528753930646
 30
0.0
  0
VERTEX
  5
5D5
330
5CB
100
AcDbEntity
  8
\U+838C\U+8343\U+8384\U+815B_1
100
AcDbVertex
100
AcDb2dVertex
 10
236.2019476406023
 20
-163.3674614391929
 30
0.0
  0
VERTEX
  5
5D6
330
5CB
100
AcDbEntity
  8
\U+838C\U+8343\U+8384\U+815B_1
100
AcDbVertex
100
AcDb2dVertex
 10
236.2315754617755
 20
-162.8820474853212
 30
0.0
  0
VERTEX
  5
5D7
330
5CB
100
AcDbEntity
  8
\U+838C\U+8343\U+8384\U+815B_1
100
AcDbVertex
100
AcDb2dVertex
 10
236.2019476406023
 20
-162.3673502198248
 30
0.0
  0
VERTEX
  5
5D8
330
5CB
100
AcDbEntity
  8
\U+838C\U+8343\U+8384\U+815B_1
100
AcDbVertex
100
AcDb2dVertex
 10
236.1578504183911
 20
-161.8671223553665
 30
0.0
  0
VERTEX
  5
5D9
330
5CB
100
AcDbEntity
  8
\U+838C\U+8343\U+8384\U+815B_1
100
AcDbVertex
100
AcDb2dVertex
 10
236.0992837951418
 20
-161.3524250898702
 30
0.0
  0
VERTEX
  5
5DA
330
5CB
100
AcDbEntity
  8
\U+838C\U+8343\U+8384\U+815B_1
100
AcDbVertex
100
AcDb2dVertex
 10
236.0110893507195
 20
-160.852197225412
 30
0.0
  0
VERTEX
  5
5DB
330
5CB
100
AcDbEntity
  8
\U+838C\U+8343\U+8384\U+815B_1
100
AcDbVertex
100
AcDb2dVertex
 10
235.9080809957105
 20
-160.3374999599156
 30
0.0
  0
VERTEX
  5
5DC
330
5CB
100
AcDbEntity
  8
\U+838C\U+8343\U+8384\U+815B_1
100
AcDbVertex
100
AcDb2dVertex
 10
235.7906032396635
 20
-159.8228026944193
 30
0.0
  0
VERTEX
  5
5DD
330
5CB
100
AcDbEntity
  8
\U+838C\U+8343\U+8384\U+815B_1
100
AcDbVertex
100
AcDb2dVertex
 10
235.6286837518567
 20
-159.322574829961
 30
0.0
  0
VERTEX
  5
5DE
330
5CB
100
AcDbEntity
  8
\U+838C\U+8343\U+8384\U+815B_1
100
AcDbVertex
100
AcDb2dVertex
 10
235.4815781746366
 20
-158.8078775644647
 30
0.0
  0
VERTEX
  5
5DF
330
5CB
100
AcDbEntity
  8
\U+838C\U+8343\U+8384\U+815B_1
100
AcDbVertex
100
AcDb2dVertex
 10
235.2903753752052
 20
-158.3076497000064
 30
0.0
  0
VERTEX
  5
5E0
330
5CB
100
AcDbEntity
  8
\U+838C\U+8343\U+8384\U+815B_1
100
AcDbVertex
100
AcDb2dVertex
 10
235.0698892641492
 20
-157.8222357461347
 30
0.0
  0
VERTEX
  5
5E1
330
5CB
100
AcDbEntity
  8
\U+838C\U+8343\U+8384\U+815B_1
100
AcDbVertex
100
AcDb2dVertex
 10
234.8494031530932
 20
-157.322352391225
 30
0.0
  0
VERTEX
  5
5E2
330
5CB
100
AcDbEntity
  8
\U+838C\U+8343\U+8384\U+815B_1
100
AcDbVertex
100
AcDb2dVertex
 10
234.5996337304126
 20
-156.8517523479399
 30
0.0
  0
VERTEX
  5
5E3
330
5CB
100
AcDbEntity
  8
\U+838C\U+8343\U+8384\U+815B_1
100
AcDbVertex
100
AcDb2dVertex
 10
234.3347058875969
 20
-156.3811523046547
 30
0.0
  0
VERTEX
  5
5E4
330
5CB
100
AcDbEntity
  8
\U+838C\U+8343\U+8384\U+815B_1
100
AcDbVertex
100
AcDb2dVertex
 10
234.0556531532916
 20
-155.9398355729942
 30
0.0
  0
VERTEX
  5
5E5
330
5CB
100
AcDbEntity
  8
\U+838C\U+8343\U+8384\U+815B_1
100
AcDbVertex
100
AcDb2dVertex
 10
233.7614419988513
 20
-155.4837049307471
 30
0.0
  0
VERTEX
  5
5E6
330
5CB
100
AcDbEntity
  8
\U+838C\U+8343\U+8384\U+815B_1
100
AcDbVertex
100
AcDb2dVertex
 10
233.4527614433729
 20
-155.0572021096732
 30
0.0
  0
VERTEX
  5
5E7
330
5CB
100
AcDbEntity
  8
\U+838C\U+8343\U+8384\U+815B_1
100
AcDbVertex
100
AcDb2dVertex
 10
233.129266977308
 20
-154.6455131991858
 30
0.0
  0
VERTEX
  5
5E8
330
5CB
100
AcDbEntity
  8
\U+838C\U+8343\U+8384\U+815B_1
100
AcDbVertex
100
AcDb2dVertex
 10
232.7909586006564
 20
-154.2482936897366
 30
0.0
  0
VERTEX
  5
5E9
330
5CB
100
AcDbEntity
  8
\U+838C\U+8343\U+8384\U+815B_1
100
AcDbVertex
100
AcDb2dVertex
 10
232.4381808229668
 20
-153.8658880908738
 30
0.0
  0
VERTEX
  5
5EA
330
5CB
100
AcDbEntity
  8
\U+838C\U+8343\U+8384\U+815B_1
100
AcDbVertex
100
AcDb2dVertex
 10
232.0705891346907
 20
-153.4982964025976
 30
0.0
  0
VERTEX
  5
5EB
330
5CB
100
AcDbEntity
  8
\U+838C\U+8343\U+8384\U+815B_1
100
AcDbVertex
100
AcDb2dVertex
 10
231.7029974464145
 20
-153.1451741153595
 30
0.0
  0
VERTEX
  5
5EC
330
5CB
100
AcDbEntity
  8
\U+838C\U+8343\U+8384\U+815B_1
100
AcDbVertex
100
AcDb2dVertex
 10
231.3061224465138
 20
-152.8216796492946
 30
0.0
  0
VERTEX
  5
5ED
330
5CB
100
AcDbEntity
  8
\U+838C\U+8343\U+8384\U+815B_1
100
AcDbVertex
100
AcDb2dVertex
 10
230.909247446613
 20
-152.5274684948542
 30
0.0
  0
VERTEX
  5
5EE
330
5CB
100
AcDbEntity
  8
\U+838C\U+8343\U+8384\U+815B_1
100
AcDbVertex
100
AcDb2dVertex
 10
230.5120279371637
 20
-152.2480712510005
 30
0.0
  0
VERTEX
  5
5EF
330
5CB
100
AcDbEntity
  8
\U+838C\U+8343\U+8384\U+815B_1
100
AcDbVertex
100
AcDb2dVertex
 10
230.1151529372629
 20
-151.9831434081848
 30
0.0
  0
VERTEX
  5
5F0
330
5CB
100
AcDbEntity
  8
\U+838C\U+8343\U+8384\U+815B_1
100
AcDbVertex
100
AcDb2dVertex
 10
229.6889946257375
 20
-151.7478433865422
 30
0.0
  0
VERTEX
  5
5F1
330
5CB
100
AcDbEntity
  8
\U+838C\U+8343\U+8384\U+815B_1
100
AcDbVertex
100
AcDb2dVertex
 10
229.2773057152501
 20
-151.5418266765243
 30
0.0
  0
VERTEX
  5
5F2
330
5CB
100
AcDbEntity
  8
\U+838C\U+8343\U+8384\U+815B_1
100
AcDbVertex
100
AcDb2dVertex
 10
228.8508028941762
 20
-151.3361544760548
 30
0.0
  0
VERTEX
  5
5F3
330
5CB
100
AcDbEntity
  8
\U+838C\U+8343\U+8384\U+815B_1
100
AcDbVertex
100
AcDb2dVertex
 10
228.4243000731023
 20
-151.1742349882481
 30
0.0
  0
VERTEX
  5
5F4
330
5CB
100
AcDbEntity
  8
\U+838C\U+8343\U+8384\U+815B_1
100
AcDbVertex
100
AcDb2dVertex
 10
227.9981417615769
 20
-151.0419433216145
 30
0.0
  0
VERTEX
  5
5F5
330
5CB
100
AcDbEntity
  8
\U+838C\U+8343\U+8384\U+815B_1
100
AcDbVertex
100
AcDb2dVertex
 10
227.5716389405029
 20
-150.9389349666056
 30
0.0
  0
VERTEX
  5
5F6
330
5CB
100
AcDbEntity
  8
\U+838C\U+8343\U+8384\U+815B_1
100
AcDbVertex
100
AcDb2dVertex
 10
227.1454806289775
 20
-150.8507405221831
 30
0.0
  0
VERTEX
  5
5F7
330
5CB
100
AcDbEntity
  8
\U+838C\U+8343\U+8384\U+815B_1
100
AcDbVertex
100
AcDb2dVertex
 10
226.7334472089416
 20
-150.7770154787988
 30
0.0
  0
VERTEX
  5
5F8
330
5CB
100
AcDbEntity
  8
\U+838C\U+8343\U+8384\U+815B_1
100
AcDbVertex
100
AcDb2dVertex
 10
226.3221028080028
 20
-150.7477321671742
 30
0.0
  0
VERTEX
  5
5F9
330
5CB
100
AcDbEntity
  8
\U+838C\U+8343\U+8384\U+815B_1
100
AcDbVertex
100
AcDb2dVertex
 10
225.9104138975155
 20
-150.7477321671742
 30
0.0
  0
VERTEX
  5
5FA
330
5CB
100
AcDbEntity
  8
\U+838C\U+8343\U+8384\U+815B_1
100
AcDbVertex
100
AcDb2dVertex
 10
225.4987249870281
 20
-150.7625460777608
 30
0.0
  0
VERTEX
  5
5FB
330
5CB
100
AcDbEntity
  8
\U+838C\U+8343\U+8384\U+815B_1
100
AcDbVertex
100
AcDb2dVertex
 10
225.0870360765408
 20
-150.82111270101
 30
0.0
  0
VERTEX
  5
5FC
330
5CB
100
AcDbEntity
  8
\U+838C\U+8343\U+8384\U+815B_1
100
AcDbVertex
100
AcDb2dVertex
 10
224.704630477678
 20
-150.8800238338078
 30
0.0
  0
VERTEX
  5
5FD
330
5CB
100
AcDbEntity
  8
\U+838C\U+8343\U+8384\U+815B_1
100
AcDbVertex
100
AcDb2dVertex
 10
224.3225693883638
 20
-150.9830321888167
 30
0.0
  0
VERTEX
  5
5FE
330
5CB
100
AcDbEntity
  8
\U+838C\U+8343\U+8384\U+815B_1
100
AcDbVertex
100
AcDb2dVertex
 10
223.9401637895011
 20
-151.1008544544123
 30
0.0
  0
VERTEX
  5
5FF
330
5CB
100
AcDbEntity
  8
\U+838C\U+8343\U+8384\U+815B_1
100
AcDbVertex
100
AcDb2dVertex
 10
223.5725721012249
 20
-151.2476155220839
 30
0.0
  0
VERTEX
  5
600
330
5CB
100
AcDbEntity
  8
\U+838C\U+8343\U+8384\U+815B_1
100
AcDbVertex
100
AcDb2dVertex
 10
223.2197943235354
 20
-151.4243489204773
 30
0.0
  0
VERTEX
  5
601
330
5CB
100
AcDbEntity
  8
\U+838C\U+8343\U+8384\U+815B_1
100
AcDbVertex
100
AcDb2dVertex
 10
222.8962998574704
 20
-151.6303656304952
 30
0.0
  0
VERTEX
  5
602
330
5CB
100
AcDbEntity
  8
\U+838C\U+8343\U+8384\U+815B_1
100
AcDbVertex
100
AcDb2dVertex
 10
222.5728053914054
 20
-151.8656656521377
 30
0.0
  0
VERTEX
  5
603
330
5CB
100
AcDbEntity
  8
\U+838C\U+8343\U+8384\U+815B_1
100
AcDbVertex
100
AcDb2dVertex
 10
222.264124835927
 20
-152.1154350748184
 30
0.0
  0
VERTEX
  5
604
330
5CB
100
AcDbEntity
  8
\U+838C\U+8343\U+8384\U+815B_1
100
AcDbVertex
100
AcDb2dVertex
 10
221.9699136814867
 20
-152.3803629176341
 30
0.0
  0
VERTEX
  5
605
330
5CB
100
AcDbEntity
  8
\U+838C\U+8343\U+8384\U+815B_1
100
AcDbVertex
100
AcDb2dVertex
 10
221.6905164376329
 20
-152.6745740720744
 30
0.0
  0
VERTEX
  5
606
330
5CB
100
AcDbEntity
  8
\U+838C\U+8343\U+8384\U+815B_1
100
AcDbVertex
100
AcDb2dVertex
 10
221.4259331043658
 20
-152.9832546275528
 30
0.0
  0
VERTEX
  5
607
330
5CB
100
AcDbEntity
  8
\U+838C\U+8343\U+8384\U+815B_1
100
AcDbVertex
100
AcDb2dVertex
 10
221.1906330827232
 20
-153.3215630042043
 30
0.0
  0
VERTEX
  5
608
330
5CB
100
AcDbEntity
  8
\U+838C\U+8343\U+8384\U+815B_1
100
AcDbVertex
100
AcDb2dVertex
 10
220.9701469716672
 20
-153.6746852914424
 30
0.0
  0
VERTEX
  5
609
330
5CB
100
AcDbEntity
  8
\U+838C\U+8343\U+8384\U+815B_1
100
AcDbVertex
100
AcDb2dVertex
 10
220.8526692156202
 20
-153.8658880908738
 30
0.0
  0
SEQEND
  5
60A
330
5CB
100
AcDbEntity
  8
\U+838C\U+8343\U+8384\U+815B_1
  0
POLYLINE
  5
60B
330
3C
100
AcDbEntity
  8
\U+838C\U+8343\U+8384\U+815B_1
100
AcDb2dPolyline
 66
     1
 10
0.0
 20
0.0
 30
0.0
  0
VERTEX
  5
60C
330
60B
100
AcDbEntity
  8
\U+838C\U+8343\U+8384\U+815B_1
100
AcDbVertex
100
AcDb2dVertex
 10
224.7928249221004
 20
-165.0882866340752
 30
0.0
  0
VERTEX
  5
60D
330
60B
100
AcDbEntity
  8
\U+838C\U+8343\U+8384\U+815B_1
100
AcDbVertex
100
AcDb2dVertex
 10
225.9396972091401
 20
-165.4117811001401
 30
0.0
  0
VERTEX
  5
60E
330
60B
100
AcDbEntity
  8
\U+838C\U+8343\U+8384\U+815B_1
100
AcDbVertex
100
AcDb2dVertex
 10
227.1010388972178
 20
-165.1031005446617
 30
0.0
  0
SEQEND
  5
60F
330
60B
100
AcDbEntity
  8
\U+838C\U+8343\U+8384\U+815B_1
  0
POLYLINE
  5
610
330
3C
100
AcDbEntity
  8
\U+838C\U+8343\U+8384\U+815B_1
100
AcDb2dPolyline
 66
     1
 10
0.0
 20
0.0
 30
0.0
  0
VERTEX
  5
611
330
610
100
AcDbEntity
  8
\U+838C\U+8343\U+8384\U+815B_1
100
AcDbVertex
100
AcDb2dVertex
 10
228.145247338797
 20
-163.4115586614041
 30
0.0
  0
VERTEX
  5
612
330
610
100
AcDbEntity
  8
\U+838C\U+8343\U+8384\U+815B_1
100
AcDbVertex
100
AcDb2dVertex
 10
228.1011501165858
 20
-161.9260334881643
 30
0.0
  0
VERTEX
  5
613
330
610
100
AcDbEntity
  8
\U+838C\U+8343\U+8384\U+815B_1
100
AcDbVertex
100
AcDb2dVertex
 10
227.5568250299164
 20
-160.5435166699336
 30
0.0
  0
SEQEND
  5
614
330
610
100
AcDbEntity
  8
\U+838C\U+8343\U+8384\U+815B_1
  0
POLYLINE
  5
615
330
3C
100
AcDbEntity
  8
\U+838C\U+8343\U+8384\U+815B_1
100
AcDb2dPolyline
 66
     1
 10
0.0
 20
0.0
 30
0.0
  0
VERTEX
  5
616
330
615
100
AcDbEntity
  8
\U+838C\U+8343\U+8384\U+815B_1
100
AcDbVertex
100
AcDb2dVertex
 10
225.8366888541311
 20
-158.8226914750513
 30
0.0
  0
VERTEX
  5
617
330
615
100
AcDbEntity
  8
\U+838C\U+8343\U+8384\U+815B_1
100
AcDbVertex
100
AcDb2dVertex
 10
224.6898165670914
 20
-158.4988524994378
 30
0.0
  0
VERTEX
  5
618
330
615
100
AcDbEntity
  8
\U+838C\U+8343\U+8384\U+815B_1
100
AcDbVertex
100
AcDb2dVertex
 10
223.5284748790137
 20
-158.8078775644647
 30
0.0
  0
SEQEND
  5
619
330
615
100
AcDbEntity
  8
\U+838C\U+8343\U+8384\U+815B_1
  0
POLYLINE
  5
61A
330
3C
100
AcDbEntity
  8
\U+838C\U+8343\U+8384\U+815B_1
100
AcDb2dPolyline
 66
     1
 10
0.0
 20
0.0
 30
0.0
  0
VERTEX
  5
61B
330
61A
100
AcDbEntity
  8
\U+838C\U+8343\U+8384\U+815B_1
100
AcDbVertex
100
AcDb2dVertex
 10
222.484610946983
 20
-160.4994194477224
 30
0.0
  0
VERTEX
  5
61C
330
61A
100
AcDbEntity
  8
\U+838C\U+8343\U+8384\U+815B_1
100
AcDbVertex
100
AcDb2dVertex
 10
222.5287081691942
 20
-161.9849446209621
 30
0.0
  0
VERTEX
  5
61D
330
61A
100
AcDbEntity
  8
\U+838C\U+8343\U+8384\U+815B_1
100
AcDbVertex
100
AcDb2dVertex
 10
223.0578748357286
 20
-163.3674614391929
 30
0.0
  0
SEQEND
  5
61E
330
61A
100
AcDbEntity
  8
\U+838C\U+8343\U+8384\U+815B_1
  0
POLYLINE
  5
61F
330
3C
100
AcDbEntity
  8
\U+838C\U+8343\U+8384\U+815B_1
100
AcDb2dPolyline
 66
     1
 10
0.0
 20
0.0
 30
0.0
  0
VERTEX
  5
620
330
61F
100
AcDbEntity
  8
\U+838C\U+8343\U+8384\U+815B_1
100
AcDbVertex
100
AcDb2dVertex
 10
232.7616752890318
 20
-170.0450900182526
 30
0.0
  0
VERTEX
  5
621
330
61F
100
AcDbEntity
  8
\U+838C\U+8343\U+8384\U+815B_1
100
AcDbVertex
100
AcDb2dVertex
 10
233.011789221261
 20
-169.9420816632436
 30
0.0
  0
VERTEX
  5
622
330
61F
100
AcDbEntity
  8
\U+838C\U+8343\U+8384\U+815B_1
100
AcDbVertex
100
AcDb2dVertex
 10
233.3790363999886
 20
-169.7949760860235
 30
0.0
  0
VERTEX
  5
623
330
61F
100
AcDbEntity
  8
\U+838C\U+8343\U+8384\U+815B_1
100
AcDbVertex
100
AcDb2dVertex
 10
233.7173447766401
 20
-169.5889593760055
 30
0.0
  0
VERTEX
  5
624
330
61F
100
AcDbEntity
  8
\U+838C\U+8343\U+8384\U+815B_1
100
AcDbVertex
100
AcDb2dVertex
 10
234.0701225543297
 20
-169.3977565765742
 30
0.0
  0
VERTEX
  5
625
330
61F
100
AcDbEntity
  8
\U+838C\U+8343\U+8384\U+815B_1
100
AcDbVertex
100
AcDb2dVertex
 10
234.4084309309812
 20
-169.133173243307
 30
0.0
  0
VERTEX
  5
626
330
61F
100
AcDbEntity
  8
\U+838C\U+8343\U+8384\U+815B_1
100
AcDbVertex
100
AcDb2dVertex
 10
234.7171114864596
 20
-168.8830593110779
 30
0.0
  0
VERTEX
  5
627
330
61F
100
AcDbEntity
  8
\U+838C\U+8343\U+8384\U+815B_1
100
AcDbVertex
100
AcDb2dVertex
 10
234.9965087303134
 20
-168.6184759778107
 30
0.0
  0
VERTEX
  5
628
330
61F
100
AcDbEntity
  8
\U+838C\U+8343\U+8384\U+815B_1
100
AcDbVertex
100
AcDb2dVertex
 10
235.2759059741672
 20
-168.3094509127837
 30
0.0
  0
VERTEX
  5
629
330
61F
100
AcDbEntity
  8
\U+838C\U+8343\U+8384\U+815B_1
100
AcDbVertex
100
AcDb2dVertex
 10
235.5404893074343
 20
-167.9859564467188
 30
0.0
  0
VERTEX
  5
62A
330
61F
100
AcDbEntity
  8
\U+838C\U+8343\U+8384\U+815B_1
100
AcDbVertex
100
AcDb2dVertex
 10
235.7906032396635
 20
-167.6476480700672
 30
0.0
  0
VERTEX
  5
62B
330
61F
100
AcDbEntity
  8
\U+838C\U+8343\U+8384\U+815B_1
100
AcDbVertex
100
AcDb2dVertex
 10
235.9962754401329
 20
-167.2652424712045
 30
0.0
  0
VERTEX
  5
62C
330
61F
100
AcDbEntity
  8
\U+838C\U+8343\U+8384\U+815B_1
100
AcDbVertex
100
AcDb2dVertex
 10
236.2019476406023
 20
-166.8973062733799
 30
0.0
  0
VERTEX
  5
62D
330
61F
100
AcDbEntity
  8
\U+838C\U+8343\U+8384\U+815B_1
100
AcDbVertex
100
AcDb2dVertex
 10
236.3931504400337
 20
-166.4708034523059
 30
0.0
  0
VERTEX
  5
62E
330
61F
100
AcDbEntity
  8
\U+838C\U+8343\U+8384\U+815B_1
100
AcDbVertex
100
AcDb2dVertex
 10
236.5550699278404
 20
-166.0591145418186
 30
0.0
  0
VERTEX
  5
62F
330
61F
100
AcDbEntity
  8
\U+838C\U+8343\U+8384\U+815B_1
100
AcDbVertex
100
AcDb2dVertex
 10
236.7021755050606
 20
-165.6326117207446
 30
0.0
  0
VERTEX
  5
630
330
61F
100
AcDbEntity
  8
\U+838C\U+8343\U+8384\U+815B_1
100
AcDbVertex
100
AcDb2dVertex
 10
236.8196532611076
 20
-165.1912949890841
 30
0.0
  0
VERTEX
  5
631
330
61F
100
AcDbEntity
  8
\U+838C\U+8343\U+8384\U+815B_1
100
AcDbVertex
100
AcDb2dVertex
 10
236.9226616161166
 20
-164.720694945799
 30
0.0
  0
VERTEX
  5
632
330
61F
100
AcDbEntity
  8
\U+838C\U+8343\U+8384\U+815B_1
100
AcDbVertex
100
AcDb2dVertex
 10
236.9960421499524
 20
-164.2500949025139
 30
0.0
  0
VERTEX
  5
633
330
61F
100
AcDbEntity
  8
\U+838C\U+8343\U+8384\U+815B_1
100
AcDbVertex
100
AcDb2dVertex
 10
237.0549532827501
 20
-163.7646809486422
 30
0.0
  0
VERTEX
  5
634
330
61F
100
AcDbEntity
  8
\U+838C\U+8343\U+8384\U+815B_1
100
AcDbVertex
100
AcDb2dVertex
 10
237.0842365943748
 20
-163.2644530841839
 30
0.0
  0
VERTEX
  5
635
330
61F
100
AcDbEntity
  8
\U+838C\U+8343\U+8384\U+815B_1
100
AcDbVertex
100
AcDb2dVertex
 10
237.0990505049614
 20
-162.7790391303122
 30
0.0
  0
VERTEX
  5
636
330
61F
100
AcDbEntity
  8
\U+838C\U+8343\U+8384\U+815B_1
100
AcDbVertex
100
AcDb2dVertex
 10
237.0842365943748
 20
-162.2643418648159
 30
0.0
  0
VERTEX
  5
637
330
61F
100
AcDbEntity
  8
\U+838C\U+8343\U+8384\U+815B_1
100
AcDbVertex
100
AcDb2dVertex
 10
237.0694226837882
 20
-161.7496445993195
 30
0.0
  0
VERTEX
  5
638
330
61F
100
AcDbEntity
  8
\U+838C\U+8343\U+8384\U+815B_1
100
AcDbVertex
100
AcDb2dVertex
 10
236.9960421499524
 20
-161.2346028242747
 30
0.0
  0
VERTEX
  5
639
330
61F
100
AcDbEntity
  8
\U+838C\U+8343\U+8384\U+815B_1
100
AcDbVertex
100
AcDb2dVertex
 10
236.9226616161166
 20
-160.7199055587784
 30
0.0
  0
VERTEX
  5
63A
330
61F
100
AcDbEntity
  8
\U+838C\U+8343\U+8384\U+815B_1
100
AcDbVertex
100
AcDb2dVertex
 10
236.8196532611076
 20
-160.1903943826955
 30
0.0
  0
VERTEX
  5
63B
330
61F
100
AcDbEntity
  8
\U+838C\U+8343\U+8384\U+815B_1
100
AcDbVertex
100
AcDb2dVertex
 10
236.7021755050606
 20
-159.6756971171991
 30
0.0
  0
VERTEX
  5
63C
330
61F
100
AcDbEntity
  8
\U+838C\U+8343\U+8384\U+815B_1
100
AcDbVertex
100
AcDb2dVertex
 10
236.5695393288784
 20
-159.1609998517028
 30
0.0
  0
VERTEX
  5
63D
330
61F
100
AcDbEntity
  8
\U+838C\U+8343\U+8384\U+815B_1
100
AcDbVertex
100
AcDb2dVertex
 10
236.4079643506202
 20
-158.645958076658
 30
0.0
  0
VERTEX
  5
63E
330
61F
100
AcDbEntity
  8
\U+838C\U+8343\U+8384\U+815B_1
100
AcDbVertex
100
AcDb2dVertex
 10
236.2019476406023
 20
-158.1312608111616
 30
0.0
  0
VERTEX
  5
63F
330
61F
100
AcDbEntity
  8
\U+838C\U+8343\U+8384\U+815B_1
100
AcDbVertex
100
AcDb2dVertex
 10
236.0110893507195
 20
-157.6165635456653
 30
0.0
  0
VERTEX
  5
640
330
61F
100
AcDbEntity
  8
\U+838C\U+8343\U+8384\U+815B_1
100
AcDbVertex
100
AcDb2dVertex
 10
235.7906032396635
 20
-157.116335681207
 30
0.0
  0
VERTEX
  5
641
330
61F
100
AcDbEntity
  8
\U+838C\U+8343\U+8384\U+815B_1
100
AcDbVertex
100
AcDb2dVertex
 10
235.5553032180209
 20
-156.6309217273353
 30
0.0
  0
VERTEX
  5
642
330
61F
100
AcDbEntity
  8
\U+838C\U+8343\U+8384\U+815B_1
100
AcDbVertex
100
AcDb2dVertex
 10
235.2903753752052
 20
-156.1603216840502
 30
0.0
  0
VERTEX
  5
643
330
61F
100
AcDbEntity
  8
\U+838C\U+8343\U+8384\U+815B_1
100
AcDbVertex
100
AcDb2dVertex
 10
235.0113226408999
 20
-155.6897216407651
 30
0.0
  0
VERTEX
  5
644
330
61F
100
AcDbEntity
  8
\U+838C\U+8343\U+8384\U+815B_1
100
AcDbVertex
100
AcDb2dVertex
 10
234.7319253970462
 20
-155.233590998518
 30
0.0
  0
VERTEX
  5
645
330
61F
100
AcDbEntity
  8
\U+838C\U+8343\U+8384\U+815B_1
100
AcDbVertex
100
AcDb2dVertex
 10
234.4232448415678
 20
-154.7778048658194
 30
0.0
  0
VERTEX
  5
646
330
61F
100
AcDbEntity
  8
\U+838C\U+8343\U+8384\U+815B_1
100
AcDbVertex
100
AcDb2dVertex
 10
234.0849364649163
 20
-154.3513020447455
 30
0.0
  0
VERTEX
  5
647
330
61F
100
AcDbEntity
  8
\U+838C\U+8343\U+8384\U+815B_1
100
AcDbVertex
100
AcDb2dVertex
 10
233.7466280882647
 20
-153.9392686247096
 30
0.0
  0
VERTEX
  5
648
330
61F
100
AcDbEntity
  8
\U+838C\U+8343\U+8384\U+815B_1
100
AcDbVertex
100
AcDb2dVertex
 10
233.3938503105751
 20
-153.5423936248089
 30
0.0
  0
VERTEX
  5
649
330
61F
100
AcDbEntity
  8
\U+838C\U+8343\U+8384\U+815B_1
100
AcDbVertex
100
AcDb2dVertex
 10
233.0410725328856
 20
-153.1599880259461
 30
0.0
  0
VERTEX
  5
64A
330
61F
100
AcDbEntity
  8
\U+838C\U+8343\U+8384\U+815B_1
100
AcDbVertex
100
AcDb2dVertex
 10
232.6441975329848
 20
-152.7920518281214
 30
0.0
  0
VERTEX
  5
64B
330
61F
100
AcDbEntity
  8
\U+838C\U+8343\U+8384\U+815B_1
100
AcDbVertex
100
AcDb2dVertex
 10
232.2617919341221
 20
-152.4537434514699
 30
0.0
  0
VERTEX
  5
64C
330
61F
100
AcDbEntity
  8
\U+838C\U+8343\U+8384\U+815B_1
100
AcDbVertex
100
AcDb2dVertex
 10
231.8793863352593
 20
-152.1450628959915
 30
0.0
  0
VERTEX
  5
64D
330
61F
100
AcDbEntity
  8
\U+838C\U+8343\U+8384\U+815B_1
100
AcDbVertex
100
AcDb2dVertex
 10
231.467697424772
 20
-151.8360378309646
 30
0.0
  0
VERTEX
  5
64E
330
61F
100
AcDbEntity
  8
\U+838C\U+8343\U+8384\U+815B_1
100
AcDbVertex
100
AcDb2dVertex
 10
231.0563530238331
 20
-151.5566405871108
 30
0.0
  0
VERTEX
  5
64F
330
61F
100
AcDbEntity
  8
\U+838C\U+8343\U+8384\U+815B_1
100
AcDbVertex
100
AcDb2dVertex
 10
230.6446641133458
 20
-151.3065266548817
 30
0.0
  0
VERTEX
  5
650
330
61F
100
AcDbEntity
  8
\U+838C\U+8343\U+8384\U+815B_1
100
AcDbVertex
100
AcDb2dVertex
 10
230.2181612922719
 20
-151.0860405438257
 30
0.0
  0
VERTEX
  5
651
330
61F
100
AcDbEntity
  8
\U+838C\U+8343\U+8384\U+815B_1
100
AcDbVertex
100
AcDb2dVertex
 10
229.7916584711979
 20
-150.8800238338078
 30
0.0
  0
VERTEX
  5
652
330
61F
100
AcDbEntity
  8
\U+838C\U+8343\U+8384\U+815B_1
100
AcDbVertex
100
AcDb2dVertex
 10
229.350686249086
 20
-150.6888210343764
 30
0.0
  0
VERTEX
  5
653
330
61F
100
AcDbEntity
  8
\U+838C\U+8343\U+8384\U+815B_1
100
AcDbVertex
100
AcDb2dVertex
 10
228.924183428012
 20
-150.5417154571562
 30
0.0
  0
VERTEX
  5
654
330
61F
100
AcDbEntity
  8
\U+838C\U+8343\U+8384\U+815B_1
100
AcDbVertex
100
AcDb2dVertex
 10
228.4980251164866
 20
-150.4094237905227
 30
0.0
  0
VERTEX
  5
655
330
61F
100
AcDbEntity
  8
\U+838C\U+8343\U+8384\U+815B_1
100
AcDbVertex
100
AcDb2dVertex
 10
228.0715222954127
 20
-150.3064154355137
 30
0.0
  0
VERTEX
  5
656
330
61F
100
AcDbEntity
  8
\U+838C\U+8343\U+8384\U+815B_1
100
AcDbVertex
100
AcDb2dVertex
 10
227.6305500733007
 20
-150.2330349016779
 30
0.0
  0
VERTEX
  5
657
330
61F
100
AcDbEntity
  8
\U+838C\U+8343\U+8384\U+815B_1
100
AcDbVertex
100
AcDb2dVertex
 10
227.2040472522268
 20
-150.1889376794666
 30
0.0
  0
SEQEND
  5
658
330
61F
100
AcDbEntity
  8
\U+838C\U+8343\U+8384\U+815B_1
  0
POLYLINE
  5
659
330
3C
100
AcDbEntity
  8
\U+838C\U+8343\U+8384\U+815B_1
100
AcDb2dPolyline
 66
     1
 10
0.0
 20
0.0
 30
0.0
  0
VERTEX
  5
65A
330
659
100
AcDbEntity
  8
\U+838C\U+8343\U+8384\U+815B_1
100
AcDbVertex
100
AcDb2dVertex
 10
227.2040472522268
 20
-150.1889376794666
 30
0.0
  0
VERTEX
  5
65B
330
659
100
AcDbEntity
  8
\U+838C\U+8343\U+8384\U+815B_1
100
AcDbVertex
100
AcDb2dVertex
 10
226.7778889407014
 20
-150.1593098582935
 30
0.0
  0
SEQEND
  5
65C
330
659
100
AcDbEntity
  8
\U+838C\U+8343\U+8384\U+815B_1
  0
POLYLINE
  5
65D
330
3C
100
AcDbEntity
  8
\U+838C\U+8343\U+8384\U+815B_1
100
AcDb2dPolyline
 66
     1
 10
0.0
 20
0.0
 30
0.0
  0
VERTEX
  5
65E
330
65D
100
AcDbEntity
  8
\U+838C\U+8343\U+8384\U+815B_1
100
AcDbVertex
100
AcDb2dVertex
 10
226.7778889407014
 20
-150.1593098582935
 30
0.0
  0
VERTEX
  5
65F
330
65D
100
AcDbEntity
  8
\U+838C\U+8343\U+8384\U+815B_1
100
AcDbVertex
100
AcDb2dVertex
 10
226.366200030214
 20
-150.1593098582935
 30
0.0
  0
VERTEX
  5
660
330
65D
100
AcDbEntity
  8
\U+838C\U+8343\U+8384\U+815B_1
100
AcDbVertex
100
AcDb2dVertex
 10
225.9545111197266
 20
-150.1889376794666
 30
0.0
  0
VERTEX
  5
661
330
65D
100
AcDbEntity
  8
\U+838C\U+8343\U+8384\U+815B_1
100
AcDbVertex
100
AcDb2dVertex
 10
225.5428222092393
 20
-150.2475043027159
 30
0.0
  0
VERTEX
  5
662
330
65D
100
AcDbEntity
  8
\U+838C\U+8343\U+8384\U+815B_1
100
AcDbVertex
100
AcDb2dVertex
 10
225.14560269979
 20
-150.3360432566868
 30
0.0
  0
VERTEX
  5
663
330
65D
100
AcDbEntity
  8
\U+838C\U+8343\U+8384\U+815B_1
100
AcDbVertex
100
AcDb2dVertex
 10
224.7487276998892
 20
-150.4387071021473
 30
0.0
  0
VERTEX
  5
664
330
65D
100
AcDbEntity
  8
\U+838C\U+8343\U+8384\U+815B_1
100
AcDbVertex
100
AcDb2dVertex
 10
224.3811360116131
 20
-150.5713432783294
 30
0.0
  0
VERTEX
  5
665
330
65D
100
AcDbEntity
  8
\U+838C\U+8343\U+8384\U+815B_1
100
AcDbVertex
100
AcDb2dVertex
 10
224.0135443233369
 20
-150.7329182565876
 30
0.0
  0
SEQEND
  5
666
330
65D
100
AcDbEntity
  8
\U+838C\U+8343\U+8384\U+815B_1
  0
POLYLINE
  5
667
330
3C
100
AcDbEntity
  8
\U+838C\U+8343\U+8384\U+815B_1
100
AcDb2dPolyline
 66
     1
 10
0.0
 20
0.0
 30
0.0
  0
VERTEX
  5
668
330
667
100
AcDbEntity
  8
\U+838C\U+8343\U+8384\U+815B_1
100
AcDbVertex
100
AcDb2dVertex
 10
224.0135443233369
 20
-150.7329182565876
 30
0.0
  0
VERTEX
  5
669
330
667
100
AcDbEntity
  8
\U+838C\U+8343\U+8384\U+815B_1
100
AcDbVertex
100
AcDb2dVertex
 10
223.6607665456473
 20
-150.924121056019
 30
0.0
  0
SEQEND
  5
66A
330
667
100
AcDbEntity
  8
\U+838C\U+8343\U+8384\U+815B_1
  0
POLYLINE
  5
66B
330
3C
100
AcDbEntity
  8
\U+838C\U+8343\U+8384\U+815B_1
100
AcDb2dPolyline
 66
     1
 10
0.0
 20
0.0
 30
0.0
  0
VERTEX
  5
66C
330
66B
100
AcDbEntity
  8
\U+838C\U+8343\U+8384\U+815B_1
100
AcDbVertex
100
AcDb2dVertex
 10
223.6607665456473
 20
-150.924121056019
 30
0.0
  0
VERTEX
  5
66D
330
66B
100
AcDbEntity
  8
\U+838C\U+8343\U+8384\U+815B_1
100
AcDbVertex
100
AcDb2dVertex
 10
223.3372720795824
 20
-151.1301377660369
 30
0.0
  0
VERTEX
  5
66E
330
66B
100
AcDbEntity
  8
\U+838C\U+8343\U+8384\U+815B_1
100
AcDbVertex
100
AcDb2dVertex
 10
223.3224581689958
 20
-151.1301377660369
 30
0.0
  0
SEQEND
  5
66F
330
66B
100
AcDbEntity
  8
\U+838C\U+8343\U+8384\U+815B_1
  0
POLYLINE
  5
670
330
3C
100
AcDbEntity
  8
\U+838C\U+8343\U+8384\U+815B_1
100
AcDb2dPolyline
 66
     1
 10
0.0
 20
0.0
 30
0.0
  0
VERTEX
  5
671
330
670
100
AcDbEntity
  8
\U+838C\U+8343\U+8384\U+815B_1
100
AcDbVertex
100
AcDb2dVertex
 10
233.8055392210625
 20
-152.7334852048722
 30
0.0
  0
VERTEX
  5
672
330
670
100
AcDbEntity
  8
\U+838C\U+8343\U+8384\U+815B_1
100
AcDbVertex
100
AcDb2dVertex
 10
234.1583169987521
 20
-153.1158908037349
 30
0.0
  0
VERTEX
  5
673
330
670
100
AcDbEntity
  8
\U+838C\U+8343\U+8384\U+815B_1
100
AcDbVertex
100
AcDb2dVertex
 10
234.5114392859902
 20
-153.4982964025976
 30
0.0
  0
VERTEX
  5
674
330
670
100
AcDbEntity
  8
\U+838C\U+8343\U+8384\U+815B_1
100
AcDbVertex
100
AcDb2dVertex
 10
234.8642170636798
 20
-153.9247992236716
 30
0.0
  0
VERTEX
  5
675
330
670
100
AcDbEntity
  8
\U+838C\U+8343\U+8384\U+815B_1
100
AcDbVertex
100
AcDb2dVertex
 10
235.1877115297447
 20
-154.3513020447455
 30
0.0
  0
VERTEX
  5
676
330
670
100
AcDbEntity
  8
\U+838C\U+8343\U+8384\U+815B_1
100
AcDbVertex
100
AcDb2dVertex
 10
235.4815781746366
 20
-154.792618776406
 30
0.0
  0
VERTEX
  5
677
330
670
100
AcDbEntity
  8
\U+838C\U+8343\U+8384\U+815B_1
100
AcDbVertex
100
AcDb2dVertex
 10
235.7906032396635
 20
-155.2484049091046
 30
0.0
  0
VERTEX
  5
678
330
670
100
AcDbEntity
  8
\U+838C\U+8343\U+8384\U+815B_1
100
AcDbVertex
100
AcDb2dVertex
 10
236.0551865729307
 20
-155.7338188629763
 30
0.0
  0
VERTEX
  5
679
330
670
100
AcDbEntity
  8
\U+838C\U+8343\U+8384\U+815B_1
100
AcDbVertex
100
AcDb2dVertex
 10
236.3197699061978
 20
-156.2044189062614
 30
0.0
  0
VERTEX
  5
67A
330
670
100
AcDbEntity
  8
\U+838C\U+8343\U+8384\U+815B_1
100
AcDbVertex
100
AcDb2dVertex
 10
236.5695393288784
 20
-156.6898328601331
 30
0.0
  0
VERTEX
  5
67B
330
670
100
AcDbEntity
  8
\U+838C\U+8343\U+8384\U+815B_1
100
AcDbVertex
100
AcDb2dVertex
 10
236.804839350521
 20
-157.1900607245914
 30
0.0
  0
VERTEX
  5
67C
330
670
100
AcDbEntity
  8
\U+838C\U+8343\U+8384\U+815B_1
100
AcDbVertex
100
AcDb2dVertex
 10
236.9960421499524
 20
-157.6899440795011
 30
0.0
  0
VERTEX
  5
67D
330
670
100
AcDbEntity
  8
\U+838C\U+8343\U+8384\U+815B_1
100
AcDbVertex
100
AcDb2dVertex
 10
237.1872449493838
 20
-158.219455255584
 30
0.0
  0
VERTEX
  5
67E
330
670
100
AcDbEntity
  8
\U+838C\U+8343\U+8384\U+815B_1
100
AcDbVertex
100
AcDb2dVertex
 10
237.348819927642
 20
-158.7196831200423
 30
0.0
  0
VERTEX
  5
67F
330
670
100
AcDbEntity
  8
\U+838C\U+8343\U+8384\U+815B_1
100
AcDbVertex
100
AcDb2dVertex
 10
237.4811115942756
 20
-159.2491942961252
 30
0.0
  0
VERTEX
  5
680
330
670
100
AcDbEntity
  8
\U+838C\U+8343\U+8384\U+815B_1
100
AcDbVertex
100
AcDb2dVertex
 10
237.6137477704577
 20
-159.7638915616215
 30
0.0
  0
VERTEX
  5
681
330
670
100
AcDbEntity
  8
\U+838C\U+8343\U+8384\U+815B_1
100
AcDbVertex
100
AcDb2dVertex
 10
237.7164116159181
 20
-160.2934027377044
 30
0.0
  0
VERTEX
  5
682
330
670
100
AcDbEntity
  8
\U+838C\U+8343\U+8384\U+815B_1
100
AcDbVertex
100
AcDb2dVertex
 10
237.8046060603405
 20
-160.8081000032008
 30
0.0
  0
VERTEX
  5
683
330
670
100
AcDbEntity
  8
\U+838C\U+8343\U+8384\U+815B_1
100
AcDbVertex
100
AcDb2dVertex
 10
237.8635171931383
 20
-161.3231417782456
 30
0.0
  0
VERTEX
  5
684
330
670
100
AcDbEntity
  8
\U+838C\U+8343\U+8384\U+815B_1
100
AcDbVertex
100
AcDb2dVertex
 10
237.8928005047629
 20
-161.8378390437419
 30
0.0
  0
VERTEX
  5
685
330
670
100
AcDbEntity
  8
\U+838C\U+8343\U+8384\U+815B_1
100
AcDbVertex
100
AcDb2dVertex
 10
237.9076144153495
 20
-162.3525363092383
 30
0.0
  0
VERTEX
  5
686
330
670
100
AcDbEntity
  8
\U+838C\U+8343\U+8384\U+815B_1
100
AcDbVertex
100
AcDb2dVertex
 10
237.8928005047629
 20
-162.8527641736965
 30
0.0
  0
VERTEX
  5
687
330
670
100
AcDbEntity
  8
\U+838C\U+8343\U+8384\U+815B_1
100
AcDbVertex
100
AcDb2dVertex
 10
237.8783311037249
 20
-163.3526475286063
 30
0.0
  0
VERTEX
  5
688
330
670
100
AcDbEntity
  8
\U+838C\U+8343\U+8384\U+815B_1
100
AcDbVertex
100
AcDb2dVertex
 10
237.8046060603405
 20
-163.838061482478
 30
0.0
  0
VERTEX
  5
689
330
670
100
AcDbEntity
  8
\U+838C\U+8343\U+8384\U+815B_1
100
AcDbVertex
100
AcDb2dVertex
 10
237.7312255265047
 20
-164.3086615257631
 30
0.0
  0
VERTEX
  5
68A
330
670
100
AcDbEntity
  8
\U+838C\U+8343\U+8384\U+815B_1
100
AcDbVertex
100
AcDb2dVertex
 10
237.6430310820823
 20
-164.7647921680102
 30
0.0
  0
VERTEX
  5
68B
330
670
100
AcDbEntity
  8
\U+838C\U+8343\U+8384\U+815B_1
100
AcDbVertex
100
AcDb2dVertex
 10
237.5252088164868
 20
-165.2205783007088
 30
0.0
  0
VERTEX
  5
68C
330
670
100
AcDbEntity
  8
\U+838C\U+8343\U+8384\U+815B_1
100
AcDbVertex
100
AcDb2dVertex
 10
237.3929171498532
 20
-165.6618950323692
 30
0.0
  0
VERTEX
  5
68D
330
670
100
AcDbEntity
  8
\U+838C\U+8343\U+8384\U+815B_1
100
AcDbVertex
100
AcDb2dVertex
 10
237.2313421715949
 20
-166.0883978534432
 30
0.0
  0
VERTEX
  5
68E
330
670
100
AcDbEntity
  8
\U+838C\U+8343\U+8384\U+815B_1
100
AcDbVertex
100
AcDb2dVertex
 10
237.0549532827501
 20
-166.4856173628925
 30
0.0
  0
VERTEX
  5
68F
330
670
100
AcDbEntity
  8
\U+838C\U+8343\U+8384\U+815B_1
100
AcDbVertex
100
AcDb2dVertex
 10
236.8489365727322
 20
-166.8828368723418
 30
0.0
  0
VERTEX
  5
690
330
670
100
AcDbEntity
  8
\U+838C\U+8343\U+8384\U+815B_1
100
AcDbVertex
100
AcDb2dVertex
 10
236.6432643722628
 20
-167.250428560618
 30
0.0
  0
VERTEX
  5
691
330
670
100
AcDbEntity
  8
\U+838C\U+8343\U+8384\U+815B_1
100
AcDbVertex
100
AcDb2dVertex
 10
236.4079643506202
 20
-167.6035508478561
 30
0.0
  0
VERTEX
  5
692
330
670
100
AcDbEntity
  8
\U+838C\U+8343\U+8384\U+815B_1
100
AcDbVertex
100
AcDb2dVertex
 10
236.1285671067665
 20
-167.9418592245076
 30
0.0
  0
VERTEX
  5
693
330
670
100
AcDbEntity
  8
\U+838C\U+8343\U+8384\U+815B_1
100
AcDbVertex
100
AcDb2dVertex
 10
235.8639837734993
 20
-168.2360703789479
 30
0.0
  0
VERTEX
  5
694
330
670
100
AcDbEntity
  8
\U+838C\U+8343\U+8384\U+815B_1
100
AcDbVertex
100
AcDb2dVertex
 10
235.569772619059
 20
-168.5447509344263
 30
0.0
  0
VERTEX
  5
695
330
670
100
AcDbEntity
  8
\U+838C\U+8343\U+8384\U+815B_1
100
AcDbVertex
100
AcDb2dVertex
 10
235.2759059741672
 20
-168.7948648666554
 30
0.0
  0
VERTEX
  5
696
330
670
100
AcDbEntity
  8
\U+838C\U+8343\U+8384\U+815B_1
100
AcDbVertex
100
AcDb2dVertex
 10
234.9524115081022
 20
-169.0449787988846
 30
0.0
  0
VERTEX
  5
697
330
670
100
AcDbEntity
  8
\U+838C\U+8343\U+8384\U+815B_1
100
AcDbVertex
100
AcDb2dVertex
 10
234.6141031314507
 20
-169.2654649099406
 30
0.0
  0
SEQEND
  5
698
330
670
100
AcDbEntity
  8
\U+838C\U+8343\U+8384\U+815B_1
  0
POLYLINE
  5
699
330
3C
100
AcDbEntity
  8
\U+838C\U+8343\U+8384\U+815B_1
100
AcDb2dPolyline
 66
     1
 10
0.0
 20
0.0
 30
0.0
  0
VERTEX
  5
69A
330
699
100
AcDbEntity
  8
\U+838C\U+8343\U+8384\U+815B_1
100
AcDbVertex
100
AcDb2dVertex
 10
234.6141031314507
 20
-169.2654649099406
 30
0.0
  0
VERTEX
  5
69B
330
699
100
AcDbEntity
  8
\U+838C\U+8343\U+8384\U+815B_1
100
AcDbVertex
100
AcDb2dVertex
 10
234.2613253537611
 20
-169.4566677093719
 30
0.0
  0
SEQEND
  5
69C
330
699
100
AcDbEntity
  8
\U+838C\U+8343\U+8384\U+815B_1
  0
POLYLINE
  5
69D
330
3C
100
AcDbEntity
  8
\U+838C\U+8343\U+8384\U+815B_1
100
AcDb2dPolyline
 66
     1
 10
0.0
 20
0.0
 30
0.0
  0
VERTEX
  5
69E
330
69D
100
AcDbEntity
  8
\U+838C\U+8343\U+8384\U+815B_1
100
AcDbVertex
100
AcDb2dVertex
 10
234.2613253537611
 20
-169.4566677093719
 30
0.0
  0
VERTEX
  5
69F
330
69D
100
AcDbEntity
  8
\U+838C\U+8343\U+8384\U+815B_1
100
AcDbVertex
100
AcDb2dVertex
 10
233.9085475760715
 20
-169.6330565982167
 30
0.0
  0
VERTEX
  5
6A0
330
69D
100
AcDbEntity
  8
\U+838C\U+8343\U+8384\U+815B_1
100
AcDbVertex
100
AcDb2dVertex
 10
233.5409558877953
 20
-169.7656927743989
 30
0.0
  0
SEQEND
  5
6A1
330
69D
100
AcDbEntity
  8
\U+838C\U+8343\U+8384\U+815B_1
  0
POLYLINE
  5
6A2
330
3C
100
AcDbEntity
  8
\U+838C\U+8343\U+8384\U+815B_1
100
AcDb2dPolyline
 66
     1
 10
0.0
 20
0.0
 30
0.0
  0
VERTEX
  5
6A3
330
6A2
100
AcDbEntity
  8
\U+838C\U+8343\U+8384\U+815B_1
100
AcDbVertex
100
AcDb2dVertex
 10
233.8055392210625
 20
-152.7334852048722
 30
0.0
  0
VERTEX
  5
6A4
330
6A2
100
AcDbEntity
  8
\U+838C\U+8343\U+8384\U+815B_1
100
AcDbVertex
100
AcDb2dVertex
 10
231.7470946686257
 20
-150.9096516549809
 30
0.0
  0
VERTEX
  5
6A5
330
6A2
100
AcDbEntity
  8
\U+838C\U+8343\U+8384\U+815B_1
100
AcDbVertex
100
AcDb2dVertex
 10
229.2624918046635
 20
-149.9388237472375
 30
0.0
  0
VERTEX
  5
6A6
330
6A2
100
AcDbEntity
  8
\U+838C\U+8343\U+8384\U+815B_1
100
AcDbVertex
100
AcDb2dVertex
 10
226.601155542308
 20
-149.8358153922285
 30
0.0
  0
VERTEX
  5
6A7
330
6A2
100
AcDbEntity
  8
\U+838C\U+8343\U+8384\U+815B_1
100
AcDbVertex
100
AcDb2dVertex
 10
223.9842610117123
 20
-150.6888210343764
 30
0.0
  0
SEQEND
  5
6A8
330
6A2
100
AcDbEntity
  8
\U+838C\U+8343\U+8384\U+815B_1
  0
ENDBLK
  5
3F
330
3C
100
AcDbEntity
  8
0
100
AcDbBlockEnd
  0
ENDSEC
  0
SECTION
  2
ENTITIES
  0
INSERT
  5
3D
330
1F
100
AcDbEntity
  8
\U+838C\U+8343\U+8384\U+815B_1
100
AcDbBlockReference
  2
BLOCK_2
 10
0.0
 20
0.0
 30
0.0
  0
ENDSEC
  0
SECTION
  2
OBJECTS
  0
DICTIONARY
  5
C
330
0
100
AcDbDictionary
  3
ACAD_GROUP
350
D
  3
ACAD_LAYOUT
350
1A
  3
ACAD_MLINESTYLE
350
17
  3
ACAD_PLOTSETTINGS
350
19
  3
ACAD_TABLESTYLE
350
6A9
  3
ACAD_VISUALSTYLE
350
2A
1001
ACAD
1000
TREAT_AS_HARD
1070
     0
  0
DICTIONARY
  5
D
102
{ACAD_REACTORS
330
C
102
}
330
C
100
AcDbDictionary
1001
ACAD
1000
TREAT_AS_HARD
1070
     0
  0
DICTIONARY
  5
1A
102
{ACAD_REACTORS
330
C
102
}
330
C
100
AcDbDictionary
1001
ACAD
1000
TREAT_AS_HARD
1070
     0
  0
DICTIONARY
  5
17
102
{ACAD_REACTORS
330
C
102
}
330
C
100
AcDbDictionary
  3
STANDARD
350
18
1001
ACAD
1000
TREAT_AS_HARD
1070
     0
  0
DICTIONARY
  5
19
102
{ACAD_REACTORS
330
C
102
}
330
C
100
AcDbDictionary
1001
ACAD
1000
TREAT_AS_HARD
1070
     0
  0
DICTIONARY
  5
6A9
102
{ACAD_REACTORS
330
C
102
}
330
C
100
AcDbDictionary
1001
ACAD
1000
TREAT_AS_HARD
1070
     0
  0
DICTIONARY
  5
2A
102
{ACAD_REACTORS
330
C
102
}
330
C
100
AcDbDictionary
  3
2DWIREFRAME
350
2F
  3
3D_HIDDEN
350
31
  3
3DWIREFRAME
350
30
  3
BASIC
350
32
  3
BRIGHTEN
350
36
  3
COLORCHANGE
350
3A
  3
CONCEPTUAL
350
34
  3
DIM
350
35
  3
FACEPATTERN
350
39
  3
FLAT
350
2B
  3
FLATWITHEDGES
350
2C
  3
GOURAUD
350
2D
  3
GOURAUDWITHEDGES
350
2E
  3
LINEPATTERN
350
38
  3
REALISTIC
350
33
  3
THICKEN
350
37
1001
ACAD
1000
TREAT_AS_HARD
1070
     0
  0
MLINESTYLE
  5
18
102
{ACAD_REACTORS
330
17
102
}
330
17
100
AcDbMlineStyle
  2
Standard
 70
     0
  3

 62
   256
 51
90.0
 52
90.0
 71
     2
 49
0.5
 62
   256
  6
BYLAYER
 49
-0.5
 62
   256
  6
BYLAYER
  0
VISUALSTYLE
  5
2F
102
{ACAD_REACTORS
330
2A
102
}
330
2A
100
AcDbVisualStyle
  2
2dWireframe
 70
     4
 71
     0
 72
     2
 73
     0
 90
        0
 40
-0.6
 41
-30.0
 62
     5
 63
     7
 74
     1
 91
        4
 64
     7
 65
   257
 75
     1
175
     1
 42
1.0
 92
        0
 66
   257
 43
1.0
 76
     1
 77
     6
 78
     2
 67
     7
 79
     5
170
     0
171
     0
290
     0
174
     0
 93
        1
 44
0.0
173
     0
291
     0
 45
0.0
1001
ACAD
1000
AcDbSavedByObjectVersion
1070
     0
  0
VISUALSTYLE
  5
31
102
{ACAD_REACTORS
330
2A
102
}
330
2A
100
AcDbVisualStyle
  2
3D Hidden
 70
     6
 71
     1
 72
     2
 73
     2
 90
        0
 40
-0.6
 41
-30.0
 62
     5
 63
     7
 74
     2
 91
        2
 64
     7
 65
   257
 75
     2
175
     1
 42
40.0
 92
        0
 66
   257
 43
1.0
 76
     1
 77
     6
 78
     2
 67
     7
 79
     3
170
     0
171
     0
290
     0
174
     0
 93
        1
 44
0.0
173
     0
291
     0
 45
0.0
1001
ACAD
1000
AcDbSavedByObjectVersion
1070
     0
  0
VISUALSTYLE
  5
30
102
{ACAD_REACTORS
330
2A
102
}
330
2A
100
AcDbVisualStyle
  2
3dWireframe
 70
     5
 71
     0
 72
     2
 73
     0
 90
        0
 40
-0.6
 41
-30.0
 62
     5
 63
     7
 74
     1
 91
        4
 64
     7
 65
   257
 75
     1
175
     1
 42
1.0
 92
        0
 66
   257
 43
1.0
 76
     1
 77
     6
 78
     2
 67
     7
 79
     5
170
     0
171
     0
290
     0
174
     0
 93
        1
 44
0.0
173
     0
291
     0
 45
0.0
1001
ACAD
1000
AcDbSavedByObjectVersion
1070
     0
  0
VISUALSTYLE
  5
32
102
{ACAD_REACTORS
330
2A
102
}
330
2A
100
AcDbVisualStyle
  2
Basic
 70
     7
 71
     1
 72
     0
 73
     1
 90
        0
 40
-0.6
 41
-30.0
 62
     5
 63
     7
 74
     0
 91
        4
 64
     7
 65
   257
 75
     1
175
     1
 42
1.0
 92
        8
 66
     7
 43
1.0
 76
     1
 77
     6
 78
     2
 67
     7
 79
     5
170
     0
171
     0
290
     0
174
     0
 93
        1
 44
0.0
173
     0
291
     1
 45
0.0
1001
ACAD
1000
AcDbSavedByObjectVersion
1070
     0
  0
VISUALSTYLE
  5
36
102
{ACAD_REACTORS
330
2A
102
}
330
2A
100
AcDbVisualStyle
  2
Brighten
 70
    12
 71
     2
 72
     2
 73
     0
 90
        0
 40
-0.6
 41
-30.0
 62
     5
 63
     7
 74
     1
 91
        4
 64
     7
 65
   257
 75
     1
175
     1
 42
1.0
 92
        8
 66
     7
 43
1.0
 76
     1
 77
     6
 78
     2
 67
     7
 79
     5
170
     0
171
     0
290
     0
174
     0
 93
        1
 44
50.0
173
     0
291
     1
 45
0.0
1001
ACAD
1000
AcDbSavedByObjectVersion
1070
     0
  0
VISUALSTYLE
  5
3A
102
{ACAD_REACTORS
330
2A
102
}
330
2A
100
AcDbVisualStyle
  2
ColorChange
 70
    16
 71
     2
 72
     2
 73
     3
 90
        0
 40
-0.6
 41
-30.0
 62
     5
 63
     8
 74
     1
 91
        4
 64
     7
 65
   257
 75
     1
175
     1
 42
1.0
 92
        8
 66
     8
 43
1.0
 76
     1
 77
     6
 78
     2
 67
     7
 79
     5
170
     0
171
     0
290
     0
174
     0
 93
        1
 44
0.0
173
     0
291
     1
 45
0.0
1001
ACAD
1000
AcDbSavedByObjectVersion
1070
     0
  0
VISUALSTYLE
  5
34
102
{ACAD_REACTORS
330
2A
102
}
330
2A
100
AcDbVisualStyle
  2
Conceptual
 70
     9
 71
     3
 72
     2
 73
     0
 90
        0
 40
-0.6
 41
-30.0
 62
     5
 63
     7
 74
     2
 91
        2
 64
     7
 65
   257
 75
     1
175
     1
 42
40.0
 92
        8
 66
     7
 43
1.0
 76
     1
 77
     6
 78
     2
 67
     7
 79
     3
170
     0
171
     0
290
     0
174
     0
 93
        1
 44
0.0
173
     0
291
     0
 45
0.0
1001
ACAD
1000
AcDbSavedByObjectVersion
1070
     0
  0
VISUALSTYLE
  5
35
102
{ACAD_REACTORS
330
2A
102
}
330
2A
100
AcDbVisualStyle
  2
Dim
 70
    11
 71
     2
 72
     2
 73
     0
 90
        0
 40
-0.6
 41
-30.0
 62
     5
 63
     7
 74
     1
 91
        4
 64
     7
 65
   257
 75
     1
175
     1
 42
1.0
 92
        8
 66
     7
 43
1.0
 76
     1
 77
     6
 78
     2
 67
     7
 79
     5
170
     0
171
     0
290
     0
174
     0
 93
        1
 44
-50.0
173
     0
291
     1
 45
0.0
1001
ACAD
1000
AcDbSavedByObjectVersion
1070
     0
  0
VISUALSTYLE
  5
39
102
{ACAD_REACTORS
330
2A
102
}
330
2A
100
AcDbVisualStyle
  2
Facepattern
 70
    15
 71
     2
 72
     2
 73
     0
 90
        0
 40
-0.6
 41
-30.0
 62
     5
 63
     7
 74
     1
 91
        4
 64
     7
 65
   257
 75
     1
175
     1
 42
1.0
 92
        8
 66
     7
 43
1.0
 76
     1
 77
     6
 78
     2
 67
     7
 79
     5
170
     0
171
     0
290
     0
174
     0
 93
        1
 44
0.0
173
     0
291
     1
 45
0.0
1001
ACAD
1000
AcDbSavedByObjectVersion
1070
     0
  0
VISUALSTYLE
  5
2B
102
{ACAD_REACTORS
330
2A
102
}
330
2A
100
AcDbVisualStyle
  2
Flat
 70
     0
 71
     2
 72
     1
 73
     1
 90
        2
 40
-0.6
 41
30.0
 62
     5
 63
     7
 74
     0
 91
        4
 64
     7
 65
   257
 75
     1
175
     1
 42
1.0
 92
        8
 66
     7
 43
1.0
 76
     1
 77
     6
 78
     2
 67
     7
 79
     5
170
     0
171
     0
290
     0
174
     0
 93
       13
 44
0.0
173
     0
291
     1
 45
0.0
1001
ACAD
1000
AcDbSavedByObjectVersion
1070
     0
  0
VISUALSTYLE
  5
2C
102
{ACAD_REACTORS
330
2A
102
}
330
2A
100
AcDbVisualStyle
  2
FlatWithEdges
 70
     1
 71
     2
 72
     1
 73
     1
 90
        2
 40
-0.6
 41
30.0
 62
     5
 63
     7
 74
     1
 91
        4
 64
     7
 65
   257
 75
     1
175
     1
 42
1.0
 92
        0
 66
   257
 43
1.0
 76
     1
 77
     6
 78
     2
 67
     7
 79
     5
170
     0
171
     0
290
     0
174
     0
 93
       13
 44
0.0
173
     0
291
     1
 45
0.0
1001
ACAD
1000
AcDbSavedByObjectVersion
1070
     0
  0
VISUALSTYLE
  5
2D
102
{ACAD_REACTORS
330
2A
102
}
330
2A
100
AcDbVisualStyle
  2
Gouraud
 70
     2
 71
     2
 72
     2
 73
     1
 90
        2
 40
-0.6
 41
30.0
 62
     5
 63
     7
 74
     0
 91
        4
 64
     7
 65
   257
 75
     1
175
     1
 42
1.0
 92
        0
 66
     7
 43
1.0
 76
     1
 77
     6
 78
     2
 67
     7
 79
     5
170
     0
171
     0
290
     0
174
     0
 93
       13
 44
0.0
173
     0
291
     1
 45
0.0
1001
ACAD
1000
AcDbSavedByObjectVersion
1070
     0
  0
VISUALSTYLE
  5
2E
102
{ACAD_REACTORS
330
2A
102
}
330
2A
100
AcDbVisualStyle
  2
GouraudWithEdges
 70
     3
 71
     2
 72
     2
 73
     1
 90
        2
 40
-0.6
 41
30.0
 62
     5
 63
     7
 74
     1
 91
        4
 64
     7
 65
   257
 75
     1
175
     1
 42
1.0
 92
        0
 66
   257
 43
1.0
 76
     1
 77
     6
 78
     2
 67
     7
 79
     5
170
     0
171
     0
290
     0
174
     0
 93
       13
 44
0.0
173
     0
291
     1
 45
0.0
1001
ACAD
1000
AcDbSavedByObjectVersion
1070
     0
  0
VISUALSTYLE
  5
38
102
{ACAD_REACTORS
330
2A
102
}
330
2A
100
AcDbVisualStyle
  2
Linepattern
 70
    14
 71
     2
 72
     2
 73
     0
 90
        0
 40
-0.6
 41
-30.0
 62
     5
 63
     7
 74
     1
 91
        4
 64
     7
 65
   257
 75
     7
175
     7
 42
1.0
 92
        8
 66
     7
 43
1.0
 76
     1
 77
     6
 78
     2
 67
     7
 79
     5
170
     0
171
     0
290
     0
174
     0
 93
        1
 44
0.0
173
     0
291
     1
 45
0.0
1001
ACAD
1000
AcDbSavedByObjectVersion
1070
     0
  0
VISUALSTYLE
  5
33
102
{ACAD_REACTORS
330
2A
102
}
330
2A
100
AcDbVisualStyle
  2
Realistic
 70
     8
 71
     2
 72
     2
 73
     0
 90
        0
 40
-0.6
 41
-30.0
 62
     5
 63
     7
 74
     1
 91
        0
 64
     7
 65
   257
 75
     1
175
     1
 42
1.0
 92
        8
 66
     8
 43
1.0
 76
     1
 77
     6
 78
     2
 67
     7
 79
     5
170
     0
171
     0
290
     0
174
     0
 93
       13
 44
0.0
173
     0
291
     0
 45
0.0
1001
ACAD
1000
AcDbSavedByObjectVersion
1070
     0
  0
VISUALSTYLE
  5
37
102
{ACAD_REACTORS
330
2A
102
}
330
2A
100
AcDbVisualStyle
  2
Thicken
 70
    13
 71
     2
 72
     2
 73
     0
 90
        0
 40
-0.6
 41
-30.0
 62
     5
 63
     7
 74
     1
 91
        4
 64
     7
 65
   257
 75
     1
175
     1
 42
1.0
 92
       12
 66
     7
 43
1.0
 76
     1
 77
     6
 78
     2
 67
     7
 79
     5
170
     0
171
     0
290
     0
174
     0
 93
        1
 44
0.0
173
     0
291
     1
 45
0.0
1001
ACAD
1000
AcDbSavedByObjectVersion
1070
     0
  0
ENDSEC
  0
EOF
