  0
SECTION
  2
HEADER
  9
$ACADVER
  1
AC1015
  9
$ACADMAINTVER
 70
     6
  9
$DWGCODEPAGE
  3
ANSI_932
  9
$INSBASE
 10
0.0
 20
0.0
 30
0.0
  9
$EXTMIN
 10
1.000000000000000E+20
 20
1.000000000000000E+20
 30
1.000000000000000E+20
  9
$EXTMAX
 10
-1.000000000000000E+20
 20
-1.000000000000000E+20
 30
-1.000000000000000E+20
  9
$LIMMIN
 10
0.0
 20
0.0
  9
$LIMMAX
 10
12.0
 20
9.0
  9
$ORTHOMODE
 70
     0
  9
$REGENMODE
 70
     1
  9
$FILLMODE
 70
     1
  9
$QTEXTMODE
 70
     0
  9
$MIRRTEXT
 70
     1
  9
$LTSCALE
 40
1.0
  9
$ATTMODE
 70
     1
  9
$TEXTSIZE
 40
0.2
  9
$TRACEWID
 40
0.05
  9
$TEXTSTYLE
  7
Standard
  9
$CLAYER
  8
0
  9
$CELTYPE
  6
ByLayer
  9
$CECOLOR
 62
   256
  9
$CELTSCALE
 40
1.0
  9
$DISPSILH
 70
     0
  9
$DIMSCALE
 40
1.0
  9
$DIMASZ
 40
0.18
  9
$DIMEXO
 40
0.0625
  9
$DIMDLI
 40
0.38
  9
$DIMRND
 40
0.0
  9
$DIMDLE
 40
0.0
  9
$DIMEXE
 40
0.18
  9
$DIMTP
 40
0.0
  9
$DIMTM
 40
0.0
  9
$DIMTXT
 40
0.18
  9
$DIMCEN
 40
0.09
  9
$DIMTSZ
 40
0.0
  9
$DIMTOL
 70
     0
  9
$DIMLIM
 70
     0
  9
$DIMTIH
 70
     1
  9
$DIMTOH
 70
     1
  9
$DIMSE1
 70
     0
  9
$DIMSE2
 70
     0
  9
$DIMTAD
 70
     0
  9
$DIMZIN
 70
     0
  9
$DIMBLK
  1

  9
$DIMASO
 70
     1
  9
$DIMSHO
 70
     1
  9
$DIMPOST
  1

  9
$DIMAPOST
  1

  9
$DIMALT
 70
     0
  9
$DIMALTD
 70
     2
  9
$DIMALTF
 40
25.4
  9
$DIMLFAC
 40
1.0
  9
$DIMTOFL
 70
     0
  9
$DIMTVP
 40
0.0
  9
$DIMTIX
 70
     0
  9
$DIMSOXD
 70
     0
  9
$DIMSAH
 70
     0
  9
$DIMBLK1
  1

  9
$DIMBLK2
  1

  9
$DIMSTYLE
  2
Standard
  9
$DIMCLRD
 70
     0
  9
$DIMCLRE
 70
     0
  9
$DIMCLRT
 70
     0
  9
$DIMTFAC
 40
1.0
  9
$DIMGAP
 40
0.09
  9
$DIMJUST
 70
     0
  9
$DIMSD1
 70
     0
  9
$DIMSD2
 70
     0
  9
$DIMTOLJ
 70
     1
  9
$DIMTZIN
 70
     0
  9
$DIMALTZ
 70
     0
  9
$DIMALTTZ
 70
     0
  9
$DIMUPT
 70
     0
  9
$DIMDEC
 70
     4
  9
$DIMTDEC
 70
     4
  9
$DIMALTU
 70
     2
  9
$DIMALTTD
 70
     2
  9
$DIMTXSTY
  7
Standard
  9
$DIMAUNIT
 70
     0
  9
$DIMADEC
 70
     0
  9
$DIMALTRND
 40
0.0
  9
$DIMAZIN
 70
     0
  9
$DIMDSEP
 70
    46
  9
$DIMATFIT
 70
     3
  9
$DIMFRAC
 70
     0
  9
$DIMLDRBLK
  1

  9
$DIMLUNIT
 70
     2
  9
$DIMLWD
 70
    -2
  9
$DIMLWE
 70
    -2
  9
$DIMTMOVE
 70
     0
  9
$LUNITS
 70
     2
  9
$LUPREC
 70
     4
  9
$SKETCHINC
 40
0.1
  9
$FILLETRAD
 40
0.5
  9
$AUNITS
 70
     0
  9
$AUPREC
 70
     0
  9
$MENU
  1
.
  9
$ELEVATION
 40
0.0
  9
$PELEVATION
 40
0.0
  9
$THICKNESS
 40
0.0
  9
$LIMCHECK
 70
     0
  9
$CHAMFERA
 40
0.5
  9
$CHAMFERB
 40
0.5
  9
$CHAMFERC
 40
1.0
  9
$CHAMFERD
 40
0.0
  9
$SKPOLY
 70
     0
  9
$TDCREATE
 40
2456191.589295104
  9
$TDUCREATE
 40
2456191.214295104
  9
$TDUPDATE
 40
2456191.589295116
  9
$TDUUPDATE
 40
2456191.214295116
  9
$TDINDWG
 40
0.0000000116
  9
$TDUSRTIMER
 40
0.0000000116
  9
$USRTIMER
 70
     1
  9
$ANGBASE
 50
0.0
  9
$ANGDIR
 70
     0
  9
$PDMODE
 70
     0
  9
$PDSIZE
 40
0.0
  9
$PLINEWID
 40
0.0
  9
$SPLFRAME
 70
     0
  9
$SPLINETYPE
 70
     6
  9
$SPLINESEGS
 70
     8
  9
$HANDSEED
  5
379
  9
$SURFTAB1
 70
     6
  9
$SURFTAB2
 70
     6
  9
$SURFTYPE
 70
     6
  9
$SURFU
 70
     6
  9
$SURFV
 70
     6
  9
$UCSBASE
  2

  9
$UCSNAME
  2

  9
$UCSORG
 10
0.0
 20
0.0
 30
0.0
  9
$UCSXDIR
 10
1.0
 20
0.0
 30
0.0
  9
$UCSYDIR
 10
0.0
 20
1.0
 30
0.0
  9
$UCSORTHOREF
  2

  9
$UCSORTHOVIEW
 70
     0
  9
$UCSORGTOP
 10
0.0
 20
0.0
 30
0.0
  9
$UCSORGBOTTOM
 10
0.0
 20
0.0
 30
0.0
  9
$UCSORGLEFT
 10
0.0
 20
0.0
 30
0.0
  9
$UCSORGRIGHT
 10
0.0
 20
0.0
 30
0.0
  9
$UCSORGFRONT
 10
0.0
 20
0.0
 30
0.0
  9
$UCSORGBACK
 10
0.0
 20
0.0
 30
0.0
  9
$PUCSBASE
  2

  9
$PUCSNAME
  2

  9
$PUCSORG
 10
0.0
 20
0.0
 30
0.0
  9
$PUCSXDIR
 10
1.0
 20
0.0
 30
0.0
  9
$PUCSYDIR
 10
0.0
 20
1.0
 30
0.0
  9
$PUCSORTHOREF
  2

  9
$PUCSORTHOVIEW
 70
     0
  9
$PUCSORGTOP
 10
0.0
 20
0.0
 30
0.0
  9
$PUCSORGBOTTOM
 10
0.0
 20
0.0
 30
0.0
  9
$PUCSORGLEFT
 10
0.0
 20
0.0
 30
0.0
  9
$PUCSORGRIGHT
 10
0.0
 20
0.0
 30
0.0
  9
$PUCSORGFRONT
 10
0.0
 20
0.0
 30
0.0
  9
$PUCSORGBACK
 10
0.0
 20
0.0
 30
0.0
  9
$USERI1
 70
     0
  9
$USERI2
 70
     0
  9
$USERI3
 70
     0
  9
$USERI4
 70
     0
  9
$USERI5
 70
     0
  9
$USERR1
 40
0.0
  9
$USERR2
 40
0.0
  9
$USERR3
 40
0.0
  9
$USERR4
 40
0.0
  9
$USERR5
 40
0.0
  9
$WORLDVIEW
 70
     1
  9
$SHADEDGE
 70
     3
  9
$SHADEDIF
 70
    70
  9
$TILEMODE
 70
     1
  9
$MAXACTVP
 70
    64
  9
$PINSBASE
 10
0.0
 20
0.0
 30
0.0
  9
$PLIMCHECK
 70
     0
  9
$PEXTMIN
 10
1.000000000000000E+20
 20
1.000000000000000E+20
 30
1.000000000000000E+20
  9
$PEXTMAX
 10
-1.000000000000000E+20
 20
-1.000000000000000E+20
 30
-1.000000000000000E+20
  9
$PLIMMIN
 10
0.0
 20
0.0
  9
$PLIMMAX
 10
12.0
 20
9.0
  9
$UNITMODE
 70
     0
  9
$VISRETAIN
 70
     1
  9
$PLINEGEN
 70
     0
  9
$PSLTSCALE
 70
     1
  9
$TREEDEPTH
 70
  3020
  9
$CMLSTYLE
  2
Standard
  9
$CMLJUST
 70
     0
  9
$CMLSCALE
 40
1.0
  9
$PROXYGRAPHICS
 70
     1
  9
$MEASUREMENT
 70
     0
  9
$CELWEIGHT
370
    -1
  9
$ENDCAPS
280
     0
  9
$JOINSTYLE
280
     0
  9
$LWDISPLAY
290
     1
  9
$INSUNITS
 70
     1
  9
$HYPERLINKBASE
  1

  9
$STYLESHEET
  1

  9
$XEDIT
290
     1
  9
$CEPSNTYPE
380
     0
  9
$PSTYLEMODE
290
     1
  9
$FINGERPRINTGUID
  2
{253AFBC3-973D-428B-ACFB-5589E0BC807D}
  9
$VERSIONGUID
  2
{FAEB1C32-E019-11D5-929B-00C0DF256EC4}
  9
$EXTNAMES
290
     1
  9
$PSVPSCALE
 40
0.0
  9
$OLESTARTUP
290
     0
  0
ENDSEC
  0
SECTION
  2
CLASSES
  0
CLASS
  1
ACDBDICTIONARYWDFLT
  2
AcDbDictionaryWithDefault
  3
ObjectDBX Classes
 90
        0
280
     0
281
     0
  0
CLASS
  1
VISUALSTYLE
  2
AcDbVisualStyle
  3
ObjectDBX Classes
 90
     4095
280
     0
281
     0
  0
CLASS
  1
ACDBPLACEHOLDER
  2
AcDbPlaceHolder
  3
ObjectDBX Classes
 90
        0
280
     0
281
     0
  0
CLASS
  1
LAYOUT
  2
AcDbLayout
  3
ObjectDBX Classes
 90
        0
280
     0
281
     0
  0
ENDSEC
  0
SECTION
  2
TABLES
  0
TABLE
  2
VPORT
  5
8
330
0
100
AcDbSymbolTable
 70
     1
  0
VPORT
  5
29
330
8
100
AcDbSymbolTableRecord
100
AcDbViewportTableRecord
  2
*Active
 70
     0
 10
0.0
 20
0.0
 11
1.0
 21
1.0
 12
0.0
 22
0.0
 13
0.0
 23
0.0
 14
0.5
 24
0.5
 15
0.5
 25
0.5
 16
0.0
 26
0.0
 36
1.0
 17
105.0008259828644
 27
148.4999796178229
 37
0.0
 40
210.0016519657287
 41
1.414274394775308
 42
50.0
 43
0.0
 44
0.0
 50
0.0
 51
0.0
 71
     0
 72
   100
 73
     1
 74
     3
 75
     0
 76
     0
 77
     0
 78
     0
281
     0
 65
     1
110
0.0
120
0.0
130
0.0
111
1.0
121
0.0
131
0.0
112
0.0
122
1.0
132
0.0
 79
     0
146
0.0
  0
ENDTAB
  0
TABLE
  2
LTYPE
  5
5
330
0
100
AcDbSymbolTable
 70
     1
  0
LTYPE
  5
14
330
5
100
AcDbSymbolTableRecord
100
AcDbLinetypeTableRecord
  2
ByBlock
 70
     0
  3

 72
    65
 73
     0
 40
0.0
  0
LTYPE
  5
15
330
5
100
AcDbSymbolTableRecord
100
AcDbLinetypeTableRecord
  2
ByLayer
 70
     0
  3

 72
    65
 73
     0
 40
0.0
  0
LTYPE
  5
16
330
5
100
AcDbSymbolTableRecord
100
AcDbLinetypeTableRecord
  2
Continuous
 70
     0
  3
Solid line
 72
    65
 73
     0
 40
0.0
  0
ENDTAB
  0
TABLE
  2
LAYER
  5
2
330
0
100
AcDbSymbolTable
 70
     3
  0
LAYER
  5
10
330
2
100
AcDbSymbolTableRecord
100
AcDbLayerTableRecord
  2
0
 70
     0
 62
     7
  6
Continuous
370
    -3
390
F
  0
LAYER
  5
3B
330
2
100
AcDbSymbolTableRecord
100
AcDbLayerTableRecord
  2
\U+56F3\U+67A0
 70
     0
 62
     7
  6
Continuous
370
    -3
390
F
  0
LAYER
  5
3C
330
2
100
AcDbSymbolTableRecord
100
AcDbLayerTableRecord
  2
FORMAT
 70
     0
 62
     7
  6
Continuous
370
    -3
390
F
  0
ENDTAB
  0
TABLE
  2
STYLE
  5
3
330
0
100
AcDbSymbolTable
 70
     1
  0
STYLE
  5
11
330
3
100
AcDbSymbolTableRecord
100
AcDbTextStyleTableRecord
  2
Standard
 70
     0
 40
0.0
 41
1.0
 50
0.0
 71
     0
 42
0.2
  3
txt
  4

  0
ENDTAB
  0
TABLE
  2
VIEW
  5
6
330
0
100
AcDbSymbolTable
 70
     0
  0
ENDTAB
  0
TABLE
  2
UCS
  5
7
330
0
100
AcDbSymbolTable
 70
     0
  0
ENDTAB
  0
TABLE
  2
APPID
  5
9
330
0
100
AcDbSymbolTable
 70
     1
  0
APPID
  5
12
330
9
100
AcDbSymbolTableRecord
100
AcDbRegAppTableRecord
  2
ACAD
 70
     0
  0
ENDTAB
  0
TABLE
  2
DIMSTYLE
  5
A
330
0
100
AcDbSymbolTable
 70
     1
100
AcDbDimStyleTable
  0
DIMSTYLE
105
27
330
A
100
AcDbSymbolTableRecord
100
AcDbDimStyleTableRecord
  2
Standard
 70
     0
340
11
  0
ENDTAB
  0
TABLE
  2
BLOCK_RECORD
  5
1
330
0
100
AcDbSymbolTable
 70
    81
  0
BLOCK_RECORD
  5
1F
330
1
100
AcDbSymbolTableRecord
100
AcDbBlockTableRecord
  2
*Model_Space
340
22
  0
BLOCK_RECORD
  5
1B
330
1
100
AcDbSymbolTableRecord
100
AcDbBlockTableRecord
  2
*Paper_Space
340
1E
  0
BLOCK_RECORD
  5
23
330
1
100
AcDbSymbolTableRecord
100
AcDbBlockTableRecord
  2
*Paper_Space0
340
26
  0
BLOCK_RECORD
  5
3D
330
1
100
AcDbSymbolTableRecord
100
AcDbBlockTableRecord
  2
block 2
340
0
102
{BLKREFS
331
3E
102
}
  0
BLOCK_RECORD
  5
41
330
1
100
AcDbSymbolTableRecord
100
AcDbBlockTableRecord
  2
block 3
340
0
102
{BLKREFS
331
42
102
}
  0
BLOCK_RECORD
  5
49
330
1
100
AcDbSymbolTableRecord
100
AcDbBlockTableRecord
  2
block 4
340
0
102
{BLKREFS
331
4A
102
}
  0
BLOCK_RECORD
  5
51
330
1
100
AcDbSymbolTableRecord
100
AcDbBlockTableRecord
  2
block 5
340
0
102
{BLKREFS
331
52
102
}
  0
BLOCK_RECORD
  5
59
330
1
100
AcDbSymbolTableRecord
100
AcDbBlockTableRecord
  2
block 6
340
0
102
{BLKREFS
331
5A
102
}
  0
BLOCK_RECORD
  5
61
330
1
100
AcDbSymbolTableRecord
100
AcDbBlockTableRecord
  2
block 7
340
0
102
{BLKREFS
331
62
102
}
  0
BLOCK_RECORD
  5
69
330
1
100
AcDbSymbolTableRecord
100
AcDbBlockTableRecord
  2
block 8
340
0
102
{BLKREFS
331
6A
102
}
  0
BLOCK_RECORD
  5
71
330
1
100
AcDbSymbolTableRecord
100
AcDbBlockTableRecord
  2
block 9
340
0
102
{BLKREFS
331
72
102
}
  0
BLOCK_RECORD
  5
79
330
1
100
AcDbSymbolTableRecord
100
AcDbBlockTableRecord
  2
block 10
340
0
102
{BLKREFS
331
7A
102
}
  0
BLOCK_RECORD
  5
81
330
1
100
AcDbSymbolTableRecord
100
AcDbBlockTableRecord
  2
block 11
340
0
102
{BLKREFS
331
82
102
}
  0
BLOCK_RECORD
  5
89
330
1
100
AcDbSymbolTableRecord
100
AcDbBlockTableRecord
  2
block 12
340
0
102
{BLKREFS
331
8A
102
}
  0
BLOCK_RECORD
  5
91
330
1
100
AcDbSymbolTableRecord
100
AcDbBlockTableRecord
  2
block 13
340
0
102
{BLKREFS
331
92
102
}
  0
BLOCK_RECORD
  5
99
330
1
100
AcDbSymbolTableRecord
100
AcDbBlockTableRecord
  2
block 14
340
0
102
{BLKREFS
331
9A
102
}
  0
BLOCK_RECORD
  5
A1
330
1
100
AcDbSymbolTableRecord
100
AcDbBlockTableRecord
  2
block 15
340
0
102
{BLKREFS
331
A2
102
}
  0
BLOCK_RECORD
  5
A9
330
1
100
AcDbSymbolTableRecord
100
AcDbBlockTableRecord
  2
block 16
340
0
102
{BLKREFS
331
AA
102
}
  0
BLOCK_RECORD
  5
B1
330
1
100
AcDbSymbolTableRecord
100
AcDbBlockTableRecord
  2
block 17
340
0
102
{BLKREFS
331
B2
102
}
  0
BLOCK_RECORD
  5
B9
330
1
100
AcDbSymbolTableRecord
100
AcDbBlockTableRecord
  2
block 18
340
0
102
{BLKREFS
331
BA
102
}
  0
BLOCK_RECORD
  5
C1
330
1
100
AcDbSymbolTableRecord
100
AcDbBlockTableRecord
  2
block 19
340
0
102
{BLKREFS
331
C2
102
}
  0
BLOCK_RECORD
  5
C9
330
1
100
AcDbSymbolTableRecord
100
AcDbBlockTableRecord
  2
block 20
340
0
102
{BLKREFS
331
CA
102
}
  0
BLOCK_RECORD
  5
D1
330
1
100
AcDbSymbolTableRecord
100
AcDbBlockTableRecord
  2
block 21
340
0
102
{BLKREFS
331
D2
102
}
  0
BLOCK_RECORD
  5
D9
330
1
100
AcDbSymbolTableRecord
100
AcDbBlockTableRecord
  2
block 22
340
0
102
{BLKREFS
331
DA
102
}
  0
BLOCK_RECORD
  5
E1
330
1
100
AcDbSymbolTableRecord
100
AcDbBlockTableRecord
  2
block 23
340
0
102
{BLKREFS
331
E2
102
}
  0
BLOCK_RECORD
  5
E9
330
1
100
AcDbSymbolTableRecord
100
AcDbBlockTableRecord
  2
block 24
340
0
102
{BLKREFS
331
EA
102
}
  0
BLOCK_RECORD
  5
F8
330
1
100
AcDbSymbolTableRecord
100
AcDbBlockTableRecord
  2
block 25
340
0
102
{BLKREFS
331
F9
102
}
  0
BLOCK_RECORD
  5
FD
330
1
100
AcDbSymbolTableRecord
100
AcDbBlockTableRecord
  2
block 26
340
0
102
{BLKREFS
331
FE
102
}
  0
BLOCK_RECORD
  5
114
330
1
100
AcDbSymbolTableRecord
100
AcDbBlockTableRecord
  2
block 27
340
0
102
{BLKREFS
331
115
102
}
  0
BLOCK_RECORD
  5
123
330
1
100
AcDbSymbolTableRecord
100
AcDbBlockTableRecord
  2
block 28
340
0
102
{BLKREFS
331
124
102
}
  0
BLOCK_RECORD
  5
12E
330
1
100
AcDbSymbolTableRecord
100
AcDbBlockTableRecord
  2
block 29
340
0
102
{BLKREFS
331
12F
102
}
  0
BLOCK_RECORD
  5
145
330
1
100
AcDbSymbolTableRecord
100
AcDbBlockTableRecord
  2
block 30
340
0
102
{BLKREFS
331
146
102
}
  0
BLOCK_RECORD
  5
154
330
1
100
AcDbSymbolTableRecord
100
AcDbBlockTableRecord
  2
block 31
340
0
102
{BLKREFS
331
155
102
}
  0
BLOCK_RECORD
  5
159
330
1
100
AcDbSymbolTableRecord
100
AcDbBlockTableRecord
  2
block 32
340
0
102
{BLKREFS
331
15A
102
}
  0
BLOCK_RECORD
  5
161
330
1
100
AcDbSymbolTableRecord
100
AcDbBlockTableRecord
  2
block 33
340
0
102
{BLKREFS
331
162
102
}
  0
BLOCK_RECORD
  5
169
330
1
100
AcDbSymbolTableRecord
100
AcDbBlockTableRecord
  2
block 34
340
0
102
{BLKREFS
331
16A
102
}
  0
BLOCK_RECORD
  5
171
330
1
100
AcDbSymbolTableRecord
100
AcDbBlockTableRecord
  2
block 35
340
0
102
{BLKREFS
331
172
102
}
  0
BLOCK_RECORD
  5
179
330
1
100
AcDbSymbolTableRecord
100
AcDbBlockTableRecord
  2
block 36
340
0
102
{BLKREFS
331
17A
102
}
  0
BLOCK_RECORD
  5
17E
330
1
100
AcDbSymbolTableRecord
100
AcDbBlockTableRecord
  2
block 37
340
0
102
{BLKREFS
331
17F
102
}
  0
BLOCK_RECORD
  5
183
330
1
100
AcDbSymbolTableRecord
100
AcDbBlockTableRecord
  2
block 38
340
0
102
{BLKREFS
331
184
102
}
  0
BLOCK_RECORD
  5
18B
330
1
100
AcDbSymbolTableRecord
100
AcDbBlockTableRecord
  2
block 39
340
0
102
{BLKREFS
331
18C
102
}
  0
BLOCK_RECORD
  5
193
330
1
100
AcDbSymbolTableRecord
100
AcDbBlockTableRecord
  2
block 40
340
0
102
{BLKREFS
331
194
102
}
  0
BLOCK_RECORD
  5
19B
330
1
100
AcDbSymbolTableRecord
100
AcDbBlockTableRecord
  2
block 41
340
0
102
{BLKREFS
331
19C
102
}
  0
BLOCK_RECORD
  5
1A3
330
1
100
AcDbSymbolTableRecord
100
AcDbBlockTableRecord
  2
block 42
340
0
102
{BLKREFS
331
1A4
102
}
  0
BLOCK_RECORD
  5
1B4
330
1
100
AcDbSymbolTableRecord
100
AcDbBlockTableRecord
  2
block 43
340
0
102
{BLKREFS
331
1B5
102
}
  0
BLOCK_RECORD
  5
1CB
330
1
100
AcDbSymbolTableRecord
100
AcDbBlockTableRecord
  2
block 44
340
0
102
{BLKREFS
331
1CC
102
}
  0
BLOCK_RECORD
  5
1D4
330
1
100
AcDbSymbolTableRecord
100
AcDbBlockTableRecord
  2
block 45
340
0
102
{BLKREFS
331
1D5
102
}
  0
BLOCK_RECORD
  5
1DC
330
1
100
AcDbSymbolTableRecord
100
AcDbBlockTableRecord
  2
block 46
340
0
102
{BLKREFS
331
1DD
102
}
  0
BLOCK_RECORD
  5
1E1
330
1
100
AcDbSymbolTableRecord
100
AcDbBlockTableRecord
  2
block 47
340
0
102
{BLKREFS
331
1E2
102
}
  0
BLOCK_RECORD
  5
1EB
330
1
100
AcDbSymbolTableRecord
100
AcDbBlockTableRecord
  2
block 48
340
0
102
{BLKREFS
331
1EC
102
}
  0
BLOCK_RECORD
  5
1F3
330
1
100
AcDbSymbolTableRecord
100
AcDbBlockTableRecord
  2
block 49
340
0
102
{BLKREFS
331
1F4
102
}
  0
BLOCK_RECORD
  5
1FD
330
1
100
AcDbSymbolTableRecord
100
AcDbBlockTableRecord
  2
block 50
340
0
102
{BLKREFS
331
1FE
102
}
  0
BLOCK_RECORD
  5
205
330
1
100
AcDbSymbolTableRecord
100
AcDbBlockTableRecord
  2
block 51
340
0
102
{BLKREFS
331
206
102
}
  0
BLOCK_RECORD
  5
20D
330
1
100
AcDbSymbolTableRecord
100
AcDbBlockTableRecord
  2
block 52
340
0
102
{BLKREFS
331
20E
102
}
  0
BLOCK_RECORD
  5
223
330
1
100
AcDbSymbolTableRecord
100
AcDbBlockTableRecord
  2
block 53
340
0
102
{BLKREFS
331
224
102
}
  0
BLOCK_RECORD
  5
22B
330
1
100
AcDbSymbolTableRecord
100
AcDbBlockTableRecord
  2
block 54
340
0
102
{BLKREFS
331
22C
102
}
  0
BLOCK_RECORD
  5
241
330
1
100
AcDbSymbolTableRecord
100
AcDbBlockTableRecord
  2
block 55
340
0
102
{BLKREFS
331
242
102
}
  0
BLOCK_RECORD
  5
249
330
1
100
AcDbSymbolTableRecord
100
AcDbBlockTableRecord
  2
block 56
340
0
102
{BLKREFS
331
24A
102
}
  0
BLOCK_RECORD
  5
25F
330
1
100
AcDbSymbolTableRecord
100
AcDbBlockTableRecord
  2
block 57
340
0
102
{BLKREFS
331
260
102
}
  0
BLOCK_RECORD
  5
267
330
1
100
AcDbSymbolTableRecord
100
AcDbBlockTableRecord
  2
block 58
340
0
102
{BLKREFS
331
268
102
}
  0
BLOCK_RECORD
  5
27D
330
1
100
AcDbSymbolTableRecord
100
AcDbBlockTableRecord
  2
block 59
340
0
102
{BLKREFS
331
27E
102
}
  0
BLOCK_RECORD
  5
282
330
1
100
AcDbSymbolTableRecord
100
AcDbBlockTableRecord
  2
block 60
340
0
102
{BLKREFS
331
283
102
}
  0
BLOCK_RECORD
  5
28A
330
1
100
AcDbSymbolTableRecord
100
AcDbBlockTableRecord
  2
block 61
340
0
102
{BLKREFS
331
28B
102
}
  0
BLOCK_RECORD
  5
2A3
330
1
100
AcDbSymbolTableRecord
100
AcDbBlockTableRecord
  2
block 62
340
0
102
{BLKREFS
331
2A4
102
}
  0
BLOCK_RECORD
  5
2AB
330
1
100
AcDbSymbolTableRecord
100
AcDbBlockTableRecord
  2
block 63
340
0
102
{BLKREFS
331
2AC
102
}
  0
BLOCK_RECORD
  5
2C5
330
1
100
AcDbSymbolTableRecord
100
AcDbBlockTableRecord
  2
block 64
340
0
102
{BLKREFS
331
2C6
102
}
  0
BLOCK_RECORD
  5
2CD
330
1
100
AcDbSymbolTableRecord
100
AcDbBlockTableRecord
  2
block 65
340
0
102
{BLKREFS
331
2CE
102
}
  0
BLOCK_RECORD
  5
2D5
330
1
100
AcDbSymbolTableRecord
100
AcDbBlockTableRecord
  2
block 66
340
0
102
{BLKREFS
331
2D6
102
}
  0
BLOCK_RECORD
  5
2EB
330
1
100
AcDbSymbolTableRecord
100
AcDbBlockTableRecord
  2
block 67
340
0
102
{BLKREFS
331
2EC
102
}
  0
BLOCK_RECORD
  5
2F3
330
1
100
AcDbSymbolTableRecord
100
AcDbBlockTableRecord
  2
block 68
340
0
102
{BLKREFS
331
2F4
102
}
  0
BLOCK_RECORD
  5
2F8
330
1
100
AcDbSymbolTableRecord
100
AcDbBlockTableRecord
  2
block 69
340
0
102
{BLKREFS
331
2F9
102
}
  0
BLOCK_RECORD
  5
300
330
1
100
AcDbSymbolTableRecord
100
AcDbBlockTableRecord
  2
block 70
340
0
102
{BLKREFS
331
301
102
}
  0
BLOCK_RECORD
  5
308
330
1
100
AcDbSymbolTableRecord
100
AcDbBlockTableRecord
  2
block 71
340
0
102
{BLKREFS
331
309
102
}
  0
BLOCK_RECORD
  5
30D
330
1
100
AcDbSymbolTableRecord
100
AcDbBlockTableRecord
  2
block 72
340
0
102
{BLKREFS
331
30E
102
}
  0
BLOCK_RECORD
  5
312
330
1
100
AcDbSymbolTableRecord
100
AcDbBlockTableRecord
  2
block 73
340
0
102
{BLKREFS
331
313
102
}
  0
BLOCK_RECORD
  5
31A
330
1
100
AcDbSymbolTableRecord
100
AcDbBlockTableRecord
  2
block 74
340
0
102
{BLKREFS
331
31B
102
}
  0
BLOCK_RECORD
  5
32F
330
1
100
AcDbSymbolTableRecord
100
AcDbBlockTableRecord
  2
block 75
340
0
102
{BLKREFS
331
330
102
}
  0
BLOCK_RECORD
  5
337
330
1
100
AcDbSymbolTableRecord
100
AcDbBlockTableRecord
  2
block 76
340
0
102
{BLKREFS
331
338
102
}
  0
BLOCK_RECORD
  5
34C
330
1
100
AcDbSymbolTableRecord
100
AcDbBlockTableRecord
  2
block 77
340
0
102
{BLKREFS
331
34D
102
}
  0
BLOCK_RECORD
  5
359
330
1
100
AcDbSymbolTableRecord
100
AcDbBlockTableRecord
  2
block 78
340
0
102
{BLKREFS
331
35A
102
}
  0
BLOCK_RECORD
  5
35E
330
1
100
AcDbSymbolTableRecord
100
AcDbBlockTableRecord
  2
block 79
340
0
102
{BLKREFS
331
35F
102
}
  0
BLOCK_RECORD
  5
366
330
1
100
AcDbSymbolTableRecord
100
AcDbBlockTableRecord
  2
block 80
340
0
102
{BLKREFS
331
367
102
}
  0
BLOCK_RECORD
  5
36B
330
1
100
AcDbSymbolTableRecord
100
AcDbBlockTableRecord
  2
block 81
340
0
102
{BLKREFS
331
36C
102
}
  0
ENDTAB
  0
ENDSEC
  0
SECTION
  2
BLOCKS
  0
BLOCK
  5
20
330
1F
100
AcDbEntity
  8
0
100
AcDbBlockBegin
  2
*Model_Space
 70
     0
 71
     0
 10
0.0
 20
0.0
 30
0.0
  3
*Model_Space
  1

  0
ENDBLK
  5
21
330
1F
100
AcDbEntity
  8
0
100
AcDbBlockEnd
  0
BLOCK
  5
1C
330
1B
100
AcDbEntity
 67
     1
  8
0
100
AcDbBlockBegin
  2
*Paper_Space
 70
     0
 71
     0
 10
0.0
 20
0.0
 30
0.0
  3
*Paper_Space
  1

  0
ENDBLK
  5
1D
330
1B
100
AcDbEntity
 67
     1
  8
0
100
AcDbBlockEnd
  0
BLOCK
  5
24
330
23
100
AcDbEntity
  8
0
100
AcDbBlockBegin
  2
*Paper_Space0
 70
     0
 71
     0
 10
0.0
 20
0.0
 30
0.0
  3
*Paper_Space0
  1

  0
ENDBLK
  5
25
330
23
100
AcDbEntity
  8
0
100
AcDbBlockEnd
  0
BLOCK
  5
3F
330
3D
100
AcDbEntity
  8
0
100
AcDbBlockBegin
  2
block 2
 70
     0
 71
     0
 10
0.0
 20
0.0
 30
0.0
  3
block 2
  1

  0
INSERT
  5
42
330
3D
100
AcDbEntity
  8
FORMAT
100
AcDbBlockReference
  2
block 3
 10
0.0
 20
0.0
 30
0.0
  0
INSERT
  5
4A
330
3D
100
AcDbEntity
  8
FORMAT
100
AcDbBlockReference
  2
block 4
 10
0.0
 20
0.0
 30
0.0
  0
INSERT
  5
52
330
3D
100
AcDbEntity
  8
FORMAT
100
AcDbBlockReference
  2
block 5
 10
0.0
 20
0.0
 30
0.0
  0
INSERT
  5
5A
330
3D
100
AcDbEntity
  8
FORMAT
100
AcDbBlockReference
  2
block 6
 10
0.0
 20
0.0
 30
0.0
  0
INSERT
  5
62
330
3D
100
AcDbEntity
  8
FORMAT
100
AcDbBlockReference
  2
block 7
 10
0.0
 20
0.0
 30
0.0
  0
INSERT
  5
6A
330
3D
100
AcDbEntity
  8
FORMAT
100
AcDbBlockReference
  2
block 8
 10
0.0
 20
0.0
 30
0.0
  0
INSERT
  5
72
330
3D
100
AcDbEntity
  8
FORMAT
100
AcDbBlockReference
  2
block 9
 10
0.0
 20
0.0
 30
0.0
  0
INSERT
  5
7A
330
3D
100
AcDbEntity
  8
FORMAT
100
AcDbBlockReference
  2
block 10
 10
0.0
 20
0.0
 30
0.0
  0
INSERT
  5
82
330
3D
100
AcDbEntity
  8
FORMAT
100
AcDbBlockReference
  2
block 11
 10
0.0
 20
0.0
 30
0.0
  0
INSERT
  5
8A
330
3D
100
AcDbEntity
  8
FORMAT
100
AcDbBlockReference
  2
block 12
 10
0.0
 20
0.0
 30
0.0
  0
INSERT
  5
92
330
3D
100
AcDbEntity
  8
FORMAT
100
AcDbBlockReference
  2
block 13
 10
0.0
 20
0.0
 30
0.0
  0
INSERT
  5
9A
330
3D
100
AcDbEntity
  8
FORMAT
100
AcDbBlockReference
  2
block 14
 10
0.0
 20
0.0
 30
0.0
  0
INSERT
  5
A2
330
3D
100
AcDbEntity
  8
FORMAT
100
AcDbBlockReference
  2
block 15
 10
0.0
 20
0.0
 30
0.0
  0
INSERT
  5
AA
330
3D
100
AcDbEntity
  8
FORMAT
100
AcDbBlockReference
  2
block 16
 10
0.0
 20
0.0
 30
0.0
  0
INSERT
  5
B2
330
3D
100
AcDbEntity
  8
FORMAT
100
AcDbBlockReference
  2
block 17
 10
0.0
 20
0.0
 30
0.0
  0
INSERT
  5
BA
330
3D
100
AcDbEntity
  8
FORMAT
100
AcDbBlockReference
  2
block 18
 10
0.0
 20
0.0
 30
0.0
  0
INSERT
  5
C2
330
3D
100
AcDbEntity
  8
FORMAT
100
AcDbBlockReference
  2
block 19
 10
0.0
 20
0.0
 30
0.0
  0
INSERT
  5
CA
330
3D
100
AcDbEntity
  8
FORMAT
100
AcDbBlockReference
  2
block 20
 10
0.0
 20
0.0
 30
0.0
  0
INSERT
  5
D2
330
3D
100
AcDbEntity
  8
FORMAT
100
AcDbBlockReference
  2
block 21
 10
0.0
 20
0.0
 30
0.0
  0
INSERT
  5
DA
330
3D
100
AcDbEntity
  8
FORMAT
100
AcDbBlockReference
  2
block 22
 10
0.0
 20
0.0
 30
0.0
  0
INSERT
  5
E2
330
3D
100
AcDbEntity
  8
FORMAT
100
AcDbBlockReference
  2
block 23
 10
0.0
 20
0.0
 30
0.0
  0
INSERT
  5
EA
330
3D
100
AcDbEntity
  8
FORMAT
100
AcDbBlockReference
  2
block 24
 10
0.0
 20
0.0
 30
0.0
  0
INSERT
  5
F9
330
3D
100
AcDbEntity
  8
FORMAT
100
AcDbBlockReference
  2
block 25
 10
0.0
 20
0.0
 30
0.0
  0
INSERT
  5
FE
330
3D
100
AcDbEntity
  8
FORMAT
100
AcDbBlockReference
  2
block 26
 10
0.0
 20
0.0
 30
0.0
  0
INSERT
  5
115
330
3D
100
AcDbEntity
  8
FORMAT
100
AcDbBlockReference
  2
block 27
 10
0.0
 20
0.0
 30
0.0
  0
INSERT
  5
124
330
3D
100
AcDbEntity
  8
FORMAT
100
AcDbBlockReference
  2
block 28
 10
0.0
 20
0.0
 30
0.0
  0
INSERT
  5
12F
330
3D
100
AcDbEntity
  8
FORMAT
100
AcDbBlockReference
  2
block 29
 10
0.0
 20
0.0
 30
0.0
  0
INSERT
  5
146
330
3D
100
AcDbEntity
  8
FORMAT
100
AcDbBlockReference
  2
block 30
 10
0.0
 20
0.0
 30
0.0
  0
INSERT
  5
155
330
3D
100
AcDbEntity
  8
FORMAT
100
AcDbBlockReference
  2
block 31
 10
0.0
 20
0.0
 30
0.0
  0
INSERT
  5
15A
330
3D
100
AcDbEntity
  8
FORMAT
100
AcDbBlockReference
  2
block 32
 10
0.0
 20
0.0
 30
0.0
  0
INSERT
  5
162
330
3D
100
AcDbEntity
  8
FORMAT
100
AcDbBlockReference
  2
block 33
 10
0.0
 20
0.0
 30
0.0
  0
INSERT
  5
16A
330
3D
100
AcDbEntity
  8
FORMAT
100
AcDbBlockReference
  2
block 34
 10
0.0
 20
0.0
 30
0.0
  0
INSERT
  5
172
330
3D
100
AcDbEntity
  8
FORMAT
100
AcDbBlockReference
  2
block 35
 10
0.0
 20
0.0
 30
0.0
  0
INSERT
  5
17A
330
3D
100
AcDbEntity
  8
FORMAT
100
AcDbBlockReference
  2
block 36
 10
0.0
 20
0.0
 30
0.0
  0
INSERT
  5
17F
330
3D
100
AcDbEntity
  8
FORMAT
100
AcDbBlockReference
  2
block 37
 10
0.0
 20
0.0
 30
0.0
  0
INSERT
  5
184
330
3D
100
AcDbEntity
  8
FORMAT
100
AcDbBlockReference
  2
block 38
 10
0.0
 20
0.0
 30
0.0
  0
INSERT
  5
18C
330
3D
100
AcDbEntity
  8
FORMAT
100
AcDbBlockReference
  2
block 39
 10
0.0
 20
0.0
 30
0.0
  0
INSERT
  5
194
330
3D
100
AcDbEntity
  8
FORMAT
100
AcDbBlockReference
  2
block 40
 10
0.0
 20
0.0
 30
0.0
  0
INSERT
  5
19C
330
3D
100
AcDbEntity
  8
FORMAT
100
AcDbBlockReference
  2
block 41
 10
0.0
 20
0.0
 30
0.0
  0
INSERT
  5
1A4
330
3D
100
AcDbEntity
  8
FORMAT
100
AcDbBlockReference
  2
block 42
 10
0.0
 20
0.0
 30
0.0
  0
INSERT
  5
1B5
330
3D
100
AcDbEntity
  8
FORMAT
100
AcDbBlockReference
  2
block 43
 10
0.0
 20
0.0
 30
0.0
  0
INSERT
  5
1CC
330
3D
100
AcDbEntity
  8
FORMAT
100
AcDbBlockReference
  2
block 44
 10
0.0
 20
0.0
 30
0.0
  0
INSERT
  5
1D5
330
3D
100
AcDbEntity
  8
FORMAT
100
AcDbBlockReference
  2
block 45
 10
0.0
 20
0.0
 30
0.0
  0
INSERT
  5
1DD
330
3D
100
AcDbEntity
  8
FORMAT
100
AcDbBlockReference
  2
block 46
 10
0.0
 20
0.0
 30
0.0
  0
INSERT
  5
1E2
330
3D
100
AcDbEntity
  8
FORMAT
100
AcDbBlockReference
  2
block 47
 10
0.0
 20
0.0
 30
0.0
  0
INSERT
  5
1EC
330
3D
100
AcDbEntity
  8
FORMAT
100
AcDbBlockReference
  2
block 48
 10
0.0
 20
0.0
 30
0.0
  0
INSERT
  5
1F4
330
3D
100
AcDbEntity
  8
FORMAT
100
AcDbBlockReference
  2
block 49
 10
0.0
 20
0.0
 30
0.0
  0
INSERT
  5
1FE
330
3D
100
AcDbEntity
  8
FORMAT
100
AcDbBlockReference
  2
block 50
 10
0.0
 20
0.0
 30
0.0
  0
INSERT
  5
206
330
3D
100
AcDbEntity
  8
FORMAT
100
AcDbBlockReference
  2
block 51
 10
0.0
 20
0.0
 30
0.0
  0
INSERT
  5
20E
330
3D
100
AcDbEntity
  8
FORMAT
100
AcDbBlockReference
  2
block 52
 10
0.0
 20
0.0
 30
0.0
  0
INSERT
  5
224
330
3D
100
AcDbEntity
  8
FORMAT
100
AcDbBlockReference
  2
block 53
 10
0.0
 20
0.0
 30
0.0
  0
INSERT
  5
22C
330
3D
100
AcDbEntity
  8
FORMAT
100
AcDbBlockReference
  2
block 54
 10
0.0
 20
0.0
 30
0.0
  0
INSERT
  5
242
330
3D
100
AcDbEntity
  8
FORMAT
100
AcDbBlockReference
  2
block 55
 10
0.0
 20
0.0
 30
0.0
  0
INSERT
  5
24A
330
3D
100
AcDbEntity
  8
FORMAT
100
AcDbBlockReference
  2
block 56
 10
0.0
 20
0.0
 30
0.0
  0
INSERT
  5
260
330
3D
100
AcDbEntity
  8
FORMAT
100
AcDbBlockReference
  2
block 57
 10
0.0
 20
0.0
 30
0.0
  0
INSERT
  5
268
330
3D
100
AcDbEntity
  8
FORMAT
100
AcDbBlockReference
  2
block 58
 10
0.0
 20
0.0
 30
0.0
  0
INSERT
  5
27E
330
3D
100
AcDbEntity
  8
FORMAT
100
AcDbBlockReference
  2
block 59
 10
0.0
 20
0.0
 30
0.0
  0
INSERT
  5
283
330
3D
100
AcDbEntity
  8
FORMAT
100
AcDbBlockReference
  2
block 60
 10
0.0
 20
0.0
 30
0.0
  0
INSERT
  5
28B
330
3D
100
AcDbEntity
  8
FORMAT
100
AcDbBlockReference
  2
block 61
 10
0.0
 20
0.0
 30
0.0
  0
INSERT
  5
2A4
330
3D
100
AcDbEntity
  8
FORMAT
100
AcDbBlockReference
  2
block 62
 10
0.0
 20
0.0
 30
0.0
  0
INSERT
  5
2AC
330
3D
100
AcDbEntity
  8
FORMAT
100
AcDbBlockReference
  2
block 63
 10
0.0
 20
0.0
 30
0.0
  0
INSERT
  5
2C6
330
3D
100
AcDbEntity
  8
FORMAT
100
AcDbBlockReference
  2
block 64
 10
0.0
 20
0.0
 30
0.0
  0
INSERT
  5
2CE
330
3D
100
AcDbEntity
  8
FORMAT
100
AcDbBlockReference
  2
block 65
 10
0.0
 20
0.0
 30
0.0
  0
INSERT
  5
2D6
330
3D
100
AcDbEntity
  8
FORMAT
100
AcDbBlockReference
  2
block 66
 10
0.0
 20
0.0
 30
0.0
  0
INSERT
  5
2EC
330
3D
100
AcDbEntity
  8
FORMAT
100
AcDbBlockReference
  2
block 67
 10
0.0
 20
0.0
 30
0.0
  0
INSERT
  5
2F4
330
3D
100
AcDbEntity
  8
FORMAT
100
AcDbBlockReference
  2
block 68
 10
0.0
 20
0.0
 30
0.0
  0
INSERT
  5
2F9
330
3D
100
AcDbEntity
  8
FORMAT
100
AcDbBlockReference
  2
block 69
 10
0.0
 20
0.0
 30
0.0
  0
INSERT
  5
301
330
3D
100
AcDbEntity
  8
FORMAT
100
AcDbBlockReference
  2
block 70
 10
0.0
 20
0.0
 30
0.0
  0
INSERT
  5
309
330
3D
100
AcDbEntity
  8
FORMAT
100
AcDbBlockReference
  2
block 71
 10
0.0
 20
0.0
 30
0.0
  0
INSERT
  5
30E
330
3D
100
AcDbEntity
  8
FORMAT
100
AcDbBlockReference
  2
block 72
 10
0.0
 20
0.0
 30
0.0
  0
INSERT
  5
313
330
3D
100
AcDbEntity
  8
FORMAT
100
AcDbBlockReference
  2
block 73
 10
0.0
 20
0.0
 30
0.0
  0
INSERT
  5
31B
330
3D
100
AcDbEntity
  8
FORMAT
100
AcDbBlockReference
  2
block 74
 10
0.0
 20
0.0
 30
0.0
  0
INSERT
  5
330
330
3D
100
AcDbEntity
  8
FORMAT
100
AcDbBlockReference
  2
block 75
 10
0.0
 20
0.0
 30
0.0
  0
INSERT
  5
338
330
3D
100
AcDbEntity
  8
FORMAT
100
AcDbBlockReference
  2
block 76
 10
0.0
 20
0.0
 30
0.0
  0
INSERT
  5
34D
330
3D
100
AcDbEntity
  8
FORMAT
100
AcDbBlockReference
  2
block 77
 10
0.0
 20
0.0
 30
0.0
  0
INSERT
  5
35A
330
3D
100
AcDbEntity
  8
FORMAT
100
AcDbBlockReference
  2
block 78
 10
0.0
 20
0.0
 30
0.0
  0
INSERT
  5
35F
330
3D
100
AcDbEntity
  8
FORMAT
100
AcDbBlockReference
  2
block 79
 10
0.0
 20
0.0
 30
0.0
  0
INSERT
  5
367
330
3D
100
AcDbEntity
  8
FORMAT
100
AcDbBlockReference
  2
block 80
 10
0.0
 20
0.0
 30
0.0
  0
INSERT
  5
36C
330
3D
100
AcDbEntity
  8
FORMAT
100
AcDbBlockReference
  2
block 81
 10
0.0
 20
0.0
 30
0.0
  0
ENDBLK
  5
40
330
3D
100
AcDbEntity
  8
0
100
AcDbBlockEnd
  0
BLOCK
  5
43
330
41
100
AcDbEntity
  8
0
100
AcDbBlockBegin
  2
block 3
 70
     0
 71
     0
 10
0.0
 20
0.0
 30
0.0
  3
block 3
  1

  0
POLYLINE
  5
45
330
41
100
AcDbEntity
  8
FORMAT
 62
     7
370
     9
100
AcDb2dPolyline
 66
     1
 10
0.0
 20
0.0
 30
0.0
  0
VERTEX
  5
46
330
45
100
AcDbEntity
  8
FORMAT
 62
     7
370
     9
100
AcDbVertex
100
AcDb2dVertex
 10
37.44198675279228
 20
185.1365030461638
 30
0.0
  0
VERTEX
  5
47
330
45
100
AcDbEntity
  8
FORMAT
 62
     7
370
     9
100
AcDbVertex
100
AcDb2dVertex
 10
37.28626843685899
 20
185.2271090574259
 30
0.0
  0
SEQEND
  5
48
330
45
100
AcDbEntity
  8
FORMAT
370
     9
  0
ENDBLK
  5
44
330
41
100
AcDbEntity
  8
0
100
AcDbBlockEnd
  0
BLOCK
  5
4B
330
49
100
AcDbEntity
  8
0
100
AcDbBlockBegin
  2
block 4
 70
     0
 71
     0
 10
0.0
 20
0.0
 30
0.0
  3
block 4
  1

  0
POLYLINE
  5
4D
330
49
100
AcDbEntity
  8
FORMAT
 62
     7
370
     9
100
AcDb2dPolyline
 66
     1
 10
0.0
 20
0.0
 30
0.0
  0
VERTEX
  5
4E
330
4D
100
AcDbEntity
  8
FORMAT
 62
     7
370
     9
100
AcDbVertex
100
AcDb2dVertex
 10
37.10212808317239
 20
184.9101602727829
 30
0.0
  0
VERTEX
  5
4F
330
4D
100
AcDbEntity
  8
FORMAT
 62
     7
370
     9
100
AcDbVertex
100
AcDb2dVertex
 10
37.33088242339298
 20
184.7780408609236
 30
0.0
  0
SEQEND
  5
50
330
4D
100
AcDbEntity
  8
FORMAT
370
     9
  0
ENDBLK
  5
4C
330
49
100
AcDbEntity
  8
0
100
AcDbBlockEnd
  0
BLOCK
  5
53
330
51
100
AcDbEntity
  8
0
100
AcDbBlockBegin
  2
block 5
 70
     0
 71
     0
 10
0.0
 20
0.0
 30
0.0
  3
block 5
  1

  0
POLYLINE
  5
55
330
51
100
AcDbEntity
  8
FORMAT
 62
     7
370
     9
100
AcDb2dPolyline
 66
     1
 10
0.0
 20
0.0
 30
0.0
  0
VERTEX
  5
56
330
55
100
AcDbEntity
  8
FORMAT
 62
     7
370
     9
100
AcDbVertex
100
AcDb2dVertex
 10
37.19238958488593
 20
185.21797955439
 30
0.0
  0
VERTEX
  5
57
330
55
100
AcDbEntity
  8
FORMAT
 62
     7
370
     9
100
AcDbVertex
100
AcDb2dVertex
 10
37.13778482144473
 20
185.1861124211514
 30
0.0
  0
SEQEND
  5
58
330
55
100
AcDbEntity
  8
FORMAT
370
     9
  0
ENDBLK
  5
54
330
51
100
AcDbEntity
  8
0
100
AcDbBlockEnd
  0
BLOCK
  5
5B
330
59
100
AcDbEntity
  8
0
100
AcDbBlockBegin
  2
block 6
 70
     0
 71
     0
 10
0.0
 20
0.0
 30
0.0
  3
block 6
  1

  0
POLYLINE
  5
5D
330
59
100
AcDbEntity
  8
FORMAT
 62
     7
370
     9
100
AcDb2dPolyline
 66
     1
 10
0.0
 20
0.0
 30
0.0
  0
VERTEX
  5
5E
330
5D
100
AcDbEntity
  8
FORMAT
 62
     7
370
     9
100
AcDbVertex
100
AcDb2dVertex
 10
37.06405977806038
 20
185.0589883977457
 30
0.0
  0
VERTEX
  5
5F
330
5D
100
AcDbEntity
  8
FORMAT
 62
     7
370
     9
100
AcDbVertex
100
AcDb2dVertex
 10
37.06405977806038
 20
184.9937038383002
 30
0.0
  0
SEQEND
  5
60
330
5D
100
AcDbEntity
  8
FORMAT
370
     9
  0
ENDBLK
  5
5C
330
59
100
AcDbEntity
  8
0
100
AcDbBlockEnd
  0
BLOCK
  5
63
330
61
100
AcDbEntity
  8
0
100
AcDbBlockBegin
  2
block 7
 70
     0
 71
     0
 10
0.0
 20
0.0
 30
0.0
  3
block 7
  1

  0
POLYLINE
  5
65
330
61
100
AcDbEntity
  8
FORMAT
 62
     7
370
     9
100
AcDb2dPolyline
 66
     1
 10
0.0
 20
0.0
 30
0.0
  0
VERTEX
  5
66
330
65
100
AcDbEntity
  8
FORMAT
 62
     7
370
     9
100
AcDbVertex
100
AcDb2dVertex
 10
173.5411729166842
 20
106.2078151861217
 30
0.0
  0
VERTEX
  5
67
330
65
100
AcDbEntity
  8
FORMAT
 62
     7
370
     9
100
AcDbVertex
100
AcDb2dVertex
 10
173.5976724826423
 20
106.239510064586
 30
0.0
  0
SEQEND
  5
68
330
65
100
AcDbEntity
  8
FORMAT
370
     9
  0
ENDBLK
  5
64
330
61
100
AcDbEntity
  8
0
100
AcDbBlockEnd
  0
BLOCK
  5
6B
330
69
100
AcDbEntity
  8
0
100
AcDbBlockBegin
  2
block 8
 70
     0
 71
     0
 10
0.0
 20
0.0
 30
0.0
  3
block 8
  1

  0
POLYLINE
  5
6D
330
69
100
AcDbEntity
  8
FORMAT
 62
     7
370
     9
100
AcDb2dPolyline
 66
     1
 10
0.0
 20
0.0
 30
0.0
  0
VERTEX
  5
6E
330
6D
100
AcDbEntity
  8
FORMAT
 62
     7
370
     9
100
AcDbVertex
100
AcDb2dVertex
 10
173.6713975260266
 20
106.3669785975402
 30
0.0
  0
VERTEX
  5
6F
330
6D
100
AcDbEntity
  8
FORMAT
 62
     7
370
     9
100
AcDbVertex
100
AcDb2dVertex
 10
173.6713975260266
 20
106.4317463926629
 30
0.0
  0
SEQEND
  5
70
330
6D
100
AcDbEntity
  8
FORMAT
370
     9
  0
ENDBLK
  5
6C
330
69
100
AcDbEntity
  8
0
100
AcDbBlockEnd
  0
BLOCK
  5
73
330
71
100
AcDbEntity
  8
0
100
AcDbBlockBegin
  2
block 9
 70
     0
 71
     0
 10
0.0
 20
0.0
 30
0.0
  3
block 9
  1

  0
POLYLINE
  5
75
330
71
100
AcDbEntity
  8
FORMAT
 62
     7
370
     9
100
AcDb2dPolyline
 66
     1
 10
0.0
 20
0.0
 30
0.0
  0
VERTEX
  5
76
330
75
100
AcDbEntity
  8
FORMAT
 62
     7
370
     9
100
AcDbVertex
100
AcDb2dVertex
 10
172.6736978734982
 20
106.6460313318454
 30
0.0
  0
VERTEX
  5
77
330
75
100
AcDbEntity
  8
FORMAT
 62
     7
370
     9
100
AcDbVertex
100
AcDb2dVertex
 10
173.4488443576795
 20
106.1985134283115
 30
0.0
  0
SEQEND
  5
78
330
75
100
AcDbEntity
  8
FORMAT
370
     9
  0
ENDBLK
  5
74
330
71
100
AcDbEntity
  8
0
100
AcDbBlockEnd
  0
BLOCK
  5
7B
330
79
100
AcDbEntity
  8
0
100
AcDbBlockBegin
  2
block 10
 70
     0
 71
     0
 10
0.0
 20
0.0
 30
0.0
  3
block 10
  1

  0
POLYLINE
  5
7D
330
79
100
AcDbEntity
  8
FORMAT
 62
     7
370
     9
100
AcDb2dPolyline
 66
     1
 10
0.0
 20
0.0
 30
0.0
  0
VERTEX
  5
7E
330
7D
100
AcDbEntity
  8
FORMAT
 62
     7
370
     9
100
AcDbVertex
100
AcDb2dVertex
 10
173.6321234374948
 20
106.515806722503
 30
0.0
  0
VERTEX
  5
7F
330
7D
100
AcDbEntity
  8
FORMAT
 62
     7
370
     9
100
AcDbVertex
100
AcDb2dVertex
 10
172.856632443765
 20
106.9636691355855
 30
0.0
  0
SEQEND
  5
80
330
7D
100
AcDbEntity
  8
FORMAT
370
     9
  0
ENDBLK
  5
7C
330
79
100
AcDbEntity
  8
0
100
AcDbBlockEnd
  0
BLOCK
  5
83
330
81
100
AcDbEntity
  8
0
100
AcDbBlockBegin
  2
block 11
 70
     0
 71
     0
 10
0.0
 20
0.0
 30
0.0
  3
block 11
  1

  0
POLYLINE
  5
85
330
81
100
AcDbEntity
  8
FORMAT
 62
     7
370
     9
100
AcDb2dPolyline
 66
     1
 10
0.0
 20
0.0
 30
0.0
  0
VERTEX
  5
86
330
85
100
AcDbEntity
  8
FORMAT
 62
     7
370
     9
100
AcDbVertex
100
AcDb2dVertex
 10
174.9722655812569
 20
107.0332600643875
 30
0.0
  0
VERTEX
  5
87
330
85
100
AcDbEntity
  8
FORMAT
 62
     7
370
     9
100
AcDbVertex
100
AcDb2dVertex
 10
175.028765147215
 20
107.0656439619489
 30
0.0
  0
SEQEND
  5
88
330
85
100
AcDbEntity
  8
FORMAT
370
     9
  0
ENDBLK
  5
84
330
81
100
AcDbEntity
  8
0
100
AcDbBlockEnd
  0
BLOCK
  5
8B
330
89
100
AcDbEntity
  8
0
100
AcDbBlockBegin
  2
block 12
 70
     0
 71
     0
 10
0.0
 20
0.0
 30
0.0
  3
block 12
  1

  0
POLYLINE
  5
8D
330
89
100
AcDbEntity
  8
FORMAT
 62
     7
370
     9
100
AcDb2dPolyline
 66
     1
 10
0.0
 20
0.0
 30
0.0
  0
VERTEX
  5
8E
330
8D
100
AcDbEntity
  8
FORMAT
 62
     7
370
     9
100
AcDbVertex
100
AcDb2dVertex
 10
175.1014566619538
 20
107.1920789662575
 30
0.0
  0
VERTEX
  5
8F
330
8D
100
AcDbEntity
  8
FORMAT
 62
     7
370
     9
100
AcDbVertex
100
AcDb2dVertex
 10
175.1014566619538
 20
107.2568467613802
 30
0.0
  0
SEQEND
  5
90
330
8D
100
AcDbEntity
  8
FORMAT
370
     9
  0
ENDBLK
  5
8C
330
89
100
AcDbEntity
  8
0
100
AcDbBlockEnd
  0
BLOCK
  5
93
330
91
100
AcDbEntity
  8
0
100
AcDbBlockBegin
  2
block 13
 70
     0
 71
     0
 10
0.0
 20
0.0
 30
0.0
  3
block 13
  1

  0
POLYLINE
  5
95
330
91
100
AcDbEntity
  8
FORMAT
 62
     7
370
     9
100
AcDb2dPolyline
 66
     1
 10
0.0
 20
0.0
 30
0.0
  0
VERTEX
  5
96
330
95
100
AcDbEntity
  8
FORMAT
 62
     7
370
     9
100
AcDbVertex
100
AcDb2dVertex
 10
174.1027234807799
 20
107.4725097387569
 30
0.0
  0
VERTEX
  5
97
330
95
100
AcDbEntity
  8
FORMAT
 62
     7
370
     9
100
AcDbVertex
100
AcDb2dVertex
 10
174.8802815318008
 20
107.0239583065773
 30
0.0
  0
SEQEND
  5
98
330
95
100
AcDbEntity
  8
FORMAT
370
     9
  0
ENDBLK
  5
94
330
91
100
AcDbEntity
  8
0
100
AcDbBlockEnd
  0
BLOCK
  5
9B
330
99
100
AcDbEntity
  8
0
100
AcDbBlockBegin
  2
block 14
 70
     0
 71
     0
 10
0.0
 20
0.0
 30
0.0
  3
block 14
  1

  0
POLYLINE
  5
9D
330
99
100
AcDbEntity
  8
FORMAT
 62
     7
370
     9
100
AcDb2dPolyline
 66
     1
 10
0.0
 20
0.0
 30
0.0
  0
VERTEX
  5
9E
330
9D
100
AcDbEntity
  8
FORMAT
 62
     7
370
     9
100
AcDbVertex
100
AcDb2dVertex
 10
175.0625270829705
 20
107.3405625816718
 30
0.0
  0
VERTEX
  5
9F
330
9D
100
AcDbEntity
  8
FORMAT
 62
     7
370
     9
100
AcDbVertex
100
AcDb2dVertex
 10
174.2870360892408
 20
107.7887695043028
 30
0.0
  0
SEQEND
  5
A0
330
9D
100
AcDbEntity
  8
FORMAT
370
     9
  0
ENDBLK
  5
9C
330
99
100
AcDbEntity
  8
0
100
AcDbBlockEnd
  0
BLOCK
  5
A3
330
A1
100
AcDbEntity
  8
0
100
AcDbBlockBegin
  2
block 15
 70
     0
 71
     0
 10
0.0
 20
0.0
 30
0.0
  3
block 15
  1

  0
POLYLINE
  5
A5
330
A1
100
AcDbEntity
  8
FORMAT
 62
     7
370
     9
100
AcDb2dPolyline
 66
     1
 10
0.0
 20
0.0
 30
0.0
  0
VERTEX
  5
A6
330
A5
100
AcDbEntity
  8
FORMAT
 62
     7
370
     9
100
AcDbVertex
100
AcDb2dVertex
 10
37.70467528354258
 20
183.1631523522127
 30
0.0
  0
VERTEX
  5
A7
330
A5
100
AcDbEntity
  8
FORMAT
 62
     7
370
     9
100
AcDbVertex
100
AcDb2dVertex
 10
40.15844454291178
 20
181.7460123243552
 30
0.0
  0
SEQEND
  5
A8
330
A5
100
AcDbEntity
  8
FORMAT
370
     9
  0
ENDBLK
  5
A4
330
A1
100
AcDbEntity
  8
0
100
AcDbBlockEnd
  0
BLOCK
  5
AB
330
A9
100
AcDbEntity
  8
0
100
AcDbBlockBegin
  2
block 16
 70
     0
 71
     0
 10
0.0
 20
0.0
 30
0.0
  3
block 16
  1

  0
POLYLINE
  5
AD
330
A9
100
AcDbEntity
  8
FORMAT
 62
     7
370
     9
100
AcDb2dPolyline
 66
     1
 10
0.0
 20
0.0
 30
0.0
  0
VERTEX
  5
AE
330
AD
100
AcDbEntity
  8
FORMAT
 62
     7
370
     9
100
AcDbVertex
100
AcDb2dVertex
 10
173.4068141927594
 20
105.537399604692
 30
0.0
  0
VERTEX
  5
AF
330
AD
100
AcDbEntity
  8
FORMAT
 62
     7
370
     9
100
AcDbVertex
100
AcDb2dVertex
 10
173.5194688151271
 20
105.6018228902662
 30
0.0
  0
SEQEND
  5
B0
330
AD
100
AcDbEntity
  8
FORMAT
370
     9
  0
ENDBLK
  5
AC
330
A9
100
AcDbEntity
  8
0
100
AcDbBlockEnd
  0
BLOCK
  5
B3
330
B1
100
AcDbEntity
  8
0
100
AcDbBlockBegin
  2
block 17
 70
     0
 71
     0
 10
0.0
 20
0.0
 30
0.0
  3
block 17
  1

  0
POLYLINE
  5
B5
330
B1
100
AcDbEntity
  8
FORMAT
 62
     7
370
     9
100
AcDb2dPolyline
 66
     1
 10
0.0
 20
0.0
 30
0.0
  0
VERTEX
  5
B6
330
B5
100
AcDbEntity
  8
FORMAT
 62
     7
370
     9
100
AcDbVertex
100
AcDb2dVertex
 10
169.8962618932898
 20
106.8499809845722
 30
0.0
  0
VERTEX
  5
B7
330
B5
100
AcDbEntity
  8
FORMAT
 62
     7
370
     9
100
AcDbVertex
100
AcDb2dVertex
 10
172.3512369360789
 20
105.433702230586
 30
0.0
  0
SEQEND
  5
B8
330
B5
100
AcDbEntity
  8
FORMAT
370
     9
  0
ENDBLK
  5
B4
330
B1
100
AcDbEntity
  8
0
100
AcDbBlockEnd
  0
BLOCK
  5
BB
330
B9
100
AcDbEntity
  8
0
100
AcDbBlockBegin
  2
block 18
 70
     0
 71
     0
 10
0.0
 20
0.0
 30
0.0
  3
block 18
  1

  0
POLYLINE
  5
BD
330
B9
100
AcDbEntity
  8
FORMAT
 62
     7
370
     9
100
AcDb2dPolyline
 66
     1
 10
0.0
 20
0.0
 30
0.0
  0
VERTEX
  5
BE
330
BD
100
AcDbEntity
  8
FORMAT
 62
     7
370
     9
100
AcDbVertex
100
AcDb2dVertex
 10
42.26839327285304
 20
185.4012586342052
 30
0.0
  0
VERTEX
  5
BF
330
BD
100
AcDbEntity
  8
FORMAT
 62
     7
370
     9
100
AcDbVertex
100
AcDb2dVertex
 10
39.81376273961254
 20
186.8187431716113
 30
0.0
  0
SEQEND
  5
C0
330
BD
100
AcDbEntity
  8
FORMAT
370
     9
  0
ENDBLK
  5
BC
330
B9
100
AcDbEntity
  8
0
100
AcDbBlockEnd
  0
BLOCK
  5
C3
330
C1
100
AcDbEntity
  8
0
100
AcDbBlockBegin
  2
block 19
 70
     0
 71
     0
 10
0.0
 20
0.0
 30
0.0
  3
block 19
  1

  0
POLYLINE
  5
C5
330
C1
100
AcDbEntity
  8
FORMAT
 62
     7
370
     9
100
AcDb2dPolyline
 66
     1
 10
0.0
 20
0.0
 30
0.0
  0
VERTEX
  5
C6
330
C5
100
AcDbEntity
  8
FORMAT
 62
     7
370
     9
100
AcDbVertex
100
AcDb2dVertex
 10
38.75784097338346
 20
186.7133232497627
 30
0.0
  0
VERTEX
  5
C7
330
C5
100
AcDbEntity
  8
FORMAT
 62
     7
370
     9
100
AcDbVertex
100
AcDb2dVertex
 10
38.6460476248871
 20
186.6483831998657
 30
0.0
  0
SEQEND
  5
C8
330
C5
100
AcDbEntity
  8
FORMAT
370
     9
  0
ENDBLK
  5
C4
330
C1
100
AcDbEntity
  8
0
100
AcDbBlockEnd
  0
BLOCK
  5
CB
330
C9
100
AcDbEntity
  8
0
100
AcDbBlockBegin
  2
block 20
 70
     0
 71
     0
 10
0.0
 20
0.0
 30
0.0
  3
block 20
  1

  0
POLYLINE
  5
CD
330
C9
100
AcDbEntity
  8
FORMAT
 62
     7
370
     9
100
AcDb2dPolyline
 66
     1
 10
0.0
 20
0.0
 30
0.0
  0
VERTEX
  5
CE
330
CD
100
AcDbEntity
  8
FORMAT
 62
     7
370
     9
100
AcDbVertex
100
AcDb2dVertex
 10
174.4610134112459
 20
109.0872259926935
 30
0.0
  0
VERTEX
  5
CF
330
CD
100
AcDbEntity
  8
FORMAT
 62
     7
370
     9
100
AcDbVertex
100
AcDb2dVertex
 10
172.0063828780054
 20
110.5055718039708
 30
0.0
  0
SEQEND
  5
D0
330
CD
100
AcDbEntity
  8
FORMAT
370
     9
  0
ENDBLK
  5
CC
330
C9
100
AcDbEntity
  8
0
100
AcDbBlockEnd
  0
BLOCK
  5
D3
330
D1
100
AcDbEntity
  8
0
100
AcDbBlockBegin
  2
block 21
 70
     0
 71
     0
 10
0.0
 20
0.0
 30
0.0
  3
block 21
  1

  0
POLYLINE
  5
D5
330
D1
100
AcDbEntity
  8
FORMAT
 62
     7
370
     9
100
AcDb2dPolyline
 66
     1
 10
0.0
 20
0.0
 30
0.0
  0
VERTEX
  5
D6
330
D5
100
AcDbEntity
  8
FORMAT
 62
     7
370
     9
100
AcDbVertex
100
AcDb2dVertex
 10
172.0404893233093
 20
110.4845567215108
 30
0.0
  0
VERTEX
  5
D7
330
D5
100
AcDbEntity
  8
FORMAT
 62
     7
370
     9
100
AcDbVertex
100
AcDb2dVertex
 10
42.23445908232333
 20
185.4205511689227
 30
0.0
  0
SEQEND
  5
D8
330
D5
100
AcDbEntity
  8
FORMAT
370
     9
  0
ENDBLK
  5
D4
330
D1
100
AcDbEntity
  8
0
100
AcDbBlockEnd
  0
BLOCK
  5
DB
330
D9
100
AcDbEntity
  8
0
100
AcDbBlockBegin
  2
block 22
 70
     0
 71
     0
 10
0.0
 20
0.0
 30
0.0
  3
block 22
  1

  0
POLYLINE
  5
DD
330
D9
100
AcDbEntity
  8
FORMAT
 62
     7
370
     9
100
AcDb2dPolyline
 66
     1
 10
0.0
 20
0.0
 30
0.0
  0
VERTEX
  5
DE
330
DD
100
AcDbEntity
  8
FORMAT
 62
     7
370
     9
100
AcDbVertex
100
AcDb2dVertex
 10
39.7367648555172
 20
182.8915065732007
 30
0.0
  0
VERTEX
  5
DF
330
DD
100
AcDbEntity
  8
FORMAT
 62
     7
370
     9
100
AcDbVertex
100
AcDb2dVertex
 10
169.4673475053762
 20
107.9996093480001
 30
0.0
  0
SEQEND
  5
E0
330
DD
100
AcDbEntity
  8
FORMAT
370
     9
  0
ENDBLK
  5
DC
330
D9
100
AcDbEntity
  8
0
100
AcDbBlockEnd
  0
BLOCK
  5
E3
330
E1
100
AcDbEntity
  8
0
100
AcDbBlockBegin
  2
block 23
 70
     0
 71
     0
 10
0.0
 20
0.0
 30
0.0
  3
block 23
  1

  0
POLYLINE
  5
E5
330
E1
100
AcDbEntity
  8
FORMAT
 62
     7
370
     9
100
AcDb2dPolyline
 66
     1
 10
0.0
 20
0.0
 30
0.0
  0
VERTEX
  5
E6
330
E5
100
AcDbEntity
  8
FORMAT
 62
     7
370
     9
100
AcDbVertex
100
AcDb2dVertex
 10
40.1808376635659
 20
181.7324041971884
 30
0.0
  0
VERTEX
  5
E7
330
E5
100
AcDbEntity
  8
FORMAT
 62
     7
370
     9
100
AcDbVertex
100
AcDb2dVertex
 10
169.8731797535387
 20
106.8634168569647
 30
0.0
  0
SEQEND
  5
E8
330
E5
100
AcDbEntity
  8
FORMAT
370
     9
  0
ENDBLK
  5
E4
330
E1
100
AcDbEntity
  8
0
100
AcDbBlockEnd
  0
BLOCK
  5
EB
330
E9
100
AcDbEntity
  8
0
100
AcDbBlockBegin
  2
block 24
 70
     0
 71
     0
 10
0.0
 20
0.0
 30
0.0
  3
block 24
  1

  0
POLYLINE
  5
ED
330
E9
100
AcDbEntity
  8
FORMAT
 62
     7
370
     9
100
AcDb2dPolyline
 66
     1
 10
0.0
 20
0.0
 30
0.0
  0
VERTEX
  5
EE
330
ED
100
AcDbEntity
  8
FORMAT
 62
     7
370
     9
100
AcDbVertex
100
AcDb2dVertex
 10
37.28626843685899
 20
185.2271090574259
 30
0.0
  0
VERTEX
  5
EF
330
ED
100
AcDbEntity
  8
FORMAT
 62
     7
370
     9
100
AcDbVertex
100
AcDb2dVertex
 10
37.24389376239041
 20
185.2358940509133
 30
0.0
  0
VERTEX
  5
F0
330
ED
100
AcDbEntity
  8
FORMAT
 62
     7
370
     9
100
AcDbVertex
100
AcDb2dVertex
 10
37.19238958488593
 20
185.21797955439
 30
0.0
  0
VERTEX
  5
F1
330
ED
100
AcDbEntity
  8
FORMAT
 62
     7
370
     9
100
AcDbVertex
100
AcDb2dVertex
 10
37.14433050286669
 20
185.1787054658581
 30
0.0
  0
VERTEX
  5
F2
330
ED
100
AcDbEntity
  8
FORMAT
 62
     7
370
     9
100
AcDbVertex
100
AcDb2dVertex
 10
37.10212808317239
 20
185.1210001164802
 30
0.0
  0
VERTEX
  5
F3
330
ED
100
AcDbEntity
  8
FORMAT
 62
     7
370
     9
100
AcDbVertex
100
AcDb2dVertex
 10
37.07387830019334
 20
185.0572658500031
 30
0.0
  0
VERTEX
  5
F4
330
ED
100
AcDbEntity
  8
FORMAT
 62
     7
370
     9
100
AcDbVertex
100
AcDb2dVertex
 10
37.06405977806038
 20
184.9937038383002
 30
0.0
  0
VERTEX
  5
F5
330
ED
100
AcDbEntity
  8
FORMAT
 62
     7
370
     9
100
AcDbVertex
100
AcDb2dVertex
 10
37.07387830019334
 20
184.9420274060215
 30
0.0
  0
VERTEX
  5
F6
330
ED
100
AcDbEntity
  8
FORMAT
 62
     7
370
     9
100
AcDbVertex
100
AcDb2dVertex
 10
37.10212808317239
 20
184.9101602727829
 30
0.0
  0
SEQEND
  5
F7
330
ED
100
AcDbEntity
  8
FORMAT
370
     9
  0
ENDBLK
  5
EC
330
E9
100
AcDbEntity
  8
0
100
AcDbBlockEnd
  0
BLOCK
  5
FA
330
F8
100
AcDbEntity
  8
0
100
AcDbBlockBegin
  2
block 25
 70
     0
 71
     0
 10
0.0
 20
0.0
 30
0.0
  3
block 25
  1

  0
SPLINE
  5
FC
330
F8
100
AcDbEntity
  8
FORMAT
 62
     7
370
     9
100
AcDbSpline
210
0.0
220
0.0
230
1.0
 70
     8
 71
     3
 72
     8
 73
     4
 74
     0
 42
0.0000000001
 43
0.0000000001
 40
0.0
 40
0.0
 40
0.0
 40
0.0
 40
1.0
 40
1.0
 40
1.0
 40
1.0
 10
37.13778482144473
 20
185.1861124211514
 30
0.0
 10
37.09317083491074
 20
185.1583794024951
 30
0.0
 10
37.06733261877136
 20
185.1101480657017
 30
0.0
 10
37.06405977806038
 20
185.0589883977457
 30
0.0
  0
ENDBLK
  5
FB
330
F8
100
AcDbEntity
  8
0
100
AcDbBlockEnd
  0
BLOCK
  5
FF
330
FD
100
AcDbEntity
  8
0
100
AcDbBlockBegin
  2
block 26
 70
     0
 71
     0
 10
0.0
 20
0.0
 30
0.0
  3
block 26
  1

  0
POLYLINE
  5
101
330
FD
100
AcDbEntity
  8
FORMAT
 62
     7
370
     9
100
AcDb2dPolyline
 66
     1
 10
0.0
 20
0.0
 30
0.0
  0
VERTEX
  5
102
330
101
100
AcDbEntity
  8
FORMAT
 62
     7
370
     9
100
AcDbVertex
100
AcDb2dVertex
 10
173.5242919488064
 20
106.2822292486031
 30
0.0
  0
VERTEX
  5
103
330
101
100
AcDbEntity
  8
FORMAT
 62
     7
370
     9
100
AcDbVertex
100
AcDb2dVertex
 10
173.5304931206799
 20
106.2522569178814
 30
0.0
  0
VERTEX
  5
104
330
101
100
AcDbEntity
  8
FORMAT
 62
     7
370
     9
100
AcDbVertex
100
AcDb2dVertex
 10
173.546340559912
 20
106.2343424213581
 30
0.0
  0
VERTEX
  5
105
330
101
100
AcDbEntity
  8
FORMAT
 62
     7
370
     9
100
AcDbVertex
100
AcDb2dVertex
 10
173.5694226996632
 20
106.2302083067758
 30
0.0
  0
VERTEX
  5
106
330
101
100
AcDbEntity
  8
FORMAT
 62
     7
370
     9
100
AcDbVertex
100
AcDb2dVertex
 10
173.5976724826423
 20
106.239510064586
 30
0.0
  0
VERTEX
  5
107
330
101
100
AcDbEntity
  8
FORMAT
 62
     7
370
     9
100
AcDbVertex
100
AcDb2dVertex
 10
173.6248887369757
 20
106.2615586756916
 30
0.0
  0
VERTEX
  5
108
330
101
100
AcDbEntity
  8
FORMAT
 62
     7
370
     9
100
AcDbVertex
100
AcDb2dVertex
 10
173.6496934244695
 20
106.2935980637044
 30
0.0
  0
VERTEX
  5
109
330
101
100
AcDbEntity
  8
FORMAT
 62
     7
370
     9
100
AcDbVertex
100
AcDb2dVertex
 10
173.6651963541532
 20
106.330116075848
 30
0.0
  0
VERTEX
  5
10A
330
101
100
AcDbEntity
  8
FORMAT
 62
     7
370
     9
100
AcDbVertex
100
AcDb2dVertex
 10
173.6713975260266
 20
106.3669785975402
 30
0.0
  0
VERTEX
  5
10B
330
101
100
AcDbEntity
  8
FORMAT
 62
     7
370
     9
100
AcDbVertex
100
AcDb2dVertex
 10
173.6651963541532
 20
106.3952283805193
 30
0.0
  0
VERTEX
  5
10C
330
101
100
AcDbEntity
  8
FORMAT
 62
     7
370
     9
100
AcDbVertex
100
AcDb2dVertex
 10
173.6496934244695
 20
106.4134873865911
 30
0.0
  0
VERTEX
  5
10D
330
101
100
AcDbEntity
  8
FORMAT
 62
     7
370
     9
100
AcDbVertex
100
AcDb2dVertex
 10
173.6248887369757
 20
106.4189995393675
 30
0.0
  0
VERTEX
  5
10E
330
101
100
AcDbEntity
  8
FORMAT
 62
     7
370
     9
100
AcDbVertex
100
AcDb2dVertex
 10
173.5976724826423
 20
106.4090087624602
 30
0.0
  0
VERTEX
  5
10F
330
101
100
AcDbEntity
  8
FORMAT
 62
     7
370
     9
100
AcDbVertex
100
AcDb2dVertex
 10
173.5694226996632
 20
106.3866156418061
 30
0.0
  0
VERTEX
  5
110
330
101
100
AcDbEntity
  8
FORMAT
 62
     7
370
     9
100
AcDbVertex
100
AcDb2dVertex
 10
173.546340559912
 20
106.3535427251477
 30
0.0
  0
VERTEX
  5
111
330
101
100
AcDbEntity
  8
FORMAT
 62
     7
370
     9
100
AcDbVertex
100
AcDb2dVertex
 10
173.5304931206799
 20
106.3170247130041
 30
0.0
  0
VERTEX
  5
112
330
101
100
AcDbEntity
  8
FORMAT
 62
     7
370
     9
100
AcDbVertex
100
AcDb2dVertex
 10
173.5242919488064
 20
106.2822292486031
 30
0.0
  0
SEQEND
  5
113
330
101
100
AcDbEntity
  8
FORMAT
370
     9
  0
ENDBLK
  5
100
330
FD
100
AcDbEntity
  8
0
100
AcDbBlockEnd
  0
BLOCK
  5
116
330
114
100
AcDbEntity
  8
0
100
AcDbBlockBegin
  2
block 27
 70
     0
 71
     0
 10
0.0
 20
0.0
 30
0.0
  3
block 27
  1

  0
POLYLINE
  5
118
330
114
100
AcDbEntity
  8
FORMAT
 62
     7
370
     9
100
AcDb2dPolyline
 66
     1
 10
0.0
 20
0.0
 30
0.0
  0
VERTEX
  5
119
330
118
100
AcDbEntity
  8
FORMAT
 62
     7
370
     9
100
AcDbVertex
100
AcDb2dVertex
 10
173.4119818359873
 20
106.2822292486031
 30
0.0
  0
VERTEX
  5
11A
330
118
100
AcDbEntity
  8
FORMAT
 62
     7
370
     9
100
AcDbVertex
100
AcDb2dVertex
 10
173.4219726128945
 20
106.3442409673376
 30
0.0
  0
VERTEX
  5
11B
330
118
100
AcDbEntity
  8
FORMAT
 62
     7
370
     9
100
AcDbVertex
100
AcDb2dVertex
 10
173.4488443576795
 20
106.4090087624602
 30
0.0
  0
VERTEX
  5
11C
330
118
100
AcDbEntity
  8
FORMAT
 62
     7
370
     9
100
AcDbVertex
100
AcDb2dVertex
 10
173.491219032148
 20
106.4661973475154
 30
0.0
  0
VERTEX
  5
11D
330
118
100
AcDbEntity
  8
FORMAT
 62
     7
370
     9
100
AcDbVertex
100
AcDb2dVertex
 10
173.5411729166842
 20
106.5061604551443
 30
0.0
  0
VERTEX
  5
11E
330
118
100
AcDbEntity
  8
FORMAT
 62
     7
370
     9
100
AcDbVertex
100
AcDb2dVertex
 10
173.5911268012203
 20
106.5233859325705
 30
0.0
  0
VERTEX
  5
11F
330
118
100
AcDbEntity
  8
FORMAT
 62
     7
370
     9
100
AcDbVertex
100
AcDb2dVertex
 10
173.6321234374948
 20
106.515806722503
 30
0.0
  0
VERTEX
  5
120
330
118
100
AcDbEntity
  8
FORMAT
 62
     7
370
     9
100
AcDbVertex
100
AcDb2dVertex
 10
173.6614067491194
 20
106.4827338058446
 30
0.0
  0
VERTEX
  5
121
330
118
100
AcDbEntity
  8
FORMAT
 62
     7
370
     9
100
AcDbVertex
100
AcDb2dVertex
 10
173.6713975260266
 20
106.4317463926629
 30
0.0
  0
SEQEND
  5
122
330
118
100
AcDbEntity
  8
FORMAT
370
     9
  0
ENDBLK
  5
117
330
114
100
AcDbEntity
  8
0
100
AcDbBlockEnd
  0
BLOCK
  5
125
330
123
100
AcDbEntity
  8
0
100
AcDbBlockBegin
  2
block 28
 70
     0
 71
     0
 10
0.0
 20
0.0
 30
0.0
  3
block 28
  1

  0
POLYLINE
  5
127
330
123
100
AcDbEntity
  8
FORMAT
 62
     7
370
     9
100
AcDb2dPolyline
 66
     1
 10
0.0
 20
0.0
 30
0.0
  0
VERTEX
  5
128
330
127
100
AcDbEntity
  8
FORMAT
 62
     7
370
     9
100
AcDbVertex
100
AcDb2dVertex
 10
173.5411729166842
 20
106.2078151861217
 30
0.0
  0
VERTEX
  5
129
330
127
100
AcDbEntity
  8
FORMAT
 62
     7
370
     9
100
AcDbVertex
100
AcDb2dVertex
 10
173.491219032148
 20
106.1892116705013
 30
0.0
  0
VERTEX
  5
12A
330
127
100
AcDbEntity
  8
FORMAT
 62
     7
370
     9
100
AcDbVertex
100
AcDb2dVertex
 10
173.4488443576795
 20
106.1985134283115
 30
0.0
  0
VERTEX
  5
12B
330
127
100
AcDbEntity
  8
FORMAT
 62
     7
370
     9
100
AcDbVertex
100
AcDb2dVertex
 10
173.4219726128945
 20
106.2302083067758
 30
0.0
  0
VERTEX
  5
12C
330
127
100
AcDbEntity
  8
FORMAT
 62
     7
370
     9
100
AcDbVertex
100
AcDb2dVertex
 10
173.4119818359873
 20
106.2822292486031
 30
0.0
  0
SEQEND
  5
12D
330
127
100
AcDbEntity
  8
FORMAT
370
     9
  0
ENDBLK
  5
126
330
123
100
AcDbEntity
  8
0
100
AcDbBlockEnd
  0
BLOCK
  5
130
330
12E
100
AcDbEntity
  8
0
100
AcDbBlockBegin
  2
block 29
 70
     0
 71
     0
 10
0.0
 20
0.0
 30
0.0
  3
block 29
  1

  0
POLYLINE
  5
132
330
12E
100
AcDbEntity
  8
FORMAT
 62
     7
370
     9
100
AcDb2dPolyline
 66
     1
 10
0.0
 20
0.0
 30
0.0
  0
VERTEX
  5
133
330
132
100
AcDbEntity
  8
FORMAT
 62
     7
370
     9
100
AcDbVertex
100
AcDb2dVertex
 10
174.9550401038307
 20
107.1066405982234
 30
0.0
  0
VERTEX
  5
134
330
132
100
AcDbEntity
  8
FORMAT
 62
     7
370
     9
100
AcDbVertex
100
AcDb2dVertex
 10
174.95986323751
 20
107.0783908152443
 30
0.0
  0
VERTEX
  5
135
330
132
100
AcDbEntity
  8
FORMAT
 62
     7
370
     9
100
AcDbVertex
100
AcDb2dVertex
 10
174.9753661671937
 20
107.0594427900754
 30
0.0
  0
VERTEX
  5
136
330
132
100
AcDbEntity
  8
FORMAT
 62
     7
370
     9
100
AcDbVertex
100
AcDb2dVertex
 10
174.9998263451389
 20
107.0553086754931
 30
0.0
  0
VERTEX
  5
137
330
132
100
AcDbEntity
  8
FORMAT
 62
     7
370
     9
100
AcDbVertex
100
AcDb2dVertex
 10
175.028765147215
 20
107.0656439619489
 30
0.0
  0
VERTEX
  5
138
330
132
100
AcDbEntity
  8
FORMAT
 62
     7
370
     9
100
AcDbVertex
100
AcDb2dVertex
 10
175.056325911097
 20
107.0883815921515
 30
0.0
  0
VERTEX
  5
139
330
132
100
AcDbEntity
  8
FORMAT
 62
     7
370
     9
100
AcDbVertex
100
AcDb2dVertex
 10
175.0794080508482
 20
107.1200764706158
 30
0.0
  0
VERTEX
  5
13A
330
132
100
AcDbEntity
  8
FORMAT
 62
     7
370
     9
100
AcDbVertex
100
AcDb2dVertex
 10
175.0949109805318
 20
107.1555609541139
 30
0.0
  0
VERTEX
  5
13B
330
132
100
AcDbEntity
  8
FORMAT
 62
     7
370
     9
100
AcDbVertex
100
AcDb2dVertex
 10
175.1014566619538
 20
107.1920789662575
 30
0.0
  0
VERTEX
  5
13C
330
132
100
AcDbEntity
  8
FORMAT
 62
     7
370
     9
100
AcDbVertex
100
AcDb2dVertex
 10
175.0949109805318
 20
107.2199842396881
 30
0.0
  0
VERTEX
  5
13D
330
132
100
AcDbEntity
  8
FORMAT
 62
     7
370
     9
100
AcDbVertex
100
AcDb2dVertex
 10
175.0794080508482
 20
107.2392767744055
 30
0.0
  0
VERTEX
  5
13E
330
132
100
AcDbEntity
  8
FORMAT
 62
     7
370
     9
100
AcDbVertex
100
AcDb2dVertex
 10
175.056325911097
 20
107.2434108889878
 30
0.0
  0
VERTEX
  5
13F
330
132
100
AcDbEntity
  8
FORMAT
 62
     7
370
     9
100
AcDbVertex
100
AcDb2dVertex
 10
175.028765147215
 20
107.2341091311776
 30
0.0
  0
VERTEX
  5
140
330
132
100
AcDbEntity
  8
FORMAT
 62
     7
370
     9
100
AcDbVertex
100
AcDb2dVertex
 10
174.9998263451389
 20
107.2113715009749
 30
0.0
  0
VERTEX
  5
141
330
132
100
AcDbEntity
  8
FORMAT
 62
     7
370
     9
100
AcDbVertex
100
AcDb2dVertex
 10
174.9753661671937
 20
107.1800211320592
 30
0.0
  0
VERTEX
  5
142
330
132
100
AcDbEntity
  8
FORMAT
 62
     7
370
     9
100
AcDbVertex
100
AcDb2dVertex
 10
174.95986323751
 20
107.1428141008185
 30
0.0
  0
VERTEX
  5
143
330
132
100
AcDbEntity
  8
FORMAT
 62
     7
370
     9
100
AcDbVertex
100
AcDb2dVertex
 10
174.9550401038307
 20
107.1066405982234
 30
0.0
  0
SEQEND
  5
144
330
132
100
AcDbEntity
  8
FORMAT
370
     9
  0
ENDBLK
  5
131
330
12E
100
AcDbEntity
  8
0
100
AcDbBlockEnd
  0
BLOCK
  5
147
330
145
100
AcDbEntity
  8
0
100
AcDbBlockBegin
  2
block 30
 70
     0
 71
     0
 10
0.0
 20
0.0
 30
0.0
  3
block 30
  1

  0
POLYLINE
  5
149
330
145
100
AcDbEntity
  8
FORMAT
 62
     7
370
     9
100
AcDb2dPolyline
 66
     1
 10
0.0
 20
0.0
 30
0.0
  0
VERTEX
  5
14A
330
149
100
AcDbEntity
  8
FORMAT
 62
     7
370
     9
100
AcDbVertex
100
AcDb2dVertex
 10
174.8413519528175
 20
107.1066405982234
 30
0.0
  0
VERTEX
  5
14B
330
149
100
AcDbEntity
  8
FORMAT
 62
     7
370
     9
100
AcDbVertex
100
AcDb2dVertex
 10
174.8520317488217
 20
107.170719374249
 30
0.0
  0
VERTEX
  5
14C
330
149
100
AcDbEntity
  8
FORMAT
 62
     7
370
     9
100
AcDbVertex
100
AcDb2dVertex
 10
174.8802815318008
 20
107.2351426598232
 30
0.0
  0
VERTEX
  5
14D
330
149
100
AcDbEntity
  8
FORMAT
 62
     7
370
     9
100
AcDbVertex
100
AcDb2dVertex
 10
174.9226562062694
 20
107.2916422257813
 30
0.0
  0
VERTEX
  5
14E
330
149
100
AcDbEntity
  8
FORMAT
 62
     7
370
     9
100
AcDbVertex
100
AcDb2dVertex
 10
174.9715765621599
 20
107.3322943525072
 30
0.0
  0
VERTEX
  5
14F
330
149
100
AcDbEntity
  8
FORMAT
 62
     7
370
     9
100
AcDbVertex
100
AcDb2dVertex
 10
175.0211859371475
 20
107.3481417917394
 30
0.0
  0
VERTEX
  5
150
330
149
100
AcDbEntity
  8
FORMAT
 62
     7
370
     9
100
AcDbVertex
100
AcDb2dVertex
 10
175.0625270829705
 20
107.3405625816718
 30
0.0
  0
VERTEX
  5
151
330
149
100
AcDbEntity
  8
FORMAT
 62
     7
370
     9
100
AcDbVertex
100
AcDb2dVertex
 10
175.0918103945951
 20
107.3081786841105
 30
0.0
  0
VERTEX
  5
152
330
149
100
AcDbEntity
  8
FORMAT
 62
     7
370
     9
100
AcDbVertex
100
AcDb2dVertex
 10
175.1014566619538
 20
107.2568467613802
 30
0.0
  0
SEQEND
  5
153
330
149
100
AcDbEntity
  8
FORMAT
370
     9
  0
ENDBLK
  5
148
330
145
100
AcDbEntity
  8
0
100
AcDbBlockEnd
  0
BLOCK
  5
156
330
154
100
AcDbEntity
  8
0
100
AcDbBlockBegin
  2
block 31
 70
     0
 71
     0
 10
0.0
 20
0.0
 30
0.0
  3
block 31
  1

  0
SPLINE
  5
158
330
154
100
AcDbEntity
  8
FORMAT
 62
     7
370
     9
100
AcDbSpline
210
0.0
220
0.0
230
1.0
 70
     8
 71
     3
 72
    17
 73
    13
 74
     0
 42
0.0000000001
 43
0.0000000001
 40
0.0
 40
0.0
 40
0.0
 40
0.0
 40
1.0
 40
1.0
 40
1.0
 40
2.0
 40
2.0
 40
2.0
 40
3.0
 40
3.0
 40
3.0
 40
4.0
 40
4.0
 40
4.0
 40
4.0
 10
174.9722655812569
 20
107.0332600643875
 30
0.0
 10
174.9715765621599
 20
107.0332600643875
 30
0.0
 10
174.9226562062694
 20
107.0156900774127
 30
0.0
 10
174.9226562062694
 20
107.0156900774127
 30
0.0
 10
174.9226562062694
 20
107.0156900774127
 30
0.0
 10
174.8802815318008
 20
107.0239583065773
 30
0.0
 10
174.8802815318008
 20
107.0239583065773
 30
0.0
 10
174.8802815318008
 20
107.0239583065773
 30
0.0
 10
174.8520317488217
 20
107.0563422041387
 30
0.0
 10
174.8520317488217
 20
107.0563422041387
 30
0.0
 10
174.8520317488217
 20
107.0563422041387
 30
0.0
 10
174.8413519528175
 20
107.1066405982234
 30
0.0
 10
174.8413519528175
 20
107.1066405982234
 30
0.0
  0
ENDBLK
  5
157
330
154
100
AcDbEntity
  8
0
100
AcDbBlockEnd
  0
BLOCK
  5
15B
330
159
100
AcDbEntity
  8
0
100
AcDbBlockBegin
  2
block 32
 70
     0
 71
     0
 10
0.0
 20
0.0
 30
0.0
  3
block 32
  1

  0
POLYLINE
  5
15D
330
159
100
AcDbEntity
  8
FORMAT
 62
     7
370
     9
100
AcDb2dPolyline
 66
     1
 10
0.0
 20
0.0
 30
0.0
  0
VERTEX
  5
15E
330
15D
100
AcDbEntity
  8
FORMAT
 62
     7
370
     9
100
AcDbVertex
100
AcDb2dVertex
 10
39.74417181081049
 20
182.7247639517147
 30
0.0
  0
VERTEX
  5
15F
330
15D
100
AcDbEntity
  8
FORMAT
 62
     7
370
     9
100
AcDbVertex
100
AcDb2dVertex
 10
39.74417181081049
 20
182.7247639517147
 30
0.0
  0
SEQEND
  5
160
330
15D
100
AcDbEntity
  8
FORMAT
370
     9
  0
ENDBLK
  5
15C
330
159
100
AcDbEntity
  8
0
100
AcDbBlockEnd
  0
BLOCK
  5
163
330
161
100
AcDbEntity
  8
0
100
AcDbBlockBegin
  2
block 33
 70
     0
 71
     0
 10
0.0
 20
0.0
 30
0.0
  3
block 33
  1

  0
POLYLINE
  5
165
330
161
100
AcDbEntity
  8
FORMAT
 62
     7
370
     9
100
AcDb2dPolyline
 66
     1
 10
0.0
 20
0.0
 30
0.0
  0
VERTEX
  5
166
330
165
100
AcDbEntity
  8
FORMAT
 62
     7
370
     9
100
AcDbVertex
100
AcDb2dVertex
 10
39.74417181081049
 20
182.7247639517147
 30
0.0
  0
VERTEX
  5
167
330
165
100
AcDbEntity
  8
FORMAT
 62
     7
370
     9
100
AcDbVertex
100
AcDb2dVertex
 10
39.72177869015636
 20
182.7120170984192
 30
0.0
  0
SEQEND
  5
168
330
165
100
AcDbEntity
  8
FORMAT
370
     9
  0
ENDBLK
  5
164
330
161
100
AcDbEntity
  8
0
100
AcDbBlockEnd
  0
BLOCK
  5
16B
330
169
100
AcDbEntity
  8
0
100
AcDbBlockBegin
  2
block 34
 70
     0
 71
     0
 10
0.0
 20
0.0
 30
0.0
  3
block 34
  1

  0
POLYLINE
  5
16D
330
169
100
AcDbEntity
  8
FORMAT
 62
     7
370
     9
100
AcDb2dPolyline
 66
     1
 10
0.0
 20
0.0
 30
0.0
  0
VERTEX
  5
16E
330
16D
100
AcDbEntity
  8
FORMAT
 62
     7
370
     9
100
AcDbVertex
100
AcDb2dVertex
 10
37.26714815691585
 20
184.128640361954
 30
0.0
  0
VERTEX
  5
16F
330
16D
100
AcDbEntity
  8
FORMAT
 62
     7
370
     9
100
AcDbVertex
100
AcDb2dVertex
 10
39.72177869015636
 20
182.7120170984192
 30
0.0
  0
SEQEND
  5
170
330
16D
100
AcDbEntity
  8
FORMAT
370
     9
  0
ENDBLK
  5
16C
330
169
100
AcDbEntity
  8
0
100
AcDbBlockEnd
  0
BLOCK
  5
173
330
171
100
AcDbEntity
  8
0
100
AcDbBlockBegin
  2
block 35
 70
     0
 71
     0
 10
0.0
 20
0.0
 30
0.0
  3
block 35
  1

  0
POLYLINE
  5
175
330
171
100
AcDbEntity
  8
FORMAT
 62
     7
370
     9
100
AcDb2dPolyline
 66
     1
 10
0.0
 20
0.0
 30
0.0
  0
VERTEX
  5
176
330
175
100
AcDbEntity
  8
FORMAT
 62
     7
370
     9
100
AcDbVertex
100
AcDb2dVertex
 10
37.26714815691585
 20
184.2586927165221
 30
0.0
  0
VERTEX
  5
177
330
175
100
AcDbEntity
  8
FORMAT
 62
     7
370
     9
100
AcDbVertex
100
AcDb2dVertex
 10
37.26714815691585
 20
184.128640361954
 30
0.0
  0
SEQEND
  5
178
330
175
100
AcDbEntity
  8
FORMAT
370
     9
  0
ENDBLK
  5
174
330
171
100
AcDbEntity
  8
0
100
AcDbBlockEnd
  0
BLOCK
  5
17B
330
179
100
AcDbEntity
  8
0
100
AcDbBlockBegin
  2
block 36
 70
     0
 71
     0
 10
0.0
 20
0.0
 30
0.0
  3
block 36
  1

  0
SPLINE
  5
17D
330
179
100
AcDbEntity
  8
FORMAT
 62
     7
370
     9
100
AcDbSpline
210
0.0
220
0.0
230
1.0
 70
     8
 71
     3
 72
     8
 73
     4
 74
     0
 42
0.0000000001
 43
0.0000000001
 40
0.0
 40
0.0
 40
0.0
 40
0.0
 40
1.0
 40
1.0
 40
1.0
 40
1.0
 10
39.72177869015636
 20
182.7120170984192
 30
0.0
 10
39.68043754433337
 20
182.3347791427844
 30
0.0
 10
39.84769693014224
 20
181.9649481424428
 30
0.0
 10
40.15844454291178
 20
181.7460123243552
 30
0.0
  0
ENDBLK
  5
17C
330
179
100
AcDbEntity
  8
0
100
AcDbBlockEnd
  0
BLOCK
  5
180
330
17E
100
AcDbEntity
  8
0
100
AcDbBlockBegin
  2
block 37
 70
     0
 71
     0
 10
0.0
 20
0.0
 30
0.0
  3
block 37
  1

  0
SPLINE
  5
182
330
17E
100
AcDbEntity
  8
FORMAT
 62
     7
370
     9
100
AcDbSpline
210
0.0
220
0.0
230
1.0
 70
     8
 71
     3
 72
     8
 73
     4
 74
     0
 42
0.0000000001
 43
0.0000000001
 40
0.0
 40
0.0
 40
0.0
 40
0.0
 40
1.0
 40
1.0
 40
1.0
 40
1.0
 10
37.26714815691585
 20
184.128640361954
 30
0.0
 10
37.22494573722155
 20
183.7519191706419
 30
0.0
 10
37.39306639690174
 20
183.3820881703003
 30
0.0
 10
37.70467528354258
 20
183.1631523522127
 30
0.0
  0
ENDBLK
  5
181
330
17E
100
AcDbEntity
  8
0
100
AcDbBlockEnd
  0
BLOCK
  5
185
330
183
100
AcDbEntity
  8
0
100
AcDbBlockBegin
  2
block 38
 70
     0
 71
     0
 10
0.0
 20
0.0
 30
0.0
  3
block 38
  1

  0
POLYLINE
  5
187
330
183
100
AcDbEntity
  8
FORMAT
 62
     7
370
     9
100
AcDb2dPolyline
 66
     1
 10
0.0
 20
0.0
 30
0.0
  0
VERTEX
  5
188
330
187
100
AcDbEntity
  8
FORMAT
 62
     7
370
     9
100
AcDbVertex
100
AcDb2dVertex
 10
172.1386745446389
 20
106.3993624951016
 30
0.0
  0
VERTEX
  5
189
330
187
100
AcDbEntity
  8
FORMAT
 62
     7
370
     9
100
AcDbVertex
100
AcDb2dVertex
 10
172.6626735679455
 20
106.701497369158
 30
0.0
  0
SEQEND
  5
18A
330
187
100
AcDbEntity
  8
FORMAT
370
     9
  0
ENDBLK
  5
186
330
183
100
AcDbEntity
  8
0
100
AcDbBlockEnd
  0
BLOCK
  5
18D
330
18B
100
AcDbEntity
  8
0
100
AcDbBlockBegin
  2
block 39
 70
     0
 71
     0
 10
0.0
 20
0.0
 30
0.0
  3
block 39
  1

  0
POLYLINE
  5
18F
330
18B
100
AcDbEntity
  8
FORMAT
 62
     7
370
     9
100
AcDb2dPolyline
 66
     1
 10
0.0
 20
0.0
 30
0.0
  0
VERTEX
  5
190
330
18F
100
AcDbEntity
  8
FORMAT
 62
     7
370
     9
100
AcDbVertex
100
AcDb2dVertex
 10
171.9143988285492
 20
106.3993624951016
 30
0.0
  0
VERTEX
  5
191
330
18F
100
AcDbEntity
  8
FORMAT
 62
     7
370
     9
100
AcDbVertex
100
AcDb2dVertex
 10
172.1386745446389
 20
106.3993624951016
 30
0.0
  0
SEQEND
  5
192
330
18F
100
AcDbEntity
  8
FORMAT
370
     9
  0
ENDBLK
  5
18E
330
18B
100
AcDbEntity
  8
0
100
AcDbBlockEnd
  0
BLOCK
  5
195
330
193
100
AcDbEntity
  8
0
100
AcDbBlockBegin
  2
block 40
 70
     0
 71
     0
 10
0.0
 20
0.0
 30
0.0
  3
block 40
  1

  0
POLYLINE
  5
197
330
193
100
AcDbEntity
  8
FORMAT
 62
     7
370
     9
100
AcDb2dPolyline
 66
     1
 10
0.0
 20
0.0
 30
0.0
  0
VERTEX
  5
198
330
197
100
AcDbEntity
  8
FORMAT
 62
     7
370
     9
100
AcDbVertex
100
AcDb2dVertex
 10
171.9143988285492
 20
106.3993624951016
 30
0.0
  0
VERTEX
  5
199
330
197
100
AcDbEntity
  8
FORMAT
 62
     7
370
     9
100
AcDbVertex
100
AcDb2dVertex
 10
169.4587347666631
 20
107.8163302681848
 30
0.0
  0
SEQEND
  5
19A
330
197
100
AcDbEntity
  8
FORMAT
370
     9
  0
ENDBLK
  5
196
330
193
100
AcDbEntity
  8
0
100
AcDbBlockEnd
  0
BLOCK
  5
19D
330
19B
100
AcDbEntity
  8
0
100
AcDbBlockBegin
  2
block 41
 70
     0
 71
     0
 10
0.0
 20
0.0
 30
0.0
  3
block 41
  1

  0
POLYLINE
  5
19F
330
19B
100
AcDbEntity
  8
FORMAT
 62
     7
370
     9
100
AcDb2dPolyline
 66
     1
 10
0.0
 20
0.0
 30
0.0
  0
VERTEX
  5
1A0
330
19F
100
AcDbEntity
  8
FORMAT
 62
     7
370
     9
100
AcDbVertex
100
AcDb2dVertex
 10
169.4594237857602
 20
107.8407904461301
 30
0.0
  0
VERTEX
  5
1A1
330
19F
100
AcDbEntity
  8
FORMAT
 62
     7
370
     9
100
AcDbVertex
100
AcDb2dVertex
 10
169.4587347666631
 20
107.8418239747757
 30
0.0
  0
SEQEND
  5
1A2
330
19F
100
AcDbEntity
  8
FORMAT
370
     9
  0
ENDBLK
  5
19E
330
19B
100
AcDbEntity
  8
0
100
AcDbBlockEnd
  0
BLOCK
  5
1A5
330
1A3
100
AcDbEntity
  8
0
100
AcDbBlockBegin
  2
block 42
 70
     0
 71
     0
 10
0.0
 20
0.0
 30
0.0
  3
block 42
  1

  0
POLYLINE
  5
1A7
330
1A3
100
AcDbEntity
  8
FORMAT
 62
     7
370
     9
100
AcDb2dPolyline
 66
     1
 10
0.0
 20
0.0
 30
0.0
  0
VERTEX
  5
1A8
330
1A7
100
AcDbEntity
  8
FORMAT
 62
     7
370
     9
100
AcDbVertex
100
AcDb2dVertex
 10
173.4068141927594
 20
105.537399604692
 30
0.0
  0
VERTEX
  5
1A9
330
1A7
100
AcDbEntity
  8
FORMAT
 62
     7
370
     9
100
AcDbVertex
100
AcDb2dVertex
 10
173.2834797743875
 20
105.4726318095694
 30
0.0
  0
VERTEX
  5
1AA
330
1A7
100
AcDbEntity
  8
FORMAT
 62
     7
370
     9
100
AcDbVertex
100
AcDb2dVertex
 10
173.0395670140318
 20
105.3772026646279
 30
0.0
  0
VERTEX
  5
1AB
330
1A7
100
AcDbEntity
  8
FORMAT
 62
     7
370
     9
100
AcDbVertex
100
AcDb2dVertex
 10
172.8066785592289
 20
105.3362060283535
 30
0.0
  0
VERTEX
  5
1AC
330
1A7
100
AcDbEntity
  8
FORMAT
 62
     7
370
     9
100
AcDbVertex
100
AcDb2dVertex
 10
172.5903265627552
 20
105.3458522957121
 30
0.0
  0
VERTEX
  5
1AD
330
1A7
100
AcDbEntity
  8
FORMAT
 62
     7
370
     9
100
AcDbVertex
100
AcDb2dVertex
 10
172.3960231773871
 20
105.4095865621893
 30
0.0
  0
VERTEX
  5
1AE
330
1A7
100
AcDbEntity
  8
FORMAT
 62
     7
370
     9
100
AcDbVertex
100
AcDb2dVertex
 10
172.228591536804
 20
105.5222411845569
 30
0.0
  0
VERTEX
  5
1AF
330
1A7
100
AcDbEntity
  8
FORMAT
 62
     7
370
     9
100
AcDbVertex
100
AcDb2dVertex
 10
172.0931992842337
 20
105.6831271437181
 30
0.0
  0
VERTEX
  5
1B0
330
1A7
100
AcDbEntity
  8
FORMAT
 62
     7
370
     9
100
AcDbVertex
100
AcDb2dVertex
 10
171.9939805342585
 20
105.8863877773478
 30
0.0
  0
VERTEX
  5
1B1
330
1A7
100
AcDbEntity
  8
FORMAT
 62
     7
370
     9
100
AcDbVertex
100
AcDb2dVertex
 10
171.9350694014607
 20
106.1278889708639
 30
0.0
  0
VERTEX
  5
1B2
330
1A7
100
AcDbEntity
  8
FORMAT
 62
     7
370
     9
100
AcDbVertex
100
AcDb2dVertex
 10
171.9143988285492
 20
106.3993624951016
 30
0.0
  0
SEQEND
  5
1B3
330
1A7
100
AcDbEntity
  8
FORMAT
370
     9
  0
ENDBLK
  5
1A6
330
1A3
100
AcDbEntity
  8
0
100
AcDbBlockEnd
  0
BLOCK
  5
1B6
330
1B4
100
AcDbEntity
  8
0
100
AcDbBlockBegin
  2
block 43
 70
     0
 71
     0
 10
0.0
 20
0.0
 30
0.0
  3
block 43
  1

  0
POLYLINE
  5
1B8
330
1B4
100
AcDbEntity
  8
FORMAT
 62
     7
370
     9
100
AcDb2dPolyline
 66
     1
 10
0.0
 20
0.0
 30
0.0
  0
VERTEX
  5
1B9
330
1B8
100
AcDbEntity
  8
FORMAT
 62
     7
370
     9
100
AcDbVertex
100
AcDb2dVertex
 10
172.1386745446389
 20
106.3993624951016
 30
0.0
  0
VERTEX
  5
1BA
330
1B8
100
AcDbEntity
  8
FORMAT
 62
     7
370
     9
100
AcDbVertex
100
AcDb2dVertex
 10
172.1607231557446
 20
106.1337456331888
 30
0.0
  0
VERTEX
  5
1BB
330
1B8
100
AcDbEntity
  8
FORMAT
 62
     7
370
     9
100
AcDbVertex
100
AcDb2dVertex
 10
172.222734874479
 20
105.9025797261285
 30
0.0
  0
VERTEX
  5
1BC
330
1B8
100
AcDbEntity
  8
FORMAT
 62
     7
370
     9
100
AcDbVertex
100
AcDb2dVertex
 10
172.3243651912939
 20
105.7096543789545
 30
0.0
  0
VERTEX
  5
1BD
330
1B8
100
AcDbEntity
  8
FORMAT
 62
     7
370
     9
100
AcDbVertex
100
AcDb2dVertex
 10
172.4621690107039
 20
105.5615152730888
 30
0.0
  0
VERTEX
  5
1BE
330
1B8
100
AcDbEntity
  8
FORMAT
 62
     7
370
     9
100
AcDbVertex
100
AcDb2dVertex
 10
172.6320122181267
 20
105.4636745613077
 30
0.0
  0
VERTEX
  5
1BF
330
1B8
100
AcDbEntity
  8
FORMAT
 62
     7
370
     9
100
AcDbVertex
100
AcDb2dVertex
 10
172.8301052085286
 20
105.4178547913539
 30
0.0
  0
VERTEX
  5
1C0
330
1B8
100
AcDbEntity
  8
FORMAT
 62
     7
370
     9
100
AcDbVertex
100
AcDb2dVertex
 10
173.0474907336479
 20
105.4254340014214
 30
0.0
  0
VERTEX
  5
1C1
330
1B8
100
AcDbEntity
  8
FORMAT
 62
     7
370
     9
100
AcDbVertex
100
AcDb2dVertex
 10
173.2790011502566
 20
105.488134739253
 30
0.0
  0
VERTEX
  5
1C2
330
1B8
100
AcDbEntity
  8
FORMAT
 62
     7
370
     9
100
AcDbVertex
100
AcDb2dVertex
 10
173.5194688151271
 20
105.6018228902662
 30
0.0
  0
VERTEX
  5
1C3
330
1B8
100
AcDbEntity
  8
FORMAT
 62
     7
370
     9
100
AcDbVertex
100
AcDb2dVertex
 10
173.7582139322549
 20
105.7651204162671
 30
0.0
  0
VERTEX
  5
1C4
330
1B8
100
AcDbEntity
  8
FORMAT
 62
     7
370
     9
100
AcDbVertex
100
AcDb2dVertex
 10
173.9911023870578
 20
105.9714816358335
 30
0.0
  0
VERTEX
  5
1C5
330
1B8
100
AcDbEntity
  8
FORMAT
 62
     7
370
     9
100
AcDbVertex
100
AcDb2dVertex
 10
174.2091769312741
 20
106.2143608675436
 30
0.0
  0
VERTEX
  5
1C6
330
1B8
100
AcDbEntity
  8
FORMAT
 62
     7
370
     9
100
AcDbVertex
100
AcDb2dVertex
 10
174.4062363930304
 20
106.4868679204269
 30
0.0
  0
VERTEX
  5
1C7
330
1B8
100
AcDbEntity
  8
FORMAT
 62
     7
370
     9
100
AcDbVertex
100
AcDb2dVertex
 10
174.5764241100017
 20
106.7810790748672
 30
0.0
  0
VERTEX
  5
1C8
330
1B8
100
AcDbEntity
  8
FORMAT
 62
     7
370
     9
100
AcDbVertex
100
AcDb2dVertex
 10
174.7138834198632
 20
107.0883815921515
 30
0.0
  0
VERTEX
  5
1C9
330
1B8
100
AcDbEntity
  8
FORMAT
 62
     7
370
     9
100
AcDbVertex
100
AcDb2dVertex
 10
174.7235296872219
 20
107.1145643178394
 30
0.0
  0
SEQEND
  5
1CA
330
1B8
100
AcDbEntity
  8
FORMAT
370
     9
  0
ENDBLK
  5
1B7
330
1B4
100
AcDbEntity
  8
0
100
AcDbBlockEnd
  0
BLOCK
  5
1CD
330
1CB
100
AcDbEntity
  8
0
100
AcDbBlockBegin
  2
block 44
 70
     0
 71
     0
 10
0.0
 20
0.0
 30
0.0
  3
block 44
  1

  0
POLYLINE
  5
1CF
330
1CB
100
AcDbEntity
  8
FORMAT
 62
     7
370
     9
100
AcDb2dPolyline
 66
     1
 10
0.0
 20
0.0
 30
0.0
  0
VERTEX
  5
1D0
330
1CF
100
AcDbEntity
  8
FORMAT
 62
     7
370
     9
100
AcDbVertex
100
AcDb2dVertex
 10
174.8337727427499
 20
107.4731987578539
 30
0.0
  0
VERTEX
  5
1D1
330
1CF
100
AcDbEntity
  8
FORMAT
 62
     7
370
     9
100
AcDbVertex
100
AcDb2dVertex
 10
174.877180945864
 20
107.7036756458171
 30
0.0
  0
VERTEX
  5
1D2
330
1CF
100
AcDbEntity
  8
FORMAT
 62
     7
370
     9
100
AcDbVertex
100
AcDb2dVertex
 10
174.8985405378726
 20
107.990996609287
 30
0.0
  0
SEQEND
  5
1D3
330
1CF
100
AcDbEntity
  8
FORMAT
370
     9
  0
ENDBLK
  5
1CE
330
1CB
100
AcDbEntity
  8
0
100
AcDbBlockEnd
  0
BLOCK
  5
1D6
330
1D4
100
AcDbEntity
  8
0
100
AcDbBlockBegin
  2
block 45
 70
     0
 71
     0
 10
0.0
 20
0.0
 30
0.0
  3
block 45
  1

  0
POLYLINE
  5
1D8
330
1D4
100
AcDbEntity
  8
FORMAT
 62
     7
370
     9
100
AcDb2dPolyline
 66
     1
 10
0.0
 20
0.0
 30
0.0
  0
VERTEX
  5
1D9
330
1D8
100
AcDbEntity
  8
FORMAT
 62
     7
370
     9
100
AcDbVertex
100
AcDb2dVertex
 10
174.8985405378726
 20
107.990996609287
 30
0.0
  0
VERTEX
  5
1DA
330
1D8
100
AcDbEntity
  8
FORMAT
 62
     7
370
     9
100
AcDbVertex
100
AcDb2dVertex
 10
174.8985405378726
 20
108.1212212186294
 30
0.0
  0
SEQEND
  5
1DB
330
1D8
100
AcDbEntity
  8
FORMAT
370
     9
  0
ENDBLK
  5
1D7
330
1D4
100
AcDbEntity
  8
0
100
AcDbBlockEnd
  0
BLOCK
  5
1DE
330
1DC
100
AcDbEntity
  8
0
100
AcDbBlockBegin
  2
block 46
 70
     0
 71
     0
 10
0.0
 20
0.0
 30
0.0
  3
block 46
  1

  0
SPLINE
  5
1E0
330
1DC
100
AcDbEntity
  8
FORMAT
 62
     7
370
     9
100
AcDbSpline
210
0.0
220
0.0
230
1.0
 70
     8
 71
     3
 72
     8
 73
     4
 74
     0
 42
0.0000000001
 43
0.0000000001
 40
0.0
 40
0.0
 40
0.0
 40
0.0
 40
1.0
 40
1.0
 40
1.0
 40
1.0
 10
169.4587347666631
 20
107.8163302681848
 30
0.0
 10
169.4239393022621
 20
107.4394368220985
 30
0.0
 10
169.5899929046511
 20
107.0721896433708
 30
0.0
 10
169.8962618932898
 20
106.8499809845722
 30
0.0
  0
ENDBLK
  5
1DF
330
1DC
100
AcDbEntity
  8
0
100
AcDbBlockEnd
  0
BLOCK
  5
1E3
330
1E1
100
AcDbEntity
  8
0
100
AcDbBlockBegin
  2
block 47
 70
     0
 71
     0
 10
0.0
 20
0.0
 30
0.0
  3
block 47
  1

  0
POLYLINE
  5
1E5
330
1E1
100
AcDbEntity
  8
FORMAT
 62
     7
370
     9
100
AcDb2dPolyline
 66
     1
 10
0.0
 20
0.0
 30
0.0
  0
VERTEX
  5
1E6
330
1E5
100
AcDbEntity
  8
FORMAT
 62
     7
370
     9
100
AcDbVertex
100
AcDb2dVertex
 10
174.0930772134212
 20
107.5269422474238
 30
0.0
  0
VERTEX
  5
1E7
330
1E5
100
AcDbEntity
  8
FORMAT
 62
     7
370
     9
100
AcDbVertex
100
AcDb2dVertex
 10
174.1037570094255
 20
107.4697536623687
 30
0.0
  0
VERTEX
  5
1E8
330
1E5
100
AcDbEntity
  8
FORMAT
 62
     7
370
     9
100
AcDbVertex
100
AcDb2dVertex
 10
174.1344183592442
 20
107.4356472170647
 30
0.0
  0
VERTEX
  5
1E9
330
1E5
100
AcDbEntity
  8
FORMAT
 62
     7
370
     9
100
AcDbVertex
100
AcDb2dVertex
 10
174.180927148295
 20
107.4266899688031
 30
0.0
  0
SEQEND
  5
1EA
330
1E5
100
AcDbEntity
  8
FORMAT
370
     9
  0
ENDBLK
  5
1E4
330
1E1
100
AcDbEntity
  8
0
100
AcDbBlockEnd
  0
BLOCK
  5
1ED
330
1EB
100
AcDbEntity
  8
0
100
AcDbBlockBegin
  2
block 48
 70
     0
 71
     0
 10
0.0
 20
0.0
 30
0.0
  3
block 48
  1

  0
POLYLINE
  5
1EF
330
1EB
100
AcDbEntity
  8
FORMAT
 62
     7
370
     9
100
AcDb2dPolyline
 66
     1
 10
0.0
 20
0.0
 30
0.0
  0
VERTEX
  5
1F0
330
1EF
100
AcDbEntity
  8
FORMAT
 62
     7
370
     9
100
AcDbVertex
100
AcDb2dVertex
 10
174.4172606985832
 20
107.7133219131758
 30
0.0
  0
VERTEX
  5
1F1
330
1EF
100
AcDbEntity
  8
FORMAT
 62
     7
370
     9
100
AcDbVertex
100
AcDb2dVertex
 10
174.8985405378726
 20
107.990996609287
 30
0.0
  0
SEQEND
  5
1F2
330
1EF
100
AcDbEntity
  8
FORMAT
370
     9
  0
ENDBLK
  5
1EE
330
1EB
100
AcDbEntity
  8
0
100
AcDbBlockEnd
  0
BLOCK
  5
1F5
330
1F3
100
AcDbEntity
  8
0
100
AcDbBlockBegin
  2
block 49
 70
     0
 71
     0
 10
0.0
 20
0.0
 30
0.0
  3
block 49
  1

  0
POLYLINE
  5
1F7
330
1F3
100
AcDbEntity
  8
FORMAT
 62
     7
370
     9
100
AcDb2dPolyline
 66
     1
 10
0.0
 20
0.0
 30
0.0
  0
VERTEX
  5
1F8
330
1F7
100
AcDbEntity
  8
FORMAT
 62
     7
370
     9
100
AcDbVertex
100
AcDb2dVertex
 10
172.6626735679455
 20
106.701497369158
 30
0.0
  0
VERTEX
  5
1F9
330
1F7
100
AcDbEntity
  8
FORMAT
 62
     7
370
     9
100
AcDbVertex
100
AcDb2dVertex
 10
172.6736978734982
 20
106.6453423127484
 30
0.0
  0
VERTEX
  5
1FA
330
1F7
100
AcDbEntity
  8
FORMAT
 62
     7
370
     9
100
AcDbVertex
100
AcDb2dVertex
 10
172.704359223317
 20
106.6105468483474
 30
0.0
  0
VERTEX
  5
1FB
330
1F7
100
AcDbEntity
  8
FORMAT
 62
     7
370
     9
100
AcDbVertex
100
AcDb2dVertex
 10
172.7498344837223
 20
106.6015896000857
 30
0.0
  0
SEQEND
  5
1FC
330
1F7
100
AcDbEntity
  8
FORMAT
370
     9
  0
ENDBLK
  5
1F6
330
1F3
100
AcDbEntity
  8
0
100
AcDbBlockEnd
  0
BLOCK
  5
1FF
330
1FD
100
AcDbEntity
  8
0
100
AcDbBlockBegin
  2
block 50
 70
     0
 71
     0
 10
0.0
 20
0.0
 30
0.0
  3
block 50
  1

  0
POLYLINE
  5
201
330
1FD
100
AcDbEntity
  8
FORMAT
 62
     7
370
     9
100
AcDb2dPolyline
 66
     1
 10
0.0
 20
0.0
 30
0.0
  0
VERTEX
  5
202
330
201
100
AcDbEntity
  8
FORMAT
 62
     7
370
     9
100
AcDbVertex
100
AcDb2dVertex
 10
172.9868570531075
 20
106.8882215444585
 30
0.0
  0
VERTEX
  5
203
330
201
100
AcDbEntity
  8
FORMAT
 62
     7
370
     9
100
AcDbVertex
100
AcDb2dVertex
 10
174.0930772134212
 20
107.5269422474238
 30
0.0
  0
SEQEND
  5
204
330
201
100
AcDbEntity
  8
FORMAT
370
     9
  0
ENDBLK
  5
200
330
1FD
100
AcDbEntity
  8
0
100
AcDbBlockEnd
  0
BLOCK
  5
207
330
205
100
AcDbEntity
  8
0
100
AcDbBlockBegin
  2
block 51
 70
     0
 71
     0
 10
0.0
 20
0.0
 30
0.0
  3
block 51
  1

  0
POLYLINE
  5
209
330
205
100
AcDbEntity
  8
FORMAT
 62
     7
370
     9
100
AcDb2dPolyline
 66
     1
 10
0.0
 20
0.0
 30
0.0
  0
VERTEX
  5
20A
330
209
100
AcDbEntity
  8
FORMAT
 62
     7
370
     9
100
AcDbVertex
100
AcDb2dVertex
 10
169.4587347666631
 20
107.8418239747757
 30
0.0
  0
VERTEX
  5
20B
330
209
100
AcDbEntity
  8
FORMAT
 62
     7
370
     9
100
AcDbVertex
100
AcDb2dVertex
 10
169.4594237857602
 20
107.8163302681848
 30
0.0
  0
SEQEND
  5
20C
330
209
100
AcDbEntity
  8
FORMAT
370
     9
  0
ENDBLK
  5
208
330
205
100
AcDbEntity
  8
0
100
AcDbBlockEnd
  0
BLOCK
  5
20F
330
20D
100
AcDbEntity
  8
0
100
AcDbBlockBegin
  2
block 52
 70
     0
 71
     0
 10
0.0
 20
0.0
 30
0.0
  3
block 52
  1

  0
POLYLINE
  5
211
330
20D
100
AcDbEntity
  8
FORMAT
 62
     7
370
     9
100
AcDb2dPolyline
 66
     1
 10
0.0
 20
0.0
 30
0.0
  0
VERTEX
  5
212
330
211
100
AcDbEntity
  8
FORMAT
 62
     7
370
     9
100
AcDbVertex
100
AcDb2dVertex
 10
39.74417181081049
 20
182.7247639517147
 30
0.0
  0
VERTEX
  5
213
330
211
100
AcDbEntity
  8
FORMAT
 62
     7
370
     9
100
AcDbVertex
100
AcDb2dVertex
 10
39.76415336462494
 20
183.0162190297668
 30
0.0
  0
VERTEX
  5
214
330
211
100
AcDbEntity
  8
FORMAT
 62
     7
370
     9
100
AcDbVertex
100
AcDb2dVertex
 10
39.8235812617455
 20
183.3223157636312
 30
0.0
  0
VERTEX
  5
215
330
211
100
AcDbEntity
  8
FORMAT
 62
     7
370
     9
100
AcDbVertex
100
AcDb2dVertex
 10
39.92073295442954
 20
183.6351304336919
 30
0.0
  0
VERTEX
  5
216
330
211
100
AcDbEntity
  8
FORMAT
 62
     7
370
     9
100
AcDbVertex
100
AcDb2dVertex
 10
40.05405814970871
 20
183.9463948107843
 30
0.0
  0
VERTEX
  5
217
330
211
100
AcDbEntity
  8
FORMAT
 62
     7
370
     9
100
AcDbVertex
100
AcDb2dVertex
 10
40.21821694958086
 20
184.2471516466466
 30
0.0
  0
VERTEX
  5
218
330
211
100
AcDbEntity
  8
FORMAT
 62
     7
370
     9
100
AcDbVertex
100
AcDb2dVertex
 10
40.40959200378649
 20
184.5298217312113
 30
0.0
  0
VERTEX
  5
219
330
211
100
AcDbEntity
  8
FORMAT
 62
     7
370
     9
100
AcDbVertex
100
AcDb2dVertex
 10
40.62267115954919
 20
184.7866535996367
 30
0.0
  0
VERTEX
  5
21A
330
211
100
AcDbEntity
  8
FORMAT
 62
     7
370
     9
100
AcDbVertex
100
AcDb2dVertex
 10
40.85297579273815
 20
185.0104125514036
 30
0.0
  0
VERTEX
  5
21B
330
211
100
AcDbEntity
  8
FORMAT
 62
     7
370
     9
100
AcDbVertex
100
AcDb2dVertex
 10
41.09172090986596
 20
185.194380650316
 30
0.0
  0
VERTEX
  5
21C
330
211
100
AcDbEntity
  8
FORMAT
 62
     7
370
     9
100
AcDbVertex
100
AcDb2dVertex
 10
41.3335666129305
 20
185.3347682913399
 30
0.0
  0
VERTEX
  5
21D
330
211
100
AcDbEntity
  8
FORMAT
 62
     7
370
     9
100
AcDbVertex
100
AcDb2dVertex
 10
41.57472329689799
 20
185.4264078312476
 30
0.0
  0
VERTEX
  5
21E
330
211
100
AcDbEntity
  8
FORMAT
 62
     7
370
     9
100
AcDbVertex
100
AcDb2dVertex
 10
41.80347763711858
 20
185.4686102509419
 30
0.0
  0
VERTEX
  5
21F
330
211
100
AcDbEntity
  8
FORMAT
 62
     7
370
     9
100
AcDbVertex
100
AcDb2dVertex
 10
42.01741806675259
 20
185.4587917288089
 30
0.0
  0
VERTEX
  5
220
330
211
100
AcDbEntity
  8
FORMAT
 62
     7
370
     9
100
AcDbVertex
100
AcDb2dVertex
 10
42.20879312095822
 20
185.3960909909774
 30
0.0
  0
VERTEX
  5
221
330
211
100
AcDbEntity
  8
FORMAT
 62
     7
370
     9
100
AcDbVertex
100
AcDb2dVertex
 10
42.25271808839516
 20
185.3736978703232
 30
0.0
  0
SEQEND
  5
222
330
211
100
AcDbEntity
  8
FORMAT
370
     9
  0
ENDBLK
  5
210
330
20D
100
AcDbEntity
  8
0
100
AcDbBlockEnd
  0
BLOCK
  5
225
330
223
100
AcDbEntity
  8
0
100
AcDbBlockBegin
  2
block 53
 70
     0
 71
     0
 10
0.0
 20
0.0
 30
0.0
  3
block 53
  1

  0
POLYLINE
  5
227
330
223
100
AcDbEntity
  8
FORMAT
 62
     7
370
     9
100
AcDb2dPolyline
 66
     1
 10
0.0
 20
0.0
 30
0.0
  0
VERTEX
  5
228
330
227
100
AcDbEntity
  8
FORMAT
 62
     7
370
     9
100
AcDbVertex
100
AcDb2dVertex
 10
39.72177869015636
 20
182.7120170984192
 30
0.0
  0
VERTEX
  5
229
330
227
100
AcDbEntity
  8
FORMAT
 62
     7
370
     9
100
AcDbVertex
100
AcDb2dVertex
 10
39.74417181081049
 20
182.7247639517147
 30
0.0
  0
SEQEND
  5
22A
330
227
100
AcDbEntity
  8
FORMAT
370
     9
  0
ENDBLK
  5
226
330
223
100
AcDbEntity
  8
0
100
AcDbBlockEnd
  0
BLOCK
  5
22D
330
22B
100
AcDbEntity
  8
0
100
AcDbBlockBegin
  2
block 54
 70
     0
 71
     0
 10
0.0
 20
0.0
 30
0.0
  3
block 54
  1

  0
POLYLINE
  5
22F
330
22B
100
AcDbEntity
  8
FORMAT
 62
     7
370
     9
100
AcDb2dPolyline
 66
     1
 10
0.0
 20
0.0
 30
0.0
  0
VERTEX
  5
230
330
22F
100
AcDbEntity
  8
FORMAT
 62
     7
370
     9
100
AcDbVertex
100
AcDb2dVertex
 10
42.26839327285304
 20
185.4012586342052
 30
0.0
  0
VERTEX
  5
231
330
22F
100
AcDbEntity
  8
FORMAT
 62
     7
370
     9
100
AcDbVertex
100
AcDb2dVertex
 10
42.22360703154479
 20
185.4248575382792
 30
0.0
  0
VERTEX
  5
232
330
22F
100
AcDbEntity
  8
FORMAT
 62
     7
370
     9
100
AcDbVertex
100
AcDb2dVertex
 10
42.02964815572523
 20
185.487041511788
 30
0.0
  0
VERTEX
  5
233
330
22F
100
AcDbEntity
  8
FORMAT
 62
     7
370
     9
100
AcDbVertex
100
AcDb2dVertex
 10
41.81277939492875
 20
185.4972045434695
 30
0.0
  0
VERTEX
  5
234
330
22F
100
AcDbEntity
  8
FORMAT
 62
     7
370
     9
100
AcDbVertex
100
AcDb2dVertex
 10
41.57989094012586
 20
185.4550021237752
 30
0.0
  0
VERTEX
  5
235
330
22F
100
AcDbEntity
  8
FORMAT
 62
     7
370
     9
100
AcDbVertex
100
AcDb2dVertex
 10
41.33701170841575
 20
185.3618122908991
 30
0.0
  0
VERTEX
  5
236
330
22F
100
AcDbEntity
  8
FORMAT
 62
     7
370
     9
100
AcDbVertex
100
AcDb2dVertex
 10
41.09085963599465
 20
185.2195298473583
 30
0.0
  0
VERTEX
  5
237
330
22F
100
AcDbEntity
  8
FORMAT
 62
     7
370
     9
100
AcDbVertex
100
AcDb2dVertex
 10
40.84884167815585
 20
185.0319443981865
 30
0.0
  0
VERTEX
  5
238
330
22F
100
AcDbEntity
  8
FORMAT
 62
     7
370
     9
100
AcDbVertex
100
AcDb2dVertex
 10
40.61440293038459
 20
184.8049126057085
 30
0.0
  0
VERTEX
  5
239
330
22F
100
AcDbEntity
  8
FORMAT
 62
     7
370
     9
100
AcDbVertex
100
AcDb2dVertex
 10
40.39718966003959
 20
184.5451524061207
 30
0.0
  0
VERTEX
  5
23A
330
22F
100
AcDbEntity
  8
FORMAT
 62
     7
370
     9
100
AcDbVertex
100
AcDb2dVertex
 10
40.20254176512298
 20
184.2574869331023
 30
0.0
  0
VERTEX
  5
23B
330
22F
100
AcDbEntity
  8
FORMAT
 62
     7
370
     9
100
AcDbVertex
100
AcDb2dVertex
 10
40.03597139841115
 20
183.9522514731092
 30
0.0
  0
VERTEX
  5
23C
330
22F
100
AcDbEntity
  8
FORMAT
 62
     7
370
     9
100
AcDbVertex
100
AcDb2dVertex
 10
39.9016126744864
 20
183.6359917075632
 30
0.0
  0
VERTEX
  5
23D
330
22F
100
AcDbEntity
  8
FORMAT
 62
     7
370
     9
100
AcDbVertex
100
AcDb2dVertex
 10
39.80222166973694
 20
183.3181816490489
 30
0.0
  0
VERTEX
  5
23E
330
22F
100
AcDbEntity
  8
FORMAT
 62
     7
370
     9
100
AcDbVertex
100
AcDb2dVertex
 10
39.74176024397081
 20
183.0072617815052
 30
0.0
  0
VERTEX
  5
23F
330
22F
100
AcDbEntity
  8
FORMAT
 62
     7
370
     9
100
AcDbVertex
100
AcDb2dVertex
 10
39.72177869015636
 20
182.7120170984192
 30
0.0
  0
SEQEND
  5
240
330
22F
100
AcDbEntity
  8
FORMAT
370
     9
  0
ENDBLK
  5
22E
330
22B
100
AcDbEntity
  8
0
100
AcDbBlockEnd
  0
BLOCK
  5
243
330
241
100
AcDbEntity
  8
0
100
AcDbBlockBegin
  2
block 55
 70
     0
 71
     0
 10
0.0
 20
0.0
 30
0.0
  3
block 55
  1

  0
POLYLINE
  5
245
330
241
100
AcDbEntity
  8
FORMAT
 62
     7
370
     9
100
AcDb2dPolyline
 66
     1
 10
0.0
 20
0.0
 30
0.0
  0
VERTEX
  5
246
330
245
100
AcDbEntity
  8
FORMAT
 62
     7
370
     9
100
AcDbVertex
100
AcDb2dVertex
 10
37.26714815691585
 20
184.128640361954
 30
0.0
  0
VERTEX
  5
247
330
245
100
AcDbEntity
  8
FORMAT
 62
     7
370
     9
100
AcDbVertex
100
AcDb2dVertex
 10
39.72177869015636
 20
182.7120170984192
 30
0.0
  0
SEQEND
  5
248
330
245
100
AcDbEntity
  8
FORMAT
370
     9
  0
ENDBLK
  5
244
330
241
100
AcDbEntity
  8
0
100
AcDbBlockEnd
  0
BLOCK
  5
24B
330
249
100
AcDbEntity
  8
0
100
AcDbBlockBegin
  2
block 56
 70
     0
 71
     0
 10
0.0
 20
0.0
 30
0.0
  3
block 56
  1

  0
POLYLINE
  5
24D
330
249
100
AcDbEntity
  8
FORMAT
 62
     7
370
     9
100
AcDb2dPolyline
 66
     1
 10
0.0
 20
0.0
 30
0.0
  0
VERTEX
  5
24E
330
24D
100
AcDbEntity
  8
FORMAT
 62
     7
370
     9
100
AcDbVertex
100
AcDb2dVertex
 10
39.81376273961254
 20
186.8187431716113
 30
0.0
  0
VERTEX
  5
24F
330
24D
100
AcDbEntity
  8
FORMAT
 62
     7
370
     9
100
AcDbVertex
100
AcDb2dVertex
 10
39.7698377721756
 20
186.8419975661367
 30
0.0
  0
VERTEX
  5
250
330
24D
100
AcDbEntity
  8
FORMAT
 62
     7
370
     9
100
AcDbVertex
100
AcDb2dVertex
 10
39.57415634861341
 20
186.904526049194
 30
0.0
  0
VERTEX
  5
251
330
24D
100
AcDbEntity
  8
FORMAT
 62
     7
370
     9
100
AcDbVertex
100
AcDb2dVertex
 10
39.35780435213972
 20
186.914344571327
 30
0.0
  0
VERTEX
  5
252
330
24D
100
AcDbEntity
  8
FORMAT
 62
     7
370
     9
100
AcDbVertex
100
AcDb2dVertex
 10
39.12508815211109
 20
186.8721421516327
 30
0.0
  0
VERTEX
  5
253
330
24D
100
AcDbEntity
  8
FORMAT
 62
     7
370
     9
100
AcDbVertex
100
AcDb2dVertex
 10
38.88134764652966
 20
186.7789523187567
 30
0.0
  0
VERTEX
  5
254
330
24D
100
AcDbEntity
  8
FORMAT
 62
     7
370
     9
100
AcDbVertex
100
AcDb2dVertex
 10
38.63536782888283
 20
186.6366698752158
 30
0.0
  0
VERTEX
  5
255
330
24D
100
AcDbEntity
  8
FORMAT
 62
     7
370
     9
100
AcDbVertex
100
AcDb2dVertex
 10
38.39266085194698
 20
186.449084426044
 30
0.0
  0
VERTEX
  5
256
330
24D
100
AcDbEntity
  8
FORMAT
 62
     7
370
     9
100
AcDbVertex
100
AcDb2dVertex
 10
38.15891112327277
 20
186.222052633566
 30
0.0
  0
VERTEX
  5
257
330
24D
100
AcDbEntity
  8
FORMAT
 62
     7
370
     9
100
AcDbVertex
100
AcDb2dVertex
 10
37.94169785292777
 20
185.9622924339782
 30
0.0
  0
VERTEX
  5
258
330
24D
100
AcDbEntity
  8
FORMAT
 62
     7
370
     9
100
AcDbVertex
100
AcDb2dVertex
 10
37.74773897710821
 20
185.6746269609598
 30
0.0
  0
VERTEX
  5
259
330
24D
100
AcDbEntity
  8
FORMAT
 62
     7
370
     9
100
AcDbVertex
100
AcDb2dVertex
 10
37.58116861039638
 20
185.3697360105152
 30
0.0
  0
VERTEX
  5
25A
330
24D
100
AcDbEntity
  8
FORMAT
 62
     7
370
     9
100
AcDbVertex
100
AcDb2dVertex
 10
37.4469821412459
 20
185.0531317354207
 30
0.0
  0
VERTEX
  5
25B
330
24D
100
AcDbEntity
  8
FORMAT
 62
     7
370
     9
100
AcDbVertex
100
AcDb2dVertex
 10
37.34741888172218
 20
184.7351494221322
 30
0.0
  0
VERTEX
  5
25C
330
24D
100
AcDbEntity
  8
FORMAT
 62
     7
370
     9
100
AcDbVertex
100
AcDb2dVertex
 10
37.28712971073031
 20
184.4244018093626
 30
0.0
  0
VERTEX
  5
25D
330
24D
100
AcDbEntity
  8
FORMAT
 62
     7
370
     9
100
AcDbVertex
100
AcDb2dVertex
 10
37.26714815691585
 20
184.128640361954
 30
0.0
  0
SEQEND
  5
25E
330
24D
100
AcDbEntity
  8
FORMAT
370
     9
  0
ENDBLK
  5
24C
330
249
100
AcDbEntity
  8
0
100
AcDbBlockEnd
  0
BLOCK
  5
261
330
25F
100
AcDbEntity
  8
0
100
AcDbBlockBegin
  2
block 57
 70
     0
 71
     0
 10
0.0
 20
0.0
 30
0.0
  3
block 57
  1

  0
POLYLINE
  5
263
330
25F
100
AcDbEntity
  8
FORMAT
 62
     7
370
     9
100
AcDb2dPolyline
 66
     1
 10
0.0
 20
0.0
 30
0.0
  0
VERTEX
  5
264
330
263
100
AcDbEntity
  8
FORMAT
 62
     7
370
     9
100
AcDbVertex
100
AcDb2dVertex
 10
39.74417181081049
 20
182.7247639517147
 30
0.0
  0
VERTEX
  5
265
330
263
100
AcDbEntity
  8
FORMAT
 62
     7
370
     9
100
AcDbVertex
100
AcDb2dVertex
 10
39.74417181081049
 20
182.7247639517147
 30
0.0
  0
SEQEND
  5
266
330
263
100
AcDbEntity
  8
FORMAT
370
     9
  0
ENDBLK
  5
262
330
25F
100
AcDbEntity
  8
0
100
AcDbBlockEnd
  0
BLOCK
  5
269
330
267
100
AcDbEntity
  8
0
100
AcDbBlockBegin
  2
block 58
 70
     0
 71
     0
 10
0.0
 20
0.0
 30
0.0
  3
block 58
  1

  0
POLYLINE
  5
26B
330
267
100
AcDbEntity
  8
FORMAT
 62
     7
370
     9
100
AcDb2dPolyline
 66
     1
 10
0.0
 20
0.0
 30
0.0
  0
VERTEX
  5
26C
330
26B
100
AcDbEntity
  8
FORMAT
 62
     7
370
     9
100
AcDbVertex
100
AcDb2dVertex
 10
39.77328286766085
 20
182.8780707008083
 30
0.0
  0
VERTEX
  5
26D
330
26B
100
AcDbEntity
  8
FORMAT
 62
     7
370
     9
100
AcDbVertex
100
AcDb2dVertex
 10
39.7863742305048
 20
183.0027831573743
 30
0.0
  0
VERTEX
  5
26E
330
26B
100
AcDbEntity
  8
FORMAT
 62
     7
370
     9
100
AcDbVertex
100
AcDb2dVertex
 10
39.84683565627093
 20
183.3097411651101
 30
0.0
  0
VERTEX
  5
26F
330
26B
100
AcDbEntity
  8
FORMAT
 62
     7
370
     9
100
AcDbVertex
100
AcDb2dVertex
 10
39.94312607508366
 20
183.6213500517509
 30
0.0
  0
VERTEX
  5
270
330
26B
100
AcDbEntity
  8
FORMAT
 62
     7
370
     9
100
AcDbVertex
100
AcDb2dVertex
 10
40.07576225126579
 20
183.9334757027146
 30
0.0
  0
VERTEX
  5
271
330
26B
100
AcDbEntity
  8
FORMAT
 62
     7
370
     9
100
AcDbVertex
100
AcDb2dVertex
 10
40.2414713441063
 20
184.2347493028996
 30
0.0
  0
VERTEX
  5
272
330
26B
100
AcDbEntity
  8
FORMAT
 62
     7
370
     9
100
AcDbVertex
100
AcDb2dVertex
 10
40.43267414353767
 20
184.5172471326901
 30
0.0
  0
VERTEX
  5
273
330
26B
100
AcDbEntity
  8
FORMAT
 62
     7
370
     9
100
AcDbVertex
100
AcDb2dVertex
 10
40.64661457317168
 20
184.773734491567
 30
0.0
  0
VERTEX
  5
274
330
26B
100
AcDbEntity
  8
FORMAT
 62
     7
370
     9
100
AcDbVertex
100
AcDb2dVertex
 10
40.87450763952096
 20
184.9976656981082
 30
0.0
  0
VERTEX
  5
275
330
26B
100
AcDbEntity
  8
FORMAT
 62
     7
370
     9
100
AcDbVertex
100
AcDb2dVertex
 10
41.11480304961714
 20
185.1816337970206
 30
0.0
  0
VERTEX
  5
276
330
26B
100
AcDbEntity
  8
FORMAT
 62
     7
370
     9
100
AcDbVertex
100
AcDb2dVertex
 10
41.35768228132725
 20
185.3213324189475
 30
0.0
  0
VERTEX
  5
277
330
26B
100
AcDbEntity
  8
FORMAT
 62
     7
370
     9
100
AcDbVertex
100
AcDb2dVertex
 10
41.59642739845506
 20
185.4140054875007
 30
0.0
  0
VERTEX
  5
278
330
26B
100
AcDbEntity
  8
FORMAT
 62
     7
370
     9
100
AcDbVertex
100
AcDb2dVertex
 10
41.8258707577727
 20
185.4550021237752
 30
0.0
  0
VERTEX
  5
279
330
26B
100
AcDbEntity
  8
FORMAT
 62
     7
370
     9
100
AcDbVertex
100
AcDb2dVertex
 10
42.03981118740671
 20
185.4450113468679
 30
0.0
  0
VERTEX
  5
27A
330
26B
100
AcDbEntity
  8
FORMAT
 62
     7
370
     9
100
AcDbVertex
100
AcDb2dVertex
 10
42.23118624161234
 20
185.3836886472305
 30
0.0
  0
VERTEX
  5
27B
330
26B
100
AcDbEntity
  8
FORMAT
 62
     7
370
     9
100
AcDbVertex
100
AcDb2dVertex
 10
42.27511120904928
 20
185.3602619979308
 30
0.0
  0
SEQEND
  5
27C
330
26B
100
AcDbEntity
  8
FORMAT
370
     9
  0
ENDBLK
  5
26A
330
267
100
AcDbEntity
  8
0
100
AcDbBlockEnd
  0
BLOCK
  5
27F
330
27D
100
AcDbEntity
  8
0
100
AcDbBlockBegin
  2
block 59
 70
     0
 71
     0
 10
0.0
 20
0.0
 30
0.0
  3
block 59
  1

  0
SPLINE
  5
281
330
27D
100
AcDbEntity
  8
FORMAT
 62
     7
370
     9
100
AcDbSpline
210
0.0
220
0.0
230
1.0
 70
     8
 71
     3
 72
     8
 73
     4
 74
     0
 42
0.0000000001
 43
0.0000000001
 40
0.0
 40
0.0
 40
0.0
 40
0.0
 40
1.0
 40
1.0
 40
1.0
 40
1.0
 10
38.6460476248871
 20
186.6483831998657
 30
0.0
 10
37.82404784210649
 20
186.1250731956562
 30
0.0
 10
37.30935057661016
 20
185.2329657197508
 30
0.0
 10
37.26714815691585
 20
184.2586927165221
 30
0.0
  0
ENDBLK
  5
280
330
27D
100
AcDbEntity
  8
0
100
AcDbBlockEnd
  0
BLOCK
  5
284
330
282
100
AcDbEntity
  8
0
100
AcDbBlockBegin
  2
block 60
 70
     0
 71
     0
 10
0.0
 20
0.0
 30
0.0
  3
block 60
  1

  0
POLYLINE
  5
286
330
282
100
AcDbEntity
  8
FORMAT
 62
     7
370
     9
100
AcDb2dPolyline
 66
     1
 10
0.0
 20
0.0
 30
0.0
  0
VERTEX
  5
287
330
286
100
AcDbEntity
  8
FORMAT
 62
     7
370
     9
100
AcDbVertex
100
AcDb2dVertex
 10
37.26714815691585
 20
184.128640361954
 30
0.0
  0
VERTEX
  5
288
330
286
100
AcDbEntity
  8
FORMAT
 62
     7
370
     9
100
AcDbVertex
100
AcDb2dVertex
 10
37.26714815691585
 20
184.2586927165221
 30
0.0
  0
SEQEND
  5
289
330
286
100
AcDbEntity
  8
FORMAT
370
     9
  0
ENDBLK
  5
285
330
282
100
AcDbEntity
  8
0
100
AcDbBlockEnd
  0
BLOCK
  5
28C
330
28A
100
AcDbEntity
  8
0
100
AcDbBlockBegin
  2
block 61
 70
     0
 71
     0
 10
0.0
 20
0.0
 30
0.0
  3
block 61
  1

  0
POLYLINE
  5
28E
330
28A
100
AcDbEntity
  8
FORMAT
 62
     7
370
     9
100
AcDb2dPolyline
 66
     1
 10
0.0
 20
0.0
 30
0.0
  0
VERTEX
  5
28F
330
28E
100
AcDbEntity
  8
FORMAT
 62
     7
370
     9
100
AcDbVertex
100
AcDb2dVertex
 10
174.8985405378726
 20
107.990996609287
 30
0.0
  0
VERTEX
  5
290
330
28E
100
AcDbEntity
  8
FORMAT
 62
     7
370
     9
100
AcDbVertex
100
AcDb2dVertex
 10
174.877180945864
 20
108.2562689616512
 30
0.0
  0
VERTEX
  5
291
330
28E
100
AcDbEntity
  8
FORMAT
 62
     7
370
     9
100
AcDbVertex
100
AcDb2dVertex
 10
174.8155137366781
 20
108.48777937826
 30
0.0
  0
VERTEX
  5
292
330
28E
100
AcDbEntity
  8
FORMAT
 62
     7
370
     9
100
AcDbVertex
100
AcDb2dVertex
 10
174.7138834198632
 20
108.680704725434
 30
0.0
  0
VERTEX
  5
293
330
28E
100
AcDbEntity
  8
FORMAT
 62
     7
370
     9
100
AcDbVertex
100
AcDb2dVertex
 10
174.5764241100017
 20
108.8298773599453
 30
0.0
  0
VERTEX
  5
294
330
28E
100
AcDbEntity
  8
FORMAT
 62
     7
370
     9
100
AcDbVertex
100
AcDb2dVertex
 10
174.4062363930304
 20
108.9266845430808
 30
0.0
  0
VERTEX
  5
295
330
28E
100
AcDbEntity
  8
FORMAT
 62
     7
370
     9
100
AcDbVertex
100
AcDb2dVertex
 10
174.2091769312741
 20
108.9725043130347
 30
0.0
  0
VERTEX
  5
296
330
28E
100
AcDbEntity
  8
FORMAT
 62
     7
370
     9
100
AcDbVertex
100
AcDb2dVertex
 10
173.9911023870578
 20
108.9638915743215
 30
0.0
  0
VERTEX
  5
297
330
28E
100
AcDbEntity
  8
FORMAT
 62
     7
370
     9
100
AcDbVertex
100
AcDb2dVertex
 10
173.7582139322549
 20
108.901879855587
 30
0.0
  0
VERTEX
  5
298
330
28E
100
AcDbEntity
  8
FORMAT
 62
     7
370
     9
100
AcDbVertex
100
AcDb2dVertex
 10
173.5194688151271
 20
108.7885362141223
 30
0.0
  0
VERTEX
  5
299
330
28E
100
AcDbEntity
  8
FORMAT
 62
     7
370
     9
100
AcDbVertex
100
AcDb2dVertex
 10
173.2790011502566
 20
108.6252386881215
 30
0.0
  0
VERTEX
  5
29A
330
28E
100
AcDbEntity
  8
FORMAT
 62
     7
370
     9
100
AcDbVertex
100
AcDb2dVertex
 10
173.0474907336479
 20
108.4195664876521
 30
0.0
  0
VERTEX
  5
29B
330
28E
100
AcDbEntity
  8
FORMAT
 62
     7
370
     9
100
AcDbVertex
100
AcDb2dVertex
 10
172.8301052085286
 20
108.1770317654905
 30
0.0
  0
VERTEX
  5
29C
330
28E
100
AcDbEntity
  8
FORMAT
 62
     7
370
     9
100
AcDbVertex
100
AcDb2dVertex
 10
172.6320122181267
 20
107.9041802030587
 30
0.0
  0
VERTEX
  5
29D
330
28E
100
AcDbEntity
  8
FORMAT
 62
     7
370
     9
100
AcDbVertex
100
AcDb2dVertex
 10
172.4621690107039
 20
107.6089355199728
 30
0.0
  0
VERTEX
  5
29E
330
28E
100
AcDbEntity
  8
FORMAT
 62
     7
370
     9
100
AcDbVertex
100
AcDb2dVertex
 10
172.3243651912939
 20
107.3016330026885
 30
0.0
  0
VERTEX
  5
29F
330
28E
100
AcDbEntity
  8
FORMAT
 62
     7
370
     9
100
AcDbVertex
100
AcDb2dVertex
 10
172.222734874479
 20
106.9926079376616
 30
0.0
  0
VERTEX
  5
2A0
330
28E
100
AcDbEntity
  8
FORMAT
 62
     7
370
     9
100
AcDbVertex
100
AcDb2dVertex
 10
172.1607231557446
 20
106.6873724776684
 30
0.0
  0
VERTEX
  5
2A1
330
28E
100
AcDbEntity
  8
FORMAT
 62
     7
370
     9
100
AcDbVertex
100
AcDb2dVertex
 10
172.1386745446389
 20
106.3993624951016
 30
0.0
  0
SEQEND
  5
2A2
330
28E
100
AcDbEntity
  8
FORMAT
370
     9
  0
ENDBLK
  5
28D
330
28A
100
AcDbEntity
  8
0
100
AcDbBlockEnd
  0
BLOCK
  5
2A5
330
2A3
100
AcDbEntity
  8
0
100
AcDbBlockBegin
  2
block 62
 70
     0
 71
     0
 10
0.0
 20
0.0
 30
0.0
  3
block 62
  1

  0
POLYLINE
  5
2A7
330
2A3
100
AcDbEntity
  8
FORMAT
 62
     7
370
     9
100
AcDb2dPolyline
 66
     1
 10
0.0
 20
0.0
 30
0.0
  0
VERTEX
  5
2A8
330
2A7
100
AcDbEntity
  8
FORMAT
 62
     7
370
     9
100
AcDbVertex
100
AcDb2dVertex
 10
172.1386745446389
 20
106.3993624951016
 30
0.0
  0
VERTEX
  5
2A9
330
2A7
100
AcDbEntity
  8
FORMAT
 62
     7
370
     9
100
AcDbVertex
100
AcDb2dVertex
 10
171.9143988285492
 20
106.3993624951016
 30
0.0
  0
SEQEND
  5
2AA
330
2A7
100
AcDbEntity
  8
FORMAT
370
     9
  0
ENDBLK
  5
2A6
330
2A3
100
AcDbEntity
  8
0
100
AcDbBlockEnd
  0
BLOCK
  5
2AD
330
2AB
100
AcDbEntity
  8
0
100
AcDbBlockBegin
  2
block 63
 70
     0
 71
     0
 10
0.0
 20
0.0
 30
0.0
  3
block 63
  1

  0
POLYLINE
  5
2AF
330
2AB
100
AcDbEntity
  8
FORMAT
 62
     7
370
     9
100
AcDb2dPolyline
 66
     1
 10
0.0
 20
0.0
 30
0.0
  0
VERTEX
  5
2B0
330
2AF
100
AcDbEntity
  8
FORMAT
 62
     7
370
     9
100
AcDbVertex
100
AcDb2dVertex
 10
171.9143988285492
 20
106.3993624951016
 30
0.0
  0
VERTEX
  5
2B1
330
2AF
100
AcDbEntity
  8
FORMAT
 62
     7
370
     9
100
AcDbVertex
100
AcDb2dVertex
 10
171.9350694014607
 20
106.6942626686389
 30
0.0
  0
VERTEX
  5
2B2
330
2AF
100
AcDbEntity
  8
FORMAT
 62
     7
370
     9
100
AcDbVertex
100
AcDb2dVertex
 10
171.9939805342585
 20
107.0039767527629
 30
0.0
  0
VERTEX
  5
2B3
330
2AF
100
AcDbEntity
  8
FORMAT
 62
     7
370
     9
100
AcDbVertex
100
AcDb2dVertex
 10
172.0931992842337
 20
107.322992594697
 30
0.0
  0
VERTEX
  5
2B4
330
2AF
100
AcDbEntity
  8
FORMAT
 62
     7
370
     9
100
AcDbVertex
100
AcDb2dVertex
 10
172.228591536804
 20
107.6385633411459
 30
0.0
  0
VERTEX
  5
2B5
330
2AF
100
AcDbEntity
  8
FORMAT
 62
     7
370
     9
100
AcDbVertex
100
AcDb2dVertex
 10
172.3960231773871
 20
107.9437988011391
 30
0.0
  0
VERTEX
  5
2B6
330
2AF
100
AcDbEntity
  8
FORMAT
 62
     7
370
     9
100
AcDbVertex
100
AcDb2dVertex
 10
172.5903265627552
 20
108.2304307455118
 30
0.0
  0
VERTEX
  5
2B7
330
2AF
100
AcDbEntity
  8
FORMAT
 62
     7
370
     9
100
AcDbVertex
100
AcDb2dVertex
 10
172.8066785592289
 20
108.4915689832938
 30
0.0
  0
VERTEX
  5
2B8
330
2AF
100
AcDbEntity
  8
FORMAT
 62
     7
370
     9
100
AcDbVertex
100
AcDb2dVertex
 10
173.0395670140318
 20
108.7189452853203
 30
0.0
  0
VERTEX
  5
2B9
330
2AF
100
AcDbEntity
  8
FORMAT
 62
     7
370
     9
100
AcDbVertex
100
AcDb2dVertex
 10
173.2834797743875
 20
108.9063584797179
 30
0.0
  0
VERTEX
  5
2BA
330
2AF
100
AcDbEntity
  8
FORMAT
 62
     7
370
     9
100
AcDbVertex
100
AcDb2dVertex
 10
173.5298041015828
 20
109.0486409232587
 30
0.0
  0
VERTEX
  5
2BB
330
2AF
100
AcDbEntity
  8
FORMAT
 62
     7
370
     9
100
AcDbVertex
100
AcDb2dVertex
 10
173.7723388237444
 20
109.1416585013604
 30
0.0
  0
VERTEX
  5
2BC
330
2AF
100
AcDbEntity
  8
FORMAT
 62
     7
370
     9
100
AcDbVertex
100
AcDb2dVertex
 10
174.0052272785473
 20
109.1847221949261
 30
0.0
  0
VERTEX
  5
2BD
330
2AF
100
AcDbEntity
  8
FORMAT
 62
     7
370
     9
100
AcDbVertex
100
AcDb2dVertex
 10
174.222268294118
 20
109.1736978893732
 30
0.0
  0
VERTEX
  5
2BE
330
2AF
100
AcDbEntity
  8
FORMAT
 62
     7
370
     9
100
AcDbVertex
100
AcDb2dVertex
 10
174.4165716794861
 20
109.1113416610902
 30
0.0
  0
VERTEX
  5
2BF
330
2AF
100
AcDbEntity
  8
FORMAT
 62
     7
370
     9
100
AcDbVertex
100
AcDb2dVertex
 10
174.5843478296178
 20
108.9973090005285
 30
0.0
  0
VERTEX
  5
2C0
330
2AF
100
AcDbEntity
  8
FORMAT
 62
     7
370
     9
100
AcDbVertex
100
AcDb2dVertex
 10
174.7187065535425
 20
108.8371120604643
 30
0.0
  0
VERTEX
  5
2C1
330
2AF
100
AcDbEntity
  8
FORMAT
 62
     7
370
     9
100
AcDbVertex
100
AcDb2dVertex
 10
174.8179253035177
 20
108.6341959363831
 30
0.0
  0
VERTEX
  5
2C2
330
2AF
100
AcDbEntity
  8
FORMAT
 62
     7
370
     9
100
AcDbVertex
100
AcDb2dVertex
 10
174.877180945864
 20
108.3930392524156
 30
0.0
  0
VERTEX
  5
2C3
330
2AF
100
AcDbEntity
  8
FORMAT
 62
     7
370
     9
100
AcDbVertex
100
AcDb2dVertex
 10
174.8985405378726
 20
108.1212212186294
 30
0.0
  0
SEQEND
  5
2C4
330
2AF
100
AcDbEntity
  8
FORMAT
370
     9
  0
ENDBLK
  5
2AE
330
2AB
100
AcDbEntity
  8
0
100
AcDbBlockEnd
  0
BLOCK
  5
2C7
330
2C5
100
AcDbEntity
  8
0
100
AcDbBlockBegin
  2
block 64
 70
     0
 71
     0
 10
0.0
 20
0.0
 30
0.0
  3
block 64
  1

  0
POLYLINE
  5
2C9
330
2C5
100
AcDbEntity
  8
FORMAT
 62
     7
370
     9
100
AcDb2dPolyline
 66
     1
 10
0.0
 20
0.0
 30
0.0
  0
VERTEX
  5
2CA
330
2C9
100
AcDbEntity
  8
FORMAT
 62
     7
370
     9
100
AcDbVertex
100
AcDb2dVertex
 10
174.8985405378726
 20
108.1212212186294
 30
0.0
  0
VERTEX
  5
2CB
330
2C9
100
AcDbEntity
  8
FORMAT
 62
     7
370
     9
100
AcDbVertex
100
AcDb2dVertex
 10
174.8985405378726
 20
107.990996609287
 30
0.0
  0
SEQEND
  5
2CC
330
2C9
100
AcDbEntity
  8
FORMAT
370
     9
  0
ENDBLK
  5
2C8
330
2C5
100
AcDbEntity
  8
0
100
AcDbBlockEnd
  0
BLOCK
  5
2CF
330
2CD
100
AcDbEntity
  8
0
100
AcDbBlockBegin
  2
block 65
 70
     0
 71
     0
 10
0.0
 20
0.0
 30
0.0
  3
block 65
  1

  0
POLYLINE
  5
2D1
330
2CD
100
AcDbEntity
  8
FORMAT
 62
     7
370
     9
100
AcDb2dPolyline
 66
     1
 10
0.0
 20
0.0
 30
0.0
  0
VERTEX
  5
2D2
330
2D1
100
AcDbEntity
  8
FORMAT
 62
     7
370
     9
100
AcDbVertex
100
AcDb2dVertex
 10
171.9143988285492
 20
106.3993624951016
 30
0.0
  0
VERTEX
  5
2D3
330
2D1
100
AcDbEntity
  8
FORMAT
 62
     7
370
     9
100
AcDbVertex
100
AcDb2dVertex
 10
169.4587347666631
 20
107.8163302681848
 30
0.0
  0
SEQEND
  5
2D4
330
2D1
100
AcDbEntity
  8
FORMAT
370
     9
  0
ENDBLK
  5
2D0
330
2CD
100
AcDbEntity
  8
0
100
AcDbBlockEnd
  0
BLOCK
  5
2D7
330
2D5
100
AcDbEntity
  8
0
100
AcDbBlockBegin
  2
block 66
 70
     0
 71
     0
 10
0.0
 20
0.0
 30
0.0
  3
block 66
  1

  0
POLYLINE
  5
2D9
330
2D5
100
AcDbEntity
  8
FORMAT
 62
     7
370
     9
100
AcDb2dPolyline
 66
     1
 10
0.0
 20
0.0
 30
0.0
  0
VERTEX
  5
2DA
330
2D9
100
AcDbEntity
  8
FORMAT
 62
     7
370
     9
100
AcDbVertex
100
AcDb2dVertex
 10
169.4587347666631
 20
107.8163302681848
 30
0.0
  0
VERTEX
  5
2DB
330
2D9
100
AcDbEntity
  8
FORMAT
 62
     7
370
     9
100
AcDbVertex
100
AcDb2dVertex
 10
169.4804388682202
 20
108.1115749512707
 30
0.0
  0
VERTEX
  5
2DC
330
2D9
100
AcDbEntity
  8
FORMAT
 62
     7
370
     9
100
AcDbVertex
100
AcDb2dVertex
 10
169.5396945105665
 20
108.4223225640403
 30
0.0
  0
VERTEX
  5
2DD
330
2D9
100
AcDbEntity
  8
FORMAT
 62
     7
370
     9
100
AcDbVertex
100
AcDb2dVertex
 10
169.6385687509931
 20
108.7392713486832
 30
0.0
  0
VERTEX
  5
2DE
330
2D9
100
AcDbEntity
  8
FORMAT
 62
     7
370
     9
100
AcDbVertex
100
AcDb2dVertex
 10
169.7739610035635
 20
109.0558756237777
 30
0.0
  0
VERTEX
  5
2DF
330
2D9
100
AcDbEntity
  8
FORMAT
 62
     7
370
     9
100
AcDbVertex
100
AcDb2dVertex
 10
169.9410481345981
 20
109.3607665742223
 30
0.0
  0
VERTEX
  5
2E0
330
2D9
100
AcDbEntity
  8
FORMAT
 62
     7
370
     9
100
AcDbVertex
100
AcDb2dVertex
 10
170.1360405390632
 20
109.6484320472407
 30
0.0
  0
VERTEX
  5
2E1
330
2D9
100
AcDbEntity
  8
FORMAT
 62
     7
370
     9
100
AcDbVertex
100
AcDb2dVertex
 10
170.3523925355369
 20
109.9088812659256
 30
0.0
  0
VERTEX
  5
2E2
330
2D9
100
AcDbEntity
  8
FORMAT
 62
     7
370
     9
100
AcDbVertex
100
AcDb2dVertex
 10
170.5852809903398
 20
110.1352240393065
 30
0.0
  0
VERTEX
  5
2E3
330
2D9
100
AcDbEntity
  8
FORMAT
 62
     7
370
     9
100
AcDbVertex
100
AcDb2dVertex
 10
170.8278157125014
 20
110.3233262528011
 30
0.0
  0
VERTEX
  5
2E4
330
2D9
100
AcDbEntity
  8
FORMAT
 62
     7
370
     9
100
AcDbVertex
100
AcDb2dVertex
 10
171.0741400396967
 20
110.4656086963419
 30
0.0
  0
VERTEX
  5
2E5
330
2D9
100
AcDbEntity
  8
FORMAT
 62
     7
370
     9
100
AcDbVertex
100
AcDb2dVertex
 10
171.3177082905039
 20
110.5593152935407
 30
0.0
  0
VERTEX
  5
2E6
330
2D9
100
AcDbEntity
  8
FORMAT
 62
     7
370
     9
100
AcDbVertex
100
AcDb2dVertex
 10
171.5505967453068
 20
110.6016899680093
 30
0.0
  0
VERTEX
  5
2E7
330
2D9
100
AcDbEntity
  8
FORMAT
 62
     7
370
     9
100
AcDbVertex
100
AcDb2dVertex
 10
171.766604232232
 20
110.591010172005
 30
0.0
  0
VERTEX
  5
2E8
330
2D9
100
AcDbEntity
  8
FORMAT
 62
     7
370
     9
100
AcDbVertex
100
AcDb2dVertex
 10
171.9615966366971
 20
110.528653943722
 30
0.0
  0
VERTEX
  5
2E9
330
2D9
100
AcDbEntity
  8
FORMAT
 62
     7
370
     9
100
AcDbVertex
100
AcDb2dVertex
 10
172.0063828780054
 20
110.5055718039708
 30
0.0
  0
SEQEND
  5
2EA
330
2D9
100
AcDbEntity
  8
FORMAT
370
     9
  0
ENDBLK
  5
2D8
330
2D5
100
AcDbEntity
  8
0
100
AcDbBlockEnd
  0
BLOCK
  5
2ED
330
2EB
100
AcDbEntity
  8
0
100
AcDbBlockBegin
  2
block 67
 70
     0
 71
     0
 10
0.0
 20
0.0
 30
0.0
  3
block 67
  1

  0
POLYLINE
  5
2EF
330
2EB
100
AcDbEntity
  8
FORMAT
 62
     7
370
     9
100
AcDb2dPolyline
 66
     1
 10
0.0
 20
0.0
 30
0.0
  0
VERTEX
  5
2F0
330
2EF
100
AcDbEntity
  8
FORMAT
 62
     7
370
     9
100
AcDbVertex
100
AcDb2dVertex
 10
172.9868570531075
 20
106.8882215444585
 30
0.0
  0
VERTEX
  5
2F1
330
2EF
100
AcDbEntity
  8
FORMAT
 62
     7
370
     9
100
AcDbVertex
100
AcDb2dVertex
 10
174.0930772134212
 20
107.5269422474238
 30
0.0
  0
SEQEND
  5
2F2
330
2EF
100
AcDbEntity
  8
FORMAT
370
     9
  0
ENDBLK
  5
2EE
330
2EB
100
AcDbEntity
  8
0
100
AcDbBlockEnd
  0
BLOCK
  5
2F5
330
2F3
100
AcDbEntity
  8
0
100
AcDbBlockBegin
  2
block 68
 70
     0
 71
     0
 10
0.0
 20
0.0
 30
0.0
  3
block 68
  1

  0
SPLINE
  5
2F7
330
2F3
100
AcDbEntity
  8
FORMAT
 62
     7
370
     9
100
AcDbSpline
210
0.0
220
0.0
230
1.0
 70
     8
 71
     3
 72
    26
 73
    22
 74
     0
 42
0.0000000001
 43
0.0000000001
 40
0.0
 40
0.0
 40
0.0
 40
0.0
 40
1.0
 40
1.0
 40
1.0
 40
2.0
 40
2.0
 40
2.0
 40
3.0
 40
3.0
 40
3.0
 40
4.0
 40
4.0
 40
4.0
 40
5.0
 40
5.0
 40
5.0
 40
6.0
 40
6.0
 40
6.0
 40
7.0
 40
7.0
 40
7.0
 40
7.0
 10
172.9334580730861
 20
106.9185383847287
 30
0.0
 10
172.9334580730861
 20
106.9202609324713
 30
0.0
 10
172.903830251913
 20
106.9543673777753
 30
0.0
 10
172.903830251913
 20
106.9543673777753
 30
0.0
 10
172.903830251913
 20
106.9543673777753
 30
0.0
 10
172.8580104819591
 20
106.9643581546825
 30
0.0
 10
172.8580104819591
 20
106.9643581546825
 30
0.0
 10
172.8580104819591
 20
106.9643581546825
 30
0.0
 10
172.8035779732922
 20
106.9447211104166
 30
0.0
 10
172.8035779732922
 20
106.9447211104166
 30
0.0
 10
172.8035779732922
 20
106.9447211104166
 30
0.0
 10
172.7498344837223
 20
106.9013129073025
 30
0.0
 10
172.7498344837223
 20
106.9013129073025
 30
0.0
 10
172.7498344837223
 20
106.9013129073025
 30
0.0
 10
172.704359223317
 20
106.839990207665
 30
0.0
 10
172.704359223317
 20
106.839990207665
 30
0.0
 10
172.704359223317
 20
106.839990207665
 30
0.0
 10
172.6736978734982
 20
106.7697102597659
 30
0.0
 10
172.6736978734982
 20
106.7697102597659
 30
0.0
 10
172.6736978734982
 20
106.7697102597659
 30
0.0
 10
172.6626735679455
 20
106.701497369158
 30
0.0
 10
172.6626735679455
 20
106.701497369158
 30
0.0
  0
ENDBLK
  5
2F6
330
2F3
100
AcDbEntity
  8
0
100
AcDbBlockEnd
  0
BLOCK
  5
2FA
330
2F8
100
AcDbEntity
  8
0
100
AcDbBlockBegin
  2
block 69
 70
     0
 71
     0
 10
0.0
 20
0.0
 30
0.0
  3
block 69
  1

  0
POLYLINE
  5
2FC
330
2F8
100
AcDbEntity
  8
FORMAT
 62
     7
370
     9
100
AcDb2dPolyline
 66
     1
 10
0.0
 20
0.0
 30
0.0
  0
VERTEX
  5
2FD
330
2FC
100
AcDbEntity
  8
FORMAT
 62
     7
370
     9
100
AcDbVertex
100
AcDb2dVertex
 10
172.1386745446389
 20
106.3993624951016
 30
0.0
  0
VERTEX
  5
2FE
330
2FC
100
AcDbEntity
  8
FORMAT
 62
     7
370
     9
100
AcDbVertex
100
AcDb2dVertex
 10
172.6626735679455
 20
106.701497369158
 30
0.0
  0
SEQEND
  5
2FF
330
2FC
100
AcDbEntity
  8
FORMAT
370
     9
  0
ENDBLK
  5
2FB
330
2F8
100
AcDbEntity
  8
0
100
AcDbBlockEnd
  0
BLOCK
  5
302
330
300
100
AcDbEntity
  8
0
100
AcDbBlockBegin
  2
block 70
 70
     0
 71
     0
 10
0.0
 20
0.0
 30
0.0
  3
block 70
  1

  0
POLYLINE
  5
304
330
300
100
AcDbEntity
  8
FORMAT
 62
     7
370
     9
100
AcDb2dPolyline
 66
     1
 10
0.0
 20
0.0
 30
0.0
  0
VERTEX
  5
305
330
304
100
AcDbEntity
  8
FORMAT
 62
     7
370
     9
100
AcDbVertex
100
AcDb2dVertex
 10
174.4172606985832
 20
107.7133219131758
 30
0.0
  0
VERTEX
  5
306
330
304
100
AcDbEntity
  8
FORMAT
 62
     7
370
     9
100
AcDbVertex
100
AcDb2dVertex
 10
174.8985405378726
 20
107.990996609287
 30
0.0
  0
SEQEND
  5
307
330
304
100
AcDbEntity
  8
FORMAT
370
     9
  0
ENDBLK
  5
303
330
300
100
AcDbEntity
  8
0
100
AcDbBlockEnd
  0
BLOCK
  5
30A
330
308
100
AcDbEntity
  8
0
100
AcDbBlockBegin
  2
block 71
 70
     0
 71
     0
 10
0.0
 20
0.0
 30
0.0
  3
block 71
  1

  0
SPLINE
  5
30C
330
308
100
AcDbEntity
  8
FORMAT
 62
     7
370
     9
100
AcDbSpline
210
0.0
220
0.0
230
1.0
 70
     8
 71
     3
 72
    26
 73
    22
 74
     0
 42
0.0000000001
 43
0.0000000001
 40
0.0
 40
0.0
 40
0.0
 40
0.0
 40
1.0
 40
1.0
 40
1.0
 40
2.0
 40
2.0
 40
2.0
 40
3.0
 40
3.0
 40
3.0
 40
4.0
 40
4.0
 40
4.0
 40
5.0
 40
5.0
 40
5.0
 40
6.0
 40
6.0
 40
6.0
 40
7.0
 40
7.0
 40
7.0
 40
7.0
 10
174.3648952472074
 20
107.7443277725431
 30
0.0
 10
174.3638617185618
 20
107.7450167916401
 30
0.0
 10
174.3332003687431
 20
107.7794677464926
 30
0.0
 10
174.3332003687431
 20
107.7794677464926
 30
0.0
 10
174.3332003687431
 20
107.7794677464926
 30
0.0
 10
174.2877251083378
 20
107.7887695043028
 30
0.0
 10
174.2877251083378
 20
107.7887695043028
 30
0.0
 10
174.2877251083378
 20
107.7887695043028
 30
0.0
 10
174.2339816187679
 20
107.7698214791339
 30
0.0
 10
174.2339816187679
 20
107.7698214791339
 30
0.0
 10
174.2339816187679
 20
107.7698214791339
 30
0.0
 10
174.180927148295
 20
107.7274468046654
 30
0.0
 10
174.180927148295
 20
107.7274468046654
 30
0.0
 10
174.180927148295
 20
107.7274468046654
 30
0.0
 10
174.1344183592442
 20
107.6654350859309
 30
0.0
 10
174.1344183592442
 20
107.6654350859309
 30
0.0
 10
174.1344183592442
 20
107.6654350859309
 30
0.0
 10
174.1037570094255
 20
107.5951551380318
 30
0.0
 10
174.1037570094255
 20
107.5951551380318
 30
0.0
 10
174.1037570094255
 20
107.5951551380318
 30
0.0
 10
174.0930772134212
 20
107.5269422474238
 30
0.0
 10
174.0930772134212
 20
107.5269422474238
 30
0.0
  0
ENDBLK
  5
30B
330
308
100
AcDbEntity
  8
0
100
AcDbBlockEnd
  0
BLOCK
  5
30F
330
30D
100
AcDbEntity
  8
0
100
AcDbBlockBegin
  2
block 72
 70
     0
 71
     0
 10
0.0
 20
0.0
 30
0.0
  3
block 72
  1

  0
SPLINE
  5
311
330
30D
100
AcDbEntity
  8
FORMAT
 62
     7
370
     9
100
AcDbSpline
210
0.0
220
0.0
230
1.0
 70
     8
 71
     3
 72
     8
 73
     4
 74
     0
 42
0.0000000001
 43
0.0000000001
 40
0.0
 40
0.0
 40
0.0
 40
0.0
 40
1.0
 40
1.0
 40
1.0
 40
1.0
 10
170.9456379780969
 20
110.3967067866369
 30
0.0
 10
170.0581813810966
 20
109.8441134708029
 30
0.0
 10
169.5011094411317
 20
108.888099473646
 30
0.0
 10
169.4587347666631
 20
107.8418239747757
 30
0.0
  0
ENDBLK
  5
310
330
30D
100
AcDbEntity
  8
0
100
AcDbBlockEnd
  0
BLOCK
  5
314
330
312
100
AcDbEntity
  8
0
100
AcDbBlockBegin
  2
block 73
 70
     0
 71
     0
 10
0.0
 20
0.0
 30
0.0
  3
block 73
  1

  0
POLYLINE
  5
316
330
312
100
AcDbEntity
  8
FORMAT
 62
     7
370
     9
100
AcDb2dPolyline
 66
     1
 10
0.0
 20
0.0
 30
0.0
  0
VERTEX
  5
317
330
316
100
AcDbEntity
  8
FORMAT
 62
     7
370
     9
100
AcDbVertex
100
AcDb2dVertex
 10
169.4594237857602
 20
107.8407904461301
 30
0.0
  0
VERTEX
  5
318
330
316
100
AcDbEntity
  8
FORMAT
 62
     7
370
     9
100
AcDbVertex
100
AcDb2dVertex
 10
169.4587347666631
 20
107.8418239747757
 30
0.0
  0
SEQEND
  5
319
330
316
100
AcDbEntity
  8
FORMAT
370
     9
  0
ENDBLK
  5
315
330
312
100
AcDbEntity
  8
0
100
AcDbBlockEnd
  0
BLOCK
  5
31C
330
31A
100
AcDbEntity
  8
0
100
AcDbBlockBegin
  2
block 74
 70
     0
 71
     0
 10
0.0
 20
0.0
 30
0.0
  3
block 74
  1

  0
POLYLINE
  5
31E
330
31A
100
AcDbEntity
  8
FORMAT
 62
     7
370
     9
100
AcDb2dPolyline
 66
     1
 10
0.0
 20
0.0
 30
0.0
  0
VERTEX
  5
31F
330
31E
100
AcDbEntity
  8
FORMAT
 62
     7
370
     9
100
AcDbVertex
100
AcDb2dVertex
 10
172.0404893233093
 20
110.4845567215108
 30
0.0
  0
VERTEX
  5
320
330
31E
100
AcDbEntity
  8
FORMAT
 62
     7
370
     9
100
AcDbVertex
100
AcDb2dVertex
 10
172.0263644318198
 20
110.4924804411269
 30
0.0
  0
VERTEX
  5
321
330
31E
100
AcDbEntity
  8
FORMAT
 62
     7
370
     9
100
AcDbVertex
100
AcDb2dVertex
 10
171.828960460515
 20
110.5648274463171
 30
0.0
  0
VERTEX
  5
322
330
31E
100
AcDbEntity
  8
FORMAT
 62
     7
370
     9
100
AcDbVertex
100
AcDb2dVertex
 10
171.6060627826193
 20
110.583086452389
 30
0.0
  0
VERTEX
  5
323
330
31E
100
AcDbEntity
  8
FORMAT
 62
     7
370
     9
100
AcDbVertex
100
AcDb2dVertex
 10
171.3659396272974
 20
110.5427788352115
 30
0.0
  0
VERTEX
  5
324
330
31E
100
AcDbEntity
  8
FORMAT
 62
     7
370
     9
100
AcDbVertex
100
AcDb2dVertex
 10
171.1127251091316
 20
110.4494167475613
 30
0.0
  0
VERTEX
  5
325
330
31E
100
AcDbEntity
  8
FORMAT
 62
     7
370
     9
100
AcDbVertex
100
AcDb2dVertex
 10
170.8560654954804
 20
110.3005886225985
 30
0.0
  0
VERTEX
  5
326
330
31E
100
AcDbEntity
  8
FORMAT
 62
     7
370
     9
100
AcDbVertex
100
AcDb2dVertex
 10
170.6049180346057
 20
110.1042181799392
 30
0.0
  0
VERTEX
  5
327
330
31E
100
AcDbEntity
  8
FORMAT
 62
     7
370
     9
100
AcDbVertex
100
AcDb2dVertex
 10
170.3644503697353
 20
109.866506591457
 30
0.0
  0
VERTEX
  5
328
330
31E
100
AcDbEntity
  8
FORMAT
 62
     7
370
     9
100
AcDbVertex
100
AcDb2dVertex
 10
170.1415526918396
 20
109.5912434621855
 30
0.0
  0
VERTEX
  5
329
330
31E
100
AcDbEntity
  8
FORMAT
 62
     7
370
     9
100
AcDbVertex
100
AcDb2dVertex
 10
169.9427706823407
 20
109.2894530976776
 30
0.0
  0
VERTEX
  5
32A
330
31E
100
AcDbEntity
  8
FORMAT
 62
     7
370
     9
100
AcDbVertex
100
AcDb2dVertex
 10
169.7763725704031
 20
108.970781765292
 30
0.0
  0
VERTEX
  5
32B
330
31E
100
AcDbEntity
  8
FORMAT
 62
     7
370
     9
100
AcDbVertex
100
AcDb2dVertex
 10
169.6444254133181
 20
108.6407416178051
 30
0.0
  0
VERTEX
  5
32C
330
31E
100
AcDbEntity
  8
FORMAT
 62
     7
370
     9
100
AcDbVertex
100
AcDb2dVertex
 10
169.5524413638619
 20
108.3117349989637
 30
0.0
  0
VERTEX
  5
32D
330
31E
100
AcDbEntity
  8
FORMAT
 62
     7
370
     9
100
AcDbVertex
100
AcDb2dVertex
 10
169.5028319888743
 20
107.9937526856752
 30
0.0
  0
SEQEND
  5
32E
330
31E
100
AcDbEntity
  8
FORMAT
370
     9
  0
ENDBLK
  5
31D
330
31A
100
AcDbEntity
  8
0
100
AcDbBlockEnd
  0
BLOCK
  5
331
330
32F
100
AcDbEntity
  8
0
100
AcDbBlockBegin
  2
block 75
 70
     0
 71
     0
 10
0.0
 20
0.0
 30
0.0
  3
block 75
  1

  0
POLYLINE
  5
333
330
32F
100
AcDbEntity
  8
FORMAT
 62
     7
370
     9
100
AcDb2dPolyline
 66
     1
 10
0.0
 20
0.0
 30
0.0
  0
VERTEX
  5
334
330
333
100
AcDbEntity
  8
FORMAT
 62
     7
370
     9
100
AcDbVertex
100
AcDb2dVertex
 10
39.69766302175962
 20
182.9285413496672
 30
0.0
  0
VERTEX
  5
335
330
333
100
AcDbEntity
  8
FORMAT
 62
     7
370
     9
100
AcDbVertex
100
AcDb2dVertex
 10
169.5028319888743
 20
107.9937526856752
 30
0.0
  0
SEQEND
  5
336
330
333
100
AcDbEntity
  8
FORMAT
370
     9
  0
ENDBLK
  5
332
330
32F
100
AcDbEntity
  8
0
100
AcDbBlockEnd
  0
BLOCK
  5
339
330
337
100
AcDbEntity
  8
0
100
AcDbBlockBegin
  2
block 76
 70
     0
 71
     0
 10
0.0
 20
0.0
 30
0.0
  3
block 76
  1

  0
POLYLINE
  5
33B
330
337
100
AcDbEntity
  8
FORMAT
 62
     7
370
     9
100
AcDb2dPolyline
 66
     1
 10
0.0
 20
0.0
 30
0.0
  0
VERTEX
  5
33C
330
33B
100
AcDbEntity
  8
FORMAT
 62
     7
370
     9
100
AcDbVertex
100
AcDb2dVertex
 10
42.23445908232333
 20
185.4205511689227
 30
0.0
  0
VERTEX
  5
33D
330
33B
100
AcDbEntity
  8
FORMAT
 62
     7
370
     9
100
AcDbVertex
100
AcDb2dVertex
 10
42.22119546470512
 20
185.4281303789902
 30
0.0
  0
VERTEX
  5
33E
330
33B
100
AcDbEntity
  8
FORMAT
 62
     7
370
     9
100
AcDbVertex
100
AcDb2dVertex
 10
42.02327472907751
 20
185.501510912826
 30
0.0
  0
VERTEX
  5
33F
330
33B
100
AcDbEntity
  8
FORMAT
 62
     7
370
     9
100
AcDbVertex
100
AcDb2dVertex
 10
41.80020479640759
 20
185.5183918807037
 30
0.0
  0
VERTEX
  5
340
330
33B
100
AcDbEntity
  8
FORMAT
 62
     7
370
     9
100
AcDbVertex
100
AcDb2dVertex
 10
41.5590481124401
 20
185.4786010278491
 30
0.0
  0
VERTEX
  5
341
330
33B
100
AcDbEntity
  8
FORMAT
 62
     7
370
     9
100
AcDbVertex
100
AcDb2dVertex
 10
41.30721163246834
 20
185.3836886472305
 30
0.0
  0
VERTEX
  5
342
330
33B
100
AcDbEntity
  8
FORMAT
 62
     7
370
     9
100
AcDbVertex
100
AcDb2dVertex
 10
41.05106878314001
 20
185.2358940509133
 30
0.0
  0
VERTEX
  5
343
330
33B
100
AcDbEntity
  8
FORMAT
 62
     7
370
     9
100
AcDbVertex
100
AcDb2dVertex
 10
40.80009357703956
 20
185.0393513534798
 30
0.0
  0
VERTEX
  5
344
330
33B
100
AcDbEntity
  8
FORMAT
 62
     7
370
     9
100
AcDbVertex
100
AcDb2dVertex
 10
40.55893689307207
 20
184.8016397649975
 30
0.0
  0
VERTEX
  5
345
330
33B
100
AcDbEntity
  8
FORMAT
 62
     7
370
     9
100
AcDbVertex
100
AcDb2dVertex
 10
40.33672823427346
 20
184.5263766357261
 30
0.0
  0
VERTEX
  5
346
330
33B
100
AcDbEntity
  8
FORMAT
 62
     7
370
     9
100
AcDbVertex
100
AcDb2dVertex
 10
40.13794622477455
 20
184.2256197998638
 30
0.0
  0
VERTEX
  5
347
330
33B
100
AcDbEntity
  8
FORMAT
 62
     7
370
     9
100
AcDbVertex
100
AcDb2dVertex
 10
39.97034232941714
 20
183.904881410187
 30
0.0
  0
VERTEX
  5
348
330
33B
100
AcDbEntity
  8
FORMAT
 62
     7
370
     9
100
AcDbVertex
100
AcDb2dVertex
 10
39.83856742710633
 20
183.5762193008941
 30
0.0
  0
VERTEX
  5
349
330
33B
100
AcDbEntity
  8
FORMAT
 62
     7
370
     9
100
AcDbVertex
100
AcDb2dVertex
 10
39.74744465152148
 20
183.2472126820528
 30
0.0
  0
VERTEX
  5
34A
330
33B
100
AcDbEntity
  8
FORMAT
 62
     7
370
     9
100
AcDbVertex
100
AcDb2dVertex
 10
39.69766302175962
 20
182.9285413496672
 30
0.0
  0
SEQEND
  5
34B
330
33B
100
AcDbEntity
  8
FORMAT
370
     9
  0
ENDBLK
  5
33A
330
337
100
AcDbEntity
  8
0
100
AcDbBlockEnd
  0
BLOCK
  5
34E
330
34C
100
AcDbEntity
  8
0
100
AcDbBlockBegin
  2
block 77
 70
     0
 71
     0
 10
0.0
 20
0.0
 30
0.0
  3
block 77
  1

  0
POLYLINE
  5
350
330
34C
100
AcDbEntity
  8
FORMAT
 62
     7
370
     9
100
AcDb2dPolyline
 66
     1
 10
0.0
 20
0.0
 30
0.0
  0
VERTEX
  5
351
330
350
100
AcDbEntity
  8
FORMAT
 62
     7
370
     9
100
AcDbVertex
100
AcDb2dVertex
 10
169.4404757605913
 20
107.970670545924
 30
0.0
  0
VERTEX
  5
352
330
350
100
AcDbEntity
  8
FORMAT
 62
     7
370
     9
100
AcDbVertex
100
AcDb2dVertex
 10
169.4415092892368
 20
107.6867946779394
 30
0.0
  0
VERTEX
  5
353
330
350
100
AcDbEntity
  8
FORMAT
 62
     7
370
     9
100
AcDbVertex
100
AcDb2dVertex
 10
169.4828504350598
 20
107.4294460451913
 30
0.0
  0
VERTEX
  5
354
330
350
100
AcDbEntity
  8
FORMAT
 62
     7
370
     9
100
AcDbVertex
100
AcDb2dVertex
 10
169.5631211598662
 20
107.2072373863926
 30
0.0
  0
VERTEX
  5
355
330
350
100
AcDbEntity
  8
FORMAT
 62
     7
370
     9
100
AcDbVertex
100
AcDb2dVertex
 10
169.6809434254617
 20
107.0249918352229
 30
0.0
  0
VERTEX
  5
356
330
350
100
AcDbEntity
  8
FORMAT
 62
     7
370
     9
100
AcDbVertex
100
AcDb2dVertex
 10
169.8325276268127
 20
106.8882215444585
 30
0.0
  0
VERTEX
  5
357
330
350
100
AcDbEntity
  8
FORMAT
 62
     7
370
     9
100
AcDbVertex
100
AcDb2dVertex
 10
169.8731797535387
 20
106.8634168569647
 30
0.0
  0
SEQEND
  5
358
330
350
100
AcDbEntity
  8
FORMAT
370
     9
  0
ENDBLK
  5
34F
330
34C
100
AcDbEntity
  8
0
100
AcDbBlockEnd
  0
BLOCK
  5
35B
330
359
100
AcDbEntity
  8
0
100
AcDbBlockBegin
  2
block 78
 70
     0
 71
     0
 10
0.0
 20
0.0
 30
0.0
  3
block 78
  1

  0
SPLINE
  5
35D
330
359
100
AcDbEntity
  8
FORMAT
 62
     7
370
     9
100
AcDbSpline
210
0.0
220
0.0
230
1.0
 70
     8
 71
     3
 72
     8
 73
     4
 74
     0
 42
0.0000000001
 43
0.0000000001
 40
0.0
 40
0.0
 40
0.0
 40
0.0
 40
1.0
 40
1.0
 40
1.0
 40
1.0
 10
169.4594237857602
 20
108.0037434625824
 30
0.0
 10
169.4490884993044
 20
107.9958197429663
 30
0.0
 10
169.442887327431
 20
107.983761908768
 30
0.0
 10
169.4404757605913
 20
107.970670545924
 30
0.0
  0
ENDBLK
  5
35C
330
359
100
AcDbEntity
  8
0
100
AcDbBlockEnd
  0
BLOCK
  5
360
330
35E
100
AcDbEntity
  8
0
100
AcDbBlockBegin
  2
block 79
 70
     0
 71
     0
 10
0.0
 20
0.0
 30
0.0
  3
block 79
  1

  0
POLYLINE
  5
362
330
35E
100
AcDbEntity
  8
FORMAT
 62
     7
370
     9
100
AcDb2dPolyline
 66
     1
 10
0.0
 20
0.0
 30
0.0
  0
VERTEX
  5
363
330
362
100
AcDbEntity
  8
FORMAT
 62
     7
370
     9
100
AcDbVertex
100
AcDb2dVertex
 10
169.4404757605913
 20
107.970670545924
 30
0.0
  0
VERTEX
  5
364
330
362
100
AcDbEntity
  8
FORMAT
 62
     7
370
     9
100
AcDbVertex
100
AcDb2dVertex
 10
39.74830592539278
 20
182.8403469052448
 30
0.0
  0
SEQEND
  5
365
330
362
100
AcDbEntity
  8
FORMAT
370
     9
  0
ENDBLK
  5
361
330
35E
100
AcDbEntity
  8
0
100
AcDbBlockEnd
  0
BLOCK
  5
368
330
366
100
AcDbEntity
  8
0
100
AcDbBlockBegin
  2
block 80
 70
     0
 71
     0
 10
0.0
 20
0.0
 30
0.0
  3
block 80
  1

  0
SPLINE
  5
36A
330
366
100
AcDbEntity
  8
FORMAT
 62
     7
370
     9
100
AcDbSpline
210
0.0
220
0.0
230
1.0
 70
     8
 71
     3
 72
     8
 73
     4
 74
     0
 42
0.0000000001
 43
0.0000000001
 40
0.0
 40
0.0
 40
0.0
 40
0.0
 40
1.0
 40
1.0
 40
1.0
 40
1.0
 10
39.7657036575933
 20
182.873936586226
 30
0.0
 10
39.75657415455738
 20
182.8656683570614
 30
0.0
 10
39.75002847313541
 20
182.853610522863
 30
0.0
 10
39.74830592539278
 20
182.8403469052448
 30
0.0
  0
ENDBLK
  5
369
330
366
100
AcDbEntity
  8
0
100
AcDbBlockEnd
  0
BLOCK
  5
36D
330
36B
100
AcDbEntity
  8
0
100
AcDbBlockBegin
  2
block 81
 70
     0
 71
     0
 10
0.0
 20
0.0
 30
0.0
  3
block 81
  1

  0
POLYLINE
  5
36F
330
36B
100
AcDbEntity
  8
FORMAT
 62
     7
370
     9
100
AcDb2dPolyline
 66
     1
 10
0.0
 20
0.0
 30
0.0
  0
VERTEX
  5
370
330
36F
100
AcDbEntity
  8
FORMAT
 62
     7
370
     9
100
AcDbVertex
100
AcDb2dVertex
 10
39.74830592539278
 20
182.8403469052448
 30
0.0
  0
VERTEX
  5
371
330
36F
100
AcDbEntity
  8
FORMAT
 62
     7
370
     9
100
AcDbVertex
100
AcDb2dVertex
 10
39.75002847313541
 20
182.556987801583
 30
0.0
  0
VERTEX
  5
372
330
36F
100
AcDbEntity
  8
FORMAT
 62
     7
370
     9
100
AcDbVertex
100
AcDb2dVertex
 10
39.78981932599005
 20
182.3005004427061
 30
0.0
  0
VERTEX
  5
373
330
36F
100
AcDbEntity
  8
FORMAT
 62
     7
370
     9
100
AcDbVertex
100
AcDb2dVertex
 10
39.87095132466768
 20
182.0776027648105
 30
0.0
  0
VERTEX
  5
374
330
36F
100
AcDbEntity
  8
FORMAT
 62
     7
370
     9
100
AcDbVertex
100
AcDb2dVertex
 10
39.98774006161765
 20
181.8960462327378
 30
0.0
  0
VERTEX
  5
375
330
36F
100
AcDbEntity
  8
FORMAT
 62
     7
370
     9
100
AcDbVertex
100
AcDb2dVertex
 10
40.13863524387159
 20
181.7589314324248
 30
0.0
  0
VERTEX
  5
376
330
36F
100
AcDbEntity
  8
FORMAT
 62
     7
370
     9
100
AcDbVertex
100
AcDb2dVertex
 10
40.1808376635659
 20
181.7324041971884
 30
0.0
  0
SEQEND
  5
377
330
36F
100
AcDbEntity
  8
FORMAT
370
     9
  0
ENDBLK
  5
36E
330
36B
100
AcDbEntity
  8
0
100
AcDbBlockEnd
  0
ENDSEC
  0
SECTION
  2
ENTITIES
  0
INSERT
  5
3E
330
1F
100
AcDbEntity
  8
FORMAT
100
AcDbBlockReference
  2
block 2
 10
0.0
 20
0.0
 30
0.0
  0
ENDSEC
  0
SECTION
  2
OBJECTS
  0
DICTIONARY
  5
C
330
0
100
AcDbDictionary
281
     1
  3
ACAD_GROUP
350
D
  3
ACAD_LAYOUT
350
1A
  3
ACAD_MLINESTYLE
350
17
  3
ACAD_PLOTSETTINGS
350
19
  3
ACAD_PLOTSTYLENAME
350
E
  3
ACAD_TABLESTYLE
350
378
  3
ACAD_VISUALSTYLE
350
2A
  0
DICTIONARY
  5
D
102
{ACAD_REACTORS
330
C
102
}
330
C
100
AcDbDictionary
281
     1
  0
DICTIONARY
  5
1A
102
{ACAD_REACTORS
330
C
102
}
330
C
100
AcDbDictionary
281
     1
  3
Layout1
350
1E
  3
Layout2
350
26
  3
Model
350
22
  0
DICTIONARY
  5
17
102
{ACAD_REACTORS
330
C
102
}
330
C
100
AcDbDictionary
281
     1
  3
Standard
350
18
  0
DICTIONARY
  5
19
102
{ACAD_REACTORS
330
C
102
}
330
C
100
AcDbDictionary
281
     1
  0
ACDBDICTIONARYWDFLT
  5
E
102
{ACAD_REACTORS
330
C
102
}
330
C
100
AcDbDictionary
281
     1
  3
Normal
350
F
100
AcDbDictionaryWithDefault
340
F
  0
DICTIONARY
  5
378
102
{ACAD_REACTORS
330
C
102
}
330
C
100
AcDbDictionary
281
     1
  0
DICTIONARY
  5
2A
102
{ACAD_REACTORS
330
C
102
}
330
C
100
AcDbDictionary
281
     1
  3
2dWireframe
350
2F
  3
3D Hidden
350
31
  3
3dWireframe
350
30
  3
Basic
350
32
  3
Brighten
350
36
  3
ColorChange
350
3A
  3
Conceptual
350
34
  3
Dim
350
35
  3
Facepattern
350
39
  3
Flat
350
2B
  3
FlatWithEdges
350
2C
  3
Gouraud
350
2D
  3
GouraudWithEdges
350
2E
  3
Linepattern
350
38
  3
Realistic
350
33
  3
Thicken
350
37
  0
LAYOUT
  5
1E
102
{ACAD_REACTORS
330
1A
102
}
330
1A
100
AcDbPlotSettings
  1

  2
none_device
  4

  6

 40
0.0
 41
0.0
 42
0.0
 43
0.0
 44
0.0
 45
0.0
 46
0.0
 47
0.0
 48
0.0
 49
0.0
140
0.0
141
0.0
142
1.0
143
1.0
 70
   688
 72
     0
 73
     0
 74
     5
  7

 75
    16
147
1.0
148
0.0
149
0.0
100
AcDbLayout
  1
Layout1
 70
     1
 71
     1
 10
0.0
 20
0.0
 11
12.0
 21
9.0
 12
0.0
 22
0.0
 32
0.0
 14
1.000000000000000E+20
 24
1.000000000000000E+20
 34
1.000000000000000E+20
 15
-1.000000000000000E+20
 25
-1.000000000000000E+20
 35
-1.000000000000000E+20
146
0.0
 13
0.0
 23
0.0
 33
0.0
 16
1.0
 26
0.0
 36
0.0
 17
0.0
 27
1.0
 37
0.0
 76
     0
330
1B
  0
LAYOUT
  5
26
102
{ACAD_REACTORS
330
1A
102
}
330
1A
100
AcDbPlotSettings
  1

  2
none_device
  4

  6

 40
0.0
 41
0.0
 42
0.0
 43
0.0
 44
0.0
 45
0.0
 46
0.0
 47
0.0
 48
0.0
 49
0.0
140
0.0
141
0.0
142
1.0
143
1.0
 70
   688
 72
     0
 73
     0
 74
     5
  7

 75
    16
147
1.0
148
0.0
149
0.0
100
AcDbLayout
  1
Layout2
 70
     1
 71
     2
 10
0.0
 20
0.0
 11
0.0
 21
0.0
 12
0.0
 22
0.0
 32
0.0
 14
0.0
 24
0.0
 34
0.0
 15
0.0
 25
0.0
 35
0.0
146
0.0
 13
0.0
 23
0.0
 33
0.0
 16
1.0
 26
0.0
 36
0.0
 17
0.0
 27
1.0
 37
0.0
 76
     0
330
23
  0
LAYOUT
  5
22
102
{ACAD_REACTORS
330
1A
102
}
330
1A
100
AcDbPlotSettings
  1

  2
none_device
  4

  6

 40
0.0
 41
0.0
 42
0.0
 43
0.0
 44
0.0
 45
0.0
 46
0.0
 47
0.0
 48
0.0
 49
0.0
140
0.0
141
0.0
142
1.0
143
1.0
 70
  1712
 72
     0
 73
     0
 74
     0
  7

 75
     0
147
1.0
148
0.0
149
0.0
100
AcDbLayout
  1
Model
 70
     1
 71
     0
 10
0.0
 20
0.0
 11
12.0
 21
9.0
 12
0.0
 22
0.0
 32
0.0
 14
1.000000000000000E+20
 24
1.000000000000000E+20
 34
1.000000000000000E+20
 15
-1.000000000000000E+20
 25
-1.000000000000000E+20
 35
-1.000000000000000E+20
146
0.0
 13
0.0
 23
0.0
 33
0.0
 16
1.0
 26
0.0
 36
0.0
 17
0.0
 27
1.0
 37
0.0
 76
     0
330
1F
331
29
  0
MLINESTYLE
  5
18
102
{ACAD_REACTORS
330
17
102
}
330
17
100
AcDbMlineStyle
  2
Standard
 70
     0
  3

 62
   256
 51
90.0
 52
90.0
 71
     2
 49
0.5
 62
   256
  6
BYLAYER
 49
-0.5
 62
   256
  6
BYLAYER
  0
ACDBPLACEHOLDER
  5
F
102
{ACAD_REACTORS
330
E
102
}
330
E
  0
VISUALSTYLE
  5
2F
102
{ACAD_REACTORS
330
2A
102
}
330
2A
100
AcDbVisualStyle
  2
2dWireframe
 70
     4
 71
     0
 72
     2
 73
     0
 90
        0
 40
-0.6
 41
-30.0
 62
     5
 63
     7
 74
     1
 91
        4
 64
     7
 65
   257
 75
     1
175
     1
 42
1.0
 92
        0
 66
   257
 43
1.0
 76
     1
 77
     6
 78
     2
 67
     7
 79
     5
170
     0
171
     0
290
     0
174
     0
 93
        1
 44
0.0
173
     0
291
     0
 45
0.0
1001
ACAD
1000
AcDbSavedByObjectVersion
1070
     0
  0
VISUALSTYLE
  5
31
102
{ACAD_REACTORS
330
2A
102
}
330
2A
100
AcDbVisualStyle
  2
3D Hidden
 70
     6
 71
     1
 72
     2
 73
     2
 90
        0
 40
-0.6
 41
-30.0
 62
     5
 63
     7
 74
     2
 91
        2
 64
     7
 65
   257
 75
     2
175
     1
 42
40.0
 92
        0
 66
   257
 43
1.0
 76
     1
 77
     6
 78
     2
 67
     7
 79
     3
170
     0
171
     0
290
     0
174
     0
 93
        1
 44
0.0
173
     0
291
     0
 45
0.0
1001
ACAD
1000
AcDbSavedByObjectVersion
1070
     0
  0
VISUALSTYLE
  5
30
102
{ACAD_REACTORS
330
2A
102
}
330
2A
100
AcDbVisualStyle
  2
3dWireframe
 70
     5
 71
     0
 72
     2
 73
     0
 90
        0
 40
-0.6
 41
-30.0
 62
     5
 63
     7
 74
     1
 91
        4
 64
     7
 65
   257
 75
     1
175
     1
 42
1.0
 92
        0
 66
   257
 43
1.0
 76
     1
 77
     6
 78
     2
 67
     7
 79
     5
170
     0
171
     0
290
     0
174
     0
 93
        1
 44
0.0
173
     0
291
     0
 45
0.0
1001
ACAD
1000
AcDbSavedByObjectVersion
1070
     0
  0
VISUALSTYLE
  5
32
102
{ACAD_REACTORS
330
2A
102
}
330
2A
100
AcDbVisualStyle
  2
Basic
 70
     7
 71
     1
 72
     0
 73
     1
 90
        0
 40
-0.6
 41
-30.0
 62
     5
 63
     7
 74
     0
 91
        4
 64
     7
 65
   257
 75
     1
175
     1
 42
1.0
 92
        8
 66
     7
 43
1.0
 76
     1
 77
     6
 78
     2
 67
     7
 79
     5
170
     0
171
     0
290
     0
174
     0
 93
        1
 44
0.0
173
     0
291
     1
 45
0.0
1001
ACAD
1000
AcDbSavedByObjectVersion
1070
     0
  0
VISUALSTYLE
  5
36
102
{ACAD_REACTORS
330
2A
102
}
330
2A
100
AcDbVisualStyle
  2
Brighten
 70
    12
 71
     2
 72
     2
 73
     0
 90
        0
 40
-0.6
 41
-30.0
 62
     5
 63
     7
 74
     1
 91
        4
 64
     7
 65
   257
 75
     1
175
     1
 42
1.0
 92
        8
 66
     7
 43
1.0
 76
     1
 77
     6
 78
     2
 67
     7
 79
     5
170
     0
171
     0
290
     0
174
     0
 93
        1
 44
50.0
173
     0
291
     1
 45
0.0
1001
ACAD
1000
AcDbSavedByObjectVersion
1070
     0
  0
VISUALSTYLE
  5
3A
102
{ACAD_REACTORS
330
2A
102
}
330
2A
100
AcDbVisualStyle
  2
ColorChange
 70
    16
 71
     2
 72
     2
 73
     3
 90
        0
 40
-0.6
 41
-30.0
 62
     5
 63
     8
 74
     1
 91
        4
 64
     7
 65
   257
 75
     1
175
     1
 42
1.0
 92
        8
 66
     8
 43
1.0
 76
     1
 77
     6
 78
     2
 67
     7
 79
     5
170
     0
171
     0
290
     0
174
     0
 93
        1
 44
0.0
173
     0
291
     1
 45
0.0
1001
ACAD
1000
AcDbSavedByObjectVersion
1070
     0
  0
VISUALSTYLE
  5
34
102
{ACAD_REACTORS
330
2A
102
}
330
2A
100
AcDbVisualStyle
  2
Conceptual
 70
     9
 71
     3
 72
     2
 73
     0
 90
        0
 40
-0.6
 41
-30.0
 62
     5
 63
     7
 74
     2
 91
        2
 64
     7
 65
   257
 75
     1
175
     1
 42
40.0
 92
        8
 66
     7
 43
1.0
 76
     1
 77
     6
 78
     2
 67
     7
 79
     3
170
     0
171
     0
290
     0
174
     0
 93
        1
 44
0.0
173
     0
291
     0
 45
0.0
1001
ACAD
1000
AcDbSavedByObjectVersion
1070
     0
  0
VISUALSTYLE
  5
35
102
{ACAD_REACTORS
330
2A
102
}
330
2A
100
AcDbVisualStyle
  2
Dim
 70
    11
 71
     2
 72
     2
 73
     0
 90
        0
 40
-0.6
 41
-30.0
 62
     5
 63
     7
 74
     1
 91
        4
 64
     7
 65
   257
 75
     1
175
     1
 42
1.0
 92
        8
 66
     7
 43
1.0
 76
     1
 77
     6
 78
     2
 67
     7
 79
     5
170
     0
171
     0
290
     0
174
     0
 93
        1
 44
-50.0
173
     0
291
     1
 45
0.0
1001
ACAD
1000
AcDbSavedByObjectVersion
1070
     0
  0
VISUALSTYLE
  5
39
102
{ACAD_REACTORS
330
2A
102
}
330
2A
100
AcDbVisualStyle
  2
Facepattern
 70
    15
 71
     2
 72
     2
 73
     0
 90
        0
 40
-0.6
 41
-30.0
 62
     5
 63
     7
 74
     1
 91
        4
 64
     7
 65
   257
 75
     1
175
     1
 42
1.0
 92
        8
 66
     7
 43
1.0
 76
     1
 77
     6
 78
     2
 67
     7
 79
     5
170
     0
171
     0
290
     0
174
     0
 93
        1
 44
0.0
173
     0
291
     1
 45
0.0
1001
ACAD
1000
AcDbSavedByObjectVersion
1070
     0
  0
VISUALSTYLE
  5
2B
102
{ACAD_REACTORS
330
2A
102
}
330
2A
100
AcDbVisualStyle
  2
Flat
 70
     0
 71
     2
 72
     1
 73
     1
 90
        2
 40
-0.6
 41
30.0
 62
     5
 63
     7
 74
     0
 91
        4
 64
     7
 65
   257
 75
     1
175
     1
 42
1.0
 92
        8
 66
     7
 43
1.0
 76
     1
 77
     6
 78
     2
 67
     7
 79
     5
170
     0
171
     0
290
     0
174
     0
 93
       13
 44
0.0
173
     0
291
     1
 45
0.0
1001
ACAD
1000
AcDbSavedByObjectVersion
1070
     0
  0
VISUALSTYLE
  5
2C
102
{ACAD_REACTORS
330
2A
102
}
330
2A
100
AcDbVisualStyle
  2
FlatWithEdges
 70
     1
 71
     2
 72
     1
 73
     1
 90
        2
 40
-0.6
 41
30.0
 62
     5
 63
     7
 74
     1
 91
        4
 64
     7
 65
   257
 75
     1
175
     1
 42
1.0
 92
        0
 66
   257
 43
1.0
 76
     1
 77
     6
 78
     2
 67
     7
 79
     5
170
     0
171
     0
290
     0
174
     0
 93
       13
 44
0.0
173
     0
291
     1
 45
0.0
1001
ACAD
1000
AcDbSavedByObjectVersion
1070
     0
  0
VISUALSTYLE
  5
2D
102
{ACAD_REACTORS
330
2A
102
}
330
2A
100
AcDbVisualStyle
  2
Gouraud
 70
     2
 71
     2
 72
     2
 73
     1
 90
        2
 40
-0.6
 41
30.0
 62
     5
 63
     7
 74
     0
 91
        4
 64
     7
 65
   257
 75
     1
175
     1
 42
1.0
 92
        0
 66
     7
 43
1.0
 76
     1
 77
     6
 78
     2
 67
     7
 79
     5
170
     0
171
     0
290
     0
174
     0
 93
       13
 44
0.0
173
     0
291
     1
 45
0.0
1001
ACAD
1000
AcDbSavedByObjectVersion
1070
     0
  0
VISUALSTYLE
  5
2E
102
{ACAD_REACTORS
330
2A
102
}
330
2A
100
AcDbVisualStyle
  2
GouraudWithEdges
 70
     3
 71
     2
 72
     2
 73
     1
 90
        2
 40
-0.6
 41
30.0
 62
     5
 63
     7
 74
     1
 91
        4
 64
     7
 65
   257
 75
     1
175
     1
 42
1.0
 92
        0
 66
   257
 43
1.0
 76
     1
 77
     6
 78
     2
 67
     7
 79
     5
170
     0
171
     0
290
     0
174
     0
 93
       13
 44
0.0
173
     0
291
     1
 45
0.0
1001
ACAD
1000
AcDbSavedByObjectVersion
1070
     0
  0
VISUALSTYLE
  5
38
102
{ACAD_REACTORS
330
2A
102
}
330
2A
100
AcDbVisualStyle
  2
Linepattern
 70
    14
 71
     2
 72
     2
 73
     0
 90
        0
 40
-0.6
 41
-30.0
 62
     5
 63
     7
 74
     1
 91
        4
 64
     7
 65
   257
 75
     7
175
     7
 42
1.0
 92
        8
 66
     7
 43
1.0
 76
     1
 77
     6
 78
     2
 67
     7
 79
     5
170
     0
171
     0
290
     0
174
     0
 93
        1
 44
0.0
173
     0
291
     1
 45
0.0
1001
ACAD
1000
AcDbSavedByObjectVersion
1070
     0
  0
VISUALSTYLE
  5
33
102
{ACAD_REACTORS
330
2A
102
}
330
2A
100
AcDbVisualStyle
  2
Realistic
 70
     8
 71
     2
 72
     2
 73
     0
 90
        0
 40
-0.6
 41
-30.0
 62
     5
 63
     7
 74
     1
 91
        0
 64
     7
 65
   257
 75
     1
175
     1
 42
1.0
 92
        8
 66
     8
 43
1.0
 76
     1
 77
     6
 78
     2
 67
     7
 79
     5
170
     0
171
     0
290
     0
174
     0
 93
       13
 44
0.0
173
     0
291
     0
 45
0.0
1001
ACAD
1000
AcDbSavedByObjectVersion
1070
     0
  0
VISUALSTYLE
  5
37
102
{ACAD_REACTORS
330
2A
102
}
330
2A
100
AcDbVisualStyle
  2
Thicken
 70
    13
 71
     2
 72
     2
 73
     0
 90
        0
 40
-0.6
 41
-30.0
 62
     5
 63
     7
 74
     1
 91
        4
 64
     7
 65
   257
 75
     1
175
     1
 42
1.0
 92
       12
 66
     7
 43
1.0
 76
     1
 77
     6
 78
     2
 67
     7
 79
     5
170
     0
171
     0
290
     0
174
     0
 93
        1
 44
0.0
173
     0
291
     1
 45
0.0
1001
ACAD
1000
AcDbSavedByObjectVersion
1070
     0
  0
ENDSEC
  0
EOF
