  0
SECTION
  2
HEADER
  9
$ACADVER
  1
AC1015
  9
$ACADMAINTVER
 70
     6
  9
$DWGCODEPAGE
  3
ANSI_932
  9
$INSBASE
 10
0.0
 20
0.0
 30
0.0
  9
$EXTMIN
 10
1.000000000000000E+20
 20
1.000000000000000E+20
 30
1.000000000000000E+20
  9
$EXTMAX
 10
-1.000000000000000E+20
 20
-1.000000000000000E+20
 30
-1.000000000000000E+20
  9
$LIMMIN
 10
0.0
 20
0.0
  9
$LIMMAX
 10
12.0
 20
9.0
  9
$ORTHOMODE
 70
     0
  9
$REGENMODE
 70
     1
  9
$FILLMODE
 70
     1
  9
$QTEXTMODE
 70
     0
  9
$MIRRTEXT
 70
     1
  9
$LTSCALE
 40
1.0
  9
$ATTMODE
 70
     1
  9
$TEXTSIZE
 40
0.2
  9
$TRACEWID
 40
0.05
  9
$TEXTSTYLE
  7
Standard
  9
$CLAYER
  8
0
  9
$CELTYPE
  6
ByLayer
  9
$CECOLOR
 62
   256
  9
$CELTSCALE
 40
1.0
  9
$DISPSILH
 70
     0
  9
$DIMSCALE
 40
1.0
  9
$DIMASZ
 40
0.18
  9
$DIMEXO
 40
0.0625
  9
$DIMDLI
 40
0.38
  9
$DIMRND
 40
0.0
  9
$DIMDLE
 40
0.0
  9
$DIMEXE
 40
0.18
  9
$DIMTP
 40
0.0
  9
$DIMTM
 40
0.0
  9
$DIMTXT
 40
0.18
  9
$DIMCEN
 40
0.09
  9
$DIMTSZ
 40
0.0
  9
$DIMTOL
 70
     0
  9
$DIMLIM
 70
     0
  9
$DIMTIH
 70
     1
  9
$DIMTOH
 70
     1
  9
$DIMSE1
 70
     0
  9
$DIMSE2
 70
     0
  9
$DIMTAD
 70
     0
  9
$DIMZIN
 70
     0
  9
$DIMBLK
  1

  9
$DIMASO
 70
     1
  9
$DIMSHO
 70
     1
  9
$DIMPOST
  1

  9
$DIMAPOST
  1

  9
$DIMALT
 70
     0
  9
$DIMALTD
 70
     2
  9
$DIMALTF
 40
25.4
  9
$DIMLFAC
 40
1.0
  9
$DIMTOFL
 70
     0
  9
$DIMTVP
 40
0.0
  9
$DIMTIX
 70
     0
  9
$DIMSOXD
 70
     0
  9
$DIMSAH
 70
     0
  9
$DIMBLK1
  1

  9
$DIMBLK2
  1

  9
$DIMSTYLE
  2
Standard
  9
$DIMCLRD
 70
     0
  9
$DIMCLRE
 70
     0
  9
$DIMCLRT
 70
     0
  9
$DIMTFAC
 40
1.0
  9
$DIMGAP
 40
0.09
  9
$DIMJUST
 70
     0
  9
$DIMSD1
 70
     0
  9
$DIMSD2
 70
     0
  9
$DIMTOLJ
 70
     1
  9
$DIMTZIN
 70
     0
  9
$DIMALTZ
 70
     0
  9
$DIMALTTZ
 70
     0
  9
$DIMUPT
 70
     0
  9
$DIMDEC
 70
     4
  9
$DIMTDEC
 70
     4
  9
$DIMALTU
 70
     2
  9
$DIMALTTD
 70
     2
  9
$DIMTXSTY
  7
Standard
  9
$DIMAUNIT
 70
     0
  9
$DIMADEC
 70
     0
  9
$DIMALTRND
 40
0.0
  9
$DIMAZIN
 70
     0
  9
$DIMDSEP
 70
    46
  9
$DIMATFIT
 70
     3
  9
$DIMFRAC
 70
     0
  9
$DIMLDRBLK
  1

  9
$DIMLUNIT
 70
     2
  9
$DIMLWD
 70
    -2
  9
$DIMLWE
 70
    -2
  9
$DIMTMOVE
 70
     0
  9
$LUNITS
 70
     2
  9
$LUPREC
 70
     4
  9
$SKETCHINC
 40
0.1
  9
$FILLETRAD
 40
0.5
  9
$AUNITS
 70
     0
  9
$AUPREC
 70
     0
  9
$MENU
  1
.
  9
$ELEVATION
 40
0.0
  9
$PELEVATION
 40
0.0
  9
$THICKNESS
 40
0.0
  9
$LIMCHECK
 70
     0
  9
$CHAMFERA
 40
0.5
  9
$CHAMFERB
 40
0.5
  9
$CHAMFERC
 40
1.0
  9
$CHAMFERD
 40
0.0
  9
$SKPOLY
 70
     0
  9
$TDCREATE
 40
2456191.59142765
  9
$TDUCREATE
 40
2456191.21642765
  9
$TDUPDATE
 40
2456191.591427662
  9
$TDUUPDATE
 40
2456191.216427662
  9
$TDINDWG
 40
0.0000000116
  9
$TDUSRTIMER
 40
0.0000000116
  9
$USRTIMER
 70
     1
  9
$ANGBASE
 50
0.0
  9
$ANGDIR
 70
     0
  9
$PDMODE
 70
     0
  9
$PDSIZE
 40
0.0
  9
$PLINEWID
 40
0.0
  9
$SPLFRAME
 70
     0
  9
$SPLINETYPE
 70
     6
  9
$SPLINESEGS
 70
     8
  9
$HANDSEED
  5
6F5
  9
$SURFTAB1
 70
     6
  9
$SURFTAB2
 70
     6
  9
$SURFTYPE
 70
     6
  9
$SURFU
 70
     6
  9
$SURFV
 70
     6
  9
$UCSBASE
  2

  9
$UCSNAME
  2

  9
$UCSORG
 10
0.0
 20
0.0
 30
0.0
  9
$UCSXDIR
 10
1.0
 20
0.0
 30
0.0
  9
$UCSYDIR
 10
0.0
 20
1.0
 30
0.0
  9
$UCSORTHOREF
  2

  9
$UCSORTHOVIEW
 70
     0
  9
$UCSORGTOP
 10
0.0
 20
0.0
 30
0.0
  9
$UCSORGBOTTOM
 10
0.0
 20
0.0
 30
0.0
  9
$UCSORGLEFT
 10
0.0
 20
0.0
 30
0.0
  9
$UCSORGRIGHT
 10
0.0
 20
0.0
 30
0.0
  9
$UCSORGFRONT
 10
0.0
 20
0.0
 30
0.0
  9
$UCSORGBACK
 10
0.0
 20
0.0
 30
0.0
  9
$PUCSBASE
  2

  9
$PUCSNAME
  2

  9
$PUCSORG
 10
0.0
 20
0.0
 30
0.0
  9
$PUCSXDIR
 10
1.0
 20
0.0
 30
0.0
  9
$PUCSYDIR
 10
0.0
 20
1.0
 30
0.0
  9
$PUCSORTHOREF
  2

  9
$PUCSORTHOVIEW
 70
     0
  9
$PUCSORGTOP
 10
0.0
 20
0.0
 30
0.0
  9
$PUCSORGBOTTOM
 10
0.0
 20
0.0
 30
0.0
  9
$PUCSORGLEFT
 10
0.0
 20
0.0
 30
0.0
  9
$PUCSORGRIGHT
 10
0.0
 20
0.0
 30
0.0
  9
$PUCSORGFRONT
 10
0.0
 20
0.0
 30
0.0
  9
$PUCSORGBACK
 10
0.0
 20
0.0
 30
0.0
  9
$USERI1
 70
     0
  9
$USERI2
 70
     0
  9
$USERI3
 70
     0
  9
$USERI4
 70
     0
  9
$USERI5
 70
     0
  9
$USERR1
 40
0.0
  9
$USERR2
 40
0.0
  9
$USERR3
 40
0.0
  9
$USERR4
 40
0.0
  9
$USERR5
 40
0.0
  9
$WORLDVIEW
 70
     1
  9
$SHADEDGE
 70
     3
  9
$SHADEDIF
 70
    70
  9
$TILEMODE
 70
     1
  9
$MAXACTVP
 70
    64
  9
$PINSBASE
 10
0.0
 20
0.0
 30
0.0
  9
$PLIMCHECK
 70
     0
  9
$PEXTMIN
 10
1.000000000000000E+20
 20
1.000000000000000E+20
 30
1.000000000000000E+20
  9
$PEXTMAX
 10
-1.000000000000000E+20
 20
-1.000000000000000E+20
 30
-1.000000000000000E+20
  9
$PLIMMIN
 10
0.0
 20
0.0
  9
$PLIMMAX
 10
12.0
 20
9.0
  9
$UNITMODE
 70
     0
  9
$VISRETAIN
 70
     1
  9
$PLINEGEN
 70
     0
  9
$PSLTSCALE
 70
     1
  9
$TREEDEPTH
 70
  3020
  9
$CMLSTYLE
  2
Standard
  9
$CMLJUST
 70
     0
  9
$CMLSCALE
 40
1.0
  9
$PROXYGRAPHICS
 70
     1
  9
$MEASUREMENT
 70
     0
  9
$CELWEIGHT
370
    -1
  9
$ENDCAPS
280
     0
  9
$JOINSTYLE
280
     0
  9
$LWDISPLAY
290
     1
  9
$INSUNITS
 70
     1
  9
$HYPERLINKBASE
  1

  9
$STYLESHEET
  1

  9
$XEDIT
290
     1
  9
$CEPSNTYPE
380
     0
  9
$PSTYLEMODE
290
     1
  9
$FINGERPRINTGUID
  2
{25E83E5D-2745-462C-A6C3-7E67E97BDD23}
  9
$VERSIONGUID
  2
{FAEB1C32-E019-11D5-929B-00C0DF256EC4}
  9
$EXTNAMES
290
     1
  9
$PSVPSCALE
 40
0.0
  9
$OLESTARTUP
290
     0
  0
ENDSEC
  0
SECTION
  2
CLASSES
  0
CLASS
  1
ACDBDICTIONARYWDFLT
  2
AcDbDictionaryWithDefault
  3
ObjectDBX Classes
 90
        0
280
     0
281
     0
  0
CLASS
  1
VISUALSTYLE
  2
AcDbVisualStyle
  3
ObjectDBX Classes
 90
     4095
280
     0
281
     0
  0
CLASS
  1
ACDBPLACEHOLDER
  2
AcDbPlaceHolder
  3
ObjectDBX Classes
 90
        0
280
     0
281
     0
  0
CLASS
  1
LAYOUT
  2
AcDbLayout
  3
ObjectDBX Classes
 90
        0
280
     0
281
     0
  0
ENDSEC
  0
SECTION
  2
TABLES
  0
TABLE
  2
VPORT
  5
8
330
0
100
AcDbSymbolTable
 70
     1
  0
VPORT
  5
29
330
8
100
AcDbSymbolTableRecord
100
AcDbViewportTableRecord
  2
*Active
 70
     0
 10
0.0
 20
0.0
 11
1.0
 21
1.0
 12
0.0
 22
0.0
 13
0.0
 23
0.0
 14
0.5
 24
0.5
 15
0.5
 25
0.5
 16
0.0
 26
0.0
 36
1.0
 17
105.0008259828644
 27
148.4999796178229
 37
0.0
 40
210.0016519657287
 41
1.414274394775308
 42
50.0
 43
0.0
 44
0.0
 50
0.0
 51
0.0
 71
     0
 72
   100
 73
     1
 74
     3
 75
     0
 76
     0
 77
     0
 78
     0
281
     0
 65
     1
110
0.0
120
0.0
130
0.0
111
1.0
121
0.0
131
0.0
112
0.0
122
1.0
132
0.0
 79
     0
146
0.0
  0
ENDTAB
  0
TABLE
  2
LTYPE
  5
5
330
0
100
AcDbSymbolTable
 70
     1
  0
LTYPE
  5
14
330
5
100
AcDbSymbolTableRecord
100
AcDbLinetypeTableRecord
  2
ByBlock
 70
     0
  3

 72
    65
 73
     0
 40
0.0
  0
LTYPE
  5
15
330
5
100
AcDbSymbolTableRecord
100
AcDbLinetypeTableRecord
  2
ByLayer
 70
     0
  3

 72
    65
 73
     0
 40
0.0
  0
LTYPE
  5
16
330
5
100
AcDbSymbolTableRecord
100
AcDbLinetypeTableRecord
  2
Continuous
 70
     0
  3
Solid line
 72
    65
 73
     0
 40
0.0
  0
ENDTAB
  0
TABLE
  2
LAYER
  5
2
330
0
100
AcDbSymbolTable
 70
     3
  0
LAYER
  5
10
330
2
100
AcDbSymbolTableRecord
100
AcDbLayerTableRecord
  2
0
 70
     0
 62
     7
  6
Continuous
370
    -3
390
F
  0
LAYER
  5
3B
330
2
100
AcDbSymbolTableRecord
100
AcDbLayerTableRecord
  2
\U+56F3\U+67A0
 70
     0
 62
     7
  6
Continuous
370
    -3
390
F
  0
LAYER
  5
3C
330
2
100
AcDbSymbolTableRecord
100
AcDbLayerTableRecord
  2
\U+30EC\U+30A4\U+30E4\U+30FC 4
 70
     0
 62
     7
  6
Continuous
370
    -3
390
F
  0
ENDTAB
  0
TABLE
  2
STYLE
  5
3
330
0
100
AcDbSymbolTable
 70
     1
  0
STYLE
  5
11
330
3
100
AcDbSymbolTableRecord
100
AcDbTextStyleTableRecord
  2
Standard
 70
     0
 40
0.0
 41
1.0
 50
0.0
 71
     0
 42
0.2
  3
txt
  4

  0
ENDTAB
  0
TABLE
  2
VIEW
  5
6
330
0
100
AcDbSymbolTable
 70
     0
  0
ENDTAB
  0
TABLE
  2
UCS
  5
7
330
0
100
AcDbSymbolTable
 70
     0
  0
ENDTAB
  0
TABLE
  2
APPID
  5
9
330
0
100
AcDbSymbolTable
 70
     1
  0
APPID
  5
12
330
9
100
AcDbSymbolTableRecord
100
AcDbRegAppTableRecord
  2
ACAD
 70
     0
  0
ENDTAB
  0
TABLE
  2
DIMSTYLE
  5
A
330
0
100
AcDbSymbolTable
 70
     1
100
AcDbDimStyleTable
  0
DIMSTYLE
105
27
330
A
100
AcDbSymbolTableRecord
100
AcDbDimStyleTableRecord
  2
Standard
 70
     0
340
11
  0
ENDTAB
  0
TABLE
  2
BLOCK_RECORD
  5
1
330
0
100
AcDbSymbolTable
 70
   171
  0
BLOCK_RECORD
  5
1F
330
1
100
AcDbSymbolTableRecord
100
AcDbBlockTableRecord
  2
*Model_Space
340
22
  0
BLOCK_RECORD
  5
1B
330
1
100
AcDbSymbolTableRecord
100
AcDbBlockTableRecord
  2
*Paper_Space
340
1E
  0
BLOCK_RECORD
  5
23
330
1
100
AcDbSymbolTableRecord
100
AcDbBlockTableRecord
  2
*Paper_Space0
340
26
  0
BLOCK_RECORD
  5
3D
330
1
100
AcDbSymbolTableRecord
100
AcDbBlockTableRecord
  2
block 2
340
0
102
{BLKREFS
331
3E
102
}
  0
BLOCK_RECORD
  5
41
330
1
100
AcDbSymbolTableRecord
100
AcDbBlockTableRecord
  2
block 3
340
0
102
{BLKREFS
331
42
102
}
  0
BLOCK_RECORD
  5
49
330
1
100
AcDbSymbolTableRecord
100
AcDbBlockTableRecord
  2
block 4
340
0
102
{BLKREFS
331
4A
102
}
  0
BLOCK_RECORD
  5
51
330
1
100
AcDbSymbolTableRecord
100
AcDbBlockTableRecord
  2
block 5
340
0
102
{BLKREFS
331
52
102
}
  0
BLOCK_RECORD
  5
59
330
1
100
AcDbSymbolTableRecord
100
AcDbBlockTableRecord
  2
block 6
340
0
102
{BLKREFS
331
5A
102
}
  0
BLOCK_RECORD
  5
61
330
1
100
AcDbSymbolTableRecord
100
AcDbBlockTableRecord
  2
block 7
340
0
102
{BLKREFS
331
62
102
}
  0
BLOCK_RECORD
  5
69
330
1
100
AcDbSymbolTableRecord
100
AcDbBlockTableRecord
  2
block 8
340
0
102
{BLKREFS
331
6A
102
}
  0
BLOCK_RECORD
  5
71
330
1
100
AcDbSymbolTableRecord
100
AcDbBlockTableRecord
  2
block 9
340
0
102
{BLKREFS
331
72
102
}
  0
BLOCK_RECORD
  5
79
330
1
100
AcDbSymbolTableRecord
100
AcDbBlockTableRecord
  2
block 10
340
0
102
{BLKREFS
331
7A
102
}
  0
BLOCK_RECORD
  5
81
330
1
100
AcDbSymbolTableRecord
100
AcDbBlockTableRecord
  2
block 11
340
0
102
{BLKREFS
331
82
102
}
  0
BLOCK_RECORD
  5
89
330
1
100
AcDbSymbolTableRecord
100
AcDbBlockTableRecord
  2
block 12
340
0
102
{BLKREFS
331
8A
102
}
  0
BLOCK_RECORD
  5
91
330
1
100
AcDbSymbolTableRecord
100
AcDbBlockTableRecord
  2
block 13
340
0
102
{BLKREFS
331
92
102
}
  0
BLOCK_RECORD
  5
96
330
1
100
AcDbSymbolTableRecord
100
AcDbBlockTableRecord
  2
block 14
340
0
102
{BLKREFS
331
97
102
}
  0
BLOCK_RECORD
  5
9E
330
1
100
AcDbSymbolTableRecord
100
AcDbBlockTableRecord
  2
block 15
340
0
102
{BLKREFS
331
9F
102
}
  0
BLOCK_RECORD
  5
A7
330
1
100
AcDbSymbolTableRecord
100
AcDbBlockTableRecord
  2
block 16
340
0
102
{BLKREFS
331
A8
102
}
  0
BLOCK_RECORD
  5
AF
330
1
100
AcDbSymbolTableRecord
100
AcDbBlockTableRecord
  2
block 17
340
0
102
{BLKREFS
331
B0
102
}
  0
BLOCK_RECORD
  5
B7
330
1
100
AcDbSymbolTableRecord
100
AcDbBlockTableRecord
  2
block 18
340
0
102
{BLKREFS
331
B8
102
}
  0
BLOCK_RECORD
  5
BF
330
1
100
AcDbSymbolTableRecord
100
AcDbBlockTableRecord
  2
block 19
340
0
102
{BLKREFS
331
C0
102
}
  0
BLOCK_RECORD
  5
C7
330
1
100
AcDbSymbolTableRecord
100
AcDbBlockTableRecord
  2
block 20
340
0
102
{BLKREFS
331
C8
102
}
  0
BLOCK_RECORD
  5
CF
330
1
100
AcDbSymbolTableRecord
100
AcDbBlockTableRecord
  2
block 21
340
0
102
{BLKREFS
331
D0
102
}
  0
BLOCK_RECORD
  5
D7
330
1
100
AcDbSymbolTableRecord
100
AcDbBlockTableRecord
  2
block 22
340
0
102
{BLKREFS
331
D8
102
}
  0
BLOCK_RECORD
  5
DF
330
1
100
AcDbSymbolTableRecord
100
AcDbBlockTableRecord
  2
block 23
340
0
102
{BLKREFS
331
E0
102
}
  0
BLOCK_RECORD
  5
E4
330
1
100
AcDbSymbolTableRecord
100
AcDbBlockTableRecord
  2
block 24
340
0
102
{BLKREFS
331
E5
102
}
  0
BLOCK_RECORD
  5
EC
330
1
100
AcDbSymbolTableRecord
100
AcDbBlockTableRecord
  2
block 25
340
0
102
{BLKREFS
331
ED
102
}
  0
BLOCK_RECORD
  5
F4
330
1
100
AcDbSymbolTableRecord
100
AcDbBlockTableRecord
  2
block 26
340
0
102
{BLKREFS
331
F5
102
}
  0
BLOCK_RECORD
  5
F9
330
1
100
AcDbSymbolTableRecord
100
AcDbBlockTableRecord
  2
block 27
340
0
102
{BLKREFS
331
FA
102
}
  0
BLOCK_RECORD
  5
101
330
1
100
AcDbSymbolTableRecord
100
AcDbBlockTableRecord
  2
block 28
340
0
102
{BLKREFS
331
102
102
}
  0
BLOCK_RECORD
  5
106
330
1
100
AcDbSymbolTableRecord
100
AcDbBlockTableRecord
  2
block 29
340
0
102
{BLKREFS
331
107
102
}
  0
BLOCK_RECORD
  5
10E
330
1
100
AcDbSymbolTableRecord
100
AcDbBlockTableRecord
  2
block 30
340
0
102
{BLKREFS
331
10F
102
}
  0
BLOCK_RECORD
  5
116
330
1
100
AcDbSymbolTableRecord
100
AcDbBlockTableRecord
  2
block 31
340
0
102
{BLKREFS
331
117
102
}
  0
BLOCK_RECORD
  5
11E
330
1
100
AcDbSymbolTableRecord
100
AcDbBlockTableRecord
  2
block 32
340
0
102
{BLKREFS
331
11F
102
}
  0
BLOCK_RECORD
  5
126
330
1
100
AcDbSymbolTableRecord
100
AcDbBlockTableRecord
  2
block 33
340
0
102
{BLKREFS
331
127
102
}
  0
BLOCK_RECORD
  5
12E
330
1
100
AcDbSymbolTableRecord
100
AcDbBlockTableRecord
  2
block 34
340
0
102
{BLKREFS
331
12F
102
}
  0
BLOCK_RECORD
  5
136
330
1
100
AcDbSymbolTableRecord
100
AcDbBlockTableRecord
  2
block 35
340
0
102
{BLKREFS
331
137
102
}
  0
BLOCK_RECORD
  5
143
330
1
100
AcDbSymbolTableRecord
100
AcDbBlockTableRecord
  2
block 36
340
0
102
{BLKREFS
331
144
102
}
  0
BLOCK_RECORD
  5
14B
330
1
100
AcDbSymbolTableRecord
100
AcDbBlockTableRecord
  2
block 37
340
0
102
{BLKREFS
331
14C
102
}
  0
BLOCK_RECORD
  5
153
330
1
100
AcDbSymbolTableRecord
100
AcDbBlockTableRecord
  2
block 38
340
0
102
{BLKREFS
331
154
102
}
  0
BLOCK_RECORD
  5
160
330
1
100
AcDbSymbolTableRecord
100
AcDbBlockTableRecord
  2
block 39
340
0
102
{BLKREFS
331
161
102
}
  0
BLOCK_RECORD
  5
168
330
1
100
AcDbSymbolTableRecord
100
AcDbBlockTableRecord
  2
block 40
340
0
102
{BLKREFS
331
169
102
}
  0
BLOCK_RECORD
  5
17F
330
1
100
AcDbSymbolTableRecord
100
AcDbBlockTableRecord
  2
block 41
340
0
102
{BLKREFS
331
180
102
}
  0
BLOCK_RECORD
  5
187
330
1
100
AcDbSymbolTableRecord
100
AcDbBlockTableRecord
  2
block 42
340
0
102
{BLKREFS
331
188
102
}
  0
BLOCK_RECORD
  5
19E
330
1
100
AcDbSymbolTableRecord
100
AcDbBlockTableRecord
  2
block 43
340
0
102
{BLKREFS
331
19F
102
}
  0
BLOCK_RECORD
  5
1B7
330
1
100
AcDbSymbolTableRecord
100
AcDbBlockTableRecord
  2
block 44
340
0
102
{BLKREFS
331
1B8
102
}
  0
BLOCK_RECORD
  5
1D4
330
1
100
AcDbSymbolTableRecord
100
AcDbBlockTableRecord
  2
block 45
340
0
102
{BLKREFS
331
1D5
102
}
  0
BLOCK_RECORD
  5
1F1
330
1
100
AcDbSymbolTableRecord
100
AcDbBlockTableRecord
  2
block 46
340
0
102
{BLKREFS
331
1F2
102
}
  0
BLOCK_RECORD
  5
20A
330
1
100
AcDbSymbolTableRecord
100
AcDbBlockTableRecord
  2
block 47
340
0
102
{BLKREFS
331
20B
102
}
  0
BLOCK_RECORD
  5
218
330
1
100
AcDbSymbolTableRecord
100
AcDbBlockTableRecord
  2
block 48
340
0
102
{BLKREFS
331
219
102
}
  0
BLOCK_RECORD
  5
237
330
1
100
AcDbSymbolTableRecord
100
AcDbBlockTableRecord
  2
block 49
340
0
102
{BLKREFS
331
238
102
}
  0
BLOCK_RECORD
  5
254
330
1
100
AcDbSymbolTableRecord
100
AcDbBlockTableRecord
  2
block 50
340
0
102
{BLKREFS
331
255
102
}
  0
BLOCK_RECORD
  5
270
330
1
100
AcDbSymbolTableRecord
100
AcDbBlockTableRecord
  2
block 51
340
0
102
{BLKREFS
331
271
102
}
  0
BLOCK_RECORD
  5
27D
330
1
100
AcDbSymbolTableRecord
100
AcDbBlockTableRecord
  2
block 52
340
0
102
{BLKREFS
331
27E
102
}
  0
BLOCK_RECORD
  5
294
330
1
100
AcDbSymbolTableRecord
100
AcDbBlockTableRecord
  2
block 53
340
0
102
{BLKREFS
331
295
102
}
  0
BLOCK_RECORD
  5
299
330
1
100
AcDbSymbolTableRecord
100
AcDbBlockTableRecord
  2
block 54
340
0
102
{BLKREFS
331
29A
102
}
  0
BLOCK_RECORD
  5
2A1
330
1
100
AcDbSymbolTableRecord
100
AcDbBlockTableRecord
  2
block 55
340
0
102
{BLKREFS
331
2A2
102
}
  0
BLOCK_RECORD
  5
2A6
330
1
100
AcDbSymbolTableRecord
100
AcDbBlockTableRecord
  2
block 56
340
0
102
{BLKREFS
331
2A7
102
}
  0
BLOCK_RECORD
  5
2AE
330
1
100
AcDbSymbolTableRecord
100
AcDbBlockTableRecord
  2
block 57
340
0
102
{BLKREFS
331
2AF
102
}
  0
BLOCK_RECORD
  5
2B3
330
1
100
AcDbSymbolTableRecord
100
AcDbBlockTableRecord
  2
block 58
340
0
102
{BLKREFS
331
2B4
102
}
  0
BLOCK_RECORD
  5
2B8
330
1
100
AcDbSymbolTableRecord
100
AcDbBlockTableRecord
  2
block 59
340
0
102
{BLKREFS
331
2B9
102
}
  0
BLOCK_RECORD
  5
2C4
330
1
100
AcDbSymbolTableRecord
100
AcDbBlockTableRecord
  2
block 60
340
0
102
{BLKREFS
331
2C5
102
}
  0
BLOCK_RECORD
  5
2CC
330
1
100
AcDbSymbolTableRecord
100
AcDbBlockTableRecord
  2
block 61
340
0
102
{BLKREFS
331
2CD
102
}
  0
BLOCK_RECORD
  5
2D1
330
1
100
AcDbSymbolTableRecord
100
AcDbBlockTableRecord
  2
block 62
340
0
102
{BLKREFS
331
2D2
102
}
  0
BLOCK_RECORD
  5
2D9
330
1
100
AcDbSymbolTableRecord
100
AcDbBlockTableRecord
  2
block 63
340
0
102
{BLKREFS
331
2DA
102
}
  0
BLOCK_RECORD
  5
2DE
330
1
100
AcDbSymbolTableRecord
100
AcDbBlockTableRecord
  2
block 64
340
0
102
{BLKREFS
331
2DF
102
}
  0
BLOCK_RECORD
  5
2E6
330
1
100
AcDbSymbolTableRecord
100
AcDbBlockTableRecord
  2
block 65
340
0
102
{BLKREFS
331
2E7
102
}
  0
BLOCK_RECORD
  5
2EE
330
1
100
AcDbSymbolTableRecord
100
AcDbBlockTableRecord
  2
block 66
340
0
102
{BLKREFS
331
2EF
102
}
  0
BLOCK_RECORD
  5
2F6
330
1
100
AcDbSymbolTableRecord
100
AcDbBlockTableRecord
  2
block 67
340
0
102
{BLKREFS
331
2F7
102
}
  0
BLOCK_RECORD
  5
2FB
330
1
100
AcDbSymbolTableRecord
100
AcDbBlockTableRecord
  2
block 68
340
0
102
{BLKREFS
331
2FC
102
}
  0
BLOCK_RECORD
  5
303
330
1
100
AcDbSymbolTableRecord
100
AcDbBlockTableRecord
  2
block 69
340
0
102
{BLKREFS
331
304
102
}
  0
BLOCK_RECORD
  5
308
330
1
100
AcDbSymbolTableRecord
100
AcDbBlockTableRecord
  2
block 70
340
0
102
{BLKREFS
331
309
102
}
  0
BLOCK_RECORD
  5
333
330
1
100
AcDbSymbolTableRecord
100
AcDbBlockTableRecord
  2
block 71
340
0
102
{BLKREFS
331
334
102
}
  0
BLOCK_RECORD
  5
33C
330
1
100
AcDbSymbolTableRecord
100
AcDbBlockTableRecord
  2
block 72
340
0
102
{BLKREFS
331
33D
102
}
  0
BLOCK_RECORD
  5
344
330
1
100
AcDbSymbolTableRecord
100
AcDbBlockTableRecord
  2
block 73
340
0
102
{BLKREFS
331
345
102
}
  0
BLOCK_RECORD
  5
36B
330
1
100
AcDbSymbolTableRecord
100
AcDbBlockTableRecord
  2
block 74
340
0
102
{BLKREFS
331
36C
102
}
  0
BLOCK_RECORD
  5
378
330
1
100
AcDbSymbolTableRecord
100
AcDbBlockTableRecord
  2
block 75
340
0
102
{BLKREFS
331
379
102
}
  0
BLOCK_RECORD
  5
38F
330
1
100
AcDbSymbolTableRecord
100
AcDbBlockTableRecord
  2
block 76
340
0
102
{BLKREFS
331
390
102
}
  0
BLOCK_RECORD
  5
397
330
1
100
AcDbSymbolTableRecord
100
AcDbBlockTableRecord
  2
block 77
340
0
102
{BLKREFS
331
398
102
}
  0
BLOCK_RECORD
  5
39C
330
1
100
AcDbSymbolTableRecord
100
AcDbBlockTableRecord
  2
block 78
340
0
102
{BLKREFS
331
39D
102
}
  0
BLOCK_RECORD
  5
3A1
330
1
100
AcDbSymbolTableRecord
100
AcDbBlockTableRecord
  2
block 79
340
0
102
{BLKREFS
331
3A2
102
}
  0
BLOCK_RECORD
  5
3A6
330
1
100
AcDbSymbolTableRecord
100
AcDbBlockTableRecord
  2
block 80
340
0
102
{BLKREFS
331
3A7
102
}
  0
BLOCK_RECORD
  5
3AB
330
1
100
AcDbSymbolTableRecord
100
AcDbBlockTableRecord
  2
block 81
340
0
102
{BLKREFS
331
3AC
102
}
  0
BLOCK_RECORD
  5
3B3
330
1
100
AcDbSymbolTableRecord
100
AcDbBlockTableRecord
  2
block 82
340
0
102
{BLKREFS
331
3B4
102
}
  0
BLOCK_RECORD
  5
3B8
330
1
100
AcDbSymbolTableRecord
100
AcDbBlockTableRecord
  2
block 83
340
0
102
{BLKREFS
331
3B9
102
}
  0
BLOCK_RECORD
  5
3C0
330
1
100
AcDbSymbolTableRecord
100
AcDbBlockTableRecord
  2
block 84
340
0
102
{BLKREFS
331
3C1
102
}
  0
BLOCK_RECORD
  5
3C8
330
1
100
AcDbSymbolTableRecord
100
AcDbBlockTableRecord
  2
block 85
340
0
102
{BLKREFS
331
3C9
102
}
  0
BLOCK_RECORD
  5
3CD
330
1
100
AcDbSymbolTableRecord
100
AcDbBlockTableRecord
  2
block 86
340
0
102
{BLKREFS
331
3CE
102
}
  0
BLOCK_RECORD
  5
3D5
330
1
100
AcDbSymbolTableRecord
100
AcDbBlockTableRecord
  2
block 87
340
0
102
{BLKREFS
331
3D6
102
}
  0
BLOCK_RECORD
  5
3DA
330
1
100
AcDbSymbolTableRecord
100
AcDbBlockTableRecord
  2
block 88
340
0
102
{BLKREFS
331
3DB
102
}
  0
BLOCK_RECORD
  5
3E2
330
1
100
AcDbSymbolTableRecord
100
AcDbBlockTableRecord
  2
block 89
340
0
102
{BLKREFS
331
3E3
102
}
  0
BLOCK_RECORD
  5
3EA
330
1
100
AcDbSymbolTableRecord
100
AcDbBlockTableRecord
  2
block 90
340
0
102
{BLKREFS
331
3EB
102
}
  0
BLOCK_RECORD
  5
3EF
330
1
100
AcDbSymbolTableRecord
100
AcDbBlockTableRecord
  2
block 91
340
0
102
{BLKREFS
331
3F0
102
}
  0
BLOCK_RECORD
  5
3F7
330
1
100
AcDbSymbolTableRecord
100
AcDbBlockTableRecord
  2
block 92
340
0
102
{BLKREFS
331
3F8
102
}
  0
BLOCK_RECORD
  5
3FF
330
1
100
AcDbSymbolTableRecord
100
AcDbBlockTableRecord
  2
block 93
340
0
102
{BLKREFS
331
400
102
}
  0
BLOCK_RECORD
  5
404
330
1
100
AcDbSymbolTableRecord
100
AcDbBlockTableRecord
  2
block 94
340
0
102
{BLKREFS
331
405
102
}
  0
BLOCK_RECORD
  5
40C
330
1
100
AcDbSymbolTableRecord
100
AcDbBlockTableRecord
  2
block 95
340
0
102
{BLKREFS
331
40D
102
}
  0
BLOCK_RECORD
  5
414
330
1
100
AcDbSymbolTableRecord
100
AcDbBlockTableRecord
  2
block 96
340
0
102
{BLKREFS
331
415
102
}
  0
BLOCK_RECORD
  5
419
330
1
100
AcDbSymbolTableRecord
100
AcDbBlockTableRecord
  2
block 97
340
0
102
{BLKREFS
331
41A
102
}
  0
BLOCK_RECORD
  5
421
330
1
100
AcDbSymbolTableRecord
100
AcDbBlockTableRecord
  2
block 98
340
0
102
{BLKREFS
331
422
102
}
  0
BLOCK_RECORD
  5
429
330
1
100
AcDbSymbolTableRecord
100
AcDbBlockTableRecord
  2
block 99
340
0
102
{BLKREFS
331
42A
102
}
  0
BLOCK_RECORD
  5
42E
330
1
100
AcDbSymbolTableRecord
100
AcDbBlockTableRecord
  2
block 100
340
0
102
{BLKREFS
331
42F
102
}
  0
BLOCK_RECORD
  5
433
330
1
100
AcDbSymbolTableRecord
100
AcDbBlockTableRecord
  2
block 101
340
0
102
{BLKREFS
331
434
102
}
  0
BLOCK_RECORD
  5
43B
330
1
100
AcDbSymbolTableRecord
100
AcDbBlockTableRecord
  2
block 102
340
0
102
{BLKREFS
331
43C
102
}
  0
BLOCK_RECORD
  5
443
330
1
100
AcDbSymbolTableRecord
100
AcDbBlockTableRecord
  2
block 103
340
0
102
{BLKREFS
331
444
102
}
  0
BLOCK_RECORD
  5
448
330
1
100
AcDbSymbolTableRecord
100
AcDbBlockTableRecord
  2
block 104
340
0
102
{BLKREFS
331
449
102
}
  0
BLOCK_RECORD
  5
44D
330
1
100
AcDbSymbolTableRecord
100
AcDbBlockTableRecord
  2
block 105
340
0
102
{BLKREFS
331
44E
102
}
  0
BLOCK_RECORD
  5
456
330
1
100
AcDbSymbolTableRecord
100
AcDbBlockTableRecord
  2
block 106
340
0
102
{BLKREFS
331
457
102
}
  0
BLOCK_RECORD
  5
45E
330
1
100
AcDbSymbolTableRecord
100
AcDbBlockTableRecord
  2
block 107
340
0
102
{BLKREFS
331
45F
102
}
  0
BLOCK_RECORD
  5
463
330
1
100
AcDbSymbolTableRecord
100
AcDbBlockTableRecord
  2
block 108
340
0
102
{BLKREFS
331
464
102
}
  0
BLOCK_RECORD
  5
46B
330
1
100
AcDbSymbolTableRecord
100
AcDbBlockTableRecord
  2
block 109
340
0
102
{BLKREFS
331
46C
102
}
  0
BLOCK_RECORD
  5
470
330
1
100
AcDbSymbolTableRecord
100
AcDbBlockTableRecord
  2
block 110
340
0
102
{BLKREFS
331
471
102
}
  0
BLOCK_RECORD
  5
478
330
1
100
AcDbSymbolTableRecord
100
AcDbBlockTableRecord
  2
block 111
340
0
102
{BLKREFS
331
479
102
}
  0
BLOCK_RECORD
  5
47D
330
1
100
AcDbSymbolTableRecord
100
AcDbBlockTableRecord
  2
block 112
340
0
102
{BLKREFS
331
47E
102
}
  0
BLOCK_RECORD
  5
485
330
1
100
AcDbSymbolTableRecord
100
AcDbBlockTableRecord
  2
block 113
340
0
102
{BLKREFS
331
486
102
}
  0
BLOCK_RECORD
  5
48A
330
1
100
AcDbSymbolTableRecord
100
AcDbBlockTableRecord
  2
block 114
340
0
102
{BLKREFS
331
48B
102
}
  0
BLOCK_RECORD
  5
492
330
1
100
AcDbSymbolTableRecord
100
AcDbBlockTableRecord
  2
block 115
340
0
102
{BLKREFS
331
493
102
}
  0
BLOCK_RECORD
  5
497
330
1
100
AcDbSymbolTableRecord
100
AcDbBlockTableRecord
  2
block 116
340
0
102
{BLKREFS
331
498
102
}
  0
BLOCK_RECORD
  5
49C
330
1
100
AcDbSymbolTableRecord
100
AcDbBlockTableRecord
  2
block 117
340
0
102
{BLKREFS
331
49D
102
}
  0
BLOCK_RECORD
  5
4A4
330
1
100
AcDbSymbolTableRecord
100
AcDbBlockTableRecord
  2
block 118
340
0
102
{BLKREFS
331
4A5
102
}
  0
BLOCK_RECORD
  5
4A9
330
1
100
AcDbSymbolTableRecord
100
AcDbBlockTableRecord
  2
block 119
340
0
102
{BLKREFS
331
4AA
102
}
  0
BLOCK_RECORD
  5
4B1
330
1
100
AcDbSymbolTableRecord
100
AcDbBlockTableRecord
  2
block 120
340
0
102
{BLKREFS
331
4B2
102
}
  0
BLOCK_RECORD
  5
4BC
330
1
100
AcDbSymbolTableRecord
100
AcDbBlockTableRecord
  2
block 121
340
0
102
{BLKREFS
331
4BD
102
}
  0
BLOCK_RECORD
  5
4C4
330
1
100
AcDbSymbolTableRecord
100
AcDbBlockTableRecord
  2
block 122
340
0
102
{BLKREFS
331
4C5
102
}
  0
BLOCK_RECORD
  5
4C9
330
1
100
AcDbSymbolTableRecord
100
AcDbBlockTableRecord
  2
block 123
340
0
102
{BLKREFS
331
4CA
102
}
  0
BLOCK_RECORD
  5
4D2
330
1
100
AcDbSymbolTableRecord
100
AcDbBlockTableRecord
  2
block 124
340
0
102
{BLKREFS
331
4D3
102
}
  0
BLOCK_RECORD
  5
4DA
330
1
100
AcDbSymbolTableRecord
100
AcDbBlockTableRecord
  2
block 125
340
0
102
{BLKREFS
331
4DB
102
}
  0
BLOCK_RECORD
  5
4DF
330
1
100
AcDbSymbolTableRecord
100
AcDbBlockTableRecord
  2
block 126
340
0
102
{BLKREFS
331
4E0
102
}
  0
BLOCK_RECORD
  5
4E7
330
1
100
AcDbSymbolTableRecord
100
AcDbBlockTableRecord
  2
block 127
340
0
102
{BLKREFS
331
4E8
102
}
  0
BLOCK_RECORD
  5
4EF
330
1
100
AcDbSymbolTableRecord
100
AcDbBlockTableRecord
  2
block 128
340
0
102
{BLKREFS
331
4F0
102
}
  0
BLOCK_RECORD
  5
4F4
330
1
100
AcDbSymbolTableRecord
100
AcDbBlockTableRecord
  2
block 129
340
0
102
{BLKREFS
331
4F5
102
}
  0
BLOCK_RECORD
  5
4FC
330
1
100
AcDbSymbolTableRecord
100
AcDbBlockTableRecord
  2
block 130
340
0
102
{BLKREFS
331
4FD
102
}
  0
BLOCK_RECORD
  5
508
330
1
100
AcDbSymbolTableRecord
100
AcDbBlockTableRecord
  2
block 131
340
0
102
{BLKREFS
331
509
102
}
  0
BLOCK_RECORD
  5
50D
330
1
100
AcDbSymbolTableRecord
100
AcDbBlockTableRecord
  2
block 132
340
0
102
{BLKREFS
331
50E
102
}
  0
BLOCK_RECORD
  5
516
330
1
100
AcDbSymbolTableRecord
100
AcDbBlockTableRecord
  2
block 133
340
0
102
{BLKREFS
331
517
102
}
  0
BLOCK_RECORD
  5
524
330
1
100
AcDbSymbolTableRecord
100
AcDbBlockTableRecord
  2
block 134
340
0
102
{BLKREFS
331
525
102
}
  0
BLOCK_RECORD
  5
53C
330
1
100
AcDbSymbolTableRecord
100
AcDbBlockTableRecord
  2
block 135
340
0
102
{BLKREFS
331
53D
102
}
  0
BLOCK_RECORD
  5
554
330
1
100
AcDbSymbolTableRecord
100
AcDbBlockTableRecord
  2
block 136
340
0
102
{BLKREFS
331
555
102
}
  0
BLOCK_RECORD
  5
561
330
1
100
AcDbSymbolTableRecord
100
AcDbBlockTableRecord
  2
block 137
340
0
102
{BLKREFS
331
562
102
}
  0
BLOCK_RECORD
  5
57E
330
1
100
AcDbSymbolTableRecord
100
AcDbBlockTableRecord
  2
block 138
340
0
102
{BLKREFS
331
57F
102
}
  0
BLOCK_RECORD
  5
583
330
1
100
AcDbSymbolTableRecord
100
AcDbBlockTableRecord
  2
block 139
340
0
102
{BLKREFS
331
584
102
}
  0
BLOCK_RECORD
  5
58B
330
1
100
AcDbSymbolTableRecord
100
AcDbBlockTableRecord
  2
block 140
340
0
102
{BLKREFS
331
58C
102
}
  0
BLOCK_RECORD
  5
593
330
1
100
AcDbSymbolTableRecord
100
AcDbBlockTableRecord
  2
block 141
340
0
102
{BLKREFS
331
594
102
}
  0
BLOCK_RECORD
  5
598
330
1
100
AcDbSymbolTableRecord
100
AcDbBlockTableRecord
  2
block 142
340
0
102
{BLKREFS
331
599
102
}
  0
BLOCK_RECORD
  5
59D
330
1
100
AcDbSymbolTableRecord
100
AcDbBlockTableRecord
  2
block 143
340
0
102
{BLKREFS
331
59E
102
}
  0
BLOCK_RECORD
  5
5B3
330
1
100
AcDbSymbolTableRecord
100
AcDbBlockTableRecord
  2
block 144
340
0
102
{BLKREFS
331
5B4
102
}
  0
BLOCK_RECORD
  5
5B8
330
1
100
AcDbSymbolTableRecord
100
AcDbBlockTableRecord
  2
block 145
340
0
102
{BLKREFS
331
5B9
102
}
  0
BLOCK_RECORD
  5
5D5
330
1
100
AcDbSymbolTableRecord
100
AcDbBlockTableRecord
  2
block 146
340
0
102
{BLKREFS
331
5D6
102
}
  0
BLOCK_RECORD
  5
5E2
330
1
100
AcDbSymbolTableRecord
100
AcDbBlockTableRecord
  2
block 147
340
0
102
{BLKREFS
331
5E3
102
}
  0
BLOCK_RECORD
  5
5F9
330
1
100
AcDbSymbolTableRecord
100
AcDbBlockTableRecord
  2
block 148
340
0
102
{BLKREFS
331
5FA
102
}
  0
BLOCK_RECORD
  5
60F
330
1
100
AcDbSymbolTableRecord
100
AcDbBlockTableRecord
  2
block 149
340
0
102
{BLKREFS
331
610
102
}
  0
BLOCK_RECORD
  5
614
330
1
100
AcDbSymbolTableRecord
100
AcDbBlockTableRecord
  2
block 150
340
0
102
{BLKREFS
331
615
102
}
  0
BLOCK_RECORD
  5
631
330
1
100
AcDbSymbolTableRecord
100
AcDbBlockTableRecord
  2
block 151
340
0
102
{BLKREFS
331
632
102
}
  0
BLOCK_RECORD
  5
648
330
1
100
AcDbSymbolTableRecord
100
AcDbBlockTableRecord
  2
block 152
340
0
102
{BLKREFS
331
649
102
}
  0
BLOCK_RECORD
  5
655
330
1
100
AcDbSymbolTableRecord
100
AcDbBlockTableRecord
  2
block 153
340
0
102
{BLKREFS
331
656
102
}
  0
BLOCK_RECORD
  5
65E
330
1
100
AcDbSymbolTableRecord
100
AcDbBlockTableRecord
  2
block 154
340
0
102
{BLKREFS
331
65F
102
}
  0
BLOCK_RECORD
  5
666
330
1
100
AcDbSymbolTableRecord
100
AcDbBlockTableRecord
  2
block 155
340
0
102
{BLKREFS
331
667
102
}
  0
BLOCK_RECORD
  5
66E
330
1
100
AcDbSymbolTableRecord
100
AcDbBlockTableRecord
  2
block 156
340
0
102
{BLKREFS
331
66F
102
}
  0
BLOCK_RECORD
  5
673
330
1
100
AcDbSymbolTableRecord
100
AcDbBlockTableRecord
  2
block 157
340
0
102
{BLKREFS
331
674
102
}
  0
BLOCK_RECORD
  5
67B
330
1
100
AcDbSymbolTableRecord
100
AcDbBlockTableRecord
  2
block 158
340
0
102
{BLKREFS
331
67C
102
}
  0
BLOCK_RECORD
  5
683
330
1
100
AcDbSymbolTableRecord
100
AcDbBlockTableRecord
  2
block 159
340
0
102
{BLKREFS
331
684
102
}
  0
BLOCK_RECORD
  5
68B
330
1
100
AcDbSymbolTableRecord
100
AcDbBlockTableRecord
  2
block 160
340
0
102
{BLKREFS
331
68C
102
}
  0
BLOCK_RECORD
  5
693
330
1
100
AcDbSymbolTableRecord
100
AcDbBlockTableRecord
  2
block 161
340
0
102
{BLKREFS
331
694
102
}
  0
BLOCK_RECORD
  5
6A0
330
1
100
AcDbSymbolTableRecord
100
AcDbBlockTableRecord
  2
block 162
340
0
102
{BLKREFS
331
6A1
102
}
  0
BLOCK_RECORD
  5
6B3
330
1
100
AcDbSymbolTableRecord
100
AcDbBlockTableRecord
  2
block 163
340
0
102
{BLKREFS
331
6B4
102
}
  0
BLOCK_RECORD
  5
6B8
330
1
100
AcDbSymbolTableRecord
100
AcDbBlockTableRecord
  2
block 164
340
0
102
{BLKREFS
331
6B9
102
}
  0
BLOCK_RECORD
  5
6C8
330
1
100
AcDbSymbolTableRecord
100
AcDbBlockTableRecord
  2
block 165
340
0
102
{BLKREFS
331
6C9
102
}
  0
BLOCK_RECORD
  5
6CD
330
1
100
AcDbSymbolTableRecord
100
AcDbBlockTableRecord
  2
block 166
340
0
102
{BLKREFS
331
6CE
102
}
  0
BLOCK_RECORD
  5
6D5
330
1
100
AcDbSymbolTableRecord
100
AcDbBlockTableRecord
  2
block 167
340
0
102
{BLKREFS
331
6D6
102
}
  0
BLOCK_RECORD
  5
6DA
330
1
100
AcDbSymbolTableRecord
100
AcDbBlockTableRecord
  2
block 168
340
0
102
{BLKREFS
331
6DB
102
}
  0
BLOCK_RECORD
  5
6DF
330
1
100
AcDbSymbolTableRecord
100
AcDbBlockTableRecord
  2
block 169
340
0
102
{BLKREFS
331
6E0
102
}
  0
BLOCK_RECORD
  5
6E4
330
1
100
AcDbSymbolTableRecord
100
AcDbBlockTableRecord
  2
block 170
340
0
102
{BLKREFS
331
6E5
102
}
  0
BLOCK_RECORD
  5
6EC
330
1
100
AcDbSymbolTableRecord
100
AcDbBlockTableRecord
  2
block 171
340
0
102
{BLKREFS
331
6ED
102
}
  0
ENDTAB
  0
ENDSEC
  0
SECTION
  2
BLOCKS
  0
BLOCK
  5
20
330
1F
100
AcDbEntity
  8
0
100
AcDbBlockBegin
  2
*Model_Space
 70
     0
 71
     0
 10
0.0
 20
0.0
 30
0.0
  3
*Model_Space
  1

  0
ENDBLK
  5
21
330
1F
100
AcDbEntity
  8
0
100
AcDbBlockEnd
  0
BLOCK
  5
1C
330
1B
100
AcDbEntity
 67
     1
  8
0
100
AcDbBlockBegin
  2
*Paper_Space
 70
     0
 71
     0
 10
0.0
 20
0.0
 30
0.0
  3
*Paper_Space
  1

  0
ENDBLK
  5
1D
330
1B
100
AcDbEntity
 67
     1
  8
0
100
AcDbBlockEnd
  0
BLOCK
  5
24
330
23
100
AcDbEntity
  8
0
100
AcDbBlockBegin
  2
*Paper_Space0
 70
     0
 71
     0
 10
0.0
 20
0.0
 30
0.0
  3
*Paper_Space0
  1

  0
ENDBLK
  5
25
330
23
100
AcDbEntity
  8
0
100
AcDbBlockEnd
  0
BLOCK
  5
3F
330
3D
100
AcDbEntity
  8
0
100
AcDbBlockBegin
  2
block 2
 70
     0
 71
     0
 10
0.0
 20
0.0
 30
0.0
  3
block 2
  1

  0
INSERT
  5
42
330
3D
100
AcDbEntity
  8
\U+30EC\U+30A4\U+30E4\U+30FC 4
100
AcDbBlockReference
  2
block 3
 10
0.0
 20
0.0
 30
0.0
  0
INSERT
  5
4A
330
3D
100
AcDbEntity
  8
\U+30EC\U+30A4\U+30E4\U+30FC 4
100
AcDbBlockReference
  2
block 4
 10
0.0
 20
0.0
 30
0.0
  0
INSERT
  5
52
330
3D
100
AcDbEntity
  8
\U+30EC\U+30A4\U+30E4\U+30FC 4
100
AcDbBlockReference
  2
block 5
 10
0.0
 20
0.0
 30
0.0
  0
INSERT
  5
5A
330
3D
100
AcDbEntity
  8
\U+30EC\U+30A4\U+30E4\U+30FC 4
100
AcDbBlockReference
  2
block 6
 10
0.0
 20
0.0
 30
0.0
  0
INSERT
  5
62
330
3D
100
AcDbEntity
  8
\U+30EC\U+30A4\U+30E4\U+30FC 4
100
AcDbBlockReference
  2
block 7
 10
0.0
 20
0.0
 30
0.0
  0
INSERT
  5
6A
330
3D
100
AcDbEntity
  8
\U+30EC\U+30A4\U+30E4\U+30FC 4
100
AcDbBlockReference
  2
block 8
 10
0.0
 20
0.0
 30
0.0
  0
INSERT
  5
72
330
3D
100
AcDbEntity
  8
\U+30EC\U+30A4\U+30E4\U+30FC 4
100
AcDbBlockReference
  2
block 9
 10
0.0
 20
0.0
 30
0.0
  0
INSERT
  5
7A
330
3D
100
AcDbEntity
  8
\U+30EC\U+30A4\U+30E4\U+30FC 4
100
AcDbBlockReference
  2
block 10
 10
0.0
 20
0.0
 30
0.0
  0
INSERT
  5
82
330
3D
100
AcDbEntity
  8
\U+30EC\U+30A4\U+30E4\U+30FC 4
100
AcDbBlockReference
  2
block 11
 10
0.0
 20
0.0
 30
0.0
  0
INSERT
  5
8A
330
3D
100
AcDbEntity
  8
\U+30EC\U+30A4\U+30E4\U+30FC 4
100
AcDbBlockReference
  2
block 12
 10
0.0
 20
0.0
 30
0.0
  0
INSERT
  5
92
330
3D
100
AcDbEntity
  8
\U+30EC\U+30A4\U+30E4\U+30FC 4
100
AcDbBlockReference
  2
block 13
 10
0.0
 20
0.0
 30
0.0
  0
INSERT
  5
97
330
3D
100
AcDbEntity
  8
\U+30EC\U+30A4\U+30E4\U+30FC 4
100
AcDbBlockReference
  2
block 14
 10
0.0
 20
0.0
 30
0.0
  0
INSERT
  5
9F
330
3D
100
AcDbEntity
  8
\U+30EC\U+30A4\U+30E4\U+30FC 4
100
AcDbBlockReference
  2
block 15
 10
0.0
 20
0.0
 30
0.0
  0
INSERT
  5
A8
330
3D
100
AcDbEntity
  8
\U+30EC\U+30A4\U+30E4\U+30FC 4
100
AcDbBlockReference
  2
block 16
 10
0.0
 20
0.0
 30
0.0
  0
INSERT
  5
B0
330
3D
100
AcDbEntity
  8
\U+30EC\U+30A4\U+30E4\U+30FC 4
100
AcDbBlockReference
  2
block 17
 10
0.0
 20
0.0
 30
0.0
  0
INSERT
  5
B8
330
3D
100
AcDbEntity
  8
\U+30EC\U+30A4\U+30E4\U+30FC 4
100
AcDbBlockReference
  2
block 18
 10
0.0
 20
0.0
 30
0.0
  0
INSERT
  5
C0
330
3D
100
AcDbEntity
  8
\U+30EC\U+30A4\U+30E4\U+30FC 4
100
AcDbBlockReference
  2
block 19
 10
0.0
 20
0.0
 30
0.0
  0
INSERT
  5
C8
330
3D
100
AcDbEntity
  8
\U+30EC\U+30A4\U+30E4\U+30FC 4
100
AcDbBlockReference
  2
block 20
 10
0.0
 20
0.0
 30
0.0
  0
INSERT
  5
D0
330
3D
100
AcDbEntity
  8
\U+30EC\U+30A4\U+30E4\U+30FC 4
100
AcDbBlockReference
  2
block 21
 10
0.0
 20
0.0
 30
0.0
  0
INSERT
  5
D8
330
3D
100
AcDbEntity
  8
\U+30EC\U+30A4\U+30E4\U+30FC 4
100
AcDbBlockReference
  2
block 22
 10
0.0
 20
0.0
 30
0.0
  0
INSERT
  5
E0
330
3D
100
AcDbEntity
  8
\U+30EC\U+30A4\U+30E4\U+30FC 4
100
AcDbBlockReference
  2
block 23
 10
0.0
 20
0.0
 30
0.0
  0
INSERT
  5
E5
330
3D
100
AcDbEntity
  8
\U+30EC\U+30A4\U+30E4\U+30FC 4
100
AcDbBlockReference
  2
block 24
 10
0.0
 20
0.0
 30
0.0
  0
INSERT
  5
ED
330
3D
100
AcDbEntity
  8
\U+30EC\U+30A4\U+30E4\U+30FC 4
100
AcDbBlockReference
  2
block 25
 10
0.0
 20
0.0
 30
0.0
  0
INSERT
  5
F5
330
3D
100
AcDbEntity
  8
\U+30EC\U+30A4\U+30E4\U+30FC 4
100
AcDbBlockReference
  2
block 26
 10
0.0
 20
0.0
 30
0.0
  0
INSERT
  5
FA
330
3D
100
AcDbEntity
  8
\U+30EC\U+30A4\U+30E4\U+30FC 4
100
AcDbBlockReference
  2
block 27
 10
0.0
 20
0.0
 30
0.0
  0
INSERT
  5
102
330
3D
100
AcDbEntity
  8
\U+30EC\U+30A4\U+30E4\U+30FC 4
100
AcDbBlockReference
  2
block 28
 10
0.0
 20
0.0
 30
0.0
  0
INSERT
  5
107
330
3D
100
AcDbEntity
  8
\U+30EC\U+30A4\U+30E4\U+30FC 4
100
AcDbBlockReference
  2
block 29
 10
0.0
 20
0.0
 30
0.0
  0
INSERT
  5
10F
330
3D
100
AcDbEntity
  8
\U+30EC\U+30A4\U+30E4\U+30FC 4
100
AcDbBlockReference
  2
block 30
 10
0.0
 20
0.0
 30
0.0
  0
INSERT
  5
117
330
3D
100
AcDbEntity
  8
\U+30EC\U+30A4\U+30E4\U+30FC 4
100
AcDbBlockReference
  2
block 31
 10
0.0
 20
0.0
 30
0.0
  0
INSERT
  5
11F
330
3D
100
AcDbEntity
  8
\U+30EC\U+30A4\U+30E4\U+30FC 4
100
AcDbBlockReference
  2
block 32
 10
0.0
 20
0.0
 30
0.0
  0
INSERT
  5
127
330
3D
100
AcDbEntity
  8
\U+30EC\U+30A4\U+30E4\U+30FC 4
100
AcDbBlockReference
  2
block 33
 10
0.0
 20
0.0
 30
0.0
  0
INSERT
  5
12F
330
3D
100
AcDbEntity
  8
\U+30EC\U+30A4\U+30E4\U+30FC 4
100
AcDbBlockReference
  2
block 34
 10
0.0
 20
0.0
 30
0.0
  0
INSERT
  5
137
330
3D
100
AcDbEntity
  8
\U+30EC\U+30A4\U+30E4\U+30FC 4
100
AcDbBlockReference
  2
block 35
 10
0.0
 20
0.0
 30
0.0
  0
INSERT
  5
144
330
3D
100
AcDbEntity
  8
\U+30EC\U+30A4\U+30E4\U+30FC 4
100
AcDbBlockReference
  2
block 36
 10
0.0
 20
0.0
 30
0.0
  0
INSERT
  5
14C
330
3D
100
AcDbEntity
  8
\U+30EC\U+30A4\U+30E4\U+30FC 4
100
AcDbBlockReference
  2
block 37
 10
0.0
 20
0.0
 30
0.0
  0
INSERT
  5
154
330
3D
100
AcDbEntity
  8
\U+30EC\U+30A4\U+30E4\U+30FC 4
100
AcDbBlockReference
  2
block 38
 10
0.0
 20
0.0
 30
0.0
  0
INSERT
  5
161
330
3D
100
AcDbEntity
  8
\U+30EC\U+30A4\U+30E4\U+30FC 4
100
AcDbBlockReference
  2
block 39
 10
0.0
 20
0.0
 30
0.0
  0
INSERT
  5
169
330
3D
100
AcDbEntity
  8
\U+30EC\U+30A4\U+30E4\U+30FC 4
100
AcDbBlockReference
  2
block 40
 10
0.0
 20
0.0
 30
0.0
  0
INSERT
  5
180
330
3D
100
AcDbEntity
  8
\U+30EC\U+30A4\U+30E4\U+30FC 4
100
AcDbBlockReference
  2
block 41
 10
0.0
 20
0.0
 30
0.0
  0
INSERT
  5
188
330
3D
100
AcDbEntity
  8
\U+30EC\U+30A4\U+30E4\U+30FC 4
100
AcDbBlockReference
  2
block 42
 10
0.0
 20
0.0
 30
0.0
  0
INSERT
  5
19F
330
3D
100
AcDbEntity
  8
\U+30EC\U+30A4\U+30E4\U+30FC 4
100
AcDbBlockReference
  2
block 43
 10
0.0
 20
0.0
 30
0.0
  0
INSERT
  5
1B8
330
3D
100
AcDbEntity
  8
\U+30EC\U+30A4\U+30E4\U+30FC 4
100
AcDbBlockReference
  2
block 44
 10
0.0
 20
0.0
 30
0.0
  0
INSERT
  5
1D5
330
3D
100
AcDbEntity
  8
\U+30EC\U+30A4\U+30E4\U+30FC 4
100
AcDbBlockReference
  2
block 45
 10
0.0
 20
0.0
 30
0.0
  0
INSERT
  5
1F2
330
3D
100
AcDbEntity
  8
\U+30EC\U+30A4\U+30E4\U+30FC 4
100
AcDbBlockReference
  2
block 46
 10
0.0
 20
0.0
 30
0.0
  0
INSERT
  5
20B
330
3D
100
AcDbEntity
  8
\U+30EC\U+30A4\U+30E4\U+30FC 4
100
AcDbBlockReference
  2
block 47
 10
0.0
 20
0.0
 30
0.0
  0
INSERT
  5
219
330
3D
100
AcDbEntity
  8
\U+30EC\U+30A4\U+30E4\U+30FC 4
100
AcDbBlockReference
  2
block 48
 10
0.0
 20
0.0
 30
0.0
  0
INSERT
  5
238
330
3D
100
AcDbEntity
  8
\U+30EC\U+30A4\U+30E4\U+30FC 4
100
AcDbBlockReference
  2
block 49
 10
0.0
 20
0.0
 30
0.0
  0
INSERT
  5
255
330
3D
100
AcDbEntity
  8
\U+30EC\U+30A4\U+30E4\U+30FC 4
100
AcDbBlockReference
  2
block 50
 10
0.0
 20
0.0
 30
0.0
  0
INSERT
  5
271
330
3D
100
AcDbEntity
  8
\U+30EC\U+30A4\U+30E4\U+30FC 4
100
AcDbBlockReference
  2
block 51
 10
0.0
 20
0.0
 30
0.0
  0
INSERT
  5
27E
330
3D
100
AcDbEntity
  8
\U+30EC\U+30A4\U+30E4\U+30FC 4
100
AcDbBlockReference
  2
block 52
 10
0.0
 20
0.0
 30
0.0
  0
INSERT
  5
295
330
3D
100
AcDbEntity
  8
\U+30EC\U+30A4\U+30E4\U+30FC 4
100
AcDbBlockReference
  2
block 53
 10
0.0
 20
0.0
 30
0.0
  0
INSERT
  5
29A
330
3D
100
AcDbEntity
  8
\U+30EC\U+30A4\U+30E4\U+30FC 4
100
AcDbBlockReference
  2
block 54
 10
0.0
 20
0.0
 30
0.0
  0
INSERT
  5
2A2
330
3D
100
AcDbEntity
  8
\U+30EC\U+30A4\U+30E4\U+30FC 4
100
AcDbBlockReference
  2
block 55
 10
0.0
 20
0.0
 30
0.0
  0
INSERT
  5
2A7
330
3D
100
AcDbEntity
  8
\U+30EC\U+30A4\U+30E4\U+30FC 4
100
AcDbBlockReference
  2
block 56
 10
0.0
 20
0.0
 30
0.0
  0
INSERT
  5
2AF
330
3D
100
AcDbEntity
  8
\U+30EC\U+30A4\U+30E4\U+30FC 4
100
AcDbBlockReference
  2
block 57
 10
0.0
 20
0.0
 30
0.0
  0
INSERT
  5
2B4
330
3D
100
AcDbEntity
  8
\U+30EC\U+30A4\U+30E4\U+30FC 4
100
AcDbBlockReference
  2
block 58
 10
0.0
 20
0.0
 30
0.0
  0
INSERT
  5
2B9
330
3D
100
AcDbEntity
  8
\U+30EC\U+30A4\U+30E4\U+30FC 4
100
AcDbBlockReference
  2
block 59
 10
0.0
 20
0.0
 30
0.0
  0
INSERT
  5
2C5
330
3D
100
AcDbEntity
  8
\U+30EC\U+30A4\U+30E4\U+30FC 4
100
AcDbBlockReference
  2
block 60
 10
0.0
 20
0.0
 30
0.0
  0
INSERT
  5
2CD
330
3D
100
AcDbEntity
  8
\U+30EC\U+30A4\U+30E4\U+30FC 4
100
AcDbBlockReference
  2
block 61
 10
0.0
 20
0.0
 30
0.0
  0
INSERT
  5
2D2
330
3D
100
AcDbEntity
  8
\U+30EC\U+30A4\U+30E4\U+30FC 4
100
AcDbBlockReference
  2
block 62
 10
0.0
 20
0.0
 30
0.0
  0
INSERT
  5
2DA
330
3D
100
AcDbEntity
  8
\U+30EC\U+30A4\U+30E4\U+30FC 4
100
AcDbBlockReference
  2
block 63
 10
0.0
 20
0.0
 30
0.0
  0
INSERT
  5
2DF
330
3D
100
AcDbEntity
  8
\U+30EC\U+30A4\U+30E4\U+30FC 4
100
AcDbBlockReference
  2
block 64
 10
0.0
 20
0.0
 30
0.0
  0
INSERT
  5
2E7
330
3D
100
AcDbEntity
  8
\U+30EC\U+30A4\U+30E4\U+30FC 4
100
AcDbBlockReference
  2
block 65
 10
0.0
 20
0.0
 30
0.0
  0
INSERT
  5
2EF
330
3D
100
AcDbEntity
  8
\U+30EC\U+30A4\U+30E4\U+30FC 4
100
AcDbBlockReference
  2
block 66
 10
0.0
 20
0.0
 30
0.0
  0
INSERT
  5
2F7
330
3D
100
AcDbEntity
  8
\U+30EC\U+30A4\U+30E4\U+30FC 4
100
AcDbBlockReference
  2
block 67
 10
0.0
 20
0.0
 30
0.0
  0
INSERT
  5
2FC
330
3D
100
AcDbEntity
  8
\U+30EC\U+30A4\U+30E4\U+30FC 4
100
AcDbBlockReference
  2
block 68
 10
0.0
 20
0.0
 30
0.0
  0
INSERT
  5
304
330
3D
100
AcDbEntity
  8
\U+30EC\U+30A4\U+30E4\U+30FC 4
100
AcDbBlockReference
  2
block 69
 10
0.0
 20
0.0
 30
0.0
  0
INSERT
  5
309
330
3D
100
AcDbEntity
  8
\U+30EC\U+30A4\U+30E4\U+30FC 4
100
AcDbBlockReference
  2
block 70
 10
0.0
 20
0.0
 30
0.0
  0
INSERT
  5
334
330
3D
100
AcDbEntity
  8
\U+30EC\U+30A4\U+30E4\U+30FC 4
100
AcDbBlockReference
  2
block 71
 10
0.0
 20
0.0
 30
0.0
  0
INSERT
  5
33D
330
3D
100
AcDbEntity
  8
\U+30EC\U+30A4\U+30E4\U+30FC 4
100
AcDbBlockReference
  2
block 72
 10
0.0
 20
0.0
 30
0.0
  0
INSERT
  5
345
330
3D
100
AcDbEntity
  8
\U+30EC\U+30A4\U+30E4\U+30FC 4
100
AcDbBlockReference
  2
block 73
 10
0.0
 20
0.0
 30
0.0
  0
INSERT
  5
36C
330
3D
100
AcDbEntity
  8
\U+30EC\U+30A4\U+30E4\U+30FC 4
100
AcDbBlockReference
  2
block 74
 10
0.0
 20
0.0
 30
0.0
  0
INSERT
  5
379
330
3D
100
AcDbEntity
  8
\U+30EC\U+30A4\U+30E4\U+30FC 4
100
AcDbBlockReference
  2
block 75
 10
0.0
 20
0.0
 30
0.0
  0
INSERT
  5
390
330
3D
100
AcDbEntity
  8
\U+30EC\U+30A4\U+30E4\U+30FC 4
100
AcDbBlockReference
  2
block 76
 10
0.0
 20
0.0
 30
0.0
  0
INSERT
  5
398
330
3D
100
AcDbEntity
  8
\U+30EC\U+30A4\U+30E4\U+30FC 4
100
AcDbBlockReference
  2
block 77
 10
0.0
 20
0.0
 30
0.0
  0
INSERT
  5
39D
330
3D
100
AcDbEntity
  8
\U+30EC\U+30A4\U+30E4\U+30FC 4
100
AcDbBlockReference
  2
block 78
 10
0.0
 20
0.0
 30
0.0
  0
INSERT
  5
3A2
330
3D
100
AcDbEntity
  8
\U+30EC\U+30A4\U+30E4\U+30FC 4
100
AcDbBlockReference
  2
block 79
 10
0.0
 20
0.0
 30
0.0
  0
INSERT
  5
3A7
330
3D
100
AcDbEntity
  8
\U+30EC\U+30A4\U+30E4\U+30FC 4
100
AcDbBlockReference
  2
block 80
 10
0.0
 20
0.0
 30
0.0
  0
INSERT
  5
3AC
330
3D
100
AcDbEntity
  8
\U+30EC\U+30A4\U+30E4\U+30FC 4
100
AcDbBlockReference
  2
block 81
 10
0.0
 20
0.0
 30
0.0
  0
INSERT
  5
3B4
330
3D
100
AcDbEntity
  8
\U+30EC\U+30A4\U+30E4\U+30FC 4
100
AcDbBlockReference
  2
block 82
 10
0.0
 20
0.0
 30
0.0
  0
INSERT
  5
3B9
330
3D
100
AcDbEntity
  8
\U+30EC\U+30A4\U+30E4\U+30FC 4
100
AcDbBlockReference
  2
block 83
 10
0.0
 20
0.0
 30
0.0
  0
INSERT
  5
3C1
330
3D
100
AcDbEntity
  8
\U+30EC\U+30A4\U+30E4\U+30FC 4
100
AcDbBlockReference
  2
block 84
 10
0.0
 20
0.0
 30
0.0
  0
INSERT
  5
3C9
330
3D
100
AcDbEntity
  8
\U+30EC\U+30A4\U+30E4\U+30FC 4
100
AcDbBlockReference
  2
block 85
 10
0.0
 20
0.0
 30
0.0
  0
INSERT
  5
3CE
330
3D
100
AcDbEntity
  8
\U+30EC\U+30A4\U+30E4\U+30FC 4
100
AcDbBlockReference
  2
block 86
 10
0.0
 20
0.0
 30
0.0
  0
INSERT
  5
3D6
330
3D
100
AcDbEntity
  8
\U+30EC\U+30A4\U+30E4\U+30FC 4
100
AcDbBlockReference
  2
block 87
 10
0.0
 20
0.0
 30
0.0
  0
INSERT
  5
3DB
330
3D
100
AcDbEntity
  8
\U+30EC\U+30A4\U+30E4\U+30FC 4
100
AcDbBlockReference
  2
block 88
 10
0.0
 20
0.0
 30
0.0
  0
INSERT
  5
3E3
330
3D
100
AcDbEntity
  8
\U+30EC\U+30A4\U+30E4\U+30FC 4
100
AcDbBlockReference
  2
block 89
 10
0.0
 20
0.0
 30
0.0
  0
INSERT
  5
3EB
330
3D
100
AcDbEntity
  8
\U+30EC\U+30A4\U+30E4\U+30FC 4
100
AcDbBlockReference
  2
block 90
 10
0.0
 20
0.0
 30
0.0
  0
INSERT
  5
3F0
330
3D
100
AcDbEntity
  8
\U+30EC\U+30A4\U+30E4\U+30FC 4
100
AcDbBlockReference
  2
block 91
 10
0.0
 20
0.0
 30
0.0
  0
INSERT
  5
3F8
330
3D
100
AcDbEntity
  8
\U+30EC\U+30A4\U+30E4\U+30FC 4
100
AcDbBlockReference
  2
block 92
 10
0.0
 20
0.0
 30
0.0
  0
INSERT
  5
400
330
3D
100
AcDbEntity
  8
\U+30EC\U+30A4\U+30E4\U+30FC 4
100
AcDbBlockReference
  2
block 93
 10
0.0
 20
0.0
 30
0.0
  0
INSERT
  5
405
330
3D
100
AcDbEntity
  8
\U+30EC\U+30A4\U+30E4\U+30FC 4
100
AcDbBlockReference
  2
block 94
 10
0.0
 20
0.0
 30
0.0
  0
INSERT
  5
40D
330
3D
100
AcDbEntity
  8
\U+30EC\U+30A4\U+30E4\U+30FC 4
100
AcDbBlockReference
  2
block 95
 10
0.0
 20
0.0
 30
0.0
  0
INSERT
  5
415
330
3D
100
AcDbEntity
  8
\U+30EC\U+30A4\U+30E4\U+30FC 4
100
AcDbBlockReference
  2
block 96
 10
0.0
 20
0.0
 30
0.0
  0
INSERT
  5
41A
330
3D
100
AcDbEntity
  8
\U+30EC\U+30A4\U+30E4\U+30FC 4
100
AcDbBlockReference
  2
block 97
 10
0.0
 20
0.0
 30
0.0
  0
INSERT
  5
422
330
3D
100
AcDbEntity
  8
\U+30EC\U+30A4\U+30E4\U+30FC 4
100
AcDbBlockReference
  2
block 98
 10
0.0
 20
0.0
 30
0.0
  0
INSERT
  5
42A
330
3D
100
AcDbEntity
  8
\U+30EC\U+30A4\U+30E4\U+30FC 4
100
AcDbBlockReference
  2
block 99
 10
0.0
 20
0.0
 30
0.0
  0
INSERT
  5
42F
330
3D
100
AcDbEntity
  8
\U+30EC\U+30A4\U+30E4\U+30FC 4
100
AcDbBlockReference
  2
block 100
 10
0.0
 20
0.0
 30
0.0
  0
INSERT
  5
434
330
3D
100
AcDbEntity
  8
\U+30EC\U+30A4\U+30E4\U+30FC 4
100
AcDbBlockReference
  2
block 101
 10
0.0
 20
0.0
 30
0.0
  0
INSERT
  5
43C
330
3D
100
AcDbEntity
  8
\U+30EC\U+30A4\U+30E4\U+30FC 4
100
AcDbBlockReference
  2
block 102
 10
0.0
 20
0.0
 30
0.0
  0
INSERT
  5
444
330
3D
100
AcDbEntity
  8
\U+30EC\U+30A4\U+30E4\U+30FC 4
100
AcDbBlockReference
  2
block 103
 10
0.0
 20
0.0
 30
0.0
  0
INSERT
  5
449
330
3D
100
AcDbEntity
  8
\U+30EC\U+30A4\U+30E4\U+30FC 4
100
AcDbBlockReference
  2
block 104
 10
0.0
 20
0.0
 30
0.0
  0
INSERT
  5
44E
330
3D
100
AcDbEntity
  8
\U+30EC\U+30A4\U+30E4\U+30FC 4
100
AcDbBlockReference
  2
block 105
 10
0.0
 20
0.0
 30
0.0
  0
INSERT
  5
457
330
3D
100
AcDbEntity
  8
\U+30EC\U+30A4\U+30E4\U+30FC 4
100
AcDbBlockReference
  2
block 106
 10
0.0
 20
0.0
 30
0.0
  0
INSERT
  5
45F
330
3D
100
AcDbEntity
  8
\U+30EC\U+30A4\U+30E4\U+30FC 4
100
AcDbBlockReference
  2
block 107
 10
0.0
 20
0.0
 30
0.0
  0
INSERT
  5
464
330
3D
100
AcDbEntity
  8
\U+30EC\U+30A4\U+30E4\U+30FC 4
100
AcDbBlockReference
  2
block 108
 10
0.0
 20
0.0
 30
0.0
  0
INSERT
  5
46C
330
3D
100
AcDbEntity
  8
\U+30EC\U+30A4\U+30E4\U+30FC 4
100
AcDbBlockReference
  2
block 109
 10
0.0
 20
0.0
 30
0.0
  0
INSERT
  5
471
330
3D
100
AcDbEntity
  8
\U+30EC\U+30A4\U+30E4\U+30FC 4
100
AcDbBlockReference
  2
block 110
 10
0.0
 20
0.0
 30
0.0
  0
INSERT
  5
479
330
3D
100
AcDbEntity
  8
\U+30EC\U+30A4\U+30E4\U+30FC 4
100
AcDbBlockReference
  2
block 111
 10
0.0
 20
0.0
 30
0.0
  0
INSERT
  5
47E
330
3D
100
AcDbEntity
  8
\U+30EC\U+30A4\U+30E4\U+30FC 4
100
AcDbBlockReference
  2
block 112
 10
0.0
 20
0.0
 30
0.0
  0
INSERT
  5
486
330
3D
100
AcDbEntity
  8
\U+30EC\U+30A4\U+30E4\U+30FC 4
100
AcDbBlockReference
  2
block 113
 10
0.0
 20
0.0
 30
0.0
  0
INSERT
  5
48B
330
3D
100
AcDbEntity
  8
\U+30EC\U+30A4\U+30E4\U+30FC 4
100
AcDbBlockReference
  2
block 114
 10
0.0
 20
0.0
 30
0.0
  0
INSERT
  5
493
330
3D
100
AcDbEntity
  8
\U+30EC\U+30A4\U+30E4\U+30FC 4
100
AcDbBlockReference
  2
block 115
 10
0.0
 20
0.0
 30
0.0
  0
INSERT
  5
498
330
3D
100
AcDbEntity
  8
\U+30EC\U+30A4\U+30E4\U+30FC 4
100
AcDbBlockReference
  2
block 116
 10
0.0
 20
0.0
 30
0.0
  0
INSERT
  5
49D
330
3D
100
AcDbEntity
  8
\U+30EC\U+30A4\U+30E4\U+30FC 4
100
AcDbBlockReference
  2
block 117
 10
0.0
 20
0.0
 30
0.0
  0
INSERT
  5
4A5
330
3D
100
AcDbEntity
  8
\U+30EC\U+30A4\U+30E4\U+30FC 4
100
AcDbBlockReference
  2
block 118
 10
0.0
 20
0.0
 30
0.0
  0
INSERT
  5
4AA
330
3D
100
AcDbEntity
  8
\U+30EC\U+30A4\U+30E4\U+30FC 4
100
AcDbBlockReference
  2
block 119
 10
0.0
 20
0.0
 30
0.0
  0
INSERT
  5
4B2
330
3D
100
AcDbEntity
  8
\U+30EC\U+30A4\U+30E4\U+30FC 4
100
AcDbBlockReference
  2
block 120
 10
0.0
 20
0.0
 30
0.0
  0
INSERT
  5
4BD
330
3D
100
AcDbEntity
  8
\U+30EC\U+30A4\U+30E4\U+30FC 4
100
AcDbBlockReference
  2
block 121
 10
0.0
 20
0.0
 30
0.0
  0
INSERT
  5
4C5
330
3D
100
AcDbEntity
  8
\U+30EC\U+30A4\U+30E4\U+30FC 4
100
AcDbBlockReference
  2
block 122
 10
0.0
 20
0.0
 30
0.0
  0
INSERT
  5
4CA
330
3D
100
AcDbEntity
  8
\U+30EC\U+30A4\U+30E4\U+30FC 4
100
AcDbBlockReference
  2
block 123
 10
0.0
 20
0.0
 30
0.0
  0
INSERT
  5
4D3
330
3D
100
AcDbEntity
  8
\U+30EC\U+30A4\U+30E4\U+30FC 4
100
AcDbBlockReference
  2
block 124
 10
0.0
 20
0.0
 30
0.0
  0
INSERT
  5
4DB
330
3D
100
AcDbEntity
  8
\U+30EC\U+30A4\U+30E4\U+30FC 4
100
AcDbBlockReference
  2
block 125
 10
0.0
 20
0.0
 30
0.0
  0
INSERT
  5
4E0
330
3D
100
AcDbEntity
  8
\U+30EC\U+30A4\U+30E4\U+30FC 4
100
AcDbBlockReference
  2
block 126
 10
0.0
 20
0.0
 30
0.0
  0
INSERT
  5
4E8
330
3D
100
AcDbEntity
  8
\U+30EC\U+30A4\U+30E4\U+30FC 4
100
AcDbBlockReference
  2
block 127
 10
0.0
 20
0.0
 30
0.0
  0
INSERT
  5
4F0
330
3D
100
AcDbEntity
  8
\U+30EC\U+30A4\U+30E4\U+30FC 4
100
AcDbBlockReference
  2
block 128
 10
0.0
 20
0.0
 30
0.0
  0
INSERT
  5
4F5
330
3D
100
AcDbEntity
  8
\U+30EC\U+30A4\U+30E4\U+30FC 4
100
AcDbBlockReference
  2
block 129
 10
0.0
 20
0.0
 30
0.0
  0
INSERT
  5
4FD
330
3D
100
AcDbEntity
  8
\U+30EC\U+30A4\U+30E4\U+30FC 4
100
AcDbBlockReference
  2
block 130
 10
0.0
 20
0.0
 30
0.0
  0
INSERT
  5
509
330
3D
100
AcDbEntity
  8
\U+30EC\U+30A4\U+30E4\U+30FC 4
100
AcDbBlockReference
  2
block 131
 10
0.0
 20
0.0
 30
0.0
  0
INSERT
  5
50E
330
3D
100
AcDbEntity
  8
\U+30EC\U+30A4\U+30E4\U+30FC 4
100
AcDbBlockReference
  2
block 132
 10
0.0
 20
0.0
 30
0.0
  0
INSERT
  5
517
330
3D
100
AcDbEntity
  8
\U+30EC\U+30A4\U+30E4\U+30FC 4
100
AcDbBlockReference
  2
block 133
 10
0.0
 20
0.0
 30
0.0
  0
INSERT
  5
525
330
3D
100
AcDbEntity
  8
\U+30EC\U+30A4\U+30E4\U+30FC 4
100
AcDbBlockReference
  2
block 134
 10
0.0
 20
0.0
 30
0.0
  0
INSERT
  5
53D
330
3D
100
AcDbEntity
  8
\U+30EC\U+30A4\U+30E4\U+30FC 4
100
AcDbBlockReference
  2
block 135
 10
0.0
 20
0.0
 30
0.0
  0
INSERT
  5
555
330
3D
100
AcDbEntity
  8
\U+30EC\U+30A4\U+30E4\U+30FC 4
100
AcDbBlockReference
  2
block 136
 10
0.0
 20
0.0
 30
0.0
  0
INSERT
  5
562
330
3D
100
AcDbEntity
  8
\U+30EC\U+30A4\U+30E4\U+30FC 4
100
AcDbBlockReference
  2
block 137
 10
0.0
 20
0.0
 30
0.0
  0
INSERT
  5
57F
330
3D
100
AcDbEntity
  8
\U+30EC\U+30A4\U+30E4\U+30FC 4
100
AcDbBlockReference
  2
block 138
 10
0.0
 20
0.0
 30
0.0
  0
INSERT
  5
584
330
3D
100
AcDbEntity
  8
\U+30EC\U+30A4\U+30E4\U+30FC 4
100
AcDbBlockReference
  2
block 139
 10
0.0
 20
0.0
 30
0.0
  0
INSERT
  5
58C
330
3D
100
AcDbEntity
  8
\U+30EC\U+30A4\U+30E4\U+30FC 4
100
AcDbBlockReference
  2
block 140
 10
0.0
 20
0.0
 30
0.0
  0
INSERT
  5
594
330
3D
100
AcDbEntity
  8
\U+30EC\U+30A4\U+30E4\U+30FC 4
100
AcDbBlockReference
  2
block 141
 10
0.0
 20
0.0
 30
0.0
  0
INSERT
  5
599
330
3D
100
AcDbEntity
  8
\U+30EC\U+30A4\U+30E4\U+30FC 4
100
AcDbBlockReference
  2
block 142
 10
0.0
 20
0.0
 30
0.0
  0
INSERT
  5
59E
330
3D
100
AcDbEntity
  8
\U+30EC\U+30A4\U+30E4\U+30FC 4
100
AcDbBlockReference
  2
block 143
 10
0.0
 20
0.0
 30
0.0
  0
INSERT
  5
5B4
330
3D
100
AcDbEntity
  8
\U+30EC\U+30A4\U+30E4\U+30FC 4
100
AcDbBlockReference
  2
block 144
 10
0.0
 20
0.0
 30
0.0
  0
INSERT
  5
5B9
330
3D
100
AcDbEntity
  8
\U+30EC\U+30A4\U+30E4\U+30FC 4
100
AcDbBlockReference
  2
block 145
 10
0.0
 20
0.0
 30
0.0
  0
INSERT
  5
5D6
330
3D
100
AcDbEntity
  8
\U+30EC\U+30A4\U+30E4\U+30FC 4
100
AcDbBlockReference
  2
block 146
 10
0.0
 20
0.0
 30
0.0
  0
INSERT
  5
5E3
330
3D
100
AcDbEntity
  8
\U+30EC\U+30A4\U+30E4\U+30FC 4
100
AcDbBlockReference
  2
block 147
 10
0.0
 20
0.0
 30
0.0
  0
INSERT
  5
5FA
330
3D
100
AcDbEntity
  8
\U+30EC\U+30A4\U+30E4\U+30FC 4
100
AcDbBlockReference
  2
block 148
 10
0.0
 20
0.0
 30
0.0
  0
INSERT
  5
610
330
3D
100
AcDbEntity
  8
\U+30EC\U+30A4\U+30E4\U+30FC 4
100
AcDbBlockReference
  2
block 149
 10
0.0
 20
0.0
 30
0.0
  0
INSERT
  5
615
330
3D
100
AcDbEntity
  8
\U+30EC\U+30A4\U+30E4\U+30FC 4
100
AcDbBlockReference
  2
block 150
 10
0.0
 20
0.0
 30
0.0
  0
INSERT
  5
632
330
3D
100
AcDbEntity
  8
\U+30EC\U+30A4\U+30E4\U+30FC 4
100
AcDbBlockReference
  2
block 151
 10
0.0
 20
0.0
 30
0.0
  0
INSERT
  5
649
330
3D
100
AcDbEntity
  8
\U+30EC\U+30A4\U+30E4\U+30FC 4
100
AcDbBlockReference
  2
block 152
 10
0.0
 20
0.0
 30
0.0
  0
INSERT
  5
656
330
3D
100
AcDbEntity
  8
\U+30EC\U+30A4\U+30E4\U+30FC 4
100
AcDbBlockReference
  2
block 153
 10
0.0
 20
0.0
 30
0.0
  0
INSERT
  5
65F
330
3D
100
AcDbEntity
  8
\U+30EC\U+30A4\U+30E4\U+30FC 4
100
AcDbBlockReference
  2
block 154
 10
0.0
 20
0.0
 30
0.0
  0
INSERT
  5
667
330
3D
100
AcDbEntity
  8
\U+30EC\U+30A4\U+30E4\U+30FC 4
100
AcDbBlockReference
  2
block 155
 10
0.0
 20
0.0
 30
0.0
  0
INSERT
  5
66F
330
3D
100
AcDbEntity
  8
\U+30EC\U+30A4\U+30E4\U+30FC 4
100
AcDbBlockReference
  2
block 156
 10
0.0
 20
0.0
 30
0.0
  0
INSERT
  5
674
330
3D
100
AcDbEntity
  8
\U+30EC\U+30A4\U+30E4\U+30FC 4
100
AcDbBlockReference
  2
block 157
 10
0.0
 20
0.0
 30
0.0
  0
INSERT
  5
67C
330
3D
100
AcDbEntity
  8
\U+30EC\U+30A4\U+30E4\U+30FC 4
100
AcDbBlockReference
  2
block 158
 10
0.0
 20
0.0
 30
0.0
  0
INSERT
  5
684
330
3D
100
AcDbEntity
  8
\U+30EC\U+30A4\U+30E4\U+30FC 4
100
AcDbBlockReference
  2
block 159
 10
0.0
 20
0.0
 30
0.0
  0
INSERT
  5
68C
330
3D
100
AcDbEntity
  8
\U+30EC\U+30A4\U+30E4\U+30FC 4
100
AcDbBlockReference
  2
block 160
 10
0.0
 20
0.0
 30
0.0
  0
INSERT
  5
694
330
3D
100
AcDbEntity
  8
\U+30EC\U+30A4\U+30E4\U+30FC 4
100
AcDbBlockReference
  2
block 161
 10
0.0
 20
0.0
 30
0.0
  0
INSERT
  5
6A1
330
3D
100
AcDbEntity
  8
\U+30EC\U+30A4\U+30E4\U+30FC 4
100
AcDbBlockReference
  2
block 162
 10
0.0
 20
0.0
 30
0.0
  0
INSERT
  5
6B4
330
3D
100
AcDbEntity
  8
\U+30EC\U+30A4\U+30E4\U+30FC 4
100
AcDbBlockReference
  2
block 163
 10
0.0
 20
0.0
 30
0.0
  0
INSERT
  5
6B9
330
3D
100
AcDbEntity
  8
\U+30EC\U+30A4\U+30E4\U+30FC 4
100
AcDbBlockReference
  2
block 164
 10
0.0
 20
0.0
 30
0.0
  0
INSERT
  5
6C9
330
3D
100
AcDbEntity
  8
\U+30EC\U+30A4\U+30E4\U+30FC 4
100
AcDbBlockReference
  2
block 165
 10
0.0
 20
0.0
 30
0.0
  0
INSERT
  5
6CE
330
3D
100
AcDbEntity
  8
\U+30EC\U+30A4\U+30E4\U+30FC 4
100
AcDbBlockReference
  2
block 166
 10
0.0
 20
0.0
 30
0.0
  0
INSERT
  5
6D6
330
3D
100
AcDbEntity
  8
\U+30EC\U+30A4\U+30E4\U+30FC 4
100
AcDbBlockReference
  2
block 167
 10
0.0
 20
0.0
 30
0.0
  0
INSERT
  5
6DB
330
3D
100
AcDbEntity
  8
\U+30EC\U+30A4\U+30E4\U+30FC 4
100
AcDbBlockReference
  2
block 168
 10
0.0
 20
0.0
 30
0.0
  0
INSERT
  5
6E0
330
3D
100
AcDbEntity
  8
\U+30EC\U+30A4\U+30E4\U+30FC 4
100
AcDbBlockReference
  2
block 169
 10
0.0
 20
0.0
 30
0.0
  0
INSERT
  5
6E5
330
3D
100
AcDbEntity
  8
\U+30EC\U+30A4\U+30E4\U+30FC 4
100
AcDbBlockReference
  2
block 170
 10
0.0
 20
0.0
 30
0.0
  0
INSERT
  5
6ED
330
3D
100
AcDbEntity
  8
\U+30EC\U+30A4\U+30E4\U+30FC 4
100
AcDbBlockReference
  2
block 171
 10
0.0
 20
0.0
 30
0.0
  0
ENDBLK
  5
40
330
3D
100
AcDbEntity
  8
0
100
AcDbBlockEnd
  0
BLOCK
  5
43
330
41
100
AcDbEntity
  8
0
100
AcDbBlockBegin
  2
block 3
 70
     0
 71
     0
 10
0.0
 20
0.0
 30
0.0
  3
block 3
  1

  0
POLYLINE
  5
45
330
41
100
AcDbEntity
  8
\U+30EC\U+30A4\U+30E4\U+30FC 4
 62
     7
370
     9
100
AcDb2dPolyline
 66
     1
 10
0.0
 20
0.0
 30
0.0
  0
VERTEX
  5
46
330
45
100
AcDbEntity
  8
\U+30EC\U+30A4\U+30E4\U+30FC 4
 62
     7
370
     9
100
AcDbVertex
100
AcDb2dVertex
 10
-23.69519449277412
 20
229.4221719804049
 30
0.0
  0
VERTEX
  5
47
330
45
100
AcDbEntity
  8
\U+30EC\U+30A4\U+30E4\U+30FC 4
 62
     7
370
     9
100
AcDbVertex
100
AcDb2dVertex
 10
231.0160454066557
 20
82.38050128148821
 30
0.0
  0
SEQEND
  5
48
330
45
100
AcDbEntity
  8
\U+30EC\U+30A4\U+30E4\U+30FC 4
370
     9
  0
ENDBLK
  5
44
330
41
100
AcDbEntity
  8
0
100
AcDbBlockEnd
  0
BLOCK
  5
4B
330
49
100
AcDbEntity
  8
0
100
AcDbBlockBegin
  2
block 4
 70
     0
 71
     0
 10
0.0
 20
0.0
 30
0.0
  3
block 4
  1

  0
POLYLINE
  5
4D
330
49
100
AcDbEntity
  8
\U+30EC\U+30A4\U+30E4\U+30FC 4
 62
     7
370
     9
100
AcDb2dPolyline
 66
     1
 10
0.0
 20
0.0
 30
0.0
  0
VERTEX
  5
4E
330
4D
100
AcDbEntity
  8
\U+30EC\U+30A4\U+30E4\U+30FC 4
 62
     7
370
     9
100
AcDbVertex
100
AcDb2dVertex
 10
233.6294948417662
 20
86.77713213976405
 30
0.0
  0
VERTEX
  5
4F
330
4D
100
AcDbEntity
  8
\U+30EC\U+30A4\U+30E4\U+30FC 4
 62
     7
370
     9
100
AcDbVertex
100
AcDb2dVertex
 10
-21.1956054634511
 20
233.8847764172233
 30
0.0
  0
SEQEND
  5
50
330
4D
100
AcDbEntity
  8
\U+30EC\U+30A4\U+30E4\U+30FC 4
370
     9
  0
ENDBLK
  5
4C
330
49
100
AcDbEntity
  8
0
100
AcDbBlockEnd
  0
BLOCK
  5
53
330
51
100
AcDbEntity
  8
0
100
AcDbBlockBegin
  2
block 5
 70
     0
 71
     0
 10
0.0
 20
0.0
 30
0.0
  3
block 5
  1

  0
POLYLINE
  5
55
330
51
100
AcDbEntity
  8
\U+30EC\U+30A4\U+30E4\U+30FC 4
 62
     7
370
     9
100
AcDb2dPolyline
 66
     1
 10
0.0
 20
0.0
 30
0.0
  0
VERTEX
  5
56
330
55
100
AcDbEntity
  8
\U+30EC\U+30A4\U+30E4\U+30FC 4
 62
     7
370
     9
100
AcDbVertex
100
AcDb2dVertex
 10
-21.75112711044764
 20
234.204825787803
 30
0.0
  0
VERTEX
  5
57
330
55
100
AcDbEntity
  8
\U+30EC\U+30A4\U+30E4\U+30FC 4
 62
     7
370
     9
100
AcDbVertex
100
AcDb2dVertex
 10
-21.84173312170971
 20
234.2559854557589
 30
0.0
  0
SEQEND
  5
58
330
55
100
AcDbEntity
  8
\U+30EC\U+30A4\U+30E4\U+30FC 4
370
     9
  0
ENDBLK
  5
54
330
51
100
AcDbEntity
  8
0
100
AcDbBlockEnd
  0
BLOCK
  5
5B
330
59
100
AcDbEntity
  8
0
100
AcDbBlockBegin
  2
block 6
 70
     0
 71
     0
 10
0.0
 20
0.0
 30
0.0
  3
block 6
  1

  0
POLYLINE
  5
5D
330
59
100
AcDbEntity
  8
\U+30EC\U+30A4\U+30E4\U+30FC 4
 62
     7
370
     9
100
AcDb2dPolyline
 66
     1
 10
0.0
 20
0.0
 30
0.0
  0
VERTEX
  5
5E
330
5D
100
AcDbEntity
  8
\U+30EC\U+30A4\U+30E4\U+30FC 4
 62
     7
370
     9
100
AcDbVertex
100
AcDb2dVertex
 10
-24.39678818834525
 20
229.8269706999217
 30
0.0
  0
VERTEX
  5
5F
330
5D
100
AcDbEntity
  8
\U+30EC\U+30A4\U+30E4\U+30FC 4
 62
     7
370
     9
100
AcDbVertex
100
AcDb2dVertex
 10
-24.30911050824564
 20
229.7758110319658
 30
0.0
  0
SEQEND
  5
60
330
5D
100
AcDbEntity
  8
\U+30EC\U+30A4\U+30E4\U+30FC 4
370
     9
  0
ENDBLK
  5
5C
330
59
100
AcDbEntity
  8
0
100
AcDbBlockEnd
  0
BLOCK
  5
63
330
61
100
AcDbEntity
  8
0
100
AcDbBlockBegin
  2
block 7
 70
     0
 71
     0
 10
0.0
 20
0.0
 30
0.0
  3
block 7
  1

  0
POLYLINE
  5
65
330
61
100
AcDbEntity
  8
\U+30EC\U+30A4\U+30E4\U+30FC 4
 62
     7
370
     9
100
AcDb2dPolyline
 66
     1
 10
0.0
 20
0.0
 30
0.0
  0
VERTEX
  5
66
330
65
100
AcDbEntity
  8
\U+30EC\U+30A4\U+30E4\U+30FC 4
 62
     7
370
     9
100
AcDbVertex
100
AcDb2dVertex
 10
-21.83880479054724
 20
234.3086954166833
 30
0.0
  0
VERTEX
  5
67
330
65
100
AcDbEntity
  8
\U+30EC\U+30A4\U+30E4\U+30FC 4
 62
     7
370
     9
100
AcDbVertex
100
AcDb2dVertex
 10
-21.97333576924625
 20
234.384659772133
 30
0.0
  0
SEQEND
  5
68
330
65
100
AcDbEntity
  8
\U+30EC\U+30A4\U+30E4\U+30FC 4
370
     9
  0
ENDBLK
  5
64
330
61
100
AcDbEntity
  8
0
100
AcDbBlockEnd
  0
BLOCK
  5
6B
330
69
100
AcDbEntity
  8
0
100
AcDbBlockBegin
  2
block 8
 70
     0
 71
     0
 10
0.0
 20
0.0
 30
0.0
  3
block 8
  1

  0
POLYLINE
  5
6D
330
69
100
AcDbEntity
  8
\U+30EC\U+30A4\U+30E4\U+30FC 4
 62
     7
370
     9
100
AcDb2dPolyline
 66
     1
 10
0.0
 20
0.0
 30
0.0
  0
VERTEX
  5
6E
330
6D
100
AcDbEntity
  8
\U+30EC\U+30A4\U+30E4\U+30FC 4
 62
     7
370
     9
100
AcDbVertex
100
AcDb2dVertex
 10
-24.57507187970693
 20
229.8767523296836
 30
0.0
  0
VERTEX
  5
6F
330
6D
100
AcDbEntity
  8
\U+30EC\U+30A4\U+30E4\U+30FC 4
 62
     7
370
     9
100
AcDbVertex
100
AcDb2dVertex
 10
-24.44071315578218
 20
229.7992376812655
 30
0.0
  0
SEQEND
  5
70
330
6D
100
AcDbEntity
  8
\U+30EC\U+30A4\U+30E4\U+30FC 4
370
     9
  0
ENDBLK
  5
6C
330
69
100
AcDbEntity
  8
0
100
AcDbBlockEnd
  0
BLOCK
  5
73
330
71
100
AcDbEntity
  8
0
100
AcDbBlockBegin
  2
block 9
 70
     0
 71
     0
 10
0.0
 20
0.0
 30
0.0
  3
block 9
  1

  0
POLYLINE
  5
75
330
71
100
AcDbEntity
  8
\U+30EC\U+30A4\U+30E4\U+30FC 4
 62
     7
370
     9
100
AcDb2dPolyline
 66
     1
 10
0.0
 20
0.0
 30
0.0
  0
VERTEX
  5
76
330
75
100
AcDbEntity
  8
\U+30EC\U+30A4\U+30E4\U+30FC 4
 62
     7
370
     9
100
AcDbVertex
100
AcDb2dVertex
 10
-22.23929714070754
 20
234.4840507768825
 30
0.0
  0
VERTEX
  5
77
330
75
100
AcDbEntity
  8
\U+30EC\U+30A4\U+30E4\U+30FC 4
 62
     7
370
     9
100
AcDbVertex
100
AcDb2dVertex
 10
-25.4082682228146
 20
236.2687824930161
 30
0.0
  0
SEQEND
  5
78
330
75
100
AcDbEntity
  8
\U+30EC\U+30A4\U+30E4\U+30FC 4
370
     9
  0
ENDBLK
  5
74
330
71
100
AcDbEntity
  8
0
100
AcDbBlockEnd
  0
BLOCK
  5
7B
330
79
100
AcDbEntity
  8
0
100
AcDbBlockBegin
  2
block 10
 70
     0
 71
     0
 10
0.0
 20
0.0
 30
0.0
  3
block 10
  1

  0
POLYLINE
  5
7D
330
79
100
AcDbEntity
  8
\U+30EC\U+30A4\U+30E4\U+30FC 4
 62
     7
370
     9
100
AcDb2dPolyline
 66
     1
 10
0.0
 20
0.0
 30
0.0
  0
VERTEX
  5
7E
330
7D
100
AcDbEntity
  8
\U+30EC\U+30A4\U+30E4\U+30FC 4
 62
     7
370
     9
100
AcDbVertex
100
AcDb2dVertex
 10
-27.92249890794993
 20
231.9098754303038
 30
0.0
  0
VERTEX
  5
7F
330
7D
100
AcDbEntity
  8
\U+30EC\U+30A4\U+30E4\U+30FC 4
 62
     7
370
     9
100
AcDbVertex
100
AcDb2dVertex
 10
-24.79435220734308
 20
230.0595146451761
 30
0.0
  0
SEQEND
  5
80
330
7D
100
AcDbEntity
  8
\U+30EC\U+30A4\U+30E4\U+30FC 4
370
     9
  0
ENDBLK
  5
7C
330
79
100
AcDbEntity
  8
0
100
AcDbBlockEnd
  0
BLOCK
  5
83
330
81
100
AcDbEntity
  8
0
100
AcDbBlockBegin
  2
block 11
 70
     0
 71
     0
 10
0.0
 20
0.0
 30
0.0
  3
block 11
  1

  0
POLYLINE
  5
85
330
81
100
AcDbEntity
  8
\U+30EC\U+30A4\U+30E4\U+30FC 4
 62
     7
370
     9
100
AcDb2dPolyline
 66
     1
 10
0.0
 20
0.0
 30
0.0
  0
VERTEX
  5
86
330
85
100
AcDbEntity
  8
\U+30EC\U+30A4\U+30E4\U+30FC 4
 62
     7
370
     9
100
AcDbVertex
100
AcDb2dVertex
 10
-26.68881021468196
 20
236.1196098585048
 30
0.0
  0
VERTEX
  5
87
330
85
100
AcDbEntity
  8
\U+30EC\U+30A4\U+30E4\U+30FC 4
 62
     7
370
     9
100
AcDbVertex
100
AcDb2dVertex
 10
-26.79991454408127
 20
236.0553588277049
 30
0.0
  0
SEQEND
  5
88
330
85
100
AcDbEntity
  8
\U+30EC\U+30A4\U+30E4\U+30FC 4
370
     9
  0
ENDBLK
  5
84
330
81
100
AcDbEntity
  8
0
100
AcDbBlockEnd
  0
BLOCK
  5
8B
330
89
100
AcDbEntity
  8
0
100
AcDbBlockBegin
  2
block 12
 70
     0
 71
     0
 10
0.0
 20
0.0
 30
0.0
  3
block 12
  1

  0
POLYLINE
  5
8D
330
89
100
AcDbEntity
  8
\U+30EC\U+30A4\U+30E4\U+30FC 4
 62
     7
370
     9
100
AcDb2dPolyline
 66
     1
 10
0.0
 20
0.0
 30
0.0
  0
VERTEX
  5
8E
330
8D
100
AcDbEntity
  8
\U+30EC\U+30A4\U+30E4\U+30FC 4
 62
     7
370
     9
100
AcDbVertex
100
AcDb2dVertex
 10
-28.43409558750953
 20
233.2210787719899
 30
0.0
  0
VERTEX
  5
8F
330
8D
100
AcDbEntity
  8
\U+30EC\U+30A4\U+30E4\U+30FC 4
 62
     7
370
     9
100
AcDbVertex
100
AcDb2dVertex
 10
-28.437023918672
 20
233.0939547485842
 30
0.0
  0
SEQEND
  5
90
330
8D
100
AcDbEntity
  8
\U+30EC\U+30A4\U+30E4\U+30FC 4
370
     9
  0
ENDBLK
  5
8C
330
89
100
AcDbEntity
  8
0
100
AcDbBlockEnd
  0
BLOCK
  5
93
330
91
100
AcDbEntity
  8
0
100
AcDbBlockBegin
  2
block 13
 70
     0
 71
     0
 10
0.0
 20
0.0
 30
0.0
  3
block 13
  1

  0
SPLINE
  5
95
330
91
100
AcDbEntity
  8
\U+30EC\U+30A4\U+30E4\U+30FC 4
 62
     7
370
     9
100
AcDbSpline
210
0.0
220
0.0
230
1.0
 70
     8
 71
     3
 72
     8
 73
     4
 74
     0
 42
0.0000000001
 43
0.0000000001
 40
0.0
 40
0.0
 40
0.0
 40
0.0
 40
1.0
 40
1.0
 40
1.0
 40
1.0
 10
-28.05392930071221
 20
234.8962564516926
 30
0.0
 10
-28.25856797253605
 20
234.7689601735126
 30
0.0
 10
-28.40481227588491
 20
234.5688001258196
 30
0.0
 10
-28.46613497552235
 20
234.3378064735336
 30
0.0
  0
ENDBLK
  5
94
330
91
100
AcDbEntity
  8
0
100
AcDbBlockEnd
  0
BLOCK
  5
98
330
96
100
AcDbEntity
  8
0
100
AcDbBlockBegin
  2
block 14
 70
     0
 71
     0
 10
0.0
 20
0.0
 30
0.0
  3
block 14
  1

  0
POLYLINE
  5
9A
330
96
100
AcDbEntity
  8
\U+30EC\U+30A4\U+30E4\U+30FC 4
 62
     7
370
     9
100
AcDb2dPolyline
 66
     1
 10
0.0
 20
0.0
 30
0.0
  0
VERTEX
  5
9B
330
9A
100
AcDbEntity
  8
\U+30EC\U+30A4\U+30E4\U+30FC 4
 62
     7
370
     9
100
AcDbVertex
100
AcDb2dVertex
 10
-27.82310790320047
 20
235.0307874303916
 30
0.0
  0
VERTEX
  5
9C
330
9A
100
AcDbEntity
  8
\U+30EC\U+30A4\U+30E4\U+30FC 4
 62
     7
370
     9
100
AcDbVertex
100
AcDb2dVertex
 10
-28.05392930071221
 20
234.8962564516926
 30
0.0
  0
SEQEND
  5
9D
330
9A
100
AcDbEntity
  8
\U+30EC\U+30A4\U+30E4\U+30FC 4
370
     9
  0
ENDBLK
  5
99
330
96
100
AcDbEntity
  8
0
100
AcDbBlockEnd
  0
BLOCK
  5
A0
330
9E
100
AcDbEntity
  8
0
100
AcDbBlockBegin
  2
block 15
 70
     0
 71
     0
 10
0.0
 20
0.0
 30
0.0
  3
block 15
  1

  0
POLYLINE
  5
A2
330
9E
100
AcDbEntity
  8
\U+30EC\U+30A4\U+30E4\U+30FC 4
 62
     7
370
     9
100
AcDb2dPolyline
 66
     1
 10
0.0
 20
0.0
 30
0.0
  0
VERTEX
  5
A3
330
A2
100
AcDbEntity
  8
\U+30EC\U+30A4\U+30E4\U+30FC 4
 62
     7
370
     9
100
AcDbVertex
100
AcDb2dVertex
 10
-28.46027831319743
 20
233.9476494098291
 30
0.0
  0
VERTEX
  5
A4
330
A2
100
AcDbEntity
  8
\U+30EC\U+30A4\U+30E4\U+30FC 4
 62
     7
370
     9
100
AcDbVertex
100
AcDb2dVertex
 10
-28.41652560053476
 20
233.8685844684426
 30
0.0
  0
VERTEX
  5
A5
330
A2
100
AcDbEntity
  8
\U+30EC\U+30A4\U+30E4\U+30FC 4
 62
     7
370
     9
100
AcDbVertex
100
AcDb2dVertex
 10
-28.3901706200726
 20
233.8408514497863
 30
0.0
  0
SEQEND
  5
A6
330
A2
100
AcDbEntity
  8
\U+30EC\U+30A4\U+30E4\U+30FC 4
370
     9
  0
ENDBLK
  5
A1
330
9E
100
AcDbEntity
  8
0
100
AcDbBlockEnd
  0
BLOCK
  5
A9
330
A7
100
AcDbEntity
  8
0
100
AcDbBlockBegin
  2
block 16
 70
     0
 71
     0
 10
0.0
 20
0.0
 30
0.0
  3
block 16
  1

  0
POLYLINE
  5
AB
330
A7
100
AcDbEntity
  8
\U+30EC\U+30A4\U+30E4\U+30FC 4
 62
     7
370
     9
100
AcDb2dPolyline
 66
     1
 10
0.0
 20
0.0
 30
0.0
  0
VERTEX
  5
AC
330
AB
100
AcDbEntity
  8
\U+30EC\U+30A4\U+30E4\U+30FC 4
 62
     7
370
     9
100
AcDbVertex
100
AcDb2dVertex
 10
236.9009575145595
 20
81.18298609081536
 30
0.0
  0
VERTEX
  5
AD
330
AB
100
AcDbEntity
  8
\U+30EC\U+30A4\U+30E4\U+30FC 4
 62
     7
370
     9
100
AcDbVertex
100
AcDb2dVertex
 10
236.9009575145595
 20
81.5047580091377
 30
0.0
  0
SEQEND
  5
AE
330
AB
100
AcDbEntity
  8
\U+30EC\U+30A4\U+30E4\U+30FC 4
370
     9
  0
ENDBLK
  5
AA
330
A7
100
AcDbEntity
  8
0
100
AcDbBlockEnd
  0
BLOCK
  5
B1
330
AF
100
AcDbEntity
  8
0
100
AcDbBlockBegin
  2
block 17
 70
     0
 71
     0
 10
0.0
 20
0.0
 30
0.0
  3
block 17
  1

  0
POLYLINE
  5
B3
330
AF
100
AcDbEntity
  8
\U+30EC\U+30A4\U+30E4\U+30FC 4
 62
     7
370
     9
100
AcDb2dPolyline
 66
     1
 10
0.0
 20
0.0
 30
0.0
  0
VERTEX
  5
B4
330
B3
100
AcDbEntity
  8
\U+30EC\U+30A4\U+30E4\U+30FC 4
 62
     7
370
     9
100
AcDbVertex
100
AcDb2dVertex
 10
236.7400715553983
 20
81.09410262729592
 30
0.0
  0
VERTEX
  5
B5
330
B3
100
AcDbEntity
  8
\U+30EC\U+30A4\U+30E4\U+30FC 4
 62
     7
370
     9
100
AcDbVertex
100
AcDb2dVertex
 10
236.7607421283098
 20
81.08238930264608
 30
0.0
  0
SEQEND
  5
B6
330
B3
100
AcDbEntity
  8
\U+30EC\U+30A4\U+30E4\U+30FC 4
370
     9
  0
ENDBLK
  5
B2
330
AF
100
AcDbEntity
  8
0
100
AcDbBlockEnd
  0
BLOCK
  5
B9
330
B7
100
AcDbEntity
  8
0
100
AcDbBlockBegin
  2
block 18
 70
     0
 71
     0
 10
0.0
 20
0.0
 30
0.0
  3
block 18
  1

  0
POLYLINE
  5
BB
330
B7
100
AcDbEntity
  8
\U+30EC\U+30A4\U+30E4\U+30FC 4
 62
     7
370
     9
100
AcDb2dPolyline
 66
     1
 10
0.0
 20
0.0
 30
0.0
  0
VERTEX
  5
BC
330
BB
100
AcDbEntity
  8
\U+30EC\U+30A4\U+30E4\U+30FC 4
 62
     7
370
     9
100
AcDbVertex
100
AcDb2dVertex
 10
236.5678167811358
 20
80.11156139490267
 30
0.0
  0
VERTEX
  5
BD
330
BB
100
AcDbEntity
  8
\U+30EC\U+30A4\U+30E4\U+30FC 4
 62
     7
370
     9
100
AcDbVertex
100
AcDb2dVertex
 10
236.6759927793727
 20
80.17770722821946
 30
0.0
  0
SEQEND
  5
BE
330
BB
100
AcDbEntity
  8
\U+30EC\U+30A4\U+30E4\U+30FC 4
370
     9
  0
ENDBLK
  5
BA
330
B7
100
AcDbEntity
  8
0
100
AcDbBlockEnd
  0
BLOCK
  5
C1
330
BF
100
AcDbEntity
  8
0
100
AcDbBlockBegin
  2
block 19
 70
     0
 71
     0
 10
0.0
 20
0.0
 30
0.0
  3
block 19
  1

  0
POLYLINE
  5
C3
330
BF
100
AcDbEntity
  8
\U+30EC\U+30A4\U+30E4\U+30FC 4
 62
     7
370
     9
100
AcDb2dPolyline
 66
     1
 10
0.0
 20
0.0
 30
0.0
  0
VERTEX
  5
C4
330
C3
100
AcDbEntity
  8
\U+30EC\U+30A4\U+30E4\U+30FC 4
 62
     7
370
     9
100
AcDbVertex
100
AcDb2dVertex
 10
238.3131021539634
 20
83.01026473619189
 30
0.0
  0
VERTEX
  5
C5
330
C3
100
AcDbEntity
  8
\U+30EC\U+30A4\U+30E4\U+30FC 4
 62
     7
370
     9
100
AcDbVertex
100
AcDb2dVertex
 10
238.3131021539634
 20
83.13704425004907
 30
0.0
  0
SEQEND
  5
C6
330
C3
100
AcDbEntity
  8
\U+30EC\U+30A4\U+30E4\U+30FC 4
370
     9
  0
ENDBLK
  5
C2
330
BF
100
AcDbEntity
  8
0
100
AcDbBlockEnd
  0
BLOCK
  5
C9
330
C7
100
AcDbEntity
  8
0
100
AcDbBlockBegin
  2
block 20
 70
     0
 71
     0
 10
0.0
 20
0.0
 30
0.0
  3
block 20
  1

  0
POLYLINE
  5
CB
330
C7
100
AcDbEntity
  8
\U+30EC\U+30A4\U+30E4\U+30FC 4
 62
     7
370
     9
100
AcDb2dPolyline
 66
     1
 10
0.0
 20
0.0
 30
0.0
  0
VERTEX
  5
CC
330
CB
100
AcDbEntity
  8
\U+30EC\U+30A4\U+30E4\U+30FC 4
 62
     7
370
     9
100
AcDbVertex
100
AcDb2dVertex
 10
231.8931667172003
 20
81.87476126425354
 30
0.0
  0
VERTEX
  5
CD
330
CB
100
AcDbEntity
  8
\U+30EC\U+30A4\U+30E4\U+30FC 4
 62
     7
370
     9
100
AcDbVertex
100
AcDb2dVertex
 10
235.2841742033318
 20
79.96411130813398
 30
0.0
  0
SEQEND
  5
CE
330
CB
100
AcDbEntity
  8
\U+30EC\U+30A4\U+30E4\U+30FC 4
370
     9
  0
ENDBLK
  5
CA
330
C7
100
AcDbEntity
  8
0
100
AcDbBlockEnd
  0
BLOCK
  5
D1
330
CF
100
AcDbEntity
  8
0
100
AcDbBlockBegin
  2
block 21
 70
     0
 71
     0
 10
0.0
 20
0.0
 30
0.0
  3
block 21
  1

  0
POLYLINE
  5
D3
330
CF
100
AcDbEntity
  8
\U+30EC\U+30A4\U+30E4\U+30FC 4
 62
     7
370
     9
100
AcDb2dPolyline
 66
     1
 10
0.0
 20
0.0
 30
0.0
  0
VERTEX
  5
D4
330
D3
100
AcDbEntity
  8
\U+30EC\U+30A4\U+30E4\U+30FC 4
 62
     7
370
     9
100
AcDbVertex
100
AcDb2dVertex
 10
237.8011609648553
 20
84.32146807787797
 30
0.0
  0
VERTEX
  5
D5
330
D3
100
AcDbEntity
  8
\U+30EC\U+30A4\U+30E4\U+30FC 4
 62
     7
370
     9
100
AcDbVertex
100
AcDb2dVertex
 10
234.4480495290616
 20
86.30377602009072
 30
0.0
  0
SEQEND
  5
D6
330
D3
100
AcDbEntity
  8
\U+30EC\U+30A4\U+30E4\U+30FC 4
370
     9
  0
ENDBLK
  5
D2
330
CF
100
AcDbEntity
  8
0
100
AcDbBlockEnd
  0
BLOCK
  5
D9
330
D7
100
AcDbEntity
  8
0
100
AcDbBlockBegin
  2
block 22
 70
     0
 71
     0
 10
0.0
 20
0.0
 30
0.0
  3
block 22
  1

  0
POLYLINE
  5
DB
330
D7
100
AcDbEntity
  8
\U+30EC\U+30A4\U+30E4\U+30FC 4
 62
     7
370
     9
100
AcDb2dPolyline
 66
     1
 10
0.0
 20
0.0
 30
0.0
  0
VERTEX
  5
DC
330
DB
100
AcDbEntity
  8
\U+30EC\U+30A4\U+30E4\U+30FC 4
 62
     7
370
     9
100
AcDbVertex
100
AcDb2dVertex
 10
235.9859401536771
 20
81.17609589984487
 30
0.0
  0
VERTEX
  5
DD
330
DB
100
AcDbEntity
  8
\U+30EC\U+30A4\U+30E4\U+30FC 4
 62
     7
370
     9
100
AcDbVertex
100
AcDb2dVertex
 10
236.6584227923979
 20
80.80609264472903
 30
0.0
  0
SEQEND
  5
DE
330
DB
100
AcDbEntity
  8
\U+30EC\U+30A4\U+30E4\U+30FC 4
370
     9
  0
ENDBLK
  5
DA
330
D7
100
AcDbEntity
  8
0
100
AcDbBlockEnd
  0
BLOCK
  5
E1
330
DF
100
AcDbEntity
  8
0
100
AcDbBlockBegin
  2
block 23
 70
     0
 71
     0
 10
0.0
 20
0.0
 30
0.0
  3
block 23
  1

  0
SPLINE
  5
E3
330
DF
100
AcDbEntity
  8
\U+30EC\U+30A4\U+30E4\U+30FC 4
 62
     7
370
     9
100
AcDbSpline
210
0.0
220
0.0
230
1.0
 70
     8
 71
     3
 72
     8
 73
     4
 74
     0
 42
0.0000000001
 43
0.0000000001
 40
0.0
 40
0.0
 40
0.0
 40
0.0
 40
1.0
 40
1.0
 40
1.0
 40
1.0
 10
236.6611788687861
 20
80.81022675931133
 30
0.0
 10
236.7896809303859
 20
80.74339190689749
 30
0.0
 10
236.9447102272222
 20
80.75303817425619
 30
0.0
 10
237.0645995501089
 20
80.83365340861104
 30
0.0
  0
ENDBLK
  5
E2
330
DF
100
AcDbEntity
  8
0
100
AcDbBlockEnd
  0
BLOCK
  5
E6
330
E4
100
AcDbEntity
  8
0
100
AcDbBlockBegin
  2
block 24
 70
     0
 71
     0
 10
0.0
 20
0.0
 30
0.0
  3
block 24
  1

  0
POLYLINE
  5
E8
330
E4
100
AcDbEntity
  8
\U+30EC\U+30A4\U+30E4\U+30FC 4
 62
     7
370
     9
100
AcDb2dPolyline
 66
     1
 10
0.0
 20
0.0
 30
0.0
  0
VERTEX
  5
E9
330
E8
100
AcDbEntity
  8
\U+30EC\U+30A4\U+30E4\U+30FC 4
 62
     7
370
     9
100
AcDbVertex
100
AcDb2dVertex
 10
236.9095702532726
 20
81.07067597799622
 30
0.0
  0
VERTEX
  5
EA
330
E8
100
AcDbEntity
  8
\U+30EC\U+30A4\U+30E4\U+30FC 4
 62
     7
370
     9
100
AcDbVertex
100
AcDb2dVertex
 10
236.9095702532726
 20
81.16713865158322
 30
0.0
  0
SEQEND
  5
EB
330
E8
100
AcDbEntity
  8
\U+30EC\U+30A4\U+30E4\U+30FC 4
370
     9
  0
ENDBLK
  5
E7
330
E4
100
AcDbEntity
  8
0
100
AcDbBlockEnd
  0
BLOCK
  5
EE
330
EC
100
AcDbEntity
  8
0
100
AcDbBlockBegin
  2
block 25
 70
     0
 71
     0
 10
0.0
 20
0.0
 30
0.0
  3
block 25
  1

  0
POLYLINE
  5
F0
330
EC
100
AcDbEntity
  8
\U+30EC\U+30A4\U+30E4\U+30FC 4
 62
     7
370
     9
100
AcDb2dPolyline
 66
     1
 10
0.0
 20
0.0
 30
0.0
  0
VERTEX
  5
F1
330
F0
100
AcDbEntity
  8
\U+30EC\U+30A4\U+30E4\U+30FC 4
 62
     7
370
     9
100
AcDbVertex
100
AcDb2dVertex
 10
237.0645995501089
 20
80.83365340861104
 30
0.0
  0
VERTEX
  5
F2
330
F0
100
AcDbEntity
  8
\U+30EC\U+30A4\U+30E4\U+30FC 4
 62
     7
370
     9
100
AcDbVertex
100
AcDb2dVertex
 10
237.9327636123918
 20
81.33525931126341
 30
0.0
  0
SEQEND
  5
F3
330
F0
100
AcDbEntity
  8
\U+30EC\U+30A4\U+30E4\U+30FC 4
370
     9
  0
ENDBLK
  5
EF
330
EC
100
AcDbEntity
  8
0
100
AcDbBlockEnd
  0
BLOCK
  5
F6
330
F4
100
AcDbEntity
  8
0
100
AcDbBlockBegin
  2
block 26
 70
     0
 71
     0
 10
0.0
 20
0.0
 30
0.0
  3
block 26
  1

  0
SPLINE
  5
F8
330
F4
100
AcDbEntity
  8
\U+30EC\U+30A4\U+30E4\U+30FC 4
 62
     7
370
     9
100
AcDbSpline
210
0.0
220
0.0
230
1.0
 70
     8
 71
     3
 72
     8
 73
     4
 74
     0
 42
0.0000000001
 43
0.0000000001
 40
0.0
 40
0.0
 40
0.0
 40
0.0
 40
1.0
 40
1.0
 40
1.0
 40
1.0
 10
238.3361842937146
 20
82.28403860790122
 30
0.0
 10
238.3158582303516
 20
82.35845267038262
 30
0.0
 10
238.2631482694273
 20
82.41977537002006
 30
0.0
 10
238.1959689074649
 20
82.4549153439696
 30
0.0
  0
ENDBLK
  5
F7
330
F4
100
AcDbEntity
  8
0
100
AcDbBlockEnd
  0
BLOCK
  5
FB
330
F9
100
AcDbEntity
  8
0
100
AcDbBlockBegin
  2
block 27
 70
     0
 71
     0
 10
0.0
 20
0.0
 30
0.0
  3
block 27
  1

  0
POLYLINE
  5
FD
330
F9
100
AcDbEntity
  8
\U+30EC\U+30A4\U+30E4\U+30FC 4
 62
     7
370
     9
100
AcDb2dPolyline
 66
     1
 10
0.0
 20
0.0
 30
0.0
  0
VERTEX
  5
FE
330
FD
100
AcDbEntity
  8
\U+30EC\U+30A4\U+30E4\U+30FC 4
 62
     7
370
     9
100
AcDbVertex
100
AcDb2dVertex
 10
238.1932128310767
 20
82.4590494585519
 30
0.0
  0
VERTEX
  5
FF
330
FD
100
AcDbEntity
  8
\U+30EC\U+30A4\U+30E4\U+30FC 4
 62
     7
370
     9
100
AcDbVertex
100
AcDb2dVertex
 10
237.535199593394
 20
82.85799151574383
 30
0.0
  0
SEQEND
  5
100
330
FD
100
AcDbEntity
  8
\U+30EC\U+30A4\U+30E4\U+30FC 4
370
     9
  0
ENDBLK
  5
FC
330
F9
100
AcDbEntity
  8
0
100
AcDbBlockEnd
  0
BLOCK
  5
103
330
101
100
AcDbEntity
  8
0
100
AcDbBlockBegin
  2
block 28
 70
     0
 71
     0
 10
0.0
 20
0.0
 30
0.0
  3
block 28
  1

  0
SPLINE
  5
105
330
101
100
AcDbEntity
  8
\U+30EC\U+30A4\U+30E4\U+30FC 4
 62
     7
370
     9
100
AcDbSpline
210
0.0
220
0.0
230
1.0
 70
     8
 71
     3
 72
     8
 73
     4
 74
     0
 42
0.0000000001
 43
0.0000000001
 40
0.0
 40
0.0
 40
0.0
 40
0.0
 40
1.0
 40
1.0
 40
1.0
 40
1.0
 10
237.9327636123918
 20
81.33525931126341
 30
0.0
 10
238.1346462078275
 20
81.4634168633147
 30
0.0
 10
238.2807182564021
 20
81.66254338236214
 30
0.0
 10
238.3420409560395
 20
81.89474281806798
 30
0.0
  0
ENDBLK
  5
104
330
101
100
AcDbEntity
  8
0
100
AcDbBlockEnd
  0
BLOCK
  5
108
330
106
100
AcDbEntity
  8
0
100
AcDbBlockBegin
  2
block 29
 70
     0
 71
     0
 10
0.0
 20
0.0
 30
0.0
  3
block 29
  1

  0
POLYLINE
  5
10A
330
106
100
AcDbEntity
  8
\U+30EC\U+30A4\U+30E4\U+30FC 4
 62
     7
370
     9
100
AcDb2dPolyline
 66
     1
 10
0.0
 20
0.0
 30
0.0
  0
VERTEX
  5
10B
330
10A
100
AcDbEntity
  8
\U+30EC\U+30A4\U+30E4\U+30FC 4
 62
     7
370
     9
100
AcDbVertex
100
AcDb2dVertex
 10
231.7147107710644
 20
81.92299260104703
 30
0.0
  0
VERTEX
  5
10C
330
10A
100
AcDbEntity
  8
\U+30EC\U+30A4\U+30E4\U+30FC 4
 62
     7
370
     9
100
AcDbVertex
100
AcDb2dVertex
 10
231.8494140045377
 20
81.84651148127449
 30
0.0
  0
SEQEND
  5
10D
330
10A
100
AcDbEntity
  8
\U+30EC\U+30A4\U+30E4\U+30FC 4
370
     9
  0
ENDBLK
  5
109
330
106
100
AcDbEntity
  8
0
100
AcDbBlockEnd
  0
BLOCK
  5
110
330
10E
100
AcDbEntity
  8
0
100
AcDbBlockBegin
  2
block 30
 70
     0
 71
     0
 10
0.0
 20
0.0
 30
0.0
  3
block 30
  1

  0
POLYLINE
  5
112
330
10E
100
AcDbEntity
  8
\U+30EC\U+30A4\U+30E4\U+30FC 4
 62
     7
370
     9
100
AcDb2dPolyline
 66
     1
 10
0.0
 20
0.0
 30
0.0
  0
VERTEX
  5
113
330
112
100
AcDbEntity
  8
\U+30EC\U+30A4\U+30E4\U+30FC 4
 62
     7
370
     9
100
AcDbVertex
100
AcDb2dVertex
 10
234.4511501149983
 20
86.35476343327242
 30
0.0
  0
VERTEX
  5
114
330
112
100
AcDbEntity
  8
\U+30EC\U+30A4\U+30E4\U+30FC 4
 62
     7
370
     9
100
AcDbVertex
100
AcDb2dVertex
 10
234.3195474674618
 20
86.43193357214201
 30
0.0
  0
SEQEND
  5
115
330
112
100
AcDbEntity
  8
\U+30EC\U+30A4\U+30E4\U+30FC 4
370
     9
  0
ENDBLK
  5
111
330
10E
100
AcDbEntity
  8
0
100
AcDbBlockEnd
  0
BLOCK
  5
118
330
116
100
AcDbEntity
  8
0
100
AcDbBlockBegin
  2
block 31
 70
     0
 71
     0
 10
0.0
 20
0.0
 30
0.0
  3
block 31
  1

  0
POLYLINE
  5
11A
330
116
100
AcDbEntity
  8
\U+30EC\U+30A4\U+30E4\U+30FC 4
 62
     7
370
     9
100
AcDb2dPolyline
 66
     1
 10
0.0
 20
0.0
 30
0.0
  0
VERTEX
  5
11B
330
11A
100
AcDbEntity
  8
\U+30EC\U+30A4\U+30E4\U+30FC 4
 62
     7
370
     9
100
AcDbVertex
100
AcDb2dVertex
 10
-21.1956054634511
 20
233.8847764172233
 30
0.0
  0
VERTEX
  5
11C
330
11A
100
AcDbEntity
  8
\U+30EC\U+30A4\U+30E4\U+30FC 4
 62
     7
370
     9
100
AcDbVertex
100
AcDb2dVertex
 10
-21.67223442383542
 20
234.160900820366
 30
0.0
  0
SEQEND
  5
11D
330
11A
100
AcDbEntity
  8
\U+30EC\U+30A4\U+30E4\U+30FC 4
370
     9
  0
ENDBLK
  5
119
330
116
100
AcDbEntity
  8
0
100
AcDbBlockEnd
  0
BLOCK
  5
120
330
11E
100
AcDbEntity
  8
0
100
AcDbBlockBegin
  2
block 32
 70
     0
 71
     0
 10
0.0
 20
0.0
 30
0.0
  3
block 32
  1

  0
POLYLINE
  5
122
330
11E
100
AcDbEntity
  8
\U+30EC\U+30A4\U+30E4\U+30FC 4
 62
     7
370
     9
100
AcDb2dPolyline
 66
     1
 10
0.0
 20
0.0
 30
0.0
  0
VERTEX
  5
123
330
122
100
AcDbEntity
  8
\U+30EC\U+30A4\U+30E4\U+30FC 4
 62
     7
370
     9
100
AcDbVertex
100
AcDb2dVertex
 10
-24.23021782163342
 20
229.7305080263347
 30
0.0
  0
VERTEX
  5
124
330
122
100
AcDbEntity
  8
\U+30EC\U+30A4\U+30E4\U+30FC 4
 62
     7
370
     9
100
AcDbVertex
100
AcDb2dVertex
 10
-23.75066053008664
 20
229.4542113684177
 30
0.0
  0
SEQEND
  5
125
330
122
100
AcDbEntity
  8
\U+30EC\U+30A4\U+30E4\U+30FC 4
370
     9
  0
ENDBLK
  5
121
330
11E
100
AcDbEntity
  8
0
100
AcDbBlockEnd
  0
BLOCK
  5
128
330
126
100
AcDbEntity
  8
0
100
AcDbBlockBegin
  2
block 33
 70
     0
 71
     0
 10
0.0
 20
0.0
 30
0.0
  3
block 33
  1

  0
POLYLINE
  5
12A
330
126
100
AcDbEntity
  8
\U+30EC\U+30A4\U+30E4\U+30FC 4
 62
     7
370
     9
100
AcDb2dPolyline
 66
     1
 10
0.0
 20
0.0
 30
0.0
  0
VERTEX
  5
12B
330
12A
100
AcDbEntity
  8
\U+30EC\U+30A4\U+30E4\U+30FC 4
 62
     7
370
     9
100
AcDbVertex
100
AcDb2dVertex
 10
231.0715114439682
 20
82.34811738392686
 30
0.0
  0
VERTEX
  5
12C
330
12A
100
AcDbEntity
  8
\U+30EC\U+30A4\U+30E4\U+30FC 4
 62
     7
370
     9
100
AcDbVertex
100
AcDb2dVertex
 10
231.5483126591268
 20
82.07182072600983
 30
0.0
  0
SEQEND
  5
12D
330
12A
100
AcDbEntity
  8
\U+30EC\U+30A4\U+30E4\U+30FC 4
370
     9
  0
ENDBLK
  5
129
330
126
100
AcDbEntity
  8
0
100
AcDbBlockEnd
  0
BLOCK
  5
130
330
12E
100
AcDbEntity
  8
0
100
AcDbBlockBegin
  2
block 34
 70
     0
 71
     0
 10
0.0
 20
0.0
 30
0.0
  3
block 34
  1

  0
POLYLINE
  5
132
330
12E
100
AcDbEntity
  8
\U+30EC\U+30A4\U+30E4\U+30FC 4
 62
     7
370
     9
100
AcDb2dPolyline
 66
     1
 10
0.0
 20
0.0
 30
0.0
  0
VERTEX
  5
133
330
132
100
AcDbEntity
  8
\U+30EC\U+30A4\U+30E4\U+30FC 4
 62
     7
370
     9
100
AcDbVertex
100
AcDb2dVertex
 10
234.0477294336756
 20
86.53597545579656
 30
0.0
  0
VERTEX
  5
134
330
132
100
AcDbEntity
  8
\U+30EC\U+30A4\U+30E4\U+30FC 4
 62
     7
370
     9
100
AcDbVertex
100
AcDb2dVertex
 10
233.6294948417662
 20
86.77713213976405
 30
0.0
  0
SEQEND
  5
135
330
132
100
AcDbEntity
  8
\U+30EC\U+30A4\U+30E4\U+30FC 4
370
     9
  0
ENDBLK
  5
131
330
12E
100
AcDbEntity
  8
0
100
AcDbBlockEnd
  0
BLOCK
  5
138
330
136
100
AcDbEntity
  8
0
100
AcDbBlockBegin
  2
block 35
 70
     0
 71
     0
 10
0.0
 20
0.0
 30
0.0
  3
block 35
  1

  0
POLYLINE
  5
13A
330
136
100
AcDbEntity
  8
\U+30EC\U+30A4\U+30E4\U+30FC 4
 62
     7
370
     9
100
AcDb2dPolyline
 66
     1
 10
0.0
 20
0.0
 30
0.0
  0
VERTEX
  5
13B
330
13A
100
AcDbEntity
  8
\U+30EC\U+30A4\U+30E4\U+30FC 4
 62
     7
370
     9
100
AcDbVertex
100
AcDb2dVertex
 10
230.4868787401213
 20
83.56423609022005
 30
0.0
  0
VERTEX
  5
13C
330
13A
100
AcDbEntity
  8
\U+30EC\U+30A4\U+30E4\U+30FC 4
 62
     7
370
     9
100
AcDbVertex
100
AcDb2dVertex
 10
230.5044487270961
 20
83.26175670661512
 30
0.0
  0
VERTEX
  5
13D
330
13A
100
AcDbEntity
  8
\U+30EC\U+30A4\U+30E4\U+30FC 4
 62
     7
370
     9
100
AcDbVertex
100
AcDb2dVertex
 10
230.5630153503454
 20
82.98959416328039
 30
0.0
  0
VERTEX
  5
13E
330
13A
100
AcDbEntity
  8
\U+30EC\U+30A4\U+30E4\U+30FC 4
 62
     7
370
     9
100
AcDbVertex
100
AcDb2dVertex
 10
230.6622341003206
 20
82.75463865118634
 30
0.0
  0
VERTEX
  5
13F
330
13A
100
AcDbEntity
  8
\U+30EC\U+30A4\U+30E4\U+30FC 4
 62
     7
370
     9
100
AcDbVertex
100
AcDb2dVertex
 10
230.7969373337938
 20
82.56033526581825
 30
0.0
  0
VERTEX
  5
140
330
13A
100
AcDbEntity
  8
\U+30EC\U+30A4\U+30E4\U+30FC 4
 62
     7
370
     9
100
AcDbVertex
100
AcDb2dVertex
 10
230.9664360316681
 20
82.41081812175841
 30
0.0
  0
VERTEX
  5
141
330
13A
100
AcDbEntity
  8
\U+30EC\U+30A4\U+30E4\U+30FC 4
 62
     7
370
     9
100
AcDbVertex
100
AcDb2dVertex
 10
231.0453287182804
 20
82.36396482315901
 30
0.0
  0
SEQEND
  5
142
330
13A
100
AcDbEntity
  8
\U+30EC\U+30A4\U+30E4\U+30FC 4
370
     9
  0
ENDBLK
  5
139
330
136
100
AcDbEntity
  8
0
100
AcDbBlockEnd
  0
BLOCK
  5
145
330
143
100
AcDbEntity
  8
0
100
AcDbBlockBegin
  2
block 36
 70
     0
 71
     0
 10
0.0
 20
0.0
 30
0.0
  3
block 36
  1

  0
POLYLINE
  5
147
330
143
100
AcDbEntity
  8
\U+30EC\U+30A4\U+30E4\U+30FC 4
 62
     7
370
     9
100
AcDb2dPolyline
 66
     1
 10
0.0
 20
0.0
 30
0.0
  0
VERTEX
  5
148
330
147
100
AcDbEntity
  8
\U+30EC\U+30A4\U+30E4\U+30FC 4
 62
     7
370
     9
100
AcDbVertex
100
AcDb2dVertex
 10
230.4985920647712
 20
83.56974824299645
 30
0.0
  0
VERTEX
  5
149
330
147
100
AcDbEntity
  8
\U+30EC\U+30A4\U+30E4\U+30FC 4
 62
     7
370
     9
100
AcDbVertex
100
AcDb2dVertex
 10
230.4868787401213
 20
83.56423609022005
 30
0.0
  0
SEQEND
  5
14A
330
147
100
AcDbEntity
  8
\U+30EC\U+30A4\U+30E4\U+30FC 4
370
     9
  0
ENDBLK
  5
146
330
143
100
AcDbEntity
  8
0
100
AcDbBlockEnd
  0
BLOCK
  5
14D
330
14B
100
AcDbEntity
  8
0
100
AcDbBlockBegin
  2
block 37
 70
     0
 71
     0
 10
0.0
 20
0.0
 30
0.0
  3
block 37
  1

  0
POLYLINE
  5
14F
330
14B
100
AcDbEntity
  8
\U+30EC\U+30A4\U+30E4\U+30FC 4
 62
     7
370
     9
100
AcDb2dPolyline
 66
     1
 10
0.0
 20
0.0
 30
0.0
  0
VERTEX
  5
150
330
14F
100
AcDbEntity
  8
\U+30EC\U+30A4\U+30E4\U+30FC 4
 62
     7
370
     9
100
AcDbVertex
100
AcDb2dVertex
 10
230.4868787401213
 20
83.56423609022005
 30
0.0
  0
VERTEX
  5
151
330
14F
100
AcDbEntity
  8
\U+30EC\U+30A4\U+30E4\U+30FC 4
 62
     7
370
     9
100
AcDbVertex
100
AcDb2dVertex
 10
-24.22728949047096
 20
230.606079043911
 30
0.0
  0
SEQEND
  5
152
330
14F
100
AcDbEntity
  8
\U+30EC\U+30A4\U+30E4\U+30FC 4
370
     9
  0
ENDBLK
  5
14E
330
14B
100
AcDbEntity
  8
0
100
AcDbBlockEnd
  0
BLOCK
  5
155
330
153
100
AcDbEntity
  8
0
100
AcDbBlockBegin
  2
block 38
 70
     0
 71
     0
 10
0.0
 20
0.0
 30
0.0
  3
block 38
  1

  0
POLYLINE
  5
157
330
153
100
AcDbEntity
  8
\U+30EC\U+30A4\U+30E4\U+30FC 4
 62
     7
370
     9
100
AcDb2dPolyline
 66
     1
 10
0.0
 20
0.0
 30
0.0
  0
VERTEX
  5
158
330
157
100
AcDbEntity
  8
\U+30EC\U+30A4\U+30E4\U+30FC 4
 62
     7
370
     9
100
AcDbVertex
100
AcDb2dVertex
 10
-24.22728949047096
 20
230.606079043911
 30
0.0
  0
VERTEX
  5
159
330
157
100
AcDbEntity
  8
\U+30EC\U+30A4\U+30E4\U+30FC 4
 62
     7
370
     9
100
AcDbVertex
100
AcDb2dVertex
 10
-24.20679117233372
 20
230.303599660306
 30
0.0
  0
VERTEX
  5
15A
330
157
100
AcDbEntity
  8
\U+30EC\U+30A4\U+30E4\U+30FC 4
 62
     7
370
     9
100
AcDbVertex
100
AcDb2dVertex
 10
-24.14822454908447
 20
230.0316093717456
 30
0.0
  0
VERTEX
  5
15B
330
157
100
AcDbEntity
  8
\U+30EC\U+30A4\U+30E4\U+30FC 4
 62
     7
370
     9
100
AcDbVertex
100
AcDb2dVertex
 10
-24.05176187549748
 20
229.796309350103
 30
0.0
  0
VERTEX
  5
15C
330
157
100
AcDbEntity
  8
\U+30EC\U+30A4\U+30E4\U+30FC 4
 62
     7
370
     9
100
AcDbVertex
100
AcDb2dVertex
 10
-23.91447482041027
 20
229.6020059647349
 30
0.0
  0
VERTEX
  5
15D
330
157
100
AcDbEntity
  8
\U+30EC\U+30A4\U+30E4\U+30FC 4
 62
     7
370
     9
100
AcDbVertex
100
AcDb2dVertex
 10
-23.74773219892418
 20
229.4542113684177
 30
0.0
  0
VERTEX
  5
15E
330
157
100
AcDbEntity
  8
\U+30EC\U+30A4\U+30E4\U+30FC 4
 62
     7
370
     9
100
AcDbVertex
100
AcDb2dVertex
 10
-23.69519449277412
 20
229.4221719804049
 30
0.0
  0
SEQEND
  5
15F
330
157
100
AcDbEntity
  8
\U+30EC\U+30A4\U+30E4\U+30FC 4
370
     9
  0
ENDBLK
  5
156
330
153
100
AcDbEntity
  8
0
100
AcDbBlockEnd
  0
BLOCK
  5
162
330
160
100
AcDbEntity
  8
0
100
AcDbBlockBegin
  2
block 39
 70
     0
 71
     0
 10
0.0
 20
0.0
 30
0.0
  3
block 39
  1

  0
POLYLINE
  5
164
330
160
100
AcDbEntity
  8
\U+30EC\U+30A4\U+30E4\U+30FC 4
 62
     7
370
     9
100
AcDb2dPolyline
 66
     1
 10
0.0
 20
0.0
 30
0.0
  0
VERTEX
  5
165
330
164
100
AcDbEntity
  8
\U+30EC\U+30A4\U+30E4\U+30FC 4
 62
     7
370
     9
100
AcDbVertex
100
AcDb2dVertex
 10
-24.21557616582111
 20
230.6119357062359
 30
0.0
  0
VERTEX
  5
166
330
164
100
AcDbEntity
  8
\U+30EC\U+30A4\U+30E4\U+30FC 4
 62
     7
370
     9
100
AcDbVertex
100
AcDb2dVertex
 10
-24.22728949047096
 20
230.606079043911
 30
0.0
  0
SEQEND
  5
167
330
164
100
AcDbEntity
  8
\U+30EC\U+30A4\U+30E4\U+30FC 4
370
     9
  0
ENDBLK
  5
163
330
160
100
AcDbEntity
  8
0
100
AcDbBlockEnd
  0
BLOCK
  5
16A
330
168
100
AcDbEntity
  8
0
100
AcDbBlockBegin
  2
block 40
 70
     0
 71
     0
 10
0.0
 20
0.0
 30
0.0
  3
block 40
  1

  0
POLYLINE
  5
16C
330
168
100
AcDbEntity
  8
\U+30EC\U+30A4\U+30E4\U+30FC 4
 62
     7
370
     9
100
AcDb2dPolyline
 66
     1
 10
0.0
 20
0.0
 30
0.0
  0
VERTEX
  5
16D
330
16C
100
AcDbEntity
  8
\U+30EC\U+30A4\U+30E4\U+30FC 4
 62
     7
370
     9
100
AcDbVertex
100
AcDb2dVertex
 10
233.6294948417662
 20
86.77713213976405
 30
0.0
  0
VERTEX
  5
16E
330
16C
100
AcDbEntity
  8
\U+30EC\U+30A4\U+30E4\U+30FC 4
 62
     7
370
     9
100
AcDbVertex
100
AcDb2dVertex
 10
233.4717094685418
 20
86.84879012585725
 30
0.0
  0
VERTEX
  5
16F
330
16C
100
AcDbEntity
  8
\U+30EC\U+30A4\U+30E4\U+30FC 4
 62
     7
370
     9
100
AcDbVertex
100
AcDb2dVertex
 10
233.2495008097432
 20
86.89426538626255
 30
0.0
  0
VERTEX
  5
170
330
16C
100
AcDbEntity
  8
\U+30EC\U+30A4\U+30E4\U+30FC 4
 62
     7
370
     9
100
AcDbVertex
100
AcDb2dVertex
 10
233.0069660875816
 20
86.886686176195
 30
0.0
  0
VERTEX
  5
171
330
16C
100
AcDbEntity
  8
\U+30EC\U+30A4\U+30E4\U+30FC 4
 62
     7
370
     9
100
AcDbVertex
100
AcDb2dVertex
 10
232.7496174548334
 20
86.82949759113986
 30
0.0
  0
VERTEX
  5
172
330
16C
100
AcDbEntity
  8
\U+30EC\U+30A4\U+30E4\U+30FC 4
 62
     7
370
     9
100
AcDbVertex
100
AcDb2dVertex
 10
232.4836560833722
 20
86.7226996310971
 30
0.0
  0
VERTEX
  5
173
330
16C
100
AcDbEntity
  8
\U+30EC\U+30A4\U+30E4\U+30FC 4
 62
     7
370
     9
100
AcDbVertex
100
AcDb2dVertex
 10
232.2176947119109
 20
86.56767033426087
 30
0.0
  0
VERTEX
  5
174
330
16C
100
AcDbEntity
  8
\U+30EC\U+30A4\U+30E4\U+30FC 4
 62
     7
370
     9
100
AcDbVertex
100
AcDb2dVertex
 10
231.9517333404496
 20
86.36923283431048
 30
0.0
  0
VERTEX
  5
175
330
16C
100
AcDbEntity
  8
\U+30EC\U+30A4\U+30E4\U+30FC 4
 62
     7
370
     9
100
AcDbVertex
100
AcDb2dVertex
 10
231.6943847077014
 20
86.12945418853708
 30
0.0
  0
VERTEX
  5
176
330
16C
100
AcDbEntity
  8
\U+30EC\U+30A4\U+30E4\U+30FC 4
 62
     7
370
     9
100
AcDbVertex
100
AcDb2dVertex
 10
231.4518499855398
 20
85.85729164520235
 30
0.0
  0
VERTEX
  5
177
330
16C
100
AcDbEntity
  8
\U+30EC\U+30A4\U+30E4\U+30FC 4
 62
     7
370
     9
100
AcDbVertex
100
AcDb2dVertex
 10
231.2296413267412
 20
85.5548122615974
 30
0.0
  0
VERTEX
  5
178
330
16C
100
AcDbEntity
  8
\U+30EC\U+30A4\U+30E4\U+30FC 4
 62
     7
370
     9
100
AcDbVertex
100
AcDb2dVertex
 10
231.0336153936305
 20
85.23235132417803
 30
0.0
  0
VERTEX
  5
179
330
16C
100
AcDbEntity
  8
\U+30EC\U+30A4\U+30E4\U+30FC 4
 62
     7
370
     9
100
AcDbVertex
100
AcDb2dVertex
 10
230.8641166957562
 20
84.89404294752649
 30
0.0
  0
VERTEX
  5
17A
330
16C
100
AcDbEntity
  8
\U+30EC\U+30A4\U+30E4\U+30FC 4
 62
     7
370
     9
100
AcDbVertex
100
AcDb2dVertex
 10
230.7266573858947
 20
84.54815536080741
 30
0.0
  0
VERTEX
  5
17B
330
16C
100
AcDbEntity
  8
\U+30EC\U+30A4\U+30E4\U+30FC 4
 62
     7
370
     9
100
AcDbVertex
100
AcDb2dVertex
 10
230.627094126371
 20
84.20295679318538
 30
0.0
  0
VERTEX
  5
17C
330
16C
100
AcDbEntity
  8
\U+30EC\U+30A4\U+30E4\U+30FC 4
 62
     7
370
     9
100
AcDbVertex
100
AcDb2dVertex
 10
230.5657714267336
 20
83.866715473825
 30
0.0
  0
VERTEX
  5
17D
330
16C
100
AcDbEntity
  8
\U+30EC\U+30A4\U+30E4\U+30FC 4
 62
     7
370
     9
100
AcDbVertex
100
AcDb2dVertex
 10
230.5423447774339
 20
83.54356551730855
 30
0.0
  0
SEQEND
  5
17E
330
16C
100
AcDbEntity
  8
\U+30EC\U+30A4\U+30E4\U+30FC 4
370
     9
  0
ENDBLK
  5
16B
330
168
100
AcDbEntity
  8
0
100
AcDbBlockEnd
  0
BLOCK
  5
181
330
17F
100
AcDbEntity
  8
0
100
AcDbBlockBegin
  2
block 41
 70
     0
 71
     0
 10
0.0
 20
0.0
 30
0.0
  3
block 41
  1

  0
POLYLINE
  5
183
330
17F
100
AcDbEntity
  8
\U+30EC\U+30A4\U+30E4\U+30FC 4
 62
     7
370
     9
100
AcDb2dPolyline
 66
     1
 10
0.0
 20
0.0
 30
0.0
  0
VERTEX
  5
184
330
183
100
AcDbEntity
  8
\U+30EC\U+30A4\U+30E4\U+30FC 4
 62
     7
370
     9
100
AcDbVertex
100
AcDb2dVertex
 10
230.5423447774339
 20
83.54356551730855
 30
0.0
  0
VERTEX
  5
185
330
183
100
AcDbEntity
  8
\U+30EC\U+30A4\U+30E4\U+30FC 4
 62
     7
370
     9
100
AcDbVertex
100
AcDb2dVertex
 10
-24.28275552778348
 20
230.651382049542
 30
0.0
  0
SEQEND
  5
186
330
183
100
AcDbEntity
  8
\U+30EC\U+30A4\U+30E4\U+30FC 4
370
     9
  0
ENDBLK
  5
182
330
17F
100
AcDbEntity
  8
0
100
AcDbBlockEnd
  0
BLOCK
  5
189
330
187
100
AcDbEntity
  8
0
100
AcDbBlockBegin
  2
block 42
 70
     0
 71
     0
 10
0.0
 20
0.0
 30
0.0
  3
block 42
  1

  0
POLYLINE
  5
18B
330
187
100
AcDbEntity
  8
\U+30EC\U+30A4\U+30E4\U+30FC 4
 62
     7
370
     9
100
AcDb2dPolyline
 66
     1
 10
0.0
 20
0.0
 30
0.0
  0
VERTEX
  5
18C
330
18B
100
AcDbEntity
  8
\U+30EC\U+30A4\U+30E4\U+30FC 4
 62
     7
370
     9
100
AcDbVertex
100
AcDb2dVertex
 10
-21.1956054634511
 20
233.8847764172233
 30
0.0
  0
VERTEX
  5
18D
330
18B
100
AcDbEntity
  8
\U+30EC\U+30A4\U+30E4\U+30FC 4
 62
     7
370
     9
100
AcDbVertex
100
AcDb2dVertex
 10
-21.3535630914498
 20
233.9548841103481
 30
0.0
  0
VERTEX
  5
18E
330
18B
100
AcDbEntity
  8
\U+30EC\U+30A4\U+30E4\U+30FC 4
 62
     7
370
     9
100
AcDbVertex
100
AcDb2dVertex
 10
-21.57577175024842
 20
234.0001871159791
 30
0.0
  0
VERTEX
  5
18F
330
18B
100
AcDbEntity
  8
\U+30EC\U+30A4\U+30E4\U+30FC 4
 62
     7
370
     9
100
AcDbVertex
100
AcDb2dVertex
 10
-21.81830647241001
 20
233.9943304536542
 30
0.0
  0
VERTEX
  5
190
330
18B
100
AcDbEntity
  8
\U+30EC\U+30A4\U+30E4\U+30FC 4
 62
     7
370
     9
100
AcDbVertex
100
AcDb2dVertex
 10
-22.07272677399571
 20
233.9359360851792
 30
0.0
  0
VERTEX
  5
191
330
18B
100
AcDbEntity
  8
\U+30EC\U+30A4\U+30E4\U+30FC 4
 62
     7
370
     9
100
AcDbVertex
100
AcDb2dVertex
 10
-22.338688145457
 20
233.8291381251365
 30
0.0
  0
VERTEX
  5
192
330
18B
100
AcDbEntity
  8
\U+30EC\U+30A4\U+30E4\U+30FC 4
 62
     7
370
     9
100
AcDbVertex
100
AcDb2dVertex
 10
-22.60757784808074
 20
233.6742810830745
 30
0.0
  0
VERTEX
  5
193
330
18B
100
AcDbEntity
  8
\U+30EC\U+30A4\U+30E4\U+30FC 4
 62
     7
370
     9
100
AcDbVertex
100
AcDb2dVertex
 10
-22.87371147431629
 20
233.4754990735756
 30
0.0
  0
VERTEX
  5
194
330
18B
100
AcDbEntity
  8
\U+30EC\U+30A4\U+30E4\U+30FC 4
 62
     7
370
     9
100
AcDbVertex
100
AcDb2dVertex
 10
-23.12795952112773
 20
233.2372707207706
 30
0.0
  0
VERTEX
  5
195
330
18B
100
AcDbEntity
  8
\U+30EC\U+30A4\U+30E4\U+30FC 4
 62
     7
370
     9
100
AcDbVertex
100
AcDb2dVertex
 10
-23.37066649806358
 20
232.963902394016
 30
0.0
  0
VERTEX
  5
196
330
18B
100
AcDbEntity
  8
\U+30EC\U+30A4\U+30E4\U+30FC 4
 62
     7
370
     9
100
AcDbVertex
100
AcDb2dVertex
 10
-23.5928751568622
 20
232.6626287938309
 30
0.0
  0
VERTEX
  5
197
330
18B
100
AcDbEntity
  8
\U+30EC\U+30A4\U+30E4\U+30FC 4
 62
     7
370
     9
100
AcDbVertex
100
AcDb2dVertex
 10
-23.79165716636112
 20
232.3382730538946
 30
0.0
  0
VERTEX
  5
198
330
18B
100
AcDbEntity
  8
\U+30EC\U+30A4\U+30E4\U+30FC 4
 62
     7
370
     9
100
AcDbVertex
100
AcDb2dVertex
 10
-23.96115586423541
 20
232.0004814415659
 30
0.0
  0
VERTEX
  5
199
330
18B
100
AcDbEntity
  8
\U+30EC\U+30A4\U+30E4\U+30FC 4
 62
     7
370
     9
100
AcDbVertex
100
AcDb2dVertex
 10
-24.09568684293441
 20
231.6556273834923
 30
0.0
  0
VERTEX
  5
19A
330
18B
100
AcDbEntity
  8
\U+30EC\U+30A4\U+30E4\U+30FC 4
 62
     7
370
     9
100
AcDbVertex
100
AcDb2dVertex
 10
-24.19507784768387
 20
231.3106010706446
 30
0.0
  0
VERTEX
  5
19B
330
18B
100
AcDbEntity
  8
\U+30EC\U+30A4\U+30E4\U+30FC 4
 62
     7
370
     9
100
AcDbVertex
100
AcDb2dVertex
 10
-24.25932887848378
 20
230.9729817130901
 30
0.0
  0
VERTEX
  5
19C
330
18B
100
AcDbEntity
  8
\U+30EC\U+30A4\U+30E4\U+30FC 4
 62
     7
370
     9
100
AcDbVertex
100
AcDb2dVertex
 10
-24.28275552778348
 20
230.651382049542
 30
0.0
  0
SEQEND
  5
19D
330
18B
100
AcDbEntity
  8
\U+30EC\U+30A4\U+30E4\U+30FC 4
370
     9
  0
ENDBLK
  5
18A
330
187
100
AcDbEntity
  8
0
100
AcDbBlockEnd
  0
BLOCK
  5
1A0
330
19E
100
AcDbEntity
  8
0
100
AcDbBlockBegin
  2
block 43
 70
     0
 71
     0
 10
0.0
 20
0.0
 30
0.0
  3
block 43
  1

  0
POLYLINE
  5
1A2
330
19E
100
AcDbEntity
  8
\U+30EC\U+30A4\U+30E4\U+30FC 4
 62
     7
370
     9
100
AcDb2dPolyline
 66
     1
 10
0.0
 20
0.0
 30
0.0
  0
VERTEX
  5
1A3
330
1A2
100
AcDbEntity
  8
\U+30EC\U+30A4\U+30E4\U+30FC 4
 62
     7
370
     9
100
AcDbVertex
100
AcDb2dVertex
 10
-22.13112114247069
 20
234.2794121050586
 30
0.0
  0
VERTEX
  5
1A4
330
1A2
100
AcDbEntity
  8
\U+30EC\U+30A4\U+30E4\U+30FC 4
 62
     7
370
     9
100
AcDbVertex
100
AcDb2dVertex
 10
-22.35625813243177
 20
234.2735554427337
 30
0.0
  0
VERTEX
  5
1A5
330
1A2
100
AcDbEntity
  8
\U+30EC\U+30A4\U+30E4\U+30FC 4
 62
     7
370
     9
100
AcDbVertex
100
AcDb2dVertex
 10
-22.61050617924321
 20
234.2179171506469
 30
0.0
  0
VERTEX
  5
1A6
330
1A2
100
AcDbEntity
  8
\U+30EC\U+30A4\U+30E4\U+30FC 4
 62
     7
370
     9
100
AcDbVertex
100
AcDb2dVertex
 10
-22.87371147431629
 20
234.1112914453784
 30
0.0
  0
VERTEX
  5
1A7
330
1A2
100
AcDbEntity
  8
\U+30EC\U+30A4\U+30E4\U+30FC 4
 62
     7
370
     9
100
AcDbVertex
100
AcDb2dVertex
 10
-23.13967284577758
 20
233.9562621485422
 30
0.0
  0
VERTEX
  5
1A8
330
1A2
100
AcDbEntity
  8
\U+30EC\U+30A4\U+30E4\U+30FC 4
 62
     7
370
     9
100
AcDbVertex
100
AcDb2dVertex
 10
-23.40580647201313
 20
233.7590304320117
 30
0.0
  0
VERTEX
  5
1A9
330
1A2
100
AcDbEntity
  8
\U+30EC\U+30A4\U+30E4\U+30FC 4
 62
     7
370
     9
100
AcDbVertex
100
AcDb2dVertex
 10
-23.66005451882457
 20
233.5208020792066
 30
0.0
  0
VERTEX
  5
1AA
330
1A2
100
AcDbEntity
  8
\U+30EC\U+30A4\U+30E4\U+30FC 4
 62
     7
370
     9
100
AcDbVertex
100
AcDb2dVertex
 10
-23.89983316459796
 20
233.2474337524521
 30
0.0
  0
VERTEX
  5
1AB
330
1A2
100
AcDbEntity
  8
\U+30EC\U+30A4\U+30E4\U+30FC 4
 62
     7
370
     9
100
AcDbVertex
100
AcDb2dVertex
 10
-24.12204182339658
 20
232.9463324070412
 30
0.0
  0
VERTEX
  5
1AC
330
1A2
100
AcDbEntity
  8
\U+30EC\U+30A4\U+30E4\U+30FC 4
 62
     7
370
     9
100
AcDbVertex
100
AcDb2dVertex
 10
-24.31789550173303
 20
232.6247327434931
 30
0.0
  0
VERTEX
  5
1AD
330
1A2
100
AcDbEntity
  8
\U+30EC\U+30A4\U+30E4\U+30FC 4
 62
     7
370
     9
100
AcDbVertex
100
AcDb2dVertex
 10
-24.4815375372824
 20
232.2871133859387
 30
0.0
  0
VERTEX
  5
1AE
330
1A2
100
AcDbEntity
  8
\U+30EC\U+30A4\U+30E4\U+30FC 4
 62
     7
370
     9
100
AcDbVertex
100
AcDb2dVertex
 10
-24.6160685159814
 20
231.9436373660592
 30
0.0
  0
VERTEX
  5
1AF
330
1A2
100
AcDbEntity
  8
\U+30EC\U+30A4\U+30E4\U+30FC 4
 62
     7
370
     9
100
AcDbVertex
100
AcDb2dVertex
 10
-24.7125311895684
 20
231.5999890914056
 30
0.0
  0
VERTEX
  5
1B0
330
1A2
100
AcDbEntity
  8
\U+30EC\U+30A4\U+30E4\U+30FC 4
 62
     7
370
     9
100
AcDbVertex
100
AcDb2dVertex
 10
-24.77385388920584
 20
231.2652980650136
 30
0.0
  0
VERTEX
  5
1B1
330
1A2
100
AcDbEntity
  8
\U+30EC\U+30A4\U+30E4\U+30FC 4
 62
     7
370
     9
100
AcDbVertex
100
AcDb2dVertex
 10
-24.79435220734308
 20
230.9466267326279
 30
0.0
  0
VERTEX
  5
1B2
330
1A2
100
AcDbEntity
  8
\U+30EC\U+30A4\U+30E4\U+30FC 4
 62
     7
370
     9
100
AcDbVertex
100
AcDb2dVertex
 10
-24.77385388920584
 20
230.651382049542
 30
0.0
  0
VERTEX
  5
1B3
330
1A2
100
AcDbEntity
  8
\U+30EC\U+30A4\U+30E4\U+30FC 4
 62
     7
370
     9
100
AcDbVertex
100
AcDb2dVertex
 10
-24.7125311895684
 20
230.3854206780807
 30
0.0
  0
VERTEX
  5
1B4
330
1A2
100
AcDbEntity
  8
\U+30EC\U+30A4\U+30E4\U+30FC 4
 62
     7
370
     9
100
AcDbVertex
100
AcDb2dVertex
 10
-24.6160685159814
 20
230.1544270257947
 30
0.0
  0
VERTEX
  5
1B5
330
1A2
100
AcDbEntity
  8
\U+30EC\U+30A4\U+30E4\U+30FC 4
 62
     7
370
     9
100
AcDbVertex
100
AcDb2dVertex
 10
-24.56335855505708
 20
230.0667493456951
 30
0.0
  0
SEQEND
  5
1B6
330
1A2
100
AcDbEntity
  8
\U+30EC\U+30A4\U+30E4\U+30FC 4
370
     9
  0
ENDBLK
  5
1A1
330
19E
100
AcDbEntity
  8
0
100
AcDbBlockEnd
  0
BLOCK
  5
1B9
330
1B7
100
AcDbEntity
  8
0
100
AcDbBlockBegin
  2
block 44
 70
     0
 71
     0
 10
0.0
 20
0.0
 30
0.0
  3
block 44
  1

  0
POLYLINE
  5
1BB
330
1B7
100
AcDbEntity
  8
\U+30EC\U+30A4\U+30E4\U+30FC 4
 62
     7
370
     9
100
AcDb2dPolyline
 66
     1
 10
0.0
 20
0.0
 30
0.0
  0
VERTEX
  5
1BC
330
1BB
100
AcDbEntity
  8
\U+30EC\U+30A4\U+30E4\U+30FC 4
 62
     7
370
     9
100
AcDbVertex
100
AcDb2dVertex
 10
-24.30911050824564
 20
229.7758110319658
 30
0.0
  0
VERTEX
  5
1BD
330
1BB
100
AcDbEntity
  8
\U+30EC\U+30A4\U+30E4\U+30FC 4
 62
     7
370
     9
100
AcDbVertex
100
AcDb2dVertex
 10
-24.35579155207078
 20
229.8050943435904
 30
0.0
  0
VERTEX
  5
1BE
330
1BB
100
AcDbEntity
  8
\U+30EC\U+30A4\U+30E4\U+30FC 4
 62
     7
370
     9
100
AcDbVertex
100
AcDb2dVertex
 10
-24.52253417355687
 20
229.9527166851334
 30
0.0
  0
VERTEX
  5
1BF
330
1BB
100
AcDbEntity
  8
\U+30EC\U+30A4\U+30E4\U+30FC 4
 62
     7
370
     9
100
AcDbVertex
100
AcDb2dVertex
 10
-24.65982122864407
 20
230.1442639941133
 30
0.0
  0
VERTEX
  5
1C0
330
1BB
100
AcDbEntity
  8
\U+30EC\U+30A4\U+30E4\U+30FC 4
 62
     7
370
     9
100
AcDbVertex
100
AcDb2dVertex
 10
-24.75628390223107
 20
230.3780137227874
 30
0.0
  0
VERTEX
  5
1C1
330
1BB
100
AcDbEntity
  8
\U+30EC\U+30A4\U+30E4\U+30FC 4
 62
     7
370
     9
100
AcDbVertex
100
AcDb2dVertex
 10
-24.81777885664278
 20
230.6470756801855
 30
0.0
  0
VERTEX
  5
1C2
330
1BB
100
AcDbEntity
  8
\U+30EC\U+30A4\U+30E4\U+30FC 4
 62
     7
370
     9
100
AcDbVertex
100
AcDb2dVertex
 10
-24.83827717478001
 20
230.9466267326279
 30
0.0
  0
VERTEX
  5
1C3
330
1BB
100
AcDbEntity
  8
\U+30EC\U+30A4\U+30E4\U+30FC 4
 62
     7
370
     9
100
AcDbVertex
100
AcDb2dVertex
 10
-24.81777885664278
 20
231.2697766891444
 30
0.0
  0
VERTEX
  5
1C4
330
1BB
100
AcDbEntity
  8
\U+30EC\U+30A4\U+30E4\U+30FC 4
 62
     7
370
     9
100
AcDbVertex
100
AcDb2dVertex
 10
-24.75628390223107
 20
231.608774084893
 30
0.0
  0
VERTEX
  5
1C5
330
1BB
100
AcDbEntity
  8
\U+30EC\U+30A4\U+30E4\U+30FC 4
 62
     7
370
     9
100
AcDbVertex
100
AcDb2dVertex
 10
-24.65982122864407
 20
231.9553506907091
 30
0.0
  0
VERTEX
  5
1C6
330
1BB
100
AcDbEntity
  8
\U+30EC\U+30A4\U+30E4\U+30FC 4
 62
     7
370
     9
100
AcDbVertex
100
AcDb2dVertex
 10
-24.52253417355687
 20
232.3046833729134
 30
0.0
  0
VERTEX
  5
1C7
330
1BB
100
AcDbEntity
  8
\U+30EC\U+30A4\U+30E4\U+30FC 4
 62
     7
370
     9
100
AcDbVertex
100
AcDb2dVertex
 10
-24.35579155207078
 20
232.6452310616304
 30
0.0
  0
VERTEX
  5
1C8
330
1BB
100
AcDbEntity
  8
\U+30EC\U+30A4\U+30E4\U+30FC 4
 62
     7
370
     9
100
AcDbVertex
100
AcDb2dVertex
 10
-24.15700954257186
 20
232.9726873875034
 30
0.0
  0
VERTEX
  5
1C9
330
1BB
100
AcDbEntity
  8
\U+30EC\U+30A4\U+30E4\U+30FC 4
 62
     7
370
     9
100
AcDbVertex
100
AcDb2dVertex
 10
-23.93480088377325
 20
233.2767170640767
 30
0.0
  0
VERTEX
  5
1CA
330
1BB
100
AcDbEntity
  8
\U+30EC\U+30A4\U+30E4\U+30FC 4
 62
     7
370
     9
100
AcDbVertex
100
AcDb2dVertex
 10
-23.68933783044919
 20
233.5528414672195
 30
0.0
  0
VERTEX
  5
1CB
330
1BB
100
AcDbEntity
  8
\U+30EC\U+30A4\U+30E4\U+30FC 4
 62
     7
370
     9
100
AcDbVertex
100
AcDb2dVertex
 10
-23.43198919770103
 20
233.7939981511869
 30
0.0
  0
VERTEX
  5
1CC
330
1BB
100
AcDbEntity
  8
\U+30EC\U+30A4\U+30E4\U+30FC 4
 62
     7
370
     9
100
AcDbVertex
100
AcDb2dVertex
 10
-23.16602782623974
 20
233.9943304536542
 30
0.0
  0
VERTEX
  5
1CD
330
1BB
100
AcDbEntity
  8
\U+30EC\U+30A4\U+30E4\U+30FC 4
 62
     7
370
     9
100
AcDbVertex
100
AcDb2dVertex
 10
-22.89420979245353
 20
234.1507377886846
 30
0.0
  0
VERTEX
  5
1CE
330
1BB
100
AcDbEntity
  8
\U+30EC\U+30A4\U+30E4\U+30FC 4
 62
     7
370
     9
100
AcDbVertex
100
AcDb2dVertex
 10
-22.62807616621798
 20
234.257363493953
 30
0.0
  0
VERTEX
  5
1CF
330
1BB
100
AcDbEntity
  8
\U+30EC\U+30A4\U+30E4\U+30FC 4
 62
     7
370
     9
100
AcDbVertex
100
AcDb2dVertex
 10
-22.36797145708162
 20
234.3143798242339
 30
0.0
  0
VERTEX
  5
1D0
330
1BB
100
AcDbEntity
  8
\U+30EC\U+30A4\U+30E4\U+30FC 4
 62
     7
370
     9
100
AcDbVertex
100
AcDb2dVertex
 10
-22.12526448014577
 20
234.3202364865588
 30
0.0
  0
VERTEX
  5
1D1
330
1BB
100
AcDbEntity
  8
\U+30EC\U+30A4\U+30E4\U+30FC 4
 62
     7
370
     9
100
AcDbVertex
100
AcDb2dVertex
 10
-21.90305582134715
 20
234.2735554427337
 30
0.0
  0
VERTEX
  5
1D2
330
1BB
100
AcDbEntity
  8
\U+30EC\U+30A4\U+30E4\U+30FC 4
 62
     7
370
     9
100
AcDbVertex
100
AcDb2dVertex
 10
-21.75112711044764
 20
234.204825787803
 30
0.0
  0
SEQEND
  5
1D3
330
1BB
100
AcDbEntity
  8
\U+30EC\U+30A4\U+30E4\U+30FC 4
370
     9
  0
ENDBLK
  5
1BA
330
1B7
100
AcDbEntity
  8
0
100
AcDbBlockEnd
  0
BLOCK
  5
1D6
330
1D4
100
AcDbEntity
  8
0
100
AcDbBlockBegin
  2
block 45
 70
     0
 71
     0
 10
0.0
 20
0.0
 30
0.0
  3
block 45
  1

  0
POLYLINE
  5
1D8
330
1D4
100
AcDbEntity
  8
\U+30EC\U+30A4\U+30E4\U+30FC 4
 62
     7
370
     9
100
AcDb2dPolyline
 66
     1
 10
0.0
 20
0.0
 30
0.0
  0
VERTEX
  5
1D9
330
1D8
100
AcDbEntity
  8
\U+30EC\U+30A4\U+30E4\U+30FC 4
 62
     7
370
     9
100
AcDbVertex
100
AcDb2dVertex
 10
-21.84173312170971
 20
234.2559854557589
 30
0.0
  0
VERTEX
  5
1DA
330
1D8
100
AcDbEntity
  8
\U+30EC\U+30A4\U+30E4\U+30FC 4
 62
     7
370
     9
100
AcDbVertex
100
AcDb2dVertex
 10
-21.99073350144676
 20
234.3247151106897
 30
0.0
  0
VERTEX
  5
1DB
330
1D8
100
AcDbEntity
  8
\U+30EC\U+30A4\U+30E4\U+30FC 4
 62
     7
370
     9
100
AcDbVertex
100
AcDb2dVertex
 10
-22.21587049140784
 20
234.3713961545148
 30
0.0
  0
VERTEX
  5
1DC
330
1D8
100
AcDbEntity
  8
\U+30EC\U+30A4\U+30E4\U+30FC 4
 62
     7
370
     9
100
AcDbVertex
100
AcDb2dVertex
 10
-22.45857746834369
 20
234.3670897851582
 30
0.0
  0
VERTEX
  5
1DD
330
1D8
100
AcDbEntity
  8
\U+30EC\U+30A4\U+30E4\U+30FC 4
 62
     7
370
     9
100
AcDbVertex
100
AcDb2dVertex
 10
-22.71575384631759
 20
234.3100734548773
 30
0.0
  0
VERTEX
  5
1DE
330
1D8
100
AcDbEntity
  8
\U+30EC\U+30A4\U+30E4\U+30FC 4
 62
     7
370
     9
100
AcDbVertex
100
AcDb2dVertex
 10
-22.9848158037156
 20
234.2018974566405
 30
0.0
  0
VERTEX
  5
1DF
330
1D8
100
AcDbEntity
  8
\U+30EC\U+30A4\U+30E4\U+30FC 4
 62
     7
370
     9
100
AcDbVertex
100
AcDb2dVertex
 10
-23.25370550633935
 20
234.0454901216102
 30
0.0
  0
VERTEX
  5
1E0
330
1D8
100
AcDbEntity
  8
\U+30EC\U+30A4\U+30E4\U+30FC 4
 62
     7
370
     9
100
AcDbVertex
100
AcDb2dVertex
 10
-23.5198391325749
 20
233.8453300739172
 30
0.0
  0
VERTEX
  5
1E1
330
1D8
100
AcDbEntity
  8
\U+30EC\U+30A4\U+30E4\U+30FC 4
 62
     7
370
     9
100
AcDbVertex
100
AcDb2dVertex
 10
-23.77994384171127
 20
233.6040011351754
 30
0.0
  0
VERTEX
  5
1E2
330
1D8
100
AcDbEntity
  8
\U+30EC\U+30A4\U+30E4\U+30FC 4
 62
     7
370
     9
100
AcDbVertex
100
AcDb2dVertex
 10
-24.02265081864712
 20
233.3278767320326
 30
0.0
  0
VERTEX
  5
1E3
330
1D8
100
AcDbEntity
  8
\U+30EC\U+30A4\U+30E4\U+30FC 4
 62
     7
370
     9
100
AcDbVertex
100
AcDb2dVertex
 10
-24.24468722267147
 20
233.0236748006851
 30
0.0
  0
VERTEX
  5
1E4
330
1D8
100
AcDbEntity
  8
\U+30EC\U+30A4\U+30E4\U+30FC 4
 62
     7
370
     9
100
AcDbVertex
100
AcDb2dVertex
 10
-24.44364148694465
 20
232.6963907295863
 30
0.0
  0
VERTEX
  5
1E5
330
1D8
100
AcDbEntity
  8
\U+30EC\U+30A4\U+30E4\U+30FC 4
 62
     7
370
     9
100
AcDbVertex
100
AcDb2dVertex
 10
-24.61314018481894
 20
232.3556707860951
 30
0.0
  0
VERTEX
  5
1E6
330
1D8
100
AcDbEntity
  8
\U+30EC\U+30A4\U+30E4\U+30FC 4
 62
     7
370
     9
100
AcDbVertex
100
AcDb2dVertex
 10
-24.74767116351794
 20
232.0078883968592
 30
0.0
  0
VERTEX
  5
1E7
330
1D8
100
AcDbEntity
  8
\U+30EC\U+30A4\U+30E4\U+30FC 4
 62
     7
370
     9
100
AcDbVertex
100
AcDb2dVertex
 10
-24.8470621682674
 20
231.6599337528489
 30
0.0
  0
VERTEX
  5
1E8
330
1D8
100
AcDbEntity
  8
\U+30EC\U+30A4\U+30E4\U+30FC 4
 62
     7
370
     9
100
AcDbVertex
100
AcDb2dVertex
 10
-24.90545653674239
 20
231.3209363571003
 30
0.0
  0
VERTEX
  5
1E9
330
1D8
100
AcDbEntity
  8
\U+30EC\U+30A4\U+30E4\U+30FC 4
 62
     7
370
     9
100
AcDbVertex
100
AcDb2dVertex
 10
-24.92595485487962
 20
230.9977864005839
 30
0.0
  0
VERTEX
  5
1EA
330
1D8
100
AcDbEntity
  8
\U+30EC\U+30A4\U+30E4\U+30FC 4
 62
     7
370
     9
100
AcDbVertex
100
AcDb2dVertex
 10
-24.90545653674239
 20
230.6982353481414
 30
0.0
  0
VERTEX
  5
1EB
330
1D8
100
AcDbEntity
  8
\U+30EC\U+30A4\U+30E4\U+30FC 4
 62
     7
370
     9
100
AcDbVertex
100
AcDb2dVertex
 10
-24.8470621682674
 20
230.4291733907434
 30
0.0
  0
VERTEX
  5
1EC
330
1D8
100
AcDbEntity
  8
\U+30EC\U+30A4\U+30E4\U+30FC 4
 62
     7
370
     9
100
AcDbVertex
100
AcDb2dVertex
 10
-24.74767116351794
 20
230.1954236620692
 30
0.0
  0
VERTEX
  5
1ED
330
1D8
100
AcDbEntity
  8
\U+30EC\U+30A4\U+30E4\U+30FC 4
 62
     7
370
     9
100
AcDbVertex
100
AcDb2dVertex
 10
-24.61314018481894
 20
230.0038763530893
 30
0.0
  0
VERTEX
  5
1EE
330
1D8
100
AcDbEntity
  8
\U+30EC\U+30A4\U+30E4\U+30FC 4
 62
     7
370
     9
100
AcDbVertex
100
AcDb2dVertex
 10
-24.44364148694465
 20
229.8562540115464
 30
0.0
  0
VERTEX
  5
1EF
330
1D8
100
AcDbEntity
  8
\U+30EC\U+30A4\U+30E4\U+30FC 4
 62
     7
370
     9
100
AcDbVertex
100
AcDb2dVertex
 10
-24.39678818834525
 20
229.8269706999217
 30
0.0
  0
SEQEND
  5
1F0
330
1D8
100
AcDbEntity
  8
\U+30EC\U+30A4\U+30E4\U+30FC 4
370
     9
  0
ENDBLK
  5
1D7
330
1D4
100
AcDbEntity
  8
0
100
AcDbBlockEnd
  0
BLOCK
  5
1F3
330
1F1
100
AcDbEntity
  8
0
100
AcDbBlockBegin
  2
block 46
 70
     0
 71
     0
 10
0.0
 20
0.0
 30
0.0
  3
block 46
  1

  0
POLYLINE
  5
1F5
330
1F1
100
AcDbEntity
  8
\U+30EC\U+30A4\U+30E4\U+30FC 4
 62
     7
370
     9
100
AcDb2dPolyline
 66
     1
 10
0.0
 20
0.0
 30
0.0
  0
VERTEX
  5
1F6
330
1F5
100
AcDbEntity
  8
\U+30EC\U+30A4\U+30E4\U+30FC 4
 62
     7
370
     9
100
AcDbVertex
100
AcDb2dVertex
 10
-24.97556422986722
 20
230.9890014070965
 30
0.0
  0
VERTEX
  5
1F7
330
1F5
100
AcDbEntity
  8
\U+30EC\U+30A4\U+30E4\U+30FC 4
 62
     7
370
     9
100
AcDbVertex
100
AcDb2dVertex
 10
-24.95816649766671
 20
231.3092230324505
 30
0.0
  0
VERTEX
  5
1F8
330
1F5
100
AcDbEntity
  8
\U+30EC\U+30A4\U+30E4\U+30FC 4
 62
     7
370
     9
100
AcDbVertex
100
AcDb2dVertex
 10
-24.89959987441746
 20
231.646842390005
 30
0.0
  0
VERTEX
  5
1F9
330
1F5
100
AcDbEntity
  8
\U+30EC\U+30A4\U+30E4\U+30FC 4
 62
     7
370
     9
100
AcDbVertex
100
AcDb2dVertex
 10
-24.80313720083047
 20
231.9918687028527
 30
0.0
  0
VERTEX
  5
1FA
330
1F5
100
AcDbEntity
  8
\U+30EC\U+30A4\U+30E4\U+30FC 4
 62
     7
370
     9
100
AcDbVertex
100
AcDb2dVertex
 10
-24.67153455329392
 20
232.3382730538946
 30
0.0
  0
VERTEX
  5
1FB
330
1F5
100
AcDbEntity
  8
\U+30EC\U+30A4\U+30E4\U+30FC 4
 62
     7
370
     9
100
AcDbVertex
100
AcDb2dVertex
 10
-24.50789251774455
 20
232.6788207426115
 30
0.0
  0
VERTEX
  5
1FC
330
1F5
100
AcDbEntity
  8
\U+30EC\U+30A4\U+30E4\U+30FC 4
 62
     7
370
     9
100
AcDbVertex
100
AcDb2dVertex
 10
-24.3120388394081
 20
233.0062770684846
 30
0.0
  0
VERTEX
  5
1FD
330
1F5
100
AcDbEntity
  8
\U+30EC\U+30A4\U+30E4\U+30FC 4
 62
     7
370
     9
100
AcDbVertex
100
AcDb2dVertex
 10
-24.09568684293441
 20
233.311684783252
 30
0.0
  0
VERTEX
  5
1FE
330
1F5
100
AcDbEntity
  8
\U+30EC\U+30A4\U+30E4\U+30FC 4
 62
     7
370
     9
100
AcDbVertex
100
AcDb2dVertex
 10
-23.85590819716102
 20
233.5924600652998
 30
0.0
  0
VERTEX
  5
1FF
330
1F5
100
AcDbEntity
  8
\U+30EC\U+30A4\U+30E4\U+30FC 4
 62
     7
370
     9
100
AcDbVertex
100
AcDb2dVertex
 10
-23.60166015034959
 20
233.8394734115922
 30
0.0
  0
VERTEX
  5
200
330
1F5
100
AcDbEntity
  8
\U+30EC\U+30A4\U+30E4\U+30FC 4
 62
     7
370
     9
100
AcDbVertex
100
AcDb2dVertex
 10
-23.33552652411404
 20
234.0484184527726
 30
0.0
  0
VERTEX
  5
201
330
1F5
100
AcDbEntity
  8
\U+30EC\U+30A4\U+30E4\U+30FC 4
 62
     7
370
     9
100
AcDbVertex
100
AcDb2dVertex
 10
-23.06956515265275
 20
234.2149888194845
 30
0.0
  0
VERTEX
  5
202
330
1F5
100
AcDbEntity
  8
\U+30EC\U+30A4\U+30E4\U+30FC 4
 62
     7
370
     9
100
AcDbVertex
100
AcDb2dVertex
 10
-22.800675450029
 20
234.3348781423711
 30
0.0
  0
VERTEX
  5
203
330
1F5
100
AcDbEntity
  8
\U+30EC\U+30A4\U+30E4\U+30FC 4
 62
     7
370
     9
100
AcDbVertex
100
AcDb2dVertex
 10
-22.54039848611837
 20
234.4065361284644
 30
0.0
  0
VERTEX
  5
204
330
1F5
100
AcDbEntity
  8
\U+30EC\U+30A4\U+30E4\U+30FC 4
 62
     7
370
     9
100
AcDbVertex
100
AcDb2dVertex
 10
-22.29493543279432
 20
234.4284124847957
 30
0.0
  0
VERTEX
  5
205
330
1F5
100
AcDbEntity
  8
\U+30EC\U+30A4\U+30E4\U+30FC 4
 62
     7
370
     9
100
AcDbVertex
100
AcDb2dVertex
 10
-22.06394178050832
 20
234.3993014279453
 30
0.0
  0
VERTEX
  5
206
330
1F5
100
AcDbEntity
  8
\U+30EC\U+30A4\U+30E4\U+30FC 4
 62
     7
370
     9
100
AcDbVertex
100
AcDb2dVertex
 10
-21.85930310868448
 20
234.3188584483648
 30
0.0
  0
VERTEX
  5
207
330
1F5
100
AcDbEntity
  8
\U+30EC\U+30A4\U+30E4\U+30FC 4
 62
     7
370
     9
100
AcDbVertex
100
AcDb2dVertex
 10
-21.67809108616034
 20
234.191734424959
 30
0.0
  0
VERTEX
  5
208
330
1F5
100
AcDbEntity
  8
\U+30EC\U+30A4\U+30E4\U+30FC 4
 62
     7
370
     9
100
AcDbVertex
100
AcDb2dVertex
 10
-21.60488280709878
 20
234.1171481077034
 30
0.0
  0
SEQEND
  5
209
330
1F5
100
AcDbEntity
  8
\U+30EC\U+30A4\U+30E4\U+30FC 4
370
     9
  0
ENDBLK
  5
1F4
330
1F1
100
AcDbEntity
  8
0
100
AcDbBlockEnd
  0
BLOCK
  5
20C
330
20A
100
AcDbEntity
  8
0
100
AcDbBlockBegin
  2
block 47
 70
     0
 71
     0
 10
0.0
 20
0.0
 30
0.0
  3
block 47
  1

  0
POLYLINE
  5
20E
330
20A
100
AcDbEntity
  8
\U+30EC\U+30A4\U+30E4\U+30FC 4
 62
     7
370
     9
100
AcDb2dPolyline
 66
     1
 10
0.0
 20
0.0
 30
0.0
  0
VERTEX
  5
20F
330
20E
100
AcDbEntity
  8
\U+30EC\U+30A4\U+30E4\U+30FC 4
 62
     7
370
     9
100
AcDbVertex
100
AcDb2dVertex
 10
-24.15993787373432
 20
229.6939900141911
 30
0.0
  0
VERTEX
  5
210
330
20E
100
AcDbEntity
  8
\U+30EC\U+30A4\U+30E4\U+30FC 4
 62
     7
370
     9
100
AcDbVertex
100
AcDb2dVertex
 10
-24.3120388394081
 20
229.737914981628
 30
0.0
  0
VERTEX
  5
211
330
20E
100
AcDbEntity
  8
\U+30EC\U+30A4\U+30E4\U+30FC 4
 62
     7
370
     9
100
AcDbVertex
100
AcDb2dVertex
 10
-24.50789251774455
 20
229.841612355734
 30
0.0
  0
VERTEX
  5
212
330
20E
100
AcDbEntity
  8
\U+30EC\U+30A4\U+30E4\U+30FC 4
 62
     7
370
     9
100
AcDbVertex
100
AcDb2dVertex
 10
-24.67153455329392
 20
229.9921630284395
 30
0.0
  0
VERTEX
  5
213
330
20E
100
AcDbEntity
  8
\U+30EC\U+30A4\U+30E4\U+30FC 4
 62
     7
370
     9
100
AcDbVertex
100
AcDb2dVertex
 10
-24.80313720083047
 20
230.1866386685818
 30
0.0
  0
VERTEX
  5
214
330
20E
100
AcDbEntity
  8
\U+30EC\U+30A4\U+30E4\U+30FC 4
 62
     7
370
     9
100
AcDbVertex
100
AcDb2dVertex
 10
-24.89959987441746
 20
230.4219386902244
 30
0.0
  0
VERTEX
  5
215
330
20E
100
AcDbEntity
  8
\U+30EC\U+30A4\U+30E4\U+30FC 4
 62
     7
370
     9
100
AcDbVertex
100
AcDb2dVertex
 10
-24.95816649766671
 20
230.6908283928481
 30
0.0
  0
VERTEX
  5
216
330
20E
100
AcDbEntity
  8
\U+30EC\U+30A4\U+30E4\U+30FC 4
 62
     7
370
     9
100
AcDbVertex
100
AcDb2dVertex
 10
-24.97556422986722
 20
230.9890014070965
 30
0.0
  0
SEQEND
  5
217
330
20E
100
AcDbEntity
  8
\U+30EC\U+30A4\U+30E4\U+30FC 4
370
     9
  0
ENDBLK
  5
20D
330
20A
100
AcDbEntity
  8
0
100
AcDbBlockEnd
  0
BLOCK
  5
21A
330
218
100
AcDbEntity
  8
0
100
AcDbBlockBegin
  2
block 48
 70
     0
 71
     0
 10
0.0
 20
0.0
 30
0.0
  3
block 48
  1

  0
POLYLINE
  5
21C
330
218
100
AcDbEntity
  8
\U+30EC\U+30A4\U+30E4\U+30FC 4
 62
     7
370
     9
100
AcDb2dPolyline
 66
     1
 10
0.0
 20
0.0
 30
0.0
  0
VERTEX
  5
21D
330
21C
100
AcDbEntity
  8
\U+30EC\U+30A4\U+30E4\U+30FC 4
 62
     7
370
     9
100
AcDbVertex
100
AcDb2dVertex
 10
-21.67223442383542
 20
234.1595227821719
 30
0.0
  0
VERTEX
  5
21E
330
21C
100
AcDbEntity
  8
\U+30EC\U+30A4\U+30E4\U+30FC 4
 62
     7
370
     9
100
AcDbVertex
100
AcDb2dVertex
 10
-21.78041042207226
 20
234.2458224240774
 30
0.0
  0
VERTEX
  5
21F
330
21C
100
AcDbEntity
  8
\U+30EC\U+30A4\U+30E4\U+30FC 4
 62
     7
370
     9
100
AcDbVertex
100
AcDb2dVertex
 10
-21.98212076273364
 20
234.3452134288269
 30
0.0
  0
VERTEX
  5
220
330
21C
100
AcDbEntity
  8
\U+30EC\U+30A4\U+30E4\U+30FC 4
 62
     7
370
     9
100
AcDbVertex
100
AcDb2dVertex
 10
-22.20708549792045
 20
234.391894472652
 30
0.0
  0
VERTEX
  5
221
330
21C
100
AcDbEntity
  8
\U+30EC\U+30A4\U+30E4\U+30FC 4
 62
     7
370
     9
100
AcDbVertex
100
AcDb2dVertex
 10
-22.45272080601876
 20
234.3875881032955
 30
0.0
  0
VERTEX
  5
222
330
21C
100
AcDbEntity
  8
\U+30EC\U+30A4\U+30E4\U+30FC 4
 62
     7
370
     9
100
AcDbVertex
100
AcDb2dVertex
 10
-22.71282551515513
 20
234.3290214800462
 30
0.0
  0
VERTEX
  5
223
330
21C
100
AcDbEntity
  8
\U+30EC\U+30A4\U+30E4\U+30FC 4
 62
     7
370
     9
100
AcDbVertex
100
AcDb2dVertex
 10
-22.98188747255314
 20
234.2208454818094
 30
0.0
  0
VERTEX
  5
224
330
21C
100
AcDbEntity
  8
\U+30EC\U+30A4\U+30E4\U+30FC 4
 62
     7
370
     9
100
AcDbVertex
100
AcDb2dVertex
 10
-23.25370550633935
 20
234.0630601085849
 30
0.0
  0
VERTEX
  5
225
330
21C
100
AcDbEntity
  8
\U+30EC\U+30A4\U+30E4\U+30FC 4
 62
     7
370
     9
100
AcDbVertex
100
AcDb2dVertex
 10
-23.52552354012557
 20
233.8613497679236
 30
0.0
  0
VERTEX
  5
226
330
21C
100
AcDbEntity
  8
\U+30EC\U+30A4\U+30E4\U+30FC 4
 62
     7
370
     9
100
AcDbVertex
100
AcDb2dVertex
 10
-23.78580050403619
 20
233.6172647527936
 30
0.0
  0
VERTEX
  5
227
330
21C
100
AcDbEntity
  8
\U+30EC\U+30A4\U+30E4\U+30FC 4
 62
     7
370
     9
100
AcDbVertex
100
AcDb2dVertex
 10
-24.0314358121345
 20
233.3395900566825
 30
0.0
  0
VERTEX
  5
228
330
21C
100
AcDbEntity
  8
\U+30EC\U+30A4\U+30E4\U+30FC 4
 62
     7
370
     9
100
AcDbVertex
100
AcDb2dVertex
 10
-24.25640054732132
 20
233.0326320489467
 30
0.0
  0
VERTEX
  5
229
330
21C
100
AcDbEntity
  8
\U+30EC\U+30A4\U+30E4\U+30FC 4
 62
     7
370
     9
100
AcDbVertex
100
AcDb2dVertex
 10
-24.45518255682023
 20
232.7022473919112
 30
0.0
  0
VERTEX
  5
22A
330
21C
100
AcDbEntity
  8
\U+30EC\U+30A4\U+30E4\U+30FC 4
 62
     7
370
     9
100
AcDbVertex
100
AcDb2dVertex
 10
-24.62485350946879
 20
232.3587713720318
 30
0.0
  0
VERTEX
  5
22B
330
21C
100
AcDbEntity
  8
\U+30EC\U+30A4\U+30E4\U+30FC 4
 62
     7
370
     9
100
AcDbVertex
100
AcDb2dVertex
 10
-24.762140564556
 20
232.0063381038908
 30
0.0
  0
VERTEX
  5
22C
330
21C
100
AcDbEntity
  8
\U+30EC\U+30A4\U+30E4\U+30FC 4
 62
     7
370
     9
100
AcDbVertex
100
AcDb2dVertex
 10
-24.86153156930545
 20
231.6570054216864
 30
0.0
  0
VERTEX
  5
22D
330
21C
100
AcDbEntity
  8
\U+30EC\U+30A4\U+30E4\U+30FC 4
 62
     7
370
     9
100
AcDbVertex
100
AcDb2dVertex
 10
-24.92302652371716
 20
231.3150796947754
 30
0.0
  0
VERTEX
  5
22E
330
21C
100
AcDbEntity
  8
\U+30EC\U+30A4\U+30E4\U+30FC 4
 62
     7
370
     9
100
AcDbVertex
100
AcDb2dVertex
 10
-24.9435248418544
 20
230.9890014070965
 30
0.0
  0
VERTEX
  5
22F
330
21C
100
AcDbEntity
  8
\U+30EC\U+30A4\U+30E4\U+30FC 4
 62
     7
370
     9
100
AcDbVertex
100
AcDb2dVertex
 10
-24.92302652371716
 20
230.6865220234916
 30
0.0
  0
VERTEX
  5
230
330
21C
100
AcDbEntity
  8
\U+30EC\U+30A4\U+30E4\U+30FC 4
 62
     7
370
     9
100
AcDbVertex
100
AcDb2dVertex
 10
-24.86153156930545
 20
230.4147039897054
 30
0.0
  0
VERTEX
  5
231
330
21C
100
AcDbEntity
  8
\U+30EC\U+30A4\U+30E4\U+30FC 4
 62
     7
370
     9
100
AcDbVertex
100
AcDb2dVertex
 10
-24.762140564556
 20
230.1792317132885
 30
0.0
  0
VERTEX
  5
232
330
21C
100
AcDbEntity
  8
\U+30EC\U+30A4\U+30E4\U+30FC 4
 62
     7
370
     9
100
AcDbVertex
100
AcDb2dVertex
 10
-24.62485350946879
 20
229.9849283279204
 30
0.0
  0
VERTEX
  5
233
330
21C
100
AcDbEntity
  8
\U+30EC\U+30A4\U+30E4\U+30FC 4
 62
     7
370
     9
100
AcDbVertex
100
AcDb2dVertex
 10
-24.45518255682023
 20
229.8373059863775
 30
0.0
  0
VERTEX
  5
234
330
21C
100
AcDbEntity
  8
\U+30EC\U+30A4\U+30E4\U+30FC 4
 62
     7
370
     9
100
AcDbVertex
100
AcDb2dVertex
 10
-24.25640054732132
 20
229.737914981628
 30
0.0
  0
VERTEX
  5
235
330
21C
100
AcDbEntity
  8
\U+30EC\U+30A4\U+30E4\U+30FC 4
 62
     7
370
     9
100
AcDbVertex
100
AcDb2dVertex
 10
-24.23021782163342
 20
229.7291299881406
 30
0.0
  0
SEQEND
  5
236
330
21C
100
AcDbEntity
  8
\U+30EC\U+30A4\U+30E4\U+30FC 4
370
     9
  0
ENDBLK
  5
21B
330
218
100
AcDbEntity
  8
0
100
AcDbBlockEnd
  0
BLOCK
  5
239
330
237
100
AcDbEntity
  8
0
100
AcDbBlockBegin
  2
block 49
 70
     0
 71
     0
 10
0.0
 20
0.0
 30
0.0
  3
block 49
  1

  0
POLYLINE
  5
23B
330
237
100
AcDbEntity
  8
\U+30EC\U+30A4\U+30E4\U+30FC 4
 62
     7
370
     9
100
AcDb2dPolyline
 66
     1
 10
0.0
 20
0.0
 30
0.0
  0
VERTEX
  5
23C
330
23B
100
AcDbEntity
  8
\U+30EC\U+30A4\U+30E4\U+30FC 4
 62
     7
370
     9
100
AcDbVertex
100
AcDb2dVertex
 10
-21.97333576924625
 20
234.384659772133
 30
0.0
  0
VERTEX
  5
23D
330
23B
100
AcDbEntity
  8
\U+30EC\U+30A4\U+30E4\U+30FC 4
 62
     7
370
     9
100
AcDbVertex
100
AcDb2dVertex
 10
-22.09305283735868
 20
234.4416761024139
 30
0.0
  0
VERTEX
  5
23E
330
23B
100
AcDbEntity
  8
\U+30EC\U+30A4\U+30E4\U+30FC 4
 62
     7
370
     9
100
AcDbVertex
100
AcDb2dVertex
 10
-22.30940483383237
 20
234.4957641015323
 30
0.0
  0
VERTEX
  5
23F
330
23B
100
AcDbEntity
  8
\U+30EC\U+30A4\U+30E4\U+30FC 4
 62
     7
370
     9
100
AcDbVertex
100
AcDb2dVertex
 10
-22.54918347960576
 20
234.5000704708889
 30
0.0
  0
VERTEX
  5
240
330
23B
100
AcDbEntity
  8
\U+30EC\U+30A4\U+30E4\U+30FC 4
 62
     7
370
     9
100
AcDbVertex
100
AcDb2dVertex
 10
-22.80360378119146
 20
234.4533894270637
 30
0.0
  0
VERTEX
  5
241
330
23B
100
AcDbEntity
  8
\U+30EC\U+30A4\U+30E4\U+30FC 4
 62
     7
370
     9
100
AcDbVertex
100
AcDb2dVertex
 10
-23.06663682149028
 20
234.3569267534768
 30
0.0
  0
VERTEX
  5
242
330
23B
100
AcDbEntity
  8
\U+30EC\U+30A4\U+30E4\U+30FC 4
 62
     7
370
     9
100
AcDbVertex
100
AcDb2dVertex
 10
-23.33552652411404
 20
234.2136107812904
 30
0.0
  0
VERTEX
  5
243
330
23B
100
AcDbEntity
  8
\U+30EC\U+30A4\U+30E4\U+30FC 4
 62
     7
370
     9
100
AcDbVertex
100
AcDb2dVertex
 10
-23.60458848151205
 20
234.0249918034729
 30
0.0
  0
VERTEX
  5
244
330
23B
100
AcDbEntity
  8
\U+30EC\U+30A4\U+30E4\U+30FC 4
 62
     7
370
     9
100
AcDbVertex
100
AcDb2dVertex
 10
-23.86469319064841
 20
233.7970987371237
 30
0.0
  0
VERTEX
  5
245
330
23B
100
AcDbEntity
  8
\U+30EC\U+30A4\U+30E4\U+30FC 4
 62
     7
370
     9
100
AcDbVertex
100
AcDb2dVertex
 10
-24.11032849874672
 20
233.5325154038565
 30
0.0
  0
VERTEX
  5
246
330
23B
100
AcDbEntity
  8
\U+30EC\U+30A4\U+30E4\U+30FC 4
 62
     7
370
     9
100
AcDbVertex
100
AcDb2dVertex
 10
-24.34132215103273
 20
233.2386487589646
 30
0.0
  0
VERTEX
  5
247
330
23B
100
AcDbEntity
  8
\U+30EC\U+30A4\U+30E4\U+30FC 4
 62
     7
370
     9
100
AcDbVertex
100
AcDb2dVertex
 10
-24.54596082285657
 20
232.9213554647731
 30
0.0
  0
VERTEX
  5
248
330
23B
100
AcDbEntity
  8
\U+30EC\U+30A4\U+30E4\U+30FC 4
 62
     7
370
     9
100
AcDbVertex
100
AcDb2dVertex
 10
-24.72424451421825
 20
232.5866644383811
 30
0.0
  0
VERTEX
  5
249
330
23B
100
AcDbEntity
  8
\U+30EC\U+30A4\U+30E4\U+30FC 4
 62
     7
370
     9
100
AcDbVertex
100
AcDb2dVertex
 10
-24.8732448939553
 20
232.2418103803076
 30
0.0
  0
VERTEX
  5
24A
330
23B
100
AcDbEntity
  8
\U+30EC\U+30A4\U+30E4\U+30FC 4
 62
     7
370
     9
100
AcDbVertex
100
AcDb2dVertex
 10
-24.98727755451707
 20
231.8954060292657
 30
0.0
  0
VERTEX
  5
24B
330
23B
100
AcDbEntity
  8
\U+30EC\U+30A4\U+30E4\U+30FC 4
 62
     7
370
     9
100
AcDbVertex
100
AcDb2dVertex
 10
-25.06617024112929
 20
231.5533080475804
 30
0.0
  0
VERTEX
  5
24C
330
23B
100
AcDbEntity
  8
\U+30EC\U+30A4\U+30E4\U+30FC 4
 62
     7
370
     9
100
AcDbVertex
100
AcDb2dVertex
 10
-25.1042385462413
 20
231.2244736835133
 30
0.0
  0
VERTEX
  5
24D
330
23B
100
AcDbEntity
  8
\U+30EC\U+30A4\U+30E4\U+30FC 4
 62
     7
370
     9
100
AcDbVertex
100
AcDb2dVertex
 10
-25.1042385462413
 20
230.9145873446151
 30
0.0
  0
VERTEX
  5
24E
330
23B
100
AcDbEntity
  8
\U+30EC\U+30A4\U+30E4\U+30FC 4
 62
     7
370
     9
100
AcDbVertex
100
AcDb2dVertex
 10
-25.06617024112929
 20
230.6295056932107
 30
0.0
  0
VERTEX
  5
24F
330
23B
100
AcDbEntity
  8
\U+30EC\U+30A4\U+30E4\U+30FC 4
 62
     7
370
     9
100
AcDbVertex
100
AcDb2dVertex
 10
-24.98727755451707
 20
230.3766356845933
 30
0.0
  0
VERTEX
  5
250
330
23B
100
AcDbEntity
  8
\U+30EC\U+30A4\U+30E4\U+30FC 4
 62
     7
370
     9
100
AcDbVertex
100
AcDb2dVertex
 10
-24.8732448939553
 20
230.161833981088
 30
0.0
  0
VERTEX
  5
251
330
23B
100
AcDbEntity
  8
\U+30EC\U+30A4\U+30E4\U+30FC 4
 62
     7
370
     9
100
AcDbVertex
100
AcDb2dVertex
 10
-24.72424451421825
 20
229.989234697277
 30
0.0
  0
VERTEX
  5
252
330
23B
100
AcDbEntity
  8
\U+30EC\U+30A4\U+30E4\U+30FC 4
 62
     7
370
     9
100
AcDbVertex
100
AcDb2dVertex
 10
-24.57507187970693
 20
229.8767523296836
 30
0.0
  0
SEQEND
  5
253
330
23B
100
AcDbEntity
  8
\U+30EC\U+30A4\U+30E4\U+30FC 4
370
     9
  0
ENDBLK
  5
23A
330
237
100
AcDbEntity
  8
0
100
AcDbBlockEnd
  0
BLOCK
  5
256
330
254
100
AcDbEntity
  8
0
100
AcDbBlockBegin
  2
block 50
 70
     0
 71
     0
 10
0.0
 20
0.0
 30
0.0
  3
block 50
  1

  0
POLYLINE
  5
258
330
254
100
AcDbEntity
  8
\U+30EC\U+30A4\U+30E4\U+30FC 4
 62
     7
370
     9
100
AcDb2dPolyline
 66
     1
 10
0.0
 20
0.0
 30
0.0
  0
VERTEX
  5
259
330
258
100
AcDbEntity
  8
\U+30EC\U+30A4\U+30E4\U+30FC 4
 62
     7
370
     9
100
AcDbVertex
100
AcDb2dVertex
 10
-24.60435519133155
 20
229.9234333735087
 30
0.0
  0
VERTEX
  5
25A
330
258
100
AcDbEntity
  8
\U+30EC\U+30A4\U+30E4\U+30FC 4
 62
     7
370
     9
100
AcDbVertex
100
AcDb2dVertex
 10
-24.62192517830633
 20
229.9337686599645
 30
0.0
  0
VERTEX
  5
25B
330
258
100
AcDbEntity
  8
\U+30EC\U+30A4\U+30E4\U+30FC 4
 62
     7
370
     9
100
AcDbVertex
100
AcDb2dVertex
 10
-24.79142387618062
 20
230.0827690397015
 30
0.0
  0
VERTEX
  5
25C
330
258
100
AcDbEntity
  8
\U+30EC\U+30A4\U+30E4\U+30FC 4
 62
     7
370
     9
100
AcDbVertex
100
AcDb2dVertex
 10
-24.92888318604209
 20
230.2756943868755
 30
0.0
  0
VERTEX
  5
25D
330
258
100
AcDbEntity
  8
\U+30EC\U+30A4\U+30E4\U+30FC 4
 62
     7
370
     9
100
AcDbVertex
100
AcDb2dVertex
 10
-25.02827419079154
 20
230.5111666632924
 30
0.0
  0
VERTEX
  5
25E
330
258
100
AcDbEntity
  8
\U+30EC\U+30A4\U+30E4\U+30FC 4
 62
     7
370
     9
100
AcDbVertex
100
AcDb2dVertex
 10
-25.08959689042899
 20
230.7829846970786
 30
0.0
  0
VERTEX
  5
25F
330
258
100
AcDbEntity
  8
\U+30EC\U+30A4\U+30E4\U+30FC 4
 62
     7
370
     9
100
AcDbVertex
100
AcDb2dVertex
 10
-25.11009520856623
 20
231.0854640806835
 30
0.0
  0
VERTEX
  5
260
330
258
100
AcDbEntity
  8
\U+30EC\U+30A4\U+30E4\U+30FC 4
 62
     7
370
     9
100
AcDbVertex
100
AcDb2dVertex
 10
-25.08959689042899
 20
231.4115423683624
 30
0.0
  0
VERTEX
  5
261
330
258
100
AcDbEntity
  8
\U+30EC\U+30A4\U+30E4\U+30FC 4
 62
     7
370
     9
100
AcDbVertex
100
AcDb2dVertex
 10
-25.02827419079154
 20
231.7534680952735
 30
0.0
  0
VERTEX
  5
262
330
258
100
AcDbEntity
  8
\U+30EC\U+30A4\U+30E4\U+30FC 4
 62
     7
370
     9
100
AcDbVertex
100
AcDb2dVertex
 10
-24.92888318604209
 20
232.1028007774778
 30
0.0
  0
VERTEX
  5
263
330
258
100
AcDbEntity
  8
\U+30EC\U+30A4\U+30E4\U+30FC 4
 62
     7
370
     9
100
AcDbVertex
100
AcDb2dVertex
 10
-24.79142387618062
 20
232.4552340456189
 30
0.0
  0
VERTEX
  5
264
330
258
100
AcDbEntity
  8
\U+30EC\U+30A4\U+30E4\U+30FC 4
 62
     7
370
     9
100
AcDbVertex
100
AcDb2dVertex
 10
-24.62192517830633
 20
232.7987100654983
 30
0.0
  0
VERTEX
  5
265
330
258
100
AcDbEntity
  8
\U+30EC\U+30A4\U+30E4\U+30FC 4
 62
     7
370
     9
100
AcDbVertex
100
AcDb2dVertex
 10
-24.42314316880741
 20
233.1275444295653
 30
0.0
  0
VERTEX
  5
266
330
258
100
AcDbEntity
  8
\U+30EC\U+30A4\U+30E4\U+30FC 4
 62
     7
370
     9
100
AcDbVertex
100
AcDb2dVertex
 10
-24.19800617884633
 20
233.4360527302695
 30
0.0
  0
VERTEX
  5
267
330
258
100
AcDbEntity
  8
\U+30EC\U+30A4\U+30E4\U+30FC 4
 62
     7
370
     9
100
AcDbVertex
100
AcDb2dVertex
 10
-23.95237087074802
 20
233.7137274263806
 30
0.0
  0
VERTEX
  5
268
330
258
100
AcDbEntity
  8
\U+30EC\U+30A4\U+30E4\U+30FC 4
 62
     7
370
     9
100
AcDbVertex
100
AcDb2dVertex
 10
-23.69226616161166
 20
233.9562621485422
 30
0.0
  0
VERTEX
  5
269
330
258
100
AcDbEntity
  8
\U+30EC\U+30A4\U+30E4\U+30FC 4
 62
     7
370
     9
100
AcDbVertex
100
AcDb2dVertex
 10
-23.42320420421364
 20
234.1595227821719
 30
0.0
  0
VERTEX
  5
26A
330
258
100
AcDbEntity
  8
\U+30EC\U+30A4\U+30E4\U+30FC 4
 62
     7
370
     9
100
AcDbVertex
100
AcDb2dVertex
 10
-23.14845783926497
 20
234.3173081553964
 30
0.0
  0
VERTEX
  5
26B
330
258
100
AcDbEntity
  8
\U+30EC\U+30A4\U+30E4\U+30FC 4
 62
     7
370
     9
100
AcDbVertex
100
AcDb2dVertex
 10
-22.87956813664122
 20
234.4254841536332
 30
0.0
  0
VERTEX
  5
26C
330
258
100
AcDbEntity
  8
\U+30EC\U+30A4\U+30E4\U+30FC 4
 62
     7
370
     9
100
AcDbVertex
100
AcDb2dVertex
 10
-22.61929117273059
 20
234.4825004839141
 30
0.0
  0
VERTEX
  5
26D
330
258
100
AcDbEntity
  8
\U+30EC\U+30A4\U+30E4\U+30FC 4
 62
     7
370
     9
100
AcDbVertex
100
AcDb2dVertex
 10
-22.37382811940654
 20
234.488357146239
 30
0.0
  0
VERTEX
  5
26E
330
258
100
AcDbEntity
  8
\U+30EC\U+30A4\U+30E4\U+30FC 4
 62
     7
370
     9
100
AcDbVertex
100
AcDb2dVertex
 10
-22.28029377698201
 20
234.4752657833951
 30
0.0
  0
SEQEND
  5
26F
330
258
100
AcDbEntity
  8
\U+30EC\U+30A4\U+30E4\U+30FC 4
370
     9
  0
ENDBLK
  5
257
330
254
100
AcDbEntity
  8
0
100
AcDbBlockEnd
  0
BLOCK
  5
272
330
270
100
AcDbEntity
  8
0
100
AcDbBlockBegin
  2
block 51
 70
     0
 71
     0
 10
0.0
 20
0.0
 30
0.0
  3
block 51
  1

  0
POLYLINE
  5
274
330
270
100
AcDbEntity
  8
\U+30EC\U+30A4\U+30E4\U+30FC 4
 62
     7
370
     9
100
AcDb2dPolyline
 66
     1
 10
0.0
 20
0.0
 30
0.0
  0
VERTEX
  5
275
330
274
100
AcDbEntity
  8
\U+30EC\U+30A4\U+30E4\U+30FC 4
 62
     7
370
     9
100
AcDbVertex
100
AcDb2dVertex
 10
-28.437023918672
 20
233.0574367364405
 30
0.0
  0
VERTEX
  5
276
330
274
100
AcDbEntity
  8
\U+30EC\U+30A4\U+30E4\U+30FC 4
 62
     7
370
     9
100
AcDbVertex
100
AcDb2dVertex
 10
-28.41652560053476
 20
232.7635700915487
 30
0.0
  0
VERTEX
  5
277
330
274
100
AcDbEntity
  8
\U+30EC\U+30A4\U+30E4\U+30FC 4
 62
     7
370
     9
100
AcDbVertex
100
AcDb2dVertex
 10
-28.35795897728551
 20
232.4976087200874
 30
0.0
  0
VERTEX
  5
278
330
274
100
AcDbEntity
  8
\U+30EC\U+30A4\U+30E4\U+30FC 4
 62
     7
370
     9
100
AcDbVertex
100
AcDb2dVertex
 10
-28.26149630369851
 20
232.2679931059955
 30
0.0
  0
VERTEX
  5
279
330
274
100
AcDbEntity
  8
\U+30EC\U+30A4\U+30E4\U+30FC 4
 62
     7
370
     9
100
AcDbVertex
100
AcDb2dVertex
 10
-28.12713757977377
 20
232.0795463829523
 30
0.0
  0
VERTEX
  5
27A
330
274
100
AcDbEntity
  8
\U+30EC\U+30A4\U+30E4\U+30FC 4
 62
     7
370
     9
100
AcDbVertex
100
AcDb2dVertex
 10
-27.96039495828768
 20
231.9348523725718
 30
0.0
  0
VERTEX
  5
27B
330
274
100
AcDbEntity
  8
\U+30EC\U+30A4\U+30E4\U+30FC 4
 62
     7
370
     9
100
AcDbVertex
100
AcDb2dVertex
 10
-27.92249890794993
 20
231.9098754303038
 30
0.0
  0
SEQEND
  5
27C
330
274
100
AcDbEntity
  8
\U+30EC\U+30A4\U+30E4\U+30FC 4
370
     9
  0
ENDBLK
  5
273
330
270
100
AcDbEntity
  8
0
100
AcDbBlockEnd
  0
BLOCK
  5
27F
330
27D
100
AcDbEntity
  8
0
100
AcDbBlockBegin
  2
block 52
 70
     0
 71
     0
 10
0.0
 20
0.0
 30
0.0
  3
block 52
  1

  0
POLYLINE
  5
281
330
27D
100
AcDbEntity
  8
\U+30EC\U+30A4\U+30E4\U+30FC 4
 62
     7
370
     9
100
AcDb2dPolyline
 66
     1
 10
0.0
 20
0.0
 30
0.0
  0
VERTEX
  5
282
330
281
100
AcDbEntity
  8
\U+30EC\U+30A4\U+30E4\U+30FC 4
 62
     7
370
     9
100
AcDbVertex
100
AcDb2dVertex
 10
-25.4082682228146
 20
236.2687824930161
 30
0.0
  0
VERTEX
  5
283
330
281
100
AcDbEntity
  8
\U+30EC\U+30A4\U+30E4\U+30FC 4
 62
     7
370
     9
100
AcDbVertex
100
AcDb2dVertex
 10
-25.54865586383853
 20
236.331655485622
 30
0.0
  0
VERTEX
  5
284
330
281
100
AcDbEntity
  8
\U+30EC\U+30A4\U+30E4\U+30FC 4
 62
     7
370
     9
100
AcDbVertex
100
AcDb2dVertex
 10
-25.76793619147468
 20
236.376958491253
 30
0.0
  0
VERTEX
  5
285
330
281
100
AcDbEntity
  8
\U+30EC\U+30A4\U+30E4\U+30FC 4
 62
     7
370
     9
100
AcDbVertex
100
AcDb2dVertex
 10
-26.00754258247381
 20
236.3724798671222
 30
0.0
  0
VERTEX
  5
286
330
281
100
AcDbEntity
  8
\U+30EC\U+30A4\U+30E4\U+30FC 4
 62
     7
370
     9
100
AcDbVertex
100
AcDb2dVertex
 10
-26.26196288405951
 20
236.3154635368413
 30
0.0
  0
VERTEX
  5
287
330
281
100
AcDbEntity
  8
\U+30EC\U+30A4\U+30E4\U+30FC 4
 62
     7
370
     9
100
AcDbVertex
100
AcDb2dVertex
 10
-26.52499592435834
 20
236.2102158697669
 30
0.0
  0
VERTEX
  5
288
330
281
100
AcDbEntity
  8
\U+30EC\U+30A4\U+30E4\U+30FC 4
 62
     7
370
     9
100
AcDbVertex
100
AcDb2dVertex
 10
-26.79112955059389
 20
236.056736865899
 30
0.0
  0
VERTEX
  5
289
330
281
100
AcDbEntity
  8
\U+30EC\U+30A4\U+30E4\U+30FC 4
 62
     7
370
     9
100
AcDbVertex
100
AcDb2dVertex
 10
-27.05416259089271
 20
235.8595051493685
 30
0.0
  0
VERTEX
  5
28A
330
281
100
AcDbEntity
  8
\U+30EC\U+30A4\U+30E4\U+30FC 4
 62
     7
370
     9
100
AcDbVertex
100
AcDb2dVertex
 10
-27.30858289247841
 20
235.6212767965634
 30
0.0
  0
VERTEX
  5
28B
330
281
100
AcDbEntity
  8
\U+30EC\U+30A4\U+30E4\U+30FC 4
 62
     7
370
     9
100
AcDbVertex
100
AcDb2dVertex
 10
-27.54818928347754
 20
235.3508368009713
 30
0.0
  0
VERTEX
  5
28C
330
281
100
AcDbEntity
  8
\U+30EC\U+30A4\U+30E4\U+30FC 4
 62
     7
370
     9
100
AcDbVertex
100
AcDb2dVertex
 10
-27.76746961111369
 20
235.0511134937546
 30
0.0
  0
VERTEX
  5
28D
330
281
100
AcDbEntity
  8
\U+30EC\U+30A4\U+30E4\U+30FC 4
 62
     7
370
     9
100
AcDbVertex
100
AcDb2dVertex
 10
-27.96039495828768
 20
234.7295138302065
 30
0.0
  0
VERTEX
  5
28E
330
281
100
AcDbEntity
  8
\U+30EC\U+30A4\U+30E4\U+30FC 4
 62
     7
370
     9
100
AcDbVertex
100
AcDb2dVertex
 10
-28.12713757977377
 20
234.3934447656204
 30
0.0
  0
VERTEX
  5
28F
330
281
100
AcDbEntity
  8
\U+30EC\U+30A4\U+30E4\U+30FC 4
 62
     7
370
     9
100
AcDbVertex
100
AcDb2dVertex
 10
-28.26149630369851
 20
234.0513467839351
 30
0.0
  0
VERTEX
  5
290
330
281
100
AcDbEntity
  8
\U+30EC\U+30A4\U+30E4\U+30FC 4
 62
     7
370
     9
100
AcDbVertex
100
AcDb2dVertex
 10
-28.35795897728551
 20
233.7092488022498
 30
0.0
  0
VERTEX
  5
291
330
281
100
AcDbEntity
  8
\U+30EC\U+30A4\U+30E4\U+30FC 4
 62
     7
370
     9
100
AcDbVertex
100
AcDb2dVertex
 10
-28.41652560053476
 20
233.3761080688261
 30
0.0
  0
VERTEX
  5
292
330
281
100
AcDbEntity
  8
\U+30EC\U+30A4\U+30E4\U+30FC 4
 62
     7
370
     9
100
AcDbVertex
100
AcDb2dVertex
 10
-28.437023918672
 20
233.0574367364405
 30
0.0
  0
SEQEND
  5
293
330
281
100
AcDbEntity
  8
\U+30EC\U+30A4\U+30E4\U+30FC 4
370
     9
  0
ENDBLK
  5
280
330
27D
100
AcDbEntity
  8
0
100
AcDbBlockEnd
  0
BLOCK
  5
296
330
294
100
AcDbEntity
  8
0
100
AcDbBlockBegin
  2
block 53
 70
     0
 71
     0
 10
0.0
 20
0.0
 30
0.0
  3
block 53
  1

  0
SPLINE
  5
298
330
294
100
AcDbEntity
  8
\U+30EC\U+30A4\U+30E4\U+30FC 4
 62
     7
370
     9
100
AcDbSpline
210
0.0
220
0.0
230
1.0
 70
     8
 71
     3
 72
     8
 73
     4
 74
     0
 42
0.0000000001
 43
0.0000000001
 40
0.0
 40
0.0
 40
0.0
 40
0.0
 40
1.0
 40
1.0
 40
1.0
 40
1.0
 10
-26.79991454408127
 20
236.0553588277049
 30
0.0
 10
-27.76454127995123
 20
235.4268011564211
 30
0.0
 10
-28.37260063309783
 20
234.3729464474832
 30
0.0
 10
-28.43409558750953
 20
233.2210787719899
 30
0.0
  0
ENDBLK
  5
297
330
294
100
AcDbEntity
  8
0
100
AcDbBlockEnd
  0
BLOCK
  5
29B
330
299
100
AcDbEntity
  8
0
100
AcDbBlockBegin
  2
block 54
 70
     0
 71
     0
 10
0.0
 20
0.0
 30
0.0
  3
block 54
  1

  0
POLYLINE
  5
29D
330
299
100
AcDbEntity
  8
\U+30EC\U+30A4\U+30E4\U+30FC 4
 62
     7
370
     9
100
AcDb2dPolyline
 66
     1
 10
0.0
 20
0.0
 30
0.0
  0
VERTEX
  5
29E
330
29D
100
AcDbEntity
  8
\U+30EC\U+30A4\U+30E4\U+30FC 4
 62
     7
370
     9
100
AcDbVertex
100
AcDb2dVertex
 10
-28.41945393169722
 20
233.8978677800672
 30
0.0
  0
VERTEX
  5
29F
330
29D
100
AcDbEntity
  8
\U+30EC\U+30A4\U+30E4\U+30FC 4
 62
     7
370
     9
100
AcDbVertex
100
AcDb2dVertex
 10
-28.3667439707729
 20
233.8685844684426
 30
0.0
  0
SEQEND
  5
2A0
330
29D
100
AcDbEntity
  8
\U+30EC\U+30A4\U+30E4\U+30FC 4
370
     9
  0
ENDBLK
  5
29C
330
299
100
AcDbEntity
  8
0
100
AcDbBlockEnd
  0
BLOCK
  5
2A3
330
2A1
100
AcDbEntity
  8
0
100
AcDbBlockBegin
  2
block 55
 70
     0
 71
     0
 10
0.0
 20
0.0
 30
0.0
  3
block 55
  1

  0
SPLINE
  5
2A5
330
2A1
100
AcDbEntity
  8
\U+30EC\U+30A4\U+30E4\U+30FC 4
 62
     7
370
     9
100
AcDbSpline
210
0.0
220
0.0
230
1.0
 70
     8
 71
     3
 72
     8
 73
     4
 74
     0
 42
0.0000000001
 43
0.0000000001
 40
0.0
 40
0.0
 40
0.0
 40
0.0
 40
1.0
 40
1.0
 40
1.0
 40
1.0
 10
-28.3667439707729
 20
234.2546074175648
 30
0.0
 10
-28.40774060704737
 20
234.1288614323532
 30
0.0
 10
-28.40774060704737
 20
233.9943304536542
 30
0.0
 10
-28.3667439707729
 20
233.8685844684426
 30
0.0
  0
ENDBLK
  5
2A4
330
2A1
100
AcDbEntity
  8
0
100
AcDbBlockEnd
  0
BLOCK
  5
2A8
330
2A6
100
AcDbEntity
  8
0
100
AcDbBlockBegin
  2
block 56
 70
     0
 71
     0
 10
0.0
 20
0.0
 30
0.0
  3
block 56
  1

  0
POLYLINE
  5
2AA
330
2A6
100
AcDbEntity
  8
\U+30EC\U+30A4\U+30E4\U+30FC 4
 62
     7
370
     9
100
AcDb2dPolyline
 66
     1
 10
0.0
 20
0.0
 30
0.0
  0
VERTEX
  5
2AB
330
2AA
100
AcDbEntity
  8
\U+30EC\U+30A4\U+30E4\U+30FC 4
 62
     7
370
     9
100
AcDbVertex
100
AcDb2dVertex
 10
-28.3667439707729
 20
234.2546074175648
 30
0.0
  0
VERTEX
  5
2AC
330
2AA
100
AcDbEntity
  8
\U+30EC\U+30A4\U+30E4\U+30FC 4
 62
     7
370
     9
100
AcDbVertex
100
AcDb2dVertex
 10
-28.41945393169722
 20
234.2866468055776
 30
0.0
  0
SEQEND
  5
2AD
330
2AA
100
AcDbEntity
  8
\U+30EC\U+30A4\U+30E4\U+30FC 4
370
     9
  0
ENDBLK
  5
2A9
330
2A6
100
AcDbEntity
  8
0
100
AcDbBlockEnd
  0
BLOCK
  5
2B0
330
2AE
100
AcDbEntity
  8
0
100
AcDbBlockBegin
  2
block 57
 70
     0
 71
     0
 10
0.0
 20
0.0
 30
0.0
  3
block 57
  1

  0
SPLINE
  5
2B2
330
2AE
100
AcDbEntity
  8
\U+30EC\U+30A4\U+30E4\U+30FC 4
 62
     7
370
     9
100
AcDbSpline
210
0.0
220
0.0
230
1.0
 70
     8
 71
     3
 72
     8
 73
     4
 74
     0
 42
0.0000000001
 43
0.0000000001
 40
0.0
 40
0.0
 40
0.0
 40
0.0
 40
1.0
 40
1.0
 40
1.0
 40
1.0
 10
-27.97796494526245
 20
234.8888494963993
 30
0.0
 10
-28.19431694173614
 20
234.7500121483438
 30
0.0
 10
-28.35210231496059
 20
234.5352104448384
 30
0.0
 10
-28.41945393169722
 20
234.2866468055776
 30
0.0
  0
ENDBLK
  5
2B1
330
2AE
100
AcDbEntity
  8
0
100
AcDbBlockEnd
  0
BLOCK
  5
2B5
330
2B3
100
AcDbEntity
  8
0
100
AcDbBlockBegin
  2
block 58
 70
     0
 71
     0
 10
0.0
 20
0.0
 30
0.0
  3
block 58
  1

  0
SPLINE
  5
2B7
330
2B3
100
AcDbEntity
  8
\U+30EC\U+30A4\U+30E4\U+30FC 4
 62
     7
370
     9
100
AcDbSpline
210
0.0
220
0.0
230
1.0
 70
     8
 71
     3
 72
     8
 73
     4
 74
     0
 42
0.0000000001
 43
0.0000000001
 40
0.0
 40
0.0
 40
0.0
 40
0.0
 40
1.0
 40
1.0
 40
1.0
 40
1.0
 10
-28.45442165087251
 20
234.3655394921899
 30
0.0
 10
-28.46613497552235
 20
234.3335001041771
 30
0.0
 10
-28.44856498854758
 20
234.2999104231959
 30
0.0
 10
-28.41945393169722
 20
234.2866468055776
 30
0.0
  0
ENDBLK
  5
2B6
330
2B3
100
AcDbEntity
  8
0
100
AcDbBlockEnd
  0
BLOCK
  5
2BA
330
2B8
100
AcDbEntity
  8
0
100
AcDbBlockBegin
  2
block 59
 70
     0
 71
     0
 10
0.0
 20
0.0
 30
0.0
  3
block 59
  1

  0
POLYLINE
  5
2BC
330
2B8
100
AcDbEntity
  8
\U+30EC\U+30A4\U+30E4\U+30FC 4
 62
     7
370
     9
100
AcDb2dPolyline
 66
     1
 10
0.0
 20
0.0
 30
0.0
  0
VERTEX
  5
2BD
330
2BC
100
AcDbEntity
  8
\U+30EC\U+30A4\U+30E4\U+30FC 4
 62
     7
370
     9
100
AcDbVertex
100
AcDb2dVertex
 10
-28.40481227588491
 20
234.0308484657978
 30
0.0
  0
VERTEX
  5
2BE
330
2BC
100
AcDbEntity
  8
\U+30EC\U+30A4\U+30E4\U+30FC 4
 62
     7
370
     9
100
AcDbVertex
100
AcDb2dVertex
 10
-28.44270832622266
 20
234.0001871159791
 30
0.0
  0
VERTEX
  5
2BF
330
2BC
100
AcDbEntity
  8
\U+30EC\U+30A4\U+30E4\U+30FC 4
 62
     7
370
     9
100
AcDbVertex
100
AcDb2dVertex
 10
-28.45734998203497
 20
233.9650471420296
 30
0.0
  0
VERTEX
  5
2C0
330
2BC
100
AcDbEntity
  8
\U+30EC\U+30A4\U+30E4\U+30FC 4
 62
     7
370
     9
100
AcDbVertex
100
AcDb2dVertex
 10
-28.45149331971005
 20
233.9330077540168
 30
0.0
  0
VERTEX
  5
2C1
330
2BC
100
AcDbEntity
  8
\U+30EC\U+30A4\U+30E4\U+30FC 4
 62
     7
370
     9
100
AcDbVertex
100
AcDb2dVertex
 10
-28.42823892518461
 20
233.9051024805862
 30
0.0
  0
VERTEX
  5
2C2
330
2BC
100
AcDbEntity
  8
\U+30EC\U+30A4\U+30E4\U+30FC 4
 62
     7
370
     9
100
AcDbVertex
100
AcDb2dVertex
 10
-28.41945393169722
 20
233.8978677800672
 30
0.0
  0
SEQEND
  5
2C3
330
2BC
100
AcDbEntity
  8
\U+30EC\U+30A4\U+30E4\U+30FC 4
370
     9
  0
ENDBLK
  5
2BB
330
2B8
100
AcDbEntity
  8
0
100
AcDbBlockEnd
  0
BLOCK
  5
2C6
330
2C4
100
AcDbEntity
  8
0
100
AcDbBlockBegin
  2
block 60
 70
     0
 71
     0
 10
0.0
 20
0.0
 30
0.0
  3
block 60
  1

  0
POLYLINE
  5
2C8
330
2C4
100
AcDbEntity
  8
\U+30EC\U+30A4\U+30E4\U+30FC 4
 62
     7
370
     9
100
AcDb2dPolyline
 66
     1
 10
0.0
 20
0.0
 30
0.0
  0
VERTEX
  5
2C9
330
2C8
100
AcDbEntity
  8
\U+30EC\U+30A4\U+30E4\U+30FC 4
 62
     7
370
     9
100
AcDbVertex
100
AcDb2dVertex
 10
-28.39895561355998
 20
234.0337767969603
 30
0.0
  0
VERTEX
  5
2CA
330
2C8
100
AcDbEntity
  8
\U+30EC\U+30A4\U+30E4\U+30FC 4
 62
     7
370
     9
100
AcDbVertex
100
AcDb2dVertex
 10
-28.40481227588491
 20
234.0308484657978
 30
0.0
  0
SEQEND
  5
2CB
330
2C8
100
AcDbEntity
  8
\U+30EC\U+30A4\U+30E4\U+30FC 4
370
     9
  0
ENDBLK
  5
2C7
330
2C4
100
AcDbEntity
  8
0
100
AcDbBlockEnd
  0
BLOCK
  5
2CE
330
2CC
100
AcDbEntity
  8
0
100
AcDbBlockBegin
  2
block 61
 70
     0
 71
     0
 10
0.0
 20
0.0
 30
0.0
  3
block 61
  1

  0
SPLINE
  5
2D0
330
2CC
100
AcDbEntity
  8
\U+30EC\U+30A4\U+30E4\U+30FC 4
 62
     7
370
     9
100
AcDbSpline
210
0.0
220
0.0
230
1.0
 70
     8
 71
     3
 72
     8
 73
     4
 74
     0
 42
0.0000000001
 43
0.0000000001
 40
0.0
 40
0.0
 40
0.0
 40
0.0
 40
1.0
 40
1.0
 40
1.0
 40
1.0
 10
237.6492322539557
 20
81.7045735472822
 30
0.0
 10
237.7195122018549
 20
81.66805553513855
 30
0.0
 10
237.8011609648553
 20
81.66805553513855
 30
0.0
 10
237.8714409127544
 20
81.7045735472822
 30
0.0
  0
ENDBLK
  5
2CF
330
2CC
100
AcDbEntity
  8
0
100
AcDbBlockEnd
  0
BLOCK
  5
2D3
330
2D1
100
AcDbEntity
  8
0
100
AcDbBlockBegin
  2
block 62
 70
     0
 71
     0
 10
0.0
 20
0.0
 30
0.0
  3
block 62
  1

  0
POLYLINE
  5
2D5
330
2D1
100
AcDbEntity
  8
\U+30EC\U+30A4\U+30E4\U+30FC 4
 62
     7
370
     9
100
AcDb2dPolyline
 66
     1
 10
0.0
 20
0.0
 30
0.0
  0
VERTEX
  5
2D6
330
2D5
100
AcDbEntity
  8
\U+30EC\U+30A4\U+30E4\U+30FC 4
 62
     7
370
     9
100
AcDbVertex
100
AcDb2dVertex
 10
237.6492322539557
 20
81.7045735472822
 30
0.0
  0
VERTEX
  5
2D7
330
2D5
100
AcDbEntity
  8
\U+30EC\U+30A4\U+30E4\U+30FC 4
 62
     7
370
     9
100
AcDbVertex
100
AcDb2dVertex
 10
237.3832708824945
 20
81.85822480592434
 30
0.0
  0
SEQEND
  5
2D8
330
2D5
100
AcDbEntity
  8
\U+30EC\U+30A4\U+30E4\U+30FC 4
370
     9
  0
ENDBLK
  5
2D4
330
2D1
100
AcDbEntity
  8
0
100
AcDbBlockEnd
  0
BLOCK
  5
2DB
330
2D9
100
AcDbEntity
  8
0
100
AcDbBlockBegin
  2
block 63
 70
     0
 71
     0
 10
0.0
 20
0.0
 30
0.0
  3
block 63
  1

  0
SPLINE
  5
2DD
330
2D9
100
AcDbEntity
  8
\U+30EC\U+30A4\U+30E4\U+30FC 4
 62
     7
370
     9
100
AcDbSpline
210
0.0
220
0.0
230
1.0
 70
     8
 71
     3
 72
     8
 73
     4
 74
     0
 42
0.0000000001
 43
0.0000000001
 40
0.0
 40
0.0
 40
0.0
 40
0.0
 40
1.0
 40
1.0
 40
1.0
 40
1.0
 10
237.9269069500669
 20
81.73695744484354
 30
0.0
 10
237.9592908476282
 20
81.75762801775504
 30
0.0
 10
237.9827174969279
 20
81.79414602989868
 30
0.0
 10
237.9827174969279
 20
81.83342011843054
 30
0.0
  0
ENDBLK
  5
2DC
330
2D9
100
AcDbEntity
  8
0
100
AcDbBlockEnd
  0
BLOCK
  5
2E0
330
2DE
100
AcDbEntity
  8
0
100
AcDbBlockBegin
  2
block 64
 70
     0
 71
     0
 10
0.0
 20
0.0
 30
0.0
  3
block 64
  1

  0
POLYLINE
  5
2E2
330
2DE
100
AcDbEntity
  8
\U+30EC\U+30A4\U+30E4\U+30FC 4
 62
     7
370
     9
100
AcDb2dPolyline
 66
     1
 10
0.0
 20
0.0
 30
0.0
  0
VERTEX
  5
2E3
330
2E2
100
AcDbEntity
  8
\U+30EC\U+30A4\U+30E4\U+30FC 4
 62
     7
370
     9
100
AcDbVertex
100
AcDb2dVertex
 10
237.9269069500669
 20
81.73695744484354
 30
0.0
  0
VERTEX
  5
2E4
330
2E2
100
AcDbEntity
  8
\U+30EC\U+30A4\U+30E4\U+30FC 4
 62
     7
370
     9
100
AcDbVertex
100
AcDb2dVertex
 10
237.8714409127544
 20
81.7045735472822
 30
0.0
  0
SEQEND
  5
2E5
330
2E2
100
AcDbEntity
  8
\U+30EC\U+30A4\U+30E4\U+30FC 4
370
     9
  0
ENDBLK
  5
2E1
330
2DE
100
AcDbEntity
  8
0
100
AcDbBlockEnd
  0
BLOCK
  5
2E8
330
2E6
100
AcDbEntity
  8
0
100
AcDbBlockBegin
  2
block 65
 70
     0
 71
     0
 10
0.0
 20
0.0
 30
0.0
  3
block 65
  1

  0
POLYLINE
  5
2EA
330
2E6
100
AcDbEntity
  8
\U+30EC\U+30A4\U+30E4\U+30FC 4
 62
     7
370
     9
100
AcDb2dPolyline
 66
     1
 10
0.0
 20
0.0
 30
0.0
  0
VERTEX
  5
2EB
330
2EA
100
AcDbEntity
  8
\U+30EC\U+30A4\U+30E4\U+30FC 4
 62
     7
370
     9
100
AcDbVertex
100
AcDb2dVertex
 10
237.9827174969279
 20
81.83342011843054
 30
0.0
  0
VERTEX
  5
2EC
330
2EA
100
AcDbEntity
  8
\U+30EC\U+30A4\U+30E4\U+30FC 4
 62
     7
370
     9
100
AcDbVertex
100
AcDb2dVertex
 10
237.9827174969279
 20
82.20342337354637
 30
0.0
  0
SEQEND
  5
2ED
330
2EA
100
AcDbEntity
  8
\U+30EC\U+30A4\U+30E4\U+30FC 4
370
     9
  0
ENDBLK
  5
2E9
330
2E6
100
AcDbEntity
  8
0
100
AcDbBlockEnd
  0
BLOCK
  5
2F0
330
2EE
100
AcDbEntity
  8
0
100
AcDbBlockBegin
  2
block 66
 70
     0
 71
     0
 10
0.0
 20
0.0
 30
0.0
  3
block 66
  1

  0
POLYLINE
  5
2F2
330
2EE
100
AcDbEntity
  8
\U+30EC\U+30A4\U+30E4\U+30FC 4
 62
     7
370
     9
100
AcDb2dPolyline
 66
     1
 10
0.0
 20
0.0
 30
0.0
  0
VERTEX
  5
2F3
330
2F2
100
AcDbEntity
  8
\U+30EC\U+30A4\U+30E4\U+30FC 4
 62
     7
370
     9
100
AcDbVertex
100
AcDb2dVertex
 10
236.8013942550358
 20
81.08652341722838
 30
0.0
  0
VERTEX
  5
2F4
330
2F2
100
AcDbEntity
  8
\U+30EC\U+30A4\U+30E4\U+30FC 4
 62
     7
370
     9
100
AcDbVertex
100
AcDb2dVertex
 10
236.8572048018968
 20
81.11890731478972
 30
0.0
  0
SEQEND
  5
2F5
330
2F2
100
AcDbEntity
  8
\U+30EC\U+30A4\U+30E4\U+30FC 4
370
     9
  0
ENDBLK
  5
2F1
330
2EE
100
AcDbEntity
  8
0
100
AcDbBlockEnd
  0
BLOCK
  5
2F8
330
2F6
100
AcDbEntity
  8
0
100
AcDbBlockBegin
  2
block 67
 70
     0
 71
     0
 10
0.0
 20
0.0
 30
0.0
  3
block 67
  1

  0
SPLINE
  5
2FA
330
2F6
100
AcDbEntity
  8
\U+30EC\U+30A4\U+30E4\U+30FC 4
 62
     7
370
     9
100
AcDbSpline
210
0.0
220
0.0
230
1.0
 70
     8
 71
     3
 72
    11
 73
     7
 74
     0
 42
0.0000000001
 43
0.0000000001
 40
0.0
 40
0.0
 40
0.0
 40
0.0
 40
1.0
 40
1.0
 40
1.0
 40
2.0
 40
2.0
 40
2.0
 40
2.0
 10
236.7459282177232
 20
81.11890731478972
 30
0.0
 10
236.743172141335
 20
81.09961478007233
 30
0.0
 10
236.7548854659849
 20
81.08238930264608
 30
0.0
 10
236.7724554529597
 20
81.07963322625787
 30
0.0
 10
236.783824268061
 20
81.07756616896673
 30
0.0
 10
236.7927815163227
 20
81.07963322625787
 30
0.0
 10
236.8013942550358
 20
81.08652341722838
 30
0.0
  0
ENDBLK
  5
2F9
330
2F6
100
AcDbEntity
  8
0
100
AcDbBlockEnd
  0
BLOCK
  5
2FD
330
2FB
100
AcDbEntity
  8
0
100
AcDbBlockBegin
  2
block 68
 70
     0
 71
     0
 10
0.0
 20
0.0
 30
0.0
  3
block 68
  1

  0
POLYLINE
  5
2FF
330
2FB
100
AcDbEntity
  8
\U+30EC\U+30A4\U+30E4\U+30FC 4
 62
     7
370
     9
100
AcDb2dPolyline
 66
     1
 10
0.0
 20
0.0
 30
0.0
  0
VERTEX
  5
300
330
2FF
100
AcDbEntity
  8
\U+30EC\U+30A4\U+30E4\U+30FC 4
 62
     7
370
     9
100
AcDbVertex
100
AcDb2dVertex
 10
236.7459282177232
 20
81.32078991022536
 30
0.0
  0
VERTEX
  5
301
330
2FF
100
AcDbEntity
  8
\U+30EC\U+30A4\U+30E4\U+30FC 4
 62
     7
370
     9
100
AcDbVertex
100
AcDb2dVertex
 10
236.7459282177232
 20
81.11890731478972
 30
0.0
  0
SEQEND
  5
302
330
2FF
100
AcDbEntity
  8
\U+30EC\U+30A4\U+30E4\U+30FC 4
370
     9
  0
ENDBLK
  5
2FE
330
2FB
100
AcDbEntity
  8
0
100
AcDbBlockEnd
  0
BLOCK
  5
305
330
303
100
AcDbEntity
  8
0
100
AcDbBlockBegin
  2
block 69
 70
     0
 71
     0
 10
0.0
 20
0.0
 30
0.0
  3
block 69
  1

  0
SPLINE
  5
307
330
303
100
AcDbEntity
  8
\U+30EC\U+30A4\U+30E4\U+30FC 4
 62
     7
370
     9
100
AcDbSpline
210
0.0
220
0.0
230
1.0
 70
     8
 71
     3
 72
     8
 73
     4
 74
     0
 42
0.0000000001
 43
0.0000000001
 40
0.0
 40
0.0
 40
0.0
 40
0.0
 40
1.0
 40
1.0
 40
1.0
 40
1.0
 10
236.8572048018968
 20
81.11890731478972
 30
0.0
 10
236.8806314511965
 20
81.13062063943957
 30
0.0
 10
236.8978569286228
 20
81.15404728873926
 30
0.0
 10
236.9009575145595
 20
81.18298609081536
 30
0.0
  0
ENDBLK
  5
306
330
303
100
AcDbEntity
  8
0
100
AcDbBlockEnd
  0
BLOCK
  5
30A
330
308
100
AcDbEntity
  8
0
100
AcDbBlockBegin
  2
block 70
 70
     0
 71
     0
 10
0.0
 20
0.0
 30
0.0
  3
block 70
  1

  0
POLYLINE
  5
30C
330
308
100
AcDbEntity
  8
\U+30EC\U+30A4\U+30E4\U+30FC 4
 62
     7
370
     9
100
AcDb2dPolyline
 66
     1
 10
0.0
 20
0.0
 30
0.0
  0
VERTEX
  5
30D
330
30C
100
AcDbEntity
  8
\U+30EC\U+30A4\U+30E4\U+30FC 4
 62
     7
370
     9
100
AcDbVertex
100
AcDb2dVertex
 10
238.3131021539634
 20
83.04402667194734
 30
0.0
  0
VERTEX
  5
30E
330
30C
100
AcDbEntity
  8
\U+30EC\U+30A4\U+30E4\U+30FC 4
 62
     7
370
     9
100
AcDbVertex
100
AcDb2dVertex
 10
238.2924315810519
 20
83.32583548264077
 30
0.0
  0
VERTEX
  5
30F
330
30C
100
AcDbEntity
  8
\U+30EC\U+30A4\U+30E4\U+30FC 4
 62
     7
370
     9
100
AcDbVertex
100
AcDb2dVertex
 10
238.2338649578027
 20
83.58008352945221
 30
0.0
  0
VERTEX
  5
310
330
30C
100
AcDbEntity
  8
\U+30EC\U+30A4\U+30E4\U+30FC 4
 62
     7
370
     9
100
AcDbVertex
100
AcDb2dVertex
 10
238.1374022842157
 20
83.79781356411999
 30
0.0
  0
VERTEX
  5
311
330
30C
100
AcDbEntity
  8
\U+30EC\U+30A4\U+30E4\U+30FC 4
 62
     7
370
     9
100
AcDbVertex
100
AcDb2dVertex
 10
238.0089002226158
 20
83.97626951025593
 30
0.0
  0
VERTEX
  5
312
330
30C
100
AcDbEntity
  8
\U+30EC\U+30A4\U+30E4\U+30FC 4
 62
     7
370
     9
100
AcDbVertex
100
AcDb2dVertex
 10
237.8452581870665
 20
84.10925019598658
 30
0.0
  0
VERTEX
  5
313
330
30C
100
AcDbEntity
  8
\U+30EC\U+30A4\U+30E4\U+30FC 4
 62
     7
370
     9
100
AcDbVertex
100
AcDb2dVertex
 10
237.6550889162807
 20
84.19537758311783
 30
0.0
  0
VERTEX
  5
314
330
30C
100
AcDbEntity
  8
\U+30EC\U+30A4\U+30E4\U+30FC 4
 62
     7
370
     9
100
AcDbVertex
100
AcDb2dVertex
 10
237.4418375057437
 20
84.23189559526148
 30
0.0
  0
VERTEX
  5
315
330
30C
100
AcDbEntity
  8
\U+30EC\U+30A4\U+30E4\U+30FC 4
 62
     7
370
     9
100
AcDbVertex
100
AcDb2dVertex
 10
237.2079155222953
 20
84.21742619422342
 30
0.0
  0
VERTEX
  5
316
330
30C
100
AcDbEntity
  8
\U+30EC\U+30A4\U+30E4\U+30FC 4
 62
     7
370
     9
100
AcDbVertex
100
AcDb2dVertex
 10
236.9622802141969
 20
84.15472545639187
 30
0.0
  0
VERTEX
  5
317
330
30C
100
AcDbEntity
  8
\U+30EC\U+30A4\U+30E4\U+30FC 4
 62
     7
370
     9
100
AcDbVertex
100
AcDb2dVertex
 10
236.7107882437737
 20
84.04241534357273
 30
0.0
  0
VERTEX
  5
318
330
30C
100
AcDbEntity
  8
\U+30EC\U+30A4\U+30E4\U+30FC 4
 62
     7
370
     9
100
AcDbVertex
100
AcDb2dVertex
 10
236.4537841205741
 20
83.88256291305714
 30
0.0
  0
VERTEX
  5
319
330
30C
100
AcDbEntity
  8
\U+30EC\U+30A4\U+30E4\U+30FC 4
 62
     7
370
     9
100
AcDbVertex
100
AcDb2dVertex
 10
236.205048226539
 20
83.68274737491265
 30
0.0
  0
VERTEX
  5
31A
330
30C
100
AcDbEntity
  8
\U+30EC\U+30A4\U+30E4\U+30FC 4
 62
     7
370
     9
100
AcDbVertex
100
AcDb2dVertex
 10
235.9652695807656
 20
83.44434676733336
 30
0.0
  0
VERTEX
  5
31B
330
30C
100
AcDbEntity
  8
\U+30EC\U+30A4\U+30E4\U+30FC 4
 62
     7
370
     9
100
AcDbVertex
100
AcDb2dVertex
 10
235.7403048455788
 20
83.17425128128977
 30
0.0
  0
VERTEX
  5
31C
330
30C
100
AcDbEntity
  8
\U+30EC\U+30A4\U+30E4\U+30FC 4
 62
     7
370
     9
100
AcDbVertex
100
AcDb2dVertex
 10
235.5387667596917
 20
82.87866208865533
 30
0.0
  0
VERTEX
  5
31D
330
30C
100
AcDbEntity
  8
\U+30EC\U+30A4\U+30E4\U+30FC 4
 62
     7
370
     9
100
AcDbVertex
100
AcDb2dVertex
 10
235.3603108135558
 20
82.56446938040055
 30
0.0
  0
VERTEX
  5
31E
330
30C
100
AcDbEntity
  8
\U+30EC\U+30A4\U+30E4\U+30FC 4
 62
     7
370
     9
100
AcDbVertex
100
AcDb2dVertex
 10
235.2142387649812
 20
82.23856334749591
 30
0.0
  0
VERTEX
  5
31F
330
30C
100
AcDbEntity
  8
\U+30EC\U+30A4\U+30E4\U+30FC 4
 62
     7
370
     9
100
AcDbVertex
100
AcDb2dVertex
 10
235.1002061044194
 20
81.90921221910604
 30
0.0
  0
VERTEX
  5
320
330
30C
100
AcDbEntity
  8
\U+30EC\U+30A4\U+30E4\U+30FC 4
 62
     7
370
     9
100
AcDbVertex
100
AcDb2dVertex
 10
235.0240694941954
 20
81.58537324349255
 30
0.0
  0
VERTEX
  5
321
330
30C
100
AcDbEntity
  8
\U+30EC\U+30A4\U+30E4\U+30FC 4
 62
     7
370
     9
100
AcDbVertex
100
AcDb2dVertex
 10
234.9861734438576
 20
81.27049151614071
 30
0.0
  0
VERTEX
  5
322
330
30C
100
AcDbEntity
  8
\U+30EC\U+30A4\U+30E4\U+30FC 4
 62
     7
370
     9
100
AcDbVertex
100
AcDb2dVertex
 10
234.9861734438576
 20
80.97696938079743
 30
0.0
  0
VERTEX
  5
323
330
30C
100
AcDbEntity
  8
\U+30EC\U+30A4\U+30E4\U+30FC 4
 62
     7
370
     9
100
AcDbVertex
100
AcDb2dVertex
 10
235.0240694941954
 20
80.70825193294795
 30
0.0
  0
VERTEX
  5
324
330
30C
100
AcDbEntity
  8
\U+30EC\U+30A4\U+30E4\U+30FC 4
 62
     7
370
     9
100
AcDbVertex
100
AcDb2dVertex
 10
235.1002061044194
 20
80.47122936356276
 30
0.0
  0
VERTEX
  5
325
330
30C
100
AcDbEntity
  8
\U+30EC\U+30A4\U+30E4\U+30FC 4
 62
     7
370
     9
100
AcDbVertex
100
AcDb2dVertex
 10
235.2142387649812
 20
80.27210284451532
 30
0.0
  0
VERTEX
  5
326
330
30C
100
AcDbEntity
  8
\U+30EC\U+30A4\U+30E4\U+30FC 4
 62
     7
370
     9
100
AcDbVertex
100
AcDb2dVertex
 10
235.3603108135558
 20
80.11776256677612
 30
0.0
  0
VERTEX
  5
327
330
30C
100
AcDbEntity
  8
\U+30EC\U+30A4\U+30E4\U+30FC 4
 62
     7
370
     9
100
AcDbVertex
100
AcDb2dVertex
 10
235.5387667596917
 20
80.00614147305403
 30
0.0
  0
VERTEX
  5
328
330
30C
100
AcDbEntity
  8
\U+30EC\U+30A4\U+30E4\U+30FC 4
 62
     7
370
     9
100
AcDbVertex
100
AcDb2dVertex
 10
235.7403048455788
 20
79.94481877341657
 30
0.0
  0
VERTEX
  5
329
330
30C
100
AcDbEntity
  8
\U+30EC\U+30A4\U+30E4\U+30FC 4
 62
     7
370
     9
100
AcDbVertex
100
AcDb2dVertex
 10
235.9652695807656
 20
79.93448348696083
 30
0.0
  0
VERTEX
  5
32A
330
30C
100
AcDbEntity
  8
\U+30EC\U+30A4\U+30E4\U+30FC 4
 62
     7
370
     9
100
AcDbVertex
100
AcDb2dVertex
 10
236.205048226539
 20
79.97306855639563
 30
0.0
  0
VERTEX
  5
32B
330
30C
100
AcDbEntity
  8
\U+30EC\U+30A4\U+30E4\U+30FC 4
 62
     7
370
     9
100
AcDbVertex
100
AcDb2dVertex
 10
236.4537841205741
 20
80.06195201991507
 30
0.0
  0
VERTEX
  5
32C
330
30C
100
AcDbEntity
  8
\U+30EC\U+30A4\U+30E4\U+30FC 4
 62
     7
370
     9
100
AcDbVertex
100
AcDb2dVertex
 10
236.7107882437737
 20
80.19768878203392
 30
0.0
  0
VERTEX
  5
32D
330
30C
100
AcDbEntity
  8
\U+30EC\U+30A4\U+30E4\U+30FC 4
 62
     7
370
     9
100
AcDbVertex
100
AcDb2dVertex
 10
236.9622802141969
 20
80.37752276636395
 30
0.0
  0
VERTEX
  5
32E
330
30C
100
AcDbEntity
  8
\U+30EC\U+30A4\U+30E4\U+30FC 4
 62
     7
370
     9
100
AcDbVertex
100
AcDb2dVertex
 10
237.2079155222953
 20
80.59663083922585
 30
0.0
  0
VERTEX
  5
32F
330
30C
100
AcDbEntity
  8
\U+30EC\U+30A4\U+30E4\U+30FC 4
 62
     7
370
     9
100
AcDbVertex
100
AcDb2dVertex
 10
237.4418375057437
 20
80.85294594332844
 30
0.0
  0
VERTEX
  5
330
330
30C
100
AcDbEntity
  8
\U+30EC\U+30A4\U+30E4\U+30FC 4
 62
     7
370
     9
100
AcDbVertex
100
AcDb2dVertex
 10
237.6550889162807
 20
81.13613279221597
 30
0.0
  0
VERTEX
  5
331
330
30C
100
AcDbEntity
  8
\U+30EC\U+30A4\U+30E4\U+30FC 4
 62
     7
370
     9
100
AcDbVertex
100
AcDb2dVertex
 10
237.6991861384919
 20
81.20227862553277
 30
0.0
  0
SEQEND
  5
332
330
30C
100
AcDbEntity
  8
\U+30EC\U+30A4\U+30E4\U+30FC 4
370
     9
  0
ENDBLK
  5
30B
330
308
100
AcDbEntity
  8
0
100
AcDbBlockEnd
  0
BLOCK
  5
335
330
333
100
AcDbEntity
  8
0
100
AcDbBlockBegin
  2
block 71
 70
     0
 71
     0
 10
0.0
 20
0.0
 30
0.0
  3
block 71
  1

  0
POLYLINE
  5
337
330
333
100
AcDbEntity
  8
\U+30EC\U+30A4\U+30E4\U+30FC 4
 62
     7
370
     9
100
AcDb2dPolyline
 66
     1
 10
0.0
 20
0.0
 30
0.0
  0
VERTEX
  5
338
330
337
100
AcDbEntity
  8
\U+30EC\U+30A4\U+30E4\U+30FC 4
 62
     7
370
     9
100
AcDbVertex
100
AcDb2dVertex
 10
238.2397216201276
 20
82.44044594293156
 30
0.0
  0
VERTEX
  5
339
330
337
100
AcDbEntity
  8
\U+30EC\U+30A4\U+30E4\U+30FC 4
 62
     7
370
     9
100
AcDbVertex
100
AcDb2dVertex
 10
238.2924315810519
 20
82.73948023105125
 30
0.0
  0
VERTEX
  5
33A
330
337
100
AcDbEntity
  8
\U+30EC\U+30A4\U+30E4\U+30FC 4
 62
     7
370
     9
100
AcDbVertex
100
AcDb2dVertex
 10
238.3131021539634
 20
83.04402667194734
 30
0.0
  0
SEQEND
  5
33B
330
337
100
AcDbEntity
  8
\U+30EC\U+30A4\U+30E4\U+30FC 4
370
     9
  0
ENDBLK
  5
336
330
333
100
AcDbEntity
  8
0
100
AcDbBlockEnd
  0
BLOCK
  5
33E
330
33C
100
AcDbEntity
  8
0
100
AcDbBlockBegin
  2
block 72
 70
     0
 71
     0
 10
0.0
 20
0.0
 30
0.0
  3
block 72
  1

  0
POLYLINE
  5
340
330
33C
100
AcDbEntity
  8
\U+30EC\U+30A4\U+30E4\U+30FC 4
 62
     7
370
     9
100
AcDb2dPolyline
 66
     1
 10
0.0
 20
0.0
 30
0.0
  0
VERTEX
  5
341
330
340
100
AcDbEntity
  8
\U+30EC\U+30A4\U+30E4\U+30FC 4
 62
     7
370
     9
100
AcDbVertex
100
AcDb2dVertex
 10
238.3131021539634
 20
83.17425128128977
 30
0.0
  0
VERTEX
  5
342
330
340
100
AcDbEntity
  8
\U+30EC\U+30A4\U+30E4\U+30FC 4
 62
     7
370
     9
100
AcDbVertex
100
AcDb2dVertex
 10
238.3131021539634
 20
83.13704425004907
 30
0.0
  0
SEQEND
  5
343
330
340
100
AcDbEntity
  8
\U+30EC\U+30A4\U+30E4\U+30FC 4
370
     9
  0
ENDBLK
  5
33F
330
33C
100
AcDbEntity
  8
0
100
AcDbBlockEnd
  0
BLOCK
  5
346
330
344
100
AcDbEntity
  8
0
100
AcDbBlockBegin
  2
block 73
 70
     0
 71
     0
 10
0.0
 20
0.0
 30
0.0
  3
block 73
  1

  0
POLYLINE
  5
348
330
344
100
AcDbEntity
  8
\U+30EC\U+30A4\U+30E4\U+30FC 4
 62
     7
370
     9
100
AcDb2dPolyline
 66
     1
 10
0.0
 20
0.0
 30
0.0
  0
VERTEX
  5
349
330
348
100
AcDbEntity
  8
\U+30EC\U+30A4\U+30E4\U+30FC 4
 62
     7
370
     9
100
AcDbVertex
100
AcDb2dVertex
 10
236.5678167811358
 20
80.11156139490267
 30
0.0
  0
VERTEX
  5
34A
330
348
100
AcDbEntity
  8
\U+30EC\U+30A4\U+30E4\U+30FC 4
 62
     7
370
     9
100
AcDbVertex
100
AcDb2dVertex
 10
236.4010741596497
 20
80.02129989318912
 30
0.0
  0
VERTEX
  5
34B
330
348
100
AcDbEntity
  8
\U+30EC\U+30A4\U+30E4\U+30FC 4
 62
     7
370
     9
100
AcDbVertex
100
AcDb2dVertex
 10
236.1378688645767
 20
79.91587997134047
 30
0.0
  0
VERTEX
  5
34C
330
348
100
AcDbEntity
  8
\U+30EC\U+30A4\U+30E4\U+30FC 4
 62
     7
370
     9
100
AcDbVertex
100
AcDb2dVertex
 10
235.8836208177652
 20
79.85869138628533
 30
0.0
  0
VERTEX
  5
34D
330
348
100
AcDbEntity
  8
\U+30EC\U+30A4\U+30E4\U+30FC 4
 62
     7
370
     9
100
AcDbVertex
100
AcDb2dVertex
 10
235.64659824838
 20
79.85455727170303
 30
0.0
  0
VERTEX
  5
34E
330
348
100
AcDbEntity
  8
\U+30EC\U+30A4\U+30E4\U+30FC 4
 62
     7
370
     9
100
AcDbVertex
100
AcDb2dVertex
 10
235.4247340991299
 20
79.90141057030243
 30
0.0
  0
VERTEX
  5
34F
330
348
100
AcDbEntity
  8
\U+30EC\U+30A4\U+30E4\U+30FC 4
 62
     7
370
     9
100
AcDbVertex
100
AcDb2dVertex
 10
235.231808751956
 20
79.99649520569533
 30
0.0
  0
VERTEX
  5
350
330
348
100
AcDbEntity
  8
\U+30EC\U+30A4\U+30E4\U+30FC 4
 62
     7
370
     9
100
AcDbVertex
100
AcDb2dVertex
 10
235.0650661304699
 20
80.14118921607582
 30
0.0
  0
VERTEX
  5
351
330
348
100
AcDbEntity
  8
\U+30EC\U+30A4\U+30E4\U+30FC 4
 62
     7
370
     9
100
AcDbVertex
100
AcDb2dVertex
 10
234.9334634829333
 20
80.33066946776457
 30
0.0
  0
VERTEX
  5
352
330
348
100
AcDbEntity
  8
\U+30EC\U+30A4\U+30E4\U+30FC 4
 62
     7
370
     9
100
AcDbVertex
100
AcDb2dVertex
 10
234.8342447329581
 20
80.5601128270822
 30
0.0
  0
VERTEX
  5
353
330
348
100
AcDbEntity
  8
\U+30EC\U+30A4\U+30E4\U+30FC 4
 62
     7
370
     9
100
AcDbVertex
100
AcDb2dVertex
 10
234.7756781097089
 20
80.82469616034939
 30
0.0
  0
VERTEX
  5
354
330
348
100
AcDbEntity
  8
\U+30EC\U+30A4\U+30E4\U+30FC 4
 62
     7
370
     9
100
AcDbVertex
100
AcDb2dVertex
 10
234.7550075367974
 20
81.12028535298383
 30
0.0
  0
VERTEX
  5
355
330
348
100
AcDbEntity
  8
\U+30EC\U+30A4\U+30E4\U+30FC 4
 62
     7
370
     9
100
AcDbVertex
100
AcDb2dVertex
 10
234.7756781097089
 20
81.4372341376268
 30
0.0
  0
VERTEX
  5
356
330
348
100
AcDbEntity
  8
\U+30EC\U+30A4\U+30E4\U+30FC 4
 62
     7
370
     9
100
AcDbVertex
100
AcDb2dVertex
 10
234.8342447329581
 20
81.77071938059899
 30
0.0
  0
VERTEX
  5
357
330
348
100
AcDbEntity
  8
\U+30EC\U+30A4\U+30E4\U+30FC 4
 62
     7
370
     9
100
AcDbVertex
100
AcDb2dVertex
 10
234.9334634829333
 20
82.11247285273578
 30
0.0
  0
VERTEX
  5
358
330
348
100
AcDbEntity
  8
\U+30EC\U+30A4\U+30E4\U+30FC 4
 62
     7
370
     9
100
AcDbVertex
100
AcDb2dVertex
 10
235.0650661304699
 20
82.45629338216371
 30
0.0
  0
VERTEX
  5
359
330
348
100
AcDbEntity
  8
\U+30EC\U+30A4\U+30E4\U+30FC 4
 62
     7
370
     9
100
AcDbVertex
100
AcDb2dVertex
 10
235.231808751956
 20
82.79115666332999
 30
0.0
  0
VERTEX
  5
35A
330
348
100
AcDbEntity
  8
\U+30EC\U+30A4\U+30E4\U+30FC 4
 62
     7
370
     9
100
AcDbVertex
100
AcDb2dVertex
 10
235.4247340991299
 20
83.11223956255527
 30
0.0
  0
VERTEX
  5
35B
330
348
100
AcDbEntity
  8
\U+30EC\U+30A4\U+30E4\U+30FC 4
 62
     7
370
     9
100
AcDbVertex
100
AcDb2dVertex
 10
235.64659824838
 20
83.41196286977201
 30
0.0
  0
VERTEX
  5
35C
330
348
100
AcDbEntity
  8
\U+30EC\U+30A4\U+30E4\U+30FC 4
 62
     7
370
     9
100
AcDbVertex
100
AcDb2dVertex
 10
235.8836208177652
 20
83.68412541310676
 30
0.0
  0
VERTEX
  5
35D
330
348
100
AcDbEntity
  8
\U+30EC\U+30A4\U+30E4\U+30FC 4
 62
     7
370
     9
100
AcDbVertex
100
AcDb2dVertex
 10
236.1378688645767
 20
83.92114798249195
 30
0.0
  0
VERTEX
  5
35E
330
348
100
AcDbEntity
  8
\U+30EC\U+30A4\U+30E4\U+30FC 4
 62
     7
370
     9
100
AcDbVertex
100
AcDb2dVertex
 10
236.4010741596497
 20
84.11820744424823
 30
0.0
  0
VERTEX
  5
35F
330
348
100
AcDbEntity
  8
\U+30EC\U+30A4\U+30E4\U+30FC 4
 62
     7
370
     9
100
AcDbVertex
100
AcDb2dVertex
 10
236.667035531111
 20
84.27185870289037
 30
0.0
  0
VERTEX
  5
360
330
348
100
AcDbEntity
  8
\U+30EC\U+30A4\U+30E4\U+30FC 4
 62
     7
370
     9
100
AcDbVertex
100
AcDb2dVertex
 10
236.9302408261841
 20
84.37865666293311
 30
0.0
  0
VERTEX
  5
361
330
348
100
AcDbEntity
  8
\U+30EC\U+30A4\U+30E4\U+30FC 4
 62
     7
370
     9
100
AcDbVertex
100
AcDb2dVertex
 10
237.1844888729956
 20
84.43377819069711
 30
0.0
  0
VERTEX
  5
362
330
348
100
AcDbEntity
  8
\U+30EC\U+30A4\U+30E4\U+30FC 4
 62
     7
370
     9
100
AcDbVertex
100
AcDb2dVertex
 10
237.4242675187689
 20
84.43997936257057
 30
0.0
  0
VERTEX
  5
363
330
348
100
AcDbEntity
  8
\U+30EC\U+30A4\U+30E4\U+30FC 4
 62
     7
370
     9
100
AcDbVertex
100
AcDb2dVertex
 10
237.6433755916308
 20
84.39312606397117
 30
0.0
  0
VERTEX
  5
364
330
348
100
AcDbEntity
  8
\U+30EC\U+30A4\U+30E4\U+30FC 4
 62
     7
370
     9
100
AcDbVertex
100
AcDb2dVertex
 10
237.8394015247416
 20
84.29666339038417
 30
0.0
  0
VERTEX
  5
365
330
348
100
AcDbEntity
  8
\U+30EC\U+30A4\U+30E4\U+30FC 4
 62
     7
370
     9
100
AcDbVertex
100
AcDb2dVertex
 10
238.0057996366791
 20
84.15334741819778
 30
0.0
  0
VERTEX
  5
366
330
348
100
AcDbEntity
  8
\U+30EC\U+30A4\U+30E4\U+30FC 4
 62
     7
370
     9
100
AcDbVertex
100
AcDb2dVertex
 10
238.1374022842157
 20
83.96317814741198
 30
0.0
  0
VERTEX
  5
367
330
348
100
AcDbEntity
  8
\U+30EC\U+30A4\U+30E4\U+30FC 4
 62
     7
370
     9
100
AcDbVertex
100
AcDb2dVertex
 10
238.2338649578027
 20
83.73373478809435
 30
0.0
  0
VERTEX
  5
368
330
348
100
AcDbEntity
  8
\U+30EC\U+30A4\U+30E4\U+30FC 4
 62
     7
370
     9
100
AcDbVertex
100
AcDb2dVertex
 10
238.2955321669886
 20
83.46915145482716
 30
0.0
  0
VERTEX
  5
369
330
348
100
AcDbEntity
  8
\U+30EC\U+30A4\U+30E4\U+30FC 4
 62
     7
370
     9
100
AcDbVertex
100
AcDb2dVertex
 10
238.3131021539634
 20
83.17425128128977
 30
0.0
  0
SEQEND
  5
36A
330
348
100
AcDbEntity
  8
\U+30EC\U+30A4\U+30E4\U+30FC 4
370
     9
  0
ENDBLK
  5
347
330
344
100
AcDbEntity
  8
0
100
AcDbBlockEnd
  0
BLOCK
  5
36D
330
36B
100
AcDbEntity
  8
0
100
AcDbBlockBegin
  2
block 74
 70
     0
 71
     0
 10
0.0
 20
0.0
 30
0.0
  3
block 74
  1

  0
POLYLINE
  5
36F
330
36B
100
AcDbEntity
  8
\U+30EC\U+30A4\U+30E4\U+30FC 4
 62
     7
370
     9
100
AcDb2dPolyline
 66
     1
 10
0.0
 20
0.0
 30
0.0
  0
VERTEX
  5
370
330
36F
100
AcDbEntity
  8
\U+30EC\U+30A4\U+30E4\U+30FC 4
 62
     7
370
     9
100
AcDbVertex
100
AcDb2dVertex
 10
231.3550428024043
 20
83.04953882472373
 30
0.0
  0
VERTEX
  5
371
330
36F
100
AcDbEntity
  8
\U+30EC\U+30A4\U+30E4\U+30FC 4
 62
     7
370
     9
100
AcDbVertex
100
AcDb2dVertex
 10
231.3757133753158
 20
82.74981551750699
 30
0.0
  0
VERTEX
  5
372
330
36F
100
AcDbEntity
  8
\U+30EC\U+30A4\U+30E4\U+30FC 4
 62
     7
370
     9
100
AcDbVertex
100
AcDb2dVertex
 10
231.434279998565
 20
82.4810980696575
 30
0.0
  0
VERTEX
  5
373
330
36F
100
AcDbEntity
  8
\U+30EC\U+30A4\U+30E4\U+30FC 4
 62
     7
370
     9
100
AcDbVertex
100
AcDb2dVertex
 10
231.5334987485402
 20
82.24752059575756
 30
0.0
  0
VERTEX
  5
374
330
36F
100
AcDbEntity
  8
\U+30EC\U+30A4\U+30E4\U+30FC 4
 62
     7
370
     9
100
AcDbVertex
100
AcDb2dVertex
 10
231.667857472465
 20
82.05459524858358
 30
0.0
  0
VERTEX
  5
375
330
36F
100
AcDbEntity
  8
\U+30EC\U+30A4\U+30E4\U+30FC 4
 62
     7
370
     9
100
AcDbVertex
100
AcDb2dVertex
 10
231.8377006798878
 20
81.90783418091193
 30
0.0
  0
VERTEX
  5
376
330
36F
100
AcDbEntity
  8
\U+30EC\U+30A4\U+30E4\U+30FC 4
 62
     7
370
     9
100
AcDbVertex
100
AcDb2dVertex
 10
231.8931667172003
 20
81.87476126425354
 30
0.0
  0
SEQEND
  5
377
330
36F
100
AcDbEntity
  8
\U+30EC\U+30A4\U+30E4\U+30FC 4
370
     9
  0
ENDBLK
  5
36E
330
36B
100
AcDbEntity
  8
0
100
AcDbBlockEnd
  0
BLOCK
  5
37A
330
378
100
AcDbEntity
  8
0
100
AcDbBlockBegin
  2
block 75
 70
     0
 71
     0
 10
0.0
 20
0.0
 30
0.0
  3
block 75
  1

  0
POLYLINE
  5
37C
330
378
100
AcDbEntity
  8
\U+30EC\U+30A4\U+30E4\U+30FC 4
 62
     7
370
     9
100
AcDb2dPolyline
 66
     1
 10
0.0
 20
0.0
 30
0.0
  0
VERTEX
  5
37D
330
37C
100
AcDbEntity
  8
\U+30EC\U+30A4\U+30E4\U+30FC 4
 62
     7
370
     9
100
AcDbVertex
100
AcDb2dVertex
 10
234.4480495290616
 20
86.30377602009072
 30
0.0
  0
VERTEX
  5
37E
330
37C
100
AcDbEntity
  8
\U+30EC\U+30A4\U+30E4\U+30FC 4
 62
     7
370
     9
100
AcDbVertex
100
AcDb2dVertex
 10
234.2902641558372
 20
86.37681204437803
 30
0.0
  0
VERTEX
  5
37F
330
37C
100
AcDbEntity
  8
\U+30EC\U+30A4\U+30E4\U+30FC 4
 62
     7
370
     9
100
AcDbVertex
100
AcDb2dVertex
 10
234.0680554970386
 20
86.42297632388038
 30
0.0
  0
VERTEX
  5
380
330
37C
100
AcDbEntity
  8
\U+30EC\U+30A4\U+30E4\U+30FC 4
 62
     7
370
     9
100
AcDbVertex
100
AcDb2dVertex
 10
233.8224201889402
 20
86.41884220929808
 30
0.0
  0
VERTEX
  5
381
330
37C
100
AcDbEntity
  8
\U+30EC\U+30A4\U+30E4\U+30FC 4
 62
     7
370
     9
100
AcDbVertex
100
AcDb2dVertex
 10
233.5654160657406
 20
86.36165362424292
 30
0.0
  0
VERTEX
  5
382
330
37C
100
AcDbEntity
  8
\U+30EC\U+30A4\U+30E4\U+30FC 4
 62
     7
370
     9
100
AcDbVertex
100
AcDb2dVertex
 10
233.2991101847308
 20
86.25347762600607
 30
0.0
  0
VERTEX
  5
383
330
37C
100
AcDbEntity
  8
\U+30EC\U+30A4\U+30E4\U+30FC 4
 62
     7
370
     9
100
AcDbVertex
100
AcDb2dVertex
 10
233.0272921509446
 20
86.09707029097574
 30
0.0
  0
VERTEX
  5
384
330
37C
100
AcDbEntity
  8
\U+30EC\U+30A4\U+30E4\U+30FC 4
 62
     7
370
     9
100
AcDbVertex
100
AcDb2dVertex
 10
232.7613307794833
 20
85.89725475283124
 30
0.0
  0
VERTEX
  5
385
330
37C
100
AcDbEntity
  8
\U+30EC\U+30A4\U+30E4\U+30FC 4
 62
     7
370
     9
100
AcDbVertex
100
AcDb2dVertex
 10
232.5012260703469
 20
85.65609806886376
 30
0.0
  0
VERTEX
  5
386
330
37C
100
AcDbEntity
  8
\U+30EC\U+30A4\U+30E4\U+30FC 4
 62
     7
370
     9
100
AcDbVertex
100
AcDb2dVertex
 10
232.2586913481854
 20
85.37980141094673
 30
0.0
  0
VERTEX
  5
387
330
37C
100
AcDbEntity
  8
\U+30EC\U+30A4\U+30E4\U+30FC 4
 62
     7
370
     9
100
AcDbVertex
100
AcDb2dVertex
 10
232.0364826893867
 20
85.07594398914769
 30
0.0
  0
VERTEX
  5
388
330
37C
100
AcDbEntity
  8
\U+30EC\U+30A4\U+30E4\U+30FC 4
 62
     7
370
     9
100
AcDbVertex
100
AcDb2dVertex
 10
231.8377006798878
 20
84.7479708989519
 30
0.0
  0
VERTEX
  5
389
330
37C
100
AcDbEntity
  8
\U+30EC\U+30A4\U+30E4\U+30FC 4
 62
     7
370
     9
100
AcDbVertex
100
AcDb2dVertex
 10
231.667857472465
 20
84.40759546500922
 30
0.0
  0
VERTEX
  5
38A
330
37C
100
AcDbEntity
  8
\U+30EC\U+30A4\U+30E4\U+30FC 4
 62
     7
370
     9
100
AcDbVertex
100
AcDb2dVertex
 10
231.5334987485402
 20
84.05964082099898
 30
0.0
  0
VERTEX
  5
38B
330
37C
100
AcDbEntity
  8
\U+30EC\U+30A4\U+30E4\U+30FC 4
 62
     7
370
     9
100
AcDbVertex
100
AcDb2dVertex
 10
231.434279998565
 20
83.71168617698875
 30
0.0
  0
VERTEX
  5
38C
330
37C
100
AcDbEntity
  8
\U+30EC\U+30A4\U+30E4\U+30FC 4
 62
     7
370
     9
100
AcDbVertex
100
AcDb2dVertex
 10
231.3757133753158
 20
83.37268878124017
 30
0.0
  0
VERTEX
  5
38D
330
37C
100
AcDbEntity
  8
\U+30EC\U+30A4\U+30E4\U+30FC 4
 62
     7
370
     9
100
AcDbVertex
100
AcDb2dVertex
 10
231.3550428024043
 20
83.04953882472373
 30
0.0
  0
SEQEND
  5
38E
330
37C
100
AcDbEntity
  8
\U+30EC\U+30A4\U+30E4\U+30FC 4
370
     9
  0
ENDBLK
  5
37B
330
378
100
AcDbEntity
  8
0
100
AcDbBlockEnd
  0
BLOCK
  5
391
330
38F
100
AcDbEntity
  8
0
100
AcDbBlockBegin
  2
block 76
 70
     0
 71
     0
 10
0.0
 20
0.0
 30
0.0
  3
block 76
  1

  0
POLYLINE
  5
393
330
38F
100
AcDbEntity
  8
\U+30EC\U+30A4\U+30E4\U+30FC 4
 62
     7
370
     9
100
AcDb2dPolyline
 66
     1
 10
0.0
 20
0.0
 30
0.0
  0
VERTEX
  5
394
330
393
100
AcDbEntity
  8
\U+30EC\U+30A4\U+30E4\U+30FC 4
 62
     7
370
     9
100
AcDbVertex
100
AcDb2dVertex
 10
236.210904888864
 20
82.51761608180115
 30
0.0
  0
VERTEX
  5
395
330
393
100
AcDbEntity
  8
\U+30EC\U+30A4\U+30E4\U+30FC 4
 62
     7
370
     9
100
AcDbVertex
100
AcDb2dVertex
 10
237.0790689511469
 20
83.01922198445354
 30
0.0
  0
SEQEND
  5
396
330
393
100
AcDbEntity
  8
\U+30EC\U+30A4\U+30E4\U+30FC 4
370
     9
  0
ENDBLK
  5
392
330
38F
100
AcDbEntity
  8
0
100
AcDbBlockEnd
  0
BLOCK
  5
399
330
397
100
AcDbEntity
  8
0
100
AcDbBlockBegin
  2
block 77
 70
     0
 71
     0
 10
0.0
 20
0.0
 30
0.0
  3
block 77
  1

  0
SPLINE
  5
39B
330
397
100
AcDbEntity
  8
\U+30EC\U+30A4\U+30E4\U+30FC 4
 62
     7
370
     9
100
AcDbSpline
210
0.0
220
0.0
230
1.0
 70
     8
 71
     3
 72
     8
 73
     4
 74
     0
 42
0.0000000001
 43
0.0000000001
 40
0.0
 40
0.0
 40
0.0
 40
0.0
 40
1.0
 40
1.0
 40
1.0
 40
1.0
 10
236.9884629398848
 20
81.92850475382343
 30
0.0
 10
236.7724554529597
 20
81.78794485802524
 30
0.0
 10
236.6143255701867
 20
81.5736599188427
 30
0.0
 10
236.5471462082243
 20
81.32492402480766
 30
0.0
  0
ENDBLK
  5
39A
330
397
100
AcDbEntity
  8
0
100
AcDbBlockEnd
  0
BLOCK
  5
39E
330
39C
100
AcDbEntity
  8
0
100
AcDbBlockBegin
  2
block 78
 70
     0
 71
     0
 10
0.0
 20
0.0
 30
0.0
  3
block 78
  1

  0
SPLINE
  5
3A0
330
39C
100
AcDbEntity
  8
\U+30EC\U+30A4\U+30E4\U+30FC 4
 62
     7
370
     9
100
AcDbSpline
210
0.0
220
0.0
230
1.0
 70
     8
 71
     3
 72
     8
 73
     4
 74
     0
 42
0.0000000001
 43
0.0000000001
 40
0.0
 40
0.0
 40
0.0
 40
0.0
 40
1.0
 40
1.0
 40
1.0
 40
1.0
 10
237.0966389381217
 20
81.73557940664944
 30
0.0
 10
237.0938828617335
 20
81.81481660281018
 30
0.0
 10
237.052886225459
 20
81.88440753161224
 30
0.0
 10
236.9884629398848
 20
81.92850475382343
 30
0.0
  0
ENDBLK
  5
39F
330
39C
100
AcDbEntity
  8
0
100
AcDbBlockEnd
  0
BLOCK
  5
3A3
330
3A1
100
AcDbEntity
  8
0
100
AcDbBlockBegin
  2
block 79
 70
     0
 71
     0
 10
0.0
 20
0.0
 30
0.0
  3
block 79
  1

  0
SPLINE
  5
3A5
330
3A1
100
AcDbEntity
  8
\U+30EC\U+30A4\U+30E4\U+30FC 4
 62
     7
370
     9
100
AcDbSpline
210
0.0
220
0.0
230
1.0
 70
     8
 71
     3
 72
     8
 73
     4
 74
     0
 42
0.0000000001
 43
0.0000000001
 40
0.0
 40
0.0
 40
0.0
 40
0.0
 40
1.0
 40
1.0
 40
1.0
 40
1.0
 10
237.0966389381217
 20
81.73557940664944
 30
0.0
 10
236.9505668895471
 20
81.64187280945065
 30
0.0
 10
236.8365342289853
 20
81.49993487545835
 30
0.0
 10
236.7810681916728
 20
81.33525931126341
 30
0.0
  0
ENDBLK
  5
3A4
330
3A1
100
AcDbEntity
  8
0
100
AcDbBlockEnd
  0
BLOCK
  5
3A8
330
3A6
100
AcDbEntity
  8
0
100
AcDbBlockBegin
  2
block 80
 70
     0
 71
     0
 10
0.0
 20
0.0
 30
0.0
  3
block 80
  1

  0
SPLINE
  5
3AA
330
3A6
100
AcDbEntity
  8
\U+30EC\U+30A4\U+30E4\U+30FC 4
 62
     7
370
     9
100
AcDbSpline
210
0.0
220
0.0
230
1.0
 70
     8
 71
     3
 72
     8
 73
     4
 74
     0
 42
0.0000000001
 43
0.0000000001
 40
0.0
 40
0.0
 40
0.0
 40
0.0
 40
1.0
 40
1.0
 40
1.0
 40
1.0
 10
236.5471462082243
 20
81.32492402480766
 30
0.0
 10
236.6232828184484
 20
81.28978405085812
 30
0.0
 10
236.7080321673855
 20
81.29391816544042
 30
0.0
 10
236.7810681916728
 20
81.33525931126341
 30
0.0
  0
ENDBLK
  5
3A9
330
3A6
100
AcDbEntity
  8
0
100
AcDbBlockEnd
  0
BLOCK
  5
3AD
330
3AB
100
AcDbEntity
  8
0
100
AcDbBlockBegin
  2
block 81
 70
     0
 71
     0
 10
0.0
 20
0.0
 30
0.0
  3
block 81
  1

  0
POLYLINE
  5
3AF
330
3AB
100
AcDbEntity
  8
\U+30EC\U+30A4\U+30E4\U+30FC 4
 62
     7
370
     9
100
AcDb2dPolyline
 66
     1
 10
0.0
 20
0.0
 30
0.0
  0
VERTEX
  5
3B0
330
3AF
100
AcDbEntity
  8
\U+30EC\U+30A4\U+30E4\U+30FC 4
 62
     7
370
     9
100
AcDbVertex
100
AcDb2dVertex
 10
236.5471462082243
 20
81.32492402480766
 30
0.0
  0
VERTEX
  5
3B1
330
3AF
100
AcDbEntity
  8
\U+30EC\U+30A4\U+30E4\U+30FC 4
 62
     7
370
     9
100
AcDbVertex
100
AcDb2dVertex
 10
236.4944362473
 20
81.35248478868967
 30
0.0
  0
SEQEND
  5
3B2
330
3AF
100
AcDbEntity
  8
\U+30EC\U+30A4\U+30E4\U+30FC 4
370
     9
  0
ENDBLK
  5
3AE
330
3AB
100
AcDbEntity
  8
0
100
AcDbBlockEnd
  0
BLOCK
  5
3B5
330
3B3
100
AcDbEntity
  8
0
100
AcDbBlockBegin
  2
block 82
 70
     0
 71
     0
 10
0.0
 20
0.0
 30
0.0
  3
block 82
  1

  0
SPLINE
  5
3B7
330
3B3
100
AcDbEntity
  8
\U+30EC\U+30A4\U+30E4\U+30FC 4
 62
     7
370
     9
100
AcDbSpline
210
0.0
220
0.0
230
1.0
 70
     8
 71
     3
 72
     8
 73
     4
 74
     0
 42
0.0000000001
 43
0.0000000001
 40
0.0
 40
0.0
 40
0.0
 40
0.0
 40
1.0
 40
1.0
 40
1.0
 40
1.0
 10
236.4944362473
 20
81.35248478868967
 30
0.0
 10
236.4537841205741
 20
81.22708331302657
 30
0.0
 10
236.4537841205741
 20
81.09272458910182
 30
0.0
 10
236.4944362473
 20
80.96663409434169
 30
0.0
  0
ENDBLK
  5
3B6
330
3B3
100
AcDbEntity
  8
0
100
AcDbBlockEnd
  0
BLOCK
  5
3BA
330
3B8
100
AcDbEntity
  8
0
100
AcDbBlockBegin
  2
block 83
 70
     0
 71
     0
 10
0.0
 20
0.0
 30
0.0
  3
block 83
  1

  0
POLYLINE
  5
3BC
330
3B8
100
AcDbEntity
  8
\U+30EC\U+30A4\U+30E4\U+30FC 4
 62
     7
370
     9
100
AcDb2dPolyline
 66
     1
 10
0.0
 20
0.0
 30
0.0
  0
VERTEX
  5
3BD
330
3BC
100
AcDbEntity
  8
\U+30EC\U+30A4\U+30E4\U+30FC 4
 62
     7
370
     9
100
AcDbVertex
100
AcDb2dVertex
 10
236.4944362473
 20
80.96663409434169
 30
0.0
  0
VERTEX
  5
3BE
330
3BC
100
AcDbEntity
  8
\U+30EC\U+30A4\U+30E4\U+30FC 4
 62
     7
370
     9
100
AcDbVertex
100
AcDb2dVertex
 10
236.5471462082243
 20
80.93769529226557
 30
0.0
  0
SEQEND
  5
3BF
330
3BC
100
AcDbEntity
  8
\U+30EC\U+30A4\U+30E4\U+30FC 4
370
     9
  0
ENDBLK
  5
3BB
330
3B8
100
AcDbEntity
  8
0
100
AcDbBlockEnd
  0
BLOCK
  5
3C2
330
3C0
100
AcDbEntity
  8
0
100
AcDbBlockBegin
  2
block 84
 70
     0
 71
     0
 10
0.0
 20
0.0
 30
0.0
  3
block 84
  1

  0
POLYLINE
  5
3C4
330
3C0
100
AcDbEntity
  8
\U+30EC\U+30A4\U+30E4\U+30FC 4
 62
     7
370
     9
100
AcDb2dPolyline
 66
     1
 10
0.0
 20
0.0
 30
0.0
  0
VERTEX
  5
3C5
330
3C4
100
AcDbEntity
  8
\U+30EC\U+30A4\U+30E4\U+30FC 4
 62
     7
370
     9
100
AcDbVertex
100
AcDb2dVertex
 10
236.9884629398848
 20
81.92850475382343
 30
0.0
  0
VERTEX
  5
3C6
330
3C4
100
AcDbEntity
  8
\U+30EC\U+30A4\U+30E4\U+30FC 4
 62
     7
370
     9
100
AcDbVertex
100
AcDb2dVertex
 10
236.3221814730375
 20
82.32606877282126
 30
0.0
  0
SEQEND
  5
3C7
330
3C4
100
AcDbEntity
  8
\U+30EC\U+30A4\U+30E4\U+30FC 4
370
     9
  0
ENDBLK
  5
3C3
330
3C0
100
AcDbEntity
  8
0
100
AcDbBlockEnd
  0
BLOCK
  5
3CA
330
3C8
100
AcDbEntity
  8
0
100
AcDbBlockBegin
  2
block 85
 70
     0
 71
     0
 10
0.0
 20
0.0
 30
0.0
  3
block 85
  1

  0
SPLINE
  5
3CC
330
3C8
100
AcDbEntity
  8
\U+30EC\U+30A4\U+30E4\U+30FC 4
 62
     7
370
     9
100
AcDbSpline
210
0.0
220
0.0
230
1.0
 70
     8
 71
     3
 72
     8
 73
     4
 74
     0
 42
0.0000000001
 43
0.0000000001
 40
0.0
 40
0.0
 40
0.0
 40
0.0
 40
1.0
 40
1.0
 40
1.0
 40
1.0
 10
238.2369655437394
 20
82.17586260966438
 30
0.0
 10
238.1639295194521
 20
82.25165471033986
 30
0.0
 10
238.0467962729536
 20
82.25923392040741
 30
0.0
 10
237.9651475099532
 20
82.19308808709062
 30
0.0
  0
ENDBLK
  5
3CB
330
3C8
100
AcDbEntity
  8
0
100
AcDbBlockEnd
  0
BLOCK
  5
3CF
330
3CD
100
AcDbEntity
  8
0
100
AcDbBlockBegin
  2
block 86
 70
     0
 71
     0
 10
0.0
 20
0.0
 30
0.0
  3
block 86
  1

  0
POLYLINE
  5
3D1
330
3CD
100
AcDbEntity
  8
\U+30EC\U+30A4\U+30E4\U+30FC 4
 62
     7
370
     9
100
AcDb2dPolyline
 66
     1
 10
0.0
 20
0.0
 30
0.0
  0
VERTEX
  5
3D2
330
3D1
100
AcDbEntity
  8
\U+30EC\U+30A4\U+30E4\U+30FC 4
 62
     7
370
     9
100
AcDbVertex
100
AcDb2dVertex
 10
237.9651475099532
 20
82.19308808709062
 30
0.0
  0
VERTEX
  5
3D3
330
3D1
100
AcDbEntity
  8
\U+30EC\U+30A4\U+30E4\U+30FC 4
 62
     7
370
     9
100
AcDbVertex
100
AcDb2dVertex
 10
237.0966389381217
 20
81.6935492417294
 30
0.0
  0
SEQEND
  5
3D4
330
3D1
100
AcDbEntity
  8
\U+30EC\U+30A4\U+30E4\U+30FC 4
370
     9
  0
ENDBLK
  5
3D0
330
3CD
100
AcDbEntity
  8
0
100
AcDbBlockEnd
  0
BLOCK
  5
3D7
330
3D5
100
AcDbEntity
  8
0
100
AcDbBlockBegin
  2
block 87
 70
     0
 71
     0
 10
0.0
 20
0.0
 30
0.0
  3
block 87
  1

  0
SPLINE
  5
3D9
330
3D5
100
AcDbEntity
  8
\U+30EC\U+30A4\U+30E4\U+30FC 4
 62
     7
370
     9
100
AcDbSpline
210
0.0
220
0.0
230
1.0
 70
     8
 71
     3
 72
     8
 73
     4
 74
     0
 42
0.0000000001
 43
0.0000000001
 40
0.0
 40
0.0
 40
0.0
 40
0.0
 40
1.0
 40
1.0
 40
1.0
 40
1.0
 10
237.0966389381217
 20
81.6935492417294
 30
0.0
 10
236.9739935388468
 20
81.61293400737455
 30
0.0
 10
236.8775308652598
 20
81.49717879907016
 30
0.0
 10
236.8248209043355
 20
81.36006399875721
 30
0.0
  0
ENDBLK
  5
3D8
330
3D5
100
AcDbEntity
  8
0
100
AcDbBlockEnd
  0
BLOCK
  5
3DC
330
3DA
100
AcDbEntity
  8
0
100
AcDbBlockBegin
  2
block 88
 70
     0
 71
     0
 10
0.0
 20
0.0
 30
0.0
  3
block 88
  1

  0
POLYLINE
  5
3DE
330
3DA
100
AcDbEntity
  8
\U+30EC\U+30A4\U+30E4\U+30FC 4
 62
     7
370
     9
100
AcDb2dPolyline
 66
     1
 10
0.0
 20
0.0
 30
0.0
  0
VERTEX
  5
3DF
330
3DE
100
AcDbEntity
  8
\U+30EC\U+30A4\U+30E4\U+30FC 4
 62
     7
370
     9
100
AcDbVertex
100
AcDb2dVertex
 10
236.8248209043355
 20
81.36006399875721
 30
0.0
  0
VERTEX
  5
3E0
330
3DE
100
AcDbEntity
  8
\U+30EC\U+30A4\U+30E4\U+30FC 4
 62
     7
370
     9
100
AcDbVertex
100
AcDb2dVertex
 10
236.7810681916728
 20
81.33525931126341
 30
0.0
  0
SEQEND
  5
3E1
330
3DE
100
AcDbEntity
  8
\U+30EC\U+30A4\U+30E4\U+30FC 4
370
     9
  0
ENDBLK
  5
3DD
330
3DA
100
AcDbEntity
  8
0
100
AcDbBlockEnd
  0
BLOCK
  5
3E4
330
3E2
100
AcDbEntity
  8
0
100
AcDbBlockBegin
  2
block 89
 70
     0
 71
     0
 10
0.0
 20
0.0
 30
0.0
  3
block 89
  1

  0
POLYLINE
  5
3E6
330
3E2
100
AcDbEntity
  8
\U+30EC\U+30A4\U+30E4\U+30FC 4
 62
     7
370
     9
100
AcDb2dPolyline
 66
     1
 10
0.0
 20
0.0
 30
0.0
  0
VERTEX
  5
3E7
330
3E6
100
AcDbEntity
  8
\U+30EC\U+30A4\U+30E4\U+30FC 4
 62
     7
370
     9
100
AcDbVertex
100
AcDb2dVertex
 10
237.9651475099532
 20
82.23718530930182
 30
0.0
  0
VERTEX
  5
3E8
330
3E6
100
AcDbEntity
  8
\U+30EC\U+30A4\U+30E4\U+30FC 4
 62
     7
370
     9
100
AcDbVertex
100
AcDb2dVertex
 10
237.0966389381217
 20
81.73557940664944
 30
0.0
  0
SEQEND
  5
3E9
330
3E6
100
AcDbEntity
  8
\U+30EC\U+30A4\U+30E4\U+30FC 4
370
     9
  0
ENDBLK
  5
3E5
330
3E2
100
AcDbEntity
  8
0
100
AcDbBlockEnd
  0
BLOCK
  5
3EC
330
3EA
100
AcDbEntity
  8
0
100
AcDbBlockBegin
  2
block 90
 70
     0
 71
     0
 10
0.0
 20
0.0
 30
0.0
  3
block 90
  1

  0
SPLINE
  5
3EE
330
3EA
100
AcDbEntity
  8
\U+30EC\U+30A4\U+30E4\U+30FC 4
 62
     7
370
     9
100
AcDbSpline
210
0.0
220
0.0
230
1.0
 70
     8
 71
     3
 72
     8
 73
     4
 74
     0
 42
0.0000000001
 43
0.0000000001
 40
0.0
 40
0.0
 40
0.0
 40
0.0
 40
1.0
 40
1.0
 40
1.0
 40
1.0
 10
238.2807182564021
 20
82.20204533535227
 30
0.0
 10
238.2076822321148
 20
82.29850800893927
 30
0.0
 10
238.0674668458651
 20
82.31711152455962
 30
0.0
 10
237.9710041722781
 20
82.24269746207821
 30
0.0
  0
ENDBLK
  5
3ED
330
3EA
100
AcDbEntity
  8
0
100
AcDbBlockEnd
  0
BLOCK
  5
3F1
330
3EF
100
AcDbEntity
  8
0
100
AcDbBlockBegin
  2
block 91
 70
     0
 71
     0
 10
0.0
 20
0.0
 30
0.0
  3
block 91
  1

  0
POLYLINE
  5
3F3
330
3EF
100
AcDbEntity
  8
\U+30EC\U+30A4\U+30E4\U+30FC 4
 62
     7
370
     9
100
AcDb2dPolyline
 66
     1
 10
0.0
 20
0.0
 30
0.0
  0
VERTEX
  5
3F4
330
3F3
100
AcDbEntity
  8
\U+30EC\U+30A4\U+30E4\U+30FC 4
 62
     7
370
     9
100
AcDbVertex
100
AcDb2dVertex
 10
238.2807182564021
 20
82.20204533535227
 30
0.0
  0
VERTEX
  5
3F5
330
3F3
100
AcDbEntity
  8
\U+30EC\U+30A4\U+30E4\U+30FC 4
 62
     7
370
     9
100
AcDbVertex
100
AcDb2dVertex
 10
238.2369655437394
 20
82.17586260966438
 30
0.0
  0
SEQEND
  5
3F6
330
3F3
100
AcDbEntity
  8
\U+30EC\U+30A4\U+30E4\U+30FC 4
370
     9
  0
ENDBLK
  5
3F2
330
3EF
100
AcDbEntity
  8
0
100
AcDbBlockEnd
  0
BLOCK
  5
3F9
330
3F7
100
AcDbEntity
  8
0
100
AcDbBlockBegin
  2
block 92
 70
     0
 71
     0
 10
0.0
 20
0.0
 30
0.0
  3
block 92
  1

  0
POLYLINE
  5
3FB
330
3F7
100
AcDbEntity
  8
\U+30EC\U+30A4\U+30E4\U+30FC 4
 62
     7
370
     9
100
AcDb2dPolyline
 66
     1
 10
0.0
 20
0.0
 30
0.0
  0
VERTEX
  5
3FC
330
3FB
100
AcDbEntity
  8
\U+30EC\U+30A4\U+30E4\U+30FC 4
 62
     7
370
     9
100
AcDbVertex
100
AcDb2dVertex
 10
236.7400715553983
 20
81.31734481474011
 30
0.0
  0
VERTEX
  5
3FD
330
3FB
100
AcDbEntity
  8
\U+30EC\U+30A4\U+30E4\U+30FC 4
 62
     7
370
     9
100
AcDbVertex
100
AcDb2dVertex
 10
236.7400715553983
 20
81.09548066549002
 30
0.0
  0
SEQEND
  5
3FE
330
3FB
100
AcDbEntity
  8
\U+30EC\U+30A4\U+30E4\U+30FC 4
370
     9
  0
ENDBLK
  5
3FA
330
3F7
100
AcDbEntity
  8
0
100
AcDbBlockEnd
  0
BLOCK
  5
401
330
3FF
100
AcDbEntity
  8
0
100
AcDbBlockBegin
  2
block 93
 70
     0
 71
     0
 10
0.0
 20
0.0
 30
0.0
  3
block 93
  1

  0
SPLINE
  5
403
330
3FF
100
AcDbEntity
  8
\U+30EC\U+30A4\U+30E4\U+30FC 4
 62
     7
370
     9
100
AcDbSpline
210
0.0
220
0.0
230
1.0
 70
     8
 71
     3
 72
     8
 73
     4
 74
     0
 42
0.0000000001
 43
0.0000000001
 40
0.0
 40
0.0
 40
0.0
 40
0.0
 40
1.0
 40
1.0
 40
1.0
 40
1.0
 10
236.7400715553983
 20
81.09548066549002
 30
0.0
 10
236.7400715553983
 20
81.06034069154047
 30
0.0
 10
236.763498204698
 20
81.04587129050242
 30
0.0
 10
236.7955375927108
 20
81.06309676792867
 30
0.0
  0
ENDBLK
  5
402
330
3FF
100
AcDbEntity
  8
0
100
AcDbBlockEnd
  0
BLOCK
  5
406
330
404
100
AcDbEntity
  8
0
100
AcDbBlockBegin
  2
block 94
 70
     0
 71
     0
 10
0.0
 20
0.0
 30
0.0
  3
block 94
  1

  0
POLYLINE
  5
408
330
404
100
AcDbEntity
  8
\U+30EC\U+30A4\U+30E4\U+30FC 4
 62
     7
370
     9
100
AcDb2dPolyline
 66
     1
 10
0.0
 20
0.0
 30
0.0
  0
VERTEX
  5
409
330
408
100
AcDbEntity
  8
\U+30EC\U+30A4\U+30E4\U+30FC 4
 62
     7
370
     9
100
AcDbVertex
100
AcDb2dVertex
 10
236.7955375927108
 20
81.06309676792867
 30
0.0
  0
VERTEX
  5
40A
330
408
100
AcDbEntity
  8
\U+30EC\U+30A4\U+30E4\U+30FC 4
 62
     7
370
     9
100
AcDbVertex
100
AcDb2dVertex
 10
236.8630614642217
 20
81.10237085646052
 30
0.0
  0
SEQEND
  5
40B
330
408
100
AcDbEntity
  8
\U+30EC\U+30A4\U+30E4\U+30FC 4
370
     9
  0
ENDBLK
  5
407
330
404
100
AcDbEntity
  8
0
100
AcDbBlockEnd
  0
BLOCK
  5
40E
330
40C
100
AcDbEntity
  8
0
100
AcDbBlockBegin
  2
block 95
 70
     0
 71
     0
 10
0.0
 20
0.0
 30
0.0
  3
block 95
  1

  0
POLYLINE
  5
410
330
40C
100
AcDbEntity
  8
\U+30EC\U+30A4\U+30E4\U+30FC 4
 62
     7
370
     9
100
AcDb2dPolyline
 66
     1
 10
0.0
 20
0.0
 30
0.0
  0
VERTEX
  5
411
330
410
100
AcDbEntity
  8
\U+30EC\U+30A4\U+30E4\U+30FC 4
 62
     7
370
     9
100
AcDbVertex
100
AcDb2dVertex
 10
236.8630614642217
 20
81.01486543113518
 30
0.0
  0
VERTEX
  5
412
330
410
100
AcDbEntity
  8
\U+30EC\U+30A4\U+30E4\U+30FC 4
 62
     7
370
     9
100
AcDbVertex
100
AcDb2dVertex
 10
236.8630614642217
 20
81.10237085646052
 30
0.0
  0
SEQEND
  5
413
330
410
100
AcDbEntity
  8
\U+30EC\U+30A4\U+30E4\U+30FC 4
370
     9
  0
ENDBLK
  5
40F
330
40C
100
AcDbEntity
  8
0
100
AcDbBlockEnd
  0
BLOCK
  5
416
330
414
100
AcDbEntity
  8
0
100
AcDbBlockBegin
  2
block 96
 70
     0
 71
     0
 10
0.0
 20
0.0
 30
0.0
  3
block 96
  1

  0
SPLINE
  5
418
330
414
100
AcDbEntity
  8
\U+30EC\U+30A4\U+30E4\U+30FC 4
 62
     7
370
     9
100
AcDbSpline
210
0.0
220
0.0
230
1.0
 70
     8
 71
     3
 72
     8
 73
     4
 74
     0
 42
0.0000000001
 43
0.0000000001
 40
0.0
 40
0.0
 40
0.0
 40
0.0
 40
1.0
 40
1.0
 40
1.0
 40
1.0
 10
236.7576415423731
 20
81.00590818287353
 30
0.0
 10
236.7927815163227
 20
81.00039603009712
 30
0.0
 10
236.8279214902722
 20
81.00315210648533
 30
0.0
 10
236.8630614642217
 20
81.01486543113518
 30
0.0
  0
ENDBLK
  5
417
330
414
100
AcDbEntity
  8
0
100
AcDbBlockEnd
  0
BLOCK
  5
41B
330
419
100
AcDbEntity
  8
0
100
AcDbBlockBegin
  2
block 97
 70
     0
 71
     0
 10
0.0
 20
0.0
 30
0.0
  3
block 97
  1

  0
POLYLINE
  5
41D
330
419
100
AcDbEntity
  8
\U+30EC\U+30A4\U+30E4\U+30FC 4
 62
     7
370
     9
100
AcDb2dPolyline
 66
     1
 10
0.0
 20
0.0
 30
0.0
  0
VERTEX
  5
41E
330
41D
100
AcDbEntity
  8
\U+30EC\U+30A4\U+30E4\U+30FC 4
 62
     7
370
     9
100
AcDbVertex
100
AcDb2dVertex
 10
236.4944362473
 20
80.96663409434169
 30
0.0
  0
VERTEX
  5
41F
330
41D
100
AcDbEntity
  8
\U+30EC\U+30A4\U+30E4\U+30FC 4
 62
     7
370
     9
100
AcDbVertex
100
AcDb2dVertex
 10
236.6642794547228
 20
81.06447480612277
 30
0.0
  0
SEQEND
  5
420
330
41D
100
AcDbEntity
  8
\U+30EC\U+30A4\U+30E4\U+30FC 4
370
     9
  0
ENDBLK
  5
41C
330
419
100
AcDbEntity
  8
0
100
AcDbBlockEnd
  0
BLOCK
  5
423
330
421
100
AcDbEntity
  8
0
100
AcDbBlockBegin
  2
block 98
 70
     0
 71
     0
 10
0.0
 20
0.0
 30
0.0
  3
block 98
  1

  0
POLYLINE
  5
425
330
421
100
AcDbEntity
  8
\U+30EC\U+30A4\U+30E4\U+30FC 4
 62
     7
370
     9
100
AcDb2dPolyline
 66
     1
 10
0.0
 20
0.0
 30
0.0
  0
VERTEX
  5
426
330
425
100
AcDbEntity
  8
\U+30EC\U+30A4\U+30E4\U+30FC 4
 62
     7
370
     9
100
AcDbVertex
100
AcDb2dVertex
 10
236.9884629398848
 20
81.92850475382343
 30
0.0
  0
VERTEX
  5
427
330
425
100
AcDbEntity
  8
\U+30EC\U+30A4\U+30E4\U+30FC 4
 62
     7
370
     9
100
AcDbVertex
100
AcDb2dVertex
 10
237.8569715117163
 20
82.42873261828171
 30
0.0
  0
SEQEND
  5
428
330
425
100
AcDbEntity
  8
\U+30EC\U+30A4\U+30E4\U+30FC 4
370
     9
  0
ENDBLK
  5
424
330
421
100
AcDbEntity
  8
0
100
AcDbBlockEnd
  0
BLOCK
  5
42B
330
429
100
AcDbEntity
  8
0
100
AcDbBlockBegin
  2
block 99
 70
     0
 71
     0
 10
0.0
 20
0.0
 30
0.0
  3
block 99
  1

  0
SPLINE
  5
42D
330
429
100
AcDbEntity
  8
\U+30EC\U+30A4\U+30E4\U+30FC 4
 62
     7
370
     9
100
AcDbSpline
210
0.0
220
0.0
230
1.0
 70
     8
 71
     3
 72
     8
 73
     4
 74
     0
 42
0.0000000001
 43
0.0000000001
 40
0.0
 40
0.0
 40
0.0
 40
0.0
 40
1.0
 40
1.0
 40
1.0
 40
1.0
 10
237.9651475099532
 20
82.23718530930182
 30
0.0
 10
237.9620469240164
 20
82.31435544817141
 30
0.0
 10
237.921050287742
 20
82.38601343426461
 30
0.0
 10
237.8569715117163
 20
82.42873261828171
 30
0.0
  0
ENDBLK
  5
42C
330
429
100
AcDbEntity
  8
0
100
AcDbBlockEnd
  0
BLOCK
  5
430
330
42E
100
AcDbEntity
  8
0
100
AcDbBlockBegin
  2
block 100
 70
     0
 71
     0
 10
0.0
 20
0.0
 30
0.0
  3
block 100
  1

  0
SPLINE
  5
432
330
42E
100
AcDbEntity
  8
\U+30EC\U+30A4\U+30E4\U+30FC 4
 62
     7
370
     9
100
AcDbSpline
210
0.0
220
0.0
230
1.0
 70
     8
 71
     3
 72
     8
 73
     4
 74
     0
 42
0.0000000001
 43
0.0000000001
 40
0.0
 40
0.0
 40
0.0
 40
0.0
 40
1.0
 40
1.0
 40
1.0
 40
1.0
 10
236.210904888864
 20
82.51761608180115
 30
0.0
 10
236.2167615511889
 20
82.44044594293156
 30
0.0
 10
236.2577581874633
 20
82.36878795683836
 30
0.0
 10
236.3221814730375
 20
82.32606877282126
 30
0.0
  0
ENDBLK
  5
431
330
42E
100
AcDbEntity
  8
0
100
AcDbBlockEnd
  0
BLOCK
  5
435
330
433
100
AcDbEntity
  8
0
100
AcDbBlockBegin
  2
block 101
 70
     0
 71
     0
 10
0.0
 20
0.0
 30
0.0
  3
block 101
  1

  0
POLYLINE
  5
437
330
433
100
AcDbEntity
  8
\U+30EC\U+30A4\U+30E4\U+30FC 4
 62
     7
370
     9
100
AcDb2dPolyline
 66
     1
 10
0.0
 20
0.0
 30
0.0
  0
VERTEX
  5
438
330
437
100
AcDbEntity
  8
\U+30EC\U+30A4\U+30E4\U+30FC 4
 62
     7
370
     9
100
AcDbVertex
100
AcDb2dVertex
 10
237.1903455353205
 20
82.82767467547365
 30
0.0
  0
VERTEX
  5
439
330
437
100
AcDbEntity
  8
\U+30EC\U+30A4\U+30E4\U+30FC 4
 62
     7
370
     9
100
AcDbVertex
100
AcDb2dVertex
 10
236.3221814730375
 20
82.32606877282126
 30
0.0
  0
SEQEND
  5
43A
330
437
100
AcDbEntity
  8
\U+30EC\U+30A4\U+30E4\U+30FC 4
370
     9
  0
ENDBLK
  5
436
330
433
100
AcDbEntity
  8
0
100
AcDbBlockEnd
  0
BLOCK
  5
43D
330
43B
100
AcDbEntity
  8
0
100
AcDbBlockBegin
  2
block 102
 70
     0
 71
     0
 10
0.0
 20
0.0
 30
0.0
  3
block 102
  1

  0
POLYLINE
  5
43F
330
43B
100
AcDbEntity
  8
\U+30EC\U+30A4\U+30E4\U+30FC 4
 62
     7
370
     9
100
AcDb2dPolyline
 66
     1
 10
0.0
 20
0.0
 30
0.0
  0
VERTEX
  5
440
330
43F
100
AcDbEntity
  8
\U+30EC\U+30A4\U+30E4\U+30FC 4
 62
     7
370
     9
100
AcDbVertex
100
AcDb2dVertex
 10
237.8569715117163
 20
82.42873261828171
 30
0.0
  0
VERTEX
  5
441
330
43F
100
AcDbEntity
  8
\U+30EC\U+30A4\U+30E4\U+30FC 4
 62
     7
370
     9
100
AcDbVertex
100
AcDb2dVertex
 10
237.1903455353205
 20
82.82767467547365
 30
0.0
  0
SEQEND
  5
442
330
43F
100
AcDbEntity
  8
\U+30EC\U+30A4\U+30E4\U+30FC 4
370
     9
  0
ENDBLK
  5
43E
330
43B
100
AcDbEntity
  8
0
100
AcDbBlockEnd
  0
BLOCK
  5
445
330
443
100
AcDbEntity
  8
0
100
AcDbBlockBegin
  2
block 103
 70
     0
 71
     0
 10
0.0
 20
0.0
 30
0.0
  3
block 103
  1

  0
SPLINE
  5
447
330
443
100
AcDbEntity
  8
\U+30EC\U+30A4\U+30E4\U+30FC 4
 62
     7
370
     9
100
AcDbSpline
210
0.0
220
0.0
230
1.0
 70
     8
 71
     3
 72
     8
 73
     4
 74
     0
 42
0.0000000001
 43
0.0000000001
 40
0.0
 40
0.0
 40
0.0
 40
0.0
 40
1.0
 40
1.0
 40
1.0
 40
1.0
 10
236.7810681916728
 20
80.94182940684787
 30
0.0
 10
236.8541042159601
 20
80.84536673326089
 30
0.0
 10
236.9943196022098
 20
80.82676321764053
 30
0.0
 10
237.0907822757968
 20
80.90117728012193
 30
0.0
  0
ENDBLK
  5
446
330
443
100
AcDbEntity
  8
0
100
AcDbBlockEnd
  0
BLOCK
  5
44A
330
448
100
AcDbEntity
  8
0
100
AcDbBlockBegin
  2
block 104
 70
     0
 71
     0
 10
0.0
 20
0.0
 30
0.0
  3
block 104
  1

  0
SPLINE
  5
44C
330
448
100
AcDbEntity
  8
\U+30EC\U+30A4\U+30E4\U+30FC 4
 62
     7
370
     9
100
AcDbSpline
210
0.0
220
0.0
230
1.0
 70
     8
 71
     3
 72
     8
 73
     4
 74
     0
 42
0.0000000001
 43
0.0000000001
 40
0.0
 40
0.0
 40
0.0
 40
0.0
 40
1.0
 40
1.0
 40
1.0
 40
1.0
 10
236.5471462082243
 20
80.93769529226557
 30
0.0
 10
236.6201822325116
 20
80.90117728012193
 30
0.0
 10
236.7080321673855
 20
80.90255531831603
 30
0.0
 10
236.7810681916728
 20
80.94182940684787
 30
0.0
  0
ENDBLK
  5
44B
330
448
100
AcDbEntity
  8
0
100
AcDbBlockEnd
  0
BLOCK
  5
44F
330
44D
100
AcDbEntity
  8
0
100
AcDbBlockBegin
  2
block 105
 70
     0
 71
     0
 10
0.0
 20
0.0
 30
0.0
  3
block 105
  1

  0
POLYLINE
  5
451
330
44D
100
AcDbEntity
  8
\U+30EC\U+30A4\U+30E4\U+30FC 4
 62
     7
370
     9
100
AcDb2dPolyline
 66
     1
 10
0.0
 20
0.0
 30
0.0
  0
VERTEX
  5
452
330
451
100
AcDbEntity
  8
\U+30EC\U+30A4\U+30E4\U+30FC 4
 62
     7
370
     9
100
AcDbVertex
100
AcDb2dVertex
 10
236.6642794547228
 20
81.06447480612277
 30
0.0
  0
VERTEX
  5
453
330
451
100
AcDbEntity
  8
\U+30EC\U+30A4\U+30E4\U+30FC 4
 62
     7
370
     9
100
AcDbVertex
100
AcDb2dVertex
 10
236.783824268061
 20
80.99143878183548
 30
0.0
  0
VERTEX
  5
454
330
451
100
AcDbEntity
  8
\U+30EC\U+30A4\U+30E4\U+30FC 4
 62
     7
370
     9
100
AcDbVertex
100
AcDb2dVertex
 10
236.8248209043355
 20
80.96801213253578
 30
0.0
  0
SEQEND
  5
455
330
451
100
AcDbEntity
  8
\U+30EC\U+30A4\U+30E4\U+30FC 4
370
     9
  0
ENDBLK
  5
450
330
44D
100
AcDbEntity
  8
0
100
AcDbBlockEnd
  0
BLOCK
  5
458
330
456
100
AcDbEntity
  8
0
100
AcDbBlockBegin
  2
block 106
 70
     0
 71
     0
 10
0.0
 20
0.0
 30
0.0
  3
block 106
  1

  0
POLYLINE
  5
45A
330
456
100
AcDbEntity
  8
\U+30EC\U+30A4\U+30E4\U+30FC 4
 62
     7
370
     9
100
AcDb2dPolyline
 66
     1
 10
0.0
 20
0.0
 30
0.0
  0
VERTEX
  5
45B
330
45A
100
AcDbEntity
  8
\U+30EC\U+30A4\U+30E4\U+30FC 4
 62
     7
370
     9
100
AcDbVertex
100
AcDb2dVertex
 10
236.7810681916728
 20
80.94182940684787
 30
0.0
  0
VERTEX
  5
45C
330
45A
100
AcDbEntity
  8
\U+30EC\U+30A4\U+30E4\U+30FC 4
 62
     7
370
     9
100
AcDbVertex
100
AcDb2dVertex
 10
236.8248209043355
 20
80.96801213253578
 30
0.0
  0
SEQEND
  5
45D
330
45A
100
AcDbEntity
  8
\U+30EC\U+30A4\U+30E4\U+30FC 4
370
     9
  0
ENDBLK
  5
459
330
456
100
AcDbEntity
  8
0
100
AcDbBlockEnd
  0
BLOCK
  5
460
330
45E
100
AcDbEntity
  8
0
100
AcDbBlockBegin
  2
block 107
 70
     0
 71
     0
 10
0.0
 20
0.0
 30
0.0
  3
block 107
  1

  0
SPLINE
  5
462
330
45E
100
AcDbEntity
  8
\U+30EC\U+30A4\U+30E4\U+30FC 4
 62
     7
370
     9
100
AcDbSpline
210
0.0
220
0.0
230
1.0
 70
     8
 71
     3
 72
     8
 73
     4
 74
     0
 42
0.0000000001
 43
0.0000000001
 40
0.0
 40
0.0
 40
0.0
 40
0.0
 40
1.0
 40
1.0
 40
1.0
 40
1.0
 10
236.8248209043355
 20
80.96801213253578
 30
0.0
 10
236.8951008522346
 20
80.89222003186028
 30
0.0
 10
237.0149901751213
 20
80.88464082179273
 30
0.0
 10
237.0966389381217
 20
80.95078665510952
 30
0.0
  0
ENDBLK
  5
461
330
45E
100
AcDbEntity
  8
0
100
AcDbBlockEnd
  0
BLOCK
  5
465
330
463
100
AcDbEntity
  8
0
100
AcDbBlockBegin
  2
block 108
 70
     0
 71
     0
 10
0.0
 20
0.0
 30
0.0
  3
block 108
  1

  0
POLYLINE
  5
467
330
463
100
AcDbEntity
  8
\U+30EC\U+30A4\U+30E4\U+30FC 4
 62
     7
370
     9
100
AcDb2dPolyline
 66
     1
 10
0.0
 20
0.0
 30
0.0
  0
VERTEX
  5
468
330
467
100
AcDbEntity
  8
\U+30EC\U+30A4\U+30E4\U+30FC 4
 62
     7
370
     9
100
AcDbVertex
100
AcDb2dVertex
 10
237.0966389381217
 20
80.95078665510952
 30
0.0
  0
VERTEX
  5
469
330
467
100
AcDbEntity
  8
\U+30EC\U+30A4\U+30E4\U+30FC 4
 62
     7
370
     9
100
AcDbVertex
100
AcDb2dVertex
 10
237.9651475099532
 20
81.45032550047075
 30
0.0
  0
SEQEND
  5
46A
330
467
100
AcDbEntity
  8
\U+30EC\U+30A4\U+30E4\U+30FC 4
370
     9
  0
ENDBLK
  5
466
330
463
100
AcDbEntity
  8
0
100
AcDbBlockEnd
  0
BLOCK
  5
46D
330
46B
100
AcDbEntity
  8
0
100
AcDbBlockBegin
  2
block 109
 70
     0
 71
     0
 10
0.0
 20
0.0
 30
0.0
  3
block 109
  1

  0
SPLINE
  5
46F
330
46B
100
AcDbEntity
  8
\U+30EC\U+30A4\U+30E4\U+30FC 4
 62
     7
370
     9
100
AcDbSpline
210
0.0
220
0.0
230
1.0
 70
     8
 71
     3
 72
     8
 73
     4
 74
     0
 42
0.0000000001
 43
0.0000000001
 40
0.0
 40
0.0
 40
0.0
 40
0.0
 40
1.0
 40
1.0
 40
1.0
 40
1.0
 10
237.9651475099532
 20
81.45032550047075
 30
0.0
 10
238.0877929092281
 20
81.5309407348256
 30
0.0
 10
238.1842555828151
 20
81.64669594313
 30
0.0
 10
238.2369655437394
 20
81.78381074344294
 30
0.0
  0
ENDBLK
  5
46E
330
46B
100
AcDbEntity
  8
0
100
AcDbBlockEnd
  0
BLOCK
  5
472
330
470
100
AcDbEntity
  8
0
100
AcDbBlockBegin
  2
block 110
 70
     0
 71
     0
 10
0.0
 20
0.0
 30
0.0
  3
block 110
  1

  0
POLYLINE
  5
474
330
470
100
AcDbEntity
  8
\U+30EC\U+30A4\U+30E4\U+30FC 4
 62
     7
370
     9
100
AcDb2dPolyline
 66
     1
 10
0.0
 20
0.0
 30
0.0
  0
VERTEX
  5
475
330
474
100
AcDbEntity
  8
\U+30EC\U+30A4\U+30E4\U+30FC 4
 62
     7
370
     9
100
AcDbVertex
100
AcDb2dVertex
 10
238.2369655437394
 20
81.78381074344294
 30
0.0
  0
VERTEX
  5
476
330
474
100
AcDbEntity
  8
\U+30EC\U+30A4\U+30E4\U+30FC 4
 62
     7
370
     9
100
AcDbVertex
100
AcDb2dVertex
 10
238.2807182564021
 20
81.80861543093674
 30
0.0
  0
SEQEND
  5
477
330
474
100
AcDbEntity
  8
\U+30EC\U+30A4\U+30E4\U+30FC 4
370
     9
  0
ENDBLK
  5
473
330
470
100
AcDbEntity
  8
0
100
AcDbBlockEnd
  0
BLOCK
  5
47A
330
478
100
AcDbEntity
  8
0
100
AcDbBlockBegin
  2
block 111
 70
     0
 71
     0
 10
0.0
 20
0.0
 30
0.0
  3
block 111
  1

  0
SPLINE
  5
47C
330
478
100
AcDbEntity
  8
\U+30EC\U+30A4\U+30E4\U+30FC 4
 62
     7
370
     9
100
AcDbSpline
210
0.0
220
0.0
230
1.0
 70
     8
 71
     3
 72
     8
 73
     4
 74
     0
 42
0.0000000001
 43
0.0000000001
 40
0.0
 40
0.0
 40
0.0
 40
0.0
 40
1.0
 40
1.0
 40
1.0
 40
1.0
 10
237.9651475099532
 20
81.4082953355507
 30
0.0
 10
238.1112195585278
 20
81.50200193274951
 30
0.0
 10
238.2252522190895
 20
81.64325084764475
 30
0.0
 10
238.2807182564021
 20
81.80861543093674
 30
0.0
  0
ENDBLK
  5
47B
330
478
100
AcDbEntity
  8
0
100
AcDbBlockEnd
  0
BLOCK
  5
47F
330
47D
100
AcDbEntity
  8
0
100
AcDbBlockBegin
  2
block 112
 70
     0
 71
     0
 10
0.0
 20
0.0
 30
0.0
  3
block 112
  1

  0
POLYLINE
  5
481
330
47D
100
AcDbEntity
  8
\U+30EC\U+30A4\U+30E4\U+30FC 4
 62
     7
370
     9
100
AcDb2dPolyline
 66
     1
 10
0.0
 20
0.0
 30
0.0
  0
VERTEX
  5
482
330
481
100
AcDbEntity
  8
\U+30EC\U+30A4\U+30E4\U+30FC 4
 62
     7
370
     9
100
AcDbVertex
100
AcDb2dVertex
 10
237.0966389381217
 20
80.90668943289833
 30
0.0
  0
VERTEX
  5
483
330
481
100
AcDbEntity
  8
\U+30EC\U+30A4\U+30E4\U+30FC 4
 62
     7
370
     9
100
AcDbVertex
100
AcDb2dVertex
 10
237.9651475099532
 20
81.4082953355507
 30
0.0
  0
SEQEND
  5
484
330
481
100
AcDbEntity
  8
\U+30EC\U+30A4\U+30E4\U+30FC 4
370
     9
  0
ENDBLK
  5
480
330
47D
100
AcDbEntity
  8
0
100
AcDbBlockEnd
  0
BLOCK
  5
487
330
485
100
AcDbEntity
  8
0
100
AcDbBlockBegin
  2
block 113
 70
     0
 71
     0
 10
0.0
 20
0.0
 30
0.0
  3
block 113
  1

  0
SPLINE
  5
489
330
485
100
AcDbEntity
  8
\U+30EC\U+30A4\U+30E4\U+30FC 4
 62
     7
370
     9
100
AcDbSpline
210
0.0
220
0.0
230
1.0
 70
     8
 71
     3
 72
     8
 73
     4
 74
     0
 42
0.0000000001
 43
0.0000000001
 40
0.0
 40
0.0
 40
0.0
 40
0.0
 40
1.0
 40
1.0
 40
1.0
 40
1.0
 10
236.8630614642217
 20
81.01486543113518
 30
0.0
 10
236.8861436039729
 20
81.02106660300862
 30
0.0
 10
236.9037135909477
 20
81.03829208043487
 30
0.0
 10
236.9095702532726
 20
81.06171872973458
 30
0.0
  0
ENDBLK
  5
488
330
485
100
AcDbEntity
  8
0
100
AcDbBlockEnd
  0
BLOCK
  5
48C
330
48A
100
AcDbEntity
  8
0
100
AcDbBlockBegin
  2
block 114
 70
     0
 71
     0
 10
0.0
 20
0.0
 30
0.0
  3
block 114
  1

  0
POLYLINE
  5
48E
330
48A
100
AcDbEntity
  8
\U+30EC\U+30A4\U+30E4\U+30FC 4
 62
     7
370
     9
100
AcDb2dPolyline
 66
     1
 10
0.0
 20
0.0
 30
0.0
  0
VERTEX
  5
48F
330
48E
100
AcDbEntity
  8
\U+30EC\U+30A4\U+30E4\U+30FC 4
 62
     7
370
     9
100
AcDbVertex
100
AcDb2dVertex
 10
237.0966389381217
 20
80.95078665510952
 30
0.0
  0
VERTEX
  5
490
330
48E
100
AcDbEntity
  8
\U+30EC\U+30A4\U+30E4\U+30FC 4
 62
     7
370
     9
100
AcDbVertex
100
AcDb2dVertex
 10
236.9095702532726
 20
81.06171872973458
 30
0.0
  0
SEQEND
  5
491
330
48E
100
AcDbEntity
  8
\U+30EC\U+30A4\U+30E4\U+30FC 4
370
     9
  0
ENDBLK
  5
48D
330
48A
100
AcDbEntity
  8
0
100
AcDbBlockEnd
  0
BLOCK
  5
494
330
492
100
AcDbEntity
  8
0
100
AcDbBlockBegin
  2
block 115
 70
     0
 71
     0
 10
0.0
 20
0.0
 30
0.0
  3
block 115
  1

  0
SPLINE
  5
496
330
492
100
AcDbEntity
  8
\U+30EC\U+30A4\U+30E4\U+30FC 4
 62
     7
370
     9
100
AcDbSpline
210
0.0
220
0.0
230
1.0
 70
     8
 71
     3
 72
     8
 73
     4
 74
     0
 42
0.0000000001
 43
0.0000000001
 40
0.0
 40
0.0
 40
0.0
 40
0.0
 40
1.0
 40
1.0
 40
1.0
 40
1.0
 10
237.0790689511469
 20
83.01922198445354
 30
0.0
 10
237.0852701230204
 20
82.94136282648688
 30
0.0
 10
237.1231661733581
 20
82.8697048403937
 30
0.0
 10
237.1903455353205
 20
82.82767467547365
 30
0.0
  0
ENDBLK
  5
495
330
492
100
AcDbEntity
  8
0
100
AcDbBlockEnd
  0
BLOCK
  5
499
330
497
100
AcDbEntity
  8
0
100
AcDbBlockBegin
  2
block 116
 70
     0
 71
     0
 10
0.0
 20
0.0
 30
0.0
  3
block 116
  1

  0
SPLINE
  5
49B
330
497
100
AcDbEntity
  8
\U+30EC\U+30A4\U+30E4\U+30FC 4
 62
     7
370
     9
100
AcDbSpline
210
0.0
220
0.0
230
1.0
 70
     8
 71
     3
 72
     8
 73
     4
 74
     0
 42
0.0000000001
 43
0.0000000001
 40
0.0
 40
0.0
 40
0.0
 40
0.0
 40
1.0
 40
1.0
 40
1.0
 40
1.0
 10
236.8630614642217
 20
81.10237085646052
 30
0.0
 10
236.9037135909477
 20
81.12579750576022
 30
0.0
 10
236.9185275015343
 20
81.16093747970977
 30
0.0
 10
236.9009575145595
 20
81.19469941546522
 30
0.0
  0
ENDBLK
  5
49A
330
497
100
AcDbEntity
  8
0
100
AcDbBlockEnd
  0
BLOCK
  5
49E
330
49C
100
AcDbEntity
  8
0
100
AcDbBlockBegin
  2
block 117
 70
     0
 71
     0
 10
0.0
 20
0.0
 30
0.0
  3
block 117
  1

  0
POLYLINE
  5
4A0
330
49C
100
AcDbEntity
  8
\U+30EC\U+30A4\U+30E4\U+30FC 4
 62
     7
370
     9
100
AcDb2dPolyline
 66
     1
 10
0.0
 20
0.0
 30
0.0
  0
VERTEX
  5
4A1
330
4A0
100
AcDbEntity
  8
\U+30EC\U+30A4\U+30E4\U+30FC 4
 62
     7
370
     9
100
AcDbVertex
100
AcDb2dVertex
 10
237.6550889162807
 20
81.59088539626894
 30
0.0
  0
VERTEX
  5
4A2
330
4A0
100
AcDbEntity
  8
\U+30EC\U+30A4\U+30E4\U+30FC 4
 62
     7
370
     9
100
AcDbVertex
100
AcDb2dVertex
 10
237.2899087948442
 20
81.80448131635444
 30
0.0
  0
SEQEND
  5
4A3
330
4A0
100
AcDbEntity
  8
\U+30EC\U+30A4\U+30E4\U+30FC 4
370
     9
  0
ENDBLK
  5
49F
330
49C
100
AcDbEntity
  8
0
100
AcDbBlockEnd
  0
BLOCK
  5
4A6
330
4A4
100
AcDbEntity
  8
0
100
AcDbBlockBegin
  2
block 118
 70
     0
 71
     0
 10
0.0
 20
0.0
 30
0.0
  3
block 118
  1

  0
SPLINE
  5
4A8
330
4A4
100
AcDbEntity
  8
\U+30EC\U+30A4\U+30E4\U+30FC 4
 62
     7
370
     9
100
AcDbSpline
210
0.0
220
0.0
230
1.0
 70
     8
 71
     3
 72
     8
 73
     4
 74
     0
 42
0.0000000001
 43
0.0000000001
 40
0.0
 40
0.0
 40
0.0
 40
0.0
 40
1.0
 40
1.0
 40
1.0
 40
1.0
 10
237.6550889162807
 20
81.59088539626894
 30
0.0
 10
237.687472813842
 20
81.57159286155155
 30
0.0
 10
237.7312255265047
 20
81.56194659419285
 30
0.0
 10
237.7780788251041
 20
81.56332463238695
 30
0.0
  0
ENDBLK
  5
4A7
330
4A4
100
AcDbEntity
  8
0
100
AcDbBlockEnd
  0
BLOCK
  5
4AB
330
4A9
100
AcDbEntity
  8
0
100
AcDbBlockBegin
  2
block 119
 70
     0
 71
     0
 10
0.0
 20
0.0
 30
0.0
  3
block 119
  1

  0
POLYLINE
  5
4AD
330
4A9
100
AcDbEntity
  8
\U+30EC\U+30A4\U+30E4\U+30FC 4
 62
     7
370
     9
100
AcDb2dPolyline
 66
     1
 10
0.0
 20
0.0
 30
0.0
  0
VERTEX
  5
4AE
330
4AD
100
AcDbEntity
  8
\U+30EC\U+30A4\U+30E4\U+30FC 4
 62
     7
370
     9
100
AcDbVertex
100
AcDb2dVertex
 10
237.9651475099532
 20
81.45032550047075
 30
0.0
  0
VERTEX
  5
4AF
330
4AD
100
AcDbEntity
  8
\U+30EC\U+30A4\U+30E4\U+30FC 4
 62
     7
370
     9
100
AcDbVertex
100
AcDb2dVertex
 10
237.7780788251041
 20
81.56332463238695
 30
0.0
  0
SEQEND
  5
4B0
330
4AD
100
AcDbEntity
  8
\U+30EC\U+30A4\U+30E4\U+30FC 4
370
     9
  0
ENDBLK
  5
4AC
330
4A9
100
AcDbEntity
  8
0
100
AcDbBlockEnd
  0
BLOCK
  5
4B3
330
4B1
100
AcDbEntity
  8
0
100
AcDbBlockBegin
  2
block 120
 70
     0
 71
     0
 10
0.0
 20
0.0
 30
0.0
  3
block 120
  1

  0
POLYLINE
  5
4B5
330
4B1
100
AcDbEntity
  8
\U+30EC\U+30A4\U+30E4\U+30FC 4
 62
     7
370
     9
100
AcDb2dPolyline
 66
     1
 10
0.0
 20
0.0
 30
0.0
  0
VERTEX
  5
4B6
330
4B5
100
AcDbEntity
  8
\U+30EC\U+30A4\U+30E4\U+30FC 4
 62
     7
370
     9
100
AcDbVertex
100
AcDb2dVertex
 10
238.3303276313897
 20
82.29368487525991
 30
0.0
  0
VERTEX
  5
4B7
330
4B5
100
AcDbEntity
  8
\U+30EC\U+30A4\U+30E4\U+30FC 4
 62
     7
370
     9
100
AcDbVertex
100
AcDb2dVertex
 10
238.3361842937146
 20
82.28197155061007
 30
0.0
  0
VERTEX
  5
4B8
330
4B5
100
AcDbEntity
  8
\U+30EC\U+30A4\U+30E4\U+30FC 4
 62
     7
370
     9
100
AcDbVertex
100
AcDb2dVertex
 10
238.3334282173264
 20
82.25303274853397
 30
0.0
  0
VERTEX
  5
4B9
330
4B5
100
AcDbEntity
  8
\U+30EC\U+30A4\U+30E4\U+30FC 4
 62
     7
370
     9
100
AcDbVertex
100
AcDb2dVertex
 10
238.3131021539634
 20
82.22409394645787
 30
0.0
  0
VERTEX
  5
4BA
330
4B5
100
AcDbEntity
  8
\U+30EC\U+30A4\U+30E4\U+30FC 4
 62
     7
370
     9
100
AcDbVertex
100
AcDb2dVertex
 10
238.2807182564021
 20
82.20204533535227
 30
0.0
  0
SEQEND
  5
4BB
330
4B5
100
AcDbEntity
  8
\U+30EC\U+30A4\U+30E4\U+30FC 4
370
     9
  0
ENDBLK
  5
4B4
330
4B1
100
AcDbEntity
  8
0
100
AcDbBlockEnd
  0
BLOCK
  5
4BE
330
4BC
100
AcDbEntity
  8
0
100
AcDbBlockBegin
  2
block 121
 70
     0
 71
     0
 10
0.0
 20
0.0
 30
0.0
  3
block 121
  1

  0
POLYLINE
  5
4C0
330
4BC
100
AcDbEntity
  8
\U+30EC\U+30A4\U+30E4\U+30FC 4
 62
     7
370
     9
100
AcDb2dPolyline
 66
     1
 10
0.0
 20
0.0
 30
0.0
  0
VERTEX
  5
4C1
330
4C0
100
AcDbEntity
  8
\U+30EC\U+30A4\U+30E4\U+30FC 4
 62
     7
370
     9
100
AcDbVertex
100
AcDb2dVertex
 10
238.2955321669886
 20
81.94641925034674
 30
0.0
  0
VERTEX
  5
4C2
330
4C0
100
AcDbEntity
  8
\U+30EC\U+30A4\U+30E4\U+30FC 4
 62
     7
370
     9
100
AcDbVertex
100
AcDb2dVertex
 10
238.2455782824525
 20
81.97673609061692
 30
0.0
  0
SEQEND
  5
4C3
330
4C0
100
AcDbEntity
  8
\U+30EC\U+30A4\U+30E4\U+30FC 4
370
     9
  0
ENDBLK
  5
4BF
330
4BC
100
AcDbEntity
  8
0
100
AcDbBlockEnd
  0
BLOCK
  5
4C6
330
4C4
100
AcDbEntity
  8
0
100
AcDbBlockBegin
  2
block 122
 70
     0
 71
     0
 10
0.0
 20
0.0
 30
0.0
  3
block 122
  1

  0
SPLINE
  5
4C8
330
4C4
100
AcDbEntity
  8
\U+30EC\U+30A4\U+30E4\U+30FC 4
 62
     7
370
     9
100
AcDbSpline
210
0.0
220
0.0
230
1.0
 70
     8
 71
     3
 72
     8
 73
     4
 74
     0
 42
0.0000000001
 43
0.0000000001
 40
0.0
 40
0.0
 40
0.0
 40
0.0
 40
1.0
 40
1.0
 40
1.0
 40
1.0
 10
238.2455782824525
 20
81.97673609061692
 30
0.0
 10
238.266248855364
 20
82.04839407671012
 30
0.0
 10
238.2748615940771
 20
82.12280813919152
 30
0.0
 10
238.2748615940771
 20
82.19722220167291
 30
0.0
  0
ENDBLK
  5
4C7
330
4C4
100
AcDbEntity
  8
0
100
AcDbBlockEnd
  0
BLOCK
  5
4CB
330
4C9
100
AcDbEntity
  8
0
100
AcDbBlockBegin
  2
block 123
 70
     0
 71
     0
 10
0.0
 20
0.0
 30
0.0
  3
block 123
  1

  0
POLYLINE
  5
4CD
330
4C9
100
AcDbEntity
  8
\U+30EC\U+30A4\U+30E4\U+30FC 4
 62
     7
370
     9
100
AcDb2dPolyline
 66
     1
 10
0.0
 20
0.0
 30
0.0
  0
VERTEX
  5
4CE
330
4CD
100
AcDbEntity
  8
\U+30EC\U+30A4\U+30E4\U+30FC 4
 62
     7
370
     9
100
AcDbVertex
100
AcDb2dVertex
 10
238.1346462078275
 20
82.23236217562247
 30
0.0
  0
VERTEX
  5
4CF
330
4CD
100
AcDbEntity
  8
\U+30EC\U+30A4\U+30E4\U+30FC 4
 62
     7
370
     9
100
AcDbVertex
100
AcDb2dVertex
 10
238.1959689074649
 20
82.19928925896407
 30
0.0
  0
VERTEX
  5
4D0
330
4CD
100
AcDbEntity
  8
\U+30EC\U+30A4\U+30E4\U+30FC 4
 62
     7
370
     9
100
AcDbVertex
100
AcDb2dVertex
 10
238.2369655437394
 20
82.17586260966438
 30
0.0
  0
SEQEND
  5
4D1
330
4CD
100
AcDbEntity
  8
\U+30EC\U+30A4\U+30E4\U+30FC 4
370
     9
  0
ENDBLK
  5
4CC
330
4C9
100
AcDbEntity
  8
0
100
AcDbBlockEnd
  0
BLOCK
  5
4D4
330
4D2
100
AcDbEntity
  8
0
100
AcDbBlockBegin
  2
block 124
 70
     0
 71
     0
 10
0.0
 20
0.0
 30
0.0
  3
block 124
  1

  0
POLYLINE
  5
4D6
330
4D2
100
AcDbEntity
  8
\U+30EC\U+30A4\U+30E4\U+30FC 4
 62
     7
370
     9
100
AcDb2dPolyline
 66
     1
 10
0.0
 20
0.0
 30
0.0
  0
VERTEX
  5
4D7
330
4D6
100
AcDbEntity
  8
\U+30EC\U+30A4\U+30E4\U+30FC 4
 62
     7
370
     9
100
AcDbVertex
100
AcDb2dVertex
 10
238.0760795845782
 20
81.87889537883584
 30
0.0
  0
VERTEX
  5
4D8
330
4D6
100
AcDbEntity
  8
\U+30EC\U+30A4\U+30E4\U+30FC 4
 62
     7
370
     9
100
AcDbVertex
100
AcDb2dVertex
 10
238.2455782824525
 20
81.97673609061692
 30
0.0
  0
SEQEND
  5
4D9
330
4D6
100
AcDbEntity
  8
\U+30EC\U+30A4\U+30E4\U+30FC 4
370
     9
  0
ENDBLK
  5
4D5
330
4D2
100
AcDbEntity
  8
0
100
AcDbBlockEnd
  0
BLOCK
  5
4DC
330
4DA
100
AcDbEntity
  8
0
100
AcDbBlockBegin
  2
block 125
 70
     0
 71
     0
 10
0.0
 20
0.0
 30
0.0
  3
block 125
  1

  0
SPLINE
  5
4DE
330
4DA
100
AcDbEntity
  8
\U+30EC\U+30A4\U+30E4\U+30FC 4
 62
     7
370
     9
100
AcDbSpline
210
0.0
220
0.0
230
1.0
 70
     8
 71
     3
 72
     8
 73
     4
 74
     0
 42
0.0000000001
 43
0.0000000001
 40
0.0
 40
0.0
 40
0.0
 40
0.0
 40
1.0
 40
1.0
 40
1.0
 40
1.0
 10
237.8745414986911
 20
81.59846460633649
 30
0.0
 10
237.9620469240164
 20
81.6756347452061
 30
0.0
 10
238.0323268719155
 20
81.7720974187931
 30
0.0
 10
238.0760795845782
 20
81.87889537883584
 30
0.0
  0
ENDBLK
  5
4DD
330
4DA
100
AcDbEntity
  8
0
100
AcDbBlockEnd
  0
BLOCK
  5
4E1
330
4DF
100
AcDbEntity
  8
0
100
AcDbBlockBegin
  2
block 126
 70
     0
 71
     0
 10
0.0
 20
0.0
 30
0.0
  3
block 126
  1

  0
POLYLINE
  5
4E3
330
4DF
100
AcDbEntity
  8
\U+30EC\U+30A4\U+30E4\U+30FC 4
 62
     7
370
     9
100
AcDb2dPolyline
 66
     1
 10
0.0
 20
0.0
 30
0.0
  0
VERTEX
  5
4E4
330
4E3
100
AcDbEntity
  8
\U+30EC\U+30A4\U+30E4\U+30FC 4
 62
     7
370
     9
100
AcDbVertex
100
AcDb2dVertex
 10
237.8745414986911
 20
81.68597003166184
 30
0.0
  0
VERTEX
  5
4E5
330
4E3
100
AcDbEntity
  8
\U+30EC\U+30A4\U+30E4\U+30FC 4
 62
     7
370
     9
100
AcDbVertex
100
AcDb2dVertex
 10
237.8745414986911
 20
81.59846460633649
 30
0.0
  0
SEQEND
  5
4E6
330
4E3
100
AcDbEntity
  8
\U+30EC\U+30A4\U+30E4\U+30FC 4
370
     9
  0
ENDBLK
  5
4E2
330
4DF
100
AcDbEntity
  8
0
100
AcDbBlockEnd
  0
BLOCK
  5
4E9
330
4E7
100
AcDbEntity
  8
0
100
AcDbBlockBegin
  2
block 127
 70
     0
 71
     0
 10
0.0
 20
0.0
 30
0.0
  3
block 127
  1

  0
POLYLINE
  5
4EB
330
4E7
100
AcDbEntity
  8
\U+30EC\U+30A4\U+30E4\U+30FC 4
 62
     7
370
     9
100
AcDb2dPolyline
 66
     1
 10
0.0
 20
0.0
 30
0.0
  0
VERTEX
  5
4EC
330
4EB
100
AcDbEntity
  8
\U+30EC\U+30A4\U+30E4\U+30FC 4
 62
     7
370
     9
100
AcDbVertex
100
AcDb2dVertex
 10
237.9444769370417
 20
81.7252441201937
 30
0.0
  0
VERTEX
  5
4ED
330
4EB
100
AcDbEntity
  8
\U+30EC\U+30A4\U+30E4\U+30FC 4
 62
     7
370
     9
100
AcDbVertex
100
AcDb2dVertex
 10
237.8745414986911
 20
81.68597003166184
 30
0.0
  0
SEQEND
  5
4EE
330
4EB
100
AcDbEntity
  8
\U+30EC\U+30A4\U+30E4\U+30FC 4
370
     9
  0
ENDBLK
  5
4EA
330
4E7
100
AcDbEntity
  8
0
100
AcDbBlockEnd
  0
BLOCK
  5
4F1
330
4EF
100
AcDbEntity
  8
0
100
AcDbBlockBegin
  2
block 128
 70
     0
 71
     0
 10
0.0
 20
0.0
 30
0.0
  3
block 128
  1

  0
SPLINE
  5
4F3
330
4EF
100
AcDbEntity
  8
\U+30EC\U+30A4\U+30E4\U+30FC 4
 62
     7
370
     9
100
AcDbSpline
210
0.0
220
0.0
230
1.0
 70
     8
 71
     3
 72
     8
 73
     4
 74
     0
 42
0.0000000001
 43
0.0000000001
 40
0.0
 40
0.0
 40
0.0
 40
0.0
 40
1.0
 40
1.0
 40
1.0
 40
1.0
 10
237.9444769370417
 20
81.7252441201937
 30
0.0
 10
237.9737602486663
 20
81.743158616717
 30
0.0
 10
238.0002874839027
 20
81.78656681983114
 30
0.0
 10
238.0002874839027
 20
81.82170679378069
 30
0.0
  0
ENDBLK
  5
4F2
330
4EF
100
AcDbEntity
  8
0
100
AcDbBlockEnd
  0
BLOCK
  5
4F6
330
4F4
100
AcDbEntity
  8
0
100
AcDbBlockBegin
  2
block 129
 70
     0
 71
     0
 10
0.0
 20
0.0
 30
0.0
  3
block 129
  1

  0
POLYLINE
  5
4F8
330
4F4
100
AcDbEntity
  8
\U+30EC\U+30A4\U+30E4\U+30FC 4
 62
     7
370
     9
100
AcDb2dPolyline
 66
     1
 10
0.0
 20
0.0
 30
0.0
  0
VERTEX
  5
4F9
330
4F8
100
AcDbEntity
  8
\U+30EC\U+30A4\U+30E4\U+30FC 4
 62
     7
370
     9
100
AcDbVertex
100
AcDb2dVertex
 10
238.0002874839027
 20
82.21100258361392
 30
0.0
  0
VERTEX
  5
4FA
330
4F8
100
AcDbEntity
  8
\U+30EC\U+30A4\U+30E4\U+30FC 4
 62
     7
370
     9
100
AcDbVertex
100
AcDb2dVertex
 10
238.0002874839027
 20
81.82170679378069
 30
0.0
  0
SEQEND
  5
4FB
330
4F8
100
AcDbEntity
  8
\U+30EC\U+30A4\U+30E4\U+30FC 4
370
     9
  0
ENDBLK
  5
4F7
330
4F4
100
AcDbEntity
  8
0
100
AcDbBlockEnd
  0
BLOCK
  5
4FE
330
4FC
100
AcDbEntity
  8
0
100
AcDbBlockBegin
  2
block 130
 70
     0
 71
     0
 10
0.0
 20
0.0
 30
0.0
  3
block 130
  1

  0
POLYLINE
  5
500
330
4FC
100
AcDbEntity
  8
\U+30EC\U+30A4\U+30E4\U+30FC 4
 62
     7
370
     9
100
AcDb2dPolyline
 66
     1
 10
0.0
 20
0.0
 30
0.0
  0
VERTEX
  5
501
330
500
100
AcDbEntity
  8
\U+30EC\U+30A4\U+30E4\U+30FC 4
 62
     7
370
     9
100
AcDbVertex
100
AcDb2dVertex
 10
238.2807182564021
 20
81.80861543093674
 30
0.0
  0
VERTEX
  5
502
330
500
100
AcDbEntity
  8
\U+30EC\U+30A4\U+30E4\U+30FC 4
 62
     7
370
     9
100
AcDbVertex
100
AcDb2dVertex
 10
238.3186143067398
 20
81.83962129030398
 30
0.0
  0
VERTEX
  5
503
330
500
100
AcDbEntity
  8
\U+30EC\U+30A4\U+30E4\U+30FC 4
 62
     7
370
     9
100
AcDbVertex
100
AcDb2dVertex
 10
238.3361842937146
 20
81.87613930244764
 30
0.0
  0
VERTEX
  5
504
330
500
100
AcDbEntity
  8
\U+30EC\U+30A4\U+30E4\U+30FC 4
 62
     7
370
     9
100
AcDbVertex
100
AcDb2dVertex
 10
238.3303276313897
 20
81.90921221910604
 30
0.0
  0
VERTEX
  5
505
330
500
100
AcDbEntity
  8
\U+30EC\U+30A4\U+30E4\U+30FC 4
 62
     7
370
     9
100
AcDbVertex
100
AcDb2dVertex
 10
238.30690098209
 20
81.93746200208508
 30
0.0
  0
VERTEX
  5
506
330
500
100
AcDbEntity
  8
\U+30EC\U+30A4\U+30E4\U+30FC 4
 62
     7
370
     9
100
AcDbVertex
100
AcDb2dVertex
 10
238.2955321669886
 20
81.94641925034674
 30
0.0
  0
SEQEND
  5
507
330
500
100
AcDbEntity
  8
\U+30EC\U+30A4\U+30E4\U+30FC 4
370
     9
  0
ENDBLK
  5
4FF
330
4FC
100
AcDbEntity
  8
0
100
AcDbBlockEnd
  0
BLOCK
  5
50A
330
508
100
AcDbEntity
  8
0
100
AcDbBlockBegin
  2
block 131
 70
     0
 71
     0
 10
0.0
 20
0.0
 30
0.0
  3
block 131
  1

  0
SPLINE
  5
50C
330
508
100
AcDbEntity
  8
\U+30EC\U+30A4\U+30E4\U+30FC 4
 62
     7
370
     9
100
AcDbSpline
210
0.0
220
0.0
230
1.0
 70
     8
 71
     3
 72
     8
 73
     4
 74
     0
 42
0.0000000001
 43
0.0000000001
 40
0.0
 40
0.0
 40
0.0
 40
0.0
 40
1.0
 40
1.0
 40
1.0
 40
1.0
 10
237.7780788251041
 20
81.56332463238695
 30
0.0
 10
237.8128742895051
 20
81.56470267058106
 30
0.0
 10
237.8480142634547
 20
81.5764159952309
 30
0.0
 10
237.8745414986911
 20
81.59846460633649
 30
0.0
  0
ENDBLK
  5
50B
330
508
100
AcDbEntity
  8
0
100
AcDbBlockEnd
  0
BLOCK
  5
50F
330
50D
100
AcDbEntity
  8
0
100
AcDbBlockBegin
  2
block 132
 70
     0
 71
     0
 10
0.0
 20
0.0
 30
0.0
  3
block 132
  1

  0
POLYLINE
  5
511
330
50D
100
AcDbEntity
  8
\U+30EC\U+30A4\U+30E4\U+30FC 4
 62
     7
370
     9
100
AcDb2dPolyline
 66
     1
 10
0.0
 20
0.0
 30
0.0
  0
VERTEX
  5
512
330
511
100
AcDbEntity
  8
\U+30EC\U+30A4\U+30E4\U+30FC 4
 62
     7
370
     9
100
AcDbVertex
100
AcDb2dVertex
 10
238.2369655437394
 20
81.78381074344294
 30
0.0
  0
VERTEX
  5
513
330
511
100
AcDbEntity
  8
\U+30EC\U+30A4\U+30E4\U+30FC 4
 62
     7
370
     9
100
AcDbVertex
100
AcDb2dVertex
 10
238.1959689074649
 20
81.80723739274264
 30
0.0
  0
VERTEX
  5
514
330
511
100
AcDbEntity
  8
\U+30EC\U+30A4\U+30E4\U+30FC 4
 62
     7
370
     9
100
AcDbVertex
100
AcDb2dVertex
 10
238.0760795845782
 20
81.87889537883584
 30
0.0
  0
SEQEND
  5
515
330
511
100
AcDbEntity
  8
\U+30EC\U+30A4\U+30E4\U+30FC 4
370
     9
  0
ENDBLK
  5
510
330
50D
100
AcDbEntity
  8
0
100
AcDbBlockEnd
  0
BLOCK
  5
518
330
516
100
AcDbEntity
  8
0
100
AcDbBlockBegin
  2
block 133
 70
     0
 71
     0
 10
0.0
 20
0.0
 30
0.0
  3
block 133
  1

  0
POLYLINE
  5
51A
330
516
100
AcDbEntity
  8
\U+30EC\U+30A4\U+30E4\U+30FC 4
 62
     7
370
     9
100
AcDb2dPolyline
 66
     1
 10
0.0
 20
0.0
 30
0.0
  0
VERTEX
  5
51B
330
51A
100
AcDbEntity
  8
\U+30EC\U+30A4\U+30E4\U+30FC 4
 62
     7
370
     9
100
AcDbVertex
100
AcDb2dVertex
 10
231.3405734013662
 20
83.04058157646207
 30
0.0
  0
VERTEX
  5
51C
330
51A
100
AcDbEntity
  8
\U+30EC\U+30A4\U+30E4\U+30FC 4
 62
     7
370
     9
100
AcDbVertex
100
AcDb2dVertex
 10
231.3608994647292
 20
82.73810219285714
 30
0.0
  0
VERTEX
  5
51D
330
51A
100
AcDbEntity
  8
\U+30EC\U+30A4\U+30E4\U+30FC 4
 62
     7
370
     9
100
AcDbVertex
100
AcDb2dVertex
 10
231.4194660879785
 20
82.46662866861946
 30
0.0
  0
VERTEX
  5
51E
330
51A
100
AcDbEntity
  8
\U+30EC\U+30A4\U+30E4\U+30FC 4
 62
     7
370
     9
100
AcDbVertex
100
AcDb2dVertex
 10
231.5190293475022
 20
82.23098413742836
 30
0.0
  0
VERTEX
  5
51F
330
51A
100
AcDbEntity
  8
\U+30EC\U+30A4\U+30E4\U+30FC 4
 62
     7
370
     9
100
AcDbVertex
100
AcDb2dVertex
 10
231.6564886573637
 20
82.03805879025438
 30
0.0
  0
VERTEX
  5
520
330
51A
100
AcDbEntity
  8
\U+30EC\U+30A4\U+30E4\U+30FC 4
 62
     7
370
     9
100
AcDbVertex
100
AcDb2dVertex
 10
231.825987355238
 20
81.88923066529159
 30
0.0
  0
VERTEX
  5
521
330
51A
100
AcDbEntity
  8
\U+30EC\U+30A4\U+30E4\U+30FC 4
 62
     7
370
     9
100
AcDbVertex
100
AcDb2dVertex
 10
232.0247693647369
 20
81.79138995351049
 30
0.0
  0
VERTEX
  5
522
330
51A
100
AcDbEntity
  8
\U+30EC\U+30A4\U+30E4\U+30FC 4
 62
     7
370
     9
100
AcDbVertex
100
AcDb2dVertex
 10
232.0595648291379
 20
81.78105466705475
 30
0.0
  0
SEQEND
  5
523
330
51A
100
AcDbEntity
  8
\U+30EC\U+30A4\U+30E4\U+30FC 4
370
     9
  0
ENDBLK
  5
519
330
516
100
AcDbEntity
  8
0
100
AcDbBlockEnd
  0
BLOCK
  5
526
330
524
100
AcDbEntity
  8
0
100
AcDbBlockBegin
  2
block 134
 70
     0
 71
     0
 10
0.0
 20
0.0
 30
0.0
  3
block 134
  1

  0
POLYLINE
  5
528
330
524
100
AcDbEntity
  8
\U+30EC\U+30A4\U+30E4\U+30FC 4
 62
     7
370
     9
100
AcDb2dPolyline
 66
     1
 10
0.0
 20
0.0
 30
0.0
  0
VERTEX
  5
529
330
528
100
AcDbEntity
  8
\U+30EC\U+30A4\U+30E4\U+30FC 4
 62
     7
370
     9
100
AcDbVertex
100
AcDb2dVertex
 10
234.6147921505477
 20
86.20662432740669
 30
0.0
  0
VERTEX
  5
52A
330
528
100
AcDbEntity
  8
\U+30EC\U+30A4\U+30E4\U+30FC 4
 62
     7
370
     9
100
AcDbVertex
100
AcDb2dVertex
 10
234.5007594899859
 20
86.29757484821728
 30
0.0
  0
VERTEX
  5
52B
330
528
100
AcDbEntity
  8
\U+30EC\U+30A4\U+30E4\U+30FC 4
 62
     7
370
     9
100
AcDbVertex
100
AcDb2dVertex
 10
234.2992214040988
 20
86.39541555999837
 30
0.0
  0
VERTEX
  5
52C
330
528
100
AcDbEntity
  8
\U+30EC\U+30A4\U+30E4\U+30FC 4
 62
     7
370
     9
100
AcDbVertex
100
AcDb2dVertex
 10
234.0739121593635
 20
86.44364689679188
 30
0.0
  0
VERTEX
  5
52D
330
528
100
AcDbEntity
  8
\U+30EC\U+30A4\U+30E4\U+30FC 4
 62
     7
370
     9
100
AcDbVertex
100
AcDb2dVertex
 10
233.8282768512652
 20
86.43813474401547
 30
0.0
  0
VERTEX
  5
52E
330
528
100
AcDbEntity
  8
\U+30EC\U+30A4\U+30E4\U+30FC 4
 62
     7
370
     9
100
AcDbVertex
100
AcDb2dVertex
 10
233.5681721421288
 20
86.38094615896033
 30
0.0
  0
VERTEX
  5
52F
330
528
100
AcDbEntity
  8
\U+30EC\U+30A4\U+30E4\U+30FC 4
 62
     7
370
     9
100
AcDbVertex
100
AcDb2dVertex
 10
233.2991101847308
 20
86.27277016072348
 30
0.0
  0
VERTEX
  5
530
330
528
100
AcDbEntity
  8
\U+30EC\U+30A4\U+30E4\U+30FC 4
 62
     7
370
     9
100
AcDbVertex
100
AcDb2dVertex
 10
233.0272921509446
 20
86.11498478749904
 30
0.0
  0
VERTEX
  5
531
330
528
100
AcDbEntity
  8
\U+30EC\U+30A4\U+30E4\U+30FC 4
 62
     7
370
     9
100
AcDbVertex
100
AcDb2dVertex
 10
232.7585747030951
 20
85.9117241538693
 30
0.0
  0
VERTEX
  5
532
330
528
100
AcDbEntity
  8
\U+30EC\U+30A4\U+30E4\U+30FC 4
 62
     7
370
     9
100
AcDbVertex
100
AcDb2dVertex
 10
232.495369408022
 20
85.66918943170771
 30
0.0
  0
VERTEX
  5
533
330
528
100
AcDbEntity
  8
\U+30EC\U+30A4\U+30E4\U+30FC 4
 62
     7
370
     9
100
AcDbVertex
100
AcDb2dVertex
 10
232.2497340999237
 20
85.39151473559657
 30
0.0
  0
VERTEX
  5
534
330
528
100
AcDbEntity
  8
\U+30EC\U+30A4\U+30E4\U+30FC 4
 62
     7
370
     9
100
AcDbVertex
100
AcDb2dVertex
 10
232.0247693647369
 20
85.08283418011818
 30
0.0
  0
VERTEX
  5
535
330
528
100
AcDbEntity
  8
\U+30EC\U+30A4\U+30E4\U+30FC 4
 62
     7
370
     9
100
AcDbVertex
100
AcDb2dVertex
 10
231.825987355238
 20
84.75417207082535
 30
0.0
  0
VERTEX
  5
536
330
528
100
AcDbEntity
  8
\U+30EC\U+30A4\U+30E4\U+30FC 4
 62
     7
370
     9
100
AcDbVertex
100
AcDb2dVertex
 10
231.6564886573637
 20
84.41035154139742
 30
0.0
  0
VERTEX
  5
537
330
528
100
AcDbEntity
  8
\U+30EC\U+30A4\U+30E4\U+30FC 4
 62
     7
370
     9
100
AcDbVertex
100
AcDb2dVertex
 10
231.5190293475022
 20
84.05826278280489
 30
0.0
  0
VERTEX
  5
538
330
528
100
AcDbEntity
  8
\U+30EC\U+30A4\U+30E4\U+30FC 4
 62
     7
370
     9
100
AcDbVertex
100
AcDb2dVertex
 10
231.4194660879785
 20
83.70893010060055
 30
0.0
  0
VERTEX
  5
539
330
528
100
AcDbEntity
  8
\U+30EC\U+30A4\U+30E4\U+30FC 4
 62
     7
370
     9
100
AcDbVertex
100
AcDb2dVertex
 10
231.3608994647292
 20
83.36717662846377
 30
0.0
  0
VERTEX
  5
53A
330
528
100
AcDbEntity
  8
\U+30EC\U+30A4\U+30E4\U+30FC 4
 62
     7
370
     9
100
AcDbVertex
100
AcDb2dVertex
 10
231.3405734013662
 20
83.04058157646207
 30
0.0
  0
SEQEND
  5
53B
330
528
100
AcDbEntity
  8
\U+30EC\U+30A4\U+30E4\U+30FC 4
370
     9
  0
ENDBLK
  5
527
330
524
100
AcDbEntity
  8
0
100
AcDbBlockEnd
  0
BLOCK
  5
53E
330
53C
100
AcDbEntity
  8
0
100
AcDbBlockBegin
  2
block 135
 70
     0
 71
     0
 10
0.0
 20
0.0
 30
0.0
  3
block 135
  1

  0
POLYLINE
  5
540
330
53C
100
AcDbEntity
  8
\U+30EC\U+30A4\U+30E4\U+30FC 4
 62
     7
370
     9
100
AcDb2dPolyline
 66
     1
 10
0.0
 20
0.0
 30
0.0
  0
VERTEX
  5
541
330
540
100
AcDbEntity
  8
\U+30EC\U+30A4\U+30E4\U+30FC 4
 62
     7
370
     9
100
AcDbVertex
100
AcDb2dVertex
 10
231.3054334274167
 20
83.04058157646207
 30
0.0
  0
VERTEX
  5
542
330
540
100
AcDbEntity
  8
\U+30EC\U+30A4\U+30E4\U+30FC 4
 62
     7
370
     9
100
AcDbVertex
100
AcDb2dVertex
 10
231.3261040003282
 20
83.36097545659031
 30
0.0
  0
VERTEX
  5
543
330
540
100
AcDbEntity
  8
\U+30EC\U+30A4\U+30E4\U+30FC 4
 62
     7
370
     9
100
AcDbVertex
100
AcDb2dVertex
 10
231.3843261140289
 20
83.6985948141448
 30
0.0
  0
VERTEX
  5
544
330
540
100
AcDbEntity
  8
\U+30EC\U+30A4\U+30E4\U+30FC 4
 62
     7
370
     9
100
AcDbVertex
100
AcDb2dVertex
 10
231.4807887876159
 20
84.04379338176683
 30
0.0
  0
VERTEX
  5
545
330
540
100
AcDbEntity
  8
\U+30EC\U+30A4\U+30E4\U+30FC 4
 62
     7
370
     9
100
AcDbVertex
100
AcDb2dVertex
 10
231.6123914351525
 20
84.39036998758297
 30
0.0
  0
VERTEX
  5
546
330
540
100
AcDbEntity
  8
\U+30EC\U+30A4\U+30E4\U+30FC 4
 62
     7
370
     9
100
AcDbVertex
100
AcDb2dVertex
 10
231.7760334707018
 20
84.73074542152565
 30
0.0
  0
VERTEX
  5
547
330
540
100
AcDbEntity
  8
\U+30EC\U+30A4\U+30E4\U+30FC 4
 62
     7
370
     9
100
AcDbVertex
100
AcDb2dVertex
 10
231.9689588178758
 20
85.05665145443028
 30
0.0
  0
VERTEX
  5
548
330
540
100
AcDbEntity
  8
\U+30EC\U+30A4\U+30E4\U+30FC 4
 62
     7
370
     9
100
AcDbVertex
100
AcDb2dVertex
 10
232.1884114002862
 20
85.36326495261753
 30
0.0
  0
VERTEX
  5
549
330
540
100
AcDbEntity
  8
\U+30EC\U+30A4\U+30E4\U+30FC 4
 62
     7
370
     9
100
AcDbVertex
100
AcDb2dVertex
 10
232.4250894601229
 20
85.6430067060198
 30
0.0
  0
VERTEX
  5
54A
330
540
100
AcDbEntity
  8
\U+30EC\U+30A4\U+30E4\U+30FC 4
 62
     7
370
     9
100
AcDbVertex
100
AcDb2dVertex
 10
232.6796820164829
 20
85.8896755427637
 30
0.0
  0
VERTEX
  5
54B
330
540
100
AcDbEntity
  8
\U+30EC\U+30A4\U+30E4\U+30FC 4
 62
     7
370
     9
100
AcDbVertex
100
AcDb2dVertex
 10
232.9456433879442
 20
86.0991373482669
 30
0.0
  0
VERTEX
  5
54C
330
540
100
AcDbEntity
  8
\U+30EC\U+30A4\U+30E4\U+30FC 4
 62
     7
370
     9
100
AcDbVertex
100
AcDb2dVertex
 10
233.2143608357937
 20
86.26519095065593
 30
0.0
  0
VERTEX
  5
54D
330
540
100
AcDbEntity
  8
\U+30EC\U+30A4\U+30E4\U+30FC 4
 62
     7
370
     9
100
AcDbVertex
100
AcDb2dVertex
 10
233.4806667168035
 20
86.38508027354263
 30
0.0
  0
VERTEX
  5
54E
330
540
100
AcDbEntity
  8
\U+30EC\U+30A4\U+30E4\U+30FC 4
 62
     7
370
     9
100
AcDbVertex
100
AcDb2dVertex
 10
233.7407714259398
 20
86.45673825963581
 30
0.0
  0
VERTEX
  5
54F
330
540
100
AcDbEntity
  8
\U+30EC\U+30A4\U+30E4\U+30FC 4
 62
     7
370
     9
100
AcDbVertex
100
AcDb2dVertex
 10
233.9864067340381
 20
86.47878687074142
 30
0.0
  0
VERTEX
  5
550
330
540
100
AcDbEntity
  8
\U+30EC\U+30A4\U+30E4\U+30FC 4
 62
     7
370
     9
100
AcDbVertex
100
AcDb2dVertex
 10
234.2172281315499
 20
86.44984806866532
 30
0.0
  0
VERTEX
  5
551
330
540
100
AcDbEntity
  8
\U+30EC\U+30A4\U+30E4\U+30FC 4
 62
     7
370
     9
100
AcDbVertex
100
AcDb2dVertex
 10
234.4249673893104
 20
86.37061087250457
 30
0.0
  0
VERTEX
  5
552
330
540
100
AcDbEntity
  8
\U+30EC\U+30A4\U+30E4\U+30FC 4
 62
     7
370
     9
100
AcDbVertex
100
AcDb2dVertex
 10
234.4511501149983
 20
86.35476343327242
 30
0.0
  0
SEQEND
  5
553
330
540
100
AcDbEntity
  8
\U+30EC\U+30A4\U+30E4\U+30FC 4
370
     9
  0
ENDBLK
  5
53F
330
53C
100
AcDbEntity
  8
0
100
AcDbBlockEnd
  0
BLOCK
  5
556
330
554
100
AcDbEntity
  8
0
100
AcDbBlockBegin
  2
block 136
 70
     0
 71
     0
 10
0.0
 20
0.0
 30
0.0
  3
block 136
  1

  0
POLYLINE
  5
558
330
554
100
AcDbEntity
  8
\U+30EC\U+30A4\U+30E4\U+30FC 4
 62
     7
370
     9
100
AcDb2dPolyline
 66
     1
 10
0.0
 20
0.0
 30
0.0
  0
VERTEX
  5
559
330
558
100
AcDbEntity
  8
\U+30EC\U+30A4\U+30E4\U+30FC 4
 62
     7
370
     9
100
AcDbVertex
100
AcDb2dVertex
 10
231.8494140045377
 20
81.84651148127449
 30
0.0
  0
VERTEX
  5
55A
330
558
100
AcDbEntity
  8
\U+30EC\U+30A4\U+30E4\U+30FC 4
 62
     7
370
     9
100
AcDbVertex
100
AcDb2dVertex
 10
231.7760334707018
 20
81.89336477987389
 30
0.0
  0
VERTEX
  5
55B
330
558
100
AcDbEntity
  8
\U+30EC\U+30A4\U+30E4\U+30FC 4
 62
     7
370
     9
100
AcDbVertex
100
AcDb2dVertex
 10
231.6123914351525
 20
82.04425996212782
 30
0.0
  0
VERTEX
  5
55C
330
558
100
AcDbEntity
  8
\U+30EC\U+30A4\U+30E4\U+30FC 4
 62
     7
370
     9
100
AcDbVertex
100
AcDb2dVertex
 10
231.4807887876159
 20
82.23994138569002
 30
0.0
  0
VERTEX
  5
55D
330
558
100
AcDbEntity
  8
\U+30EC\U+30A4\U+30E4\U+30FC 4
 62
     7
370
     9
100
AcDbVertex
100
AcDb2dVertex
 10
231.3843261140289
 20
82.47351885958996
 30
0.0
  0
VERTEX
  5
55E
330
558
100
AcDbEntity
  8
\U+30EC\U+30A4\U+30E4\U+30FC 4
 62
     7
370
     9
100
AcDbVertex
100
AcDb2dVertex
 10
231.3261040003282
 20
82.7429253265365
 30
0.0
  0
VERTEX
  5
55F
330
558
100
AcDbEntity
  8
\U+30EC\U+30A4\U+30E4\U+30FC 4
 62
     7
370
     9
100
AcDbVertex
100
AcDb2dVertex
 10
231.3054334274167
 20
83.04058157646207
 30
0.0
  0
SEQEND
  5
560
330
558
100
AcDbEntity
  8
\U+30EC\U+30A4\U+30E4\U+30FC 4
370
     9
  0
ENDBLK
  5
557
330
554
100
AcDbEntity
  8
0
100
AcDbBlockEnd
  0
BLOCK
  5
563
330
561
100
AcDbEntity
  8
0
100
AcDbBlockBegin
  2
block 137
 70
     0
 71
     0
 10
0.0
 20
0.0
 30
0.0
  3
block 137
  1

  0
POLYLINE
  5
565
330
561
100
AcDbEntity
  8
\U+30EC\U+30A4\U+30E4\U+30FC 4
 62
     7
370
     9
100
AcDb2dPolyline
 66
     1
 10
0.0
 20
0.0
 30
0.0
  0
VERTEX
  5
566
330
565
100
AcDbEntity
  8
\U+30EC\U+30A4\U+30E4\U+30FC 4
 62
     7
370
     9
100
AcDbVertex
100
AcDb2dVertex
 10
234.3195474674618
 20
86.43193357214201
 30
0.0
  0
VERTEX
  5
567
330
565
100
AcDbEntity
  8
\U+30EC\U+30A4\U+30E4\U+30FC 4
 62
     7
370
     9
100
AcDbVertex
100
AcDb2dVertex
 10
234.191045405862
 20
86.49325627177947
 30
0.0
  0
VERTEX
  5
568
330
565
100
AcDbEntity
  8
\U+30EC\U+30A4\U+30E4\U+30FC 4
 62
     7
370
     9
100
AcDbVertex
100
AcDb2dVertex
 10
233.9715928234515
 20
86.54768878044642
 30
0.0
  0
VERTEX
  5
569
330
565
100
AcDbEntity
  8
\U+30EC\U+30A4\U+30E4\U+30FC 4
 62
     7
370
     9
100
AcDbVertex
100
AcDb2dVertex
 10
233.7318141776782
 20
86.55182289502872
 30
0.0
  0
VERTEX
  5
56A
330
565
100
AcDbEntity
  8
\U+30EC\U+30A4\U+30E4\U+30FC 4
 62
     7
370
     9
100
AcDbVertex
100
AcDb2dVertex
 10
233.4775661308667
 20
86.50496959642932
 30
0.0
  0
VERTEX
  5
56B
330
565
100
AcDbEntity
  8
\U+30EC\U+30A4\U+30E4\U+30FC 4
 62
     7
370
     9
100
AcDbVertex
100
AcDb2dVertex
 10
233.2143608357937
 20
86.40850692284232
 30
0.0
  0
VERTEX
  5
56C
330
565
100
AcDbEntity
  8
\U+30EC\U+30A4\U+30E4\U+30FC 4
 62
     7
370
     9
100
AcDbVertex
100
AcDb2dVertex
 10
232.9456433879442
 20
86.26519095065593
 30
0.0
  0
VERTEX
  5
56D
330
565
100
AcDbEntity
  8
\U+30EC\U+30A4\U+30E4\U+30FC 4
 62
     7
370
     9
100
AcDbVertex
100
AcDb2dVertex
 10
232.6796820164829
 20
86.07708873716129
 30
0.0
  0
VERTEX
  5
56E
330
565
100
AcDbEntity
  8
\U+30EC\U+30A4\U+30E4\U+30FC 4
 62
     7
370
     9
100
AcDbVertex
100
AcDb2dVertex
 10
232.419232797798
 20
85.84902341603775
 30
0.0
  0
VERTEX
  5
56F
330
565
100
AcDbEntity
  8
\U+30EC\U+30A4\U+30E4\U+30FC 4
 62
     7
370
     9
100
AcDbVertex
100
AcDb2dVertex
 10
232.1708414133115
 20
85.58444008277056
 30
0.0
  0
VERTEX
  5
570
330
565
100
AcDbEntity
  8
\U+30EC\U+30A4\U+30E4\U+30FC 4
 62
     7
370
     9
100
AcDbVertex
100
AcDb2dVertex
 10
231.9427760921879
 20
85.29022892833022
 30
0.0
  0
VERTEX
  5
571
330
565
100
AcDbEntity
  8
\U+30EC\U+30A4\U+30E4\U+30FC 4
 62
     7
370
     9
100
AcDbVertex
100
AcDb2dVertex
 10
231.7353813439759
 20
84.97328014368723
 30
0.0
  0
VERTEX
  5
572
330
565
100
AcDbEntity
  8
\U+30EC\U+30A4\U+30E4\U+30FC 4
 62
     7
370
     9
100
AcDbVertex
100
AcDb2dVertex
 10
231.5569253978399
 20
84.63841686252096
 30
0.0
  0
VERTEX
  5
573
330
565
100
AcDbEntity
  8
\U+30EC\U+30A4\U+30E4\U+30FC 4
 62
     7
370
     9
100
AcDbVertex
100
AcDb2dVertex
 10
231.4077527633286
 20
84.29390731399597
 30
0.0
  0
VERTEX
  5
574
330
565
100
AcDbEntity
  8
\U+30EC\U+30A4\U+30E4\U+30FC 4
 62
     7
370
     9
100
AcDbVertex
100
AcDb2dVertex
 10
231.2937201027669
 20
83.94733070817983
 30
0.0
  0
VERTEX
  5
575
330
565
100
AcDbEntity
  8
\U+30EC\U+30A4\U+30E4\U+30FC 4
 62
     7
370
     9
100
AcDbVertex
100
AcDb2dVertex
 10
231.2148274161546
 20
83.60488821694601
 30
0.0
  0
VERTEX
  5
576
330
565
100
AcDbEntity
  8
\U+30EC\U+30A4\U+30E4\U+30FC 4
 62
     7
370
     9
100
AcDbVertex
100
AcDb2dVertex
 10
231.1769313658169
 20
83.27622610765317
 30
0.0
  0
VERTEX
  5
577
330
565
100
AcDbEntity
  8
\U+30EC\U+30A4\U+30E4\U+30FC 4
 62
     7
370
     9
100
AcDbVertex
100
AcDb2dVertex
 10
231.1769313658169
 20
82.96478947578659
 30
0.0
  0
VERTEX
  5
578
330
565
100
AcDbEntity
  8
\U+30EC\U+30A4\U+30E4\U+30FC 4
 62
     7
370
     9
100
AcDbVertex
100
AcDb2dVertex
 10
231.2148274161546
 20
82.68160262689905
 30
0.0
  0
VERTEX
  5
579
330
565
100
AcDbEntity
  8
\U+30EC\U+30A4\U+30E4\U+30FC 4
 62
     7
370
     9
100
AcDbVertex
100
AcDb2dVertex
 10
231.2937201027669
 20
82.42873261828171
 30
0.0
  0
VERTEX
  5
57A
330
565
100
AcDbEntity
  8
\U+30EC\U+30A4\U+30E4\U+30FC 4
 62
     7
370
     9
100
AcDbVertex
100
AcDb2dVertex
 10
231.4077527633286
 20
82.21375866000211
 30
0.0
  0
VERTEX
  5
57B
330
565
100
AcDbEntity
  8
\U+30EC\U+30A4\U+30E4\U+30FC 4
 62
     7
370
     9
100
AcDbVertex
100
AcDb2dVertex
 10
231.5569253978399
 20
82.03943682844847
 30
0.0
  0
VERTEX
  5
57C
330
565
100
AcDbEntity
  8
\U+30EC\U+30A4\U+30E4\U+30FC 4
 62
     7
370
     9
100
AcDbVertex
100
AcDb2dVertex
 10
231.7147107710644
 20
81.92299260104703
 30
0.0
  0
SEQEND
  5
57D
330
565
100
AcDbEntity
  8
\U+30EC\U+30A4\U+30E4\U+30FC 4
370
     9
  0
ENDBLK
  5
564
330
561
100
AcDbEntity
  8
0
100
AcDbBlockEnd
  0
BLOCK
  5
580
330
57E
100
AcDbEntity
  8
0
100
AcDbBlockBegin
  2
block 138
 70
     0
 71
     0
 10
0.0
 20
0.0
 30
0.0
  3
block 138
  1

  0
SPLINE
  5
582
330
57E
100
AcDbEntity
  8
\U+30EC\U+30A4\U+30E4\U+30FC 4
 62
     7
370
     9
100
AcDbSpline
210
0.0
220
0.0
230
1.0
 70
     8
 71
     3
 72
     8
 73
     4
 74
     0
 42
0.0000000001
 43
0.0000000001
 40
0.0
 40
0.0
 40
0.0
 40
0.0
 40
1.0
 40
1.0
 40
1.0
 40
1.0
 10
237.6550889162807
 20
81.68734806985594
 30
0.0
 10
237.7164116159181
 20
81.6508300577123
 30
0.0
 10
237.8159748754418
 20
81.6508300577123
 30
0.0
 10
237.8745414986911
 20
81.68597003166184
 30
0.0
  0
ENDBLK
  5
581
330
57E
100
AcDbEntity
  8
0
100
AcDbBlockEnd
  0
BLOCK
  5
585
330
583
100
AcDbEntity
  8
0
100
AcDbBlockBegin
  2
block 139
 70
     0
 71
     0
 10
0.0
 20
0.0
 30
0.0
  3
block 139
  1

  0
POLYLINE
  5
587
330
583
100
AcDbEntity
  8
\U+30EC\U+30A4\U+30E4\U+30FC 4
 62
     7
370
     9
100
AcDb2dPolyline
 66
     1
 10
0.0
 20
0.0
 30
0.0
  0
VERTEX
  5
588
330
587
100
AcDbEntity
  8
\U+30EC\U+30A4\U+30E4\U+30FC 4
 62
     7
370
     9
100
AcDbVertex
100
AcDb2dVertex
 10
237.6550889162807
 20
81.68734806985594
 30
0.0
  0
VERTEX
  5
589
330
587
100
AcDbEntity
  8
\U+30EC\U+30A4\U+30E4\U+30FC 4
 62
     7
370
     9
100
AcDbVertex
100
AcDb2dVertex
 10
237.3715575578446
 20
81.85133461495384
 30
0.0
  0
SEQEND
  5
58A
330
587
100
AcDbEntity
  8
\U+30EC\U+30A4\U+30E4\U+30FC 4
370
     9
  0
ENDBLK
  5
586
330
583
100
AcDbEntity
  8
0
100
AcDbBlockEnd
  0
BLOCK
  5
58D
330
58B
100
AcDbEntity
  8
0
100
AcDbBlockBegin
  2
block 140
 70
     0
 71
     0
 10
0.0
 20
0.0
 30
0.0
  3
block 140
  1

  0
POLYLINE
  5
58F
330
58B
100
AcDbEntity
  8
\U+30EC\U+30A4\U+30E4\U+30FC 4
 62
     7
370
     9
100
AcDb2dPolyline
 66
     1
 10
0.0
 20
0.0
 30
0.0
  0
VERTEX
  5
590
330
58F
100
AcDbEntity
  8
\U+30EC\U+30A4\U+30E4\U+30FC 4
 62
     7
370
     9
100
AcDbVertex
100
AcDb2dVertex
 10
237.6550889162807
 20
81.59088539626894
 30
0.0
  0
VERTEX
  5
591
330
58F
100
AcDbEntity
  8
\U+30EC\U+30A4\U+30E4\U+30FC 4
 62
     7
370
     9
100
AcDbVertex
100
AcDb2dVertex
 10
237.6550889162807
 20
81.68734806985594
 30
0.0
  0
SEQEND
  5
592
330
58F
100
AcDbEntity
  8
\U+30EC\U+30A4\U+30E4\U+30FC 4
370
     9
  0
ENDBLK
  5
58E
330
58B
100
AcDbEntity
  8
0
100
AcDbBlockEnd
  0
BLOCK
  5
595
330
593
100
AcDbEntity
  8
0
100
AcDbBlockBegin
  2
block 141
 70
     0
 71
     0
 10
0.0
 20
0.0
 30
0.0
  3
block 141
  1

  0
SPLINE
  5
597
330
593
100
AcDbEntity
  8
\U+30EC\U+30A4\U+30E4\U+30FC 4
 62
     7
370
     9
100
AcDbSpline
210
0.0
220
0.0
230
1.0
 70
     8
 71
     3
 72
     8
 73
     4
 74
     0
 42
0.0000000001
 43
0.0000000001
 40
0.0
 40
0.0
 40
0.0
 40
0.0
 40
1.0
 40
1.0
 40
1.0
 40
1.0
 10
233.0128227499065
 20
86.30515405828483
 30
0.0
 10
231.9134927805633
 20
85.61613496123486
 30
0.0
 10
231.2265407408045
 20
84.43240015250302
 30
0.0
 10
231.171074703492
 20
83.13704425004907
 30
0.0
  0
ENDBLK
  5
596
330
593
100
AcDbEntity
  8
0
100
AcDbBlockEnd
  0
BLOCK
  5
59A
330
598
100
AcDbEntity
  8
0
100
AcDbBlockBegin
  2
block 142
 70
     0
 71
     0
 10
0.0
 20
0.0
 30
0.0
  3
block 142
  1

  0
SPLINE
  5
59C
330
598
100
AcDbEntity
  8
\U+30EC\U+30A4\U+30E4\U+30FC 4
 62
     7
370
     9
100
AcDbSpline
210
0.0
220
0.0
230
1.0
 70
     8
 71
     3
 72
     8
 73
     4
 74
     0
 42
0.0000000001
 43
0.0000000001
 40
0.0
 40
0.0
 40
0.0
 40
0.0
 40
1.0
 40
1.0
 40
1.0
 40
1.0
 10
231.0980386792047
 20
83.19698891149243
 30
0.0
 10
231.0628987052551
 20
82.7897786251359
 30
0.0
 10
231.2179280020914
 20
82.38739147245872
 30
0.0
 10
231.5131726851773
 20
82.10558266176527
 30
0.0
  0
ENDBLK
  5
59B
330
598
100
AcDbEntity
  8
0
100
AcDbBlockEnd
  0
BLOCK
  5
59F
330
59D
100
AcDbEntity
  8
0
100
AcDbBlockBegin
  2
block 143
 70
     0
 71
     0
 10
0.0
 20
0.0
 30
0.0
  3
block 143
  1

  0
POLYLINE
  5
5A1
330
59D
100
AcDbEntity
  8
\U+30EC\U+30A4\U+30E4\U+30FC 4
 62
     7
370
     9
100
AcDb2dPolyline
 66
     1
 10
0.0
 20
0.0
 30
0.0
  0
VERTEX
  5
5A2
330
5A1
100
AcDbEntity
  8
\U+30EC\U+30A4\U+30E4\U+30FC 4
 62
     7
370
     9
100
AcDbVertex
100
AcDb2dVertex
 10
233.9336967731138
 20
86.55182289502872
 30
0.0
  0
VERTEX
  5
5A3
330
5A1
100
AcDbEntity
  8
\U+30EC\U+30A4\U+30E4\U+30FC 4
 62
     7
370
     9
100
AcDbVertex
100
AcDb2dVertex
 10
233.8107068642904
 20
86.57111542974611
 30
0.0
  0
VERTEX
  5
5A4
330
5A1
100
AcDbEntity
  8
\U+30EC\U+30A4\U+30E4\U+30FC 4
 62
     7
370
     9
100
AcDbVertex
100
AcDb2dVertex
 10
233.5681721421288
 20
86.56629229606676
 30
0.0
  0
VERTEX
  5
5A5
330
5A1
100
AcDbEntity
  8
\U+30EC\U+30A4\U+30E4\U+30FC 4
 62
     7
370
     9
100
AcDbVertex
100
AcDb2dVertex
 10
233.3080674329924
 20
86.50979273010867
 30
0.0
  0
VERTEX
  5
5A6
330
5A1
100
AcDbEntity
  8
\U+30EC\U+30A4\U+30E4\U+30FC 4
 62
     7
370
     9
100
AcDbVertex
100
AcDb2dVertex
 10
233.0421060615311
 20
86.40161673187183
 30
0.0
  0
VERTEX
  5
5A7
330
5A1
100
AcDbEntity
  8
\U+30EC\U+30A4\U+30E4\U+30FC 4
 62
     7
370
     9
100
AcDbVertex
100
AcDb2dVertex
 10
232.7730441041331
 20
86.24520939684147
 30
0.0
  0
VERTEX
  5
5A8
330
5A1
100
AcDbEntity
  8
\U+30EC\U+30A4\U+30E4\U+30FC 4
 62
     7
370
     9
100
AcDbVertex
100
AcDb2dVertex
 10
232.5039821467351
 20
86.04470483959994
 30
0.0
  0
VERTEX
  5
5A9
330
5A1
100
AcDbEntity
  8
\U+30EC\U+30A4\U+30E4\U+30FC 4
 62
     7
370
     9
100
AcDbVertex
100
AcDb2dVertex
 10
232.2469780235355
 20
85.80354815563246
 30
0.0
  0
VERTEX
  5
5AA
330
5A1
100
AcDbEntity
  8
\U+30EC\U+30A4\U+30E4\U+30FC 4
 62
     7
370
     9
100
AcDbVertex
100
AcDb2dVertex
 10
232.0040987918254
 20
85.52725149771541
 30
0.0
  0
VERTEX
  5
5AB
330
5A1
100
AcDbEntity
  8
\U+30EC\U+30A4\U+30E4\U+30FC 4
 62
     7
370
     9
100
AcDbVertex
100
AcDb2dVertex
 10
231.7791340566386
 20
85.22339407591637
 30
0.0
  0
VERTEX
  5
5AC
330
5A1
100
AcDbEntity
  8
\U+30EC\U+30A4\U+30E4\U+30FC 4
 62
     7
370
     9
100
AcDbVertex
100
AcDb2dVertex
 10
231.5803520471397
 20
84.89611000481764
 30
0.0
  0
VERTEX
  5
5AD
330
5A1
100
AcDbEntity
  8
\U+30EC\U+30A4\U+30E4\U+30FC 4
 62
     7
370
     9
100
AcDbVertex
100
AcDb2dVertex
 10
231.4136094256536
 20
84.55504555177791
 30
0.0
  0
VERTEX
  5
5AE
330
5A1
100
AcDbEntity
  8
\U+30EC\U+30A4\U+30E4\U+30FC 4
 62
     7
370
     9
100
AcDbVertex
100
AcDb2dVertex
 10
231.2792507017288
 20
84.20709090776768
 30
0.0
  0
VERTEX
  5
5AF
330
5A1
100
AcDbEntity
  8
\U+30EC\U+30A4\U+30E4\U+30FC 4
 62
     7
370
     9
100
AcDbVertex
100
AcDb2dVertex
 10
231.1796874422051
 20
83.85913626375743
 30
0.0
  0
VERTEX
  5
5B0
330
5A1
100
AcDbEntity
  8
\U+30EC\U+30A4\U+30E4\U+30FC 4
 62
     7
370
     9
100
AcDbVertex
100
AcDb2dVertex
 10
231.1183647425676
 20
83.52013886800886
 30
0.0
  0
VERTEX
  5
5B1
330
5A1
100
AcDbEntity
  8
\U+30EC\U+30A4\U+30E4\U+30FC 4
 62
     7
370
     9
100
AcDbVertex
100
AcDb2dVertex
 10
231.0980386792047
 20
83.19698891149243
 30
0.0
  0
SEQEND
  5
5B2
330
5A1
100
AcDbEntity
  8
\U+30EC\U+30A4\U+30E4\U+30FC 4
370
     9
  0
ENDBLK
  5
5A0
330
59D
100
AcDbEntity
  8
0
100
AcDbBlockEnd
  0
BLOCK
  5
5B5
330
5B3
100
AcDbEntity
  8
0
100
AcDbBlockBegin
  2
block 144
 70
     0
 71
     0
 10
0.0
 20
0.0
 30
0.0
  3
block 144
  1

  0
SPLINE
  5
5B7
330
5B3
100
AcDbEntity
  8
\U+30EC\U+30A4\U+30E4\U+30FC 4
 62
     7
370
     9
100
AcDbSpline
210
0.0
220
0.0
230
1.0
 70
     8
 71
     3
 72
     8
 73
     4
 74
     0
 42
0.0000000001
 43
0.0000000001
 40
0.0
 40
0.0
 40
0.0
 40
0.0
 40
1.0
 40
1.0
 40
1.0
 40
1.0
 10
232.8843206883067
 20
86.31480032564353
 30
0.0
 10
231.8170301069763
 20
85.63818357234045
 30
0.0
 10
231.1504041305805
 20
84.48338756568471
 30
0.0
 10
231.0980386792047
 20
83.22386065627737
 30
0.0
  0
ENDBLK
  5
5B6
330
5B3
100
AcDbEntity
  8
0
100
AcDbBlockEnd
  0
BLOCK
  5
5BA
330
5B8
100
AcDbEntity
  8
0
100
AcDbBlockBegin
  2
block 145
 70
     0
 71
     0
 10
0.0
 20
0.0
 30
0.0
  3
block 145
  1

  0
POLYLINE
  5
5BC
330
5B8
100
AcDbEntity
  8
\U+30EC\U+30A4\U+30E4\U+30FC 4
 62
     7
370
     9
100
AcDb2dPolyline
 66
     1
 10
0.0
 20
0.0
 30
0.0
  0
VERTEX
  5
5BD
330
5BC
100
AcDbEntity
  8
\U+30EC\U+30A4\U+30E4\U+30FC 4
 62
     7
370
     9
100
AcDbVertex
100
AcDb2dVertex
 10
-21.1956054634511
 20
233.8847764172233
 30
0.0
  0
VERTEX
  5
5BE
330
5BC
100
AcDbEntity
  8
\U+30EC\U+30A4\U+30E4\U+30FC 4
 62
     7
370
     9
100
AcDbVertex
100
AcDb2dVertex
 10
-21.34477809796242
 20
233.953506072154
 30
0.0
  0
VERTEX
  5
5BF
330
5BC
100
AcDbEntity
  8
\U+30EC\U+30A4\U+30E4\U+30FC 4
 62
     7
370
     9
100
AcDbVertex
100
AcDb2dVertex
 10
-21.56991508792349
 20
234.0001871159791
 30
0.0
  0
VERTEX
  5
5C0
330
5BC
100
AcDbEntity
  8
\U+30EC\U+30A4\U+30E4\U+30FC 4
 62
     7
370
     9
100
AcDbVertex
100
AcDb2dVertex
 10
-21.81244981008508
 20
233.9943304536542
 30
0.0
  0
VERTEX
  5
5C1
330
5BC
100
AcDbEntity
  8
\U+30EC\U+30A4\U+30E4\U+30FC 4
 62
     7
370
     9
100
AcDbVertex
100
AcDb2dVertex
 10
-22.06979844283325
 20
233.9373141233733
 30
0.0
  0
VERTEX
  5
5C2
330
5BC
100
AcDbEntity
  8
\U+30EC\U+30A4\U+30E4\U+30FC 4
 62
     7
370
     9
100
AcDbVertex
100
AcDb2dVertex
 10
-22.338688145457
 20
233.8291381251365
 30
0.0
  0
VERTEX
  5
5C3
330
5BC
100
AcDbEntity
  8
\U+30EC\U+30A4\U+30E4\U+30FC 4
 62
     7
370
     9
100
AcDbVertex
100
AcDb2dVertex
 10
-22.60757784808074
 20
233.6742810830745
 30
0.0
  0
VERTEX
  5
5C4
330
5BC
100
AcDbEntity
  8
\U+30EC\U+30A4\U+30E4\U+30FC 4
 62
     7
370
     9
100
AcDbVertex
100
AcDb2dVertex
 10
-22.87663980547876
 20
233.4725707424131
 30
0.0
  0
VERTEX
  5
5C5
330
5BC
100
AcDbEntity
  8
\U+30EC\U+30A4\U+30E4\U+30FC 4
 62
     7
370
     9
100
AcDbVertex
100
AcDb2dVertex
 10
-23.13381618345266
 20
233.2314140584456
 30
0.0
  0
VERTEX
  5
5C6
330
5BC
100
AcDbEntity
  8
\U+30EC\U+30A4\U+30E4\U+30FC 4
 62
     7
370
     9
100
AcDbVertex
100
AcDb2dVertex
 10
-23.37652316038851
 20
232.9551174005286
 30
0.0
  0
VERTEX
  5
5C7
330
5BC
100
AcDbEntity
  8
\U+30EC\U+30A4\U+30E4\U+30FC 4
 62
     7
370
     9
100
AcDbVertex
100
AcDb2dVertex
 10
-23.60166015034959
 20
232.6510877239553
 30
0.0
  0
VERTEX
  5
5C8
330
5BC
100
AcDbEntity
  8
\U+30EC\U+30A4\U+30E4\U+30FC 4
 62
     7
370
     9
100
AcDbVertex
100
AcDb2dVertex
 10
-23.8004421598485
 20
232.3236313980823
 30
0.0
  0
VERTEX
  5
5C9
330
5BC
100
AcDbEntity
  8
\U+30EC\U+30A4\U+30E4\U+30FC 4
 62
     7
370
     9
100
AcDbVertex
100
AcDb2dVertex
 10
-23.96701252656033
 20
231.9830837093654
 30
0.0
  0
VERTEX
  5
5CA
330
5BC
100
AcDbEntity
  8
\U+30EC\U+30A4\U+30E4\U+30FC 4
 62
     7
370
     9
100
AcDbVertex
100
AcDb2dVertex
 10
-24.10154350525934
 20
231.6351290653551
 30
0.0
  0
VERTEX
  5
5CB
330
5BC
100
AcDbEntity
  8
\U+30EC\U+30A4\U+30E4\U+30FC 4
 62
     7
370
     9
100
AcDbVertex
100
AcDb2dVertex
 10
-24.2009345100088
 20
231.2873466761191
 30
0.0
  0
VERTEX
  5
5CC
330
5BC
100
AcDbEntity
  8
\U+30EC\U+30A4\U+30E4\U+30FC 4
 62
     7
370
     9
100
AcDbVertex
100
AcDb2dVertex
 10
-24.26225720964624
 20
230.9481770255963
 30
0.0
  0
VERTEX
  5
5CD
330
5BC
100
AcDbEntity
  8
\U+30EC\U+30A4\U+30E4\U+30FC 4
 62
     7
370
     9
100
AcDbVertex
100
AcDb2dVertex
 10
-24.28275552778348
 20
230.6251993238541
 30
0.0
  0
VERTEX
  5
5CE
330
5BC
100
AcDbEntity
  8
\U+30EC\U+30A4\U+30E4\U+30FC 4
 62
     7
370
     9
100
AcDbVertex
100
AcDb2dVertex
 10
-24.26225720964624
 20
230.3254760166374
 30
0.0
  0
VERTEX
  5
5CF
330
5BC
100
AcDbEntity
  8
\U+30EC\U+30A4\U+30E4\U+30FC 4
 62
     7
370
     9
100
AcDbVertex
100
AcDb2dVertex
 10
-24.2009345100088
 20
230.0564140592394
 30
0.0
  0
VERTEX
  5
5D0
330
5BC
100
AcDbEntity
  8
\U+30EC\U+30A4\U+30E4\U+30FC 4
 62
     7
370
     9
100
AcDbVertex
100
AcDb2dVertex
 10
-24.10154350525934
 20
229.8226643305652
 30
0.0
  0
VERTEX
  5
5D1
330
5BC
100
AcDbEntity
  8
\U+30EC\U+30A4\U+30E4\U+30FC 4
 62
     7
370
     9
100
AcDbVertex
100
AcDb2dVertex
 10
-23.96701252656033
 20
229.6297389833912
 30
0.0
  0
VERTEX
  5
5D2
330
5BC
100
AcDbEntity
  8
\U+30EC\U+30A4\U+30E4\U+30FC 4
 62
     7
370
     9
100
AcDbVertex
100
AcDb2dVertex
 10
-23.8004421598485
 20
229.4834946800423
 30
0.0
  0
VERTEX
  5
5D3
330
5BC
100
AcDbEntity
  8
\U+30EC\U+30A4\U+30E4\U+30FC 4
 62
     7
370
     9
100
AcDbVertex
100
AcDb2dVertex
 10
-23.72447780439874
 20
229.4381916744113
 30
0.0
  0
SEQEND
  5
5D4
330
5BC
100
AcDbEntity
  8
\U+30EC\U+30A4\U+30E4\U+30FC 4
370
     9
  0
ENDBLK
  5
5BB
330
5B8
100
AcDbEntity
  8
0
100
AcDbBlockEnd
  0
BLOCK
  5
5D7
330
5D5
100
AcDbEntity
  8
0
100
AcDbBlockBegin
  2
block 146
 70
     0
 71
     0
 10
0.0
 20
0.0
 30
0.0
  3
block 146
  1

  0
POLYLINE
  5
5D9
330
5D5
100
AcDbEntity
  8
\U+30EC\U+30A4\U+30E4\U+30FC 4
 62
     7
370
     9
100
AcDb2dPolyline
 66
     1
 10
0.0
 20
0.0
 30
0.0
  0
VERTEX
  5
5DA
330
5D9
100
AcDbEntity
  8
\U+30EC\U+30A4\U+30E4\U+30FC 4
 62
     7
370
     9
100
AcDbVertex
100
AcDb2dVertex
 10
-24.75921223339353
 20
230.9013237269969
 30
0.0
  0
VERTEX
  5
5DB
330
5D9
100
AcDbEntity
  8
\U+30EC\U+30A4\U+30E4\U+30FC 4
 62
     7
370
     9
100
AcDbVertex
100
AcDb2dVertex
 10
-24.73888617003056
 20
230.6017726745544
 30
0.0
  0
VERTEX
  5
5DC
330
5D9
100
AcDbEntity
  8
\U+30EC\U+30A4\U+30E4\U+30FC 4
 62
     7
370
     9
100
AcDbVertex
100
AcDb2dVertex
 10
-24.68031954678131
 20
230.3327107171564
 30
0.0
  0
VERTEX
  5
5DD
330
5D9
100
AcDbEntity
  8
\U+30EC\U+30A4\U+30E4\U+30FC 4
 62
     7
370
     9
100
AcDbVertex
100
AcDb2dVertex
 10
-24.58092854203185
 20
230.0989609884822
 30
0.0
  0
VERTEX
  5
5DE
330
5D9
100
AcDbEntity
  8
\U+30EC\U+30A4\U+30E4\U+30FC 4
 62
     7
370
     9
100
AcDbVertex
100
AcDb2dVertex
 10
-24.44639756333284
 20
229.905863386534
 30
0.0
  0
VERTEX
  5
5DF
330
5D9
100
AcDbEntity
  8
\U+30EC\U+30A4\U+30E4\U+30FC 4
 62
     7
370
     9
100
AcDbVertex
100
AcDb2dVertex
 10
-24.27689886545856
 20
229.7597913379594
 30
0.0
  0
VERTEX
  5
5E0
330
5D9
100
AcDbEntity
  8
\U+30EC\U+30A4\U+30E4\U+30FC 4
 62
     7
370
     9
100
AcDbVertex
100
AcDb2dVertex
 10
-24.23021782163342
 20
229.7305080263347
 30
0.0
  0
SEQEND
  5
5E1
330
5D9
100
AcDbEntity
  8
\U+30EC\U+30A4\U+30E4\U+30FC 4
370
     9
  0
ENDBLK
  5
5D8
330
5D5
100
AcDbEntity
  8
0
100
AcDbBlockEnd
  0
BLOCK
  5
5E4
330
5E2
100
AcDbEntity
  8
0
100
AcDbBlockBegin
  2
block 147
 70
     0
 71
     0
 10
0.0
 20
0.0
 30
0.0
  3
block 147
  1

  0
POLYLINE
  5
5E6
330
5E2
100
AcDbEntity
  8
\U+30EC\U+30A4\U+30E4\U+30FC 4
 62
     7
370
     9
100
AcDb2dPolyline
 66
     1
 10
0.0
 20
0.0
 30
0.0
  0
VERTEX
  5
5E7
330
5E6
100
AcDbEntity
  8
\U+30EC\U+30A4\U+30E4\U+30FC 4
 62
     7
370
     9
100
AcDbVertex
100
AcDb2dVertex
 10
-21.67223442383542
 20
234.160900820366
 30
0.0
  0
VERTEX
  5
5E8
330
5E6
100
AcDbEntity
  8
\U+30EC\U+30A4\U+30E4\U+30FC 4
 62
     7
370
     9
100
AcDbVertex
100
AcDb2dVertex
 10
-21.82416313473493
 20
234.2296304752968
 30
0.0
  0
VERTEX
  5
5E9
330
5E6
100
AcDbEntity
  8
\U+30EC\U+30A4\U+30E4\U+30FC 4
 62
     7
370
     9
100
AcDbVertex
100
AcDb2dVertex
 10
-22.04637179353355
 20
234.2764837738962
 30
0.0
  0
VERTEX
  5
5EA
330
5E6
100
AcDbEntity
  8
\U+30EC\U+30A4\U+30E4\U+30FC 4
 62
     7
370
     9
100
AcDbVertex
100
AcDb2dVertex
 10
-22.29200710163186
 20
234.2706271115712
 30
0.0
  0
VERTEX
  5
5EB
330
5E6
100
AcDbEntity
  8
\U+30EC\U+30A4\U+30E4\U+30FC 4
 62
     7
370
     9
100
AcDbVertex
100
AcDb2dVertex
 10
-22.54918347960576
 20
234.2136107812904
 30
0.0
  0
VERTEX
  5
5EC
330
5E6
100
AcDbEntity
  8
\U+30EC\U+30A4\U+30E4\U+30FC 4
 62
     7
370
     9
100
AcDbVertex
100
AcDb2dVertex
 10
-22.81807318222951
 20
234.1054347830535
 30
0.0
  0
VERTEX
  5
5ED
330
5E6
100
AcDbEntity
  8
\U+30EC\U+30A4\U+30E4\U+30FC 4
 62
     7
370
     9
100
AcDbVertex
100
AcDb2dVertex
 10
-23.08713513962752
 20
233.9504054862173
 30
0.0
  0
VERTEX
  5
5EE
330
5E6
100
AcDbEntity
  8
\U+30EC\U+30A4\U+30E4\U+30FC 4
 62
     7
370
     9
100
AcDbVertex
100
AcDb2dVertex
 10
-23.35309651108881
 20
233.7488674003301
 30
0.0
  0
VERTEX
  5
5EF
330
5E6
100
AcDbEntity
  8
\U+30EC\U+30A4\U+30E4\U+30FC 4
 62
     7
370
     9
100
AcDbVertex
100
AcDb2dVertex
 10
-23.61337347499943
 20
233.5075384615884
 30
0.0
  0
VERTEX
  5
5F0
330
5E6
100
AcDbEntity
  8
\U+30EC\U+30A4\U+30E4\U+30FC 4
 62
     7
370
     9
100
AcDbVertex
100
AcDb2dVertex
 10
-23.85590819716102
 20
233.2314140584456
 30
0.0
  0
VERTEX
  5
5F1
330
5E6
100
AcDbEntity
  8
\U+30EC\U+30A4\U+30E4\U+30FC 4
 62
     7
370
     9
100
AcDbVertex
100
AcDb2dVertex
 10
-24.07811685595964
 20
232.9272121270981
 30
0.0
  0
VERTEX
  5
5F2
330
5E6
100
AcDbEntity
  8
\U+30EC\U+30A4\U+30E4\U+30FC 4
 62
     7
370
     9
100
AcDbVertex
100
AcDb2dVertex
 10
-24.27689886545856
 20
232.5999280559993
 30
0.0
  0
VERTEX
  5
5F3
330
5E6
100
AcDbEntity
  8
\U+30EC\U+30A4\U+30E4\U+30FC 4
 62
     7
370
     9
100
AcDbVertex
100
AcDb2dVertex
 10
-24.44639756333284
 20
232.2592081125081
 30
0.0
  0
VERTEX
  5
5F4
330
5E6
100
AcDbEntity
  8
\U+30EC\U+30A4\U+30E4\U+30FC 4
 62
     7
370
     9
100
AcDbVertex
100
AcDb2dVertex
 10
-24.58092854203185
 20
231.9114257232721
 30
0.0
  0
VERTEX
  5
5F5
330
5E6
100
AcDbEntity
  8
\U+30EC\U+30A4\U+30E4\U+30FC 4
 62
     7
370
     9
100
AcDbVertex
100
AcDb2dVertex
 10
-24.68031954678131
 20
231.5634710792619
 30
0.0
  0
VERTEX
  5
5F6
330
5E6
100
AcDbEntity
  8
\U+30EC\U+30A4\U+30E4\U+30FC 4
 62
     7
370
     9
100
AcDbVertex
100
AcDb2dVertex
 10
-24.73888617003056
 20
231.2244736835133
 30
0.0
  0
VERTEX
  5
5F7
330
5E6
100
AcDbEntity
  8
\U+30EC\U+30A4\U+30E4\U+30FC 4
 62
     7
370
     9
100
AcDbVertex
100
AcDb2dVertex
 10
-24.75921223339353
 20
230.9013237269969
 30
0.0
  0
SEQEND
  5
5F8
330
5E6
100
AcDbEntity
  8
\U+30EC\U+30A4\U+30E4\U+30FC 4
370
     9
  0
ENDBLK
  5
5E5
330
5E2
100
AcDbEntity
  8
0
100
AcDbBlockEnd
  0
BLOCK
  5
5FB
330
5F9
100
AcDbEntity
  8
0
100
AcDbBlockBegin
  2
block 148
 70
     0
 71
     0
 10
0.0
 20
0.0
 30
0.0
  3
block 148
  1

  0
POLYLINE
  5
5FD
330
5F9
100
AcDbEntity
  8
\U+30EC\U+30A4\U+30E4\U+30FC 4
 62
     7
370
     9
100
AcDb2dPolyline
 66
     1
 10
0.0
 20
0.0
 30
0.0
  0
VERTEX
  5
5FE
330
5FD
100
AcDbEntity
  8
\U+30EC\U+30A4\U+30E4\U+30FC 4
 62
     7
370
     9
100
AcDbVertex
100
AcDb2dVertex
 10
-24.75921223339353
 20
230.9028740199653
 30
0.0
  0
VERTEX
  5
5FF
330
5FD
100
AcDbEntity
  8
\U+30EC\U+30A4\U+30E4\U+30FC 4
 62
     7
370
     9
100
AcDbVertex
100
AcDb2dVertex
 10
-24.75921223339353
 20
230.9276787074591
 30
0.0
  0
VERTEX
  5
600
330
5FD
100
AcDbEntity
  8
\U+30EC\U+30A4\U+30E4\U+30FC 4
 62
     7
370
     9
100
AcDbVertex
100
AcDb2dVertex
 10
-24.74181450119302
 20
231.2463500398447
 30
0.0
  0
VERTEX
  5
601
330
5FD
100
AcDbEntity
  8
\U+30EC\U+30A4\U+30E4\U+30FC 4
 62
     7
370
     9
100
AcDbVertex
100
AcDb2dVertex
 10
-24.68031954678131
 20
231.5810410662367
 30
0.0
  0
VERTEX
  5
602
330
5FD
100
AcDbEntity
  8
\U+30EC\U+30A4\U+30E4\U+30FC 4
 62
     7
370
     9
100
AcDbVertex
100
AcDb2dVertex
 10
-24.58385687319431
 20
231.9245170861161
 30
0.0
  0
VERTEX
  5
603
330
5FD
100
AcDbEntity
  8
\U+30EC\U+30A4\U+30E4\U+30FC 4
 62
     7
370
     9
100
AcDbVertex
100
AcDb2dVertex
 10
-24.44932589449531
 20
232.2679931059955
 30
0.0
  0
VERTEX
  5
604
330
5FD
100
AcDbEntity
  8
\U+30EC\U+30A4\U+30E4\U+30FC 4
 62
     7
370
     9
100
AcDbVertex
100
AcDb2dVertex
 10
-24.28275552778348
 20
232.6057847183243
 30
0.0
  0
VERTEX
  5
605
330
5FD
100
AcDbEntity
  8
\U+30EC\U+30A4\U+30E4\U+30FC 4
 62
     7
370
     9
100
AcDbVertex
100
AcDb2dVertex
 10
-24.08690184944702
 20
232.9272121270981
 30
0.0
  0
VERTEX
  5
606
330
5FD
100
AcDbEntity
  8
\U+30EC\U+30A4\U+30E4\U+30FC 4
 62
     7
370
     9
100
AcDbVertex
100
AcDb2dVertex
 10
-23.86762152181088
 20
233.2283134725089
 30
0.0
  0
VERTEX
  5
607
330
5FD
100
AcDbEntity
  8
\U+30EC\U+30A4\U+30E4\U+30FC 4
 62
     7
370
     9
100
AcDbVertex
100
AcDb2dVertex
 10
-23.62784287603748
 20
233.5016817992635
 30
0.0
  0
VERTEX
  5
608
330
5FD
100
AcDbEntity
  8
\U+30EC\U+30A4\U+30E4\U+30FC 4
 62
     7
370
     9
100
AcDbVertex
100
AcDb2dVertex
 10
-23.37066649806358
 20
233.7399101520685
 30
0.0
  0
VERTEX
  5
609
330
5FD
100
AcDbEntity
  8
\U+30EC\U+30A4\U+30E4\U+30FC 4
 62
     7
370
     9
100
AcDbVertex
100
AcDb2dVertex
 10
-23.10763345776476
 20
233.9373141233733
 30
0.0
  0
VERTEX
  5
60A
330
5FD
100
AcDbEntity
  8
\U+30EC\U+30A4\U+30E4\U+30FC 4
 62
     7
370
     9
100
AcDbVertex
100
AcDb2dVertex
 10
-22.84149983152921
 20
234.0923434202096
 30
0.0
  0
VERTEX
  5
60B
330
5FD
100
AcDbEntity
  8
\U+30EC\U+30A4\U+30E4\U+30FC 4
 62
     7
370
     9
100
AcDbVertex
100
AcDb2dVertex
 10
-22.57553846006792
 20
234.198969125478
 30
0.0
  0
VERTEX
  5
60C
330
5FD
100
AcDbEntity
  8
\U+30EC\U+30A4\U+30E4\U+30FC 4
 62
     7
370
     9
100
AcDbVertex
100
AcDb2dVertex
 10
-22.32111815848222
 20
234.2546074175648
 30
0.0
  0
VERTEX
  5
60D
330
5FD
100
AcDbEntity
  8
\U+30EC\U+30A4\U+30E4\U+30FC 4
 62
     7
370
     9
100
AcDbVertex
100
AcDb2dVertex
 10
-22.09598116852115
 20
234.2618421180838
 30
0.0
  0
SEQEND
  5
60E
330
5FD
100
AcDbEntity
  8
\U+30EC\U+30A4\U+30E4\U+30FC 4
370
     9
  0
ENDBLK
  5
5FC
330
5F9
100
AcDbEntity
  8
0
100
AcDbBlockEnd
  0
BLOCK
  5
611
330
60F
100
AcDbEntity
  8
0
100
AcDbBlockBegin
  2
block 149
 70
     0
 71
     0
 10
0.0
 20
0.0
 30
0.0
  3
block 149
  1

  0
SPLINE
  5
613
330
60F
100
AcDbEntity
  8
\U+30EC\U+30A4\U+30E4\U+30FC 4
 62
     7
370
     9
100
AcDbSpline
210
0.0
220
0.0
230
1.0
 70
     8
 71
     3
 72
    59
 73
    55
 74
     0
 42
0.0000000001
 43
0.0000000001
 40
0.0
 40
0.0
 40
0.0
 40
0.0
 40
1.0
 40
1.0
 40
1.0
 40
2.0
 40
2.0
 40
2.0
 40
3.0
 40
3.0
 40
3.0
 40
4.0
 40
4.0
 40
4.0
 40
5.0
 40
5.0
 40
5.0
 40
6.0
 40
6.0
 40
6.0
 40
7.0
 40
7.0
 40
7.0
 40
8.0
 40
8.0
 40
8.0
 40
9.0
 40
9.0
 40
9.0
 40
10.0
 40
10.0
 40
10.0
 40
11.0
 40
11.0
 40
11.0
 40
12.0
 40
12.0
 40
12.0
 40
13.0
 40
13.0
 40
13.0
 40
14.0
 40
14.0
 40
14.0
 40
15.0
 40
15.0
 40
15.0
 40
16.0
 40
16.0
 40
16.0
 40
17.0
 40
17.0
 40
17.0
 40
18.0
 40
18.0
 40
18.0
 40
18.0
 10
233.7466280882647
 20
86.57524954432841
 30
0.0
 10
233.743527502328
 20
86.57524954432841
 30
0.0
 10
233.5037488565546
 20
86.56973739155201
 30
0.0
 10
233.5037488565546
 20
86.56973739155201
 30
0.0
 10
233.5037488565546
 20
86.56973739155201
 30
0.0
 10
233.2495008097432
 20
86.51392684469097
 30
0.0
 10
233.2495008097432
 20
86.51392684469097
 30
0.0
 10
233.2495008097432
 20
86.51392684469097
 30
0.0
 10
232.9835394382819
 20
86.40712888464822
 30
0.0
 10
232.9835394382819
 20
86.40712888464822
 30
0.0
 10
232.9835394382819
 20
86.40712888464822
 30
0.0
 10
232.7175780668206
 20
86.25347762600607
 30
0.0
 10
232.7175780668206
 20
86.25347762600607
 30
0.0
 10
232.7175780668206
 20
86.25347762600607
 30
0.0
 10
232.4543727717475
 20
86.05504012605569
 30
0.0
 10
232.4543727717475
 20
86.05504012605569
 30
0.0
 10
232.4543727717475
 20
86.05504012605569
 30
0.0
 10
232.2001247249361
 20
85.81663951847639
 30
0.0
 10
232.2001247249361
 20
85.81663951847639
 30
0.0
 10
232.2001247249361
 20
85.81663951847639
 30
0.0
 10
231.9575900027745
 20
85.54447697514166
 30
0.0
 10
231.9575900027745
 20
85.54447697514166
 30
0.0
 10
231.9575900027745
 20
85.54447697514166
 30
0.0
 10
231.7381374203641
 20
85.24337562973082
 30
0.0
 10
231.7381374203641
 20
85.24337562973082
 30
0.0
 10
231.7381374203641
 20
85.24337562973082
 30
0.0
 10
231.5424559968019
 20
84.92091469231144
 30
0.0
 10
231.5424559968019
 20
84.92091469231144
 30
0.0
 10
231.5424559968019
 20
84.92091469231144
 30
0.0
 10
231.3757133753158
 20
84.58329533475695
 30
0.0
 10
231.3757133753158
 20
84.58329533475695
 30
0.0
 10
231.3757133753158
 20
84.58329533475695
 30
0.0
 10
231.2410101418425
 20
84.23947480532902
 30
0.0
 10
231.2410101418425
 20
84.23947480532902
 30
0.0
 10
231.2410101418425
 20
84.23947480532902
 30
0.0
 10
231.1445474682556
 20
83.89634329499815
 30
0.0
 10
231.1445474682556
 20
83.89634329499815
 30
0.0
 10
231.1445474682556
 20
83.89634329499815
 30
0.0
 10
231.0863253545548
 20
83.56148001383185
 30
0.0
 10
231.0863253545548
 20
83.56148001383185
 30
0.0
 10
231.0863253545548
 20
83.56148001383185
 30
0.0
 10
231.0656547816433
 20
83.24246417189772
 30
0.0
 10
231.0656547816433
 20
83.24246417189772
 30
0.0
 10
231.0656547816433
 20
83.24246417189772
 30
0.0
 10
231.0863253545548
 20
82.94618596016623
 30
0.0
 10
231.0863253545548
 20
82.94618596016623
 30
0.0
 10
231.0863253545548
 20
82.94618596016623
 30
0.0
 10
231.1445474682556
 20
82.67953556960789
 30
0.0
 10
231.1445474682556
 20
82.67953556960789
 30
0.0
 10
231.1445474682556
 20
82.67953556960789
 30
0.0
 10
231.2410101418425
 20
82.44871417209616
 30
0.0
 10
231.2410101418425
 20
82.44871417209616
 30
0.0
 10
231.2410101418425
 20
82.44871417209616
 30
0.0
 10
231.3054334274167
 20
82.34673934573276
 30
0.0
 10
231.3054334274167
 20
82.34673934573276
 30
0.0
  0
ENDBLK
  5
612
330
60F
100
AcDbEntity
  8
0
100
AcDbBlockEnd
  0
BLOCK
  5
616
330
614
100
AcDbEntity
  8
0
100
AcDbBlockBegin
  2
block 150
 70
     0
 71
     0
 10
0.0
 20
0.0
 30
0.0
  3
block 150
  1

  0
POLYLINE
  5
618
330
614
100
AcDbEntity
  8
\U+30EC\U+30A4\U+30E4\U+30FC 4
 62
     7
370
     9
100
AcDb2dPolyline
 66
     1
 10
0.0
 20
0.0
 30
0.0
  0
VERTEX
  5
619
330
618
100
AcDbEntity
  8
\U+30EC\U+30A4\U+30E4\U+30FC 4
 62
     7
370
     9
100
AcDbVertex
100
AcDb2dVertex
 10
231.551068735515
 20
82.07182072600983
 30
0.0
  0
VERTEX
  5
61A
330
618
100
AcDbEntity
  8
\U+30EC\U+30A4\U+30E4\U+30FC 4
 62
     7
370
     9
100
AcDbVertex
100
AcDb2dVertex
 10
231.5042154369156
 20
82.10075952808593
 30
0.0
  0
VERTEX
  5
61B
330
618
100
AcDbEntity
  8
\U+30EC\U+30A4\U+30E4\U+30FC 4
 62
     7
370
     9
100
AcDbVertex
100
AcDb2dVertex
 10
231.3347167390413
 20
82.24752059575756
 30
0.0
  0
VERTEX
  5
61C
330
618
100
AcDbEntity
  8
\U+30EC\U+30A4\U+30E4\U+30FC 4
 62
     7
370
     9
100
AcDbVertex
100
AcDb2dVertex
 10
231.2003580151166
 20
82.44044594293156
 30
0.0
  0
VERTEX
  5
61D
330
618
100
AcDbEntity
  8
\U+30EC\U+30A4\U+30E4\U+30FC 4
 62
     7
370
     9
100
AcDbVertex
100
AcDb2dVertex
 10
231.1007947555929
 20
82.6726453786374
 30
0.0
  0
VERTEX
  5
61E
330
618
100
AcDbEntity
  8
\U+30EC\U+30A4\U+30E4\U+30FC 4
 62
     7
370
     9
100
AcDbVertex
100
AcDb2dVertex
 10
231.0394720559554
 20
82.94274086468099
 30
0.0
  0
VERTEX
  5
61F
330
618
100
AcDbEntity
  8
\U+30EC\U+30A4\U+30E4\U+30FC 4
 62
     7
370
     9
100
AcDbVertex
100
AcDb2dVertex
 10
231.0219020689806
 20
83.24246417189772
 30
0.0
  0
VERTEX
  5
620
330
618
100
AcDbEntity
  8
\U+30EC\U+30A4\U+30E4\U+30FC 4
 62
     7
370
     9
100
AcDbVertex
100
AcDb2dVertex
 10
231.0394720559554
 20
83.56561412841415
 30
0.0
  0
VERTEX
  5
621
330
618
100
AcDbEntity
  8
\U+30EC\U+30A4\U+30E4\U+30FC 4
 62
     7
370
     9
100
AcDbVertex
100
AcDb2dVertex
 10
231.1007947555929
 20
83.90461152416275
 30
0.0
  0
VERTEX
  5
622
330
618
100
AcDbEntity
  8
\U+30EC\U+30A4\U+30E4\U+30FC 4
 62
     7
370
     9
100
AcDbVertex
100
AcDb2dVertex
 10
231.2003580151166
 20
84.25118812997887
 30
0.0
  0
VERTEX
  5
623
330
618
100
AcDbEntity
  8
\U+30EC\U+30A4\U+30E4\U+30FC 4
 62
     7
370
     9
100
AcDbVertex
100
AcDb2dVertex
 10
231.3347167390413
 20
84.6005208121832
 30
0.0
  0
VERTEX
  5
624
330
618
100
AcDbEntity
  8
\U+30EC\U+30A4\U+30E4\U+30FC 4
 62
     7
370
     9
100
AcDbVertex
100
AcDb2dVertex
 10
231.5042154369156
 20
84.94089624612589
 30
0.0
  0
VERTEX
  5
625
330
618
100
AcDbEntity
  8
\U+30EC\U+30A4\U+30E4\U+30FC 4
 62
     7
370
     9
100
AcDbVertex
100
AcDb2dVertex
 10
231.7002413700263
 20
85.26886933632167
 30
0.0
  0
VERTEX
  5
626
330
618
100
AcDbEntity
  8
\U+30EC\U+30A4\U+30E4\U+30FC 4
 62
     7
370
     9
100
AcDbVertex
100
AcDb2dVertex
 10
231.9252061052132
 20
85.57272675812071
 30
0.0
  0
VERTEX
  5
627
330
618
100
AcDbEntity
  8
\U+30EC\U+30A4\U+30E4\U+30FC 4
 62
     7
370
     9
100
AcDbVertex
100
AcDb2dVertex
 10
232.1677408273747
 20
85.84902341603775
 30
0.0
  0
VERTEX
  5
628
330
618
100
AcDbEntity
  8
\U+30EC\U+30A4\U+30E4\U+30FC 4
 62
     7
370
     9
100
AcDbVertex
100
AcDb2dVertex
 10
232.4250894601229
 20
86.09018010000524
 30
0.0
  0
VERTEX
  5
629
330
618
100
AcDbEntity
  8
\U+30EC\U+30A4\U+30E4\U+30FC 4
 62
     7
370
     9
100
AcDbVertex
100
AcDb2dVertex
 10
232.6941514175209
 20
86.28999563814973
 30
0.0
  0
VERTEX
  5
62A
330
618
100
AcDbEntity
  8
\U+30EC\U+30A4\U+30E4\U+30FC 4
 62
     7
370
     9
100
AcDbVertex
100
AcDb2dVertex
 10
232.9632133749189
 20
86.44640297318007
 30
0.0
  0
VERTEX
  5
62B
330
618
100
AcDbEntity
  8
\U+30EC\U+30A4\U+30E4\U+30FC 4
 62
     7
370
     9
100
AcDbVertex
100
AcDb2dVertex
 10
233.2319308227684
 20
86.55457897141692
 30
0.0
  0
VERTEX
  5
62C
330
618
100
AcDbEntity
  8
\U+30EC\U+30A4\U+30E4\U+30FC 4
 62
     7
370
     9
100
AcDbVertex
100
AcDb2dVertex
 10
233.4892794555166
 20
86.61176755647206
 30
0.0
  0
VERTEX
  5
62D
330
618
100
AcDbEntity
  8
\U+30EC\U+30A4\U+30E4\U+30FC 4
 62
     7
370
     9
100
AcDbVertex
100
AcDb2dVertex
 10
233.7318141776782
 20
86.61659069015141
 30
0.0
  0
VERTEX
  5
62E
330
618
100
AcDbEntity
  8
\U+30EC\U+30A4\U+30E4\U+30FC 4
 62
     7
370
     9
100
AcDbVertex
100
AcDb2dVertex
 10
233.9571234224135
 20
86.56973739155201
 30
0.0
  0
VERTEX
  5
62F
330
618
100
AcDbEntity
  8
\U+30EC\U+30A4\U+30E4\U+30FC 4
 62
     7
370
     9
100
AcDbVertex
100
AcDb2dVertex
 10
234.0360161090257
 20
86.53735349399066
 30
0.0
  0
SEQEND
  5
630
330
618
100
AcDbEntity
  8
\U+30EC\U+30A4\U+30E4\U+30FC 4
370
     9
  0
ENDBLK
  5
617
330
614
100
AcDbEntity
  8
0
100
AcDbBlockEnd
  0
BLOCK
  5
633
330
631
100
AcDbEntity
  8
0
100
AcDbBlockBegin
  2
block 151
 70
     0
 71
     0
 10
0.0
 20
0.0
 30
0.0
  3
block 151
  1

  0
POLYLINE
  5
635
330
631
100
AcDbEntity
  8
\U+30EC\U+30A4\U+30E4\U+30FC 4
 62
     7
370
     9
100
AcDb2dPolyline
 66
     1
 10
0.0
 20
0.0
 30
0.0
  0
VERTEX
  5
636
330
635
100
AcDbEntity
  8
\U+30EC\U+30A4\U+30E4\U+30FC 4
 62
     7
370
     9
100
AcDbVertex
100
AcDb2dVertex
 10
230.5423447774339
 20
83.51876082981475
 30
0.0
  0
VERTEX
  5
637
330
635
100
AcDbEntity
  8
\U+30EC\U+30A4\U+30E4\U+30FC 4
 62
     7
370
     9
100
AcDbVertex
100
AcDb2dVertex
 10
230.5630153503454
 20
83.8419107863312
 30
0.0
  0
VERTEX
  5
638
330
635
100
AcDbEntity
  8
\U+30EC\U+30A4\U+30E4\U+30FC 4
 62
     7
370
     9
100
AcDbVertex
100
AcDb2dVertex
 10
230.6215819735946
 20
84.18090818207978
 30
0.0
  0
VERTEX
  5
639
330
635
100
AcDbEntity
  8
\U+30EC\U+30A4\U+30E4\U+30FC 4
 62
     7
370
     9
100
AcDbVertex
100
AcDb2dVertex
 10
230.7208007235698
 20
84.52748478789592
 30
0.0
  0
VERTEX
  5
63A
330
635
100
AcDbEntity
  8
\U+30EC\U+30A4\U+30E4\U+30FC 4
 62
     7
370
     9
100
AcDbVertex
100
AcDb2dVertex
 10
230.8551594474945
 20
84.87681747010025
 30
0.0
  0
VERTEX
  5
63B
330
635
100
AcDbEntity
  8
\U+30EC\U+30A4\U+30E4\U+30FC 4
 62
     7
370
     9
100
AcDbVertex
100
AcDb2dVertex
 10
231.0250026549174
 20
85.21719290404293
 30
0.0
  0
VERTEX
  5
63C
330
635
100
AcDbEntity
  8
\U+30EC\U+30A4\U+30E4\U+30FC 4
 62
     7
370
     9
100
AcDbVertex
100
AcDb2dVertex
 10
231.2237846644163
 20
85.54447697514166
 30
0.0
  0
VERTEX
  5
63D
330
635
100
AcDbEntity
  8
\U+30EC\U+30A4\U+30E4\U+30FC 4
 62
     7
370
     9
100
AcDbVertex
100
AcDb2dVertex
 10
231.4456488136664
 20
85.84902341603775
 30
0.0
  0
VERTEX
  5
63E
330
635
100
AcDbEntity
  8
\U+30EC\U+30A4\U+30E4\U+30FC 4
 62
     7
370
     9
100
AcDbVertex
100
AcDb2dVertex
 10
231.6885280453765
 20
86.12532007395478
 30
0.0
  0
VERTEX
  5
63F
330
635
100
AcDbEntity
  8
\U+30EC\U+30A4\U+30E4\U+30FC 4
 62
     7
370
     9
100
AcDbVertex
100
AcDb2dVertex
 10
231.9486327545129
 20
86.36647675792227
 30
0.0
  0
VERTEX
  5
640
330
635
100
AcDbEntity
  8
\U+30EC\U+30A4\U+30E4\U+30FC 4
 62
     7
370
     9
100
AcDbVertex
100
AcDb2dVertex
 10
232.2145941259741
 20
86.56629229606676
 30
0.0
  0
VERTEX
  5
641
330
635
100
AcDbEntity
  8
\U+30EC\U+30A4\U+30E4\U+30FC 4
 62
     7
370
     9
100
AcDbVertex
100
AcDb2dVertex
 10
232.4864121597604
 20
86.7226996310971
 30
0.0
  0
VERTEX
  5
642
330
635
100
AcDbEntity
  8
\U+30EC\U+30A4\U+30E4\U+30FC 4
 62
     7
370
     9
100
AcDbVertex
100
AcDb2dVertex
 10
232.7527180407702
 20
86.83087562933395
 30
0.0
  0
VERTEX
  5
643
330
635
100
AcDbEntity
  8
\U+30EC\U+30A4\U+30E4\U+30FC 4
 62
     7
370
     9
100
AcDbVertex
100
AcDb2dVertex
 10
233.0097221639698
 20
86.8880642143891
 30
0.0
  0
VERTEX
  5
644
330
635
100
AcDbEntity
  8
\U+30EC\U+30A4\U+30E4\U+30FC 4
 62
     7
370
     9
100
AcDbVertex
100
AcDb2dVertex
 10
233.2553574720681
 20
86.8921983289714
 30
0.0
  0
VERTEX
  5
645
330
635
100
AcDbEntity
  8
\U+30EC\U+30A4\U+30E4\U+30FC 4
 62
     7
370
     9
100
AcDbVertex
100
AcDb2dVertex
 10
233.4775661308667
 20
86.84603404946905
 30
0.0
  0
VERTEX
  5
646
330
635
100
AcDbEntity
  8
\U+30EC\U+30A4\U+30E4\U+30FC 4
 62
     7
370
     9
100
AcDbVertex
100
AcDb2dVertex
 10
233.6294948417662
 20
86.77713213976405
 30
0.0
  0
SEQEND
  5
647
330
635
100
AcDbEntity
  8
\U+30EC\U+30A4\U+30E4\U+30FC 4
370
     9
  0
ENDBLK
  5
634
330
631
100
AcDbEntity
  8
0
100
AcDbBlockEnd
  0
BLOCK
  5
64A
330
648
100
AcDbEntity
  8
0
100
AcDbBlockBegin
  2
block 152
 70
     0
 71
     0
 10
0.0
 20
0.0
 30
0.0
  3
block 152
  1

  0
POLYLINE
  5
64C
330
648
100
AcDbEntity
  8
\U+30EC\U+30A4\U+30E4\U+30FC 4
 62
     7
370
     9
100
AcDb2dPolyline
 66
     1
 10
0.0
 20
0.0
 30
0.0
  0
VERTEX
  5
64D
330
64C
100
AcDbEntity
  8
\U+30EC\U+30A4\U+30E4\U+30FC 4
 62
     7
370
     9
100
AcDbVertex
100
AcDb2dVertex
 10
231.0715114439682
 20
82.34811738392686
 30
0.0
  0
VERTEX
  5
64E
330
64C
100
AcDbEntity
  8
\U+30EC\U+30A4\U+30E4\U+30FC 4
 62
     7
370
     9
100
AcDbVertex
100
AcDb2dVertex
 10
231.0250026549174
 20
82.37705618600296
 30
0.0
  0
VERTEX
  5
64F
330
64C
100
AcDbEntity
  8
\U+30EC\U+30A4\U+30E4\U+30FC 4
 62
     7
370
     9
100
AcDbVertex
100
AcDb2dVertex
 10
230.8551594474945
 20
82.52312823457756
 30
0.0
  0
VERTEX
  5
650
330
64C
100
AcDbEntity
  8
\U+30EC\U+30A4\U+30E4\U+30FC 4
 62
     7
370
     9
100
AcDbVertex
100
AcDb2dVertex
 10
230.7208007235698
 20
82.71674260084859
 30
0.0
  0
VERTEX
  5
651
330
64C
100
AcDbEntity
  8
\U+30EC\U+30A4\U+30E4\U+30FC 4
 62
     7
370
     9
100
AcDbVertex
100
AcDb2dVertex
 10
230.6215819735946
 20
82.94894203655444
 30
0.0
  0
VERTEX
  5
652
330
64C
100
AcDbEntity
  8
\U+30EC\U+30A4\U+30E4\U+30FC 4
 62
     7
370
     9
100
AcDbVertex
100
AcDb2dVertex
 10
230.5630153503454
 20
83.21903752259803
 30
0.0
  0
VERTEX
  5
653
330
64C
100
AcDbEntity
  8
\U+30EC\U+30A4\U+30E4\U+30FC 4
 62
     7
370
     9
100
AcDbVertex
100
AcDb2dVertex
 10
230.5423447774339
 20
83.51876082981475
 30
0.0
  0
SEQEND
  5
654
330
64C
100
AcDbEntity
  8
\U+30EC\U+30A4\U+30E4\U+30FC 4
370
     9
  0
ENDBLK
  5
64B
330
648
100
AcDbEntity
  8
0
100
AcDbBlockEnd
  0
BLOCK
  5
657
330
655
100
AcDbEntity
  8
0
100
AcDbBlockBegin
  2
block 153
 70
     0
 71
     0
 10
0.0
 20
0.0
 30
0.0
  3
block 153
  1

  0
POLYLINE
  5
659
330
655
100
AcDbEntity
  8
\U+30EC\U+30A4\U+30E4\U+30FC 4
 62
     7
370
     9
100
AcDb2dPolyline
 66
     1
 10
0.0
 20
0.0
 30
0.0
  0
VERTEX
  5
65A
330
659
100
AcDbEntity
  8
\U+30EC\U+30A4\U+30E4\U+30FC 4
 62
     7
370
     9
100
AcDbVertex
100
AcDb2dVertex
 10
-28.41945393169722
 20
233.8978677800672
 30
0.0
  0
VERTEX
  5
65B
330
659
100
AcDbEntity
  8
\U+30EC\U+30A4\U+30E4\U+30FC 4
 62
     7
370
     9
100
AcDbVertex
100
AcDb2dVertex
 10
-28.38724228891013
 20
233.8422294879804
 30
0.0
  0
VERTEX
  5
65C
330
659
100
AcDbEntity
  8
\U+30EC\U+30A4\U+30E4\U+30FC 4
 62
     7
370
     9
100
AcDbVertex
100
AcDb2dVertex
 10
-28.35795897728551
 20
233.8057114758368
 30
0.0
  0
SEQEND
  5
65D
330
659
100
AcDbEntity
  8
\U+30EC\U+30A4\U+30E4\U+30FC 4
370
     9
  0
ENDBLK
  5
658
330
655
100
AcDbEntity
  8
0
100
AcDbBlockEnd
  0
BLOCK
  5
660
330
65E
100
AcDbEntity
  8
0
100
AcDbBlockBegin
  2
block 154
 70
     0
 71
     0
 10
0.0
 20
0.0
 30
0.0
  3
block 154
  1

  0
POLYLINE
  5
662
330
65E
100
AcDbEntity
  8
\U+30EC\U+30A4\U+30E4\U+30FC 4
 62
     7
370
     9
100
AcDb2dPolyline
 66
     1
 10
0.0
 20
0.0
 30
0.0
  0
VERTEX
  5
663
330
662
100
AcDbEntity
  8
\U+30EC\U+30A4\U+30E4\U+30FC 4
 62
     7
370
     9
100
AcDbVertex
100
AcDb2dVertex
 10
-27.97796494526245
 20
234.8888494963993
 30
0.0
  0
VERTEX
  5
664
330
662
100
AcDbEntity
  8
\U+30EC\U+30A4\U+30E4\U+30FC 4
 62
     7
370
     9
100
AcDbVertex
100
AcDb2dVertex
 10
-27.92835557027486
 20
234.8611164777431
 30
0.0
  0
SEQEND
  5
665
330
662
100
AcDbEntity
  8
\U+30EC\U+30A4\U+30E4\U+30FC 4
370
     9
  0
ENDBLK
  5
661
330
65E
100
AcDbEntity
  8
0
100
AcDbBlockEnd
  0
BLOCK
  5
668
330
666
100
AcDbEntity
  8
0
100
AcDbBlockBegin
  2
block 155
 70
     0
 71
     0
 10
0.0
 20
0.0
 30
0.0
  3
block 155
  1

  0
POLYLINE
  5
66A
330
666
100
AcDbEntity
  8
\U+30EC\U+30A4\U+30E4\U+30FC 4
 62
     7
370
     9
100
AcDb2dPolyline
 66
     1
 10
0.0
 20
0.0
 30
0.0
  0
VERTEX
  5
66B
330
66A
100
AcDbEntity
  8
\U+30EC\U+30A4\U+30E4\U+30FC 4
 62
     7
370
     9
100
AcDbVertex
100
AcDb2dVertex
 10
-27.87564560935053
 20
234.9487941578427
 30
0.0
  0
VERTEX
  5
66C
330
66A
100
AcDbEntity
  8
\U+30EC\U+30A4\U+30E4\U+30FC 4
 62
     7
370
     9
100
AcDbVertex
100
AcDb2dVertex
 10
-27.97796494526245
 20
234.8888494963993
 30
0.0
  0
SEQEND
  5
66D
330
66A
100
AcDbEntity
  8
\U+30EC\U+30A4\U+30E4\U+30FC 4
370
     9
  0
ENDBLK
  5
669
330
666
100
AcDbEntity
  8
0
100
AcDbBlockEnd
  0
BLOCK
  5
670
330
66E
100
AcDbEntity
  8
0
100
AcDbBlockBegin
  2
block 156
 70
     0
 71
     0
 10
0.0
 20
0.0
 30
0.0
  3
block 156
  1

  0
SPLINE
  5
672
330
66E
100
AcDbEntity
  8
\U+30EC\U+30A4\U+30E4\U+30FC 4
 62
     7
370
     9
100
AcDbSpline
210
0.0
220
0.0
230
1.0
 70
     8
 71
     3
 72
     8
 73
     4
 74
     0
 42
0.0000000001
 43
0.0000000001
 40
0.0
 40
0.0
 40
0.0
 40
0.0
 40
1.0
 40
1.0
 40
1.0
 40
1.0
 10
-27.97796494526245
 20
234.8888494963993
 30
0.0
 10
-28.00139159456215
 20
234.90504144518
 30
0.0
 10
-28.03067490618678
 20
234.9079697763425
 30
0.0
 10
-28.05392930071221
 20
234.8962564516926
 30
0.0
  0
ENDBLK
  5
671
330
66E
100
AcDbEntity
  8
0
100
AcDbBlockEnd
  0
BLOCK
  5
675
330
673
100
AcDbEntity
  8
0
100
AcDbBlockBegin
  2
block 157
 70
     0
 71
     0
 10
0.0
 20
0.0
 30
0.0
  3
block 157
  1

  0
POLYLINE
  5
677
330
673
100
AcDbEntity
  8
\U+30EC\U+30A4\U+30E4\U+30FC 4
 62
     7
370
     9
100
AcDb2dPolyline
 66
     1
 10
0.0
 20
0.0
 30
0.0
  0
VERTEX
  5
678
330
677
100
AcDbEntity
  8
\U+30EC\U+30A4\U+30E4\U+30FC 4
 62
     7
370
     9
100
AcDbVertex
100
AcDb2dVertex
 10
237.8714409127544
 20
81.7045735472822
 30
0.0
  0
VERTEX
  5
679
330
677
100
AcDbEntity
  8
\U+30EC\U+30A4\U+30E4\U+30FC 4
 62
     7
370
     9
100
AcDbVertex
100
AcDb2dVertex
 10
237.8714409127544
 20
82.14072263571482
 30
0.0
  0
SEQEND
  5
67A
330
677
100
AcDbEntity
  8
\U+30EC\U+30A4\U+30E4\U+30FC 4
370
     9
  0
ENDBLK
  5
676
330
673
100
AcDbEntity
  8
0
100
AcDbBlockEnd
  0
BLOCK
  5
67D
330
67B
100
AcDbEntity
  8
0
100
AcDbBlockBegin
  2
block 158
 70
     0
 71
     0
 10
0.0
 20
0.0
 30
0.0
  3
block 158
  1

  0
POLYLINE
  5
67F
330
67B
100
AcDbEntity
  8
\U+30EC\U+30A4\U+30E4\U+30FC 4
 62
     7
370
     9
100
AcDb2dPolyline
 66
     1
 10
0.0
 20
0.0
 30
0.0
  0
VERTEX
  5
680
330
67F
100
AcDbEntity
  8
\U+30EC\U+30A4\U+30E4\U+30FC 4
 62
     7
370
     9
100
AcDbVertex
100
AcDb2dVertex
 10
237.6492322539557
 20
81.7045735472822
 30
0.0
  0
VERTEX
  5
681
330
67F
100
AcDbEntity
  8
\U+30EC\U+30A4\U+30E4\U+30FC 4
 62
     7
370
     9
100
AcDbVertex
100
AcDb2dVertex
 10
237.6492322539557
 20
82.01187606456648
 30
0.0
  0
SEQEND
  5
682
330
67F
100
AcDbEntity
  8
\U+30EC\U+30A4\U+30E4\U+30FC 4
370
     9
  0
ENDBLK
  5
67E
330
67B
100
AcDbEntity
  8
0
100
AcDbBlockEnd
  0
BLOCK
  5
685
330
683
100
AcDbEntity
  8
0
100
AcDbBlockBegin
  2
block 159
 70
     0
 71
     0
 10
0.0
 20
0.0
 30
0.0
  3
block 159
  1

  0
POLYLINE
  5
687
330
683
100
AcDbEntity
  8
\U+30EC\U+30A4\U+30E4\U+30FC 4
 62
     7
370
     9
100
AcDb2dPolyline
 66
     1
 10
0.0
 20
0.0
 30
0.0
  0
VERTEX
  5
688
330
687
100
AcDbEntity
  8
\U+30EC\U+30A4\U+30E4\U+30FC 4
 62
     7
370
     9
100
AcDbVertex
100
AcDb2dVertex
 10
236.8572048018968
 20
81.4289659084622
 30
0.0
  0
VERTEX
  5
689
330
687
100
AcDbEntity
  8
\U+30EC\U+30A4\U+30E4\U+30FC 4
 62
     7
370
     9
100
AcDbVertex
100
AcDb2dVertex
 10
236.8572048018968
 20
81.11890731478972
 30
0.0
  0
SEQEND
  5
68A
330
687
100
AcDbEntity
  8
\U+30EC\U+30A4\U+30E4\U+30FC 4
370
     9
  0
ENDBLK
  5
686
330
683
100
AcDbEntity
  8
0
100
AcDbBlockEnd
  0
BLOCK
  5
68D
330
68B
100
AcDbEntity
  8
0
100
AcDbBlockBegin
  2
block 160
 70
     0
 71
     0
 10
0.0
 20
0.0
 30
0.0
  3
block 160
  1

  0
POLYLINE
  5
68F
330
68B
100
AcDbEntity
  8
\U+30EC\U+30A4\U+30E4\U+30FC 4
 62
     7
370
     9
100
AcDb2dPolyline
 66
     1
 10
0.0
 20
0.0
 30
0.0
  0
VERTEX
  5
690
330
68F
100
AcDbEntity
  8
\U+30EC\U+30A4\U+30E4\U+30FC 4
 62
     7
370
     9
100
AcDbVertex
100
AcDb2dVertex
 10
236.7400715553983
 20
81.12166339117792
 30
0.0
  0
VERTEX
  5
691
330
68F
100
AcDbEntity
  8
\U+30EC\U+30A4\U+30E4\U+30FC 4
 62
     7
370
     9
100
AcDbVertex
100
AcDb2dVertex
 10
236.7459282177232
 20
81.11890731478972
 30
0.0
  0
SEQEND
  5
692
330
68F
100
AcDbEntity
  8
\U+30EC\U+30A4\U+30E4\U+30FC 4
370
     9
  0
ENDBLK
  5
68E
330
68B
100
AcDbEntity
  8
0
100
AcDbBlockEnd
  0
BLOCK
  5
695
330
693
100
AcDbEntity
  8
0
100
AcDbBlockBegin
  2
block 161
 70
     0
 71
     0
 10
0.0
 20
0.0
 30
0.0
  3
block 161
  1

  0
POLYLINE
  5
697
330
693
100
AcDbEntity
  8
\U+30EC\U+30A4\U+30E4\U+30FC 4
 62
     7
370
     9
100
AcDb2dPolyline
 66
     1
 10
0.0
 20
0.0
 30
0.0
  0
VERTEX
  5
698
330
697
100
AcDbEntity
  8
\U+30EC\U+30A4\U+30E4\U+30FC 4
 62
     7
370
     9
100
AcDbVertex
100
AcDb2dVertex
 10
237.0790689511469
 20
83.01922198445354
 30
0.0
  0
VERTEX
  5
699
330
697
100
AcDbEntity
  8
\U+30EC\U+30A4\U+30E4\U+30FC 4
 62
     7
370
     9
100
AcDbVertex
100
AcDb2dVertex
 10
237.2340982479832
 20
83.08330076047918
 30
0.0
  0
VERTEX
  5
69A
330
697
100
AcDbEntity
  8
\U+30EC\U+30A4\U+30E4\U+30FC 4
 62
     7
370
     9
100
AcDbVertex
100
AcDb2dVertex
 10
237.3774142201696
 20
83.09777016151723
 30
0.0
  0
VERTEX
  5
69B
330
697
100
AcDbEntity
  8
\U+30EC\U+30A4\U+30E4\U+30FC 4
 62
     7
370
     9
100
AcDbVertex
100
AcDb2dVertex
 10
237.5000596194444
 20
83.05987411117948
 30
0.0
  0
VERTEX
  5
69C
330
697
100
AcDbEntity
  8
\U+30EC\U+30A4\U+30E4\U+30FC 4
 62
     7
370
     9
100
AcDbVertex
100
AcDb2dVertex
 10
237.5937662166432
 20
82.97236868585414
 30
0.0
  0
VERTEX
  5
69D
330
697
100
AcDbEntity
  8
\U+30EC\U+30A4\U+30E4\U+30FC 4
 62
     7
370
     9
100
AcDbVertex
100
AcDb2dVertex
 10
237.6523328398925
 20
82.84214407651169
 30
0.0
  0
VERTEX
  5
69E
330
697
100
AcDbEntity
  8
\U+30EC\U+30A4\U+30E4\U+30FC 4
 62
     7
370
     9
100
AcDbVertex
100
AcDb2dVertex
 10
237.6668022409305
 20
82.77806530048605
 30
0.0
  0
SEQEND
  5
69F
330
697
100
AcDbEntity
  8
\U+30EC\U+30A4\U+30E4\U+30FC 4
370
     9
  0
ENDBLK
  5
696
330
693
100
AcDbEntity
  8
0
100
AcDbBlockEnd
  0
BLOCK
  5
6A2
330
6A0
100
AcDbEntity
  8
0
100
AcDbBlockBegin
  2
block 162
 70
     0
 71
     0
 10
0.0
 20
0.0
 30
0.0
  3
block 162
  1

  0
POLYLINE
  5
6A4
330
6A0
100
AcDbEntity
  8
\U+30EC\U+30A4\U+30E4\U+30FC 4
 62
     7
370
     9
100
AcDb2dPolyline
 66
     1
 10
0.0
 20
0.0
 30
0.0
  0
VERTEX
  5
6A5
330
6A4
100
AcDbEntity
  8
\U+30EC\U+30A4\U+30E4\U+30FC 4
 62
     7
370
     9
100
AcDbVertex
100
AcDb2dVertex
 10
236.1202988776019
 20
81.10099281826642
 30
0.0
  0
VERTEX
  5
6A6
330
6A4
100
AcDbEntity
  8
\U+30EC\U+30A4\U+30E4\U+30FC 4
 62
     7
370
     9
100
AcDbVertex
100
AcDb2dVertex
 10
236.0589761779644
 20
81.08238930264608
 30
0.0
  0
VERTEX
  5
6A7
330
6A4
100
AcDbEntity
  8
\U+30EC\U+30A4\U+30E4\U+30FC 4
 62
     7
370
     9
100
AcDbVertex
100
AcDb2dVertex
 10
235.915660205778
 20
81.06791990160802
 30
0.0
  0
VERTEX
  5
6A8
330
6A4
100
AcDbEntity
  8
\U+30EC\U+30A4\U+30E4\U+30FC 4
 62
     7
370
     9
100
AcDbVertex
100
AcDb2dVertex
 10
235.7930148065032
 20
81.10581595194577
 30
0.0
  0
VERTEX
  5
6A9
330
6A4
100
AcDbEntity
  8
\U+30EC\U+30A4\U+30E4\U+30FC 4
 62
     7
370
     9
100
AcDbVertex
100
AcDb2dVertex
 10
235.6993082093043
 20
81.19332137727112
 30
0.0
  0
VERTEX
  5
6AA
330
6A4
100
AcDbEntity
  8
\U+30EC\U+30A4\U+30E4\U+30FC 4
 62
     7
370
     9
100
AcDbVertex
100
AcDb2dVertex
 10
235.6379855096669
 20
81.32354598661357
 30
0.0
  0
VERTEX
  5
6AB
330
6A4
100
AcDbEntity
  8
\U+30EC\U+30A4\U+30E4\U+30FC 4
 62
     7
370
     9
100
AcDbVertex
100
AcDb2dVertex
 10
235.6176594463039
 20
81.49028860809965
 30
0.0
  0
VERTEX
  5
6AC
330
6A4
100
AcDbEntity
  8
\U+30EC\U+30A4\U+30E4\U+30FC 4
 62
     7
370
     9
100
AcDbVertex
100
AcDb2dVertex
 10
235.6379855096669
 20
81.67839082159429
 30
0.0
  0
VERTEX
  5
6AD
330
6A4
100
AcDbEntity
  8
\U+30EC\U+30A4\U+30E4\U+30FC 4
 62
     7
370
     9
100
AcDbVertex
100
AcDb2dVertex
 10
235.6993082093043
 20
81.87751734064173
 30
0.0
  0
VERTEX
  5
6AE
330
6A4
100
AcDbEntity
  8
\U+30EC\U+30A4\U+30E4\U+30FC 4
 62
     7
370
     9
100
AcDbVertex
100
AcDb2dVertex
 10
235.7930148065032
 20
82.07457680239803
 30
0.0
  0
VERTEX
  5
6AF
330
6A4
100
AcDbEntity
  8
\U+30EC\U+30A4\U+30E4\U+30FC 4
 62
     7
370
     9
100
AcDbVertex
100
AcDb2dVertex
 10
235.915660205778
 20
82.25441078672807
 30
0.0
  0
VERTEX
  5
6B0
330
6A4
100
AcDbEntity
  8
\U+30EC\U+30A4\U+30E4\U+30FC 4
 62
     7
370
     9
100
AcDbVertex
100
AcDb2dVertex
 10
236.0589761779644
 20
82.405305968982
 30
0.0
  0
VERTEX
  5
6B1
330
6A4
100
AcDbEntity
  8
\U+30EC\U+30A4\U+30E4\U+30FC 4
 62
     7
370
     9
100
AcDbVertex
100
AcDb2dVertex
 10
236.210904888864
 20
82.51761608180115
 30
0.0
  0
SEQEND
  5
6B2
330
6A4
100
AcDbEntity
  8
\U+30EC\U+30A4\U+30E4\U+30FC 4
370
     9
  0
ENDBLK
  5
6A3
330
6A0
100
AcDbEntity
  8
0
100
AcDbBlockEnd
  0
BLOCK
  5
6B5
330
6B3
100
AcDbEntity
  8
0
100
AcDbBlockBegin
  2
block 163
 70
     0
 71
     0
 10
0.0
 20
0.0
 30
0.0
  3
block 163
  1

  0
SPLINE
  5
6B7
330
6B3
100
AcDbEntity
  8
\U+30EC\U+30A4\U+30E4\U+30FC 4
 62
     7
370
     9
100
AcDbSpline
210
0.0
220
0.0
230
1.0
 70
     8
 71
     3
 72
     8
 73
     4
 74
     0
 42
0.0000000001
 43
0.0000000001
 40
0.0
 40
0.0
 40
0.0
 40
0.0
 40
1.0
 40
1.0
 40
1.0
 40
1.0
 10
236.5471462082243
 20
80.93769529226557
 30
0.0
 10
236.5678167811358
 20
80.88188474540453
 30
0.0
 10
236.6084689078618
 20
80.83503144680513
 30
0.0
 10
236.6584227923979
 20
80.80609264472903
 30
0.0
  0
ENDBLK
  5
6B6
330
6B3
100
AcDbEntity
  8
0
100
AcDbBlockEnd
  0
BLOCK
  5
6BA
330
6B8
100
AcDbEntity
  8
0
100
AcDbBlockBegin
  2
block 164
 70
     0
 71
     0
 10
0.0
 20
0.0
 30
0.0
  3
block 164
  1

  0
POLYLINE
  5
6BC
330
6B8
100
AcDbEntity
  8
\U+30EC\U+30A4\U+30E4\U+30FC 4
 62
     7
370
     9
100
AcDb2dPolyline
 66
     1
 10
0.0
 20
0.0
 30
0.0
  0
VERTEX
  5
6BD
330
6BC
100
AcDbEntity
  8
\U+30EC\U+30A4\U+30E4\U+30FC 4
 62
     7
370
     9
100
AcDbVertex
100
AcDb2dVertex
 10
236.3221814730375
 20
82.32606877282126
 30
0.0
  0
VERTEX
  5
6BE
330
6BC
100
AcDbEntity
  8
\U+30EC\U+30A4\U+30E4\U+30FC 4
 62
     7
370
     9
100
AcDbVertex
100
AcDb2dVertex
 10
236.184722163176
 20
82.22547198465197
 30
0.0
  0
VERTEX
  5
6BF
330
6BC
100
AcDbEntity
  8
\U+30EC\U+30A4\U+30E4\U+30FC 4
 62
     7
370
     9
100
AcDbVertex
100
AcDb2dVertex
 10
236.0620767639012
 20
82.08629012704787
 30
0.0
  0
VERTEX
  5
6C0
330
6BC
100
AcDbEntity
  8
\U+30EC\U+30A4\U+30E4\U+30FC 4
 62
     7
370
     9
100
AcDbVertex
100
AcDb2dVertex
 10
235.9566568420525
 20
81.92299260104703
 30
0.0
  0
VERTEX
  5
6C1
330
6BC
100
AcDbEntity
  8
\U+30EC\U+30A4\U+30E4\U+30FC 4
 62
     7
370
     9
100
AcDbVertex
100
AcDb2dVertex
 10
235.8836208177652
 20
81.7472927312993
 30
0.0
  0
VERTEX
  5
6C2
330
6BC
100
AcDbEntity
  8
\U+30EC\U+30A4\U+30E4\U+30FC 4
 62
     7
370
     9
100
AcDbVertex
100
AcDb2dVertex
 10
235.8457247674275
 20
81.5736599188427
 30
0.0
  0
VERTEX
  5
6C3
330
6BC
100
AcDbEntity
  8
\U+30EC\U+30A4\U+30E4\U+30FC 4
 62
     7
370
     9
100
AcDbVertex
100
AcDb2dVertex
 10
235.8457247674275
 20
81.41380748832711
 30
0.0
  0
VERTEX
  5
6C4
330
6BC
100
AcDbEntity
  8
\U+30EC\U+30A4\U+30E4\U+30FC 4
 62
     7
370
     9
100
AcDbVertex
100
AcDb2dVertex
 10
235.8836208177652
 20
81.28427189808171
 30
0.0
  0
VERTEX
  5
6C5
330
6BC
100
AcDbEntity
  8
\U+30EC\U+30A4\U+30E4\U+30FC 4
 62
     7
370
     9
100
AcDbVertex
100
AcDb2dVertex
 10
235.9566568420525
 20
81.19332137727112
 30
0.0
  0
VERTEX
  5
6C6
330
6BC
100
AcDbEntity
  8
\U+30EC\U+30A4\U+30E4\U+30FC 4
 62
     7
370
     9
100
AcDbVertex
100
AcDb2dVertex
 10
235.9859401536771
 20
81.17609589984487
 30
0.0
  0
SEQEND
  5
6C7
330
6BC
100
AcDbEntity
  8
\U+30EC\U+30A4\U+30E4\U+30FC 4
370
     9
  0
ENDBLK
  5
6BB
330
6B8
100
AcDbEntity
  8
0
100
AcDbBlockEnd
  0
BLOCK
  5
6CA
330
6C8
100
AcDbEntity
  8
0
100
AcDbBlockBegin
  2
block 165
 70
     0
 71
     0
 10
0.0
 20
0.0
 30
0.0
  3
block 165
  1

  0
SPLINE
  5
6CC
330
6C8
100
AcDbEntity
  8
\U+30EC\U+30A4\U+30E4\U+30FC 4
 62
     7
370
     9
100
AcDbSpline
210
0.0
220
0.0
230
1.0
 70
     8
 71
     3
 72
     8
 73
     4
 74
     0
 42
0.0000000001
 43
0.0000000001
 40
0.0
 40
0.0
 40
0.0
 40
0.0
 40
1.0
 40
1.0
 40
1.0
 40
1.0
 10
237.0645995501089
 20
80.83365340861104
 30
0.0
 10
237.0880261994085
 20
80.85156790513433
 30
0.0
 10
237.0997395240584
 20
80.87912866901634
 30
0.0
 10
237.0966389381217
 20
80.90668943289833
 30
0.0
  0
ENDBLK
  5
6CB
330
6C8
100
AcDbEntity
  8
0
100
AcDbBlockEnd
  0
BLOCK
  5
6CF
330
6CD
100
AcDbEntity
  8
0
100
AcDbBlockBegin
  2
block 166
 70
     0
 71
     0
 10
0.0
 20
0.0
 30
0.0
  3
block 166
  1

  0
POLYLINE
  5
6D1
330
6CD
100
AcDbEntity
  8
\U+30EC\U+30A4\U+30E4\U+30FC 4
 62
     7
370
     9
100
AcDb2dPolyline
 66
     1
 10
0.0
 20
0.0
 30
0.0
  0
VERTEX
  5
6D2
330
6D1
100
AcDbEntity
  8
\U+30EC\U+30A4\U+30E4\U+30FC 4
 62
     7
370
     9
100
AcDbVertex
100
AcDb2dVertex
 10
236.7693548670229
 20
81.07963322625787
 30
0.0
  0
VERTEX
  5
6D3
330
6D1
100
AcDbEntity
  8
\U+30EC\U+30A4\U+30E4\U+30FC 4
 62
     7
370
     9
100
AcDbVertex
100
AcDb2dVertex
 10
236.7955375927108
 20
81.06309676792867
 30
0.0
  0
SEQEND
  5
6D4
330
6D1
100
AcDbEntity
  8
\U+30EC\U+30A4\U+30E4\U+30FC 4
370
     9
  0
ENDBLK
  5
6D0
330
6CD
100
AcDbEntity
  8
0
100
AcDbBlockEnd
  0
BLOCK
  5
6D7
330
6D5
100
AcDbEntity
  8
0
100
AcDbBlockBegin
  2
block 167
 70
     0
 71
     0
 10
0.0
 20
0.0
 30
0.0
  3
block 167
  1

  0
SPLINE
  5
6D9
330
6D5
100
AcDbEntity
  8
\U+30EC\U+30A4\U+30E4\U+30FC 4
 62
     7
370
     9
100
AcDbSpline
210
0.0
220
0.0
230
1.0
 70
     8
 71
     3
 72
     8
 73
     4
 74
     0
 42
0.0000000001
 43
0.0000000001
 40
0.0
 40
0.0
 40
0.0
 40
0.0
 40
1.0
 40
1.0
 40
1.0
 40
1.0
 10
237.9327636123918
 20
81.33525931126341
 30
0.0
 10
237.9561902616915
 20
81.35110675049556
 30
0.0
 10
237.9679035863414
 20
81.37866751437755
 30
0.0
 10
237.9651475099532
 20
81.4082953355507
 30
0.0
  0
ENDBLK
  5
6D8
330
6D5
100
AcDbEntity
  8
0
100
AcDbBlockEnd
  0
BLOCK
  5
6DC
330
6DA
100
AcDbEntity
  8
0
100
AcDbBlockBegin
  2
block 168
 70
     0
 71
     0
 10
0.0
 20
0.0
 30
0.0
  3
block 168
  1

  0
SPLINE
  5
6DE
330
6DA
100
AcDbEntity
  8
\U+30EC\U+30A4\U+30E4\U+30FC 4
 62
     7
370
     9
100
AcDbSpline
210
0.0
220
0.0
230
1.0
 70
     8
 71
     3
 72
     8
 73
     4
 74
     0
 42
0.0000000001
 43
0.0000000001
 40
0.0
 40
0.0
 40
0.0
 40
0.0
 40
1.0
 40
1.0
 40
1.0
 40
1.0
 10
238.1959689074649
 20
82.45767142035781
 30
0.0
 10
238.0850368328399
 20
82.51348196721885
 30
0.0
 10
237.9534341853033
 20
82.501768642569
 30
0.0
 10
237.8569715117163
 20
82.42873261828171
 30
0.0
  0
ENDBLK
  5
6DD
330
6DA
100
AcDbEntity
  8
0
100
AcDbBlockEnd
  0
BLOCK
  5
6E1
330
6DF
100
AcDbEntity
  8
0
100
AcDbBlockBegin
  2
block 169
 70
     0
 71
     0
 10
0.0
 20
0.0
 30
0.0
  3
block 169
  1

  0
SPLINE
  5
6E3
330
6DF
100
AcDbEntity
  8
\U+30EC\U+30A4\U+30E4\U+30FC 4
 62
     7
370
     9
100
AcDbSpline
210
0.0
220
0.0
230
1.0
 70
     8
 71
     3
 72
     8
 73
     4
 74
     0
 42
0.0000000001
 43
0.0000000001
 40
0.0
 40
0.0
 40
0.0
 40
0.0
 40
1.0
 40
1.0
 40
1.0
 40
1.0
 10
237.535199593394
 20
82.85799151574383
 30
0.0
 10
237.4211669328322
 20
82.91242402441078
 30
0.0
 10
237.2899087948442
 20
82.90071069976094
 30
0.0
 10
237.1903455353205
 20
82.82767467547365
 30
0.0
  0
ENDBLK
  5
6E2
330
6DF
100
AcDbEntity
  8
0
100
AcDbBlockEnd
  0
BLOCK
  5
6E6
330
6E4
100
AcDbEntity
  8
0
100
AcDbBlockBegin
  2
block 170
 70
     0
 71
     0
 10
0.0
 20
0.0
 30
0.0
  3
block 170
  1

  0
POLYLINE
  5
6E8
330
6E4
100
AcDbEntity
  8
\U+30EC\U+30A4\U+30E4\U+30FC 4
 62
     7
370
     9
100
AcDb2dPolyline
 66
     1
 10
0.0
 20
0.0
 30
0.0
  0
VERTEX
  5
6E9
330
6E8
100
AcDbEntity
  8
\U+30EC\U+30A4\U+30E4\U+30FC 4
 62
     7
370
     9
100
AcDbVertex
100
AcDb2dVertex
 10
237.9827174969279
 20
81.83066404204234
 30
0.0
  0
VERTEX
  5
6EA
330
6E8
100
AcDbEntity
  8
\U+30EC\U+30A4\U+30E4\U+30FC 4
 62
     7
370
     9
100
AcDbVertex
100
AcDb2dVertex
 10
238.0002874839027
 20
81.82170679378069
 30
0.0
  0
SEQEND
  5
6EB
330
6E8
100
AcDbEntity
  8
\U+30EC\U+30A4\U+30E4\U+30FC 4
370
     9
  0
ENDBLK
  5
6E7
330
6E4
100
AcDbEntity
  8
0
100
AcDbBlockEnd
  0
BLOCK
  5
6EE
330
6EC
100
AcDbEntity
  8
0
100
AcDbBlockBegin
  2
block 171
 70
     0
 71
     0
 10
0.0
 20
0.0
 30
0.0
  3
block 171
  1

  0
POLYLINE
  5
6F0
330
6EC
100
AcDbEntity
  8
\U+30EC\U+30A4\U+30E4\U+30FC 4
 62
     7
370
     9
100
AcDb2dPolyline
 66
     1
 10
0.0
 20
0.0
 30
0.0
  0
VERTEX
  5
6F1
330
6F0
100
AcDbEntity
  8
\U+30EC\U+30A4\U+30E4\U+30FC 4
 62
     7
370
     9
100
AcDbVertex
100
AcDb2dVertex
 10
237.9444769370417
 20
81.7252441201937
 30
0.0
  0
VERTEX
  5
6F2
330
6F0
100
AcDbEntity
  8
\U+30EC\U+30A4\U+30E4\U+30FC 4
 62
     7
370
     9
100
AcDbVertex
100
AcDb2dVertex
 10
237.9269069500669
 20
81.73557940664944
 30
0.0
  0
SEQEND
  5
6F3
330
6F0
100
AcDbEntity
  8
\U+30EC\U+30A4\U+30E4\U+30FC 4
370
     9
  0
ENDBLK
  5
6EF
330
6EC
100
AcDbEntity
  8
0
100
AcDbBlockEnd
  0
ENDSEC
  0
SECTION
  2
ENTITIES
  0
INSERT
  5
3E
330
1F
100
AcDbEntity
  8
\U+30EC\U+30A4\U+30E4\U+30FC 4
100
AcDbBlockReference
  2
block 2
 10
0.0
 20
0.0
 30
0.0
  0
ENDSEC
  0
SECTION
  2
OBJECTS
  0
DICTIONARY
  5
C
330
0
100
AcDbDictionary
281
     1
  3
ACAD_GROUP
350
D
  3
ACAD_LAYOUT
350
1A
  3
ACAD_MLINESTYLE
350
17
  3
ACAD_PLOTSETTINGS
350
19
  3
ACAD_PLOTSTYLENAME
350
E
  3
ACAD_TABLESTYLE
350
6F4
  3
ACAD_VISUALSTYLE
350
2A
  0
DICTIONARY
  5
D
102
{ACAD_REACTORS
330
C
102
}
330
C
100
AcDbDictionary
281
     1
  0
DICTIONARY
  5
1A
102
{ACAD_REACTORS
330
C
102
}
330
C
100
AcDbDictionary
281
     1
  3
Layout1
350
1E
  3
Layout2
350
26
  3
Model
350
22
  0
DICTIONARY
  5
17
102
{ACAD_REACTORS
330
C
102
}
330
C
100
AcDbDictionary
281
     1
  3
Standard
350
18
  0
DICTIONARY
  5
19
102
{ACAD_REACTORS
330
C
102
}
330
C
100
AcDbDictionary
281
     1
  0
ACDBDICTIONARYWDFLT
  5
E
102
{ACAD_REACTORS
330
C
102
}
330
C
100
AcDbDictionary
281
     1
  3
Normal
350
F
100
AcDbDictionaryWithDefault
340
F
  0
DICTIONARY
  5
6F4
102
{ACAD_REACTORS
330
C
102
}
330
C
100
AcDbDictionary
281
     1
  0
DICTIONARY
  5
2A
102
{ACAD_REACTORS
330
C
102
}
330
C
100
AcDbDictionary
281
     1
  3
2dWireframe
350
2F
  3
3D Hidden
350
31
  3
3dWireframe
350
30
  3
Basic
350
32
  3
Brighten
350
36
  3
ColorChange
350
3A
  3
Conceptual
350
34
  3
Dim
350
35
  3
Facepattern
350
39
  3
Flat
350
2B
  3
FlatWithEdges
350
2C
  3
Gouraud
350
2D
  3
GouraudWithEdges
350
2E
  3
Linepattern
350
38
  3
Realistic
350
33
  3
Thicken
350
37
  0
LAYOUT
  5
1E
102
{ACAD_REACTORS
330
1A
102
}
330
1A
100
AcDbPlotSettings
  1

  2
none_device
  4

  6

 40
0.0
 41
0.0
 42
0.0
 43
0.0
 44
0.0
 45
0.0
 46
0.0
 47
0.0
 48
0.0
 49
0.0
140
0.0
141
0.0
142
1.0
143
1.0
 70
   688
 72
     0
 73
     0
 74
     5
  7

 75
    16
147
1.0
148
0.0
149
0.0
100
AcDbLayout
  1
Layout1
 70
     1
 71
     1
 10
0.0
 20
0.0
 11
12.0
 21
9.0
 12
0.0
 22
0.0
 32
0.0
 14
1.000000000000000E+20
 24
1.000000000000000E+20
 34
1.000000000000000E+20
 15
-1.000000000000000E+20
 25
-1.000000000000000E+20
 35
-1.000000000000000E+20
146
0.0
 13
0.0
 23
0.0
 33
0.0
 16
1.0
 26
0.0
 36
0.0
 17
0.0
 27
1.0
 37
0.0
 76
     0
330
1B
  0
LAYOUT
  5
26
102
{ACAD_REACTORS
330
1A
102
}
330
1A
100
AcDbPlotSettings
  1

  2
none_device
  4

  6

 40
0.0
 41
0.0
 42
0.0
 43
0.0
 44
0.0
 45
0.0
 46
0.0
 47
0.0
 48
0.0
 49
0.0
140
0.0
141
0.0
142
1.0
143
1.0
 70
   688
 72
     0
 73
     0
 74
     5
  7

 75
    16
147
1.0
148
0.0
149
0.0
100
AcDbLayout
  1
Layout2
 70
     1
 71
     2
 10
0.0
 20
0.0
 11
0.0
 21
0.0
 12
0.0
 22
0.0
 32
0.0
 14
0.0
 24
0.0
 34
0.0
 15
0.0
 25
0.0
 35
0.0
146
0.0
 13
0.0
 23
0.0
 33
0.0
 16
1.0
 26
0.0
 36
0.0
 17
0.0
 27
1.0
 37
0.0
 76
     0
330
23
  0
LAYOUT
  5
22
102
{ACAD_REACTORS
330
1A
102
}
330
1A
100
AcDbPlotSettings
  1

  2
none_device
  4

  6

 40
0.0
 41
0.0
 42
0.0
 43
0.0
 44
0.0
 45
0.0
 46
0.0
 47
0.0
 48
0.0
 49
0.0
140
0.0
141
0.0
142
1.0
143
1.0
 70
  1712
 72
     0
 73
     0
 74
     0
  7

 75
     0
147
1.0
148
0.0
149
0.0
100
AcDbLayout
  1
Model
 70
     1
 71
     0
 10
0.0
 20
0.0
 11
12.0
 21
9.0
 12
0.0
 22
0.0
 32
0.0
 14
1.000000000000000E+20
 24
1.000000000000000E+20
 34
1.000000000000000E+20
 15
-1.000000000000000E+20
 25
-1.000000000000000E+20
 35
-1.000000000000000E+20
146
0.0
 13
0.0
 23
0.0
 33
0.0
 16
1.0
 26
0.0
 36
0.0
 17
0.0
 27
1.0
 37
0.0
 76
     0
330
1F
331
29
  0
MLINESTYLE
  5
18
102
{ACAD_REACTORS
330
17
102
}
330
17
100
AcDbMlineStyle
  2
Standard
 70
     0
  3

 62
   256
 51
90.0
 52
90.0
 71
     2
 49
0.5
 62
   256
  6
BYLAYER
 49
-0.5
 62
   256
  6
BYLAYER
  0
ACDBPLACEHOLDER
  5
F
102
{ACAD_REACTORS
330
E
102
}
330
E
  0
VISUALSTYLE
  5
2F
102
{ACAD_REACTORS
330
2A
102
}
330
2A
100
AcDbVisualStyle
  2
2dWireframe
 70
     4
 71
     0
 72
     2
 73
     0
 90
        0
 40
-0.6
 41
-30.0
 62
     5
 63
     7
 74
     1
 91
        4
 64
     7
 65
   257
 75
     1
175
     1
 42
1.0
 92
        0
 66
   257
 43
1.0
 76
     1
 77
     6
 78
     2
 67
     7
 79
     5
170
     0
171
     0
290
     0
174
     0
 93
        1
 44
0.0
173
     0
291
     0
 45
0.0
1001
ACAD
1000
AcDbSavedByObjectVersion
1070
     0
  0
VISUALSTYLE
  5
31
102
{ACAD_REACTORS
330
2A
102
}
330
2A
100
AcDbVisualStyle
  2
3D Hidden
 70
     6
 71
     1
 72
     2
 73
     2
 90
        0
 40
-0.6
 41
-30.0
 62
     5
 63
     7
 74
     2
 91
        2
 64
     7
 65
   257
 75
     2
175
     1
 42
40.0
 92
        0
 66
   257
 43
1.0
 76
     1
 77
     6
 78
     2
 67
     7
 79
     3
170
     0
171
     0
290
     0
174
     0
 93
        1
 44
0.0
173
     0
291
     0
 45
0.0
1001
ACAD
1000
AcDbSavedByObjectVersion
1070
     0
  0
VISUALSTYLE
  5
30
102
{ACAD_REACTORS
330
2A
102
}
330
2A
100
AcDbVisualStyle
  2
3dWireframe
 70
     5
 71
     0
 72
     2
 73
     0
 90
        0
 40
-0.6
 41
-30.0
 62
     5
 63
     7
 74
     1
 91
        4
 64
     7
 65
   257
 75
     1
175
     1
 42
1.0
 92
        0
 66
   257
 43
1.0
 76
     1
 77
     6
 78
     2
 67
     7
 79
     5
170
     0
171
     0
290
     0
174
     0
 93
        1
 44
0.0
173
     0
291
     0
 45
0.0
1001
ACAD
1000
AcDbSavedByObjectVersion
1070
     0
  0
VISUALSTYLE
  5
32
102
{ACAD_REACTORS
330
2A
102
}
330
2A
100
AcDbVisualStyle
  2
Basic
 70
     7
 71
     1
 72
     0
 73
     1
 90
        0
 40
-0.6
 41
-30.0
 62
     5
 63
     7
 74
     0
 91
        4
 64
     7
 65
   257
 75
     1
175
     1
 42
1.0
 92
        8
 66
     7
 43
1.0
 76
     1
 77
     6
 78
     2
 67
     7
 79
     5
170
     0
171
     0
290
     0
174
     0
 93
        1
 44
0.0
173
     0
291
     1
 45
0.0
1001
ACAD
1000
AcDbSavedByObjectVersion
1070
     0
  0
VISUALSTYLE
  5
36
102
{ACAD_REACTORS
330
2A
102
}
330
2A
100
AcDbVisualStyle
  2
Brighten
 70
    12
 71
     2
 72
     2
 73
     0
 90
        0
 40
-0.6
 41
-30.0
 62
     5
 63
     7
 74
     1
 91
        4
 64
     7
 65
   257
 75
     1
175
     1
 42
1.0
 92
        8
 66
     7
 43
1.0
 76
     1
 77
     6
 78
     2
 67
     7
 79
     5
170
     0
171
     0
290
     0
174
     0
 93
        1
 44
50.0
173
     0
291
     1
 45
0.0
1001
ACAD
1000
AcDbSavedByObjectVersion
1070
     0
  0
VISUALSTYLE
  5
3A
102
{ACAD_REACTORS
330
2A
102
}
330
2A
100
AcDbVisualStyle
  2
ColorChange
 70
    16
 71
     2
 72
     2
 73
     3
 90
        0
 40
-0.6
 41
-30.0
 62
     5
 63
     8
 74
     1
 91
        4
 64
     7
 65
   257
 75
     1
175
     1
 42
1.0
 92
        8
 66
     8
 43
1.0
 76
     1
 77
     6
 78
     2
 67
     7
 79
     5
170
     0
171
     0
290
     0
174
     0
 93
        1
 44
0.0
173
     0
291
     1
 45
0.0
1001
ACAD
1000
AcDbSavedByObjectVersion
1070
     0
  0
VISUALSTYLE
  5
34
102
{ACAD_REACTORS
330
2A
102
}
330
2A
100
AcDbVisualStyle
  2
Conceptual
 70
     9
 71
     3
 72
     2
 73
     0
 90
        0
 40
-0.6
 41
-30.0
 62
     5
 63
     7
 74
     2
 91
        2
 64
     7
 65
   257
 75
     1
175
     1
 42
40.0
 92
        8
 66
     7
 43
1.0
 76
     1
 77
     6
 78
     2
 67
     7
 79
     3
170
     0
171
     0
290
     0
174
     0
 93
        1
 44
0.0
173
     0
291
     0
 45
0.0
1001
ACAD
1000
AcDbSavedByObjectVersion
1070
     0
  0
VISUALSTYLE
  5
35
102
{ACAD_REACTORS
330
2A
102
}
330
2A
100
AcDbVisualStyle
  2
Dim
 70
    11
 71
     2
 72
     2
 73
     0
 90
        0
 40
-0.6
 41
-30.0
 62
     5
 63
     7
 74
     1
 91
        4
 64
     7
 65
   257
 75
     1
175
     1
 42
1.0
 92
        8
 66
     7
 43
1.0
 76
     1
 77
     6
 78
     2
 67
     7
 79
     5
170
     0
171
     0
290
     0
174
     0
 93
        1
 44
-50.0
173
     0
291
     1
 45
0.0
1001
ACAD
1000
AcDbSavedByObjectVersion
1070
     0
  0
VISUALSTYLE
  5
39
102
{ACAD_REACTORS
330
2A
102
}
330
2A
100
AcDbVisualStyle
  2
Facepattern
 70
    15
 71
     2
 72
     2
 73
     0
 90
        0
 40
-0.6
 41
-30.0
 62
     5
 63
     7
 74
     1
 91
        4
 64
     7
 65
   257
 75
     1
175
     1
 42
1.0
 92
        8
 66
     7
 43
1.0
 76
     1
 77
     6
 78
     2
 67
     7
 79
     5
170
     0
171
     0
290
     0
174
     0
 93
        1
 44
0.0
173
     0
291
     1
 45
0.0
1001
ACAD
1000
AcDbSavedByObjectVersion
1070
     0
  0
VISUALSTYLE
  5
2B
102
{ACAD_REACTORS
330
2A
102
}
330
2A
100
AcDbVisualStyle
  2
Flat
 70
     0
 71
     2
 72
     1
 73
     1
 90
        2
 40
-0.6
 41
30.0
 62
     5
 63
     7
 74
     0
 91
        4
 64
     7
 65
   257
 75
     1
175
     1
 42
1.0
 92
        8
 66
     7
 43
1.0
 76
     1
 77
     6
 78
     2
 67
     7
 79
     5
170
     0
171
     0
290
     0
174
     0
 93
       13
 44
0.0
173
     0
291
     1
 45
0.0
1001
ACAD
1000
AcDbSavedByObjectVersion
1070
     0
  0
VISUALSTYLE
  5
2C
102
{ACAD_REACTORS
330
2A
102
}
330
2A
100
AcDbVisualStyle
  2
FlatWithEdges
 70
     1
 71
     2
 72
     1
 73
     1
 90
        2
 40
-0.6
 41
30.0
 62
     5
 63
     7
 74
     1
 91
        4
 64
     7
 65
   257
 75
     1
175
     1
 42
1.0
 92
        0
 66
   257
 43
1.0
 76
     1
 77
     6
 78
     2
 67
     7
 79
     5
170
     0
171
     0
290
     0
174
     0
 93
       13
 44
0.0
173
     0
291
     1
 45
0.0
1001
ACAD
1000
AcDbSavedByObjectVersion
1070
     0
  0
VISUALSTYLE
  5
2D
102
{ACAD_REACTORS
330
2A
102
}
330
2A
100
AcDbVisualStyle
  2
Gouraud
 70
     2
 71
     2
 72
     2
 73
     1
 90
        2
 40
-0.6
 41
30.0
 62
     5
 63
     7
 74
     0
 91
        4
 64
     7
 65
   257
 75
     1
175
     1
 42
1.0
 92
        0
 66
     7
 43
1.0
 76
     1
 77
     6
 78
     2
 67
     7
 79
     5
170
     0
171
     0
290
     0
174
     0
 93
       13
 44
0.0
173
     0
291
     1
 45
0.0
1001
ACAD
1000
AcDbSavedByObjectVersion
1070
     0
  0
VISUALSTYLE
  5
2E
102
{ACAD_REACTORS
330
2A
102
}
330
2A
100
AcDbVisualStyle
  2
GouraudWithEdges
 70
     3
 71
     2
 72
     2
 73
     1
 90
        2
 40
-0.6
 41
30.0
 62
     5
 63
     7
 74
     1
 91
        4
 64
     7
 65
   257
 75
     1
175
     1
 42
1.0
 92
        0
 66
   257
 43
1.0
 76
     1
 77
     6
 78
     2
 67
     7
 79
     5
170
     0
171
     0
290
     0
174
     0
 93
       13
 44
0.0
173
     0
291
     1
 45
0.0
1001
ACAD
1000
AcDbSavedByObjectVersion
1070
     0
  0
VISUALSTYLE
  5
38
102
{ACAD_REACTORS
330
2A
102
}
330
2A
100
AcDbVisualStyle
  2
Linepattern
 70
    14
 71
     2
 72
     2
 73
     0
 90
        0
 40
-0.6
 41
-30.0
 62
     5
 63
     7
 74
     1
 91
        4
 64
     7
 65
   257
 75
     7
175
     7
 42
1.0
 92
        8
 66
     7
 43
1.0
 76
     1
 77
     6
 78
     2
 67
     7
 79
     5
170
     0
171
     0
290
     0
174
     0
 93
        1
 44
0.0
173
     0
291
     1
 45
0.0
1001
ACAD
1000
AcDbSavedByObjectVersion
1070
     0
  0
VISUALSTYLE
  5
33
102
{ACAD_REACTORS
330
2A
102
}
330
2A
100
AcDbVisualStyle
  2
Realistic
 70
     8
 71
     2
 72
     2
 73
     0
 90
        0
 40
-0.6
 41
-30.0
 62
     5
 63
     7
 74
     1
 91
        0
 64
     7
 65
   257
 75
     1
175
     1
 42
1.0
 92
        8
 66
     8
 43
1.0
 76
     1
 77
     6
 78
     2
 67
     7
 79
     5
170
     0
171
     0
290
     0
174
     0
 93
       13
 44
0.0
173
     0
291
     0
 45
0.0
1001
ACAD
1000
AcDbSavedByObjectVersion
1070
     0
  0
VISUALSTYLE
  5
37
102
{ACAD_REACTORS
330
2A
102
}
330
2A
100
AcDbVisualStyle
  2
Thicken
 70
    13
 71
     2
 72
     2
 73
     0
 90
        0
 40
-0.6
 41
-30.0
 62
     5
 63
     7
 74
     1
 91
        4
 64
     7
 65
   257
 75
     1
175
     1
 42
1.0
 92
       12
 66
     7
 43
1.0
 76
     1
 77
     6
 78
     2
 67
     7
 79
     5
170
     0
171
     0
290
     0
174
     0
 93
        1
 44
0.0
173
     0
291
     1
 45
0.0
1001
ACAD
1000
AcDbSavedByObjectVersion
1070
     0
  0
ENDSEC
  0
EOF
