  0
SECTION
  2
HEADER
  9
$ACADVER
  1
AC1012
  9
$DWGCODEPAGE
  3
ansi_932
  9
$INSBASE
 10
0.0
 20
0.0
 30
0.0
  9
$EXTMIN
 10
1.000000000000000E+20
 20
1.000000000000000E+20
 30
1.000000000000000E+20
  9
$EXTMAX
 10
-1.000000000000000E+20
 20
-1.000000000000000E+20
 30
-1.000000000000000E+20
  9
$LIMMIN
 10
0.0
 20
0.0
  9
$LIMMAX
 10
12.0
 20
9.0
  9
$ORTHOMODE
 70
     0
  9
$REGENMODE
 70
     1
  9
$FILLMODE
 70
     1
  9
$QTEXTMODE
 70
     0
  9
$MIRRTEXT
 70
     1
  9
$DRAGMODE
 70
     2
  9
$LTSCALE
 40
1.0
  9
$OSMODE
 70
    37
  9
$ATTMODE
 70
     1
  9
$TEXTSIZE
 40
0.2
  9
$TRACEWID
 40
0.05
  9
$TEXTSTYLE
  7
STANDARD
  9
$CLAYER
  8
0
  9
$CELTYPE
  6
BYLAYER
  9
$CECOLOR
 62
   256
  9
$CELTSCALE
 40
1.0
  9
$DELOBJ
 70
     1
  9
$DISPSILH
 70
     0
  9
$DIMSCALE
 40
1.0
  9
$DIMASZ
 40
0.18
  9
$DIMEXO
 40
0.0625
  9
$DIMDLI
 40
0.38
  9
$DIMRND
 40
0.0
  9
$DIMDLE
 40
0.0
  9
$DIMEXE
 40
0.18
  9
$DIMTP
 40
0.0
  9
$DIMTM
 40
0.0
  9
$DIMTXT
 40
0.18
  9
$DIMCEN
 40
0.09
  9
$DIMTSZ
 40
0.0
  9
$DIMTOL
 70
     0
  9
$DIMLIM
 70
     0
  9
$DIMTIH
 70
     1
  9
$DIMTOH
 70
     1
  9
$DIMSE1
 70
     0
  9
$DIMSE2
 70
     0
  9
$DIMTAD
 70
     0
  9
$DIMZIN
 70
     0
  9
$DIMBLK
  1

  9
$DIMASO
 70
     1
  9
$DIMSHO
 70
     1
  9
$DIMPOST
  1

  9
$DIMAPOST
  1

  9
$DIMALT
 70
     0
  9
$DIMALTD
 70
     2
  9
$DIMALTF
 40
25.4
  9
$DIMLFAC
 40
1.0
  9
$DIMTOFL
 70
     0
  9
$DIMTVP
 40
0.0
  9
$DIMTIX
 70
     0
  9
$DIMSOXD
 70
     0
  9
$DIMSAH
 70
     0
  9
$DIMBLK1
  1

  9
$DIMBLK2
  1

  9
$DIMSTYLE
  2
STANDARD
  9
$DIMCLRD
 70
     0
  9
$DIMCLRE
 70
     0
  9
$DIMCLRT
 70
     0
  9
$DIMTFAC
 40
1.0
  9
$DIMGAP
 40
0.09
  9
$DIMJUST
 70
     0
  9
$DIMSD1
 70
     0
  9
$DIMSD2
 70
     0
  9
$DIMTOLJ
 70
     1
  9
$DIMTZIN
 70
     0
  9
$DIMALTZ
 70
     0
  9
$DIMALTTZ
 70
     0
  9
$DIMFIT
 70
     3
  9
$DIMUPT
 70
     0
  9
$DIMUNIT
 70
     2
  9
$DIMDEC
 70
     4
  9
$DIMTDEC
 70
     4
  9
$DIMALTU
 70
     2
  9
$DIMALTTD
 70
     2
  9
$DIMTXSTY
  7
STANDARD
  9
$DIMAUNIT
 70
     0
  9
$LUNITS
 70
     2
  9
$LUPREC
 70
     4
  9
$SKETCHINC
 40
0.1
  9
$FILLETRAD
 40
0.5
  9
$AUNITS
 70
     0
  9
$AUPREC
 70
     0
  9
$MENU
  1
.
  9
$ELEVATION
 40
0.0
  9
$PELEVATION
 40
0.0
  9
$THICKNESS
 40
0.0
  9
$LIMCHECK
 70
     0
  9
$CHAMFERA
 40
0.5
  9
$CHAMFERB
 40
0.5
  9
$CHAMFERC
 40
1.0
  9
$CHAMFERD
 40
0.0
  9
$SKPOLY
 70
     0
  9
$TDCREATE
 40
2456639.621780104
  9
$TDUPDATE
 40
2456639.621780116
  9
$TDINDWG
 40
0.0000000116
  9
$TDUSRTIMER
 40
0.0000000116
  9
$USRTIMER
 70
     1
  9
$ANGBASE
 50
0.0
  9
$ANGDIR
 70
     0
  9
$PDMODE
 70
     0
  9
$PDSIZE
 40
0.0
  9
$PLINEWID
 40
0.0
  9
$COORDS
 70
     1
  9
$SPLFRAME
 70
     0
  9
$SPLINETYPE
 70
     6
  9
$SPLINESEGS
 70
     8
  9
$ATTDIA
 70
     0
  9
$ATTREQ
 70
     1
  9
$HANDLING
 70
     1
  9
$HANDSEED
  5
526
  9
$SURFTAB1
 70
     6
  9
$SURFTAB2
 70
     6
  9
$SURFTYPE
 70
     6
  9
$SURFU
 70
     6
  9
$SURFV
 70
     6
  9
$UCSNAME
  2

  9
$UCSORG
 10
0.0
 20
0.0
 30
0.0
  9
$UCSXDIR
 10
1.0
 20
0.0
 30
0.0
  9
$UCSYDIR
 10
0.0
 20
1.0
 30
0.0
  9
$PUCSNAME
  2

  9
$PUCSORG
 10
0.0
 20
0.0
 30
0.0
  9
$PUCSXDIR
 10
1.0
 20
0.0
 30
0.0
  9
$PUCSYDIR
 10
0.0
 20
1.0
 30
0.0
  9
$USERI1
 70
     0
  9
$USERI2
 70
     0
  9
$USERI3
 70
     0
  9
$USERI4
 70
     0
  9
$USERI5
 70
     0
  9
$USERR1
 40
0.0
  9
$USERR2
 40
0.0
  9
$USERR3
 40
0.0
  9
$USERR4
 40
0.0
  9
$USERR5
 40
0.0
  9
$WORLDVIEW
 70
     1
  9
$SHADEDGE
 70
     3
  9
$SHADEDIF
 70
    70
  9
$TILEMODE
 70
     1
  9
$MAXACTVP
 70
    64
  9
$PINSBASE
 10
0.0
 20
0.0
 30
0.0
  9
$PLIMCHECK
 70
     0
  9
$PEXTMIN
 10
1.000000000000000E+20
 20
1.000000000000000E+20
 30
1.000000000000000E+20
  9
$PEXTMAX
 10
-1.000000000000000E+20
 20
-1.000000000000000E+20
 30
-1.000000000000000E+20
  9
$PLIMMIN
 10
0.0
 20
0.0
  9
$PLIMMAX
 10
12.0
 20
9.0
  9
$UNITMODE
 70
     0
  9
$VISRETAIN
 70
     1
  9
$PLINEGEN
 70
     0
  9
$PSLTSCALE
 70
     1
  9
$TREEDEPTH
 70
  3020
  9
$PICKSTYLE
 70
     1
  9
$CMLSTYLE
  2
STANDARD
  9
$CMLJUST
 70
     0
  9
$CMLSCALE
 40
1.0
  9
$SAVEIMAGES
 70
     1
  0
ENDSEC
  0
SECTION
  2
CLASSES
  0
CLASS
  1
ACDBDICTIONARYWDFLT
  2
AcDbDictionaryWithDefault
  3
ObjectDBX Classes
 90
    32768
280
     0
281
     0
  0
CLASS
  1
VISUALSTYLE
  2
AcDbVisualStyle
  3
ObjectDBX Classes
 90
     4095
280
     0
281
     0
  0
CLASS
  1
XRECORD
  2
AcDbXrecord
  3
AutoCAD 2000
 90
    32768
280
     0
281
     0
  0
CLASS
  1
LWPOLYLINE
  2
AcDbPolyline
  3
AutoCAD 2000
 90
    32768
280
     0
281
     1
  0
CLASS
  1
HATCH
  2
AcDbHatch
  3
AutoCAD 2000
 90
    32768
280
     0
281
     1
  0
CLASS
  1
ACDBPLACEHOLDER
  2
AcDbPlaceHolder
  3
ObjectDBX Classes
 90
        0
280
     0
281
     0
  0
CLASS
  1
LAYOUT
  2
AcDbLayout
  3
ObjectDBX Classes
 90
        0
280
     0
281
     0
  0
ENDSEC
  0
SECTION
  2
TABLES
  0
TABLE
  2
VPORT
  5
8
330
0
100
AcDbSymbolTable
 70
     1
  0
VPORT
  5
29
330
8
100
AcDbSymbolTableRecord
100
AcDbViewportTableRecord
  2
*ACTIVE
 70
     0
 10
0.0
 20
0.0
 11
1.0
 21
1.0
 12
0.0
 22
0.0
 13
0.0
 23
0.0
 14
0.5
 24
0.5
 15
0.5
 25
0.5
 16
0.0
 26
0.0
 36
1.0
 17
105.0008259828644
 27
148.4999796178229
 37
0.0
 40
210.0016519657287
 41
1.414274394775308
 42
50.0
 43
0.0
 44
0.0
 50
0.0
 51
0.0
 71
     0
 72
   100
 73
     1
 74
     3
 75
     0
 76
     0
 77
     0
 78
     0
  0
ENDTAB
  0
TABLE
  2
LTYPE
  5
5
330
0
100
AcDbSymbolTable
 70
     1
  0
LTYPE
  5
14
330
5
100
AcDbSymbolTableRecord
100
AcDbLinetypeTableRecord
  2
BYBLOCK
 70
     0
  3

 72
    65
 73
     0
 40
0.0
  0
LTYPE
  5
15
330
5
100
AcDbSymbolTableRecord
100
AcDbLinetypeTableRecord
  2
BYLAYER
 70
     0
  3

 72
    65
 73
     0
 40
0.0
  0
LTYPE
  5
16
330
5
100
AcDbSymbolTableRecord
100
AcDbLinetypeTableRecord
  2
CONTINUOUS
 70
     0
  3
Solid line
 72
    65
 73
     0
 40
0.0
  0
ENDTAB
  0
TABLE
  2
LAYER
  5
2
330
0
100
AcDbSymbolTable
 70
     3
  0
LAYER
  5
10
330
2
100
AcDbSymbolTableRecord
100
AcDbLayerTableRecord
  2
0
 70
     0
 62
     7
  6
CONTINUOUS
  0
LAYER
  5
3B
330
2
100
AcDbSymbolTableRecord
100
AcDbLayerTableRecord
  2
遽顧
 70
     0
 62
     7
  6
CONTINUOUS
  0
LAYER
  5
3C
330
2
100
AcDbSymbolTableRecord
100
AcDbLayerTableRecord
  2
\U+838C\U+8343\U+8384\U+815B_4
 70
     0
 62
     7
  6
CONTINUOUS
  0
ENDTAB
  0
TABLE
  2
STYLE
  5
3
330
0
100
AcDbSymbolTable
 70
     1
  0
STYLE
  5
11
330
3
100
AcDbSymbolTableRecord
100
AcDbTextStyleTableRecord
  2
STANDARD
 70
     0
 40
0.0
 41
1.0
 50
0.0
 71
     0
 42
0.2
  3
txt
  4

  0
ENDTAB
  0
TABLE
  2
VIEW
  5
6
330
0
100
AcDbSymbolTable
 70
     0
  0
ENDTAB
  0
TABLE
  2
UCS
  5
7
330
0
100
AcDbSymbolTable
 70
     0
  0
ENDTAB
  0
TABLE
  2
APPID
  5
9
330
0
100
AcDbSymbolTable
 70
     1
  0
APPID
  5
12
330
9
100
AcDbSymbolTableRecord
100
AcDbRegAppTableRecord
  2
ACAD
 70
     0
  0
ENDTAB
  0
TABLE
  2
DIMSTYLE
  5
A
330
0
100
AcDbSymbolTable
 70
     1
  0
DIMSTYLE
105
27
330
A
100
AcDbSymbolTableRecord
100
AcDbDimStyleTableRecord
  2
STANDARD
 70
     0
  3

  4

  5

  6

  7

 40
1.0
 41
0.18
 42
0.0625
 43
0.38
 44
0.18
 45
0.0
 46
0.0
 47
0.0
 48
0.0
140
0.18
141
0.09
142
0.0
143
25.4
144
1.0
145
0.0
146
1.0
147
0.09
 71
     0
 72
     0
 73
     1
 74
     1
 75
     0
 76
     0
 77
     0
 78
     0
170
     0
171
     2
172
     0
173
     0
174
     0
175
     0
176
     0
177
     0
178
     0
270
     2
271
     4
272
     4
273
     2
274
     2
340
11
275
     0
280
     0
281
     0
282
     0
283
     1
284
     0
285
     0
286
     0
287
     3
288
     0
  0
ENDTAB
  0
TABLE
  2
BLOCK_RECORD
  5
1
330
0
100
AcDbSymbolTable
 70
    89
  0
BLOCK_RECORD
  5
1F
330
1
100
AcDbSymbolTableRecord
100
AcDbBlockTableRecord
  2
*MODEL_SPACE
  0
BLOCK_RECORD
  5
1B
330
1
100
AcDbSymbolTableRecord
100
AcDbBlockTableRecord
  2
*PAPER_SPACE
  0
BLOCK_RECORD
  5
3D
330
1
100
AcDbSymbolTableRecord
100
AcDbBlockTableRecord
  2
BLOCK_2
  0
BLOCK_RECORD
  5
41
330
1
100
AcDbSymbolTableRecord
100
AcDbBlockTableRecord
  2
BLOCK_3
  0
BLOCK_RECORD
  5
49
330
1
100
AcDbSymbolTableRecord
100
AcDbBlockTableRecord
  2
BLOCK_4
  0
BLOCK_RECORD
  5
51
330
1
100
AcDbSymbolTableRecord
100
AcDbBlockTableRecord
  2
BLOCK_5
  0
BLOCK_RECORD
  5
59
330
1
100
AcDbSymbolTableRecord
100
AcDbBlockTableRecord
  2
BLOCK_6
  0
BLOCK_RECORD
  5
61
330
1
100
AcDbSymbolTableRecord
100
AcDbBlockTableRecord
  2
BLOCK_7
  0
BLOCK_RECORD
  5
69
330
1
100
AcDbSymbolTableRecord
100
AcDbBlockTableRecord
  2
BLOCK_8
  0
BLOCK_RECORD
  5
71
330
1
100
AcDbSymbolTableRecord
100
AcDbBlockTableRecord
  2
BLOCK_9
  0
BLOCK_RECORD
  5
79
330
1
100
AcDbSymbolTableRecord
100
AcDbBlockTableRecord
  2
BLOCK_10
  0
BLOCK_RECORD
  5
81
330
1
100
AcDbSymbolTableRecord
100
AcDbBlockTableRecord
  2
BLOCK_11
  0
BLOCK_RECORD
  5
89
330
1
100
AcDbSymbolTableRecord
100
AcDbBlockTableRecord
  2
BLOCK_12
  0
BLOCK_RECORD
  5
91
330
1
100
AcDbSymbolTableRecord
100
AcDbBlockTableRecord
  2
BLOCK_13
  0
BLOCK_RECORD
  5
99
330
1
100
AcDbSymbolTableRecord
100
AcDbBlockTableRecord
  2
BLOCK_14
  0
BLOCK_RECORD
  5
A1
330
1
100
AcDbSymbolTableRecord
100
AcDbBlockTableRecord
  2
BLOCK_15
  0
BLOCK_RECORD
  5
AA
330
1
100
AcDbSymbolTableRecord
100
AcDbBlockTableRecord
  2
BLOCK_16
  0
BLOCK_RECORD
  5
B8
330
1
100
AcDbSymbolTableRecord
100
AcDbBlockTableRecord
  2
BLOCK_17
  0
BLOCK_RECORD
  5
BD
330
1
100
AcDbSymbolTableRecord
100
AcDbBlockTableRecord
  2
BLOCK_18
  0
BLOCK_RECORD
  5
CB
330
1
100
AcDbSymbolTableRecord
100
AcDbBlockTableRecord
  2
BLOCK_19
  0
BLOCK_RECORD
  5
D3
330
1
100
AcDbSymbolTableRecord
100
AcDbBlockTableRecord
  2
BLOCK_20
  0
BLOCK_RECORD
  5
DB
330
1
100
AcDbSymbolTableRecord
100
AcDbBlockTableRecord
  2
BLOCK_21
  0
BLOCK_RECORD
  5
EC
330
1
100
AcDbSymbolTableRecord
100
AcDbBlockTableRecord
  2
BLOCK_22
  0
BLOCK_RECORD
  5
F4
330
1
100
AcDbSymbolTableRecord
100
AcDbBlockTableRecord
  2
BLOCK_23
  0
BLOCK_RECORD
  5
FC
330
1
100
AcDbSymbolTableRecord
100
AcDbBlockTableRecord
  2
BLOCK_24
  0
BLOCK_RECORD
  5
104
330
1
100
AcDbSymbolTableRecord
100
AcDbBlockTableRecord
  2
BLOCK_25
  0
BLOCK_RECORD
  5
10C
330
1
100
AcDbSymbolTableRecord
100
AcDbBlockTableRecord
  2
BLOCK_26
  0
BLOCK_RECORD
  5
114
330
1
100
AcDbSymbolTableRecord
100
AcDbBlockTableRecord
  2
BLOCK_27
  0
BLOCK_RECORD
  5
11C
330
1
100
AcDbSymbolTableRecord
100
AcDbBlockTableRecord
  2
BLOCK_28
  0
BLOCK_RECORD
  5
124
330
1
100
AcDbSymbolTableRecord
100
AcDbBlockTableRecord
  2
BLOCK_29
  0
BLOCK_RECORD
  5
12C
330
1
100
AcDbSymbolTableRecord
100
AcDbBlockTableRecord
  2
BLOCK_30
  0
BLOCK_RECORD
  5
134
330
1
100
AcDbSymbolTableRecord
100
AcDbBlockTableRecord
  2
BLOCK_31
  0
BLOCK_RECORD
  5
13C
330
1
100
AcDbSymbolTableRecord
100
AcDbBlockTableRecord
  2
BLOCK_32
  0
BLOCK_RECORD
  5
155
330
1
100
AcDbSymbolTableRecord
100
AcDbBlockTableRecord
  2
BLOCK_33
  0
BLOCK_RECORD
  5
172
330
1
100
AcDbSymbolTableRecord
100
AcDbBlockTableRecord
  2
BLOCK_34
  0
BLOCK_RECORD
  5
18F
330
1
100
AcDbSymbolTableRecord
100
AcDbBlockTableRecord
  2
BLOCK_35
  0
BLOCK_RECORD
  5
1A8
330
1
100
AcDbSymbolTableRecord
100
AcDbBlockTableRecord
  2
BLOCK_36
  0
BLOCK_RECORD
  5
1B6
330
1
100
AcDbSymbolTableRecord
100
AcDbBlockTableRecord
  2
BLOCK_37
  0
BLOCK_RECORD
  5
1D5
330
1
100
AcDbSymbolTableRecord
100
AcDbBlockTableRecord
  2
BLOCK_38
  0
BLOCK_RECORD
  5
1F2
330
1
100
AcDbSymbolTableRecord
100
AcDbBlockTableRecord
  2
BLOCK_39
  0
BLOCK_RECORD
  5
1F7
330
1
100
AcDbSymbolTableRecord
100
AcDbBlockTableRecord
  2
BLOCK_40
  0
BLOCK_RECORD
  5
204
330
1
100
AcDbSymbolTableRecord
100
AcDbBlockTableRecord
  2
BLOCK_41
  0
BLOCK_RECORD
  5
21B
330
1
100
AcDbSymbolTableRecord
100
AcDbBlockTableRecord
  2
BLOCK_42
  0
BLOCK_RECORD
  5
220
330
1
100
AcDbSymbolTableRecord
100
AcDbBlockTableRecord
  2
BLOCK_43
  0
BLOCK_RECORD
  5
225
330
1
100
AcDbSymbolTableRecord
100
AcDbBlockTableRecord
  2
BLOCK_44
  0
BLOCK_RECORD
  5
242
330
1
100
AcDbSymbolTableRecord
100
AcDbBlockTableRecord
  2
BLOCK_45
  0
BLOCK_RECORD
  5
259
330
1
100
AcDbSymbolTableRecord
100
AcDbBlockTableRecord
  2
BLOCK_46
  0
BLOCK_RECORD
  5
266
330
1
100
AcDbSymbolTableRecord
100
AcDbBlockTableRecord
  2
BLOCK_47
  0
BLOCK_RECORD
  5
283
330
1
100
AcDbSymbolTableRecord
100
AcDbBlockTableRecord
  2
BLOCK_48
  0
BLOCK_RECORD
  5
290
330
1
100
AcDbSymbolTableRecord
100
AcDbBlockTableRecord
  2
BLOCK_49
  0
BLOCK_RECORD
  5
2A7
330
1
100
AcDbSymbolTableRecord
100
AcDbBlockTableRecord
  2
BLOCK_50
  0
BLOCK_RECORD
  5
2AC
330
1
100
AcDbSymbolTableRecord
100
AcDbBlockTableRecord
  2
BLOCK_51
  0
BLOCK_RECORD
  5
2C3
330
1
100
AcDbSymbolTableRecord
100
AcDbBlockTableRecord
  2
BLOCK_52
  0
BLOCK_RECORD
  5
2D2
330
1
100
AcDbSymbolTableRecord
100
AcDbBlockTableRecord
  2
BLOCK_53
  0
BLOCK_RECORD
  5
2E7
330
1
100
AcDbSymbolTableRecord
100
AcDbBlockTableRecord
  2
BLOCK_54
  0
BLOCK_RECORD
  5
2FE
330
1
100
AcDbSymbolTableRecord
100
AcDbBlockTableRecord
  2
BLOCK_55
  0
BLOCK_RECORD
  5
307
330
1
100
AcDbSymbolTableRecord
100
AcDbBlockTableRecord
  2
BLOCK_56
  0
BLOCK_RECORD
  5
314
330
1
100
AcDbSymbolTableRecord
100
AcDbBlockTableRecord
  2
BLOCK_57
  0
BLOCK_RECORD
  5
320
330
1
100
AcDbSymbolTableRecord
100
AcDbBlockTableRecord
  2
BLOCK_58
  0
BLOCK_RECORD
  5
330
330
1
100
AcDbSymbolTableRecord
100
AcDbBlockTableRecord
  2
BLOCK_59
  0
BLOCK_RECORD
  5
35D
330
1
100
AcDbSymbolTableRecord
100
AcDbBlockTableRecord
  2
BLOCK_60
  0
BLOCK_RECORD
  5
362
330
1
100
AcDbSymbolTableRecord
100
AcDbBlockTableRecord
  2
BLOCK_61
  0
BLOCK_RECORD
  5
36A
330
1
100
AcDbSymbolTableRecord
100
AcDbBlockTableRecord
  2
BLOCK_62
  0
BLOCK_RECORD
  5
391
330
1
100
AcDbSymbolTableRecord
100
AcDbBlockTableRecord
  2
BLOCK_63
  0
BLOCK_RECORD
  5
39E
330
1
100
AcDbSymbolTableRecord
100
AcDbBlockTableRecord
  2
BLOCK_64
  0
BLOCK_RECORD
  5
3B5
330
1
100
AcDbSymbolTableRecord
100
AcDbBlockTableRecord
  2
BLOCK_65
  0
BLOCK_RECORD
  5
3C5
330
1
100
AcDbSymbolTableRecord
100
AcDbBlockTableRecord
  2
BLOCK_66
  0
BLOCK_RECORD
  5
3D1
330
1
100
AcDbSymbolTableRecord
100
AcDbBlockTableRecord
  2
BLOCK_67
  0
BLOCK_RECORD
  5
3E9
330
1
100
AcDbSymbolTableRecord
100
AcDbBlockTableRecord
  2
BLOCK_68
  0
BLOCK_RECORD
  5
3FE
330
1
100
AcDbSymbolTableRecord
100
AcDbBlockTableRecord
  2
BLOCK_69
  0
BLOCK_RECORD
  5
40C
330
1
100
AcDbSymbolTableRecord
100
AcDbBlockTableRecord
  2
BLOCK_70
  0
BLOCK_RECORD
  5
424
330
1
100
AcDbSymbolTableRecord
100
AcDbBlockTableRecord
  2
BLOCK_71
  0
BLOCK_RECORD
  5
43C
330
1
100
AcDbSymbolTableRecord
100
AcDbBlockTableRecord
  2
BLOCK_72
  0
BLOCK_RECORD
  5
449
330
1
100
AcDbSymbolTableRecord
100
AcDbBlockTableRecord
  2
BLOCK_73
  0
BLOCK_RECORD
  5
466
330
1
100
AcDbSymbolTableRecord
100
AcDbBlockTableRecord
  2
BLOCK_74
  0
BLOCK_RECORD
  5
46B
330
1
100
AcDbSymbolTableRecord
100
AcDbBlockTableRecord
  2
BLOCK_75
  0
BLOCK_RECORD
  5
470
330
1
100
AcDbSymbolTableRecord
100
AcDbBlockTableRecord
  2
BLOCK_76
  0
BLOCK_RECORD
  5
486
330
1
100
AcDbSymbolTableRecord
100
AcDbBlockTableRecord
  2
BLOCK_77
  0
BLOCK_RECORD
  5
48B
330
1
100
AcDbSymbolTableRecord
100
AcDbBlockTableRecord
  2
BLOCK_78
  0
BLOCK_RECORD
  5
498
330
1
100
AcDbSymbolTableRecord
100
AcDbBlockTableRecord
  2
BLOCK_79
  0
BLOCK_RECORD
  5
4A0
330
1
100
AcDbSymbolTableRecord
100
AcDbBlockTableRecord
  2
BLOCK_80
  0
BLOCK_RECORD
  5
4A8
330
1
100
AcDbSymbolTableRecord
100
AcDbBlockTableRecord
  2
BLOCK_81
  0
BLOCK_RECORD
  5
4B5
330
1
100
AcDbSymbolTableRecord
100
AcDbBlockTableRecord
  2
BLOCK_82
  0
BLOCK_RECORD
  5
4BD
330
1
100
AcDbSymbolTableRecord
100
AcDbBlockTableRecord
  2
BLOCK_83
  0
BLOCK_RECORD
  5
4D4
330
1
100
AcDbSymbolTableRecord
100
AcDbBlockTableRecord
  2
BLOCK_84
  0
BLOCK_RECORD
  5
4DC
330
1
100
AcDbSymbolTableRecord
100
AcDbBlockTableRecord
  2
BLOCK_85
  0
BLOCK_RECORD
  5
4F3
330
1
100
AcDbSymbolTableRecord
100
AcDbBlockTableRecord
  2
BLOCK_86
  0
BLOCK_RECORD
  5
500
330
1
100
AcDbSymbolTableRecord
100
AcDbBlockTableRecord
  2
BLOCK_87
  0
BLOCK_RECORD
  5
50F
330
1
100
AcDbSymbolTableRecord
100
AcDbBlockTableRecord
  2
BLOCK_88
  0
BLOCK_RECORD
  5
51C
330
1
100
AcDbSymbolTableRecord
100
AcDbBlockTableRecord
  2
BLOCK_89
  0
ENDTAB
  0
ENDSEC
  0
SECTION
  2
BLOCKS
  0
BLOCK
  5
20
330
1F
100
AcDbEntity
  8
0
100
AcDbBlockBegin
  2
*MODEL_SPACE
 70
     0
 71
     0
 10
0.0
 20
0.0
 30
0.0
  3
*MODEL_SPACE
  1

  0
ENDBLK
  5
21
330
1F
100
AcDbEntity
  8
0
100
AcDbBlockEnd
  0
BLOCK
  5
1C
330
1B
100
AcDbEntity
 67
     1
  8
0
100
AcDbBlockBegin
  2
*PAPER_SPACE
 70
     0
 71
     0
 10
0.0
 20
0.0
 30
0.0
  3
*PAPER_SPACE
  1

  0
ENDBLK
  5
1D
330
1B
100
AcDbEntity
 67
     1
  8
0
100
AcDbBlockEnd
  0
BLOCK
  5
3F
330
3D
100
AcDbEntity
  8
0
100
AcDbBlockBegin
  2
BLOCK_2
 70
     0
 71
     0
 10
0.0
 20
0.0
 30
0.0
  3
BLOCK_2
  1

  0
INSERT
  5
42
330
3D
100
AcDbEntity
  8
\U+838C\U+8343\U+8384\U+815B_4
100
AcDbBlockReference
  2
BLOCK_3
 10
0.0
 20
0.0
 30
0.0
  0
INSERT
  5
4A
330
3D
100
AcDbEntity
  8
\U+838C\U+8343\U+8384\U+815B_4
100
AcDbBlockReference
  2
BLOCK_4
 10
0.0
 20
0.0
 30
0.0
  0
INSERT
  5
52
330
3D
100
AcDbEntity
  8
\U+838C\U+8343\U+8384\U+815B_4
100
AcDbBlockReference
  2
BLOCK_5
 10
0.0
 20
0.0
 30
0.0
  0
INSERT
  5
5A
330
3D
100
AcDbEntity
  8
\U+838C\U+8343\U+8384\U+815B_4
100
AcDbBlockReference
  2
BLOCK_6
 10
0.0
 20
0.0
 30
0.0
  0
INSERT
  5
62
330
3D
100
AcDbEntity
  8
\U+838C\U+8343\U+8384\U+815B_4
100
AcDbBlockReference
  2
BLOCK_7
 10
0.0
 20
0.0
 30
0.0
  0
INSERT
  5
6A
330
3D
100
AcDbEntity
  8
\U+838C\U+8343\U+8384\U+815B_4
100
AcDbBlockReference
  2
BLOCK_8
 10
0.0
 20
0.0
 30
0.0
  0
INSERT
  5
72
330
3D
100
AcDbEntity
  8
\U+838C\U+8343\U+8384\U+815B_4
100
AcDbBlockReference
  2
BLOCK_9
 10
0.0
 20
0.0
 30
0.0
  0
INSERT
  5
7A
330
3D
100
AcDbEntity
  8
\U+838C\U+8343\U+8384\U+815B_4
100
AcDbBlockReference
  2
BLOCK_10
 10
0.0
 20
0.0
 30
0.0
  0
INSERT
  5
82
330
3D
100
AcDbEntity
  8
\U+838C\U+8343\U+8384\U+815B_4
100
AcDbBlockReference
  2
BLOCK_11
 10
0.0
 20
0.0
 30
0.0
  0
INSERT
  5
8A
330
3D
100
AcDbEntity
  8
\U+838C\U+8343\U+8384\U+815B_4
100
AcDbBlockReference
  2
BLOCK_12
 10
0.0
 20
0.0
 30
0.0
  0
INSERT
  5
92
330
3D
100
AcDbEntity
  8
\U+838C\U+8343\U+8384\U+815B_4
100
AcDbBlockReference
  2
BLOCK_13
 10
0.0
 20
0.0
 30
0.0
  0
INSERT
  5
9A
330
3D
100
AcDbEntity
  8
\U+838C\U+8343\U+8384\U+815B_4
100
AcDbBlockReference
  2
BLOCK_14
 10
0.0
 20
0.0
 30
0.0
  0
INSERT
  5
A2
330
3D
100
AcDbEntity
  8
\U+838C\U+8343\U+8384\U+815B_4
100
AcDbBlockReference
  2
BLOCK_15
 10
0.0
 20
0.0
 30
0.0
  0
INSERT
  5
AB
330
3D
100
AcDbEntity
  8
\U+838C\U+8343\U+8384\U+815B_4
100
AcDbBlockReference
  2
BLOCK_16
 10
0.0
 20
0.0
 30
0.0
  0
INSERT
  5
B9
330
3D
100
AcDbEntity
  8
\U+838C\U+8343\U+8384\U+815B_4
100
AcDbBlockReference
  2
BLOCK_17
 10
0.0
 20
0.0
 30
0.0
  0
INSERT
  5
BE
330
3D
100
AcDbEntity
  8
\U+838C\U+8343\U+8384\U+815B_4
100
AcDbBlockReference
  2
BLOCK_18
 10
0.0
 20
0.0
 30
0.0
  0
INSERT
  5
CC
330
3D
100
AcDbEntity
  8
\U+838C\U+8343\U+8384\U+815B_4
100
AcDbBlockReference
  2
BLOCK_19
 10
0.0
 20
0.0
 30
0.0
  0
INSERT
  5
D4
330
3D
100
AcDbEntity
  8
\U+838C\U+8343\U+8384\U+815B_4
100
AcDbBlockReference
  2
BLOCK_20
 10
0.0
 20
0.0
 30
0.0
  0
INSERT
  5
DC
330
3D
100
AcDbEntity
  8
\U+838C\U+8343\U+8384\U+815B_4
100
AcDbBlockReference
  2
BLOCK_21
 10
0.0
 20
0.0
 30
0.0
  0
INSERT
  5
ED
330
3D
100
AcDbEntity
  8
\U+838C\U+8343\U+8384\U+815B_4
100
AcDbBlockReference
  2
BLOCK_22
 10
0.0
 20
0.0
 30
0.0
  0
INSERT
  5
F5
330
3D
100
AcDbEntity
  8
\U+838C\U+8343\U+8384\U+815B_4
100
AcDbBlockReference
  2
BLOCK_23
 10
0.0
 20
0.0
 30
0.0
  0
INSERT
  5
FD
330
3D
100
AcDbEntity
  8
\U+838C\U+8343\U+8384\U+815B_4
100
AcDbBlockReference
  2
BLOCK_24
 10
0.0
 20
0.0
 30
0.0
  0
INSERT
  5
105
330
3D
100
AcDbEntity
  8
\U+838C\U+8343\U+8384\U+815B_4
100
AcDbBlockReference
  2
BLOCK_25
 10
0.0
 20
0.0
 30
0.0
  0
INSERT
  5
10D
330
3D
100
AcDbEntity
  8
\U+838C\U+8343\U+8384\U+815B_4
100
AcDbBlockReference
  2
BLOCK_26
 10
0.0
 20
0.0
 30
0.0
  0
INSERT
  5
115
330
3D
100
AcDbEntity
  8
\U+838C\U+8343\U+8384\U+815B_4
100
AcDbBlockReference
  2
BLOCK_27
 10
0.0
 20
0.0
 30
0.0
  0
INSERT
  5
11D
330
3D
100
AcDbEntity
  8
\U+838C\U+8343\U+8384\U+815B_4
100
AcDbBlockReference
  2
BLOCK_28
 10
0.0
 20
0.0
 30
0.0
  0
INSERT
  5
125
330
3D
100
AcDbEntity
  8
\U+838C\U+8343\U+8384\U+815B_4
100
AcDbBlockReference
  2
BLOCK_29
 10
0.0
 20
0.0
 30
0.0
  0
INSERT
  5
12D
330
3D
100
AcDbEntity
  8
\U+838C\U+8343\U+8384\U+815B_4
100
AcDbBlockReference
  2
BLOCK_30
 10
0.0
 20
0.0
 30
0.0
  0
INSERT
  5
135
330
3D
100
AcDbEntity
  8
\U+838C\U+8343\U+8384\U+815B_4
100
AcDbBlockReference
  2
BLOCK_31
 10
0.0
 20
0.0
 30
0.0
  0
INSERT
  5
13D
330
3D
100
AcDbEntity
  8
\U+838C\U+8343\U+8384\U+815B_4
100
AcDbBlockReference
  2
BLOCK_32
 10
0.0
 20
0.0
 30
0.0
  0
INSERT
  5
156
330
3D
100
AcDbEntity
  8
\U+838C\U+8343\U+8384\U+815B_4
100
AcDbBlockReference
  2
BLOCK_33
 10
0.0
 20
0.0
 30
0.0
  0
INSERT
  5
173
330
3D
100
AcDbEntity
  8
\U+838C\U+8343\U+8384\U+815B_4
100
AcDbBlockReference
  2
BLOCK_34
 10
0.0
 20
0.0
 30
0.0
  0
INSERT
  5
190
330
3D
100
AcDbEntity
  8
\U+838C\U+8343\U+8384\U+815B_4
100
AcDbBlockReference
  2
BLOCK_35
 10
0.0
 20
0.0
 30
0.0
  0
INSERT
  5
1A9
330
3D
100
AcDbEntity
  8
\U+838C\U+8343\U+8384\U+815B_4
100
AcDbBlockReference
  2
BLOCK_36
 10
0.0
 20
0.0
 30
0.0
  0
INSERT
  5
1B7
330
3D
100
AcDbEntity
  8
\U+838C\U+8343\U+8384\U+815B_4
100
AcDbBlockReference
  2
BLOCK_37
 10
0.0
 20
0.0
 30
0.0
  0
INSERT
  5
1D6
330
3D
100
AcDbEntity
  8
\U+838C\U+8343\U+8384\U+815B_4
100
AcDbBlockReference
  2
BLOCK_38
 10
0.0
 20
0.0
 30
0.0
  0
INSERT
  5
1F3
330
3D
100
AcDbEntity
  8
\U+838C\U+8343\U+8384\U+815B_4
100
AcDbBlockReference
  2
BLOCK_39
 10
0.0
 20
0.0
 30
0.0
  0
INSERT
  5
1F8
330
3D
100
AcDbEntity
  8
\U+838C\U+8343\U+8384\U+815B_4
100
AcDbBlockReference
  2
BLOCK_40
 10
0.0
 20
0.0
 30
0.0
  0
INSERT
  5
205
330
3D
100
AcDbEntity
  8
\U+838C\U+8343\U+8384\U+815B_4
100
AcDbBlockReference
  2
BLOCK_41
 10
0.0
 20
0.0
 30
0.0
  0
INSERT
  5
21C
330
3D
100
AcDbEntity
  8
\U+838C\U+8343\U+8384\U+815B_4
100
AcDbBlockReference
  2
BLOCK_42
 10
0.0
 20
0.0
 30
0.0
  0
INSERT
  5
221
330
3D
100
AcDbEntity
  8
\U+838C\U+8343\U+8384\U+815B_4
100
AcDbBlockReference
  2
BLOCK_43
 10
0.0
 20
0.0
 30
0.0
  0
INSERT
  5
226
330
3D
100
AcDbEntity
  8
\U+838C\U+8343\U+8384\U+815B_4
100
AcDbBlockReference
  2
BLOCK_44
 10
0.0
 20
0.0
 30
0.0
  0
INSERT
  5
243
330
3D
100
AcDbEntity
  8
\U+838C\U+8343\U+8384\U+815B_4
100
AcDbBlockReference
  2
BLOCK_45
 10
0.0
 20
0.0
 30
0.0
  0
INSERT
  5
25A
330
3D
100
AcDbEntity
  8
\U+838C\U+8343\U+8384\U+815B_4
100
AcDbBlockReference
  2
BLOCK_46
 10
0.0
 20
0.0
 30
0.0
  0
INSERT
  5
267
330
3D
100
AcDbEntity
  8
\U+838C\U+8343\U+8384\U+815B_4
100
AcDbBlockReference
  2
BLOCK_47
 10
0.0
 20
0.0
 30
0.0
  0
INSERT
  5
284
330
3D
100
AcDbEntity
  8
\U+838C\U+8343\U+8384\U+815B_4
100
AcDbBlockReference
  2
BLOCK_48
 10
0.0
 20
0.0
 30
0.0
  0
INSERT
  5
291
330
3D
100
AcDbEntity
  8
\U+838C\U+8343\U+8384\U+815B_4
100
AcDbBlockReference
  2
BLOCK_49
 10
0.0
 20
0.0
 30
0.0
  0
INSERT
  5
2A8
330
3D
100
AcDbEntity
  8
\U+838C\U+8343\U+8384\U+815B_4
100
AcDbBlockReference
  2
BLOCK_50
 10
0.0
 20
0.0
 30
0.0
  0
INSERT
  5
2AD
330
3D
100
AcDbEntity
  8
\U+838C\U+8343\U+8384\U+815B_4
100
AcDbBlockReference
  2
BLOCK_51
 10
0.0
 20
0.0
 30
0.0
  0
INSERT
  5
2C4
330
3D
100
AcDbEntity
  8
\U+838C\U+8343\U+8384\U+815B_4
100
AcDbBlockReference
  2
BLOCK_52
 10
0.0
 20
0.0
 30
0.0
  0
INSERT
  5
2D3
330
3D
100
AcDbEntity
  8
\U+838C\U+8343\U+8384\U+815B_4
100
AcDbBlockReference
  2
BLOCK_53
 10
0.0
 20
0.0
 30
0.0
  0
INSERT
  5
2E8
330
3D
100
AcDbEntity
  8
\U+838C\U+8343\U+8384\U+815B_4
100
AcDbBlockReference
  2
BLOCK_54
 10
0.0
 20
0.0
 30
0.0
  0
INSERT
  5
2FF
330
3D
100
AcDbEntity
  8
\U+838C\U+8343\U+8384\U+815B_4
100
AcDbBlockReference
  2
BLOCK_55
 10
0.0
 20
0.0
 30
0.0
  0
INSERT
  5
308
330
3D
100
AcDbEntity
  8
\U+838C\U+8343\U+8384\U+815B_4
100
AcDbBlockReference
  2
BLOCK_56
 10
0.0
 20
0.0
 30
0.0
  0
INSERT
  5
315
330
3D
100
AcDbEntity
  8
\U+838C\U+8343\U+8384\U+815B_4
100
AcDbBlockReference
  2
BLOCK_57
 10
0.0
 20
0.0
 30
0.0
  0
INSERT
  5
321
330
3D
100
AcDbEntity
  8
\U+838C\U+8343\U+8384\U+815B_4
100
AcDbBlockReference
  2
BLOCK_58
 10
0.0
 20
0.0
 30
0.0
  0
INSERT
  5
331
330
3D
100
AcDbEntity
  8
\U+838C\U+8343\U+8384\U+815B_4
100
AcDbBlockReference
  2
BLOCK_59
 10
0.0
 20
0.0
 30
0.0
  0
INSERT
  5
35E
330
3D
100
AcDbEntity
  8
\U+838C\U+8343\U+8384\U+815B_4
100
AcDbBlockReference
  2
BLOCK_60
 10
0.0
 20
0.0
 30
0.0
  0
INSERT
  5
363
330
3D
100
AcDbEntity
  8
\U+838C\U+8343\U+8384\U+815B_4
100
AcDbBlockReference
  2
BLOCK_61
 10
0.0
 20
0.0
 30
0.0
  0
INSERT
  5
36B
330
3D
100
AcDbEntity
  8
\U+838C\U+8343\U+8384\U+815B_4
100
AcDbBlockReference
  2
BLOCK_62
 10
0.0
 20
0.0
 30
0.0
  0
INSERT
  5
392
330
3D
100
AcDbEntity
  8
\U+838C\U+8343\U+8384\U+815B_4
100
AcDbBlockReference
  2
BLOCK_63
 10
0.0
 20
0.0
 30
0.0
  0
INSERT
  5
39F
330
3D
100
AcDbEntity
  8
\U+838C\U+8343\U+8384\U+815B_4
100
AcDbBlockReference
  2
BLOCK_64
 10
0.0
 20
0.0
 30
0.0
  0
INSERT
  5
3B6
330
3D
100
AcDbEntity
  8
\U+838C\U+8343\U+8384\U+815B_4
100
AcDbBlockReference
  2
BLOCK_65
 10
0.0
 20
0.0
 30
0.0
  0
INSERT
  5
3C6
330
3D
100
AcDbEntity
  8
\U+838C\U+8343\U+8384\U+815B_4
100
AcDbBlockReference
  2
BLOCK_66
 10
0.0
 20
0.0
 30
0.0
  0
INSERT
  5
3D2
330
3D
100
AcDbEntity
  8
\U+838C\U+8343\U+8384\U+815B_4
100
AcDbBlockReference
  2
BLOCK_67
 10
0.0
 20
0.0
 30
0.0
  0
INSERT
  5
3EA
330
3D
100
AcDbEntity
  8
\U+838C\U+8343\U+8384\U+815B_4
100
AcDbBlockReference
  2
BLOCK_68
 10
0.0
 20
0.0
 30
0.0
  0
INSERT
  5
3FF
330
3D
100
AcDbEntity
  8
\U+838C\U+8343\U+8384\U+815B_4
100
AcDbBlockReference
  2
BLOCK_69
 10
0.0
 20
0.0
 30
0.0
  0
INSERT
  5
40D
330
3D
100
AcDbEntity
  8
\U+838C\U+8343\U+8384\U+815B_4
100
AcDbBlockReference
  2
BLOCK_70
 10
0.0
 20
0.0
 30
0.0
  0
INSERT
  5
425
330
3D
100
AcDbEntity
  8
\U+838C\U+8343\U+8384\U+815B_4
100
AcDbBlockReference
  2
BLOCK_71
 10
0.0
 20
0.0
 30
0.0
  0
INSERT
  5
43D
330
3D
100
AcDbEntity
  8
\U+838C\U+8343\U+8384\U+815B_4
100
AcDbBlockReference
  2
BLOCK_72
 10
0.0
 20
0.0
 30
0.0
  0
INSERT
  5
44A
330
3D
100
AcDbEntity
  8
\U+838C\U+8343\U+8384\U+815B_4
100
AcDbBlockReference
  2
BLOCK_73
 10
0.0
 20
0.0
 30
0.0
  0
INSERT
  5
467
330
3D
100
AcDbEntity
  8
\U+838C\U+8343\U+8384\U+815B_4
100
AcDbBlockReference
  2
BLOCK_74
 10
0.0
 20
0.0
 30
0.0
  0
INSERT
  5
46C
330
3D
100
AcDbEntity
  8
\U+838C\U+8343\U+8384\U+815B_4
100
AcDbBlockReference
  2
BLOCK_75
 10
0.0
 20
0.0
 30
0.0
  0
INSERT
  5
471
330
3D
100
AcDbEntity
  8
\U+838C\U+8343\U+8384\U+815B_4
100
AcDbBlockReference
  2
BLOCK_76
 10
0.0
 20
0.0
 30
0.0
  0
INSERT
  5
487
330
3D
100
AcDbEntity
  8
\U+838C\U+8343\U+8384\U+815B_4
100
AcDbBlockReference
  2
BLOCK_77
 10
0.0
 20
0.0
 30
0.0
  0
INSERT
  5
48C
330
3D
100
AcDbEntity
  8
\U+838C\U+8343\U+8384\U+815B_4
100
AcDbBlockReference
  2
BLOCK_78
 10
0.0
 20
0.0
 30
0.0
  0
INSERT
  5
499
330
3D
100
AcDbEntity
  8
\U+838C\U+8343\U+8384\U+815B_4
100
AcDbBlockReference
  2
BLOCK_79
 10
0.0
 20
0.0
 30
0.0
  0
INSERT
  5
4A1
330
3D
100
AcDbEntity
  8
\U+838C\U+8343\U+8384\U+815B_4
100
AcDbBlockReference
  2
BLOCK_80
 10
0.0
 20
0.0
 30
0.0
  0
INSERT
  5
4A9
330
3D
100
AcDbEntity
  8
\U+838C\U+8343\U+8384\U+815B_4
100
AcDbBlockReference
  2
BLOCK_81
 10
0.0
 20
0.0
 30
0.0
  0
INSERT
  5
4B6
330
3D
100
AcDbEntity
  8
\U+838C\U+8343\U+8384\U+815B_4
100
AcDbBlockReference
  2
BLOCK_82
 10
0.0
 20
0.0
 30
0.0
  0
INSERT
  5
4BE
330
3D
100
AcDbEntity
  8
\U+838C\U+8343\U+8384\U+815B_4
100
AcDbBlockReference
  2
BLOCK_83
 10
0.0
 20
0.0
 30
0.0
  0
INSERT
  5
4D5
330
3D
100
AcDbEntity
  8
\U+838C\U+8343\U+8384\U+815B_4
100
AcDbBlockReference
  2
BLOCK_84
 10
0.0
 20
0.0
 30
0.0
  0
INSERT
  5
4DD
330
3D
100
AcDbEntity
  8
\U+838C\U+8343\U+8384\U+815B_4
100
AcDbBlockReference
  2
BLOCK_85
 10
0.0
 20
0.0
 30
0.0
  0
INSERT
  5
4F4
330
3D
100
AcDbEntity
  8
\U+838C\U+8343\U+8384\U+815B_4
100
AcDbBlockReference
  2
BLOCK_86
 10
0.0
 20
0.0
 30
0.0
  0
INSERT
  5
501
330
3D
100
AcDbEntity
  8
\U+838C\U+8343\U+8384\U+815B_4
100
AcDbBlockReference
  2
BLOCK_87
 10
0.0
 20
0.0
 30
0.0
  0
INSERT
  5
510
330
3D
100
AcDbEntity
  8
\U+838C\U+8343\U+8384\U+815B_4
100
AcDbBlockReference
  2
BLOCK_88
 10
0.0
 20
0.0
 30
0.0
  0
INSERT
  5
51D
330
3D
100
AcDbEntity
  8
\U+838C\U+8343\U+8384\U+815B_4
100
AcDbBlockReference
  2
BLOCK_89
 10
0.0
 20
0.0
 30
0.0
  0
ENDBLK
  5
40
330
3D
100
AcDbEntity
  8
0
100
AcDbBlockEnd
  0
BLOCK
  5
43
330
41
100
AcDbEntity
  8
0
100
AcDbBlockBegin
  2
BLOCK_3
 70
     0
 71
     0
 10
0.0
 20
0.0
 30
0.0
  3
BLOCK_3
  1

  0
POLYLINE
  5
45
330
41
100
AcDbEntity
  8
\U+838C\U+8343\U+8384\U+815B_4
 62
     7
100
AcDb2dPolyline
 66
     1
 10
0.0
 20
0.0
 30
0.0
  0
VERTEX
  5
46
330
45
100
AcDbEntity
  8
\U+838C\U+8343\U+8384\U+815B_4
 62
     7
100
AcDbVertex
100
AcDb2dVertex
 10
44.72422958951339
 20
186.8115084710923
 30
0.0
  0
VERTEX
  5
47
330
45
100
AcDbEntity
  8
\U+838C\U+8343\U+8384\U+815B_4
 62
     7
100
AcDbVertex
100
AcDb2dVertex
 10
44.6346571068969
 20
186.8640461772423
 30
0.0
  0
SEQEND
  5
48
330
45
100
AcDbEntity
  8
\U+838C\U+8343\U+8384\U+815B_4
  0
ENDBLK
  5
44
330
41
100
AcDbEntity
  8
0
100
AcDbBlockEnd
  0
BLOCK
  5
4B
330
49
100
AcDbEntity
  8
0
100
AcDbBlockBegin
  2
BLOCK_4
 70
     0
 71
     0
 10
0.0
 20
0.0
 30
0.0
  3
BLOCK_4
  1

  0
POLYLINE
  5
4D
330
49
100
AcDbEntity
  8
\U+838C\U+8343\U+8384\U+815B_4
 62
     7
100
AcDb2dPolyline
 66
     1
 10
0.0
 20
0.0
 30
0.0
  0
VERTEX
  5
4E
330
4D
100
AcDbEntity
  8
\U+838C\U+8343\U+8384\U+815B_4
 62
     7
100
AcDbVertex
100
AcDb2dVertex
 10
42.07116155632249
 20
182.4233180967553
 30
0.0
  0
VERTEX
  5
4F
330
4D
100
AcDbEntity
  8
\U+838C\U+8343\U+8384\U+815B_4
 62
     7
100
AcDbVertex
100
AcDb2dVertex
 10
42.16056178416472
 20
182.3721584287993
 30
0.0
  0
SEQEND
  5
50
330
4D
100
AcDbEntity
  8
\U+838C\U+8343\U+8384\U+815B_4
  0
ENDBLK
  5
4C
330
49
100
AcDbEntity
  8
0
100
AcDbBlockEnd
  0
BLOCK
  5
53
330
51
100
AcDbEntity
  8
0
100
AcDbBlockBegin
  2
BLOCK_5
 70
     0
 71
     0
 10
0.0
 20
0.0
 30
0.0
  3
BLOCK_5
  1

  0
POLYLINE
  5
55
330
51
100
AcDbEntity
  8
\U+838C\U+8343\U+8384\U+815B_4
 62
     7
100
AcDb2dPolyline
 66
     1
 10
0.0
 20
0.0
 30
0.0
  0
VERTEX
  5
56
330
55
100
AcDbEntity
  8
\U+838C\U+8343\U+8384\U+815B_4
 62
     7
100
AcDbVertex
100
AcDb2dVertex
 10
44.63741318328509
 20
186.9153780999725
 30
0.0
  0
VERTEX
  5
57
330
55
100
AcDbEntity
  8
\U+838C\U+8343\U+8384\U+815B_4
 62
     7
100
AcDbVertex
100
AcDb2dVertex
 10
44.50270994981182
 20
186.9928927483907
 30
0.0
  0
SEQEND
  5
58
330
55
100
AcDbEntity
  8
\U+838C\U+8343\U+8384\U+815B_4
  0
ENDBLK
  5
54
330
51
100
AcDbEntity
  8
0
100
AcDbBlockEnd
  0
BLOCK
  5
5B
330
59
100
AcDbEntity
  8
0
100
AcDbBlockBegin
  2
BLOCK_6
 70
     0
 71
     0
 10
0.0
 20
0.0
 30
0.0
  3
BLOCK_6
  1

  0
POLYLINE
  5
5D
330
59
100
AcDbEntity
  8
\U+838C\U+8343\U+8384\U+815B_4
 62
     7
100
AcDb2dPolyline
 66
     1
 10
0.0
 20
0.0
 30
0.0
  0
VERTEX
  5
5E
330
5D
100
AcDbEntity
  8
\U+838C\U+8343\U+8384\U+815B_4
 62
     7
100
AcDbVertex
100
AcDb2dVertex
 10
41.89425590315491
 20
182.4732719812914
 30
0.0
  0
VERTEX
  5
5F
330
5D
100
AcDbEntity
  8
\U+838C\U+8343\U+8384\U+815B_4
 62
     7
100
AcDbVertex
100
AcDb2dVertex
 10
42.02723658888555
 20
182.3940347851307
 30
0.0
  0
SEQEND
  5
60
330
5D
100
AcDbEntity
  8
\U+838C\U+8343\U+8384\U+815B_4
  0
ENDBLK
  5
5C
330
59
100
AcDbEntity
  8
0
100
AcDbBlockEnd
  0
BLOCK
  5
63
330
61
100
AcDbEntity
  8
0
100
AcDbBlockBegin
  2
BLOCK_7
 70
     0
 71
     0
 10
0.0
 20
0.0
 30
0.0
  3
BLOCK_7
  1

  0
POLYLINE
  5
65
330
61
100
AcDbEntity
  8
\U+838C\U+8343\U+8384\U+815B_4
 62
     7
100
AcDb2dPolyline
 66
     1
 10
0.0
 20
0.0
 30
0.0
  0
VERTEX
  5
66
330
65
100
AcDbEntity
  8
\U+838C\U+8343\U+8384\U+815B_4
 62
     7
100
AcDbVertex
100
AcDb2dVertex
 10
44.23433701151086
 20
187.0928005174629
 30
0.0
  0
VERTEX
  5
67
330
65
100
AcDbEntity
  8
\U+838C\U+8343\U+8384\U+815B_4
 62
     7
100
AcDbVertex
100
AcDb2dVertex
 10
41.05864799320756
 20
188.8808050743076
 30
0.0
  0
SEQEND
  5
68
330
65
100
AcDbEntity
  8
\U+838C\U+8343\U+8384\U+815B_4
  0
ENDBLK
  5
64
330
61
100
AcDbEntity
  8
0
100
AcDbBlockEnd
  0
BLOCK
  5
6B
330
69
100
AcDbEntity
  8
0
100
AcDbBlockBegin
  2
BLOCK_8
 70
     0
 71
     0
 10
0.0
 20
0.0
 30
0.0
  3
BLOCK_8
  1

  0
POLYLINE
  5
6D
330
69
100
AcDbEntity
  8
\U+838C\U+8343\U+8384\U+815B_4
 62
     7
100
AcDb2dPolyline
 66
     1
 10
0.0
 20
0.0
 30
0.0
  0
VERTEX
  5
6E
330
6D
100
AcDbEntity
  8
\U+838C\U+8343\U+8384\U+815B_4
 62
     7
100
AcDbVertex
100
AcDb2dVertex
 10
38.53614907890763
 20
184.5117349799137
 30
0.0
  0
VERTEX
  5
6F
330
6D
100
AcDbEntity
  8
\U+838C\U+8343\U+8384\U+815B_4
 62
     7
100
AcDbVertex
100
AcDb2dVertex
 10
41.67256400867908
 20
182.6550007681383
 30
0.0
  0
SEQEND
  5
70
330
6D
100
AcDbEntity
  8
\U+838C\U+8343\U+8384\U+815B_4
  0
ENDBLK
  5
6C
330
69
100
AcDbEntity
  8
0
100
AcDbBlockEnd
  0
BLOCK
  5
73
330
71
100
AcDbEntity
  8
0
100
AcDbBlockBegin
  2
BLOCK_9
 70
     0
 71
     0
 10
0.0
 20
0.0
 30
0.0
  3
BLOCK_9
  1

  0
POLYLINE
  5
75
330
71
100
AcDbEntity
  8
\U+838C\U+8343\U+8384\U+815B_4
 62
     7
100
AcDb2dPolyline
 66
     1
 10
0.0
 20
0.0
 30
0.0
  0
VERTEX
  5
76
330
75
100
AcDbEntity
  8
\U+838C\U+8343\U+8384\U+815B_4
 62
     7
100
AcDbVertex
100
AcDb2dVertex
 10
39.77328286766085
 20
188.7326659684418
 30
0.0
  0
VERTEX
  5
77
330
75
100
AcDbEntity
  8
\U+838C\U+8343\U+8384\U+815B_4
 62
     7
100
AcDbVertex
100
AcDb2dVertex
 10
39.66303981213285
 20
188.6668646446736
 30
0.0
  0
SEQEND
  5
78
330
75
100
AcDbEntity
  8
\U+838C\U+8343\U+8384\U+815B_4
  0
ENDBLK
  5
74
330
71
100
AcDbEntity
  8
0
100
AcDbBlockEnd
  0
BLOCK
  5
7B
330
79
100
AcDbEntity
  8
0
100
AcDbBlockBegin
  2
BLOCK_10
 70
     0
 71
     0
 10
0.0
 20
0.0
 30
0.0
  3
BLOCK_10
  1

  0
POLYLINE
  5
7D
330
79
100
AcDbEntity
  8
\U+838C\U+8343\U+8384\U+815B_4
 62
     7
100
AcDb2dPolyline
 66
     1
 10
0.0
 20
0.0
 30
0.0
  0
VERTEX
  5
7E
330
7D
100
AcDbEntity
  8
\U+838C\U+8343\U+8384\U+815B_4
 62
     7
100
AcDbVertex
100
AcDb2dVertex
 10
38.02300210637967
 20
185.8263834170851
 30
0.0
  0
VERTEX
  5
7F
330
7D
100
AcDbEntity
  8
\U+838C\U+8343\U+8384\U+815B_4
 62
     7
100
AcDbVertex
100
AcDb2dVertex
 10
38.02196857773409
 20
185.6987426293566
 30
0.0
  0
SEQEND
  5
80
330
7D
100
AcDbEntity
  8
\U+838C\U+8343\U+8384\U+815B_4
  0
ENDBLK
  5
7C
330
79
100
AcDbEntity
  8
0
100
AcDbBlockEnd
  0
BLOCK
  5
83
330
81
100
AcDbEntity
  8
0
100
AcDbBlockBegin
  2
BLOCK_11
 70
     0
 71
     0
 10
0.0
 20
0.0
 30
0.0
  3
BLOCK_11
  1

  0
POLYLINE
  5
85
330
81
100
AcDbEntity
  8
\U+838C\U+8343\U+8384\U+815B_4
 62
     7
100
AcDb2dPolyline
 66
     1
 10
0.0
 20
0.0
 30
0.0
  0
VERTEX
  5
86
330
85
100
AcDbEntity
  8
\U+838C\U+8343\U+8384\U+815B_4
 62
     7
100
AcDbVertex
100
AcDb2dVertex
 10
167.8571098755704
 20
109.8069064395622
 30
0.0
  0
VERTEX
  5
87
330
85
100
AcDbEntity
  8
\U+838C\U+8343\U+8384\U+815B_4
 62
     7
100
AcDbVertex
100
AcDb2dVertex
 10
168.3363226575687
 20
109.5306097816451
 30
0.0
  0
SEQEND
  5
88
330
85
100
AcDbEntity
  8
\U+838C\U+8343\U+8384\U+815B_4
  0
ENDBLK
  5
84
330
81
100
AcDbEntity
  8
0
100
AcDbBlockEnd
  0
BLOCK
  5
8B
330
89
100
AcDbEntity
  8
0
100
AcDbBlockBegin
  2
BLOCK_12
 70
     0
 71
     0
 10
0.0
 20
0.0
 30
0.0
  3
BLOCK_12
  1

  0
POLYLINE
  5
8D
330
89
100
AcDbEntity
  8
\U+838C\U+8343\U+8384\U+815B_4
 62
     7
100
AcDb2dPolyline
 66
     1
 10
0.0
 20
0.0
 30
0.0
  0
VERTEX
  5
8E
330
8D
100
AcDbEntity
  8
\U+838C\U+8343\U+8384\U+815B_4
 62
     7
100
AcDbVertex
100
AcDb2dVertex
 10
170.842629623088
 20
114.0057888169847
 30
0.0
  0
VERTEX
  5
8F
330
8D
100
AcDbEntity
  8
\U+838C\U+8343\U+8384\U+815B_4
 62
     7
100
AcDbVertex
100
AcDb2dVertex
 10
170.421983464339
 20
114.2490125582433
 30
0.0
  0
SEQEND
  5
90
330
8D
100
AcDbEntity
  8
\U+838C\U+8343\U+8384\U+815B_4
  0
ENDBLK
  5
8C
330
89
100
AcDbEntity
  8
0
100
AcDbBlockEnd
  0
BLOCK
  5
93
330
91
100
AcDbEntity
  8
0
100
AcDbBlockBegin
  2
BLOCK_13
 70
     0
 71
     0
 10
0.0
 20
0.0
 30
0.0
  3
BLOCK_13
  1

  0
POLYLINE
  5
95
330
91
100
AcDbEntity
  8
\U+838C\U+8343\U+8384\U+815B_4
 62
     7
100
AcDb2dPolyline
 66
     1
 10
0.0
 20
0.0
 30
0.0
  0
VERTEX
  5
96
330
95
100
AcDbEntity
  8
\U+838C\U+8343\U+8384\U+815B_4
 62
     7
100
AcDbVertex
100
AcDb2dVertex
 10
45.28250731289813
 20
186.4902533170927
 30
0.0
  0
VERTEX
  5
97
330
95
100
AcDbEntity
  8
\U+838C\U+8343\U+8384\U+815B_4
 62
     7
100
AcDbVertex
100
AcDb2dVertex
 10
44.80295002135135
 20
186.7672389941068
 30
0.0
  0
SEQEND
  5
98
330
95
100
AcDbEntity
  8
\U+838C\U+8343\U+8384\U+815B_4
  0
ENDBLK
  5
94
330
91
100
AcDbEntity
  8
0
100
AcDbBlockEnd
  0
BLOCK
  5
9B
330
99
100
AcDbEntity
  8
0
100
AcDbBlockBegin
  2
BLOCK_14
 70
     0
 71
     0
 10
0.0
 20
0.0
 30
0.0
  3
BLOCK_14
  1

  0
POLYLINE
  5
9D
330
99
100
AcDbEntity
  8
\U+838C\U+8343\U+8384\U+815B_4
 62
     7
100
AcDb2dPolyline
 66
     1
 10
0.0
 20
0.0
 30
0.0
  0
VERTEX
  5
9E
330
9D
100
AcDbEntity
  8
\U+838C\U+8343\U+8384\U+815B_4
 62
     7
100
AcDbVertex
100
AcDb2dVertex
 10
42.23824868735711
 20
182.3247883658771
 30
0.0
  0
VERTEX
  5
9F
330
9D
100
AcDbEntity
  8
\U+838C\U+8343\U+8384\U+815B_4
 62
     7
100
AcDbVertex
100
AcDb2dVertex
 10
42.71763372412962
 20
182.0481471984116
 30
0.0
  0
SEQEND
  5
A0
330
9D
100
AcDbEntity
  8
\U+838C\U+8343\U+8384\U+815B_4
  0
ENDBLK
  5
9C
330
99
100
AcDbEntity
  8
0
100
AcDbBlockEnd
  0
BLOCK
  5
A3
330
A1
100
AcDbEntity
  8
0
100
AcDbBlockBegin
  2
BLOCK_15
 70
     0
 71
     0
 10
0.0
 20
0.0
 30
0.0
  3
BLOCK_15
  1

  0
POLYLINE
  5
A5
330
A1
100
AcDbEntity
  8
\U+838C\U+8343\U+8384\U+815B_4
 62
     7
100
AcDb2dPolyline
 66
     1
 10
0.0
 20
0.0
 30
0.0
  0
VERTEX
  5
A6
330
A5
100
AcDbEntity
  8
\U+838C\U+8343\U+8384\U+815B_4
 62
     7
100
AcDbVertex
100
AcDb2dVertex
 10
38.27828368183668
 20
186.9358764181098
 30
0.0
  0
VERTEX
  5
A7
330
A5
100
AcDbEntity
  8
\U+838C\U+8343\U+8384\U+815B_4
 62
     7
100
AcDbVertex
100
AcDb2dVertex
 10
38.24607203904959
 20
186.9300197557849
 30
0.0
  0
VERTEX
  5
A8
330
A5
100
AcDbEntity
  8
\U+838C\U+8343\U+8384\U+815B_4
 62
     7
100
AcDbVertex
100
AcDb2dVertex
 10
38.21971705858743
 20
186.918306431135
 30
0.0
  0
SEQEND
  5
A9
330
A5
100
AcDbEntity
  8
\U+838C\U+8343\U+8384\U+815B_4
  0
ENDBLK
  5
A4
330
A1
100
AcDbEntity
  8
0
100
AcDbBlockEnd
  0
BLOCK
  5
AC
330
AA
100
AcDbEntity
  8
0
100
AcDbBlockBegin
  2
BLOCK_16
 70
     0
 71
     0
 10
0.0
 20
0.0
 30
0.0
  3
BLOCK_16
  1

  0
POLYLINE
  5
AE
330
AA
100
AcDbEntity
  8
\U+838C\U+8343\U+8384\U+815B_4
 62
     7
100
AcDb2dPolyline
 66
     1
 10
0.0
 20
0.0
 30
0.0
  0
VERTEX
  5
AF
330
AE
100
AcDbEntity
  8
\U+838C\U+8343\U+8384\U+815B_4
 62
     7
100
AcDbVertex
100
AcDb2dVertex
 10
38.21971705858743
 20
186.918306431135
 30
0.0
  0
VERTEX
  5
B0
330
AE
100
AcDbEntity
  8
\U+838C\U+8343\U+8384\U+815B_4
 62
     7
100
AcDbVertex
100
AcDb2dVertex
 10
38.1799262057328
 20
186.8860947883479
 30
0.0
  0
VERTEX
  5
B1
330
AE
100
AcDbEntity
  8
\U+838C\U+8343\U+8384\U+815B_4
 62
     7
100
AcDbVertex
100
AcDb2dVertex
 10
38.13910182423259
 20
186.8332125726493
 30
0.0
  0
VERTEX
  5
B2
330
AE
100
AcDbEntity
  8
\U+838C\U+8343\U+8384\U+815B_4
 62
     7
100
AcDbVertex
100
AcDb2dVertex
 10
38.11274684377042
 20
186.7672389941068
 30
0.0
  0
VERTEX
  5
B3
330
AE
100
AcDbEntity
  8
\U+838C\U+8343\U+8384\U+815B_4
 62
     7
100
AcDbVertex
100
AcDb2dVertex
 10
38.10981851260797
 20
186.697131300982
 30
0.0
  0
VERTEX
  5
B4
330
AE
100
AcDbEntity
  8
\U+838C\U+8343\U+8384\U+815B_4
 62
     7
100
AcDbVertex
100
AcDb2dVertex
 10
38.12721624480847
 20
186.6501057476083
 30
0.0
  0
VERTEX
  5
B5
330
AE
100
AcDbEntity
  8
\U+838C\U+8343\U+8384\U+815B_4
 62
     7
100
AcDbVertex
100
AcDb2dVertex
 10
38.15804984940146
 20
186.6161715570786
 30
0.0
  0
VERTEX
  5
B6
330
AE
100
AcDbEntity
  8
\U+838C\U+8343\U+8384\U+815B_4
 62
     7
100
AcDbVertex
100
AcDb2dVertex
 10
38.16993542882557
 20
186.6106594043022
 30
0.0
  0
SEQEND
  5
B7
330
AE
100
AcDbEntity
  8
\U+838C\U+8343\U+8384\U+815B_4
  0
ENDBLK
  5
AD
330
AA
100
AcDbEntity
  8
0
100
AcDbBlockEnd
  0
BLOCK
  5
BA
330
B8
100
AcDbEntity
  8
0
100
AcDbBlockBegin
  2
BLOCK_17
 70
     0
 71
     0
 10
0.0
 20
0.0
 30
0.0
  3
BLOCK_17
  1

  0
SPLINE
  5
BC
330
B8
100
AcDbEntity
  8
\U+838C\U+8343\U+8384\U+815B_4
 62
     7
100
AcDbSpline
210
0.0
220
0.0
230
1.0
 70
     8
 71
     3
 72
     8
 73
     4
 74
     0
 42
0.0000000001
 43
0.0000000001
 40
0.0
 40
0.0
 40
0.0
 40
0.0
 40
1.0
 40
1.0
 40
1.0
 40
1.0
 10
173.3740857856496
 20
108.5577148166106
 30
0.0
 10
173.4130153646329
 20
108.5329101291168
 30
0.0
 10
173.4646917969116
 20
108.5349771864079
 30
0.0
 10
173.5029323567979
 20
108.5611599120958
 30
0.0
  0
ENDBLK
  5
BB
330
B8
100
AcDbEntity
  8
0
100
AcDbBlockEnd
  0
BLOCK
  5
BF
330
BD
100
AcDbEntity
  8
0
100
AcDbBlockBegin
  2
BLOCK_18
 70
     0
 71
     0
 10
0.0
 20
0.0
 30
0.0
  3
BLOCK_18
  1

  0
POLYLINE
  5
C1
330
BD
100
AcDbEntity
  8
\U+838C\U+8343\U+8384\U+815B_4
 62
     7
100
AcDb2dPolyline
 66
     1
 10
0.0
 20
0.0
 30
0.0
  0
VERTEX
  5
C2
330
C1
100
AcDbEntity
  8
\U+838C\U+8343\U+8384\U+815B_4
 62
     7
100
AcDbVertex
100
AcDb2dVertex
 10
173.5029323567979
 20
108.5611599120958
 30
0.0
  0
VERTEX
  5
C3
330
C1
100
AcDbEntity
  8
\U+838C\U+8343\U+8384\U+815B_4
 62
     7
100
AcDbVertex
100
AcDb2dVertex
 10
173.5435844835238
 20
108.5928547905601
 30
0.0
  0
VERTEX
  5
C4
330
C1
100
AcDbEntity
  8
\U+838C\U+8343\U+8384\U+815B_4
 62
     7
100
AcDbVertex
100
AcDb2dVertex
 10
173.5842366102498
 20
108.6472872992271
 30
0.0
  0
VERTEX
  5
C5
330
C1
100
AcDbEntity
  8
\U+838C\U+8343\U+8384\U+815B_4
 62
     7
100
AcDbVertex
100
AcDb2dVertex
 10
173.6097303168406
 20
108.7120550943498
 30
0.0
  0
VERTEX
  5
C6
330
C1
100
AcDbEntity
  8
\U+838C\U+8343\U+8384\U+815B_4
 62
     7
100
AcDbVertex
100
AcDb2dVertex
 10
173.6121418836803
 20
108.7823350422489
 30
0.0
  0
VERTEX
  5
C7
330
C1
100
AcDbEntity
  8
\U+838C\U+8343\U+8384\U+815B_4
 62
     7
100
AcDbVertex
100
AcDb2dVertex
 10
173.5966389539967
 20
108.8298773599453
 30
0.0
  0
VERTEX
  5
C8
330
C1
100
AcDbEntity
  8
\U+838C\U+8343\U+8384\U+815B_4
 62
     7
100
AcDbVertex
100
AcDb2dVertex
 10
173.5652885850809
 20
108.8622612575067
 30
0.0
  0
VERTEX
  5
C9
330
C1
100
AcDbEntity
  8
\U+838C\U+8343\U+8384\U+815B_4
 62
     7
100
AcDbVertex
100
AcDb2dVertex
 10
173.5539197699796
 20
108.8691514484772
 30
0.0
  0
SEQEND
  5
CA
330
C1
100
AcDbEntity
  8
\U+838C\U+8343\U+8384\U+815B_4
  0
ENDBLK
  5
C0
330
BD
100
AcDbEntity
  8
0
100
AcDbBlockEnd
  0
BLOCK
  5
CD
330
CB
100
AcDbEntity
  8
0
100
AcDbBlockBegin
  2
BLOCK_19
 70
     0
 71
     0
 10
0.0
 20
0.0
 30
0.0
  3
BLOCK_19
  1

  0
POLYLINE
  5
CF
330
CB
100
AcDbEntity
  8
\U+838C\U+8343\U+8384\U+815B_4
 62
     7
100
AcDb2dPolyline
 66
     1
 10
0.0
 20
0.0
 30
0.0
  0
VERTEX
  5
D0
330
CF
100
AcDbEntity
  8
\U+838C\U+8343\U+8384\U+815B_4
 62
     7
100
AcDbVertex
100
AcDb2dVertex
 10
172.6478596573589
 20
108.9759494085199
 30
0.0
  0
VERTEX
  5
D1
330
CF
100
AcDbEntity
  8
\U+838C\U+8343\U+8384\U+815B_4
 62
     7
100
AcDbVertex
100
AcDb2dVertex
 10
173.3720187283584
 20
108.5563367784165
 30
0.0
  0
SEQEND
  5
D2
330
CF
100
AcDbEntity
  8
\U+838C\U+8343\U+8384\U+815B_4
  0
ENDBLK
  5
CE
330
CB
100
AcDbEntity
  8
0
100
AcDbBlockEnd
  0
BLOCK
  5
D5
330
D3
100
AcDbEntity
  8
0
100
AcDbBlockBegin
  2
BLOCK_20
 70
     0
 71
     0
 10
0.0
 20
0.0
 30
0.0
  3
BLOCK_20
  1

  0
POLYLINE
  5
D7
330
D3
100
AcDbEntity
  8
\U+838C\U+8343\U+8384\U+815B_4
 62
     7
100
AcDb2dPolyline
 66
     1
 10
0.0
 20
0.0
 30
0.0
  0
VERTEX
  5
D8
330
D7
100
AcDbEntity
  8
\U+838C\U+8343\U+8384\U+815B_4
 62
     7
100
AcDbVertex
100
AcDb2dVertex
 10
173.5539197699796
 20
108.8698404675742
 30
0.0
  0
VERTEX
  5
D9
330
D7
100
AcDbEntity
  8
\U+838C\U+8343\U+8384\U+815B_4
 62
     7
100
AcDbVertex
100
AcDb2dVertex
 10
172.8280381512375
 20
109.2894530976776
 30
0.0
  0
SEQEND
  5
DA
330
D7
100
AcDbEntity
  8
\U+838C\U+8343\U+8384\U+815B_4
  0
ENDBLK
  5
D6
330
D3
100
AcDbEntity
  8
0
100
AcDbBlockEnd
  0
BLOCK
  5
DD
330
DB
100
AcDbEntity
  8
0
100
AcDbBlockBegin
  2
BLOCK_21
 70
     0
 71
     0
 10
0.0
 20
0.0
 30
0.0
  3
BLOCK_21
  1

  0
POLYLINE
  5
DF
330
DB
100
AcDbEntity
  8
\U+838C\U+8343\U+8384\U+815B_4
 62
     7
100
AcDb2dPolyline
 66
     1
 10
0.0
 20
0.0
 30
0.0
  0
VERTEX
  5
E0
330
DF
100
AcDbEntity
  8
\U+838C\U+8343\U+8384\U+815B_4
 62
     7
100
AcDbVertex
100
AcDb2dVertex
 10
174.7903645396358
 20
109.3755804848089
 30
0.0
  0
VERTEX
  5
E1
330
DF
100
AcDbEntity
  8
\U+838C\U+8343\U+8384\U+815B_4
 62
     7
100
AcDbVertex
100
AcDb2dVertex
 10
174.8186143226148
 20
109.3624891219649
 30
0.0
  0
VERTEX
  5
E2
330
DF
100
AcDbEntity
  8
\U+838C\U+8343\U+8384\U+815B_4
 62
     7
100
AcDbVertex
100
AcDb2dVertex
 10
174.8623670352775
 20
109.3597330455767
 30
0.0
  0
VERTEX
  5
E3
330
DF
100
AcDbEntity
  8
\U+838C\U+8343\U+8384\U+815B_4
 62
     7
100
AcDbVertex
100
AcDb2dVertex
 10
174.904741709746
 20
109.3728244084207
 30
0.0
  0
VERTEX
  5
E4
330
DF
100
AcDbEntity
  8
\U+838C\U+8343\U+8384\U+815B_4
 62
     7
100
AcDbVertex
100
AcDb2dVertex
 10
174.9505614796999
 20
109.4024522295938
 30
0.0
  0
VERTEX
  5
E5
330
DF
100
AcDbEntity
  8
\U+838C\U+8343\U+8384\U+815B_4
 62
     7
100
AcDbVertex
100
AcDb2dVertex
 10
174.993280663717
 20
109.4520616045814
 30
0.0
  0
VERTEX
  5
E6
330
DF
100
AcDbEntity
  8
\U+838C\U+8343\U+8384\U+815B_4
 62
     7
100
AcDbVertex
100
AcDb2dVertex
 10
175.0225639753416
 20
109.514762342413
 30
0.0
  0
VERTEX
  5
E7
330
DF
100
AcDbEntity
  8
\U+838C\U+8343\U+8384\U+815B_4
 62
     7
100
AcDbVertex
100
AcDb2dVertex
 10
175.0311767140547
 20
109.583664252118
 30
0.0
  0
VERTEX
  5
E8
330
DF
100
AcDbEntity
  8
\U+838C\U+8343\U+8384\U+815B_4
 62
     7
100
AcDbVertex
100
AcDb2dVertex
 10
175.0194633894049
 20
109.6353406843967
 30
0.0
  0
VERTEX
  5
E9
330
DF
100
AcDbEntity
  8
\U+838C\U+8343\U+8384\U+815B_4
 62
     7
100
AcDbVertex
100
AcDb2dVertex
 10
174.9912136064258
 20
109.6732367347345
 30
0.0
  0
VERTEX
  5
EA
330
DF
100
AcDbEntity
  8
\U+838C\U+8343\U+8384\U+815B_4
 62
     7
100
AcDbVertex
100
AcDb2dVertex
 10
174.9698540144173
 20
109.6863280975784
 30
0.0
  0
SEQEND
  5
EB
330
DF
100
AcDbEntity
  8
\U+838C\U+8343\U+8384\U+815B_4
  0
ENDBLK
  5
DE
330
DB
100
AcDbEntity
  8
0
100
AcDbBlockEnd
  0
BLOCK
  5
EE
330
EC
100
AcDbEntity
  8
0
100
AcDbBlockBegin
  2
BLOCK_22
 70
     0
 71
     0
 10
0.0
 20
0.0
 30
0.0
  3
BLOCK_22
  1

  0
POLYLINE
  5
F0
330
EC
100
AcDbEntity
  8
\U+838C\U+8343\U+8384\U+815B_4
 62
     7
100
AcDb2dPolyline
 66
     1
 10
0.0
 20
0.0
 30
0.0
  0
VERTEX
  5
F1
330
F0
100
AcDbEntity
  8
\U+838C\U+8343\U+8384\U+815B_4
 62
     7
100
AcDbVertex
100
AcDb2dVertex
 10
174.0655164495392
 20
109.7938150767182
 30
0.0
  0
VERTEX
  5
F2
330
F0
100
AcDbEntity
  8
\U+838C\U+8343\U+8384\U+815B_4
 62
     7
100
AcDbVertex
100
AcDb2dVertex
 10
174.7893310109902
 20
109.3748914657118
 30
0.0
  0
SEQEND
  5
F3
330
F0
100
AcDbEntity
  8
\U+838C\U+8343\U+8384\U+815B_4
  0
ENDBLK
  5
EF
330
EC
100
AcDbEntity
  8
0
100
AcDbBlockEnd
  0
BLOCK
  5
F6
330
F4
100
AcDbEntity
  8
0
100
AcDbBlockBegin
  2
BLOCK_23
 70
     0
 71
     0
 10
0.0
 20
0.0
 30
0.0
  3
BLOCK_23
  1

  0
POLYLINE
  5
F8
330
F4
100
AcDbEntity
  8
\U+838C\U+8343\U+8384\U+815B_4
 62
     7
100
AcDb2dPolyline
 66
     1
 10
0.0
 20
0.0
 30
0.0
  0
VERTEX
  5
F9
330
F8
100
AcDbEntity
  8
\U+838C\U+8343\U+8384\U+815B_4
 62
     7
100
AcDbVertex
100
AcDb2dVertex
 10
174.9708875430628
 20
109.6890841739666
 30
0.0
  0
VERTEX
  5
FA
330
F8
100
AcDbEntity
  8
\U+838C\U+8343\U+8384\U+815B_4
 62
     7
100
AcDbVertex
100
AcDb2dVertex
 10
174.2450059243207
 20
110.107318765876
 30
0.0
  0
SEQEND
  5
FB
330
F8
100
AcDbEntity
  8
\U+838C\U+8343\U+8384\U+815B_4
  0
ENDBLK
  5
F7
330
F4
100
AcDbEntity
  8
0
100
AcDbBlockEnd
  0
BLOCK
  5
FE
330
FC
100
AcDbEntity
  8
0
100
AcDbBlockBegin
  2
BLOCK_24
 70
     0
 71
     0
 10
0.0
 20
0.0
 30
0.0
  3
BLOCK_24
  1

  0
POLYLINE
  5
100
330
FC
100
AcDbEntity
  8
\U+838C\U+8343\U+8384\U+815B_4
 62
     7
100
AcDb2dPolyline
 66
     1
 10
0.0
 20
0.0
 30
0.0
  0
VERTEX
  5
101
330
100
100
AcDbEntity
  8
\U+838C\U+8343\U+8384\U+815B_4
 62
     7
100
AcDbVertex
100
AcDb2dVertex
 10
173.3678846137761
 20
107.5641492786645
 30
0.0
  0
VERTEX
  5
102
330
100
100
AcDbEntity
  8
\U+838C\U+8343\U+8384\U+815B_4
 62
     7
100
AcDbVertex
100
AcDb2dVertex
 10
173.4760606120129
 20
107.6302951119813
 30
0.0
  0
SEQEND
  5
103
330
100
100
AcDbEntity
  8
\U+838C\U+8343\U+8384\U+815B_4
  0
ENDBLK
  5
FF
330
FC
100
AcDbEntity
  8
0
100
AcDbBlockEnd
  0
BLOCK
  5
106
330
104
100
AcDbEntity
  8
0
100
AcDbBlockBegin
  2
BLOCK_25
 70
     0
 71
     0
 10
0.0
 20
0.0
 30
0.0
  3
BLOCK_25
  1

  0
POLYLINE
  5
108
330
104
100
AcDbEntity
  8
\U+838C\U+8343\U+8384\U+815B_4
 62
     7
100
AcDb2dPolyline
 66
     1
 10
0.0
 20
0.0
 30
0.0
  0
VERTEX
  5
109
330
108
100
AcDbEntity
  8
\U+838C\U+8343\U+8384\U+815B_4
 62
     7
100
AcDbVertex
100
AcDb2dVertex
 10
175.1162705725404
 20
110.4704318300213
 30
0.0
  0
VERTEX
  5
10A
330
108
100
AcDbEntity
  8
\U+838C\U+8343\U+8384\U+815B_4
 62
     7
100
AcDbVertex
100
AcDb2dVertex
 10
175.1190266489286
 20
110.5979003629755
 30
0.0
  0
SEQEND
  5
10B
330
108
100
AcDbEntity
  8
\U+838C\U+8343\U+8384\U+815B_4
  0
ENDBLK
  5
107
330
104
100
AcDbEntity
  8
0
100
AcDbBlockEnd
  0
BLOCK
  5
10E
330
10C
100
AcDbEntity
  8
0
100
AcDbBlockBegin
  2
BLOCK_26
 70
     0
 71
     0
 10
0.0
 20
0.0
 30
0.0
  3
BLOCK_26
  1

  0
POLYLINE
  5
110
330
10C
100
AcDbEntity
  8
\U+838C\U+8343\U+8384\U+815B_4
 62
     7
100
AcDb2dPolyline
 66
     1
 10
0.0
 20
0.0
 30
0.0
  0
VERTEX
  5
111
330
110
100
AcDbEntity
  8
\U+838C\U+8343\U+8384\U+815B_4
 62
     7
100
AcDbVertex
100
AcDb2dVertex
 10
168.6804876965452
 20
109.3321722816947
 30
0.0
  0
VERTEX
  5
112
330
110
100
AcDbEntity
  8
\U+838C\U+8343\U+8384\U+815B_4
 62
     7
100
AcDbVertex
100
AcDb2dVertex
 10
172.0821749786809
 20
107.4160101727988
 30
0.0
  0
SEQEND
  5
113
330
110
100
AcDbEntity
  8
\U+838C\U+8343\U+8384\U+815B_4
  0
ENDBLK
  5
10F
330
10C
100
AcDbEntity
  8
0
100
AcDbBlockEnd
  0
BLOCK
  5
116
330
114
100
AcDbEntity
  8
0
100
AcDbBlockBegin
  2
BLOCK_27
 70
     0
 71
     0
 10
0.0
 20
0.0
 30
0.0
  3
BLOCK_27
  1

  0
POLYLINE
  5
118
330
114
100
AcDbEntity
  8
\U+838C\U+8343\U+8384\U+815B_4
 62
     7
100
AcDb2dPolyline
 66
     1
 10
0.0
 20
0.0
 30
0.0
  0
VERTEX
  5
119
330
118
100
AcDbEntity
  8
\U+838C\U+8343\U+8384\U+815B_4
 62
     7
100
AcDbVertex
100
AcDb2dVertex
 10
174.6050184025293
 20
111.7864583053867
 30
0.0
  0
VERTEX
  5
11A
330
118
100
AcDbEntity
  8
\U+838C\U+8343\U+8384\U+815B_4
 62
     7
100
AcDbVertex
100
AcDb2dVertex
 10
171.2439832471196
 20
113.7735893812788
 30
0.0
  0
SEQEND
  5
11B
330
118
100
AcDbEntity
  8
\U+838C\U+8343\U+8384\U+815B_4
  0
ENDBLK
  5
117
330
114
100
AcDbEntity
  8
0
100
AcDbBlockEnd
  0
BLOCK
  5
11E
330
11C
100
AcDbEntity
  8
0
100
AcDbBlockBegin
  2
BLOCK_28
 70
     0
 71
     0
 10
0.0
 20
0.0
 30
0.0
  3
BLOCK_28
  1

  0
POLYLINE
  5
120
330
11C
100
AcDbEntity
  8
\U+838C\U+8343\U+8384\U+815B_4
 62
     7
100
AcDb2dPolyline
 66
     1
 10
0.0
 20
0.0
 30
0.0
  0
VERTEX
  5
121
330
120
100
AcDbEntity
  8
\U+838C\U+8343\U+8384\U+815B_4
 62
     7
100
AcDbVertex
100
AcDb2dVertex
 10
168.5030652790548
 20
109.3817816566823
 30
0.0
  0
VERTEX
  5
122
330
120
100
AcDbEntity
  8
\U+838C\U+8343\U+8384\U+815B_4
 62
     7
100
AcDbVertex
100
AcDb2dVertex
 10
168.6367349838825
 20
109.3053005369098
 30
0.0
  0
SEQEND
  5
123
330
120
100
AcDbEntity
  8
\U+838C\U+8343\U+8384\U+815B_4
  0
ENDBLK
  5
11F
330
11C
100
AcDbEntity
  8
0
100
AcDbBlockEnd
  0
BLOCK
  5
126
330
124
100
AcDbEntity
  8
0
100
AcDbBlockBegin
  2
BLOCK_29
 70
     0
 71
     0
 10
0.0
 20
0.0
 30
0.0
  3
BLOCK_29
  1

  0
POLYLINE
  5
128
330
124
100
AcDbEntity
  8
\U+838C\U+8343\U+8384\U+815B_4
 62
     7
100
AcDb2dPolyline
 66
     1
 10
0.0
 20
0.0
 30
0.0
  0
VERTEX
  5
129
330
128
100
AcDbEntity
  8
\U+838C\U+8343\U+8384\U+815B_4
 62
     7
100
AcDbVertex
100
AcDb2dVertex
 10
171.2453612853137
 20
113.8252658135576
 30
0.0
  0
VERTEX
  5
12A
330
128
100
AcDbEntity
  8
\U+838C\U+8343\U+8384\U+815B_4
 62
     7
100
AcDbVertex
100
AcDb2dVertex
 10
171.112380599583
 20
113.9031249715242
 30
0.0
  0
SEQEND
  5
12B
330
128
100
AcDbEntity
  8
\U+838C\U+8343\U+8384\U+815B_4
  0
ENDBLK
  5
127
330
124
100
AcDbEntity
  8
0
100
AcDbBlockEnd
  0
BLOCK
  5
12E
330
12C
100
AcDbEntity
  8
0
100
AcDbBlockBegin
  2
BLOCK_30
 70
     0
 71
     0
 10
0.0
 20
0.0
 30
0.0
  3
BLOCK_30
  1

  0
POLYLINE
  5
130
330
12C
100
AcDbEntity
  8
\U+838C\U+8343\U+8384\U+815B_4
 62
     7
100
AcDb2dPolyline
 66
     1
 10
0.0
 20
0.0
 30
0.0
  0
VERTEX
  5
131
330
130
100
AcDbEntity
  8
\U+838C\U+8343\U+8384\U+815B_4
 62
     7
100
AcDbVertex
100
AcDb2dVertex
 10
42.77447779963624
 20
182.0157633008502
 30
0.0
  0
VERTEX
  5
132
330
130
100
AcDbEntity
  8
\U+838C\U+8343\U+8384\U+815B_4
 62
     7
100
AcDbVertex
100
AcDb2dVertex
 10
167.8012993287094
 20
109.8386013180265
 30
0.0
  0
SEQEND
  5
133
330
130
100
AcDbEntity
  8
\U+838C\U+8343\U+8384\U+815B_4
  0
ENDBLK
  5
12F
330
12C
100
AcDbEntity
  8
0
100
AcDbBlockEnd
  0
BLOCK
  5
136
330
134
100
AcDbEntity
  8
0
100
AcDbBlockBegin
  2
BLOCK_31
 70
     0
 71
     0
 10
0.0
 20
0.0
 30
0.0
  3
BLOCK_31
  1

  0
POLYLINE
  5
138
330
134
100
AcDbEntity
  8
\U+838C\U+8343\U+8384\U+815B_4
 62
     7
100
AcDb2dPolyline
 66
     1
 10
0.0
 20
0.0
 30
0.0
  0
VERTEX
  5
139
330
138
100
AcDbEntity
  8
\U+838C\U+8343\U+8384\U+815B_4
 62
     7
100
AcDbVertex
100
AcDb2dVertex
 10
170.421983464339
 20
114.2490125582433
 30
0.0
  0
VERTEX
  5
13A
330
138
100
AcDbEntity
  8
\U+838C\U+8343\U+8384\U+815B_4
 62
     7
100
AcDbVertex
100
AcDb2dVertex
 10
45.28250731289813
 20
186.4902533170927
 30
0.0
  0
SEQEND
  5
13B
330
138
100
AcDbEntity
  8
\U+838C\U+8343\U+8384\U+815B_4
  0
ENDBLK
  5
137
330
134
100
AcDbEntity
  8
0
100
AcDbBlockEnd
  0
BLOCK
  5
13E
330
13C
100
AcDbEntity
  8
0
100
AcDbBlockBegin
  2
BLOCK_32
 70
     0
 71
     0
 10
0.0
 20
0.0
 30
0.0
  3
BLOCK_32
  1

  0
POLYLINE
  5
140
330
13C
100
AcDbEntity
  8
\U+838C\U+8343\U+8384\U+815B_4
 62
     7
100
AcDb2dPolyline
 66
     1
 10
0.0
 20
0.0
 30
0.0
  0
VERTEX
  5
141
330
140
100
AcDbEntity
  8
\U+838C\U+8343\U+8384\U+815B_4
 62
     7
100
AcDbVertex
100
AcDb2dVertex
 10
44.34458006703886
 20
186.8873005717678
 30
0.0
  0
VERTEX
  5
142
330
140
100
AcDbEntity
  8
\U+838C\U+8343\U+8384\U+815B_4
 62
     7
100
AcDbVertex
100
AcDb2dVertex
 10
44.1184095484322
 20
186.8816161642171
 30
0.0
  0
VERTEX
  5
143
330
140
100
AcDbEntity
  8
\U+838C\U+8343\U+8384\U+815B_4
 62
     7
100
AcDbVertex
100
AcDb2dVertex
 10
43.86347248252372
 20
186.8245998339362
 30
0.0
  0
VERTEX
  5
144
330
140
100
AcDbEntity
  8
\U+838C\U+8343\U+8384\U+815B_4
 62
     7
100
AcDbVertex
100
AcDb2dVertex
 10
43.59820013015948
 20
186.7172851095707
 30
0.0
  0
VERTEX
  5
145
330
140
100
AcDbEntity
  8
\U+838C\U+8343\U+8384\U+815B_4
 62
     7
100
AcDbVertex
100
AcDb2dVertex
 10
43.33017170140704
 20
186.5638061057028
 30
0.0
  0
VERTEX
  5
146
330
140
100
AcDbEntity
  8
\U+838C\U+8343\U+8384\U+815B_4
 62
     7
100
AcDbVertex
100
AcDb2dVertex
 10
43.06644964201116
 20
186.3645073318811
 30
0.0
  0
VERTEX
  5
147
330
140
100
AcDbEntity
  8
\U+838C\U+8343\U+8384\U+815B_4
 62
     7
100
AcDbVertex
100
AcDb2dVertex
 10
42.80979002836006
 20
186.1254177052048
 30
0.0
  0
VERTEX
  5
148
330
140
100
AcDbEntity
  8
\U+838C\U+8343\U+8384\U+815B_4
 62
     7
100
AcDbVertex
100
AcDb2dVertex
 10
42.56949461826388
 20
185.8527383975472
 30
0.0
  0
VERTEX
  5
149
330
140
100
AcDbEntity
  8
\U+838C\U+8343\U+8384\U+815B_4
 62
     7
100
AcDbVertex
100
AcDb2dVertex
 10
42.34831948811084
 20
185.5509480330394
 30
0.0
  0
VERTEX
  5
14A
330
140
100
AcDbEntity
  8
\U+838C\U+8343\U+8384\U+815B_4
 62
     7
100
AcDbVertex
100
AcDb2dVertex
 10
42.15177679067734
 20
185.2269368026516
 30
0.0
  0
VERTEX
  5
14B
330
140
100
AcDbEntity
  8
\U+838C\U+8343\U+8384\U+815B_4
 62
     7
100
AcDbVertex
100
AcDb2dVertex
 10
41.98486191441698
 20
184.8898342094199
 30
0.0
  0
VERTEX
  5
14C
330
140
100
AcDbEntity
  8
\U+838C\U+8343\U+8384\U+815B_4
 62
     7
100
AcDbVertex
100
AcDb2dVertex
 10
41.85136446436355
 20
184.5439466227008
 30
0.0
  0
VERTEX
  5
14D
330
140
100
AcDbEntity
  8
\U+838C\U+8343\U+8384\U+815B_4
 62
     7
100
AcDbVertex
100
AcDb2dVertex
 10
41.75335149780819
 20
184.2011596219185
 30
0.0
  0
VERTEX
  5
14E
330
140
100
AcDbEntity
  8
\U+838C\U+8343\U+8384\U+815B_4
 62
     7
100
AcDbVertex
100
AcDb2dVertex
 10
41.69461261978469
 20
183.8654350668809
 30
0.0
  0
VERTEX
  5
14F
330
140
100
AcDbEntity
  8
\U+838C\U+8343\U+8384\U+815B_4
 62
     7
100
AcDbVertex
100
AcDb2dVertex
 10
41.67411430164744
 20
183.5445244224298
 30
0.0
  0
VERTEX
  5
150
330
140
100
AcDbEntity
  8
\U+838C\U+8343\U+8384\U+815B_4
 62
     7
100
AcDbVertex
100
AcDb2dVertex
 10
41.69461261978469
 20
183.2484184654726
 30
0.0
  0
VERTEX
  5
151
330
140
100
AcDbEntity
  8
\U+838C\U+8343\U+8384\U+815B_4
 62
     7
100
AcDbVertex
100
AcDb2dVertex
 10
41.75335149780819
 20
182.98159582014
 30
0.0
  0
VERTEX
  5
152
330
140
100
AcDbEntity
  8
\U+838C\U+8343\U+8384\U+815B_4
 62
     7
100
AcDbVertex
100
AcDb2dVertex
 10
41.85136446436355
 20
182.7504299130798
 30
0.0
  0
VERTEX
  5
153
330
140
100
AcDbEntity
  8
\U+838C\U+8343\U+8384\U+815B_4
 62
     7
100
AcDbVertex
100
AcDb2dVertex
 10
41.90562471825623
 20
182.6622354686574
 30
0.0
  0
SEQEND
  5
154
330
140
100
AcDbEntity
  8
\U+838C\U+8343\U+8384\U+815B_4
  0
ENDBLK
  5
13F
330
13C
100
AcDbEntity
  8
0
100
AcDbBlockEnd
  0
BLOCK
  5
157
330
155
100
AcDbEntity
  8
0
100
AcDbBlockBegin
  2
BLOCK_33
 70
     0
 71
     0
 10
0.0
 20
0.0
 30
0.0
  3
BLOCK_33
  1

  0
POLYLINE
  5
159
330
155
100
AcDbEntity
  8
\U+838C\U+8343\U+8384\U+815B_4
 62
     7
100
AcDb2dPolyline
 66
     1
 10
0.0
 20
0.0
 30
0.0
  0
VERTEX
  5
15A
330
159
100
AcDbEntity
  8
\U+838C\U+8343\U+8384\U+815B_4
 62
     7
100
AcDbVertex
100
AcDb2dVertex
 10
42.16056178416472
 20
182.3721584287993
 30
0.0
  0
VERTEX
  5
15B
330
159
100
AcDbEntity
  8
\U+838C\U+8343\U+8384\U+815B_4
 62
     7
100
AcDbVertex
100
AcDb2dVertex
 10
42.11353623079106
 20
182.4010972308754
 30
0.0
  0
VERTEX
  5
15C
330
159
100
AcDbEntity
  8
\U+838C\U+8343\U+8384\U+815B_4
 62
     7
100
AcDbVertex
100
AcDb2dVertex
 10
41.94524331633661
 20
182.5480305533213
 30
0.0
  0
VERTEX
  5
15D
330
159
100
AcDbEntity
  8
\U+838C\U+8343\U+8384\U+815B_4
 62
     7
100
AcDbVertex
100
AcDb2dVertex
 10
41.80847302557219
 20
182.740094626624
 30
0.0
  0
VERTEX
  5
15E
330
159
100
AcDbEntity
  8
\U+838C\U+8343\U+8384\U+815B_4
 62
     7
100
AcDbVertex
100
AcDb2dVertex
 10
41.71080456856536
 20
182.974361119621
 30
0.0
  0
VERTEX
  5
15F
330
159
100
AcDbEntity
  8
\U+838C\U+8343\U+8384\U+815B_4
 62
     7
100
AcDbVertex
100
AcDb2dVertex
 10
41.64896510460513
 20
183.2454901343102
 30
0.0
  0
VERTEX
  5
160
330
159
100
AcDbEntity
  8
\U+838C\U+8343\U+8384\U+815B_4
 62
     7
100
AcDbVertex
100
AcDb2dVertex
 10
41.62984482466199
 20
183.5445244224298
 30
0.0
  0
VERTEX
  5
161
330
159
100
AcDbEntity
  8
\U+838C\U+8343\U+8384\U+815B_4
 62
     7
100
AcDbVertex
100
AcDb2dVertex
 10
41.64896510460513
 20
183.8683633980433
 30
0.0
  0
VERTEX
  5
162
330
159
100
AcDbEntity
  8
\U+838C\U+8343\U+8384\U+815B_4
 62
     7
100
AcDbVertex
100
AcDb2dVertex
 10
41.71080456856536
 20
184.2082220676632
 30
0.0
  0
VERTEX
  5
163
330
159
100
AcDbEntity
  8
\U+838C\U+8343\U+8384\U+815B_4
 62
     7
100
AcDbVertex
100
AcDb2dVertex
 10
41.80847302557219
 20
184.5573824950933
 30
0.0
  0
VERTEX
  5
164
330
159
100
AcDbEntity
  8
\U+838C\U+8343\U+8384\U+815B_4
 62
     7
100
AcDbVertex
100
AcDb2dVertex
 10
41.94524331633661
 20
184.9060261582006
 30
0.0
  0
VERTEX
  5
165
330
159
100
AcDbEntity
  8
\U+838C\U+8343\U+8384\U+815B_4
 62
     7
100
AcDbVertex
100
AcDb2dVertex
 10
42.11353623079106
 20
185.2491576685315
 30
0.0
  0
VERTEX
  5
166
330
159
100
AcDbEntity
  8
\U+838C\U+8343\U+8384\U+815B_4
 62
     7
100
AcDbVertex
100
AcDb2dVertex
 10
42.31145696641867
 20
185.5755804657589
 30
0.0
  0
VERTEX
  5
167
330
159
100
AcDbEntity
  8
\U+838C\U+8343\U+8384\U+815B_4
 62
     7
100
AcDbVertex
100
AcDb2dVertex
 10
42.53590493728269
 20
185.8806436709778
 30
0.0
  0
VERTEX
  5
168
330
159
100
AcDbEntity
  8
\U+838C\U+8343\U+8384\U+815B_4
 62
     7
100
AcDbVertex
100
AcDb2dVertex
 10
42.78067897150969
 20
186.1576293479918
 30
0.0
  0
VERTEX
  5
169
330
159
100
AcDbEntity
  8
\U+838C\U+8343\U+8384\U+815B_4
 62
     7
100
AcDbVertex
100
AcDb2dVertex
 10
43.03854436858065
 20
186.3993027962821
 30
0.0
  0
VERTEX
  5
16A
330
159
100
AcDbEntity
  8
\U+838C\U+8343\U+8384\U+815B_4
 62
     7
100
AcDbVertex
100
AcDb2dVertex
 10
43.30657279733308
 20
186.6003241178465
 30
0.0
  0
VERTEX
  5
16B
330
159
100
AcDbEntity
  8
\U+838C\U+8343\U+8384\U+815B_4
 62
     7
100
AcDbVertex
100
AcDb2dVertex
 10
43.57804632157077
 20
186.7570759624253
 30
0.0
  0
VERTEX
  5
16C
330
159
100
AcDbEntity
  8
\U+838C\U+8343\U+8384\U+815B_4
 62
     7
100
AcDbVertex
100
AcDb2dVertex
 10
43.8460747503232
 20
186.8654242154364
 30
0.0
  0
VERTEX
  5
16D
330
159
100
AcDbEntity
  8
\U+838C\U+8343\U+8384\U+815B_4
 62
     7
100
AcDbVertex
100
AcDb2dVertex
 10
44.10394014739416
 20
186.9227850552658
 30
0.0
  0
VERTEX
  5
16E
330
159
100
AcDbEntity
  8
\U+838C\U+8343\U+8384\U+815B_4
 62
     7
100
AcDbVertex
100
AcDb2dVertex
 10
44.34871418162115
 20
186.9270914246224
 30
0.0
  0
VERTEX
  5
16F
330
159
100
AcDbEntity
  8
\U+838C\U+8343\U+8384\U+815B_4
 62
     7
100
AcDbVertex
100
AcDb2dVertex
 10
44.57298989771092
 20
186.8800658712487
 30
0.0
  0
VERTEX
  5
170
330
159
100
AcDbEntity
  8
\U+838C\U+8343\U+8384\U+815B_4
 62
     7
100
AcDbVertex
100
AcDb2dVertex
 10
44.72422958951339
 20
186.8115084710923
 30
0.0
  0
SEQEND
  5
171
330
159
100
AcDbEntity
  8
\U+838C\U+8343\U+8384\U+815B_4
  0
ENDBLK
  5
158
330
155
100
AcDbEntity
  8
0
100
AcDbBlockEnd
  0
BLOCK
  5
174
330
172
100
AcDbEntity
  8
0
100
AcDbBlockBegin
  2
BLOCK_34
 70
     0
 71
     0
 10
0.0
 20
0.0
 30
0.0
  3
BLOCK_34
  1

  0
POLYLINE
  5
176
330
172
100
AcDbEntity
  8
\U+838C\U+8343\U+8384\U+815B_4
 62
     7
100
AcDb2dPolyline
 66
     1
 10
0.0
 20
0.0
 30
0.0
  0
VERTEX
  5
177
330
176
100
AcDbEntity
  8
\U+838C\U+8343\U+8384\U+815B_4
 62
     7
100
AcDbVertex
100
AcDb2dVertex
 10
44.6346571068969
 20
186.8640461772423
 30
0.0
  0
VERTEX
  5
178
330
176
100
AcDbEntity
  8
\U+838C\U+8343\U+8384\U+815B_4
 62
     7
100
AcDbVertex
100
AcDb2dVertex
 10
44.48376192464295
 20
186.9329480869473
 30
0.0
  0
VERTEX
  5
179
330
176
100
AcDbEntity
  8
\U+838C\U+8343\U+8384\U+815B_4
 62
     7
100
AcDbVertex
100
AcDb2dVertex
 10
44.25948620855318
 20
186.979973640321
 30
0.0
  0
VERTEX
  5
17A
330
176
100
AcDbEntity
  8
\U+838C\U+8343\U+8384\U+815B_4
 62
     7
100
AcDbVertex
100
AcDb2dVertex
 10
44.01591795774602
 20
186.9737724684475
 30
0.0
  0
VERTEX
  5
17B
330
176
100
AcDbEntity
  8
\U+838C\U+8343\U+8384\U+815B_4
 62
     7
100
AcDbVertex
100
AcDb2dVertex
 10
43.75667452248097
 20
186.9165838833924
 30
0.0
  0
VERTEX
  5
17C
330
176
100
AcDbEntity
  8
\U+838C\U+8343\U+8384\U+815B_4
 62
     7
100
AcDbVertex
100
AcDb2dVertex
 10
43.48847383895427
 20
186.8084078851555
 30
0.0
  0
VERTEX
  5
17D
330
176
100
AcDbEntity
  8
\U+838C\U+8343\U+8384\U+815B_4
 62
     7
100
AcDbVertex
100
AcDb2dVertex
 10
43.21734482426511
 20
186.6526895692222
 30
0.0
  0
VERTEX
  5
17E
330
176
100
AcDbEntity
  8
\U+838C\U+8343\U+8384\U+815B_4
 62
     7
100
AcDbVertex
100
AcDb2dVertex
 10
42.94897188596415
 20
186.4508069737866
 30
0.0
  0
VERTEX
  5
17F
330
176
100
AcDbEntity
  8
\U+838C\U+8343\U+8384\U+815B_4
 62
     7
100
AcDbVertex
100
AcDb2dVertex
 10
42.69127874366746
 20
186.2087890159478
 30
0.0
  0
VERTEX
  5
180
330
176
100
AcDbEntity
  8
\U+838C\U+8343\U+8384\U+815B_4
 62
     7
100
AcDbVertex
100
AcDb2dVertex
 10
42.44650470944046
 20
185.9335258866763
 30
0.0
  0
VERTEX
  5
181
330
176
100
AcDbEntity
  8
\U+838C\U+8343\U+8384\U+815B_4
 62
     7
100
AcDbVertex
100
AcDb2dVertex
 10
42.2222289933507
 20
185.6270846432634
 30
0.0
  0
VERTEX
  5
182
330
176
100
AcDbEntity
  8
\U+838C\U+8343\U+8384\U+815B_4
 62
     7
100
AcDbVertex
100
AcDb2dVertex
 10
42.02430825772309
 20
185.3001450817132
 30
0.0
  0
VERTEX
  5
183
330
176
100
AcDbEntity
  8
\U+838C\U+8343\U+8384\U+815B_4
 62
     7
100
AcDbVertex
100
AcDb2dVertex
 10
41.85601534326864
 20
184.9571858261565
 30
0.0
  0
VERTEX
  5
184
330
176
100
AcDbEntity
  8
\U+838C\U+8343\U+8384\U+815B_4
 62
     7
100
AcDbVertex
100
AcDb2dVertex
 10
41.71941730727848
 20
184.608369908275
 30
0.0
  0
VERTEX
  5
185
330
176
100
AcDbEntity
  8
\U+838C\U+8343\U+8384\U+815B_4
 62
     7
100
AcDbVertex
100
AcDb2dVertex
 10
41.6210598311746
 20
184.2595539903934
 30
0.0
  0
VERTEX
  5
186
330
176
100
AcDbEntity
  8
\U+838C\U+8343\U+8384\U+815B_4
 62
     7
100
AcDbVertex
100
AcDb2dVertex
 10
41.56128742450552
 20
183.9196953207736
 30
0.0
  0
VERTEX
  5
187
330
176
100
AcDbEntity
  8
\U+838C\U+8343\U+8384\U+815B_4
 62
     7
100
AcDbVertex
100
AcDb2dVertex
 10
41.54096136114254
 20
183.5972343833542
 30
0.0
  0
VERTEX
  5
188
330
176
100
AcDbEntity
  8
\U+838C\U+8343\U+8384\U+815B_4
 62
     7
100
AcDbVertex
100
AcDb2dVertex
 10
41.56128742450552
 20
183.2968220570404
 30
0.0
  0
VERTEX
  5
189
330
176
100
AcDbEntity
  8
\U+838C\U+8343\U+8384\U+815B_4
 62
     7
100
AcDbVertex
100
AcDb2dVertex
 10
41.6210598311746
 20
183.025520787577
 30
0.0
  0
VERTEX
  5
18A
330
176
100
AcDbEntity
  8
\U+838C\U+8343\U+8384\U+815B_4
 62
     7
100
AcDbVertex
100
AcDb2dVertex
 10
41.71941730727848
 20
182.7926323327741
 30
0.0
  0
VERTEX
  5
18B
330
176
100
AcDbEntity
  8
\U+838C\U+8343\U+8384\U+815B_4
 62
     7
100
AcDbVertex
100
AcDb2dVertex
 10
41.85601534326864
 20
182.5991902212773
 30
0.0
  0
VERTEX
  5
18C
330
176
100
AcDbEntity
  8
\U+838C\U+8343\U+8384\U+815B_4
 62
     7
100
AcDbVertex
100
AcDb2dVertex
 10
42.02430825772309
 20
182.4524291536057
 30
0.0
  0
VERTEX
  5
18D
330
176
100
AcDbEntity
  8
\U+838C\U+8343\U+8384\U+815B_4
 62
     7
100
AcDbVertex
100
AcDb2dVertex
 10
42.07116155632249
 20
182.4233180967553
 30
0.0
  0
SEQEND
  5
18E
330
176
100
AcDbEntity
  8
\U+838C\U+8343\U+8384\U+815B_4
  0
ENDBLK
  5
175
330
172
100
AcDbEntity
  8
0
100
AcDbBlockEnd
  0
BLOCK
  5
191
330
18F
100
AcDbEntity
  8
0
100
AcDbBlockBegin
  2
BLOCK_35
 70
     0
 71
     0
 10
0.0
 20
0.0
 30
0.0
  3
BLOCK_35
  1

  0
POLYLINE
  5
193
330
18F
100
AcDbEntity
  8
\U+838C\U+8343\U+8384\U+815B_4
 62
     7
100
AcDb2dPolyline
 66
     1
 10
0.0
 20
0.0
 30
0.0
  0
VERTEX
  5
194
330
193
100
AcDbEntity
  8
\U+838C\U+8343\U+8384\U+815B_4
 62
     7
100
AcDbVertex
100
AcDb2dVertex
 10
41.49083522183216
 20
183.5868990968984
 30
0.0
  0
VERTEX
  5
195
330
193
100
AcDbEntity
  8
\U+838C\U+8343\U+8384\U+815B_4
 62
     7
100
AcDbVertex
100
AcDb2dVertex
 10
41.50995550177529
 20
183.9093600343178
 30
0.0
  0
VERTEX
  5
196
330
193
100
AcDbEntity
  8
\U+838C\U+8343\U+8384\U+815B_4
 62
     7
100
AcDbVertex
100
AcDb2dVertex
 10
41.5686943797988
 20
184.2462903727752
 30
0.0
  0
VERTEX
  5
197
330
193
100
AcDbEntity
  8
\U+838C\U+8343\U+8384\U+815B_4
 62
     7
100
AcDbVertex
100
AcDb2dVertex
 10
41.66550156293432
 20
184.5923502142686
 30
0.0
  0
VERTEX
  5
198
330
193
100
AcDbEntity
  8
\U+838C\U+8343\U+8384\U+815B_4
 62
     7
100
AcDbVertex
100
AcDb2dVertex
 10
41.79710421047086
 20
184.9396158391818
 30
0.0
  0
VERTEX
  5
199
330
193
100
AcDbEntity
  8
\U+838C\U+8343\U+8384\U+815B_4
 62
     7
100
AcDbVertex
100
AcDb2dVertex
 10
41.96109075556875
 20
185.28102480177
 30
0.0
  0
VERTEX
  5
19A
330
193
100
AcDbEntity
  8
\U+838C\U+8343\U+8384\U+815B_4
 62
     7
100
AcDbVertex
100
AcDb2dVertex
 10
42.15642766958242
 20
185.6091701467401
 30
0.0
  0
VERTEX
  5
19B
330
193
100
AcDbEntity
  8
\U+838C\U+8343\U+8384\U+815B_4
 62
     7
100
AcDbVertex
100
AcDb2dVertex
 10
42.374674468573
 20
185.9171616831214
 30
0.0
  0
VERTEX
  5
19C
330
193
100
AcDbEntity
  8
\U+838C\U+8343\U+8384\U+815B_4
 62
     7
100
AcDbVertex
100
AcDb2dVertex
 10
42.61496987866918
 20
186.197075691298
 30
0.0
  0
VERTEX
  5
19D
330
193
100
AcDbEntity
  8
\U+838C\U+8343\U+8384\U+815B_4
 62
     7
100
AcDbVertex
100
AcDb2dVertex
 10
42.87007919935193
 20
186.4447780566874
 30
0.0
  0
VERTEX
  5
19E
330
193
100
AcDbEntity
  8
\U+838C\U+8343\U+8384\U+815B_4
 62
     7
100
AcDbVertex
100
AcDb2dVertex
 10
43.13397351352206
 20
186.6544121169649
 30
0.0
  0
VERTEX
  5
19F
330
193
100
AcDbEntity
  8
\U+838C\U+8343\U+8384\U+815B_4
 62
     7
100
AcDbVertex
100
AcDb2dVertex
 10
43.40355223524286
 20
186.8213269932252
 30
0.0
  0
VERTEX
  5
1A0
330
193
100
AcDbEntity
  8
\U+838C\U+8343\U+8384\U+815B_4
 62
     7
100
AcDbVertex
100
AcDb2dVertex
 10
43.67175291876956
 20
186.9417330804347
 30
0.0
  0
VERTEX
  5
1A1
330
193
100
AcDbEntity
  8
\U+838C\U+8343\U+8384\U+815B_4
 62
     7
100
AcDbVertex
100
AcDb2dVertex
 10
43.93254664700298
 20
187.0135633213022
 30
0.0
  0
VERTEX
  5
1A2
330
193
100
AcDbEntity
  8
\U+838C\U+8343\U+8384\U+815B_4
 62
     7
100
AcDbVertex
100
AcDb2dVertex
 10
44.18024901239244
 20
187.0354396776335
 30
0.0
  0
VERTEX
  5
1A3
330
193
100
AcDbEntity
  8
\U+838C\U+8343\U+8384\U+815B_4
 62
     7
100
AcDbVertex
100
AcDb2dVertex
 10
44.41038139080713
 20
187.0059841112346
 30
0.0
  0
VERTEX
  5
1A4
330
193
100
AcDbEntity
  8
\U+838C\U+8343\U+8384\U+815B_4
 62
     7
100
AcDbVertex
100
AcDb2dVertex
 10
44.61691486514786
 20
186.9270914246224
 30
0.0
  0
VERTEX
  5
1A5
330
193
100
AcDbEntity
  8
\U+838C\U+8343\U+8384\U+815B_4
 62
     7
100
AcDbVertex
100
AcDb2dVertex
 10
44.79743786857495
 20
186.798244853474
 30
0.0
  0
VERTEX
  5
1A6
330
193
100
AcDbEntity
  8
\U+838C\U+8343\U+8384\U+815B_4
 62
     7
100
AcDbVertex
100
AcDb2dVertex
 10
44.86892359989388
 20
186.7250365744125
 30
0.0
  0
SEQEND
  5
1A7
330
193
100
AcDbEntity
  8
\U+838C\U+8343\U+8384\U+815B_4
  0
ENDBLK
  5
192
330
18F
100
AcDbEntity
  8
0
100
AcDbBlockEnd
  0
BLOCK
  5
1AA
330
1A8
100
AcDbEntity
  8
0
100
AcDbBlockBegin
  2
BLOCK_36
 70
     0
 71
     0
 10
0.0
 20
0.0
 30
0.0
  3
BLOCK_36
  1

  0
POLYLINE
  5
1AC
330
1A8
100
AcDbEntity
  8
\U+838C\U+8343\U+8384\U+815B_4
 62
     7
100
AcDb2dPolyline
 66
     1
 10
0.0
 20
0.0
 30
0.0
  0
VERTEX
  5
1AD
330
1AC
100
AcDbEntity
  8
\U+838C\U+8343\U+8384\U+815B_4
 62
     7
100
AcDbVertex
100
AcDb2dVertex
 10
42.30887314480473
 20
182.2882703537335
 30
0.0
  0
VERTEX
  5
1AE
330
1AC
100
AcDbEntity
  8
\U+838C\U+8343\U+8384\U+815B_4
 62
     7
100
AcDbVertex
100
AcDb2dVertex
 10
42.15642766958242
 20
182.3323675759447
 30
0.0
  0
VERTEX
  5
1AF
330
1AC
100
AcDbEntity
  8
\U+838C\U+8343\U+8384\U+815B_4
 62
     7
100
AcDbVertex
100
AcDb2dVertex
 10
41.96109075556875
 20
182.4365817143735
 30
0.0
  0
VERTEX
  5
1B0
330
1AC
100
AcDbEntity
  8
\U+838C\U+8343\U+8384\U+815B_4
 62
     7
100
AcDbVertex
100
AcDb2dVertex
 10
41.79710421047086
 20
182.5890271895958
 30
0.0
  0
VERTEX
  5
1B1
330
1AC
100
AcDbEntity
  8
\U+838C\U+8343\U+8384\U+815B_4
 62
     7
100
AcDbVertex
100
AcDb2dVertex
 10
41.66550156293432
 20
182.7836750845124
 30
0.0
  0
VERTEX
  5
1B2
330
1AC
100
AcDbEntity
  8
\U+838C\U+8343\U+8384\U+815B_4
 62
     7
100
AcDbVertex
100
AcDb2dVertex
 10
41.5686943797988
 20
183.0181138322837
 30
0.0
  0
VERTEX
  5
1B3
330
1AC
100
AcDbEntity
  8
\U+838C\U+8343\U+8384\U+815B_4
 62
     7
100
AcDbVertex
100
AcDb2dVertex
 10
41.50995550177529
 20
183.288037063553
 30
0.0
  0
VERTEX
  5
1B4
330
1AC
100
AcDbEntity
  8
\U+838C\U+8343\U+8384\U+815B_4
 62
     7
100
AcDbVertex
100
AcDb2dVertex
 10
41.49083522183216
 20
183.5868990968984
 30
0.0
  0
SEQEND
  5
1B5
330
1AC
100
AcDbEntity
  8
\U+838C\U+8343\U+8384\U+815B_4
  0
ENDBLK
  5
1AB
330
1A8
100
AcDbEntity
  8
0
100
AcDbBlockEnd
  0
BLOCK
  5
1B8
330
1B6
100
AcDbEntity
  8
0
100
AcDbBlockBegin
  2
BLOCK_37
 70
     0
 71
     0
 10
0.0
 20
0.0
 30
0.0
  3
BLOCK_37
  1

  0
POLYLINE
  5
1BA
330
1B6
100
AcDbEntity
  8
\U+838C\U+8343\U+8384\U+815B_4
 62
     7
100
AcDb2dPolyline
 66
     1
 10
0.0
 20
0.0
 30
0.0
  0
VERTEX
  5
1BB
330
1BA
100
AcDbEntity
  8
\U+838C\U+8343\U+8384\U+815B_4
 62
     7
100
AcDbVertex
100
AcDb2dVertex
 10
44.80450031431971
 20
186.7656887011385
 30
0.0
  0
VERTEX
  5
1BC
330
1BA
100
AcDbEntity
  8
\U+838C\U+8343\U+8384\U+815B_4
 62
     7
100
AcDbVertex
100
AcDb2dVertex
 10
44.69305147537188
 20
186.8538831455608
 30
0.0
  0
VERTEX
  5
1BD
330
1BA
100
AcDbEntity
  8
\U+838C\U+8343\U+8384\U+815B_4
 62
     7
100
AcDbVertex
100
AcDb2dVertex
 10
44.49392495632443
 20
186.9520683668905
 30
0.0
  0
VERTEX
  5
1BE
330
1BA
100
AcDbEntity
  8
\U+838C\U+8343\U+8384\U+815B_4
 62
     7
100
AcDbVertex
100
AcDb2dVertex
 10
44.26844345681484
 20
187.0006442132325
 30
0.0
  0
VERTEX
  5
1BF
330
1BA
100
AcDbEntity
  8
\U+838C\U+8343\U+8384\U+815B_4
 62
     7
100
AcDbVertex
100
AcDb2dVertex
 10
44.02211912961947
 20
186.994443041359
 30
0.0
  0
VERTEX
  5
1C0
330
1BA
100
AcDbEntity
  8
\U+838C\U+8343\U+8384\U+815B_4
 62
     7
100
AcDbVertex
100
AcDb2dVertex
 10
43.75960285364344
 20
186.9372544563039
 30
0.0
  0
VERTEX
  5
1C1
330
1BA
100
AcDbEntity
  8
\U+838C\U+8343\U+8384\U+815B_4
 62
     7
100
AcDbVertex
100
AcDb2dVertex
 10
43.49002413192264
 20
186.8289062032928
 30
0.0
  0
VERTEX
  5
1C2
330
1BA
100
AcDbEntity
  8
\U+838C\U+8343\U+8384\U+815B_4
 62
     7
100
AcDbVertex
100
AcDb2dVertex
 10
43.21579453129675
 20
186.6704318109713
 30
0.0
  0
VERTEX
  5
1C3
330
1BA
100
AcDbEntity
  8
\U+838C\U+8343\U+8384\U+815B_4
 62
     7
100
AcDbVertex
100
AcDb2dVertex
 10
42.94604355480168
 20
186.4669989225673
 30
0.0
  0
VERTEX
  5
1C4
330
1BA
100
AcDbEntity
  8
\U+838C\U+8343\U+8384\U+815B_4
 62
     7
100
AcDbVertex
100
AcDb2dVertex
 10
42.68524982656827
 20
186.2237751813086
 30
0.0
  0
VERTEX
  5
1C5
330
1BA
100
AcDbEntity
  8
\U+838C\U+8343\U+8384\U+815B_4
 62
     7
100
AcDbVertex
100
AcDb2dVertex
 10
42.43909775414717
 20
185.9435166635836
 30
0.0
  0
VERTEX
  5
1C6
330
1BA
100
AcDbEntity
  8
\U+838C\U+8343\U+8384\U+815B_4
 62
     7
100
AcDbVertex
100
AcDb2dVertex
 10
42.21344399986331
 20
185.6358696367508
 30
0.0
  0
VERTEX
  5
1C7
330
1BA
100
AcDbEntity
  8
\U+838C\U+8343\U+8384\U+815B_4
 62
     7
100
AcDbVertex
100
AcDb2dVertex
 10
42.01259493307325
 20
185.3063462535866
 30
0.0
  0
VERTEX
  5
1C8
330
1BA
100
AcDbEntity
  8
\U+838C\U+8343\U+8384\U+815B_4
 62
     7
100
AcDbVertex
100
AcDb2dVertex
 10
41.84257947087616
 20
184.9602864120933
 30
0.0
  0
VERTEX
  5
1C9
330
1BA
100
AcDbEntity
  8
\U+838C\U+8343\U+8384\U+815B_4
 62
     7
100
AcDbVertex
100
AcDb2dVertex
 10
41.70477565146617
 20
184.608369908275
 30
0.0
  0
VERTEX
  5
1CA
330
1BA
100
AcDbEntity
  8
\U+838C\U+8343\U+8384\U+815B_4
 62
     7
100
AcDbVertex
100
AcDb2dVertex
 10
41.60521239194245
 20
184.256625659231
 30
0.0
  0
VERTEX
  5
1CB
330
1BA
100
AcDbEntity
  8
\U+838C\U+8343\U+8384\U+815B_4
 62
     7
100
AcDbVertex
100
AcDb2dVertex
 10
41.54492322095058
 20
183.9140109132229
 30
0.0
  0
VERTEX
  5
1CC
330
1BA
100
AcDbEntity
  8
\U+838C\U+8343\U+8384\U+815B_4
 62
     7
100
AcDbVertex
100
AcDb2dVertex
 10
41.52476941236186
 20
183.5868990968984
 30
0.0
  0
VERTEX
  5
1CD
330
1BA
100
AcDbEntity
  8
\U+838C\U+8343\U+8384\U+815B_4
 62
     7
100
AcDbVertex
100
AcDb2dVertex
 10
41.54492322095058
 20
183.2851087323905
 30
0.0
  0
VERTEX
  5
1CE
330
1BA
100
AcDbEntity
  8
\U+838C\U+8343\U+8384\U+815B_4
 62
     7
100
AcDbVertex
100
AcDb2dVertex
 10
41.60521239194245
 20
183.0126016795073
 30
0.0
  0
VERTEX
  5
1CF
330
1BA
100
AcDbEntity
  8
\U+838C\U+8343\U+8384\U+815B_4
 62
     7
100
AcDbVertex
100
AcDb2dVertex
 10
41.70477565146617
 20
182.774890091025
 30
0.0
  0
VERTEX
  5
1D0
330
1BA
100
AcDbEntity
  8
\U+838C\U+8343\U+8384\U+815B_4
 62
     7
100
AcDbVertex
100
AcDb2dVertex
 10
41.84257947087616
 20
182.5814479795283
 30
0.0
  0
VERTEX
  5
1D1
330
1BA
100
AcDbEntity
  8
\U+838C\U+8343\U+8384\U+815B_4
 62
     7
100
AcDbVertex
100
AcDb2dVertex
 10
42.01259493307325
 20
182.4321030902427
 30
0.0
  0
VERTEX
  5
1D2
330
1BA
100
AcDbEntity
  8
\U+838C\U+8343\U+8384\U+815B_4
 62
     7
100
AcDbVertex
100
AcDb2dVertex
 10
42.21344399986331
 20
182.3340901236873
 30
0.0
  0
VERTEX
  5
1D3
330
1BA
100
AcDbEntity
  8
\U+838C\U+8343\U+8384\U+815B_4
 62
     7
100
AcDbVertex
100
AcDb2dVertex
 10
42.2396267255512
 20
182.3247883658771
 30
0.0
  0
SEQEND
  5
1D4
330
1BA
100
AcDbEntity
  8
\U+838C\U+8343\U+8384\U+815B_4
  0
ENDBLK
  5
1B9
330
1B6
100
AcDbEntity
  8
0
100
AcDbBlockEnd
  0
BLOCK
  5
1D7
330
1D5
100
AcDbEntity
  8
0
100
AcDbBlockBegin
  2
BLOCK_38
 70
     0
 71
     0
 10
0.0
 20
0.0
 30
0.0
  3
BLOCK_38
  1

  0
POLYLINE
  5
1D9
330
1D5
100
AcDbEntity
  8
\U+838C\U+8343\U+8384\U+815B_4
 62
     7
100
AcDb2dPolyline
 66
     1
 10
0.0
 20
0.0
 30
0.0
  0
VERTEX
  5
1DA
330
1D9
100
AcDbEntity
  8
\U+838C\U+8343\U+8384\U+815B_4
 62
     7
100
AcDbVertex
100
AcDb2dVertex
 10
44.50270994981182
 20
186.9928927483907
 30
0.0
  0
VERTEX
  5
1DB
330
1D9
100
AcDbEntity
  8
\U+838C\U+8343\U+8384\U+815B_4
 62
     7
100
AcDbVertex
100
AcDb2dVertex
 10
44.38264837215087
 20
187.0485310404775
 30
0.0
  0
VERTEX
  5
1DC
330
1D9
100
AcDbEntity
  8
\U+838C\U+8343\U+8384\U+815B_4
 62
     7
100
AcDbVertex
100
AcDb2dVertex
 10
44.16422931838603
 20
187.104686096887
 30
0.0
  0
VERTEX
  5
1DD
330
1D9
100
AcDbEntity
  8
\U+838C\U+8343\U+8384\U+815B_4
 62
     7
100
AcDbVertex
100
AcDb2dVertex
 10
43.92376165351559
 20
187.1070976637267
 30
0.0
  0
VERTEX
  5
1DE
330
1D9
100
AcDbEntity
  8
\U+838C\U+8343\U+8384\U+815B_4
 62
     7
100
AcDbVertex
100
AcDb2dVertex
 10
43.6688245876071
 20
187.0604166199016
 30
0.0
  0
VERTEX
  5
1DF
330
1D9
100
AcDbEntity
  8
\U+838C\U+8343\U+8384\U+815B_4
 62
     7
100
AcDbVertex
100
AcDb2dVertex
 10
43.40355223524286
 20
186.9651597297344
 30
0.0
  0
VERTEX
  5
1E0
330
1D9
100
AcDbEntity
  8
\U+838C\U+8343\U+8384\U+815B_4
 62
     7
100
AcDbVertex
100
AcDb2dVertex
 10
43.1351792969419
 20
186.8201212098054
 30
0.0
  0
VERTEX
  5
1E1
330
1D9
100
AcDbEntity
  8
\U+838C\U+8343\U+8384\U+815B_4
 62
     7
100
AcDbVertex
100
AcDb2dVertex
 10
42.8669786134152
 20
186.6323635058593
 30
0.0
  0
VERTEX
  5
1E2
330
1D9
100
AcDbEntity
  8
\U+838C\U+8343\U+8384\U+815B_4
 62
     7
100
AcDbVertex
100
AcDb2dVertex
 10
42.60618488518179
 20
186.4025756369931
 30
0.0
  0
VERTEX
  5
1E3
330
1D9
100
AcDbEntity
  8
\U+838C\U+8343\U+8384\U+815B_4
 62
     7
100
AcDbVertex
100
AcDb2dVertex
 10
42.35831026501806
 20
186.138681322823
 30
0.0
  0
VERTEX
  5
1E4
330
1D9
100
AcDbEntity
  8
\U+838C\U+8343\U+8384\U+815B_4
 62
     7
100
AcDbVertex
100
AcDb2dVertex
 10
42.1285223961519
 20
185.8425753658657
 30
0.0
  0
VERTEX
  5
1E5
330
1D9
100
AcDbEntity
  8
\U+838C\U+8343\U+8384\U+815B_4
 62
     7
100
AcDbVertex
100
AcDb2dVertex
 10
41.92198892181117
 20
185.5244207978029
 30
0.0
  0
VERTEX
  5
1E6
330
1D9
100
AcDbEntity
  8
\U+838C\U+8343\U+8384\U+815B_4
 62
     7
100
AcDbVertex
100
AcDb2dVertex
 10
41.74163817315834
 20
185.1888684975396
 30
0.0
  0
VERTEX
  5
1E7
330
1D9
100
AcDbEntity
  8
\U+838C\U+8343\U+8384\U+815B_4
 62
     7
100
AcDbVertex
100
AcDb2dVertex
 10
41.59315455774407
 20
184.8441866942404
 30
0.0
  0
VERTEX
  5
1E8
330
1D9
100
AcDbEntity
  8
\U+838C\U+8343\U+8384\U+815B_4
 62
     7
100
AcDbVertex
100
AcDb2dVertex
 10
41.47894964240804
 20
184.4970933241014
 30
0.0
  0
VERTEX
  5
1E9
330
1D9
100
AcDbEntity
  8
\U+838C\U+8343\U+8384\U+815B_4
 62
     7
100
AcDbVertex
100
AcDb2dVertex
 10
41.40160724876419
 20
184.1539618137705
 30
0.0
  0
VERTEX
  5
1EA
330
1D9
100
AcDbEntity
  8
\U+838C\U+8343\U+8384\U+815B_4
 62
     7
100
AcDbVertex
100
AcDb2dVertex
 10
41.36216090545808
 20
183.822888137638
 30
0.0
  0
VERTEX
  5
1EB
330
1D9
100
AcDbEntity
  8
\U+838C\U+8343\U+8384\U+815B_4
 62
     7
100
AcDbVertex
100
AcDb2dVertex
 10
41.36216090545808
 20
183.5123127796428
 30
0.0
  0
VERTEX
  5
1EC
330
1D9
100
AcDbEntity
  8
\U+838C\U+8343\U+8384\U+815B_4
 62
     7
100
AcDbVertex
100
AcDb2dVertex
 10
41.40160724876419
 20
183.2279201473354
 30
0.0
  0
VERTEX
  5
1ED
330
1D9
100
AcDbEntity
  8
\U+838C\U+8343\U+8384\U+815B_4
 62
     7
100
AcDbVertex
100
AcDb2dVertex
 10
41.47894964240804
 20
182.974361119621
 30
0.0
  0
VERTEX
  5
1EE
330
1D9
100
AcDbEntity
  8
\U+838C\U+8343\U+8384\U+815B_4
 62
     7
100
AcDbVertex
100
AcDb2dVertex
 10
41.59315455774407
 20
182.7590426517929
 30
0.0
  0
VERTEX
  5
1EF
330
1D9
100
AcDbEntity
  8
\U+838C\U+8343\U+8384\U+815B_4
 62
     7
100
AcDbVertex
100
AcDb2dVertex
 10
41.74163817315834
 20
182.584548565465
 30
0.0
  0
VERTEX
  5
1F0
330
1D9
100
AcDbEntity
  8
\U+838C\U+8343\U+8384\U+815B_4
 62
     7
100
AcDbVertex
100
AcDb2dVertex
 10
41.89425590315491
 20
182.4732719812914
 30
0.0
  0
SEQEND
  5
1F1
330
1D9
100
AcDbEntity
  8
\U+838C\U+8343\U+8384\U+815B_4
  0
ENDBLK
  5
1D8
330
1D5
100
AcDbEntity
  8
0
100
AcDbBlockEnd
  0
BLOCK
  5
1F4
330
1F2
100
AcDbEntity
  8
0
100
AcDbBlockBegin
  2
BLOCK_39
 70
     0
 71
     0
 10
0.0
 20
0.0
 30
0.0
  3
BLOCK_39
  1

  0
SPLINE
  5
1F6
330
1F2
100
AcDbEntity
  8
\U+838C\U+8343\U+8384\U+815B_4
 62
     7
100
AcDbSpline
210
0.0
220
0.0
230
1.0
 70
     8
 71
     3
 72
     8
 73
     4
 74
     0
 42
0.0000000001
 43
0.0000000001
 40
0.0
 40
0.0
 40
0.0
 40
0.0
 40
1.0
 40
1.0
 40
1.0
 40
1.0
 10
43.18496092670376
 20
186.8507825596241
 30
0.0
 10
42.09458820562219
 20
186.1576293479918
 30
0.0
 10
41.41159802567141
 20
184.9745835583571
 30
0.0
 10
41.35751002655299
 20
183.6837062800339
 30
0.0
  0
ENDBLK
  5
1F5
330
1F2
100
AcDbEntity
  8
0
100
AcDbBlockEnd
  0
BLOCK
  5
1F9
330
1F7
100
AcDbEntity
  8
0
100
AcDbBlockBegin
  2
BLOCK_40
 70
     0
 71
     0
 10
0.0
 20
0.0
 30
0.0
  3
BLOCK_40
  1

  0
POLYLINE
  5
1FB
330
1F7
100
AcDbEntity
  8
\U+838C\U+8343\U+8384\U+815B_4
 62
     7
100
AcDb2dPolyline
 66
     1
 10
0.0
 20
0.0
 30
0.0
  0
VERTEX
  5
1FC
330
1FB
100
AcDbEntity
  8
\U+838C\U+8343\U+8384\U+815B_4
 62
     7
100
AcDbVertex
100
AcDb2dVertex
 10
38.02041828476573
 20
185.6623968719872
 30
0.0
  0
VERTEX
  5
1FD
330
1FB
100
AcDbEntity
  8
\U+838C\U+8343\U+8384\U+815B_4
 62
     7
100
AcDbVertex
100
AcDb2dVertex
 10
38.04091660290297
 20
185.3661186602557
 30
0.0
  0
VERTEX
  5
1FE
330
1FB
100
AcDbEntity
  8
\U+838C\U+8343\U+8384\U+815B_4
 62
     7
100
AcDbVertex
100
AcDb2dVertex
 10
38.10086126434631
 20
185.1010185626657
 30
0.0
  0
VERTEX
  5
1FF
330
1FB
100
AcDbEntity
  8
\U+838C\U+8343\U+8384\U+815B_4
 62
     7
100
AcDbVertex
100
AcDb2dVertex
 10
38.19766844748183
 20
184.8707139294768
 30
0.0
  0
VERTEX
  5
200
330
1FB
100
AcDbEntity
  8
\U+838C\U+8343\U+8384\U+815B_4
 62
     7
100
AcDbVertex
100
AcDb2dVertex
 10
38.330993642761
 20
184.680544658691
 30
0.0
  0
VERTEX
  5
201
330
1FB
100
AcDbEntity
  8
\U+838C\U+8343\U+8384\U+815B_4
 62
     7
100
AcDbVertex
100
AcDb2dVertex
 10
38.49653048082726
 20
184.5351616292134
 30
0.0
  0
VERTEX
  5
202
330
1FB
100
AcDbEntity
  8
\U+838C\U+8343\U+8384\U+815B_4
 62
     7
100
AcDbVertex
100
AcDb2dVertex
 10
38.53614907890763
 20
184.5117349799137
 30
0.0
  0
SEQEND
  5
203
330
1FB
100
AcDbEntity
  8
\U+838C\U+8343\U+8384\U+815B_4
  0
ENDBLK
  5
1FA
330
1F7
100
AcDbEntity
  8
0
100
AcDbBlockEnd
  0
BLOCK
  5
206
330
204
100
AcDbEntity
  8
0
100
AcDbBlockBegin
  2
BLOCK_41
 70
     0
 71
     0
 10
0.0
 20
0.0
 30
0.0
  3
BLOCK_41
  1

  0
POLYLINE
  5
208
330
204
100
AcDbEntity
  8
\U+838C\U+8343\U+8384\U+815B_4
 62
     7
100
AcDb2dPolyline
 66
     1
 10
0.0
 20
0.0
 30
0.0
  0
VERTEX
  5
209
330
208
100
AcDbEntity
  8
\U+838C\U+8343\U+8384\U+815B_4
 62
     7
100
AcDbVertex
100
AcDb2dVertex
 10
41.05864799320756
 20
188.8808050743076
 30
0.0
  0
VERTEX
  5
20A
330
208
100
AcDbEntity
  8
\U+838C\U+8343\U+8384\U+815B_4
 62
     7
100
AcDbVertex
100
AcDb2dVertex
 10
40.91636554966674
 20
188.9436780669134
 30
0.0
  0
VERTEX
  5
20B
330
208
100
AcDbEntity
  8
\U+838C\U+8343\U+8384\U+815B_4
 62
     7
100
AcDbVertex
100
AcDb2dVertex
 10
40.69656845770781
 20
188.9905313655128
 30
0.0
  0
VERTEX
  5
20C
330
208
100
AcDbEntity
  8
\U+838C\U+8343\U+8384\U+815B_4
 62
     7
100
AcDbVertex
100
AcDb2dVertex
 10
40.45610079283737
 20
188.9846747031879
 30
0.0
  0
VERTEX
  5
20D
330
208
100
AcDbEntity
  8
\U+838C\U+8343\U+8384\U+815B_4
 62
     7
100
AcDbVertex
100
AcDb2dVertex
 10
40.20099147215461
 20
188.9290364111011
 30
0.0
  0
VERTEX
  5
20E
330
208
100
AcDbEntity
  8
\U+838C\U+8343\U+8384\U+815B_4
 62
     7
100
AcDbVertex
100
AcDb2dVertex
 10
39.93881970572711
 20
188.8220661962841
 30
0.0
  0
VERTEX
  5
20F
330
208
100
AcDbEntity
  8
\U+838C\U+8343\U+8384\U+815B_4
 62
     7
100
AcDbVertex
100
AcDb2dVertex
 10
39.6719970603945
 20
188.6680704280934
 30
0.0
  0
VERTEX
  5
210
330
208
100
AcDbEntity
  8
\U+838C\U+8343\U+8384\U+815B_4
 62
     7
100
AcDbVertex
100
AcDb2dVertex
 10
39.40827500099863
 20
188.4701496924658
 30
0.0
  0
VERTEX
  5
211
330
208
100
AcDbEntity
  8
\U+838C\U+8343\U+8384\U+815B_4
 62
     7
100
AcDbVertex
100
AcDb2dVertex
 10
39.15333793509014
 20
188.2329548683064
 30
0.0
  0
VERTEX
  5
212
330
208
100
AcDbEntity
  8
\U+838C\U+8343\U+8384\U+815B_4
 62
     7
100
AcDbVertex
100
AcDb2dVertex
 10
38.91269801544544
 20
187.9602755606488
 30
0.0
  0
VERTEX
  5
213
330
208
100
AcDbEntity
  8
\U+838C\U+8343\U+8384\U+815B_4
 62
     7
100
AcDbVertex
100
AcDb2dVertex
 10
38.69324543303502
 20
187.659863234335
 30
0.0
  0
VERTEX
  5
214
330
208
100
AcDbEntity
  8
\U+838C\U+8343\U+8384\U+815B_4
 62
     7
100
AcDbVertex
100
AcDb2dVertex
 10
38.49653048082726
 20
187.3372300421414
 30
0.0
  0
VERTEX
  5
215
330
208
100
AcDbEntity
  8
\U+838C\U+8343\U+8384\U+815B_4
 62
     7
100
AcDbVertex
100
AcDb2dVertex
 10
38.330993642761
 20
187.0016777418781
 30
0.0
  0
VERTEX
  5
216
330
208
100
AcDbEntity
  8
\U+838C\U+8343\U+8384\U+815B_4
 62
     7
100
AcDbVertex
100
AcDb2dVertex
 10
38.19766844748183
 20
186.6575127029016
 30
0.0
  0
VERTEX
  5
217
330
208
100
AcDbEntity
  8
\U+838C\U+8343\U+8384\U+815B_4
 62
     7
100
AcDbVertex
100
AcDb2dVertex
 10
38.10086126434631
 20
186.3143811925707
 30
0.0
  0
VERTEX
  5
218
330
208
100
AcDbEntity
  8
\U+838C\U+8343\U+8384\U+815B_4
 62
     7
100
AcDbVertex
100
AcDb2dVertex
 10
38.04091660290297
 20
185.9802069305015
 30
0.0
  0
VERTEX
  5
219
330
208
100
AcDbEntity
  8
\U+838C\U+8343\U+8384\U+815B_4
 62
     7
100
AcDbVertex
100
AcDb2dVertex
 10
38.02041828476573
 20
185.6623968719872
 30
0.0
  0
SEQEND
  5
21A
330
208
100
AcDbEntity
  8
\U+838C\U+8343\U+8384\U+815B_4
  0
ENDBLK
  5
207
330
204
100
AcDbEntity
  8
0
100
AcDbBlockEnd
  0
BLOCK
  5
21D
330
21B
100
AcDbEntity
  8
0
100
AcDbBlockBegin
  2
BLOCK_42
 70
     0
 71
     0
 10
0.0
 20
0.0
 30
0.0
  3
BLOCK_42
  1

  0
SPLINE
  5
21F
330
21B
100
AcDbEntity
  8
\U+838C\U+8343\U+8384\U+815B_4
 62
     7
100
AcDbSpline
210
0.0
220
0.0
230
1.0
 70
     8
 71
     3
 72
     8
 73
     4
 74
     0
 42
0.0000000001
 43
0.0000000001
 40
0.0
 40
0.0
 40
0.0
 40
0.0
 40
1.0
 40
1.0
 40
1.0
 40
1.0
 10
39.66303981213285
 20
188.6668646446736
 30
0.0
 10
38.69324543303502
 20
188.0364121708728
 30
0.0
 10
38.08329127737154
 20
186.9813516785151
 30
0.0
 10
38.02300210637967
 20
185.8263834170851
 30
0.0
  0
ENDBLK
  5
21E
330
21B
100
AcDbEntity
  8
0
100
AcDbBlockEnd
  0
BLOCK
  5
222
330
220
100
AcDbEntity
  8
0
100
AcDbBlockBegin
  2
BLOCK_43
 70
     0
 71
     0
 10
0.0
 20
0.0
 30
0.0
  3
BLOCK_43
  1

  0
SPLINE
  5
224
330
220
100
AcDbEntity
  8
\U+838C\U+8343\U+8384\U+815B_4
 62
     7
100
AcDbSpline
210
0.0
220
0.0
230
1.0
 70
     8
 71
     3
 72
    59
 73
    55
 74
     0
 42
0.0000000001
 43
0.0000000001
 40
0.0
 40
0.0
 40
0.0
 40
0.0
 40
1.0
 40
1.0
 40
1.0
 40
2.0
 40
2.0
 40
2.0
 40
3.0
 40
3.0
 40
3.0
 40
4.0
 40
4.0
 40
4.0
 40
5.0
 40
5.0
 40
5.0
 40
6.0
 40
6.0
 40
6.0
 40
7.0
 40
7.0
 40
7.0
 40
8.0
 40
8.0
 40
8.0
 40
9.0
 40
9.0
 40
9.0
 40
10.0
 40
10.0
 40
10.0
 40
11.0
 40
11.0
 40
11.0
 40
12.0
 40
12.0
 40
12.0
 40
13.0
 40
13.0
 40
13.0
 40
14.0
 40
14.0
 40
14.0
 40
15.0
 40
15.0
 40
15.0
 40
16.0
 40
16.0
 40
16.0
 40
17.0
 40
17.0
 40
17.0
 40
18.0
 40
18.0
 40
18.0
 40
18.0
 10
170.5408392585801
 20
114.0457519246136
 30
0.0
 10
170.5377386726433
 20
114.0464409437106
 30
0.0
 10
170.2958929695788
 20
114.0409287909342
 30
0.0
 10
170.2958929695788
 20
114.0409287909342
 30
0.0
 10
170.2958929695788
 20
114.0409287909342
 30
0.0
 10
170.0409559036703
 20
113.9837402058791
 30
0.0
 10
170.0409559036703
 20
113.9837402058791
 30
0.0
 10
170.0409559036703
 20
113.9837402058791
 30
0.0
 10
169.7756835513061
 20
113.8776312649334
 30
0.0
 10
169.7756835513061
 20
113.8776312649334
 30
0.0
 10
169.7756835513061
 20
113.8776312649334
 30
0.0
 10
169.5069661034566
 20
113.7232909871942
 30
0.0
 10
169.5069661034566
 20
113.7232909871942
 30
0.0
 10
169.5069661034566
 20
113.7232909871942
 30
0.0
 10
169.2437608083835
 20
113.5227864299526
 30
0.0
 10
169.2437608083835
 20
113.5227864299526
 30
0.0
 10
169.2437608083835
 20
113.5227864299526
 30
0.0
 10
168.9874457042809
 20
113.2864528796645
 30
0.0
 10
168.9874457042809
 20
113.2864528796645
 30
0.0
 10
168.9874457042809
 20
113.2864528796645
 30
0.0
 10
168.7469780394105
 20
113.0122232790386
 30
0.0
 10
168.7469780394105
 20
113.0122232790386
 30
0.0
 10
168.7469780394105
 20
113.0122232790386
 30
0.0
 10
168.5254583997089
 20
112.7104329145307
 30
0.0
 10
168.5254583997089
 20
112.7104329145307
 30
0.0
 10
168.5254583997089
 20
112.7104329145307
 30
0.0
 10
168.3290879570497
 20
112.3859049198202
 30
0.0
 10
168.3290879570497
 20
112.3859049198202
 30
0.0
 10
168.3290879570497
 20
112.3859049198202
 30
0.0
 10
168.1620008260151
 20
112.0489745813628
 30
0.0
 10
168.1620008260151
 20
112.0489745813628
 30
0.0
 10
168.1620008260151
 20
112.0489745813628
 30
0.0
 10
168.0279866116389
 20
111.7030869946437
 30
0.0
 10
168.0279866116389
 20
111.7030869946437
 30
0.0
 10
168.0279866116389
 20
111.7030869946437
 30
0.0
 10
167.9301458998578
 20
111.3599554843128
 30
0.0
 10
167.9301458998578
 20
111.3599554843128
 30
0.0
 10
167.9301458998578
 20
111.3599554843128
 30
0.0
 10
167.8705457479629
 20
111.0250922031465
 30
0.0
 10
167.8705457479629
 20
111.0250922031465
 30
0.0
 10
167.8705457479629
 20
111.0250922031465
 30
0.0
 10
167.850908703697
 20
110.7033202848242
 30
0.0
 10
167.850908703697
 20
110.7033202848242
 30
0.0
 10
167.850908703697
 20
110.7033202848242
 30
0.0
 10
167.8705457479629
 20
110.4077310921897
 30
0.0
 10
167.8705457479629
 20
110.4077310921897
 30
0.0
 10
167.8705457479629
 20
110.4077310921897
 30
0.0
 10
167.9301458998578
 20
110.1410807016314
 30
0.0
 10
167.9301458998578
 20
110.1410807016314
 30
0.0
 10
167.9301458998578
 20
110.1410807016314
 30
0.0
 10
168.0279866116389
 20
109.9088812659256
 30
0.0
 10
168.0279866116389
 20
109.9088812659256
 30
0.0
 10
168.0279866116389
 20
109.9088812659256
 30
0.0
 10
168.0930989163101
 20
109.8055284013681
 30
0.0
 10
168.0930989163101
 20
109.8055284013681
 30
0.0
  0
ENDBLK
  5
223
330
220
100
AcDbEntity
  8
0
100
AcDbBlockEnd
  0
BLOCK
  5
227
330
225
100
AcDbEntity
  8
0
100
AcDbBlockBegin
  2
BLOCK_44
 70
     0
 71
     0
 10
0.0
 20
0.0
 30
0.0
  3
BLOCK_44
  1

  0
POLYLINE
  5
229
330
225
100
AcDbEntity
  8
\U+838C\U+8343\U+8384\U+815B_4
 62
     7
100
AcDb2dPolyline
 66
     1
 10
0.0
 20
0.0
 30
0.0
  0
VERTEX
  5
22A
330
229
100
AcDbEntity
  8
\U+838C\U+8343\U+8384\U+815B_4
 62
     7
100
AcDbVertex
100
AcDb2dVertex
 10
168.3377006957628
 20
109.5299207625481
 30
0.0
  0
VERTEX
  5
22B
330
229
100
AcDbEntity
  8
\U+838C\U+8343\U+8384\U+815B_4
 62
     7
100
AcDbVertex
100
AcDb2dVertex
 10
168.2908473971634
 20
109.5588595646242
 30
0.0
  0
VERTEX
  5
22C
330
229
100
AcDbEntity
  8
\U+838C\U+8343\U+8384\U+815B_4
 62
     7
100
AcDbVertex
100
AcDb2dVertex
 10
168.1206596801921
 20
109.7069986704899
 30
0.0
  0
VERTEX
  5
22D
330
229
100
AcDbEntity
  8
\U+838C\U+8343\U+8384\U+815B_4
 62
     7
100
AcDbVertex
100
AcDb2dVertex
 10
167.9859564467188
 20
109.8992349985669
 30
0.0
  0
VERTEX
  5
22E
330
229
100
AcDbEntity
  8
\U+838C\U+8343\U+8384\U+815B_4
 62
     7
100
AcDbVertex
100
AcDb2dVertex
 10
167.8860486776466
 20
110.1335014915638
 30
0.0
  0
VERTEX
  5
22F
330
229
100
AcDbEntity
  8
\U+838C\U+8343\U+8384\U+815B_4
 62
     7
100
AcDbVertex
100
AcDb2dVertex
 10
167.8261040162032
 20
110.4035969776074
 30
0.0
  0
VERTEX
  5
230
330
229
100
AcDbEntity
  8
\U+838C\U+8343\U+8384\U+815B_4
 62
     7
100
AcDbVertex
100
AcDb2dVertex
 10
167.8057779528402
 20
110.7033202848242
 30
0.0
  0
VERTEX
  5
231
330
229
100
AcDbEntity
  8
\U+838C\U+8343\U+8384\U+815B_4
 62
     7
100
AcDbVertex
100
AcDb2dVertex
 10
167.8261040162032
 20
111.0278482795347
 30
0.0
  0
VERTEX
  5
232
330
229
100
AcDbEntity
  8
\U+838C\U+8343\U+8384\U+815B_4
 62
     7
100
AcDbVertex
100
AcDb2dVertex
 10
167.8860486776466
 20
111.3675346943803
 30
0.0
  0
VERTEX
  5
233
330
229
100
AcDbEntity
  8
\U+838C\U+8343\U+8384\U+815B_4
 62
     7
100
AcDbVertex
100
AcDb2dVertex
 10
167.9859564467188
 20
111.7161783574876
 30
0.0
  0
VERTEX
  5
234
330
229
100
AcDbEntity
  8
\U+838C\U+8343\U+8384\U+815B_4
 62
     7
100
AcDbVertex
100
AcDb2dVertex
 10
168.1206596801921
 20
112.065511039692
 30
0.0
  0
VERTEX
  5
235
330
229
100
AcDbEntity
  8
\U+838C\U+8343\U+8384\U+815B_4
 62
     7
100
AcDbVertex
100
AcDb2dVertex
 10
168.2908473971634
 20
112.4086425500228
 30
0.0
  0
VERTEX
  5
236
330
229
100
AcDbEntity
  8
\U+838C\U+8343\U+8384\U+815B_4
 62
     7
100
AcDbVertex
100
AcDb2dVertex
 10
168.4885958780168
 20
112.7352376020245
 30
0.0
  0
VERTEX
  5
237
330
229
100
AcDbEntity
  8
\U+838C\U+8343\U+8384\U+815B_4
 62
     7
100
AcDbVertex
100
AcDb2dVertex
 10
168.713216103655
 20
113.0411620811147
 30
0.0
  0
VERTEX
  5
238
330
229
100
AcDbEntity
  8
\U+838C\U+8343\U+8384\U+815B_4
 62
     7
100
AcDbVertex
100
AcDb2dVertex
 10
168.9574733735593
 20
113.3181477581288
 30
0.0
  0
VERTEX
  5
239
330
229
100
AcDbEntity
  8
\U+838C\U+8343\U+8384\U+815B_4
 62
     7
100
AcDbVertex
100
AcDb2dVertex
 10
169.215855534953
 20
113.5586154229992
 30
0.0
  0
VERTEX
  5
23A
330
229
100
AcDbEntity
  8
\U+838C\U+8343\U+8384\U+815B_4
 62
     7
100
AcDbVertex
100
AcDb2dVertex
 10
169.4838839637054
 20
113.7611870375319
 30
0.0
  0
VERTEX
  5
23B
330
229
100
AcDbEntity
  8
\U+838C\U+8343\U+8384\U+815B_4
 62
     7
100
AcDbVertex
100
AcDb2dVertex
 10
169.7546684688461
 20
113.9175943725623
 30
0.0
  0
VERTEX
  5
23C
330
229
100
AcDbEntity
  8
\U+838C\U+8343\U+8384\U+815B_4
 62
     7
100
AcDbVertex
100
AcDb2dVertex
 10
170.0233859166956
 20
114.0250813517021
 30
0.0
  0
VERTEX
  5
23D
330
229
100
AcDbEntity
  8
\U+838C\U+8343\U+8384\U+815B_4
 62
     7
100
AcDbVertex
100
AcDb2dVertex
 10
170.2824570971863
 20
114.0815809176602
 30
0.0
  0
VERTEX
  5
23E
330
229
100
AcDbEntity
  8
\U+838C\U+8343\U+8384\U+815B_4
 62
     7
100
AcDbVertex
100
AcDb2dVertex
 10
170.5260253479935
 20
114.0877820895336
 30
0.0
  0
VERTEX
  5
23F
330
229
100
AcDbEntity
  8
\U+838C\U+8343\U+8384\U+815B_4
 62
     7
100
AcDbVertex
100
AcDb2dVertex
 10
170.7499565545347
 20
114.0409287909342
 30
0.0
  0
VERTEX
  5
240
330
229
100
AcDbEntity
  8
\U+838C\U+8343\U+8384\U+815B_4
 62
     7
100
AcDbVertex
100
AcDb2dVertex
 10
170.8302272793411
 20
114.0085448933729
 30
0.0
  0
SEQEND
  5
241
330
229
100
AcDbEntity
  8
\U+838C\U+8343\U+8384\U+815B_4
  0
ENDBLK
  5
228
330
225
100
AcDbEntity
  8
0
100
AcDbBlockEnd
  0
BLOCK
  5
244
330
242
100
AcDbEntity
  8
0
100
AcDbBlockBegin
  2
BLOCK_45
 70
     0
 71
     0
 10
0.0
 20
0.0
 30
0.0
  3
BLOCK_45
  1

  0
POLYLINE
  5
246
330
242
100
AcDbEntity
  8
\U+838C\U+8343\U+8384\U+815B_4
 62
     7
100
AcDb2dPolyline
 66
     1
 10
0.0
 20
0.0
 30
0.0
  0
VERTEX
  5
247
330
246
100
AcDbEntity
  8
\U+838C\U+8343\U+8384\U+815B_4
 62
     7
100
AcDbVertex
100
AcDb2dVertex
 10
167.3262206612935
 20
110.9803059618383
 30
0.0
  0
VERTEX
  5
248
330
246
100
AcDbEntity
  8
\U+838C\U+8343\U+8384\U+815B_4
 62
     7
100
AcDbVertex
100
AcDb2dVertex
 10
167.3468912342049
 20
111.3048339565488
 30
0.0
  0
VERTEX
  5
249
330
246
100
AcDbEntity
  8
\U+838C\U+8343\U+8384\U+815B_4
 62
     7
100
AcDbVertex
100
AcDb2dVertex
 10
167.4068358956483
 20
111.6445203713944
 30
0.0
  0
VERTEX
  5
24A
330
246
100
AcDbEntity
  8
\U+838C\U+8343\U+8384\U+815B_4
 62
     7
100
AcDbVertex
100
AcDb2dVertex
 10
167.5070881742691
 20
111.9931640345017
 30
0.0
  0
VERTEX
  5
24B
330
246
100
AcDbEntity
  8
\U+838C\U+8343\U+8384\U+815B_4
 62
     7
100
AcDbVertex
100
AcDb2dVertex
 10
167.6417914077423
 20
112.3424967167061
 30
0.0
  0
VERTEX
  5
24C
330
246
100
AcDbEntity
  8
\U+838C\U+8343\U+8384\U+815B_4
 62
     7
100
AcDbVertex
100
AcDb2dVertex
 10
167.8099120674225
 20
112.6849392079399
 30
0.0
  0
VERTEX
  5
24D
330
246
100
AcDbEntity
  8
\U+838C\U+8343\U+8384\U+815B_4
 62
     7
100
AcDbVertex
100
AcDb2dVertex
 10
168.0093830960185
 20
113.0122232790386
 30
0.0
  0
VERTEX
  5
24E
330
246
100
AcDbEntity
  8
\U+838C\U+8343\U+8384\U+815B_4
 62
     7
100
AcDbVertex
100
AcDb2dVertex
 10
168.2336588121082
 20
113.3181477581288
 30
0.0
  0
VERTEX
  5
24F
330
246
100
AcDbEntity
  8
\U+838C\U+8343\U+8384\U+815B_4
 62
     7
100
AcDbVertex
100
AcDb2dVertex
 10
168.4768825533669
 20
113.5951334351429
 30
0.0
  0
VERTEX
  5
250
330
246
100
AcDbEntity
  8
\U+838C\U+8343\U+8384\U+815B_4
 62
     7
100
AcDbVertex
100
AcDb2dVertex
 10
168.7366427529547
 20
113.8356011000133
 30
0.0
  0
VERTEX
  5
251
330
246
100
AcDbEntity
  8
\U+838C\U+8343\U+8384\U+815B_4
 62
     7
100
AcDbVertex
100
AcDb2dVertex
 10
169.0050156912557
 20
114.038172714546
 30
0.0
  0
VERTEX
  5
252
330
246
100
AcDbEntity
  8
\U+838C\U+8343\U+8384\U+815B_4
 62
     7
100
AcDbVertex
100
AcDb2dVertex
 10
169.2754556868478
 20
114.1945800495764
 30
0.0
  0
VERTEX
  5
253
330
246
100
AcDbEntity
  8
\U+838C\U+8343\U+8384\U+815B_4
 62
     7
100
AcDbVertex
100
AcDb2dVertex
 10
169.5424505869547
 20
114.3020670287162
 30
0.0
  0
VERTEX
  5
254
330
246
100
AcDbEntity
  8
\U+838C\U+8343\U+8384\U+815B_4
 62
     7
100
AcDbVertex
100
AcDb2dVertex
 10
169.8022107865425
 20
114.3592556137713
 30
0.0
  0
VERTEX
  5
255
330
246
100
AcDbEntity
  8
\U+838C\U+8343\U+8384\U+815B_4
 62
     7
100
AcDbVertex
100
AcDb2dVertex
 10
170.0464680564467
 20
114.3647677665477
 30
0.0
  0
VERTEX
  5
256
330
246
100
AcDbEntity
  8
\U+838C\U+8343\U+8384\U+815B_4
 62
     7
100
AcDbVertex
100
AcDb2dVertex
 10
170.2707437725365
 20
114.3179144679483
 30
0.0
  0
VERTEX
  5
257
330
246
100
AcDbEntity
  8
\U+838C\U+8343\U+8384\U+815B_4
 62
     7
100
AcDbVertex
100
AcDb2dVertex
 10
170.421983464339
 20
114.2490125582433
 30
0.0
  0
SEQEND
  5
258
330
246
100
AcDbEntity
  8
\U+838C\U+8343\U+8384\U+815B_4
  0
ENDBLK
  5
245
330
242
100
AcDbEntity
  8
0
100
AcDbBlockEnd
  0
BLOCK
  5
25B
330
259
100
AcDbEntity
  8
0
100
AcDbBlockBegin
  2
BLOCK_46
 70
     0
 71
     0
 10
0.0
 20
0.0
 30
0.0
  3
BLOCK_46
  1

  0
POLYLINE
  5
25D
330
259
100
AcDbEntity
  8
\U+838C\U+8343\U+8384\U+815B_4
 62
     7
100
AcDb2dPolyline
 66
     1
 10
0.0
 20
0.0
 30
0.0
  0
VERTEX
  5
25E
330
25D
100
AcDbEntity
  8
\U+838C\U+8343\U+8384\U+815B_4
 62
     7
100
AcDbVertex
100
AcDb2dVertex
 10
167.8571098755704
 20
109.8069064395622
 30
0.0
  0
VERTEX
  5
25F
330
25D
100
AcDbEntity
  8
\U+838C\U+8343\U+8384\U+815B_4
 62
     7
100
AcDbVertex
100
AcDb2dVertex
 10
167.8099120674225
 20
109.8358452416383
 30
0.0
  0
VERTEX
  5
260
330
25D
100
AcDbEntity
  8
\U+838C\U+8343\U+8384\U+815B_4
 62
     7
100
AcDbVertex
100
AcDb2dVertex
 10
167.6417914077423
 20
109.983984347504
 30
0.0
  0
VERTEX
  5
261
330
25D
100
AcDbEntity
  8
\U+838C\U+8343\U+8384\U+815B_4
 62
     7
100
AcDbVertex
100
AcDb2dVertex
 10
167.5070881742691
 20
110.1755316564839
 30
0.0
  0
VERTEX
  5
262
330
25D
100
AcDbEntity
  8
\U+838C\U+8343\U+8384\U+815B_4
 62
     7
100
AcDbVertex
100
AcDb2dVertex
 10
167.4068358956483
 20
110.411176187675
 30
0.0
  0
VERTEX
  5
263
330
25D
100
AcDbEntity
  8
\U+838C\U+8343\U+8384\U+815B_4
 62
     7
100
AcDbVertex
100
AcDb2dVertex
 10
167.3468912342049
 20
110.6798936355245
 30
0.0
  0
VERTEX
  5
264
330
25D
100
AcDbEntity
  8
\U+838C\U+8343\U+8384\U+815B_4
 62
     7
100
AcDbVertex
100
AcDb2dVertex
 10
167.3262206612935
 20
110.9803059618383
 30
0.0
  0
SEQEND
  5
265
330
25D
100
AcDbEntity
  8
\U+838C\U+8343\U+8384\U+815B_4
  0
ENDBLK
  5
25C
330
259
100
AcDbEntity
  8
0
100
AcDbBlockEnd
  0
BLOCK
  5
268
330
266
100
AcDbEntity
  8
0
100
AcDbBlockBegin
  2
BLOCK_47
 70
     0
 71
     0
 10
0.0
 20
0.0
 30
0.0
  3
BLOCK_47
  1

  0
POLYLINE
  5
26A
330
266
100
AcDbEntity
  8
\U+838C\U+8343\U+8384\U+815B_4
 62
     7
100
AcDb2dPolyline
 66
     1
 10
0.0
 20
0.0
 30
0.0
  0
VERTEX
  5
26B
330
26A
100
AcDbEntity
  8
\U+838C\U+8343\U+8384\U+815B_4
 62
     7
100
AcDbVertex
100
AcDb2dVertex
 10
45.28250731289813
 20
186.4902533170927
 30
0.0
  0
VERTEX
  5
26C
330
26A
100
AcDbEntity
  8
\U+838C\U+8343\U+8384\U+815B_4
 62
     7
100
AcDbVertex
100
AcDb2dVertex
 10
45.13126762109566
 20
186.5591552267977
 30
0.0
  0
VERTEX
  5
26D
330
26A
100
AcDbEntity
  8
\U+838C\U+8343\U+8384\U+815B_4
 62
     7
100
AcDbVertex
100
AcDb2dVertex
 10
44.9069919050059
 20
186.6058362706229
 30
0.0
  0
VERTEX
  5
26E
330
26A
100
AcDbEntity
  8
\U+838C\U+8343\U+8384\U+815B_4
 62
     7
100
AcDbVertex
100
AcDb2dVertex
 10
44.66221787077889
 20
186.6017021560405
 30
0.0
  0
VERTEX
  5
26F
330
26A
100
AcDbEntity
  8
\U+838C\U+8343\U+8384\U+815B_4
 62
     7
100
AcDbVertex
100
AcDb2dVertex
 10
44.4045247284822
 20
186.5446858257597
 30
0.0
  0
VERTEX
  5
270
330
26A
100
AcDbEntity
  8
\U+838C\U+8343\U+8384\U+815B_4
 62
     7
100
AcDbVertex
100
AcDb2dVertex
 10
44.13632404495551
 20
186.4358208084258
 30
0.0
  0
VERTEX
  5
271
330
26A
100
AcDbEntity
  8
\U+838C\U+8343\U+8384\U+815B_4
 62
     7
100
AcDbVertex
100
AcDb2dVertex
 10
43.86485052071782
 20
186.2792412186212
 30
0.0
  0
VERTEX
  5
272
330
26A
100
AcDbEntity
  8
\U+838C\U+8343\U+8384\U+815B_4
 62
     7
100
AcDbVertex
100
AcDb2dVertex
 10
43.59699434673964
 20
186.0783921518311
 30
0.0
  0
VERTEX
  5
273
330
26A
100
AcDbEntity
  8
\U+838C\U+8343\U+8384\U+815B_4
 62
     7
100
AcDbVertex
100
AcDb2dVertex
 10
43.33757865670033
 20
185.8368909583151
 30
0.0
  0
VERTEX
  5
274
330
26A
100
AcDbEntity
  8
\U+838C\U+8343\U+8384\U+815B_4
 62
     7
100
AcDbVertex
100
AcDb2dVertex
 10
43.09435491544169
 20
185.5597330265267
 30
0.0
  0
VERTEX
  5
275
330
26A
100
AcDbEntity
  8
\U+838C\U+8343\U+8384\U+815B_4
 62
     7
100
AcDbVertex
100
AcDb2dVertex
 10
42.87007919935193
 20
185.253464037888
 30
0.0
  0
VERTEX
  5
276
330
26A
100
AcDbEntity
  8
\U+838C\U+8343\U+8384\U+815B_4
 62
     7
100
AcDbVertex
100
AcDb2dVertex
 10
42.6704359159817
 20
184.9266967311121
 30
0.0
  0
VERTEX
  5
277
330
26A
100
AcDbEntity
  8
\U+838C\U+8343\U+8384\U+815B_4
 62
     7
100
AcDbVertex
100
AcDb2dVertex
 10
42.50231525630151
 20
184.5833929660069
 30
0.0
  0
VERTEX
  5
278
330
26A
100
AcDbEntity
  8
\U+838C\U+8343\U+8384\U+815B_4
 62
     7
100
AcDbVertex
100
AcDb2dVertex
 10
42.36709525850545
 20
184.2349215576739
 30
0.0
  0
VERTEX
  5
279
330
26A
100
AcDbEntity
  8
\U+838C\U+8343\U+8384\U+815B_4
 62
     7
100
AcDbVertex
100
AcDb2dVertex
 10
42.26753199898173
 20
183.8861056397924
 30
0.0
  0
VERTEX
  5
27A
330
26A
100
AcDbEntity
  8
\U+838C\U+8343\U+8384\U+815B_4
 62
     7
100
AcDbVertex
100
AcDb2dVertex
 10
42.20741508276412
 20
183.5459024606239
 30
0.0
  0
VERTEX
  5
27B
330
26A
100
AcDbEntity
  8
\U+838C\U+8343\U+8384\U+815B_4
 62
     7
100
AcDbVertex
100
AcDb2dVertex
 10
42.18726127417541
 20
183.2237860327531
 30
0.0
  0
VERTEX
  5
27C
330
26A
100
AcDbEntity
  8
\U+838C\U+8343\U+8384\U+815B_4
 62
     7
100
AcDbVertex
100
AcDb2dVertex
 10
42.20741508276412
 20
182.9228569421165
 30
0.0
  0
VERTEX
  5
27D
330
26A
100
AcDbEntity
  8
\U+838C\U+8343\U+8384\U+815B_4
 62
     7
100
AcDbVertex
100
AcDb2dVertex
 10
42.26753199898173
 20
182.6519001822016
 30
0.0
  0
VERTEX
  5
27E
330
26A
100
AcDbEntity
  8
\U+838C\U+8343\U+8384\U+815B_4
 62
     7
100
AcDbVertex
100
AcDb2dVertex
 10
42.36709525850545
 20
182.4174614344304
 30
0.0
  0
VERTEX
  5
27F
330
26A
100
AcDbEntity
  8
\U+838C\U+8343\U+8384\U+815B_4
 62
     7
100
AcDbVertex
100
AcDb2dVertex
 10
42.50231525630151
 20
182.2255696159019
 30
0.0
  0
VERTEX
  5
280
330
26A
100
AcDbEntity
  8
\U+838C\U+8343\U+8384\U+815B_4
 62
     7
100
AcDbVertex
100
AcDb2dVertex
 10
42.6704359159817
 20
182.0776027648105
 30
0.0
  0
VERTEX
  5
281
330
26A
100
AcDbEntity
  8
\U+838C\U+8343\U+8384\U+815B_4
 62
     7
100
AcDbVertex
100
AcDb2dVertex
 10
42.74674478097998
 20
182.033333287825
 30
0.0
  0
SEQEND
  5
282
330
26A
100
AcDbEntity
  8
\U+838C\U+8343\U+8384\U+815B_4
  0
ENDBLK
  5
269
330
266
100
AcDbEntity
  8
0
100
AcDbBlockEnd
  0
BLOCK
  5
285
330
283
100
AcDbEntity
  8
0
100
AcDbBlockBegin
  2
BLOCK_48
 70
     0
 71
     0
 10
0.0
 20
0.0
 30
0.0
  3
BLOCK_48
  1

  0
POLYLINE
  5
287
330
283
100
AcDbEntity
  8
\U+838C\U+8343\U+8384\U+815B_4
 62
     7
100
AcDb2dPolyline
 66
     1
 10
0.0
 20
0.0
 30
0.0
  0
VERTEX
  5
288
330
287
100
AcDbEntity
  8
\U+838C\U+8343\U+8384\U+815B_4
 62
     7
100
AcDbVertex
100
AcDb2dVertex
 10
41.70770398262863
 20
183.5005994549929
 30
0.0
  0
VERTEX
  5
289
330
287
100
AcDbEntity
  8
\U+838C\U+8343\U+8384\U+815B_4
 62
     7
100
AcDbVertex
100
AcDb2dVertex
 10
41.72682426257177
 20
183.2000148739049
 30
0.0
  0
VERTEX
  5
28A
330
287
100
AcDbEntity
  8
\U+838C\U+8343\U+8384\U+815B_4
 62
     7
100
AcDbVertex
100
AcDb2dVertex
 10
41.78849147175774
 20
182.92905811399
 30
0.0
  0
VERTEX
  5
28B
330
287
100
AcDbEntity
  8
\U+838C\U+8343\U+8384\U+815B_4
 62
     7
100
AcDbVertex
100
AcDb2dVertex
 10
41.8865044383131
 20
182.6942748566702
 30
0.0
  0
VERTEX
  5
28C
330
287
100
AcDbEntity
  8
\U+838C\U+8343\U+8384\U+815B_4
 62
     7
100
AcDbVertex
100
AcDb2dVertex
 10
42.02293021952899
 20
182.502555292916
 30
0.0
  0
VERTEX
  5
28D
330
287
100
AcDbEntity
  8
\U+838C\U+8343\U+8384\U+815B_4
 62
     7
100
AcDbVertex
100
AcDb2dVertex
 10
42.19122313398345
 20
182.354243932276
 30
0.0
  0
VERTEX
  5
28E
330
287
100
AcDbEntity
  8
\U+838C\U+8343\U+8384\U+815B_4
 62
     7
100
AcDbVertex
100
AcDb2dVertex
 10
42.23824868735711
 20
182.3247883658771
 30
0.0
  0
SEQEND
  5
28F
330
287
100
AcDbEntity
  8
\U+838C\U+8343\U+8384\U+815B_4
  0
ENDBLK
  5
286
330
283
100
AcDbEntity
  8
0
100
AcDbBlockEnd
  0
BLOCK
  5
292
330
290
100
AcDbEntity
  8
0
100
AcDbBlockBegin
  2
BLOCK_49
 70
     0
 71
     0
 10
0.0
 20
0.0
 30
0.0
  3
BLOCK_49
  1

  0
POLYLINE
  5
294
330
290
100
AcDbEntity
  8
\U+838C\U+8343\U+8384\U+815B_4
 62
     7
100
AcDb2dPolyline
 66
     1
 10
0.0
 20
0.0
 30
0.0
  0
VERTEX
  5
295
330
294
100
AcDbEntity
  8
\U+838C\U+8343\U+8384\U+815B_4
 62
     7
100
AcDbVertex
100
AcDb2dVertex
 10
44.80295002135135
 20
186.7672389941068
 30
0.0
  0
VERTEX
  5
296
330
294
100
AcDbEntity
  8
\U+838C\U+8343\U+8384\U+815B_4
 62
     7
100
AcDbVertex
100
AcDb2dVertex
 10
44.65067680090331
 20
186.8361409038118
 30
0.0
  0
VERTEX
  5
297
330
294
100
AcDbEntity
  8
\U+838C\U+8343\U+8384\U+815B_4
 62
     7
100
AcDbVertex
100
AcDb2dVertex
 10
44.42640108481354
 20
186.8829942024112
 30
0.0
  0
VERTEX
  5
298
330
294
100
AcDbEntity
  8
\U+838C\U+8343\U+8384\U+815B_4
 62
     7
100
AcDbVertex
100
AcDb2dVertex
 10
44.1831773435549
 20
186.8785155782804
 30
0.0
  0
VERTEX
  5
299
330
294
100
AcDbEntity
  8
\U+838C\U+8343\U+8384\U+815B_4
 62
     7
100
AcDbVertex
100
AcDb2dVertex
 10
43.92376165351559
 20
186.8213269932252
 30
0.0
  0
VERTEX
  5
29A
330
294
100
AcDbEntity
  8
\U+838C\U+8343\U+8384\U+815B_4
 62
     7
100
AcDbVertex
100
AcDb2dVertex
 10
43.65556096998889
 20
186.7129787402141
 30
0.0
  0
VERTEX
  5
29B
330
294
100
AcDbEntity
  8
\U+838C\U+8343\U+8384\U+815B_4
 62
     7
100
AcDbVertex
100
AcDb2dVertex
 10
43.38443195529972
 20
186.556054640861
 30
0.0
  0
VERTEX
  5
29C
330
294
100
AcDbEntity
  8
\U+838C\U+8343\U+8384\U+815B_4
 62
     7
100
AcDbVertex
100
AcDb2dVertex
 10
43.11760930996713
 20
186.3557223383937
 30
0.0
  0
VERTEX
  5
29D
330
294
100
AcDbEntity
  8
\U+838C\U+8343\U+8384\U+815B_4
 62
     7
100
AcDbVertex
100
AcDb2dVertex
 10
42.85853812947634
 20
186.1135321257807
 30
0.0
  0
VERTEX
  5
29E
330
294
100
AcDbEntity
  8
\U+838C\U+8343\U+8384\U+815B_4
 62
     7
100
AcDbVertex
100
AcDb2dVertex
 10
42.61324733092655
 20
185.8368909583151
 30
0.0
  0
VERTEX
  5
29F
330
294
100
AcDbEntity
  8
\U+838C\U+8343\U+8384\U+815B_4
 62
     7
100
AcDbVertex
100
AcDb2dVertex
 10
42.38914386961105
 20
185.5302774601278
 30
0.0
  0
VERTEX
  5
2A0
330
294
100
AcDbEntity
  8
\U+838C\U+8343\U+8384\U+815B_4
 62
     7
100
AcDbVertex
100
AcDb2dVertex
 10
42.19122313398345
 20
185.2035101533519
 30
0.0
  0
VERTEX
  5
2A1
330
294
100
AcDbEntity
  8
\U+838C\U+8343\U+8384\U+815B_4
 62
     7
100
AcDbVertex
100
AcDb2dVertex
 10
42.02293021952899
 20
184.8607231525696
 30
0.0
  0
VERTEX
  5
2A2
330
294
100
AcDbEntity
  8
\U+838C\U+8343\U+8384\U+815B_4
 62
     7
100
AcDbVertex
100
AcDb2dVertex
 10
41.8865044383131
 20
184.5117349799137
 30
0.0
  0
VERTEX
  5
2A3
330
294
100
AcDbEntity
  8
\U+838C\U+8343\U+8384\U+815B_4
 62
     7
100
AcDbVertex
100
AcDb2dVertex
 10
41.78849147175774
 20
184.1629190620322
 30
0.0
  0
VERTEX
  5
2A4
330
294
100
AcDbEntity
  8
\U+838C\U+8343\U+8384\U+815B_4
 62
     7
100
AcDbVertex
100
AcDb2dVertex
 10
41.72682426257177
 20
183.822888137638
 30
0.0
  0
VERTEX
  5
2A5
330
294
100
AcDbEntity
  8
\U+838C\U+8343\U+8384\U+815B_4
 62
     7
100
AcDbVertex
100
AcDb2dVertex
 10
41.70770398262863
 20
183.5005994549929
 30
0.0
  0
SEQEND
  5
2A6
330
294
100
AcDbEntity
  8
\U+838C\U+8343\U+8384\U+815B_4
  0
ENDBLK
  5
293
330
290
100
AcDbEntity
  8
0
100
AcDbBlockEnd
  0
BLOCK
  5
2A9
330
2A7
100
AcDbEntity
  8
0
100
AcDbBlockBegin
  2
BLOCK_50
 70
     0
 71
     0
 10
0.0
 20
0.0
 30
0.0
  3
BLOCK_50
  1

  0
SPLINE
  5
2AB
330
2A7
100
AcDbEntity
  8
\U+838C\U+8343\U+8384\U+815B_4
 62
     7
100
AcDbSpline
210
0.0
220
0.0
230
1.0
 70
     8
 71
     3
 72
     8
 73
     4
 74
     0
 42
0.0000000001
 43
0.0000000001
 40
0.0
 40
0.0
 40
0.0
 40
0.0
 40
1.0
 40
1.0
 40
1.0
 40
1.0
 10
43.51792940535316
 20
186.6382201681842
 30
0.0
 10
42.43031276065979
 20
185.9583305741702
 30
0.0
 10
41.75180120483983
 20
184.7830362493772
 30
0.0
 10
41.70770398262863
 20
183.5005994549929
 30
0.0
  0
ENDBLK
  5
2AA
330
2A7
100
AcDbEntity
  8
0
100
AcDbBlockEnd
  0
BLOCK
  5
2AE
330
2AC
100
AcDbEntity
  8
0
100
AcDbBlockBegin
  2
BLOCK_51
 70
     0
 71
     0
 10
0.0
 20
0.0
 30
0.0
  3
BLOCK_51
  1

  0
POLYLINE
  5
2B0
330
2AC
100
AcDbEntity
  8
\U+838C\U+8343\U+8384\U+815B_4
 62
     7
100
AcDb2dPolyline
 66
     1
 10
0.0
 20
0.0
 30
0.0
  0
VERTEX
  5
2B1
330
2B0
100
AcDbEntity
  8
\U+838C\U+8343\U+8384\U+815B_4
 62
     7
100
AcDbVertex
100
AcDb2dVertex
 10
173.5184352864815
 20
108.5976779242395
 30
0.0
  0
VERTEX
  5
2B2
330
2B0
100
AcDbEntity
  8
\U+838C\U+8343\U+8384\U+815B_4
 62
     7
100
AcDbVertex
100
AcDb2dVertex
 10
173.4922525607936
 20
108.5887206759778
 30
0.0
  0
VERTEX
  5
2B3
330
2B0
100
AcDbEntity
  8
\U+838C\U+8343\U+8384\U+815B_4
 62
     7
100
AcDbVertex
100
AcDb2dVertex
 10
173.4677923828483
 20
108.5928547905601
 30
0.0
  0
VERTEX
  5
2B4
330
2B0
100
AcDbEntity
  8
\U+838C\U+8343\U+8384\U+815B_4
 62
     7
100
AcDbVertex
100
AcDb2dVertex
 10
173.4522894531647
 20
108.6107692870834
 30
0.0
  0
VERTEX
  5
2B5
330
2B0
100
AcDbEntity
  8
\U+838C\U+8343\U+8384\U+815B_4
 62
     7
100
AcDbVertex
100
AcDb2dVertex
 10
173.4471218099368
 20
108.6397080891595
 30
0.0
  0
VERTEX
  5
2B6
330
2B0
100
AcDbEntity
  8
\U+838C\U+8343\U+8384\U+815B_4
 62
     7
100
AcDbVertex
100
AcDb2dVertex
 10
173.4522894531647
 20
108.6748480631091
 30
0.0
  0
VERTEX
  5
2B7
330
2B0
100
AcDbEntity
  8
\U+838C\U+8343\U+8384\U+815B_4
 62
     7
100
AcDbVertex
100
AcDb2dVertex
 10
173.4677923828483
 20
108.7099880370586
 30
0.0
  0
VERTEX
  5
2B8
330
2B0
100
AcDbEntity
  8
\U+838C\U+8343\U+8384\U+815B_4
 62
     7
100
AcDbVertex
100
AcDb2dVertex
 10
173.4922525607936
 20
108.743060953717
 30
0.0
  0
VERTEX
  5
2B9
330
2B0
100
AcDbEntity
  8
\U+838C\U+8343\U+8384\U+815B_4
 62
     7
100
AcDbVertex
100
AcDb2dVertex
 10
173.5184352864815
 20
108.7651095648226
 30
0.0
  0
VERTEX
  5
2BA
330
2B0
100
AcDbEntity
  8
\U+838C\U+8343\U+8384\U+815B_4
 62
     7
100
AcDbVertex
100
AcDb2dVertex
 10
173.5459960503635
 20
108.7747558321813
 30
0.0
  0
VERTEX
  5
2BB
330
2B0
100
AcDbEntity
  8
\U+838C\U+8343\U+8384\U+815B_4
 62
     7
100
AcDbVertex
100
AcDb2dVertex
 10
173.5697672092117
 20
108.770621717599
 30
0.0
  0
VERTEX
  5
2BC
330
2B0
100
AcDbEntity
  8
\U+838C\U+8343\U+8384\U+815B_4
 62
     7
100
AcDbVertex
100
AcDb2dVertex
 10
173.5859591579924
 20
108.7533962401728
 30
0.0
  0
VERTEX
  5
2BD
330
2B0
100
AcDbEntity
  8
\U+838C\U+8343\U+8384\U+815B_4
 62
     7
100
AcDbVertex
100
AcDb2dVertex
 10
173.5921603298659
 20
108.7230793999026
 30
0.0
  0
VERTEX
  5
2BE
330
2B0
100
AcDbEntity
  8
\U+838C\U+8343\U+8384\U+815B_4
 62
     7
100
AcDbVertex
100
AcDb2dVertex
 10
173.5859591579924
 20
108.6886284450501
 30
0.0
  0
VERTEX
  5
2BF
330
2B0
100
AcDbEntity
  8
\U+838C\U+8343\U+8384\U+815B_4
 62
     7
100
AcDbVertex
100
AcDb2dVertex
 10
173.5697672092117
 20
108.6521104329064
 30
0.0
  0
VERTEX
  5
2C0
330
2B0
100
AcDbEntity
  8
\U+838C\U+8343\U+8384\U+815B_4
 62
     7
100
AcDbVertex
100
AcDb2dVertex
 10
173.5459960503635
 20
108.619037516248
 30
0.0
  0
VERTEX
  5
2C1
330
2B0
100
AcDbEntity
  8
\U+838C\U+8343\U+8384\U+815B_4
 62
     7
100
AcDbVertex
100
AcDb2dVertex
 10
173.5184352864815
 20
108.5976779242395
 30
0.0
  0
SEQEND
  5
2C2
330
2B0
100
AcDbEntity
  8
\U+838C\U+8343\U+8384\U+815B_4
  0
ENDBLK
  5
2AF
330
2AC
100
AcDbEntity
  8
0
100
AcDbBlockEnd
  0
BLOCK
  5
2C5
330
2C3
100
AcDbEntity
  8
0
100
AcDbBlockBegin
  2
BLOCK_52
 70
     0
 71
     0
 10
0.0
 20
0.0
 30
0.0
  3
BLOCK_52
  1

  0
POLYLINE
  5
2C7
330
2C3
100
AcDbEntity
  8
\U+838C\U+8343\U+8384\U+815B_4
 62
     7
100
AcDb2dPolyline
 66
     1
 10
0.0
 20
0.0
 30
0.0
  0
VERTEX
  5
2C8
330
2C7
100
AcDbEntity
  8
\U+838C\U+8343\U+8384\U+815B_4
 62
     7
100
AcDbVertex
100
AcDb2dVertex
 10
172.6478596573589
 20
108.9759494085199
 30
0.0
  0
VERTEX
  5
2C9
330
2C7
100
AcDbEntity
  8
\U+838C\U+8343\U+8384\U+815B_4
 62
     7
100
AcDbVertex
100
AcDb2dVertex
 10
172.6202988934769
 20
109.0076442869842
 30
0.0
  0
VERTEX
  5
2CA
330
2C7
100
AcDbEntity
  8
\U+838C\U+8343\U+8384\U+815B_4
 62
     7
100
AcDbVertex
100
AcDb2dVertex
 10
172.6096190974726
 20
109.0579426810689
 30
0.0
  0
VERTEX
  5
2CB
330
2C7
100
AcDbEntity
  8
\U+838C\U+8343\U+8384\U+815B_4
 62
     7
100
AcDbVertex
100
AcDb2dVertex
 10
172.6202988934769
 20
109.1213324379975
 30
0.0
  0
VERTEX
  5
2CC
330
2C7
100
AcDbEntity
  8
\U+838C\U+8343\U+8384\U+815B_4
 62
     7
100
AcDbVertex
100
AcDb2dVertex
 10
172.6478596573589
 20
109.1854112140231
 30
0.0
  0
VERTEX
  5
2CD
330
2C7
100
AcDbEntity
  8
\U+838C\U+8343\U+8384\U+815B_4
 62
     7
100
AcDbVertex
100
AcDb2dVertex
 10
172.6888562936333
 20
109.2412217608841
 30
0.0
  0
VERTEX
  5
2CE
330
2C7
100
AcDbEntity
  8
\U+838C\U+8343\U+8384\U+815B_4
 62
     7
100
AcDbVertex
100
AcDb2dVertex
 10
172.739154687718
 20
109.280495849416
 30
0.0
  0
VERTEX
  5
2CF
330
2C7
100
AcDbEntity
  8
\U+838C\U+8343\U+8384\U+815B_4
 62
     7
100
AcDbVertex
100
AcDb2dVertex
 10
172.78773053406
 20
109.2984103459393
 30
0.0
  0
VERTEX
  5
2D0
330
2C7
100
AcDbEntity
  8
\U+838C\U+8343\U+8384\U+815B_4
 62
     7
100
AcDbVertex
100
AcDb2dVertex
 10
172.8280381512375
 20
109.2894530976776
 30
0.0
  0
SEQEND
  5
2D1
330
2C7
100
AcDbEntity
  8
\U+838C\U+8343\U+8384\U+815B_4
  0
ENDBLK
  5
2C6
330
2C3
100
AcDbEntity
  8
0
100
AcDbBlockEnd
  0
BLOCK
  5
2D4
330
2D2
100
AcDbEntity
  8
0
100
AcDbBlockBegin
  2
BLOCK_53
 70
     0
 71
     0
 10
0.0
 20
0.0
 30
0.0
  3
BLOCK_53
  1

  0
POLYLINE
  5
2D6
330
2D2
100
AcDbEntity
  8
\U+838C\U+8343\U+8384\U+815B_4
 62
     7
100
AcDb2dPolyline
 66
     1
 10
0.0
 20
0.0
 30
0.0
  0
VERTEX
  5
2D7
330
2D6
100
AcDbEntity
  8
\U+838C\U+8343\U+8384\U+815B_4
 62
     7
100
AcDbVertex
100
AcDb2dVertex
 10
172.7773952476043
 20
108.9008463269415
 30
0.0
  0
VERTEX
  5
2D8
330
2D6
100
AcDbEntity
  8
\U+838C\U+8343\U+8384\U+815B_4
 62
     7
100
AcDbVertex
100
AcDb2dVertex
 10
172.739154687718
 20
108.8746636012536
 30
0.0
  0
VERTEX
  5
2D9
330
2D6
100
AcDbEntity
  8
\U+838C\U+8343\U+8384\U+815B_4
 62
     7
100
AcDbVertex
100
AcDb2dVertex
 10
172.6523382814897
 20
108.8450357800804
 30
0.0
  0
VERTEX
  5
2DA
330
2D6
100
AcDbEntity
  8
\U+838C\U+8343\U+8384\U+815B_4
 62
     7
100
AcDbVertex
100
AcDb2dVertex
 10
172.5806802953965
 20
108.8581271429244
 30
0.0
  0
VERTEX
  5
2DB
330
2D6
100
AcDbEntity
  8
\U+838C\U+8343\U+8384\U+815B_4
 62
     7
100
AcDbVertex
100
AcDb2dVertex
 10
172.5321044490545
 20
108.9139376897854
 30
0.0
  0
VERTEX
  5
2DC
330
2D6
100
AcDbEntity
  8
\U+838C\U+8343\U+8384\U+815B_4
 62
     7
100
AcDbVertex
100
AcDb2dVertex
 10
172.5148789716282
 20
109.0035101724019
 30
0.0
  0
VERTEX
  5
2DD
330
2D6
100
AcDbEntity
  8
\U+838C\U+8343\U+8384\U+815B_4
 62
     7
100
AcDbVertex
100
AcDb2dVertex
 10
172.5321044490545
 20
109.1123751897358
 30
0.0
  0
VERTEX
  5
2DE
330
2D6
100
AcDbEntity
  8
\U+838C\U+8343\U+8384\U+815B_4
 62
     7
100
AcDbVertex
100
AcDb2dVertex
 10
172.5806802953965
 20
109.2233072643608
 30
0.0
  0
VERTEX
  5
2DF
330
2D6
100
AcDbEntity
  8
\U+838C\U+8343\U+8384\U+815B_4
 62
     7
100
AcDbVertex
100
AcDb2dVertex
 10
172.6523382814897
 20
109.321836995239
 30
0.0
  0
VERTEX
  5
2E0
330
2D6
100
AcDbEntity
  8
\U+838C\U+8343\U+8384\U+815B_4
 62
     7
100
AcDbVertex
100
AcDb2dVertex
 10
172.739154687718
 20
109.390738904944
 30
0.0
  0
VERTEX
  5
2E1
330
2D6
100
AcDbEntity
  8
\U+838C\U+8343\U+8384\U+815B_4
 62
     7
100
AcDbVertex
100
AcDb2dVertex
 10
172.8235595271066
 20
109.4196777070201
 30
0.0
  0
VERTEX
  5
2E2
330
2D6
100
AcDbEntity
  8
\U+838C\U+8343\U+8384\U+815B_4
 62
     7
100
AcDbVertex
100
AcDb2dVertex
 10
172.8959065322969
 20
109.405208305982
 30
0.0
  0
VERTEX
  5
2E3
330
2D6
100
AcDbEntity
  8
\U+838C\U+8343\U+8384\U+815B_4
 62
     7
100
AcDbVertex
100
AcDb2dVertex
 10
172.9444823786389
 20
109.349397759121
 30
0.0
  0
VERTEX
  5
2E4
330
2D6
100
AcDbEntity
  8
\U+838C\U+8343\U+8384\U+815B_4
 62
     7
100
AcDbVertex
100
AcDb2dVertex
 10
172.9620523656137
 20
109.2612033146986
 30
0.0
  0
VERTEX
  5
2E5
330
2D6
100
AcDbEntity
  8
\U+838C\U+8343\U+8384\U+815B_4
 62
     7
100
AcDbVertex
100
AcDb2dVertex
 10
172.9589517796769
 20
109.2150390351962
 30
0.0
  0
SEQEND
  5
2E6
330
2D6
100
AcDbEntity
  8
\U+838C\U+8343\U+8384\U+815B_4
  0
ENDBLK
  5
2D5
330
2D2
100
AcDbEntity
  8
0
100
AcDbBlockEnd
  0
BLOCK
  5
2E9
330
2E7
100
AcDbEntity
  8
0
100
AcDbBlockBegin
  2
BLOCK_54
 70
     0
 71
     0
 10
0.0
 20
0.0
 30
0.0
  3
BLOCK_54
  1

  0
POLYLINE
  5
2EB
330
2E7
100
AcDbEntity
  8
\U+838C\U+8343\U+8384\U+815B_4
 62
     7
100
AcDb2dPolyline
 66
     1
 10
0.0
 20
0.0
 30
0.0
  0
VERTEX
  5
2EC
330
2EB
100
AcDbEntity
  8
\U+838C\U+8343\U+8384\U+815B_4
 62
     7
100
AcDbVertex
100
AcDb2dVertex
 10
174.9357475691133
 20
109.583664252118
 30
0.0
  0
VERTEX
  5
2ED
330
2EB
100
AcDbEntity
  8
\U+838C\U+8343\U+8384\U+815B_4
 62
     7
100
AcDbVertex
100
AcDb2dVertex
 10
174.9636528425438
 20
109.5926215003796
 30
0.0
  0
VERTEX
  5
2EE
330
2EB
100
AcDbEntity
  8
\U+838C\U+8343\U+8384\U+815B_4
 62
     7
100
AcDbVertex
100
AcDb2dVertex
 10
174.987424001392
 20
109.5884873857973
 30
0.0
  0
VERTEX
  5
2EF
330
2EB
100
AcDbEntity
  8
\U+838C\U+8343\U+8384\U+815B_4
 62
     7
100
AcDbVertex
100
AcDb2dVertex
 10
175.0039604597212
 20
109.570572889274
 30
0.0
  0
VERTEX
  5
2F0
330
2EB
100
AcDbEntity
  8
\U+838C\U+8343\U+8384\U+815B_4
 62
     7
100
AcDbVertex
100
AcDb2dVertex
 10
175.0087835934006
 20
109.5416340871979
 30
0.0
  0
VERTEX
  5
2F1
330
2EB
100
AcDbEntity
  8
\U+838C\U+8343\U+8384\U+815B_4
 62
     7
100
AcDbVertex
100
AcDb2dVertex
 10
175.0039604597212
 20
109.5064941132484
 30
0.0
  0
VERTEX
  5
2F2
330
2EB
100
AcDbEntity
  8
\U+838C\U+8343\U+8384\U+815B_4
 62
     7
100
AcDbVertex
100
AcDb2dVertex
 10
174.987424001392
 20
109.4692870820077
 30
0.0
  0
VERTEX
  5
2F3
330
2EB
100
AcDbEntity
  8
\U+838C\U+8343\U+8384\U+815B_4
 62
     7
100
AcDbVertex
100
AcDb2dVertex
 10
174.9636528425438
 20
109.4382812226404
 30
0.0
  0
VERTEX
  5
2F4
330
2EB
100
AcDbEntity
  8
\U+838C\U+8343\U+8384\U+815B_4
 62
     7
100
AcDbVertex
100
AcDb2dVertex
 10
174.9357475691133
 20
109.4155435924378
 30
0.0
  0
VERTEX
  5
2F5
330
2EB
100
AcDbEntity
  8
\U+838C\U+8343\U+8384\U+815B_4
 62
     7
100
AcDbVertex
100
AcDb2dVertex
 10
174.9078422956828
 20
109.4065863441761
 30
0.0
  0
VERTEX
  5
2F6
330
2EB
100
AcDbEntity
  8
\U+838C\U+8343\U+8384\U+815B_4
 62
     7
100
AcDbVertex
100
AcDb2dVertex
 10
174.8840711368345
 20
109.4107204587584
 30
0.0
  0
VERTEX
  5
2F7
330
2EB
100
AcDbEntity
  8
\U+838C\U+8343\U+8384\U+815B_4
 62
     7
100
AcDbVertex
100
AcDb2dVertex
 10
174.869946245345
 20
109.4286349552817
 30
0.0
  0
VERTEX
  5
2F8
330
2EB
100
AcDbEntity
  8
\U+838C\U+8343\U+8384\U+815B_4
 62
     7
100
AcDbVertex
100
AcDb2dVertex
 10
174.8637450734716
 20
109.4575737573578
 30
0.0
  0
VERTEX
  5
2F9
330
2EB
100
AcDbEntity
  8
\U+838C\U+8343\U+8384\U+815B_4
 62
     7
100
AcDbVertex
100
AcDb2dVertex
 10
174.869946245345
 20
109.4927137313074
 30
0.0
  0
VERTEX
  5
2FA
330
2EB
100
AcDbEntity
  8
\U+838C\U+8343\U+8384\U+815B_4
 62
     7
100
AcDbVertex
100
AcDb2dVertex
 10
174.8840711368345
 20
109.5299207625481
 30
0.0
  0
VERTEX
  5
2FB
330
2EB
100
AcDbEntity
  8
\U+838C\U+8343\U+8384\U+815B_4
 62
     7
100
AcDbVertex
100
AcDb2dVertex
 10
174.9078422956828
 20
109.5609266219153
 30
0.0
  0
VERTEX
  5
2FC
330
2EB
100
AcDbEntity
  8
\U+838C\U+8343\U+8384\U+815B_4
 62
     7
100
AcDbVertex
100
AcDb2dVertex
 10
174.9357475691133
 20
109.583664252118
 30
0.0
  0
SEQEND
  5
2FD
330
2EB
100
AcDbEntity
  8
\U+838C\U+8343\U+8384\U+815B_4
  0
ENDBLK
  5
2EA
330
2E7
100
AcDbEntity
  8
0
100
AcDbBlockEnd
  0
BLOCK
  5
300
330
2FE
100
AcDbEntity
  8
0
100
AcDbBlockBegin
  2
BLOCK_55
 70
     0
 71
     0
 10
0.0
 20
0.0
 30
0.0
  3
BLOCK_55
  1

  0
POLYLINE
  5
302
330
2FE
100
AcDbEntity
  8
\U+838C\U+8343\U+8384\U+815B_4
 62
     7
100
AcDb2dPolyline
 66
     1
 10
0.0
 20
0.0
 30
0.0
  0
VERTEX
  5
303
330
302
100
AcDbEntity
  8
\U+838C\U+8343\U+8384\U+815B_4
 62
     7
100
AcDbVertex
100
AcDb2dVertex
 10
174.1547444226072
 20
110.0983615176143
 30
0.0
  0
VERTEX
  5
304
330
302
100
AcDbEntity
  8
\U+838C\U+8343\U+8384\U+815B_4
 62
     7
100
AcDbVertex
100
AcDb2dVertex
 10
174.2043537975948
 20
110.1162760141376
 30
0.0
  0
VERTEX
  5
305
330
302
100
AcDbEntity
  8
\U+838C\U+8343\U+8384\U+815B_4
 62
     7
100
AcDbVertex
100
AcDb2dVertex
 10
174.2450059243207
 20
110.107318765876
 30
0.0
  0
SEQEND
  5
306
330
302
100
AcDbEntity
  8
\U+838C\U+8343\U+8384\U+815B_4
  0
ENDBLK
  5
301
330
2FE
100
AcDbEntity
  8
0
100
AcDbBlockEnd
  0
BLOCK
  5
309
330
307
100
AcDbEntity
  8
0
100
AcDbBlockBegin
  2
BLOCK_56
 70
     0
 71
     0
 10
0.0
 20
0.0
 30
0.0
  3
BLOCK_56
  1

  0
POLYLINE
  5
30B
330
307
100
AcDbEntity
  8
\U+838C\U+8343\U+8384\U+815B_4
 62
     7
100
AcDb2dPolyline
 66
     1
 10
0.0
 20
0.0
 30
0.0
  0
VERTEX
  5
30C
330
30B
100
AcDbEntity
  8
\U+838C\U+8343\U+8384\U+815B_4
 62
     7
100
AcDbVertex
100
AcDb2dVertex
 10
174.0655164495392
 20
109.7938150767182
 30
0.0
  0
VERTEX
  5
30D
330
30B
100
AcDbEntity
  8
\U+838C\U+8343\U+8384\U+815B_4
 62
     7
100
AcDbVertex
100
AcDb2dVertex
 10
174.0376111761087
 20
109.8255099551825
 30
0.0
  0
VERTEX
  5
30E
330
30B
100
AcDbEntity
  8
\U+838C\U+8343\U+8384\U+815B_4
 62
     7
100
AcDbVertex
100
AcDb2dVertex
 10
174.0272758896529
 20
109.8771863874613
 30
0.0
  0
VERTEX
  5
30F
330
30B
100
AcDbEntity
  8
\U+838C\U+8343\U+8384\U+815B_4
 62
     7
100
AcDbVertex
100
AcDb2dVertex
 10
174.0376111761087
 20
109.9385090870987
 30
0.0
  0
VERTEX
  5
310
330
30B
100
AcDbEntity
  8
\U+838C\U+8343\U+8384\U+815B_4
 62
     7
100
AcDbVertex
100
AcDb2dVertex
 10
174.0655164495392
 20
110.0032768822214
 30
0.0
  0
VERTEX
  5
311
330
30B
100
AcDbEntity
  8
\U+838C\U+8343\U+8384\U+815B_4
 62
     7
100
AcDbVertex
100
AcDb2dVertex
 10
174.1061685762651
 20
110.0583984099854
 30
0.0
  0
VERTEX
  5
312
330
30B
100
AcDbEntity
  8
\U+838C\U+8343\U+8384\U+815B_4
 62
     7
100
AcDbVertex
100
AcDb2dVertex
 10
174.1547444226072
 20
110.0983615176143
 30
0.0
  0
SEQEND
  5
313
330
30B
100
AcDbEntity
  8
\U+838C\U+8343\U+8384\U+815B_4
  0
ENDBLK
  5
30A
330
307
100
AcDbEntity
  8
0
100
AcDbBlockEnd
  0
BLOCK
  5
316
330
314
100
AcDbEntity
  8
0
100
AcDbBlockBegin
  2
BLOCK_57
 70
     0
 71
     0
 10
0.0
 20
0.0
 30
0.0
  3
BLOCK_57
  1

  0
POLYLINE
  5
318
330
314
100
AcDbEntity
  8
\U+838C\U+8343\U+8384\U+815B_4
 62
     7
100
AcDb2dPolyline
 66
     1
 10
0.0
 20
0.0
 30
0.0
  0
VERTEX
  5
319
330
318
100
AcDbEntity
  8
\U+838C\U+8343\U+8384\U+815B_4
 62
     7
100
AcDbVertex
100
AcDb2dVertex
 10
174.1547444226072
 20
110.2079155540452
 30
0.0
  0
VERTEX
  5
31A
330
318
100
AcDbEntity
  8
\U+838C\U+8343\U+8384\U+815B_4
 62
     7
100
AcDbVertex
100
AcDb2dVertex
 10
174.2415608288354
 20
110.2382323943154
 30
0.0
  0
VERTEX
  5
31B
330
318
100
AcDbEntity
  8
\U+838C\U+8343\U+8384\U+815B_4
 62
     7
100
AcDbVertex
100
AcDb2dVertex
 10
174.3128743053801
 20
110.2244520123744
 30
0.0
  0
VERTEX
  5
31C
330
318
100
AcDbEntity
  8
\U+838C\U+8343\U+8384\U+815B_4
 62
     7
100
AcDbVertex
100
AcDb2dVertex
 10
174.3614501517222
 20
110.1686414655134
 30
0.0
  0
VERTEX
  5
31D
330
318
100
AcDbEntity
  8
\U+838C\U+8343\U+8384\U+815B_4
 62
     7
100
AcDbVertex
100
AcDb2dVertex
 10
174.3793646482455
 20
110.0790689828969
 30
0.0
  0
VERTEX
  5
31E
330
318
100
AcDbEntity
  8
\U+838C\U+8343\U+8384\U+815B_4
 62
     7
100
AcDbVertex
100
AcDb2dVertex
 10
174.3741970050176
 20
110.0329047033945
 30
0.0
  0
SEQEND
  5
31F
330
318
100
AcDbEntity
  8
\U+838C\U+8343\U+8384\U+815B_4
  0
ENDBLK
  5
317
330
314
100
AcDbEntity
  8
0
100
AcDbBlockEnd
  0
BLOCK
  5
322
330
320
100
AcDbEntity
  8
0
100
AcDbBlockBegin
  2
BLOCK_58
 70
     0
 71
     0
 10
0.0
 20
0.0
 30
0.0
  3
BLOCK_58
  1

  0
POLYLINE
  5
324
330
320
100
AcDbEntity
  8
\U+838C\U+8343\U+8384\U+815B_4
 62
     7
100
AcDb2dPolyline
 66
     1
 10
0.0
 20
0.0
 30
0.0
  0
VERTEX
  5
325
330
324
100
AcDbEntity
  8
\U+838C\U+8343\U+8384\U+815B_4
 62
     7
100
AcDbVertex
100
AcDb2dVertex
 10
174.194018511139
 20
109.7187119951398
 30
0.0
  0
VERTEX
  5
326
330
324
100
AcDbEntity
  8
\U+838C\U+8343\U+8384\U+815B_4
 62
     7
100
AcDbVertex
100
AcDb2dVertex
 10
174.1547444226072
 20
109.6925292694519
 30
0.0
  0
VERTEX
  5
327
330
324
100
AcDbEntity
  8
\U+838C\U+8343\U+8384\U+815B_4
 62
     7
100
AcDbVertex
100
AcDb2dVertex
 10
174.069306054573
 20
109.6629014482787
 30
0.0
  0
VERTEX
  5
328
330
324
100
AcDbEntity
  8
\U+838C\U+8343\U+8384\U+815B_4
 62
     7
100
AcDbVertex
100
AcDb2dVertex
 10
173.9979925780283
 20
109.6773708493168
 30
0.0
  0
VERTEX
  5
329
330
324
100
AcDbEntity
  8
\U+838C\U+8343\U+8384\U+815B_4
 62
     7
100
AcDbVertex
100
AcDb2dVertex
 10
173.9497612412348
 20
109.7331813961778
 30
0.0
  0
VERTEX
  5
32A
330
324
100
AcDbEntity
  8
\U+838C\U+8343\U+8384\U+815B_4
 62
     7
100
AcDbVertex
100
AcDb2dVertex
 10
173.93219125426
 20
109.8220648596973
 30
0.0
  0
VERTEX
  5
32B
330
324
100
AcDbEntity
  8
\U+838C\U+8343\U+8384\U+815B_4
 62
     7
100
AcDbVertex
100
AcDb2dVertex
 10
173.9497612412348
 20
109.9295518388371
 30
0.0
  0
VERTEX
  5
32C
330
324
100
AcDbEntity
  8
\U+838C\U+8343\U+8384\U+815B_4
 62
     7
100
AcDbVertex
100
AcDb2dVertex
 10
173.9979925780283
 20
110.0411729325591
 30
0.0
  0
VERTEX
  5
32D
330
324
100
AcDbEntity
  8
\U+838C\U+8343\U+8384\U+815B_4
 62
     7
100
AcDbVertex
100
AcDb2dVertex
 10
174.069306054573
 20
110.1397026634373
 30
0.0
  0
VERTEX
  5
32E
330
324
100
AcDbEntity
  8
\U+838C\U+8343\U+8384\U+815B_4
 62
     7
100
AcDbVertex
100
AcDb2dVertex
 10
174.1547444226072
 20
110.2079155540452
 30
0.0
  0
SEQEND
  5
32F
330
324
100
AcDbEntity
  8
\U+838C\U+8343\U+8384\U+815B_4
  0
ENDBLK
  5
323
330
320
100
AcDbEntity
  8
0
100
AcDbBlockEnd
  0
BLOCK
  5
332
330
330
100
AcDbEntity
  8
0
100
AcDbBlockBegin
  2
BLOCK_59
 70
     0
 71
     0
 10
0.0
 20
0.0
 30
0.0
  3
BLOCK_59
  1

  0
POLYLINE
  5
334
330
330
100
AcDbEntity
  8
\U+838C\U+8343\U+8384\U+815B_4
 62
     7
100
AcDb2dPolyline
 66
     1
 10
0.0
 20
0.0
 30
0.0
  0
VERTEX
  5
335
330
334
100
AcDbEntity
  8
\U+838C\U+8343\U+8384\U+815B_4
 62
     7
100
AcDbVertex
100
AcDb2dVertex
 10
175.117304101186
 20
110.5055718039708
 30
0.0
  0
VERTEX
  5
336
330
334
100
AcDbEntity
  8
\U+838C\U+8343\U+8384\U+815B_4
 62
     7
100
AcDbVertex
100
AcDb2dVertex
 10
175.09766705692
 20
110.7887586528584
 30
0.0
  0
VERTEX
  5
337
330
334
100
AcDbEntity
  8
\U+838C\U+8343\U+8384\U+815B_4
 62
     7
100
AcDbVertex
100
AcDb2dVertex
 10
175.0387559241223
 20
111.0423176805728
 30
0.0
  0
VERTEX
  5
338
330
334
100
AcDbEntity
  8
\U+838C\U+8343\U+8384\U+815B_4
 62
     7
100
AcDbVertex
100
AcDb2dVertex
 10
174.9429822696323
 20
111.2607367343376
 30
0.0
  0
VERTEX
  5
339
330
334
100
AcDbEntity
  8
\U+838C\U+8343\U+8384\U+815B_4
 62
     7
100
AcDbVertex
100
AcDb2dVertex
 10
174.8127576602899
 20
111.4391926804735
 30
0.0
  0
VERTEX
  5
33A
330
334
100
AcDbEntity
  8
\U+838C\U+8343\U+8384\U+815B_4
 62
     7
100
AcDbVertex
100
AcDb2dVertex
 10
174.6504936629346
 20
111.5742404234953
 30
0.0
  0
VERTEX
  5
33B
330
334
100
AcDbEntity
  8
\U+838C\U+8343\U+8384\U+815B_4
 62
     7
100
AcDbVertex
100
AcDb2dVertex
 10
174.4596353730518
 20
111.6596787915295
 30
0.0
  0
VERTEX
  5
33C
330
334
100
AcDbEntity
  8
\U+838C\U+8343\U+8384\U+815B_4
 62
     7
100
AcDbVertex
100
AcDb2dVertex
 10
174.2439723956751
 20
111.6955077845761
 30
0.0
  0
VERTEX
  5
33D
330
334
100
AcDbEntity
  8
\U+838C\U+8343\U+8384\U+815B_4
 62
     7
100
AcDbVertex
100
AcDb2dVertex
 10
174.0110839408722
 20
111.6824164217322
 30
0.0
  0
VERTEX
  5
33E
330
334
100
AcDbEntity
  8
\U+838C\U+8343\U+8384\U+815B_4
 62
     7
100
AcDbVertex
100
AcDb2dVertex
 10
173.7647596136769
 20
111.6176486266095
 30
0.0
  0
VERTEX
  5
33F
330
334
100
AcDbEntity
  8
\U+838C\U+8343\U+8384\U+815B_4
 62
     7
100
AcDbVertex
100
AcDb2dVertex
 10
173.510856076414
 20
111.5053385137903
 30
0.0
  0
VERTEX
  5
340
330
334
100
AcDbEntity
  8
\U+838C\U+8343\U+8384\U+815B_4
 62
     7
100
AcDbVertex
100
AcDb2dVertex
 10
173.2541964627628
 20
111.3475531405659
 30
0.0
  0
VERTEX
  5
341
330
334
100
AcDbEntity
  8
\U+838C\U+8343\U+8384\U+815B_4
 62
     7
100
AcDbVertex
100
AcDb2dVertex
 10
173.0040825305337
 20
111.1463595642273
 30
0.0
  0
VERTEX
  5
342
330
334
100
AcDbEntity
  8
\U+838C\U+8343\U+8384\U+815B_4
 62
     7
100
AcDbVertex
100
AcDb2dVertex
 10
172.7639593752118
 20
110.907958956648
 30
0.0
  0
VERTEX
  5
343
330
334
100
AcDbEntity
  8
\U+838C\U+8343\U+8384\U+815B_4
 62
     7
100
AcDbVertex
100
AcDb2dVertex
 10
172.539683659122
 20
110.6364854324103
 30
0.0
  0
VERTEX
  5
344
330
334
100
AcDbEntity
  8
\U+838C\U+8343\U+8384\U+815B_4
 62
     7
100
AcDbVertex
100
AcDb2dVertex
 10
172.3357340063952
 20
110.3402072206788
 30
0.0
  0
VERTEX
  5
345
330
334
100
AcDbEntity
  8
\U+838C\U+8343\U+8384\U+815B_4
 62
     7
100
AcDbVertex
100
AcDb2dVertex
 10
172.1583115889049
 20
110.025325493327
 30
0.0
  0
VERTEX
  5
346
330
334
100
AcDbEntity
  8
\U+838C\U+8343\U+8384\U+815B_4
 62
     7
100
AcDbVertex
100
AcDb2dVertex
 10
172.0108615021362
 20
109.6980414222283
 30
0.0
  0
VERTEX
  5
347
330
334
100
AcDbEntity
  8
\U+838C\U+8343\U+8384\U+815B_4
 62
     7
100
AcDbVertex
100
AcDb2dVertex
 10
171.8975178606715
 20
109.3680012747413
 30
0.0
  0
VERTEX
  5
348
330
334
100
AcDbEntity
  8
\U+838C\U+8343\U+8384\U+815B_4
 62
     7
100
AcDbVertex
100
AcDb2dVertex
 10
171.8203477218019
 20
109.0420952418367
 30
0.0
  0
VERTEX
  5
349
330
334
100
AcDbEntity
  8
\U+838C\U+8343\U+8384\U+815B_4
 62
     7
100
AcDbVertex
100
AcDb2dVertex
 10
171.7824516714641
 20
108.728591552679
 30
0.0
  0
VERTEX
  5
34A
330
334
100
AcDbEntity
  8
\U+838C\U+8343\U+8384\U+815B_4
 62
     7
100
AcDbVertex
100
AcDb2dVertex
 10
171.7824516714641
 20
108.4316243218504
 30
0.0
  0
VERTEX
  5
34B
330
334
100
AcDbEntity
  8
\U+838C\U+8343\U+8384\U+815B_4
 62
     7
100
AcDbVertex
100
AcDb2dVertex
 10
171.8203477218019
 20
108.163595893098
 30
0.0
  0
VERTEX
  5
34C
330
334
100
AcDbEntity
  8
\U+838C\U+8343\U+8384\U+815B_4
 62
     7
100
AcDbVertex
100
AcDb2dVertex
 10
171.8975178606715
 20
107.9258843046157
 30
0.0
  0
VERTEX
  5
34D
330
334
100
AcDbEntity
  8
\U+838C\U+8343\U+8384\U+815B_4
 62
     7
100
AcDbVertex
100
AcDb2dVertex
 10
172.0108615021362
 20
107.7274468046654
 30
0.0
  0
VERTEX
  5
34E
330
334
100
AcDbEntity
  8
\U+838C\U+8343\U+8384\U+815B_4
 62
     7
100
AcDbVertex
100
AcDb2dVertex
 10
172.1583115889049
 20
107.570350450538
 30
0.0
  0
VERTEX
  5
34F
330
334
100
AcDbEntity
  8
\U+838C\U+8343\U+8384\U+815B_4
 62
     7
100
AcDbVertex
100
AcDb2dVertex
 10
172.3357340063952
 20
107.46010739501
 30
0.0
  0
VERTEX
  5
350
330
334
100
AcDbEntity
  8
\U+838C\U+8343\U+8384\U+815B_4
 62
     7
100
AcDbVertex
100
AcDb2dVertex
 10
172.539683659122
 20
107.3980956762755
 30
0.0
  0
VERTEX
  5
351
330
334
100
AcDbEntity
  8
\U+838C\U+8343\U+8384\U+815B_4
 62
     7
100
AcDbVertex
100
AcDb2dVertex
 10
172.7639593752118
 20
107.3870713707227
 30
0.0
  0
VERTEX
  5
352
330
334
100
AcDbEntity
  8
\U+838C\U+8343\U+8384\U+815B_4
 62
     7
100
AcDbVertex
100
AcDb2dVertex
 10
173.0040825305337
 20
107.4263454592545
 30
0.0
  0
VERTEX
  5
353
330
334
100
AcDbEntity
  8
\U+838C\U+8343\U+8384\U+815B_4
 62
     7
100
AcDbVertex
100
AcDb2dVertex
 10
173.2541964627628
 20
107.5145399036769
 30
0.0
  0
VERTEX
  5
354
330
334
100
AcDbEntity
  8
\U+838C\U+8343\U+8384\U+815B_4
 62
     7
100
AcDbVertex
100
AcDb2dVertex
 10
173.510856076414
 20
107.6509656848928
 30
0.0
  0
VERTEX
  5
355
330
334
100
AcDbEntity
  8
\U+838C\U+8343\U+8384\U+815B_4
 62
     7
100
AcDbVertex
100
AcDb2dVertex
 10
173.7647596136769
 20
107.8307996692229
 30
0.0
  0
VERTEX
  5
356
330
334
100
AcDbEntity
  8
\U+838C\U+8343\U+8384\U+815B_4
 62
     7
100
AcDbVertex
100
AcDb2dVertex
 10
174.0110839408722
 20
108.052663818473
 30
0.0
  0
VERTEX
  5
357
330
334
100
AcDbEntity
  8
\U+838C\U+8343\U+8384\U+815B_4
 62
     7
100
AcDbVertex
100
AcDb2dVertex
 10
174.2439723956751
 20
108.3076008843814
 30
0.0
  0
VERTEX
  5
358
330
334
100
AcDbEntity
  8
\U+838C\U+8343\U+8384\U+815B_4
 62
     7
100
AcDbVertex
100
AcDb2dVertex
 10
174.4596353730518
 20
108.591476752366
 30
0.0
  0
VERTEX
  5
359
330
334
100
AcDbEntity
  8
\U+838C\U+8343\U+8384\U+815B_4
 62
     7
100
AcDbVertex
100
AcDb2dVertex
 10
174.6504936629346
 20
108.8994682887474
 30
0.0
  0
VERTEX
  5
35A
330
334
100
AcDbEntity
  8
\U+838C\U+8343\U+8384\U+815B_4
 62
     7
100
AcDbVertex
100
AcDb2dVertex
 10
174.8127576602899
 20
109.2205511879726
 30
0.0
  0
VERTEX
  5
35B
330
334
100
AcDbEntity
  8
\U+838C\U+8343\U+8384\U+815B_4
 62
     7
100
AcDbVertex
100
AcDb2dVertex
 10
174.8716687930877
 20
109.3583550073826
 30
0.0
  0
SEQEND
  5
35C
330
334
100
AcDbEntity
  8
\U+838C\U+8343\U+8384\U+815B_4
  0
ENDBLK
  5
333
330
330
100
AcDbEntity
  8
0
100
AcDbBlockEnd
  0
BLOCK
  5
35F
330
35D
100
AcDbEntity
  8
0
100
AcDbBlockBegin
  2
BLOCK_60
 70
     0
 71
     0
 10
0.0
 20
0.0
 30
0.0
  3
BLOCK_60
  1

  0
SPLINE
  5
361
330
35D
100
AcDbEntity
  8
\U+838C\U+8343\U+8384\U+815B_4
 62
     7
100
AcDbSpline
210
0.0
220
0.0
230
1.0
 70
     8
 71
     3
 72
     8
 73
     4
 74
     0
 42
0.0000000001
 43
0.0000000001
 40
0.0
 40
0.0
 40
0.0
 40
0.0
 40
1.0
 40
1.0
 40
1.0
 40
1.0
 10
174.987424001392
 20
109.6863280975784
 30
0.0
 10
175.069417273941
 20
109.9516004499427
 30
0.0
 10
175.1131699866037
 20
110.2272080887627
 30
0.0
 10
175.117304101186
 20
110.5055718039708
 30
0.0
  0
ENDBLK
  5
360
330
35D
100
AcDbEntity
  8
0
100
AcDbBlockEnd
  0
BLOCK
  5
364
330
362
100
AcDbEntity
  8
0
100
AcDbBlockBegin
  2
BLOCK_61
 70
     0
 71
     0
 10
0.0
 20
0.0
 30
0.0
  3
BLOCK_61
  1

  0
POLYLINE
  5
366
330
362
100
AcDbEntity
  8
\U+838C\U+8343\U+8384\U+815B_4
 62
     7
100
AcDb2dPolyline
 66
     1
 10
0.0
 20
0.0
 30
0.0
  0
VERTEX
  5
367
330
366
100
AcDbEntity
  8
\U+838C\U+8343\U+8384\U+815B_4
 62
     7
100
AcDbVertex
100
AcDb2dVertex
 10
175.1190266489286
 20
110.6364854324103
 30
0.0
  0
VERTEX
  5
368
330
366
100
AcDbEntity
  8
\U+838C\U+8343\U+8384\U+815B_4
 62
     7
100
AcDbVertex
100
AcDb2dVertex
 10
175.1190266489286
 20
110.5979003629755
 30
0.0
  0
SEQEND
  5
369
330
366
100
AcDbEntity
  8
\U+838C\U+8343\U+8384\U+815B_4
  0
ENDBLK
  5
365
330
362
100
AcDbEntity
  8
0
100
AcDbBlockEnd
  0
BLOCK
  5
36C
330
36A
100
AcDbEntity
  8
0
100
AcDbBlockBegin
  2
BLOCK_62
 70
     0
 71
     0
 10
0.0
 20
0.0
 30
0.0
  3
BLOCK_62
  1

  0
POLYLINE
  5
36E
330
36A
100
AcDbEntity
  8
\U+838C\U+8343\U+8384\U+815B_4
 62
     7
100
AcDb2dPolyline
 66
     1
 10
0.0
 20
0.0
 30
0.0
  0
VERTEX
  5
36F
330
36E
100
AcDbEntity
  8
\U+838C\U+8343\U+8384\U+815B_4
 62
     7
100
AcDbVertex
100
AcDb2dVertex
 10
173.3678846137761
 20
107.5641492786645
 30
0.0
  0
VERTEX
  5
370
330
36E
100
AcDbEntity
  8
\U+838C\U+8343\U+8384\U+815B_4
 62
     7
100
AcDbVertex
100
AcDb2dVertex
 10
173.2021755209356
 20
107.474576796048
 30
0.0
  0
VERTEX
  5
371
330
36E
100
AcDbEntity
  8
\U+838C\U+8343\U+8384\U+815B_4
 62
     7
100
AcDbVertex
100
AcDb2dVertex
 10
172.9382812067654
 20
107.3677788360053
 30
0.0
  0
VERTEX
  5
372
330
36E
100
AcDbEntity
  8
\U+838C\U+8343\U+8384\U+815B_4
 62
     7
100
AcDbVertex
100
AcDb2dVertex
 10
172.6833441408569
 20
107.3126573082413
 30
0.0
  0
VERTEX
  5
373
330
36E
100
AcDbEntity
  8
\U+838C\U+8343\U+8384\U+815B_4
 62
     7
100
AcDbVertex
100
AcDb2dVertex
 10
172.4428764759865
 20
107.3078341745619
 30
0.0
  0
VERTEX
  5
374
330
36E
100
AcDbEntity
  8
\U+838C\U+8343\U+8384\U+815B_4
 62
     7
100
AcDbVertex
100
AcDb2dVertex
 10
172.222734874479
 20
107.3533094349672
 30
0.0
  0
VERTEX
  5
375
330
36E
100
AcDbEntity
  8
\U+838C\U+8343\U+8384\U+815B_4
 62
     7
100
AcDbVertex
100
AcDb2dVertex
 10
172.0284314891109
 20
107.4497721085542
 30
0.0
  0
VERTEX
  5
376
330
36E
100
AcDbEntity
  8
\U+838C\U+8343\U+8384\U+815B_4
 62
     7
100
AcDbVertex
100
AcDb2dVertex
 10
171.8609998485278
 20
107.5951551380318
 30
0.0
  0
VERTEX
  5
377
330
36E
100
AcDbEntity
  8
\U+838C\U+8343\U+8384\U+815B_4
 62
     7
100
AcDbVertex
100
AcDb2dVertex
 10
171.7276746532486
 20
107.7839463706235
 30
0.0
  0
VERTEX
  5
378
330
36E
100
AcDbEntity
  8
\U+838C\U+8343\U+8384\U+815B_4
 62
     7
100
AcDbVertex
100
AcDb2dVertex
 10
171.6308674701131
 20
108.0140787490381
 30
0.0
  0
VERTEX
  5
379
330
36E
100
AcDbEntity
  8
\U+838C\U+8343\U+8384\U+815B_4
 62
     7
100
AcDbVertex
100
AcDb2dVertex
 10
171.5712673182183
 20
108.2814181586935
 30
0.0
  0
VERTEX
  5
37A
330
36E
100
AcDbEntity
  8
\U+838C\U+8343\U+8384\U+815B_4
 62
     7
100
AcDbVertex
100
AcDb2dVertex
 10
171.5519747835009
 20
108.5756293131339
 30
0.0
  0
VERTEX
  5
37B
330
36E
100
AcDbEntity
  8
\U+838C\U+8343\U+8384\U+815B_4
 62
     7
100
AcDbVertex
100
AcDb2dVertex
 10
171.5712673182183
 20
108.8953341741651
 30
0.0
  0
VERTEX
  5
37C
330
36E
100
AcDbEntity
  8
\U+838C\U+8343\U+8384\U+815B_4
 62
     7
100
AcDbVertex
100
AcDb2dVertex
 10
171.6308674701131
 20
109.2288194171372
 30
0.0
  0
VERTEX
  5
37D
330
36E
100
AcDbEntity
  8
\U+838C\U+8343\U+8384\U+815B_4
 62
     7
100
AcDbVertex
100
AcDb2dVertex
 10
171.7276746532486
 20
109.5719509274681
 30
0.0
  0
VERTEX
  5
37E
330
36E
100
AcDbEntity
  8
\U+838C\U+8343\U+8384\U+815B_4
 62
     7
100
AcDbVertex
100
AcDb2dVertex
 10
171.8609998485278
 20
109.9157714568961
 30
0.0
  0
VERTEX
  5
37F
330
36E
100
AcDbEntity
  8
\U+838C\U+8343\U+8384\U+815B_4
 62
     7
100
AcDbVertex
100
AcDb2dVertex
 10
172.0284314891109
 20
110.2527017953535
 30
0.0
  0
VERTEX
  5
380
330
36E
100
AcDbEntity
  8
\U+838C\U+8343\U+8384\U+815B_4
 62
     7
100
AcDbVertex
100
AcDb2dVertex
 10
172.222734874479
 20
110.5744737136758
 30
0.0
  0
VERTEX
  5
381
330
36E
100
AcDbEntity
  8
\U+838C\U+8343\U+8384\U+815B_4
 62
     7
100
AcDbVertex
100
AcDb2dVertex
 10
172.4428764759865
 20
110.8748860399896
 30
0.0
  0
VERTEX
  5
382
330
36E
100
AcDbEntity
  8
\U+838C\U+8343\U+8384\U+815B_4
 62
     7
100
AcDbVertex
100
AcDb2dVertex
 10
172.6833441408569
 20
111.1477376024214
 30
0.0
  0
VERTEX
  5
383
330
36E
100
AcDbEntity
  8
\U+838C\U+8343\U+8384\U+815B_4
 62
     7
100
AcDbVertex
100
AcDb2dVertex
 10
172.9382812067654
 20
111.3854491909036
 30
0.0
  0
VERTEX
  5
384
330
36E
100
AcDbEntity
  8
\U+838C\U+8343\U+8384\U+815B_4
 62
     7
100
AcDbVertex
100
AcDb2dVertex
 10
173.2021755209356
 20
111.583197671757
 30
0.0
  0
VERTEX
  5
385
330
36E
100
AcDbEntity
  8
\U+838C\U+8343\U+8384\U+815B_4
 62
     7
100
AcDbVertex
100
AcDb2dVertex
 10
173.4688259114939
 20
111.7375379494962
 30
0.0
  0
VERTEX
  5
386
330
36E
100
AcDbEntity
  8
\U+838C\U+8343\U+8384\U+815B_4
 62
     7
100
AcDbVertex
100
AcDb2dVertex
 10
173.7327202256641
 20
111.8422688522478
 30
0.0
  0
VERTEX
  5
387
330
36E
100
AcDbEntity
  8
\U+838C\U+8343\U+8384\U+815B_4
 62
     7
100
AcDbVertex
100
AcDb2dVertex
 10
173.9862792533784
 20
111.8994574373029
 30
0.0
  0
VERTEX
  5
388
330
36E
100
AcDbEntity
  8
\U+838C\U+8343\U+8384\U+815B_4
 62
     7
100
AcDbVertex
100
AcDb2dVertex
 10
174.2264024087004
 20
111.9035915518852
 30
0.0
  0
VERTEX
  5
389
330
36E
100
AcDbEntity
  8
\U+838C\U+8343\U+8384\U+815B_4
 62
     7
100
AcDbVertex
100
AcDb2dVertex
 10
174.4472330293049
 20
111.8581162914799
 30
0.0
  0
VERTEX
  5
38A
330
36E
100
AcDbEntity
  8
\U+838C\U+8343\U+8384\U+815B_4
 62
     7
100
AcDbVertex
100
AcDb2dVertex
 10
174.6432589624156
 20
111.7616536178929
 30
0.0
  0
VERTEX
  5
38B
330
36E
100
AcDbEntity
  8
\U+838C\U+8343\U+8384\U+815B_4
 62
     7
100
AcDbVertex
100
AcDb2dVertex
 10
174.8079345266105
 20
111.6162705884154
 30
0.0
  0
VERTEX
  5
38C
330
36E
100
AcDbEntity
  8
\U+838C\U+8343\U+8384\U+815B_4
 62
     7
100
AcDbVertex
100
AcDb2dVertex
 10
174.9419487409867
 20
111.4274793558237
 30
0.0
  0
VERTEX
  5
38D
330
36E
100
AcDbEntity
  8
\U+838C\U+8343\U+8384\U+815B_4
 62
     7
100
AcDbVertex
100
AcDb2dVertex
 10
175.0397894527678
 20
111.1980359965061
 30
0.0
  0
VERTEX
  5
38E
330
36E
100
AcDbEntity
  8
\U+838C\U+8343\U+8384\U+815B_4
 62
     7
100
AcDbVertex
100
AcDb2dVertex
 10
175.0983560760171
 20
110.9306965868507
 30
0.0
  0
VERTEX
  5
38F
330
36E
100
AcDbEntity
  8
\U+838C\U+8343\U+8384\U+815B_4
 62
     7
100
AcDbVertex
100
AcDb2dVertex
 10
175.1190266489286
 20
110.6364854324103
 30
0.0
  0
SEQEND
  5
390
330
36E
100
AcDbEntity
  8
\U+838C\U+8343\U+8384\U+815B_4
  0
ENDBLK
  5
36D
330
36A
100
AcDbEntity
  8
0
100
AcDbBlockEnd
  0
BLOCK
  5
393
330
391
100
AcDbEntity
  8
0
100
AcDbBlockBegin
  2
BLOCK_63
 70
     0
 71
     0
 10
0.0
 20
0.0
 30
0.0
  3
BLOCK_63
  1

  0
POLYLINE
  5
395
330
391
100
AcDbEntity
  8
\U+838C\U+8343\U+8384\U+815B_4
 62
     7
100
AcDb2dPolyline
 66
     1
 10
0.0
 20
0.0
 30
0.0
  0
VERTEX
  5
396
330
395
100
AcDbEntity
  8
\U+838C\U+8343\U+8384\U+815B_4
 62
     7
100
AcDbVertex
100
AcDb2dVertex
 10
168.1416747626521
 20
110.5097059185531
 30
0.0
  0
VERTEX
  5
397
330
395
100
AcDbEntity
  8
\U+838C\U+8343\U+8384\U+815B_4
 62
     7
100
AcDbVertex
100
AcDb2dVertex
 10
168.1620008260151
 20
110.2106716304335
 30
0.0
  0
VERTEX
  5
398
330
395
100
AcDbEntity
  8
\U+838C\U+8343\U+8384\U+815B_4
 62
     7
100
AcDbVertex
100
AcDb2dVertex
 10
168.2219454874584
 20
109.9398871252928
 30
0.0
  0
VERTEX
  5
399
330
395
100
AcDbEntity
  8
\U+838C\U+8343\U+8384\U+815B_4
 62
     7
100
AcDbVertex
100
AcDb2dVertex
 10
168.3204752183366
 20
109.7049316131988
 30
0.0
  0
VERTEX
  5
39A
330
395
100
AcDbEntity
  8
\U+838C\U+8343\U+8384\U+815B_4
 62
     7
100
AcDbVertex
100
AcDb2dVertex
 10
168.4565564900039
 20
109.5133843042189
 30
0.0
  0
VERTEX
  5
39B
330
395
100
AcDbEntity
  8
\U+838C\U+8343\U+8384\U+815B_4
 62
     7
100
AcDbVertex
100
AcDb2dVertex
 10
168.6246771496841
 20
109.3652451983531
 30
0.0
  0
VERTEX
  5
39C
330
395
100
AcDbEntity
  8
\U+838C\U+8343\U+8384\U+815B_4
 62
     7
100
AcDbVertex
100
AcDb2dVertex
 10
168.6804876965452
 20
109.3321722816947
 30
0.0
  0
SEQEND
  5
39D
330
395
100
AcDbEntity
  8
\U+838C\U+8343\U+8384\U+815B_4
  0
ENDBLK
  5
394
330
391
100
AcDbEntity
  8
0
100
AcDbBlockEnd
  0
BLOCK
  5
3A0
330
39E
100
AcDbEntity
  8
0
100
AcDbBlockBegin
  2
BLOCK_64
 70
     0
 71
     0
 10
0.0
 20
0.0
 30
0.0
  3
BLOCK_64
  1

  0
POLYLINE
  5
3A2
330
39E
100
AcDbEntity
  8
\U+838C\U+8343\U+8384\U+815B_4
 62
     7
100
AcDb2dPolyline
 66
     1
 10
0.0
 20
0.0
 30
0.0
  0
VERTEX
  5
3A3
330
3A2
100
AcDbEntity
  8
\U+838C\U+8343\U+8384\U+815B_4
 62
     7
100
AcDbVertex
100
AcDb2dVertex
 10
171.2439832471196
 20
113.7735893812788
 30
0.0
  0
VERTEX
  5
3A4
330
3A2
100
AcDbEntity
  8
\U+838C\U+8343\U+8384\U+815B_4
 62
     7
100
AcDbVertex
100
AcDb2dVertex
 10
171.084819835701
 20
113.8473144246632
 30
0.0
  0
VERTEX
  5
3A5
330
3A2
100
AcDbEntity
  8
\U+838C\U+8343\U+8384\U+815B_4
 62
     7
100
AcDbVertex
100
AcDb2dVertex
 10
170.8615776482568
 20
113.8941677232626
 30
0.0
  0
VERTEX
  5
3A6
330
3A2
100
AcDbEntity
  8
\U+838C\U+8343\U+8384\U+815B_4
 62
     7
100
AcDbVertex
100
AcDb2dVertex
 10
170.6169758688041
 20
113.8900336086803
 30
0.0
  0
VERTEX
  5
3A7
330
3A2
100
AcDbEntity
  8
\U+838C\U+8343\U+8384\U+815B_4
 62
     7
100
AcDbVertex
100
AcDb2dVertex
 10
170.3575601787648
 20
113.831466985431
 30
0.0
  0
VERTEX
  5
3A8
330
3A2
100
AcDbEntity
  8
\U+838C\U+8343\U+8384\U+815B_4
 62
     7
100
AcDbVertex
100
AcDb2dVertex
 10
170.0891872404638
 20
113.7239800062912
 30
0.0
  0
VERTEX
  5
3A9
330
3A2
100
AcDbEntity
  8
\U+838C\U+8343\U+8384\U+815B_4
 62
     7
100
AcDbVertex
100
AcDb2dVertex
 10
169.8194362639688
 20
113.5675726712609
 30
0.0
  0
VERTEX
  5
3AA
330
3A2
100
AcDbEntity
  8
\U+838C\U+8343\U+8384\U+815B_4
 62
     7
100
AcDbVertex
100
AcDb2dVertex
 10
169.5514078352163
 20
113.3663790949223
 30
0.0
  0
VERTEX
  5
3AB
330
3A2
100
AcDbEntity
  8
\U+838C\U+8343\U+8384\U+815B_4
 62
     7
100
AcDbVertex
100
AcDb2dVertex
 10
169.2923366547255
 20
113.1245333918578
 30
0.0
  0
VERTEX
  5
3AC
330
3A2
100
AcDbEntity
  8
\U+838C\U+8343\U+8384\U+815B_4
 62
     7
100
AcDbVertex
100
AcDb2dVertex
 10
169.0467013466272
 20
112.8475477148437
 30
0.0
  0
VERTEX
  5
3AD
330
3A2
100
AcDbEntity
  8
\U+838C\U+8343\U+8384\U+815B_4
 62
     7
100
AcDbVertex
100
AcDb2dVertex
 10
168.8244926878286
 20
112.5416232357535
 30
0.0
  0
VERTEX
  5
3AE
330
3A2
100
AcDbEntity
  8
\U+838C\U+8343\U+8384\U+815B_4
 62
     7
100
AcDbVertex
100
AcDb2dVertex
 10
168.6246771496841
 20
112.2150281837518
 30
0.0
  0
VERTEX
  5
3AF
330
3A2
100
AcDbEntity
  8
\U+838C\U+8343\U+8384\U+815B_4
 62
     7
100
AcDbVertex
100
AcDb2dVertex
 10
168.4565564900039
 20
111.8718966734209
 30
0.0
  0
VERTEX
  5
3B0
330
3A2
100
AcDbEntity
  8
\U+838C\U+8343\U+8384\U+815B_4
 62
     7
100
AcDbVertex
100
AcDb2dVertex
 10
168.3204752183366
 20
111.5225639912166
 30
0.0
  0
VERTEX
  5
3B1
330
3A2
100
AcDbEntity
  8
\U+838C\U+8343\U+8384\U+815B_4
 62
     7
100
AcDbVertex
100
AcDb2dVertex
 10
168.2219454874584
 20
111.1746093472064
 30
0.0
  0
VERTEX
  5
3B2
330
3A2
100
AcDbEntity
  8
\U+838C\U+8343\U+8384\U+815B_4
 62
     7
100
AcDbVertex
100
AcDb2dVertex
 10
168.1620008260151
 20
110.8342339132637
 30
0.0
  0
VERTEX
  5
3B3
330
3A2
100
AcDbEntity
  8
\U+838C\U+8343\U+8384\U+815B_4
 62
     7
100
AcDbVertex
100
AcDb2dVertex
 10
168.1416747626521
 20
110.5097059185531
 30
0.0
  0
SEQEND
  5
3B4
330
3A2
100
AcDbEntity
  8
\U+838C\U+8343\U+8384\U+815B_4
  0
ENDBLK
  5
3A1
330
39E
100
AcDbEntity
  8
0
100
AcDbBlockEnd
  0
BLOCK
  5
3B7
330
3B5
100
AcDbEntity
  8
0
100
AcDbBlockBegin
  2
BLOCK_65
 70
     0
 71
     0
 10
0.0
 20
0.0
 30
0.0
  3
BLOCK_65
  1

  0
POLYLINE
  5
3B9
330
3B5
100
AcDbEntity
  8
\U+838C\U+8343\U+8384\U+815B_4
 62
     7
100
AcDb2dPolyline
 66
     1
 10
0.0
 20
0.0
 30
0.0
  0
VERTEX
  5
3BA
330
3B9
100
AcDbEntity
  8
\U+838C\U+8343\U+8384\U+815B_4
 62
     7
100
AcDbVertex
100
AcDb2dVertex
 10
173.93219125426
 20
109.8220648596973
 30
0.0
  0
VERTEX
  5
3BB
330
3B9
100
AcDbEntity
  8
\U+838C\U+8343\U+8384\U+815B_4
 62
     7
100
AcDbVertex
100
AcDb2dVertex
 10
173.9497612412348
 20
109.9295518388371
 30
0.0
  0
VERTEX
  5
3BC
330
3B9
100
AcDbEntity
  8
\U+838C\U+8343\U+8384\U+815B_4
 62
     7
100
AcDbVertex
100
AcDb2dVertex
 10
173.9979925780283
 20
110.0411729325591
 30
0.0
  0
VERTEX
  5
3BD
330
3B9
100
AcDbEntity
  8
\U+838C\U+8343\U+8384\U+815B_4
 62
     7
100
AcDbVertex
100
AcDb2dVertex
 10
174.069306054573
 20
110.1397026634373
 30
0.0
  0
VERTEX
  5
3BE
330
3B9
100
AcDbEntity
  8
\U+838C\U+8343\U+8384\U+815B_4
 62
     7
100
AcDbVertex
100
AcDb2dVertex
 10
174.1547444226072
 20
110.2079155540452
 30
0.0
  0
VERTEX
  5
3BF
330
3B9
100
AcDbEntity
  8
\U+838C\U+8343\U+8384\U+815B_4
 62
     7
100
AcDbVertex
100
AcDb2dVertex
 10
174.2415608288354
 20
110.2382323943154
 30
0.0
  0
VERTEX
  5
3C0
330
3B9
100
AcDbEntity
  8
\U+838C\U+8343\U+8384\U+815B_4
 62
     7
100
AcDbVertex
100
AcDb2dVertex
 10
174.3128743053801
 20
110.2244520123744
 30
0.0
  0
VERTEX
  5
3C1
330
3B9
100
AcDbEntity
  8
\U+838C\U+8343\U+8384\U+815B_4
 62
     7
100
AcDbVertex
100
AcDb2dVertex
 10
174.3614501517222
 20
110.1686414655134
 30
0.0
  0
VERTEX
  5
3C2
330
3B9
100
AcDbEntity
  8
\U+838C\U+8343\U+8384\U+815B_4
 62
     7
100
AcDbVertex
100
AcDb2dVertex
 10
174.3793646482455
 20
110.0790689828969
 30
0.0
  0
VERTEX
  5
3C3
330
3B9
100
AcDbEntity
  8
\U+838C\U+8343\U+8384\U+815B_4
 62
     7
100
AcDbVertex
100
AcDb2dVertex
 10
174.3741970050176
 20
110.0329047033945
 30
0.0
  0
SEQEND
  5
3C4
330
3B9
100
AcDbEntity
  8
\U+838C\U+8343\U+8384\U+815B_4
  0
ENDBLK
  5
3B8
330
3B5
100
AcDbEntity
  8
0
100
AcDbBlockEnd
  0
BLOCK
  5
3C7
330
3C5
100
AcDbEntity
  8
0
100
AcDbBlockBegin
  2
BLOCK_66
 70
     0
 71
     0
 10
0.0
 20
0.0
 30
0.0
  3
BLOCK_66
  1

  0
POLYLINE
  5
3C9
330
3C5
100
AcDbEntity
  8
\U+838C\U+8343\U+8384\U+815B_4
 62
     7
100
AcDb2dPolyline
 66
     1
 10
0.0
 20
0.0
 30
0.0
  0
VERTEX
  5
3CA
330
3C9
100
AcDbEntity
  8
\U+838C\U+8343\U+8384\U+815B_4
 62
     7
100
AcDbVertex
100
AcDb2dVertex
 10
174.194018511139
 20
109.7187119951398
 30
0.0
  0
VERTEX
  5
3CB
330
3C9
100
AcDbEntity
  8
\U+838C\U+8343\U+8384\U+815B_4
 62
     7
100
AcDbVertex
100
AcDb2dVertex
 10
174.1547444226072
 20
109.6925292694519
 30
0.0
  0
VERTEX
  5
3CC
330
3C9
100
AcDbEntity
  8
\U+838C\U+8343\U+8384\U+815B_4
 62
     7
100
AcDbVertex
100
AcDb2dVertex
 10
174.069306054573
 20
109.6629014482787
 30
0.0
  0
VERTEX
  5
3CD
330
3C9
100
AcDbEntity
  8
\U+838C\U+8343\U+8384\U+815B_4
 62
     7
100
AcDbVertex
100
AcDb2dVertex
 10
173.9979925780283
 20
109.6773708493168
 30
0.0
  0
VERTEX
  5
3CE
330
3C9
100
AcDbEntity
  8
\U+838C\U+8343\U+8384\U+815B_4
 62
     7
100
AcDbVertex
100
AcDb2dVertex
 10
173.9497612412348
 20
109.7331813961778
 30
0.0
  0
VERTEX
  5
3CF
330
3C9
100
AcDbEntity
  8
\U+838C\U+8343\U+8384\U+815B_4
 62
     7
100
AcDbVertex
100
AcDb2dVertex
 10
173.93219125426
 20
109.8220648596973
 30
0.0
  0
SEQEND
  5
3D0
330
3C9
100
AcDbEntity
  8
\U+838C\U+8343\U+8384\U+815B_4
  0
ENDBLK
  5
3C8
330
3C5
100
AcDbEntity
  8
0
100
AcDbBlockEnd
  0
BLOCK
  5
3D3
330
3D1
100
AcDbEntity
  8
0
100
AcDbBlockBegin
  2
BLOCK_67
 70
     0
 71
     0
 10
0.0
 20
0.0
 30
0.0
  3
BLOCK_67
  1

  0
POLYLINE
  5
3D5
330
3D1
100
AcDbEntity
  8
\U+838C\U+8343\U+8384\U+815B_4
 62
     7
100
AcDb2dPolyline
 66
     1
 10
0.0
 20
0.0
 30
0.0
  0
VERTEX
  5
3D6
330
3D5
100
AcDbEntity
  8
\U+838C\U+8343\U+8384\U+815B_4
 62
     7
100
AcDbVertex
100
AcDb2dVertex
 10
173.7468451171536
 20
109.7145778805575
 30
0.0
  0
VERTEX
  5
3D7
330
3D5
100
AcDbEntity
  8
\U+838C\U+8343\U+8384\U+815B_4
 62
     7
100
AcDbVertex
100
AcDb2dVertex
 10
173.7268635633391
 20
109.8289550506678
 30
0.0
  0
VERTEX
  5
3D8
330
3D5
100
AcDbEntity
  8
\U+838C\U+8343\U+8384\U+815B_4
 62
     7
100
AcDbVertex
100
AcDb2dVertex
 10
173.669674978284
 20
109.9033691131492
 30
0.0
  0
VERTEX
  5
3D9
330
3D5
100
AcDbEntity
  8
\U+838C\U+8343\U+8384\U+815B_4
 62
     7
100
AcDbVertex
100
AcDb2dVertex
 10
173.5801024956675
 20
109.9295518388371
 30
0.0
  0
VERTEX
  5
3DA
330
3D5
100
AcDbEntity
  8
\U+838C\U+8343\U+8384\U+815B_4
 62
     7
100
AcDbVertex
100
AcDb2dVertex
 10
173.4746825738188
 20
109.9033691131492
 30
0.0
  0
VERTEX
  5
3DB
330
3D5
100
AcDbEntity
  8
\U+838C\U+8343\U+8384\U+815B_4
 62
     7
100
AcDbVertex
100
AcDb2dVertex
 10
173.3644395182909
 20
109.8268879933766
 30
0.0
  0
VERTEX
  5
3DC
330
3D5
100
AcDbEntity
  8
\U+838C\U+8343\U+8384\U+815B_4
 62
     7
100
AcDbVertex
100
AcDb2dVertex
 10
173.2648762587671
 20
109.7145778805575
 30
0.0
  0
VERTEX
  5
3DD
330
3D5
100
AcDbEntity
  8
\U+838C\U+8343\U+8384\U+815B_4
 62
     7
100
AcDbVertex
100
AcDb2dVertex
 10
173.1918402344798
 20
109.5760850420504
 30
0.0
  0
VERTEX
  5
3DE
330
3D5
100
AcDbEntity
  8
\U+838C\U+8343\U+8384\U+815B_4
 62
     7
100
AcDbVertex
100
AcDb2dVertex
 10
173.1504990886568
 20
109.4341471080581
 30
0.0
  0
VERTEX
  5
3DF
330
3D5
100
AcDbEntity
  8
\U+838C\U+8343\U+8384\U+815B_4
 62
     7
100
AcDbVertex
100
AcDb2dVertex
 10
173.1504990886568
 20
109.3066785751039
 30
0.0
  0
VERTEX
  5
3E0
330
3D5
100
AcDbEntity
  8
\U+838C\U+8343\U+8384\U+815B_4
 62
     7
100
AcDbVertex
100
AcDb2dVertex
 10
173.1918402344798
 20
109.211593939711
 30
0.0
  0
VERTEX
  5
3E1
330
3D5
100
AcDbEntity
  8
\U+838C\U+8343\U+8384\U+815B_4
 62
     7
100
AcDbVertex
100
AcDb2dVertex
 10
173.2648762587671
 20
109.1606065265293
 30
0.0
  0
VERTEX
  5
3E2
330
3D5
100
AcDbEntity
  8
\U+838C\U+8343\U+8384\U+815B_4
 62
     7
100
AcDbVertex
100
AcDb2dVertex
 10
173.3644395182909
 20
109.1606065265293
 30
0.0
  0
VERTEX
  5
3E3
330
3D5
100
AcDbEntity
  8
\U+838C\U+8343\U+8384\U+815B_4
 62
     7
100
AcDbVertex
100
AcDb2dVertex
 10
173.4746825738188
 20
109.211593939711
 30
0.0
  0
VERTEX
  5
3E4
330
3D5
100
AcDbEntity
  8
\U+838C\U+8343\U+8384\U+815B_4
 62
     7
100
AcDbVertex
100
AcDb2dVertex
 10
173.5801024956675
 20
109.308745632395
 30
0.0
  0
VERTEX
  5
3E5
330
3D5
100
AcDbEntity
  8
\U+838C\U+8343\U+8384\U+815B_4
 62
     7
100
AcDbVertex
100
AcDb2dVertex
 10
173.669674978284
 20
109.4362141653493
 30
0.0
  0
VERTEX
  5
3E6
330
3D5
100
AcDbEntity
  8
\U+838C\U+8343\U+8384\U+815B_4
 62
     7
100
AcDbVertex
100
AcDb2dVertex
 10
173.7268635633391
 20
109.5788411184386
 30
0.0
  0
VERTEX
  5
3E7
330
3D5
100
AcDbEntity
  8
\U+838C\U+8343\U+8384\U+815B_4
 62
     7
100
AcDbVertex
100
AcDb2dVertex
 10
173.7468451171536
 20
109.7145778805575
 30
0.0
  0
SEQEND
  5
3E8
330
3D5
100
AcDbEntity
  8
\U+838C\U+8343\U+8384\U+815B_4
  0
ENDBLK
  5
3D4
330
3D1
100
AcDbEntity
  8
0
100
AcDbBlockEnd
  0
BLOCK
  5
3EB
330
3E9
100
AcDbEntity
  8
0
100
AcDbBlockBegin
  2
BLOCK_68
 70
     0
 71
     0
 10
0.0
 20
0.0
 30
0.0
  3
BLOCK_68
  1

  0
POLYLINE
  5
3ED
330
3E9
100
AcDbEntity
  8
\U+838C\U+8343\U+8384\U+815B_4
 62
     7
100
AcDb2dPolyline
 66
     1
 10
0.0
 20
0.0
 30
0.0
  0
VERTEX
  5
3EE
330
3ED
100
AcDbEntity
  8
\U+838C\U+8343\U+8384\U+815B_4
 62
     7
100
AcDbVertex
100
AcDb2dVertex
 10
172.9589517796769
 20
109.2150390351962
 30
0.0
  0
VERTEX
  5
3EF
330
3ED
100
AcDbEntity
  8
\U+838C\U+8343\U+8384\U+815B_4
 62
     7
100
AcDbVertex
100
AcDb2dVertex
 10
172.9620523656137
 20
109.2612033146986
 30
0.0
  0
VERTEX
  5
3F0
330
3ED
100
AcDbEntity
  8
\U+838C\U+8343\U+8384\U+815B_4
 62
     7
100
AcDbVertex
100
AcDb2dVertex
 10
172.9444823786389
 20
109.349397759121
 30
0.0
  0
VERTEX
  5
3F1
330
3ED
100
AcDbEntity
  8
\U+838C\U+8343\U+8384\U+815B_4
 62
     7
100
AcDbVertex
100
AcDb2dVertex
 10
172.8959065322969
 20
109.405208305982
 30
0.0
  0
VERTEX
  5
3F2
330
3ED
100
AcDbEntity
  8
\U+838C\U+8343\U+8384\U+815B_4
 62
     7
100
AcDbVertex
100
AcDb2dVertex
 10
172.8235595271066
 20
109.4196777070201
 30
0.0
  0
VERTEX
  5
3F3
330
3ED
100
AcDbEntity
  8
\U+838C\U+8343\U+8384\U+815B_4
 62
     7
100
AcDbVertex
100
AcDb2dVertex
 10
172.739154687718
 20
109.390738904944
 30
0.0
  0
VERTEX
  5
3F4
330
3ED
100
AcDbEntity
  8
\U+838C\U+8343\U+8384\U+815B_4
 62
     7
100
AcDbVertex
100
AcDb2dVertex
 10
172.6523382814897
 20
109.321836995239
 30
0.0
  0
VERTEX
  5
3F5
330
3ED
100
AcDbEntity
  8
\U+838C\U+8343\U+8384\U+815B_4
 62
     7
100
AcDbVertex
100
AcDb2dVertex
 10
172.5806802953965
 20
109.2233072643608
 30
0.0
  0
VERTEX
  5
3F6
330
3ED
100
AcDbEntity
  8
\U+838C\U+8343\U+8384\U+815B_4
 62
     7
100
AcDbVertex
100
AcDb2dVertex
 10
172.5321044490545
 20
109.1123751897358
 30
0.0
  0
VERTEX
  5
3F7
330
3ED
100
AcDbEntity
  8
\U+838C\U+8343\U+8384\U+815B_4
 62
     7
100
AcDbVertex
100
AcDb2dVertex
 10
172.5148789716282
 20
109.0035101724019
 30
0.0
  0
VERTEX
  5
3F8
330
3ED
100
AcDbEntity
  8
\U+838C\U+8343\U+8384\U+815B_4
 62
     7
100
AcDbVertex
100
AcDb2dVertex
 10
172.5321044490545
 20
108.9139376897854
 30
0.0
  0
VERTEX
  5
3F9
330
3ED
100
AcDbEntity
  8
\U+838C\U+8343\U+8384\U+815B_4
 62
     7
100
AcDbVertex
100
AcDb2dVertex
 10
172.5806802953965
 20
108.8581271429244
 30
0.0
  0
VERTEX
  5
3FA
330
3ED
100
AcDbEntity
  8
\U+838C\U+8343\U+8384\U+815B_4
 62
     7
100
AcDbVertex
100
AcDb2dVertex
 10
172.6523382814897
 20
108.8450357800804
 30
0.0
  0
VERTEX
  5
3FB
330
3ED
100
AcDbEntity
  8
\U+838C\U+8343\U+8384\U+815B_4
 62
     7
100
AcDbVertex
100
AcDb2dVertex
 10
172.739154687718
 20
108.8746636012536
 30
0.0
  0
VERTEX
  5
3FC
330
3ED
100
AcDbEntity
  8
\U+838C\U+8343\U+8384\U+815B_4
 62
     7
100
AcDbVertex
100
AcDb2dVertex
 10
172.7773952476043
 20
108.9008463269415
 30
0.0
  0
SEQEND
  5
3FD
330
3ED
100
AcDbEntity
  8
\U+838C\U+8343\U+8384\U+815B_4
  0
ENDBLK
  5
3EC
330
3E9
100
AcDbEntity
  8
0
100
AcDbBlockEnd
  0
BLOCK
  5
400
330
3FE
100
AcDbEntity
  8
0
100
AcDbBlockBegin
  2
BLOCK_69
 70
     0
 71
     0
 10
0.0
 20
0.0
 30
0.0
  3
BLOCK_69
  1

  0
POLYLINE
  5
402
330
3FE
100
AcDbEntity
  8
\U+838C\U+8343\U+8384\U+815B_4
 62
     7
100
AcDb2dPolyline
 66
     1
 10
0.0
 20
0.0
 30
0.0
  0
VERTEX
  5
403
330
402
100
AcDbEntity
  8
\U+838C\U+8343\U+8384\U+815B_4
 62
     7
100
AcDbVertex
100
AcDb2dVertex
 10
168.1254828138714
 20
110.5028157275826
 30
0.0
  0
VERTEX
  5
404
330
402
100
AcDbEntity
  8
\U+838C\U+8343\U+8384\U+815B_4
 62
     7
100
AcDbVertex
100
AcDb2dVertex
 10
168.1458088772344
 20
110.1996473248806
 30
0.0
  0
VERTEX
  5
405
330
402
100
AcDbEntity
  8
\U+838C\U+8343\U+8384\U+815B_4
 62
     7
100
AcDbVertex
100
AcDb2dVertex
 10
168.2074760864204
 20
109.9267957624489
 30
0.0
  0
VERTEX
  5
406
330
402
100
AcDbEntity
  8
\U+838C\U+8343\U+8384\U+815B_4
 62
     7
100
AcDbVertex
100
AcDb2dVertex
 10
168.3070393459441
 20
109.6911512312578
 30
0.0
  0
VERTEX
  5
407
330
402
100
AcDbEntity
  8
\U+838C\U+8343\U+8384\U+815B_4
 62
     7
100
AcDbVertex
100
AcDb2dVertex
 10
168.44346512716
 20
109.4961588267926
 30
0.0
  0
VERTEX
  5
408
330
402
100
AcDbEntity
  8
\U+838C\U+8343\U+8384\U+815B_4
 62
     7
100
AcDbVertex
100
AcDb2dVertex
 10
168.6129638250343
 20
109.3480197209269
 30
0.0
  0
VERTEX
  5
409
330
402
100
AcDbEntity
  8
\U+838C\U+8343\U+8384\U+815B_4
 62
     7
100
AcDbVertex
100
AcDb2dVertex
 10
168.8141574013729
 20
109.2488009709517
 30
0.0
  0
VERTEX
  5
40A
330
402
100
AcDbEntity
  8
\U+838C\U+8343\U+8384\U+815B_4
 62
     7
100
AcDbVertex
100
AcDb2dVertex
 10
168.8479193371283
 20
109.2384656844959
 30
0.0
  0
SEQEND
  5
40B
330
402
100
AcDbEntity
  8
\U+838C\U+8343\U+8384\U+815B_4
  0
ENDBLK
  5
401
330
3FE
100
AcDbEntity
  8
0
100
AcDbBlockEnd
  0
BLOCK
  5
40E
330
40C
100
AcDbEntity
  8
0
100
AcDbBlockBegin
  2
BLOCK_70
 70
     0
 71
     0
 10
0.0
 20
0.0
 30
0.0
  3
BLOCK_70
  1

  0
POLYLINE
  5
410
330
40C
100
AcDbEntity
  8
\U+838C\U+8343\U+8384\U+815B_4
 62
     7
100
AcDb2dPolyline
 66
     1
 10
0.0
 20
0.0
 30
0.0
  0
VERTEX
  5
411
330
410
100
AcDbEntity
  8
\U+838C\U+8343\U+8384\U+815B_4
 62
     7
100
AcDbVertex
100
AcDb2dVertex
 10
171.4096923399601
 20
113.6757486694977
 30
0.0
  0
VERTEX
  5
412
330
410
100
AcDbEntity
  8
\U+838C\U+8343\U+8384\U+815B_4
 62
     7
100
AcDbVertex
100
AcDb2dVertex
 10
171.2939371316557
 20
113.7666991903083
 30
0.0
  0
VERTEX
  5
413
330
410
100
AcDbEntity
  8
\U+838C\U+8343\U+8384\U+815B_4
 62
     7
100
AcDbVertex
100
AcDb2dVertex
 10
171.0944661030597
 20
113.8666069593806
 30
0.0
  0
VERTEX
  5
414
330
410
100
AcDbEntity
  8
\U+838C\U+8343\U+8384\U+815B_4
 62
     7
100
AcDbVertex
100
AcDb2dVertex
 10
170.8681233296788
 20
113.91346025798
 30
0.0
  0
VERTEX
  5
415
330
410
100
AcDbEntity
  8
\U+838C\U+8343\U+8384\U+815B_4
 62
     7
100
AcDbVertex
100
AcDb2dVertex
 10
170.622143512032
 20
113.9086371243006
 30
0.0
  0
VERTEX
  5
416
330
410
100
AcDbEntity
  8
\U+838C\U+8343\U+8384\U+815B_4
 62
     7
100
AcDbVertex
100
AcDb2dVertex
 10
170.3616942933471
 20
113.8500705010514
 30
0.0
  0
VERTEX
  5
417
330
410
100
AcDbEntity
  8
\U+838C\U+8343\U+8384\U+815B_4
 62
     7
100
AcDbVertex
100
AcDb2dVertex
 10
170.0905652786579
 20
113.7418945028145
 30
0.0
  0
VERTEX
  5
418
330
410
100
AcDbEntity
  8
\U+838C\U+8343\U+8384\U+815B_4
 62
     7
100
AcDbVertex
100
AcDb2dVertex
 10
169.8177137162261
 20
113.5841091295901
 30
0.0
  0
VERTEX
  5
419
330
410
100
AcDbEntity
  8
\U+838C\U+8343\U+8384\U+815B_4
 62
     7
100
AcDbVertex
100
AcDb2dVertex
 10
169.5469292110855
 20
113.3815375150574
 30
0.0
  0
VERTEX
  5
41A
330
410
100
AcDbEntity
  8
\U+838C\U+8343\U+8384\U+815B_4
 62
     7
100
AcDbVertex
100
AcDb2dVertex
 10
169.2861354828521
 20
113.1376247547017
 30
0.0
  0
VERTEX
  5
41B
330
410
100
AcDbEntity
  8
\U+838C\U+8343\U+8384\U+815B_4
 62
     7
100
AcDbVertex
100
AcDb2dVertex
 10
169.0398111556567
 20
112.8578830012994
 30
0.0
  0
VERTEX
  5
41C
330
410
100
AcDbEntity
  8
\U+838C\U+8343\U+8384\U+815B_4
 62
     7
100
AcDbVertex
100
AcDb2dVertex
 10
168.8141574013729
 20
112.5505804840151
 30
0.0
  0
VERTEX
  5
41D
330
410
100
AcDbEntity
  8
\U+838C\U+8343\U+8384\U+815B_4
 62
     7
100
AcDbVertex
100
AcDb2dVertex
 10
168.6129638250343
 20
112.2205403365282
 30
0.0
  0
VERTEX
  5
41E
330
410
100
AcDbEntity
  8
\U+838C\U+8343\U+8384\U+815B_4
 62
     7
100
AcDbVertex
100
AcDb2dVertex
 10
168.44346512716
 20
111.8746527498091
 30
0.0
  0
VERTEX
  5
41F
330
410
100
AcDbEntity
  8
\U+838C\U+8343\U+8384\U+815B_4
 62
     7
100
AcDbVertex
100
AcDb2dVertex
 10
168.3070393459441
 20
111.5225639912166
 30
0.0
  0
VERTEX
  5
420
330
410
100
AcDbEntity
  8
\U+838C\U+8343\U+8384\U+815B_4
 62
     7
100
AcDbVertex
100
AcDb2dVertex
 10
168.2074760864204
 20
111.1711642517211
 30
0.0
  0
VERTEX
  5
421
330
410
100
AcDbEntity
  8
\U+838C\U+8343\U+8384\U+815B_4
 62
     7
100
AcDbVertex
100
AcDb2dVertex
 10
168.1458088772344
 20
110.8280327413902
 30
0.0
  0
VERTEX
  5
422
330
410
100
AcDbEntity
  8
\U+838C\U+8343\U+8384\U+815B_4
 62
     7
100
AcDbVertex
100
AcDb2dVertex
 10
168.1254828138714
 20
110.5028157275826
 30
0.0
  0
SEQEND
  5
423
330
410
100
AcDbEntity
  8
\U+838C\U+8343\U+8384\U+815B_4
  0
ENDBLK
  5
40F
330
40C
100
AcDbEntity
  8
0
100
AcDbBlockEnd
  0
BLOCK
  5
426
330
424
100
AcDbEntity
  8
0
100
AcDbBlockBegin
  2
BLOCK_71
 70
     0
 71
     0
 10
0.0
 20
0.0
 30
0.0
  3
BLOCK_71
  1

  0
POLYLINE
  5
428
330
424
100
AcDbEntity
  8
\U+838C\U+8343\U+8384\U+815B_4
 62
     7
100
AcDb2dPolyline
 66
     1
 10
0.0
 20
0.0
 30
0.0
  0
VERTEX
  5
429
330
428
100
AcDbEntity
  8
\U+838C\U+8343\U+8384\U+815B_4
 62
     7
100
AcDbVertex
100
AcDb2dVertex
 10
168.0930989163101
 20
110.5028157275826
 30
0.0
  0
VERTEX
  5
42A
330
428
100
AcDbEntity
  8
\U+838C\U+8343\U+8384\U+815B_4
 62
     7
100
AcDbVertex
100
AcDb2dVertex
 10
168.1123914510275
 20
110.8238986268079
 30
0.0
  0
VERTEX
  5
42B
330
428
100
AcDbEntity
  8
\U+838C\U+8343\U+8384\U+815B_4
 62
     7
100
AcDbVertex
100
AcDb2dVertex
 10
168.1706135647282
 20
111.1608289652654
 30
0.0
  0
VERTEX
  5
42C
330
428
100
AcDbEntity
  8
\U+838C\U+8343\U+8384\U+815B_4
 62
     7
100
AcDbVertex
100
AcDb2dVertex
 10
168.2670762383152
 20
111.5074055710815
 30
0.0
  0
VERTEX
  5
42D
330
428
100
AcDbEntity
  8
\U+838C\U+8343\U+8384\U+815B_4
 62
     7
100
AcDbVertex
100
AcDb2dVertex
 10
168.3990233954003
 20
111.8539821768976
 30
0.0
  0
VERTEX
  5
42E
330
428
100
AcDbEntity
  8
\U+838C\U+8343\U+8384\U+815B_4
 62
     7
100
AcDbVertex
100
AcDb2dVertex
 10
168.5636989595952
 20
112.1950466299374
 30
0.0
  0
VERTEX
  5
42F
330
428
100
AcDbEntity
  8
\U+838C\U+8343\U+8384\U+815B_4
 62
     7
100
AcDbVertex
100
AcDb2dVertex
 10
168.7566243067692
 20
112.5243977583272
 30
0.0
  0
VERTEX
  5
430
330
428
100
AcDbEntity
  8
\U+838C\U+8343\U+8384\U+815B_4
 62
     7
100
AcDbVertex
100
AcDb2dVertex
 10
168.9767659082767
 20
112.8317002756115
 30
0.0
  0
VERTEX
  5
431
330
428
100
AcDbEntity
  8
\U+838C\U+8343\U+8384\U+815B_4
 62
     7
100
AcDbVertex
100
AcDb2dVertex
 10
169.215855534953
 20
113.1114420290138
 30
0.0
  0
VERTEX
  5
432
330
428
100
AcDbEntity
  8
\U+838C\U+8343\U+8384\U+815B_4
 62
     7
100
AcDbVertex
100
AcDb2dVertex
 10
169.470448091313
 20
113.3594889039518
 30
0.0
  0
VERTEX
  5
433
330
428
100
AcDbEntity
  8
\U+838C\U+8343\U+8384\U+815B_4
 62
     7
100
AcDbVertex
100
AcDb2dVertex
 10
169.7360649532257
 20
113.5682616903579
 30
0.0
  0
VERTEX
  5
434
330
428
100
AcDbEntity
  8
\U+838C\U+8343\U+8384\U+815B_4
 62
     7
100
AcDbVertex
100
AcDb2dVertex
 10
170.0054714201723
 20
113.7363823500381
 30
0.0
  0
VERTEX
  5
435
330
428
100
AcDbEntity
  8
\U+838C\U+8343\U+8384\U+815B_4
 62
     7
100
AcDbVertex
100
AcDb2dVertex
 10
170.2717773011821
 20
113.8562716729248
 30
0.0
  0
VERTEX
  5
436
330
428
100
AcDbEntity
  8
\U+838C\U+8343\U+8384\U+815B_4
 62
     7
100
AcDbVertex
100
AcDb2dVertex
 10
170.5336045580611
 20
113.927929659018
 30
0.0
  0
VERTEX
  5
437
330
428
100
AcDbEntity
  8
\U+838C\U+8343\U+8384\U+815B_4
 62
     7
100
AcDbVertex
100
AcDb2dVertex
 10
170.780962413902
 20
113.9486002319295
 30
0.0
  0
VERTEX
  5
438
330
428
100
AcDbEntity
  8
\U+838C\U+8343\U+8384\U+815B_4
 62
     7
100
AcDbVertex
100
AcDb2dVertex
 10
171.0110947923167
 20
113.9189724107564
 30
0.0
  0
VERTEX
  5
439
330
428
100
AcDbEntity
  8
\U+838C\U+8343\U+8384\U+815B_4
 62
     7
100
AcDbVertex
100
AcDb2dVertex
 10
171.2178005214317
 20
113.8404242336927
 30
0.0
  0
VERTEX
  5
43A
330
428
100
AcDbEntity
  8
\U+838C\U+8343\U+8384\U+815B_4
 62
     7
100
AcDbVertex
100
AcDb2dVertex
 10
171.2453612853137
 20
113.8252658135576
 30
0.0
  0
SEQEND
  5
43B
330
428
100
AcDbEntity
  8
\U+838C\U+8343\U+8384\U+815B_4
  0
ENDBLK
  5
427
330
424
100
AcDbEntity
  8
0
100
AcDbBlockEnd
  0
BLOCK
  5
43E
330
43C
100
AcDbEntity
  8
0
100
AcDbBlockBegin
  2
BLOCK_72
 70
     0
 71
     0
 10
0.0
 20
0.0
 30
0.0
  3
BLOCK_72
  1

  0
POLYLINE
  5
440
330
43C
100
AcDbEntity
  8
\U+838C\U+8343\U+8384\U+815B_4
 62
     7
100
AcDb2dPolyline
 66
     1
 10
0.0
 20
0.0
 30
0.0
  0
VERTEX
  5
441
330
440
100
AcDbEntity
  8
\U+838C\U+8343\U+8384\U+815B_4
 62
     7
100
AcDbVertex
100
AcDb2dVertex
 10
168.6367349838825
 20
109.3053005369098
 30
0.0
  0
VERTEX
  5
442
330
440
100
AcDbEntity
  8
\U+838C\U+8343\U+8384\U+815B_4
 62
     7
100
AcDbVertex
100
AcDb2dVertex
 10
168.5636989595952
 20
109.3528428546062
 30
0.0
  0
VERTEX
  5
443
330
440
100
AcDbEntity
  8
\U+838C\U+8343\U+8384\U+815B_4
 62
     7
100
AcDbVertex
100
AcDb2dVertex
 10
168.3990233954003
 20
109.5037380368602
 30
0.0
  0
VERTEX
  5
444
330
440
100
AcDbEntity
  8
\U+838C\U+8343\U+8384\U+815B_4
 62
     7
100
AcDbVertex
100
AcDb2dVertex
 10
168.2670762383152
 20
109.6980414222283
 30
0.0
  0
VERTEX
  5
445
330
440
100
AcDbEntity
  8
\U+838C\U+8343\U+8384\U+815B_4
 62
     7
100
AcDbVertex
100
AcDb2dVertex
 10
168.1706135647282
 20
109.9329969343223
 30
0.0
  0
VERTEX
  5
446
330
440
100
AcDbEntity
  8
\U+838C\U+8343\U+8384\U+815B_4
 62
     7
100
AcDbVertex
100
AcDb2dVertex
 10
168.1123914510275
 20
110.2037814394629
 30
0.0
  0
VERTEX
  5
447
330
440
100
AcDbEntity
  8
\U+838C\U+8343\U+8384\U+815B_4
 62
     7
100
AcDbVertex
100
AcDb2dVertex
 10
168.0930989163101
 20
110.5028157275826
 30
0.0
  0
SEQEND
  5
448
330
440
100
AcDbEntity
  8
\U+838C\U+8343\U+8384\U+815B_4
  0
ENDBLK
  5
43F
330
43C
100
AcDbEntity
  8
0
100
AcDbBlockEnd
  0
BLOCK
  5
44B
330
449
100
AcDbEntity
  8
0
100
AcDbBlockBegin
  2
BLOCK_73
 70
     0
 71
     0
 10
0.0
 20
0.0
 30
0.0
  3
BLOCK_73
  1

  0
POLYLINE
  5
44D
330
449
100
AcDbEntity
  8
\U+838C\U+8343\U+8384\U+815B_4
 62
     7
100
AcDb2dPolyline
 66
     1
 10
0.0
 20
0.0
 30
0.0
  0
VERTEX
  5
44E
330
44D
100
AcDbEntity
  8
\U+838C\U+8343\U+8384\U+815B_4
 62
     7
100
AcDbVertex
100
AcDb2dVertex
 10
171.112380599583
 20
113.9031249715242
 30
0.0
  0
VERTEX
  5
44F
330
44D
100
AcDbEntity
  8
\U+838C\U+8343\U+8384\U+815B_4
 62
     7
100
AcDbVertex
100
AcDb2dVertex
 10
170.9849120666288
 20
113.9644476711617
 30
0.0
  0
VERTEX
  5
450
330
44D
100
AcDbEntity
  8
\U+838C\U+8343\U+8384\U+815B_4
 62
     7
100
AcDbVertex
100
AcDb2dVertex
 10
170.7651149746698
 20
114.0188801798286
 30
0.0
  0
VERTEX
  5
451
330
44D
100
AcDbEntity
  8
\U+838C\U+8343\U+8384\U+815B_4
 62
     7
100
AcDbVertex
100
AcDb2dVertex
 10
170.5260253479935
 20
114.0230142944109
 30
0.0
  0
VERTEX
  5
452
330
44D
100
AcDbEntity
  8
\U+838C\U+8343\U+8384\U+815B_4
 62
     7
100
AcDbVertex
100
AcDb2dVertex
 10
170.2707437725365
 20
113.9761609958115
 30
0.0
  0
VERTEX
  5
453
330
44D
100
AcDbEntity
  8
\U+838C\U+8343\U+8384\U+815B_4
 62
     7
100
AcDbVertex
100
AcDb2dVertex
 10
170.0054714201723
 20
113.8796983222245
 30
0.0
  0
VERTEX
  5
454
330
44D
100
AcDbEntity
  8
\U+838C\U+8343\U+8384\U+815B_4
 62
     7
100
AcDbVertex
100
AcDb2dVertex
 10
169.7360649532257
 20
113.7363823500381
 30
0.0
  0
VERTEX
  5
455
330
44D
100
AcDbEntity
  8
\U+838C\U+8343\U+8384\U+815B_4
 62
     7
100
AcDbVertex
100
AcDb2dVertex
 10
169.4676920149248
 20
113.5469020983494
 30
0.0
  0
VERTEX
  5
456
330
44D
100
AcDbEntity
  8
\U+838C\U+8343\U+8384\U+815B_4
 62
     7
100
AcDbVertex
100
AcDb2dVertex
 10
169.208620834434
 20
113.3181477581288
 30
0.0
  0
VERTEX
  5
457
330
44D
100
AcDbEntity
  8
\U+838C\U+8343\U+8384\U+815B_4
 62
     7
100
AcDbVertex
100
AcDb2dVertex
 10
168.9595404308504
 20
113.0528754057646
 30
0.0
  0
VERTEX
  5
458
330
44D
100
AcDbEntity
  8
\U+838C\U+8343\U+8384\U+815B_4
 62
     7
100
AcDbVertex
100
AcDb2dVertex
 10
168.7290635428872
 20
112.7586642513242
 30
0.0
  0
VERTEX
  5
459
330
44D
100
AcDbEntity
  8
\U+838C\U+8343\U+8384\U+815B_4
 62
     7
100
AcDbVertex
100
AcDb2dVertex
 10
168.5223578137722
 20
112.438959390293
 30
0.0
  0
VERTEX
  5
45A
330
44D
100
AcDbEntity
  8
\U+838C\U+8343\U+8384\U+815B_4
 62
     7
100
AcDbVertex
100
AcDb2dVertex
 10
168.3421793198936
 20
112.1034070900297
 30
0.0
  0
VERTEX
  5
45B
330
44D
100
AcDbEntity
  8
\U+838C\U+8343\U+8384\U+815B_4
 62
     7
100
AcDbVertex
100
AcDb2dVertex
 10
168.1940402140279
 20
111.7588975415047
 30
0.0
  0
VERTEX
  5
45C
330
44D
100
AcDbEntity
  8
\U+838C\U+8343\U+8384\U+815B_4
 62
     7
100
AcDbVertex
100
AcDb2dVertex
 10
168.0793185343691
 20
111.4095648593004
 30
0.0
  0
VERTEX
  5
45D
330
44D
100
AcDbEntity
  8
\U+838C\U+8343\U+8384\U+815B_4
 62
     7
100
AcDbVertex
100
AcDb2dVertex
 10
168.0021483954995
 20
111.0685004062607
 30
0.0
  0
VERTEX
  5
45E
330
44D
100
AcDbEntity
  8
\U+838C\U+8343\U+8384\U+815B_4
 62
     7
100
AcDbVertex
100
AcDb2dVertex
 10
167.9621852878706
 20
110.7370822205796
 30
0.0
  0
VERTEX
  5
45F
330
44D
100
AcDbEntity
  8
\U+838C\U+8343\U+8384\U+815B_4
 62
     7
100
AcDbVertex
100
AcDb2dVertex
 10
167.9621852878706
 20
110.4263346078101
 30
0.0
  0
VERTEX
  5
460
330
44D
100
AcDbEntity
  8
\U+838C\U+8343\U+8384\U+815B_4
 62
     7
100
AcDbVertex
100
AcDb2dVertex
 10
168.0021483954995
 20
110.1410807016314
 30
0.0
  0
VERTEX
  5
461
330
44D
100
AcDbEntity
  8
\U+838C\U+8343\U+8384\U+815B_4
 62
     7
100
AcDbVertex
100
AcDb2dVertex
 10
168.0793185343691
 20
109.887521673917
 30
0.0
  0
VERTEX
  5
462
330
44D
100
AcDbEntity
  8
\U+838C\U+8343\U+8384\U+815B_4
 62
     7
100
AcDbVertex
100
AcDb2dVertex
 10
168.1940402140279
 20
109.6725477156374
 30
0.0
  0
VERTEX
  5
463
330
44D
100
AcDbEntity
  8
\U+838C\U+8343\U+8384\U+815B_4
 62
     7
100
AcDbVertex
100
AcDb2dVertex
 10
168.3421793198936
 20
109.4989149031808
 30
0.0
  0
VERTEX
  5
464
330
44D
100
AcDbEntity
  8
\U+838C\U+8343\U+8384\U+815B_4
 62
     7
100
AcDbVertex
100
AcDb2dVertex
 10
168.5030652790548
 20
109.3817816566823
 30
0.0
  0
SEQEND
  5
465
330
44D
100
AcDbEntity
  8
\U+838C\U+8343\U+8384\U+815B_4
  0
ENDBLK
  5
44C
330
449
100
AcDbEntity
  8
0
100
AcDbBlockEnd
  0
BLOCK
  5
468
330
466
100
AcDbEntity
  8
0
100
AcDbBlockBegin
  2
BLOCK_74
 70
     0
 71
     0
 10
0.0
 20
0.0
 30
0.0
  3
BLOCK_74
  1

  0
SPLINE
  5
46A
330
466
100
AcDbEntity
  8
\U+838C\U+8343\U+8384\U+815B_4
 62
     7
100
AcDbSpline
210
0.0
220
0.0
230
1.0
 70
     8
 71
     3
 72
     8
 73
     4
 74
     0
 42
0.0000000001
 43
0.0000000001
 40
0.0
 40
0.0
 40
0.0
 40
0.0
 40
1.0
 40
1.0
 40
1.0
 40
1.0
 10
169.7918755000868
 20
113.7680772285024
 30
0.0
 10
168.6966796453258
 20
113.0763020550643
 30
0.0
 10
168.0128281915038
 20
111.8925672463324
 30
0.0
 10
167.9580511732883
 20
110.5979003629755
 30
0.0
  0
ENDBLK
  5
469
330
466
100
AcDbEntity
  8
0
100
AcDbBlockEnd
  0
BLOCK
  5
46D
330
46B
100
AcDbEntity
  8
0
100
AcDbBlockBegin
  2
BLOCK_75
 70
     0
 71
     0
 10
0.0
 20
0.0
 30
0.0
  3
BLOCK_75
  1

  0
SPLINE
  5
46F
330
46B
100
AcDbEntity
  8
\U+838C\U+8343\U+8384\U+815B_4
 62
     7
100
AcDbSpline
210
0.0
220
0.0
230
1.0
 70
     8
 71
     3
 72
     8
 73
     4
 74
     0
 42
0.0000000001
 43
0.0000000001
 40
0.0
 40
0.0
 40
0.0
 40
0.0
 40
1.0
 40
1.0
 40
1.0
 40
1.0
 10
167.885015149001
 20
110.659223062613
 30
0.0
 10
167.8498751750514
 20
110.2506347380623
 30
0.0
 10
168.0021483954995
 20
109.8475585662881
 30
0.0
 10
168.3011826836191
 20
109.5650607364976
 30
0.0
  0
ENDBLK
  5
46E
330
46B
100
AcDbEntity
  8
0
100
AcDbBlockEnd
  0
BLOCK
  5
472
330
470
100
AcDbEntity
  8
0
100
AcDbBlockBegin
  2
BLOCK_76
 70
     0
 71
     0
 10
0.0
 20
0.0
 30
0.0
  3
BLOCK_76
  1

  0
POLYLINE
  5
474
330
470
100
AcDbEntity
  8
\U+838C\U+8343\U+8384\U+815B_4
 62
     7
100
AcDb2dPolyline
 66
     1
 10
0.0
 20
0.0
 30
0.0
  0
VERTEX
  5
475
330
474
100
AcDbEntity
  8
\U+838C\U+8343\U+8384\U+815B_4
 62
     7
100
AcDbVertex
100
AcDb2dVertex
 10
170.7282524529777
 20
114.0230142944109
 30
0.0
  0
VERTEX
  5
476
330
474
100
AcDbEntity
  8
\U+838C\U+8343\U+8384\U+815B_4
 62
     7
100
AcDbVertex
100
AcDb2dVertex
 10
170.6035399964116
 20
114.0423068291283
 30
0.0
  0
VERTEX
  5
477
330
474
100
AcDbEntity
  8
\U+838C\U+8343\U+8384\U+815B_4
 62
     7
100
AcDbVertex
100
AcDb2dVertex
 10
170.360316255153
 20
114.0367946763519
 30
0.0
  0
VERTEX
  5
478
330
474
100
AcDbEntity
  8
\U+838C\U+8343\U+8384\U+815B_4
 62
     7
100
AcDbVertex
100
AcDb2dVertex
 10
170.1009005651137
 20
113.9796060912968
 30
0.0
  0
VERTEX
  5
479
330
474
100
AcDbEntity
  8
\U+838C\U+8343\U+8384\U+815B_4
 62
     7
100
AcDbVertex
100
AcDb2dVertex
 10
169.8328721363612
 20
113.8707410739629
 30
0.0
  0
VERTEX
  5
47A
330
474
100
AcDbEntity
  8
\U+838C\U+8343\U+8384\U+815B_4
 62
     7
100
AcDbVertex
100
AcDb2dVertex
 10
169.561054102575
 20
113.7157117771266
 30
0.0
  0
VERTEX
  5
47B
330
474
100
AcDbEntity
  8
\U+838C\U+8343\U+8384\U+815B_4
 62
     7
100
AcDbVertex
100
AcDb2dVertex
 10
169.2947482215652
 20
113.5131401625939
 30
0.0
  0
VERTEX
  5
47C
330
474
100
AcDbEntity
  8
\U+838C\U+8343\U+8384\U+815B_4
 62
     7
100
AcDbVertex
100
AcDb2dVertex
 10
169.0356770410744
 20
113.2719834786265
 30
0.0
  0
VERTEX
  5
47D
330
474
100
AcDbEntity
  8
\U+838C\U+8343\U+8384\U+815B_4
 62
     7
100
AcDbVertex
100
AcDb2dVertex
 10
168.7903862425246
 20
112.9956868207094
 30
0.0
  0
VERTEX
  5
47E
330
474
100
AcDbEntity
  8
\U+838C\U+8343\U+8384\U+815B_4
 62
     7
100
AcDbVertex
100
AcDb2dVertex
 10
168.567488564629
 20
112.6897623416192
 30
0.0
  0
VERTEX
  5
47F
330
474
100
AcDbEntity
  8
\U+838C\U+8343\U+8384\U+815B_4
 62
     7
100
AcDbVertex
100
AcDb2dVertex
 10
168.3683620455815
 20
112.3624782705205
 30
0.0
  0
VERTEX
  5
480
330
474
100
AcDbEntity
  8
\U+838C\U+8343\U+8384\U+815B_4
 62
     7
100
AcDbVertex
100
AcDb2dVertex
 10
168.2002413859013
 20
112.0200357792867
 30
0.0
  0
VERTEX
  5
481
330
474
100
AcDbEntity
  8
\U+838C\U+8343\U+8384\U+815B_4
 62
     7
100
AcDbVertex
100
AcDb2dVertex
 10
168.0638156046854
 20
111.6707030970823
 30
0.0
  0
VERTEX
  5
482
330
474
100
AcDbEntity
  8
\U+838C\U+8343\U+8384\U+815B_4
 62
     7
100
AcDbVertex
100
AcDb2dVertex
 10
167.9652858738073
 20
111.3227484530721
 30
0.0
  0
VERTEX
  5
483
330
474
100
AcDbEntity
  8
\U+838C\U+8343\U+8384\U+815B_4
 62
     7
100
AcDbVertex
100
AcDb2dVertex
 10
167.9053412123639
 20
110.9837510573235
 30
0.0
  0
VERTEX
  5
484
330
474
100
AcDbEntity
  8
\U+838C\U+8343\U+8384\U+815B_4
 62
     7
100
AcDbVertex
100
AcDb2dVertex
 10
167.885015149001
 20
110.659223062613
 30
0.0
  0
SEQEND
  5
485
330
474
100
AcDbEntity
  8
\U+838C\U+8343\U+8384\U+815B_4
  0
ENDBLK
  5
473
330
470
100
AcDbEntity
  8
0
100
AcDbBlockEnd
  0
BLOCK
  5
488
330
486
100
AcDbEntity
  8
0
100
AcDbBlockBegin
  2
BLOCK_77
 70
     0
 71
     0
 10
0.0
 20
0.0
 30
0.0
  3
BLOCK_77
  1

  0
SPLINE
  5
48A
330
486
100
AcDbEntity
  8
\U+838C\U+8343\U+8384\U+815B_4
 62
     7
100
AcDbSpline
210
0.0
220
0.0
230
1.0
 70
     8
 71
     3
 72
     8
 73
     4
 74
     0
 42
0.0000000001
 43
0.0000000001
 40
0.0
 40
0.0
 40
0.0
 40
0.0
 40
1.0
 40
1.0
 40
1.0
 40
1.0
 10
169.6857665591411
 20
113.7935709350933
 30
0.0
 10
168.6102077486461
 20
113.1162651626932
 30
0.0
 10
167.9377251099253
 20
111.9538899459699
 30
0.0
 10
167.885015149001
 20
110.6847167692038
 30
0.0
  0
ENDBLK
  5
489
330
486
100
AcDbEntity
  8
0
100
AcDbBlockEnd
  0
BLOCK
  5
48D
330
48B
100
AcDbEntity
  8
0
100
AcDbBlockBegin
  2
BLOCK_78
 70
     0
 71
     0
 10
0.0
 20
0.0
 30
0.0
  3
BLOCK_78
  1

  0
POLYLINE
  5
48F
330
48B
100
AcDbEntity
  8
\U+838C\U+8343\U+8384\U+815B_4
 62
     7
100
AcDb2dPolyline
 66
     1
 10
0.0
 20
0.0
 30
0.0
  0
VERTEX
  5
490
330
48F
100
AcDbEntity
  8
\U+838C\U+8343\U+8384\U+815B_4
 62
     7
100
AcDbVertex
100
AcDb2dVertex
 10
167.2704101144324
 20
111.0264702413406
 30
0.0
  0
VERTEX
  5
491
330
48F
100
AcDbEntity
  8
\U+838C\U+8343\U+8384\U+815B_4
 62
     7
100
AcDbVertex
100
AcDb2dVertex
 10
167.2897026491498
 20
110.7239908577357
 30
0.0
  0
VERTEX
  5
492
330
48F
100
AcDbEntity
  8
\U+838C\U+8343\U+8384\U+815B_4
 62
     7
100
AcDbVertex
100
AcDb2dVertex
 10
167.3482692723991
 20
110.4511392953039
 30
0.0
  0
VERTEX
  5
493
330
48F
100
AcDbEntity
  8
\U+838C\U+8343\U+8384\U+815B_4
 62
     7
100
AcDbVertex
100
AcDb2dVertex
 10
167.4464544937287
 20
110.2141167259187
 30
0.0
  0
VERTEX
  5
494
330
48F
100
AcDbEntity
  8
\U+838C\U+8343\U+8384\U+815B_4
 62
     7
100
AcDbVertex
100
AcDb2dVertex
 10
167.5821912558475
 20
110.0205023596477
 30
0.0
  0
VERTEX
  5
495
330
48F
100
AcDbEntity
  8
\U+838C\U+8343\U+8384\U+815B_4
 62
     7
100
AcDbVertex
100
AcDb2dVertex
 10
167.7499674059792
 20
109.8709852155878
 30
0.0
  0
VERTEX
  5
496
330
48F
100
AcDbEntity
  8
\U+838C\U+8343\U+8384\U+815B_4
 62
     7
100
AcDbVertex
100
AcDb2dVertex
 10
167.830582640334
 20
109.8248209360855
 30
0.0
  0
SEQEND
  5
497
330
48F
100
AcDbEntity
  8
\U+838C\U+8343\U+8384\U+815B_4
  0
ENDBLK
  5
48E
330
48B
100
AcDbEntity
  8
0
100
AcDbBlockEnd
  0
BLOCK
  5
49A
330
498
100
AcDbEntity
  8
0
100
AcDbBlockBegin
  2
BLOCK_79
 70
     0
 71
     0
 10
0.0
 20
0.0
 30
0.0
  3
BLOCK_79
  1

  0
POLYLINE
  5
49C
330
498
100
AcDbEntity
  8
\U+838C\U+8343\U+8384\U+815B_4
 62
     7
100
AcDb2dPolyline
 66
     1
 10
0.0
 20
0.0
 30
0.0
  0
VERTEX
  5
49D
330
49C
100
AcDbEntity
  8
\U+838C\U+8343\U+8384\U+815B_4
 62
     7
100
AcDbVertex
100
AcDb2dVertex
 10
167.2824679486308
 20
111.0333604323111
 30
0.0
  0
VERTEX
  5
49E
330
49C
100
AcDbEntity
  8
\U+838C\U+8343\U+8384\U+815B_4
 62
     7
100
AcDbVertex
100
AcDb2dVertex
 10
167.2704101144324
 20
111.0264702413406
 30
0.0
  0
SEQEND
  5
49F
330
49C
100
AcDbEntity
  8
\U+838C\U+8343\U+8384\U+815B_4
  0
ENDBLK
  5
49B
330
498
100
AcDbEntity
  8
0
100
AcDbBlockEnd
  0
BLOCK
  5
4A2
330
4A0
100
AcDbEntity
  8
0
100
AcDbBlockBegin
  2
BLOCK_80
 70
     0
 71
     0
 10
0.0
 20
0.0
 30
0.0
  3
BLOCK_80
  1

  0
POLYLINE
  5
4A4
330
4A0
100
AcDbEntity
  8
\U+838C\U+8343\U+8384\U+815B_4
 62
     7
100
AcDb2dPolyline
 66
     1
 10
0.0
 20
0.0
 30
0.0
  0
VERTEX
  5
4A5
330
4A4
100
AcDbEntity
  8
\U+838C\U+8343\U+8384\U+815B_4
 62
     7
100
AcDbVertex
100
AcDb2dVertex
 10
167.2704101144324
 20
111.0264702413406
 30
0.0
  0
VERTEX
  5
4A6
330
4A4
100
AcDbEntity
  8
\U+838C\U+8343\U+8384\U+815B_4
 62
     7
100
AcDbVertex
100
AcDb2dVertex
 10
42.24272731148793
 20
183.2029432050673
 30
0.0
  0
SEQEND
  5
4A7
330
4A4
100
AcDbEntity
  8
\U+838C\U+8343\U+8384\U+815B_4
  0
ENDBLK
  5
4A3
330
4A0
100
AcDbEntity
  8
0
100
AcDbBlockEnd
  0
BLOCK
  5
4AA
330
4A8
100
AcDbEntity
  8
0
100
AcDbBlockBegin
  2
BLOCK_81
 70
     0
 71
     0
 10
0.0
 20
0.0
 30
0.0
  3
BLOCK_81
  1

  0
POLYLINE
  5
4AC
330
4A8
100
AcDbEntity
  8
\U+838C\U+8343\U+8384\U+815B_4
 62
     7
100
AcDb2dPolyline
 66
     1
 10
0.0
 20
0.0
 30
0.0
  0
VERTEX
  5
4AD
330
4AC
100
AcDbEntity
  8
\U+838C\U+8343\U+8384\U+815B_4
 62
     7
100
AcDbVertex
100
AcDb2dVertex
 10
42.24272731148793
 20
183.2029432050673
 30
0.0
  0
VERTEX
  5
4AE
330
4AC
100
AcDbEntity
  8
\U+838C\U+8343\U+8384\U+815B_4
 62
     7
100
AcDbVertex
100
AcDb2dVertex
 10
42.26201984620533
 20
182.9013250953337
 30
0.0
  0
VERTEX
  5
4AF
330
4AC
100
AcDbEntity
  8
\U+838C\U+8343\U+8384\U+815B_4
 62
     7
100
AcDbVertex
100
AcDb2dVertex
 10
42.32024195990605
 20
182.6283012781277
 30
0.0
  0
VERTEX
  5
4B0
330
4AC
100
AcDbEntity
  8
\U+838C\U+8343\U+8384\U+815B_4
 62
     7
100
AcDbVertex
100
AcDb2dVertex
 10
42.41859943600993
 20
182.392312237388
 30
0.0
  0
VERTEX
  5
4B1
330
4AC
100
AcDbEntity
  8
\U+838C\U+8343\U+8384\U+815B_4
 62
     7
100
AcDbVertex
100
AcDb2dVertex
 10
42.55347492425746
 20
182.1976643424714
 30
0.0
  0
VERTEX
  5
4B2
330
4AC
100
AcDbEntity
  8
\U+838C\U+8343\U+8384\U+815B_4
 62
     7
100
AcDbVertex
100
AcDb2dVertex
 10
42.72349038645454
 20
182.0481471984116
 30
0.0
  0
VERTEX
  5
4B3
330
4AC
100
AcDbEntity
  8
\U+838C\U+8343\U+8384\U+815B_4
 62
     7
100
AcDbVertex
100
AcDb2dVertex
 10
42.77447779963624
 20
182.0157633008502
 30
0.0
  0
SEQEND
  5
4B4
330
4AC
100
AcDbEntity
  8
\U+838C\U+8343\U+8384\U+815B_4
  0
ENDBLK
  5
4AB
330
4A8
100
AcDbEntity
  8
0
100
AcDbBlockEnd
  0
BLOCK
  5
4B7
330
4B5
100
AcDbEntity
  8
0
100
AcDbBlockBegin
  2
BLOCK_82
 70
     0
 71
     0
 10
0.0
 20
0.0
 30
0.0
  3
BLOCK_82
  1

  0
POLYLINE
  5
4B9
330
4B5
100
AcDbEntity
  8
\U+838C\U+8343\U+8384\U+815B_4
 62
     7
100
AcDb2dPolyline
 66
     1
 10
0.0
 20
0.0
 30
0.0
  0
VERTEX
  5
4BA
330
4B9
100
AcDbEntity
  8
\U+838C\U+8343\U+8384\U+815B_4
 62
     7
100
AcDbVertex
100
AcDb2dVertex
 10
42.25426838136352
 20
183.2105224151349
 30
0.0
  0
VERTEX
  5
4BB
330
4B9
100
AcDbEntity
  8
\U+838C\U+8343\U+8384\U+815B_4
 62
     7
100
AcDbVertex
100
AcDb2dVertex
 10
42.24272731148793
 20
183.2029432050673
 30
0.0
  0
SEQEND
  5
4BC
330
4B9
100
AcDbEntity
  8
\U+838C\U+8343\U+8384\U+815B_4
  0
ENDBLK
  5
4B8
330
4B5
100
AcDbEntity
  8
0
100
AcDbBlockEnd
  0
BLOCK
  5
4BF
330
4BD
100
AcDbEntity
  8
0
100
AcDbBlockBegin
  2
BLOCK_83
 70
     0
 71
     0
 10
0.0
 20
0.0
 30
0.0
  3
BLOCK_83
  1

  0
POLYLINE
  5
4C1
330
4BD
100
AcDbEntity
  8
\U+838C\U+8343\U+8384\U+815B_4
 62
     7
100
AcDb2dPolyline
 66
     1
 10
0.0
 20
0.0
 30
0.0
  0
VERTEX
  5
4C2
330
4C1
100
AcDbEntity
  8
\U+838C\U+8343\U+8384\U+815B_4
 62
     7
100
AcDbVertex
100
AcDb2dVertex
 10
170.421983464339
 20
114.2490125582433
 30
0.0
  0
VERTEX
  5
4C3
330
4C1
100
AcDbEntity
  8
\U+838C\U+8343\U+8384\U+815B_4
 62
     7
100
AcDbVertex
100
AcDb2dVertex
 10
170.2617865242748
 20
114.3206705443365
 30
0.0
  0
VERTEX
  5
4C4
330
4C1
100
AcDbEntity
  8
\U+838C\U+8343\U+8384\U+815B_4
 62
     7
100
AcDbVertex
100
AcDb2dVertex
 10
170.0388888463792
 20
114.3647677665477
 30
0.0
  0
VERTEX
  5
4C5
330
4C1
100
AcDbEntity
  8
\U+838C\U+8343\U+8384\U+815B_4
 62
     7
100
AcDbVertex
100
AcDb2dVertex
 10
169.7973876528632
 20
114.3592556137713
 30
0.0
  0
VERTEX
  5
4C6
330
4C1
100
AcDbEntity
  8
\U+838C\U+8343\U+8384\U+815B_4
 62
     7
100
AcDbVertex
100
AcDb2dVertex
 10
169.5393500010179
 20
114.3020670287162
 30
0.0
  0
VERTEX
  5
4C7
330
4C1
100
AcDbEntity
  8
\U+838C\U+8343\U+8384\U+815B_4
 62
     7
100
AcDbVertex
100
AcDb2dVertex
 10
169.2744221582022
 20
114.1932020113823
 30
0.0
  0
VERTEX
  5
4C8
330
4C1
100
AcDbEntity
  8
\U+838C\U+8343\U+8384\U+815B_4
 62
     7
100
AcDbVertex
100
AcDb2dVertex
 10
169.0050156912557
 20
114.038172714546
 30
0.0
  0
VERTEX
  5
4C9
330
4C1
100
AcDbEntity
  8
\U+838C\U+8343\U+8384\U+815B_4
 62
     7
100
AcDbVertex
100
AcDb2dVertex
 10
168.7390543197944
 20
113.8383571764015
 30
0.0
  0
VERTEX
  5
4CA
330
4C1
100
AcDbEntity
  8
\U+838C\U+8343\U+8384\U+815B_4
 62
     7
100
AcDbVertex
100
AcDb2dVertex
 10
168.4830837252403
 20
113.5992675497252
 30
0.0
  0
VERTEX
  5
4CB
330
4C1
100
AcDbEntity
  8
\U+838C\U+8343\U+8384\U+815B_4
 62
     7
100
AcDbVertex
100
AcDb2dVertex
 10
168.2395154744332
 20
113.3257269681963
 30
0.0
  0
VERTEX
  5
4CC
330
4C1
100
AcDbEntity
  8
\U+838C\U+8343\U+8384\U+815B_4
 62
     7
100
AcDbVertex
100
AcDb2dVertex
 10
168.0166177965375
 20
113.0239366036885
 30
0.0
  0
VERTEX
  5
4CD
330
4C1
100
AcDbEntity
  8
\U+838C\U+8343\U+8384\U+815B_4
 62
     7
100
AcDbVertex
100
AcDb2dVertex
 10
167.8188693156842
 20
112.700097628075
 30
0.0
  0
VERTEX
  5
4CE
330
4C1
100
AcDbEntity
  8
\U+838C\U+8343\U+8384\U+815B_4
 62
     7
100
AcDbVertex
100
AcDb2dVertex
 10
167.6486815987128
 20
112.3597221941323
 30
0.0
  0
VERTEX
  5
4CF
330
4C1
100
AcDbEntity
  8
\U+838C\U+8343\U+8384\U+815B_4
 62
     7
100
AcDbVertex
100
AcDb2dVertex
 10
167.512944836594
 20
112.0138346074132
 30
0.0
  0
VERTEX
  5
4D0
330
4C1
100
AcDbEntity
  8
\U+838C\U+8343\U+8384\U+815B_4
 62
     7
100
AcDbVertex
100
AcDb2dVertex
 10
167.4133815770703
 20
111.6679470206941
 30
0.0
  0
VERTEX
  5
4D1
330
4C1
100
AcDbEntity
  8
\U+838C\U+8343\U+8384\U+815B_4
 62
     7
100
AcDbVertex
100
AcDb2dVertex
 10
167.3499918201417
 20
111.3296386440426
 30
0.0
  0
VERTEX
  5
4D2
330
4C1
100
AcDbEntity
  8
\U+838C\U+8343\U+8384\U+815B_4
 62
     7
100
AcDbVertex
100
AcDb2dVertex
 10
167.3262206612935
 20
111.0071777066232
 30
0.0
  0
SEQEND
  5
4D3
330
4C1
100
AcDbEntity
  8
\U+838C\U+8343\U+8384\U+815B_4
  0
ENDBLK
  5
4C0
330
4BD
100
AcDbEntity
  8
0
100
AcDbBlockEnd
  0
BLOCK
  5
4D6
330
4D4
100
AcDbEntity
  8
0
100
AcDbBlockBegin
  2
BLOCK_84
 70
     0
 71
     0
 10
0.0
 20
0.0
 30
0.0
  3
BLOCK_84
  1

  0
POLYLINE
  5
4D8
330
4D4
100
AcDbEntity
  8
\U+838C\U+8343\U+8384\U+815B_4
 62
     7
100
AcDb2dPolyline
 66
     1
 10
0.0
 20
0.0
 30
0.0
  0
VERTEX
  5
4D9
330
4D8
100
AcDbEntity
  8
\U+838C\U+8343\U+8384\U+815B_4
 62
     7
100
AcDbVertex
100
AcDb2dVertex
 10
167.3262206612935
 20
111.0071777066232
 30
0.0
  0
VERTEX
  5
4DA
330
4D8
100
AcDbEntity
  8
\U+838C\U+8343\U+8384\U+815B_4
 62
     7
100
AcDbVertex
100
AcDb2dVertex
 10
42.18726127417541
 20
183.2484184654726
 30
0.0
  0
SEQEND
  5
4DB
330
4D8
100
AcDbEntity
  8
\U+838C\U+8343\U+8384\U+815B_4
  0
ENDBLK
  5
4D7
330
4D4
100
AcDbEntity
  8
0
100
AcDbBlockEnd
  0
BLOCK
  5
4DE
330
4DC
100
AcDbEntity
  8
0
100
AcDbBlockBegin
  2
BLOCK_85
 70
     0
 71
     0
 10
0.0
 20
0.0
 30
0.0
  3
BLOCK_85
  1

  0
POLYLINE
  5
4E0
330
4DC
100
AcDbEntity
  8
\U+838C\U+8343\U+8384\U+815B_4
 62
     7
100
AcDb2dPolyline
 66
     1
 10
0.0
 20
0.0
 30
0.0
  0
VERTEX
  5
4E1
330
4E0
100
AcDbEntity
  8
\U+838C\U+8343\U+8384\U+815B_4
 62
     7
100
AcDbVertex
100
AcDb2dVertex
 10
45.28250731289813
 20
186.4902533170927
 30
0.0
  0
VERTEX
  5
4E2
330
4E0
100
AcDbEntity
  8
\U+838C\U+8343\U+8384\U+815B_4
 62
     7
100
AcDbVertex
100
AcDb2dVertex
 10
45.12248262760827
 20
186.5620835579602
 30
0.0
  0
VERTEX
  5
4E3
330
4E0
100
AcDbEntity
  8
\U+838C\U+8343\U+8384\U+815B_4
 62
     7
100
AcDbVertex
100
AcDb2dVertex
 10
44.89992945926113
 20
186.6058362706229
 30
0.0
  0
VERTEX
  5
4E4
330
4E0
100
AcDbEntity
  8
\U+838C\U+8343\U+8384\U+815B_4
 62
     7
100
AcDbVertex
100
AcDb2dVertex
 10
44.65825601097085
 20
186.6003241178465
 30
0.0
  0
VERTEX
  5
4E5
330
4E0
100
AcDbEntity
  8
\U+838C\U+8343\U+8384\U+815B_4
 62
     7
100
AcDbVertex
100
AcDb2dVertex
 10
44.40004610435138
 20
186.5431355327913
 30
0.0
  0
VERTEX
  5
4E6
330
4E0
100
AcDbEntity
  8
\U+838C\U+8343\U+8384\U+815B_4
 62
     7
100
AcDbVertex
100
AcDb2dVertex
 10
44.1349460067614
 20
186.4344427702317
 30
0.0
  0
VERTEX
  5
4E7
330
4E0
100
AcDbEntity
  8
\U+838C\U+8343\U+8384\U+815B_4
 62
     7
100
AcDbVertex
100
AcDb2dVertex
 10
43.86485052071782
 20
186.2809637663638
 30
0.0
  0
VERTEX
  5
4E8
330
4E0
100
AcDbEntity
  8
\U+838C\U+8343\U+8384\U+815B_4
 62
     7
100
AcDbVertex
100
AcDb2dVertex
 10
43.59975042312784
 20
186.0799424447995
 30
0.0
  0
VERTEX
  5
4E9
330
4E0
100
AcDbEntity
  8
\U+838C\U+8343\U+8384\U+815B_4
 62
     7
100
AcDbVertex
100
AcDb2dVertex
 10
43.34309080947673
 20
185.8411973276717
 30
0.0
  0
VERTEX
  5
4EA
330
4E0
100
AcDbEntity
  8
\U+838C\U+8343\U+8384\U+815B_4
 62
     7
100
AcDbVertex
100
AcDb2dVertex
 10
43.10021157776661
 20
185.5669677270458
 30
0.0
  0
VERTEX
  5
4EB
330
4E0
100
AcDbEntity
  8
\U+838C\U+8343\U+8384\U+815B_4
 62
     7
100
AcDbVertex
100
AcDb2dVertex
 10
42.87748615464521
 20
185.2651773625379
 30
0.0
  0
VERTEX
  5
4EC
330
4E0
100
AcDbEntity
  8
\U+838C\U+8343\U+8384\U+815B_4
 62
     7
100
AcDbVertex
100
AcDb2dVertex
 10
42.67922090946909
 20
184.9411661321501
 30
0.0
  0
VERTEX
  5
4ED
330
4E0
100
AcDbEntity
  8
\U+838C\U+8343\U+8384\U+815B_4
 62
     7
100
AcDbVertex
100
AcDb2dVertex
 10
42.50920544727201
 20
184.601135207756
 30
0.0
  0
VERTEX
  5
4EE
330
4E0
100
AcDbEntity
  8
\U+838C\U+8343\U+8384\U+815B_4
 62
     7
100
AcDbVertex
100
AcDb2dVertex
 10
42.3732964303789
 20
184.2552476210369
 30
0.0
  0
VERTEX
  5
4EF
330
4E0
100
AcDbEntity
  8
\U+838C\U+8343\U+8384\U+815B_4
 62
     7
100
AcDbVertex
100
AcDb2dVertex
 10
42.27338866130665
 20
183.9093600343178
 30
0.0
  0
VERTEX
  5
4F0
330
4E0
100
AcDbEntity
  8
\U+838C\U+8343\U+8384\U+815B_4
 62
     7
100
AcDbVertex
100
AcDb2dVertex
 10
42.21034341392658
 20
183.5707071481177
 30
0.0
  0
VERTEX
  5
4F1
330
4E0
100
AcDbEntity
  8
\U+838C\U+8343\U+8384\U+815B_4
 62
     7
100
AcDbVertex
100
AcDb2dVertex
 10
42.18726127417541
 20
183.2484184654726
 30
0.0
  0
SEQEND
  5
4F2
330
4E0
100
AcDbEntity
  8
\U+838C\U+8343\U+8384\U+815B_4
  0
ENDBLK
  5
4DF
330
4DC
100
AcDbEntity
  8
0
100
AcDbBlockEnd
  0
BLOCK
  5
4F5
330
4F3
100
AcDbEntity
  8
0
100
AcDbBlockBegin
  2
BLOCK_86
 70
     0
 71
     0
 10
0.0
 20
0.0
 30
0.0
  3
BLOCK_86
  1

  0
POLYLINE
  5
4F7
330
4F3
100
AcDbEntity
  8
\U+838C\U+8343\U+8384\U+815B_4
 62
     7
100
AcDb2dPolyline
 66
     1
 10
0.0
 20
0.0
 30
0.0
  0
VERTEX
  5
4F8
330
4F7
100
AcDbEntity
  8
\U+838C\U+8343\U+8384\U+815B_4
 62
     7
100
AcDbVertex
100
AcDb2dVertex
 10
38.15494926346474
 20
186.6194443977896
 30
0.0
  0
VERTEX
  5
4F9
330
4F7
100
AcDbEntity
  8
\U+838C\U+8343\U+8384\U+815B_4
 62
     7
100
AcDbVertex
100
AcDb2dVertex
 10
38.14065211720095
 20
186.6397704611526
 30
0.0
  0
VERTEX
  5
4FA
330
4F7
100
AcDbEntity
  8
\U+838C\U+8343\U+8384\U+815B_4
 62
     7
100
AcDbVertex
100
AcDb2dVertex
 10
38.1316948689393
 20
186.6909301291085
 30
0.0
  0
VERTEX
  5
4FB
330
4F7
100
AcDbEntity
  8
\U+838C\U+8343\U+8384\U+815B_4
 62
     7
100
AcDbVertex
100
AcDb2dVertex
 10
38.14065211720095
 20
186.7541476312629
 30
0.0
  0
VERTEX
  5
4FC
330
4F7
100
AcDbEntity
  8
\U+838C\U+8343\U+8384\U+815B_4
 62
     7
100
AcDbVertex
100
AcDb2dVertex
 10
38.16838513585721
 20
186.818570916837
 30
0.0
  0
VERTEX
  5
4FD
330
4F7
100
AcDbEntity
  8
\U+838C\U+8343\U+8384\U+815B_4
 62
     7
100
AcDbVertex
100
AcDb2dVertex
 10
38.21093206510005
 20
186.8743814636981
 30
0.0
  0
VERTEX
  5
4FE
330
4F7
100
AcDbEntity
  8
\U+838C\U+8343\U+8384\U+815B_4
 62
     7
100
AcDbVertex
100
AcDb2dVertex
 10
38.25950791144207
 20
186.9138278070042
 30
0.0
  0
SEQEND
  5
4FF
330
4F7
100
AcDbEntity
  8
\U+838C\U+8343\U+8384\U+815B_4
  0
ENDBLK
  5
4F6
330
4F3
100
AcDbEntity
  8
0
100
AcDbBlockEnd
  0
BLOCK
  5
502
330
500
100
AcDbEntity
  8
0
100
AcDbBlockBegin
  2
BLOCK_87
 70
     0
 71
     0
 10
0.0
 20
0.0
 30
0.0
  3
BLOCK_87
  1

  0
POLYLINE
  5
504
330
500
100
AcDbEntity
  8
\U+838C\U+8343\U+8384\U+815B_4
 62
     7
100
AcDb2dPolyline
 66
     1
 10
0.0
 20
0.0
 30
0.0
  0
VERTEX
  5
505
330
504
100
AcDbEntity
  8
\U+838C\U+8343\U+8384\U+815B_4
 62
     7
100
AcDbVertex
100
AcDb2dVertex
 10
173.5539197699796
 20
108.8698404675742
 30
0.0
  0
VERTEX
  5
506
330
504
100
AcDbEntity
  8
\U+838C\U+8343\U+8384\U+815B_4
 62
     7
100
AcDbVertex
100
AcDb2dVertex
 10
173.5129231337051
 20
108.8787977158359
 30
0.0
  0
VERTEX
  5
507
330
504
100
AcDbEntity
  8
\U+838C\U+8343\U+8384\U+815B_4
 62
     7
100
AcDbVertex
100
AcDb2dVertex
 10
173.4626247396205
 20
108.8615722384096
 30
0.0
  0
VERTEX
  5
508
330
504
100
AcDbEntity
  8
\U+838C\U+8343\U+8384\U+815B_4
 62
     7
100
AcDbVertex
100
AcDb2dVertex
 10
173.414393402827
 20
108.8216091307807
 30
0.0
  0
VERTEX
  5
509
330
504
100
AcDbEntity
  8
\U+838C\U+8343\U+8384\U+815B_4
 62
     7
100
AcDbVertex
100
AcDb2dVertex
 10
173.3720187283584
 20
108.7657985839197
 30
0.0
  0
VERTEX
  5
50A
330
504
100
AcDbEntity
  8
\U+838C\U+8343\U+8384\U+815B_4
 62
     7
100
AcDbVertex
100
AcDb2dVertex
 10
173.3458360026705
 20
108.701719807894
 30
0.0
  0
VERTEX
  5
50B
330
504
100
AcDbEntity
  8
\U+838C\U+8343\U+8384\U+815B_4
 62
     7
100
AcDbVertex
100
AcDb2dVertex
 10
173.3355007162147
 20
108.6397080891595
 30
0.0
  0
VERTEX
  5
50C
330
504
100
AcDbEntity
  8
\U+838C\U+8343\U+8384\U+815B_4
 62
     7
100
AcDbVertex
100
AcDb2dVertex
 10
173.3458360026705
 20
108.5887206759778
 30
0.0
  0
VERTEX
  5
50D
330
504
100
AcDbEntity
  8
\U+838C\U+8343\U+8384\U+815B_4
 62
     7
100
AcDbVertex
100
AcDb2dVertex
 10
173.3720187283584
 20
108.5563367784165
 30
0.0
  0
SEQEND
  5
50E
330
504
100
AcDbEntity
  8
\U+838C\U+8343\U+8384\U+815B_4
  0
ENDBLK
  5
503
330
500
100
AcDbEntity
  8
0
100
AcDbBlockEnd
  0
BLOCK
  5
511
330
50F
100
AcDbEntity
  8
0
100
AcDbBlockBegin
  2
BLOCK_88
 70
     0
 71
     0
 10
0.0
 20
0.0
 30
0.0
  3
BLOCK_88
  1

  0
POLYLINE
  5
513
330
50F
100
AcDbEntity
  8
\U+838C\U+8343\U+8384\U+815B_4
 62
     7
100
AcDb2dPolyline
 66
     1
 10
0.0
 20
0.0
 30
0.0
  0
VERTEX
  5
514
330
513
100
AcDbEntity
  8
\U+838C\U+8343\U+8384\U+815B_4
 62
     7
100
AcDbVertex
100
AcDb2dVertex
 10
174.8799370222522
 20
109.680815944802
 30
0.0
  0
VERTEX
  5
515
330
513
100
AcDbEntity
  8
\U+838C\U+8343\U+8384\U+815B_4
 62
     7
100
AcDbVertex
100
AcDb2dVertex
 10
174.8317056854588
 20
109.639474798979
 30
0.0
  0
VERTEX
  5
516
330
513
100
AcDbEntity
  8
\U+838C\U+8343\U+8384\U+815B_4
 62
     7
100
AcDbVertex
100
AcDb2dVertex
 10
174.7893310109902
 20
109.583664252118
 30
0.0
  0
VERTEX
  5
517
330
513
100
AcDbEntity
  8
\U+838C\U+8343\U+8384\U+815B_4
 62
     7
100
AcDbVertex
100
AcDb2dVertex
 10
174.7614257375596
 20
109.5195854760923
 30
0.0
  0
VERTEX
  5
518
330
513
100
AcDbEntity
  8
\U+838C\U+8343\U+8384\U+815B_4
 62
     7
100
AcDbVertex
100
AcDb2dVertex
 10
174.7521239797495
 20
109.4575737573578
 30
0.0
  0
VERTEX
  5
519
330
513
100
AcDbEntity
  8
\U+838C\U+8343\U+8384\U+815B_4
 62
     7
100
AcDbVertex
100
AcDb2dVertex
 10
174.7614257375596
 20
109.4065863441761
 30
0.0
  0
VERTEX
  5
51A
330
513
100
AcDbEntity
  8
\U+838C\U+8343\U+8384\U+815B_4
 62
     7
100
AcDbVertex
100
AcDb2dVertex
 10
174.7893310109902
 20
109.3748914657118
 30
0.0
  0
SEQEND
  5
51B
330
513
100
AcDbEntity
  8
\U+838C\U+8343\U+8384\U+815B_4
  0
ENDBLK
  5
512
330
50F
100
AcDbEntity
  8
0
100
AcDbBlockEnd
  0
BLOCK
  5
51E
330
51C
100
AcDbEntity
  8
0
100
AcDbBlockBegin
  2
BLOCK_89
 70
     0
 71
     0
 10
0.0
 20
0.0
 30
0.0
  3
BLOCK_89
  1

  0
POLYLINE
  5
520
330
51C
100
AcDbEntity
  8
\U+838C\U+8343\U+8384\U+815B_4
 62
     7
100
AcDb2dPolyline
 66
     1
 10
0.0
 20
0.0
 30
0.0
  0
VERTEX
  5
521
330
520
100
AcDbEntity
  8
\U+838C\U+8343\U+8384\U+815B_4
 62
     7
100
AcDbVertex
100
AcDb2dVertex
 10
174.9708875430628
 20
109.6890841739666
 30
0.0
  0
VERTEX
  5
522
330
520
100
AcDbEntity
  8
\U+838C\U+8343\U+8384\U+815B_4
 62
     7
100
AcDbVertex
100
AcDb2dVertex
 10
174.9298909067884
 20
109.6966633840342
 30
0.0
  0
VERTEX
  5
523
330
520
100
AcDbEntity
  8
\U+838C\U+8343\U+8384\U+815B_4
 62
     7
100
AcDbVertex
100
AcDb2dVertex
 10
174.8799370222522
 20
109.680815944802
 30
0.0
  0
SEQEND
  5
524
330
520
100
AcDbEntity
  8
\U+838C\U+8343\U+8384\U+815B_4
  0
ENDBLK
  5
51F
330
51C
100
AcDbEntity
  8
0
100
AcDbBlockEnd
  0
ENDSEC
  0
SECTION
  2
ENTITIES
  0
INSERT
  5
3E
330
1F
100
AcDbEntity
  8
\U+838C\U+8343\U+8384\U+815B_4
100
AcDbBlockReference
  2
BLOCK_2
 10
0.0
 20
0.0
 30
0.0
  0
ENDSEC
  0
SECTION
  2
OBJECTS
  0
DICTIONARY
  5
C
330
0
100
AcDbDictionary
  3
ACAD_GROUP
350
D
  3
ACAD_LAYOUT
350
1A
  3
ACAD_MLINESTYLE
350
17
  3
ACAD_PLOTSETTINGS
350
19
  3
ACAD_TABLESTYLE
350
525
  3
ACAD_VISUALSTYLE
350
2A
1001
ACAD
1000
TREAT_AS_HARD
1070
     0
  0
DICTIONARY
  5
D
102
{ACAD_REACTORS
330
C
102
}
330
C
100
AcDbDictionary
1001
ACAD
1000
TREAT_AS_HARD
1070
     0
  0
DICTIONARY
  5
1A
102
{ACAD_REACTORS
330
C
102
}
330
C
100
AcDbDictionary
1001
ACAD
1000
TREAT_AS_HARD
1070
     0
  0
DICTIONARY
  5
17
102
{ACAD_REACTORS
330
C
102
}
330
C
100
AcDbDictionary
  3
STANDARD
350
18
1001
ACAD
1000
TREAT_AS_HARD
1070
     0
  0
DICTIONARY
  5
19
102
{ACAD_REACTORS
330
C
102
}
330
C
100
AcDbDictionary
1001
ACAD
1000
TREAT_AS_HARD
1070
     0
  0
DICTIONARY
  5
525
102
{ACAD_REACTORS
330
C
102
}
330
C
100
AcDbDictionary
1001
ACAD
1000
TREAT_AS_HARD
1070
     0
  0
DICTIONARY
  5
2A
102
{ACAD_REACTORS
330
C
102
}
330
C
100
AcDbDictionary
  3
2DWIREFRAME
350
2F
  3
3D_HIDDEN
350
31
  3
3DWIREFRAME
350
30
  3
BASIC
350
32
  3
BRIGHTEN
350
36
  3
COLORCHANGE
350
3A
  3
CONCEPTUAL
350
34
  3
DIM
350
35
  3
FACEPATTERN
350
39
  3
FLAT
350
2B
  3
FLATWITHEDGES
350
2C
  3
GOURAUD
350
2D
  3
GOURAUDWITHEDGES
350
2E
  3
LINEPATTERN
350
38
  3
REALISTIC
350
33
  3
THICKEN
350
37
1001
ACAD
1000
TREAT_AS_HARD
1070
     0
  0
MLINESTYLE
  5
18
102
{ACAD_REACTORS
330
17
102
}
330
17
100
AcDbMlineStyle
  2
Standard
 70
     0
  3

 62
   256
 51
90.0
 52
90.0
 71
     2
 49
0.5
 62
   256
  6
BYLAYER
 49
-0.5
 62
   256
  6
BYLAYER
  0
VISUALSTYLE
  5
2F
102
{ACAD_REACTORS
330
2A
102
}
330
2A
100
AcDbVisualStyle
  2
2dWireframe
 70
     4
 71
     0
 72
     2
 73
     0
 90
        0
 40
-0.6
 41
-30.0
 62
     5
 63
     7
 74
     1
 91
        4
 64
     7
 65
   257
 75
     1
175
     1
 42
1.0
 92
        0
 66
   257
 43
1.0
 76
     1
 77
     6
 78
     2
 67
     7
 79
     5
170
     0
171
     0
290
     0
174
     0
 93
        1
 44
0.0
173
     0
291
     0
 45
0.0
1001
ACAD
1000
AcDbSavedByObjectVersion
1070
     0
  0
VISUALSTYLE
  5
31
102
{ACAD_REACTORS
330
2A
102
}
330
2A
100
AcDbVisualStyle
  2
3D Hidden
 70
     6
 71
     1
 72
     2
 73
     2
 90
        0
 40
-0.6
 41
-30.0
 62
     5
 63
     7
 74
     2
 91
        2
 64
     7
 65
   257
 75
     2
175
     1
 42
40.0
 92
        0
 66
   257
 43
1.0
 76
     1
 77
     6
 78
     2
 67
     7
 79
     3
170
     0
171
     0
290
     0
174
     0
 93
        1
 44
0.0
173
     0
291
     0
 45
0.0
1001
ACAD
1000
AcDbSavedByObjectVersion
1070
     0
  0
VISUALSTYLE
  5
30
102
{ACAD_REACTORS
330
2A
102
}
330
2A
100
AcDbVisualStyle
  2
3dWireframe
 70
     5
 71
     0
 72
     2
 73
     0
 90
        0
 40
-0.6
 41
-30.0
 62
     5
 63
     7
 74
     1
 91
        4
 64
     7
 65
   257
 75
     1
175
     1
 42
1.0
 92
        0
 66
   257
 43
1.0
 76
     1
 77
     6
 78
     2
 67
     7
 79
     5
170
     0
171
     0
290
     0
174
     0
 93
        1
 44
0.0
173
     0
291
     0
 45
0.0
1001
ACAD
1000
AcDbSavedByObjectVersion
1070
     0
  0
VISUALSTYLE
  5
32
102
{ACAD_REACTORS
330
2A
102
}
330
2A
100
AcDbVisualStyle
  2
Basic
 70
     7
 71
     1
 72
     0
 73
     1
 90
        0
 40
-0.6
 41
-30.0
 62
     5
 63
     7
 74
     0
 91
        4
 64
     7
 65
   257
 75
     1
175
     1
 42
1.0
 92
        8
 66
     7
 43
1.0
 76
     1
 77
     6
 78
     2
 67
     7
 79
     5
170
     0
171
     0
290
     0
174
     0
 93
        1
 44
0.0
173
     0
291
     1
 45
0.0
1001
ACAD
1000
AcDbSavedByObjectVersion
1070
     0
  0
VISUALSTYLE
  5
36
102
{ACAD_REACTORS
330
2A
102
}
330
2A
100
AcDbVisualStyle
  2
Brighten
 70
    12
 71
     2
 72
     2
 73
     0
 90
        0
 40
-0.6
 41
-30.0
 62
     5
 63
     7
 74
     1
 91
        4
 64
     7
 65
   257
 75
     1
175
     1
 42
1.0
 92
        8
 66
     7
 43
1.0
 76
     1
 77
     6
 78
     2
 67
     7
 79
     5
170
     0
171
     0
290
     0
174
     0
 93
        1
 44
50.0
173
     0
291
     1
 45
0.0
1001
ACAD
1000
AcDbSavedByObjectVersion
1070
     0
  0
VISUALSTYLE
  5
3A
102
{ACAD_REACTORS
330
2A
102
}
330
2A
100
AcDbVisualStyle
  2
ColorChange
 70
    16
 71
     2
 72
     2
 73
     3
 90
        0
 40
-0.6
 41
-30.0
 62
     5
 63
     8
 74
     1
 91
        4
 64
     7
 65
   257
 75
     1
175
     1
 42
1.0
 92
        8
 66
     8
 43
1.0
 76
     1
 77
     6
 78
     2
 67
     7
 79
     5
170
     0
171
     0
290
     0
174
     0
 93
        1
 44
0.0
173
     0
291
     1
 45
0.0
1001
ACAD
1000
AcDbSavedByObjectVersion
1070
     0
  0
VISUALSTYLE
  5
34
102
{ACAD_REACTORS
330
2A
102
}
330
2A
100
AcDbVisualStyle
  2
Conceptual
 70
     9
 71
     3
 72
     2
 73
     0
 90
        0
 40
-0.6
 41
-30.0
 62
     5
 63
     7
 74
     2
 91
        2
 64
     7
 65
   257
 75
     1
175
     1
 42
40.0
 92
        8
 66
     7
 43
1.0
 76
     1
 77
     6
 78
     2
 67
     7
 79
     3
170
     0
171
     0
290
     0
174
     0
 93
        1
 44
0.0
173
     0
291
     0
 45
0.0
1001
ACAD
1000
AcDbSavedByObjectVersion
1070
     0
  0
VISUALSTYLE
  5
35
102
{ACAD_REACTORS
330
2A
102
}
330
2A
100
AcDbVisualStyle
  2
Dim
 70
    11
 71
     2
 72
     2
 73
     0
 90
        0
 40
-0.6
 41
-30.0
 62
     5
 63
     7
 74
     1
 91
        4
 64
     7
 65
   257
 75
     1
175
     1
 42
1.0
 92
        8
 66
     7
 43
1.0
 76
     1
 77
     6
 78
     2
 67
     7
 79
     5
170
     0
171
     0
290
     0
174
     0
 93
        1
 44
-50.0
173
     0
291
     1
 45
0.0
1001
ACAD
1000
AcDbSavedByObjectVersion
1070
     0
  0
VISUALSTYLE
  5
39
102
{ACAD_REACTORS
330
2A
102
}
330
2A
100
AcDbVisualStyle
  2
Facepattern
 70
    15
 71
     2
 72
     2
 73
     0
 90
        0
 40
-0.6
 41
-30.0
 62
     5
 63
     7
 74
     1
 91
        4
 64
     7
 65
   257
 75
     1
175
     1
 42
1.0
 92
        8
 66
     7
 43
1.0
 76
     1
 77
     6
 78
     2
 67
     7
 79
     5
170
     0
171
     0
290
     0
174
     0
 93
        1
 44
0.0
173
     0
291
     1
 45
0.0
1001
ACAD
1000
AcDbSavedByObjectVersion
1070
     0
  0
VISUALSTYLE
  5
2B
102
{ACAD_REACTORS
330
2A
102
}
330
2A
100
AcDbVisualStyle
  2
Flat
 70
     0
 71
     2
 72
     1
 73
     1
 90
        2
 40
-0.6
 41
30.0
 62
     5
 63
     7
 74
     0
 91
        4
 64
     7
 65
   257
 75
     1
175
     1
 42
1.0
 92
        8
 66
     7
 43
1.0
 76
     1
 77
     6
 78
     2
 67
     7
 79
     5
170
     0
171
     0
290
     0
174
     0
 93
       13
 44
0.0
173
     0
291
     1
 45
0.0
1001
ACAD
1000
AcDbSavedByObjectVersion
1070
     0
  0
VISUALSTYLE
  5
2C
102
{ACAD_REACTORS
330
2A
102
}
330
2A
100
AcDbVisualStyle
  2
FlatWithEdges
 70
     1
 71
     2
 72
     1
 73
     1
 90
        2
 40
-0.6
 41
30.0
 62
     5
 63
     7
 74
     1
 91
        4
 64
     7
 65
   257
 75
     1
175
     1
 42
1.0
 92
        0
 66
   257
 43
1.0
 76
     1
 77
     6
 78
     2
 67
     7
 79
     5
170
     0
171
     0
290
     0
174
     0
 93
       13
 44
0.0
173
     0
291
     1
 45
0.0
1001
ACAD
1000
AcDbSavedByObjectVersion
1070
     0
  0
VISUALSTYLE
  5
2D
102
{ACAD_REACTORS
330
2A
102
}
330
2A
100
AcDbVisualStyle
  2
Gouraud
 70
     2
 71
     2
 72
     2
 73
     1
 90
        2
 40
-0.6
 41
30.0
 62
     5
 63
     7
 74
     0
 91
        4
 64
     7
 65
   257
 75
     1
175
     1
 42
1.0
 92
        0
 66
     7
 43
1.0
 76
     1
 77
     6
 78
     2
 67
     7
 79
     5
170
     0
171
     0
290
     0
174
     0
 93
       13
 44
0.0
173
     0
291
     1
 45
0.0
1001
ACAD
1000
AcDbSavedByObjectVersion
1070
     0
  0
VISUALSTYLE
  5
2E
102
{ACAD_REACTORS
330
2A
102
}
330
2A
100
AcDbVisualStyle
  2
GouraudWithEdges
 70
     3
 71
     2
 72
     2
 73
     1
 90
        2
 40
-0.6
 41
30.0
 62
     5
 63
     7
 74
     1
 91
        4
 64
     7
 65
   257
 75
     1
175
     1
 42
1.0
 92
        0
 66
   257
 43
1.0
 76
     1
 77
     6
 78
     2
 67
     7
 79
     5
170
     0
171
     0
290
     0
174
     0
 93
       13
 44
0.0
173
     0
291
     1
 45
0.0
1001
ACAD
1000
AcDbSavedByObjectVersion
1070
     0
  0
VISUALSTYLE
  5
38
102
{ACAD_REACTORS
330
2A
102
}
330
2A
100
AcDbVisualStyle
  2
Linepattern
 70
    14
 71
     2
 72
     2
 73
     0
 90
        0
 40
-0.6
 41
-30.0
 62
     5
 63
     7
 74
     1
 91
        4
 64
     7
 65
   257
 75
     7
175
     7
 42
1.0
 92
        8
 66
     7
 43
1.0
 76
     1
 77
     6
 78
     2
 67
     7
 79
     5
170
     0
171
     0
290
     0
174
     0
 93
        1
 44
0.0
173
     0
291
     1
 45
0.0
1001
ACAD
1000
AcDbSavedByObjectVersion
1070
     0
  0
VISUALSTYLE
  5
33
102
{ACAD_REACTORS
330
2A
102
}
330
2A
100
AcDbVisualStyle
  2
Realistic
 70
     8
 71
     2
 72
     2
 73
     0
 90
        0
 40
-0.6
 41
-30.0
 62
     5
 63
     7
 74
     1
 91
        0
 64
     7
 65
   257
 75
     1
175
     1
 42
1.0
 92
        8
 66
     8
 43
1.0
 76
     1
 77
     6
 78
     2
 67
     7
 79
     5
170
     0
171
     0
290
     0
174
     0
 93
       13
 44
0.0
173
     0
291
     0
 45
0.0
1001
ACAD
1000
AcDbSavedByObjectVersion
1070
     0
  0
VISUALSTYLE
  5
37
102
{ACAD_REACTORS
330
2A
102
}
330
2A
100
AcDbVisualStyle
  2
Thicken
 70
    13
 71
     2
 72
     2
 73
     0
 90
        0
 40
-0.6
 41
-30.0
 62
     5
 63
     7
 74
     1
 91
        4
 64
     7
 65
   257
 75
     1
175
     1
 42
1.0
 92
       12
 66
     7
 43
1.0
 76
     1
 77
     6
 78
     2
 67
     7
 79
     5
170
     0
171
     0
290
     0
174
     0
 93
        1
 44
0.0
173
     0
291
     1
 45
0.0
1001
ACAD
1000
AcDbSavedByObjectVersion
1070
     0
  0
ENDSEC
  0
EOF
