  0
SECTION
  2
HEADER
  9
$ACADVER
  1
AC1012
  9
$DWGCODEPAGE
  3
ansi_932
  9
$INSBASE
 10
0.0
 20
0.0
 30
0.0
  9
$EXTMIN
 10
1.000000000000000E+20
 20
1.000000000000000E+20
 30
1.000000000000000E+20
  9
$EXTMAX
 10
-1.000000000000000E+20
 20
-1.000000000000000E+20
 30
-1.000000000000000E+20
  9
$LIMMIN
 10
0.0
 20
0.0
  9
$LIMMAX
 10
12.0
 20
9.0
  9
$ORTHOMODE
 70
     0
  9
$REGENMODE
 70
     1
  9
$FILLMODE
 70
     1
  9
$QTEXTMODE
 70
     0
  9
$MIRRTEXT
 70
     1
  9
$DRAGMODE
 70
     2
  9
$LTSCALE
 40
1.0
  9
$OSMODE
 70
    37
  9
$ATTMODE
 70
     1
  9
$TEXTSIZE
 40
0.2
  9
$TRACEWID
 40
0.05
  9
$TEXTSTYLE
  7
STANDARD
  9
$CLAYER
  8
0
  9
$CELTYPE
  6
BYLAYER
  9
$CECOLOR
 62
   256
  9
$CELTSCALE
 40
1.0
  9
$DELOBJ
 70
     1
  9
$DISPSILH
 70
     0
  9
$DIMSCALE
 40
1.0
  9
$DIMASZ
 40
0.18
  9
$DIMEXO
 40
0.0625
  9
$DIMDLI
 40
0.38
  9
$DIMRND
 40
0.0
  9
$DIMDLE
 40
0.0
  9
$DIMEXE
 40
0.18
  9
$DIMTP
 40
0.0
  9
$DIMTM
 40
0.0
  9
$DIMTXT
 40
0.18
  9
$DIMCEN
 40
0.09
  9
$DIMTSZ
 40
0.0
  9
$DIMTOL
 70
     0
  9
$DIMLIM
 70
     0
  9
$DIMTIH
 70
     1
  9
$DIMTOH
 70
     1
  9
$DIMSE1
 70
     0
  9
$DIMSE2
 70
     0
  9
$DIMTAD
 70
     0
  9
$DIMZIN
 70
     0
  9
$DIMBLK
  1

  9
$DIMASO
 70
     1
  9
$DIMSHO
 70
     1
  9
$DIMPOST
  1

  9
$DIMAPOST
  1

  9
$DIMALT
 70
     0
  9
$DIMALTD
 70
     2
  9
$DIMALTF
 40
25.4
  9
$DIMLFAC
 40
1.0
  9
$DIMTOFL
 70
     0
  9
$DIMTVP
 40
0.0
  9
$DIMTIX
 70
     0
  9
$DIMSOXD
 70
     0
  9
$DIMSAH
 70
     0
  9
$DIMBLK1
  1

  9
$DIMBLK2
  1

  9
$DIMSTYLE
  2
STANDARD
  9
$DIMCLRD
 70
     0
  9
$DIMCLRE
 70
     0
  9
$DIMCLRT
 70
     0
  9
$DIMTFAC
 40
1.0
  9
$DIMGAP
 40
0.09
  9
$DIMJUST
 70
     0
  9
$DIMSD1
 70
     0
  9
$DIMSD2
 70
     0
  9
$DIMTOLJ
 70
     1
  9
$DIMTZIN
 70
     0
  9
$DIMALTZ
 70
     0
  9
$DIMALTTZ
 70
     0
  9
$DIMFIT
 70
     3
  9
$DIMUPT
 70
     0
  9
$DIMUNIT
 70
     2
  9
$DIMDEC
 70
     4
  9
$DIMTDEC
 70
     4
  9
$DIMALTU
 70
     2
  9
$DIMALTTD
 70
     2
  9
$DIMTXSTY
  7
STANDARD
  9
$DIMAUNIT
 70
     0
  9
$LUNITS
 70
     2
  9
$LUPREC
 70
     4
  9
$SKETCHINC
 40
0.1
  9
$FILLETRAD
 40
0.5
  9
$AUNITS
 70
     0
  9
$AUPREC
 70
     0
  9
$MENU
  1
.
  9
$ELEVATION
 40
0.0
  9
$PELEVATION
 40
0.0
  9
$THICKNESS
 40
0.0
  9
$LIMCHECK
 70
     0
  9
$CHAMFERA
 40
0.5
  9
$CHAMFERB
 40
0.5
  9
$CHAMFERC
 40
1.0
  9
$CHAMFERD
 40
0.0
  9
$SKPOLY
 70
     0
  9
$TDCREATE
 40
2456857.770906493
  9
$TDUPDATE
 40
2456857.770906505
  9
$TDINDWG
 40
0.0000000116
  9
$TDUSRTIMER
 40
0.0000000116
  9
$USRTIMER
 70
     1
  9
$ANGBASE
 50
0.0
  9
$ANGDIR
 70
     0
  9
$PDMODE
 70
     0
  9
$PDSIZE
 40
0.0
  9
$PLINEWID
 40
0.0
  9
$COORDS
 70
     1
  9
$SPLFRAME
 70
     0
  9
$SPLINETYPE
 70
     6
  9
$SPLINESEGS
 70
     8
  9
$ATTDIA
 70
     0
  9
$ATTREQ
 70
     1
  9
$HANDLING
 70
     1
  9
$HANDSEED
  5
54C
  9
$SURFTAB1
 70
     6
  9
$SURFTAB2
 70
     6
  9
$SURFTYPE
 70
     6
  9
$SURFU
 70
     6
  9
$SURFV
 70
     6
  9
$UCSNAME
  2

  9
$UCSORG
 10
0.0
 20
0.0
 30
0.0
  9
$UCSXDIR
 10
1.0
 20
0.0
 30
0.0
  9
$UCSYDIR
 10
0.0
 20
1.0
 30
0.0
  9
$PUCSNAME
  2

  9
$PUCSORG
 10
0.0
 20
0.0
 30
0.0
  9
$PUCSXDIR
 10
1.0
 20
0.0
 30
0.0
  9
$PUCSYDIR
 10
0.0
 20
1.0
 30
0.0
  9
$USERI1
 70
     0
  9
$USERI2
 70
     0
  9
$USERI3
 70
     0
  9
$USERI4
 70
     0
  9
$USERI5
 70
     0
  9
$USERR1
 40
0.0
  9
$USERR2
 40
0.0
  9
$USERR3
 40
0.0
  9
$USERR4
 40
0.0
  9
$USERR5
 40
0.0
  9
$WORLDVIEW
 70
     1
  9
$SHADEDGE
 70
     3
  9
$SHADEDIF
 70
    70
  9
$TILEMODE
 70
     1
  9
$MAXACTVP
 70
    64
  9
$PINSBASE
 10
0.0
 20
0.0
 30
0.0
  9
$PLIMCHECK
 70
     0
  9
$PEXTMIN
 10
1.000000000000000E+20
 20
1.000000000000000E+20
 30
1.000000000000000E+20
  9
$PEXTMAX
 10
-1.000000000000000E+20
 20
-1.000000000000000E+20
 30
-1.000000000000000E+20
  9
$PLIMMIN
 10
0.0
 20
0.0
  9
$PLIMMAX
 10
12.0
 20
9.0
  9
$UNITMODE
 70
     0
  9
$VISRETAIN
 70
     1
  9
$PLINEGEN
 70
     0
  9
$PSLTSCALE
 70
     1
  9
$TREEDEPTH
 70
  3020
  9
$PICKSTYLE
 70
     1
  9
$CMLSTYLE
  2
STANDARD
  9
$CMLJUST
 70
     0
  9
$CMLSCALE
 40
1.0
  9
$SAVEIMAGES
 70
     1
  0
ENDSEC
  0
SECTION
  2
CLASSES
  0
CLASS
  1
ACDBDICTIONARYWDFLT
  2
AcDbDictionaryWithDefault
  3
ObjectDBX Classes
 90
    32768
280
     0
281
     0
  0
CLASS
  1
VISUALSTYLE
  2
AcDbVisualStyle
  3
ObjectDBX Classes
 90
     4095
280
     0
281
     0
  0
CLASS
  1
XRECORD
  2
AcDbXrecord
  3
AutoCAD 2000
 90
    32768
280
     0
281
     0
  0
CLASS
  1
LWPOLYLINE
  2
AcDbPolyline
  3
AutoCAD 2000
 90
    32768
280
     0
281
     1
  0
CLASS
  1
HATCH
  2
AcDbHatch
  3
AutoCAD 2000
 90
    32768
280
     0
281
     1
  0
CLASS
  1
ACDBPLACEHOLDER
  2
AcDbPlaceHolder
  3
ObjectDBX Classes
 90
        0
280
     0
281
     0
  0
CLASS
  1
LAYOUT
  2
AcDbLayout
  3
ObjectDBX Classes
 90
        0
280
     0
281
     0
  0
ENDSEC
  0
SECTION
  2
TABLES
  0
TABLE
  2
VPORT
  5
8
330
0
100
AcDbSymbolTable
 70
     1
  0
VPORT
  5
29
330
8
100
AcDbSymbolTableRecord
100
AcDbViewportTableRecord
  2
*ACTIVE
 70
     0
 10
0.0
 20
0.0
 11
1.0
 21
1.0
 12
0.0
 22
0.0
 13
0.0
 23
0.0
 14
0.5
 24
0.5
 15
0.5
 25
0.5
 16
0.0
 26
0.0
 36
1.0
 17
148.4999796178229
 27
105.0008259828644
 37
0.0
 40
210.0016519657288
 41
1.414274394775308
 42
50.0
 43
0.0
 44
0.0
 50
0.0
 51
0.0
 71
     0
 72
   100
 73
     1
 74
     3
 75
     0
 76
     0
 77
     0
 78
     0
  0
ENDTAB
  0
TABLE
  2
LTYPE
  5
5
330
0
100
AcDbSymbolTable
 70
     1
  0
LTYPE
  5
14
330
5
100
AcDbSymbolTableRecord
100
AcDbLinetypeTableRecord
  2
BYBLOCK
 70
     0
  3

 72
    65
 73
     0
 40
0.0
  0
LTYPE
  5
15
330
5
100
AcDbSymbolTableRecord
100
AcDbLinetypeTableRecord
  2
BYLAYER
 70
     0
  3

 72
    65
 73
     0
 40
0.0
  0
LTYPE
  5
16
330
5
100
AcDbSymbolTableRecord
100
AcDbLinetypeTableRecord
  2
CONTINUOUS
 70
     0
  3
Solid line
 72
    65
 73
     0
 40
0.0
  0
ENDTAB
  0
TABLE
  2
LAYER
  5
2
330
0
100
AcDbSymbolTable
 70
     2
  0
LAYER
  5
10
330
2
100
AcDbSymbolTableRecord
100
AcDbLayerTableRecord
  2
0
 70
     0
 62
     7
  6
CONTINUOUS
  0
LAYER
  5
3B
330
2
100
AcDbSymbolTableRecord
100
AcDbLayerTableRecord
  2
\U+838C\U+8343\U+8384\U+815B_1
 70
     0
 62
     7
  6
CONTINUOUS
  0
ENDTAB
  0
TABLE
  2
STYLE
  5
3
330
0
100
AcDbSymbolTable
 70
     1
  0
STYLE
  5
11
330
3
100
AcDbSymbolTableRecord
100
AcDbTextStyleTableRecord
  2
STANDARD
 70
     0
 40
0.0
 41
1.0
 50
0.0
 71
     0
 42
0.2
  3
txt
  4

  0
ENDTAB
  0
TABLE
  2
VIEW
  5
6
330
0
100
AcDbSymbolTable
 70
     0
  0
ENDTAB
  0
TABLE
  2
UCS
  5
7
330
0
100
AcDbSymbolTable
 70
     0
  0
ENDTAB
  0
TABLE
  2
APPID
  5
9
330
0
100
AcDbSymbolTable
 70
     1
  0
APPID
  5
12
330
9
100
AcDbSymbolTableRecord
100
AcDbRegAppTableRecord
  2
ACAD
 70
     0
  0
ENDTAB
  0
TABLE
  2
DIMSTYLE
  5
A
330
0
100
AcDbSymbolTable
 70
     1
  0
DIMSTYLE
105
27
330
A
100
AcDbSymbolTableRecord
100
AcDbDimStyleTableRecord
  2
STANDARD
 70
     0
  3

  4

  5

  6

  7

 40
1.0
 41
0.18
 42
0.0625
 43
0.38
 44
0.18
 45
0.0
 46
0.0
 47
0.0
 48
0.0
140
0.18
141
0.09
142
0.0
143
25.4
144
1.0
145
0.0
146
1.0
147
0.09
 71
     0
 72
     0
 73
     1
 74
     1
 75
     0
 76
     0
 77
     0
 78
     0
170
     0
171
     2
172
     0
173
     0
174
     0
175
     0
176
     0
177
     0
178
     0
270
     2
271
     4
272
     4
273
     2
274
     2
340
11
275
     0
280
     0
281
     0
282
     0
283
     1
284
     0
285
     0
286
     0
287
     3
288
     0
  0
ENDTAB
  0
TABLE
  2
BLOCK_RECORD
  5
1
330
0
100
AcDbSymbolTable
 70
    43
  0
BLOCK_RECORD
  5
1F
330
1
100
AcDbSymbolTableRecord
100
AcDbBlockTableRecord
  2
*MODEL_SPACE
  0
BLOCK_RECORD
  5
1B
330
1
100
AcDbSymbolTableRecord
100
AcDbBlockTableRecord
  2
*PAPER_SPACE
  0
BLOCK_RECORD
  5
3C
330
1
100
AcDbSymbolTableRecord
100
AcDbBlockTableRecord
  2
BLOCK_2
  0
BLOCK_RECORD
  5
63
330
1
100
AcDbSymbolTableRecord
100
AcDbBlockTableRecord
  2
BLOCK_3
  0
BLOCK_RECORD
  5
6D
330
1
100
AcDbSymbolTableRecord
100
AcDbBlockTableRecord
  2
BLOCK_4
  0
BLOCK_RECORD
  5
78
330
1
100
AcDbSymbolTableRecord
100
AcDbBlockTableRecord
  2
BLOCK_5
  0
BLOCK_RECORD
  5
82
330
1
100
AcDbSymbolTableRecord
100
AcDbBlockTableRecord
  2
BLOCK_6
  0
BLOCK_RECORD
  5
8C
330
1
100
AcDbSymbolTableRecord
100
AcDbBlockTableRecord
  2
BLOCK_7
  0
BLOCK_RECORD
  5
B2
330
1
100
AcDbSymbolTableRecord
100
AcDbBlockTableRecord
  2
BLOCK_8
  0
BLOCK_RECORD
  5
EA
330
1
100
AcDbSymbolTableRecord
100
AcDbBlockTableRecord
  2
BLOCK_9
  0
BLOCK_RECORD
  5
F9
330
1
100
AcDbSymbolTableRecord
100
AcDbBlockTableRecord
  2
BLOCK_10
  0
BLOCK_RECORD
  5
139
330
1
100
AcDbSymbolTableRecord
100
AcDbBlockTableRecord
  2
BLOCK_11
  0
BLOCK_RECORD
  5
151
330
1
100
AcDbSymbolTableRecord
100
AcDbBlockTableRecord
  2
BLOCK_12
  0
BLOCK_RECORD
  5
178
330
1
100
AcDbSymbolTableRecord
100
AcDbBlockTableRecord
  2
BLOCK_13
  0
BLOCK_RECORD
  5
1D2
330
1
100
AcDbSymbolTableRecord
100
AcDbBlockTableRecord
  2
BLOCK_14
  0
BLOCK_RECORD
  5
1DB
330
1
100
AcDbSymbolTableRecord
100
AcDbBlockTableRecord
  2
BLOCK_15
  0
BLOCK_RECORD
  5
1E4
330
1
100
AcDbSymbolTableRecord
100
AcDbBlockTableRecord
  2
BLOCK_16
  0
BLOCK_RECORD
  5
1EC
330
1
100
AcDbSymbolTableRecord
100
AcDbBlockTableRecord
  2
BLOCK_17
  0
BLOCK_RECORD
  5
1F4
330
1
100
AcDbSymbolTableRecord
100
AcDbBlockTableRecord
  2
BLOCK_18
  0
BLOCK_RECORD
  5
1FD
330
1
100
AcDbSymbolTableRecord
100
AcDbBlockTableRecord
  2
BLOCK_19
  0
BLOCK_RECORD
  5
211
330
1
100
AcDbSymbolTableRecord
100
AcDbBlockTableRecord
  2
BLOCK_20
  0
BLOCK_RECORD
  5
24F
330
1
100
AcDbSymbolTableRecord
100
AcDbBlockTableRecord
  2
BLOCK_21
  0
BLOCK_RECORD
  5
25D
330
1
100
AcDbSymbolTableRecord
100
AcDbBlockTableRecord
  2
BLOCK_22
  0
BLOCK_RECORD
  5
266
330
1
100
AcDbSymbolTableRecord
100
AcDbBlockTableRecord
  2
BLOCK_23
  0
BLOCK_RECORD
  5
273
330
1
100
AcDbSymbolTableRecord
100
AcDbBlockTableRecord
  2
BLOCK_24
  0
BLOCK_RECORD
  5
27B
330
1
100
AcDbSymbolTableRecord
100
AcDbBlockTableRecord
  2
BLOCK_25
  0
BLOCK_RECORD
  5
286
330
1
100
AcDbSymbolTableRecord
100
AcDbBlockTableRecord
  2
BLOCK_26
  0
BLOCK_RECORD
  5
292
330
1
100
AcDbSymbolTableRecord
100
AcDbBlockTableRecord
  2
BLOCK_27
  0
BLOCK_RECORD
  5
29A
330
1
100
AcDbSymbolTableRecord
100
AcDbBlockTableRecord
  2
BLOCK_28
  0
BLOCK_RECORD
  5
2A2
330
1
100
AcDbSymbolTableRecord
100
AcDbBlockTableRecord
  2
BLOCK_29
  0
BLOCK_RECORD
  5
2FD
330
1
100
AcDbSymbolTableRecord
100
AcDbBlockTableRecord
  2
BLOCK_30
  0
BLOCK_RECORD
  5
307
330
1
100
AcDbSymbolTableRecord
100
AcDbBlockTableRecord
  2
BLOCK_31
  0
BLOCK_RECORD
  5
310
330
1
100
AcDbSymbolTableRecord
100
AcDbBlockTableRecord
  2
BLOCK_32
  0
BLOCK_RECORD
  5
358
330
1
100
AcDbSymbolTableRecord
100
AcDbBlockTableRecord
  2
BLOCK_33
  0
BLOCK_RECORD
  5
361
330
1
100
AcDbSymbolTableRecord
100
AcDbBlockTableRecord
  2
BLOCK_34
  0
BLOCK_RECORD
  5
384
330
1
100
AcDbSymbolTableRecord
100
AcDbBlockTableRecord
  2
BLOCK_35
  0
BLOCK_RECORD
  5
38C
330
1
100
AcDbSymbolTableRecord
100
AcDbBlockTableRecord
  2
BLOCK_36
  0
BLOCK_RECORD
  5
395
330
1
100
AcDbSymbolTableRecord
100
AcDbBlockTableRecord
  2
BLOCK_37
  0
BLOCK_RECORD
  5
3B8
330
1
100
AcDbSymbolTableRecord
100
AcDbBlockTableRecord
  2
BLOCK_38
  0
BLOCK_RECORD
  5
3DE
330
1
100
AcDbSymbolTableRecord
100
AcDbBlockTableRecord
  2
BLOCK_39
  0
BLOCK_RECORD
  5
405
330
1
100
AcDbSymbolTableRecord
100
AcDbBlockTableRecord
  2
BLOCK_40
  0
BLOCK_RECORD
  5
414
330
1
100
AcDbSymbolTableRecord
100
AcDbBlockTableRecord
  2
BLOCK_41
  0
BLOCK_RECORD
  5
44C
330
1
100
AcDbSymbolTableRecord
100
AcDbBlockTableRecord
  2
BLOCK_42
  0
BLOCK_RECORD
  5
4A5
330
1
100
AcDbSymbolTableRecord
100
AcDbBlockTableRecord
  2
BLOCK_43
  0
ENDTAB
  0
ENDSEC
  0
SECTION
  2
BLOCKS
  0
BLOCK
  5
20
330
1F
100
AcDbEntity
  8
0
100
AcDbBlockBegin
  2
*MODEL_SPACE
 70
     0
 71
     0
 10
0.0
 20
0.0
 30
0.0
  3
*MODEL_SPACE
  1

  0
ENDBLK
  5
21
330
1F
100
AcDbEntity
  8
0
100
AcDbBlockEnd
  0
BLOCK
  5
1C
330
1B
100
AcDbEntity
 67
     1
  8
0
100
AcDbBlockBegin
  2
*PAPER_SPACE
 70
     0
 71
     0
 10
0.0
 20
0.0
 30
0.0
  3
*PAPER_SPACE
  1

  0
ENDBLK
  5
1D
330
1B
100
AcDbEntity
 67
     1
  8
0
100
AcDbBlockEnd
  0
BLOCK
  5
3E
330
3C
100
AcDbEntity
  8
0
100
AcDbBlockBegin
  2
BLOCK_2
 70
     0
 71
     0
 10
0.0
 20
0.0
 30
0.0
  3
BLOCK_2
  1

  0
POLYLINE
  5
40
330
3C
100
AcDbEntity
  8
\U+838C\U+8343\U+8384\U+815B_1
 62
     7
100
AcDb2dPolyline
 66
     1
 10
0.0
 20
0.0
 30
0.0
  0
VERTEX
  5
41
330
40
100
AcDbEntity
  8
\U+838C\U+8343\U+8384\U+815B_1
 62
     7
100
AcDbVertex
100
AcDb2dVertex
 10
72.66429848443809
 20
139.8143771351853
 30
0.0
  0
VERTEX
  5
42
330
40
100
AcDbEntity
  8
\U+838C\U+8343\U+8384\U+815B_1
 62
     7
100
AcDbVertex
100
AcDb2dVertex
 10
72.42055797885666
 20
139.6314425649185
 30
0.0
  0
VERTEX
  5
43
330
40
100
AcDbEntity
  8
\U+838C\U+8343\U+8384\U+815B_1
 62
     7
100
AcDbVertex
100
AcDb2dVertex
 10
69.97936331800864
 20
137.8613525045972
 30
0.0
  0
VERTEX
  5
44
330
40
100
AcDbEntity
  8
\U+838C\U+8343\U+8384\U+815B_1
 62
     7
100
AcDbVertex
100
AcDb2dVertex
 10
67.59914684724953
 20
136.0914346990501
 30
0.0
  0
VERTEX
  5
45
330
40
100
AcDbEntity
  8
\U+838C\U+8343\U+8384\U+815B_1
 62
     7
100
AcDbVertex
100
AcDb2dVertex
 10
65.34105901144251
 20
134.1999050228737
 30
0.0
  0
VERTEX
  5
46
330
40
100
AcDbEntity
  8
\U+838C\U+8343\U+8384\U+815B_1
 62
     7
100
AcDbVertex
100
AcDb2dVertex
 10
63.20527206536188
 20
132.3083753466972
 30
0.0
  0
VERTEX
  5
47
330
40
100
AcDbEntity
  8
\U+838C\U+8343\U+8384\U+815B_1
 62
     7
100
AcDbVertex
100
AcDb2dVertex
 10
61.25259194432227
 20
130.3553507161091
 30
0.0
  0
VERTEX
  5
48
330
40
100
AcDbEntity
  8
\U+838C\U+8343\U+8384\U+815B_1
 62
     7
100
AcDbVertex
100
AcDb2dVertex
 10
59.36071775859732
 20
128.3416924049806
 30
0.0
  0
VERTEX
  5
49
330
40
100
AcDbEntity
  8
\U+838C\U+8343\U+8384\U+815B_1
 62
     7
100
AcDbVertex
100
AcDb2dVertex
 10
57.65212265268767
 20
126.327345074755
 30
0.0
  0
VERTEX
  5
4A
330
40
100
AcDbEntity
  8
\U+838C\U+8343\U+8384\U+815B_1
 62
     7
100
AcDbVertex
100
AcDb2dVertex
 10
56.06531167218159
 20
124.2527085735375
 30
0.0
  0
VERTEX
  5
4B
330
40
100
AcDbEntity
  8
\U+838C\U+8343\U+8384\U+815B_1
 62
     7
100
AcDbVertex
100
AcDb2dVertex
 10
54.66160751671654
 20
122.1169216274569
 30
0.0
  0
VERTEX
  5
4C
330
40
100
AcDbEntity
  8
\U+838C\U+8343\U+8384\U+815B_1
 62
     7
100
AcDbVertex
100
AcDb2dVertex
 10
53.38037650575213
 20
119.980962426602
 30
0.0
  0
VERTEX
  5
4D
330
40
100
AcDbEntity
  8
\U+838C\U+8343\U+8384\U+815B_1
 62
     7
100
AcDbVertex
100
AcDb2dVertex
 10
52.22058511064277
 20
117.7836805261096
 30
0.0
  0
VERTEX
  5
4E
330
40
100
AcDbEntity
  8
\U+838C\U+8343\U+8384\U+815B_1
 62
     7
100
AcDbVertex
100
AcDb2dVertex
 10
51.24441730489723
 20
115.5870876447143
 30
0.0
  0
VERTEX
  5
4F
330
40
100
AcDbEntity
  8
\U+838C\U+8343\U+8384\U+815B_1
 62
     7
100
AcDbVertex
100
AcDb2dVertex
 10
50.38986136978101
 20
113.3903225085448
 30
0.0
  0
VERTEX
  5
50
330
40
100
AcDbEntity
  8
\U+838C\U+8343\U+8384\U+815B_1
 62
     7
100
AcDbVertex
100
AcDb2dVertex
 10
49.71875676925434
 20
111.1930406080524
 30
0.0
  0
VERTEX
  5
51
330
40
100
AcDbEntity
  8
\U+838C\U+8343\U+8384\U+815B_1
 62
     7
100
AcDbVertex
100
AcDb2dVertex
 10
49.16926403935699
 20
108.9351250270197
 30
0.0
  0
VERTEX
  5
52
330
40
100
AcDbEntity
  8
\U+838C\U+8343\U+8384\U+815B_1
 62
     7
100
AcDbVertex
100
AcDb2dVertex
 10
48.80339489882346
 20
106.6775539555355
 30
0.0
  0
VERTEX
  5
53
330
40
100
AcDbEntity
  8
\U+838C\U+8343\U+8384\U+815B_1
 62
     7
100
AcDbVertex
100
AcDb2dVertex
 10
48.55896537414498
 20
104.4191216101799
 30
0.0
  0
VERTEX
  5
54
330
40
100
AcDbEntity
  8
\U+838C\U+8343\U+8384\U+815B_1
 62
     7
100
AcDbVertex
100
AcDb2dVertex
 10
48.49833169360458
 20
102.1005723486068
 30
0.0
  0
VERTEX
  5
55
330
40
100
AcDbEntity
  8
\U+838C\U+8343\U+8384\U+815B_1
 62
     7
100
AcDbVertex
100
AcDb2dVertex
 10
48.55896537414498
 20
99.84265676757406
 30
0.0
  0
VERTEX
  5
56
330
40
100
AcDbEntity
  8
\U+838C\U+8343\U+8384\U+815B_1
 62
     7
100
AcDbVertex
100
AcDb2dVertex
 10
48.80339489882346
 20
97.58474118654132
 30
0.0
  0
VERTEX
  5
57
330
40
100
AcDbEntity
  8
\U+838C\U+8343\U+8384\U+815B_1
 62
     7
100
AcDbVertex
100
AcDb2dVertex
 10
49.16926403935699
 20
95.32613658641152
 30
0.0
  0
VERTEX
  5
58
330
40
100
AcDbEntity
  8
\U+838C\U+8343\U+8384\U+815B_1
 62
     7
100
AcDbVertex
100
AcDb2dVertex
 10
49.71875676925434
 20
93.06822100537879
 30
0.0
  0
VERTEX
  5
59
330
40
100
AcDbEntity
  8
\U+838C\U+8343\U+8384\U+815B_1
 62
     7
100
AcDbVertex
100
AcDb2dVertex
 10
50.38986136978101
 20
90.87162812398348
 30
0.0
  0
VERTEX
  5
5A
330
40
100
AcDbEntity
  8
\U+838C\U+8343\U+8384\U+815B_1
 62
     7
100
AcDbVertex
100
AcDb2dVertex
 10
51.24441730489723
 20
88.6750352425882
 30
0.0
  0
VERTEX
  5
5B
330
40
100
AcDbEntity
  8
\U+838C\U+8343\U+8384\U+815B_1
 62
     7
100
AcDbVertex
100
AcDb2dVertex
 10
52.22058511064277
 20
86.47775334209584
 30
0.0
  0
VERTEX
  5
5C
330
40
100
AcDbEntity
  8
\U+838C\U+8343\U+8384\U+815B_1
 62
     7
100
AcDbVertex
100
AcDb2dVertex
 10
53.38037650575213
 20
84.28116046070055
 30
0.0
  0
VERTEX
  5
5D
330
40
100
AcDbEntity
  8
\U+838C\U+8343\U+8384\U+815B_1
 62
     7
100
AcDbVertex
100
AcDb2dVertex
 10
54.66160751671654
 20
82.14520125984565
 30
0.0
  0
VERTEX
  5
5E
330
40
100
AcDbEntity
  8
\U+838C\U+8343\U+8384\U+815B_1
 62
     7
100
AcDbVertex
100
AcDb2dVertex
 10
56.06531167218159
 20
80.00924205899075
 30
0.0
  0
VERTEX
  5
5F
330
40
100
AcDbEntity
  8
\U+838C\U+8343\U+8384\U+815B_1
 62
     7
100
AcDbVertex
100
AcDb2dVertex
 10
57.65212265268767
 20
77.93391653867624
 30
0.0
  0
VERTEX
  5
60
330
40
100
AcDbEntity
  8
\U+838C\U+8343\U+8384\U+815B_1
 62
     7
100
AcDbVertex
100
AcDb2dVertex
 10
59.36071775859732
 20
75.92060273709625
 30
0.0
  0
VERTEX
  5
61
330
40
100
AcDbEntity
  8
\U+838C\U+8343\U+8384\U+815B_1
 62
     7
100
AcDbVertex
100
AcDb2dVertex
 10
59.90986597894615
 20
75.31013181710998
 30
0.0
  0
SEQEND
  5
62
330
40
100
AcDbEntity
  8
\U+838C\U+8343\U+8384\U+815B_1
  0
ENDBLK
  5
3F
330
3C
100
AcDbEntity
  8
0
100
AcDbBlockEnd
  0
BLOCK
  5
65
330
63
100
AcDbEntity
  8
0
100
AcDbBlockBegin
  2
BLOCK_3
 70
     0
 71
     0
 10
0.0
 20
0.0
 30
0.0
  3
BLOCK_3
  1

  0
POLYLINE
  5
67
330
63
100
AcDbEntity
  8
\U+838C\U+8343\U+8384\U+815B_1
 62
     7
100
AcDb2dPolyline
 66
     1
 10
0.0
 20
0.0
 30
0.0
  0
VERTEX
  5
68
330
67
100
AcDbEntity
  8
\U+838C\U+8343\U+8384\U+815B_1
 62
     7
100
AcDbVertex
100
AcDb2dVertex
 10
49.41369356403547
 20
101.3681450484427
 30
0.0
  0
VERTEX
  5
69
330
67
100
AcDbEntity
  8
\U+838C\U+8343\U+8384\U+815B_1
 62
     7
100
AcDbVertex
100
AcDb2dVertex
 10
49.2913926743091
 20
101.9172932687915
 30
0.0
  0
VERTEX
  5
6A
330
67
100
AcDbEntity
  8
\U+838C\U+8343\U+8384\U+815B_1
 62
     7
100
AcDbVertex
100
AcDb2dVertex
 10
48.92517902422704
 20
104.1752088498243
 30
0.0
  0
VERTEX
  5
6B
330
67
100
AcDbEntity
  8
\U+838C\U+8343\U+8384\U+815B_1
 62
     7
100
AcDbVertex
100
AcDb2dVertex
 10
48.74224445396028
 20
106.1280612256381
 30
0.0
  0
SEQEND
  5
6C
330
67
100
AcDbEntity
  8
\U+838C\U+8343\U+8384\U+815B_1
  0
ENDBLK
  5
66
330
63
100
AcDbEntity
  8
0
100
AcDbBlockEnd
  0
BLOCK
  5
6F
330
6D
100
AcDbEntity
  8
0
100
AcDbBlockBegin
  2
BLOCK_4
 70
     0
 71
     0
 10
0.0
 20
0.0
 30
0.0
  3
BLOCK_4
  1

  0
POLYLINE
  5
71
330
6D
100
AcDbEntity
  8
\U+838C\U+8343\U+8384\U+815B_1
 62
     7
100
AcDb2dPolyline
 66
     1
 10
0.0
 20
0.0
 30
0.0
  0
VERTEX
  5
72
330
71
100
AcDbEntity
  8
\U+838C\U+8343\U+8384\U+815B_1
 62
     7
100
AcDbVertex
100
AcDb2dVertex
 10
53.31922606088894
 20
128.1580688156167
 30
0.0
  0
VERTEX
  5
73
330
71
100
AcDbEntity
  8
\U+838C\U+8343\U+8384\U+815B_1
 62
     7
100
AcDbVertex
100
AcDb2dVertex
 10
52.83088377585478
 20
127.3040296448233
 30
0.0
  0
VERTEX
  5
74
330
71
100
AcDbEntity
  8
\U+838C\U+8343\U+8384\U+815B_1
 62
     7
100
AcDbVertex
100
AcDb2dVertex
 10
51.67143689029395
 20
125.1682426987427
 30
0.0
  0
VERTEX
  5
75
330
71
100
AcDbEntity
  8
\U+838C\U+8343\U+8384\U+815B_1
 62
     7
100
AcDbVertex
100
AcDb2dVertex
 10
50.63411863968522
 20
122.9709607982503
 30
0.0
  0
VERTEX
  5
76
330
71
100
AcDbEntity
  8
\U+838C\U+8343\U+8384\U+815B_1
 62
     7
100
AcDbVertex
100
AcDb2dVertex
 10
50.32905543446635
 20
122.239050262409
 30
0.0
  0
SEQEND
  5
77
330
71
100
AcDbEntity
  8
\U+838C\U+8343\U+8384\U+815B_1
  0
ENDBLK
  5
70
330
6D
100
AcDbEntity
  8
0
100
AcDbBlockEnd
  0
BLOCK
  5
7A
330
78
100
AcDbEntity
  8
0
100
AcDbBlockBegin
  2
BLOCK_5
 70
     0
 71
     0
 10
0.0
 20
0.0
 30
0.0
  3
BLOCK_5
  1

  0
POLYLINE
  5
7C
330
78
100
AcDbEntity
  8
\U+838C\U+8343\U+8384\U+815B_1
 62
     7
100
AcDb2dPolyline
 66
     1
 10
0.0
 20
0.0
 30
0.0
  0
VERTEX
  5
7D
330
7C
100
AcDbEntity
  8
\U+838C\U+8343\U+8384\U+815B_1
 62
     7
100
AcDbVertex
100
AcDb2dVertex
 10
246.7098333801628
 20
122.1777275627716
 30
0.0
  0
VERTEX
  5
7E
330
7C
100
AcDbEntity
  8
\U+838C\U+8343\U+8384\U+815B_1
 62
     7
100
AcDbVertex
100
AcDb2dVertex
 10
245.9167723994583
 20
124.0697740032708
 30
0.0
  0
VERTEX
  5
7F
330
7C
100
AcDbEntity
  8
\U+838C\U+8343\U+8384\U+815B_1
 62
     7
100
AcDbVertex
100
AcDb2dVertex
 10
244.8181314492121
 20
126.2057332041257
 30
0.0
  0
VERTEX
  5
80
330
7C
100
AcDbEntity
  8
\U+838C\U+8343\U+8384\U+815B_1
 62
     7
100
AcDbVertex
100
AcDb2dVertex
 10
243.719490498966
 20
128.1580688156167
 30
0.0
  0
SEQEND
  5
81
330
7C
100
AcDbEntity
  8
\U+838C\U+8343\U+8384\U+815B_1
  0
ENDBLK
  5
7B
330
78
100
AcDbEntity
  8
0
100
AcDbBlockEnd
  0
BLOCK
  5
84
330
82
100
AcDbEntity
  8
0
100
AcDbBlockBegin
  2
BLOCK_6
 70
     0
 71
     0
 10
0.0
 20
0.0
 30
0.0
  3
BLOCK_6
  1

  0
POLYLINE
  5
86
330
82
100
AcDbEntity
  8
\U+838C\U+8343\U+8384\U+815B_1
 62
     7
100
AcDb2dPolyline
 66
     1
 10
0.0
 20
0.0
 30
0.0
  0
VERTEX
  5
87
330
86
100
AcDbEntity
  8
\U+838C\U+8343\U+8384\U+815B_1
 62
     7
100
AcDbVertex
100
AcDb2dVertex
 10
248.3576225507578
 20
106.1280612256381
 30
0.0
  0
VERTEX
  5
88
330
86
100
AcDbEntity
  8
\U+838C\U+8343\U+8384\U+815B_1
 62
     7
100
AcDbVertex
100
AcDb2dVertex
 10
248.1133652808536
 20
104.1752088498243
 30
0.0
  0
VERTEX
  5
89
330
86
100
AcDbEntity
  8
\U+838C\U+8343\U+8384\U+815B_1
 62
     7
100
AcDbVertex
100
AcDb2dVertex
 10
247.7474961403201
 20
101.9172932687915
 30
0.0
  0
VERTEX
  5
8A
330
86
100
AcDbEntity
  8
\U+838C\U+8343\U+8384\U+815B_1
 62
     7
100
AcDbVertex
100
AcDb2dVertex
 10
247.6251952505937
 20
101.3681450484427
 30
0.0
  0
SEQEND
  5
8B
330
86
100
AcDbEntity
  8
\U+838C\U+8343\U+8384\U+815B_1
  0
ENDBLK
  5
85
330
82
100
AcDbEntity
  8
0
100
AcDbBlockEnd
  0
BLOCK
  5
8E
330
8C
100
AcDbEntity
  8
0
100
AcDbBlockBegin
  2
BLOCK_7
 70
     0
 71
     0
 10
0.0
 20
0.0
 30
0.0
  3
BLOCK_7
  1

  0
POLYLINE
  5
90
330
8C
100
AcDbEntity
  8
\U+838C\U+8343\U+8384\U+815B_1
 62
     7
100
AcDb2dPolyline
 66
     1
 10
0.0
 20
0.0
 30
0.0
  0
VERTEX
  5
91
330
90
100
AcDbEntity
  8
\U+838C\U+8343\U+8384\U+815B_1
 62
     7
100
AcDbVertex
100
AcDb2dVertex
 10
236.8234428661414
 20
74.94426267657644
 30
0.0
  0
VERTEX
  5
92
330
90
100
AcDbEntity
  8
\U+838C\U+8343\U+8384\U+815B_1
 62
     7
100
AcDbVertex
100
AcDb2dVertex
 10
237.6781710560319
 20
75.92060273709625
 30
0.0
  0
VERTEX
  5
93
330
90
100
AcDbEntity
  8
\U+838C\U+8343\U+8384\U+815B_1
 62
     7
100
AcDbVertex
100
AcDb2dVertex
 10
239.3865939071673
 20
77.93391653867624
 30
0.0
  0
VERTEX
  5
94
330
90
100
AcDbEntity
  8
\U+838C\U+8343\U+8384\U+815B_1
 62
     7
100
AcDbVertex
100
AcDb2dVertex
 10
240.9730603781248
 20
80.00924205899075
 30
0.0
  0
VERTEX
  5
95
330
90
100
AcDbEntity
  8
\U+838C\U+8343\U+8384\U+815B_1
 62
     7
100
AcDbVertex
100
AcDb2dVertex
 10
242.3772812979126
 20
82.14520125984565
 30
0.0
  0
VERTEX
  5
96
330
90
100
AcDbEntity
  8
\U+838C\U+8343\U+8384\U+815B_1
 62
     7
100
AcDbVertex
100
AcDb2dVertex
 10
243.6585123088771
 20
84.28116046070055
 30
0.0
  0
VERTEX
  5
97
330
90
100
AcDbEntity
  8
\U+838C\U+8343\U+8384\U+815B_1
 62
     7
100
AcDbVertex
100
AcDb2dVertex
 10
244.8181314492121
 20
86.47775334209584
 30
0.0
  0
VERTEX
  5
98
330
90
100
AcDbEntity
  8
\U+838C\U+8343\U+8384\U+815B_1
 62
     7
100
AcDbVertex
100
AcDb2dVertex
 10
245.7944715097319
 20
88.6750352425882
 30
0.0
  0
VERTEX
  5
99
330
90
100
AcDbEntity
  8
\U+838C\U+8343\U+8384\U+815B_1
 62
     7
100
AcDbVertex
100
AcDb2dVertex
 10
246.6491996996224
 20
90.87162812398348
 30
0.0
  0
VERTEX
  5
9A
330
90
100
AcDbEntity
  8
\U+838C\U+8343\U+8384\U+815B_1
 62
     7
100
AcDbVertex
100
AcDb2dVertex
 10
247.3199597906006
 20
93.06822100537879
 30
0.0
  0
VERTEX
  5
9B
330
90
100
AcDbEntity
  8
\U+838C\U+8343\U+8384\U+815B_1
 62
     7
100
AcDbVertex
100
AcDb2dVertex
 10
247.8694525204979
 20
95.32613658641152
 30
0.0
  0
VERTEX
  5
9C
330
90
100
AcDbEntity
  8
\U+838C\U+8343\U+8384\U+815B_1
 62
     7
100
AcDbVertex
100
AcDb2dVertex
 10
248.23566617058
 20
97.58474118654132
 30
0.0
  0
VERTEX
  5
9D
330
90
100
AcDbEntity
  8
\U+838C\U+8343\U+8384\U+815B_1
 62
     7
100
AcDbVertex
100
AcDb2dVertex
 10
248.4799234404842
 20
99.84265676757406
 30
0.0
  0
VERTEX
  5
9E
330
90
100
AcDbEntity
  8
\U+838C\U+8343\U+8384\U+815B_1
 62
     7
100
AcDbVertex
100
AcDb2dVertex
 10
248.5405571210246
 20
102.1005723486068
 30
0.0
  0
VERTEX
  5
9F
330
90
100
AcDbEntity
  8
\U+838C\U+8343\U+8384\U+815B_1
 62
     7
100
AcDbVertex
100
AcDb2dVertex
 10
248.4799234404842
 20
104.4191216101799
 30
0.0
  0
VERTEX
  5
A0
330
90
100
AcDbEntity
  8
\U+838C\U+8343\U+8384\U+815B_1
 62
     7
100
AcDbVertex
100
AcDb2dVertex
 10
248.23566617058
 20
106.6775539555355
 30
0.0
  0
VERTEX
  5
A1
330
90
100
AcDbEntity
  8
\U+838C\U+8343\U+8384\U+815B_1
 62
     7
100
AcDbVertex
100
AcDb2dVertex
 10
247.8694525204979
 20
108.9351250270197
 30
0.0
  0
VERTEX
  5
A2
330
90
100
AcDbEntity
  8
\U+838C\U+8343\U+8384\U+815B_1
 62
     7
100
AcDbVertex
100
AcDb2dVertex
 10
247.3199597906006
 20
111.1930406080524
 30
0.0
  0
VERTEX
  5
A3
330
90
100
AcDbEntity
  8
\U+838C\U+8343\U+8384\U+815B_1
 62
     7
100
AcDbVertex
100
AcDb2dVertex
 10
246.6491996996224
 20
113.3903225085448
 30
0.0
  0
VERTEX
  5
A4
330
90
100
AcDbEntity
  8
\U+838C\U+8343\U+8384\U+815B_1
 62
     7
100
AcDbVertex
100
AcDb2dVertex
 10
245.7944715097319
 20
115.5870876447143
 30
0.0
  0
VERTEX
  5
A5
330
90
100
AcDbEntity
  8
\U+838C\U+8343\U+8384\U+815B_1
 62
     7
100
AcDbVertex
100
AcDb2dVertex
 10
244.8181314492121
 20
117.7836805261096
 30
0.0
  0
VERTEX
  5
A6
330
90
100
AcDbEntity
  8
\U+838C\U+8343\U+8384\U+815B_1
 62
     7
100
AcDbVertex
100
AcDb2dVertex
 10
243.6585123088771
 20
119.980962426602
 30
0.0
  0
VERTEX
  5
A7
330
90
100
AcDbEntity
  8
\U+838C\U+8343\U+8384\U+815B_1
 62
     7
100
AcDbVertex
100
AcDb2dVertex
 10
242.3772812979126
 20
122.1169216274569
 30
0.0
  0
VERTEX
  5
A8
330
90
100
AcDbEntity
  8
\U+838C\U+8343\U+8384\U+815B_1
 62
     7
100
AcDbVertex
100
AcDb2dVertex
 10
240.9730603781248
 20
124.2527085735375
 30
0.0
  0
VERTEX
  5
A9
330
90
100
AcDbEntity
  8
\U+838C\U+8343\U+8384\U+815B_1
 62
     7
100
AcDbVertex
100
AcDb2dVertex
 10
239.3865939071673
 20
126.327345074755
 30
0.0
  0
VERTEX
  5
AA
330
90
100
AcDbEntity
  8
\U+838C\U+8343\U+8384\U+815B_1
 62
     7
100
AcDbVertex
100
AcDb2dVertex
 10
237.6781710560319
 20
128.3416924049806
 30
0.0
  0
VERTEX
  5
AB
330
90
100
AcDbEntity
  8
\U+838C\U+8343\U+8384\U+815B_1
 62
     7
100
AcDbVertex
100
AcDb2dVertex
 10
235.7861246155327
 20
130.3553507161091
 30
0.0
  0
VERTEX
  5
AC
330
90
100
AcDbEntity
  8
\U+838C\U+8343\U+8384\U+815B_1
 62
     7
100
AcDbVertex
100
AcDb2dVertex
 10
233.8337890040416
 20
132.3083753466972
 30
0.0
  0
VERTEX
  5
AD
330
90
100
AcDbEntity
  8
\U+838C\U+8343\U+8384\U+815B_1
 62
     7
100
AcDbVertex
100
AcDb2dVertex
 10
231.6978298031867
 20
134.1999050228737
 30
0.0
  0
VERTEX
  5
AE
330
90
100
AcDbEntity
  8
\U+838C\U+8343\U+8384\U+815B_1
 62
     7
100
AcDbVertex
100
AcDb2dVertex
 10
229.4395697126054
 20
136.0914346990501
 30
0.0
  0
VERTEX
  5
AF
330
90
100
AcDbEntity
  8
\U+838C\U+8343\U+8384\U+815B_1
 62
     7
100
AcDbVertex
100
AcDb2dVertex
 10
227.0593532418463
 20
137.8613525045972
 30
0.0
  0
VERTEX
  5
B0
330
90
100
AcDbEntity
  8
\U+838C\U+8343\U+8384\U+815B_1
 62
     7
100
AcDbVertex
100
AcDb2dVertex
 10
225.2286295009845
 20
139.2040784699733
 30
0.0
  0
SEQEND
  5
B1
330
90
100
AcDbEntity
  8
\U+838C\U+8343\U+8384\U+815B_1
  0
ENDBLK
  5
8F
330
8C
100
AcDbEntity
  8
0
100
AcDbBlockEnd
  0
BLOCK
  5
B4
330
B2
100
AcDbEntity
  8
0
100
AcDbBlockBegin
  2
BLOCK_8
 70
     0
 71
     0
 10
0.0
 20
0.0
 30
0.0
  3
BLOCK_8
  1

  0
POLYLINE
  5
B6
330
B2
100
AcDbEntity
  8
\U+838C\U+8343\U+8384\U+815B_1
 62
     7
100
AcDb2dPolyline
 66
     1
 10
0.0
 20
0.0
 30
0.0
  0
VERTEX
  5
B7
330
B6
100
AcDbEntity
  8
\U+838C\U+8343\U+8384\U+815B_1
 62
     7
100
AcDbVertex
100
AcDb2dVertex
 10
77.97353513675662
 20
143.1094387120525
 30
0.0
  0
VERTEX
  5
B8
330
B6
100
AcDbEntity
  8
\U+838C\U+8343\U+8384\U+815B_1
 62
     7
100
AcDbVertex
100
AcDb2dVertex
 10
80.47536347814506
 20
144.4521646774286
 30
0.0
  0
VERTEX
  5
B9
330
B6
100
AcDbEntity
  8
\U+838C\U+8343\U+8384\U+815B_1
 62
     7
100
AcDbVertex
100
AcDb2dVertex
 10
83.40507267880152
 20
145.9778252130715
 30
0.0
  0
VERTEX
  5
BA
330
B6
100
AcDbEntity
  8
\U+838C\U+8343\U+8384\U+815B_1
 62
     7
100
AcDbVertex
100
AcDb2dVertex
 10
86.4563937500873
 20
147.381184858988
 30
0.0
  0
VERTEX
  5
BB
330
B6
100
AcDbEntity
  8
\U+838C\U+8343\U+8384\U+815B_1
 62
     7
100
AcDbVertex
100
AcDb2dVertex
 10
89.56852075668773
 20
148.7852335240016
 30
0.0
  0
VERTEX
  5
BC
330
B6
100
AcDbEntity
  8
\U+838C\U+8343\U+8384\U+815B_1
 62
     7
100
AcDbVertex
100
AcDb2dVertex
 10
92.80277639824028
 20
150.0666367897403
 30
0.0
  0
VERTEX
  5
BD
330
B6
100
AcDbEntity
  8
\U+838C\U+8343\U+8384\U+815B_1
 62
     7
100
AcDbVertex
100
AcDb2dVertex
 10
96.15916067474494
 20
151.2870618653901
 30
0.0
  0
VERTEX
  5
BE
330
B6
100
AcDbEntity
  8
\U+838C\U+8343\U+8384\U+815B_1
 62
     7
100
AcDbVertex
100
AcDb2dVertex
 10
99.5155449512496
 20
152.4468532604994
 30
0.0
  0
VERTEX
  5
BF
330
B6
100
AcDbEntity
  8
\U+838C\U+8343\U+8384\U+815B_1
 62
     7
100
AcDbVertex
100
AcDb2dVertex
 10
102.9942301174806
 20
153.5451497011971
 30
0.0
  0
VERTEX
  5
C0
330
B6
100
AcDbEntity
  8
\U+838C\U+8343\U+8384\U+815B_1
 62
     7
100
AcDbVertex
100
AcDb2dVertex
 10
106.533548964252
 20
154.5213175069426
 30
0.0
  0
VERTEX
  5
C1
330
B6
100
AcDbEntity
  8
\U+838C\U+8343\U+8384\U+815B_1
 62
     7
100
AcDbVertex
100
AcDb2dVertex
 10
110.1343627654352
 20
155.4366793773735
 30
0.0
  0
VERTEX
  5
C2
330
B6
100
AcDbEntity
  8
\U+838C\U+8343\U+8384\U+815B_1
 62
     7
100
AcDbVertex
100
AcDb2dVertex
 10
113.7958102471587
 20
156.2299126128522
 30
0.0
  0
VERTEX
  5
C3
330
B6
100
AcDbEntity
  8
\U+838C\U+8343\U+8384\U+815B_1
 62
     7
100
AcDbVertex
100
AcDb2dVertex
 10
117.5182359189711
 20
157.0238348674281
 30
0.0
  0
VERTEX
  5
C4
330
B6
100
AcDbEntity
  8
\U+838C\U+8343\U+8384\U+815B_1
 62
     7
100
AcDbVertex
100
AcDb2dVertex
 10
121.3018120356468
 20
157.6339612778658
 30
0.0
  0
VERTEX
  5
C5
330
B6
100
AcDbEntity
  8
\U+838C\U+8343\U+8384\U+815B_1
 62
     7
100
AcDbVertex
100
AcDb2dVertex
 10
125.0855604070967
 20
158.2442599430778
 30
0.0
  0
VERTEX
  5
C6
330
B6
100
AcDbEntity
  8
\U+838C\U+8343\U+8384\U+815B_1
 62
     7
100
AcDbVertex
100
AcDb2dVertex
 10
128.9301147138612
 20
158.7324299733377
 30
0.0
  0
VERTEX
  5
C7
330
B6
100
AcDbEntity
  8
\U+838C\U+8343\U+8384\U+815B_1
 62
     7
100
AcDbVertex
100
AcDb2dVertex
 10
132.8359917202632
 20
159.0982991138713
 30
0.0
  0
VERTEX
  5
C8
330
B6
100
AcDbEntity
  8
\U+838C\U+8343\U+8384\U+815B_1
 62
     7
100
AcDbVertex
100
AcDb2dVertex
 10
136.7413519623424
 20
159.4648572735018
 30
0.0
  0
VERTEX
  5
C9
330
B6
100
AcDbEntity
  8
\U+838C\U+8343\U+8384\U+815B_1
 62
     7
100
AcDbVertex
100
AcDb2dVertex
 10
140.6472289687445
 20
159.6477918437686
 30
0.0
  0
VERTEX
  5
CA
330
B6
100
AcDbEntity
  8
\U+838C\U+8343\U+8384\U+815B_1
 62
     7
100
AcDbVertex
100
AcDb2dVertex
 10
144.6139119104611
 20
159.7699204787207
 30
0.0
  0
VERTEX
  5
CB
330
B6
100
AcDbEntity
  8
\U+838C\U+8343\U+8384\U+815B_1
 62
     7
100
AcDbVertex
100
AcDb2dVertex
 10
148.5190998977661
 20
159.8307264140354
 30
0.0
  0
VERTEX
  5
CC
330
B6
100
AcDbEntity
  8
\U+838C\U+8343\U+8384\U+815B_1
 62
     7
100
AcDbVertex
100
AcDb2dVertex
 10
152.4857828394827
 20
159.7699204787207
 30
0.0
  0
VERTEX
  5
CD
330
B6
100
AcDbEntity
  8
\U+838C\U+8343\U+8384\U+815B_1
 62
     7
100
AcDbVertex
100
AcDb2dVertex
 10
156.391832100659
 20
159.6477918437686
 30
0.0
  0
VERTEX
  5
CE
330
B6
100
AcDbEntity
  8
\U+838C\U+8343\U+8384\U+815B_1
 62
     7
100
AcDbVertex
100
AcDb2dVertex
 10
160.2975368522867
 20
159.4648572735018
 30
0.0
  0
VERTEX
  5
CF
330
B6
100
AcDbEntity
  8
\U+838C\U+8343\U+8384\U+815B_1
 62
     7
100
AcDbVertex
100
AcDb2dVertex
 10
164.2028970943659
 20
159.0982991138713
 30
0.0
  0
VERTEX
  5
D0
330
B6
100
AcDbEntity
  8
\U+838C\U+8343\U+8384\U+815B_1
 62
     7
100
AcDbVertex
100
AcDb2dVertex
 10
168.1089463555422
 20
158.7324299733377
 30
0.0
  0
VERTEX
  5
D1
330
B6
100
AcDbEntity
  8
\U+838C\U+8343\U+8384\U+815B_1
 62
     7
100
AcDbVertex
100
AcDb2dVertex
 10
171.9533284075325
 20
158.2442599430778
 30
0.0
  0
VERTEX
  5
D2
330
B6
100
AcDbEntity
  8
\U+838C\U+8343\U+8384\U+815B_1
 62
     7
100
AcDbVertex
100
AcDb2dVertex
 10
175.7370767789824
 20
157.6339612778658
 30
0.0
  0
VERTEX
  5
D3
330
B6
100
AcDbEntity
  8
\U+838C\U+8343\U+8384\U+815B_1
 62
     7
100
AcDbVertex
100
AcDb2dVertex
 10
179.5208251504323
 20
157.0238348674281
 30
0.0
  0
VERTEX
  5
D4
330
B6
100
AcDbEntity
  8
\U+838C\U+8343\U+8384\U+815B_1
 62
     7
100
AcDbVertex
100
AcDb2dVertex
 10
183.2429063126962
 20
156.2299126128522
 30
0.0
  0
VERTEX
  5
D5
330
B6
100
AcDbEntity
  8
\U+838C\U+8343\U+8384\U+815B_1
 62
     7
100
AcDbVertex
100
AcDb2dVertex
 10
186.9046983039683
 20
155.4366793773735
 30
0.0
  0
VERTEX
  5
D6
330
B6
100
AcDbEntity
  8
\U+838C\U+8343\U+8384\U+815B_1
 62
     7
100
AcDbVertex
100
AcDb2dVertex
 10
190.5055121051514
 20
154.5213175069426
 30
0.0
  0
VERTEX
  5
D7
330
B6
100
AcDbEntity
  8
\U+838C\U+8343\U+8384\U+815B_1
 62
     7
100
AcDbVertex
100
AcDb2dVertex
 10
194.0446586971486
 20
153.5451497011971
 30
0.0
  0
VERTEX
  5
D8
330
B6
100
AcDbEntity
  8
\U+838C\U+8343\U+8384\U+815B_1
 62
     7
100
AcDbVertex
100
AcDb2dVertex
 10
197.5231716086053
 20
152.4468532604994
 30
0.0
  0
VERTEX
  5
D9
330
B6
100
AcDbEntity
  8
\U+838C\U+8343\U+8384\U+815B_1
 62
     7
100
AcDbVertex
100
AcDb2dVertex
 10
200.8797281398842
 20
151.2870618653901
 30
0.0
  0
VERTEX
  5
DA
330
B6
100
AcDbEntity
  8
\U+838C\U+8343\U+8384\U+815B_1
 62
     7
100
AcDbVertex
100
AcDb2dVertex
 10
204.2362846711632
 20
150.0666367897403
 30
0.0
  0
VERTEX
  5
DB
330
B6
100
AcDbEntity
  8
\U+838C\U+8343\U+8384\U+815B_1
 62
     7
100
AcDbVertex
100
AcDb2dVertex
 10
207.4705403127157
 20
148.7852335240016
 30
0.0
  0
VERTEX
  5
DC
330
B6
100
AcDbEntity
  8
\U+838C\U+8343\U+8384\U+815B_1
 62
     7
100
AcDbVertex
100
AcDb2dVertex
 10
210.5824950645419
 20
147.381184858988
 30
0.0
  0
VERTEX
  5
DD
330
B6
100
AcDbEntity
  8
\U+838C\U+8343\U+8384\U+815B_1
 62
     7
100
AcDbVertex
100
AcDb2dVertex
 10
213.6338161358277
 20
145.9778252130715
 30
0.0
  0
VERTEX
  5
DE
330
B6
100
AcDbEntity
  8
\U+838C\U+8343\U+8384\U+815B_1
 62
     7
100
AcDbVertex
100
AcDb2dVertex
 10
216.5628363173871
 20
144.4521646774286
 30
0.0
  0
VERTEX
  5
DF
330
B6
100
AcDbEntity
  8
\U+838C\U+8343\U+8384\U+815B_1
 62
     7
100
AcDbVertex
100
AcDb2dVertex
 10
219.4312228184061
 20
142.8656982064711
 30
0.0
  0
VERTEX
  5
E0
330
B6
100
AcDbEntity
  8
\U+838C\U+8343\U+8384\U+815B_1
 62
     7
100
AcDbVertex
100
AcDb2dVertex
 10
222.1166747491583
 20
141.2179090358761
 30
0.0
  0
VERTEX
  5
E1
330
B6
100
AcDbEntity
  8
\U+838C\U+8343\U+8384\U+815B_1
 62
     7
100
AcDbVertex
100
AcDb2dVertex
 10
224.7404594707246
 20
139.5699476105068
 30
0.0
  0
VERTEX
  5
E2
330
B6
100
AcDbEntity
  8
\U+838C\U+8343\U+8384\U+815B_1
 62
     7
100
AcDbVertex
100
AcDb2dVertex
 10
227.2422878121131
 20
137.8007188240568
 30
0.0
  0
VERTEX
  5
E3
330
B6
100
AcDbEntity
  8
\U+838C\U+8343\U+8384\U+815B_1
 62
     7
100
AcDbVertex
100
AcDb2dVertex
 10
229.6225042828722
 20
135.9698228284207
 30
0.0
  0
VERTEX
  5
E4
330
B6
100
AcDbEntity
  8
\U+838C\U+8343\U+8384\U+815B_1
 62
     7
100
AcDbVertex
100
AcDb2dVertex
 10
231.8807643734534
 20
134.139099087559
 30
0.0
  0
VERTEX
  5
E5
330
B6
100
AcDbEntity
  8
\U+838C\U+8343\U+8384\U+815B_1
 62
     7
100
AcDbVertex
100
AcDb2dVertex
 10
234.0167235743083
 20
132.1860744569709
 30
0.0
  0
VERTEX
  5
E6
330
B6
100
AcDbEntity
  8
\U+838C\U+8343\U+8384\U+815B_1
 62
     7
100
AcDbVertex
100
AcDb2dVertex
 10
235.9694036953479
 20
130.233222081157
 30
0.0
  0
VERTEX
  5
E7
330
B6
100
AcDbEntity
  8
\U+838C\U+8343\U+8384\U+815B_1
 62
     7
100
AcDbVertex
100
AcDb2dVertex
 10
237.8611056262986
 20
128.2193915152542
 30
0.0
  0
VERTEX
  5
E8
330
B6
100
AcDbEntity
  8
\U+838C\U+8343\U+8384\U+815B_1
 62
     7
100
AcDbVertex
100
AcDb2dVertex
 10
238.7158338161891
 20
127.2427069451859
 30
0.0
  0
SEQEND
  5
E9
330
B6
100
AcDbEntity
  8
\U+838C\U+8343\U+8384\U+815B_1
  0
ENDBLK
  5
B5
330
B2
100
AcDbEntity
  8
0
100
AcDbBlockEnd
  0
BLOCK
  5
EC
330
EA
100
AcDbEntity
  8
0
100
AcDbBlockBegin
  2
BLOCK_9
 70
     0
 71
     0
 10
0.0
 20
0.0
 30
0.0
  3
BLOCK_9
  1

  0
POLYLINE
  5
EE
330
EA
100
AcDbEntity
  8
\U+838C\U+8343\U+8384\U+815B_1
 62
     7
100
AcDb2dPolyline
 66
     1
 10
0.0
 20
0.0
 30
0.0
  0
VERTEX
  5
EF
330
EE
100
AcDbEntity
  8
\U+838C\U+8343\U+8384\U+815B_1
 62
     7
100
AcDbVertex
100
AcDb2dVertex
 10
59.11663274346737
 20
128.1580688156167
 30
0.0
  0
VERTEX
  5
F0
330
EE
100
AcDbEntity
  8
\U+838C\U+8343\U+8384\U+815B_1
 62
     7
100
AcDbVertex
100
AcDb2dVertex
 10
59.17778318833056
 20
128.2193915152542
 30
0.0
  0
VERTEX
  5
F1
330
EE
100
AcDbEntity
  8
\U+838C\U+8343\U+8384\U+815B_1
 62
     7
100
AcDbVertex
100
AcDb2dVertex
 10
61.06931286450698
 20
130.233222081157
 30
0.0
  0
VERTEX
  5
F2
330
EE
100
AcDbEntity
  8
\U+838C\U+8343\U+8384\U+815B_1
 62
     7
100
AcDbVertex
100
AcDb2dVertex
 10
63.02233749509512
 20
132.1860744569709
 30
0.0
  0
VERTEX
  5
F3
330
EE
100
AcDbEntity
  8
\U+838C\U+8343\U+8384\U+815B_1
 62
     7
100
AcDbVertex
100
AcDb2dVertex
 10
65.15812444117574
 20
134.139099087559
 30
0.0
  0
VERTEX
  5
F4
330
EE
100
AcDbEntity
  8
\U+838C\U+8343\U+8384\U+815B_1
 62
     7
100
AcDbVertex
100
AcDb2dVertex
 10
67.41621227698276
 20
135.9698228284207
 30
0.0
  0
VERTEX
  5
F5
330
EE
100
AcDbEntity
  8
\U+838C\U+8343\U+8384\U+815B_1
 62
     7
100
AcDbVertex
100
AcDb2dVertex
 10
69.79591198341907
 20
137.8007188240568
 30
0.0
  0
VERTEX
  5
F6
330
EE
100
AcDbEntity
  8
\U+838C\U+8343\U+8384\U+815B_1
 62
     7
100
AcDbVertex
100
AcDb2dVertex
 10
72.2982570891303
 20
139.5699476105068
 30
0.0
  0
VERTEX
  5
F7
330
EE
100
AcDbEntity
  8
\U+838C\U+8343\U+8384\U+815B_1
 62
     7
100
AcDbVertex
100
AcDb2dVertex
 10
74.61715086025197
 20
141.0348022108351
 30
0.0
  0
SEQEND
  5
F8
330
EE
100
AcDbEntity
  8
\U+838C\U+8343\U+8384\U+815B_1
  0
ENDBLK
  5
ED
330
EA
100
AcDbEntity
  8
0
100
AcDbBlockEnd
  0
BLOCK
  5
FB
330
F9
100
AcDbEntity
  8
0
100
AcDbBlockBegin
  2
BLOCK_10
 70
     0
 71
     0
 10
0.0
 20
0.0
 30
0.0
  3
BLOCK_10
  1

  0
POLYLINE
  5
FD
330
F9
100
AcDbEntity
  8
\U+838C\U+8343\U+8384\U+815B_1
 62
     7
100
AcDb2dPolyline
 66
     1
 10
0.0
 20
0.0
 30
0.0
  0
VERTEX
  5
FE
330
FD
100
AcDbEntity
  8
\U+838C\U+8343\U+8384\U+815B_1
 62
     7
100
AcDbVertex
100
AcDb2dVertex
 10
237.1900010257719
 20
129.3178602107261
 30
0.0
  0
VERTEX
  5
FF
330
FD
100
AcDbEntity
  8
\U+838C\U+8343\U+8384\U+815B_1
 62
     7
100
AcDbVertex
100
AcDb2dVertex
 10
236.6405082958746
 20
129.9281588759381
 30
0.0
  0
VERTEX
  5
100
330
FD
100
AcDbEntity
  8
\U+838C\U+8343\U+8384\U+815B_1
 62
     7
100
AcDbVertex
100
AcDb2dVertex
 10
234.6268499847461
 20
131.881011251752
 30
0.0
  0
VERTEX
  5
101
330
FD
100
AcDbEntity
  8
\U+838C\U+8343\U+8384\U+815B_1
 62
     7
100
AcDbVertex
100
AcDb2dVertex
 10
232.5518689739801
 20
133.7725409279284
 30
0.0
  0
VERTEX
  5
102
330
FD
100
AcDbEntity
  8
\U+838C\U+8343\U+8384\U+815B_1
 62
     7
100
AcDbVertex
100
AcDb2dVertex
 10
230.3549315830363
 20
135.6647596232019
 30
0.0
  0
VERTEX
  5
103
330
FD
100
AcDbEntity
  8
\U+838C\U+8343\U+8384\U+815B_1
 62
     7
100
AcDbVertex
100
AcDb2dVertex
 10
228.0363823214632
 20
137.4954833640636
 30
0.0
  0
VERTEX
  5
104
330
FD
100
AcDbEntity
  8
\U+838C\U+8343\U+8384\U+815B_1
 62
     7
100
AcDbVertex
100
AcDb2dVertex
 10
225.5338649609777
 20
139.2040784699733
 30
0.0
  0
VERTEX
  5
105
330
FD
100
AcDbEntity
  8
\U+838C\U+8343\U+8384\U+815B_1
 62
     7
100
AcDbVertex
100
AcDb2dVertex
 10
222.9707139199518
 20
140.912673575883
 30
0.0
  0
VERTEX
  5
106
330
FD
100
AcDbEntity
  8
\U+838C\U+8343\U+8384\U+815B_1
 62
     7
100
AcDbVertex
100
AcDb2dVertex
 10
220.2859510082966
 20
142.560462746478
 30
0.0
  0
VERTEX
  5
107
330
FD
100
AcDbEntity
  8
\U+838C\U+8343\U+8384\U+815B_1
 62
     7
100
AcDbVertex
100
AcDb2dVertex
 10
217.478198187818
 20
144.1469292174355
 30
0.0
  0
VERTEX
  5
108
330
FD
100
AcDbEntity
  8
\U+838C\U+8343\U+8384\U+815B_1
 62
     7
100
AcDbVertex
100
AcDb2dVertex
 10
214.5491780062586
 20
145.6725897530784
 30
0.0
  0
VERTEX
  5
109
330
FD
100
AcDbEntity
  8
\U+838C\U+8343\U+8384\U+815B_1
 62
     7
100
AcDbVertex
100
AcDb2dVertex
 10
211.5591796346102
 20
147.1374443534066
 30
0.0
  0
VERTEX
  5
10A
330
FD
100
AcDbEntity
  8
\U+838C\U+8343\U+8384\U+815B_1
 62
     7
100
AcDbVertex
100
AcDb2dVertex
 10
208.446535863687
 20
148.5409762540974
 30
0.0
  0
VERTEX
  5
10B
330
FD
100
AcDbEntity
  8
\U+838C\U+8343\U+8384\U+815B_1
 62
     7
100
AcDbVertex
100
AcDb2dVertex
 10
205.2732584122234
 20
149.8222072650618
 30
0.0
  0
VERTEX
  5
10C
330
FD
100
AcDbEntity
  8
\U+838C\U+8343\U+8384\U+815B_1
 62
     7
100
AcDbVertex
100
AcDb2dVertex
 10
201.9780245805819
 20
151.1041272951233
 30
0.0
  0
VERTEX
  5
10D
330
FD
100
AcDbEntity
  8
\U+838C\U+8343\U+8384\U+815B_1
 62
     7
100
AcDbVertex
100
AcDb2dVertex
 10
198.6218125588515
 20
152.2632296711356
 30
0.0
  0
VERTEX
  5
10E
330
FD
100
AcDbEntity
  8
\U+838C\U+8343\U+8384\U+815B_1
 62
     7
100
AcDbVertex
100
AcDb2dVertex
 10
195.2039333279351
 20
153.3622151309303
 30
0.0
  0
VERTEX
  5
10F
330
FD
100
AcDbEntity
  8
\U+838C\U+8343\U+8384\U+815B_1
 62
     7
100
AcDbVertex
100
AcDb2dVertex
 10
191.6644422263894
 20
154.3383829366758
 30
0.0
  0
VERTEX
  5
110
330
FD
100
AcDbEntity
  8
\U+838C\U+8343\U+8384\U+815B_1
 62
     7
100
AcDbVertex
100
AcDb2dVertex
 10
188.1249511248438
 20
155.3145507424214
 30
0.0
  0
VERTEX
  5
111
330
FD
100
AcDbEntity
  8
\U+838C\U+8343\U+8384\U+815B_1
 62
     7
100
AcDbVertex
100
AcDb2dVertex
 10
184.4635036431202
 20
156.1691066775376
 30
0.0
  0
VERTEX
  5
112
330
FD
100
AcDbEntity
  8
\U+838C\U+8343\U+8384\U+815B_1
 62
     7
100
AcDbVertex
100
AcDb2dVertex
 10
180.8020561613967
 20
156.9015339777017
 30
0.0
  0
VERTEX
  5
113
330
FD
100
AcDbEntity
  8
\U+838C\U+8343\U+8384\U+815B_1
 62
     7
100
AcDbVertex
100
AcDb2dVertex
 10
177.0796304895843
 20
157.5726385782284
 30
0.0
  0
VERTEX
  5
114
330
FD
100
AcDbEntity
  8
\U+838C\U+8343\U+8384\U+815B_1
 62
     7
100
AcDbVertex
100
AcDb2dVertex
 10
173.2958821181344
 20
158.1829372434404
 30
0.0
  0
VERTEX
  5
115
330
FD
100
AcDbEntity
  8
\U+838C\U+8343\U+8384\U+815B_1
 62
     7
100
AcDbVertex
100
AcDb2dVertex
 10
169.4515000661441
 20
158.7324299733377
 30
0.0
  0
VERTEX
  5
116
330
FD
100
AcDbEntity
  8
\U+838C\U+8343\U+8384\U+815B_1
 62
     7
100
AcDbVertex
100
AcDb2dVertex
 10
165.6064289950567
 20
159.1596218135087
 30
0.0
  0
VERTEX
  5
117
330
FD
100
AcDbEntity
  8
\U+838C\U+8343\U+8384\U+815B_1
 62
     7
100
AcDbVertex
100
AcDb2dVertex
 10
161.7010687529775
 20
159.4648572735018
 30
0.0
  0
VERTEX
  5
118
330
FD
100
AcDbEntity
  8
\U+838C\U+8343\U+8384\U+815B_1
 62
     7
100
AcDbVertex
100
AcDb2dVertex
 10
157.7950194918012
 20
159.7085977790833
 30
0.0
  0
VERTEX
  5
119
330
FD
100
AcDbEntity
  8
\U+838C\U+8343\U+8384\U+815B_1
 62
     7
100
AcDbVertex
100
AcDb2dVertex
 10
153.8900037592706
 20
159.89153234935
 30
0.0
  0
VERTEX
  5
11A
330
FD
100
AcDbEntity
  8
\U+838C\U+8343\U+8384\U+815B_1
 62
     7
100
AcDbVertex
100
AcDb2dVertex
 10
149.9839544980943
 20
159.9528550489875
 30
0.0
  0
VERTEX
  5
11B
330
FD
100
AcDbEntity
  8
\U+838C\U+8343\U+8384\U+815B_1
 62
     7
100
AcDbVertex
100
AcDb2dVertex
 10
146.0780774916923
 20
159.9528550489875
 30
0.0
  0
VERTEX
  5
11C
330
FD
100
AcDbEntity
  8
\U+838C\U+8343\U+8384\U+815B_1
 62
     7
100
AcDbVertex
100
AcDb2dVertex
 10
142.1728895043873
 20
159.89153234935
 30
0.0
  0
VERTEX
  5
11D
330
FD
100
AcDbEntity
  8
\U+838C\U+8343\U+8384\U+815B_1
 62
     7
100
AcDbVertex
100
AcDb2dVertex
 10
138.2670124979853
 20
159.6477918437686
 30
0.0
  0
VERTEX
  5
11E
330
FD
100
AcDbEntity
  8
\U+838C\U+8343\U+8384\U+815B_1
 62
     7
100
AcDbVertex
100
AcDb2dVertex
 10
134.3616522559061
 20
159.4033623190901
 30
0.0
  0
VERTEX
  5
11F
330
FD
100
AcDbEntity
  8
\U+838C\U+8343\U+8384\U+815B_1
 62
     7
100
AcDbVertex
100
AcDb2dVertex
 10
130.4557752495041
 20
159.0374931785566
 30
0.0
  0
VERTEX
  5
120
330
FD
100
AcDbEntity
  8
\U+838C\U+8343\U+8384\U+815B_1
 62
     7
100
AcDbVertex
100
AcDb2dVertex
 10
126.6112209427396
 20
158.6101290836114
 30
0.0
  0
VERTEX
  5
121
330
FD
100
AcDbEntity
  8
\U+838C\U+8343\U+8384\U+815B_1
 62
     7
100
AcDbVertex
100
AcDb2dVertex
 10
122.8274725712897
 20
158.0608086084883
 30
0.0
  0
VERTEX
  5
122
330
FD
100
AcDbEntity
  8
\U+838C\U+8343\U+8384\U+815B_1
 62
     7
100
AcDbVertex
100
AcDb2dVertex
 10
119.043896454614
 20
157.4505099432763
 30
0.0
  0
VERTEX
  5
123
330
FD
100
AcDbEntity
  8
\U+838C\U+8343\U+8384\U+815B_1
 62
     7
100
AcDbVertex
100
AcDb2dVertex
 10
115.3214707828016
 20
156.7185994074349
 30
0.0
  0
VERTEX
  5
124
330
FD
100
AcDbEntity
  8
\U+838C\U+8343\U+8384\U+815B_1
 62
     7
100
AcDbVertex
100
AcDb2dVertex
 10
111.6598510463038
 20
155.9248494076334
 30
0.0
  0
VERTEX
  5
125
330
FD
100
AcDbEntity
  8
\U+838C\U+8343\U+8384\U+815B_1
 62
     7
100
AcDbVertex
100
AcDb2dVertex
 10
107.9984035645803
 20
155.0708102368399
 30
0.0
  0
VERTEX
  5
126
330
FD
100
AcDbEntity
  8
\U+838C\U+8343\U+8384\U+815B_1
 62
     7
100
AcDbVertex
100
AcDb2dVertex
 10
104.4590847178088
 20
154.0941256667716
 30
0.0
  0
VERTEX
  5
127
330
FD
100
AcDbEntity
  8
\U+838C\U+8343\U+8384\U+815B_1
 62
     7
100
AcDbVertex
100
AcDb2dVertex
 10
100.9803995515778
 20
153.0571519257114
 30
0.0
  0
VERTEX
  5
128
330
FD
100
AcDbEntity
  8
\U+838C\U+8343\U+8384\U+815B_1
 62
     7
100
AcDbVertex
100
AcDb2dVertex
 10
97.56269257543572
 20
151.9581664659167
 30
0.0
  0
VERTEX
  5
129
330
FD
100
AcDbEntity
  8
\U+838C\U+8343\U+8384\U+815B_1
 62
     7
100
AcDbVertex
100
AcDb2dVertex
 10
94.2061360441568
 20
150.7990640899044
 30
0.0
  0
VERTEX
  5
12A
330
FD
100
AcDbEntity
  8
\U+838C\U+8343\U+8384\U+815B_1
 62
     7
100
AcDbVertex
100
AcDb2dVertex
 10
90.97188040260426
 20
149.5171440598429
 30
0.0
  0
VERTEX
  5
12B
330
FD
100
AcDbEntity
  8
\U+838C\U+8343\U+8384\U+815B_1
 62
     7
100
AcDbVertex
100
AcDb2dVertex
 10
87.79843069636637
 20
148.1751071135639
 30
0.0
  0
VERTEX
  5
12C
330
FD
100
AcDbEntity
  8
\U+838C\U+8343\U+8384\U+815B_1
 62
     7
100
AcDbVertex
100
AcDb2dVertex
 10
84.68647594454019
 20
146.770886193776
 30
0.0
  0
VERTEX
  5
12D
330
FD
100
AcDbEntity
  8
\U+838C\U+8343\U+8384\U+815B_1
 62
     7
100
AcDbVertex
100
AcDb2dVertex
 10
81.69596080856907
 20
145.3067206125449
 30
0.0
  0
VERTEX
  5
12E
330
FD
100
AcDbEntity
  8
\U+838C\U+8343\U+8384\U+815B_1
 62
     7
100
AcDbVertex
100
AcDb2dVertex
 10
78.8282633266471
 20
143.781060076902
 30
0.0
  0
VERTEX
  5
12F
330
FD
100
AcDbEntity
  8
\U+838C\U+8343\U+8384\U+815B_1
 62
     7
100
AcDbVertex
100
AcDb2dVertex
 10
76.08200546058019
 20
142.1940768416216
 30
0.0
  0
VERTEX
  5
130
330
FD
100
AcDbEntity
  8
\U+838C\U+8343\U+8384\U+815B_1
 62
     7
100
AcDbVertex
100
AcDb2dVertex
 10
73.39672578460221
 20
140.485481735712
 30
0.0
  0
VERTEX
  5
131
330
FD
100
AcDbEntity
  8
\U+838C\U+8343\U+8384\U+815B_1
 62
     7
100
AcDbVertex
100
AcDb2dVertex
 10
70.83340248880207
 20
138.7768866298023
 30
0.0
  0
VERTEX
  5
132
330
FD
100
AcDbEntity
  8
\U+838C\U+8343\U+8384\U+815B_1
 62
     7
100
AcDbVertex
100
AcDb2dVertex
 10
68.45387503714001
 20
137.0067965694809
 30
0.0
  0
VERTEX
  5
133
330
FD
100
AcDbEntity
  8
\U+838C\U+8343\U+8384\U+815B_1
 62
     7
100
AcDbVertex
100
AcDb2dVertex
 10
66.13429224692129
 20
135.1760728286192
 30
0.0
  0
VERTEX
  5
134
330
FD
100
AcDbEntity
  8
\U+838C\U+8343\U+8384\U+815B_1
 62
     7
100
AcDbVertex
100
AcDb2dVertex
 10
63.93769936552599
 20
133.2845431524428
 30
0.0
  0
VERTEX
  5
135
330
FD
100
AcDbEntity
  8
\U+838C\U+8343\U+8384\U+815B_1
 62
     7
100
AcDbVertex
100
AcDb2dVertex
 10
61.86289060953428
 20
131.3930134762663
 30
0.0
  0
VERTEX
  5
136
330
FD
100
AcDbEntity
  8
\U+838C\U+8343\U+8384\U+815B_1
 62
     7
100
AcDbVertex
100
AcDb2dVertex
 10
59.97101642380933
 20
129.3786661460408
 30
0.0
  0
VERTEX
  5
137
330
FD
100
AcDbEntity
  8
\U+838C\U+8343\U+8384\U+815B_1
 62
     7
100
AcDbVertex
100
AcDb2dVertex
 10
58.68944090329639
 20
127.97513424535
 30
0.0
  0
SEQEND
  5
138
330
FD
100
AcDbEntity
  8
\U+838C\U+8343\U+8384\U+815B_1
  0
ENDBLK
  5
FC
330
F9
100
AcDbEntity
  8
0
100
AcDbBlockEnd
  0
BLOCK
  5
13B
330
139
100
AcDbEntity
  8
0
100
AcDbBlockBegin
  2
BLOCK_11
 70
     0
 71
     0
 10
0.0
 20
0.0
 30
0.0
  3
BLOCK_11
  1

  0
POLYLINE
  5
13D
330
139
100
AcDbEntity
  8
\U+838C\U+8343\U+8384\U+815B_1
 62
     7
100
AcDb2dPolyline
 66
     1
 10
0.0
 20
0.0
 30
0.0
  0
VERTEX
  5
13E
330
13D
100
AcDbEntity
  8
\U+838C\U+8343\U+8384\U+815B_1
 62
     7
100
AcDbVertex
100
AcDb2dVertex
 10
48.37603080387822
 20
95.8759738258574
 30
0.0
  0
VERTEX
  5
13F
330
13D
100
AcDbEntity
  8
\U+838C\U+8343\U+8384\U+815B_1
 62
     7
100
AcDbVertex
100
AcDb2dVertex
 10
48.37603080387822
 20
95.93660750639779
 30
0.0
  0
VERTEX
  5
140
330
13D
100
AcDbEntity
  8
\U+838C\U+8343\U+8384\U+815B_1
 62
     7
100
AcDbVertex
100
AcDb2dVertex
 10
48.00981715379616
 20
98.13388940689015
 30
0.0
  0
VERTEX
  5
141
330
13D
100
AcDbEntity
  8
\U+838C\U+8343\U+8384\U+815B_1
 62
     7
100
AcDbVertex
100
AcDb2dVertex
 10
47.82688258352939
 20
100.3911159688258
 30
0.0
  0
VERTEX
  5
142
330
13D
100
AcDbEntity
  8
\U+838C\U+8343\U+8384\U+815B_1
 62
     7
100
AcDbVertex
100
AcDb2dVertex
 10
47.82688258352939
 20
102.6497205689556
 30
0.0
  0
VERTEX
  5
143
330
13D
100
AcDbEntity
  8
\U+838C\U+8343\U+8384\U+815B_1
 62
     7
100
AcDbVertex
100
AcDb2dVertex
 10
47.88803302839258
 20
104.9076361499884
 30
0.0
  0
VERTEX
  5
144
330
13D
100
AcDbEntity
  8
\U+838C\U+8343\U+8384\U+815B_1
 62
     7
100
AcDbVertex
100
AcDb2dVertex
 10
48.19309623361145
 20
107.1657239857954
 30
0.0
  0
VERTEX
  5
145
330
13D
100
AcDbEntity
  8
\U+838C\U+8343\U+8384\U+815B_1
 62
     7
100
AcDbVertex
100
AcDb2dVertex
 10
48.62011581900817
 20
109.4236395668281
 30
0.0
  0
VERTEX
  5
146
330
13D
100
AcDbEntity
  8
\U+838C\U+8343\U+8384\U+815B_1
 62
     7
100
AcDbVertex
100
AcDb2dVertex
 10
49.16926403935699
 20
111.6204047029977
 30
0.0
  0
VERTEX
  5
147
330
13D
100
AcDbEntity
  8
\U+838C\U+8343\U+8384\U+815B_1
 62
     7
100
AcDbVertex
100
AcDb2dVertex
 10
49.90169133952111
 20
113.8784925388047
 30
0.0
  0
VERTEX
  5
148
330
13D
100
AcDbEntity
  8
\U+838C\U+8343\U+8384\U+815B_1
 62
     7
100
AcDbVertex
100
AcDb2dVertex
 10
50.75607501986307
 20
116.0750854202
 30
0.0
  0
VERTEX
  5
149
330
13D
100
AcDbEntity
  8
\U+838C\U+8343\U+8384\U+815B_1
 62
     7
100
AcDbVertex
100
AcDb2dVertex
 10
51.73241508038287
 20
118.2110446210549
 30
0.0
  0
VERTEX
  5
14A
330
13D
100
AcDbEntity
  8
\U+838C\U+8343\U+8384\U+815B_1
 62
     7
100
AcDbVertex
100
AcDb2dVertex
 10
52.8918619659437
 20
120.4083265215472
 30
0.0
  0
VERTEX
  5
14B
330
13D
100
AcDbEntity
  8
\U+838C\U+8343\U+8384\U+815B_1
 62
     7
100
AcDbVertex
100
AcDb2dVertex
 10
54.23458793131983
 20
122.5441134676279
 30
0.0
  0
VERTEX
  5
14C
330
13D
100
AcDbEntity
  8
\U+838C\U+8343\U+8384\U+815B_1
 62
     7
100
AcDbVertex
100
AcDb2dVertex
 10
55.63811983201061
 20
124.6187499688453
 30
0.0
  0
VERTEX
  5
14D
330
13D
100
AcDbEntity
  8
\U+838C\U+8343\U+8384\U+815B_1
 62
     7
100
AcDbVertex
100
AcDb2dVertex
 10
57.22475855774243
 20
126.6939032343856
 30
0.0
  0
VERTEX
  5
14E
330
13D
100
AcDbEntity
  8
\U+838C\U+8343\U+8384\U+815B_1
 62
     7
100
AcDbVertex
100
AcDb2dVertex
 10
58.93335366365208
 20
128.7075615455141
 30
0.0
  0
VERTEX
  5
14F
330
13D
100
AcDbEntity
  8
\U+838C\U+8343\U+8384\U+815B_1
 62
     7
100
AcDbVertex
100
AcDb2dVertex
 10
59.42186820346051
 20
129.195731575774
 30
0.0
  0
SEQEND
  5
150
330
13D
100
AcDbEntity
  8
\U+838C\U+8343\U+8384\U+815B_1
  0
ENDBLK
  5
13C
330
139
100
AcDbEntity
  8
0
100
AcDbBlockEnd
  0
BLOCK
  5
153
330
151
100
AcDbEntity
  8
0
100
AcDbBlockBegin
  2
BLOCK_12
 70
     0
 71
     0
 10
0.0
 20
0.0
 30
0.0
  3
BLOCK_12
  1

  0
POLYLINE
  5
155
330
151
100
AcDbEntity
  8
\U+838C\U+8343\U+8384\U+815B_1
 62
     7
100
AcDb2dPolyline
 66
     1
 10
0.0
 20
0.0
 30
0.0
  0
VERTEX
  5
156
330
155
100
AcDbEntity
  8
\U+838C\U+8343\U+8384\U+815B_1
 62
     7
100
AcDbVertex
100
AcDb2dVertex
 10
237.6168483563944
 20
129.195731575774
 30
0.0
  0
VERTEX
  5
157
330
155
100
AcDbEntity
  8
\U+838C\U+8343\U+8384\U+815B_1
 62
     7
100
AcDbVertex
100
AcDb2dVertex
 10
238.9594020669963
 20
127.6700710401311
 30
0.0
  0
VERTEX
  5
158
330
155
100
AcDbEntity
  8
\U+838C\U+8343\U+8384\U+815B_1
 62
     7
100
AcDbVertex
100
AcDb2dVertex
 10
240.6071912375913
 20
125.6562404742283
 30
0.0
  0
VERTEX
  5
159
330
155
100
AcDbEntity
  8
\U+838C\U+8343\U+8384\U+815B_1
 62
     7
100
AcDbVertex
100
AcDb2dVertex
 10
242.1330240280084
 20
123.5810872086881
 30
0.0
  0
VERTEX
  5
15A
330
155
100
AcDbEntity
  8
\U+838C\U+8343\U+8384\U+815B_1
 62
     7
100
AcDbVertex
100
AcDb2dVertex
 10
243.4755777386103
 20
121.4453002626074
 30
0.0
  0
VERTEX
  5
15B
330
155
100
AcDbEntity
  8
\U+838C\U+8343\U+8384\U+815B_1
 62
     7
100
AcDbVertex
100
AcDb2dVertex
 10
244.7568087495747
 20
119.3093410617525
 30
0.0
  0
VERTEX
  5
15C
330
155
100
AcDbEntity
  8
\U+838C\U+8343\U+8384\U+815B_1
 62
     7
100
AcDbVertex
100
AcDb2dVertex
 10
245.7944715097319
 20
117.1733818608976
 30
0.0
  0
VERTEX
  5
15D
330
155
100
AcDbEntity
  8
\U+838C\U+8343\U+8384\U+815B_1
 62
     7
100
AcDbVertex
100
AcDb2dVertex
 10
246.7708115702518
 20
114.9767889795023
 30
0.0
  0
VERTEX
  5
15E
330
155
100
AcDbEntity
  8
\U+838C\U+8343\U+8384\U+815B_1
 62
     7
100
AcDbVertex
100
AcDb2dVertex
 10
247.5645615700533
 20
112.7800238433328
 30
0.0
  0
VERTEX
  5
15F
330
155
100
AcDbEntity
  8
\U+838C\U+8343\U+8384\U+815B_1
 62
     7
100
AcDbVertex
100
AcDb2dVertex
 10
248.1746879804911
 20
110.5219360075258
 30
0.0
  0
VERTEX
  5
160
330
155
100
AcDbEntity
  8
\U+838C\U+8343\U+8384\U+815B_1
 62
     7
100
AcDbVertex
100
AcDb2dVertex
 10
248.662858010751
 20
108.3246541070334
 30
0.0
  0
VERTEX
  5
161
330
155
100
AcDbEntity
  8
\U+838C\U+8343\U+8384\U+815B_1
 62
     7
100
AcDbVertex
100
AcDb2dVertex
 10
249.0287271512845
 20
106.0670830355492
 30
0.0
  0
VERTEX
  5
162
330
155
100
AcDbEntity
  8
\U+838C\U+8343\U+8384\U+815B_1
 62
     7
100
AcDbVertex
100
AcDb2dVertex
 10
249.2116617215513
 20
103.8093397092907
 30
0.0
  0
VERTEX
  5
163
330
155
100
AcDbEntity
  8
\U+838C\U+8343\U+8384\U+815B_1
 62
     7
100
AcDbVertex
100
AcDb2dVertex
 10
249.2729844211887
 20
101.551424128258
 30
0.0
  0
VERTEX
  5
164
330
155
100
AcDbEntity
  8
\U+838C\U+8343\U+8384\U+815B_1
 62
     7
100
AcDbVertex
100
AcDb2dVertex
 10
249.1510280410109
 20
99.29281952812819
 30
0.0
  0
VERTEX
  5
165
330
155
100
AcDbEntity
  8
\U+838C\U+8343\U+8384\U+815B_1
 62
     7
100
AcDbVertex
100
AcDb2dVertex
 10
248.8457925810177
 20
97.03490394709544
 30
0.0
  0
VERTEX
  5
166
330
155
100
AcDbEntity
  8
\U+838C\U+8343\U+8384\U+815B_1
 62
     7
100
AcDbVertex
100
AcDb2dVertex
 10
248.4186007408468
 20
94.77767738515975
 30
0.0
  0
VERTEX
  5
167
330
155
100
AcDbEntity
  8
\U+838C\U+8343\U+8384\U+815B_1
 62
     7
100
AcDbVertex
100
AcDb2dVertex
 10
247.8694525204979
 20
92.5803954846674
 30
0.0
  0
VERTEX
  5
168
330
155
100
AcDbEntity
  8
\U+838C\U+8343\U+8384\U+815B_1
 62
     7
100
AcDbVertex
100
AcDb2dVertex
 10
247.1370252203338
 20
90.3217908845376
 30
0.0
  0
VERTEX
  5
169
330
155
100
AcDbEntity
  8
\U+838C\U+8343\U+8384\U+815B_1
 62
     7
100
AcDbVertex
100
AcDb2dVertex
 10
246.2826415399919
 20
88.12519800314232
 30
0.0
  0
VERTEX
  5
16A
330
155
100
AcDbEntity
  8
\U+838C\U+8343\U+8384\U+815B_1
 62
     7
100
AcDbVertex
100
AcDb2dVertex
 10
245.306301479472
 20
85.98923880228742
 30
0.0
  0
VERTEX
  5
16B
330
155
100
AcDbEntity
  8
\U+838C\U+8343\U+8384\U+815B_1
 62
     7
100
AcDbVertex
100
AcDb2dVertex
 10
244.146682339137
 20
83.79264592089211
 30
0.0
  0
VERTEX
  5
16C
330
155
100
AcDbEntity
  8
\U+838C\U+8343\U+8384\U+815B_1
 62
     7
100
AcDbVertex
100
AcDb2dVertex
 10
242.8654513281725
 20
81.71800941967467
 30
0.0
  0
VERTEX
  5
16D
330
155
100
AcDbEntity
  8
\U+838C\U+8343\U+8384\U+815B_1
 62
     7
100
AcDbVertex
100
AcDb2dVertex
 10
241.4005967278443
 20
79.58205021881977
 30
0.0
  0
VERTEX
  5
16E
330
155
100
AcDbEntity
  8
\U+838C\U+8343\U+8384\U+815B_1
 62
     7
100
AcDbVertex
100
AcDb2dVertex
 10
239.8141302568868
 20
77.50672469850527
 30
0.0
  0
VERTEX
  5
16F
330
155
100
AcDbEntity
  8
\U+838C\U+8343\U+8384\U+815B_1
 62
     7
100
AcDbVertex
100
AcDb2dVertex
 10
238.1053628962028
 20
75.49272187782822
 30
0.0
  0
VERTEX
  5
170
330
155
100
AcDbEntity
  8
\U+838C\U+8343\U+8384\U+815B_1
 62
     7
100
AcDbVertex
100
AcDb2dVertex
 10
236.2133164557036
 20
73.54004175678861
 30
0.0
  0
VERTEX
  5
171
330
155
100
AcDbEntity
  8
\U+838C\U+8343\U+8384\U+815B_1
 62
     7
100
AcDbVertex
100
AcDb2dVertex
 10
234.2602918251155
 20
71.58736163574899
 30
0.0
  0
VERTEX
  5
172
330
155
100
AcDbEntity
  8
\U+838C\U+8343\U+8384\U+815B_1
 62
     7
100
AcDbVertex
100
AcDb2dVertex
 10
232.1243326242606
 20
69.69531519524979
 30
0.0
  0
VERTEX
  5
173
330
155
100
AcDbEntity
  8
\U+838C\U+8343\U+8384\U+815B_1
 62
     7
100
AcDbVertex
100
AcDb2dVertex
 10
229.8671060623249
 20
67.86459145438802
 30
0.0
  0
VERTEX
  5
174
330
155
100
AcDbEntity
  8
\U+838C\U+8343\U+8384\U+815B_1
 62
     7
100
AcDbVertex
100
AcDb2dVertex
 10
227.5475232721062
 20
66.03386771352626
 30
0.0
  0
VERTEX
  5
175
330
155
100
AcDbEntity
  8
\U+838C\U+8343\U+8384\U+815B_1
 62
     7
100
AcDbVertex
100
AcDb2dVertex
 10
225.0456949307178
 20
64.32510035284234
 30
0.0
  0
VERTEX
  5
176
330
155
100
AcDbEntity
  8
\U+838C\U+8343\U+8384\U+815B_1
 62
     7
100
AcDbVertex
100
AcDb2dVertex
 10
224.1909667408273
 20
63.71531845195312
 30
0.0
  0
SEQEND
  5
177
330
155
100
AcDbEntity
  8
\U+838C\U+8343\U+8384\U+815B_1
  0
ENDBLK
  5
154
330
151
100
AcDbEntity
  8
0
100
AcDbBlockEnd
  0
BLOCK
  5
17A
330
178
100
AcDbEntity
  8
0
100
AcDbBlockBegin
  2
BLOCK_13
 70
     0
 71
     0
 10
0.0
 20
0.0
 30
0.0
  3
BLOCK_13
  1

  0
POLYLINE
  5
17C
330
178
100
AcDbEntity
  8
\U+838C\U+8343\U+8384\U+815B_1
 62
     7
100
AcDb2dPolyline
 66
     1
 10
0.0
 20
0.0
 30
0.0
  0
VERTEX
  5
17D
330
17C
100
AcDbEntity
  8
\U+838C\U+8343\U+8384\U+815B_1
 62
     7
100
AcDbVertex
100
AcDb2dVertex
 10
249.7611544514486
 20
106.3723184955423
 30
0.0
  0
VERTEX
  5
17E
330
17C
100
AcDbEntity
  8
\U+838C\U+8343\U+8384\U+815B_1
 62
     7
100
AcDbVertex
100
AcDb2dVertex
 10
249.7611544514486
 20
106.4939303661717
 30
0.0
  0
VERTEX
  5
17F
330
17C
100
AcDbEntity
  8
\U+838C\U+8343\U+8384\U+815B_1
 62
     7
100
AcDbVertex
100
AcDb2dVertex
 10
249.7005207709082
 20
108.7518459472044
 30
0.0
  0
VERTEX
  5
180
330
17C
100
AcDbEntity
  8
\U+838C\U+8343\U+8384\U+815B_1
 62
     7
100
AcDbVertex
100
AcDb2dVertex
 10
249.5168971815444
 20
111.0101060377857
 30
0.0
  0
VERTEX
  5
181
330
17C
100
AcDbEntity
  8
\U+838C\U+8343\U+8384\U+815B_1
 62
     7
100
AcDbVertex
100
AcDb2dVertex
 10
249.2116617215513
 20
113.2681938735927
 30
0.0
  0
VERTEX
  5
182
330
17C
100
AcDbEntity
  8
\U+838C\U+8343\U+8384\U+815B_1
 62
     7
100
AcDbVertex
100
AcDb2dVertex
 10
248.662858010751
 20
115.5262817093997
 30
0.0
  0
VERTEX
  5
183
330
17C
100
AcDbEntity
  8
\U+838C\U+8343\U+8384\U+815B_1
 62
     7
100
AcDbVertex
100
AcDb2dVertex
 10
248.0523870907647
 20
117.7836805261096
 30
0.0
  0
VERTEX
  5
184
330
17C
100
AcDbEntity
  8
\U+838C\U+8343\U+8384\U+815B_1
 62
     7
100
AcDbVertex
100
AcDb2dVertex
 10
247.2593261100602
 20
119.980962426602
 30
0.0
  0
VERTEX
  5
185
330
17C
100
AcDbEntity
  8
\U+838C\U+8343\U+8384\U+815B_1
 62
     7
100
AcDbVertex
100
AcDb2dVertex
 10
246.2826415399919
 20
122.1777275627716
 30
0.0
  0
VERTEX
  5
186
330
17C
100
AcDbEntity
  8
\U+838C\U+8343\U+8384\U+815B_1
 62
     7
100
AcDbVertex
100
AcDb2dVertex
 10
245.2449787798346
 20
124.3750094632639
 30
0.0
  0
VERTEX
  5
187
330
17C
100
AcDbEntity
  8
\U+838C\U+8343\U+8384\U+815B_1
 62
     7
100
AcDbVertex
100
AcDb2dVertex
 10
243.9637477688702
 20
126.5107964093445
 30
0.0
  0
VERTEX
  5
188
330
17C
100
AcDbEntity
  8
\U+838C\U+8343\U+8384\U+815B_1
 62
     7
100
AcDbVertex
100
AcDb2dVertex
 10
242.6208495487198
 20
128.6467556101994
 30
0.0
  0
VERTEX
  5
189
330
17C
100
AcDbEntity
  8
\U+838C\U+8343\U+8384\U+815B_1
 62
     7
100
AcDbVertex
100
AcDb2dVertex
 10
241.0953612678512
 20
130.7212198566426
 30
0.0
  0
VERTEX
  5
18A
330
17C
100
AcDbEntity
  8
\U+838C\U+8343\U+8384\U+815B_1
 62
     7
100
AcDbVertex
100
AcDb2dVertex
 10
239.4475720972562
 20
132.7963731221829
 30
0.0
  0
VERTEX
  5
18B
330
17C
100
AcDbEntity
  8
\U+838C\U+8343\U+8384\U+815B_1
 62
     7
100
AcDbVertex
100
AcDb2dVertex
 10
237.6168483563944
 20
134.8102036880856
 30
0.0
  0
VERTEX
  5
18C
330
17C
100
AcDbEntity
  8
\U+838C\U+8343\U+8384\U+815B_1
 62
     7
100
AcDbVertex
100
AcDb2dVertex
 10
235.7251464254437
 20
136.7630560638995
 30
0.0
  0
VERTEX
  5
18D
330
17C
100
AcDbEntity
  8
\U+838C\U+8343\U+8384\U+815B_1
 62
     7
100
AcDbVertex
100
AcDb2dVertex
 10
233.6501654146778
 20
138.7160806944877
 30
0.0
  0
VERTEX
  5
18E
330
17C
100
AcDbEntity
  8
\U+838C\U+8343\U+8384\U+815B_1
 62
     7
100
AcDbVertex
100
AcDb2dVertex
 10
231.4535725332825
 20
140.6076103706641
 30
0.0
  0
VERTEX
  5
18F
330
17C
100
AcDbEntity
  8
\U+838C\U+8343\U+8384\U+815B_1
 62
     7
100
AcDbVertex
100
AcDb2dVertex
 10
229.1346787621608
 20
142.4383341115258
 30
0.0
  0
VERTEX
  5
190
330
17C
100
AcDbEntity
  8
\U+838C\U+8343\U+8384\U+815B_1
 62
     7
100
AcDbVertex
100
AcDb2dVertex
 10
226.6934841013127
 20
144.2084241718472
 30
0.0
  0
VERTEX
  5
191
330
17C
100
AcDbEntity
  8
\U+838C\U+8343\U+8384\U+815B_1
 62
     7
100
AcDbVertex
100
AcDb2dVertex
 10
224.1303330602869
 20
145.9170192777569
 30
0.0
  0
VERTEX
  5
192
330
17C
100
AcDbEntity
  8
\U+838C\U+8343\U+8384\U+815B_1
 62
     7
100
AcDbVertex
100
AcDb2dVertex
 10
221.5062038291721
 20
147.5648084483519
 30
0.0
  0
VERTEX
  5
193
330
17C
100
AcDbEntity
  8
\U+838C\U+8343\U+8384\U+815B_1
 62
     7
100
AcDbVertex
100
AcDb2dVertex
 10
218.698795518242
 20
149.2119085998498
 30
0.0
  0
VERTEX
  5
194
330
17C
100
AcDbEntity
  8
\U+838C\U+8343\U+8384\U+815B_1
 62
     7
100
AcDbVertex
100
AcDb2dVertex
 10
215.83109803632
 20
150.7375691354927
 30
0.0
  0
VERTEX
  5
195
330
17C
100
AcDbEntity
  8
\U+838C\U+8343\U+8384\U+815B_1
 62
     7
100
AcDbVertex
100
AcDb2dVertex
 10
212.8404106455746
 20
152.2024237358209
 30
0.0
  0
VERTEX
  5
196
330
17C
100
AcDbEntity
  8
\U+838C\U+8343\U+8384\U+815B_1
 62
     7
100
AcDbVertex
100
AcDb2dVertex
 10
209.7890895742889
 20
153.6059556365117
 30
0.0
  0
VERTEX
  5
197
330
17C
100
AcDbEntity
  8
\U+838C\U+8343\U+8384\U+815B_1
 62
     7
100
AcDbVertex
100
AcDb2dVertex
 10
206.6158121228252
 20
154.9486816018878
 30
0.0
  0
VERTEX
  5
198
330
17C
100
AcDbEntity
  8
\U+838C\U+8343\U+8384\U+815B_1
 62
     7
100
AcDbVertex
100
AcDb2dVertex
 10
203.3209228007323
 20
156.2299126128522
 30
0.0
  0
VERTEX
  5
199
330
17C
100
AcDbEntity
  8
\U+838C\U+8343\U+8384\U+815B_1
 62
     7
100
AcDbVertex
100
AcDb2dVertex
 10
199.9643662694534
 20
157.3897040079616
 30
0.0
  0
VERTEX
  5
19A
330
17C
100
AcDbEntity
  8
\U+838C\U+8343\U+8384\U+815B_1
 62
     7
100
AcDbVertex
100
AcDb2dVertex
 10
196.546487038537
 20
158.4880004486592
 30
0.0
  0
VERTEX
  5
19B
330
17C
100
AcDbEntity
  8
\U+838C\U+8343\U+8384\U+815B_1
 62
     7
100
AcDbVertex
100
AcDb2dVertex
 10
193.0679741270802
 20
159.5256632088165
 30
0.0
  0
VERTEX
  5
19C
330
17C
100
AcDbEntity
  8
\U+838C\U+8343\U+8384\U+815B_1
 62
     7
100
AcDbVertex
100
AcDb2dVertex
 10
189.5284830255345
 20
160.501831014562
 30
0.0
  0
VERTEX
  5
19D
330
17C
100
AcDbEntity
  8
\U+838C\U+8343\U+8384\U+815B_1
 62
     7
100
AcDbVertex
100
AcDb2dVertex
 10
185.9283582434485
 20
161.4171928849929
 30
0.0
  0
VERTEX
  5
19E
330
17C
100
AcDbEntity
  8
\U+838C\U+8343\U+8384\U+815B_1
 62
     7
100
AcDbVertex
100
AcDb2dVertex
 10
182.2055880620875
 20
162.2109428847945
 30
0.0
  0
VERTEX
  5
19F
330
17C
100
AcDbEntity
  8
\U+838C\U+8343\U+8384\U+815B_1
 62
     7
100
AcDbVertex
100
AcDb2dVertex
 10
178.4831623902751
 20
162.8820474853212
 30
0.0
  0
VERTEX
  5
1A0
330
17C
100
AcDbEntity
  8
\U+838C\U+8343\U+8384\U+815B_1
 62
     7
100
AcDbVertex
100
AcDb2dVertex
 10
174.6994140188252
 20
163.5529798310736
 30
0.0
  0
VERTEX
  5
1A1
330
17C
100
AcDbEntity
  8
\U+838C\U+8343\U+8384\U+815B_1
 62
     7
100
AcDbVertex
100
AcDb2dVertex
 10
170.9156656473752
 20
164.1024725609709
 30
0.0
  0
VERTEX
  5
1A2
330
17C
100
AcDbEntity
  8
\U+838C\U+8343\U+8384\U+815B_1
 62
     7
100
AcDbVertex
100
AcDb2dVertex
 10
167.071283595385
 20
164.5298366559162
 30
0.0
  0
VERTEX
  5
1A3
330
17C
100
AcDbEntity
  8
\U+838C\U+8343\U+8384\U+815B_1
 62
     7
100
AcDbVertex
100
AcDb2dVertex
 10
163.1652343342087
 20
164.8957057964497
 30
0.0
  0
VERTEX
  5
1A4
330
17C
100
AcDbEntity
  8
\U+838C\U+8343\U+8384\U+815B_1
 62
     7
100
AcDbVertex
100
AcDb2dVertex
 10
159.3208522822184
 20
165.2007690016686
 30
0.0
  0
VERTEX
  5
1A5
330
17C
100
AcDbEntity
  8
\U+838C\U+8343\U+8384\U+815B_1
 62
     7
100
AcDbVertex
100
AcDb2dVertex
 10
155.4154920401392
 20
165.3838758267096
 30
0.0
  0
VERTEX
  5
1A6
330
17C
100
AcDbEntity
  8
\U+838C\U+8343\U+8384\U+815B_1
 62
     7
100
AcDbVertex
100
AcDb2dVertex
 10
151.4488090984225
 20
165.5060044616617
 30
0.0
  0
VERTEX
  5
1A7
330
17C
100
AcDbEntity
  8
\U+838C\U+8343\U+8384\U+815B_1
 62
     7
100
AcDbVertex
100
AcDb2dVertex
 10
147.5429320920205
 20
165.5060044616617
 30
0.0
  0
VERTEX
  5
1A8
330
17C
100
AcDbEntity
  8
\U+838C\U+8343\U+8384\U+815B_1
 62
     7
100
AcDbVertex
100
AcDb2dVertex
 10
143.6370550856185
 20
165.445198526347
 30
0.0
  0
VERTEX
  5
1A9
330
17C
100
AcDbEntity
  8
\U+838C\U+8343\U+8384\U+815B_1
 62
     7
100
AcDbVertex
100
AcDb2dVertex
 10
139.6703721439019
 20
165.3230698913949
 30
0.0
  0
VERTEX
  5
1AA
330
17C
100
AcDbEntity
  8
\U+838C\U+8343\U+8384\U+815B_1
 62
     7
100
AcDbVertex
100
AcDb2dVertex
 10
135.7651841565969
 20
165.0786403667165
 30
0.0
  0
VERTEX
  5
1AB
330
17C
100
AcDbEntity
  8
\U+838C\U+8343\U+8384\U+815B_1
 62
     7
100
AcDbVertex
100
AcDb2dVertex
 10
131.9206298498324
 20
164.7127712261829
 30
0.0
  0
VERTEX
  5
1AC
330
17C
100
AcDbEntity
  8
\U+838C\U+8343\U+8384\U+815B_1
 62
     7
100
AcDbVertex
100
AcDb2dVertex
 10
128.075558778745
 20
164.2854071312377
 30
0.0
  0
VERTEX
  5
1AD
330
17C
100
AcDbEntity
  8
\U+838C\U+8343\U+8384\U+815B_1
 62
     7
100
AcDbVertex
100
AcDb2dVertex
 10
124.2310044719805
 20
163.7974093557521
 30
0.0
  0
VERTEX
  5
1AE
330
17C
100
AcDbEntity
  8
\U+838C\U+8343\U+8384\U+815B_1
 62
     7
100
AcDbVertex
100
AcDb2dVertex
 10
120.4472561005306
 20
163.2479166258547
 30
0.0
  0
VERTEX
  5
1AF
330
17C
100
AcDbEntity
  8
\U+838C\U+8343\U+8384\U+815B_1
 62
     7
100
AcDbVertex
100
AcDb2dVertex
 10
116.6641967481777
 20
162.576812025328
 30
0.0
  0
VERTEX
  5
1B0
330
17C
100
AcDbEntity
  8
\U+838C\U+8343\U+8384\U+815B_1
 62
     7
100
AcDbVertex
100
AcDb2dVertex
 10
113.0025770116799
 20
161.7835787898493
 30
0.0
  0
VERTEX
  5
1B1
330
17C
100
AcDbEntity
  8
\U+838C\U+8343\U+8384\U+815B_1
 62
     7
100
AcDbVertex
100
AcDb2dVertex
 10
109.3411295299564
 20
160.9905178091447
 30
0.0
  0
VERTEX
  5
1B2
330
17C
100
AcDbEntity
  8
\U+838C\U+8343\U+8384\U+815B_1
 62
     7
100
AcDbVertex
100
AcDb2dVertex
 10
105.7403157287733
 20
160.0136609843021
 30
0.0
  0
VERTEX
  5
1B3
330
17C
100
AcDbEntity
  8
\U+838C\U+8343\U+8384\U+815B_1
 62
     7
100
AcDbVertex
100
AcDb2dVertex
 10
102.2009968820018
 20
159.0374931785566
 30
0.0
  0
VERTEX
  5
1B4
330
17C
100
AcDbEntity
  8
\U+838C\U+8343\U+8384\U+815B_1
 62
     7
100
AcDbVertex
100
AcDb2dVertex
 10
98.78311765108548
 20
158.0000026731736
 30
0.0
  0
VERTEX
  5
1B5
330
17C
100
AcDbEntity
  8
\U+838C\U+8343\U+8384\U+815B_1
 62
     7
100
AcDbVertex
100
AcDb2dVertex
 10
95.36592743926616
 20
156.8402112780643
 30
0.0
  0
VERTEX
  5
1B6
330
17C
100
AcDbEntity
  8
\U+838C\U+8343\U+8384\U+815B_1
 62
     7
100
AcDbVertex
100
AcDb2dVertex
 10
92.07034909807616
 20
155.6196139476402
 30
0.0
  0
VERTEX
  5
1B7
330
17C
100
AcDbEntity
  8
\U+838C\U+8343\U+8384\U+815B_1
 62
     7
100
AcDbVertex
100
AcDb2dVertex
 10
88.83609345652361
 20
154.2775770013612
 30
0.0
  0
VERTEX
  5
1B8
330
17C
100
AcDbEntity
  8
\U+838C\U+8343\U+8384\U+815B_1
 62
     7
100
AcDbVertex
100
AcDb2dVertex
 10
85.72396644992318
 20
152.934851035985
 30
0.0
  0
VERTEX
  5
1B9
330
17C
100
AcDbEntity
  8
\U+838C\U+8343\U+8384\U+815B_1
 62
     7
100
AcDbVertex
100
AcDb2dVertex
 10
82.6726453786374
 20
151.4699964356568
 30
0.0
  0
VERTEX
  5
1BA
330
17C
100
AcDbEntity
  8
\U+838C\U+8343\U+8384\U+815B_1
 62
     7
100
AcDbVertex
100
AcDb2dVertex
 10
79.74362519707799
 20
149.9443359000139
 30
0.0
  0
VERTEX
  5
1BB
330
17C
100
AcDbEntity
  8
\U+838C\U+8343\U+8384\U+815B_1
 62
     7
100
AcDbVertex
100
AcDb2dVertex
 10
76.93604463137363
 20
148.418675364371
 30
0.0
  0
VERTEX
  5
1BC
330
17C
100
AcDbEntity
  8
\U+838C\U+8343\U+8384\U+815B_1
 62
     7
100
AcDbVertex
100
AcDb2dVertex
 10
74.18978676530672
 20
146.770886193776
 30
0.0
  0
VERTEX
  5
1BD
330
17C
100
AcDbEntity
  8
\U+838C\U+8343\U+8384\U+815B_1
 62
     7
100
AcDbVertex
100
AcDb2dVertex
 10
71.62663572428085
 20
145.0622910878664
 30
0.0
  0
VERTEX
  5
1BE
330
17C
100
AcDbEntity
  8
\U+838C\U+8343\U+8384\U+815B_1
 62
     7
100
AcDbVertex
100
AcDb2dVertex
 10
69.12480738289241
 20
143.3536959819567
 30
0.0
  0
VERTEX
  5
1BF
330
17C
100
AcDbEntity
  8
\U+838C\U+8343\U+8384\U+815B_1
 62
     7
100
AcDbVertex
100
AcDb2dVertex
 10
66.7445909121333
 20
141.5229722410949
 30
0.0
  0
VERTEX
  5
1C0
330
17C
100
AcDbEntity
  8
\U+838C\U+8343\U+8384\U+815B_1
 62
     7
100
AcDbVertex
100
AcDb2dVertex
 10
64.48719209542334
 20
139.6922485002332
 30
0.0
  0
VERTEX
  5
1C1
330
17C
100
AcDbEntity
  8
\U+838C\U+8343\U+8384\U+815B_1
 62
     7
100
AcDbVertex
100
AcDb2dVertex
 10
62.35088838501992
 20
137.7392238696451
 30
0.0
  0
VERTEX
  5
1C2
330
17C
100
AcDbEntity
  8
\U+838C\U+8343\U+8384\U+815B_1
 62
     7
100
AcDbVertex
100
AcDb2dVertex
 10
60.33723007389139
 20
135.7863714938312
 30
0.0
  0
VERTEX
  5
1C3
330
17C
100
AcDbEntity
  8
\U+838C\U+8343\U+8384\U+815B_1
 62
     7
100
AcDbVertex
100
AcDb2dVertex
 10
58.50633407825536
 20
133.8340358823401
 30
0.0
  0
VERTEX
  5
1C4
330
17C
100
AcDbEntity
  8
\U+838C\U+8343\U+8384\U+815B_1
 62
     7
100
AcDbVertex
100
AcDb2dVertex
 10
56.73676078225679
 20
131.7588826167999
 30
0.0
  0
VERTEX
  5
1C5
330
17C
100
AcDbEntity
  8
\U+838C\U+8343\U+8384\U+815B_1
 62
     7
100
AcDbVertex
100
AcDb2dVertex
 10
55.14994980175071
 20
129.6837293512596
 30
0.0
  0
VERTEX
  5
1C6
330
17C
100
AcDbEntity
  8
\U+838C\U+8343\U+8384\U+815B_1
 62
     7
100
AcDbVertex
100
AcDb2dVertex
 10
53.74624564628567
 20
127.6092651048164
 30
0.0
  0
VERTEX
  5
1C7
330
17C
100
AcDbEntity
  8
\U+838C\U+8343\U+8384\U+815B_1
 62
     7
100
AcDbVertex
100
AcDb2dVertex
 10
52.40386419045807
 20
125.4733059039615
 30
0.0
  0
VERTEX
  5
1C8
330
17C
100
AcDbEntity
  8
\U+838C\U+8343\U+8384\U+815B_1
 62
     7
100
AcDbVertex
100
AcDb2dVertex
 10
51.24441730489723
 20
123.2760240034692
 30
0.0
  0
VERTEX
  5
1C9
330
17C
100
AcDbEntity
  8
\U+838C\U+8343\U+8384\U+815B_1
 62
     7
100
AcDbVertex
100
AcDb2dVertex
 10
50.26790498960317
 20
121.0792588672996
 30
0.0
  0
VERTEX
  5
1CA
330
17C
100
AcDbEntity
  8
\U+838C\U+8343\U+8384\U+815B_1
 62
     7
100
AcDbVertex
100
AcDb2dVertex
 10
49.35254311917228
 20
118.8826659859043
 30
0.0
  0
VERTEX
  5
1CB
330
17C
100
AcDbEntity
  8
\U+838C\U+8343\U+8384\U+815B_1
 62
     7
100
AcDbVertex
100
AcDb2dVertex
 10
48.68126626387135
 20
116.685384085412
 30
0.0
  0
VERTEX
  5
1CC
330
17C
100
AcDbEntity
  8
\U+838C\U+8343\U+8384\U+815B_1
 62
     7
100
AcDbVertex
100
AcDb2dVertex
 10
48.07096759865934
 20
114.427296249605
 30
0.0
  0
VERTEX
  5
1CD
330
17C
100
AcDbEntity
  8
\U+838C\U+8343\U+8384\U+815B_1
 62
     7
100
AcDbVertex
100
AcDb2dVertex
 10
47.6436035037141
 20
112.1697251781208
 30
0.0
  0
VERTEX
  5
1CE
330
17C
100
AcDbEntity
  8
\U+838C\U+8343\U+8384\U+815B_1
 62
     7
100
AcDbVertex
100
AcDb2dVertex
 10
47.39969074335841
 20
109.911809597088
 30
0.0
  0
VERTEX
  5
1CF
330
17C
100
AcDbEntity
  8
\U+838C\U+8343\U+8384\U+815B_1
 62
     7
100
AcDbVertex
100
AcDb2dVertex
 10
47.27773436318057
 20
107.6535495065067
 30
0.0
  0
VERTEX
  5
1D0
330
17C
100
AcDbEntity
  8
\U+838C\U+8343\U+8384\U+815B_1
 62
     7
100
AcDbVertex
100
AcDb2dVertex
 10
47.27773436318057
 20
106.3723184955423
 30
0.0
  0
SEQEND
  5
1D1
330
17C
100
AcDbEntity
  8
\U+838C\U+8343\U+8384\U+815B_1
  0
ENDBLK
  5
17B
330
178
100
AcDbEntity
  8
0
100
AcDbBlockEnd
  0
BLOCK
  5
1D4
330
1D2
100
AcDbEntity
  8
0
100
AcDbBlockBegin
  2
BLOCK_14
 70
     0
 71
     0
 10
0.0
 20
0.0
 30
0.0
  3
BLOCK_14
  1

  0
POLYLINE
  5
1D6
330
1D2
100
AcDbEntity
  8
\U+838C\U+8343\U+8384\U+815B_1
 62
     7
100
AcDb2dPolyline
 66
     1
 10
0.0
 20
0.0
 30
0.0
  0
VERTEX
  5
1D7
330
1D6
100
AcDbEntity
  8
\U+838C\U+8343\U+8384\U+815B_1
 62
     7
100
AcDbVertex
100
AcDb2dVertex
 10
49.10845810404233
 20
108.7518459472044
 30
0.0
  0
VERTEX
  5
1D8
330
1D6
100
AcDbEntity
  8
\U+838C\U+8343\U+8384\U+815B_1
 62
     7
100
AcDbVertex
100
AcDb2dVertex
 10
49.10845810404233
 20
108.3246541070334
 30
0.0
  0
VERTEX
  5
1D9
330
1D6
100
AcDbEntity
  8
\U+838C\U+8343\U+8384\U+815B_1
 62
     7
100
AcDbVertex
100
AcDb2dVertex
 10
49.16926403935699
 20
107.4092922366025
 30
0.0
  0
SEQEND
  5
1DA
330
1D6
100
AcDbEntity
  8
\U+838C\U+8343\U+8384\U+815B_1
  0
ENDBLK
  5
1D5
330
1D2
100
AcDbEntity
  8
0
100
AcDbBlockEnd
  0
BLOCK
  5
1DD
330
1DB
100
AcDbEntity
  8
0
100
AcDbBlockBegin
  2
BLOCK_15
 70
     0
 71
     0
 10
0.0
 20
0.0
 30
0.0
  3
BLOCK_15
  1

  0
POLYLINE
  5
1DF
330
1DB
100
AcDbEntity
  8
\U+838C\U+8343\U+8384\U+815B_1
 62
     7
100
AcDb2dPolyline
 66
     1
 10
0.0
 20
0.0
 30
0.0
  0
VERTEX
  5
1E0
330
1DF
100
AcDbEntity
  8
\U+838C\U+8343\U+8384\U+815B_1
 62
     7
100
AcDbVertex
100
AcDb2dVertex
 10
247.8694525204979
 20
107.4092922366025
 30
0.0
  0
VERTEX
  5
1E1
330
1DF
100
AcDbEntity
  8
\U+838C\U+8343\U+8384\U+815B_1
 62
     7
100
AcDbVertex
100
AcDb2dVertex
 10
247.8694525204979
 20
107.8981512859595
 30
0.0
  0
VERTEX
  5
1E2
330
1DF
100
AcDbEntity
  8
\U+838C\U+8343\U+8384\U+815B_1
 62
     7
100
AcDbVertex
100
AcDb2dVertex
 10
247.9304307105868
 20
108.7518459472044
 30
0.0
  0
SEQEND
  5
1E3
330
1DF
100
AcDbEntity
  8
\U+838C\U+8343\U+8384\U+815B_1
  0
ENDBLK
  5
1DE
330
1DB
100
AcDbEntity
  8
0
100
AcDbBlockEnd
  0
BLOCK
  5
1E6
330
1E4
100
AcDbEntity
  8
0
100
AcDbBlockBegin
  2
BLOCK_16
 70
     0
 71
     0
 10
0.0
 20
0.0
 30
0.0
  3
BLOCK_16
  1

  0
POLYLINE
  5
1E8
330
1E4
100
AcDbEntity
  8
\U+838C\U+8343\U+8384\U+815B_1
 62
     7
100
AcDb2dPolyline
 66
     1
 10
0.0
 20
0.0
 30
0.0
  0
VERTEX
  5
1E9
330
1E8
100
AcDbEntity
  8
\U+838C\U+8343\U+8384\U+815B_1
 62
     7
100
AcDbVertex
100
AcDb2dVertex
 10
247.5645615700533
 20
100.269848607745
 30
0.0
  0
VERTEX
  5
1EA
330
1E8
100
AcDbEntity
  8
\U+838C\U+8343\U+8384\U+815B_1
 62
     7
100
AcDbVertex
100
AcDb2dVertex
 10
247.5645615700533
 20
100.2085259081076
 30
0.0
  0
SEQEND
  5
1EB
330
1E8
100
AcDbEntity
  8
\U+838C\U+8343\U+8384\U+815B_1
  0
ENDBLK
  5
1E7
330
1E4
100
AcDbEntity
  8
0
100
AcDbBlockEnd
  0
BLOCK
  5
1EE
330
1EC
100
AcDbEntity
  8
0
100
AcDbBlockBegin
  2
BLOCK_17
 70
     0
 71
     0
 10
0.0
 20
0.0
 30
0.0
  3
BLOCK_17
  1

  0
POLYLINE
  5
1F0
330
1EC
100
AcDbEntity
  8
\U+838C\U+8343\U+8384\U+815B_1
 62
     7
100
AcDb2dPolyline
 66
     1
 10
0.0
 20
0.0
 30
0.0
  0
VERTEX
  5
1F1
330
1F0
100
AcDbEntity
  8
\U+838C\U+8343\U+8384\U+815B_1
 62
     7
100
AcDbVertex
100
AcDb2dVertex
 10
49.47449949935013
 20
100.269848607745
 30
0.0
  0
VERTEX
  5
1F2
330
1F0
100
AcDbEntity
  8
\U+838C\U+8343\U+8384\U+815B_1
 62
     7
100
AcDbVertex
100
AcDb2dVertex
 10
49.47449949935013
 20
100.3911159688258
 30
0.0
  0
SEQEND
  5
1F3
330
1F0
100
AcDbEntity
  8
\U+838C\U+8343\U+8384\U+815B_1
  0
ENDBLK
  5
1EF
330
1EC
100
AcDbEntity
  8
0
100
AcDbBlockEnd
  0
BLOCK
  5
1F6
330
1F4
100
AcDbEntity
  8
0
100
AcDbBlockBegin
  2
BLOCK_18
 70
     0
 71
     0
 10
0.0
 20
0.0
 30
0.0
  3
BLOCK_18
  1

  0
POLYLINE
  5
1F8
330
1F4
100
AcDbEntity
  8
\U+838C\U+8343\U+8384\U+815B_1
 62
     7
100
AcDb2dPolyline
 66
     1
 10
0.0
 20
0.0
 30
0.0
  0
VERTEX
  5
1F9
330
1F8
100
AcDbEntity
  8
\U+838C\U+8343\U+8384\U+815B_1
 62
     7
100
AcDbVertex
100
AcDb2dVertex
 10
74.73927949520407
 20
141.0348022108351
 30
0.0
  0
VERTEX
  5
1FA
330
1F8
100
AcDbEntity
  8
\U+838C\U+8343\U+8384\U+815B_1
 62
     7
100
AcDbVertex
100
AcDb2dVertex
 10
76.38706866579906
 20
142.0724649709923
 30
0.0
  0
VERTEX
  5
1FB
330
1F8
100
AcDbEntity
  8
\U+838C\U+8343\U+8384\U+815B_1
 62
     7
100
AcDbVertex
100
AcDb2dVertex
 10
77.7292778668524
 20
142.8656982064711
 30
0.0
  0
SEQEND
  5
1FC
330
1F8
100
AcDbEntity
  8
\U+838C\U+8343\U+8384\U+815B_1
  0
ENDBLK
  5
1F7
330
1F4
100
AcDbEntity
  8
0
100
AcDbBlockEnd
  0
BLOCK
  5
1FF
330
1FD
100
AcDbEntity
  8
0
100
AcDbBlockBegin
  2
BLOCK_19
 70
     0
 71
     0
 10
0.0
 20
0.0
 30
0.0
  3
BLOCK_19
  1

  0
POLYLINE
  5
201
330
1FD
100
AcDbEntity
  8
\U+838C\U+8343\U+8384\U+815B_1
 62
     7
100
AcDb2dPolyline
 66
     1
 10
0.0
 20
0.0
 30
0.0
  0
VERTEX
  5
202
330
201
100
AcDbEntity
  8
\U+838C\U+8343\U+8384\U+815B_1
 62
     7
100
AcDbVertex
100
AcDb2dVertex
 10
77.42404240685927
 20
150.4325059302738
 30
0.0
  0
VERTEX
  5
203
330
201
100
AcDbEntity
  8
\U+838C\U+8343\U+8384\U+815B_1
 62
     7
100
AcDbVertex
100
AcDb2dVertex
 10
76.08200546058019
 20
149.639272694795
 30
0.0
  0
VERTEX
  5
204
330
201
100
AcDbEntity
  8
\U+838C\U+8343\U+8384\U+815B_1
 62
     7
100
AcDbVertex
100
AcDb2dVertex
 10
73.51885441955432
 20
148.0528062238375
 30
0.0
  0
VERTEX
  5
205
330
201
100
AcDbEntity
  8
\U+838C\U+8343\U+8384\U+815B_1
 62
     7
100
AcDbVertex
100
AcDb2dVertex
 10
71.07783201348055
 20
146.4050170532425
 30
0.0
  0
VERTEX
  5
206
330
201
100
AcDbEntity
  8
\U+838C\U+8343\U+8384\U+815B_1
 62
     7
100
AcDbVertex
100
AcDb2dVertex
 10
68.75893824235888
 20
144.6964219473329
 30
0.0
  0
VERTEX
  5
207
330
201
100
AcDbEntity
  8
\U+838C\U+8343\U+8384\U+815B_1
 62
     7
100
AcDbVertex
100
AcDb2dVertex
 10
66.50085040655188
 20
142.9878268414232
 30
0.0
  0
VERTEX
  5
208
330
201
100
AcDbEntity
  8
\U+838C\U+8343\U+8384\U+815B_1
 62
     7
100
AcDbVertex
100
AcDb2dVertex
 10
64.42569714101164
 20
141.2179090358761
 30
0.0
  0
VERTEX
  5
209
330
201
100
AcDbEntity
  8
\U+838C\U+8343\U+8384\U+815B_1
 62
     7
100
AcDbVertex
100
AcDb2dVertex
 10
62.4120388298831
 20
139.38701304024
 30
0.0
  0
VERTEX
  5
20A
330
201
100
AcDbEntity
  8
\U+838C\U+8343\U+8384\U+815B_1
 62
     7
100
AcDbVertex
100
AcDb2dVertex
 10
60.52016464415816
 20
137.4954833640636
 30
0.0
  0
VERTEX
  5
20B
330
201
100
AcDbEntity
  8
\U+838C\U+8343\U+8384\U+815B_1
 62
     7
100
AcDbVertex
100
AcDb2dVertex
 10
58.75041909338532
 20
135.6032646687902
 30
0.0
  0
VERTEX
  5
20C
330
201
100
AcDbEntity
  8
\U+838C\U+8343\U+8384\U+815B_1
 62
     7
100
AcDbVertex
100
AcDb2dVertex
 10
57.10262992279031
 20
133.6504122929763
 30
0.0
  0
VERTEX
  5
20D
330
201
100
AcDbEntity
  8
\U+838C\U+8343\U+8384\U+815B_1
 62
     7
100
AcDbVertex
100
AcDb2dVertex
 10
55.57696938714743
 20
131.6367539818478
 30
0.0
  0
VERTEX
  5
20E
330
201
100
AcDbEntity
  8
\U+838C\U+8343\U+8384\U+815B_1
 62
     7
100
AcDbVertex
100
AcDb2dVertex
 10
54.23458793131983
 20
129.622923415945
 30
0.0
  0
VERTEX
  5
20F
330
201
100
AcDbEntity
  8
\U+838C\U+8343\U+8384\U+815B_1
 62
     7
100
AcDbVertex
100
AcDb2dVertex
 10
53.38037650575213
 20
128.2801974505688
 30
0.0
  0
SEQEND
  5
210
330
201
100
AcDbEntity
  8
\U+838C\U+8343\U+8384\U+815B_1
  0
ENDBLK
  5
200
330
1FD
100
AcDbEntity
  8
0
100
AcDbBlockEnd
  0
BLOCK
  5
213
330
211
100
AcDbEntity
  8
0
100
AcDbBlockBegin
  2
BLOCK_20
 70
     0
 71
     0
 10
0.0
 20
0.0
 30
0.0
  3
BLOCK_20
  1

  0
POLYLINE
  5
215
330
211
100
AcDbEntity
  8
\U+838C\U+8343\U+8384\U+815B_1
 62
     7
100
AcDb2dPolyline
 66
     1
 10
0.0
 20
0.0
 30
0.0
  0
VERTEX
  5
216
330
215
100
AcDbEntity
  8
\U+838C\U+8343\U+8384\U+815B_1
 62
     7
100
AcDbVertex
100
AcDb2dVertex
 10
243.6585123088771
 20
128.2801974505688
 30
0.0
  0
VERTEX
  5
217
330
215
100
AcDbEntity
  8
\U+838C\U+8343\U+8384\U+815B_1
 62
     7
100
AcDbVertex
100
AcDb2dVertex
 10
242.7431504384462
 20
129.6837293512596
 30
0.0
  0
VERTEX
  5
218
330
215
100
AcDbEntity
  8
\U+838C\U+8343\U+8384\U+815B_1
 62
     7
100
AcDbVertex
100
AcDb2dVertex
 10
241.4005967278443
 20
131.6980766814852
 30
0.0
  0
VERTEX
  5
219
330
215
100
AcDbEntity
  8
\U+838C\U+8343\U+8384\U+815B_1
 62
     7
100
AcDbVertex
100
AcDb2dVertex
 10
239.8747639374272
 20
133.7117349926137
 30
0.0
  0
VERTEX
  5
21A
330
215
100
AcDbEntity
  8
\U+838C\U+8343\U+8384\U+815B_1
 62
     7
100
AcDbVertex
100
AcDb2dVertex
 10
238.2269747668321
 20
135.6647596232019
 30
0.0
  0
VERTEX
  5
21B
330
215
100
AcDbEntity
  8
\U+838C\U+8343\U+8384\U+815B_1
 62
     7
100
AcDbVertex
100
AcDb2dVertex
 10
236.4575737256078
 20
137.5562892993783
 30
0.0
  0
VERTEX
  5
21C
330
215
100
AcDbEntity
  8
\U+838C\U+8343\U+8384\U+815B_1
 62
     7
100
AcDbVertex
100
AcDb2dVertex
 10
234.5655272851086
 20
139.4478189755547
 30
0.0
  0
VERTEX
  5
21D
330
215
100
AcDbEntity
  8
\U+838C\U+8343\U+8384\U+815B_1
 62
     7
100
AcDbVertex
100
AcDb2dVertex
 10
232.5518689739801
 20
141.2787149711907
 30
0.0
  0
VERTEX
  5
21E
330
215
100
AcDbEntity
  8
\U+838C\U+8343\U+8384\U+815B_1
 62
     7
100
AcDbVertex
100
AcDb2dVertex
 10
230.4159097731252
 20
143.0486327767379
 30
0.0
  0
VERTEX
  5
21F
330
215
100
AcDbEntity
  8
\U+838C\U+8343\U+8384\U+815B_1
 62
     7
100
AcDbVertex
100
AcDb2dVertex
 10
228.2193168917299
 20
144.7572278826475
 30
0.0
  0
VERTEX
  5
220
330
215
100
AcDbEntity
  8
\U+838C\U+8343\U+8384\U+815B_1
 62
     7
100
AcDbVertex
100
AcDb2dVertex
 10
225.9004231206082
 20
146.4658229885572
 30
0.0
  0
VERTEX
  5
221
330
215
100
AcDbEntity
  8
\U+838C\U+8343\U+8384\U+815B_1
 62
     7
100
AcDbVertex
100
AcDb2dVertex
 10
223.4592284597602
 20
148.1136121591522
 30
0.0
  0
VERTEX
  5
222
330
215
100
AcDbEntity
  8
\U+838C\U+8343\U+8384\U+815B_1
 62
     7
100
AcDbVertex
100
AcDb2dVertex
 10
220.8960774187343
 20
149.7005953944325
 30
0.0
  0
VERTEX
  5
223
330
215
100
AcDbEntity
  8
\U+838C\U+8343\U+8384\U+815B_1
 62
     7
100
AcDbVertex
100
AcDb2dVertex
 10
218.2719481876195
 20
151.2262559300754
 30
0.0
  0
VERTEX
  5
224
330
215
100
AcDbEntity
  8
\U+838C\U+8343\U+8384\U+815B_1
 62
     7
100
AcDbVertex
100
AcDb2dVertex
 10
215.5258625763269
 20
152.6905937660808
 30
0.0
  0
VERTEX
  5
225
330
215
100
AcDbEntity
  8
\U+838C\U+8343\U+8384\U+815B_1
 62
     7
100
AcDbVertex
100
AcDb2dVertex
 10
212.7184542653968
 20
154.0941256667716
 30
0.0
  0
VERTEX
  5
226
330
215
100
AcDbEntity
  8
\U+838C\U+8343\U+8384\U+815B_1
 62
     7
100
AcDbVertex
100
AcDb2dVertex
 10
209.7890895742889
 20
155.4366793773735
 30
0.0
  0
VERTEX
  5
227
330
215
100
AcDbEntity
  8
\U+838C\U+8343\U+8384\U+815B_1
 62
     7
100
AcDbVertex
100
AcDb2dVertex
 10
206.798746693092
 20
156.7185994074349
 30
0.0
  0
VERTEX
  5
228
330
215
100
AcDbEntity
  8
\U+838C\U+8343\U+8384\U+815B_1
 62
     7
100
AcDbVertex
100
AcDb2dVertex
 10
203.6867919412658
 20
157.939196737859
 30
0.0
  0
VERTEX
  5
229
330
215
100
AcDbEntity
  8
\U+838C\U+8343\U+8384\U+815B_1
 62
     7
100
AcDbVertex
100
AcDb2dVertex
 10
200.5744926798911
 20
159.0374931785566
 30
0.0
  0
VERTEX
  5
22A
330
215
100
AcDbEntity
  8
\U+838C\U+8343\U+8384\U+815B_1
 62
     7
100
AcDbVertex
100
AcDb2dVertex
 10
197.33989252879
 20
160.1357896192543
 30
0.0
  0
VERTEX
  5
22B
330
215
100
AcDbEntity
  8
\U+838C\U+8343\U+8384\U+815B_1
 62
     7
100
AcDbVertex
100
AcDb2dVertex
 10
194.0446586971486
 20
161.1734523794115
 30
0.0
  0
VERTEX
  5
22C
330
215
100
AcDbEntity
  8
\U+838C\U+8343\U+8384\U+815B_1
 62
     7
100
AcDbVertex
100
AcDb2dVertex
 10
190.7490803559586
 20
162.0888142498424
 30
0.0
  0
VERTEX
  5
22D
330
215
100
AcDbEntity
  8
\U+838C\U+8343\U+8384\U+815B_1
 62
     7
100
AcDbVertex
100
AcDb2dVertex
 10
187.3318901441393
 20
162.9428534206358
 30
0.0
  0
VERTEX
  5
22E
330
215
100
AcDbEntity
  8
\U+838C\U+8343\U+8384\U+815B_1
 62
     7
100
AcDbVertex
100
AcDb2dVertex
 10
183.8533772326825
 20
163.7366034204374
 30
0.0
  0
VERTEX
  5
22F
330
215
100
AcDbEntity
  8
\U+838C\U+8343\U+8384\U+815B_1
 62
     7
100
AcDbVertex
100
AcDb2dVertex
 10
180.3748643212257
 20
164.4683417015044
 30
0.0
  0
VERTEX
  5
230
330
215
100
AcDbEntity
  8
\U+838C\U+8343\U+8384\U+815B_1
 62
     7
100
AcDbVertex
100
AcDb2dVertex
 10
176.8353732196801
 20
165.0786403667165
 30
0.0
  0
VERTEX
  5
231
330
215
100
AcDbEntity
  8
\U+838C\U+8343\U+8384\U+815B_1
 62
     7
100
AcDbVertex
100
AcDb2dVertex
 10
173.2345594184969
 20
165.6889390319285
 30
0.0
  0
VERTEX
  5
232
330
215
100
AcDbEntity
  8
\U+838C\U+8343\U+8384\U+815B_1
 62
     7
100
AcDbVertex
100
AcDb2dVertex
 10
169.6344346364108
 20
166.1776258265112
 30
0.0
  0
VERTEX
  5
233
330
215
100
AcDbEntity
  8
\U+838C\U+8343\U+8384\U+815B_1
 62
     7
100
AcDbVertex
100
AcDb2dVertex
 10
165.9729871546873
 20
166.5434949670447
 30
0.0
  0
VERTEX
  5
234
330
215
100
AcDbEntity
  8
\U+838C\U+8343\U+8384\U+815B_1
 62
     7
100
AcDbVertex
100
AcDb2dVertex
 10
162.3111951634153
 20
166.9095363623525
 30
0.0
  0
VERTEX
  5
235
330
215
100
AcDbEntity
  8
\U+838C\U+8343\U+8384\U+815B_1
 62
     7
100
AcDbVertex
100
AcDb2dVertex
 10
158.6497476816917
 20
167.1537936322567
 30
0.0
  0
VERTEX
  5
236
330
215
100
AcDbEntity
  8
\U+838C\U+8343\U+8384\U+815B_1
 62
     7
100
AcDbVertex
100
AcDb2dVertex
 10
154.9269775003308
 20
167.3367282025235
 30
0.0
  0
VERTEX
  5
237
330
215
100
AcDbEntity
  8
\U+838C\U+8343\U+8384\U+815B_1
 62
     7
100
AcDbVertex
100
AcDb2dVertex
 10
151.2045518285183
 20
167.4588568374756
 30
0.0
  0
VERTEX
  5
238
330
215
100
AcDbEntity
  8
\U+838C\U+8343\U+8384\U+815B_1
 62
     7
100
AcDbVertex
100
AcDb2dVertex
 10
147.4821261567059
 20
167.4588568374756
 30
0.0
  0
VERTEX
  5
239
330
215
100
AcDbEntity
  8
\U+838C\U+8343\U+8384\U+815B_1
 62
     7
100
AcDbVertex
100
AcDb2dVertex
 10
143.8206786749823
 20
167.3980509021609
 30
0.0
  0
VERTEX
  5
23A
330
215
100
AcDbEntity
  8
\U+838C\U+8343\U+8384\U+815B_1
 62
     7
100
AcDbVertex
100
AcDb2dVertex
 10
140.0977362388471
 20
167.2759222672088
 30
0.0
  0
VERTEX
  5
23B
330
215
100
AcDbEntity
  8
\U+838C\U+8343\U+8384\U+815B_1
 62
     7
100
AcDbVertex
100
AcDb2dVertex
 10
136.3753105670347
 20
167.0316649973046
 30
0.0
  0
VERTEX
  5
23C
330
215
100
AcDbEntity
  8
\U+838C\U+8343\U+8384\U+815B_1
 62
     7
100
AcDbVertex
100
AcDb2dVertex
 10
132.7138630853111
 20
166.7264295373114
 30
0.0
  0
VERTEX
  5
23D
330
215
100
AcDbEntity
  8
\U+838C\U+8343\U+8384\U+815B_1
 62
     7
100
AcDbVertex
100
AcDb2dVertex
 10
129.0522433488133
 20
166.3605603967779
 30
0.0
  0
VERTEX
  5
23E
330
215
100
AcDbEntity
  8
\U+838C\U+8343\U+8384\U+815B_1
 62
     7
100
AcDbVertex
100
AcDb2dVertex
 10
125.4516018024045
 20
165.9331963018327
 30
0.0
  0
VERTEX
  5
23F
330
215
100
AcDbEntity
  8
\U+838C\U+8343\U+8384\U+815B_1
 62
     7
100
AcDbVertex
100
AcDb2dVertex
 10
121.8513047655441
 20
165.3838758267096
 30
0.0
  0
VERTEX
  5
240
330
215
100
AcDbEntity
  8
\U+838C\U+8343\U+8384\U+815B_1
 62
     7
100
AcDbVertex
100
AcDb2dVertex
 10
118.3114691544499
 20
164.7735771614976
 30
0.0
  0
VERTEX
  5
241
330
215
100
AcDbEntity
  8
\U+838C\U+8343\U+8384\U+815B_1
 62
     7
100
AcDbVertex
100
AcDb2dVertex
 10
114.7719780529042
 20
164.1024725609709
 30
0.0
  0
VERTEX
  5
242
330
215
100
AcDbEntity
  8
\U+838C\U+8343\U+8384\U+815B_1
 62
     7
100
AcDbVertex
100
AcDb2dVertex
 10
111.2934651414475
 20
163.3092393254921
 30
0.0
  0
VERTEX
  5
243
330
215
100
AcDbEntity
  8
\U+838C\U+8343\U+8384\U+815B_1
 62
     7
100
AcDbVertex
100
AcDb2dVertex
 10
107.8762749296282
 20
162.5160060900134
 30
0.0
  0
VERTEX
  5
244
330
215
100
AcDbEntity
  8
\U+838C\U+8343\U+8384\U+815B_1
 62
     7
100
AcDbVertex
100
AcDb2dVertex
 10
104.5197183983492
 20
161.6006442195825
 30
0.0
  0
VERTEX
  5
245
330
215
100
AcDbEntity
  8
\U+838C\U+8343\U+8384\U+815B_1
 62
     7
100
AcDbVertex
100
AcDb2dVertex
 10
101.1633341218446
 20
160.6239596495141
 30
0.0
  0
VERTEX
  5
246
330
215
100
AcDbEntity
  8
\U+838C\U+8343\U+8384\U+815B_1
 62
     7
100
AcDbVertex
100
AcDb2dVertex
 10
97.92907848029203
 20
159.5862968893569
 30
0.0
  0
VERTEX
  5
247
330
215
100
AcDbEntity
  8
\U+838C\U+8343\U+8384\U+815B_1
 62
     7
100
AcDbVertex
100
AcDb2dVertex
 10
94.75562877405416
 20
158.4271945133446
 30
0.0
  0
VERTEX
  5
248
330
215
100
AcDbEntity
  8
\U+838C\U+8343\U+8384\U+815B_1
 62
     7
100
AcDbVertex
100
AcDb2dVertex
 10
91.64367402222797
 20
157.2675753730095
 30
0.0
  0
VERTEX
  5
249
330
215
100
AcDbEntity
  8
\U+838C\U+8343\U+8384\U+815B_1
 62
     7
100
AcDbVertex
100
AcDb2dVertex
 10
88.5923529509422
 20
155.9861721072708
 30
0.0
  0
VERTEX
  5
24A
330
215
100
AcDbEntity
  8
\U+838C\U+8343\U+8384\U+815B_1
 62
     7
100
AcDbVertex
100
AcDb2dVertex
 10
85.66264375028574
 20
154.7042520772094
 30
0.0
  0
VERTEX
  5
24B
330
215
100
AcDbEntity
  8
\U+838C\U+8343\U+8384\U+815B_1
 62
     7
100
AcDbVertex
100
AcDb2dVertex
 10
82.7947740135895
 20
153.3008924312929
 30
0.0
  0
VERTEX
  5
24C
330
215
100
AcDbEntity
  8
\U+838C\U+8343\U+8384\U+815B_1
 62
     7
100
AcDbVertex
100
AcDb2dVertex
 10
80.04868840229686
 20
151.897360530602
 30
0.0
  0
VERTEX
  5
24D
330
215
100
AcDbEntity
  8
\U+838C\U+8343\U+8384\U+815B_1
 62
     7
100
AcDbVertex
100
AcDb2dVertex
 10
77.42404240685927
 20
150.4325059302738
 30
0.0
  0
SEQEND
  5
24E
330
215
100
AcDbEntity
  8
\U+838C\U+8343\U+8384\U+815B_1
  0
ENDBLK
  5
214
330
211
100
AcDbEntity
  8
0
100
AcDbBlockEnd
  0
BLOCK
  5
251
330
24F
100
AcDbEntity
  8
0
100
AcDbBlockBegin
  2
BLOCK_21
 70
     0
 71
     0
 10
0.0
 20
0.0
 30
0.0
  3
BLOCK_21
  1

  0
POLYLINE
  5
253
330
24F
100
AcDbEntity
  8
\U+838C\U+8343\U+8384\U+815B_1
 62
     7
100
AcDb2dPolyline
 66
     1
 10
0.0
 20
0.0
 30
0.0
  0
VERTEX
  5
254
330
253
100
AcDbEntity
  8
\U+838C\U+8343\U+8384\U+815B_1
 62
     7
100
AcDbVertex
100
AcDb2dVertex
 10
249.7005207709082
 20
108.5082776963972
 30
0.0
  0
VERTEX
  5
255
330
253
100
AcDbEntity
  8
\U+838C\U+8343\U+8384\U+815B_1
 62
     7
100
AcDbVertex
100
AcDb2dVertex
 10
249.7005207709082
 20
108.8741468369308
 30
0.0
  0
VERTEX
  5
256
330
253
100
AcDbEntity
  8
\U+838C\U+8343\U+8384\U+815B_1
 62
     7
100
AcDbVertex
100
AcDb2dVertex
 10
249.5168971815444
 20
111.1930406080524
 30
0.0
  0
VERTEX
  5
257
330
253
100
AcDbEntity
  8
\U+838C\U+8343\U+8384\U+815B_1
 62
     7
100
AcDbVertex
100
AcDb2dVertex
 10
249.2116617215513
 20
113.5119343791741
 30
0.0
  0
VERTEX
  5
258
330
253
100
AcDbEntity
  8
\U+838C\U+8343\U+8384\U+815B_1
 62
     7
100
AcDbVertex
100
AcDb2dVertex
 10
248.7234916912914
 20
115.8313449146186
 30
0.0
  0
VERTEX
  5
259
330
253
100
AcDbEntity
  8
\U+838C\U+8343\U+8384\U+815B_1
 62
     7
100
AcDbVertex
100
AcDb2dVertex
 10
248.1133652808536
 20
118.0887437313285
 30
0.0
  0
VERTEX
  5
25A
330
253
100
AcDbEntity
  8
\U+838C\U+8343\U+8384\U+815B_1
 62
     7
100
AcDbVertex
100
AcDb2dVertex
 10
247.4422606803269
 20
120.3468315671355
 30
0.0
  0
VERTEX
  5
25B
330
253
100
AcDbEntity
  8
\U+838C\U+8343\U+8384\U+815B_1
 62
     7
100
AcDbVertex
100
AcDb2dVertex
 10
246.7098333801628
 20
122.1777275627716
 30
0.0
  0
SEQEND
  5
25C
330
253
100
AcDbEntity
  8
\U+838C\U+8343\U+8384\U+815B_1
  0
ENDBLK
  5
252
330
24F
100
AcDbEntity
  8
0
100
AcDbBlockEnd
  0
BLOCK
  5
25F
330
25D
100
AcDbEntity
  8
0
100
AcDbBlockBegin
  2
BLOCK_22
 70
     0
 71
     0
 10
0.0
 20
0.0
 30
0.0
  3
BLOCK_22
  1

  0
POLYLINE
  5
261
330
25D
100
AcDbEntity
  8
\U+838C\U+8343\U+8384\U+815B_1
 62
     7
100
AcDb2dPolyline
 66
     1
 10
0.0
 20
0.0
 30
0.0
  0
VERTEX
  5
262
330
261
100
AcDbEntity
  8
\U+838C\U+8343\U+8384\U+815B_1
 62
     7
100
AcDbVertex
100
AcDb2dVertex
 10
47.46066893344734
 20
110.4606133078883
 30
0.0
  0
VERTEX
  5
263
330
261
100
AcDbEntity
  8
\U+838C\U+8343\U+8384\U+815B_1
 62
     7
100
AcDbVertex
100
AcDb2dVertex
 10
47.33854029849523
 20
108.8741468369308
 30
0.0
  0
VERTEX
  5
264
330
261
100
AcDbEntity
  8
\U+838C\U+8343\U+8384\U+815B_1
 62
     7
100
AcDbVertex
100
AcDb2dVertex
 10
47.33854029849523
 20
108.5082776963972
 30
0.0
  0
SEQEND
  5
265
330
261
100
AcDbEntity
  8
\U+838C\U+8343\U+8384\U+815B_1
  0
ENDBLK
  5
260
330
25D
100
AcDbEntity
  8
0
100
AcDbBlockEnd
  0
BLOCK
  5
268
330
266
100
AcDbEntity
  8
0
100
AcDbBlockBegin
  2
BLOCK_23
 70
     0
 71
     0
 10
0.0
 20
0.0
 30
0.0
  3
BLOCK_23
  1

  0
POLYLINE
  5
26A
330
266
100
AcDbEntity
  8
\U+838C\U+8343\U+8384\U+815B_1
 62
     7
100
AcDb2dPolyline
 66
     1
 10
0.0
 20
0.0
 30
0.0
  0
VERTEX
  5
26B
330
26A
100
AcDbEntity
  8
\U+838C\U+8343\U+8384\U+815B_1
 62
     7
100
AcDbVertex
100
AcDb2dVertex
 10
50.32905543446635
 20
122.239050262409
 30
0.0
  0
VERTEX
  5
26C
330
26A
100
AcDbEntity
  8
\U+838C\U+8343\U+8384\U+815B_1
 62
     7
100
AcDbVertex
100
AcDb2dVertex
 10
49.65760632439115
 20
120.4691324568619
 30
0.0
  0
VERTEX
  5
26D
330
26A
100
AcDbEntity
  8
\U+838C\U+8343\U+8384\U+815B_1
 62
     7
100
AcDbVertex
100
AcDb2dVertex
 10
48.92517902422704
 20
118.1502386857402
 30
0.0
  0
VERTEX
  5
26E
330
26A
100
AcDbEntity
  8
\U+838C\U+8343\U+8384\U+815B_1
 62
     7
100
AcDbVertex
100
AcDb2dVertex
 10
48.31505261378929
 20
115.8313449146186
 30
0.0
  0
VERTEX
  5
26F
330
26A
100
AcDbEntity
  8
\U+838C\U+8343\U+8384\U+815B_1
 62
     7
100
AcDbVertex
100
AcDb2dVertex
 10
47.82688258352939
 20
113.5119343791741
 30
0.0
  0
VERTEX
  5
270
330
26A
100
AcDbEntity
  8
\U+838C\U+8343\U+8384\U+815B_1
 62
     7
100
AcDbVertex
100
AcDb2dVertex
 10
47.52181937831052
 20
111.1930406080524
 30
0.0
  0
VERTEX
  5
271
330
26A
100
AcDbEntity
  8
\U+838C\U+8343\U+8384\U+815B_1
 62
     7
100
AcDbVertex
100
AcDb2dVertex
 10
47.46066893344734
 20
110.6442368972521
 30
0.0
  0
SEQEND
  5
272
330
26A
100
AcDbEntity
  8
\U+838C\U+8343\U+8384\U+815B_1
  0
ENDBLK
  5
269
330
266
100
AcDbEntity
  8
0
100
AcDbBlockEnd
  0
BLOCK
  5
275
330
273
100
AcDbEntity
  8
0
100
AcDbBlockBegin
  2
BLOCK_24
 70
     0
 71
     0
 10
0.0
 20
0.0
 30
0.0
  3
BLOCK_24
  1

  0
POLYLINE
  5
277
330
273
100
AcDbEntity
  8
\U+838C\U+8343\U+8384\U+815B_1
 62
     7
100
AcDb2dPolyline
 66
     1
 10
0.0
 20
0.0
 30
0.0
  0
VERTEX
  5
278
330
277
100
AcDbEntity
  8
\U+838C\U+8343\U+8384\U+815B_1
 62
     7
100
AcDbVertex
100
AcDb2dVertex
 10
77.7292778668524
 20
142.8656982064711
 30
0.0
  0
VERTEX
  5
279
330
277
100
AcDbEntity
  8
\U+838C\U+8343\U+8384\U+815B_1
 62
     7
100
AcDbVertex
100
AcDb2dVertex
 10
78.09583602648298
 20
143.0486327767379
 30
0.0
  0
SEQEND
  5
27A
330
277
100
AcDbEntity
  8
\U+838C\U+8343\U+8384\U+815B_1
  0
ENDBLK
  5
276
330
273
100
AcDbEntity
  8
0
100
AcDbBlockEnd
  0
BLOCK
  5
27D
330
27B
100
AcDbEntity
  8
0
100
AcDbBlockBegin
  2
BLOCK_25
 70
     0
 71
     0
 10
0.0
 20
0.0
 30
0.0
  3
BLOCK_25
  1

  0
POLYLINE
  5
27F
330
27B
100
AcDbEntity
  8
\U+838C\U+8343\U+8384\U+815B_1
 62
     7
100
AcDb2dPolyline
 66
     1
 10
0.0
 20
0.0
 30
0.0
  0
VERTEX
  5
280
330
27F
100
AcDbEntity
  8
\U+838C\U+8343\U+8384\U+815B_1
 62
     7
100
AcDbVertex
100
AcDb2dVertex
 10
248.662858010751
 20
95.8759738258574
 30
0.0
  0
VERTEX
  5
281
330
27F
100
AcDbEntity
  8
\U+838C\U+8343\U+8384\U+815B_1
 62
     7
100
AcDbVertex
100
AcDb2dVertex
 10
249.0287271512845
 20
97.95061032707486
 30
0.0
  0
VERTEX
  5
282
330
27F
100
AcDbEntity
  8
\U+838C\U+8343\U+8384\U+815B_1
 62
     7
100
AcDbVertex
100
AcDb2dVertex
 10
249.3952853109151
 20
100.8803195277313
 30
0.0
  0
VERTEX
  5
283
330
27F
100
AcDbEntity
  8
\U+838C\U+8343\U+8384\U+815B_1
 62
     7
100
AcDbVertex
100
AcDb2dVertex
 10
249.6388535617222
 20
103.8699733898311
 30
0.0
  0
VERTEX
  5
284
330
27F
100
AcDbEntity
  8
\U+838C\U+8343\U+8384\U+815B_1
 62
     7
100
AcDbVertex
100
AcDb2dVertex
 10
249.7611544514486
 20
106.3723184955423
 30
0.0
  0
SEQEND
  5
285
330
27F
100
AcDbEntity
  8
\U+838C\U+8343\U+8384\U+815B_1
  0
ENDBLK
  5
27E
330
27B
100
AcDbEntity
  8
0
100
AcDbBlockEnd
  0
BLOCK
  5
288
330
286
100
AcDbEntity
  8
0
100
AcDbBlockBegin
  2
BLOCK_26
 70
     0
 71
     0
 10
0.0
 20
0.0
 30
0.0
  3
BLOCK_26
  1

  0
POLYLINE
  5
28A
330
286
100
AcDbEntity
  8
\U+838C\U+8343\U+8384\U+815B_1
 62
     7
100
AcDb2dPolyline
 66
     1
 10
0.0
 20
0.0
 30
0.0
  0
VERTEX
  5
28B
330
28A
100
AcDbEntity
  8
\U+838C\U+8343\U+8384\U+815B_1
 62
     7
100
AcDbVertex
100
AcDb2dVertex
 10
47.27773436318057
 20
106.3723184955423
 30
0.0
  0
VERTEX
  5
28C
330
28A
100
AcDbEntity
  8
\U+838C\U+8343\U+8384\U+815B_1
 62
     7
100
AcDbVertex
100
AcDb2dVertex
 10
47.33854029849523
 20
104.847002469448
 30
0.0
  0
VERTEX
  5
28D
330
28A
100
AcDbEntity
  8
\U+838C\U+8343\U+8384\U+815B_1
 62
     7
100
AcDbVertex
100
AcDb2dVertex
 10
47.52181937831052
 20
101.8559705691541
 30
0.0
  0
VERTEX
  5
28E
330
28A
100
AcDbEntity
  8
\U+838C\U+8343\U+8384\U+815B_1
 62
     7
100
AcDbVertex
100
AcDb2dVertex
 10
47.88803302839258
 20
98.92695038759466
 30
0.0
  0
VERTEX
  5
28F
330
28A
100
AcDbEntity
  8
\U+838C\U+8343\U+8384\U+815B_1
 62
     7
100
AcDbVertex
100
AcDb2dVertex
 10
48.37603080387822
 20
95.99793020603525
 30
0.0
  0
VERTEX
  5
290
330
28A
100
AcDbEntity
  8
\U+838C\U+8343\U+8384\U+815B_1
 62
     7
100
AcDbVertex
100
AcDb2dVertex
 10
48.37603080387822
 20
95.8759738258574
 30
0.0
  0
SEQEND
  5
291
330
28A
100
AcDbEntity
  8
\U+838C\U+8343\U+8384\U+815B_1
  0
ENDBLK
  5
289
330
286
100
AcDbEntity
  8
0
100
AcDbBlockEnd
  0
BLOCK
  5
294
330
292
100
AcDbEntity
  8
0
100
AcDbBlockBegin
  2
BLOCK_27
 70
     0
 71
     0
 10
0.0
 20
0.0
 30
0.0
  3
BLOCK_27
  1

  0
POLYLINE
  5
296
330
292
100
AcDbEntity
  8
\U+838C\U+8343\U+8384\U+815B_1
 62
     7
100
AcDb2dPolyline
 66
     1
 10
0.0
 20
0.0
 30
0.0
  0
VERTEX
  5
297
330
296
100
AcDbEntity
  8
\U+838C\U+8343\U+8384\U+815B_1
 62
     7
100
AcDbVertex
100
AcDb2dVertex
 10
247.5645615700533
 20
100.269848607745
 30
0.0
  0
VERTEX
  5
298
330
296
100
AcDbEntity
  8
\U+838C\U+8343\U+8384\U+815B_1
 62
     7
100
AcDbVertex
100
AcDb2dVertex
 10
247.8694525204979
 20
107.4092922366025
 30
0.0
  0
SEQEND
  5
299
330
296
100
AcDbEntity
  8
\U+838C\U+8343\U+8384\U+815B_1
  0
ENDBLK
  5
295
330
292
100
AcDbEntity
  8
0
100
AcDbBlockEnd
  0
BLOCK
  5
29C
330
29A
100
AcDbEntity
  8
0
100
AcDbBlockBegin
  2
BLOCK_28
 70
     0
 71
     0
 10
0.0
 20
0.0
 30
0.0
  3
BLOCK_28
  1

  0
POLYLINE
  5
29E
330
29A
100
AcDbEntity
  8
\U+838C\U+8343\U+8384\U+815B_1
 62
     7
100
AcDb2dPolyline
 66
     1
 10
0.0
 20
0.0
 30
0.0
  0
VERTEX
  5
29F
330
29E
100
AcDbEntity
  8
\U+838C\U+8343\U+8384\U+815B_1
 62
     7
100
AcDbVertex
100
AcDb2dVertex
 10
49.16926403935699
 20
107.4092922366025
 30
0.0
  0
VERTEX
  5
2A0
330
29E
100
AcDbEntity
  8
\U+838C\U+8343\U+8384\U+815B_1
 62
     7
100
AcDbVertex
100
AcDb2dVertex
 10
49.47449949935013
 20
100.269848607745
 30
0.0
  0
SEQEND
  5
2A1
330
29E
100
AcDbEntity
  8
\U+838C\U+8343\U+8384\U+815B_1
  0
ENDBLK
  5
29D
330
29A
100
AcDbEntity
  8
0
100
AcDbBlockEnd
  0
BLOCK
  5
2A4
330
2A2
100
AcDbEntity
  8
0
100
AcDbBlockBegin
  2
BLOCK_29
 70
     0
 71
     0
 10
0.0
 20
0.0
 30
0.0
  3
BLOCK_29
  1

  0
POLYLINE
  5
2A6
330
2A2
100
AcDbEntity
  8
\U+838C\U+8343\U+8384\U+815B_1
 62
     7
100
AcDb2dPolyline
 66
     1
 10
0.0
 20
0.0
 30
0.0
  0
VERTEX
  5
2A7
330
2A6
100
AcDbEntity
  8
\U+838C\U+8343\U+8384\U+815B_1
 62
     7
100
AcDbVertex
100
AcDb2dVertex
 10
49.47449949935013
 20
100.3911159688258
 30
0.0
  0
VERTEX
  5
2A8
330
2A6
100
AcDbEntity
  8
\U+838C\U+8343\U+8384\U+815B_1
 62
     7
100
AcDbVertex
100
AcDb2dVertex
 10
49.53547768943905
 20
98.98758406813505
 30
0.0
  0
VERTEX
  5
2A9
330
2A6
100
AcDbEntity
  8
\U+838C\U+8343\U+8384\U+815B_1
 62
     7
100
AcDbVertex
100
AcDb2dVertex
 10
49.779562704569
 20
96.79099118673976
 30
0.0
  0
VERTEX
  5
2AA
330
2A6
100
AcDbEntity
  8
\U+838C\U+8343\U+8384\U+815B_1
 62
     7
100
AcDbVertex
100
AcDb2dVertex
 10
50.14577635465105
 20
94.59370928624742
 30
0.0
  0
VERTEX
  5
2AB
330
2A6
100
AcDbEntity
  8
\U+838C\U+8343\U+8384\U+815B_1
 62
     7
100
AcDbVertex
100
AcDb2dVertex
 10
50.69492457499988
 20
92.39711640485211
 30
0.0
  0
VERTEX
  5
2AC
330
2A6
100
AcDbEntity
  8
\U+838C\U+8343\U+8384\U+815B_1
 62
     7
100
AcDbVertex
100
AcDb2dVertex
 10
51.30522324021189
 20
90.26115720399721
 30
0.0
  0
VERTEX
  5
2AD
330
2A6
100
AcDbEntity
  8
\U+838C\U+8343\U+8384\U+815B_1
 62
     7
100
AcDbVertex
100
AcDb2dVertex
 10
52.09862873046493
 20
88.12519800314232
 30
0.0
  0
VERTEX
  5
2AE
330
2A6
100
AcDbEntity
  8
\U+838C\U+8343\U+8384\U+815B_1
 62
     7
100
AcDbVertex
100
AcDb2dVertex
 10
53.01416285567007
 20
85.98923880228742
 30
0.0
  0
VERTEX
  5
2AF
330
2A6
100
AcDbEntity
  8
\U+838C\U+8343\U+8384\U+815B_1
 62
     7
100
AcDbVertex
100
AcDb2dVertex
 10
54.11245929636772
 20
83.91460230106996
 30
0.0
  0
VERTEX
  5
2B0
330
2A6
100
AcDbEntity
  8
\U+838C\U+8343\U+8384\U+815B_1
 62
     7
100
AcDbVertex
100
AcDb2dVertex
 10
55.27190618192856
 20
81.83996579985251
 30
0.0
  0
VERTEX
  5
2B1
330
2A6
100
AcDbEntity
  8
\U+838C\U+8343\U+8384\U+815B_1
 62
     7
100
AcDbVertex
100
AcDb2dVertex
 10
56.61463214730468
 20
79.76464027953801
 30
0.0
  0
VERTEX
  5
2B2
330
2A6
100
AcDbEntity
  8
\U+838C\U+8343\U+8384\U+815B_1
 62
     7
100
AcDbVertex
100
AcDb2dVertex
 10
58.0179917932212
 20
77.751326477958
 30
0.0
  0
VERTEX
  5
2B3
330
2A6
100
AcDbEntity
  8
\U+838C\U+8343\U+8384\U+815B_1
 62
     7
100
AcDbVertex
100
AcDb2dVertex
 10
59.60480277372727
 20
75.73732365728095
 30
0.0
  0
VERTEX
  5
2B4
330
2A6
100
AcDbEntity
  8
\U+838C\U+8343\U+8384\U+815B_1
 62
     7
100
AcDbVertex
100
AcDb2dVertex
 10
61.31374238918546
 20
73.78464353624135
 30
0.0
  0
VERTEX
  5
2B5
330
2A6
100
AcDbEntity
  8
\U+838C\U+8343\U+8384\U+815B_1
 62
     7
100
AcDbVertex
100
AcDb2dVertex
 10
63.14446613004722
 20
71.89259709574213
 30
0.0
  0
VERTEX
  5
2B6
330
2A6
100
AcDbEntity
  8
\U+838C\U+8343\U+8384\U+815B_1
 62
     7
100
AcDbVertex
100
AcDb2dVertex
 10
65.03599580622364
 20
70.00055065524292
 30
0.0
  0
VERTEX
  5
2B7
330
2A6
100
AcDbEntity
  8
\U+838C\U+8343\U+8384\U+815B_1
 62
     7
100
AcDbVertex
100
AcDb2dVertex
 10
67.11114907176388
 20
68.16982691438116
 30
0.0
  0
VERTEX
  5
2B8
330
2A6
100
AcDbEntity
  8
\U+838C\U+8343\U+8384\U+815B_1
 62
     7
100
AcDbVertex
100
AcDb2dVertex
 10
69.30774195315918
 20
66.40042587315683
 30
0.0
  0
VERTEX
  5
2B9
330
2A6
100
AcDbEntity
  8
\U+838C\U+8343\U+8384\U+815B_1
 62
     7
100
AcDbVertex
100
AcDb2dVertex
 10
71.56582978896618
 20
64.69096949337587
 30
0.0
  0
VERTEX
  5
2BA
330
2A6
100
AcDbEntity
  8
\U+838C\U+8343\U+8384\U+815B_1
 62
     7
100
AcDbVertex
100
AcDb2dVertex
 10
73.94604625972529
 20
62.982891151789
 30
0.0
  0
VERTEX
  5
2BB
330
2A6
100
AcDbEntity
  8
\U+838C\U+8343\U+8384\U+815B_1
 62
     7
100
AcDbVertex
100
AcDb2dVertex
 10
76.44787460111372
 20
61.39608017128293
 30
0.0
  0
VERTEX
  5
2BC
330
2A6
100
AcDbEntity
  8
\U+838C\U+8343\U+8384\U+815B_1
 62
     7
100
AcDbVertex
100
AcDb2dVertex
 10
79.07200383222853
 20
59.80926919077685
 30
0.0
  0
VERTEX
  5
2BD
330
2A6
100
AcDbEntity
  8
\U+838C\U+8343\U+8384\U+815B_1
 62
     7
100
AcDbVertex
100
AcDb2dVertex
 10
81.75728350820651
 20
58.34510360954567
 30
0.0
  0
VERTEX
  5
2BE
330
2A6
100
AcDbEntity
  8
\U+838C\U+8343\U+8384\U+815B_1
 62
     7
100
AcDbVertex
100
AcDb2dVertex
 10
84.50354137427342
 20
56.88024900921744
 30
0.0
  0
VERTEX
  5
2BF
330
2A6
100
AcDbEntity
  8
\U+838C\U+8343\U+8384\U+815B_1
 62
     7
100
AcDbVertex
100
AcDb2dVertex
 10
87.37175562051817
 20
55.53735078906706
 30
0.0
  0
VERTEX
  5
2C0
330
2A6
100
AcDbEntity
  8
\U+838C\U+8343\U+8384\U+815B_1
 62
     7
100
AcDbVertex
100
AcDb2dVertex
 10
90.30094805685185
 20
54.19514158801372
 30
0.0
  0
VERTEX
  5
2C1
330
2A6
100
AcDbEntity
  8
\U+838C\U+8343\U+8384\U+815B_1
 62
     7
100
AcDbVertex
100
AcDb2dVertex
 10
93.35226912813764
 20
52.97488876713822
 30
0.0
  0
VERTEX
  5
2C2
330
2A6
100
AcDbEntity
  8
\U+838C\U+8343\U+8384\U+815B_1
 62
     7
100
AcDbVertex
100
AcDb2dVertex
 10
96.46422387996381
 20
51.81526962680313
 30
0.0
  0
VERTEX
  5
2C3
330
2A6
100
AcDbEntity
  8
\U+838C\U+8343\U+8384\U+815B_1
 62
     7
100
AcDbVertex
100
AcDb2dVertex
 10
99.6376735862017
 20
50.71697318610548
 30
0.0
  0
VERTEX
  5
2C4
330
2A6
100
AcDbEntity
  8
\U+838C\U+8343\U+8384\U+815B_1
 62
     7
100
AcDbVertex
100
AcDb2dVertex
 10
102.8719292277543
 20
49.67931042594823
 30
0.0
  0
VERTEX
  5
2C5
330
2A6
100
AcDbEntity
  8
\U+838C\U+8343\U+8384\U+815B_1
 62
     7
100
AcDbVertex
100
AcDb2dVertex
 10
106.1676798237185
 20
48.70297036542843
 30
0.0
  0
VERTEX
  5
2C6
330
2A6
100
AcDbEntity
  8
\U+838C\U+8343\U+8384\U+815B_1
 62
     7
100
AcDbVertex
100
AcDb2dVertex
 10
109.5240641002232
 20
47.84858668508647
 30
0.0
  0
VERTEX
  5
2C7
330
2A6
100
AcDbEntity
  8
\U+838C\U+8343\U+8384\U+815B_1
 62
     7
100
AcDbVertex
100
AcDb2dVertex
 10
112.9412543120425
 20
46.99351398564745
 30
0.0
  0
VERTEX
  5
2C8
330
2A6
100
AcDbEntity
  8
\U+838C\U+8343\U+8384\U+815B_1
 62
     7
100
AcDbVertex
100
AcDb2dVertex
 10
116.4197672234992
 20
46.26177570458039
 30
0.0
  0
VERTEX
  5
2C9
330
2A6
100
AcDbEntity
  8
\U+838C\U+8343\U+8384\U+815B_1
 62
     7
100
AcDbVertex
100
AcDb2dVertex
 10
119.8984523897303
 20
45.59067110405373
 30
0.0
  0
VERTEX
  5
2CA
330
2A6
100
AcDbEntity
  8
\U+838C\U+8343\U+8384\U+815B_1
 62
     7
100
AcDbVertex
100
AcDb2dVertex
 10
123.4377712365017
 20
45.0415228837049
 30
0.0
  0
VERTEX
  5
2CB
330
2A6
100
AcDbEntity
  8
\U+838C\U+8343\U+8384\U+815B_1
 62
     7
100
AcDbVertex
100
AcDb2dVertex
 10
127.0385850376848
 20
44.49168564425902
 30
0.0
  0
VERTEX
  5
2CC
330
2A6
100
AcDbEntity
  8
\U+838C\U+8343\U+8384\U+815B_1
 62
     7
100
AcDbVertex
100
AcDb2dVertex
 10
130.6387098197709
 20
44.06449380408804
 30
0.0
  0
VERTEX
  5
2CD
330
2A6
100
AcDbEntity
  8
\U+838C\U+8343\U+8384\U+815B_1
 62
     7
100
AcDbVertex
100
AcDb2dVertex
 10
134.239523620954
 20
43.75925834409491
 30
0.0
  0
VERTEX
  5
2CE
330
2A6
100
AcDbEntity
  8
\U+838C\U+8343\U+8384\U+815B_1
 62
     7
100
AcDbVertex
100
AcDb2dVertex
 10
137.9009711026775
 20
43.45471190319883
 30
0.0
  0
VERTEX
  5
2CF
330
2A6
100
AcDbEntity
  8
\U+838C\U+8343\U+8384\U+815B_1
 62
     7
100
AcDbVertex
100
AcDb2dVertex
 10
141.5625908391753
 20
43.27143282338353
 30
0.0
  0
VERTEX
  5
2D0
330
2A6
100
AcDbEntity
  8
\U+838C\U+8343\U+8384\U+815B_1
 62
     7
100
AcDbVertex
100
AcDb2dVertex
 10
145.2240383208989
 20
43.14947644320569
 30
0.0
  0
VERTEX
  5
2D1
330
2A6
100
AcDbEntity
  8
\U+838C\U+8343\U+8384\U+815B_1
 62
     7
100
AcDbVertex
100
AcDb2dVertex
 10
148.8856580573967
 20
43.14947644320569
 30
0.0
  0
VERTEX
  5
2D2
330
2A6
100
AcDbEntity
  8
\U+838C\U+8343\U+8384\U+815B_1
 62
     7
100
AcDbVertex
100
AcDb2dVertex
 10
152.6080837292091
 20
43.14947644320569
 30
0.0
  0
VERTEX
  5
2D3
330
2A6
100
AcDbEntity
  8
\U+838C\U+8343\U+8384\U+815B_1
 62
     7
100
AcDbVertex
100
AcDb2dVertex
 10
156.2695312109326
 20
43.33206650392393
 30
0.0
  0
VERTEX
  5
2D4
330
2A6
100
AcDbEntity
  8
\U+838C\U+8343\U+8384\U+815B_1
 62
     7
100
AcDbVertex
100
AcDb2dVertex
 10
159.9309786926561
 20
43.51603460283627
 30
0.0
  0
VERTEX
  5
2D5
330
2A6
100
AcDbEntity
  8
\U+838C\U+8343\U+8384\U+815B_1
 62
     7
100
AcDbVertex
100
AcDb2dVertex
 10
163.5317924938393
 20
43.82127006282941
 30
0.0
  0
VERTEX
  5
2D6
330
2A6
100
AcDbEntity
  8
\U+838C\U+8343\U+8384\U+815B_1
 62
     7
100
AcDbVertex
100
AcDb2dVertex
 10
167.1932399755628
 20
44.18713920336294
 30
0.0
  0
VERTEX
  5
2D7
330
2A6
100
AcDbEntity
  8
\U+838C\U+8343\U+8384\U+815B_1
 62
     7
100
AcDbVertex
100
AcDb2dVertex
 10
170.7937092671974
 20
44.61433104353392
 30
0.0
  0
VERTEX
  5
2D8
330
2A6
100
AcDbEntity
  8
\U+838C\U+8343\U+8384\U+815B_1
 62
     7
100
AcDbVertex
100
AcDb2dVertex
 10
174.3335448782916
 20
45.1627902447857
 30
0.0
  0
VERTEX
  5
2D9
330
2A6
100
AcDbEntity
  8
\U+838C\U+8343\U+8384\U+815B_1
 62
     7
100
AcDbVertex
100
AcDb2dVertex
 10
177.8730359798373
 20
45.71262748423157
 30
0.0
  0
VERTEX
  5
2DA
330
2A6
100
AcDbEntity
  8
\U+838C\U+8343\U+8384\U+815B_1
 62
     7
100
AcDbVertex
100
AcDb2dVertex
 10
181.3515488912941
 20
46.44505478439568
 30
0.0
  0
VERTEX
  5
2DB
330
2A6
100
AcDbEntity
  8
\U+838C\U+8343\U+8384\U+815B_1
 62
     7
100
AcDbVertex
100
AcDb2dVertex
 10
184.8293727836538
 20
47.1774820845598
 30
0.0
  0
VERTEX
  5
2DC
330
2A6
100
AcDbEntity
  8
\U+838C\U+8343\U+8384\U+815B_1
 62
     7
100
AcDbVertex
100
AcDb2dVertex
 10
188.2472520145701
 20
47.97054306526431
 30
0.0
  0
VERTEX
  5
2DD
330
2A6
100
AcDbEntity
  8
\U+838C\U+8343\U+8384\U+815B_1
 62
     7
100
AcDbVertex
100
AcDb2dVertex
 10
191.6038085458491
 20
48.88624944524372
 30
0.0
  0
VERTEX
  5
2DE
330
2A6
100
AcDbEntity
  8
\U+838C\U+8343\U+8384\U+815B_1
 62
     7
100
AcDbVertex
100
AcDb2dVertex
 10
194.8380641874016
 20
49.86190048666647
 30
0.0
  0
VERTEX
  5
2DF
330
2A6
100
AcDbEntity
  8
\U+838C\U+8343\U+8384\U+815B_1
 62
     7
100
AcDbVertex
100
AcDb2dVertex
 10
198.0723198289542
 20
50.89956324682372
 30
0.0
  0
VERTEX
  5
2E0
330
2A6
100
AcDbEntity
  8
\U+838C\U+8343\U+8384\U+815B_1
 62
     7
100
AcDbVertex
100
AcDb2dVertex
 10
201.2455972804178
 20
52.05918238715882
 30
0.0
  0
VERTEX
  5
2E1
330
2A6
100
AcDbEntity
  8
\U+838C\U+8343\U+8384\U+815B_1
 62
     7
100
AcDbVertex
100
AcDb2dVertex
 10
204.3578965417925
 20
53.21880152749392
 30
0.0
  0
VERTEX
  5
2E2
330
2A6
100
AcDbEntity
  8
\U+838C\U+8343\U+8384\U+815B_1
 62
     7
100
AcDbVertex
100
AcDb2dVertex
 10
207.3482394229893
 20
54.50037704800685
 30
0.0
  0
VERTEX
  5
2E3
330
2A6
100
AcDbEntity
  8
\U+838C\U+8343\U+8384\U+815B_1
 62
     7
100
AcDbVertex
100
AcDb2dVertex
 10
210.2772596045488
 20
55.78195256851979
 30
0.0
  0
VERTEX
  5
2E4
330
2A6
100
AcDbEntity
  8
\U+838C\U+8343\U+8384\U+815B_1
 62
     7
100
AcDbVertex
100
AcDb2dVertex
 10
213.1456461055678
 20
57.18548446921058
 30
0.0
  0
VERTEX
  5
2E5
330
2A6
100
AcDbEntity
  8
\U+838C\U+8343\U+8384\U+815B_1
 62
     7
100
AcDbVertex
100
AcDb2dVertex
 10
215.8917317168604
 20
58.65033906953881
 30
0.0
  0
VERTEX
  5
2E6
330
2A6
100
AcDbEntity
  8
\U+838C\U+8343\U+8384\U+815B_1
 62
     7
100
AcDbVertex
100
AcDb2dVertex
 10
218.5771836476127
 20
60.17582735040744
 30
0.0
  0
VERTEX
  5
2E7
330
2A6
100
AcDbEntity
  8
\U+838C\U+8343\U+8384\U+815B_1
 62
     7
100
AcDbVertex
100
AcDb2dVertex
 10
221.13999017909
 20
61.76194931181646
 30
0.0
  0
VERTEX
  5
2E8
330
2A6
100
AcDbEntity
  8
\U+838C\U+8343\U+8384\U+815B_1
 62
     7
100
AcDbVertex
100
AcDb2dVertex
 10
223.5808403303895
 20
63.34944931141958
 30
0.0
  0
VERTEX
  5
2E9
330
2A6
100
AcDbEntity
  8
\U+838C\U+8343\U+8384\U+815B_1
 62
     7
100
AcDbVertex
100
AcDb2dVertex
 10
225.9610568011486
 20
65.05752765300646
 30
0.0
  0
VERTEX
  5
2EA
330
2A6
100
AcDbEntity
  8
\U+838C\U+8343\U+8384\U+815B_1
 62
     7
100
AcDbVertex
100
AcDb2dVertex
 10
228.2193168917299
 20
66.76629501369037
 30
0.0
  0
VERTEX
  5
2EB
330
2A6
100
AcDbEntity
  8
\U+838C\U+8343\U+8384\U+815B_1
 62
     7
100
AcDbVertex
100
AcDb2dVertex
 10
230.3549315830363
 20
68.59701875455214
 30
0.0
  0
VERTEX
  5
2EC
330
2A6
100
AcDbEntity
  8
\U+838C\U+8343\U+8384\U+815B_1
 62
     7
100
AcDbVertex
100
AcDb2dVertex
 10
232.4295680842537
 20
70.4277424954139
 30
0.0
  0
VERTEX
  5
2ED
330
2A6
100
AcDbEntity
  8
\U+838C\U+8343\U+8384\U+815B_1
 62
     7
100
AcDbVertex
100
AcDb2dVertex
 10
234.3216145247529
 20
72.31978893591311
 30
0.0
  0
VERTEX
  5
2EE
330
2A6
100
AcDbEntity
  8
\U+838C\U+8343\U+8384\U+815B_1
 62
     7
100
AcDbVertex
100
AcDb2dVertex
 10
236.1523382656147
 20
74.21183537641232
 30
0.0
  0
VERTEX
  5
2EF
330
2A6
100
AcDbEntity
  8
\U+838C\U+8343\U+8384\U+815B_1
 62
     7
100
AcDbVertex
100
AcDb2dVertex
 10
237.8004719457582
 20
76.22514917799232
 30
0.0
  0
VERTEX
  5
2F0
330
2A6
100
AcDbEntity
  8
\U+838C\U+8343\U+8384\U+815B_1
 62
     7
100
AcDbVertex
100
AcDb2dVertex
 10
239.3865939071673
 20
78.23915199866939
 30
0.0
  0
VERTEX
  5
2F1
330
2A6
100
AcDbEntity
  8
\U+838C\U+8343\U+8384\U+815B_1
 62
     7
100
AcDbVertex
100
AcDb2dVertex
 10
240.790125807858
 20
80.25315481934643
 30
0.0
  0
VERTEX
  5
2F2
330
2A6
100
AcDbEntity
  8
\U+838C\U+8343\U+8384\U+815B_1
 62
     7
100
AcDbVertex
100
AcDb2dVertex
 10
242.0720458379195
 20
82.32779132056389
 30
0.0
  0
VERTEX
  5
2F3
330
2A6
100
AcDbEntity
  8
\U+838C\U+8343\U+8384\U+815B_1
 62
     7
100
AcDbVertex
100
AcDb2dVertex
 10
243.2313204687061
 20
84.46375052141879
 30
0.0
  0
VERTEX
  5
2F4
330
2A6
100
AcDbEntity
  8
\U+838C\U+8343\U+8384\U+815B_1
 62
     7
100
AcDbVertex
100
AcDb2dVertex
 10
244.2689832288633
 20
86.59970972227369
 30
0.0
  0
VERTEX
  5
2F5
330
2A6
100
AcDbEntity
  8
\U+838C\U+8343\U+8384\U+815B_1
 62
     7
100
AcDbVertex
100
AcDb2dVertex
 10
245.1843450992942
 20
88.73566892312859
 30
0.0
  0
VERTEX
  5
2F6
330
2A6
100
AcDbEntity
  8
\U+838C\U+8343\U+8384\U+815B_1
 62
     7
100
AcDbVertex
100
AcDb2dVertex
 10
245.9167723994583
 20
90.87162812398348
 30
0.0
  0
VERTEX
  5
2F7
330
2A6
100
AcDbEntity
  8
\U+838C\U+8343\U+8384\U+815B_1
 62
     7
100
AcDbVertex
100
AcDb2dVertex
 10
246.5268988098961
 20
93.06822100537879
 30
0.0
  0
VERTEX
  5
2F8
330
2A6
100
AcDbEntity
  8
\U+838C\U+8343\U+8384\U+815B_1
 62
     7
100
AcDbVertex
100
AcDb2dVertex
 10
247.015068840156
 20
95.26550290587113
 30
0.0
  0
VERTEX
  5
2F9
330
2A6
100
AcDbEntity
  8
\U+838C\U+8343\U+8384\U+815B_1
 62
     7
100
AcDbVertex
100
AcDb2dVertex
 10
247.3199597906006
 20
97.46209578726642
 30
0.0
  0
VERTEX
  5
2FA
330
2A6
100
AcDbEntity
  8
\U+838C\U+8343\U+8384\U+815B_1
 62
     7
100
AcDbVertex
100
AcDb2dVertex
 10
247.5645615700533
 20
99.65937768775878
 30
0.0
  0
VERTEX
  5
2FB
330
2A6
100
AcDbEntity
  8
\U+838C\U+8343\U+8384\U+815B_1
 62
     7
100
AcDbVertex
100
AcDb2dVertex
 10
247.5645615700533
 20
100.2085259081076
 30
0.0
  0
SEQEND
  5
2FC
330
2A6
100
AcDbEntity
  8
\U+838C\U+8343\U+8384\U+815B_1
  0
ENDBLK
  5
2A5
330
2A2
100
AcDbEntity
  8
0
100
AcDbBlockEnd
  0
BLOCK
  5
2FF
330
2FD
100
AcDbEntity
  8
0
100
AcDbBlockBegin
  2
BLOCK_30
 70
     0
 71
     0
 10
0.0
 20
0.0
 30
0.0
  3
BLOCK_30
  1

  0
POLYLINE
  5
301
330
2FD
100
AcDbEntity
  8
\U+838C\U+8343\U+8384\U+815B_1
 62
     7
100
AcDb2dPolyline
 66
     1
 10
0.0
 20
0.0
 30
0.0
  0
VERTEX
  5
302
330
301
100
AcDbEntity
  8
\U+838C\U+8343\U+8384\U+815B_1
 62
     7
100
AcDbVertex
100
AcDb2dVertex
 10
49.04747991395341
 20
108.3246541070334
 30
0.0
  0
VERTEX
  5
303
330
301
100
AcDbEntity
  8
\U+838C\U+8343\U+8384\U+815B_1
 62
     7
100
AcDbVertex
100
AcDb2dVertex
 10
49.04747991395341
 20
108.2030422364041
 30
0.0
  0
VERTEX
  5
304
330
301
100
AcDbEntity
  8
\U+838C\U+8343\U+8384\U+815B_1
 62
     7
100
AcDbVertex
100
AcDb2dVertex
 10
49.16926403935699
 20
105.9451266553714
 30
0.0
  0
VERTEX
  5
305
330
301
100
AcDbEntity
  8
\U+838C\U+8343\U+8384\U+815B_1
 62
     7
100
AcDbVertex
100
AcDb2dVertex
 10
49.23041448422018
 20
105.3346557353851
 30
0.0
  0
SEQEND
  5
306
330
301
100
AcDbEntity
  8
\U+838C\U+8343\U+8384\U+815B_1
  0
ENDBLK
  5
300
330
2FD
100
AcDbEntity
  8
0
100
AcDbBlockEnd
  0
BLOCK
  5
309
330
307
100
AcDbEntity
  8
0
100
AcDbBlockBegin
  2
BLOCK_31
 70
     0
 71
     0
 10
0.0
 20
0.0
 30
0.0
  3
BLOCK_31
  1

  0
POLYLINE
  5
30B
330
307
100
AcDbEntity
  8
\U+838C\U+8343\U+8384\U+815B_1
 62
     7
100
AcDb2dPolyline
 66
     1
 10
0.0
 20
0.0
 30
0.0
  0
VERTEX
  5
30C
330
30B
100
AcDbEntity
  8
\U+838C\U+8343\U+8384\U+815B_1
 62
     7
100
AcDbVertex
100
AcDb2dVertex
 10
247.8081298208605
 20
105.3346557353851
 30
0.0
  0
VERTEX
  5
30D
330
30B
100
AcDbEntity
  8
\U+838C\U+8343\U+8384\U+815B_1
 62
     7
100
AcDbVertex
100
AcDb2dVertex
 10
247.8694525204979
 20
106.4939303661717
 30
0.0
  0
VERTEX
  5
30E
330
30B
100
AcDbEntity
  8
\U+838C\U+8343\U+8384\U+815B_1
 62
     7
100
AcDbVertex
100
AcDb2dVertex
 10
247.9910643911273
 20
108.3246541070334
 30
0.0
  0
SEQEND
  5
30F
330
30B
100
AcDbEntity
  8
\U+838C\U+8343\U+8384\U+815B_1
  0
ENDBLK
  5
30A
330
307
100
AcDbEntity
  8
0
100
AcDbBlockEnd
  0
BLOCK
  5
312
330
310
100
AcDbEntity
  8
0
100
AcDbBlockBegin
  2
BLOCK_32
 70
     0
 71
     0
 10
0.0
 20
0.0
 30
0.0
  3
BLOCK_32
  1

  0
POLYLINE
  5
314
330
310
100
AcDbEntity
  8
\U+838C\U+8343\U+8384\U+815B_1
 62
     7
100
AcDb2dPolyline
 66
     1
 10
0.0
 20
0.0
 30
0.0
  0
VERTEX
  5
315
330
314
100
AcDbEntity
  8
\U+838C\U+8343\U+8384\U+815B_1
 62
     7
100
AcDbVertex
100
AcDb2dVertex
 10
243.719490498966
 20
128.1580688156167
 30
0.0
  0
VERTEX
  5
316
330
314
100
AcDbEntity
  8
\U+838C\U+8343\U+8384\U+815B_1
 62
     7
100
AcDbVertex
100
AcDb2dVertex
 10
243.5978786283366
 20
128.3416924049806
 30
0.0
  0
VERTEX
  5
317
330
314
100
AcDbEntity
  8
\U+838C\U+8343\U+8384\U+815B_1
 62
     7
100
AcDbVertex
100
AcDb2dVertex
 10
242.2549804081863
 20
130.4774793510612
 30
0.0
  0
VERTEX
  5
318
330
314
100
AcDbEntity
  8
\U+838C\U+8343\U+8384\U+815B_1
 62
     7
100
AcDbVertex
100
AcDb2dVertex
 10
240.7294921273176
 20
132.5521158522786
 30
0.0
  0
VERTEX
  5
319
330
314
100
AcDbEntity
  8
\U+838C\U+8343\U+8384\U+815B_1
 62
     7
100
AcDbVertex
100
AcDb2dVertex
 10
239.0817029567226
 20
134.6272691178189
 30
0.0
  0
VERTEX
  5
31A
330
314
100
AcDbEntity
  8
\U+838C\U+8343\U+8384\U+815B_1
 62
     7
100
AcDbVertex
100
AcDb2dVertex
 10
237.2509792158609
 20
136.6409274289474
 30
0.0
  0
VERTEX
  5
31B
330
314
100
AcDbEntity
  8
\U+838C\U+8343\U+8384\U+815B_1
 62
     7
100
AcDbVertex
100
AcDb2dVertex
 10
235.3592772849102
 20
138.5937798047613
 30
0.0
  0
VERTEX
  5
31C
330
314
100
AcDbEntity
  8
\U+838C\U+8343\U+8384\U+815B_1
 62
     7
100
AcDbVertex
100
AcDb2dVertex
 10
233.2842962741442
 20
140.485481735712
 30
0.0
  0
VERTEX
  5
31D
330
314
100
AcDbEntity
  8
\U+838C\U+8343\U+8384\U+815B_1
 62
     7
100
AcDbVertex
100
AcDb2dVertex
 10
231.0873588832004
 20
142.3775281762112
 30
0.0
  0
VERTEX
  5
31E
330
314
100
AcDbEntity
  8
\U+838C\U+8343\U+8384\U+815B_1
 62
     7
100
AcDbVertex
100
AcDb2dVertex
 10
228.8294433021676
 20
144.2084241718472
 30
0.0
  0
VERTEX
  5
31F
330
314
100
AcDbEntity
  8
\U+838C\U+8343\U+8384\U+815B_1
 62
     7
100
AcDbVertex
100
AcDb2dVertex
 10
226.3882486413196
 20
145.9778252130715
 30
0.0
  0
VERTEX
  5
320
330
314
100
AcDbEntity
  8
\U+838C\U+8343\U+8384\U+815B_1
 62
     7
100
AcDbVertex
100
AcDb2dVertex
 10
223.8250976002937
 20
147.6862480642069
 30
0.0
  0
VERTEX
  5
321
330
314
100
AcDbEntity
  8
\U+838C\U+8343\U+8384\U+815B_1
 62
     7
100
AcDbVertex
100
AcDb2dVertex
 10
221.2013128787275
 20
149.3342094895762
 30
0.0
  0
VERTEX
  5
322
330
314
100
AcDbEntity
  8
\U+838C\U+8343\U+8384\U+815B_1
 62
     7
100
AcDbVertex
100
AcDb2dVertex
 10
218.3935600582489
 20
150.9211927248565
 30
0.0
  0
VERTEX
  5
323
330
314
100
AcDbEntity
  8
\U+838C\U+8343\U+8384\U+815B_1
 62
     7
100
AcDbVertex
100
AcDb2dVertex
 10
215.5258625763269
 20
152.4468532604994
 30
0.0
  0
VERTEX
  5
324
330
314
100
AcDbEntity
  8
\U+838C\U+8343\U+8384\U+815B_1
 62
     7
100
AcDbVertex
100
AcDb2dVertex
 10
212.5961533756704
 20
153.9110188417306
 30
0.0
  0
VERTEX
  5
325
330
314
100
AcDbEntity
  8
\U+838C\U+8343\U+8384\U+815B_1
 62
     7
100
AcDbVertex
100
AcDb2dVertex
 10
209.4841986238442
 20
155.3145507424214
 30
0.0
  0
VERTEX
  5
326
330
314
100
AcDbEntity
  8
\U+838C\U+8343\U+8384\U+815B_1
 62
     7
100
AcDbVertex
100
AcDb2dVertex
 10
206.3718993624695
 20
156.6572767077975
 30
0.0
  0
VERTEX
  5
327
330
314
100
AcDbEntity
  8
\U+838C\U+8343\U+8384\U+815B_1
 62
     7
100
AcDbVertex
100
AcDb2dVertex
 10
203.1372992113685
 20
157.939196737859
 30
0.0
  0
VERTEX
  5
328
330
314
100
AcDbEntity
  8
\U+838C\U+8343\U+8384\U+815B_1
 62
     7
100
AcDbVertex
100
AcDb2dVertex
 10
199.7807426800896
 20
159.0982991138713
 30
0.0
  0
VERTEX
  5
329
330
314
100
AcDbEntity
  8
\U+838C\U+8343\U+8384\U+815B_1
 62
     7
100
AcDbVertex
100
AcDb2dVertex
 10
196.3635524682702
 20
160.1965955545689
 30
0.0
  0
VERTEX
  5
32A
330
314
100
AcDbEntity
  8
\U+838C\U+8343\U+8384\U+815B_1
 62
     7
100
AcDbVertex
100
AcDb2dVertex
 10
192.8850395568135
 20
161.2342583147262
 30
0.0
  0
VERTEX
  5
32B
330
314
100
AcDbEntity
  8
\U+838C\U+8343\U+8384\U+815B_1
 62
     7
100
AcDbVertex
100
AcDb2dVertex
 10
189.3455484552678
 20
162.2109428847945
 30
0.0
  0
VERTEX
  5
32C
330
314
100
AcDbEntity
  8
\U+838C\U+8343\U+8384\U+815B_1
 62
     7
100
AcDbVertex
100
AcDb2dVertex
 10
185.7447346540847
 20
163.0649820555879
 30
0.0
  0
VERTEX
  5
32D
330
314
100
AcDbEntity
  8
\U+838C\U+8343\U+8384\U+815B_1
 62
     7
100
AcDbVertex
100
AcDb2dVertex
 10
182.0832871723611
 20
163.8582152910667
 30
0.0
  0
VERTEX
  5
32E
330
314
100
AcDbEntity
  8
\U+838C\U+8343\U+8384\U+815B_1
 62
     7
100
AcDbVertex
100
AcDb2dVertex
 10
178.3608615005487
 20
164.5906425912308
 30
0.0
  0
VERTEX
  5
32F
330
314
100
AcDbEntity
  8
\U+838C\U+8343\U+8384\U+815B_1
 62
     7
100
AcDbVertex
100
AcDb2dVertex
 10
174.6387803382848
 20
165.2007690016686
 30
0.0
  0
VERTEX
  5
330
330
314
100
AcDbEntity
  8
\U+838C\U+8343\U+8384\U+815B_1
 62
     7
100
AcDbVertex
100
AcDb2dVertex
 10
170.7937092671974
 20
165.7502617315659
 30
0.0
  0
VERTEX
  5
331
330
314
100
AcDbEntity
  8
\U+838C\U+8343\U+8384\U+815B_1
 62
     7
100
AcDbVertex
100
AcDb2dVertex
 10
167.010305405296
 20
166.2384317618258
 30
0.0
  0
VERTEX
  5
332
330
314
100
AcDbEntity
  8
\U+838C\U+8343\U+8384\U+815B_1
 62
     7
100
AcDbVertex
100
AcDb2dVertex
 10
163.1046006536683
 20
166.6043009023593
 30
0.0
  0
VERTEX
  5
333
330
314
100
AcDbEntity
  8
\U+838C\U+8343\U+8384\U+815B_1
 62
     7
100
AcDbVertex
100
AcDb2dVertex
 10
159.2598740921295
 20
166.8487304270378
 30
0.0
  0
VERTEX
  5
334
330
314
100
AcDbEntity
  8
\U+838C\U+8343\U+8384\U+815B_1
 62
     7
100
AcDbVertex
100
AcDb2dVertex
 10
155.3541693405018
 20
167.0316649973046
 30
0.0
  0
VERTEX
  5
335
330
314
100
AcDbEntity
  8
\U+838C\U+8343\U+8384\U+815B_1
 62
     7
100
AcDbVertex
100
AcDb2dVertex
 10
151.4488090984225
 20
167.1537936322567
 30
0.0
  0
VERTEX
  5
336
330
314
100
AcDbEntity
  8
\U+838C\U+8343\U+8384\U+815B_1
 62
     7
100
AcDbVertex
100
AcDb2dVertex
 10
147.5429320920205
 20
167.2145995675714
 30
0.0
  0
VERTEX
  5
337
330
314
100
AcDbEntity
  8
\U+838C\U+8343\U+8384\U+815B_1
 62
     7
100
AcDbVertex
100
AcDb2dVertex
 10
143.6370550856185
 20
167.1537936322567
 30
0.0
  0
VERTEX
  5
338
330
314
100
AcDbEntity
  8
\U+838C\U+8343\U+8384\U+815B_1
 62
     7
100
AcDbVertex
100
AcDb2dVertex
 10
139.7318670983136
 20
166.9708590619899
 30
0.0
  0
VERTEX
  5
339
330
314
100
AcDbEntity
  8
\U+838C\U+8343\U+8384\U+815B_1
 62
     7
100
AcDbVertex
100
AcDb2dVertex
 10
135.8259900919116
 20
166.7264295373114
 30
0.0
  0
VERTEX
  5
33A
330
314
100
AcDbEntity
  8
\U+838C\U+8343\U+8384\U+815B_1
 62
     7
100
AcDbVertex
100
AcDb2dVertex
 10
131.981435785147
 20
166.4213663320926
 30
0.0
  0
VERTEX
  5
33B
330
314
100
AcDbEntity
  8
\U+838C\U+8343\U+8384\U+815B_1
 62
     7
100
AcDbVertex
100
AcDb2dVertex
 10
128.1368814783825
 20
165.9940022371473
 30
0.0
  0
VERTEX
  5
33C
330
314
100
AcDbEntity
  8
\U+838C\U+8343\U+8384\U+815B_1
 62
     7
100
AcDbVertex
100
AcDb2dVertex
 10
124.2923271716179
 20
165.5060044616617
 30
0.0
  0
VERTEX
  5
33D
330
314
100
AcDbEntity
  8
\U+838C\U+8343\U+8384\U+815B_1
 62
     7
100
AcDbVertex
100
AcDb2dVertex
 10
120.5693847354827
 20
164.8957057964497
 30
0.0
  0
VERTEX
  5
33E
330
314
100
AcDbEntity
  8
\U+838C\U+8343\U+8384\U+815B_1
 62
     7
100
AcDbVertex
100
AcDb2dVertex
 10
116.785808618807
 20
164.224601195923
 30
0.0
  0
VERTEX
  5
33F
330
314
100
AcDbEntity
  8
\U+838C\U+8343\U+8384\U+815B_1
 62
     7
100
AcDbVertex
100
AcDb2dVertex
 10
113.1241888823092
 20
163.4921738957589
 30
0.0
  0
VERTEX
  5
340
330
314
100
AcDbEntity
  8
\U+838C\U+8343\U+8384\U+815B_1
 62
     7
100
AcDbVertex
100
AcDb2dVertex
 10
109.4625691458114
 20
162.6376179606427
 30
0.0
  0
VERTEX
  5
341
330
314
100
AcDbEntity
  8
\U+838C\U+8343\U+8384\U+815B_1
 62
     7
100
AcDbVertex
100
AcDb2dVertex
 10
105.92325029904
 20
161.7222560902118
 30
0.0
  0
VERTEX
  5
342
330
314
100
AcDbEntity
  8
\U+838C\U+8343\U+8384\U+815B_1
 62
     7
100
AcDbVertex
100
AcDb2dVertex
 10
102.3839314522686
 20
160.7460882844663
 30
0.0
  0
VERTEX
  5
343
330
314
100
AcDbEntity
  8
\U+838C\U+8343\U+8384\U+815B_1
 62
     7
100
AcDbVertex
100
AcDb2dVertex
 10
98.9667412404493
 20
159.6477918437686
 30
0.0
  0
VERTEX
  5
344
330
314
100
AcDbEntity
  8
\U+838C\U+8343\U+8384\U+815B_1
 62
     7
100
AcDbVertex
100
AcDb2dVertex
 10
95.61035696394464
 20
158.5493231482967
 30
0.0
  0
VERTEX
  5
345
330
314
100
AcDbEntity
  8
\U+838C\U+8343\U+8384\U+815B_1
 62
     7
100
AcDbVertex
100
AcDb2dVertex
 10
92.31460636798037
 20
157.328898072647
 30
0.0
  0
VERTEX
  5
346
330
314
100
AcDbEntity
  8
\U+838C\U+8343\U+8384\U+815B_1
 62
     7
100
AcDbVertex
100
AcDb2dVertex
 10
89.08035072642784
 20
155.9861721072708
 30
0.0
  0
VERTEX
  5
347
330
314
100
AcDbEntity
  8
\U+838C\U+8343\U+8384\U+815B_1
 62
     7
100
AcDbVertex
100
AcDb2dVertex
 10
85.96770695550461
 20
154.6434461418947
 30
0.0
  0
VERTEX
  5
348
330
314
100
AcDbEntity
  8
\U+838C\U+8343\U+8384\U+815B_1
 62
     7
100
AcDbVertex
100
AcDb2dVertex
 10
82.97788083863054
 20
153.2400864959782
 30
0.0
  0
VERTEX
  5
349
330
314
100
AcDbEntity
  8
\U+838C\U+8343\U+8384\U+815B_1
 62
     7
100
AcDbVertex
100
AcDb2dVertex
 10
80.04868840229686
 20
151.7144259603353
 30
0.0
  0
VERTEX
  5
34A
330
314
100
AcDbEntity
  8
\U+838C\U+8343\U+8384\U+815B_1
 62
     7
100
AcDbVertex
100
AcDb2dVertex
 10
77.2411078365925
 20
150.1274427250549
 30
0.0
  0
VERTEX
  5
34B
330
314
100
AcDbEntity
  8
\U+838C\U+8343\U+8384\U+815B_1
 62
     7
100
AcDbVertex
100
AcDb2dVertex
 10
74.49502222529986
 20
148.5409762540974
 30
0.0
  0
VERTEX
  5
34C
330
314
100
AcDbEntity
  8
\U+838C\U+8343\U+8384\U+815B_1
 62
     7
100
AcDbVertex
100
AcDb2dVertex
 10
71.93187118427397
 20
146.8323811481877
 30
0.0
  0
VERTEX
  5
34D
330
314
100
AcDbEntity
  8
\U+838C\U+8343\U+8384\U+815B_1
 62
     7
100
AcDbVertex
100
AcDb2dVertex
 10
69.43004284288554
 20
145.0622910878664
 30
0.0
  0
VERTEX
  5
34E
330
314
100
AcDbEntity
  8
\U+838C\U+8343\U+8384\U+815B_1
 62
     7
100
AcDbVertex
100
AcDb2dVertex
 10
67.04965411735218
 20
143.2928900466421
 30
0.0
  0
VERTEX
  5
34F
330
314
100
AcDbEntity
  8
\U+838C\U+8343\U+8384\U+815B_1
 62
     7
100
AcDbVertex
100
AcDb2dVertex
 10
64.79225530064221
 20
141.4621663057803
 30
0.0
  0
VERTEX
  5
350
330
314
100
AcDbEntity
  8
\U+838C\U+8343\U+8384\U+815B_1
 62
     7
100
AcDbVertex
100
AcDb2dVertex
 10
62.71710203510198
 20
139.5699476105068
 30
0.0
  0
VERTEX
  5
351
330
314
100
AcDbEntity
  8
\U+838C\U+8343\U+8384\U+815B_1
 62
     7
100
AcDbVertex
100
AcDb2dVertex
 10
60.70344372397345
 20
137.617095234693
 30
0.0
  0
VERTEX
  5
352
330
314
100
AcDbEntity
  8
\U+838C\U+8343\U+8384\U+815B_1
 62
     7
100
AcDbVertex
100
AcDb2dVertex
 10
58.87254772833742
 20
135.6032646687902
 30
0.0
  0
VERTEX
  5
353
330
314
100
AcDbEntity
  8
\U+838C\U+8343\U+8384\U+815B_1
 62
     7
100
AcDbVertex
100
AcDb2dVertex
 10
57.1637803676535
 20
133.5896063576616
 30
0.0
  0
VERTEX
  5
354
330
314
100
AcDbEntity
  8
\U+838C\U+8343\U+8384\U+815B_1
 62
     7
100
AcDbVertex
100
AcDb2dVertex
 10
55.57696938714743
 20
131.5144530921214
 30
0.0
  0
VERTEX
  5
355
330
314
100
AcDbEntity
  8
\U+838C\U+8343\U+8384\U+815B_1
 62
     7
100
AcDbVertex
100
AcDb2dVertex
 10
54.11245929636772
 20
129.4399888456782
 30
0.0
  0
VERTEX
  5
356
330
314
100
AcDbEntity
  8
\U+838C\U+8343\U+8384\U+815B_1
 62
     7
100
AcDbVertex
100
AcDb2dVertex
 10
53.31922606088894
 20
128.1580688156167
 30
0.0
  0
SEQEND
  5
357
330
314
100
AcDbEntity
  8
\U+838C\U+8343\U+8384\U+815B_1
  0
ENDBLK
  5
313
330
310
100
AcDbEntity
  8
0
100
AcDbBlockEnd
  0
BLOCK
  5
35A
330
358
100
AcDbEntity
  8
0
100
AcDbBlockBegin
  2
BLOCK_33
 70
     0
 71
     0
 10
0.0
 20
0.0
 30
0.0
  3
BLOCK_33
  1

  0
POLYLINE
  5
35C
330
358
100
AcDbEntity
  8
\U+838C\U+8343\U+8384\U+815B_1
 62
     7
100
AcDb2dPolyline
 66
     1
 10
0.0
 20
0.0
 30
0.0
  0
VERTEX
  5
35D
330
35C
100
AcDbEntity
  8
\U+838C\U+8343\U+8384\U+815B_1
 62
     7
100
AcDbVertex
100
AcDb2dVertex
 10
77.7292778668524
 20
142.8656982064711
 30
0.0
  0
VERTEX
  5
35E
330
35C
100
AcDbEntity
  8
\U+838C\U+8343\U+8384\U+815B_1
 62
     7
100
AcDbVertex
100
AcDb2dVertex
 10
77.66847193153775
 20
142.8656982064711
 30
0.0
  0
VERTEX
  5
35F
330
35C
100
AcDbEntity
  8
\U+838C\U+8343\U+8384\U+815B_1
 62
     7
100
AcDbVertex
100
AcDb2dVertex
 10
77.60766599622309
 20
142.8656982064711
 30
0.0
  0
SEQEND
  5
360
330
35C
100
AcDbEntity
  8
\U+838C\U+8343\U+8384\U+815B_1
  0
ENDBLK
  5
35B
330
358
100
AcDbEntity
  8
0
100
AcDbBlockEnd
  0
BLOCK
  5
363
330
361
100
AcDbEntity
  8
0
100
AcDbBlockBegin
  2
BLOCK_34
 70
     0
 71
     0
 10
0.0
 20
0.0
 30
0.0
  3
BLOCK_34
  1

  0
POLYLINE
  5
365
330
361
100
AcDbEntity
  8
\U+838C\U+8343\U+8384\U+815B_1
 62
     7
100
AcDb2dPolyline
 66
     1
 10
0.0
 20
0.0
 30
0.0
  0
VERTEX
  5
366
330
365
100
AcDbEntity
  8
\U+838C\U+8343\U+8384\U+815B_1
 62
     7
100
AcDbVertex
100
AcDb2dVertex
 10
238.7158338161891
 20
127.2427069451859
 30
0.0
  0
VERTEX
  5
367
330
365
100
AcDbEntity
  8
\U+838C\U+8343\U+8384\U+815B_1
 62
     7
100
AcDbVertex
100
AcDb2dVertex
 10
239.5698729869825
 20
126.2057332041257
 30
0.0
  0
VERTEX
  5
368
330
365
100
AcDbEntity
  8
\U+838C\U+8343\U+8384\U+815B_1
 62
     7
100
AcDbVertex
100
AcDb2dVertex
 10
241.1566839674886
 20
124.1305799385854
 30
0.0
  0
VERTEX
  5
369
330
365
100
AcDbEntity
  8
\U+838C\U+8343\U+8384\U+815B_1
 62
     7
100
AcDbVertex
100
AcDb2dVertex
 10
242.5602158681794
 20
121.9947929925048
 30
0.0
  0
VERTEX
  5
36A
330
365
100
AcDbEntity
  8
\U+838C\U+8343\U+8384\U+815B_1
 62
     7
100
AcDbVertex
100
AcDb2dVertex
 10
243.9027695787813
 20
119.8588337916499
 30
0.0
  0
VERTEX
  5
36B
330
365
100
AcDbEntity
  8
\U+838C\U+8343\U+8384\U+815B_1
 62
     7
100
AcDbVertex
100
AcDb2dVertex
 10
245.0014105290274
 20
117.6620686554803
 30
0.0
  0
VERTEX
  5
36C
330
365
100
AcDbEntity
  8
\U+838C\U+8343\U+8384\U+815B_1
 62
     7
100
AcDbVertex
100
AcDb2dVertex
 10
246.0387287796362
 20
115.464786754988
 30
0.0
  0
VERTEX
  5
36D
330
365
100
AcDbEntity
  8
\U+838C\U+8343\U+8384\U+815B_1
 62
     7
100
AcDbVertex
100
AcDb2dVertex
 10
246.8321342698892
 20
113.2681938735927
 30
0.0
  0
VERTEX
  5
36E
330
365
100
AcDbEntity
  8
\U+838C\U+8343\U+8384\U+815B_1
 62
     7
100
AcDbVertex
100
AcDb2dVertex
 10
247.5645615700533
 20
111.0101060377857
 30
0.0
  0
VERTEX
  5
36F
330
365
100
AcDbEntity
  8
\U+838C\U+8343\U+8384\U+815B_1
 62
     7
100
AcDbVertex
100
AcDb2dVertex
 10
248.1133652808536
 20
108.7518459472044
 30
0.0
  0
VERTEX
  5
370
330
365
100
AcDbEntity
  8
\U+838C\U+8343\U+8384\U+815B_1
 62
     7
100
AcDbVertex
100
AcDb2dVertex
 10
248.4799234404842
 20
106.4939303661717
 30
0.0
  0
VERTEX
  5
371
330
365
100
AcDbEntity
  8
\U+838C\U+8343\U+8384\U+815B_1
 62
     7
100
AcDbVertex
100
AcDb2dVertex
 10
248.7234916912914
 20
104.2365315494617
 30
0.0
  0
VERTEX
  5
372
330
365
100
AcDbEntity
  8
\U+838C\U+8343\U+8384\U+815B_1
 62
     7
100
AcDbVertex
100
AcDb2dVertex
 10
248.7848143909288
 20
101.978615968429
 30
0.0
  0
VERTEX
  5
373
330
365
100
AcDbEntity
  8
\U+838C\U+8343\U+8384\U+815B_1
 62
     7
100
AcDbVertex
100
AcDb2dVertex
 10
248.7234916912914
 20
99.65937768775878
 30
0.0
  0
VERTEX
  5
374
330
365
100
AcDbEntity
  8
\U+838C\U+8343\U+8384\U+815B_1
 62
     7
100
AcDbVertex
100
AcDb2dVertex
 10
248.4799234404842
 20
97.40146210672603
 30
0.0
  0
VERTEX
  5
375
330
365
100
AcDbEntity
  8
\U+838C\U+8343\U+8384\U+815B_1
 62
     7
100
AcDbVertex
100
AcDb2dVertex
 10
248.1133652808536
 20
95.14354652569328
 30
0.0
  0
VERTEX
  5
376
330
365
100
AcDbEntity
  8
\U+838C\U+8343\U+8384\U+815B_1
 62
     7
100
AcDbVertex
100
AcDb2dVertex
 10
247.5645615700533
 20
92.88563094466055
 30
0.0
  0
VERTEX
  5
377
330
365
100
AcDbEntity
  8
\U+838C\U+8343\U+8384\U+815B_1
 62
     7
100
AcDbVertex
100
AcDb2dVertex
 10
246.8321342698892
 20
90.68834904416819
 30
0.0
  0
VERTEX
  5
378
330
365
100
AcDbEntity
  8
\U+838C\U+8343\U+8384\U+815B_1
 62
     7
100
AcDbVertex
100
AcDb2dVertex
 10
246.0387287796362
 20
88.43043346313546
 30
0.0
  0
VERTEX
  5
379
330
365
100
AcDbEntity
  8
\U+838C\U+8343\U+8384\U+815B_1
 62
     7
100
AcDbVertex
100
AcDb2dVertex
 10
245.0014105290274
 20
86.23384058174015
 30
0.0
  0
VERTEX
  5
37A
330
365
100
AcDbEntity
  8
\U+838C\U+8343\U+8384\U+815B_1
 62
     7
100
AcDbVertex
100
AcDb2dVertex
 10
243.9027695787813
 20
84.09788138088525
 30
0.0
  0
VERTEX
  5
37B
330
365
100
AcDbEntity
  8
\U+838C\U+8343\U+8384\U+815B_1
 62
     7
100
AcDbVertex
100
AcDb2dVertex
 10
242.5602158681794
 20
81.90059948039291
 30
0.0
  0
VERTEX
  5
37C
330
365
100
AcDbEntity
  8
\U+838C\U+8343\U+8384\U+815B_1
 62
     7
100
AcDbVertex
100
AcDb2dVertex
 10
241.1566839674886
 20
79.82596297917546
 30
0.0
  0
VERTEX
  5
37D
330
365
100
AcDbEntity
  8
\U+838C\U+8343\U+8384\U+815B_1
 62
     7
100
AcDbVertex
100
AcDb2dVertex
 10
239.5698729869825
 20
77.751326477958
 30
0.0
  0
VERTEX
  5
37E
330
365
100
AcDbEntity
  8
\U+838C\U+8343\U+8384\U+815B_1
 62
     7
100
AcDbVertex
100
AcDb2dVertex
 10
237.8611056262986
 20
75.67600095764351
 30
0.0
  0
VERTEX
  5
37F
330
365
100
AcDbEntity
  8
\U+838C\U+8343\U+8384\U+815B_1
 62
     7
100
AcDbVertex
100
AcDb2dVertex
 10
235.9694036953479
 20
73.66199813696645
 30
0.0
  0
VERTEX
  5
380
330
365
100
AcDbEntity
  8
\U+838C\U+8343\U+8384\U+815B_1
 62
     7
100
AcDbVertex
100
AcDb2dVertex
 10
234.0167235743083
 20
71.70931801592684
 30
0.0
  0
VERTEX
  5
381
330
365
100
AcDbEntity
  8
\U+838C\U+8343\U+8384\U+815B_1
 62
     7
100
AcDbVertex
100
AcDb2dVertex
 10
231.8807643734534
 20
69.81796059452468
 30
0.0
  0
VERTEX
  5
382
330
365
100
AcDbEntity
  8
\U+838C\U+8343\U+8384\U+815B_1
 62
     7
100
AcDbVertex
100
AcDb2dVertex
 10
230.4772324727626
 20
68.59701875455214
 30
0.0
  0
SEQEND
  5
383
330
365
100
AcDbEntity
  8
\U+838C\U+8343\U+8384\U+815B_1
  0
ENDBLK
  5
364
330
361
100
AcDbEntity
  8
0
100
AcDbBlockEnd
  0
BLOCK
  5
386
330
384
100
AcDbEntity
  8
0
100
AcDbBlockBegin
  2
BLOCK_35
 70
     0
 71
     0
 10
0.0
 20
0.0
 30
0.0
  3
BLOCK_35
  1

  0
POLYLINE
  5
388
330
384
100
AcDbEntity
  8
\U+838C\U+8343\U+8384\U+815B_1
 62
     7
100
AcDb2dPolyline
 66
     1
 10
0.0
 20
0.0
 30
0.0
  0
VERTEX
  5
389
330
388
100
AcDbEntity
  8
\U+838C\U+8343\U+8384\U+815B_1
 62
     7
100
AcDbVertex
100
AcDb2dVertex
 10
77.60766599622309
 20
142.8656982064711
 30
0.0
  0
VERTEX
  5
38A
330
388
100
AcDbEntity
  8
\U+838C\U+8343\U+8384\U+815B_1
 62
     7
100
AcDbVertex
100
AcDb2dVertex
 10
77.97353513675662
 20
143.1094387120525
 30
0.0
  0
SEQEND
  5
38B
330
388
100
AcDbEntity
  8
\U+838C\U+8343\U+8384\U+815B_1
  0
ENDBLK
  5
387
330
384
100
AcDbEntity
  8
0
100
AcDbBlockEnd
  0
BLOCK
  5
38E
330
38C
100
AcDbEntity
  8
0
100
AcDbBlockBegin
  2
BLOCK_36
 70
     0
 71
     0
 10
0.0
 20
0.0
 30
0.0
  3
BLOCK_36
  1

  0
POLYLINE
  5
390
330
38C
100
AcDbEntity
  8
\U+838C\U+8343\U+8384\U+815B_1
 62
     7
100
AcDb2dPolyline
 66
     1
 10
0.0
 20
0.0
 30
0.0
  0
VERTEX
  5
391
330
390
100
AcDbEntity
  8
\U+838C\U+8343\U+8384\U+815B_1
 62
     7
100
AcDbVertex
100
AcDb2dVertex
 10
74.61715086025197
 20
141.0348022108351
 30
0.0
  0
VERTEX
  5
392
330
390
100
AcDbEntity
  8
\U+838C\U+8343\U+8384\U+815B_1
 62
     7
100
AcDbVertex
100
AcDb2dVertex
 10
74.92221406547084
 20
141.2179090358761
 30
0.0
  0
VERTEX
  5
393
330
390
100
AcDbEntity
  8
\U+838C\U+8343\U+8384\U+815B_1
 62
     7
100
AcDbVertex
100
AcDb2dVertex
 10
77.60766599622309
 20
142.8656982064711
 30
0.0
  0
SEQEND
  5
394
330
390
100
AcDbEntity
  8
\U+838C\U+8343\U+8384\U+815B_1
  0
ENDBLK
  5
38F
330
38C
100
AcDbEntity
  8
0
100
AcDbBlockEnd
  0
BLOCK
  5
397
330
395
100
AcDbEntity
  8
0
100
AcDbBlockBegin
  2
BLOCK_37
 70
     0
 71
     0
 10
0.0
 20
0.0
 30
0.0
  3
BLOCK_37
  1

  0
POLYLINE
  5
399
330
395
100
AcDbEntity
  8
\U+838C\U+8343\U+8384\U+815B_1
 62
     7
100
AcDb2dPolyline
 66
     1
 10
0.0
 20
0.0
 30
0.0
  0
VERTEX
  5
39A
330
399
100
AcDbEntity
  8
\U+838C\U+8343\U+8384\U+815B_1
 62
     7
100
AcDbVertex
100
AcDb2dVertex
 10
66.37872177159977
 20
68.78029783436743
 30
0.0
  0
VERTEX
  5
39B
330
399
100
AcDbEntity
  8
\U+838C\U+8343\U+8384\U+815B_1
 62
     7
100
AcDbVertex
100
AcDb2dVertex
 10
65.15812444117574
 20
69.81796059452468
 30
0.0
  0
VERTEX
  5
39C
330
399
100
AcDbEntity
  8
\U+838C\U+8343\U+8384\U+815B_1
 62
     7
100
AcDbVertex
100
AcDb2dVertex
 10
63.02233749509512
 20
71.70931801592684
 30
0.0
  0
VERTEX
  5
39D
330
399
100
AcDbEntity
  8
\U+838C\U+8343\U+8384\U+815B_1
 62
     7
100
AcDbVertex
100
AcDb2dVertex
 10
61.06931286450698
 20
73.66199813696645
 30
0.0
  0
VERTEX
  5
39E
330
399
100
AcDbEntity
  8
\U+838C\U+8343\U+8384\U+815B_1
 62
     7
100
AcDbVertex
100
AcDb2dVertex
 10
59.17778318833056
 20
75.67600095764351
 30
0.0
  0
VERTEX
  5
39F
330
399
100
AcDbEntity
  8
\U+838C\U+8343\U+8384\U+815B_1
 62
     7
100
AcDbVertex
100
AcDb2dVertex
 10
57.46884357287237
 20
77.751326477958
 30
0.0
  0
VERTEX
  5
3A0
330
399
100
AcDbEntity
  8
\U+838C\U+8343\U+8384\U+815B_1
 62
     7
100
AcDbVertex
100
AcDb2dVertex
 10
55.88220484714056
 20
79.82596297917546
 30
0.0
  0
VERTEX
  5
3A1
330
399
100
AcDbEntity
  8
\U+838C\U+8343\U+8384\U+815B_1
 62
     7
100
AcDbVertex
100
AcDb2dVertex
 10
54.47867294644978
 20
81.90059948039291
 30
0.0
  0
VERTEX
  5
3A2
330
399
100
AcDbEntity
  8
\U+838C\U+8343\U+8384\U+815B_1
 62
     7
100
AcDbVertex
100
AcDb2dVertex
 10
53.13594698107365
 20
84.09788138088525
 30
0.0
  0
VERTEX
  5
3A3
330
399
100
AcDbEntity
  8
\U+838C\U+8343\U+8384\U+815B_1
 62
     7
100
AcDbVertex
100
AcDb2dVertex
 10
52.03765054037601
 20
86.23384058174015
 30
0.0
  0
VERTEX
  5
3A4
330
399
100
AcDbEntity
  8
\U+838C\U+8343\U+8384\U+815B_1
 62
     7
100
AcDbVertex
100
AcDb2dVertex
 10
50.99998778021875
 20
88.43043346313546
 30
0.0
  0
VERTEX
  5
3A5
330
399
100
AcDbEntity
  8
\U+838C\U+8343\U+8384\U+815B_1
 62
     7
100
AcDbVertex
100
AcDb2dVertex
 10
50.20692679951424
 20
90.68834904416819
 30
0.0
  0
VERTEX
  5
3A6
330
399
100
AcDbEntity
  8
\U+838C\U+8343\U+8384\U+815B_1
 62
     7
100
AcDbVertex
100
AcDb2dVertex
 10
49.47449949935013
 20
92.88563094466055
 30
0.0
  0
VERTEX
  5
3A7
330
399
100
AcDbEntity
  8
\U+838C\U+8343\U+8384\U+815B_1
 62
     7
100
AcDbVertex
100
AcDb2dVertex
 10
48.92517902422704
 20
95.14354652569328
 30
0.0
  0
VERTEX
  5
3A8
330
399
100
AcDbEntity
  8
\U+838C\U+8343\U+8384\U+815B_1
 62
     7
100
AcDbVertex
100
AcDb2dVertex
 10
48.55896537414498
 20
97.40146210672603
 30
0.0
  0
VERTEX
  5
3A9
330
399
100
AcDbEntity
  8
\U+838C\U+8343\U+8384\U+815B_1
 62
     7
100
AcDbVertex
100
AcDb2dVertex
 10
48.31505261378929
 20
99.65937768775878
 30
0.0
  0
VERTEX
  5
3AA
330
399
100
AcDbEntity
  8
\U+838C\U+8343\U+8384\U+815B_1
 62
     7
100
AcDbVertex
100
AcDb2dVertex
 10
48.25390216892611
 20
101.978615968429
 30
0.0
  0
VERTEX
  5
3AB
330
399
100
AcDbEntity
  8
\U+838C\U+8343\U+8384\U+815B_1
 62
     7
100
AcDbVertex
100
AcDb2dVertex
 10
48.31505261378929
 20
104.2365315494617
 30
0.0
  0
VERTEX
  5
3AC
330
399
100
AcDbEntity
  8
\U+838C\U+8343\U+8384\U+815B_1
 62
     7
100
AcDbVertex
100
AcDb2dVertex
 10
48.55896537414498
 20
106.4939303661717
 30
0.0
  0
VERTEX
  5
3AD
330
399
100
AcDbEntity
  8
\U+838C\U+8343\U+8384\U+815B_1
 62
     7
100
AcDbVertex
100
AcDb2dVertex
 10
48.92517902422704
 20
108.7518459472044
 30
0.0
  0
VERTEX
  5
3AE
330
399
100
AcDbEntity
  8
\U+838C\U+8343\U+8384\U+815B_1
 62
     7
100
AcDbVertex
100
AcDb2dVertex
 10
49.47449949935013
 20
111.0101060377857
 30
0.0
  0
VERTEX
  5
3AF
330
399
100
AcDbEntity
  8
\U+838C\U+8343\U+8384\U+815B_1
 62
     7
100
AcDbVertex
100
AcDb2dVertex
 10
50.20692679951424
 20
113.2681938735927
 30
0.0
  0
VERTEX
  5
3B0
330
399
100
AcDbEntity
  8
\U+838C\U+8343\U+8384\U+815B_1
 62
     7
100
AcDbVertex
100
AcDb2dVertex
 10
50.99998778021875
 20
115.464786754988
 30
0.0
  0
VERTEX
  5
3B1
330
399
100
AcDbEntity
  8
\U+838C\U+8343\U+8384\U+815B_1
 62
     7
100
AcDbVertex
100
AcDb2dVertex
 10
52.03765054037601
 20
117.6620686554803
 30
0.0
  0
VERTEX
  5
3B2
330
399
100
AcDbEntity
  8
\U+838C\U+8343\U+8384\U+815B_1
 62
     7
100
AcDbVertex
100
AcDb2dVertex
 10
53.13594698107365
 20
119.8588337916499
 30
0.0
  0
VERTEX
  5
3B3
330
399
100
AcDbEntity
  8
\U+838C\U+8343\U+8384\U+815B_1
 62
     7
100
AcDbVertex
100
AcDb2dVertex
 10
54.47867294644978
 20
121.9947929925048
 30
0.0
  0
VERTEX
  5
3B4
330
399
100
AcDbEntity
  8
\U+838C\U+8343\U+8384\U+815B_1
 62
     7
100
AcDbVertex
100
AcDb2dVertex
 10
55.88220484714056
 20
124.1305799385854
 30
0.0
  0
VERTEX
  5
3B5
330
399
100
AcDbEntity
  8
\U+838C\U+8343\U+8384\U+815B_1
 62
     7
100
AcDbVertex
100
AcDb2dVertex
 10
57.46884357287237
 20
126.2057332041257
 30
0.0
  0
VERTEX
  5
3B6
330
399
100
AcDbEntity
  8
\U+838C\U+8343\U+8384\U+815B_1
 62
     7
100
AcDbVertex
100
AcDb2dVertex
 10
59.11663274346737
 20
128.1580688156167
 30
0.0
  0
SEQEND
  5
3B7
330
399
100
AcDbEntity
  8
\U+838C\U+8343\U+8384\U+815B_1
  0
ENDBLK
  5
398
330
395
100
AcDbEntity
  8
0
100
AcDbBlockEnd
  0
BLOCK
  5
3BA
330
3B8
100
AcDbEntity
  8
0
100
AcDbBlockBegin
  2
BLOCK_38
 70
     0
 71
     0
 10
0.0
 20
0.0
 30
0.0
  3
BLOCK_38
  1

  0
POLYLINE
  5
3BC
330
3B8
100
AcDbEntity
  8
\U+838C\U+8343\U+8384\U+815B_1
 62
     7
100
AcDb2dPolyline
 66
     1
 10
0.0
 20
0.0
 30
0.0
  0
VERTEX
  5
3BD
330
3BC
100
AcDbEntity
  8
\U+838C\U+8343\U+8384\U+815B_1
 62
     7
100
AcDbVertex
100
AcDb2dVertex
 10
58.68944090329639
 20
127.97513424535
 30
0.0
  0
VERTEX
  5
3BE
330
3BC
100
AcDbEntity
  8
\U+838C\U+8343\U+8384\U+815B_1
 62
     7
100
AcDbVertex
100
AcDb2dVertex
 10
58.20127087303649
 20
127.364835580138
 30
0.0
  0
VERTEX
  5
3BF
330
3BC
100
AcDbEntity
  8
\U+838C\U+8343\U+8384\U+815B_1
 62
     7
100
AcDbVertex
100
AcDb2dVertex
 10
56.55348170244149
 20
125.3511772690094
 30
0.0
  0
VERTEX
  5
3C0
330
3BC
100
AcDbEntity
  8
\U+838C\U+8343\U+8384\U+815B_1
 62
     7
100
AcDbVertex
100
AcDb2dVertex
 10
55.0278211667986
 20
123.2152180681545
 30
0.0
  0
VERTEX
  5
3C1
330
3BC
100
AcDbEntity
  8
\U+838C\U+8343\U+8384\U+815B_1
 62
     7
100
AcDbVertex
100
AcDb2dVertex
 10
53.62428926610782
 20
121.1400648026143
 30
0.0
  0
VERTEX
  5
3C2
330
3BC
100
AcDbEntity
  8
\U+838C\U+8343\U+8384\U+815B_1
 62
     7
100
AcDbVertex
100
AcDb2dVertex
 10
52.40386419045807
 20
118.943471921219
 30
0.0
  0
VERTEX
  5
3C3
330
3BC
100
AcDbEntity
  8
\U+838C\U+8343\U+8384\U+815B_1
 62
     7
100
AcDbVertex
100
AcDb2dVertex
 10
51.36620143030081
 20
116.8075127203641
 30
0.0
  0
VERTEX
  5
3C4
330
3BC
100
AcDbEntity
  8
\U+838C\U+8343\U+8384\U+815B_1
 62
     7
100
AcDbVertex
100
AcDb2dVertex
 10
50.38986136978101
 20
114.6109198389688
 30
0.0
  0
VERTEX
  5
3C5
330
3BC
100
AcDbEntity
  8
\U+838C\U+8343\U+8384\U+815B_1
 62
     7
100
AcDbVertex
100
AcDb2dVertex
 10
49.65760632439115
 20
112.3528320031618
 30
0.0
  0
VERTEX
  5
3C6
330
3BC
100
AcDbEntity
  8
\U+838C\U+8343\U+8384\U+815B_1
 62
     7
100
AcDbVertex
100
AcDb2dVertex
 10
48.98632946909022
 20
110.1553778478952
 30
0.0
  0
VERTEX
  5
3C7
330
3BC
100
AcDbEntity
  8
\U+838C\U+8343\U+8384\U+815B_1
 62
     7
100
AcDbVertex
100
AcDb2dVertex
 10
48.55896537414498
 20
107.8981512859595
 30
0.0
  0
VERTEX
  5
3C8
330
3BC
100
AcDbEntity
  8
\U+838C\U+8343\U+8384\U+815B_1
 62
     7
100
AcDbVertex
100
AcDb2dVertex
 10
48.19309623361145
 20
105.6398911953782
 30
0.0
  0
VERTEX
  5
3C9
330
3BC
100
AcDbEntity
  8
\U+838C\U+8343\U+8384\U+815B_1
 62
     7
100
AcDbVertex
100
AcDb2dVertex
 10
48.00981715379616
 20
103.3821478691197
 30
0.0
  0
VERTEX
  5
3CA
330
3BC
100
AcDbEntity
  8
\U+838C\U+8343\U+8384\U+815B_1
 62
     7
100
AcDbVertex
100
AcDb2dVertex
 10
48.00981715379616
 20
101.1235432689899
 30
0.0
  0
VERTEX
  5
3CB
330
3BC
100
AcDbEntity
  8
\U+838C\U+8343\U+8384\U+815B_1
 62
     7
100
AcDbVertex
100
AcDb2dVertex
 10
48.13211804352253
 20
98.86562768795721
 30
0.0
  0
VERTEX
  5
3CC
330
3BC
100
AcDbEntity
  8
\U+838C\U+8343\U+8384\U+815B_1
 62
     7
100
AcDbVertex
100
AcDb2dVertex
 10
48.4371812487414
 20
96.60840112602152
 30
0.0
  0
VERTEX
  5
3CD
330
3BC
100
AcDbEntity
  8
\U+838C\U+8343\U+8384\U+815B_1
 62
     7
100
AcDbVertex
100
AcDb2dVertex
 10
48.86420083413812
 20
94.35048554498877
 30
0.0
  0
VERTEX
  5
3CE
330
3BC
100
AcDbEntity
  8
\U+838C\U+8343\U+8384\U+815B_1
 62
     7
100
AcDbVertex
100
AcDb2dVertex
 10
49.47449949935013
 20
92.09188094485899
 30
0.0
  0
VERTEX
  5
3CF
330
3BC
100
AcDbEntity
  8
\U+838C\U+8343\U+8384\U+815B_1
 62
     7
100
AcDbVertex
100
AcDb2dVertex
 10
50.20692679951424
 20
89.89528806346368
 30
0.0
  0
VERTEX
  5
3D0
330
3BC
100
AcDbEntity
  8
\U+838C\U+8343\U+8384\U+815B_1
 62
     7
100
AcDbVertex
100
AcDb2dVertex
 10
51.12228866994513
 20
87.63737248243093
 30
0.0
  0
VERTEX
  5
3D1
330
3BC
100
AcDbEntity
  8
\U+838C\U+8343\U+8384\U+815B_1
 62
     7
100
AcDbVertex
100
AcDb2dVertex
 10
52.15977917532811
 20
85.50141328157603
 30
0.0
  0
VERTEX
  5
3D2
330
3BC
100
AcDbEntity
  8
\U+838C\U+8343\U+8384\U+815B_1
 62
     7
100
AcDbVertex
100
AcDb2dVertex
 10
53.31922606088894
 20
83.30413138108369
 30
0.0
  0
VERTEX
  5
3D3
330
3BC
100
AcDbEntity
  8
\U+838C\U+8343\U+8384\U+815B_1
 62
     7
100
AcDbVertex
100
AcDb2dVertex
 10
54.66160751671654
 20
81.1681721802288
 30
0.0
  0
VERTEX
  5
3D4
330
3BC
100
AcDbEntity
  8
\U+838C\U+8343\U+8384\U+815B_1
 62
     7
100
AcDbVertex
100
AcDb2dVertex
 10
56.12646211704477
 20
79.09353567901134
 30
0.0
  0
VERTEX
  5
3D5
330
3BC
100
AcDbEntity
  8
\U+838C\U+8343\U+8384\U+815B_1
 62
     7
100
AcDbVertex
100
AcDb2dVertex
 10
57.77390677809124
 20
77.01889917779388
 30
0.0
  0
VERTEX
  5
3D6
330
3BC
100
AcDbEntity
  8
\U+838C\U+8343\U+8384\U+815B_1
 62
     7
100
AcDbVertex
100
AcDb2dVertex
 10
59.48284639354943
 20
75.00489635711683
 30
0.0
  0
VERTEX
  5
3D7
330
3BC
100
AcDbEntity
  8
\U+838C\U+8343\U+8384\U+815B_1
 62
     7
100
AcDbVertex
100
AcDb2dVertex
 10
61.37437606972586
 20
73.05221623607723
 30
0.0
  0
VERTEX
  5
3D8
330
3BC
100
AcDbEntity
  8
\U+838C\U+8343\U+8384\U+815B_1
 62
     7
100
AcDbVertex
100
AcDb2dVertex
 10
63.38820663562865
 20
71.09884709594057
 30
0.0
  0
VERTEX
  5
3D9
330
3BC
100
AcDbEntity
  8
\U+838C\U+8343\U+8384\U+815B_1
 62
     7
100
AcDbVertex
100
AcDb2dVertex
 10
65.58548853612099
 20
69.20748967453841
 30
0.0
  0
VERTEX
  5
3DA
330
3BC
100
AcDbEntity
  8
\U+838C\U+8343\U+8384\U+815B_1
 62
     7
100
AcDbVertex
100
AcDb2dVertex
 10
67.843576371928
 20
67.37676593367665
 30
0.0
  0
VERTEX
  5
3DB
330
3BC
100
AcDbEntity
  8
\U+838C\U+8343\U+8384\U+815B_1
 62
     7
100
AcDbVertex
100
AcDb2dVertex
 10
70.22310382359007
 20
65.54604219281488
 30
0.0
  0
VERTEX
  5
3DC
330
3BC
100
AcDbEntity
  8
\U+838C\U+8343\U+8384\U+815B_1
 62
     7
100
AcDbVertex
100
AcDb2dVertex
 10
71.44370115401408
 20
64.69096949337587
 30
0.0
  0
SEQEND
  5
3DD
330
3BC
100
AcDbEntity
  8
\U+838C\U+8343\U+8384\U+815B_1
  0
ENDBLK
  5
3BB
330
3B8
100
AcDbEntity
  8
0
100
AcDbBlockEnd
  0
BLOCK
  5
3E0
330
3DE
100
AcDbEntity
  8
0
100
AcDbBlockBegin
  2
BLOCK_39
 70
     0
 71
     0
 10
0.0
 20
0.0
 30
0.0
  3
BLOCK_39
  1

  0
POLYLINE
  5
3E2
330
3DE
100
AcDbEntity
  8
\U+838C\U+8343\U+8384\U+815B_1
 62
     7
100
AcDb2dPolyline
 66
     1
 10
0.0
 20
0.0
 30
0.0
  0
VERTEX
  5
3E3
330
3E2
100
AcDbEntity
  8
\U+838C\U+8343\U+8384\U+815B_1
 62
     7
100
AcDbVertex
100
AcDb2dVertex
 10
224.3132676305536
 20
63.83727483213096
 30
0.0
  0
VERTEX
  5
3E4
330
3E2
100
AcDbEntity
  8
\U+838C\U+8343\U+8384\U+815B_1
 62
     7
100
AcDbVertex
100
AcDb2dVertex
 10
224.9233940409914
 20
64.26446667230194
 30
0.0
  0
VERTEX
  5
3E5
330
3E2
100
AcDbEntity
  8
\U+838C\U+8343\U+8384\U+815B_1
 62
     7
100
AcDbVertex
100
AcDb2dVertex
 10
227.4259114014769
 20
65.97323403298586
 30
0.0
  0
VERTEX
  5
3E6
330
3E2
100
AcDbEntity
  8
\U+838C\U+8343\U+8384\U+815B_1
 62
     7
100
AcDbVertex
100
AcDb2dVertex
 10
229.8054388531389
 20
67.80395777384763
 30
0.0
  0
VERTEX
  5
3E7
330
3E2
100
AcDbEntity
  8
\U+838C\U+8343\U+8384\U+815B_1
 62
     7
100
AcDbVertex
100
AcDb2dVertex
 10
232.0030652631798
 20
69.63468151470938
 30
0.0
  0
VERTEX
  5
3E8
330
3E2
100
AcDbEntity
  8
\U+838C\U+8343\U+8384\U+815B_1
 62
     7
100
AcDbVertex
100
AcDb2dVertex
 10
234.1386799544862
 20
71.58736163574899
 30
0.0
  0
VERTEX
  5
3E9
330
3E2
100
AcDbEntity
  8
\U+838C\U+8343\U+8384\U+815B_1
 62
     7
100
AcDbVertex
100
AcDb2dVertex
 10
236.1523382656147
 20
73.54004175678861
 30
0.0
  0
VERTEX
  5
3EA
330
3E2
100
AcDbEntity
  8
\U+838C\U+8343\U+8384\U+815B_1
 62
     7
100
AcDbVertex
100
AcDb2dVertex
 10
237.983406516025
 20
75.49272187782822
 30
0.0
  0
VERTEX
  5
3EB
330
3E2
100
AcDbEntity
  8
\U+838C\U+8343\U+8384\U+815B_1
 62
     7
100
AcDbVertex
100
AcDb2dVertex
 10
239.6918293671604
 20
77.56804739814271
 30
0.0
  0
VERTEX
  5
3EC
330
3E2
100
AcDbEntity
  8
\U+838C\U+8343\U+8384\U+815B_1
 62
     7
100
AcDbVertex
100
AcDb2dVertex
 10
241.2782958381179
 20
79.64268389936016
 30
0.0
  0
VERTEX
  5
3ED
330
3E2
100
AcDbEntity
  8
\U+838C\U+8343\U+8384\U+815B_1
 62
     7
100
AcDbVertex
100
AcDb2dVertex
 10
242.7431504384462
 20
81.71800941967467
 30
0.0
  0
VERTEX
  5
3EE
330
3E2
100
AcDbEntity
  8
\U+838C\U+8343\U+8384\U+815B_1
 62
     7
100
AcDbVertex
100
AcDb2dVertex
 10
244.0243814494106
 20
83.85327960143252
 30
0.0
  0
VERTEX
  5
3EF
330
3E2
100
AcDbEntity
  8
\U+838C\U+8343\U+8384\U+815B_1
 62
     7
100
AcDbVertex
100
AcDb2dVertex
 10
245.1843450992942
 20
86.05056150192486
 30
0.0
  0
VERTEX
  5
3F0
330
3E2
100
AcDbEntity
  8
\U+838C\U+8343\U+8384\U+815B_1
 62
     7
100
AcDbVertex
100
AcDb2dVertex
 10
246.1603406502655
 20
88.18652070277976
 30
0.0
  0
VERTEX
  5
3F1
330
3E2
100
AcDbEntity
  8
\U+838C\U+8343\U+8384\U+815B_1
 62
     7
100
AcDbVertex
100
AcDb2dVertex
 10
247.015068840156
 20
90.44443628381251
 30
0.0
  0
VERTEX
  5
3F2
330
3E2
100
AcDbEntity
  8
\U+838C\U+8343\U+8384\U+815B_1
 62
     7
100
AcDbVertex
100
AcDb2dVertex
 10
247.7474961403201
 20
92.64171818430485
 30
0.0
  0
VERTEX
  5
3F3
330
3E2
100
AcDbEntity
  8
\U+838C\U+8343\U+8384\U+815B_1
 62
     7
100
AcDbVertex
100
AcDb2dVertex
 10
248.2962998511204
 20
94.89894474624055
 30
0.0
  0
VERTEX
  5
3F4
330
3E2
100
AcDbEntity
  8
\U+838C\U+8343\U+8384\U+815B_1
 62
     7
100
AcDbVertex
100
AcDb2dVertex
 10
248.662858010751
 20
97.1568603272733
 30
0.0
  0
VERTEX
  5
3F5
330
3E2
100
AcDbEntity
  8
\U+838C\U+8343\U+8384\U+815B_1
 62
     7
100
AcDbVertex
100
AcDb2dVertex
 10
248.9680934707441
 20
99.41546492740308
 30
0.0
  0
VERTEX
  5
3F6
330
3E2
100
AcDbEntity
  8
\U+838C\U+8343\U+8384\U+815B_1
 62
     7
100
AcDbVertex
100
AcDb2dVertex
 10
249.0287271512845
 20
101.6733805084358
 30
0.0
  0
VERTEX
  5
3F7
330
3E2
100
AcDbEntity
  8
\U+838C\U+8343\U+8384\U+815B_1
 62
     7
100
AcDbVertex
100
AcDb2dVertex
 10
248.9680934707441
 20
103.9312960894686
 30
0.0
  0
VERTEX
  5
3F8
330
3E2
100
AcDbEntity
  8
\U+838C\U+8343\U+8384\U+815B_1
 62
     7
100
AcDbVertex
100
AcDb2dVertex
 10
248.7848143909288
 20
106.1886949061785
 30
0.0
  0
VERTEX
  5
3F9
330
3E2
100
AcDbEntity
  8
\U+838C\U+8343\U+8384\U+815B_1
 62
     7
100
AcDbVertex
100
AcDb2dVertex
 10
248.4186007408468
 20
108.4469549967598
 30
0.0
  0
VERTEX
  5
3FA
330
3E2
100
AcDbEntity
  8
\U+838C\U+8343\U+8384\U+815B_1
 62
     7
100
AcDbVertex
100
AcDb2dVertex
 10
247.8694525204979
 20
110.7048705777925
 30
0.0
  0
VERTEX
  5
3FB
330
3E2
100
AcDbEntity
  8
\U+838C\U+8343\U+8384\U+815B_1
 62
     7
100
AcDbVertex
100
AcDb2dVertex
 10
247.1980034104227
 20
112.9016357139621
 30
0.0
  0
VERTEX
  5
3FC
330
3E2
100
AcDbEntity
  8
\U+838C\U+8343\U+8384\U+815B_1
 62
     7
100
AcDbVertex
100
AcDb2dVertex
 10
246.4045979201697
 20
115.1597235497691
 30
0.0
  0
VERTEX
  5
3FD
330
3E2
100
AcDbEntity
  8
\U+838C\U+8343\U+8384\U+815B_1
 62
     7
100
AcDbVertex
100
AcDb2dVertex
 10
245.4286023691984
 20
117.3570054502615
 30
0.0
  0
VERTEX
  5
3FE
330
3E2
100
AcDbEntity
  8
\U+838C\U+8343\U+8384\U+815B_1
 62
     7
100
AcDbVertex
100
AcDb2dVertex
 10
244.3296169094037
 20
119.4929646511164
 30
0.0
  0
VERTEX
  5
3FF
330
3E2
100
AcDbEntity
  8
\U+838C\U+8343\U+8384\U+815B_1
 62
     7
100
AcDbVertex
100
AcDb2dVertex
 10
243.0483858984393
 20
121.628751597197
 30
0.0
  0
VERTEX
  5
400
330
3E2
100
AcDbEntity
  8
\U+838C\U+8343\U+8384\U+815B_1
 62
     7
100
AcDbVertex
100
AcDb2dVertex
 10
241.6448539977485
 20
123.7647107980519
 30
0.0
  0
VERTEX
  5
401
330
3E2
100
AcDbEntity
  8
\U+838C\U+8343\U+8384\U+815B_1
 62
     7
100
AcDbVertex
100
AcDb2dVertex
 10
240.1190212073314
 20
125.8391750444951
 30
0.0
  0
VERTEX
  5
402
330
3E2
100
AcDbEntity
  8
\U+838C\U+8343\U+8384\U+815B_1
 62
     7
100
AcDbVertex
100
AcDb2dVertex
 10
238.410598356196
 20
127.9143283100353
 30
0.0
  0
VERTEX
  5
403
330
3E2
100
AcDbEntity
  8
\U+838C\U+8343\U+8384\U+815B_1
 62
     7
100
AcDbVertex
100
AcDb2dVertex
 10
237.1900010257719
 20
129.3178602107261
 30
0.0
  0
SEQEND
  5
404
330
3E2
100
AcDbEntity
  8
\U+838C\U+8343\U+8384\U+815B_1
  0
ENDBLK
  5
3E1
330
3DE
100
AcDbEntity
  8
0
100
AcDbBlockEnd
  0
BLOCK
  5
407
330
405
100
AcDbEntity
  8
0
100
AcDbBlockBegin
  2
BLOCK_40
 70
     0
 71
     0
 10
0.0
 20
0.0
 30
0.0
  3
BLOCK_40
  1

  0
POLYLINE
  5
409
330
405
100
AcDbEntity
  8
\U+838C\U+8343\U+8384\U+815B_1
 62
     7
100
AcDb2dPolyline
 66
     1
 10
0.0
 20
0.0
 30
0.0
  0
VERTEX
  5
40A
330
409
100
AcDbEntity
  8
\U+838C\U+8343\U+8384\U+815B_1
 62
     7
100
AcDbVertex
100
AcDb2dVertex
 10
59.42186820346051
 20
129.195731575774
 30
0.0
  0
VERTEX
  5
40B
330
409
100
AcDbEntity
  8
\U+838C\U+8343\U+8384\U+815B_1
 62
     7
100
AcDbVertex
100
AcDb2dVertex
 10
60.82522784937703
 20
130.6605861761022
 30
0.0
  0
VERTEX
  5
40C
330
409
100
AcDbEntity
  8
\U+838C\U+8343\U+8384\U+815B_1
 62
     7
100
AcDbVertex
100
AcDb2dVertex
 10
62.77790797041663
 20
132.6134385519161
 30
0.0
  0
VERTEX
  5
40D
330
409
100
AcDbEntity
  8
\U+838C\U+8343\U+8384\U+815B_1
 62
     7
100
AcDbVertex
100
AcDb2dVertex
 10
64.91386717127153
 20
134.5049682280925
 30
0.0
  0
VERTEX
  5
40E
330
409
100
AcDbEntity
  8
\U+838C\U+8343\U+8384\U+815B_1
 62
     7
100
AcDbVertex
100
AcDb2dVertex
 10
67.17195500707854
 20
136.3964979042689
 30
0.0
  0
VERTEX
  5
40F
330
409
100
AcDbEntity
  8
\U+838C\U+8343\U+8384\U+815B_1
 62
     7
100
AcDbVertex
100
AcDb2dVertex
 10
69.49067652342595
 20
138.1665879645903
 30
0.0
  0
VERTEX
  5
410
330
409
100
AcDbEntity
  8
\U+838C\U+8343\U+8384\U+815B_1
 62
     7
100
AcDbVertex
100
AcDb2dVertex
 10
71.99319388391143
 20
139.9365057701374
 30
0.0
  0
VERTEX
  5
411
330
409
100
AcDbEntity
  8
\U+838C\U+8343\U+8384\U+815B_1
 62
     7
100
AcDbVertex
100
AcDb2dVertex
 10
74.61715086025197
 20
141.5837781764096
 30
0.0
  0
VERTEX
  5
412
330
409
100
AcDbEntity
  8
\U+838C\U+8343\U+8384\U+815B_1
 62
     7
100
AcDbVertex
100
AcDb2dVertex
 10
77.30260279100422
 20
143.2315673470046
 30
0.0
  0
SEQEND
  5
413
330
409
100
AcDbEntity
  8
\U+838C\U+8343\U+8384\U+815B_1
  0
ENDBLK
  5
408
330
405
100
AcDbEntity
  8
0
100
AcDbBlockEnd
  0
BLOCK
  5
416
330
414
100
AcDbEntity
  8
0
100
AcDbBlockBegin
  2
BLOCK_41
 70
     0
 71
     0
 10
0.0
 20
0.0
 30
0.0
  3
BLOCK_41
  1

  0
POLYLINE
  5
418
330
414
100
AcDbEntity
  8
\U+838C\U+8343\U+8384\U+815B_1
 62
     7
100
AcDb2dPolyline
 66
     1
 10
0.0
 20
0.0
 30
0.0
  0
VERTEX
  5
419
330
418
100
AcDbEntity
  8
\U+838C\U+8343\U+8384\U+815B_1
 62
     7
100
AcDbVertex
100
AcDb2dVertex
 10
77.30260279100422
 20
143.2315673470046
 30
0.0
  0
VERTEX
  5
41A
330
418
100
AcDbEntity
  8
\U+838C\U+8343\U+8384\U+815B_1
 62
     7
100
AcDbVertex
100
AcDb2dVertex
 10
80.10949433761152
 20
144.7572278826475
 30
0.0
  0
VERTEX
  5
41B
330
418
100
AcDbEntity
  8
\U+838C\U+8343\U+8384\U+815B_1
 62
     7
100
AcDbVertex
100
AcDb2dVertex
 10
83.03868677394519
 20
146.2828884182904
 30
0.0
  0
VERTEX
  5
41C
330
418
100
AcDbEntity
  8
\U+838C\U+8343\U+8384\U+815B_1
 62
     7
100
AcDbVertex
100
AcDb2dVertex
 10
86.02902965514205
 20
147.7477430186186
 30
0.0
  0
VERTEX
  5
41D
330
418
100
AcDbEntity
  8
\U+838C\U+8343\U+8384\U+815B_1
 62
     7
100
AcDbVertex
100
AcDb2dVertex
 10
89.1411566617425
 20
149.0904689839948
 30
0.0
  0
VERTEX
  5
41E
330
418
100
AcDbEntity
  8
\U+838C\U+8343\U+8384\U+815B_1
 62
     7
100
AcDbVertex
100
AcDb2dVertex
 10
92.37541230329504
 20
150.3716999949592
 30
0.0
  0
VERTEX
  5
41F
330
418
100
AcDbEntity
  8
\U+838C\U+8343\U+8384\U+815B_1
 62
     7
100
AcDbVertex
100
AcDb2dVertex
 10
95.67099064448503
 20
151.5922973253832
 30
0.0
  0
VERTEX
  5
420
330
418
100
AcDbEntity
  8
\U+838C\U+8343\U+8384\U+815B_1
 62
     7
100
AcDbVertex
100
AcDb2dVertex
 10
99.02754717576396
 20
152.7519164657183
 30
0.0
  0
VERTEX
  5
421
330
418
100
AcDbEntity
  8
\U+838C\U+8343\U+8384\U+815B_1
 62
     7
100
AcDbVertex
100
AcDb2dVertex
 10
102.4447373875833
 20
153.7888902067785
 30
0.0
  0
VERTEX
  5
422
330
418
100
AcDbEntity
  8
\U+838C\U+8343\U+8384\U+815B_1
 62
     7
100
AcDbVertex
100
AcDb2dVertex
 10
105.92325029904
 20
154.8265529669357
 30
0.0
  0
VERTEX
  5
423
330
418
100
AcDbEntity
  8
\U+838C\U+8343\U+8384\U+815B_1
 62
     7
100
AcDbVertex
100
AcDb2dVertex
 10
109.5240641002232
 20
155.7419148373666
 30
0.0
  0
VERTEX
  5
424
330
418
100
AcDbEntity
  8
\U+838C\U+8343\U+8384\U+815B_1
 62
     7
100
AcDbVertex
100
AcDb2dVertex
 10
113.1241888823092
 20
156.5351480728454
 30
0.0
  0
VERTEX
  5
425
330
418
100
AcDbEntity
  8
\U+838C\U+8343\U+8384\U+815B_1
 62
     7
100
AcDbVertex
100
AcDb2dVertex
 10
116.8471313184445
 20
157.328898072647
 30
0.0
  0
VERTEX
  5
426
330
418
100
AcDbEntity
  8
\U+838C\U+8343\U+8384\U+815B_1
 62
     7
100
AcDbVertex
100
AcDb2dVertex
 10
120.5693847354827
 20
158.0000026731736
 30
0.0
  0
VERTEX
  5
427
330
418
100
AcDbEntity
  8
\U+838C\U+8343\U+8384\U+815B_1
 62
     7
100
AcDbVertex
100
AcDb2dVertex
 10
124.3531331069326
 20
158.5493231482967
 30
0.0
  0
VERTEX
  5
428
330
418
100
AcDbEntity
  8
\U+838C\U+8343\U+8384\U+815B_1
 62
     7
100
AcDbVertex
100
AcDb2dVertex
 10
128.1368814783825
 20
159.0374931785566
 30
0.0
  0
VERTEX
  5
429
330
418
100
AcDbEntity
  8
\U+838C\U+8343\U+8384\U+815B_1
 62
     7
100
AcDbVertex
100
AcDb2dVertex
 10
131.981435785147
 20
159.4648572735018
 30
0.0
  0
VERTEX
  5
42A
330
418
100
AcDbEntity
  8
\U+838C\U+8343\U+8384\U+815B_1
 62
     7
100
AcDbVertex
100
AcDb2dVertex
 10
135.887312791549
 20
159.7699204787207
 30
0.0
  0
VERTEX
  5
42B
330
418
100
AcDbEntity
  8
\U+838C\U+8343\U+8384\U+815B_1
 62
     7
100
AcDbVertex
100
AcDb2dVertex
 10
139.7318670983136
 20
160.0136609843021
 30
0.0
  0
VERTEX
  5
42C
330
418
100
AcDbEntity
  8
\U+838C\U+8343\U+8384\U+815B_1
 62
     7
100
AcDbVertex
100
AcDb2dVertex
 10
143.6370550856185
 20
160.1965955545689
 30
0.0
  0
VERTEX
  5
42D
330
418
100
AcDbEntity
  8
\U+838C\U+8343\U+8384\U+815B_1
 62
     7
100
AcDbVertex
100
AcDb2dVertex
 10
147.5429320920205
 20
160.2580905089806
 30
0.0
  0
VERTEX
  5
42E
330
418
100
AcDbEntity
  8
\U+838C\U+8343\U+8384\U+815B_1
 62
     7
100
AcDbVertex
100
AcDb2dVertex
 10
151.4488090984225
 20
160.2580905089806
 30
0.0
  0
VERTEX
  5
42F
330
418
100
AcDbEntity
  8
\U+838C\U+8343\U+8384\U+815B_1
 62
     7
100
AcDbVertex
100
AcDb2dVertex
 10
155.3541693405018
 20
160.1357896192543
 30
0.0
  0
VERTEX
  5
430
330
418
100
AcDbEntity
  8
\U+838C\U+8343\U+8384\U+815B_1
 62
     7
100
AcDbVertex
100
AcDb2dVertex
 10
159.2598740921295
 20
159.9528550489875
 30
0.0
  0
VERTEX
  5
431
330
418
100
AcDbEntity
  8
\U+838C\U+8343\U+8384\U+815B_1
 62
     7
100
AcDbVertex
100
AcDb2dVertex
 10
163.1046006536683
 20
159.6477918437686
 30
0.0
  0
VERTEX
  5
432
330
418
100
AcDbEntity
  8
\U+838C\U+8343\U+8384\U+815B_1
 62
     7
100
AcDbVertex
100
AcDb2dVertex
 10
166.9489827056586
 20
159.281233684138
 30
0.0
  0
VERTEX
  5
433
330
418
100
AcDbEntity
  8
\U+838C\U+8343\U+8384\U+815B_1
 62
     7
100
AcDbVertex
100
AcDb2dVertex
 10
170.7937092671974
 20
158.7932359086524
 30
0.0
  0
VERTEX
  5
434
330
418
100
AcDbEntity
  8
\U+838C\U+8343\U+8384\U+815B_1
 62
     7
100
AcDbVertex
100
AcDb2dVertex
 10
174.5771131290988
 20
158.2442599430778
 30
0.0
  0
VERTEX
  5
435
330
418
100
AcDbEntity
  8
\U+838C\U+8343\U+8384\U+815B_1
 62
     7
100
AcDbVertex
100
AcDb2dVertex
 10
178.3608615005487
 20
157.6339612778658
 30
0.0
  0
VERTEX
  5
436
330
418
100
AcDbEntity
  8
\U+838C\U+8343\U+8384\U+815B_1
 62
     7
100
AcDbVertex
100
AcDb2dVertex
 10
182.0226534918207
 20
156.9623399130164
 30
0.0
  0
VERTEX
  5
437
330
418
100
AcDbEntity
  8
\U+838C\U+8343\U+8384\U+815B_1
 62
     7
100
AcDbVertex
100
AcDb2dVertex
 10
185.6841009735442
 20
156.1691066775376
 30
0.0
  0
VERTEX
  5
438
330
418
100
AcDbEntity
  8
\U+838C\U+8343\U+8384\U+815B_1
 62
     7
100
AcDbVertex
100
AcDb2dVertex
 10
189.2849147747274
 20
155.2537448071067
 30
0.0
  0
VERTEX
  5
439
330
418
100
AcDbEntity
  8
\U+838C\U+8343\U+8384\U+815B_1
 62
     7
100
AcDbVertex
100
AcDb2dVertex
 10
192.8240613667245
 20
154.3383829366758
 30
0.0
  0
VERTEX
  5
43A
330
418
100
AcDbEntity
  8
\U+838C\U+8343\U+8384\U+815B_1
 62
     7
100
AcDbVertex
100
AcDb2dVertex
 10
196.3029187877298
 20
153.3008924312929
 30
0.0
  0
VERTEX
  5
43B
330
418
100
AcDbEntity
  8
\U+838C\U+8343\U+8384\U+815B_1
 62
     7
100
AcDbVertex
100
AcDb2dVertex
 10
199.7201089995492
 20
152.2024237358209
 30
0.0
  0
VERTEX
  5
43C
330
418
100
AcDbEntity
  8
\U+838C\U+8343\U+8384\U+815B_1
 62
     7
100
AcDbVertex
100
AcDb2dVertex
 10
203.0763210212795
 20
150.9819986601712
 30
0.0
  0
VERTEX
  5
43D
330
418
100
AcDbEntity
  8
\U+838C\U+8343\U+8384\U+815B_1
 62
     7
100
AcDbVertex
100
AcDb2dVertex
 10
206.3105766628321
 20
149.7614013297471
 30
0.0
  0
VERTEX
  5
43E
330
418
100
AcDbEntity
  8
\U+838C\U+8343\U+8384\U+815B_1
 62
     7
100
AcDbVertex
100
AcDb2dVertex
 10
209.4232204337553
 20
148.418675364371
 30
0.0
  0
VERTEX
  5
43F
330
418
100
AcDbEntity
  8
\U+838C\U+8343\U+8384\U+815B_1
 62
     7
100
AcDbVertex
100
AcDb2dVertex
 10
212.53551969513
 20
147.0153157184545
 30
0.0
  0
VERTEX
  5
440
330
418
100
AcDbEntity
  8
\U+838C\U+8343\U+8384\U+815B_1
 62
     7
100
AcDbVertex
100
AcDb2dVertex
 10
215.4645398766894
 20
145.5504611181263
 30
0.0
  0
VERTEX
  5
441
330
418
100
AcDbEntity
  8
\U+838C\U+8343\U+8384\U+815B_1
 62
     7
100
AcDbVertex
100
AcDb2dVertex
 10
218.3329263777084
 20
144.0248005824834
 30
0.0
  0
VERTEX
  5
442
330
418
100
AcDbEntity
  8
\U+838C\U+8343\U+8384\U+815B_1
 62
     7
100
AcDbVertex
100
AcDb2dVertex
 10
221.13999017909
 20
142.4383341115258
 30
0.0
  0
VERTEX
  5
443
330
418
100
AcDbEntity
  8
\U+838C\U+8343\U+8384\U+815B_1
 62
     7
100
AcDbVertex
100
AcDb2dVertex
 10
223.7644639197533
 20
140.7905449409308
 30
0.0
  0
VERTEX
  5
444
330
418
100
AcDbEntity
  8
\U+838C\U+8343\U+8384\U+815B_1
 62
     7
100
AcDbVertex
100
AcDb2dVertex
 10
226.3269259416822
 20
139.0211438997065
 30
0.0
  0
VERTEX
  5
445
330
418
100
AcDbEntity
  8
\U+838C\U+8343\U+8384\U+815B_1
 62
     7
100
AcDbVertex
100
AcDb2dVertex
 10
228.7071424124413
 20
137.2512260941594
 30
0.0
  0
VERTEX
  5
446
330
418
100
AcDbEntity
  8
\U+838C\U+8343\U+8384\U+815B_1
 62
     7
100
AcDbVertex
100
AcDb2dVertex
 10
231.026036183563
 20
135.4811360338381
 30
0.0
  0
VERTEX
  5
447
330
418
100
AcDbEntity
  8
\U+838C\U+8343\U+8384\U+815B_1
 62
     7
100
AcDbVertex
100
AcDb2dVertex
 10
233.2233180840553
 20
133.5896063576616
 30
0.0
  0
VERTEX
  5
448
330
418
100
AcDbEntity
  8
\U+838C\U+8343\U+8384\U+815B_1
 62
     7
100
AcDbVertex
100
AcDb2dVertex
 10
235.2369763951838
 20
131.6367539818478
 30
0.0
  0
VERTEX
  5
449
330
418
100
AcDbEntity
  8
\U+838C\U+8343\U+8384\U+815B_1
 62
     7
100
AcDbVertex
100
AcDb2dVertex
 10
237.1900010257719
 20
129.6837293512596
 30
0.0
  0
VERTEX
  5
44A
330
418
100
AcDbEntity
  8
\U+838C\U+8343\U+8384\U+815B_1
 62
     7
100
AcDbVertex
100
AcDb2dVertex
 10
237.6168483563944
 20
129.195731575774
 30
0.0
  0
SEQEND
  5
44B
330
418
100
AcDbEntity
  8
\U+838C\U+8343\U+8384\U+815B_1
  0
ENDBLK
  5
417
330
414
100
AcDbEntity
  8
0
100
AcDbBlockEnd
  0
BLOCK
  5
44E
330
44C
100
AcDbEntity
  8
0
100
AcDbBlockBegin
  2
BLOCK_42
 70
     0
 71
     0
 10
0.0
 20
0.0
 30
0.0
  3
BLOCK_42
  1

  0
POLYLINE
  5
450
330
44C
100
AcDbEntity
  8
\U+838C\U+8343\U+8384\U+815B_1
 62
     7
100
AcDb2dPolyline
 66
     1
 10
0.0
 20
0.0
 30
0.0
  0
VERTEX
  5
451
330
450
100
AcDbEntity
  8
\U+838C\U+8343\U+8384\U+815B_1
 62
     7
100
AcDbVertex
100
AcDb2dVertex
 10
49.47449949935013
 20
100.3911159688258
 30
0.0
  0
VERTEX
  5
452
330
450
100
AcDbEntity
  8
\U+838C\U+8343\U+8384\U+815B_1
 62
     7
100
AcDbVertex
100
AcDb2dVertex
 10
49.41369356403547
 20
101.6733805084358
 30
0.0
  0
VERTEX
  5
453
330
450
100
AcDbEntity
  8
\U+838C\U+8343\U+8384\U+815B_1
 62
     7
100
AcDbVertex
100
AcDb2dVertex
 10
49.53547768943905
 20
103.9312960894686
 30
0.0
  0
VERTEX
  5
454
330
450
100
AcDbEntity
  8
\U+838C\U+8343\U+8384\U+815B_1
 62
     7
100
AcDbVertex
100
AcDb2dVertex
 10
49.71875676925434
 20
106.1886949061785
 30
0.0
  0
VERTEX
  5
455
330
450
100
AcDbEntity
  8
\U+838C\U+8343\U+8384\U+815B_1
 62
     7
100
AcDbVertex
100
AcDb2dVertex
 10
50.14577635465105
 20
108.4469549967598
 30
0.0
  0
VERTEX
  5
456
330
450
100
AcDbEntity
  8
\U+838C\U+8343\U+8384\U+815B_1
 62
     7
100
AcDbVertex
100
AcDb2dVertex
 10
50.63411863968522
 20
110.6442368972521
 30
0.0
  0
VERTEX
  5
457
330
450
100
AcDbEntity
  8
\U+838C\U+8343\U+8384\U+815B_1
 62
     7
100
AcDbVertex
100
AcDb2dVertex
 10
51.36620143030081
 20
112.8408297786474
 30
0.0
  0
VERTEX
  5
458
330
450
100
AcDbEntity
  8
\U+838C\U+8343\U+8384\U+815B_1
 62
     7
100
AcDbVertex
100
AcDb2dVertex
 10
52.15977917532811
 20
115.037594914817
 30
0.0
  0
VERTEX
  5
459
330
450
100
AcDbEntity
  8
\U+838C\U+8343\U+8384\U+815B_1
 62
     7
100
AcDbVertex
100
AcDb2dVertex
 10
53.13594698107365
 20
117.2348768153093
 30
0.0
  0
VERTEX
  5
45A
330
450
100
AcDbEntity
  8
\U+838C\U+8343\U+8384\U+815B_1
 62
     7
100
AcDbVertex
100
AcDb2dVertex
 10
54.29573837618301
 20
119.37066376139
 30
0.0
  0
VERTEX
  5
45B
330
450
100
AcDbEntity
  8
\U+838C\U+8343\U+8384\U+815B_1
 62
     7
100
AcDbVertex
100
AcDb2dVertex
 10
55.57696938714743
 20
121.5066229622449
 30
0.0
  0
VERTEX
  5
45C
330
450
100
AcDbEntity
  8
\U+838C\U+8343\U+8384\U+815B_1
 62
     7
100
AcDbVertex
100
AcDb2dVertex
 10
56.98084579738673
 20
123.5810872086881
 30
0.0
  0
VERTEX
  5
45D
330
450
100
AcDbEntity
  8
\U+838C\U+8343\U+8384\U+815B_1
 62
     7
100
AcDbVertex
100
AcDb2dVertex
 10
58.56748452311855
 20
125.6562404742283
 30
0.0
  0
VERTEX
  5
45E
330
450
100
AcDbEntity
  8
\U+838C\U+8343\U+8384\U+815B_1
 62
     7
100
AcDbVertex
100
AcDb2dVertex
 10
60.21510143893929
 20
127.6700710401311
 30
0.0
  0
VERTEX
  5
45F
330
450
100
AcDbEntity
  8
\U+838C\U+8343\U+8384\U+815B_1
 62
     7
100
AcDbVertex
100
AcDb2dVertex
 10
62.04582517980105
 20
129.622923415945
 30
0.0
  0
VERTEX
  5
460
330
450
100
AcDbEntity
  8
\U+838C\U+8343\U+8384\U+815B_1
 62
     7
100
AcDbVertex
100
AcDb2dVertex
 10
64.0598280004781
 20
131.5759480465331
 30
0.0
  0
VERTEX
  5
461
330
450
100
AcDbEntity
  8
\U+838C\U+8343\U+8384\U+815B_1
 62
     7
100
AcDbVertex
100
AcDb2dVertex
 10
66.13429224692129
 20
133.4674777227095
 30
0.0
  0
VERTEX
  5
462
330
450
100
AcDbEntity
  8
\U+838C\U+8343\U+8384\U+815B_1
 62
     7
100
AcDbVertex
100
AcDb2dVertex
 10
68.33157414741363
 20
135.2982014635713
 30
0.0
  0
VERTEX
  5
463
330
450
100
AcDbEntity
  8
\U+838C\U+8343\U+8384\U+815B_1
 62
     7
100
AcDbVertex
100
AcDb2dVertex
 10
70.71127385384996
 20
137.128925204433
 30
0.0
  0
VERTEX
  5
464
330
450
100
AcDbEntity
  8
\U+838C\U+8343\U+8384\U+815B_1
 62
     7
100
AcDbVertex
100
AcDb2dVertex
 10
73.15229625992373
 20
138.8375203103427
 30
0.0
  0
VERTEX
  5
465
330
450
100
AcDbEntity
  8
\U+838C\U+8343\U+8384\U+815B_1
 62
     7
100
AcDbVertex
100
AcDb2dVertex
 10
75.77694225536132
 20
140.5468044353494
 30
0.0
  0
VERTEX
  5
466
330
450
100
AcDbEntity
  8
\U+838C\U+8343\U+8384\U+815B_1
 62
     7
100
AcDbVertex
100
AcDb2dVertex
 10
78.46170516701652
 20
142.133270906307
 30
0.0
  0
VERTEX
  5
467
330
450
100
AcDbEntity
  8
\U+838C\U+8343\U+8384\U+815B_1
 62
     7
100
AcDbVertex
100
AcDb2dVertex
 10
81.26928573272087
 20
143.7197373772645
 30
0.0
  0
VERTEX
  5
468
330
450
100
AcDbEntity
  8
\U+838C\U+8343\U+8384\U+815B_1
 62
     7
100
AcDbVertex
100
AcDb2dVertex
 10
84.19830591428028
 20
145.1845919775928
 30
0.0
  0
VERTEX
  5
469
330
450
100
AcDbEntity
  8
\U+838C\U+8343\U+8384\U+815B_1
 62
     7
100
AcDbVertex
100
AcDb2dVertex
 10
87.18830428592862
 20
146.5879516235093
 30
0.0
  0
VERTEX
  5
46A
330
450
100
AcDbEntity
  8
\U+838C\U+8343\U+8384\U+815B_1
 62
     7
100
AcDbVertex
100
AcDb2dVertex
 10
90.30094805685185
 20
147.9914835242
 30
0.0
  0
VERTEX
  5
46B
330
450
100
AcDbEntity
  8
\U+838C\U+8343\U+8384\U+815B_1
 62
     7
100
AcDbVertex
100
AcDb2dVertex
 10
93.47439776308974
 20
149.2734035542615
 30
0.0
  0
VERTEX
  5
46C
330
450
100
AcDbEntity
  8
\U+838C\U+8343\U+8384\U+815B_1
 62
     7
100
AcDbVertex
100
AcDb2dVertex
 10
96.76945933995694
 20
150.4938286299113
 30
0.0
  0
VERTEX
  5
46D
330
450
100
AcDbEntity
  8
\U+838C\U+8343\U+8384\U+815B_1
 62
     7
100
AcDbVertex
100
AcDb2dVertex
 10
100.1258436164616
 20
151.5922973253832
 30
0.0
  0
VERTEX
  5
46E
330
450
100
AcDbEntity
  8
\U+838C\U+8343\U+8384\U+815B_1
 62
     7
100
AcDbVertex
100
AcDb2dVertex
 10
103.5435505926037
 20
152.6905937660808
 30
0.0
  0
VERTEX
  5
46F
330
450
100
AcDbEntity
  8
\U+838C\U+8343\U+8384\U+815B_1
 62
     7
100
AcDbVertex
100
AcDb2dVertex
 10
107.0215467397377
 20
153.6672783361492
 30
0.0
  0
VERTEX
  5
470
330
450
100
AcDbEntity
  8
\U+838C\U+8343\U+8384\U+815B_1
 62
     7
100
AcDbVertex
100
AcDb2dVertex
 10
110.6223605409208
 20
154.5213175069426
 30
0.0
  0
VERTEX
  5
471
330
450
100
AcDbEntity
  8
\U+838C\U+8343\U+8384\U+815B_1
 62
     7
100
AcDbVertex
100
AcDb2dVertex
 10
114.2231743421039
 20
155.3758734420588
 30
0.0
  0
VERTEX
  5
472
330
450
100
AcDbEntity
  8
\U+838C\U+8343\U+8384\U+815B_1
 62
     7
100
AcDbVertex
100
AcDb2dVertex
 10
117.8846218238275
 20
156.1083007422229
 30
0.0
  0
VERTEX
  5
473
330
450
100
AcDbEntity
  8
\U+838C\U+8343\U+8384\U+815B_1
 62
     7
100
AcDbVertex
100
AcDb2dVertex
 10
121.6070474956399
 20
156.7185994074349
 30
0.0
  0
VERTEX
  5
474
330
450
100
AcDbEntity
  8
\U+838C\U+8343\U+8384\U+815B_1
 62
     7
100
AcDbVertex
100
AcDb2dVertex
 10
125.3907958670898
 20
157.328898072647
 30
0.0
  0
VERTEX
  5
475
330
450
100
AcDbEntity
  8
\U+838C\U+8343\U+8384\U+815B_1
 62
     7
100
AcDbVertex
100
AcDb2dVertex
 10
129.1743719837654
 20
157.8168958481326
 30
0.0
  0
VERTEX
  5
476
330
450
100
AcDbEntity
  8
\U+838C\U+8343\U+8384\U+815B_1
 62
     7
100
AcDbVertex
100
AcDb2dVertex
 10
133.01892629053
 20
158.1829372434404
 30
0.0
  0
VERTEX
  5
477
330
450
100
AcDbEntity
  8
\U+838C\U+8343\U+8384\U+815B_1
 62
     7
100
AcDbVertex
100
AcDb2dVertex
 10
136.8634805972945
 20
158.4880004486592
 30
0.0
  0
VERTEX
  5
478
330
450
100
AcDbEntity
  8
\U+838C\U+8343\U+8384\U+815B_1
 62
     7
100
AcDbVertex
100
AcDb2dVertex
 10
140.7693576036966
 20
158.7324299733377
 30
0.0
  0
VERTEX
  5
479
330
450
100
AcDbEntity
  8
\U+838C\U+8343\U+8384\U+815B_1
 62
     7
100
AcDbVertex
100
AcDb2dVertex
 10
144.6139119104611
 20
158.8545586082898
 30
0.0
  0
VERTEX
  5
47A
330
450
100
AcDbEntity
  8
\U+838C\U+8343\U+8384\U+815B_1
 62
     7
100
AcDbVertex
100
AcDb2dVertex
 10
148.5190998977661
 20
158.9153645436045
 30
0.0
  0
VERTEX
  5
47B
330
450
100
AcDbEntity
  8
\U+838C\U+8343\U+8384\U+815B_1
 62
     7
100
AcDbVertex
100
AcDb2dVertex
 10
152.4251491589423
 20
158.8545586082898
 30
0.0
  0
VERTEX
  5
47C
330
450
100
AcDbEntity
  8
\U+838C\U+8343\U+8384\U+815B_1
 62
     7
100
AcDbVertex
100
AcDb2dVertex
 10
156.2695312109326
 20
158.7324299733377
 30
0.0
  0
VERTEX
  5
47D
330
450
100
AcDbEntity
  8
\U+838C\U+8343\U+8384\U+815B_1
 62
     7
100
AcDbVertex
100
AcDb2dVertex
 10
160.1755804721089
 20
158.4880004486592
 30
0.0
  0
VERTEX
  5
47E
330
450
100
AcDbEntity
  8
\U+838C\U+8343\U+8384\U+815B_1
 62
     7
100
AcDbVertex
100
AcDb2dVertex
 10
164.0199625240992
 20
158.1829372434404
 30
0.0
  0
VERTEX
  5
47F
330
450
100
AcDbEntity
  8
\U+838C\U+8343\U+8384\U+815B_1
 62
     7
100
AcDbVertex
100
AcDb2dVertex
 10
167.8643445760895
 20
157.8168958481326
 30
0.0
  0
VERTEX
  5
480
330
450
100
AcDbEntity
  8
\U+838C\U+8343\U+8384\U+815B_1
 62
     7
100
AcDbVertex
100
AcDb2dVertex
 10
171.6480929475394
 20
157.328898072647
 30
0.0
  0
VERTEX
  5
481
330
450
100
AcDbEntity
  8
\U+838C\U+8343\U+8384\U+815B_1
 62
     7
100
AcDbVertex
100
AcDb2dVertex
 10
175.4318413189893
 20
156.7185994074349
 30
0.0
  0
VERTEX
  5
482
330
450
100
AcDbEntity
  8
\U+838C\U+8343\U+8384\U+815B_1
 62
     7
100
AcDbVertex
100
AcDb2dVertex
 10
179.1542669908017
 20
156.1083007422229
 30
0.0
  0
VERTEX
  5
483
330
450
100
AcDbEntity
  8
\U+838C\U+8343\U+8384\U+815B_1
 62
     7
100
AcDbVertex
100
AcDb2dVertex
 10
182.8157144725253
 20
155.3758734420588
 30
0.0
  0
VERTEX
  5
484
330
450
100
AcDbEntity
  8
\U+838C\U+8343\U+8384\U+815B_1
 62
     7
100
AcDbVertex
100
AcDb2dVertex
 10
186.4165282737084
 20
154.5213175069426
 30
0.0
  0
VERTEX
  5
485
330
450
100
AcDbEntity
  8
\U+838C\U+8343\U+8384\U+815B_1
 62
     7
100
AcDbVertex
100
AcDb2dVertex
 10
190.0166530557944
 20
153.6672783361492
 30
0.0
  0
VERTEX
  5
486
330
450
100
AcDbEntity
  8
\U+838C\U+8343\U+8384\U+815B_1
 62
     7
100
AcDbVertex
100
AcDb2dVertex
 10
193.4951659672512
 20
152.6905937660808
 30
0.0
  0
VERTEX
  5
487
330
450
100
AcDbEntity
  8
\U+838C\U+8343\U+8384\U+815B_1
 62
     7
100
AcDbVertex
100
AcDb2dVertex
 10
196.9130451981676
 20
151.5922973253832
 30
0.0
  0
VERTEX
  5
488
330
450
100
AcDbEntity
  8
\U+838C\U+8343\U+8384\U+815B_1
 62
     7
100
AcDbVertex
100
AcDb2dVertex
 10
200.2696017294465
 20
150.4938286299113
 30
0.0
  0
VERTEX
  5
489
330
450
100
AcDbEntity
  8
\U+838C\U+8343\U+8384\U+815B_1
 62
     7
100
AcDbVertex
100
AcDb2dVertex
 10
203.5644910515394
 20
149.2734035542615
 30
0.0
  0
VERTEX
  5
48A
330
450
100
AcDbEntity
  8
\U+838C\U+8343\U+8384\U+815B_1
 62
     7
100
AcDbVertex
100
AcDb2dVertex
 10
206.7381130125516
 20
147.9914835242
 30
0.0
  0
VERTEX
  5
48B
330
450
100
AcDbEntity
  8
\U+838C\U+8343\U+8384\U+815B_1
 62
     7
100
AcDbVertex
100
AcDb2dVertex
 10
209.8500677643778
 20
146.5879516235093
 30
0.0
  0
VERTEX
  5
48C
330
450
100
AcDbEntity
  8
\U+838C\U+8343\U+8384\U+815B_1
 62
     7
100
AcDbVertex
100
AcDb2dVertex
 10
212.8404106455746
 20
145.1845919775928
 30
0.0
  0
VERTEX
  5
48D
330
450
100
AcDbEntity
  8
\U+838C\U+8343\U+8384\U+815B_1
 62
     7
100
AcDbVertex
100
AcDb2dVertex
 10
215.7697753366826
 20
143.7197373772645
 30
0.0
  0
VERTEX
  5
48E
330
450
100
AcDbEntity
  8
\U+838C\U+8343\U+8384\U+815B_1
 62
     7
100
AcDbVertex
100
AcDb2dVertex
 10
218.5771836476127
 20
142.133270906307
 30
0.0
  0
VERTEX
  5
48F
330
450
100
AcDbEntity
  8
\U+838C\U+8343\U+8384\U+815B_1
 62
     7
100
AcDbVertex
100
AcDb2dVertex
 10
221.2619465592679
 20
140.5468044353494
 30
0.0
  0
VERTEX
  5
490
330
450
100
AcDbEntity
  8
\U+838C\U+8343\U+8384\U+815B_1
 62
     7
100
AcDbVertex
100
AcDb2dVertex
 10
223.8860757903826
 20
138.8375203103427
 30
0.0
  0
VERTEX
  5
491
330
450
100
AcDbEntity
  8
\U+838C\U+8343\U+8384\U+815B_1
 62
     7
100
AcDbVertex
100
AcDb2dVertex
 10
226.3269259416822
 20
137.128925204433
 30
0.0
  0
VERTEX
  5
492
330
450
100
AcDbEntity
  8
\U+838C\U+8343\U+8384\U+815B_1
 62
     7
100
AcDbVertex
100
AcDb2dVertex
 10
228.7071424124413
 20
135.2982014635713
 30
0.0
  0
VERTEX
  5
493
330
450
100
AcDbEntity
  8
\U+838C\U+8343\U+8384\U+815B_1
 62
     7
100
AcDbVertex
100
AcDb2dVertex
 10
230.9040798033851
 20
133.4674777227095
 30
0.0
  0
VERTEX
  5
494
330
450
100
AcDbEntity
  8
\U+838C\U+8343\U+8384\U+815B_1
 62
     7
100
AcDbVertex
100
AcDb2dVertex
 10
232.9790608141511
 20
131.5759480465331
 30
0.0
  0
VERTEX
  5
495
330
450
100
AcDbEntity
  8
\U+838C\U+8343\U+8384\U+815B_1
 62
     7
100
AcDbVertex
100
AcDb2dVertex
 10
234.9927191252796
 20
129.622923415945
 30
0.0
  0
VERTEX
  5
496
330
450
100
AcDbEntity
  8
\U+838C\U+8343\U+8384\U+815B_1
 62
     7
100
AcDbVertex
100
AcDb2dVertex
 10
236.8234428661414
 20
127.6700710401311
 30
0.0
  0
VERTEX
  5
497
330
450
100
AcDbEntity
  8
\U+838C\U+8343\U+8384\U+815B_1
 62
     7
100
AcDbVertex
100
AcDb2dVertex
 10
238.5322102268253
 20
125.6562404742283
 30
0.0
  0
VERTEX
  5
498
330
450
100
AcDbEntity
  8
\U+838C\U+8343\U+8384\U+815B_1
 62
     7
100
AcDbVertex
100
AcDb2dVertex
 10
240.0576985076939
 20
123.5810872086881
 30
0.0
  0
VERTEX
  5
499
330
450
100
AcDbEntity
  8
\U+838C\U+8343\U+8384\U+815B_1
 62
     7
100
AcDbVertex
100
AcDb2dVertex
 10
241.4619194274817
 20
121.5066229622449
 30
0.0
  0
VERTEX
  5
49A
330
450
100
AcDbEntity
  8
\U+838C\U+8343\U+8384\U+815B_1
 62
     7
100
AcDbVertex
100
AcDb2dVertex
 10
242.7431504384462
 20
119.37066376139
 30
0.0
  0
VERTEX
  5
49B
330
450
100
AcDbEntity
  8
\U+838C\U+8343\U+8384\U+815B_1
 62
     7
100
AcDbVertex
100
AcDb2dVertex
 10
243.9027695787813
 20
117.2348768153093
 30
0.0
  0
VERTEX
  5
49C
330
450
100
AcDbEntity
  8
\U+838C\U+8343\U+8384\U+815B_1
 62
     7
100
AcDbVertex
100
AcDb2dVertex
 10
244.8791096393011
 20
115.037594914817
 30
0.0
  0
VERTEX
  5
49D
330
450
100
AcDbEntity
  8
\U+838C\U+8343\U+8384\U+815B_1
 62
     7
100
AcDbVertex
100
AcDb2dVertex
 10
245.6721706200056
 20
112.8408297786474
 30
0.0
  0
VERTEX
  5
49E
330
450
100
AcDbEntity
  8
\U+838C\U+8343\U+8384\U+815B_1
 62
     7
100
AcDbVertex
100
AcDb2dVertex
 10
246.4045979201697
 20
110.6442368972521
 30
0.0
  0
VERTEX
  5
49F
330
450
100
AcDbEntity
  8
\U+838C\U+8343\U+8384\U+815B_1
 62
     7
100
AcDbVertex
100
AcDb2dVertex
 10
246.8927679504296
 20
108.4469549967598
 30
0.0
  0
VERTEX
  5
4A0
330
450
100
AcDbEntity
  8
\U+838C\U+8343\U+8384\U+815B_1
 62
     7
100
AcDbVertex
100
AcDb2dVertex
 10
247.3199597906006
 20
106.1886949061785
 30
0.0
  0
VERTEX
  5
4A1
330
450
100
AcDbEntity
  8
\U+838C\U+8343\U+8384\U+815B_1
 62
     7
100
AcDbVertex
100
AcDb2dVertex
 10
247.5032388704159
 20
103.9312960894686
 30
0.0
  0
VERTEX
  5
4A2
330
450
100
AcDbEntity
  8
\U+838C\U+8343\U+8384\U+815B_1
 62
     7
100
AcDbVertex
100
AcDb2dVertex
 10
247.6251952505937
 20
101.6733805084358
 30
0.0
  0
VERTEX
  5
4A3
330
450
100
AcDbEntity
  8
\U+838C\U+8343\U+8384\U+815B_1
 62
     7
100
AcDbVertex
100
AcDb2dVertex
 10
247.5645615700533
 20
100.269848607745
 30
0.0
  0
SEQEND
  5
4A4
330
450
100
AcDbEntity
  8
\U+838C\U+8343\U+8384\U+815B_1
  0
ENDBLK
  5
44F
330
44C
100
AcDbEntity
  8
0
100
AcDbBlockEnd
  0
BLOCK
  5
4A7
330
4A5
100
AcDbEntity
  8
0
100
AcDbBlockBegin
  2
BLOCK_43
 70
     0
 71
     0
 10
0.0
 20
0.0
 30
0.0
  3
BLOCK_43
  1

  0
POLYLINE
  5
4A9
330
4A5
100
AcDbEntity
  8
\U+838C\U+8343\U+8384\U+815B_1
 62
     7
100
AcDb2dPolyline
 66
     1
 10
0.0
 20
0.0
 30
0.0
  0
VERTEX
  5
4AA
330
4A9
100
AcDbEntity
  8
\U+838C\U+8343\U+8384\U+815B_1
 62
     7
100
AcDbVertex
100
AcDb2dVertex
 10
79.62132430735161
 20
139.1427557703358
 30
0.0
  0
VERTEX
  5
4AB
330
4A9
100
AcDbEntity
  8
\U+838C\U+8343\U+8384\U+815B_1
 62
     7
100
AcDbVertex
100
AcDb2dVertex
 10
76.93604463137363
 20
137.5562892993783
 30
0.0
  0
VERTEX
  5
4AC
330
4A9
100
AcDbEntity
  8
\U+838C\U+8343\U+8384\U+815B_1
 62
     7
100
AcDbVertex
100
AcDb2dVertex
 10
74.37289359034776
 20
135.9085001287833
 30
0.0
  0
VERTEX
  5
4AD
330
4A9
100
AcDbEntity
  8
\U+838C\U+8343\U+8384\U+815B_1
 62
     7
100
AcDbVertex
100
AcDb2dVertex
 10
71.93187118427397
 20
134.1999050228737
 30
0.0
  0
VERTEX
  5
4AE
330
4A9
100
AcDbEntity
  8
\U+838C\U+8343\U+8384\U+815B_1
 62
     7
100
AcDbVertex
100
AcDb2dVertex
 10
69.61297741315231
 20
132.4298149625523
 30
0.0
  0
VERTEX
  5
4AF
330
4A9
100
AcDbEntity
  8
\U+838C\U+8343\U+8384\U+815B_1
 62
     7
100
AcDbVertex
100
AcDb2dVertex
 10
67.41621227698276
 20
130.5990912216905
 30
0.0
  0
VERTEX
  5
4B0
330
4A9
100
AcDbEntity
  8
\U+838C\U+8343\U+8384\U+815B_1
 62
     7
100
AcDbVertex
100
AcDb2dVertex
 10
65.34105901144251
 20
128.7075615455141
 30
0.0
  0
VERTEX
  5
4B1
330
4A9
100
AcDbEntity
  8
\U+838C\U+8343\U+8384\U+815B_1
 62
     7
100
AcDbVertex
100
AcDb2dVertex
 10
63.44952933526609
 20
126.8160318693377
 30
0.0
  0
VERTEX
  5
4B2
330
4A9
100
AcDbEntity
  8
\U+838C\U+8343\U+8384\U+815B_1
 62
     7
100
AcDbVertex
100
AcDb2dVertex
 10
61.61880559440433
 20
124.8016845391121
 30
0.0
  0
VERTEX
  5
4B3
330
4A9
100
AcDbEntity
  8
\U+838C\U+8343\U+8384\U+815B_1
 62
     7
100
AcDbVertex
100
AcDb2dVertex
 10
59.97101642380933
 20
122.849348927621
 30
0.0
  0
VERTEX
  5
4B4
330
4A9
100
AcDbEntity
  8
\U+838C\U+8343\U+8384\U+815B_1
 62
     7
100
AcDbVertex
100
AcDb2dVertex
 10
58.38420544330326
 20
120.7741956620808
 30
0.0
  0
VERTEX
  5
4B5
330
4A9
100
AcDbEntity
  8
\U+838C\U+8343\U+8384\U+815B_1
 62
     7
100
AcDbVertex
100
AcDb2dVertex
 10
57.04182398747566
 20
118.6990423965405
 30
0.0
  0
VERTEX
  5
4B6
330
4A9
100
AcDbEntity
  8
\U+838C\U+8343\U+8384\U+815B_1
 62
     7
100
AcDbVertex
100
AcDb2dVertex
 10
55.76024846696272
 20
116.6245781500973
 30
0.0
  0
VERTEX
  5
4B7
330
4A9
100
AcDbEntity
  8
\U+838C\U+8343\U+8384\U+815B_1
 62
     7
100
AcDbVertex
100
AcDb2dVertex
 10
54.66160751671654
 20
114.4886189492424
 30
0.0
  0
VERTEX
  5
4B8
330
4A9
100
AcDbEntity
  8
\U+838C\U+8343\U+8384\U+815B_1
 62
     7
100
AcDbVertex
100
AcDb2dVertex
 10
53.685439710971
 20
112.3528320031618
 30
0.0
  0
VERTEX
  5
4B9
330
4A9
100
AcDbEntity
  8
\U+838C\U+8343\U+8384\U+815B_1
 62
     7
100
AcDbVertex
100
AcDb2dVertex
 10
52.8918619659437
 20
110.1553778478952
 30
0.0
  0
VERTEX
  5
4BA
330
4A9
100
AcDbEntity
  8
\U+838C\U+8343\U+8384\U+815B_1
 62
     7
100
AcDbVertex
100
AcDb2dVertex
 10
52.22058511064277
 20
107.9587849664999
 30
0.0
  0
VERTEX
  5
4BB
330
4A9
100
AcDbEntity
  8
\U+838C\U+8343\U+8384\U+815B_1
 62
     7
100
AcDbVertex
100
AcDb2dVertex
 10
51.73241508038287
 20
105.7621920851046
 30
0.0
  0
VERTEX
  5
4BC
330
4A9
100
AcDbEntity
  8
\U+838C\U+8343\U+8384\U+815B_1
 62
     7
100
AcDbVertex
100
AcDb2dVertex
 10
51.36620143030081
 20
103.564737929838
 30
0.0
  0
VERTEX
  5
4BD
330
4A9
100
AcDbEntity
  8
\U+838C\U+8343\U+8384\U+815B_1
 62
     7
100
AcDbVertex
100
AcDb2dVertex
 10
51.12228866994513
 20
101.3068223488052
 30
0.0
  0
VERTEX
  5
4BE
330
4A9
100
AcDbEntity
  8
\U+838C\U+8343\U+8384\U+815B_1
 62
     7
100
AcDbVertex
100
AcDb2dVertex
 10
51.06113822508194
 20
99.11022946740995
 30
0.0
  0
VERTEX
  5
4BF
330
4A9
100
AcDbEntity
  8
\U+838C\U+8343\U+8384\U+815B_1
 62
     7
100
AcDbVertex
100
AcDb2dVertex
 10
51.18326686003405
 20
96.91363658601465
 30
0.0
  0
VERTEX
  5
4C0
330
4A9
100
AcDbEntity
  8
\U+838C\U+8343\U+8384\U+815B_1
 62
     7
100
AcDbVertex
100
AcDb2dVertex
 10
51.427351875164
 20
94.65503198588486
 30
0.0
  0
VERTEX
  5
4C1
330
4A9
100
AcDbEntity
  8
\U+838C\U+8343\U+8384\U+815B_1
 62
     7
100
AcDbVertex
100
AcDb2dVertex
 10
51.79356552524605
 20
92.4577500853925
 30
0.0
  0
VERTEX
  5
4C2
330
4A9
100
AcDbEntity
  8
\U+838C\U+8343\U+8384\U+815B_1
 62
     7
100
AcDbVertex
100
AcDb2dVertex
 10
52.40386419045807
 20
90.26115720399721
 30
0.0
  0
VERTEX
  5
4C3
330
4A9
100
AcDbEntity
  8
\U+838C\U+8343\U+8384\U+815B_1
 62
     7
100
AcDbVertex
100
AcDb2dVertex
 10
53.075141045759
 20
88.06456432260192
 30
0.0
  0
VERTEX
  5
4C4
330
4A9
100
AcDbEntity
  8
\U+838C\U+8343\U+8384\U+815B_1
 62
     7
100
AcDbVertex
100
AcDb2dVertex
 10
53.92952472610096
 20
85.92860512174703
 30
0.0
  0
VERTEX
  5
4C5
330
4A9
100
AcDbEntity
  8
\U+838C\U+8343\U+8384\U+815B_1
 62
     7
100
AcDbVertex
100
AcDb2dVertex
 10
54.90603704139502
 20
83.73132322125467
 30
0.0
  0
VERTEX
  5
4C6
330
4A9
100
AcDbEntity
  8
\U+838C\U+8343\U+8384\U+815B_1
 62
     7
100
AcDbVertex
100
AcDb2dVertex
 10
56.06531167218159
 20
81.65668672003721
 30
0.0
  0
VERTEX
  5
4C7
330
4A9
100
AcDbEntity
  8
\U+838C\U+8343\U+8384\U+815B_1
 62
     7
100
AcDbVertex
100
AcDb2dVertex
 10
57.34705944746879
 20
79.52072751918232
 30
0.0
  0
VERTEX
  5
4C8
330
4A9
100
AcDbEntity
  8
\U+838C\U+8343\U+8384\U+815B_1
 62
     7
100
AcDbVertex
100
AcDb2dVertex
 10
58.75041909338532
 20
77.44609101796487
 30
0.0
  0
VERTEX
  5
4C9
330
4A9
100
AcDbEntity
  8
\U+838C\U+8343\U+8384\U+815B_1
 62
     7
100
AcDbVertex
100
AcDb2dVertex
 10
60.33723007389139
 20
75.43208819728781
 30
0.0
  0
VERTEX
  5
4CA
330
4A9
100
AcDbEntity
  8
\U+838C\U+8343\U+8384\U+815B_1
 62
     7
100
AcDbVertex
100
AcDb2dVertex
 10
62.04582517980105
 20
73.4794080762482
 30
0.0
  0
VERTEX
  5
4CB
330
4A9
100
AcDbEntity
  8
\U+838C\U+8343\U+8384\U+815B_1
 62
     7
100
AcDbVertex
100
AcDb2dVertex
 10
63.87689343021133
 20
71.52603893611155
 30
0.0
  0
VERTEX
  5
4CC
330
4A9
100
AcDbEntity
  8
\U+838C\U+8343\U+8384\U+815B_1
 62
     7
100
AcDbVertex
100
AcDb2dVertex
 10
65.89055174133986
 20
69.57335881507194
 30
0.0
  0
VERTEX
  5
4CD
330
4A9
100
AcDbEntity
  8
\U+838C\U+8343\U+8384\U+815B_1
 62
     7
100
AcDbVertex
100
AcDb2dVertex
 10
67.96518824255732
 20
67.74263507421018
 30
0.0
  0
VERTEX
  5
4CE
330
4A9
100
AcDbEntity
  8
\U+838C\U+8343\U+8384\U+815B_1
 62
     7
100
AcDbVertex
100
AcDb2dVertex
 10
70.22310382359007
 20
65.91191133334841
 30
0.0
  0
VERTEX
  5
4CF
330
4A9
100
AcDbEntity
  8
\U+838C\U+8343\U+8384\U+815B_1
 62
     7
100
AcDbVertex
100
AcDb2dVertex
 10
72.54199759471173
 20
64.1425102921241
 30
0.0
  0
VERTEX
  5
4D0
330
4A9
100
AcDbEntity
  8
\U+838C\U+8343\U+8384\U+815B_1
 62
     7
100
AcDbVertex
100
AcDb2dVertex
 10
75.04451495519722
 20
62.43374293144018
 30
0.0
  0
VERTEX
  5
4D1
330
4A9
100
AcDbEntity
  8
\U+838C\U+8343\U+8384\U+815B_1
 62
     7
100
AcDbVertex
100
AcDb2dVertex
 10
77.60766599622309
 20
60.78629827039371
 30
0.0
  0
VERTEX
  5
4D2
330
4A9
100
AcDbEntity
  8
\U+838C\U+8343\U+8384\U+815B_1
 62
     7
100
AcDbVertex
100
AcDb2dVertex
 10
80.29242890787829
 20
59.19879827079058
 30
0.0
  0
VERTEX
  5
4D3
330
4A9
100
AcDbEntity
  8
\U+838C\U+8343\U+8384\U+815B_1
 62
     7
100
AcDbVertex
100
AcDb2dVertex
 10
83.10000947358265
 20
57.67330998992195
 30
0.0
  0
VERTEX
  5
4D4
330
4A9
100
AcDbEntity
  8
\U+838C\U+8343\U+8384\U+815B_1
 62
     7
100
AcDbVertex
100
AcDb2dVertex
 10
86.02902965514205
 20
56.20914440869077
 30
0.0
  0
VERTEX
  5
4D5
330
4A9
100
AcDbEntity
  8
\U+838C\U+8343\U+8384\U+815B_1
 62
     7
100
AcDbVertex
100
AcDb2dVertex
 10
89.01902802679038
 20
54.86624618854039
 30
0.0
  0
VERTEX
  5
4D6
330
4A9
100
AcDbEntity
  8
\U+838C\U+8343\U+8384\U+815B_1
 62
     7
100
AcDbVertex
100
AcDb2dVertex
 10
92.13167179771361
 20
53.52334796839
 30
0.0
  0
VERTEX
  5
4D7
330
4A9
100
AcDbEntity
  8
\U+838C\U+8343\U+8384\U+815B_1
 62
     7
100
AcDbVertex
100
AcDb2dVertex
 10
95.3051215039515
 20
52.24246146697411
 30
0.0
  0
VERTEX
  5
4D8
330
4A9
100
AcDbEntity
  8
\U+838C\U+8343\U+8384\U+815B_1
 62
     7
100
AcDbVertex
100
AcDb2dVertex
 10
98.53937714550405
 20
51.08284232663902
 30
0.0
  0
VERTEX
  5
4D9
330
4A9
100
AcDbEntity
  8
\U+838C\U+8343\U+8384\U+815B_1
 62
     7
100
AcDbVertex
100
AcDb2dVertex
 10
101.8957614220087
 20
49.98454588594137
 30
0.0
  0
VERTEX
  5
4DA
330
4A9
100
AcDbEntity
  8
\U+838C\U+8343\U+8384\U+815B_1
 62
     7
100
AcDbVertex
100
AcDb2dVertex
 10
105.312951633828
 20
48.94688312578411
 30
0.0
  0
VERTEX
  5
4DB
330
4A9
100
AcDbEntity
  8
\U+838C\U+8343\U+8384\U+815B_1
 62
     7
100
AcDbVertex
100
AcDb2dVertex
 10
108.791636800059
 20
48.03117674580471
 30
0.0
  0
VERTEX
  5
4DC
330
4A9
100
AcDbEntity
  8
\U+838C\U+8343\U+8384\U+815B_1
 62
     7
100
AcDbVertex
100
AcDb2dVertex
 10
112.3309556468305
 20
47.1774820845598
 30
0.0
  0
VERTEX
  5
4DD
330
4A9
100
AcDbEntity
  8
\U+838C\U+8343\U+8384\U+815B_1
 62
     7
100
AcDbVertex
100
AcDb2dVertex
 10
115.9317694480136
 20
46.38373208475824
 30
0.0
  0
VERTEX
  5
4DE
330
4A9
100
AcDbEntity
  8
\U+838C\U+8343\U+8384\U+815B_1
 62
     7
100
AcDbVertex
100
AcDb2dVertex
 10
119.5932169297371
 20
45.65199380369117
 30
0.0
  0
VERTEX
  5
4DF
330
4A9
100
AcDbEntity
  8
\U+838C\U+8343\U+8384\U+815B_1
 62
     7
100
AcDbVertex
100
AcDb2dVertex
 10
123.3156426015496
 20
45.0415228837049
 30
0.0
  0
VERTEX
  5
4E0
330
4A9
100
AcDbEntity
  8
\U+838C\U+8343\U+8384\U+815B_1
 62
     7
100
AcDbVertex
100
AcDb2dVertex
 10
127.0385850376848
 20
44.49168564425902
 30
0.0
  0
VERTEX
  5
4E1
330
4A9
100
AcDbEntity
  8
\U+838C\U+8343\U+8384\U+815B_1
 62
     7
100
AcDbVertex
100
AcDb2dVertex
 10
130.8216443900376
 20
44.06449380408804
 30
0.0
  0
VERTEX
  5
4E2
330
4A9
100
AcDbEntity
  8
\U+838C\U+8343\U+8384\U+815B_1
 62
     7
100
AcDbVertex
100
AcDb2dVertex
 10
134.6053927614875
 20
43.69862466355451
 30
0.0
  0
VERTEX
  5
4E3
330
4A9
100
AcDbEntity
  8
\U+838C\U+8343\U+8384\U+815B_1
 62
     7
100
AcDbVertex
100
AcDb2dVertex
 10
138.4499470682521
 20
43.45471190319883
 30
0.0
  0
VERTEX
  5
4E4
330
4A9
100
AcDbEntity
  8
\U+838C\U+8343\U+8384\U+815B_1
 62
     7
100
AcDbVertex
100
AcDb2dVertex
 10
142.2950181393394
 20
43.27143282338353
 30
0.0
  0
VERTEX
  5
4E5
330
4A9
100
AcDbEntity
  8
\U+838C\U+8343\U+8384\U+815B_1
 62
     7
100
AcDbVertex
100
AcDb2dVertex
 10
146.139572446104
 20
43.14947644320569
 30
0.0
  0
VERTEX
  5
4E6
330
4A9
100
AcDbEntity
  8
\U+838C\U+8343\U+8384\U+815B_1
 62
     7
100
AcDbVertex
100
AcDb2dVertex
 10
149.9839544980943
 20
43.14947644320569
 30
0.0
  0
VERTEX
  5
4E7
330
4A9
100
AcDbEntity
  8
\U+838C\U+8343\U+8384\U+815B_1
 62
     7
100
AcDbVertex
100
AcDb2dVertex
 10
153.8283365500846
 20
43.21079914284314
 30
0.0
  0
VERTEX
  5
4E8
330
4A9
100
AcDbEntity
  8
\U+838C\U+8343\U+8384\U+815B_1
 62
     7
100
AcDbVertex
100
AcDb2dVertex
 10
157.6730631116234
 20
43.39338920356138
 30
0.0
  0
VERTEX
  5
4E9
330
4A9
100
AcDbEntity
  8
\U+838C\U+8343\U+8384\U+815B_1
 62
     7
100
AcDbVertex
100
AcDb2dVertex
 10
161.4568114830733
 20
43.63730196391707
 30
0.0
  0
VERTEX
  5
4EA
330
4A9
100
AcDbEntity
  8
\U+838C\U+8343\U+8384\U+815B_1
 62
     7
100
AcDbVertex
100
AcDb2dVertex
 10
165.3011935350636
 20
44.00386012354765
 30
0.0
  0
VERTEX
  5
4EB
330
4A9
100
AcDbEntity
  8
\U+838C\U+8343\U+8384\U+815B_1
 62
     7
100
AcDbVertex
100
AcDb2dVertex
 10
169.0849419065135
 20
44.43105196371863
 30
0.0
  0
VERTEX
  5
4EC
330
4A9
100
AcDbEntity
  8
\U+838C\U+8343\U+8384\U+815B_1
 62
     7
100
AcDbVertex
100
AcDb2dVertex
 10
172.808056597423
 20
44.91956650352706
 30
0.0
  0
VERTEX
  5
4ED
330
4A9
100
AcDbEntity
  8
\U+838C\U+8343\U+8384\U+815B_1
 62
     7
100
AcDbVertex
100
AcDb2dVertex
 10
176.5301377596869
 20
45.52934840441628
 30
0.0
  0
VERTEX
  5
4EE
330
4A9
100
AcDbEntity
  8
\U+838C\U+8343\U+8384\U+815B_1
 62
     7
100
AcDbVertex
100
AcDb2dVertex
 10
180.1915852414105
 20
46.20045300494294
 30
0.0
  0
VERTEX
  5
4EF
330
4A9
100
AcDbEntity
  8
\U+838C\U+8343\U+8384\U+815B_1
 62
     7
100
AcDbVertex
100
AcDb2dVertex
 10
183.7923990425936
 20
46.93288030510706
 30
0.0
  0
VERTEX
  5
4F0
330
4A9
100
AcDbEntity
  8
\U+838C\U+8343\U+8384\U+815B_1
 62
     7
100
AcDbVertex
100
AcDb2dVertex
 10
187.3318901441393
 20
47.78795300454607
 30
0.0
  0
VERTEX
  5
4F1
330
4A9
100
AcDbEntity
  8
\U+838C\U+8343\U+8384\U+815B_1
 62
     7
100
AcDbVertex
100
AcDb2dVertex
 10
190.8713812456849
 20
48.70297036542843
 30
0.0
  0
VERTEX
  5
4F2
330
4A9
100
AcDbEntity
  8
\U+838C\U+8343\U+8384\U+815B_1
 62
     7
100
AcDbVertex
100
AcDb2dVertex
 10
194.2885714575042
 20
49.73994410648863
 30
0.0
  0
VERTEX
  5
4F3
330
4A9
100
AcDbEntity
  8
\U+838C\U+8343\U+8384\U+815B_1
 62
     7
100
AcDbVertex
100
AcDb2dVertex
 10
197.6447834792346
 20
50.83892956628333
 30
0.0
  0
VERTEX
  5
4F4
330
4A9
100
AcDbEntity
  8
\U+838C\U+8343\U+8384\U+815B_1
 62
     7
100
AcDbVertex
100
AcDb2dVertex
 10
200.9403618204246
 20
51.99785968752137
 30
0.0
  0
VERTEX
  5
4F5
330
4A9
100
AcDbEntity
  8
\U+838C\U+8343\U+8384\U+815B_1
 62
     7
100
AcDbVertex
100
AcDb2dVertex
 10
204.1746174619772
 20
53.21880152749392
 30
0.0
  0
VERTEX
  5
4F6
330
4A9
100
AcDbEntity
  8
\U+838C\U+8343\U+8384\U+815B_1
 62
     7
100
AcDbVertex
100
AcDb2dVertex
 10
207.2876057424489
 20
54.50037704800685
 30
0.0
  0
VERTEX
  5
4F7
330
4A9
100
AcDbEntity
  8
\U+838C\U+8343\U+8384\U+815B_1
 62
     7
100
AcDbVertex
100
AcDb2dVertex
 10
210.2772596045488
 20
55.90390894869763
 30
0.0
  0
VERTEX
  5
4F8
330
4A9
100
AcDbEntity
  8
\U+838C\U+8343\U+8384\U+815B_1
 62
     7
100
AcDbVertex
100
AcDb2dVertex
 10
213.2066242956567
 20
57.30744084938842
 30
0.0
  0
VERTEX
  5
4F9
330
4A9
100
AcDbEntity
  8
\U+838C\U+8343\U+8384\U+815B_1
 62
     7
100
AcDbVertex
100
AcDb2dVertex
 10
216.0746662871272
 20
58.83292913025705
 30
0.0
  0
VERTEX
  5
4FA
330
4A9
100
AcDbEntity
  8
\U+838C\U+8343\U+8384\U+815B_1
 62
     7
100
AcDbVertex
100
AcDb2dVertex
 10
218.7601182178794
 20
60.41974011076312
 30
0.0
  0
VERTEX
  5
4FB
330
4A9
100
AcDbEntity
  8
\U+838C\U+8343\U+8384\U+815B_1
 62
     7
100
AcDbVertex
100
AcDb2dVertex
 10
221.3842474489942
 20
62.06718477180959
 30
0.0
  0
VERTEX
  5
4FC
330
4A9
100
AcDbEntity
  8
\U+838C\U+8343\U+8384\U+815B_1
 62
     7
100
AcDbVertex
100
AcDb2dVertex
 10
223.8860757903826
 20
63.71531845195312
 30
0.0
  0
VERTEX
  5
4FD
330
4A9
100
AcDbEntity
  8
\U+838C\U+8343\U+8384\U+815B_1
 62
     7
100
AcDbVertex
100
AcDb2dVertex
 10
226.2662922611418
 20
65.48540851227449
 30
0.0
  0
VERTEX
  5
4FE
330
4A9
100
AcDbEntity
  8
\U+838C\U+8343\U+8384\U+815B_1
 62
     7
100
AcDbVertex
100
AcDb2dVertex
 10
228.5242078421745
 20
67.2548095534988
 30
0.0
  0
VERTEX
  5
4FF
330
4A9
100
AcDbEntity
  8
\U+838C\U+8343\U+8384\U+815B_1
 62
     7
100
AcDbVertex
100
AcDb2dVertex
 10
230.6601670430294
 20
69.14685599399802
 30
0.0
  0
VERTEX
  5
500
330
4A9
100
AcDbEntity
  8
\U+838C\U+8343\U+8384\U+815B_1
 62
     7
100
AcDbVertex
100
AcDb2dVertex
 10
232.6738253541579
 20
71.03821341540018
 30
0.0
  0
VERTEX
  5
501
330
4A9
100
AcDbEntity
  8
\U+838C\U+8343\U+8384\U+815B_1
 62
     7
100
AcDbVertex
100
AcDb2dVertex
 10
234.5655272851086
 20
72.99089353643978
 30
0.0
  0
VERTEX
  5
502
330
4A9
100
AcDbEntity
  8
\U+838C\U+8343\U+8384\U+815B_1
 62
     7
100
AcDbVertex
100
AcDb2dVertex
 10
236.2746391553411
 20
74.94426267657644
 30
0.0
  0
VERTEX
  5
503
330
4A9
100
AcDbEntity
  8
\U+838C\U+8343\U+8384\U+815B_1
 62
     7
100
AcDbVertex
100
AcDb2dVertex
 10
237.8611056262986
 20
76.95757647815644
 30
0.0
  0
VERTEX
  5
504
330
4A9
100
AcDbEntity
  8
\U+838C\U+8343\U+8384\U+815B_1
 62
     7
100
AcDbVertex
100
AcDb2dVertex
 10
239.3259602266268
 20
79.0322129793739
 30
0.0
  0
VERTEX
  5
505
330
4A9
100
AcDbEntity
  8
\U+838C\U+8343\U+8384\U+815B_1
 62
     7
100
AcDbVertex
100
AcDb2dVertex
 10
240.6681694276802
 20
81.1075384996884
 30
0.0
  0
VERTEX
  5
506
330
4A9
100
AcDbEntity
  8
\U+838C\U+8343\U+8384\U+815B_1
 62
     7
100
AcDbVertex
100
AcDb2dVertex
 10
241.8277885680153
 20
83.2434977005433
 30
0.0
  0
VERTEX
  5
507
330
4A9
100
AcDbEntity
  8
\U+838C\U+8343\U+8384\U+815B_1
 62
     7
100
AcDbVertex
100
AcDb2dVertex
 10
242.8654513281725
 20
85.3794569013982
 30
0.0
  0
VERTEX
  5
508
330
4A9
100
AcDbEntity
  8
\U+838C\U+8343\U+8384\U+815B_1
 62
     7
100
AcDbVertex
100
AcDb2dVertex
 10
243.7808131986034
 20
87.5154161022531
 30
0.0
  0
VERTEX
  5
509
330
4A9
100
AcDbEntity
  8
\U+838C\U+8343\U+8384\U+815B_1
 62
     7
100
AcDbVertex
100
AcDb2dVertex
 10
244.5132404987675
 20
89.71200898364839
 30
0.0
  0
VERTEX
  5
50A
330
4A9
100
AcDbEntity
  8
\U+838C\U+8343\U+8384\U+815B_1
 62
     7
100
AcDbVertex
100
AcDb2dVertex
 10
245.1233669092053
 20
91.90929088414073
 30
0.0
  0
VERTEX
  5
50B
330
4A9
100
AcDbEntity
  8
\U+838C\U+8343\U+8384\U+815B_1
 62
     7
100
AcDbVertex
100
AcDb2dVertex
 10
245.5502142398277
 20
94.10588376553603
 30
0.0
  0
VERTEX
  5
50C
330
4A9
100
AcDbEntity
  8
\U+838C\U+8343\U+8384\U+815B_1
 62
     7
100
AcDbVertex
100
AcDb2dVertex
 10
245.7944715097319
 20
96.30316566602838
 30
0.0
  0
VERTEX
  5
50D
330
4A9
100
AcDbEntity
  8
\U+838C\U+8343\U+8384\U+815B_1
 62
     7
100
AcDbVertex
100
AcDb2dVertex
 10
245.9774060799987
 20
98.56039222796407
 30
0.0
  0
VERTEX
  5
50E
330
4A9
100
AcDbEntity
  8
\U+838C\U+8343\U+8384\U+815B_1
 62
     7
100
AcDbVertex
100
AcDb2dVertex
 10
245.9167723994583
 20
100.7576741284564
 30
0.0
  0
VERTEX
  5
50F
330
4A9
100
AcDbEntity
  8
\U+838C\U+8343\U+8384\U+815B_1
 62
     7
100
AcDbVertex
100
AcDb2dVertex
 10
245.7338378291915
 20
103.0162787285862
 30
0.0
  0
VERTEX
  5
510
330
4A9
100
AcDbEntity
  8
\U+838C\U+8343\U+8384\U+815B_1
 62
     7
100
AcDbVertex
100
AcDb2dVertex
 10
245.4286023691984
 20
105.2126993552072
 30
0.0
  0
VERTEX
  5
511
330
4A9
100
AcDbEntity
  8
\U+838C\U+8343\U+8384\U+815B_1
 62
     7
100
AcDbVertex
100
AcDb2dVertex
 10
244.9397433198415
 20
107.4092922366025
 30
0.0
  0
VERTEX
  5
512
330
4A9
100
AcDbEntity
  8
\U+838C\U+8343\U+8384\U+815B_1
 62
     7
100
AcDbVertex
100
AcDb2dVertex
 10
244.3296169094037
 20
109.6065741370949
 30
0.0
  0
VERTEX
  5
513
330
4A9
100
AcDbEntity
  8
\U+838C\U+8343\U+8384\U+815B_1
 62
     7
100
AcDbVertex
100
AcDb2dVertex
 10
243.5365559286992
 20
111.8033392732644
 30
0.0
  0
VERTEX
  5
514
330
4A9
100
AcDbEntity
  8
\U+838C\U+8343\U+8384\U+815B_1
 62
     7
100
AcDbVertex
100
AcDb2dVertex
 10
242.6208495487198
 20
113.9391262193451
 30
0.0
  0
VERTEX
  5
515
330
4A9
100
AcDbEntity
  8
\U+838C\U+8343\U+8384\U+815B_1
 62
     7
100
AcDbVertex
100
AcDb2dVertex
 10
241.5835312981111
 20
116.0750854202
 30
0.0
  0
VERTEX
  5
516
330
4A9
100
AcDbEntity
  8
\U+838C\U+8343\U+8384\U+815B_1
 62
     7
100
AcDbVertex
100
AcDb2dVertex
 10
240.362933967687
 20
118.2110446210549
 30
0.0
  0
VERTEX
  5
517
330
4A9
100
AcDbEntity
  8
\U+838C\U+8343\U+8384\U+815B_1
 62
     7
100
AcDbVertex
100
AcDb2dVertex
 10
239.0207247666337
 20
120.2861978865951
 30
0.0
  0
VERTEX
  5
518
330
4A9
100
AcDbEntity
  8
\U+838C\U+8343\U+8384\U+815B_1
 62
     7
100
AcDbVertex
100
AcDb2dVertex
 10
237.4952364857651
 20
122.2998561977237
 30
0.0
  0
VERTEX
  5
519
330
4A9
100
AcDbEntity
  8
\U+838C\U+8343\U+8384\U+815B_1
 62
     7
100
AcDbVertex
100
AcDb2dVertex
 10
235.8474473151701
 20
124.3135145088522
 30
0.0
  0
VERTEX
  5
51A
330
4A9
100
AcDbEntity
  8
\U+838C\U+8343\U+8384\U+815B_1
 62
     7
100
AcDbVertex
100
AcDb2dVertex
 10
234.0773572548487
 20
126.327345074755
 30
0.0
  0
VERTEX
  5
51B
330
4A9
100
AcDbEntity
  8
\U+838C\U+8343\U+8384\U+815B_1
 62
     7
100
AcDbVertex
100
AcDb2dVertex
 10
232.1859998334466
 20
128.2193915152542
 30
0.0
  0
VERTEX
  5
51C
330
4A9
100
AcDbEntity
  8
\U+838C\U+8343\U+8384\U+815B_1
 62
     7
100
AcDbVertex
100
AcDb2dVertex
 10
230.1106743131321
 20
130.1110934462049
 30
0.0
  0
VERTEX
  5
51D
330
4A9
100
AcDbEntity
  8
\U+838C\U+8343\U+8384\U+815B_1
 62
     7
100
AcDbVertex
100
AcDb2dVertex
 10
227.9747151122772
 20
131.9418171870666
 30
0.0
  0
VERTEX
  5
51E
330
4A9
100
AcDbEntity
  8
\U+838C\U+8343\U+8384\U+815B_1
 62
     7
100
AcDbVertex
100
AcDb2dVertex
 10
225.6558213411555
 20
133.7117349926137
 30
0.0
  0
VERTEX
  5
51F
330
4A9
100
AcDbEntity
  8
\U+838C\U+8343\U+8384\U+815B_1
 62
     7
100
AcDbVertex
100
AcDb2dVertex
 10
223.2756048703964
 20
135.4811360338381
 30
0.0
  0
VERTEX
  5
520
330
4A9
100
AcDbEntity
  8
\U+838C\U+8343\U+8384\U+815B_1
 62
     7
100
AcDbVertex
100
AcDb2dVertex
 10
220.7131428484676
 20
137.128925204433
 30
0.0
  0
VERTEX
  5
521
330
4A9
100
AcDbEntity
  8
\U+838C\U+8343\U+8384\U+815B_1
 62
     7
100
AcDbVertex
100
AcDb2dVertex
 10
218.0886691078042
 20
138.7768866298023
 30
0.0
  0
VERTEX
  5
522
330
4A9
100
AcDbEntity
  8
\U+838C\U+8343\U+8384\U+815B_1
 62
     7
100
AcDbVertex
100
AcDb2dVertex
 10
215.3422389869631
 20
140.3023749106709
 30
0.0
  0
VERTEX
  5
523
330
4A9
100
AcDbEntity
  8
\U+838C\U+8343\U+8384\U+815B_1
 62
     7
100
AcDbVertex
100
AcDb2dVertex
 10
212.4745415050411
 20
141.8280354463138
 30
0.0
  0
VERTEX
  5
524
330
4A9
100
AcDbEntity
  8
\U+838C\U+8343\U+8384\U+815B_1
 62
     7
100
AcDbVertex
100
AcDb2dVertex
 10
209.5448323043846
 20
143.2315673470046
 30
0.0
  0
VERTEX
  5
525
330
4A9
100
AcDbEntity
  8
\U+838C\U+8343\U+8384\U+815B_1
 62
     7
100
AcDbVertex
100
AcDb2dVertex
 10
206.4935112330988
 20
144.5742933123807
 30
0.0
  0
VERTEX
  5
526
330
4A9
100
AcDbEntity
  8
\U+838C\U+8343\U+8384\U+815B_1
 62
     7
100
AcDbVertex
100
AcDb2dVertex
 10
203.3815564812727
 20
145.8555243233452
 30
0.0
  0
VERTEX
  5
527
330
4A9
100
AcDbEntity
  8
\U+838C\U+8343\U+8384\U+815B_1
 62
     7
100
AcDbVertex
100
AcDb2dVertex
 10
200.1473008397201
 20
147.0761216537692
 30
0.0
  0
VERTEX
  5
528
330
4A9
100
AcDbEntity
  8
\U+838C\U+8343\U+8384\U+815B_1
 62
     7
100
AcDbVertex
100
AcDb2dVertex
 10
196.8517224985301
 20
148.2357407941043
 30
0.0
  0
VERTEX
  5
529
330
4A9
100
AcDbEntity
  8
\U+838C\U+8343\U+8384\U+815B_1
 62
     7
100
AcDbVertex
100
AcDb2dVertex
 10
193.4345322867108
 20
149.2734035542615
 30
0.0
  0
VERTEX
  5
52A
330
4A9
100
AcDbEntity
  8
\U+838C\U+8343\U+8384\U+815B_1
 62
     7
100
AcDbVertex
100
AcDb2dVertex
 10
190.0166530557944
 20
150.3108940596445
 30
0.0
  0
VERTEX
  5
52B
330
4A9
100
AcDbEntity
  8
\U+838C\U+8343\U+8384\U+815B_1
 62
     7
100
AcDbVertex
100
AcDb2dVertex
 10
186.4771619542488
 20
151.164933230438
 30
0.0
  0
VERTEX
  5
52C
330
4A9
100
AcDbEntity
  8
\U+838C\U+8343\U+8384\U+815B_1
 62
     7
100
AcDbVertex
100
AcDb2dVertex
 10
182.8770371721627
 20
152.0194891655541
 30
0.0
  0
VERTEX
  5
52D
330
4A9
100
AcDbEntity
  8
\U+838C\U+8343\U+8384\U+815B_1
 62
     7
100
AcDbVertex
100
AcDb2dVertex
 10
179.2762233709796
 20
152.7519164657183
 30
0.0
  0
VERTEX
  5
52E
330
4A9
100
AcDbEntity
  8
\U+838C\U+8343\U+8384\U+815B_1
 62
     7
100
AcDbVertex
100
AcDb2dVertex
 10
175.614775889256
 20
153.423021066245
 30
0.0
  0
VERTEX
  5
52F
330
4A9
100
AcDbEntity
  8
\U+838C\U+8343\U+8384\U+815B_1
 62
     7
100
AcDbVertex
100
AcDb2dVertex
 10
171.8923502174436
 20
153.9725137961423
 30
0.0
  0
VERTEX
  5
530
330
4A9
100
AcDbEntity
  8
\U+838C\U+8343\U+8384\U+815B_1
 62
     7
100
AcDbVertex
100
AcDb2dVertex
 10
168.1089463555422
 20
154.4605115716279
 30
0.0
  0
VERTEX
  5
531
330
4A9
100
AcDbEntity
  8
\U+838C\U+8343\U+8384\U+815B_1
 62
     7
100
AcDbVertex
100
AcDb2dVertex
 10
164.3251979840923
 20
154.8878756665732
 30
0.0
  0
VERTEX
  5
532
330
4A9
100
AcDbEntity
  8
\U+838C\U+8343\U+8384\U+815B_1
 62
     7
100
AcDbVertex
100
AcDb2dVertex
 10
160.5414496126424
 20
155.1929388717921
 30
0.0
  0
VERTEX
  5
533
330
4A9
100
AcDbEntity
  8
\U+838C\U+8343\U+8384\U+815B_1
 62
     7
100
AcDbVertex
100
AcDb2dVertex
 10
156.6967230511036
 20
155.4366793773735
 30
0.0
  0
VERTEX
  5
534
330
4A9
100
AcDbEntity
  8
\U+838C\U+8343\U+8384\U+815B_1
 62
     7
100
AcDbVertex
100
AcDb2dVertex
 10
152.8523409991133
 20
155.5589802670999
 30
0.0
  0
VERTEX
  5
535
330
4A9
100
AcDbEntity
  8
\U+838C\U+8343\U+8384\U+815B_1
 62
     7
100
AcDbVertex
100
AcDb2dVertex
 10
149.007958947123
 20
155.6196139476402
 30
0.0
  0
VERTEX
  5
536
330
4A9
100
AcDbEntity
  8
\U+838C\U+8343\U+8384\U+815B_1
 62
     7
100
AcDbVertex
100
AcDb2dVertex
 10
145.1627156212614
 20
155.6196139476402
 30
0.0
  0
VERTEX
  5
537
330
4A9
100
AcDbEntity
  8
\U+838C\U+8343\U+8384\U+815B_1
 62
     7
100
AcDbVertex
100
AcDb2dVertex
 10
141.3181613144968
 20
155.4981743317852
 30
0.0
  0
VERTEX
  5
538
330
4A9
100
AcDbEntity
  8
\U+838C\U+8343\U+8384\U+815B_1
 62
     7
100
AcDbVertex
100
AcDb2dVertex
 10
137.4737792625066
 20
155.2537448071067
 30
0.0
  0
VERTEX
  5
539
330
4A9
100
AcDbEntity
  8
\U+838C\U+8343\U+8384\U+815B_1
 62
     7
100
AcDbVertex
100
AcDb2dVertex
 10
133.629224955742
 20
154.9486816018878
 30
0.0
  0
VERTEX
  5
53A
330
4A9
100
AcDbEntity
  8
\U+838C\U+8343\U+8384\U+815B_1
 62
     7
100
AcDbVertex
100
AcDb2dVertex
 10
129.8454765842921
 20
154.58264020658
 30
0.0
  0
VERTEX
  5
53B
330
4A9
100
AcDbEntity
  8
\U+838C\U+8343\U+8384\U+815B_1
 62
     7
100
AcDbVertex
100
AcDb2dVertex
 10
126.1232231672539
 20
154.1554483664091
 30
0.0
  0
VERTEX
  5
53C
330
4A9
100
AcDbEntity
  8
\U+838C\U+8343\U+8384\U+815B_1
 62
     7
100
AcDbVertex
100
AcDb2dVertex
 10
122.4002807311187
 20
153.5451497011971
 30
0.0
  0
VERTEX
  5
53D
330
4A9
100
AcDbEntity
  8
\U+838C\U+8343\U+8384\U+815B_1
 62
     7
100
AcDbVertex
100
AcDb2dVertex
 10
118.6778550593062
 20
152.934851035985
 30
0.0
  0
VERTEX
  5
53E
330
4A9
100
AcDbEntity
  8
\U+838C\U+8343\U+8384\U+815B_1
 62
     7
100
AcDbVertex
100
AcDb2dVertex
 10
115.0164075775827
 20
152.2024237358209
 30
0.0
  0
VERTEX
  5
53F
330
4A9
100
AcDbEntity
  8
\U+838C\U+8343\U+8384\U+815B_1
 62
     7
100
AcDbVertex
100
AcDb2dVertex
 10
111.476916476037
 20
151.4091905003422
 30
0.0
  0
VERTEX
  5
540
330
4A9
100
AcDbEntity
  8
\U+838C\U+8343\U+8384\U+815B_1
 62
     7
100
AcDbVertex
100
AcDb2dVertex
 10
107.9370808649428
 20
150.4938286299113
 30
0.0
  0
VERTEX
  5
541
330
4A9
100
AcDbEntity
  8
\U+838C\U+8343\U+8384\U+815B_1
 62
     7
100
AcDbVertex
100
AcDb2dVertex
 10
104.4590847178088
 20
149.5784667594804
 30
0.0
  0
VERTEX
  5
542
330
4A9
100
AcDbEntity
  8
\U+838C\U+8343\U+8384\U+815B_1
 62
     7
100
AcDbVertex
100
AcDb2dVertex
 10
101.0412054868925
 20
148.5409762540974
 30
0.0
  0
VERTEX
  5
543
330
4A9
100
AcDbEntity
  8
\U+838C\U+8343\U+8384\U+815B_1
 62
     7
100
AcDbVertex
100
AcDb2dVertex
 10
97.74614391002527
 20
147.381184858988
 30
0.0
  0
VERTEX
  5
544
330
4A9
100
AcDbEntity
  8
\U+838C\U+8343\U+8384\U+815B_1
 62
     7
100
AcDbVertex
100
AcDb2dVertex
 10
94.51137150414993
 20
146.2220824829757
 30
0.0
  0
VERTEX
  5
545
330
4A9
100
AcDbEntity
  8
\U+838C\U+8343\U+8384\U+815B_1
 62
     7
100
AcDbVertex
100
AcDb2dVertex
 10
91.33843856223484
 20
144.9401624529143
 30
0.0
  0
VERTEX
  5
546
330
4A9
100
AcDbEntity
  8
\U+838C\U+8343\U+8384\U+815B_1
 62
     7
100
AcDbVertex
100
AcDb2dVertex
 10
88.22579479131161
 20
143.5981255066352
 30
0.0
  0
VERTEX
  5
547
330
4A9
100
AcDbEntity
  8
\U+838C\U+8343\U+8384\U+815B_1
 62
     7
100
AcDbVertex
100
AcDb2dVertex
 10
85.29660235497794
 20
142.1940768416216
 30
0.0
  0
VERTEX
  5
548
330
4A9
100
AcDbEntity
  8
\U+838C\U+8343\U+8384\U+815B_1
 62
     7
100
AcDbVertex
100
AcDb2dVertex
 10
82.36758217341853
 20
140.7297390056162
 30
0.0
  0
VERTEX
  5
549
330
4A9
100
AcDbEntity
  8
\U+838C\U+8343\U+8384\U+815B_1
 62
     7
100
AcDbVertex
100
AcDb2dVertex
 10
79.62132430735161
 20
139.1427557703358
 30
0.0
  0
SEQEND
  5
54A
330
4A9
100
AcDbEntity
  8
\U+838C\U+8343\U+8384\U+815B_1
  0
ENDBLK
  5
4A8
330
4A5
100
AcDbEntity
  8
0
100
AcDbBlockEnd
  0
ENDSEC
  0
SECTION
  2
ENTITIES
  0
INSERT
  5
3D
330
1F
100
AcDbEntity
  8
\U+838C\U+8343\U+8384\U+815B_1
100
AcDbBlockReference
  2
BLOCK_2
 10
0.0
 20
0.0
 30
0.0
  0
INSERT
  5
64
330
1F
100
AcDbEntity
  8
\U+838C\U+8343\U+8384\U+815B_1
100
AcDbBlockReference
  2
BLOCK_3
 10
0.0
 20
0.0
 30
0.0
  0
INSERT
  5
6E
330
1F
100
AcDbEntity
  8
\U+838C\U+8343\U+8384\U+815B_1
100
AcDbBlockReference
  2
BLOCK_4
 10
0.0
 20
0.0
 30
0.0
  0
INSERT
  5
79
330
1F
100
AcDbEntity
  8
\U+838C\U+8343\U+8384\U+815B_1
100
AcDbBlockReference
  2
BLOCK_5
 10
0.0
 20
0.0
 30
0.0
  0
INSERT
  5
83
330
1F
100
AcDbEntity
  8
\U+838C\U+8343\U+8384\U+815B_1
100
AcDbBlockReference
  2
BLOCK_6
 10
0.0
 20
0.0
 30
0.0
  0
INSERT
  5
8D
330
1F
100
AcDbEntity
  8
\U+838C\U+8343\U+8384\U+815B_1
100
AcDbBlockReference
  2
BLOCK_7
 10
0.0
 20
0.0
 30
0.0
  0
INSERT
  5
B3
330
1F
100
AcDbEntity
  8
\U+838C\U+8343\U+8384\U+815B_1
100
AcDbBlockReference
  2
BLOCK_8
 10
0.0
 20
0.0
 30
0.0
  0
INSERT
  5
EB
330
1F
100
AcDbEntity
  8
\U+838C\U+8343\U+8384\U+815B_1
100
AcDbBlockReference
  2
BLOCK_9
 10
0.0
 20
0.0
 30
0.0
  0
INSERT
  5
FA
330
1F
100
AcDbEntity
  8
\U+838C\U+8343\U+8384\U+815B_1
100
AcDbBlockReference
  2
BLOCK_10
 10
0.0
 20
0.0
 30
0.0
  0
INSERT
  5
13A
330
1F
100
AcDbEntity
  8
\U+838C\U+8343\U+8384\U+815B_1
100
AcDbBlockReference
  2
BLOCK_11
 10
0.0
 20
0.0
 30
0.0
  0
INSERT
  5
152
330
1F
100
AcDbEntity
  8
\U+838C\U+8343\U+8384\U+815B_1
100
AcDbBlockReference
  2
BLOCK_12
 10
0.0
 20
0.0
 30
0.0
  0
INSERT
  5
179
330
1F
100
AcDbEntity
  8
\U+838C\U+8343\U+8384\U+815B_1
100
AcDbBlockReference
  2
BLOCK_13
 10
0.0
 20
0.0
 30
0.0
  0
INSERT
  5
1D3
330
1F
100
AcDbEntity
  8
\U+838C\U+8343\U+8384\U+815B_1
100
AcDbBlockReference
  2
BLOCK_14
 10
0.0
 20
0.0
 30
0.0
  0
INSERT
  5
1DC
330
1F
100
AcDbEntity
  8
\U+838C\U+8343\U+8384\U+815B_1
100
AcDbBlockReference
  2
BLOCK_15
 10
0.0
 20
0.0
 30
0.0
  0
INSERT
  5
1E5
330
1F
100
AcDbEntity
  8
\U+838C\U+8343\U+8384\U+815B_1
100
AcDbBlockReference
  2
BLOCK_16
 10
0.0
 20
0.0
 30
0.0
  0
INSERT
  5
1ED
330
1F
100
AcDbEntity
  8
\U+838C\U+8343\U+8384\U+815B_1
100
AcDbBlockReference
  2
BLOCK_17
 10
0.0
 20
0.0
 30
0.0
  0
INSERT
  5
1F5
330
1F
100
AcDbEntity
  8
\U+838C\U+8343\U+8384\U+815B_1
100
AcDbBlockReference
  2
BLOCK_18
 10
0.0
 20
0.0
 30
0.0
  0
INSERT
  5
1FE
330
1F
100
AcDbEntity
  8
\U+838C\U+8343\U+8384\U+815B_1
100
AcDbBlockReference
  2
BLOCK_19
 10
0.0
 20
0.0
 30
0.0
  0
INSERT
  5
212
330
1F
100
AcDbEntity
  8
\U+838C\U+8343\U+8384\U+815B_1
100
AcDbBlockReference
  2
BLOCK_20
 10
0.0
 20
0.0
 30
0.0
  0
INSERT
  5
250
330
1F
100
AcDbEntity
  8
\U+838C\U+8343\U+8384\U+815B_1
100
AcDbBlockReference
  2
BLOCK_21
 10
0.0
 20
0.0
 30
0.0
  0
INSERT
  5
25E
330
1F
100
AcDbEntity
  8
\U+838C\U+8343\U+8384\U+815B_1
100
AcDbBlockReference
  2
BLOCK_22
 10
0.0
 20
0.0
 30
0.0
  0
INSERT
  5
267
330
1F
100
AcDbEntity
  8
\U+838C\U+8343\U+8384\U+815B_1
100
AcDbBlockReference
  2
BLOCK_23
 10
0.0
 20
0.0
 30
0.0
  0
INSERT
  5
274
330
1F
100
AcDbEntity
  8
\U+838C\U+8343\U+8384\U+815B_1
100
AcDbBlockReference
  2
BLOCK_24
 10
0.0
 20
0.0
 30
0.0
  0
INSERT
  5
27C
330
1F
100
AcDbEntity
  8
\U+838C\U+8343\U+8384\U+815B_1
100
AcDbBlockReference
  2
BLOCK_25
 10
0.0
 20
0.0
 30
0.0
  0
INSERT
  5
287
330
1F
100
AcDbEntity
  8
\U+838C\U+8343\U+8384\U+815B_1
100
AcDbBlockReference
  2
BLOCK_26
 10
0.0
 20
0.0
 30
0.0
  0
INSERT
  5
293
330
1F
100
AcDbEntity
  8
\U+838C\U+8343\U+8384\U+815B_1
100
AcDbBlockReference
  2
BLOCK_27
 10
0.0
 20
0.0
 30
0.0
  0
INSERT
  5
29B
330
1F
100
AcDbEntity
  8
\U+838C\U+8343\U+8384\U+815B_1
100
AcDbBlockReference
  2
BLOCK_28
 10
0.0
 20
0.0
 30
0.0
  0
INSERT
  5
2A3
330
1F
100
AcDbEntity
  8
\U+838C\U+8343\U+8384\U+815B_1
100
AcDbBlockReference
  2
BLOCK_29
 10
0.0
 20
0.0
 30
0.0
  0
INSERT
  5
2FE
330
1F
100
AcDbEntity
  8
\U+838C\U+8343\U+8384\U+815B_1
100
AcDbBlockReference
  2
BLOCK_30
 10
0.0
 20
0.0
 30
0.0
  0
INSERT
  5
308
330
1F
100
AcDbEntity
  8
\U+838C\U+8343\U+8384\U+815B_1
100
AcDbBlockReference
  2
BLOCK_31
 10
0.0
 20
0.0
 30
0.0
  0
INSERT
  5
311
330
1F
100
AcDbEntity
  8
\U+838C\U+8343\U+8384\U+815B_1
100
AcDbBlockReference
  2
BLOCK_32
 10
0.0
 20
0.0
 30
0.0
  0
INSERT
  5
359
330
1F
100
AcDbEntity
  8
\U+838C\U+8343\U+8384\U+815B_1
100
AcDbBlockReference
  2
BLOCK_33
 10
0.0
 20
0.0
 30
0.0
  0
INSERT
  5
362
330
1F
100
AcDbEntity
  8
\U+838C\U+8343\U+8384\U+815B_1
100
AcDbBlockReference
  2
BLOCK_34
 10
0.0
 20
0.0
 30
0.0
  0
INSERT
  5
385
330
1F
100
AcDbEntity
  8
\U+838C\U+8343\U+8384\U+815B_1
100
AcDbBlockReference
  2
BLOCK_35
 10
0.0
 20
0.0
 30
0.0
  0
INSERT
  5
38D
330
1F
100
AcDbEntity
  8
\U+838C\U+8343\U+8384\U+815B_1
100
AcDbBlockReference
  2
BLOCK_36
 10
0.0
 20
0.0
 30
0.0
  0
INSERT
  5
396
330
1F
100
AcDbEntity
  8
\U+838C\U+8343\U+8384\U+815B_1
100
AcDbBlockReference
  2
BLOCK_37
 10
0.0
 20
0.0
 30
0.0
  0
INSERT
  5
3B9
330
1F
100
AcDbEntity
  8
\U+838C\U+8343\U+8384\U+815B_1
100
AcDbBlockReference
  2
BLOCK_38
 10
0.0
 20
0.0
 30
0.0
  0
INSERT
  5
3DF
330
1F
100
AcDbEntity
  8
\U+838C\U+8343\U+8384\U+815B_1
100
AcDbBlockReference
  2
BLOCK_39
 10
0.0
 20
0.0
 30
0.0
  0
INSERT
  5
406
330
1F
100
AcDbEntity
  8
\U+838C\U+8343\U+8384\U+815B_1
100
AcDbBlockReference
  2
BLOCK_40
 10
0.0
 20
0.0
 30
0.0
  0
INSERT
  5
415
330
1F
100
AcDbEntity
  8
\U+838C\U+8343\U+8384\U+815B_1
100
AcDbBlockReference
  2
BLOCK_41
 10
0.0
 20
0.0
 30
0.0
  0
INSERT
  5
44D
330
1F
100
AcDbEntity
  8
\U+838C\U+8343\U+8384\U+815B_1
100
AcDbBlockReference
  2
BLOCK_42
 10
0.0
 20
0.0
 30
0.0
  0
INSERT
  5
4A6
330
1F
100
AcDbEntity
  8
\U+838C\U+8343\U+8384\U+815B_1
100
AcDbBlockReference
  2
BLOCK_43
 10
0.0
 20
0.0
 30
0.0
  0
ENDSEC
  0
SECTION
  2
OBJECTS
  0
DICTIONARY
  5
C
330
0
100
AcDbDictionary
  3
ACAD_GROUP
350
D
  3
ACAD_LAYOUT
350
1A
  3
ACAD_MLINESTYLE
350
17
  3
ACAD_PLOTSETTINGS
350
19
  3
ACAD_TABLESTYLE
350
54B
  3
ACAD_VISUALSTYLE
350
2A
1001
ACAD
1000
TREAT_AS_HARD
1070
     0
  0
DICTIONARY
  5
D
102
{ACAD_REACTORS
330
C
102
}
330
C
100
AcDbDictionary
1001
ACAD
1000
TREAT_AS_HARD
1070
     0
  0
DICTIONARY
  5
1A
102
{ACAD_REACTORS
330
C
102
}
330
C
100
AcDbDictionary
1001
ACAD
1000
TREAT_AS_HARD
1070
     0
  0
DICTIONARY
  5
17
102
{ACAD_REACTORS
330
C
102
}
330
C
100
AcDbDictionary
  3
STANDARD
350
18
1001
ACAD
1000
TREAT_AS_HARD
1070
     0
  0
DICTIONARY
  5
19
102
{ACAD_REACTORS
330
C
102
}
330
C
100
AcDbDictionary
1001
ACAD
1000
TREAT_AS_HARD
1070
     0
  0
DICTIONARY
  5
54B
102
{ACAD_REACTORS
330
C
102
}
330
C
100
AcDbDictionary
1001
ACAD
1000
TREAT_AS_HARD
1070
     0
  0
DICTIONARY
  5
2A
102
{ACAD_REACTORS
330
C
102
}
330
C
100
AcDbDictionary
  3
2DWIREFRAME
350
2F
  3
3D_HIDDEN
350
31
  3
3DWIREFRAME
350
30
  3
BASIC
350
32
  3
BRIGHTEN
350
36
  3
COLORCHANGE
350
3A
  3
CONCEPTUAL
350
34
  3
DIM
350
35
  3
FACEPATTERN
350
39
  3
FLAT
350
2B
  3
FLATWITHEDGES
350
2C
  3
GOURAUD
350
2D
  3
GOURAUDWITHEDGES
350
2E
  3
LINEPATTERN
350
38
  3
REALISTIC
350
33
  3
THICKEN
350
37
1001
ACAD
1000
TREAT_AS_HARD
1070
     0
  0
MLINESTYLE
  5
18
102
{ACAD_REACTORS
330
17
102
}
330
17
100
AcDbMlineStyle
  2
Standard
 70
     0
  3

 62
   256
 51
90.0
 52
90.0
 71
     2
 49
0.5
 62
   256
  6
BYLAYER
 49
-0.5
 62
   256
  6
BYLAYER
  0
VISUALSTYLE
  5
2F
102
{ACAD_REACTORS
330
2A
102
}
330
2A
100
AcDbVisualStyle
  2
2dWireframe
 70
     4
 71
     0
 72
     2
 73
     0
 90
        0
 40
-0.6
 41
-30.0
 62
     5
 63
     7
 74
     1
 91
        4
 64
     7
 65
   257
 75
     1
175
     1
 42
1.0
 92
        0
 66
   257
 43
1.0
 76
     1
 77
     6
 78
     2
 67
     7
 79
     5
170
     0
171
     0
290
     0
174
     0
 93
        1
 44
0.0
173
     0
291
     0
 45
0.0
1001
ACAD
1000
AcDbSavedByObjectVersion
1070
     0
  0
VISUALSTYLE
  5
31
102
{ACAD_REACTORS
330
2A
102
}
330
2A
100
AcDbVisualStyle
  2
3D Hidden
 70
     6
 71
     1
 72
     2
 73
     2
 90
        0
 40
-0.6
 41
-30.0
 62
     5
 63
     7
 74
     2
 91
        2
 64
     7
 65
   257
 75
     2
175
     1
 42
40.0
 92
        0
 66
   257
 43
1.0
 76
     1
 77
     6
 78
     2
 67
     7
 79
     3
170
     0
171
     0
290
     0
174
     0
 93
        1
 44
0.0
173
     0
291
     0
 45
0.0
1001
ACAD
1000
AcDbSavedByObjectVersion
1070
     0
  0
VISUALSTYLE
  5
30
102
{ACAD_REACTORS
330
2A
102
}
330
2A
100
AcDbVisualStyle
  2
3dWireframe
 70
     5
 71
     0
 72
     2
 73
     0
 90
        0
 40
-0.6
 41
-30.0
 62
     5
 63
     7
 74
     1
 91
        4
 64
     7
 65
   257
 75
     1
175
     1
 42
1.0
 92
        0
 66
   257
 43
1.0
 76
     1
 77
     6
 78
     2
 67
     7
 79
     5
170
     0
171
     0
290
     0
174
     0
 93
        1
 44
0.0
173
     0
291
     0
 45
0.0
1001
ACAD
1000
AcDbSavedByObjectVersion
1070
     0
  0
VISUALSTYLE
  5
32
102
{ACAD_REACTORS
330
2A
102
}
330
2A
100
AcDbVisualStyle
  2
Basic
 70
     7
 71
     1
 72
     0
 73
     1
 90
        0
 40
-0.6
 41
-30.0
 62
     5
 63
     7
 74
     0
 91
        4
 64
     7
 65
   257
 75
     1
175
     1
 42
1.0
 92
        8
 66
     7
 43
1.0
 76
     1
 77
     6
 78
     2
 67
     7
 79
     5
170
     0
171
     0
290
     0
174
     0
 93
        1
 44
0.0
173
     0
291
     1
 45
0.0
1001
ACAD
1000
AcDbSavedByObjectVersion
1070
     0
  0
VISUALSTYLE
  5
36
102
{ACAD_REACTORS
330
2A
102
}
330
2A
100
AcDbVisualStyle
  2
Brighten
 70
    12
 71
     2
 72
     2
 73
     0
 90
        0
 40
-0.6
 41
-30.0
 62
     5
 63
     7
 74
     1
 91
        4
 64
     7
 65
   257
 75
     1
175
     1
 42
1.0
 92
        8
 66
     7
 43
1.0
 76
     1
 77
     6
 78
     2
 67
     7
 79
     5
170
     0
171
     0
290
     0
174
     0
 93
        1
 44
50.0
173
     0
291
     1
 45
0.0
1001
ACAD
1000
AcDbSavedByObjectVersion
1070
     0
  0
VISUALSTYLE
  5
3A
102
{ACAD_REACTORS
330
2A
102
}
330
2A
100
AcDbVisualStyle
  2
ColorChange
 70
    16
 71
     2
 72
     2
 73
     3
 90
        0
 40
-0.6
 41
-30.0
 62
     5
 63
     8
 74
     1
 91
        4
 64
     7
 65
   257
 75
     1
175
     1
 42
1.0
 92
        8
 66
     8
 43
1.0
 76
     1
 77
     6
 78
     2
 67
     7
 79
     5
170
     0
171
     0
290
     0
174
     0
 93
        1
 44
0.0
173
     0
291
     1
 45
0.0
1001
ACAD
1000
AcDbSavedByObjectVersion
1070
     0
  0
VISUALSTYLE
  5
34
102
{ACAD_REACTORS
330
2A
102
}
330
2A
100
AcDbVisualStyle
  2
Conceptual
 70
     9
 71
     3
 72
     2
 73
     0
 90
        0
 40
-0.6
 41
-30.0
 62
     5
 63
     7
 74
     2
 91
        2
 64
     7
 65
   257
 75
     1
175
     1
 42
40.0
 92
        8
 66
     7
 43
1.0
 76
     1
 77
     6
 78
     2
 67
     7
 79
     3
170
     0
171
     0
290
     0
174
     0
 93
        1
 44
0.0
173
     0
291
     0
 45
0.0
1001
ACAD
1000
AcDbSavedByObjectVersion
1070
     0
  0
VISUALSTYLE
  5
35
102
{ACAD_REACTORS
330
2A
102
}
330
2A
100
AcDbVisualStyle
  2
Dim
 70
    11
 71
     2
 72
     2
 73
     0
 90
        0
 40
-0.6
 41
-30.0
 62
     5
 63
     7
 74
     1
 91
        4
 64
     7
 65
   257
 75
     1
175
     1
 42
1.0
 92
        8
 66
     7
 43
1.0
 76
     1
 77
     6
 78
     2
 67
     7
 79
     5
170
     0
171
     0
290
     0
174
     0
 93
        1
 44
-50.0
173
     0
291
     1
 45
0.0
1001
ACAD
1000
AcDbSavedByObjectVersion
1070
     0
  0
VISUALSTYLE
  5
39
102
{ACAD_REACTORS
330
2A
102
}
330
2A
100
AcDbVisualStyle
  2
Facepattern
 70
    15
 71
     2
 72
     2
 73
     0
 90
        0
 40
-0.6
 41
-30.0
 62
     5
 63
     7
 74
     1
 91
        4
 64
     7
 65
   257
 75
     1
175
     1
 42
1.0
 92
        8
 66
     7
 43
1.0
 76
     1
 77
     6
 78
     2
 67
     7
 79
     5
170
     0
171
     0
290
     0
174
     0
 93
        1
 44
0.0
173
     0
291
     1
 45
0.0
1001
ACAD
1000
AcDbSavedByObjectVersion
1070
     0
  0
VISUALSTYLE
  5
2B
102
{ACAD_REACTORS
330
2A
102
}
330
2A
100
AcDbVisualStyle
  2
Flat
 70
     0
 71
     2
 72
     1
 73
     1
 90
        2
 40
-0.6
 41
30.0
 62
     5
 63
     7
 74
     0
 91
        4
 64
     7
 65
   257
 75
     1
175
     1
 42
1.0
 92
        8
 66
     7
 43
1.0
 76
     1
 77
     6
 78
     2
 67
     7
 79
     5
170
     0
171
     0
290
     0
174
     0
 93
       13
 44
0.0
173
     0
291
     1
 45
0.0
1001
ACAD
1000
AcDbSavedByObjectVersion
1070
     0
  0
VISUALSTYLE
  5
2C
102
{ACAD_REACTORS
330
2A
102
}
330
2A
100
AcDbVisualStyle
  2
FlatWithEdges
 70
     1
 71
     2
 72
     1
 73
     1
 90
        2
 40
-0.6
 41
30.0
 62
     5
 63
     7
 74
     1
 91
        4
 64
     7
 65
   257
 75
     1
175
     1
 42
1.0
 92
        0
 66
   257
 43
1.0
 76
     1
 77
     6
 78
     2
 67
     7
 79
     5
170
     0
171
     0
290
     0
174
     0
 93
       13
 44
0.0
173
     0
291
     1
 45
0.0
1001
ACAD
1000
AcDbSavedByObjectVersion
1070
     0
  0
VISUALSTYLE
  5
2D
102
{ACAD_REACTORS
330
2A
102
}
330
2A
100
AcDbVisualStyle
  2
Gouraud
 70
     2
 71
     2
 72
     2
 73
     1
 90
        2
 40
-0.6
 41
30.0
 62
     5
 63
     7
 74
     0
 91
        4
 64
     7
 65
   257
 75
     1
175
     1
 42
1.0
 92
        0
 66
     7
 43
1.0
 76
     1
 77
     6
 78
     2
 67
     7
 79
     5
170
     0
171
     0
290
     0
174
     0
 93
       13
 44
0.0
173
     0
291
     1
 45
0.0
1001
ACAD
1000
AcDbSavedByObjectVersion
1070
     0
  0
VISUALSTYLE
  5
2E
102
{ACAD_REACTORS
330
2A
102
}
330
2A
100
AcDbVisualStyle
  2
GouraudWithEdges
 70
     3
 71
     2
 72
     2
 73
     1
 90
        2
 40
-0.6
 41
30.0
 62
     5
 63
     7
 74
     1
 91
        4
 64
     7
 65
   257
 75
     1
175
     1
 42
1.0
 92
        0
 66
   257
 43
1.0
 76
     1
 77
     6
 78
     2
 67
     7
 79
     5
170
     0
171
     0
290
     0
174
     0
 93
       13
 44
0.0
173
     0
291
     1
 45
0.0
1001
ACAD
1000
AcDbSavedByObjectVersion
1070
     0
  0
VISUALSTYLE
  5
38
102
{ACAD_REACTORS
330
2A
102
}
330
2A
100
AcDbVisualStyle
  2
Linepattern
 70
    14
 71
     2
 72
     2
 73
     0
 90
        0
 40
-0.6
 41
-30.0
 62
     5
 63
     7
 74
     1
 91
        4
 64
     7
 65
   257
 75
     7
175
     7
 42
1.0
 92
        8
 66
     7
 43
1.0
 76
     1
 77
     6
 78
     2
 67
     7
 79
     5
170
     0
171
     0
290
     0
174
     0
 93
        1
 44
0.0
173
     0
291
     1
 45
0.0
1001
ACAD
1000
AcDbSavedByObjectVersion
1070
     0
  0
VISUALSTYLE
  5
33
102
{ACAD_REACTORS
330
2A
102
}
330
2A
100
AcDbVisualStyle
  2
Realistic
 70
     8
 71
     2
 72
     2
 73
     0
 90
        0
 40
-0.6
 41
-30.0
 62
     5
 63
     7
 74
     1
 91
        0
 64
     7
 65
   257
 75
     1
175
     1
 42
1.0
 92
        8
 66
     8
 43
1.0
 76
     1
 77
     6
 78
     2
 67
     7
 79
     5
170
     0
171
     0
290
     0
174
     0
 93
       13
 44
0.0
173
     0
291
     0
 45
0.0
1001
ACAD
1000
AcDbSavedByObjectVersion
1070
     0
  0
VISUALSTYLE
  5
37
102
{ACAD_REACTORS
330
2A
102
}
330
2A
100
AcDbVisualStyle
  2
Thicken
 70
    13
 71
     2
 72
     2
 73
     0
 90
        0
 40
-0.6
 41
-30.0
 62
     5
 63
     7
 74
     1
 91
        4
 64
     7
 65
   257
 75
     1
175
     1
 42
1.0
 92
       12
 66
     7
 43
1.0
 76
     1
 77
     6
 78
     2
 67
     7
 79
     5
170
     0
171
     0
290
     0
174
     0
 93
        1
 44
0.0
173
     0
291
     1
 45
0.0
1001
ACAD
1000
AcDbSavedByObjectVersion
1070
     0
  0
ENDSEC
  0
EOF
