  0
SECTION
  2
HEADER
  9
$ACADVER
  1
AC1015
  9
$ACADMAINTVER
 70
    20
  9
$DWGCODEPAGE
  3
ANSI_932
  9
$INSBASE
 10
0.0
 20
0.0
 30
0.0
  9
$EXTMIN
 10
11.5773635153
 20
7.852197070599999
 30
-201.8297033568
  9
$EXTMAX
 10
828.545423602374
 20
284.8521970706
 30
0.1
  9
$LIMMIN
 10
0.0
 20
0.0
  9
$LIMMAX
 10
420.0
 20
297.0
  9
$ORTHOMODE
 70
     0
  9
$REGENMODE
 70
     1
  9
$FILLMODE
 70
     1
  9
$QTEXTMODE
 70
     0
  9
$MIRRTEXT
 70
     1
  9
$LTSCALE
 40
1.0
  9
$ATTMODE
 70
     1
  9
$TEXTSIZE
 40
3.5
  9
$TRACEWID
 40
1.0
  9
$TEXTSTYLE
  7
Standard
  9
$CLAYER
  8
0
  9
$CELTYPE
  6
ByLayer
  9
$CECOLOR
 62
   256
  9
$CELTSCALE
 40
1.0
  9
$DISPSILH
 70
     0
  9
$DIMSCALE
 40
1.0
  9
$DIMASZ
 40
2.0
  9
$DIMEXO
 40
1.0
  9
$DIMDLI
 40
3.75
  9
$DIMRND
 40
0.0
  9
$DIMDLE
 40
0.0
  9
$DIMEXE
 40
1.0
  9
$DIMTP
 40
0.0
  9
$DIMTM
 40
0.0
  9
$DIMTXT
 40
3.5
  9
$DIMCEN
 40
2.5
  9
$DIMTSZ
 40
0.0
  9
$DIMTOL
 70
     0
  9
$DIMLIM
 70
     0
  9
$DIMTIH
 70
     1
  9
$DIMTOH
 70
     1
  9
$DIMSE1
 70
     0
  9
$DIMSE2
 70
     0
  9
$DIMTAD
 70
     1
  9
$DIMZIN
 70
     0
  9
$DIMBLK
  1

  9
$DIMASO
 70
     1
  9
$DIMSHO
 70
     1
  9
$DIMPOST
  1

  9
$DIMAPOST
  1

  9
$DIMALT
 70
     0
  9
$DIMALTD
 70
     3
  9
$DIMALTF
 40
0.0393700787
  9
$DIMLFAC
 40
5.0
  9
$DIMTOFL
 70
     1
  9
$DIMTVP
 40
0.0
  9
$DIMTIX
 70
     0
  9
$DIMSOXD
 70
     0
  9
$DIMSAH
 70
     0
  9
$DIMBLK1
  1

  9
$DIMBLK2
  1

  9
$DIMSTYLE
  2
ISO-25
  9
$DIMCLRD
 70
     0
  9
$DIMCLRE
 70
     0
  9
$DIMCLRT
 70
     0
  9
$DIMTFAC
 40
1.0
  9
$DIMGAP
 40
1.524
  9
$DIMJUST
 70
     0
  9
$DIMSD1
 70
     0
  9
$DIMSD2
 70
     0
  9
$DIMTOLJ
 70
     0
  9
$DIMTZIN
 70
     0
  9
$DIMALTZ
 70
     0
  9
$DIMALTTZ
 70
     0
  9
$DIMUPT
 70
     0
  9
$DIMDEC
 70
     1
  9
$DIMTDEC
 70
     1
  9
$DIMALTU
 70
     2
  9
$DIMALTTD
 70
     3
  9
$DIMTXSTY
  7
Standard
  9
$DIMAUNIT
 70
     0
  9
$DIMADEC
 70
     1
  9
$DIMALTRND
 40
0.0
  9
$DIMAZIN
 70
     0
  9
$DIMDSEP
 70
    44
  9
$DIMATFIT
 70
     3
  9
$DIMFRAC
 70
     0
  9
$DIMLDRBLK
  1

  9
$DIMLUNIT
 70
     2
  9
$DIMLWD
 70
    -2
  9
$DIMLWE
 70
    -2
  9
$DIMTMOVE
 70
     0
  9
$LUNITS
 70
     2
  9
$LUPREC
 70
     1
  9
$SKETCHINC
 40
1.0
  9
$FILLETRAD
 40
10.0
  9
$AUNITS
 70
     0
  9
$AUPREC
 70
     1
  9
$MENU
  1
.
  9
$ELEVATION
 40
0.0
  9
$PELEVATION
 40
0.0
  9
$THICKNESS
 40
0.0
  9
$LIMCHECK
 70
     0
  9
$CHAMFERA
 40
0.0
  9
$CHAMFERB
 40
0.0
  9
$CHAMFERC
 40
0.0
  9
$CHAMFERD
 40
0.0
  9
$SKPOLY
 70
     0
  9
$TDCREATE
 40
2457225.468377974
  9
$TDUCREATE
 40
2457225.093377974
  9
$TDUPDATE
 40
2457225.513203426
  9
$TDUUPDATE
 40
2457225.138203426
  9
$TDINDWG
 40
0.0008460417
  9
$TDUSRTIMER
 40
0.0008458681
  9
$USRTIMER
 70
     1
  9
$ANGBASE
 50
0.0
  9
$ANGDIR
 70
     0
  9
$PDMODE
 70
     0
  9
$PDSIZE
 40
-1.0
  9
$PLINEWID
 40
0.0
  9
$SPLFRAME
 70
     0
  9
$SPLINETYPE
 70
     6
  9
$SPLINESEGS
 70
     8
  9
$HANDSEED
  5
71C
  9
$SURFTAB1
 70
     6
  9
$SURFTAB2
 70
     6
  9
$SURFTYPE
 70
     6
  9
$SURFU
 70
     6
  9
$SURFV
 70
     6
  9
$UCSBASE
  2

  9
$UCSNAME
  2

  9
$UCSORG
 10
0.0
 20
0.0
 30
0.0
  9
$UCSXDIR
 10
1.0
 20
0.0
 30
0.0
  9
$UCSYDIR
 10
0.0
 20
1.0
 30
0.0
  9
$UCSORTHOREF
  2

  9
$UCSORTHOVIEW
 70
     0
  9
$UCSORGTOP
 10
0.0
 20
0.0
 30
0.0
  9
$UCSORGBOTTOM
 10
0.0
 20
0.0
 30
0.0
  9
$UCSORGLEFT
 10
0.0
 20
0.0
 30
0.0
  9
$UCSORGRIGHT
 10
0.0
 20
0.0
 30
0.0
  9
$UCSORGFRONT
 10
0.0
 20
0.0
 30
0.0
  9
$UCSORGBACK
 10
0.0
 20
0.0
 30
0.0
  9
$PUCSBASE
  2

  9
$PUCSNAME
  2

  9
$PUCSORG
 10
0.0
 20
0.0
 30
0.0
  9
$PUCSXDIR
 10
1.0
 20
0.0
 30
0.0
  9
$PUCSYDIR
 10
0.0
 20
1.0
 30
0.0
  9
$PUCSORTHOREF
  2

  9
$PUCSORTHOVIEW
 70
     0
  9
$PUCSORGTOP
 10
0.0
 20
0.0
 30
0.0
  9
$PUCSORGBOTTOM
 10
0.0
 20
0.0
 30
0.0
  9
$PUCSORGLEFT
 10
0.0
 20
0.0
 30
0.0
  9
$PUCSORGRIGHT
 10
0.0
 20
0.0
 30
0.0
  9
$PUCSORGFRONT
 10
0.0
 20
0.0
 30
0.0
  9
$PUCSORGBACK
 10
0.0
 20
0.0
 30
0.0
  9
$USERI1
 70
     0
  9
$USERI2
 70
     0
  9
$USERI3
 70
     0
  9
$USERI4
 70
     0
  9
$USERI5
 70
     0
  9
$USERR1
 40
0.0
  9
$USERR2
 40
0.0
  9
$USERR3
 40
0.0
  9
$USERR4
 40
0.0
  9
$USERR5
 40
0.0
  9
$WORLDVIEW
 70
     1
  9
$SHADEDGE
 70
     3
  9
$SHADEDIF
 70
    70
  9
$TILEMODE
 70
     1
  9
$MAXACTVP
 70
    64
  9
$PINSBASE
 10
0.0
 20
0.0
 30
0.0
  9
$PLIMCHECK
 70
     0
  9
$PEXTMIN
 10
1.000000000000000E+20
 20
1.000000000000000E+20
 30
1.000000000000000E+20
  9
$PEXTMAX
 10
-1.000000000000000E+20
 20
-1.000000000000000E+20
 30
-1.000000000000000E+20
  9
$PLIMMIN
 10
0.0
 20
0.0
  9
$PLIMMAX
 10
420.0
 20
297.0
  9
$UNITMODE
 70
     0
  9
$VISRETAIN
 70
     1
  9
$PLINEGEN
 70
     0
  9
$PSLTSCALE
 70
     1
  9
$TREEDEPTH
 70
  3020
  9
$CMLSTYLE
  2
Standard
  9
$CMLJUST
 70
     0
  9
$CMLSCALE
 40
20.0
  9
$PROXYGRAPHICS
 70
     1
  9
$MEASUREMENT
 70
     1
  9
$CELWEIGHT
370
    -1
  9
$ENDCAPS
280
     0
  9
$JOINSTYLE
280
     0
  9
$LWDISPLAY
290
     1
  9
$INSUNITS
 70
     4
  9
$HYPERLINKBASE
  1

  9
$STYLESHEET
  1

  9
$XEDIT
290
     1
  9
$CEPSNTYPE
380
     0
  9
$PSTYLEMODE
290
     1
  9
$FINGERPRINTGUID
  2
{741007AE-59C2-466F-B159-7A3F70BCCD1A}
  9
$VERSIONGUID
  2
{650CF57B-6073-4D78-A28F-E687B2D15491}
  9
$EXTNAMES
290
     1
  9
$PSVPSCALE
 40
0.0
  9
$OLESTARTUP
290
     0
  0
ENDSEC
  0
SECTION
  2
CLASSES
  0
CLASS
  1
ACDBDICTIONARYWDFLT
  2
AcDbDictionaryWithDefault
  3
ObjectDBX Classes
 90
        0
280
     0
281
     0
  0
CLASS
  1
VISUALSTYLE
  2
AcDbVisualStyle
  3
ObjectDBX Classes
 90
     4095
280
     0
281
     0
  0
CLASS
  1
MATERIAL
  2
AcDbMaterial
  3
ObjectDBX Classes
 90
     1153
280
     0
281
     0
  0
CLASS
  1
SCALE
  2
AcDbScale
  3
ObjectDBX Classes
 90
     1153
280
     0
281
     0
  0
CLASS
  1
SUN
  2
AcDbSun
  3
SCENEOE
 90
    33921
280
     0
281
     0
  0
CLASS
  1
ACDBPLACEHOLDER
  2
AcDbPlaceHolder
  3
ObjectDBX Classes
 90
        0
280
     0
281
     0
  0
CLASS
  1
LAYOUT
  2
AcDbLayout
  3
ObjectDBX Classes
 90
        0
280
     0
281
     0
  0
CLASS
  1
TABLESTYLE
  2
AcDbTableStyle
  3
ObjectDBX Classes
 90
     4095
280
     0
281
     0
  0
CLASS
  1
MLEADERSTYLE
  2
AcDbMLeaderStyle
  3
ACDB_MLEADERSTYLE_CLASS
 90
     4095
280
     0
281
     0
  0
CLASS
  1
ACDBSECTIONVIEWSTYLE
  2
AcDbSectionViewStyle
  3
ObjectDBX Classes
 90
     1025
280
     0
281
     0
  0
CLASS
  1
ACDBDETAILVIEWSTYLE
  2
AcDbDetailViewStyle
  3
ObjectDBX Classes
 90
     1025
280
     0
281
     0
  0
CLASS
  1
DICTIONARYVAR
  2
AcDbDictionaryVar
  3
ObjectDBX Classes
 90
        0
280
     0
281
     0
  0
CLASS
  1
CELLSTYLEMAP
  2
AcDbCellStyleMap
  3
ObjectDBX Classes
 90
     1152
280
     0
281
     0
  0
ENDSEC
  0
SECTION
  2
TABLES
  0
TABLE
  2
VPORT
  5
8
330
0
100
AcDbSymbolTable
 70
     1
  0
VPORT
  5
29
330
8
100
AcDbSymbolTableRecord
100
AcDbViewportTableRecord
  2
*Active
 70
     0
 10
0.0
 20
0.0
 11
1.0
 21
1.0
 12
759.1559202532867
 22
160.8246437334151
 13
0.0
 23
0.0
 14
10.0
 24
10.0
 15
10.0
 25
10.0
 16
0.0
 26
0.0
 36
1.0
 17
0.0
 27
0.0
 37
0.0
 40
297.4567941840736
 41
1.921548117154811
 42
50.0
 43
0.0
 44
0.0
 50
0.0
 51
0.0
 71
     0
 72
  2000
 73
     1
 74
     3
 75
     0
 76
     0
 77
     0
 78
     0
281
     0
 65
     1
110
0.0
120
0.0
130
0.0
111
1.0
121
0.0
131
0.0
112
0.0
122
1.0
132
0.0
 79
     0
146
0.0
1001
ACAD_NAV_VCDISPLAY
1070
     3
  0
ENDTAB
  0
TABLE
  2
LTYPE
  5
5
330
0
100
AcDbSymbolTable
 70
     6
  0
LTYPE
  5
14
330
5
100
AcDbSymbolTableRecord
100
AcDbLinetypeTableRecord
  2
ByBlock
 70
     0
  3

 72
    65
 73
     0
 40
0.0
  0
LTYPE
  5
15
330
5
100
AcDbSymbolTableRecord
100
AcDbLinetypeTableRecord
  2
ByLayer
 70
     0
  3

 72
    65
 73
     0
 40
0.0
  0
LTYPE
  5
16
330
5
100
AcDbSymbolTableRecord
100
AcDbLinetypeTableRecord
  2
Continuous
 70
     0
  3
Solid line
 72
    65
 73
     0
 40
0.0
  0
LTYPE
  5
6A
330
5
100
AcDbSymbolTableRecord
100
AcDbLinetypeTableRecord
  2
HIDDEN
 70
     0
  3
Hidden __ __ __ __ __ __ __ __ __ __ __ __ __ __
 72
    65
 73
     2
 40
1.905
 49
1.27
 74
     0
 49
-0.635
 74
     0
  0
LTYPE
  5
6B
330
5
100
AcDbSymbolTableRecord
100
AcDbLinetypeTableRecord
  2
PHANTOM
 70
     0
  3
Phantom ______  __  __  ______  __  __  ______
 72
    65
 73
     6
 40
12.7
 49
6.349999999999999
 74
     0
 49
-1.27
 74
     0
 49
1.27
 74
     0
 49
-1.27
 74
     0
 49
1.27
 74
     0
 49
-1.27
 74
     0
  0
LTYPE
  5
6C
330
5
100
AcDbSymbolTableRecord
100
AcDbLinetypeTableRecord
  2
CENTER
 70
     0
  3
Center ____ _ ____ _ ____ _ ____ _ ____ _ ____
 72
    65
 73
     4
 40
10.16
 49
6.349999999999999
 74
     0
 49
-1.27
 74
     0
 49
1.27
 74
     0
 49
-1.27
 74
     0
  0
LTYPE
  5
6D
330
5
100
AcDbSymbolTableRecord
100
AcDbLinetypeTableRecord
  2
CENTERX2
 70
     0
  3
Center (2x) ________  __  ________  __  _____
 72
    65
 73
     4
 40
20.32
 49
12.7
 74
     0
 49
-2.54
 74
     0
 49
2.54
 74
     0
 49
-2.54
 74
     0
  0
LTYPE
  5
6E
330
5
100
AcDbSymbolTableRecord
100
AcDbLinetypeTableRecord
  2
DOT2
 70
     0
  3
Dot (.5x) ........................................
 72
    65
 73
     2
 40
0.635
 49
0.0
 74
     0
 49
-0.635
 74
     0
  0
ENDTAB
  0
TABLE
  2
LAYER
  5
2
330
0
100
AcDbSymbolTable
 70
     4
  0
LAYER
  5
10
102
{ACAD_XDICTIONARY
360
6C0
102
}
330
2
100
AcDbSymbolTableRecord
100
AcDbLayerTableRecord
  2
0
 70
     0
 62
     7
  6
Continuous
370
    -3
390
F
  0
LAYER
  5
6F
102
{ACAD_XDICTIONARY
360
6C2
102
}
330
2
100
AcDbSymbolTableRecord
100
AcDbLayerTableRecord
  2
FORMAT
 70
     0
 62
     7
  6
Continuous
370
    -3
390
F
  0
LAYER
  5
70
102
{ACAD_XDICTIONARY
360
6C4
102
}
330
2
100
AcDbSymbolTableRecord
100
AcDbLayerTableRecord
  2
図枠
 70
     0
 62
     7
  6
Continuous
370
    15
390
F
  0
LAYER
  5
71
102
{ACAD_XDICTIONARY
360
6C6
102
}
330
2
100
AcDbSymbolTableRecord
100
AcDbLayerTableRecord
  2
ﾚｲﾔｰ2
 70
     0
 62
     7
  6
Continuous
370
    -3
390
F
  0
ENDTAB
  0
TABLE
  2
STYLE
  5
3
330
0
100
AcDbSymbolTable
 70
     2
  0
STYLE
  5
11
330
3
100
AcDbSymbolTableRecord
100
AcDbTextStyleTableRecord
  2
Standard
 70
     0
 40
0.0
 41
1.0
 50
0.0
 71
     0
 42
3.5
  3
txt
  4
bigfont
  0
STYLE
  5
78
330
3
100
AcDbSymbolTableRecord
100
AcDbTextStyleTableRecord
  2
SLDTEXTSTYLE0
 70
     0
 40
0.0
 41
0.7
 50
0.0
 71
     0
 42
3.5
  3
TXT
  4
bigfont
  0
ENDTAB
  0
TABLE
  2
VIEW
  5
6
330
0
100
AcDbSymbolTable
 70
     0
  0
ENDTAB
  0
TABLE
  2
UCS
  5
7
330
0
100
AcDbSymbolTable
 70
     0
  0
ENDTAB
  0
TABLE
  2
APPID
  5
9
330
0
100
AcDbSymbolTable
 70
     3
  0
APPID
  5
12
330
9
100
AcDbSymbolTableRecord
100
AcDbRegAppTableRecord
  2
ACAD
 70
     0
  0
APPID
  5
6C8
330
9
100
AcDbSymbolTableRecord
100
AcDbRegAppTableRecord
  2
ACAD_NAV_VCDISPLAY
 70
     0
  0
APPID
  5
71B
330
9
100
AcDbSymbolTableRecord
100
AcDbRegAppTableRecord
  2
ACAD_MLEADERVER
 70
     0
  0
ENDTAB
  0
TABLE
  2
DIMSTYLE
  5
A
330
0
100
AcDbSymbolTable
 70
     4
100
AcDbDimStyleTable
 71
     0
  0
DIMSTYLE
105
27
330
A
100
AcDbSymbolTableRecord
100
AcDbDimStyleTableRecord
  2
ISO-25
 70
     0
 41
2.5
 42
0.625
 43
3.75
 44
1.25
 73
     0
 74
     0
 77
     1
 78
     8
140
2.5
141
2.5
143
0.0393700787
147
0.625
171
     3
172
     1
271
     2
272
     2
274
     3
278
    44
283
     0
284
     8
340
11
  0
DIMSTYLE
105
18B
330
A
100
AcDbSymbolTableRecord
100
AcDbDimStyleTableRecord
  2
SLDDIMSTYLE0
 70
     0
 41
2.0
 44
0.0
 45
0.000000001
 73
     0
 74
     0
 77
     3
 78
    12
 79
     3
140
3.5
147
0.875
173
     1
271
     1
272
     1
276
     2
284
    12
340
78
341
18C
343
18C
344
18C
  0
DIMSTYLE
105
1A6
330
A
100
AcDbSymbolTableRecord
100
AcDbDimStyleTableRecord
  2
SLDDIMSTYLE1
 70
     0
 41
2.0
 44
0.0
 45
0.000000001
 73
     0
 74
     0
 77
     3
 78
    12
 79
     3
140
3.5
147
0.875
172
     1
173
     1
271
     1
272
     1
276
     2
284
    12
289
     0
340
78
341
18C
343
18C
344
18C
  0
DIMSTYLE
105
674
330
A
100
AcDbSymbolTableRecord
100
AcDbDimStyleTableRecord
  2
SLDDIMSTYLE2
 70
     0
 41
2.0
 44
0.0
 45
0.000000001
 73
     0
 74
     0
 77
     3
 78
    12
 79
     3
140
3.5
141
0.0
147
0.875
172
     1
173
     1
271
     1
272
     1
276
     2
284
    12
340
78
341
18C
343
18C
344
18C
  0
ENDTAB
  0
TABLE
  2
BLOCK_RECORD
  5
1
330
0
100
AcDbSymbolTable
 70
    22
  0
BLOCK_RECORD
  5
1F
330
1
100
AcDbSymbolTableRecord
100
AcDbBlockTableRecord
  2
*Model_Space
340
22
  0
BLOCK_RECORD
  5
1B
330
1
100
AcDbSymbolTableRecord
100
AcDbBlockTableRecord
  2
*Paper_Space
340
1E
  0
BLOCK_RECORD
  5
23
330
1
100
AcDbSymbolTableRecord
100
AcDbBlockTableRecord
  2
*Paper_Space0
340
26
  0
BLOCK_RECORD
  5
72
330
1
100
AcDbSymbolTableRecord
100
AcDbBlockTableRecord
  2
三角３
340
0
  0
BLOCK_RECORD
  5
7A
330
1
100
AcDbSymbolTableRecord
100
AcDbBlockTableRecord
  2
三角２
340
0
  0
BLOCK_RECORD
  5
81
330
1
100
AcDbSymbolTableRecord
100
AcDbBlockTableRecord
  2
三角６
340
0
  0
BLOCK_RECORD
  5
88
330
1
100
AcDbSymbolTableRecord
100
AcDbBlockTableRecord
  2
三角５
340
0
  0
BLOCK_RECORD
  5
8F
330
1
100
AcDbSymbolTableRecord
100
AcDbBlockTableRecord
  2
三角４
340
0
  0
BLOCK_RECORD
  5
96
330
1
100
AcDbSymbolTableRecord
100
AcDbBlockTableRecord
  2
三角１
340
0
  0
BLOCK_RECORD
  5
DD
330
1
100
AcDbSymbolTableRecord
100
AcDbBlockTableRecord
  2
SW_BROKEN_VIEW_0
340
0
102
{BLKREFS
331
E0
102
}
  0
BLOCK_RECORD
  5
18C
330
1
100
AcDbSymbolTableRecord
100
AcDbBlockTableRecord
  2
_OPEN30
340
0
102
{BLKREFS
331
452
331
453
331
64B
331
64C
331
66B
331
66C
331
65F
331
660
331
195
331
196
331
1AA
331
1AB
331
1C0
331
1C1
331
19F
331
1B6
331
1B7
331
1CC
331
1CD
331
655
331
656
331
1A0
331
678
331
679
102
}
  0
BLOCK_RECORD
  5
192
330
1
100
AcDbSymbolTableRecord
100
AcDbBlockTableRecord
  2
_D
340
0
  0
BLOCK_RECORD
  5
19C
330
1
100
AcDbSymbolTableRecord
100
AcDbBlockTableRecord
  2
_D_1
340
0
  0
BLOCK_RECORD
  5
1A7
330
1
100
AcDbSymbolTableRecord
100
AcDbBlockTableRecord
  2
_D_2
340
0
  0
BLOCK_RECORD
  5
1B3
330
1
100
AcDbSymbolTableRecord
100
AcDbBlockTableRecord
  2
_D_3
340
0
  0
BLOCK_RECORD
  5
1BD
330
1
100
AcDbSymbolTableRecord
100
AcDbBlockTableRecord
  2
_D_4
340
0
  0
BLOCK_RECORD
  5
1C9
330
1
100
AcDbSymbolTableRecord
100
AcDbBlockTableRecord
  2
_D_5
340
0
  0
BLOCK_RECORD
  5
363
330
1
100
AcDbSymbolTableRecord
100
AcDbBlockTableRecord
  2
SW_BROKEN_VIEW_1
340
0
102
{BLKREFS
331
366
102
}
  0
BLOCK_RECORD
  5
44F
330
1
100
AcDbSymbolTableRecord
100
AcDbBlockTableRecord
  2
_D_6
340
0
  0
BLOCK_RECORD
  5
648
330
1
100
AcDbSymbolTableRecord
100
AcDbBlockTableRecord
  2
_D_7
340
0
  0
BLOCK_RECORD
  5
652
330
1
100
AcDbSymbolTableRecord
100
AcDbBlockTableRecord
  2
_D_8
340
0
  0
BLOCK_RECORD
  5
65C
330
1
100
AcDbSymbolTableRecord
100
AcDbBlockTableRecord
  2
_D_9
340
0
  0
BLOCK_RECORD
  5
668
330
1
100
AcDbSymbolTableRecord
100
AcDbBlockTableRecord
  2
_D_10
340
0
  0
BLOCK_RECORD
  5
675
330
1
100
AcDbSymbolTableRecord
100
AcDbBlockTableRecord
  2
_D_11
340
0
  0
ENDTAB
  0
ENDSEC
  0
SECTION
  2
BLOCKS
  0
BLOCK
  5
20
330
1F
100
AcDbEntity
  8
0
100
AcDbBlockBegin
  2
*Model_Space
 70
     0
 10
0.0
 20
0.0
 30
0.0
  3
*Model_Space
  1
*Model_Space
  0
ENDBLK
  5
21
330
1F
100
AcDbEntity
  8
0
100
AcDbBlockEnd
  0
BLOCK
  5
1C
330
1B
100
AcDbEntity
 67
     1
  8
0
100
AcDbBlockBegin
  2
*Paper_Space
 70
     0
 10
0.0
 20
0.0
 30
0.0
  3
*Paper_Space
  1
*Paper_Space
  0
ENDBLK
  5
1D
330
1B
100
AcDbEntity
 67
     1
  8
0
100
AcDbBlockEnd
  0
BLOCK
  5
24
330
23
100
AcDbEntity
 67
     1
  8
0
100
AcDbBlockBegin
  2
*Paper_Space0
 70
     0
 10
0.0
 20
0.0
 30
0.0
  3
*Paper_Space0
  1
*Paper_Space0
  0
ENDBLK
  5
25
330
23
100
AcDbEntity
 67
     1
  8
0
100
AcDbBlockEnd
  0
BLOCK
  5
73
330
72
100
AcDbEntity
  8
0
100
AcDbBlockBegin
  2
三角３
 70
     0
 10
0.0
 20
0.0
 30
0.0
  3
三角３
  1
三角３
  0
LINE
  5
75
330
72
100
AcDbEntity
  8
FORMAT
370
     0
100
AcDbLine
 10
0.0
 20
0.0
 30
0.0
 11
-1.75
 21
-3.5
 31
0.0
  0
LINE
  5
76
330
72
100
AcDbEntity
  8
FORMAT
370
     0
100
AcDbLine
 10
-1.75
 20
-3.5
 30
0.0
 11
1.75
 21
-3.5
 31
0.0
  0
LINE
  5
77
330
72
100
AcDbEntity
  8
FORMAT
370
     0
100
AcDbLine
 10
1.75
 20
-3.5
 30
0.0
 11
0.0
 21
0.0
 31
0.0
  0
MTEXT
  5
79
330
72
100
AcDbEntity
  8
FORMAT
 62
     7
100
AcDbMText
 10
-0.6943926639
 20
-0.9380245362
 30
0.0
 40
2.1166666667
 41
0.0
 71
     1
 72
     1
  1
3
  7
SLDTEXTSTYLE0
 73
     1
 44
1.0
1001
ACAD
1000
MTEXTBEGIN
1070
    73
1070
     1
1070
    44
1040
1.0
1070
    74
1070
     0
1000
MTEXTEND
  0
ENDBLK
  5
74
330
72
100
AcDbEntity
  8
0
100
AcDbBlockEnd
  0
BLOCK
  5
7B
330
7A
100
AcDbEntity
  8
0
100
AcDbBlockBegin
  2
三角２
 70
     0
 10
0.0
 20
0.0
 30
0.0
  3
三角２
  1
三角２
  0
LINE
  5
7D
330
7A
100
AcDbEntity
  8
FORMAT
370
     0
100
AcDbLine
 10
0.0
 20
0.0
 30
0.0
 11
-1.75
 21
-3.5
 31
0.0
  0
LINE
  5
7E
330
7A
100
AcDbEntity
  8
FORMAT
370
     0
100
AcDbLine
 10
-1.75
 20
-3.5
 30
0.0
 11
1.75
 21
-3.5
 31
0.0
  0
LINE
  5
7F
330
7A
100
AcDbEntity
  8
FORMAT
370
     0
100
AcDbLine
 10
1.75
 20
-3.5
 30
0.0
 11
0.0
 21
0.0
 31
0.0
  0
MTEXT
  5
80
330
7A
100
AcDbEntity
  8
FORMAT
 62
     7
100
AcDbMText
 10
-0.6943926639
 20
-0.9380245362
 30
0.0
 40
2.1166666667
 41
0.0
 71
     1
 72
     1
  1
2
  7
SLDTEXTSTYLE0
 73
     1
 44
1.0
1001
ACAD
1000
MTEXTBEGIN
1070
    73
1070
     1
1070
    44
1040
1.0
1070
    74
1070
     0
1000
MTEXTEND
  0
ENDBLK
  5
7C
330
7A
100
AcDbEntity
  8
0
100
AcDbBlockEnd
  0
BLOCK
  5
82
330
81
100
AcDbEntity
  8
0
100
AcDbBlockBegin
  2
三角６
 70
     0
 10
0.0
 20
0.0
 30
0.0
  3
三角６
  1
三角６
  0
LINE
  5
84
330
81
100
AcDbEntity
  8
FORMAT
370
     0
100
AcDbLine
 10
0.0
 20
0.0
 30
0.0
 11
-1.75
 21
-3.5
 31
0.0
  0
LINE
  5
85
330
81
100
AcDbEntity
  8
FORMAT
370
     0
100
AcDbLine
 10
-1.75
 20
-3.5
 30
0.0
 11
1.75
 21
-3.5
 31
0.0
  0
LINE
  5
86
330
81
100
AcDbEntity
  8
FORMAT
370
     0
100
AcDbLine
 10
1.75
 20
-3.5
 30
0.0
 11
0.0
 21
0.0
 31
0.0
  0
MTEXT
  5
87
330
81
100
AcDbEntity
  8
FORMAT
 62
     7
100
AcDbMText
 10
-0.6943926639
 20
-0.9380245362
 30
0.0
 40
2.1166666667
 41
0.0
 71
     1
 72
     1
  1
6
  7
SLDTEXTSTYLE0
 73
     1
 44
1.0
1001
ACAD
1000
MTEXTBEGIN
1070
    73
1070
     1
1070
    44
1040
1.0
1070
    74
1070
     0
1000
MTEXTEND
  0
ENDBLK
  5
83
330
81
100
AcDbEntity
  8
0
100
AcDbBlockEnd
  0
BLOCK
  5
89
330
88
100
AcDbEntity
  8
0
100
AcDbBlockBegin
  2
三角５
 70
     0
 10
0.0
 20
0.0
 30
0.0
  3
三角５
  1
三角５
  0
LINE
  5
8B
330
88
100
AcDbEntity
  8
FORMAT
370
     0
100
AcDbLine
 10
0.0
 20
0.0
 30
0.0
 11
-1.75
 21
-3.5
 31
0.0
  0
LINE
  5
8C
330
88
100
AcDbEntity
  8
FORMAT
370
     0
100
AcDbLine
 10
-1.75
 20
-3.5
 30
0.0
 11
1.75
 21
-3.5
 31
0.0
  0
LINE
  5
8D
330
88
100
AcDbEntity
  8
FORMAT
370
     0
100
AcDbLine
 10
1.75
 20
-3.5
 30
0.0
 11
0.0
 21
0.0
 31
0.0
  0
MTEXT
  5
8E
330
88
100
AcDbEntity
  8
FORMAT
 62
     7
100
AcDbMText
 10
-0.6943926639
 20
-0.9380245362
 30
0.0
 40
2.1166666667
 41
0.0
 71
     1
 72
     1
  1
5
  7
SLDTEXTSTYLE0
 73
     1
 44
1.0
1001
ACAD
1000
MTEXTBEGIN
1070
    73
1070
     1
1070
    44
1040
1.0
1070
    74
1070
     0
1000
MTEXTEND
  0
ENDBLK
  5
8A
330
88
100
AcDbEntity
  8
0
100
AcDbBlockEnd
  0
BLOCK
  5
90
330
8F
100
AcDbEntity
  8
0
100
AcDbBlockBegin
  2
三角４
 70
     0
 10
0.0
 20
0.0
 30
0.0
  3
三角４
  1
三角４
  0
LINE
  5
92
330
8F
100
AcDbEntity
  8
FORMAT
370
     0
100
AcDbLine
 10
0.0
 20
0.0
 30
0.0
 11
-1.75
 21
-3.5
 31
0.0
  0
LINE
  5
93
330
8F
100
AcDbEntity
  8
FORMAT
370
     0
100
AcDbLine
 10
-1.75
 20
-3.5
 30
0.0
 11
1.75
 21
-3.5
 31
0.0
  0
LINE
  5
94
330
8F
100
AcDbEntity
  8
FORMAT
370
     0
100
AcDbLine
 10
1.75
 20
-3.5
 30
0.0
 11
0.0
 21
0.0
 31
0.0
  0
MTEXT
  5
95
330
8F
100
AcDbEntity
  8
FORMAT
 62
     7
100
AcDbMText
 10
-0.6943926639
 20
-0.9380245362
 30
0.0
 40
2.1166666667
 41
0.0
 71
     1
 72
     1
  1
4
  7
SLDTEXTSTYLE0
 73
     1
 44
1.0
1001
ACAD
1000
MTEXTBEGIN
1070
    73
1070
     1
1070
    44
1040
1.0
1070
    74
1070
     0
1000
MTEXTEND
  0
ENDBLK
  5
91
330
8F
100
AcDbEntity
  8
0
100
AcDbBlockEnd
  0
BLOCK
  5
97
330
96
100
AcDbEntity
  8
0
100
AcDbBlockBegin
  2
三角１
 70
     0
 10
0.0
 20
0.0
 30
0.0
  3
三角１
  1
三角１
  0
LINE
  5
99
330
96
100
AcDbEntity
  8
FORMAT
370
     0
100
AcDbLine
 10
0.0
 20
0.0
 30
0.0
 11
-1.75
 21
-3.5
 31
0.0
  0
LINE
  5
9A
330
96
100
AcDbEntity
  8
FORMAT
370
     0
100
AcDbLine
 10
-1.75
 20
-3.5
 30
0.0
 11
1.75
 21
-3.5
 31
0.0
  0
LINE
  5
9B
330
96
100
AcDbEntity
  8
FORMAT
370
     0
100
AcDbLine
 10
1.75
 20
-3.5
 30
0.0
 11
0.0
 21
0.0
 31
0.0
  0
MTEXT
  5
9C
330
96
100
AcDbEntity
  8
FORMAT
 62
     7
100
AcDbMText
 10
-0.6943926639
 20
-0.9380245362
 30
0.0
 40
2.1166666667
 41
0.0
 71
     1
 72
     1
  1
1
  7
SLDTEXTSTYLE0
 73
     1
 44
1.0
1001
ACAD
1000
MTEXTBEGIN
1070
    73
1070
     1
1070
    44
1040
1.0
1070
    74
1070
     0
1000
MTEXTEND
  0
ENDBLK
  5
98
330
96
100
AcDbEntity
  8
0
100
AcDbBlockEnd
  0
BLOCK
  5
DE
330
DD
100
AcDbEntity
  8
0
100
AcDbBlockBegin
  2
SW_BROKEN_VIEW_0
 70
     0
 10
0.0
 20
0.0
 30
0.0
  3
SW_BROKEN_VIEW_0
  1
SW_BROKEN_VIEW_0
  0
ENDBLK
  5
DF
330
DD
100
AcDbEntity
  8
0
100
AcDbBlockEnd
  0
BLOCK
  5
18D
330
18C
100
AcDbEntity
  8
0
100
AcDbBlockBegin
  2
_OPEN30
 70
     0
 10
0.0
 20
0.0
 30
0.0
  3
_OPEN30
  1
_OPEN30
  0
LINE
  5
18F
330
18C
100
AcDbEntity
  8
0
  6
ByBlock
 62
     0
370
    -2
100
AcDbLine
 10
-1.0
 20
0.267949
 30
0.0
 11
0.0
 21
0.0
 31
0.0
  0
LINE
  5
190
330
18C
100
AcDbEntity
  8
0
  6
ByBlock
 62
     0
370
    -2
100
AcDbLine
 10
0.0
 20
0.0
 30
0.0
 11
-1.0
 21
-0.267949
 31
0.0
  0
LINE
  5
191
330
18C
100
AcDbEntity
  8
0
  6
ByBlock
 62
     0
370
    -2
100
AcDbLine
 10
0.0
 20
0.0
 30
0.0
 11
-1.0
 21
0.0
 31
0.0
  0
ENDBLK
  5
18E
330
18C
100
AcDbEntity
  8
0
100
AcDbBlockEnd
  0
BLOCK
  5
193
330
192
100
AcDbEntity
  8
0
100
AcDbBlockBegin
  2
_D
 70
     0
 10
0.0
 20
0.0
 30
0.0
  3
_D
  1
_D
  0
INSERT
  5
195
330
192
100
AcDbEntity
  8
FORMAT
100
AcDbBlockReference
  2
_OPEN30
 10
142.3927555989
 20
75.56114014729999
 30
0.1
 41
2.0
 42
2.0
 50
180.0
  0
INSERT
  5
196
330
192
100
AcDbEntity
  8
FORMAT
100
AcDbBlockReference
  2
_OPEN30
 10
327.1196715234
 20
75.56114014729999
 30
0.1
 41
2.0
 42
2.0
  0
LINE
  5
197
330
192
100
AcDbEntity
  8
FORMAT
100
AcDbLine
 10
142.3927555989
 20
94.86270879920001
 30
0.0
 11
142.3927555989
 21
74.56114014729999
 31
0.0
  0
LINE
  5
198
330
192
100
AcDbEntity
  8
FORMAT
100
AcDbLine
 10
327.1196715234
 20
95.11565832489999
 30
0.0
 11
327.1196715234
 21
74.56114014729999
 31
0.0
  0
LINE
  5
199
330
192
100
AcDbEntity
  8
FORMAT
100
AcDbLine
 10
142.3927555989
 20
75.56114014729999
 30
0.0
 11
327.1196715234
 21
75.56114014729999
 31
0.0
  0
MTEXT
  5
19A
330
192
100
AcDbEntity
  8
FORMAT
100
AcDbMText
 10
231.7010051985
 20
80.0728770037
 30
0.0
 40
3.5
 41
0.0
 71
     1
 72
     1
  1
413
  7
SLDTEXTSTYLE0
 73
     1
 44
1.0
1001
ACAD
1000
MTEXTBEGIN
1070
    73
1070
     1
1070
    44
1040
1.0
1070
    74
1070
     0
1000
MTEXTEND
  0
ENDBLK
  5
194
330
192
100
AcDbEntity
  8
0
100
AcDbBlockEnd
  0
BLOCK
  5
19D
330
19C
100
AcDbEntity
  8
0
100
AcDbBlockBegin
  2
_D_1
 70
     0
 10
0.0
 20
0.0
 30
0.0
  3
_D_1
  1
_D_1
  0
INSERT
  5
19F
330
19C
100
AcDbEntity
  8
FORMAT
100
AcDbBlockReference
  2
_OPEN30
 10
142.3927555989
 20
81.56114014729999
 30
0.1
 41
2.0
 42
2.0
 50
180.0
  0
INSERT
  5
1A0
330
19C
100
AcDbEntity
  8
FORMAT
100
AcDbBlockReference
  2
_OPEN30
 10
172.3927555989
 20
81.56114014729999
 30
0.1
 41
2.0
 42
2.0
  0
LINE
  5
1A1
330
19C
100
AcDbEntity
  8
FORMAT
100
AcDbLine
 10
142.3927555989
 20
94.86270879920001
 30
0.0
 11
142.3927555989
 21
80.56114014729999
 31
0.0
  0
LINE
  5
1A2
330
19C
100
AcDbEntity
  8
FORMAT
100
AcDbLine
 10
172.3927555989
 20
91.36114014729999
 30
0.0
 11
172.3927555989
 21
80.56114014729999
 31
0.0
  0
LINE
  5
1A3
330
19C
100
AcDbEntity
  8
FORMAT
100
AcDbLine
 10
142.3927555989
 20
81.56114014729999
 30
0.0
 11
172.3927555989
 21
81.56114014729999
 31
0.0
  0
MTEXT
  5
1A4
330
19C
100
AcDbEntity
  8
FORMAT
100
AcDbMText
 10
155.3559501014
 20
86.07287700370001
 30
0.0
 40
3.5
 41
0.0
 71
     1
 72
     1
  1
30
  7
SLDTEXTSTYLE0
 73
     1
 44
1.0
1001
ACAD
1000
MTEXTBEGIN
1070
    73
1070
     1
1070
    44
1040
1.0
1070
    74
1070
     0
1000
MTEXTEND
  0
ENDBLK
  5
19E
330
19C
100
AcDbEntity
  8
0
100
AcDbBlockEnd
  0
BLOCK
  5
1A8
330
1A7
100
AcDbEntity
  8
0
100
AcDbBlockBegin
  2
_D_2
 70
     0
 10
0.0
 20
0.0
 30
0.0
  3
_D_2
  1
_D_2
  0
INSERT
  5
1AA
330
1A7
100
AcDbEntity
  8
FORMAT
100
AcDbBlockReference
  2
_OPEN30
 10
135.3927555989
 20
81.56114014729999
 30
0.1
 41
2.0
 42
2.0
  0
INSERT
  5
1AB
330
1A7
100
AcDbEntity
  8
FORMAT
100
AcDbBlockReference
  2
_OPEN30
 10
142.3927555989
 20
81.56114014729999
 30
0.1
 41
2.0
 42
2.0
 50
180.0
  0
LINE
  5
1AC
330
1A7
100
AcDbEntity
  8
FORMAT
100
AcDbLine
 10
135.3927555989
 20
99.4183205424
 30
0.0
 11
135.3927555989
 21
80.56114014729999
 31
0.0
  0
LINE
  5
1AD
330
1A7
100
AcDbEntity
  8
FORMAT
100
AcDbLine
 10
142.3927555989
 20
94.86270879920001
 30
0.0
 11
142.3927555989
 21
80.56114014729999
 31
0.0
  0
LINE
  5
1AE
330
1A7
100
AcDbEntity
  8
FORMAT
100
AcDbLine
 10
135.3927555989
 20
81.56114014729999
 30
0.0
 11
132.3927555989
 21
81.56114014729999
 31
0.0
  0
LINE
  5
1AF
330
1A7
100
AcDbEntity
  8
FORMAT
100
AcDbLine
 10
135.3927555989
 20
81.56114014729999
 30
0.0
 11
142.3927555989
 21
81.56114014729999
 31
0.0
  0
LINE
  5
1B0
330
1A7
100
AcDbEntity
  8
FORMAT
100
AcDbLine
 10
142.3927555989
 20
81.56114014729999
 30
0.0
 11
145.3927555989
 21
81.56114014729999
 31
0.0
  0
MTEXT
  5
1B1
330
1A7
100
AcDbEntity
  8
FORMAT
100
AcDbMText
 10
137.8743528502
 20
86.07287700370001
 30
0.0
 40
3.5
 41
0.0
 71
     1
 72
     1
  1
7
  7
SLDTEXTSTYLE0
 73
     1
 44
1.0
1001
ACAD
1000
MTEXTBEGIN
1070
    73
1070
     1
1070
    44
1040
1.0
1070
    74
1070
     0
1000
MTEXTEND
  0
ENDBLK
  5
1A9
330
1A7
100
AcDbEntity
  8
0
100
AcDbBlockEnd
  0
BLOCK
  5
1B4
330
1B3
100
AcDbEntity
  8
0
100
AcDbBlockBegin
  2
_D_3
 70
     0
 10
0.0
 20
0.0
 30
0.0
  3
_D_3
  1
_D_3
  0
INSERT
  5
1B6
330
1B3
100
AcDbEntity
  8
FORMAT
100
AcDbBlockReference
  2
_OPEN30
 10
172.3927555989
 20
81.56114014729999
 30
0.1
 41
2.0
 42
2.0
 50
180.0
  0
INSERT
  5
1B7
330
1B3
100
AcDbEntity
  8
FORMAT
100
AcDbBlockReference
  2
_OPEN30
 10
319.1196715234
 20
81.56114014729999
 30
0.1
 41
2.0
 42
2.0
  0
LINE
  5
1B8
330
1B3
100
AcDbEntity
  8
FORMAT
100
AcDbLine
 10
172.3927555989
 20
91.36114014729999
 30
0.0
 11
172.3927555989
 21
80.56114014729999
 31
0.0
  0
LINE
  5
1B9
330
1B3
100
AcDbEntity
  8
FORMAT
100
AcDbLine
 10
319.1196715234
 20
93.9956303717
 30
0.0
 11
319.1196715234
 21
80.56114014729999
 31
0.0
  0
LINE
  5
1BA
330
1B3
100
AcDbEntity
  8
FORMAT
100
AcDbLine
 10
172.3927555989
 20
81.56114014729999
 30
0.0
 11
319.1196715234
 21
81.56114014729999
 31
0.0
  0
MTEXT
  5
1BB
330
1B3
100
AcDbEntity
  8
FORMAT
100
AcDbMText
 10
242.7010051985
 20
86.07287700370001
 30
0.0
 40
3.5
 41
0.0
 71
     1
 72
     1
  1
375
  7
SLDTEXTSTYLE0
 73
     1
 44
1.0
1001
ACAD
1000
MTEXTBEGIN
1070
    73
1070
     1
1070
    44
1040
1.0
1070
    74
1070
     0
1000
MTEXTEND
  0
ENDBLK
  5
1B5
330
1B3
100
AcDbEntity
  8
0
100
AcDbBlockEnd
  0
BLOCK
  5
1BE
330
1BD
100
AcDbEntity
  8
0
100
AcDbBlockBegin
  2
_D_4
 70
     0
 10
0.0
 20
0.0
 30
0.0
  3
_D_4
  1
_D_4
  0
INSERT
  5
1C0
330
1BD
100
AcDbEntity
  8
FORMAT
100
AcDbBlockReference
  2
_OPEN30
 10
319.1196715234
 20
81.56114014729999
 30
0.1
 41
2.0
 42
2.0
  0
INSERT
  5
1C1
330
1BD
100
AcDbEntity
  8
FORMAT
100
AcDbBlockReference
  2
_OPEN30
 10
327.1196715234
 20
81.56114014729999
 30
0.1
 41
2.0
 42
2.0
 50
180.0
  0
LINE
  5
1C2
330
1BD
100
AcDbEntity
  8
FORMAT
100
AcDbLine
 10
319.1196715234
 20
93.9956303717
 30
0.0
 11
319.1196715234
 21
80.56114014729999
 31
0.0
  0
LINE
  5
1C3
330
1BD
100
AcDbEntity
  8
FORMAT
100
AcDbLine
 10
327.1196715234
 20
95.11565832489999
 30
0.0
 11
327.1196715234
 21
80.56114014729999
 31
0.0
  0
LINE
  5
1C4
330
1BD
100
AcDbEntity
  8
FORMAT
100
AcDbLine
 10
319.1196715234
 20
81.56114014729999
 30
0.0
 11
316.1196715234
 21
81.56114014729999
 31
0.0
  0
LINE
  5
1C5
330
1BD
100
AcDbEntity
  8
FORMAT
100
AcDbLine
 10
319.1196715234
 20
81.56114014729999
 30
0.0
 11
327.1196715234
 21
81.56114014729999
 31
0.0
  0
LINE
  5
1C6
330
1BD
100
AcDbEntity
  8
FORMAT
100
AcDbLine
 10
327.1196715234
 20
81.56114014729999
 30
0.0
 11
330.1196715234
 21
81.56114014729999
 31
0.0
  0
MTEXT
  5
1C7
330
1BD
100
AcDbEntity
  8
FORMAT
100
AcDbMText
 10
322.1012687746
 20
86.07287700370001
 30
0.0
 40
3.5
 41
0.0
 71
     1
 72
     1
  1
8
  7
SLDTEXTSTYLE0
 73
     1
 44
1.0
1001
ACAD
1000
MTEXTBEGIN
1070
    73
1070
     1
1070
    44
1040
1.0
1070
    74
1070
     0
1000
MTEXTEND
  0
ENDBLK
  5
1BF
330
1BD
100
AcDbEntity
  8
0
100
AcDbBlockEnd
  0
BLOCK
  5
1CA
330
1C9
100
AcDbEntity
  8
0
100
AcDbBlockBegin
  2
_D_5
 70
     0
 10
0.0
 20
0.0
 30
0.0
  3
_D_5
  1
_D_5
  0
INSERT
  5
1CC
330
1C9
100
AcDbEntity
  8
FORMAT
100
AcDbBlockReference
  2
_OPEN30
 10
309.8130950538
 20
94.9956303717
 30
0.1
 41
2.0
 42
2.0
 50
270.0
  0
INSERT
  5
1CD
330
1C9
100
AcDbEntity
  8
FORMAT
100
AcDbBlockReference
  2
_OPEN30
 10
309.8130950538
 20
113.4933205424
 30
0.1
 41
2.0
 42
2.0
 50
90.0
  0
LINE
  5
1CE
330
1C9
100
AcDbEntity
  8
FORMAT
100
AcDbLine
 10
309.8130950538
 20
94.9956303717
 30
0.0
 11
309.8130950538
 21
113.4933205424
 31
0.0
  0
LINE
  5
1CF
330
1C9
100
AcDbEntity
  8
FORMAT
100
AcDbLine
 10
309.8130950538
 20
113.4933205424
 30
0.0
 11
309.8130950538
 21
125.1097079327
 31
0.0
  0
MTEXT
  5
1D0
330
1C9
100
AcDbEntity
  8
FORMAT
100
AcDbMText
 10
305.3013581975
 20
116.9624859428
 30
0.0
 40
3.5
 41
0.0
 71
     1
 72
     1
  1
18.5
  7
SLDTEXTSTYLE0
 11
0.0000000000000001
 21
1.0
 31
0.0
 73
     1
 44
1.0
1001
ACAD
1000
MTEXTBEGIN
1070
    73
1070
     1
1070
    44
1040
1.0
1070
    74
1070
     0
1000
MTEXTEND
  0
ENDBLK
  5
1CB
330
1C9
100
AcDbEntity
  8
0
100
AcDbBlockEnd
  0
BLOCK
  5
364
330
363
100
AcDbEntity
  8
0
100
AcDbBlockBegin
  2
SW_BROKEN_VIEW_1
 70
     0
 10
0.0
 20
0.0
 30
0.0
  3
SW_BROKEN_VIEW_1
  1
SW_BROKEN_VIEW_1
  0
ENDBLK
  5
365
330
363
100
AcDbEntity
  8
0
100
AcDbBlockEnd
  0
BLOCK
  5
450
330
44F
100
AcDbEntity
  8
0
100
AcDbBlockBegin
  2
_D_6
 70
     0
 10
0.0
 20
0.0
 30
0.0
  3
_D_6
  1
_D_6
  0
INSERT
  5
452
330
44F
100
AcDbEntity
  8
FORMAT
100
AcDbBlockReference
  2
_OPEN30
 10
297.1862253803
 20
205.2266533951
 30
0.1
 41
2.0
 42
2.0
 50
90.0
  0
INSERT
  5
453
330
44F
100
AcDbEntity
  8
FORMAT
100
AcDbBlockReference
  2
_OPEN30
 10
297.1862253803
 20
163.7266533951
 30
0.1
 41
2.0
 42
2.0
 50
270.0
  0
LINE
  5
454
330
44F
100
AcDbEntity
  8
FORMAT
100
AcDbLine
 10
297.1862253803
 20
205.2266533951
 30
0.0
 11
297.1862253803
 21
222.8982938058
 31
0.0
  0
LINE
  5
455
330
44F
100
AcDbEntity
  8
FORMAT
100
AcDbLine
 10
297.1862253803
 20
205.2266533951
 30
0.0
 11
297.1862253803
 21
163.7266533951
 31
0.0
  0
MTEXT
  5
456
330
44F
100
AcDbEntity
  8
FORMAT
100
AcDbMText
 10
292.6744885239
 20
214.7510718159
 30
0.0
 40
3.5
 41
0.0
 71
     1
 72
     1
  1
41.5
  7
SLDTEXTSTYLE0
 11
-0.000000000000007
 21
1.0
 31
0.0
 73
     1
 44
1.0
1001
ACAD
1000
MTEXTBEGIN
1070
    73
1070
     1
1070
    44
1040
1.0
1070
    74
1070
     0
1000
MTEXTEND
  0
ENDBLK
  5
451
330
44F
100
AcDbEntity
  8
0
100
AcDbBlockEnd
  0
BLOCK
  5
649
330
648
100
AcDbEntity
  8
0
100
AcDbBlockBegin
  2
_D_7
 70
     0
 10
0.0
 20
0.0
 30
0.0
  3
_D_7
  1
_D_7
  0
INSERT
  5
64B
330
648
100
AcDbEntity
  8
FORMAT
100
AcDbBlockReference
  2
_OPEN30
 10
65.5061482081
 20
138.5220614775
 30
-201.8297033568
 41
2.0
 42
2.0
 50
180.0
  0
INSERT
  5
64C
330
648
100
AcDbEntity
  8
FORMAT
100
AcDbBlockReference
  2
_OPEN30
 10
90.87037192229999
 20
138.5220614775
 30
-201.8297033568
 41
2.0
 42
2.0
  0
LINE
  5
64D
330
648
100
AcDbEntity
  8
FORMAT
100
AcDbLine
 10
65.5061482081
 20
172.2766533950999
 30
0.0
 11
65.5061482081
 21
137.5220614775
 31
0.0
  0
LINE
  5
64E
330
648
100
AcDbEntity
  8
FORMAT
100
AcDbLine
 10
90.87037192229999
 20
172.2766533950999
 30
0.0
 11
90.87037192229999
 21
137.5220614775
 31
0.0
  0
LINE
  5
64F
330
648
100
AcDbEntity
  8
FORMAT
100
AcDbLine
 10
65.5061482081
 20
138.5220614775
 30
0.0
 11
90.87037192229999
 21
138.5220614775
 31
0.0
  0
MTEXT
  5
650
330
648
100
AcDbEntity
  8
FORMAT
100
AcDbMText
 10
74.1146490702
 20
143.0337983339
 30
0.0
 40
3.5
 41
0.0
 71
     1
 72
     1
  1
25.4
  7
SLDTEXTSTYLE0
 73
     1
 44
1.0
1001
ACAD
1000
MTEXTBEGIN
1070
    73
1070
     1
1070
    44
1040
1.0
1070
    74
1070
     0
1000
MTEXTEND
  0
ENDBLK
  5
64A
330
648
100
AcDbEntity
  8
0
100
AcDbBlockEnd
  0
BLOCK
  5
653
330
652
100
AcDbEntity
  8
0
100
AcDbBlockBegin
  2
_D_8
 70
     0
 10
0.0
 20
0.0
 30
0.0
  3
_D_8
  1
_D_8
  0
INSERT
  5
655
330
652
100
AcDbEntity
  8
FORMAT
100
AcDbBlockReference
  2
_OPEN30
 10
55.5060796701
 20
157.4370906438
 30
-201.8297033568
 41
2.0
 42
2.0
 50
270.0
  0
INSERT
  5
656
330
652
100
AcDbEntity
  8
FORMAT
100
AcDbBlockReference
  2
_OPEN30
 10
55.5060796701
 20
211.5162161464
 30
-201.8297033568
 41
2.0
 42
2.0
 50
90.0
  0
LINE
  5
657
330
652
100
AcDbEntity
  8
FORMAT
100
AcDbLine
 10
78.10749888069999
 20
157.4370906438
 30
0.0
 11
54.5060796701
 21
157.4370906438
 31
0.0
  0
LINE
  5
658
330
652
100
AcDbEntity
  8
FORMAT
100
AcDbLine
 10
78.10749888069999
 20
211.5162161464
 30
0.0
 11
54.5060796701
 21
211.5162161464
 31
0.0
  0
LINE
  5
659
330
652
100
AcDbEntity
  8
FORMAT
100
AcDbLine
 10
55.5060796701
 20
157.4370906438
 30
0.0
 11
55.5060796701
 21
211.5162161464
 31
0.0
  0
MTEXT
  5
65A
330
652
100
AcDbEntity
  8
FORMAT
100
AcDbMText
 10
50.9943428138
 20
180.4030424001
 30
0.0
 40
3.5
 41
0.0
 71
     1
 72
     1
  1
54.1
  7
SLDTEXTSTYLE0
 11
0.0000000000000034
 21
1.0
 31
0.0
 73
     1
 44
1.0
1001
ACAD
1000
MTEXTBEGIN
1070
    73
1070
     1
1070
    44
1040
1.0
1070
    74
1070
     0
1000
MTEXTEND
  0
ENDBLK
  5
654
330
652
100
AcDbEntity
  8
0
100
AcDbBlockEnd
  0
BLOCK
  5
65D
330
65C
100
AcDbEntity
  8
0
100
AcDbBlockBegin
  2
_D_9
 70
     0
 10
0.0
 20
0.0
 30
0.0
  3
_D_9
  1
_D_9
  0
INSERT
  5
65F
330
65C
100
AcDbEntity
  8
FORMAT
100
AcDbBlockReference
  2
_OPEN30
 10
75.0132600652
 20
217.4845280774
 30
-201.8297033568
 41
2.0
 42
2.0
  0
INSERT
  5
660
330
65C
100
AcDbEntity
  8
FORMAT
100
AcDbBlockReference
  2
_OPEN30
 10
81.3632600652
 20
217.4845280774
 30
-201.8297033568
 41
2.0
 42
2.0
 50
180.0
  0
LINE
  5
661
330
65C
100
AcDbEntity
  8
FORMAT
100
AcDbLine
 10
75.0132600652
 20
189.4366533951
 30
0.0
 11
75.0132600652
 21
218.4845280774
 31
0.0
  0
LINE
  5
662
330
65C
100
AcDbEntity
  8
FORMAT
100
AcDbLine
 10
81.3632600652
 20
189.4366533951
 30
0.0
 11
81.3632600652
 21
218.4845280774
 31
0.0
  0
LINE
  5
663
330
65C
100
AcDbEntity
  8
FORMAT
100
AcDbLine
 10
75.0132600652
 20
217.4845280774
 30
0.0
 11
72.0132600652
 21
217.4845280774
 31
0.0
  0
LINE
  5
664
330
65C
100
AcDbEntity
  8
FORMAT
100
AcDbLine
 10
75.0132600652
 20
217.4845280774
 30
0.0
 11
81.3632600652
 21
217.4845280774
 31
0.0
  0
LINE
  5
665
330
65C
100
AcDbEntity
  8
FORMAT
100
AcDbLine
 10
81.3632600652
 20
217.4845280774
 30
0.0
 11
84.36326006520001
 21
217.4845280774
 31
0.0
  0
MTEXT
  5
666
330
65C
100
AcDbEntity
  8
FORMAT
100
AcDbMText
 10
75.1330517026
 20
221.9962649337
 30
0.0
 40
3.5
 41
0.0
 71
     1
 72
     1
  1
6.4
  7
SLDTEXTSTYLE0
 73
     1
 44
1.0
1001
ACAD
1000
MTEXTBEGIN
1070
    73
1070
     1
1070
    44
1040
1.0
1070
    74
1070
     0
1000
MTEXTEND
  0
ENDBLK
  5
65E
330
65C
100
AcDbEntity
  8
0
100
AcDbBlockEnd
  0
BLOCK
  5
669
330
668
100
AcDbEntity
  8
0
100
AcDbBlockBegin
  2
_D_10
 70
     0
 10
0.0
 20
0.0
 30
0.0
  3
_D_10
  1
_D_10
  0
INSERT
  5
66B
330
668
100
AcDbEntity
  8
FORMAT
100
AcDbBlockReference
  2
_OPEN30
 10
61.5454519913
 20
188.4366533951
 30
-201.8297033568
 41
2.0
 42
2.0
 50
270.0
  0
INSERT
  5
66C
330
668
100
AcDbEntity
  8
FORMAT
100
AcDbBlockReference
  2
_OPEN30
 10
61.5454519913
 20
180.5166533951
 30
-201.8297033568
 41
2.0
 42
2.0
 50
90.0
  0
LINE
  5
66D
330
668
100
AcDbEntity
  8
FORMAT
100
AcDbLine
 10
74.0132600652
 20
188.4366533951
 30
0.0
 11
60.5454519913
 21
188.4366533951
 31
0.0
  0
LINE
  5
66E
330
668
100
AcDbEntity
  8
FORMAT
100
AcDbLine
 10
74.0132600652
 20
180.5166533951
 30
0.0
 11
60.5454519913
 21
180.5166533951
 31
0.0
  0
LINE
  5
66F
330
668
100
AcDbEntity
  8
FORMAT
100
AcDbLine
 10
61.5454519913
 20
188.4366533951
 30
0.0
 11
61.5454519913
 21
191.4366533951
 31
0.0
  0
LINE
  5
670
330
668
100
AcDbEntity
  8
FORMAT
100
AcDbLine
 10
61.5454519913
 20
188.4366533951
 30
0.0
 11
61.5454519913
 21
180.5166533951
 31
0.0
  0
LINE
  5
671
330
668
100
AcDbEntity
  8
FORMAT
100
AcDbLine
 10
61.5454519913
 20
180.5166533951
 30
0.0
 11
61.5454519913
 21
177.5166533951
 31
0.0
  0
MTEXT
  5
672
330
668
100
AcDbEntity
  8
FORMAT
100
AcDbMText
 10
57.033715135
 20
181.4214450324
 30
0.0
 40
3.5
 41
0.0
 71
     1
 72
     1
  1
7.9
  7
SLDTEXTSTYLE0
 11
-0.0000000000000035
 21
1.0
 31
0.0
 73
     1
 44
1.0
1001
ACAD
1000
MTEXTBEGIN
1070
    73
1070
     1
1070
    44
1040
1.0
1070
    74
1070
     0
1000
MTEXTEND
  0
ENDBLK
  5
66A
330
668
100
AcDbEntity
  8
0
100
AcDbBlockEnd
  0
BLOCK
  5
676
330
675
100
AcDbEntity
  8
0
100
AcDbBlockBegin
  2
_D_11
 70
     0
 10
0.0
 20
0.0
 30
0.0
  3
_D_11
  1
_D_11
  0
INSERT
  5
678
330
675
100
AcDbEntity
  8
FORMAT
100
AcDbBlockReference
  2
_OPEN30
 10
80.49171451120001
 20
187.6863812129
 30
-201.8297033568
 41
2.0
 42
2.0
 50
40.723597799
  0
INSERT
  5
679
330
675
100
AcDbEntity
  8
FORMAT
100
AcDbBlockReference
  2
_OPEN30
 10
82.2348056192
 20
189.1869255772
 30
-201.8297033568
 41
2.0
 42
2.0
 50
220.723597799
  0
LINE
  5
67A
330
675
100
AcDbEntity
  8
FORMAT
100
AcDbLine
 10
82.2348056192
 20
189.1869255772
 30
0.0
 11
100.2955523916
 21
204.7345648605
 31
0.0
  0
LINE
  5
67B
330
675
100
AcDbEntity
  8
FORMAT
100
AcDbLine
 10
80.49171451120001
 20
187.6863812129
 30
0.0
 11
78.2181174138
 21
185.7291494334
 31
0.0
  0
LINE
  5
67C
330
675
100
AcDbEntity
  8
FORMAT
100
AcDbLine
 10
82.2348056192
 20
189.1869255772
 30
0.0
 11
80.49171451120001
 21
187.6863812129
 31
0.0
  0
MTEXT
  5
67D
330
675
100
AcDbEntity
  8
FORMAT
100
AcDbMText
 10
89.80124828900001
 20
201.6275124718
 30
0.0
 40
3.5
 41
0.0
 71
     1
 72
     1
  1
%%c
  7
SLDTEXTSTYLE0
 11
0.7578656991204586
 21
0.6524105931824368
 31
0.0
 73
     1
 44
1.0
1001
ACAD
1000
MTEXTBEGIN
1070
    73
1070
     1
1070
    44
1040
1.0
1070
    74
1070
     0
1000
MTEXTEND
  0
MTEXT
  5
67E
330
675
100
AcDbEntity
  8
FORMAT
100
AcDbMText
 10
92.7341358844
 20
204.1522961347
 30
0.0
 40
3.5
 41
0.0
 71
     1
 72
     1
  1
2.3
  7
SLDTEXTSTYLE0
 11
0.7578656991204586
 21
0.6524105931824368
 31
0.0
 73
     1
 44
1.0
1001
ACAD
1000
MTEXTBEGIN
1070
    73
1070
     1
1070
    44
1040
1.0
1070
    74
1070
     0
1000
MTEXTEND
  0
ENDBLK
  5
677
330
675
100
AcDbEntity
  8
0
100
AcDbBlockEnd
  0
ENDSEC
  0
SECTION
  2
ENTITIES
  0
INSERT
  5
E0
330
1F
100
AcDbEntity
  8
0
  6
Continuous
 62
     7
100
AcDbBlockReference
  2
SW_BROKEN_VIEW_0
 10
0.0
 20
0.0
 30
0.0
  0
SPLINE
  5
1DB
330
1F
100
AcDbEntity
  8
0
370
    15
100
AcDbSpline
210
0.0
220
0.0
230
1.0
 70
     8
 71
     3
 72
    11
 73
     7
 74
     0
 42
0.000000001
 43
0.0000000001
 40
0.0
 40
0.0
 40
0.0
 40
0.0
 40
0.1324246517207199
 40
0.4623496568882322
 40
0.7864243701154259
 40
1.0
 40
1.0
 40
1.0
 40
1.0
 10
521.1072864268439
 20
264.3377410983335
 30
0.0
 10
521.0758827079672
 20
264.3594210713581
 30
0.0
 10
520.9662392355543
 20
264.4351148939135
 30
0.0
 10
520.7312517607753
 20
264.456454161079
 30
0.0
 10
520.4872219949108
 20
264.4141795875448
 30
0.0
 10
520.3487495669157
 20
264.3428832790217
 30
0.0
 10
520.2937429321954
 20
264.3145616119822
 30
0.0
  0
SPLINE
  5
1DC
330
1F
100
AcDbEntity
  8
0
370
    15
100
AcDbSpline
210
0.0
220
0.0
230
1.0
 70
     8
 71
     3
 72
    14
 73
    10
 74
     0
 42
0.000000001
 43
0.0000000001
 40
0.0
 40
0.0
 40
0.0
 40
0.0
 40
0.138086347263395
 40
0.3150672596893276
 40
0.4963490644190635
 40
0.6918573948458397
 40
0.8334606195203983
 40
0.9619806287853048
 40
1.0
 40
1.0
 40
1.0
 40
1.0
 10
520.2937429321954
 20
264.3145616119822
 30
0.0
 10
520.2058509545998
 20
264.2537404855626
 30
0.0
 10
520.0053106037358
 20
264.114966841303
 30
0.0
 10
519.7590827458246
 20
263.779723729121
 30
0.0
 10
519.5901912808237
 20
263.3562104232168
 30
0.0
 10
519.566194673931
 20
262.948043866301
 30
0.0
 10
519.6850069590834
 20
262.6209018283388
 30
0.0
 10
519.8328634201772
 20
262.4258515661397
 30
0.0
 10
519.9483522824941
 20
262.3763351146652
 30
0.0
 10
519.9747173014761
 20
262.3650309754015
 30
0.0
  0
LINE
  5
1DD
330
1F
100
AcDbEntity
  8
0
370
    15
100
AcDbLine
 10
525.7148674925
 20
261.6934171479
 30
0.0
 11
521.1186693686999
 21
264.346745847
 31
0.0
  0
LINE
  5
1DE
330
1F
100
AcDbEntity
  8
0
370
    15
100
AcDbLine
 10
519.9687627419999
 20
262.3548333703
 30
0.0
 11
524.5649608657999
 21
259.7015046711
 31
0.0
  0
SPLINE
  5
1DF
330
1F
100
AcDbEntity
  8
0
370
    15
100
AcDbSpline
210
0.0
220
0.0
230
1.0
 70
     8
 71
     3
 72
    11
 73
     7
 74
     0
 42
0.000000001
 43
0.0000000001
 40
0.0
 40
0.0
 40
0.0
 40
0.0
 40
0.1324246453410701
 40
0.4623496346142156
 40
0.7864243561990925
 40
1.0
 40
1.0
 40
1.0
 40
1.0
 10
521.1072864268439
 20
259.1527068154054
 30
0.0
 10
521.0758827080684
 20
259.1743867904124
 30
0.0
 10
520.9662392360096
 20
259.250080619889
 30
0.0
 10
520.731251748365
 20
259.2714197761696
 30
0.0
 10
520.487221990792
 20
259.229145614134
 30
0.0
 10
520.3487495666787
 20
259.1578490845712
 30
0.0
 10
520.2937429321954
 20
259.129527329054
 30
0.0
  0
SPLINE
  5
1E0
330
1F
100
AcDbEntity
  8
0
370
    15
100
AcDbSpline
210
0.0
220
0.0
230
1.0
 70
     8
 71
     3
 72
    14
 73
    10
 74
     0
 42
0.000000001
 43
0.0000000001
 40
0.0
 40
0.0
 40
0.0
 40
0.0
 40
0.1380863159533173
 40
0.3150672792228141
 40
0.4963490007847352
 40
0.6918573268256722
 40
0.8334605483236451
 40
0.9619806296381934
 40
1.0
 40
1.0
 40
1.0
 40
1.0
 10
520.2937429321954
 20
259.129527329054
 30
0.0
 10
520.2058509446651
 20
259.068706282218
 30
0.0
 10
520.0053105132293
 20
258.929932779472
 30
0.0
 10
519.7590828599065
 20
258.5946894877691
 30
0.0
 10
519.5901912367749
 20
258.1711762923554
 30
0.0
 10
519.5661946606046
 20
257.7630097566289
 30
0.0
 10
519.6850070323543
 20
257.4358677158946
 30
0.0
 10
519.8328633606043
 20
257.2408173023541
 30
0.0
 10
519.9483522810798
 20
257.191300831154
 30
0.0
 10
519.9747173014761
 20
257.1799966924734
 30
0.0
  0
LINE
  5
1E1
330
1F
100
AcDbEntity
  8
0
370
    15
100
AcDbLine
 10
525.7148674925
 20
256.5083828649
 30
0.0
 11
521.1186693686999
 21
259.1617115641
 31
0.0
  0
LINE
  5
1E2
330
1F
100
AcDbEntity
  8
0
370
    15
100
AcDbLine
 10
519.9687627419999
 20
257.1697990873
 30
0.0
 11
524.5649608657999
 21
254.5164703881
 31
0.0
  0
SPLINE
  5
1E3
330
1F
100
AcDbEntity
  8
0
370
    15
100
AcDbSpline
210
0.0
220
0.0
230
1.0
 70
     8
 71
     3
 72
    11
 73
     7
 74
     0
 42
0.000000001
 43
0.0000000001
 40
0.0
 40
0.0
 40
0.0
 40
0.0
 40
0.1324246806168143
 40
0.4623499595077852
 40
0.7864242993060591
 40
1.0
 40
1.0
 40
1.0
 40
1.0
 10
515.5070007172651
 20
255.9197306910972
 30
0.0
 10
515.4755969976044
 20
255.9414106692967
 30
0.0
 10
515.3659534746153
 20
256.0171045429456
 30
0.0
 10
515.1309660952161
 20
256.0384434655173
 30
0.0
 10
514.8869363092647
 20
255.9961695638611
 30
0.0
 10
514.7484640171811
 20
255.9248730669813
 30
0.0
 10
514.6934573872527
 20
255.8965512997883
 30
0.0
  0
SPLINE
  5
1E4
330
1F
100
AcDbEntity
  8
0
370
    15
100
AcDbSpline
210
0.0
220
0.0
230
1.0
 70
     8
 71
     3
 72
    14
 73
    10
 74
     0
 42
0.000000001
 43
0.0000000001
 40
0.0
 40
0.0
 40
0.0
 40
0.0
 40
0.1380864028124984
 40
0.3150673620828718
 40
0.4963490271336147
 40
0.6918573690495626
 40
0.8334605775791102
 40
0.9619806925706168
 40
1.0
 40
1.0
 40
1.0
 40
1.0
 10
514.6934573872527
 20
255.8965512997883
 30
0.0
 10
514.6055653451312
 20
255.8357302278504
 30
0.0
 10
514.4050248625404
 20
255.6969567186256
 30
0.0
 10
514.1587971222121
 20
255.3617134105895
 30
0.0
 10
513.9899057561414
 20
254.9382001832864
 30
0.0
 10
513.9659090032218
 20
254.530033757124
 30
0.0
 10
514.0847210694018
 20
254.2028912970967
 30
0.0
 10
514.2325776414828
 20
254.0078413931878
 30
0.0
 10
514.3480664674497
 20
253.9583246558373
 30
0.0
 10
514.3744314272608
 20
253.9470204731228
 30
0.0
  0
LINE
  5
1E5
330
1F
100
AcDbEntity
  8
0
370
    15
100
AcDbLine
 10
520.1145816182999
 20
253.2754066456
 30
0.0
 11
515.5183834944
 21
255.9287353448
 31
0.0
  0
LINE
  5
1E6
330
1F
100
AcDbEntity
  8
0
370
    15
100
AcDbLine
 10
514.3684768678
 20
253.936822868
 30
0.0
 11
518.9646749916001
 21
251.2834941688
 31
0.0
  0
SPLINE
  5
1E7
330
1F
100
AcDbEntity
  8
0
370
    15
100
AcDbSpline
210
0.0
220
0.0
230
1.0
 70
     8
 71
     3
 72
    11
 73
     7
 74
     0
 42
0.000000001
 43
0.0000000001
 40
0.0
 40
0.0
 40
0.0
 40
0.0
 40
0.1324246869964721
 40
0.4623499817818395
 40
0.786424313222386
 40
1.0
 40
1.0
 40
1.0
 40
1.0
 10
515.5070007172651
 20
261.1047649740253
 30
0.0
 10
515.4755969975029
 20
261.1264449502424
 30
0.0
 10
515.3659534741601
 20
261.2021388169701
 30
0.0
 10
515.1309661076266
 20
261.223477850427
 30
0.0
 10
514.8869363133838
 20
261.1812035372719
 30
0.0
 10
514.7484640174179
 20
261.1099072614317
 30
0.0
 10
514.6934573872527
 20
261.0815855827165
 30
0.0
  0
SPLINE
  5
1E8
330
1F
100
AcDbEntity
  8
0
370
    15
100
AcDbSpline
210
0.0
220
0.0
230
1.0
 70
     8
 71
     3
 72
    14
 73
    10
 74
     0
 42
0.000000001
 43
0.0000000001
 40
0.0
 40
0.0
 40
0.0
 40
0.0
 40
0.1380864341225554
 40
0.3150673425493611
 40
0.4963490907679338
 40
0.6918574370697161
 40
0.8334606487758456
 40
0.9619806917177303
 40
1.0
 40
1.0
 40
1.0
 40
1.0
 10
514.6934573872527
 20
261.0815855827165
 30
0.0
 10
514.6055653550661
 20
261.0207644311951
 30
0.0
 10
514.4050249530471
 20
260.8819907804565
 30
0.0
 10
514.1587970081301
 20
260.5467476519414
 30
0.0
 10
513.9899058001901
 20
260.1232343141477
 30
0.0
 10
513.965909016548
 20
259.7150678667962
 30
0.0
 10
514.0847209961312
 20
259.3879254095409
 30
0.0
 10
514.2325777010559
 20
259.1928756569732
 30
0.0
 10
514.3480664688642
 20
259.1433589393485
 30
0.0
 10
514.3744314272608
 20
259.1320547560509
 30
0.0
  0
LINE
  5
1E9
330
1F
100
AcDbEntity
  8
0
370
    15
100
AcDbLine
 10
519.8122412005
 20
258.6349783366
 30
0.0
 11
515.5183834944
 21
261.1137696277
 31
0.0
  0
LINE
  5
1EA
330
1F
100
AcDbEntity
  8
0
370
    15
100
AcDbLine
 10
514.3684768678
 20
259.1218571509
 30
0.0
 11
518.9646749916001
 21
256.4685284517
 31
0.0
  0
LINE
  5
1EB
330
1F
100
AcDbEntity
  8
0
370
    15
100
AcDbLine
 10
557.1810430826999
 20
260.1618058735
 30
0.0
 11
547.3742616876998
 21
265.6154183009
 31
0.0
  0
LINE
  5
1EC
330
1F
100
AcDbEntity
  8
0
370
    15
100
AcDbLine
 10
540.6494896634
 20
269.3551088756
 30
0.0
 11
537.7601585618
 21
270.9618840483
 31
0.0
  0
SPLINE
  5
1ED
330
1F
100
AcDbEntity
  8
0
370
    15
100
AcDbSpline
210
0.0
220
0.0
230
1.0
 70
     8
 71
     3
 72
    13
 73
     9
 74
     0
 42
0.000000001
 43
0.0000000001
 40
0.0
 40
0.0
 40
0.0
 40
0.0
 40
0.1591848514431235
 40
0.3228367886694121
 40
0.5018057337138568
 40
0.6893613733217691
 40
0.8563752874848418
 40
1.0
 40
1.0
 40
1.0
 40
1.0
 10
539.9258941289009
 20
265.1850254514416
 30
0.0
 10
539.9245633758222
 20
265.1624010831394
 30
0.0
 10
539.9218645257331
 20
265.1165174557582
 30
0.0
 10
539.8934957368346
 20
265.0181735092036
 30
0.0
 10
539.8431913630107
 20
264.9125821625516
 30
0.0
 10
539.7757334831132
 20
264.8160473487949
 30
0.0
 10
539.7051344820687
 20
264.74486247918
 30
0.0
 10
539.6686060548192
 20
264.721091391259
 30
0.0
 10
539.6517170255365
 20
264.7101007565612
 30
0.0
  0
LINE
  5
1EE
330
1F
100
AcDbEntity
  8
0
370
    15
100
AcDbLine
 10
539.9258941289
 20
267.9529364195
 30
0.0
 11
539.9258941289
 21
265.1850254514
 31
0.0
  0
LINE
  5
1EF
330
1F
100
AcDbEntity
  8
0
370
    15
100
AcDbLine
 10
539.6517170255
 20
264.7101007566
 30
0.0
 11
538.3154248517
 21
263.9386757049
 31
0.0
  0
SPLINE
  5
1F0
330
1F
100
AcDbEntity
  8
0
370
    15
100
AcDbSpline
210
0.0
220
0.0
230
1.0
 70
     8
 71
     3
 72
     9
 73
     5
 74
     0
 42
0.000000001
 43
0.0000000001
 40
0.0
 40
0.0
 40
0.0
 40
0.0
 40
0.605633663258365
 40
1.0
 40
1.0
 40
1.0
 40
1.0
 10
538.3154248517183
 20
263.93867570486
 30
0.0
 10
538.3004418102556
 20
263.9318166726284
 30
0.0
 10
538.2757023640001
 20
263.9204912912178
 30
0.0
 10
538.2772357024795
 20
263.9213182803815
 30
0.0
 10
538.2778403995586
 20
263.9216444170684
 30
0.0
  0
SPLINE
  5
1F1
330
1F
100
AcDbEntity
  8
0
370
    15
100
AcDbSpline
210
0.0
220
0.0
230
1.0
 70
     8
 71
     3
 72
    11
 73
     7
 74
     0
 42
0.000000001
 43
0.0000000001
 40
0.0
 40
0.0
 40
0.0
 40
0.0
 40
0.1882818831576933
 40
0.4799779734059166
 40
0.7842040521923709
 40
1.0
 40
1.0
 40
1.0
 40
1.0
 10
542.6352173575488
 20
269.1885330269593
 30
0.0
 10
542.4972841836586
 20
269.2547780665616
 30
0.0
 10
542.1456577597086
 20
269.4236533684403
 30
0.0
 10
541.4740827565605
 20
269.5147744721133
 30
0.0
 10
540.7714466026378
 20
269.4379683472221
 30
0.0
 10
540.389322142836
 20
269.2552649672269
 30
0.0
 10
540.2307501867144
 20
269.1794476998085
 30
0.0
  0
LINE
  5
1F2
330
1F
100
AcDbEntity
  8
0
370
    15
100
AcDbLine
 10
531.6667331573
 20
253.172061531
 30
0.0
 11
536.6675541976999
 21
250.1969392041
 31
0.0
  0
SPLINE
  5
1F3
330
1F
100
AcDbEntity
  8
0
370
    15
100
AcDbSpline
210
0.0
220
0.0
230
1.0
 70
     8
 71
     3
 72
     9
 73
     5
 74
     0
 42
0.000000001
 43
0.0000000001
 40
0.0
 40
0.0
 40
0.0
 40
0.0
 40
0.7999516952242903
 40
1.0
 40
1.0
 40
1.0
 40
1.0
 10
531.603219832272
 20
253.2300553128664
 30
0.0
 10
531.61056488919
 20
253.2202394131276
 30
0.0
 10
531.6197467647481
 20
253.2079687975427
 30
0.0
 10
531.6327019259518
 20
253.2002211427777
 30
0.0
 10
531.6352935839887
 20
253.198671237576
 30
0.0
  0
SPLINE
  5
1F4
330
1F
100
AcDbEntity
  8
0
370
    15
100
AcDbSpline
210
0.0
220
0.0
230
1.0
 70
     8
 71
     3
 72
     9
 73
     5
 74
     0
 42
0.000000001
 43
0.0000000001
 40
0.0
 40
0.0
 40
0.0
 40
0.0
 40
0.5669793785781162
 40
1.0
 40
1.0
 40
1.0
 40
1.0
 10
539.9208444096138
 20
267.9960179461909
 30
0.0
 10
539.9217967385506
 20
267.9946922825913
 30
0.0
 10
539.9234763921199
 20
267.9923541665158
 30
0.0
 10
539.9251635533127
 20
267.9648474116314
 30
0.0
 10
539.9258941289009
 20
267.952936419538
 30
0.0
  0
LINE
  5
1F5
330
1F
100
AcDbEntity
  8
0
370
    15
100
AcDbLine
 10
540.2307501866999
 20
269.1794476998
 30
0.0
 11
538.1787478904
 21
267.9948519889
 31
0.0
  0
LINE
  5
1F6
330
1F
100
AcDbEntity
  8
0
370
    15
100
AcDbLine
 10
546.2818641065999
 20
267.1199551771
 30
0.0
 11
542.6352173575
 21
269.188533027
 31
0.0
  0
SPLINE
  5
1F7
330
1F
100
AcDbEntity
  8
0
370
    15
100
AcDbSpline
210
0.0
220
0.0
230
1.0
 70
     8
 71
     3
 72
    13
 73
     9
 74
     0
 42
0.000000001
 43
0.0000000001
 40
0.0
 40
0.0
 40
0.0
 40
0.0
 40
0.1312085902450251
 40
0.3201814029555821
 40
0.5116428146650288
 40
0.709978392709237
 40
0.9164112799892567
 40
1.0
 40
1.0
 40
1.0
 40
1.0
 10
537.5829389663791
 20
271.017697125725
 30
0.0
 10
537.3135853917317
 20
271.1547463079926
 30
0.0
 10
536.6562960689773
 20
271.4891801996333
 30
0.0
 10
535.4729901361986
 20
271.689291322168
 30
0.0
 10
534.1086684853656
 20
271.6668493428076
 30
0.0
 10
532.6890110219299
 20
271.3502251094642
 30
0.0
 10
531.5369195443898
 20
270.8860580012258
 30
0.0
 10
530.8668071909433
 20
270.5146733337793
 30
0.0
 10
530.6736704298197
 20
270.4076345194184
 30
0.0
  0
SPLINE
  5
1F8
330
1F
100
AcDbEntity
  8
0
370
    15
100
AcDbSpline
210
0.0
220
0.0
230
1.0
 70
     8
 71
     3
 72
    12
 73
     8
 74
     0
 42
0.000000001
 43
0.0000000001
 40
0.0
 40
0.0
 40
0.0
 40
0.0
 40
0.1777787427796088
 40
0.3613881110339846
 40
0.5695297793725843
 40
0.8149782344577916
 40
1.0
 40
1.0
 40
1.0
 40
1.0
 10
547.7690314613404
 20
262.4363349354311
 30
0.0
 10
547.875979856857
 20
262.5177859006474
 30
0.0
 10
548.0933842440716
 20
262.6833591857386
 30
0.0
 10
548.2686637015403
 20
263.0888215842566
 30
0.0
 10
548.3119842341885
 20
263.5870111334148
 30
0.0
 10
548.2027134919509
 20
264.1300389127906
 30
0.0
 10
548.0269354627629
 20
264.4738325620762
 30
0.0
 10
547.9513837526901
 20
264.6215995966465
 30
0.0
  0
SPLINE
  5
1F9
330
1F
100
AcDbEntity
  8
0
370
    15
100
AcDbSpline
210
0.0
220
0.0
230
1.0
 70
     8
 71
     3
 72
    10
 73
     6
 74
     0
 42
0.000000001
 43
0.0000000001
 40
0.0
 40
0.0
 40
0.0
 40
0.0
 40
0.1710569143017502
 40
0.5959588456487835
 40
1.0
 40
1.0
 40
1.0
 40
1.0
 10
533.580459546275
 20
263.8914581945177
 30
0.0
 10
533.5353076197769
 20
263.9030013771785
 30
0.0
 10
533.3779992168721
 20
263.9432175931772
 30
0.0
 10
533.2058599955965
 20
264.1995018332063
 30
0.0
 10
533.1658787013515
 20
264.575323543427
 30
0.0
 10
533.1463911290947
 20
264.7585055256978
 30
0.0
  0
SPLINE
  5
1FA
330
1F
100
AcDbEntity
  8
0
370
    15
100
AcDbSpline
210
0.0
220
0.0
230
1.0
 70
     8
 71
     3
 72
    12
 73
     8
 74
     0
 42
0.000000001
 43
0.0000000001
 40
0.0
 40
0.0
 40
0.0
 40
0.0
 40
0.1847884481097878
 40
0.4158630370335522
 40
0.6430276979764916
 40
0.86398059136023
 40
1.0
 40
1.0
 40
1.0
 40
1.0
 10
535.6117506178598
 20
265.3710276721217
 30
0.0
 10
535.5075852374621
 20
265.1800510003316
 30
0.0
 10
535.2731629459767
 20
264.7502614786077
 30
0.0
 10
534.7630338778608
 20
264.2250892134054
 30
0.0
 10
534.2181602690926
 20
263.8857082621646
 30
0.0
 10
533.7951627852074
 20
263.7903612624298
 30
0.0
 10
533.639697474542
 20
263.8635649366385
 30
0.0
 10
533.580459546275
 20
263.8914581945177
 30
0.0
  0
SPLINE
  5
1FB
330
1F
100
AcDbEntity
  8
0
370
    15
100
AcDbSpline
210
0.0
220
0.0
230
1.0
 70
     8
 71
     3
 72
    11
 73
     7
 74
     0
 42
0.000000001
 43
0.0000000001
 40
0.0
 40
0.0
 40
0.0
 40
0.0
 40
0.0093626939092636
 40
0.4616346216174853
 40
0.9096951389107696
 40
1.0
 40
1.0
 40
1.0
 40
1.0
 10
535.9916109438654
 20
266.8982095635092
 30
0.0
 10
535.9924756104532
 20
266.8948419778484
 30
0.0
 10
536.0351086428826
 20
266.7288006496443
 30
0.0
 10
535.9519482293467
 20
266.2310452906813
 30
0.0
 10
535.8079058198986
 20
265.6883052518713
 30
0.0
 10
535.6399271835056
 20
265.4166027701096
 30
0.0
 10
535.6117506178598
 20
265.3710276721217
 30
0.0
  0
SPLINE
  5
1FC
330
1F
100
AcDbEntity
  8
0
370
    15
100
AcDbSpline
210
0.0
220
0.0
230
1.0
 70
     8
 71
     3
 72
     9
 73
     5
 74
     0
 42
0.000000001
 43
0.0000000001
 40
0.0
 40
0.0
 40
0.0
 40
0.0
 40
0.5063430606464942
 40
1.0
 40
1.0
 40
1.0
 40
1.0
 10
535.6481892025755
 20
267.5892819939981
 30
0.0
 10
535.7345632086256
 20
267.5275625283062
 30
0.0
 10
535.9051471718772
 20
267.4056699410687
 30
0.0
 10
535.9630344749856
 20
267.0659263465461
 30
0.0
 10
535.9916109438654
 20
266.8982095635092
 30
0.0
  0
SPLINE
  5
1FD
330
1F
100
AcDbEntity
  8
0
370
    15
100
AcDbSpline
210
0.0
220
0.0
230
1.0
 70
     8
 71
     3
 72
    11
 73
     7
 74
     0
 42
0.000000001
 43
0.0000000001
 40
0.0
 40
0.0
 40
0.0
 40
0.0
 40
0.088515343602241
 40
0.4843067305041721
 40
0.8463619055304917
 40
1.0
 40
1.0
 40
1.0
 40
1.0
 10
536.8925907099278
 20
249.2253321854144
 30
0.0
 10
536.8922237042498
 20
249.2181587243304
 30
0.0
 10
536.890215653298
 20
249.1789095349514
 30
0.0
 10
536.9219824810438
 20
249.114417672921
 30
0.0
 10
536.9679596797596
 20
249.0550169966135
 30
0.0
 10
537.0052701480804
 20
249.0356838092848
 30
0.0
 10
537.016385882172
 20
249.0299239628085
 30
0.0
  0
LINE
  5
1FE
330
1F
100
AcDbEntity
  8
0
370
    15
100
AcDbLine
 10
547.9513837526999
 20
264.6215995966
 30
0.0
 11
546.8233114984999
 21
266.5641590041
 31
0.0
  0
LINE
  5
1FF
330
1F
100
AcDbEntity
  8
0
370
    15
100
AcDbLine
 10
536.8542548585
 20
249.6709808562
 30
0.0
 11
536.8895923568
 21
249.2249592106
 31
0.0
  0
LINE
  5
200
330
1F
100
AcDbEntity
  8
0
370
    15
100
AcDbLine
 10
537.0144688591
 20
249.0279298208
 30
0.0
 11
541.629940605
 21
246.2444611724
 31
0.0
  0
SPLINE
  5
201
330
1F
100
AcDbEntity
  8
0
370
    15
100
AcDbSpline
210
0.0
220
0.0
230
1.0
 70
     8
 71
     3
 72
     9
 73
     5
 74
     0
 42
0.000000001
 43
0.0000000001
 40
0.0
 40
0.0
 40
0.0
 40
0.0
 40
0.5191491068296176
 40
1.0
 40
1.0
 40
1.0
 40
1.0
 10
546.8233114984948
 20
266.5641590040934
 30
0.0
 10
546.7520387242808
 20
266.6748055269565
 30
0.0
 10
546.614751048589
 20
266.8879360542127
 30
0.0
 10
546.407158829289
 20
267.0250024340962
 30
0.0
 10
546.3073379252233
 20
267.0909109252868
 30
0.0
  0
SPLINE
  5
202
330
1F
100
AcDbEntity
  8
0
370
    15
100
AcDbSpline
210
0.0
220
0.0
230
1.0
 70
     8
 71
     3
 72
     9
 73
     5
 74
     0
 42
0.000000001
 43
0.0000000001
 40
0.0
 40
0.0
 40
0.0
 40
0.0
 40
0.9956860626658658
 40
1.0
 40
1.0
 40
1.0
 40
1.0
 10
536.6661251561667
 20
250.1937356820659
 30
0.0
 10
536.6901855339559
 20
250.1801651101332
 30
0.0
 10
536.7143501564124
 20
250.1665357419602
 30
0.0
 10
536.7208380216044
 20
250.1449578069576
 30
0.0
 10
536.7208660098483
 20
250.1448647210982
 30
0.0
  0
SPLINE
  5
203
330
1F
100
AcDbEntity
  8
0
370
    15
100
AcDbSpline
210
0.0
220
0.0
230
1.0
 70
     8
 71
     3
 72
    23
 73
    19
 74
     0
 42
0.000000001
 43
0.0000000001
 40
0.0
 40
0.0
 40
0.0
 40
0.0
 40
0.0364438583659981
 40
0.1052783283847819
 40
0.1740317405482427
 40
0.2426693813900294
 40
0.3112233136500431
 40
0.3797497355761599
 40
0.4483093628575445
 40
0.5169523809521856
 40
0.5857481901158815
 40
0.6547592913605601
 40
0.7240152074790429
 40
0.793429678365235
 40
0.8625448024741288
 40
0.9306273622485186
 40
0.9970723967468121
 40
1.0
 40
1.0
 40
1.0
 40
1.0
 10
551.3068497791461
 20
238.7456593186056
 30
0.0
 10
551.5626062763561
 20
238.900926589449
 30
0.0
 10
552.3014308055653
 20
239.3494597431864
 30
0.0
 10
553.500352766907
 20
240.2836847147556
 30
0.0
 10
554.8561180835349
 20
241.5974577024427
 30
0.0
 10
556.1132552744494
 20
243.0999584026656
 30
0.0
 10
557.2421560252299
 20
244.748814051928
 30
0.0
 10
558.2160264287345
 20
246.5048950033573
 30
0.0
 10
559.0113673454186
 20
248.3254262382244
 30
0.0
 10
559.6080551127807
 20
250.1672140179652
 30
0.0
 10
559.9902137290546
 20
251.9869778726475
 30
0.0
 10
560.1452042272846
 20
253.7424781929429
 30
0.0
 10
560.0646207356366
 20
255.3934370568657
 30
0.0
 10
559.7414988495631
 20
256.8947620899858
 30
0.0
 10
559.1832763696332
 20
258.214632438514
 30
0.0
 10
558.3805522781159
 20
259.265497290654
 30
0.0
 10
557.7378678057916
 20
259.8866726121909
 30
0.0
 10
557.3382283465088
 20
260.0651344028779
 30
0.0
 10
557.3213631123327
 20
260.0726656909466
 30
0.0
  0
SPLINE
  5
204
330
1F
100
AcDbEntity
  8
0
370
    15
100
AcDbSpline
210
0.0
220
0.0
230
1.0
 70
     8
 71
     3
 72
    11
 73
     7
 74
     0
 42
0.000000001
 43
0.0000000001
 40
0.0
 40
0.0
 40
0.0
 40
0.0
 40
0.0670760468712671
 40
0.4083313972424416
 40
0.7031041245799404
 40
1.0
 40
1.0
 40
1.0
 40
1.0
 10
506.9451659397582
 20
244.0368372894777
 30
0.0
 10
506.9729825623028
 20
243.9375681812796
 30
0.0
 10
507.1423187244652
 20
243.3332586617969
 30
0.0
 10
507.6201148954962
 20
242.3995742469292
 30
0.0
 10
508.4407095647733
 20
241.2993121558179
 30
0.0
 10
509.1368595858681
 20
240.7993630022964
 30
0.0
 10
509.486183631412
 20
240.5484914148765
 30
0.0
  0
LINE
  5
205
330
1F
100
AcDbEntity
  8
0
370
    15
100
AcDbLine
 10
530.6736704298
 20
270.4076345194
 30
0.0
 11
517.6894200155
 21
262.9119863046
 31
0.0
  0
LINE
  5
206
330
1F
100
AcDbEntity
  8
0
370
    15
100
AcDbLine
 10
509.5966571068
 20
240.4694704791999
 30
0.0
 11
528.6613125128
 21
229.0523184594
 31
0.0
  0
LINE
  5
207
330
1F
100
AcDbEntity
  8
0
370
    15
100
AcDbLine
 10
535.4676584453
 20
229.6018887922
 30
0.0
 11
551.3068497791
 21
238.7456593186
 31
0.0
  0
LINE
  5
208
330
1F
100
AcDbEntity
  8
0
370
    15
100
AcDbLine
 10
515.9745915194
 20
261.2928947653
 30
0.0
 11
515.7491941248999
 21
260.980525364
 31
0.0
  0
SPLINE
  5
209
330
1F
100
AcDbEntity
  8
0
370
    15
100
AcDbSpline
210
0.0
220
0.0
230
1.0
 70
     8
 71
     3
 72
    13
 73
     9
 74
     0
 42
0.000000001
 43
0.0000000001
 40
0.0
 40
0.0
 40
0.0
 40
0.0
 40
0.1591845349899878
 40
0.3228363900806521
 40
0.5018036211595635
 40
0.6893615069581878
 40
0.8563725991700426
 40
1.0
 40
1.0
 40
1.0
 40
1.0
 10
506.7625871090981
 20
246.0402558167896
 30
0.0
 10
506.7612558210253
 20
246.0176311076065
 30
0.0
 10
506.7585558839015
 20
245.9717467543321
 30
0.0
 10
506.7301872938845
 20
245.8734036083072
 30
0.0
 10
506.6798844089688
 20
245.7678114854267
 30
0.0
 10
506.6124254688863
 20
245.6712780768288
 30
0.0
 10
506.5418269612691
 20
245.6000921196228
 30
0.0
 10
506.5052981970966
 20
245.5763211513799
 30
0.0
 10
506.4884086886447
 20
245.5653303615699
 30
0.0
  0
LINE
  5
20A
330
1F
100
AcDbEntity
  8
0
370
    15
100
AcDbLine
 10
506.7625871091
 20
248.8081667849
 30
0.0
 11
506.7625871091
 21
246.0402558168
 31
0.0
  0
LINE
  5
20B
330
1F
100
AcDbEntity
  8
0
370
    15
100
AcDbLine
 10
506.4884086886
 20
245.5653303616
 30
0.0
 11
505.1521165148
 21
244.7939053099
 31
0.0
  0
SPLINE
  5
20C
330
1F
100
AcDbEntity
  8
0
370
    15
100
AcDbSpline
210
0.0
220
0.0
230
1.0
 70
     8
 71
     3
 72
    11
 73
     7
 74
     0
 42
0.000000001
 43
0.0000000001
 40
0.0
 40
0.0
 40
0.0
 40
0.0
 40
0.0167535148798026
 40
0.3550553794671312
 40
0.6634092692177509
 40
1.0
 40
1.0
 40
1.0
 40
1.0
 10
504.0754634158146
 20
243.4717681212881
 30
0.0
 10
504.0736299017447
 20
243.4630436148457
 30
0.0
 10
504.0347724417706
 20
243.278146119139
 30
0.0
 10
504.1537033954658
 20
242.9171718487079
 30
0.0
 10
504.4199731828871
 20
242.4687346057288
 30
0.0
 10
504.7048161910085
 20
242.2702683149547
 30
0.0
 10
504.8534731659013
 20
242.1666905631283
 30
0.0
  0
LINE
  5
20D
330
1F
100
AcDbEntity
  8
0
370
    15
100
AcDbLine
 10
512.9841211523999
 20
259.5516751128
 30
0.0
 11
512.1592506922
 21
257.9797274266
 31
0.0
  0
SPLINE
  5
20E
330
1F
100
AcDbEntity
  8
0
370
    15
100
AcDbSpline
210
0.0
220
0.0
230
1.0
 70
     8
 71
     3
 72
     9
 73
     5
 74
     0
 42
0.000000001
 43
0.0000000001
 40
0.0
 40
0.0
 40
0.0
 40
0.0
 40
0.605633663258365
 40
1.0
 40
1.0
 40
1.0
 40
1.0
 10
505.1521165148264
 20
244.7939053098686
 30
0.0
 10
505.1371334733638
 20
244.7870462776371
 30
0.0
 10
505.1123940271083
 20
244.7757208962266
 30
0.0
 10
505.1139273655878
 20
244.7765478853902
 30
0.0
 10
505.1145320626668
 20
244.7768740220772
 30
0.0
  0
SPLINE
  5
20F
330
1F
100
AcDbEntity
  8
0
370
    15
100
AcDbSpline
210
0.0
220
0.0
230
1.0
 70
     8
 71
     3
 72
    12
 73
     8
 74
     0
 42
0.000000001
 43
0.0000000001
 40
0.0
 40
0.0
 40
0.0
 40
0.0
 40
0.142441523903115
 40
0.4071119755966655
 40
0.6725183093614655
 40
0.9306492734939112
 40
1.0
 40
1.0
 40
1.0
 40
1.0
 10
512.1592506921728
 20
257.9797274265987
 30
0.0
 10
512.0912507026316
 20
257.8598478273014
 30
0.0
 10
511.8969000012064
 20
257.5172200656318
 30
0.0
 10
511.4784870113155
 20
257.0260130287595
 30
0.0
 10
510.949641721104
 20
256.6387552978037
 30
0.0
 10
510.5820221534174
 20
256.5241479873218
 30
0.0
 10
510.4234528388822
 20
256.524161820374
 30
0.0
 10
510.3898726495804
 20
256.5241647497965
 30
0.0
  0
LINE
  5
210
330
1F
100
AcDbEntity
  8
0
370
    15
100
AcDbLine
 10
504.0701634496
 20
247.4889254429
 30
0.0
 11
504.0701634496
 21
243.4378510275
 31
0.0
  0
LINE
  5
211
330
1F
100
AcDbEntity
  8
0
370
    15
100
AcDbLine
 10
510.1889533544
 20
256.3781760246
 30
0.0
 11
509.1043819162
 21
253.3966016571
 31
0.0
  0
SPLINE
  5
212
330
1F
100
AcDbEntity
  8
0
370
    15
100
AcDbSpline
210
0.0
220
0.0
230
1.0
 70
     8
 71
     3
 72
     9
 73
     5
 74
     0
 42
0.000000001
 43
0.0000000001
 40
0.0
 40
0.0
 40
0.0
 40
0.0
 40
0.5762104166575816
 40
1.0
 40
1.0
 40
1.0
 40
1.0
 10
507.2229057689111
 20
251.1529872859625
 30
0.0
 10
507.1477158930924
 20
250.9107552705318
 30
0.0
 10
507.0172255832239
 20
250.4903671476724
 30
0.0
 10
506.9293826578062
 20
250.0732876584783
 30
0.0
 10
506.8921557410438
 20
249.896533715532
 30
0.0
  0
SPLINE
  5
213
330
1F
100
AcDbEntity
  8
0
370
    15
100
AcDbSpline
210
0.0
220
0.0
230
1.0
 70
     8
 71
     3
 72
    13
 73
     9
 74
     0
 42
0.000000001
 43
0.0000000001
 40
0.0
 40
0.0
 40
0.0
 40
0.0
 40
0.0361861739066218
 40
0.2734769883416389
 40
0.5150546909530242
 40
0.7434814462967625
 40
0.9428064943467513
 40
1.0
 40
1.0
 40
1.0
 40
1.0
 10
513.2631569971031
 20
259.6539375846524
 30
0.0
 10
513.2597597375953
 20
259.6559193193333
 30
0.0
 10
513.2340849508326
 20
259.6708962780368
 30
0.0
 10
513.1749780658368
 20
259.6756225693889
 30
0.0
 10
513.0978017443208
 20
259.6618939752244
 30
0.0
 10
513.0352720728499
 20
259.6214808810831
 30
0.0
 10
512.9985751258137
 20
259.5814754507324
 30
0.0
 10
512.9877831754192
 20
259.5562814613779
 30
0.0
 10
512.9853769967355
 20
259.5506641968496
 30
0.0
  0
LINE
  5
214
330
1F
100
AcDbEntity
  8
0
370
    15
100
AcDbLine
 10
506.9150981145999
 20
249.9467311385
 30
0.0
 11
504.8630958182999
 21
248.7621354276
 31
0.0
  0
LINE
  5
215
330
1F
100
AcDbEntity
  8
0
370
    15
100
AcDbLine
 10
513.7532550395999
 20
259.3846639331
 30
0.0
 11
513.2900242958998
 21
259.6441383766
 31
0.0
  0
SPLINE
  5
216
330
1F
100
AcDbEntity
  8
0
370
    15
100
AcDbSpline
210
0.0
220
0.0
230
1.0
 70
     8
 71
     3
 72
     9
 73
     5
 74
     0
 42
0.000000001
 43
0.0000000001
 40
0.0
 40
0.0
 40
0.0
 40
0.0
 40
0.5669770377933263
 40
1.0
 40
1.0
 40
1.0
 40
1.0
 10
506.757536072722
 20
248.8512475511996
 30
0.0
 10
506.758488241285
 20
248.8499217458046
 30
0.0
 10
506.7601676189309
 20
248.8475833699859
 30
0.0
 10
506.7618560009256
 20
248.8200774708206
 30
0.0
 10
506.7625871090981
 20
248.808166784886
 30
0.0
  0
LINE
  5
217
330
1F
100
AcDbEntity
  8
0
370
    15
100
AcDbLine
 10
504.8534731659
 20
242.1666905631
 30
0.0
 11
508.4705960475
 21
240.0419635011
 31
0.0
  0
SPLINE
  5
218
330
1F
100
AcDbEntity
  8
0
370
    15
100
AcDbSpline
210
0.0
220
0.0
230
1.0
 70
     8
 71
     3
 72
    10
 73
     6
 74
     0
 42
0.000000001
 43
0.0000000001
 40
0.0
 40
0.0
 40
0.0
 40
0.0
 40
0.0592931153292642
 40
0.6411021552602225
 40
1.0
 40
1.0
 40
1.0
 40
1.0
 10
507.8357156779033
 20
251.7250655186788
 30
0.0
 10
507.8177367812201
 20
251.7137228440566
 30
0.0
 10
507.623341372095
 20
251.5910810650514
 30
0.0
 10
507.3963626155581
 20
251.458215842874
 30
0.0
 10
507.2718695246426
 20
251.249994333015
 30
0.0
 10
507.2243730060749
 20
251.1705538055409
 30
0.0
  0
SPLINE
  5
219
330
1F
100
AcDbEntity
  8
0
370
    15
100
AcDbSpline
210
0.0
220
0.0
230
1.0
 70
     8
 71
     3
 72
    12
 73
     8
 74
     0
 42
0.000000001
 43
0.0000000001
 40
0.0
 40
0.0
 40
0.0
 40
0.0
 40
0.1302602872430599
 40
0.4210266988754145
 40
0.7304097259018469
 40
0.9847853394039756
 40
1.0
 40
1.0
 40
1.0
 40
1.0
 10
510.4011903954946
 20
256.5203313831076
 30
0.0
 10
510.3892945076323
 20
256.5213782773495
 30
0.0
 10
510.3508446738201
 20
256.5247620440831
 30
0.0
 10
510.284996830618
 20
256.499637261539
 30
0.0
 10
510.2254540968727
 20
256.4485475248168
 30
0.0
 10
510.1946912540486
 20
256.40236176815
 30
0.0
 10
510.1895428879865
 20
256.3788151772158
 30
0.0
 10
510.1892523335794
 20
256.3774862962298
 30
0.0
  0
SPLINE
  5
21A
330
1F
100
AcDbEntity
  8
0
370
    15
100
AcDbSpline
210
0.0
220
0.0
230
1.0
 70
     8
 71
     3
 72
    10
 73
     6
 74
     0
 42
0.000000001
 43
0.0000000001
 40
0.0
 40
0.0
 40
0.0
 40
0.0
 40
0.3253289326892195
 40
0.6805647675203426
 40
1.0
 40
1.0
 40
1.0
 40
1.0
 10
504.8630958182521
 20
248.762135427607
 30
0.0
 10
504.7258687236442
 20
248.6679901747174
 30
0.0
 10
504.438799495072
 20
248.4710450656049
 30
0.0
 10
504.1403258137681
 20
248.0338773700546
 30
0.0
 10
504.0960401090955
 20
247.6879728841089
 30
0.0
 10
504.0750722403768
 20
247.5241981422569
 30
0.0
  0
SPLINE
  5
21B
330
1F
100
AcDbEntity
  8
0
370
    15
100
AcDbSpline
210
0.0
220
0.0
230
1.0
 70
     8
 71
     3
 72
    14
 73
    10
 74
     0
 42
0.000000001
 43
0.0000000001
 40
0.0
 40
0.0
 40
0.0
 40
0.0
 40
0.0062782003134101
 40
0.1929186766706244
 40
0.3786384146292354
 40
0.5664208603658162
 40
0.7582192087698953
 40
0.9459043379894495
 40
1.0
 40
1.0
 40
1.0
 40
1.0
 10
528.5705584941942
 20
229.1142616623116
 30
0.0
 10
528.5812624679823
 20
229.1054501220147
 30
0.0
 10
528.910177818759
 20
228.8346861118435
 30
0.0
 10
529.7168798832156
 20
228.5515934693391
 30
0.0
 10
530.9484515235003
 20
228.3070117990415
 30
0.0
 10
532.2880720434477
 20
228.3810233951404
 30
0.0
 10
533.6699927219178
 20
228.7297834124436
 30
0.0
 10
534.7413545878918
 20
229.1941591140774
 30
0.0
 10
535.3348669117107
 20
229.5273427895972
 30
0.0
 10
535.4676584453351
 20
229.6018887922249
 30
0.0
  0
SPLINE
  5
21C
330
1F
100
AcDbEntity
  8
0
370
    15
100
AcDbSpline
210
0.0
220
0.0
230
1.0
 70
     8
 71
     3
 72
    10
 73
     6
 74
     0
 42
0.000000001
 43
0.0000000001
 40
0.0
 40
0.0
 40
0.0
 40
0.0
 40
0.0118407616523579
 40
0.7130334910049685
 40
1.0
 40
1.0
 40
1.0
 40
1.0
 10
509.0129522308866
 20
240.0626549266075
 30
0.0
 10
509.0131110706026
 20
240.0627462548529
 30
0.0
 10
509.0226761679052
 20
240.0682459093125
 30
0.0
 10
509.0642423587045
 20
240.0922461235752
 30
0.0
 10
509.108348910285
 20
240.117716680384
 30
0.0
 10
509.1211576789933
 20
240.1251134606659
 30
0.0
  0
SPLINE
  5
21D
330
1F
100
AcDbEntity
  8
0
370
    15
100
AcDbSpline
210
0.0
220
0.0
230
1.0
 70
     8
 71
     3
 72
    21
 73
    17
 74
     0
 42
0.000000001
 43
0.0000000001
 40
0.0
 40
0.0
 40
0.0
 40
0.0
 40
0.0831537965806598
 40
0.2505322151645871
 40
0.3917682976593918
 40
0.5075060876966754
 40
0.5963084003624479
 40
0.6564015657911734
 40
0.6886289037256073
 40
0.6950328738274365
 40
0.6983017617621201
 40
0.7010771402139268
 40
0.7051741494263454
 40
0.7134820436120278
 40
0.7397981208880182
 40
1.0
 40
1.0
 40
1.0
 40
1.0
 10
508.4825051664187
 20
240.0412753195468
 30
0.0
 10
508.4996578880796
 20
240.0301472494816
 30
0.0
 10
508.5513369397953
 20
239.9966197359034
 30
0.0
 10
508.6473191811744
 20
239.9756259627316
 30
0.0
 10
508.7512541809585
 20
239.9706615066415
 30
0.0
 10
508.8354545815021
 20
239.9838088436593
 30
0.0
 10
508.8974907940551
 20
240.003103007083
 30
0.0
 10
508.9381182703315
 20
240.0209289058491
 30
0.0
 10
508.9596479421091
 20
240.0320652105041
 30
0.0
 10
508.9684828153176
 20
240.0370327557823
 30
0.0
 10
508.9704444244512
 20
240.0381548254318
 30
0.0
 10
508.9715061653545
 20
240.0387127295963
 30
0.0
 10
508.9723281683196
 20
240.039232124463
 30
0.0
 10
508.9734052475456
 20
240.0397926081087
 30
0.0
 10
508.9764204598014
 20
240.041757010462
 30
0.0
 10
508.9955655643228
 20
240.0527089237419
 30
0.0
 10
509.0129522308866
 20
240.0626549266075
 30
0.0
  0
LINE
  5
21E
330
1F
100
AcDbEntity
  8
0
370
    15
100
AcDbLine
 10
826.4312088322999
 20
100.8673508788
 30
0.0
 11
821.7056801197999
 21
103.7317267031
 31
0.0
  0
SPLINE
  5
21F
330
1F
100
AcDbEntity
  8
0
370
    15
100
AcDbSpline
210
0.0
220
0.0
230
1.0
 70
     8
 71
     3
 72
    20
 73
    16
 74
     0
 42
0.000000001
 43
0.0000000001
 40
0.0
 40
0.0
 40
0.0
 40
0.0
 40
0.0440679505360465
 40
0.126639914224905
 40
0.2090121954828674
 40
0.2911608743374499
 40
0.3732068348494604
 40
0.4553357187725717
 40
0.5376886370313382
 40
0.6204810353060478
 40
0.7038912707076826
 40
0.787890747513448
 40
0.8713952870125215
 40
0.9442338826171859
 40
1.0
 40
1.0
 40
1.0
 40
1.0
 10
822.2994531740052
 20
85.50011384665827
 30
0.0
 10
822.5215319179394
 20
85.63630068802037
 30
0.0
 10
823.1597289010277
 20
86.02766651508664
 30
0.0
 10
824.1801553812724
 20
86.86633410216625
 30
0.0
 10
825.3052677228092
 20
88.05524618980086
 30
0.0
 10
826.3103409462855
 20
89.41433580312539
 30
0.0
 10
827.1636257655925
 20
90.89240097770071
 30
0.0
 10
827.8369761994422
 20
92.44193781652651
 30
0.0
 10
828.3066746629918
 20
94.01318698325351
 30
0.0
 10
828.5533946198036
 20
95.5580260492027
 30
0.0
 10
828.5600748022373
 20
97.02877698282444
 30
0.0
 10
828.3152403170641
 20
98.37924024010836
 30
0.0
 10
827.8202883504006
 20
99.50013484043664
 30
0.0
 10
827.1910141549282
 20
100.3446240484864
 30
0.0
 10
826.6690526866927
 20
100.6766807052006
 30
0.0
 10
826.4427175561149
 20
100.8206685114474
 30
0.0
  0
LINE
  5
220
330
1F
100
AcDbEntity
  8
0
370
    15
100
AcDbLine
 10
806.0359971750999
 20
76.1114205424
 30
0.0
 11
822.2994531739999
 21
85.5001138467
 31
0.0
  0
LINE
  5
221
330
1F
100
AcDbEntity
  8
0
370
    15
100
AcDbLine
 10
796.1980438844
 20
78.3299082257
 30
0.0
 11
801.0416799202999
 21
75.6701230994
 31
0.0
  0
SPLINE
  5
222
330
1F
100
AcDbEntity
  8
0
370
    15
100
AcDbSpline
210
0.0
220
0.0
230
1.0
 70
     8
 71
     3
 72
    13
 73
     9
 74
     0
 42
0.000000001
 43
0.0000000001
 40
0.0
 40
0.0
 40
0.0
 40
0.0
 40
0.0288283400072267
 40
0.2505404395103316
 40
0.4715488234016049
 40
0.6985913379152299
 40
0.9341562759707036
 40
1.0
 40
1.0
 40
1.0
 40
1.0
 10
801.0333789667374
 20
75.69577071058596
 30
0.0
 10
801.0712184888312
 20
75.6678804701584
 30
0.0
 10
801.4000730289764
 20
75.42549283725901
 30
0.0
 10
802.1740497889009
 20
75.2347624732391
 30
0.0
 10
803.2900442506564
 20
75.15498950430823
 30
0.0
 10
804.4809672039358
 20
75.38602358293612
 30
0.0
 10
805.4035771232644
 20
75.75818478208827
 30
0.0
 10
805.9226122307491
 20
76.04808982275367
 30
0.0
 10
806.0359971751045
 20
76.11142054244912
 30
0.0
  0
LINE
  5
223
330
1F
100
AcDbEntity
  8
0
370
    15
100
AcDbLine
 10
822.4737429461001
 20
102.5674517869
 30
0.0
 11
560.0902069106999
 21
254.0382429937
 31
0.0
  0
LINE
  5
224
330
1F
100
AcDbEntity
  8
0
370
    15
100
AcDbLine
 10
534.7620727860999
 20
229.2478294739
 30
0.0
 11
795.6081128611999
 21
78.6646157923
 31
0.0
  0
LINE
  5
225
330
1F
100
AcDbEntity
  8
0
370
    15
100
AcDbLine
 10
821.4743706624998
 20
103.8711113006
 30
0.0
 11
560.0531058301998
 21
254.7863951661
 31
0.0
  0
LWPOLYLINE
  5
226
330
1F
100
AcDbEntity
  8
0
370
    15
100
AcDbPolyline
 90
       17
 70
   128
 43
0.0
 10
520.1901670519999
 20
264.0856403955
 10
520.014278375
 20
263.9437009115
 10
519.8651671055
 20
263.7425682858
 10
519.7655340958999
 20
263.5128633734
 10
519.7305477664
 20
263.289556253
 10
519.7655340958999
 20
263.1066436788
 10
519.8651671055
 20
262.9919724006
 10
520.014278375
 20
262.9629999822
 10
520.1901670519999
 20
263.0241372421
 10
520.366055729
 20
263.166076726
 10
520.5151669985
 20
263.3672093517
 10
520.6148001726999
 20
263.5969145493
 10
520.6497866668
 20
263.8202215746
 10
520.6148001726999
 20
264.0031342439
 10
520.5151669985
 20
264.1178052369
 10
520.366055729
 20
264.1467776554
 10
520.1901670519999
 20
264.0856403955
  0
LWPOLYLINE
  5
227
330
1F
100
AcDbEntity
  8
0
370
    15
100
AcDbPolyline
 90
        8
 70
   128
 43
0.0
 10
525.1399140144999
 20
259.7584388599
 10
525.4511019778
 20
260.0095626061
 10
525.7149142491
 20
260.3654126216
 10
525.8911878454
 20
260.7718136863
 10
525.9530867485999
 20
261.1668953466
 10
525.8911878454
 20
261.4905100544
 10
525.7149142491
 20
261.693390147
 10
525.7148674925
 20
261.6934171479
  0
LWPOLYLINE
  5
228
330
1F
100
AcDbEntity
  8
0
370
    15
100
AcDbPolyline
 90
        3
 70
   128
 43
0.0
 10
524.5649608657999
 20
259.7015046711
 10
524.8287263805
 20
259.6502728215
 10
525.1399140144999
 20
259.7584388599
  0
LWPOLYLINE
  5
229
330
1F
100
AcDbEntity
  8
0
370
    15
100
AcDbPolyline
 90
       17
 70
   128
 43
0.0
 10
520.1901670519999
 20
258.9006063027
 10
520.014278375
 20
258.7586668187
 10
519.8651671055
 20
258.557534193
 10
519.7655340958999
 20
258.3278290905
 10
519.7305477664
 20
258.1045221602
 10
519.7655340958999
 20
257.9216093959
 10
519.8651671055
 20
257.8069383078
 10
520.014278375
 20
257.7779658894
 10
520.1901670519999
 20
257.8391031493
 10
520.366055729
 20
257.9810426332
 10
520.5151669985
 20
258.1821752589
 10
520.6148001726999
 20
258.4118802664
 10
520.6497866668
 20
258.6351874818
 10
520.6148001726999
 20
258.8180999609
 10
520.5151669985
 20
258.9327711441
 10
520.366055729
 20
258.9617435626
 10
520.1901670519999
 20
258.9006063027
  0
LWPOLYLINE
  5
22A
330
1F
100
AcDbEntity
  8
0
370
    15
100
AcDbPolyline
 90
        8
 70
   128
 43
0.0
 10
525.1399140144999
 20
254.573404577
 10
525.4511019778
 20
254.8245285133
 10
525.7149142491
 20
255.1803783387
 10
525.8911878454
 20
255.5867795935
 10
525.9530867485999
 20
255.9818612537
 10
525.8911878454
 20
256.3054759616
 10
525.7149142491
 20
256.5083558641
 10
525.7148674925
 20
256.5083828649
  0
LWPOLYLINE
  5
22B
330
1F
100
AcDbEntity
  8
0
370
    15
100
AcDbPolyline
 90
        3
 70
   128
 43
0.0
 10
524.5649608657999
 20
254.5164703881
 10
524.8287263805
 20
254.4652387287
 10
525.1399140144999
 20
254.573404577
  0
LWPOLYLINE
  5
22C
330
1F
100
AcDbEntity
  8
0
370
    15
100
AcDbPolyline
 90
       17
 70
   128
 43
0.0
 10
514.5898815069999
 20
255.6676302734
 10
514.4139928299999
 20
255.5256907894
 10
514.2648815605
 20
255.3245581638
 10
514.1652483862999
 20
255.0948529662
 10
514.1302618922
 20
254.8715459408
 10
514.1652483862999
 20
254.6886332716
 10
514.2648815605
 20
254.5739622786
 10
514.4139928299999
 20
254.5449898601
 10
514.5898815069999
 20
254.60612712
 10
514.765770184
 20
254.7480666039
 10
514.9148814535
 20
254.9491992296
 10
515.0145144630999
 20
255.1789041421
 10
515.0495007926
 20
255.4022112625
 10
515.0145144630999
 20
255.5851238366
 10
514.9148814535
 20
255.6997951148
 10
514.765770184
 20
255.7287675333
 10
514.5898815069999
 20
255.6676302734
  0
LWPOLYLINE
  5
22D
330
1F
100
AcDbEntity
  8
0
370
    15
100
AcDbPolyline
 90
        8
 70
   128
 43
0.0
 10
519.5396284695999
 20
251.3404285477
 10
519.8508161035999
 20
251.591552294
 10
520.1146283748999
 20
251.9474021193
 10
520.2909021358
 20
252.3538034692
 10
520.3528012037
 20
252.7488852245
 10
520.2909021358
 20
253.0724998373
 10
520.1146283748999
 20
253.2753796448
 10
520.1145816182999
 20
253.2754066456
  0
LWPOLYLINE
  5
22E
330
1F
100
AcDbEntity
  8
0
370
    15
100
AcDbPolyline
 90
        3
 70
   128
 43
0.0
 10
518.9646749916001
 20
251.2834941688
 10
519.2284405062999
 20
251.2322625094
 10
519.5396284695999
 20
251.3404285477
  0
LWPOLYLINE
  5
22F
330
1F
100
AcDbEntity
  8
0
370
    15
100
AcDbPolyline
 90
       17
 70
   128
 43
0.0
 10
514.5898815069999
 20
260.8526643662
 10
514.4139928299999
 20
260.7107248823
 10
514.2648815605
 20
260.5095922566
 10
514.1652483862999
 20
260.2798872491
 10
514.1302618922
 20
260.0565800336
 10
514.1652483862999
 20
259.8736675545
 10
514.2648815605
 20
259.7589963714
 10
514.4139928299999
 20
259.7300239529
 10
514.5898815069999
 20
259.7911612128
 10
514.765770184
 20
259.9331006968
 10
514.9148814535
 20
260.1342333225
 10
515.0145144630999
 20
260.363938425
 10
515.0495007926
 20
260.5872453553
 10
515.0145144630999
 20
260.7701581196
 10
514.9148814535
 20
260.8848292076
 10
514.765770184
 20
260.9138016261
 10
514.5898815069999
 20
260.8526643662
  0
LWPOLYLINE
  5
230
330
1F
100
AcDbEntity
  8
0
370
    15
100
AcDbPolyline
 90
        3
 70
   128
 43
0.0
 10
519.5396284695999
 20
256.5254628307
 10
519.8508161035999
 20
256.7765863868
 10
520.1047859333
 20
257.1155800498
  0
LWPOLYLINE
  5
231
330
1F
100
AcDbEntity
  8
0
370
    15
100
AcDbPolyline
 90
        3
 70
   128
 43
0.0
 10
518.9646749916001
 20
256.4685284517
 10
519.2284405062999
 20
256.4172966022
 10
519.5396284695999
 20
256.5254628307
  0
LWPOLYLINE
  5
232
330
1F
100
AcDbEntity
  8
0
370
    15
100
AcDbPolyline
 90
        7
 70
   128
 43
0.0
 10
518.4831021371
 20
256.7465348032
 10
518.5597060099
 20
256.4300725801
 10
518.7896282637999
 20
256.1654464219
 10
519.1337312694001
 20
256.0985872213
 10
519.5396284695999
 20
256.2396734616
 10
519.9455255051999
 20
256.5672260584
 10
520.269084227
 20
256.9964272847
  0
LWPOLYLINE
  5
233
330
1F
100
AcDbEntity
  8
0
370
    15
100
AcDbPolyline
 90
        3
 70
   128
 43
0.0
 10
519.9531260966
 20
258.8310941896
 10
519.9455255051999
 20
258.8303821589
 10
519.6330085990999
 20
258.738447185
  0
LWPOLYLINE
  5
234
330
1F
100
AcDbEntity
  8
0
370
    15
100
AcDbPolyline
 90
       13
 70
   128
 43
0.0
 10
524.083387682
 20
259.9795108325
 10
524.1599918841
 20
259.6630487995
 10
524.389914138
 20
259.3984226412
 10
524.7340169788999
 20
259.3315633456
 10
525.1399140144999
 20
259.4726494909
 10
525.5458112147
 20
259.8002021827
 10
525.8899142202999
 20
260.2643542569
 10
526.1198364741999
 20
260.7944429989
 10
526.2005743601999
 20
261.3097669036
 10
526.1198364741999
 20
261.7318728293
 10
525.8899142202999
 20
261.9964989876
 10
525.5458112147
 20
262.0633582832
 10
525.2332943087
 20
261.9714233093
  0
LWPOLYLINE
  5
235
330
1F
100
AcDbEntity
  8
0
370
    15
100
AcDbPolyline
 90
       17
 70
   128
 43
0.0
 10
508.5926348816
 20
251.002025218
 10
508.7240434869
 20
251.8407620113
 10
509.0982627205999
 20
252.7035294622
 10
509.6583218973999
 20
253.4589796821
 10
510.3189553085999
 20
253.9921006595
 10
510.9795900369
 20
254.2217315433
 10
511.5396492137
 20
254.1129118851
 10
511.9138684473999
 20
253.6822087647
 10
512.0452770526999
 20
252.9951931176
 10
511.9138684473999
 20
252.1564561342
 10
511.5396492137
 20
251.2936887784
 10
510.9795900369
 20
250.5382387486
 10
510.3189553085999
 20
250.0051169159
 10
509.6583218973999
 20
249.7754868874
 10
509.0982627205999
 20
249.8843063555
 10
508.7240434869
 20
250.3150093808
 10
508.5926348816
 20
251.002025218
  0
LWPOLYLINE
  5
236
330
1F
100
AcDbEntity
  8
0
370
    15
100
AcDbPolyline
 90
       17
 70
   128
 43
0.0
 10
532.6342654313999
 20
264.8809631129
 10
532.7656740367
 20
265.7196999062
 10
533.1398932703999
 20
266.5824673571
 10
533.6999524471999
 20
267.337917577
 10
534.3605871755
 20
267.8710393147
 10
535.0212205866999
 20
268.1006694382
 10
535.5812797635
 20
267.99184978
 10
535.9554989972
 20
267.5611466596
 10
536.0869076024999
 20
266.8741310125
 10
535.9554989972
 20
266.0353940291
 10
535.5812797635
 20
265.1726266733001
 10
535.0212205866999
 20
264.4171766435
 10
534.3605871755
 20
263.8840555711
 10
533.6999524471999
 20
263.6544247823
 10
533.1398932703999
 20
263.7632442504
 10
532.7656740367
 20
264.1939472757
 10
532.6342654313999
 20
264.8809631129
  0
LWPOLYLINE
  5
237
330
1F
100
AcDbEntity
  8
0
370
    15
100
AcDbPolyline
 90
        9
 70
   128
 43
0.0
 10
537.3473604737
 20
267.1766461723
 10
536.9601191808999
 20
268.2780468451
 10
536.3885670853
 20
269.1809174573
 10
535.6484249615
 20
269.8604232377
 10
534.7600523715
 20
270.2978750412
 10
533.7478826336
 20
270.4812377707
 10
532.6397590097
 20
270.4054711272
 10
531.4661602564999
 20
270.0726566796
 10
530.259366909
 20
269.4919496534
  0
LINE
  5
238
330
1F
100
AcDbEntity
  8
0
370
    15
100
AcDbLine
 10
540.0235984262999
 20
268.7216054569
 30
0.0
 11
537.3473604737
 21
267.1766461723
 31
0.0
  0
LINE
  5
239
330
1F
100
AcDbEntity
  8
0
370
    15
100
AcDbLine
 10
540.0235984262999
 20
264.6726181319
 30
0.0
 11
540.0235984262999
 21
268.7216054569
 31
0.0
  0
LINE
  5
23A
330
1F
100
AcDbEntity
  8
0
370
    15
100
AcDbLine
 10
537.3473604737
 20
263.1276588473
 30
0.0
 11
540.0235984262999
 21
264.6726181319
 31
0.0
  0
ARC
  5
23B
330
1F
100
AcDbEntity
  8
0
370
    15
100
AcDbCircle
 10
523.0172246831999
 20
265.8864161733
 30
0.0
 40
14.59327015300133
100
AcDbArc
 50
342.0322775081
 51
349.1030529291001
  0
ARC
  5
23C
330
1F
100
AcDbEntity
  8
0
370
    15
100
AcDbCircle
 10
538.9953539691
 20
258.3389815971
 30
0.0
 40
3.697538492791576
100
AcDbArc
 50
124.5424573654
 51
160.7110853981
  0
LINE
  5
23D
330
1F
100
AcDbEntity
  8
0
370
    15
100
AcDbLine
 10
534.4395716866999
 20
256.6304105149
 30
0.0
 11
535.5053772405999
 21
259.5603960803
 31
0.0
  0
ARC
  5
23E
330
1F
100
AcDbEntity
  8
0
370
    15
100
AcDbCircle
 10
534.9833297576999
 20
253.9545990637
 30
0.0
 40
2.73050174179897
100
AcDbArc
 50
101.4868005806
 51
157.1679088791
  0
LINE
  5
23F
330
1F
100
AcDbEntity
  8
0
370
    15
100
AcDbLine
 10
531.6328326032
 20
253.4248862878
 30
0.0
 11
532.4667738553999
 21
255.0141207258
 31
0.0
  0
LINE
  5
240
330
1F
100
AcDbEntity
  8
0
370
    15
100
AcDbLine
 10
531.6201391577999
 20
253.4339822349
 30
0.0
 11
531.6328326032
 21
253.4248862878
 31
0.0
  0
LWPOLYLINE
  5
241
330
1F
100
AcDbEntity
  8
0
370
    15
100
AcDbPolyline
 90
        9
 70
   128
 43
0.0
 10
529.3178906069
 20
252.5976225412
 10
529.6015672148
 20
252.9453095951
 10
529.9110857677
 20
253.2396945208
 10
530.2342862414
 20
253.4692129594
 10
530.5584718976
 20
253.6248470125
 10
530.8709071441
 20
253.7004841337
 10
531.1593186869999
 20
253.6931524448
 10
531.412376268
 20
253.6031393234
 10
531.6201391577999
 20
253.4339822349
  0
LINE
  5
242
330
1F
100
AcDbEntity
  8
0
370
    15
100
AcDbLine
 10
528.684190349
 20
251.7194021172
 30
0.0
 11
529.3178906069
 21
252.5976225412
 31
0.0
  0
LINE
  5
243
330
1F
100
AcDbEntity
  8
0
370
    15
100
AcDbLine
 10
514.4201755751001
 20
243.4849616633
 30
0.0
 11
528.684190349
 21
251.7194021172
 31
0.0
  0
LWPOLYLINE
  5
244
330
1F
100
AcDbEntity
  8
0
370
    15
100
AcDbPolyline
 90
        9
 70
   128
 43
0.0
 10
507.3321820103999
 20
245.8002651444
 10
507.7194233032
 20
244.6988644716
 10
508.2909753987999
 20
243.7959938594
 10
509.0311175226
 20
243.1164880789
 10
509.9194901126
 20
242.6790362755
 10
510.9316598504999
 20
242.495673546
 10
512.0397834743999
 20
242.5714401895
 10
513.2133822276
 20
242.9042546371
 10
514.4201755751001
 20
243.4849616633
  0
LINE
  5
245
330
1F
100
AcDbEntity
  8
0
370
    15
100
AcDbLine
 10
504.6559440578
 20
244.2553058597
 30
0.0
 11
507.3321820103999
 21
245.8002651444
 31
0.0
  0
LINE
  5
246
330
1F
100
AcDbEntity
  8
0
370
    15
100
AcDbLine
 10
504.6559440578
 20
248.3042931847
 30
0.0
 11
504.6559440578
 21
244.2553058597
 31
0.0
  0
LINE
  5
247
330
1F
100
AcDbEntity
  8
0
370
    15
100
AcDbLine
 10
507.3321820103999
 20
249.8492524693
 30
0.0
 11
504.6559440578
 21
248.3042931847
 31
0.0
  0
ARC
  5
248
330
1F
100
AcDbEntity
  8
0
370
    15
100
AcDbCircle
 10
521.6623178007999
 20
247.0904951433
 30
0.0
 40
14.59327015293914
100
AcDbArc
 50
162.0322775081
 51
169.1030529291
  0
ARC
  5
249
330
1F
100
AcDbEntity
  8
0
370
    15
100
AcDbCircle
 10
505.6841885149999
 20
254.6379297196
 30
0.0
 40
3.697538492792988
100
AcDbArc
 50
304.5424573654
 51
340.7110853981
  0
LINE
  5
24A
330
1F
100
AcDbEntity
  8
0
370
    15
100
AcDbLine
 10
510.2399707973999
 20
256.3465008018
 30
0.0
 11
509.1741652435
 21
253.4165152364
 31
0.0
  0
ARC
  5
24B
330
1F
100
AcDbEntity
  8
0
370
    15
100
AcDbCircle
 10
509.6962127263999
 20
259.0223122529
 30
0.0
 40
2.730501741798796
100
AcDbArc
 50
281.4868005806
 51
337.1679088791
  0
LINE
  5
24C
330
1F
100
AcDbEntity
  8
0
370
    15
100
AcDbLine
 10
513.0467098808999
 20
259.5520250288
 30
0.0
 11
512.2127686287
 21
257.9627905908
 31
0.0
  0
LINE
  5
24D
330
1F
100
AcDbEntity
  8
0
370
    15
100
AcDbLine
 10
513.0594033262999
 20
259.5429290818
 30
0.0
 11
513.0467098808999
 21
259.5520250288
 31
0.0
  0
ELLIPSE
  5
24E
330
1F
100
AcDbEntity
  8
0
370
    15
100
AcDbEllipse
 10
538.2534097537999
 20
264.2913964188
 30
0.0
 11
0.3000670245035054
 21
0.5197876007507034
 31
0.0
210
0.0
220
0.0
230
1.0
 40
0.5772057093999999
 41
2.356265568859234
 42
3.92675730915925
  0
LINE
  5
24F
330
1F
100
AcDbEntity
  8
0
370
    15
100
AcDbLine
 10
539.5895714974
 20
264.5727481027
 30
0.0
 11
538.2532793236
 21
263.801323051
 31
0.0
  0
ELLIPSE
  5
250
330
1F
100
AcDbEntity
  8
0
370
    15
100
AcDbEllipse
 10
539.5894424537999
 20
265.0626716795
 30
0.0
 11
0.2999755974980189
 21
0.5196293302991535
 31
0.0
210
0.0
220
0.0
230
1.0
 40
0.5775574346
 41
3.927061796638433
 42
5.497553536937943
  0
LINE
  5
251
330
1F
100
AcDbEntity
  8
0
370
    15
100
AcDbLine
 10
540.013770308
 20
268.0753936266
 30
0.0
 11
540.013770308
 21
265.3074826585
 31
0.0
  0
ELLIPSE
  5
252
330
1F
100
AcDbEntity
  8
0
370
    15
100
AcDbEllipse
 10
539.5894424537999
 20
267.8302841469
 30
0.0
 11
0.3000670245036191
 21
0.5197876007507603
 31
0.0
210
0.0
220
0.0
230
0.9999999999999998
 40
0.5772057093999999
 41
5.497858222449438
 42
7.068349962748981
  0
LINE
  5
253
330
1F
100
AcDbEntity
  8
0
370
    15
100
AcDbLine
 10
538.2532793236
 20
267.5489336089
 30
0.0
 11
539.5895714974
 21
268.3203586606
 31
0.0
  0
ELLIPSE
  5
254
330
1F
100
AcDbEntity
  8
0
370
    15
100
AcDbEllipse
 10
538.2534097537999
 20
267.0590088862
 30
0.0
 11
0.2999755974981326
 21
0.5196293302991535
 31
0.0
210
0.0
220
0.0
230
1.0
 40
0.5775574346
 41
0.785469143048593
 42
2.355960883348276
  0
LINE
  5
255
330
1F
100
AcDbEntity
  8
0
370
    15
100
AcDbLine
 10
537.8290805128999
 20
264.0462880851
 30
0.0
 11
537.8290805128999
 21
266.8141990532
 31
0.0
  0
ELLIPSE
  5
256
330
1F
100
AcDbEntity
  8
0
370
    15
100
AcDbEllipse
 10
505.0901017161
 20
247.914238664
 30
0.0
 11
0.2999755974980757
 21
0.5196293302991534
 31
0.0
210
0.0
220
0.0
230
1.0
 40
0.5775574346
 41
0.7854691430485678
 42
2.35596088334817
  0
LINE
  5
257
330
1F
100
AcDbEntity
  8
0
370
    15
100
AcDbLine
 10
504.6657721761
 20
244.9015176901
 30
0.0
 11
504.6657721761
 21
247.6694286582
 31
0.0
  0
ELLIPSE
  5
258
330
1F
100
AcDbEntity
  8
0
370
    15
100
AcDbEllipse
 10
505.0901017161
 20
245.1466261965
 30
0.0
 11
0.3000670245035622
 21
0.5197876007507034
 31
0.0
210
0.0
220
0.0
230
0.9999999999999998
 40
0.5772057093999999
 41
2.35626556885948
 42
3.926757309159235
  0
LINE
  5
259
330
1F
100
AcDbEntity
  8
0
370
    15
100
AcDbLine
 10
506.4262631605
 20
245.4279777077
 30
0.0
 11
505.0899709867
 21
244.656552656
 31
0.0
  0
ELLIPSE
  5
25A
330
1F
100
AcDbEntity
  8
0
370
    15
100
AcDbEllipse
 10
506.4261344162
 20
245.9179014572
 30
0.0
 11
0.2999755974980758
 21
0.5196293302991251
 31
0.0
210
0.0
220
0.0
230
0.9999999999999998
 40
0.5775574346
 41
3.927061796638557
 42
5.497553536938121
  0
LINE
  5
25B
330
1F
100
AcDbEntity
  8
0
370
    15
100
AcDbLine
 10
506.8504619712
 20
248.9306232316
 30
0.0
 11
506.8504619712
 21
246.1627122635
 31
0.0
  0
ELLIPSE
  5
25C
330
1F
100
AcDbEntity
  8
0
370
    15
100
AcDbEllipse
 10
506.4261344162
 20
248.6855139247
 30
0.0
 11
0.3000670245035054
 21
0.5197876007507034
 31
0.0
210
0.0
220
0.0
230
1.0
 40
0.5772057093999999
 41
5.497858222449077
 42
7.068349962748901
  0
LINE
  5
25D
330
1F
100
AcDbEntity
  8
0
370
    15
100
AcDbLine
 10
505.0899709867
 20
248.404163214
 30
0.0
 11
506.4262631605
 21
249.1755882657
 31
0.0
  0
LWPOLYLINE
  5
25E
330
1F
100
AcDbEntity
  8
0
370
    15
100
AcDbPolyline
 90
       13
 70
   128
 43
0.0
 10
524.083387682
 20
254.7944767397
 10
524.1599918841
 20
254.4780147067
 10
524.389914138
 20
254.2133885484
 10
524.7340169788999
 20
254.1465291578
 10
525.1399140144999
 20
254.2876153981
 10
525.5458112147
 20
254.6151679948
 10
525.8899142202999
 20
255.0793201641
 10
526.1198364741999
 20
255.6094089061
 10
526.2005743601999
 20
256.1247328108
 10
526.1198364741999
 20
256.5468387365001
 10
525.8899142202999
 20
256.8114648948
 10
525.5458112147
 20
256.8783240953
 10
525.2332943087
 20
256.7863891214
  0
LWPOLYLINE
  5
25F
330
1F
100
AcDbEntity
  8
0
370
    15
100
AcDbPolyline
 90
       13
 70
   128
 43
0.0
 10
518.4831021371
 20
251.5615007104
 10
518.5597060099
 20
251.2450384873
 10
518.7896282637999
 20
250.9804123291
 10
519.1337312694001
 20
250.9135530335
 10
519.5396284695999
 20
251.0546393688
 10
519.9455255051999
 20
251.3821918705
 10
520.2896283461
 20
251.8463439447
 10
520.5195505999999
 20
252.3764326868
 10
520.6002884858999
 20
252.8917565914
 10
520.5195505999999
 20
253.3138625172
 10
520.2896283461
 20
253.5784886754
 10
519.9455255051999
 20
253.645347971
 10
519.6330085990999
 20
253.5534129971
  0
ARC
  5
260
330
1F
100
AcDbEntity
  8
0
370
    15
100
AcDbCircle
 10
533.6295376705
 20
256.6171694792
 30
0.0
 40
13.40655481490825
100
AcDbArc
 50
300.1794828506
 51
308.5531825696
  0
LWPOLYLINE
  5
261
330
1F
100
AcDbEntity
  8
0
370
    15
100
AcDbPolyline
 90
        4
 70
   128
 43
0.0
 10
537.142638084
 20
249.0545123896
 10
537.3537088427999
 20
248.927156106
 10
538.4762973968999
 20
248.2498172431
 10
541.9850495357
 20
246.1328414857
  0
SPLINE
  5
262
330
1F
100
AcDbEntity
  8
0
370
    15
100
AcDbSpline
210
0.0
220
0.0
230
1.0
 70
     8
 71
     3
 72
    13
 73
     9
 74
     0
 42
0.000000001
 43
0.0000000001
 40
0.0
 40
0.0
 40
0.0
 40
0.0
 40
0.0035990441245481
 40
0.2160353992622008
 40
0.4293823700747398
 40
0.6447864173477817
 40
0.8624064552309363
 40
1.0
 40
1.0
 40
1.0
 40
1.0
 10
537.1426380839754
 20
249.0545123895604
 30
0.0
 10
537.1425060306729
 20
249.0545924995894
 30
0.0
 10
537.1345794293477
 20
249.0594011658711
 30
0.0
 10
537.1215079259559
 20
249.0712389368313
 30
0.0
 10
537.112549893127
 20
249.0932121054817
 30
0.0
 10
537.1150280836824
 20
249.1171506166442
 30
0.0
 10
537.1265714129974
 20
249.1378435044917
 30
0.0
 10
537.1386961901731
 20
249.1487778597734
 30
0.0
 10
537.1433927759815
 20
249.153013330421
 30
0.0
  0
ARC
  5
263
330
1F
100
AcDbEntity
  8
0
370
    15
100
AcDbCircle
 10
524.0676052134999
 20
264.6708888444
 30
0.0
 40
20.29237987143281
100
AcDbArc
 50
310.1184077126
 51
342.4793028217
  0
SPLINE
  5
264
330
1F
100
AcDbEntity
  8
0
370
    15
100
AcDbSpline
210
0.0
220
0.0
230
1.0
 70
     8
 71
     3
 72
     9
 73
     5
 74
     0
 42
0.000000001
 43
0.0000000001
 40
0.0
 40
0.0
 40
0.0
 40
0.0
 40
0.8731116004888601
 40
1.0
 40
1.0
 40
1.0
 40
1.0
 10
539.629741395305
 20
260.7972848089121
 30
0.0
 10
540.7325404174626
 20
260.1469462156916
 30
0.0
 10
541.9956080728918
 20
259.4020945920775
 30
0.0
 10
543.2583580227245
 20
258.6564726741619
 30
0.0
 10
543.4185863428415
 20
258.5618619023572
 30
0.0
  0
ARC
  5
265
330
1F
100
AcDbEntity
  8
0
370
    15
100
AcDbCircle
 10
522.7728572137
 20
266.0858363423
 30
0.0
 40
17.66701224412073
100
AcDbArc
 50
342.581666297
 51
347.4150870929
  0
LINE
  5
266
330
1F
100
AcDbEntity
  8
0
370
    15
100
AcDbLine
 10
540.0154048155
 20
262.2364371902
 30
0.0
 11
543.5996742287
 21
260.1999740020001
 31
0.0
  0
SPLINE
  5
267
330
1F
100
AcDbEntity
  8
0
370
    15
100
AcDbSpline
210
0.0
220
0.0
230
1.0
 70
     8
 71
     3
 72
    10
 73
     6
 74
     0
 42
0.000000001
 43
0.0000000001
 40
0.0
 40
0.0
 40
0.0
 40
0.0
 40
0.4231300429528722
 40
0.8467805652073375
 40
1.0
 40
1.0
 40
1.0
 40
1.0
 10
543.8844789233699
 20
260.1935508898184
 30
0.0
 10
543.8467610565147
 20
260.1779191365498
 30
0.0
 10
543.7712789272118
 20
260.1466364018718
 30
0.0
 10
543.6694490275787
 20
260.1642675607109
 30
0.0
 10
543.6143174427871
 20
260.1924805076127
 30
0.0
 10
543.5996742287357
 20
260.1999740019874
 30
0.0
  0
LINE
  5
268
330
1F
100
AcDbEntity
  8
0
370
    15
100
AcDbLine
 10
537.6376798201
 20
271.0273120797
 30
0.0
 11
537.7601585618
 21
270.9618840483
 31
0.0
  0
LINE
  5
269
330
1F
100
AcDbEntity
  8
0
370
    15
100
AcDbLine
 10
557.3089666705
 20
260.0877103356
 30
0.0
 11
557.1810430826999
 21
260.1618058735
 31
0.0
  0
LINE
  5
26A
330
1F
100
AcDbEntity
  8
0
370
    15
100
AcDbLine
 10
550.8994794148999
 20
238.7895956209
 30
0.0
 11
540.3691525346999
 21
245.0278078278
 31
0.0
  0
ELLIPSE
  5
26B
330
1F
100
AcDbEntity
  8
0
370
    15
100
AcDbEllipse
 10
541.4378124244999
 20
263.8526465165
 30
0.0
 11
1.999998800037701
 21
-0.0037868304683002
 31
0.0
210
0.0
220
0.0
230
0.9999999999999998
 40
0.5785459913000001
 41
0.7908569145402386
 42
2.357289918205006
  0
ARC
  5
26C
330
1F
100
AcDbEntity
  8
0
370
    15
100
AcDbCircle
 10
541.2990898573
 20
264.7491530421
 30
0.0
 40
1.548641783088495
100
AcDbArc
 50
302.8324673407
 51
357.1675248112001
  0
ELLIPSE
  5
26D
330
1F
100
AcDbEntity
  8
0
370
    15
100
AcDbEllipse
 10
541.4347270989
 20
263.037894598
 30
0.0
 11
0.9999975790640291
 21
-0.003795133456947
 31
0.0
210
0.0
220
0.0
230
1.0
 40
0.5798014867
 41
0.7919619123238323
 42
2.358394915988853
  0
ARC
  5
26E
330
1F
100
AcDbEntity
  8
0
370
    15
100
AcDbCircle
 10
541.5597814092
 20
264.7428349486
 30
0.0
 40
1.537786902748811
100
AcDbArc
 50
182.6170898833
 51
237.2385445013
  0
ELLIPSE
  5
26F
330
1F
100
AcDbEntity
  8
0
370
    15
100
AcDbEllipse
 10
541.4378124244999
 20
267.9087594055
 30
0.0
 11
1.999998820799305
 21
0.0037703459202589
 31
0.0
210
0.0
220
0.0
230
1.0
 40
0.5760266851
 41
0.7886755763829876
 42
2.35510858004787
  0
LINE
  5
270
330
1F
100
AcDbEntity
  8
0
370
    15
100
AcDbLine
 10
542.8458396475
 20
268.7287072223
 30
0.0
 11
542.8458396475
 21
264.672625539
 31
0.0
  0
LINE
  5
271
330
1F
100
AcDbEntity
  8
0
370
    15
100
AcDbLine
 10
543.5996742287
 20
260.1999740020001
 30
0.0
 11
545.6822896251
 21
261.4022422793
 31
0.0
  0
SPLINE
  5
272
330
1F
100
AcDbEntity
  8
0
370
    15
100
AcDbSpline
210
0.0
220
0.0
230
1.0
 70
     8
 71
     3
 72
    10
 73
     6
 74
     0
 42
0.000000001
 43
0.0000000001
 40
0.0
 40
0.0
 40
0.0
 40
0.0
 40
0.0271170187440953
 40
0.6855109207473378
 40
1.0
 40
1.0
 40
1.0
 40
1.0
 10
539.1251922521582
 20
262.5246010306341
 30
0.0
 10
539.1341848216586
 20
262.5232699994474
 30
0.0
 10
539.3615145534513
 20
262.4896218900114
 30
0.0
 10
539.6847509859511
 20
262.406306411175
 30
0.0
 10
539.9346301726587
 20
262.2779341408419
 30
0.0
 10
540.015404815515
 20
262.2364371901535
 30
0.0
  0
LINE
  5
273
330
1F
100
AcDbEntity
  8
0
370
    15
100
AcDbLine
 10
540.7276193837999
 20
263.4496625232
 30
0.0
 11
539.1251922522
 21
262.5246010306
 31
0.0
  0
LINE
  5
274
330
1F
100
AcDbEntity
  8
0
370
    15
100
AcDbLine
 10
545.6822896251
 20
261.4022422793
 30
0.0
 11
542.1387393358998
 21
263.4478920669
 31
0.0
  0
ELLIPSE
  5
275
330
1F
100
AcDbEntity
  8
0
370
    15
100
AcDbEllipse
 10
546.0373793790999
 20
262.0137857427
 30
0.0
 11
0.7677206015537195
 21
0.7076150345716315
 31
0.0
210
0.0
220
0.0
230
1.0
 40
0.2625532148
 41
4.008691927729206
 42
5.579469216056067
  0
LINE
  5
276
330
1F
100
AcDbEntity
  8
0
370
    15
100
AcDbLine
 10
542.8458396475
 20
264.672625539
 30
0.0
 11
546.7429361413
 21
262.4228772034
 31
0.0
  0
SPLINE
  5
277
330
1F
100
AcDbEntity
  8
0
370
    15
100
AcDbSpline
210
0.0
220
0.0
230
1.0
 70
     8
 71
     3
 72
    12
 73
     8
 74
     0
 42
0.000000001
 43
0.0000000001
 40
0.0
 40
0.0
 40
0.0
 40
0.0
 40
0.2332534024585305
 40
0.4973624419502968
 40
0.8283792012779127
 40
0.9958207095966747
 40
1.0
 40
1.0
 40
1.0
 40
1.0
 10
539.1251922521582
 20
262.5246010306341
 30
0.0
 10
538.9578401737464
 20
262.5591951926385
 30
0.0
 10
538.6009980548023
 20
262.6329597624598
 30
0.0
 10
538.0529527465235
 20
262.8404311990495
 30
0.0
 10
537.636251430896
 20
263.0134984057646
 30
0.0
 10
537.4173174312595
 20
263.1012027251659
 30
0.0
 10
537.3490235584325
 20
263.1270299066904
 30
0.0
 10
537.3473604737165
 20
263.1276588473124
 30
0.0
  0
SPLINE
  5
278
330
1F
100
AcDbEntity
  8
0
370
    15
100
AcDbSpline
210
0.0
220
0.0
230
1.0
 70
     8
 71
     3
 72
    13
 73
     9
 74
     0
 42
0.000000001
 43
0.0000000001
 40
0.0
 40
0.0
 40
0.0
 40
0.0
 40
0.1799811816107444
 40
0.3629441944631417
 40
0.5429898375719451
 40
0.7400806772175857
 40
0.9542427362047863
 40
1.0
 40
1.0
 40
1.0
 40
1.0
 10
536.8987876137481
 20
261.3846671394903
 30
0.0
 10
537.0418734640177
 20
261.4455303049933
 30
0.0
 10
537.3304157338285
 20
261.5682649841319
 30
0.0
 10
537.8585001234515
 20
261.5506078621985
 30
0.0
 10
538.4181914127602
 20
261.4038451325279
 30
0.0
 10
538.9930273501607
 20
261.1517404466704
 30
0.0
 10
539.3978652305309
 20
260.9321283445128
 30
0.0
 10
539.595031445949
 20
260.8174697740042
 30
0.0
 10
539.629741395305
 20
260.7972848089121
 30
0.0
  0
LWPOLYLINE
  5
279
330
1F
100
AcDbEntity
  8
0
370
    15
100
AcDbPolyline
 90
        9
 70
   128
 43
0.0
 10
539.6297413953
 20
260.7972848089
 10
539.6044006025999
 20
260.7345526977
 10
539.5702353136
 20
260.6743651984
 10
539.5290249152999
 20
260.6199503053
 10
539.4830163617999
 20
260.5741747642
 10
539.4346199258999
 20
260.5394991992
 10
539.3864250046999
 20
260.5177625468
 10
539.3410196779
 20
260.5101098212
 10
539.3007707547
 20
260.5169780506
  0
SPLINE
  5
27A
330
1F
100
AcDbEntity
  8
0
370
    15
100
AcDbSpline
210
0.0
220
0.0
230
1.0
 70
     8
 71
     3
 72
    13
 73
     9
 74
     0
 42
0.000000001
 43
0.0000000001
 40
0.0
 40
0.0
 40
0.0
 40
0.0
 40
0.048689166721294
 40
0.2749209934744055
 40
0.4771823416664769
 40
0.6548952254973602
 40
0.8294499067158787
 40
1.0
 40
1.0
 40
1.0
 40
1.0
 10
539.3007707546984
 20
260.5169780505854
 30
0.0
 10
539.2714120242202
 20
260.5341810940414
 30
0.0
 10
539.105639391544
 20
260.6313172357382
 30
0.0
 10
538.7764972780145
 20
260.8158778708118
 30
0.0
 10
538.3139880791175
 20
261.032872815797
 30
0.0
 10
537.8693014604592
 20
261.1630605243284
 30
0.0
 10
537.4505833231664
 20
261.1825249456472
 30
0.0
 10
537.2288057923578
 20
261.0767251228071
 30
0.0
 10
537.1192037776588
 20
261.0244390607529
 30
0.0
  0
ARC
  5
27B
330
1F
100
AcDbEntity
  8
0
370
    15
100
AcDbCircle
 10
537.3785748144
 20
261.4306909734
 30
0.0
 40
0.4819895758343855
100
AcDbArc
 50
185.4793616583
 51
237.4438536489
  0
ARC
  5
27C
330
1F
100
AcDbEntity
  8
0
370
    15
100
AcDbCircle
 10
538.949192301
 20
258.3660087984
 30
0.0
 40
3.227399797846856
100
AcDbArc
 50
124.5424292392
 51
160.7110867454
  0
SPLINE
  5
27D
330
1F
100
AcDbEntity
  8
0
370
    15
100
AcDbSpline
210
0.0
220
0.0
230
1.0
 70
     8
 71
     3
 72
     9
 73
     5
 74
     0
 42
0.000000001
 43
0.0000000001
 40
0.0
 40
0.0
 40
0.0
 40
0.0
 40
0.7645397404708041
 40
1.0
 40
1.0
 40
1.0
 40
1.0
 10
542.8020359010437
 20
258.4521457645779
 30
0.0
 10
541.9098374306484
 20
258.9785285603141
 30
0.0
 10
540.7428628141997
 20
259.6670248776045
 30
0.0
 10
539.5756119468583
 20
260.3549896797298
 30
0.0
 10
539.3007707546984
 20
260.5169780505854
 30
0.0
  0
LWPOLYLINE
  5
27E
330
1F
100
AcDbEntity
  8
0
370
    15
100
AcDbPolyline
 90
        9
 70
   128
 43
0.0
 10
540.6089233217
 20
256.7348803322
 10
540.7900217443
 20
257.1438528297
 10
541.0256858476999
 20
257.5296006134
 10
541.3038827068
 20
257.8724284434
 10
541.6104075163999
 20
258.154830656
 10
541.9296079907
 20
258.3623876819
 10
542.2451877872999
 20
258.4845028592
 10
542.5410323219999
 20
258.5149403833
 10
542.8020359009999
 20
258.4521457646
  0
LINE
  5
27F
330
1F
100
AcDbEntity
  8
0
370
    15
100
AcDbLine
 10
540.6089233217
 20
256.7348803322
 30
0.0
 11
535.9029629505999
 21
259.4321214566
 31
0.0
  0
ARC
  5
280
330
1F
100
AcDbEntity
  8
0
370
    15
100
AcDbCircle
 10
537.3425149897
 20
249.476071498
 30
0.0
 40
0.3794947109978157
100
AcDbArc
 50
195.0341528788
 51
238.3517129424
  0
ARC
  5
281
330
1F
100
AcDbEntity
  8
0
370
    15
100
AcDbCircle
 10
524.1304506673999
 20
264.6299404661
 30
0.0
 40
19.9409450018963
100
AcDbArc
 50
310.1042271576
 51
341.163143589
  0
SPLINE
  5
282
330
1F
100
AcDbEntity
  8
0
370
    15
100
AcDbSpline
210
0.0
220
0.0
230
1.0
 70
     8
 71
     3
 72
    14
 73
    10
 74
     0
 42
0.000000001
 43
0.0000000001
 40
0.0
 40
0.0
 40
0.0
 40
0.0
 40
0.0077105139859759
 40
0.1416148316851958
 40
0.4889364392501687
 40
0.7317993393331861
 40
0.8746923737332553
 40
0.8978634649389599
 40
1.0
 40
1.0
 40
1.0
 40
1.0
 10
543.4185863428415
 20
258.5618619023572
 30
0.0
 10
543.4177383143441
 20
258.5608591037631
 30
0.0
 10
543.4021630345189
 20
258.5424412454502
 30
0.0
 10
543.3462363712818
 20
258.4784026859743
 30
0.0
 10
543.2522066969353
 20
258.3833266777564
 30
0.0
 10
543.1441041443056
 20
258.2893846022065
 30
0.0
 10
543.0794182893119
 20
258.2406062014952
 30
0.0
 10
543.0371458985542
 20
258.2116299794877
 30
0.0
 10
543.0185505784151
 20
258.2005485966621
 30
0.0
 10
543.0033937868936
 20
258.1915163128402
 30
0.0
  0
LINE
  5
283
330
1F
100
AcDbEntity
  8
0
370
    15
100
AcDbLine
 10
547.8710083954999
 20
264.5755010077
 30
0.0
 11
546.7429361413
 21
266.5180603677
 31
0.0
  0
ELLIPSE
  5
284
330
1F
100
AcDbEntity
  8
0
370
    15
100
AcDbEllipse
 10
547.2181716926
 20
264.1985045707
 30
0.0
 11
-0.6542184105627485
 21
1.123394154808692
 31
0.0
210
0.0
220
0.0
230
0.9999999999999998
 40
0.5798953199
 41
3.139473132641257
 42
4.71026945943617
  0
LINE
  5
285
330
1F
100
AcDbEntity
  8
0
370
    15
100
AcDbLine
 10
546.7429361413
 20
262.4228772034
 30
0.0
 11
547.8710083954999
 21
263.0743089522
 31
0.0
  0
LINE
  5
286
330
1F
100
AcDbEntity
  8
0
370
    15
100
AcDbLine
 10
546.7429361413
 20
266.5180603677
 30
0.0
 11
542.8458396475
 21
268.7287072223
 31
0.0
  0
ARC
  5
287
330
1F
100
AcDbEntity
  8
0
370
    15
100
AcDbCircle
 10
535.397893819
 20
258.5469589978
 30
0.0
 40
1.019120898602267
100
AcDbArc
 50
60.2911423335
 51
83.94593834949999
  0
LINE
  5
288
330
1F
100
AcDbEntity
  8
0
370
    15
100
AcDbLine
 10
535.9029629505999
 20
259.4321214566
 30
0.0
 11
534.8048057391999
 21
256.4131993696
 31
0.0
  0
SPLINE
  5
289
330
1F
100
AcDbEntity
  8
0
370
    15
100
AcDbSpline
210
0.0
220
0.0
230
1.0
 70
     8
 71
     3
 72
    14
 73
    10
 74
     0
 42
0.000000001
 43
0.0000000001
 40
0.0
 40
0.0
 40
0.0
 40
0.0
 40
0.007383437306786
 40
0.1629697104954217
 40
0.3109522372455362
 40
0.5432140227467906
 40
0.7603016197106827
 40
0.913305544078069
 40
1.0
 40
1.0
 40
1.0
 40
1.0
 10
534.4395716866979
 20
256.6304105149031
 30
0.0
 10
534.4401598104079
 20
256.6300549379033
 30
0.0
 10
534.4531410746566
 20
256.6222065228213
 30
0.0
 10
534.4820737527588
 20
256.6047756668216
 30
0.0
 10
534.5425430259756
 20
256.5683929310692
 30
0.0
 10
534.6218274422319
 20
256.5208812958665
 30
0.0
 10
534.7060942949501
 20
256.4708420356718
 30
0.0
 10
534.7665902049099
 20
256.4353389677627
 30
0.0
 10
534.7946551642179
 20
256.4190799534121
 30
0.0
 10
534.8048057391812
 20
256.41319936965
 30
0.0
  0
LINE
  5
28A
330
1F
100
AcDbEntity
  8
0
370
    15
100
AcDbLine
 10
539.4914694390999
 20
253.6629101647
 30
0.0
 11
540.6089233217
 21
256.7348803322
 31
0.0
  0
LWPOLYLINE
  5
28B
330
1F
100
AcDbEntity
  8
0
370
    15
100
AcDbPolyline
 90
        3
 70
   128
 43
0.0
 10
534.8048057391999
 20
256.4131993696
 10
538.0113669498
 20
254.5316657534
 10
539.4914694390999
 20
253.6629101647
  0
LINE
  5
28C
330
1F
100
AcDbEntity
  8
0
370
    15
100
AcDbLine
 10
536.9411886604
 20
249.8171347043
 30
0.0
 11
536.9760098598
 21
249.3776325554
 31
0.0
  0
ARC
  5
28D
330
1F
100
AcDbEntity
  8
0
370
    15
100
AcDbCircle
 10
535.3870865035999
 20
249.709982872
 30
0.0
 40
1.557791715571243
100
AcDbArc
 50
3.944172519399999
 51
20.408871417
  0
SPLINE
  5
28E
330
1F
100
AcDbEntity
  8
0
370
    15
100
AcDbSpline
210
0.0
220
0.0
230
1.0
 70
     8
 71
     3
 72
     9
 73
     5
 74
     0
 42
0.000000001
 43
0.0000000001
 40
0.0
 40
0.0
 40
0.0
 40
0.0
 40
0.8245019377771356
 40
1.0
 40
1.0
 40
1.0
 40
1.0
 10
536.9613039024353
 20
250.4195696180402
 30
0.0
 10
536.9325329232665
 20
250.3707887556384
 30
0.0
 10
536.8976379426113
 20
250.3116247195498
 30
0.0
 10
536.8546387954243
 20
250.2619324787242
 30
0.0
 10
536.8470925284159
 20
250.2532115867518
 30
0.0
  0
LINE
  5
28F
330
1F
100
AcDbEntity
  8
0
370
    15
100
AcDbLine
 10
537.7848210537
 20
251.9889390818
 30
0.0
 11
536.9613039024
 21
250.419569618
 31
0.0
  0
ARC
  5
290
330
1F
100
AcDbEntity
  8
0
370
    15
100
AcDbCircle
 10
539.6352238398999
 20
251.2455738528
 30
0.0
 40
1.994136990020318
100
AcDbArc
 50
97.6821261097
 51
158.113113991
  0
SPLINE
  5
291
330
1F
100
AcDbEntity
  8
0
370
    15
100
AcDbSpline
210
0.0
220
0.0
230
1.0
 70
     8
 71
     3
 72
    12
 73
     8
 74
     0
 42
0.000000001
 43
0.0000000001
 40
0.0
 40
0.0
 40
0.0
 40
0.0
 40
0.1528710064136178
 40
0.3646451396572357
 40
0.5764248972364304
 40
0.7882121937005896
 40
1.0
 40
1.0
 40
1.0
 40
1.0
 10
539.368653522581
 20
253.2218133627678
 30
0.0
 10
539.3894307412734
 20
253.2225534687715
 30
0.0
 10
539.438990903069
 20
253.2243188529565
 30
0.0
 10
539.527234409142
 20
253.2665645703677
 30
0.0
 10
539.620617715317
 20
253.3467606508858
 30
0.0
 10
539.7034684794452
 20
253.4545786848033
 30
0.0
 10
539.7388452146913
 20
253.5364528268831
 30
0.0
 10
539.756533603605
 20
253.5773899471969
 30
0.0
  0
LINE
  5
292
330
1F
100
AcDbEntity
  8
0
370
    15
100
AcDbLine
 10
540.8739874862
 20
256.6493601148
 30
0.0
 11
539.7565336036
 21
253.5773899472
 31
0.0
  0
LWPOLYLINE
  5
293
330
1F
100
AcDbEntity
  8
0
370
    15
100
AcDbPolyline
 90
        9
 70
   128
 43
0.0
 10
542.8479865026
 20
258.1950537395
 10
542.613059969
 20
258.2515743739
 10
542.346773546
 20
258.2241782092
 10
542.0627235432999
 20
258.1142639819
 10
541.7754137453999
 20
257.9274433075
 10
541.4995138895999
 20
257.6732559573
 10
541.2491115601
 20
257.36468019
 10
541.0369930568999
 20
257.0174723574
 10
540.8739874862
 20
256.6493601148
  0
SPLINE
  5
294
330
1F
100
AcDbEntity
  8
0
370
    15
100
AcDbSpline
210
0.0
220
0.0
230
1.0
 70
     8
 71
     3
 72
     9
 73
     5
 74
     0
 42
0.000000001
 43
0.0000000001
 40
0.0
 40
0.0
 40
0.0
 40
0.0
 40
0.673246960994323
 40
1.0
 40
1.0
 40
1.0
 40
1.0
 10
543.0033937868936
 20
258.1915163128402
 30
0.0
 10
542.9652463008387
 20
258.1838654484054
 30
0.0
 10
542.9085843502248
 20
258.1725013207108
 30
0.0
 10
542.8629105542653
 20
258.1894995247167
 30
0.0
 10
542.8479865026328
 20
258.1950537395331
 30
0.0
  0
LINE
  5
295
330
1F
100
AcDbEntity
  8
0
370
    15
100
AcDbLine
 10
539.9260126669
 20
267.9483333254
 30
0.0
 11
539.9258941289
 21
267.9529364195
 31
0.0
  0
ARC
  5
296
330
1F
100
AcDbEntity
  8
0
370
    15
100
AcDbCircle
 10
530.7541231115
 20
251.2134606757
 30
0.0
 40
4.168715555995053
100
AcDbArc
 50
60.020997005
 51
65.74275394359999
  0
SPLINE
  5
297
330
1F
100
AcDbEntity
  8
0
370
    15
100
AcDbSpline
210
0.0
220
0.0
230
1.0
 70
     8
 71
     3
 72
    14
 73
    10
 74
     0
 42
0.000000001
 43
0.0000000001
 40
0.0
 40
0.0
 40
0.0
 40
0.0
 40
0.0868913637565423
 40
0.2401547905154579
 40
0.4572873329831479
 40
0.6893448881954943
 40
0.9181200461641488
 40
0.9925969478854204
 40
1.0
 40
1.0
 40
1.0
 40
1.0
 10
534.6141057376486
 20
256.2352514564369
 30
0.0
 10
534.6044124756287
 20
256.2415456895915
 30
0.0
 10
534.5776217428194
 20
256.2589420127626
 30
0.0
 10
534.5303985312088
 20
256.3064001625031
 30
0.0
 10
534.4795572506766
 20
256.3870095647675
 30
0.0
 10
534.4441453769836
 20
256.4914481889661
 30
0.0
 10
534.4357129063799
 20
256.5740284701424
 30
0.0
 10
534.4382899141491
 20
256.6180820742837
 30
0.0
 10
534.4394654063495
 20
256.6293882813054
 30
0.0
 10
534.4395716866979
 20
256.6304105149031
 30
0.0
  0
ARC
  5
298
330
1F
100
AcDbEntity
  8
0
370
    15
100
AcDbCircle
 10
534.9831652253
 20
253.9459560131
 30
0.0
 40
2.31885284836321
100
AcDbArc
 50
99.1579144483
 51
157.7379482617
  0
ARC
  5
299
330
1F
100
AcDbEntity
  8
0
370
    15
100
AcDbCircle
 10
534.5648019112998
 20
256.4792454105
 30
0.0
 40
0.2489255247910961
100
AcDbArc
 50
281.4239203704
 51
344.6137643748
  0
LWPOLYLINE
  5
29A
330
1F
100
AcDbEntity
  8
0
370
    15
100
AcDbPolyline
 90
        4
 70
   128
 43
0.0
 10
539.2975293985999
 20
253.4851222527
 10
539.0139061328
 20
253.6517132084
 10
537.8794130697
 20
254.3180192402
 10
534.6141057376
 20
256.2352514564
  0
ARC
  5
29B
330
1F
100
AcDbEntity
  8
0
370
    15
100
AcDbCircle
 10
539.5936911641
 20
251.2895181215
 30
0.0
 40
2.215488499704544
100
AcDbArc
 50
97.6821739957
 51
158.1130892269
  0
LINE
  5
29C
330
1F
100
AcDbEntity
  8
0
370
    15
100
AcDbLine
 10
537.5378918879
 20
252.1153986383
 30
0.0
 11
532.8371577258999
 21
254.824437854
 31
0.0
  0
SPLINE
  5
29D
330
1F
100
AcDbEntity
  8
0
370
    15
100
AcDbSpline
210
0.0
220
0.0
230
1.0
 70
     8
 71
     3
 72
    12
 73
     8
 74
     0
 42
0.000000001
 43
0.0000000001
 40
0.0
 40
0.0
 40
0.0
 40
0.0
 40
0.152877414315731
 40
0.3646521872047956
 40
0.5764202327947685
 40
0.7882026059712012
 40
1.0
 40
1.0
 40
1.0
 40
1.0
 10
539.29752939863
 20
253.4851222526695
 30
0.0
 10
539.3080168320778
 20
253.4854342228529
 30
0.0
 10
539.3330320742701
 20
253.4861783524563
 30
0.0
 10
539.3773275304412
 20
253.5071981290958
 30
0.0
 10
539.4240780902156
 20
253.5472637943268
 30
0.0
 10
539.4653350444709
 20
253.6012734275378
 30
0.0
 10
539.4827577683051
 20
253.6423640998995
 30
0.0
 10
539.4914694391419
 20
253.6629101646526
 30
0.0
  0
SPLINE
  5
29E
330
1F
100
AcDbEntity
  8
0
370
    15
100
AcDbSpline
210
0.0
220
0.0
230
1.0
 70
     8
 71
     3
 72
    14
 73
    10
 74
     0
 42
0.000000001
 43
0.0000000001
 40
0.0
 40
0.0
 40
0.0
 40
0.0
 40
0.0922046824921366
 40
0.1330217507211083
 40
0.2762481364959107
 40
0.5162900639201795
 40
0.8596927603104546
 40
0.9930831714340715
 40
1.0
 40
1.0
 40
1.0
 40
1.0
 10
542.8962551808898
 20
258.4494473483626
 30
0.0
 10
542.9102274048686
 20
258.4532919174699
 30
0.0
 10
542.9303848377111
 20
258.4588383962344
 30
0.0
 10
542.980561985781
 20
258.4702845989605
 30
0.0
 10
543.0627243072811
 20
258.4874880948531
 30
0.0
 10
543.2002119330097
 20
258.5149663010835
 30
0.0
 10
543.3227006281845
 20
258.5403073717004
 30
0.0
 10
543.3968358917696
 20
258.5569948542706
 30
0.0
 10
543.4175644709214
 20
258.5616332404432
 30
0.0
 10
543.4185863428413
 20
258.5618619023572
 30
0.0
  0
SPLINE
  5
29F
330
1F
100
AcDbEntity
  8
0
370
    15
100
AcDbSpline
210
0.0
220
0.0
230
1.0
 70
     8
 71
     3
 72
     9
 73
     5
 74
     0
 42
0.000000001
 43
0.0000000001
 40
0.0
 40
0.0
 40
0.0
 40
0.0
 40
0.3267689565730082
 40
1.0
 40
1.0
 40
1.0
 40
1.0
 10
542.8020359010437
 20
258.4521457645779
 30
0.0
 10
542.8111136937604
 20
258.4487402633638
 30
0.0
 10
542.8388941561758
 20
258.4383185230319
 30
0.0
 10
542.8731757486311
 20
258.4449696220385
 30
0.0
 10
542.8962551808898
 20
258.4494473483626
 30
0.0
  0
LINE
  5
2A0
330
1F
100
AcDbEntity
  8
0
370
    15
100
AcDbLine
 10
532.8371577258999
 20
254.824437854
 30
0.0
 11
532.0490801474
 21
253.3226059568
 31
0.0
  0
SPLINE
  5
2A1
330
1F
100
AcDbEntity
  8
0
370
    15
100
AcDbSpline
210
0.0
220
0.0
230
1.0
 70
     8
 71
     3
 72
    13
 73
     9
 74
     0
 42
0.000000001
 43
0.0000000001
 40
0.0
 40
0.0
 40
0.0
 40
0.0
 40
0.1666739647271051
 40
0.3240714758210483
 40
0.5288638777765447
 40
0.7869094142668342
 40
0.992600149206636
 40
1.0
 40
1.0
 40
1.0
 40
1.0
 10
531.6328326031626
 20
253.4248862878481
 30
0.0
 10
531.6489053866096
 20
253.4186322029469
 30
0.0
 10
531.6801564020924
 20
253.4064721122745
 30
0.0
 10
531.7509196375067
 20
253.3849370128146
 30
0.0
 10
531.8449466053136
 20
253.3604669936612
 30
0.0
 10
531.9517210795351
 20
253.3378306861189
 30
0.0
 10
532.0201067975771
 20
253.3266272120569
 30
0.0
 10
532.0481077765959
 20
253.3227409135789
 30
0.0
 10
532.049080147412
 20
253.3226059567539
 30
0.0
  0
LINE
  5
2A2
330
1F
100
AcDbEntity
  8
0
370
    15
100
AcDbLine
 10
536.7143740780999
 20
250.5460295548
 30
0.0
 11
537.5378918879
 21
252.1153986383
 31
0.0
  0
LWPOLYLINE
  5
2A3
330
1F
100
AcDbEntity
  8
0
370
    15
100
AcDbPolyline
 90
        3
 70
   128
 43
0.0
 10
532.0490801474
 20
253.3226059568
 10
535.4685527487999
 20
251.2877781701
 10
536.7143740780999
 20
250.5460295548
  0
ARC
  5
2A4
330
1F
100
AcDbEntity
  8
0
370
    15
100
AcDbCircle
 10
538.0414195086
 20
263.6355905898
 30
0.0
 40
0.4623421694624315
100
AcDbArc
 50
63.23628551470001
 51
117.3398874456
  0
LWPOLYLINE
  5
2A5
330
1F
100
AcDbEntity
  8
0
370
    15
100
AcDbPolyline
 90
        9
 70
   128
 43
0.0
 10
531.6430828484
 20
253.1940582935
 10
531.4532191984
 20
253.3486409521
 10
531.2219640504999
 20
253.4308987283
 10
530.9584000503999
 20
253.4375988026
 10
530.6728828105999
 20
253.3684782238
 10
530.3766273439999
 20
253.2262530735
 10
530.0812721078999
 20
253.0165090002
 10
529.7984206562
 20
252.747486812
 10
529.5391839520999
 20
252.4297543795
  0
ARC
  5
2A6
330
1F
100
AcDbEntity
  8
0
370
    15
100
AcDbCircle
 10
535.8009800724
 20
249.5034095373
 30
0.0
 40
1.140215455915438
100
AcDbArc
 50
2.462933229099999
 51
35.9114100897
  0
LWPOLYLINE
  5
2A7
330
1F
100
AcDbEntity
  8
0
370
    15
100
AcDbPolyline
 90
        3
 70
   128
 43
0.0
 10
539.2775208407999
 20
246.7839426184
 10
539.6052738326999
 20
247.1701734004
 10
539.8022260557
 20
247.3484538097
  0
LINE
  5
2A8
330
1F
100
AcDbEntity
  8
0
370
    15
100
AcDbLine
 10
539.2775208407999
 20
246.7839426184
 30
0.0
 11
529.5391839520999
 21
252.4297543795
 31
0.0
  0
SPLINE
  5
2A9
330
1F
100
AcDbEntity
  8
0
370
    15
100
AcDbSpline
210
0.0
220
0.0
230
1.0
 70
     8
 71
     3
 72
    13
 73
     9
 74
     0
 42
0.000000001
 43
0.0000000001
 40
0.0
 40
0.0
 40
0.0
 40
0.0
 40
0.1666777765429578
 40
0.3240868938721698
 40
0.5288894864639726
 40
0.7869171742311134
 40
0.9926060989850769
 40
1.0
 40
1.0
 40
1.0
 40
1.0
 10
531.6807832044221
 20
253.1669951337293
 30
0.0
 10
531.6964835519781
 20
253.162726745548
 30
0.0
 10
531.7270111782622
 20
253.1544273267758
 30
0.0
 10
531.7923231244
 20
253.1623630775769
 30
0.0
 10
531.8763659331614
 20
253.1914256906266
 30
0.0
 10
531.9685831877863
 20
253.2474029095854
 30
0.0
 10
532.025365588868
 20
253.2979692336737
 30
0.0
 10
532.0482848566752
 20
253.3217797403344
 30
0.0
 10
532.049080147412
 20
253.3226059567539
 30
0.0
  0
ARC
  5
2AA
330
1F
100
AcDbEntity
  8
0
370
    15
100
AcDbCircle
 10
531.7983512318
 20
253.3222583552
 30
0.0
 40
0.1947534569205741
100
AcDbArc
 50
148.1994911923
 51
232.8663575189
  0
SPLINE
  5
2AB
330
1F
100
AcDbEntity
  8
0
370
    15
100
AcDbSpline
210
0.0
220
0.0
230
1.0
 70
     8
 71
     3
 72
     9
 73
     5
 74
     0
 42
0.000000001
 43
0.0000000001
 40
0.0
 40
0.0
 40
0.0
 40
0.0
 40
0.1755016731968427
 40
1.0
 40
1.0
 40
1.0
 40
1.0
 10
536.6464155775872
 20
250.4458758511671
 30
0.0
 10
536.6509160718576
 20
250.4511250504387
 30
0.0
 10
536.6765596693708
 20
250.4810347326428
 30
0.0
 10
536.6972855906623
 20
250.5166581263187
 30
0.0
 10
536.7143740780886
 20
250.5460295547995
 30
0.0
  0
ARC
  5
2AC
330
1F
100
AcDbEntity
  8
0
370
    15
100
AcDbCircle
 10
538.0414195086
 20
266.4035015579
 30
0.0
 40
0.4623421694618762
100
AcDbArc
 50
63.2362855146
 51
117.3398874456
  0
LINE
  5
2AD
330
1F
100
AcDbEntity
  8
0
370
    15
100
AcDbLine
 10
538.2496178161
 20
266.8163135568
 30
0.0
 11
538.2496178161
 21
264.0484025887
 31
0.0
  0
ARC
  5
2AE
330
1F
100
AcDbEntity
  8
0
370
    15
100
AcDbCircle
 10
546.3669401788999
 20
262.1558286861
 30
0.0
 40
0.4611809562373147
100
AcDbArc
 50
306.4503014952
 51
35.3840091224
  0
ELLIPSE
  5
2AF
330
1F
100
AcDbEntity
  8
0
370
    15
100
AcDbEllipse
 10
546.2873793791
 20
261.5807730421
 30
0.0
 11
0.5000000024330121
 21
0.2886905720706068
 31
0.0
210
0.0
220
0.0
230
1.0
 40
0.0000700686
 41
3.926959881544339
 42
5.497737164601362
  0
ARC
  5
2B0
330
1F
100
AcDbEntity
  8
0
370
    15
100
AcDbCircle
 10
545.8301906448999
 20
261.6066508574
 30
0.0
 40
0.2523045351216467
100
AcDbArc
 50
234.112161784
 51
294.2512809441
  0
ARC
  5
2B1
330
1F
100
AcDbEntity
  8
0
370
    15
100
AcDbCircle
 10
530.102452783
 20
253.4020821537
 30
0.0
 40
1.123696167214802
100
AcDbArc
 50
225.7174096415
 51
239.9163158459999
  0
ARC
  5
2B2
330
1F
100
AcDbEntity
  8
0
370
    15
100
AcDbCircle
 10
540.0513466249
 20
268.3417770646
 30
0.0
 40
0.4622715829337552
100
AcDbArc
 50
182.6556329491999
 51
236.7681522069
  0
SPLINE
  5
2B3
330
1F
100
AcDbEntity
  8
0
370
    15
100
AcDbSpline
210
0.0
220
0.0
230
1.0
 70
     8
 71
     3
 72
    11
 73
     7
 74
     0
 42
0.000000001
 43
0.0000000001
 40
0.0
 40
0.0
 40
0.0
 40
0.0
 40
0.0077451627693683
 40
0.3180518443164273
 40
0.9315001651943653
 40
1.0
 40
1.0
 40
1.0
 40
1.0
 10
537.3473604737165
 20
267.1766461722783
 30
0.0
 10
537.3490233626752
 20
267.179182539958
 30
0.0
 10
537.4173091968047
 20
267.2833374095767
 30
0.0
 10
537.6391200624633
 20
267.5705643674838
 30
0.0
 10
537.9163679226849
 20
267.8736664339075
 30
0.0
 10
538.158915439168
 20
267.9749148964235
 30
0.0
 10
538.1832786765683
 20
267.9850850287112
 30
0.0
  0
ELLIPSE
  5
2B4
330
1F
100
AcDbEntity
  8
0
370
    15
100
AcDbEllipse
 10
546.0373793790999
 20
266.1089535373
 30
0.0
 11
-0.1352168801871585
 21
1.092881083341752
 31
0.0
210
0.0
220
0.0
230
0.9999999999999998
 40
0.7120820797000001
 41
5.006638301348047
 42
5.796471801081245
  0
LINE
  5
2B5
330
1F
100
AcDbEntity
  8
0
370
    15
100
AcDbLine
 10
545.933822017
 20
261.3766114756
 30
0.0
 11
543.8844789233999
 21
260.1935508898
 31
0.0
  0
ARC
  5
2B6
330
1F
100
AcDbEntity
  8
0
370
    15
100
AcDbCircle
 10
547.4950646952
 20
262.8072682843
 30
0.0
 40
0.4611338028022266
100
AcDbArc
 50
306.4433012377
 51
35.3869740982
  0
LINE
  5
2B7
330
1F
100
AcDbEntity
  8
0
370
    15
100
AcDbLine
 10
547.7689906315999
 20
262.43631146
 30
0.0
 11
546.6409394508
 21
261.7848674032
 31
0.0
  0
LINE
  5
2B8
330
1F
100
AcDbEntity
  8
0
370
    15
100
AcDbLine
 10
539.7980087367
 20
267.9551054587
 30
0.0
 11
538.4617165629
 21
267.183680407
 31
0.0
  0
ARC
  5
2B9
330
1F
100
AcDbEntity
  8
0
370
    15
100
AcDbCircle
 10
538.7150544511
 20
267.5703520129
 30
0.0
 40
0.4622715829343991
100
AcDbArc
 50
182.6556329493
 51
236.7681522069
  0
ELLIPSE
  5
2BA
330
1F
100
AcDbEntity
  8
0
370
    15
100
AcDbEllipse
 10
530.1976490091
 20
250.8279418511
 30
0.0
 11
1.903747743998679
 21
2.462283861707759
 31
0.0
210
0.0
220
0.0
230
1.0
 40
0.4718032797000001
 41
1.640870823922607
 42
3.198577181327519
  0
LINE
  5
2BB
330
1F
100
AcDbEntity
  8
0
370
    15
100
AcDbLine
 10
529.5391839520999
 20
252.4297543795
 30
0.0
 11
528.9054836942
 21
251.5515339556
 31
0.0
  0
LINE
  5
2BC
330
1F
100
AcDbEntity
  8
0
370
    15
100
AcDbLine
 10
537.0931303542
 20
243.7566803675
 30
0.0
 11
539.2775208407999
 21
246.7839426184
 31
0.0
  0
ELLIPSE
  5
2BD
330
1F
100
AcDbEntity
  8
0
370
    15
100
AcDbEllipse
 10
537.3802808517
 20
243.595880276
 30
0.0
 11
0.4230550542220044
 21
0.5471741914906261
 31
0.0
210
0.0
220
0.0
230
1.0
 40
0.4718032797
 41
1.640870823922664
 42
2.587734364127171
  0
LINE
  5
2BE
330
1F
100
AcDbEntity
  8
0
370
    15
100
AcDbLine
 10
528.3631604380999
 20
248.318496626
 30
0.0
 11
536.8846967368999
 21
243.2354860925
 31
0.0
  0
LINE
  5
2BF
330
1F
100
AcDbEntity
  8
0
370
    15
100
AcDbLine
 10
528.2814153082999
 20
248.2425103605
 30
0.0
 11
515.8158684636
 21
241.0463033426
 31
0.0
  0
LINE
  5
2C0
330
1F
100
AcDbEntity
  8
0
370
    15
100
AcDbLine
 10
536.9651774612
 20
243.0627348456
 30
0.0
 11
528.2814153082999
 21
248.2425103605
 31
0.0
  0
LINE
  5
2C1
330
1F
100
AcDbEntity
  8
0
370
    15
100
AcDbLine
 10
540.3691525346999
 20
245.0278078278
 30
0.0
 11
536.9651774612
 21
243.0627348456
 31
0.0
  0
LINE
  5
2C2
330
1F
100
AcDbEntity
  8
0
370
    15
100
AcDbLine
 10
535.0602880811
 20
229.6458250945
 30
0.0
 11
550.8994794148999
 21
238.7895956209
 31
0.0
  0
LINE
  5
2C3
330
1F
100
AcDbEntity
  8
0
370
    15
100
AcDbLine
 10
535.0602880811
 20
229.6458250945
 30
0.0
 11
515.8158684636
 21
241.0463033426
 31
0.0
  0
ELLIPSE
  5
2C4
330
1F
100
AcDbEntity
  8
0
370
    15
100
AcDbEllipse
 10
530.1177702587
 20
250.9141730685
 30
0.0
 11
1.89638246150389
 21
2.632259486546018
 31
0.0
210
0.0
220
0.0
230
1.0
 40
0.5044324099000001
 41
1.62774297798153
 42
3.185449335386389
  0
ARC
  5
2C5
330
1F
100
AcDbEntity
  8
0
370
    15
100
AcDbCircle
 10
529.4688228853999
 20
252.5239544827
 30
0.0
 40
1.123811695070089
100
AcDbArc
 50
225.718143223
 51
239.9155822646
  0
ARC
  5
2C6
330
1F
100
AcDbEntity
  8
0
370
    15
100
AcDbCircle
 10
528.1394106521999
 20
248.4772406547
 30
0.0
 40
0.2743421829384415
100
AcDbArc
 50
301.1726566673
 51
324.6453968682
  0
ARC
  5
2C7
330
1F
100
AcDbEntity
  8
0
370
    15
100
AcDbCircle
 10
517.4964781902999
 20
243.6268704981
 30
0.0
 40
3.079573979850009
100
AcDbArc
 50
182.6411632384
 51
236.9255738396
  0
ARC
  5
2C8
330
1F
100
AcDbEntity
  8
0
370
    15
100
AcDbCircle
 10
542.7469449369
 20
258.2362103438
 30
0.0
 40
0.260314365834429
100
AcDbArc
 50
350.1137593183
 51
54.99998449999999
  0
ARC
  5
2C9
330
1F
100
AcDbEntity
  8
0
370
    15
100
AcDbCircle
 10
539.8282412818999
 20
254.2531774625
 30
0.0
 40
0.6795813100806625
100
AcDbArc
 50
240.293458663
 51
263.9430208535
  0
ARC
  5
2CA
330
1F
100
AcDbEntity
  8
0
370
    15
100
AcDbCircle
 10
540.9456909074
 20
257.3251344357
 30
0.0
 40
0.6795677401303728
100
AcDbArc
 50
240.2932191292
 51
263.9432603873
  0
ARC
  5
2CB
330
1F
100
AcDbEntity
  8
0
370
    15
100
AcDbCircle
 10
542.6866907546
 20
258.2988774459
 30
0.0
 40
0.1918220016547893
100
AcDbArc
 50
327.2312106047
 51
53.0359765914
  0
ELLIPSE
  5
2CC
330
1F
100
AcDbEntity
  8
0
370
    15
100
AcDbEllipse
 10
538.4655417880999
 20
266.9365476694
 30
0.0
 11
0.1499871122919103
 21
0.2598150614337556
 31
0.0
210
0.0
220
0.0
230
1.0
 40
0.5980578488
 41
0.7854675125339082
 42
2.355959252833474
  0
ARC
  5
2CD
330
1F
100
AcDbEntity
  8
0
370
    15
100
AcDbCircle
 10
539.1671606647999
 20
253.3086471315
 30
0.0
 40
0.2194070991202879
100
AcDbArc
 50
336.6862726983
 51
53.5453395624
  0
ARC
  5
2CE
330
1F
100
AcDbEntity
  8
0
370
    15
100
AcDbCircle
 10
538.9269892287999
 20
254.5234857767
 30
0.0
 40
2.780013505137859
100
AcDbArc
 50
240.0216400492
 51
245.7417667787
  0
ARC
  5
2CF
330
1F
100
AcDbEntity
  8
0
370
    15
100
AcDbCircle
 10
550.1449434165
 20
260.7038922494
 30
0.0
 40
4.490003881662583
100
AcDbArc
 50
119.2448576771
 51
120.4272478247
  0
ARC
  5
2D0
330
1F
100
AcDbEntity
  8
0
370
    15
100
AcDbCircle
 10
538.1034990406999
 20
252.954168954
 30
0.0
 40
2.780072576019481
100
AcDbArc
 50
240.0216851236
 51
245.7417058834
  0
ARC
  5
2D1
330
1F
100
AcDbEntity
  8
0
370
    15
100
AcDbCircle
 10
536.3414764323001
 20
249.9274110655
 30
0.0
 40
0.6014928231109053
100
AcDbArc
 50
32.7962513947
 51
59.53775078289999
  0
ELLIPSE
  5
2D2
330
1F
100
AcDbEntity
  8
0
370
    15
100
AcDbEllipse
 10
536.9670196041
 20
243.2249653974
 30
0.0
 11
-0.124019739526716
 21
0.296745391044368
 31
0.0
210
0.0
220
0.0
230
0.9999999999999998
 40
0.2254554362
 41
1.441526368690507
 42
2.052369185890789
  0
ARC
  5
2D3
330
1F
100
AcDbEntity
  8
0
370
    15
100
AcDbCircle
 10
541.4744007443
 20
246.2498857979
 30
0.0
 40
0.1251259278301338
100
AcDbArc
 50
303.5141835922
 51
5.9756450773
  0
SPLINE
  5
2D4
330
1F
100
AcDbEntity
  8
0
370
    15
100
AcDbSpline
210
0.0
220
0.0
230
1.0
 70
     8
 71
     3
 72
    14
 73
    10
 74
     0
 42
0.000000001
 43
0.0000000001
 40
0.0
 40
0.0
 40
0.0
 40
0.0
 40
0.0077619795989373
 40
0.2715372125391614
 40
0.5706453546610078
 40
0.7695394807626352
 40
0.891990713392686
 40
0.9327308413497517
 40
1.0
 40
1.0
 40
1.0
 40
1.0
 10
541.9850495357074
 20
246.1328414857082
 30
0.0
 10
541.9837755658423
 20
246.1324370752566
 30
0.0
 10
541.939208297709
 20
246.1182895906704
 30
0.0
 10
541.8448214134733
 20
246.0935152318587
 30
0.0
 10
541.7189667647342
 20
246.0782702320494
 30
0.0
 10
541.6217345660357
 20
246.0856017353974
 30
0.0
 10
541.5737946154893
 20
246.1049514578741
 30
0.0
 10
541.5512559096534
 20
246.124818653985
 30
0.0
 10
541.5464693263826
 20
246.1376011230075
 30
0.0
 10
541.5434881991155
 20
246.1455621600963
 30
0.0
  0
ARC
  5
2D5
330
1F
100
AcDbEntity
  8
0
370
    15
100
AcDbCircle
 10
540.5371632741999
 20
245.2858357939
 30
0.0
 40
0.3079058944847882
100
AcDbArc
 50
182.6362498994
 51
236.9304871786
  0
ARC
  5
2D6
330
1F
100
AcDbEntity
  8
0
370
    15
100
AcDbCircle
 10
533.7502552517999
 20
256.4381266011
 30
0.0
 40
12.91012635661586
100
AcDbArc
 50
300.124426015
 51
307.1319551438
  0
LINE
  5
2D7
330
1F
100
AcDbEntity
  8
0
370
    15
100
AcDbLine
 10
541.5434881991
 20
246.1455621601
 30
0.0
 11
541.5399412783999
 21
246.1738623589
 31
0.0
  0
LINE
  5
2D8
330
1F
100
AcDbEntity
  8
0
370
    15
100
AcDbLine
 10
537.3144447728
 20
243.5888000404
 30
0.0
 11
540.2295832457999
 21
245.2716736599
 31
0.0
  0
LINE
  5
2D9
330
1F
100
AcDbEntity
  8
0
370
    15
100
AcDbLine
 10
539.4988352594999
 20
246.6160622913
 30
0.0
 11
537.3144447728
 21
243.5888000404
 31
0.0
  0
ARC
  5
2DA
330
1F
100
AcDbEntity
  8
0
370
    15
100
AcDbCircle
 10
538.7139948394
 20
245.8112356297
 30
0.0
 40
1.124153210277014
100
AcDbArc
 50
45.7203187213
 51
59.91466237180001
  0
ELLIPSE
  5
2DB
330
1F
100
AcDbEntity
  8
0
370
    15
100
AcDbEllipse
 10
536.9670196041
 20
243.2249653974
 30
0.0
 11
0.1268198119032604
 21
0.294712697571299
 31
0.0
210
0.0
220
0.0
230
1.0
 40
0.2199918468
 41
4.226798803085818
 42
4.83764162028687
  0
ELLIPSE
  5
2DC
330
1F
100
AcDbEntity
  8
0
370
    15
100
AcDbEllipse
 10
537.4601596021
 20
243.5096490586
 30
0.0
 11
0.4157010806770815
 21
0.3874636095839037
 31
0.0
210
0.0
220
0.0
230
0.9999999999999998
 40
0.2779324163
 41
1.663541156617658
 42
2.61040469682164
  0
ARC
  5
2DD
330
1F
100
AcDbEntity
  8
0
370
    15
100
AcDbCircle
 10
536.5296129083
 20
242.7839846574
 30
0.0
 40
1.124139162332835
100
AcDbArc
 50
45.72022957419999
 51
59.91475151899999
  0
ARC
  5
2DE
330
1F
100
AcDbEntity
  8
0
370
    15
100
AcDbCircle
 10
536.9625126513999
 20
242.8327865374
 30
0.0
 40
0.4101490561132103
100
AcDbArc
 50
78.0845632945
 51
100.936790706
  0
SPLINE
  5
2DF
330
1F
100
AcDbEntity
  8
0
370
    15
100
AcDbSpline
210
0.0
220
0.0
230
1.0
 70
     8
 71
     3
 72
    12
 73
     8
 74
     0
 42
0.000000001
 43
0.0000000001
 40
0.0
 40
0.0
 40
0.0
 40
0.0
 40
0.0041792904033253
 40
0.1716207987220874
 40
0.5026375580497033
 40
0.7667465975414696
 40
1.0
 40
1.0
 40
1.0
 40
1.0
 10
507.3321820103877
 20
245.8002651443783
 30
0.0
 10
507.3305303946054
 20
245.7977226678894
 30
0.0
 10
507.2627074887066
 20
245.6933169425979
 30
0.0
 10
507.0833792401223
 20
245.3757007211111
 30
0.0
 10
506.9088485174683
 20
244.8613225237048
 30
0.0
 10
506.8608759570563
 20
244.3097772953364
 30
0.0
 10
506.9299825067067
 20
244.0699065170319
 30
0.0
 10
506.9623921469982
 20
243.957411743662
 30
0.0
  0
LWPOLYLINE
  5
2E0
330
1F
100
AcDbEntity
  8
0
370
    15
100
AcDbPolyline
 90
        3
 70
   128
 43
0.0
 10
509.5966571068
 20
240.4694704791999
 10
509.5474559294999
 20
240.4994061548
 10
509.5100822116
 20
240.5227824887
  0
ELLIPSE
  5
2E1
330
1F
100
AcDbEntity
  8
0
370
    15
100
AcDbEllipse
 10
517.3902010359999
 20
260.4299210513
 30
0.0
 11
1.872073160998297
 21
2.647188938347142
 31
0.0
210
0.0
220
0.0
230
1.0
 40
0.4990292963
 41
0.8253263243871163
 42
1.610805751846641
  0
ARC
  5
2E2
330
1F
100
AcDbEntity
  8
0
370
    15
100
AcDbCircle
 10
509.9738089567
 20
250.8291393985
 30
0.0
 40
0.956632257252304
100
AcDbArc
 50
176.7424882227
 51
237.8864505472
  0
ARC
  5
2E3
330
1F
100
AcDbEntity
  8
0
370
    15
100
AcDbCircle
 10
511.1473913889
 20
252.6729781888
 30
0.0
 40
1.150489072010812
100
AcDbArc
 50
66.4837332732
 51
131.5275617161
  0
LWPOLYLINE
  5
2E4
330
1F
100
AcDbEntity
  8
0
370
    15
100
AcDbPolyline
 90
        5
 70
   128
 43
0.0
 10
515.9953521351
 20
261.2575091994
 10
515.9823109781999
 20
261.2728209485
 10
515.9751157208999
 20
261.2844635201
 10
515.9740883913999
 20
261.2919642088
 10
515.9745915194
 20
261.2928947653
  0
LINE
  5
2E5
330
1F
100
AcDbEntity
  8
0
370
    15
100
AcDbLine
 10
506.9623921469999
 20
243.9574117437
 30
0.0
 11
505.3599650153
 21
243.032350251
 31
0.0
  0
ARC
  5
2E6
330
1F
100
AcDbEntity
  8
0
370
    15
100
AcDbCircle
 10
506.1921270406999
 20
244.3255226764
 30
0.0
 40
1.5377869027486
100
AcDbArc
 50
182.6170898833
 51
237.2385445013
  0
ARC
  5
2E7
330
1F
100
AcDbEntity
  8
0
370
    15
100
AcDbCircle
 10
513.234459562
 20
259.4291562254
 30
0.0
 40
0.2087796649603713
100
AcDbArc
 50
66.76600277289999
 51
146.9792840166
  0
ARC
  5
2E8
330
1F
100
AcDbEntity
  8
0
370
    15
100
AcDbCircle
 10
513.8999466458999
 20
260.1689463987
 30
0.0
 40
0.8001730029165823
100
AcDbArc
 50
223.218285487
 51
283.0003909092
  0
LINE
  5
2E9
330
1F
100
AcDbEntity
  8
0
370
    15
100
AcDbLine
 10
505.3568869782999
 20
242.2141806732
 30
0.0
 11
508.8696463605
 21
240.1507556733
 31
0.0
  0
ELLIPSE
  5
2EA
330
1F
100
AcDbEntity
  8
0
370
    15
100
AcDbEllipse
 10
506.0670735446
 20
242.6205827958
 30
0.0
 11
0.9999975790640858
 21
-0.0037951334568902
 31
0.0
210
0.0
220
0.0
230
1.0
 40
0.5798014867
 41
2.358394915988803
 42
3.924827919653591
  0
LINE
  5
2EB
330
1F
100
AcDbEntity
  8
0
370
    15
100
AcDbLine
 10
506.7627043299999
 20
248.8035629304
 30
0.0
 11
506.7625871091
 21
248.8081667849
 31
0.0
  0
LINE
  5
2EC
330
1F
100
AcDbEntity
  8
0
370
    15
100
AcDbLine
 10
512.1592506922
 20
257.9797274266
 30
0.0
 11
512.1591466421
 21
257.979314314
 31
0.0
  0
ARC
  5
2ED
330
1F
100
AcDbEntity
  8
0
370
    15
100
AcDbCircle
 10
504.8781111412
 20
244.4908262572
 30
0.0
 40
0.4623367702564832
100
AcDbArc
 50
63.2359438259
 51
117.3402291343
  0
LWPOLYLINE
  5
2EE
330
1F
100
AcDbEntity
  8
0
370
    15
100
AcDbPolyline
 90
        5
 70
   128
 43
0.0
 10
509.1741652435
 20
253.4165152364
 10
509.1418504644999
 20
253.4155262396
 10
509.1188396023
 20
253.4099115809
 10
509.1059782280999
 20
253.3999034112
 10
509.1043819162
 20
253.3966016571
  0
SPLINE
  5
2EF
330
1F
100
AcDbEntity
  8
0
370
    15
100
AcDbSpline
210
0.0
220
0.0
230
1.0
 70
     8
 71
     3
 72
    11
 73
     7
 74
     0
 42
0.000000001
 43
0.0000000001
 40
0.0
 40
0.0
 40
0.0
 40
0.0
 40
0.0684998348056345
 40
0.6819481556835728
 40
0.9922548372306318
 40
1.0
 40
1.0
 40
1.0
 40
1.0
 10
506.9196289008279
 20
249.9369641782306
 30
0.0
 10
506.9211191087615
 20
249.9417189222493
 30
0.0
 10
506.9359548314293
 20
249.9890546409919
 30
0.0
 10
507.08910682103
 20
249.934417119155
 30
0.0
 10
507.262691047591
 20
249.8754468894032
 30
0.0
 10
507.3305300037512
 20
249.8498751885301
 30
0.0
 10
507.3321820103877
 20
249.8492524693442
 30
0.0
  0
ARC
  5
2F0
330
1F
100
AcDbEntity
  8
0
370
    15
100
AcDbCircle
 10
507.9093961360999
 20
251.6169490752
 30
0.0
 40
0.1309920121410088
100
AcDbArc
 50
124.2672430911
 51
190.8710059903
  0
ARC
  5
2F1
330
1F
100
AcDbEntity
  8
0
370
    15
100
AcDbCircle
 10
504.8781111412
 20
247.2587372253
 30
0.0
 40
0.4623367702564832
100
AcDbArc
 50
63.2359438259
 51
117.3402291343
  0
LINE
  5
2F2
330
1F
100
AcDbEntity
  8
0
370
    15
100
AcDbLine
 10
505.0863094791999
 20
247.6715431618
 30
0.0
 11
505.0863094791999
 21
244.9036321937
 31
0.0
  0
LINE
  5
2F3
330
1F
100
AcDbEntity
  8
0
370
    15
100
AcDbLine
 10
513.2636324662001
 20
259.6555854275
 30
0.0
 11
513.2783614726999
 21
259.6485052726
 31
0.0
  0
LINE
  5
2F4
330
1F
100
AcDbEntity
  8
0
370
    15
100
AcDbLine
 10
513.2883344706999
 20
259.641375017
 30
0.0
 11
513.2783614726999
 21
259.6485052726
 31
0.0
  0
ARC
  5
2F5
330
1F
100
AcDbEntity
  8
0
370
    15
100
AcDbCircle
 10
506.888038288
 20
249.1970066696
 30
0.0
 40
0.4622715829339507
100
AcDbArc
 50
182.6556329493
 51
236.7681522069
  0
LINE
  5
2F6
330
1F
100
AcDbEntity
  8
0
370
    15
100
AcDbLine
 10
506.6347003998
 20
248.8103350637
 30
0.0
 11
505.298408226
 21
248.038910012
 31
0.0
  0
ARC
  5
2F7
330
1F
100
AcDbEntity
  8
0
370
    15
100
AcDbCircle
 10
505.5517461142
 20
248.4255816179
 30
0.0
 40
0.4622715829336301
100
AcDbArc
 50
182.6556329493
 51
236.768152207
  0
ELLIPSE
  5
2F8
330
1F
100
AcDbEntity
  8
0
370
    15
100
AcDbEllipse
 10
505.3022337505
 20
247.7917774472
 30
0.0
 11
0.1499871122919671
 21
0.2598150614337271
 31
0.0
210
0.0
220
0.0
230
0.9999999999999996
 40
0.5980578488
 41
0.7854675125346319
 42
2.355959252833365
  0
LINE
  5
2F9
330
1F
100
AcDbEntity
  8
0
370
    15
100
AcDbLine
 10
509.6560525531
 20
240.4339009422
 30
0.0
 11
509.1211787524
 21
240.1251248696
 31
0.0
  0
ARC
  5
2FA
330
1F
100
AcDbEntity
  8
0
370
    15
100
AcDbCircle
 10
509.0175473802999
 20
240.3551642513
 30
0.0
 40
0.2523045351212657
100
AcDbArc
 50
234.1121617839
 51
294.2512809441
  0
ARC
  5
2FB
330
1F
100
AcDbEntity
  8
0
370
    15
100
AcDbCircle
 10
797.9391927638999
 20
83.30220973480001
 30
0.0
 40
5.130512257016484
100
AcDbArc
 50
260.9856920764
 51
303.3950001578
  0
LINE
  5
2FC
330
1F
100
AcDbEntity
  8
0
370
    15
100
AcDbLine
 10
800.7630671697999
 20
79.01876610149999
 30
0.0
 11
817.0265231686999
 21
88.4074594057
 31
0.0
  0
LWPOLYLINE
  5
2FD
330
1F
100
AcDbEntity
  8
0
370
    15
100
AcDbPolyline
 90
       11
 70
   128
 43
0.0
 10
817.0265231686999
 20
88.4074594057
 10
818.3499855783999
 20
89.33210752689999
 10
819.6156067069001
 20
90.53760230260001
 10
820.7680721082001
 20
91.9712587309
 10
821.7570136642001
 20
93.57041825489998
 10
822.5392104402999
 20
95.2651904058
 10
823.080477391
 20
96.98150607350001
 10
823.3571556463999
 20
98.6443524717
 10
823.3571556463999
 20
100.1810565283
 10
823.080477391
 20
101.5244570124
 10
822.7257879532
 20
102.3221388701
  0
ARC
  5
2FE
330
1F
100
AcDbEntity
  8
0
370
    15
100
AcDbCircle
 10
798.1074503447
 20
82.25667216640001
 30
0.0
 40
4.343176577634488
100
AcDbArc
 50
239.4681487634
 51
307.6941130942
  0
LWPOLYLINE
  5
2FF
330
1F
100
AcDbEntity
  8
0
370
    15
100
AcDbPolyline
 90
       14
 70
   128
 43
0.0
 10
821.6175510596
 20
103.7831707813
 10
821.6493416371001
 20
103.7650642187
 10
822.4623820038001
 20
103.0904063931
 10
823.0665254671
 20
102.1339725609
 10
823.4385556989
 20
100.9325182622
 10
823.5641756978999
 20
99.53221463190001
 10
823.4385556989
 20
97.98687323790002
 10
823.0665254671
 20
96.3558819766
 10
822.4623820038001
 20
94.70191894900001
 10
821.6493416371001
 20
93.08854469719999
 10
820.6586483527999
 20
91.57775987079999
 10
819.5283745842999
 20
90.22762376000001
 10
818.3019559517999
 20
89.0900205734
 10
817.0265231686999
 20
88.2086690827
  0
LINE
  5
300
330
1F
100
AcDbEntity
  8
0
370
    15
100
AcDbLine
 10
817.0265231686999
 20
88.2086690827
 30
0.0
 11
800.7630671697999
 21
78.8199757785
 31
0.0
  0
LINE
  5
301
330
1F
100
AcDbEntity
  8
0
370
    15
100
AcDbLine
 10
817.0265231686999
 20
88.2086690827
 30
0.0
 11
821.8118345516
 21
85.5426224546
 31
0.0
  0
LINE
  5
302
330
1F
100
AcDbEntity
  8
0
370
    15
100
AcDbLine
 10
817.0265231686999
 20
88.4074594057
 30
0.0
 11
816.8497464649998
 21
88.51129218910001
 31
0.0
  0
LWPOLYLINE
  5
303
330
1F
100
AcDbEntity
  8
0
370
    15
100
AcDbPolyline
 90
       11
 70
   128
 43
0.0
 10
816.8497464649998
 20
88.51129218910001
 10
818.1728881635001
 20
89.4357156236
 10
819.4382024102999
 20
90.64091841040001
 10
820.5903892472999
 20
92.07422771350001
 10
821.5790910931
 20
93.67299980410001
 10
822.3610982083
 20
95.36736132280001
 10
822.9022334500999
 20
97.0832606495
 10
823.1788445339999
 20
98.74570391360002
 10
823.1788445339999
 20
100.2820355335
 10
822.9022334500999
 20
101.6251104381
 10
822.5505469752999
 20
102.4175026144
  0
LINE
  5
304
330
1F
100
AcDbEntity
  8
0
370
    15
100
AcDbLine
 10
800.5862904660999
 20
79.1225988849
 30
0.0
 11
816.8497464649998
 21
88.51129218910001
 31
0.0
  0
ARC
  5
305
330
1F
100
AcDbEntity
  8
0
370
    15
100
AcDbCircle
 10
797.6015072635
 20
83.81195766519999
 30
0.0
 40
5.558688382722905
100
AcDbArc
 50
271.6198021813
 51
302.476808128
  0
LINE
  5
306
330
1F
100
AcDbEntity
  8
0
370
    15
100
AcDbLine
 10
800.7630671697999
 20
79.01876610149999
 30
0.0
 11
800.5862904660999
 21
79.1225988849
 31
0.0
  0
LINE
  5
307
330
1F
100
AcDbEntity
  8
0
370
    15
100
AcDbLine
 10
805.5483785527
 20
76.15392915040001
 30
0.0
 11
821.8118345516
 21
85.5426224546
 31
0.0
  0
LINE
  5
308
330
1F
100
AcDbEntity
  8
0
370
    15
100
AcDbLine
 10
800.7630671697999
 20
78.8199757785
 30
0.0
 11
805.5483785527
 21
76.15392915040001
 31
0.0
  0
LWPOLYLINE
  5
309
330
1F
100
AcDbEntity
  8
0
370
    15
100
AcDbPolyline
 90
       11
 70
   128
 43
0.0
 10
816.4961930576
 20
88.5112586101
 10
817.7848724635
 20
89.40324583250001
 10
819.0230322860001
 20
90.55636098009999
 10
820.1621345022001
 20
91.92540022930002
 10
821.1575218917998
 20
93.45669277849999
 10
821.9701737172
 20
95.0902083066
 10
822.5682322292
 20
96.761909512
 10
822.9282506091999
 20
98.4062604768
 10
823.0361175653998
 20
99.95879993950001
 10
822.887602608
 20
101.3586634614
 10
822.4885285874
 20
102.5509732599
  0
LINE
  5
30A
330
1F
100
AcDbEntity
  8
0
370
    15
100
AcDbLine
 10
800.2327370587
 20
79.12256530589999
 30
0.0
 11
816.4961930576
 21
88.5112586101
 31
0.0
  0
LWPOLYLINE
  5
30B
330
1F
100
AcDbEntity
  8
0
370
    15
100
AcDbPolyline
 90
        3
 70
   128
 43
0.0
 10
822.4737429461001
 20
102.5674517869
 10
822.4816994808
 20
102.5610878671
 10
822.4885285874
 20
102.5509732599
  0
ARC
  5
30C
330
1F
100
AcDbEntity
  8
0
370
    15
100
AcDbCircle
 10
797.5241121157
 20
82.89577400989999
 30
0.0
 40
4.644755430109655
100
AcDbArc
 50
245.6375123681
 51
305.6729470584
  0
ARC
  5
30D
330
1F
100
AcDbEntity
  8
0
370
    15
100
AcDbCircle
 10
822.5068746124001
 20
102.4486234157
 30
0.0
 40
0.2560598699933019
100
AcDbArc
 50
313.369248768
 51
16.622254887
  0
LINE
  5
30E
330
1F
100
AcDbEntity
  8
0
370
    15
100
AcDbLine
 10
822.6363316170999
 20
102.2115769936
 30
0.0
 11
822.6827102726
 21
102.2624824003
 31
0.0
  0
ARC
  5
30F
330
1F
100
AcDbEntity
  8
0
370
    15
100
AcDbCircle
 10
819.7673592673
 20
100.9746507152
 30
0.0
 40
3.362048754239798
100
AcDbArc
 50
27.400138627
 51
59.48728789279999
  0
LWPOLYLINE
  5
310
330
1F
100
AcDbEntity
  8
0
370
    15
100
AcDbPolyline
 90
       10
 70
   128
 43
0.0
 10
521.1151221187
 20
264.3487680606
 10
521.1187161253
 20
264.3467188462
 10
521.2949897216
 20
264.1438387536
 10
521.3568886248
 20
263.8202240457
 10
521.2949897216
 20
263.4251423855
 10
521.1187161253
 20
263.0187413208
 10
520.854903854
 20
262.6628913053
 10
520.5437158907
 20
262.4117675591
 10
520.2325282567
 20
262.3036015207
 10
519.9693579016
 20
262.3544902506
  0
LWPOLYLINE
  5
311
330
1F
100
AcDbEntity
  8
0
370
    15
100
AcDbPolyline
 90
        9
 70
   128
 43
0.0
 10
525.1399140144999
 20
259.4726494909
 10
525.5458112147
 20
259.8002021827
 10
525.8899142202999
 20
260.2643542569
 10
526.1198364741999
 20
260.7944429989
 10
526.2005743601999
 20
261.3097669036
 10
526.1198364741999
 20
261.7318728293
 10
525.8899142202999
 20
261.9964989876
 10
525.5458112147
 20
262.0633582832
 10
525.2332943087
 20
261.9714233093
  0
LWPOLYLINE
  5
312
330
1F
100
AcDbEntity
  8
0
370
    15
100
AcDbPolyline
 90
        5
 70
   128
 43
0.0
 10
524.083387682
 20
259.9795108325
 10
524.1599918841
 20
259.6630487995
 10
524.389914138
 20
259.3984226412
 10
524.7340169788999
 20
259.3315633456
 10
525.1399140144999
 20
259.4726494909
  0
LWPOLYLINE
  5
313
330
1F
100
AcDbEntity
  8
0
370
    15
100
AcDbPolyline
 90
       10
 70
   128
 43
0.0
 10
521.1151221187
 20
259.1637339678
 10
521.1187161253
 20
259.1616845633
 10
521.2949897216
 20
258.9588046608
 10
521.3568886248
 20
258.6351899529
 10
521.2949897216
 20
258.2401082927
 10
521.1187161253
 20
257.8337070378
 10
520.854903854
 20
257.4778572125
 10
520.5437158907
 20
257.2267332762
 10
520.2325282567
 20
257.1185674279
 10
519.9693579016
 20
257.1694563479
  0
LWPOLYLINE
  5
314
330
1F
100
AcDbEntity
  8
0
370
    15
100
AcDbPolyline
 90
        9
 70
   128
 43
0.0
 10
525.1399140144999
 20
254.2876153981
 10
525.5458112147
 20
254.6151679948
 10
525.8899142202999
 20
255.0793201641
 10
526.1198364741999
 20
255.6094089061
 10
526.2005743601999
 20
256.1247328108
 10
526.1198364741999
 20
256.5468387365001
 10
525.8899142202999
 20
256.8114648948
 10
525.5458112147
 20
256.8783240953
 10
525.2332943087
 20
256.7863891214
  0
LWPOLYLINE
  5
315
330
1F
100
AcDbEntity
  8
0
370
    15
100
AcDbPolyline
 90
        5
 70
   128
 43
0.0
 10
524.083387682
 20
254.7944767397
 10
524.1599918841
 20
254.4780147067
 10
524.389914138
 20
254.2133885484
 10
524.7340169788999
 20
254.1465291578
 10
525.1399140144999
 20
254.2876153981
  0
LWPOLYLINE
  5
316
330
1F
100
AcDbEntity
  8
0
370
    15
100
AcDbPolyline
 90
       10
 70
   128
 43
0.0
 10
515.5148365737
 20
255.9307579385
 10
515.5184302510999
 20
255.9287083439
 10
515.694704012
 20
255.7258285364
 10
515.7566030798999
 20
255.4022139237
 10
515.694704012
 20
255.0071321684
 10
515.5184302510999
 20
254.6007308185
 10
515.2546179798
 20
254.2448809932
 10
514.9434303458
 20
253.9937572469
 10
514.6322423824999
 20
253.8855912086
 10
514.3690721921
 20
253.9364802236
  0
LWPOLYLINE
  5
317
330
1F
100
AcDbEntity
  8
0
370
    15
100
AcDbPolyline
 90
        9
 70
   128
 43
0.0
 10
519.5396284695999
 20
251.0546393688
 10
519.9455255051999
 20
251.3821918705
 10
520.2896283461
 20
251.8463439447
 10
520.5195505999999
 20
252.3764326868
 10
520.6002884858999
 20
252.8917565914
 10
520.5195505999999
 20
253.3138625172
 10
520.2896283461
 20
253.5784886754
 10
519.9455255051999
 20
253.645347971
 10
519.6330085990999
 20
253.5534129971
  0
LWPOLYLINE
  5
318
330
1F
100
AcDbEntity
  8
0
370
    15
100
AcDbPolyline
 90
        5
 70
   128
 43
0.0
 10
518.4831021371
 20
251.5615007104
 10
518.5597060099
 20
251.2450384873
 10
518.7896282637999
 20
250.9804123291
 10
519.1337312694001
 20
250.9135530335
 10
519.5396284695999
 20
251.0546393688
  0
LWPOLYLINE
  5
319
330
1F
100
AcDbEntity
  8
0
370
    15
100
AcDbPolyline
 90
       10
 70
   128
 43
0.0
 10
515.5148365737
 20
261.1157920313
 10
515.5184302510999
 20
261.1137426269
 10
515.694704012
 20
260.9108626293
 10
515.7566030798999
 20
260.5872480165
 10
515.694704012
 20
260.1921662612
 10
515.5184302510999
 20
259.7857651014
 10
515.2546179798
 20
259.429915086
 10
514.9434303458
 20
259.1787915298
 10
514.6322423824999
 20
259.0706253014
 10
514.3690721921
 20
259.1215141263
  0
LWPOLYLINE
  5
31A
330
1F
100
AcDbEntity
  8
0
370
    15
100
AcDbPolyline
 90
        3
 70
   128
 43
0.0
 10
519.5396284695999
 20
256.2396734616
 10
519.9455255051999
 20
256.5672260584
 10
520.269084227
 20
256.9964272847
  0
LWPOLYLINE
  5
31B
330
1F
100
AcDbEntity
  8
0
370
    15
100
AcDbPolyline
 90
        3
 70
   128
 43
0.0
 10
519.9554807225
 20
258.8312987232
 10
519.9455255051999
 20
258.8303821589
 10
519.6330085990999
 20
258.738447185
  0
LWPOLYLINE
  5
31C
330
1F
100
AcDbEntity
  8
0
370
    15
100
AcDbPolyline
 90
        5
 70
   128
 43
0.0
 10
518.4831021371
 20
256.7465348032
 10
518.5597060099
 20
256.4300725801
 10
518.7896282637999
 20
256.1654464219
 10
519.1337312694001
 20
256.0985872213
 10
519.5396284695999
 20
256.2396734616
  0
LINE
  5
31D
330
1F
100
AcDbEntity
  8
0
370
    15
100
AcDbLine
 10
515.9953521351
 20
261.2575091994
 30
0.0
 11
515.7818750545999
 21
260.9616593556
 31
0.0
  0
LINE
  5
31E
330
1F
100
AcDbEntity
  8
0
370
    15
100
AcDbLine
 10
530.259366909
 20
269.4919496534
 30
0.0
 11
521.23265799
 21
264.2809415139
 31
0.0
  0
LINE
  5
31F
330
1F
100
AcDbEntity
  8
0
370
    15
100
AcDbLine
 10
519.6163579597
 20
263.3478713674
 30
0.0
 11
515.9953521351
 21
261.2575091994
 31
0.0
  0
ARC
  5
320
330
1F
100
AcDbEntity
  8
0
370
    15
100
AcDbCircle
 10
513.7309251791999
 20
260.227666476
 30
0.0
 40
0.9590656379516719
100
AcDbArc
 50
225.5582787937
 51
294.4104468327
  0
ARC
  5
321
330
1F
100
AcDbEntity
  8
0
370
    15
100
AcDbCircle
 10
535.4454495201999
 20
266.9628924405
 30
0.0
 40
4.620585658364893
100
AcDbArc
 50
24.124294451
 51
59.93674666169999
  0
LWPOLYLINE
  5
322
330
1F
100
AcDbEntity
  8
0
370
    15
100
AcDbPolyline
 90
       15
 70
   128
 43
0.0
 10
550.8994794148999
 20
238.7895956209
 10
552.4566882463999
 20
239.8458761865
 10
553.9665819722
 20
241.1847073768
 10
555.3832837474999
 20
242.7654094922
 10
556.6637471521
 20
244.5399542149
 10
557.7690653765
 20
246.4544222929
 10
558.6656552847999
 20
248.450644508
 10
559.3262742080001
 20
250.4679662347
 10
559.7308483923
 20
252.4450912948
 10
559.867086763
 20
254.3219471247
 10
559.7308483923
 20
256.04150548
 10
559.3262742080001
 20
257.5515191296
 10
558.6656552847999
 20
258.8061064829
 10
557.7690653765
 20
259.7671480242
 10
557.3089666705
 20
260.0877103356
  0
ARC
  5
323
330
1F
100
AcDbEntity
  8
0
370
    15
100
AcDbCircle
 10
539.7336979602999
 20
264.5903053472
 30
0.0
 40
0.1451919217141793
100
AcDbArc
 50
124.4981832269
 51
186.9454547191999
  0
ARC
  5
324
330
1F
100
AcDbEntity
  8
0
370
    15
100
AcDbCircle
 10
540.0768123361
 20
265.1692620526
 30
0.0
 40
0.1519185083792971
100
AcDbArc
 50
114.5175949677
 51
173.3566378048
  0
ARC
  5
325
330
1F
100
AcDbEntity
  8
0
370
    15
100
AcDbCircle
 10
540.0742502528999
 20
267.9392338849
 30
0.0
 40
0.1489875799858212
100
AcDbArc
 50
113.9500149347
 51
174.7229933497
  0
ARC
  5
326
330
1F
100
AcDbEntity
  8
0
370
    15
100
AcDbCircle
 10
538.3966804026
 20
263.8191761702
 30
0.0
 40
0.1445081428155428
100
AcDbArc
 50
124.214347178
 51
187.0966834691
  0
ELLIPSE
  5
327
330
1F
100
AcDbEntity
  8
0
370
    15
100
AcDbEllipse
 10
538.4655417880999
 20
264.168935202
 30
0.0
 11
0.1579443292259839
 21
0.2554856004359181
 31
0.0
210
0.0
220
0.0
230
1.0
 40
0.5765060239000001
 41
2.37365162490401
 42
3.17076611003792
  0
ARC
  5
328
330
1F
100
AcDbEntity
  8
0
370
    15
100
AcDbCircle
 10
540.5148905662001
 20
268.7751262443
 30
0.0
 40
0.4941987873914512
100
AcDbArc
 50
125.1081874612
 51
186.2172175084
  0
ARC
  5
329
330
1F
100
AcDbEntity
  8
0
370
    15
100
AcDbCircle
 10
542.3535015262
 20
268.7813526176
 30
0.0
 40
0.4951447902740805
100
AcDbArc
 50
353.896590927
 51
55.3108344041
  0
LINE
  5
32A
330
1F
100
AcDbEntity
  8
0
370
    15
100
AcDbLine
 10
538.2496178161
 20
264.0484025887
 30
0.0
 11
538.3821024832
 21
263.9771687266
 31
0.0
  0
SPLINE
  5
32B
330
1F
100
AcDbEntity
  8
0
370
    15
100
AcDbSpline
210
0.0
220
0.0
230
1.0
 70
     8
 71
     3
 72
    13
 73
     9
 74
     0
 42
0.000000001
 43
0.0000000001
 40
0.0
 40
0.0
 40
0.0
 40
0.0
 40
0.0392256029205855
 40
0.4433491238211453
 40
0.6932237842227095
 40
0.8528996959797021
 40
0.8943961532451286
 40
1.0
 40
1.0
 40
1.0
 40
1.0
 10
536.6685255508984
 20
250.198425437701
 30
0.0
 10
536.66558539132
 20
250.1997766056875
 30
0.0
 10
536.6323541067546
 20
250.2150482420249
 30
0.0
 10
536.5973491211808
 20
250.256542061885
 30
0.0
 10
536.5824380376263
 20
250.3227442199645
 30
0.0
 10
536.5977765781227
 20
250.3735296824981
 30
0.0
 10
536.6192502931452
 20
250.4120969763635
 30
0.0
 10
536.6350633361364
 20
250.4317598221768
 30
0.0
 10
536.6464155775872
 20
250.4458758511671
 30
0.0
  0
LINE
  5
32C
330
1F
100
AcDbEntity
  8
0
370
    15
100
AcDbLine
 10
539.925895446
 20
265.8486131119
 30
0.0
 11
538.2496178161
 21
266.8163135568
 31
0.0
  0
ARC
  5
32D
330
1F
100
AcDbEntity
  8
0
370
    15
100
AcDbCircle
 10
531.7516939601
 20
253.3215610553
 30
0.0
 40
0.1730467787499662
100
AcDbArc
 50
139.4841979192
 51
215.8791408616
  0
ELLIPSE
  5
32E
330
1F
100
AcDbEntity
  8
0
370
    15
100
AcDbEllipse
 10
539.8015744882
 20
267.7078229301
 30
0.0
 11
0.1422601441407778
 21
0.2645398898343387
 31
0.0
210
0.0
220
0.0
230
1.0
 40
0.5765027651
 41
6.236309054349261
 42
7.050964300307744
  0
LINE
  5
32F
330
1F
100
AcDbEntity
  8
0
370
    15
100
AcDbLine
 10
539.9259059827
 20
267.8760234718
 30
0.0
 11
539.7980087367
 21
267.9551054587
 31
0.0
  0
LINE
  5
330
330
1F
100
AcDbEntity
  8
0
370
    15
100
AcDbLine
 10
538.4617165629
 20
267.183680407
 30
0.0
 11
539.9258980802
 21
266.338422265
 31
0.0
  0
ARC
  5
331
330
1F
100
AcDbEntity
  8
0
370
    15
100
AcDbCircle
 10
531.2409053645
 20
269.5994654031
 30
0.0
 40
0.9874094267867887
100
AcDbArc
 50
125.0847832593
 51
186.2511424356
  0
LWPOLYLINE
  5
332
330
1F
100
AcDbEntity
  8
0
370
    15
100
AcDbPolyline
 90
       11
 70
   128
 43
0.0
 10
535.6574114598999
 20
267.6012345951
 10
535.6415774156999
 20
267.6106536533
 10
535.15033614
 20
267.7061013386
 10
534.5708788760999
 20
267.5046874178
 10
533.9914202952
 20
267.0370734621
 10
533.5001790195
 20
266.3744506725
 10
533.1719426559999
 20
265.6176967496
 10
533.0566809035
 20
264.8820207449
 10
533.1719426559999
 20
264.2794229368
 10
533.5001790195
 20
263.9016430328
 10
533.5068948563999
 20
263.8978133769
  0
ARC
  5
333
330
1F
100
AcDbEntity
  8
0
370
    15
100
AcDbCircle
 10
537.0589575643
 20
249.1326554794
 30
0.0
 40
0.1144935450858468
100
AcDbArc
 50
247.2181447126
 51
316.9598352237
  0
SPLINE
  5
334
330
1F
100
AcDbEntity
  8
0
370
    15
100
AcDbSpline
210
0.0
220
0.0
230
1.0
 70
     8
 71
     3
 72
    10
 73
     6
 74
     0
 42
0.000000001
 43
0.0000000001
 40
0.0
 40
0.0
 40
0.0
 40
0.0
 40
0.3387389420212562
 40
0.7442570911203231
 40
1.0
 40
1.0
 40
1.0
 40
1.0
 10
536.8918452375448
 20
249.2253367430011
 30
0.0
 10
536.891878356228
 20
249.2436485639903
 30
0.0
 10
536.8919511226323
 20
249.2838822098217
 30
0.0
 10
536.9263194823266
 20
249.3371822542042
 30
0.0
 10
536.9621517282006
 20
249.3663513853352
 30
0.0
 10
536.9760098598431
 20
249.377632555389
 30
0.0
  0
ARC
  5
335
330
1F
100
AcDbEntity
  8
0
370
    15
100
AcDbCircle
 10
549.0151664727999
 20
262.6494278628
 30
0.0
 40
4.486574209426588
100
AcDbArc
 50
119.2444310774
 51
120.4277254137
  0
ARC
  5
336
330
1F
100
AcDbEntity
  8
0
370
    15
100
AcDbCircle
 10
537.0215718972
 20
249.670390453
 30
0.0
 40
0.1673180804079321
100
AcDbArc
 50
118.7129475897
 51
179.7978240999
  0
SPLINE
  5
337
330
1F
100
AcDbEntity
  8
0
370
    15
100
AcDbSpline
210
0.0
220
0.0
230
1.0
 70
     8
 71
     3
 72
    11
 73
     7
 74
     0
 42
0.000000001
 43
0.0000000001
 40
0.0
 40
0.0
 40
0.0
 40
0.0
 40
0.2141829183020401
 40
0.6254794193482704
 40
0.9893095036959744
 40
1.0
 40
1.0
 40
1.0
 40
1.0
 10
541.6303890738443
 20
246.2452721679135
 30
0.0
 10
541.6540192492828
 20
246.2319297173255
 30
0.0
 10
541.7230265656901
 20
246.1929656938979
 30
0.0
 10
541.8442970108872
 20
246.1578196028309
 30
0.0
 10
541.9389381633396
 20
246.1391334072622
 30
0.0
 10
541.9837698387169
 20
246.1330161010506
 30
0.0
 10
541.9850495357074
 20
246.1328414857082
 30
0.0
  0
SPLINE
  5
338
330
1F
100
AcDbEntity
  8
0
370
    15
100
AcDbSpline
210
0.0
220
0.0
230
1.0
 70
     8
 71
     3
 72
    12
 73
     8
 74
     0
 42
0.000000001
 43
0.0000000001
 40
0.0
 40
0.0
 40
0.0
 40
0.0
 40
0.1215472634304088
 40
0.1751727634984667
 40
0.360030093825209
 40
0.6522011623905878
 40
1.0
 40
1.0
 40
1.0
 40
1.0
 10
536.8470925284159
 20
250.2532115867518
 30
0.0
 10
536.8358541068613
 20
250.2396813213153
 30
0.0
 10
536.8196574002838
 20
250.2201816310675
 30
0.0
 10
536.7908177367251
 20
250.1878088559716
 30
0.0
 10
536.7578631399396
 20
250.1540143793425
 30
0.0
 10
536.7309419675279
 20
250.1344785446581
 30
0.0
 10
536.7274056016931
 20
250.1418334001758
 30
0.0
 10
536.7254837239382
 20
250.145830479062
 30
0.0
  0
ARC
  5
339
330
1F
100
AcDbEntity
  8
0
370
    15
100
AcDbCircle
 10
541.4863116182999
 20
246.2716908352
 30
0.0
 40
0.1115641125118298
100
AcDbArc
 50
298.7315934683
 51
359.8635314218
  0
LINE
  5
33A
330
1F
100
AcDbEntity
  8
0
370
    15
100
AcDbLine
 10
541.5399412783999
 20
246.1738623589
 30
0.0
 11
541.5295514217
 21
246.3050040188
 31
0.0
  0
LWPOLYLINE
  5
33B
330
1F
100
AcDbEntity
  8
0
370
    15
100
AcDbPolyline
 90
        3
 70
   128
 43
0.0
 10
540.0607640440999
 20
247.1935457681
 10
539.7938427841999
 20
246.9637049356
 10
539.4988352594999
 20
246.6160622913
  0
ARC
  5
33C
330
1F
100
AcDbEntity
  8
0
370
    15
100
AcDbCircle
 10
551.1399374815
 20
239.1084242534
 30
0.0
 40
0.3993391775058525
100
AcDbArc
 50
232.9766865327
 51
294.6965863091
  0
ARC
  5
33D
330
1F
100
AcDbEntity
  8
0
370
    15
100
AcDbCircle
 10
512.2226766263
 20
245.9717447227
 30
0.0
 40
6.096802470820763
100
AcDbArc
 50
244.4866886118
 51
306.1113762254
  0
ARC
  5
33E
330
1F
100
AcDbEntity
  8
0
370
    15
100
AcDbCircle
 10
531.3555286339
 20
234.7967295375
 30
0.0
 40
6.344845084111117
100
AcDbArc
 50
244.8727087188999
 51
305.7253669824
  0
ARC
  5
33F
330
1F
100
AcDbEntity
  8
0
370
    15
100
AcDbCircle
 10
535.3006520689
 20
229.9639369601
 30
0.0
 40
0.3987104283256934
100
AcDbArc
 50
232.9254590336
 51
294.7630352512
  0
LINE
  5
340
330
1F
100
AcDbEntity
  8
0
370
    15
100
AcDbLine
 10
509.0150503537
 20
251.00308285
 30
0.0
 11
509.0187223979
 21
250.8834987652
 31
0.0
  0
ARC
  5
341
330
1F
100
AcDbEntity
  8
0
370
    15
100
AcDbCircle
 10
512.3382200088
 20
250.8410963248
 30
0.0
 40
3.327115295742141
100
AcDbArc
 50
125.9563935442
 51
177.2093498431
  0
ARC
  5
342
330
1F
100
AcDbEntity
  8
0
370
    15
100
AcDbCircle
 10
506.9135054445999
 20
246.024490605
 30
0.0
 40
0.1519200659199693
100
AcDbArc
 50
114.5179262237
 51
173.356306549
  0
ARC
  5
343
330
1F
100
AcDbEntity
  8
0
370
    15
100
AcDbCircle
 10
506.5775976978
 20
245.4424700518
 30
0.0
 40
0.1520268733608457
100
AcDbArc
 50
126.709307948
 51
185.4701706147
  0
LINE
  5
344
330
1F
100
AcDbEntity
  8
0
370
    15
100
AcDbLine
 10
513.6346972718
 20
259.4429737764
 30
0.0
 11
513.316820472
 21
259.6210041574
 31
0.0
  0
LINE
  5
345
330
1F
100
AcDbEntity
  8
0
370
    15
100
AcDbLine
 10
508.8696463605
 20
240.1507556733
 30
0.0
 11
509.5119933078
 21
240.5215746728
 31
0.0
  0
ARC
  5
346
330
1F
100
AcDbEntity
  8
0
370
    15
100
AcDbCircle
 10
506.9108873024999
 20
248.7945041912
 30
0.0
 40
0.1489282169833068
100
AcDbArc
 50
113.9371694645
 51
174.736315346
  0
ARC
  5
347
330
1F
100
AcDbEntity
  8
0
370
    15
100
AcDbCircle
 10
505.2376781134999
 20
244.6724574939
 30
0.0
 40
0.1485609611315389
100
AcDbArc
 50
125.1652039045
 51
186.1458267426
  0
ELLIPSE
  5
348
330
1F
100
AcDbEntity
  8
0
370
    15
100
AcDbEllipse
 10
506.0701588701999
 20
243.4353347143
 30
0.0
 11
1.999998800037701
 21
-0.0037868304682718
 31
0.0
210
0.0
220
0.0
230
1.0
 40
0.5785459913000001
 41
2.357289918205008
 42
3.127709341624576
  0
ARC
  5
349
330
1F
100
AcDbEntity
  8
0
370
    15
100
AcDbCircle
 10
505.066706852
 20
242.5983714642
 30
0.0
 40
0.4814634665175467
100
AcDbArc
 50
243.6958915238
 51
307.063829068
  0
ARC
  5
34A
330
1F
100
AcDbEntity
  8
0
370
    15
100
AcDbCircle
 10
512.1592867394
 20
257.8868184669
 30
0.0
 40
0.0929089667325174
100
AcDbArc
 50
54.85570809520001
 51
90.0222298907
  0
SPLINE
  5
34B
330
1F
100
AcDbEntity
  8
0
370
    15
100
AcDbSpline
210
0.0
220
0.0
230
1.0
 70
     8
 71
     3
 72
    10
 73
     6
 74
     0
 42
0.000000001
 43
0.0000000001
 40
0.0
 40
0.0
 40
0.0
 40
0.0
 40
0.4299958608953608
 40
0.8360597497363087
 40
1.0
 40
1.0
 40
1.0
 40
1.0
 10
513.0467098809418
 20
259.5520250288085
 30
0.0
 10
513.0338245527545
 20
259.5563637162417
 30
0.0
 10
513.008771045874
 20
259.5647996158849
 30
0.0
 10
512.9889267461305
 20
259.5629451251131
 30
0.0
 10
512.9874797136765
 20
259.5530030674494
 30
0.0
 10
512.9870635292203
 20
259.5501436085267
 30
0.0
  0
ELLIPSE
  5
34C
330
1F
100
AcDbEntity
  8
0
370
    15
100
AcDbEllipse
 10
505.3022337505
 20
245.0241649797
 30
0.0
 11
0.1579443292260976
 21
0.2554856004359465
 31
0.0
210
0.0
220
0.0
230
0.9999999999999998
 40
0.5765060239000001
 41
2.373651624904705
 42
3.170766110039131
  0
SPLINE
  5
34D
330
1F
100
AcDbEntity
  8
0
370
    15
100
AcDbSpline
210
0.0
220
0.0
230
1.0
 70
     8
 71
     3
 72
    12
 73
     8
 74
     0
 42
0.000000001
 43
0.0000000001
 40
0.0
 40
0.0
 40
0.0
 40
0.0
 40
0.2786625467408497
 40
0.5870979602839444
 40
0.891170630496642
 40
0.9901603572512344
 40
1.0
 40
1.0
 40
1.0
 40
1.0
 10
510.4014841063452
 20
256.5231920271156
 30
0.0
 10
510.3785499074549
 20
256.5206781214147
 30
0.0
 10
510.3302311737514
 20
256.5153817192732
 30
0.0
 10
510.2746653652267
 20
256.4623390030418
 30
0.0
 10
510.2483890326293
 20
256.4002890958236
 30
0.0
 10
510.2413877571006
 20
256.3587508547615
 30
0.0
 10
510.2400882870265
 20
256.3475165357094
 30
0.0
 10
510.2399707974061
 20
256.3465008017536
 30
0.0
  0
ELLIPSE
  5
34E
330
1F
100
AcDbEntity
  8
0
370
    15
100
AcDbEllipse
 10
506.0701588701999
 20
247.4914476033
 30
0.0
 11
1.999998820799305
 21
0.0037703459202874
 31
0.0
210
0.0
220
0.0
230
1.0
 40
0.5760266851
 41
2.355108580047883
 42
3.140506743445316
  0
LINE
  5
34F
330
1F
100
AcDbEntity
  8
0
370
    15
100
AcDbLine
 10
505.0863094791999
 20
244.9036321937
 30
0.0
 11
505.2187954633
 21
244.832399092
 31
0.0
  0
SPLINE
  5
350
330
1F
100
AcDbEntity
  8
0
370
    15
100
AcDbSpline
210
0.0
220
0.0
230
1.0
 70
     8
 71
     3
 72
    11
 73
     7
 74
     0
 42
0.000000001
 43
0.0000000001
 40
0.0
 40
0.0
 40
0.0
 40
0.0
 40
0.0178051683139066
 40
0.3930016609977466
 40
0.7498617096205384
 40
1.0
 40
1.0
 40
1.0
 40
1.0
 10
510.2399707974061
 20
256.3465008017536
 30
0.0
 10
510.2393934996761
 20
256.3468501300999
 30
0.0
 10
510.2266511900928
 20
256.3545606228042
 30
0.0
 10
510.2071624010381
 20
256.3665367489925
 30
0.0
 10
510.1896112357585
 20
256.377800878223
 30
0.0
 10
510.1923548430071
 20
256.3769162880565
 30
0.0
 10
510.1934854576766
 20
256.3765517567922
 30
0.0
  0
SPLINE
  5
351
330
1F
100
AcDbEntity
  8
0
370
    15
100
AcDbSpline
210
0.0
220
0.0
230
1.0
 70
     8
 71
     3
 72
    10
 73
     6
 74
     0
 42
0.000000001
 43
0.0000000001
 40
0.0
 40
0.0
 40
0.0
 40
0.0
 40
0.4274192968426568
 40
0.861919846298529
 40
1.0
 40
1.0
 40
1.0
 40
1.0
 10
507.7807548703561
 20
251.5922441771664
 30
0.0
 10
507.658730273193
 20
251.5206560657161
 30
0.0
 10
507.4126594410883
 20
251.3762938095572
 30
0.0
 10
507.2365136217173
 20
251.2383222509027
 30
0.0
 10
507.234782024924
 20
251.1669999761319
 30
0.0
 10
507.23436444335
 20
251.149800320942
 30
0.0
  0
LINE
  5
352
330
1F
100
AcDbEntity
  8
0
370
    15
100
AcDbLine
 10
506.7625871091
 20
246.7038427169
 30
0.0
 11
505.0863094791999
 21
247.6715431618
 31
0.0
  0
ARC
  5
353
330
1F
100
AcDbEntity
  8
0
370
    15
100
AcDbCircle
 10
513.2119198528999
 20
259.4849367187
 30
0.0
 40
0.178312019243275
100
AcDbArc
 50
73.14132959439999
 51
157.8989588638
  0
LINE
  5
354
330
1F
100
AcDbEntity
  8
0
370
    15
100
AcDbLine
 10
513.316820472
 20
259.6210041574
 30
0.0
 11
513.2883344706999
 21
259.641375017
 31
0.0
  0
ARC
  5
355
330
1F
100
AcDbEntity
  8
0
370
    15
100
AcDbCircle
 10
505.1305851369
 20
248.365325016
 30
0.0
 40
0.4785488881360097
100
AcDbArc
 50
123.9838521641
 51
187.32718444
  0
ELLIPSE
  5
356
330
1F
100
AcDbEntity
  8
0
370
    15
100
AcDbEllipse
 10
506.6382664506
 20
248.5630527079
 30
0.0
 11
0.1422601441408347
 21
0.2645398898343388
 31
0.0
210
0.0
220
0.0
230
1.0
 40
0.5765027651
 41
6.236309054349264
 42
7.050964300308486
  0
LINE
  5
357
330
1F
100
AcDbEntity
  8
0
370
    15
100
AcDbLine
 10
506.7625989629
 20
248.7312538371
 30
0.0
 11
506.6347003998
 21
248.8103350637
 31
0.0
  0
ELLIPSE
  5
358
330
1F
100
AcDbEntity
  8
0
370
    15
100
AcDbEllipse
 10
509.2216780918
 20
240.7605337777
 30
0.0
 11
0.7688460843943405
 21
0.7042939899846489
 31
0.0
210
0.0
220
0.0
230
1.0
 40
0.265585288
 41
3.223009072731891
 42
4.012680050529696
  0
LINE
  5
359
330
1F
100
AcDbEntity
  8
0
370
    15
100
AcDbLine
 10
505.298408226
 20
248.038910012
 30
0.0
 11
506.7625897433
 21
247.19365187
 31
0.0
  0
LWPOLYLINE
  5
35A
330
1F
100
AcDbEntity
  8
0
370
    15
100
AcDbPolyline
 90
       13
 70
   128
 43
0.0
 10
821.8118345516
 20
85.5426224546
 10
823.0709716509
 20
86.41271339920001
 10
824.2817208753001
 20
87.5357818079
 10
825.3975534212999
 20
88.86866817309998
 10
826.3755894801999
 20
90.36015059709999
 10
827.1782432828999
 20
91.95291233610001
 10
827.7746672874
 20
93.58574320450001
 10
828.1419441449999
 20
95.1958960424
 10
828.2659586125998
 20
96.72149321370001
 10
828.1419441449999
 20
98.10390632850001
 10
827.7746672874
 20
99.29001033270001
 10
827.1782432828999
 20
100.2342247031
 10
826.4312088322999
 20
100.8673508788
  0
ARC
  5
35B
330
1F
100
AcDbEntity
  8
0
370
    15
100
AcDbCircle
 10
822.0929979609
 20
85.95009018459998
 30
0.0
 40
0.4950583942675724
100
AcDbArc
 50
235.3933074922
 51
294.6708313428
  0
ARC
  5
35C
330
1F
100
AcDbEntity
  8
0
370
    15
100
AcDbCircle
 10
805.8295690233999
 20
76.5614762207
 30
0.0
 40
0.495139066677072
100
AcDbArc
 50
235.3959443429
 51
294.6396207841
  0
ARC
  5
35D
330
1F
100
AcDbEntity
  8
0
370
    15
100
AcDbCircle
 10
802.8657105191999
 20
79.91117014609999
 30
0.0
 40
4.6166619627554
100
AcDbArc
 50
246.7279584973
 51
305.526816006
  0
LINE
  5
35E
330
1F
100
AcDbEntity
  8
0
370
    15
100
AcDbLine
 10
553.5048151729999
 20
240.3329494473
 30
0.0
 11
816.4961930576
 21
88.5112586101
 31
0.0
  0
LINE
  5
35F
330
1F
100
AcDbEntity
  8
0
370
    15
100
AcDbLine
 10
822.4885285874
 20
102.5509732599
 30
0.0
 11
560.0906204766999
 21
254.0300612892
 31
0.0
  0
LINE
  5
360
330
1F
100
AcDbEntity
  8
0
370
    15
100
AcDbLine
 10
537.5171681506999
 20
230.78503501
 30
0.0
 11
800.2327370587
 21
79.12256530589999
 31
0.0
  0
LINE
  5
361
330
1F
100
AcDbEntity
  8
0
370
    15
100
AcDbLine
 10
560.0843287423999
 20
254.1568261917
 30
0.0
 11
822.7522341333999
 21
102.5218720503
 31
0.0
  0
LINE
  5
362
330
1F
100
AcDbEntity
  8
0
370
    15
100
AcDbLine
 10
822.6827102726
 20
102.2624824003
 30
0.0
 11
822.5956096838999
 21
102.3127644999
 31
0.0
  0
INSERT
  5
366
330
1F
100
AcDbEntity
  8
0
  6
Continuous
 62
     7
100
AcDbBlockReference
  2
SW_BROKEN_VIEW_1
 10
0.0
 20
0.0
 30
0.0
  0
ENDSEC
  0
SECTION
  2
OBJECTS
  0
DICTIONARY
  5
C
330
0
100
AcDbDictionary
281
     1
  3
ACAD_CIP_PREVIOUS_PRODUCT_INFO
350
6BF
  3
ACAD_COLOR
350
6B3
  3
ACAD_DETAILVIEWSTYLE
350
6BA
  3
ACAD_GROUP
350
D
  3
ACAD_LAYOUT
350
1A
  3
ACAD_MATERIAL
350
681
  3
ACAD_MLEADERSTYLE
350
6B6
  3
ACAD_MLINESTYLE
350
17
  3
ACAD_PLOTSETTINGS
350
19
  3
ACAD_PLOTSTYLENAME
350
E
  3
ACAD_SCALELIST
350
47
  3
ACAD_SECTIONVIEWSTYLE
350
6B8
  3
ACAD_TABLESTYLE
350
6B4
  3
ACAD_VISUALSTYLE
350
69A
  3
ACDB_RECOMPOSE_DATA
350
6DF
  3
AcDbVariableDictionary
350
6D3
  3
DWGPROPS
350
6E0
  0
DICTIONARY
  5
6C0
330
10
100
AcDbDictionary
280
     1
281
     1
  3
ADSK_XREC_LAYER_RECONCILED
360
6C1
  0
DICTIONARY
  5
6C2
330
6F
100
AcDbDictionary
280
     1
281
     1
  3
ADSK_XREC_LAYER_RECONCILED
360
6C3
  0
DICTIONARY
  5
6C4
330
70
100
AcDbDictionary
280
     1
281
     1
  3
ADSK_XREC_LAYER_RECONCILED
360
6C5
  0
DICTIONARY
  5
6C6
330
71
100
AcDbDictionary
280
     1
281
     1
  3
ADSK_XREC_LAYER_RECONCILED
360
6C7
  0
XRECORD
  5
6BF
102
{ACAD_REACTORS
330
C
102
}
330
C
100
AcDbXrecord
280
     1
300
ACDLT
300
2013
300
ACDLT_F_S
  0
DICTIONARY
  5
6B3
102
{ACAD_REACTORS
330
C
102
}
330
C
100
AcDbDictionary
281
     1
  0
DICTIONARY
  5
6BA
102
{ACAD_REACTORS
330
C
102
}
330
C
100
AcDbDictionary
281
     1
  3
Metric50
350
6BB
  0
DICTIONARY
  5
D
102
{ACAD_REACTORS
330
C
102
}
330
C
100
AcDbDictionary
281
     1
  0
DICTIONARY
  5
1A
102
{ACAD_REACTORS
330
C
102
}
330
C
100
AcDbDictionary
281
     1
  3
Layout1
350
1E
  3
Layout2
350
26
  3
Model
350
22
  0
DICTIONARY
  5
681
102
{ACAD_REACTORS
330
C
102
}
330
C
100
AcDbDictionary
281
     1
  3
ByBlock
350
68A
  3
ByLayer
350
682
  3
Global
350
692
  0
DICTIONARY
  5
6B6
102
{ACAD_REACTORS
330
C
102
}
330
C
100
AcDbDictionary
281
     1
  3
Standard
350
6B7
  0
DICTIONARY
  5
17
102
{ACAD_REACTORS
330
C
102
}
330
C
100
AcDbDictionary
281
     1
  3
Standard
350
18
  0
DICTIONARY
  5
19
102
{ACAD_REACTORS
330
C
102
}
330
C
100
AcDbDictionary
281
     1
  0
ACDBDICTIONARYWDFLT
  5
E
102
{ACAD_REACTORS
330
C
102
}
330
C
100
AcDbDictionary
281
     1
  3
Normal
350
F
100
AcDbDictionaryWithDefault
340
F
  0
DICTIONARY
  5
47
102
{ACAD_REACTORS
330
C
102
}
330
C
100
AcDbDictionary
281
     1
  3
A0
350
48
  3
A1
350
49
  3
A2
350
4A
  3
A3
350
4B
  3
A4
350
4C
  3
A5
350
4D
  3
A6
350
4E
  3
A7
350
4F
  3
A8
350
50
  3
A9
350
51
  3
B0
350
52
  3
B1
350
53
  3
B2
350
54
  3
B3
350
55
  3
B4
350
56
  3
B5
350
57
  3
B6
350
58
  3
B7
350
59
  3
B8
350
5A
  3
B9
350
5B
  3
C0
350
5C
  3
C1
350
5D
  3
C2
350
5E
  3
C3
350
5F
  3
C4
350
60
  3
C5
350
61
  3
C6
350
62
  3
C7
350
63
  3
C8
350
64
  3
C9
350
65
  3
D0
350
66
  3
D1
350
67
  3
D2
350
68
  0
DICTIONARY
  5
6B8
102
{ACAD_REACTORS
330
C
102
}
330
C
100
AcDbDictionary
281
     1
  3
Metric50
350
6B9
  0
DICTIONARY
  5
6B4
102
{ACAD_REACTORS
330
C
102
}
330
C
100
AcDbDictionary
281
     1
  3
Standard
350
6B5
  0
DICTIONARY
  5
69A
102
{ACAD_REACTORS
330
C
102
}
330
C
100
AcDbDictionary
281
     1
  3
2dWireframe
350
6A0
  3
Basic
350
69F
  3
Brighten
350
6A6
  3
ColorChange
350
6AA
  3
Conceptual
350
6A3
  3
Dim
350
6A5
  3
EdgeColorOff
350
6B2
  3
Facepattern
350
6A9
  3
Flat
350
69B
  3
FlatWithEdges
350
69C
  3
Gouraud
350
69D
  3
GouraudWithEdges
350
69E
  3
Hidden
350
6A2
  3
JitterOff
350
6B0
  3
Linepattern
350
6A8
  3
OverhangOff
350
6B1
  3
Realistic
350
6A4
  3
Shaded
350
6AF
  3
Shaded with edges
350
6AE
  3
Shades of Gray
350
6AB
  3
Sketchy
350
6AC
  3
Thicken
350
6A7
  3
Wireframe
350
6A1
  3
X-Ray
350
6AD
  0
XRECORD
  5
6DF
102
{ACAD_REACTORS
330
C
102
}
330
C
100
AcDbXrecord
280
     1
 90
        1
330
6B5
  0
DICTIONARY
  5
6D3
102
{ACAD_REACTORS
330
C
102
}
330
C
100
AcDbDictionary
281
     1
  3
CANNOSCALE
350
6D8
  3
CMLEADERSTYLE
350
6D5
  3
CTABLESTYLE
350
6D4
  3
CVIEWDETAILSTYLE
350
6D6
  3
CVIEWSECTIONSTYLE
350
6D7
  3
DIMASSOC
350
6DB
  3
INDEXCTL
350
6DA
  3
SORTENTS
350
6D9
  3
XCLIPFRAME
350
6DC
  0
XRECORD
  5
6E0
102
{ACAD_REACTORS
330
C
102
}
330
C
100
AcDbXrecord
280
     1
  1
DWGPROPS COOKIE
  2

  3

  4

  6

  7

  8
j00675
  9

300
=
301
=
302
=
303
=
304
=
305
=
306
=
307
=
308
=
309
=
 40
0.0008451388888889
 41
2457225.468377974
 42
2457225.513203426
  1

 90
        0
  0
XRECORD
  5
6C1
102
{ACAD_REACTORS
330
6C0
102
}
330
6C0
100
AcDbXrecord
280
     1
290
     1
  0
XRECORD
  5
6C3
102
{ACAD_REACTORS
330
6C2
102
}
330
6C2
100
AcDbXrecord
280
     1
290
     1
  0
XRECORD
  5
6C5
102
{ACAD_REACTORS
330
6C4
102
}
330
6C4
100
AcDbXrecord
280
     1
290
     1
  0
XRECORD
  5
6C7
102
{ACAD_REACTORS
330
6C6
102
}
330
6C6
100
AcDbXrecord
280
     1
290
     1
  0
ACDBDETAILVIEWSTYLE
  5
6BB
102
{ACAD_REACTORS
330
6BA
102
}
330
6BA
100
AcDbModelDocViewStyle
 70
     0
  3
Metric50
290
     0
100
AcDbDetailViewStyle
 70
     0
 71
     0
 90
        3
 71
     1
340
11
 40
5.0
340
0
 40
5.0
300

 40
0.0
280
     1
 71
     2
340
16
 90
       25
 71
     3
340
11
 40
5.0
 90
        0
 40
15.0
 90
        1
300
%<\AcVar ViewDetailId>% (%<\AcVar ViewScale \f "%sn">%)
 71
     4
340
16
 90
       25
340
16
 90
       25
280
     0
  0
LAYOUT
  5
1E
102
{ACAD_XDICTIONARY
360
6E1
102
}
102
{ACAD_REACTORS
330
1A
102
}
330
1A
100
AcDbPlotSettings
  1

  2
none_device
  4

  6

 40
0.0
 41
0.0
 42
0.0
 43
0.0
 44
0.0
 45
0.0
 46
0.0
 47
0.0
 48
0.0
 49
0.0
140
0.0
141
0.0
142
1.0
143
1.0
 70
   688
 72
     1
 73
     0
 74
     5
  7

 75
    16
147
1.0
148
0.0
149
0.0
100
AcDbLayout
  1
Layout1
 70
     1
 71
     1
 10
0.0
 20
0.0
 11
420.0
 21
297.0
 12
0.0
 22
0.0
 32
0.0
 14
1.000000000000000E+20
 24
1.000000000000000E+20
 34
1.000000000000000E+20
 15
-1.000000000000000E+20
 25
-1.000000000000000E+20
 35
-1.000000000000000E+20
146
0.0
 13
0.0
 23
0.0
 33
0.0
 16
1.0
 26
0.0
 36
0.0
 17
0.0
 27
1.0
 37
0.0
 76
     0
330
1B
  0
LAYOUT
  5
26
102
{ACAD_XDICTIONARY
360
6E5
102
}
102
{ACAD_REACTORS
330
1A
102
}
330
1A
100
AcDbPlotSettings
  1

  2
none_device
  4

  6

 40
0.0
 41
0.0
 42
0.0
 43
0.0
 44
0.0
 45
0.0
 46
0.0
 47
0.0
 48
0.0
 49
0.0
140
0.0
141
0.0
142
1.0
143
1.0
 70
   688
 72
     1
 73
     0
 74
     5
  7

 75
    16
147
1.0
148
0.0
149
0.0
100
AcDbLayout
  1
Layout2
 70
     1
 71
     2
 10
0.0
 20
0.0
 11
0.0
 21
0.0
 12
0.0
 22
0.0
 32
0.0
 14
0.0
 24
0.0
 34
0.0
 15
0.0
 25
0.0
 35
0.0
146
0.0
 13
0.0
 23
0.0
 33
0.0
 16
1.0
 26
0.0
 36
0.0
 17
0.0
 27
1.0
 37
0.0
 76
     0
330
23
  0
LAYOUT
  5
22
102
{ACAD_XDICTIONARY
360
6E3
102
}
102
{ACAD_REACTORS
330
1A
102
}
330
1A
100
AcDbPlotSettings
  1

  2
none_device
  4
Letter_(8.50_x_11.00_Inches)
  6

 40
6.349999999999999
 41
6.349999999999999
 42
6.350005079999999
 43
6.350005079999999
 44
215.9
 45
279.4
 46
0.0
 47
0.0
 48
0.0
 49
0.0
140
0.0
141
0.0
142
1.0
143
1.0
 70
  1712
 72
     1
 73
     0
 74
     0
  7

 75
     0
147
1.0
148
0.0
149
0.0
100
AcDbLayout
  1
Model
 70
     1
 71
     0
 10
0.0
 20
0.0
 11
420.0
 21
297.0
 12
0.0
 22
0.0
 32
0.0
 14
0.0
 24
0.0
 34
0.0
 15
420.0
 25
297.0
 35
0.0
146
0.0
 13
0.0
 23
0.0
 33
0.0
 16
1.0
 26
0.0
 36
0.0
 17
0.0
 27
1.0
 37
0.0
 76
     0
330
1F
331
29
  0
MATERIAL
  5
68A
102
{ACAD_XDICTIONARY
360
68B
102
}
102
{ACAD_REACTORS
330
681
102
}
330
681
100
AcDbMaterial
  1
ByBlock
 72
     0
 43
0.0008202099737533
 43
0.0
 43
0.0
 43
0.0
 43
0.0
 43
0.0008202099737533
 43
0.0
 43
0.0
 43
0.0
 43
0.0
 43
1.0
 43
0.0
 43
0.0
 43
0.0
 43
0.0
 43
1.0
 77
     0
 47
0.0008202099737533
 47
0.0
 47
0.0
 47
0.0
 47
0.0
 47
0.0008202099737533
 47
0.0
 47
0.0
 47
0.0
 47
0.0
 47
1.0
 47
0.0
 47
0.0
 47
0.0
 47
0.0
 47
1.0
171
     0
 49
0.0008202099737533
 49
0.0
 49
0.0
 49
0.0
 49
0.0
 49
0.0008202099737533
 49
0.0
 49
0.0
 49
0.0
 49
0.0
 49
1.0
 49
0.0
 49
0.0
 49
0.0
 49
0.0
 49
1.0
175
     0
142
0.0008202099737533
142
0.0
142
0.0
142
0.0
142
0.0
142
0.0008202099737533
142
0.0
142
0.0
142
0.0
142
0.0
142
1.0
142
0.0
142
0.0
142
0.0
142
0.0
142
1.0
179
     0
144
0.0008202099737533
144
0.0
144
0.0
144
0.0
144
0.0
144
0.0008202099737533
144
0.0
144
0.0
144
0.0
144
0.0
144
1.0
144
0.0
144
0.0
144
0.0
144
0.0
144
1.0
147
0.0008202099737533
147
0.0
147
0.0
147
0.0
147
0.0
147
0.0008202099737533
147
0.0
147
0.0
147
0.0
147
0.0
147
1.0
147
0.0
147
0.0
147
0.0
147
0.0
147
1.0
  0
MATERIAL
  5
682
102
{ACAD_XDICTIONARY
360
683
102
}
102
{ACAD_REACTORS
330
681
102
}
330
681
100
AcDbMaterial
  1
ByLayer
 72
     0
 43
0.0008202099737533
 43
0.0
 43
0.0
 43
0.0
 43
0.0
 43
0.0008202099737533
 43
0.0
 43
0.0
 43
0.0
 43
0.0
 43
1.0
 43
0.0
 43
0.0
 43
0.0
 43
0.0
 43
1.0
 77
     0
 47
0.0008202099737533
 47
0.0
 47
0.0
 47
0.0
 47
0.0
 47
0.0008202099737533
 47
0.0
 47
0.0
 47
0.0
 47
0.0
 47
1.0
 47
0.0
 47
0.0
 47
0.0
 47
0.0
 47
1.0
171
     0
 49
0.0008202099737533
 49
0.0
 49
0.0
 49
0.0
 49
0.0
 49
0.0008202099737533
 49
0.0
 49
0.0
 49
0.0
 49
0.0
 49
1.0
 49
0.0
 49
0.0
 49
0.0
 49
0.0
 49
1.0
175
     0
142
0.0008202099737533
142
0.0
142
0.0
142
0.0
142
0.0
142
0.0008202099737533
142
0.0
142
0.0
142
0.0
142
0.0
142
1.0
142
0.0
142
0.0
142
0.0
142
0.0
142
1.0
179
     0
144
0.0008202099737533
144
0.0
144
0.0
144
0.0
144
0.0
144
0.0008202099737533
144
0.0
144
0.0
144
0.0
144
0.0
144
1.0
144
0.0
144
0.0
144
0.0
144
0.0
144
1.0
147
0.0008202099737533
147
0.0
147
0.0
147
0.0
147
0.0
147
0.0008202099737533
147
0.0
147
0.0
147
0.0
147
0.0
147
1.0
147
0.0
147
0.0
147
0.0
147
0.0
147
1.0
  0
MATERIAL
  5
692
102
{ACAD_XDICTIONARY
360
693
102
}
102
{ACAD_REACTORS
330
681
102
}
330
681
100
AcDbMaterial
  1
Global
 72
     0
 43
0.0008202099737533
 43
0.0
 43
0.0
 43
0.0
 43
0.0
 43
0.0008202099737533
 43
0.0
 43
0.0
 43
0.0
 43
0.0
 43
1.0
 43
0.0
 43
0.0
 43
0.0
 43
0.0
 43
1.0
 77
     0
 47
0.0008202099737533
 47
0.0
 47
0.0
 47
0.0
 47
0.0
 47
0.0008202099737533
 47
0.0
 47
0.0
 47
0.0
 47
0.0
 47
1.0
 47
0.0
 47
0.0
 47
0.0
 47
0.0
 47
1.0
171
     0
 49
0.0008202099737533
 49
0.0
 49
0.0
 49
0.0
 49
0.0
 49
0.0008202099737533
 49
0.0
 49
0.0
 49
0.0
 49
0.0
 49
1.0
 49
0.0
 49
0.0
 49
0.0
 49
0.0
 49
1.0
175
     0
142
0.0008202099737533
142
0.0
142
0.0
142
0.0
142
0.0
142
0.0008202099737533
142
0.0
142
0.0
142
0.0
142
0.0
142
1.0
142
0.0
142
0.0
142
0.0
142
0.0
142
1.0
179
     0
144
0.0008202099737533
144
0.0
144
0.0
144
0.0
144
0.0
144
0.0008202099737533
144
0.0
144
0.0
144
0.0
144
0.0
144
1.0
144
0.0
144
0.0
144
0.0
144
0.0
144
1.0
147
0.0008202099737533
147
0.0
147
0.0
147
0.0
147
0.0
147
0.0008202099737533
147
0.0
147
0.0
147
0.0
147
0.0
147
1.0
147
0.0
147
0.0
147
0.0
147
0.0
147
1.0
  0
MLEADERSTYLE
  5
6B7
102
{ACAD_REACTORS
330
6B6
102
}
330
6B6
100
AcDbMLeaderStyle
170
     2
171
     1
172
     0
 90
        2
 40
0.0
 41
0.0
173
     1
 91
-1056964608
340
14
 92
       -2
290
     1
 42
2.0
291
     1
 43
0.36
  3
Standard
 44
4.0
300

342
11
174
     1
178
     6
175
     1
176
     0
 93
-1056964608
 45
4.0
292
     0
297
     0
 46
4.0
 94
-1056964608
 47
1.0
 49
1.0
140
1.0
293
     1
141
0.0
294
     1
177
     0
142
1.0
295
     0
296
     0
143
0.125
1001
ACAD_MLEADERVER
1070
     2
  0
MLINESTYLE
  5
18
102
{ACAD_REACTORS
330
17
102
}
330
17
100
AcDbMlineStyle
  2
STANDARD
 70
     0
  3

 62
   256
 51
90.0
 52
90.0
 71
     2
 49
0.5
 62
   256
  6
BYLAYER
 49
-0.5
 62
   256
  6
BYLAYER
  0
ACDBPLACEHOLDER
  5
F
102
{ACAD_REACTORS
330
E
102
}
330
E
  0
SCALE
  5
48
102
{ACAD_REACTORS
330
47
102
}
330
47
100
AcDbScale
 70
     0
300
1:1
140
1.0
141
1.0
290
     1
  0
SCALE
  5
49
102
{ACAD_REACTORS
330
47
102
}
330
47
100
AcDbScale
 70
     0
300
1:2
140
1.0
141
2.0
290
     0
  0
SCALE
  5
4A
102
{ACAD_REACTORS
330
47
102
}
330
47
100
AcDbScale
 70
     0
300
1:4
140
1.0
141
4.0
290
     0
  0
SCALE
  5
4B
102
{ACAD_REACTORS
330
47
102
}
330
47
100
AcDbScale
 70
     0
300
1:5
140
1.0
141
5.0
290
     0
  0
SCALE
  5
4C
102
{ACAD_REACTORS
330
47
102
}
330
47
100
AcDbScale
 70
     0
300
1:8
140
1.0
141
8.0
290
     0
  0
SCALE
  5
4D
102
{ACAD_REACTORS
330
47
102
}
330
47
100
AcDbScale
 70
     0
300
1:10
140
1.0
141
10.0
290
     0
  0
SCALE
  5
4E
102
{ACAD_REACTORS
330
47
102
}
330
47
100
AcDbScale
 70
     0
300
1:16
140
1.0
141
16.0
290
     0
  0
SCALE
  5
4F
102
{ACAD_REACTORS
330
47
102
}
330
47
100
AcDbScale
 70
     0
300
1:20
140
1.0
141
20.0
290
     0
  0
SCALE
  5
50
102
{ACAD_REACTORS
330
47
102
}
330
47
100
AcDbScale
 70
     0
300
1:30
140
1.0
141
30.0
290
     0
  0
SCALE
  5
51
102
{ACAD_REACTORS
330
47
102
}
330
47
100
AcDbScale
 70
     0
300
1:40
140
1.0
141
40.0
290
     0
  0
SCALE
  5
52
102
{ACAD_REACTORS
330
47
102
}
330
47
100
AcDbScale
 70
     0
300
1:50
140
1.0
141
50.0
290
     0
  0
SCALE
  5
53
102
{ACAD_REACTORS
330
47
102
}
330
47
100
AcDbScale
 70
     0
300
1:100
140
1.0
141
100.0
290
     0
  0
SCALE
  5
54
102
{ACAD_REACTORS
330
47
102
}
330
47
100
AcDbScale
 70
     0
300
2:1
140
2.0
141
1.0
290
     0
  0
SCALE
  5
55
102
{ACAD_REACTORS
330
47
102
}
330
47
100
AcDbScale
 70
     0
300
4:1
140
4.0
141
1.0
290
     0
  0
SCALE
  5
56
102
{ACAD_REACTORS
330
47
102
}
330
47
100
AcDbScale
 70
     0
300
8:1
140
8.0
141
1.0
290
     0
  0
SCALE
  5
57
102
{ACAD_REACTORS
330
47
102
}
330
47
100
AcDbScale
 70
     0
300
10:1
140
10.0
141
1.0
290
     0
  0
SCALE
  5
58
102
{ACAD_REACTORS
330
47
102
}
330
47
100
AcDbScale
 70
     0
300
100:1
140
100.0
141
1.0
290
     0
  0
SCALE
  5
59
102
{ACAD_REACTORS
330
47
102
}
330
47
100
AcDbScale
 70
     0
300
1/128" = 1'-0"
140
0.0078125
141
12.0
290
     0
  0
SCALE
  5
5A
102
{ACAD_REACTORS
330
47
102
}
330
47
100
AcDbScale
 70
     0
300
1/64" = 1'-0"
140
0.015625
141
12.0
290
     0
  0
SCALE
  5
5B
102
{ACAD_REACTORS
330
47
102
}
330
47
100
AcDbScale
 70
     0
300
1/32" = 1'-0"
140
0.03125
141
12.0
290
     0
  0
SCALE
  5
5C
102
{ACAD_REACTORS
330
47
102
}
330
47
100
AcDbScale
 70
     0
300
1/16" = 1'-0"
140
0.0625
141
12.0
290
     0
  0
SCALE
  5
5D
102
{ACAD_REACTORS
330
47
102
}
330
47
100
AcDbScale
 70
     0
300
3/32" = 1'-0"
140
0.09375
141
12.0
290
     0
  0
SCALE
  5
5E
102
{ACAD_REACTORS
330
47
102
}
330
47
100
AcDbScale
 70
     0
300
1/8" = 1'-0"
140
0.125
141
12.0
290
     0
  0
SCALE
  5
5F
102
{ACAD_REACTORS
330
47
102
}
330
47
100
AcDbScale
 70
     0
300
3/16" = 1'-0"
140
0.1875
141
12.0
290
     0
  0
SCALE
  5
60
102
{ACAD_REACTORS
330
47
102
}
330
47
100
AcDbScale
 70
     0
300
1/4" = 1'-0"
140
0.25
141
12.0
290
     0
  0
SCALE
  5
61
102
{ACAD_REACTORS
330
47
102
}
330
47
100
AcDbScale
 70
     0
300
3/8" = 1'-0"
140
0.375
141
12.0
290
     0
  0
SCALE
  5
62
102
{ACAD_REACTORS
330
47
102
}
330
47
100
AcDbScale
 70
     0
300
1/2" = 1'-0"
140
0.5
141
12.0
290
     0
  0
SCALE
  5
63
102
{ACAD_REACTORS
330
47
102
}
330
47
100
AcDbScale
 70
     0
300
3/4" = 1'-0"
140
0.75
141
12.0
290
     0
  0
SCALE
  5
64
102
{ACAD_REACTORS
330
47
102
}
330
47
100
AcDbScale
 70
     0
300
1" = 1'-0"
140
1.0
141
12.0
290
     0
  0
SCALE
  5
65
102
{ACAD_REACTORS
330
47
102
}
330
47
100
AcDbScale
 70
     0
300
1-1/2" = 1'-0"
140
1.5
141
12.0
290
     0
  0
SCALE
  5
66
102
{ACAD_REACTORS
330
47
102
}
330
47
100
AcDbScale
 70
     0
300
3" = 1'-0"
140
3.0
141
12.0
290
     0
  0
SCALE
  5
67
102
{ACAD_REACTORS
330
47
102
}
330
47
100
AcDbScale
 70
     0
300
6" = 1'-0"
140
6.0
141
12.0
290
     0
  0
SCALE
  5
68
102
{ACAD_REACTORS
330
47
102
}
330
47
100
AcDbScale
 70
     0
300
1'-0" = 1'-0"
140
12.0
141
12.0
290
     0
  0
ACDBSECTIONVIEWSTYLE
  5
6B9
102
{ACAD_REACTORS
330
6B8
102
}
330
6B8
100
AcDbModelDocViewStyle
 70
     0
  3
Metric50
290
     0
100
AcDbSectionViewStyle
 70
     0
 71
     0
 90
      102
 71
     1
340
11
 40
5.0
340
0
340
0
 40
5.0
300
I, O, Q, S, X, Z
 40
10.0
 90
        0
 40
2.5
 90
        0
 71
     2
340
16
 90
       25
340
16
 90
       50
 40
5.0
 40
2.5
 40
5.0
 71
     3
340
11
 40
5.0
 90
        0
 40
15.0
 90
        1
300
%<\AcVar ViewSectionStartId>%-%<\AcVar ViewSectionEndId>% (%<\AcVar ViewScale \f "%sn">%)
 71
     4
300
ANSI31
 40
1.0
 90
        0
290
     0
290
     0
 90
        6
 40
0.0
 40
1.570796326794896
 40
0.2617993877991494
 40
1.308996938995747
 40
-0.2617993877991494
 40
1.832595714594046
  0
TABLESTYLE
  5
6B5
102
{ACAD_XDICTIONARY
360
6DD
102
}
102
{ACAD_REACTORS
330
6B4
102
}
330
6B4
100
AcDbTableStyle
  3
Standard
 70
     0
 71
     0
 40
1.5
 41
1.5
280
     0
281
     0
  7
Standard
140
4.5
170
     2
 62
     0
 63
     7
283
     0
274
    -2
284
     1
 64
     0
275
    -2
285
     1
 65
     0
276
    -2
286
     1
 66
     0
277
    -2
287
     1
 67
     0
278
    -2
288
     1
 68
     0
279
    -2
289
     1
 69
     0
  7
Standard
140
6.0
170
     5
 62
     0
 63
     7
283
     0
274
    -2
284
     1
 64
     0
275
    -2
285
     1
 65
     0
276
    -2
286
     1
 66
     0
277
    -2
287
     1
 67
     0
278
    -2
288
     1
 68
     0
279
    -2
289
     1
 69
     0
  7
Standard
140
4.5
170
     5
 62
     0
 63
     7
283
     0
274
    -2
284
     1
 64
     0
275
    -2
285
     1
 65
     0
276
    -2
286
     1
 66
     0
277
    -2
287
     1
 67
     0
278
    -2
288
     1
 68
     0
279
    -2
289
     1
 69
     0
  0
VISUALSTYLE
  5
6A0
102
{ACAD_XDICTIONARY
360
6F4
102
}
102
{ACAD_REACTORS
330
69A
102
}
330
69A
100
AcDbVisualStyle
  2
2dWireframe
 70
     4
 71
     0
 72
     2
 73
     0
 90
        0
 40
-0.6
 41
-30.0
 62
     5
 63
     7
 74
     1
 91
        4
 64
     7
 65
   257
 75
     1
175
     1
 42
1.0
 92
        0
 66
   257
 43
1.0
 76
     1
 77
     6
 78
     2
 67
     7
 79
     5
170
     0
171
     0
290
     0
174
     0
 93
        1
 44
0.0
173
     0
291
     0
 45
0.0
1001
ACAD
1000
AcDbSavedByObjectVersion
1070
     0
  0
VISUALSTYLE
  5
69F
102
{ACAD_XDICTIONARY
360
6F2
102
}
102
{ACAD_REACTORS
330
69A
102
}
330
69A
100
AcDbVisualStyle
  2
Basic
 70
     7
 71
     1
 72
     0
 73
     1
 90
        0
 40
-0.6
 41
-30.0
 62
     5
 63
     7
 74
     0
 91
        4
 64
     7
 65
   257
 75
     1
175
     1
 42
1.0
 92
        8
 66
     7
 43
1.0
 76
     1
 77
     6
 78
     2
 67
     7
 79
     5
170
     0
171
     0
290
     0
174
     0
 93
        1
 44
0.0
173
     0
291
     1
 45
0.0
1001
ACAD
1000
AcDbSavedByObjectVersion
1070
     0
  0
VISUALSTYLE
  5
6A6
102
{ACAD_XDICTIONARY
360
700
102
}
102
{ACAD_REACTORS
330
69A
102
}
330
69A
100
AcDbVisualStyle
  2
Brighten
 70
    12
 71
     2
 72
     2
 73
     0
 90
        0
 40
-0.6
 41
-30.0
 62
     5
 63
     7
 74
     1
 91
        4
 64
     7
 65
   257
 75
     1
175
     1
 42
1.0
 92
        8
 66
     7
 43
1.0
 76
     1
 77
     6
 78
     2
 67
     7
 79
     5
170
     0
171
     0
290
     0
174
     0
 93
        1
 44
50.0
173
     0
291
     1
 45
0.0
1001
ACAD
1000
AcDbSavedByObjectVersion
1070
     0
  0
VISUALSTYLE
  5
6AA
102
{ACAD_XDICTIONARY
360
708
102
}
102
{ACAD_REACTORS
330
69A
102
}
330
69A
100
AcDbVisualStyle
  2
ColorChange
 70
    16
 71
     2
 72
     2
 73
     3
 90
        0
 40
-0.6
 41
-30.0
 62
     5
 63
     8
 74
     1
 91
        4
 64
     7
 65
   257
 75
     1
175
     1
 42
1.0
 92
        8
 66
     8
 43
1.0
 76
     1
 77
     6
 78
     2
 67
     7
 79
     5
170
     0
171
     0
290
     0
174
     0
 93
        1
 44
0.0
173
     0
291
     1
 45
0.0
1001
ACAD
1000
AcDbSavedByObjectVersion
1070
     0
  0
VISUALSTYLE
  5
6A3
102
{ACAD_XDICTIONARY
360
6FA
102
}
102
{ACAD_REACTORS
330
69A
102
}
330
69A
100
AcDbVisualStyle
  2
Conceptual
 70
     9
 71
     3
 72
     2
 73
     0
 90
        0
 40
-0.6
 41
-30.0
 62
     5
 63
     7
 74
     2
 91
        2
 64
     7
 65
   257
 75
     1
175
     1
 42
179.0
 92
        8
 66
     7
 43
1.0
 76
     1
 77
     6
 78
     2
 67
     7
 79
     3
170
     0
171
     0
290
     0
174
     0
 93
        1
 44
0.0
173
     0
291
     0
 45
0.0
1001
ACAD
1000
AcDbSavedByObjectVersion
1070
     0
  0
VISUALSTYLE
  5
6A5
102
{ACAD_XDICTIONARY
360
6FE
102
}
102
{ACAD_REACTORS
330
69A
102
}
330
69A
100
AcDbVisualStyle
  2
Dim
 70
    11
 71
     2
 72
     2
 73
     0
 90
        0
 40
-0.6
 41
-30.0
 62
     5
 63
     7
 74
     1
 91
        4
 64
     7
 65
   257
 75
     1
175
     1
 42
1.0
 92
        8
 66
     7
 43
1.0
 76
     1
 77
     6
 78
     2
 67
     7
 79
     5
170
     0
171
     0
290
     0
174
     0
 93
        1
 44
-50.0
173
     0
291
     1
 45
0.0
1001
ACAD
1000
AcDbSavedByObjectVersion
1070
     0
  0
VISUALSTYLE
  5
6B2
102
{ACAD_XDICTIONARY
360
718
102
}
102
{ACAD_REACTORS
330
69A
102
}
330
69A
100
AcDbVisualStyle
  2
EdgeColorOff
 70
    22
 71
     2
 72
     2
 73
     0
 90
        0
 40
-0.6
 41
-30.0
 62
     5
 63
     7
 74
     1
 91
        4
 64
     7
 65
   257
 75
     1
175
     1
 42
1.0
 92
        8
 66
     7
 43
1.0
 76
     1
 77
     6
 78
     2
 67
     7
 79
     5
170
     0
171
     0
290
     0
174
     0
 93
        1
 44
0.0
173
     0
291
     1
 45
0.0
1001
ACAD
1000
AcDbSavedByObjectVersion
1070
     0
  0
VISUALSTYLE
  5
6A9
102
{ACAD_XDICTIONARY
360
706
102
}
102
{ACAD_REACTORS
330
69A
102
}
330
69A
100
AcDbVisualStyle
  2
Facepattern
 70
    15
 71
     2
 72
     2
 73
     0
 90
        0
 40
-0.6
 41
-30.0
 62
     5
 63
     7
 74
     1
 91
        4
 64
     7
 65
   257
 75
     1
175
     1
 42
1.0
 92
        8
 66
     7
 43
1.0
 76
     1
 77
     6
 78
     2
 67
     7
 79
     5
170
     0
171
     0
290
     0
174
     0
 93
        1
 44
0.0
173
     0
291
     1
 45
0.0
1001
ACAD
1000
AcDbSavedByObjectVersion
1070
     0
  0
VISUALSTYLE
  5
69B
102
{ACAD_XDICTIONARY
360
6EA
102
}
102
{ACAD_REACTORS
330
69A
102
}
330
69A
100
AcDbVisualStyle
  2
Flat
 70
     0
 71
     2
 72
     1
 73
     1
 90
        2
 40
-0.6
 41
30.0
 62
     5
 63
     7
 74
     0
 91
        0
 64
     7
 65
   257
 75
     1
175
     1
 42
1.0
 92
        8
 66
     7
 43
1.0
 76
     1
 77
     6
 78
     2
 67
     7
 79
     5
170
     0
171
     0
290
     0
174
     0
 93
       13
 44
0.0
173
     0
291
     1
 45
0.0
1001
ACAD
1000
AcDbSavedByObjectVersion
1070
     0
  0
VISUALSTYLE
  5
69C
102
{ACAD_XDICTIONARY
360
6EC
102
}
102
{ACAD_REACTORS
330
69A
102
}
330
69A
100
AcDbVisualStyle
  2
FlatWithEdges
 70
     1
 71
     2
 72
     1
 73
     1
 90
        2
 40
-0.6
 41
30.0
 62
     5
 63
     7
 74
     1
 91
        0
 64
     7
 65
   257
 75
     1
175
     1
 42
1.0
 92
        0
 66
   257
 43
1.0
 76
     1
 77
     6
 78
     2
 67
     7
 79
     5
170
     0
171
     0
290
     0
174
     0
 93
       13
 44
0.0
173
     0
291
     1
 45
0.0
1001
ACAD
1000
AcDbSavedByObjectVersion
1070
     0
  0
VISUALSTYLE
  5
69D
102
{ACAD_XDICTIONARY
360
6EE
102
}
102
{ACAD_REACTORS
330
69A
102
}
330
69A
100
AcDbVisualStyle
  2
Gouraud
 70
     2
 71
     2
 72
     2
 73
     1
 90
        2
 40
-0.6
 41
30.0
 62
     5
 63
     7
 74
     0
 91
        0
 64
     7
 65
   257
 75
     1
175
     1
 42
1.0
 92
        0
 66
     7
 43
1.0
 76
     1
 77
     6
 78
     2
 67
     7
 79
     5
170
     0
171
     0
290
     0
174
     0
 93
       13
 44
0.0
173
     0
291
     1
 45
0.0
1001
ACAD
1000
AcDbSavedByObjectVersion
1070
     0
  0
VISUALSTYLE
  5
69E
102
{ACAD_XDICTIONARY
360
6F0
102
}
102
{ACAD_REACTORS
330
69A
102
}
330
69A
100
AcDbVisualStyle
  2
GouraudWithEdges
 70
     3
 71
     2
 72
     2
 73
     1
 90
        2
 40
-0.6
 41
30.0
 62
     5
 63
     7
 74
     1
 91
        0
 64
     7
 65
   257
 75
     1
175
     1
 42
1.0
 92
        0
 66
   257
 43
1.0
 76
     1
 77
     6
 78
     2
 67
     7
 79
     5
170
     0
171
     0
290
     0
174
     0
 93
       13
 44
0.0
173
     0
291
     1
 45
0.0
1001
ACAD
1000
AcDbSavedByObjectVersion
1070
     0
  0
VISUALSTYLE
  5
6A2
102
{ACAD_XDICTIONARY
360
6F8
102
}
102
{ACAD_REACTORS
330
69A
102
}
330
69A
100
AcDbVisualStyle
  2
Hidden
 70
     6
 71
     1
 72
     2
 73
     2
 90
        0
 40
-0.6
 41
-30.0
 62
     5
 63
     7
 74
     2
 91
        2
 64
     7
 65
   257
 75
     2
175
     1
 42
40.0
 92
        0
 66
   257
 43
1.0
 76
     1
 77
     6
 78
     2
 67
     7
 79
     3
170
     0
171
     0
290
     0
174
     0
 93
        1
 44
0.0
173
     0
291
     0
 45
0.0
1001
ACAD
1000
AcDbSavedByObjectVersion
1070
     0
  0
VISUALSTYLE
  5
6B0
102
{ACAD_XDICTIONARY
360
714
102
}
102
{ACAD_REACTORS
330
69A
102
}
330
69A
100
AcDbVisualStyle
  2
JitterOff
 70
    20
 71
     2
 72
     2
 73
     0
 90
        0
 40
-0.6
 41
-30.0
 62
     5
 63
     7
 74
     1
 91
        4
 64
     7
 65
   257
 75
     1
175
     1
 42
1.0
 92
       10
 66
     7
 43
1.0
 76
     1
 77
     6
 78
     2
 67
     7
 79
     5
170
     0
171
     0
290
     0
174
     0
 93
        1
 44
0.0
173
     0
291
     1
 45
0.0
1001
ACAD
1000
AcDbSavedByObjectVersion
1070
     0
  0
VISUALSTYLE
  5
6A8
102
{ACAD_XDICTIONARY
360
704
102
}
102
{ACAD_REACTORS
330
69A
102
}
330
69A
100
AcDbVisualStyle
  2
Linepattern
 70
    14
 71
     2
 72
     2
 73
     0
 90
        0
 40
-0.6
 41
-30.0
 62
     5
 63
     7
 74
     1
 91
        4
 64
     7
 65
   257
 75
     7
175
     7
 42
1.0
 92
        8
 66
     7
 43
1.0
 76
     1
 77
     6
 78
     2
 67
     7
 79
     5
170
     0
171
     0
290
     0
174
     0
 93
        1
 44
0.0
173
     0
291
     1
 45
0.0
1001
ACAD
1000
AcDbSavedByObjectVersion
1070
     0
  0
VISUALSTYLE
  5
6B1
102
{ACAD_XDICTIONARY
360
716
102
}
102
{ACAD_REACTORS
330
69A
102
}
330
69A
100
AcDbVisualStyle
  2
OverhangOff
 70
    21
 71
     2
 72
     2
 73
     0
 90
        0
 40
-0.6
 41
-30.0
 62
     5
 63
     7
 74
     1
 91
        4
 64
     7
 65
   257
 75
     1
175
     1
 42
1.0
 92
        9
 66
     7
 43
1.0
 76
     1
 77
     6
 78
     2
 67
     7
 79
     5
170
     0
171
     0
290
     0
174
     0
 93
        1
 44
0.0
173
     0
291
     1
 45
0.0
1001
ACAD
1000
AcDbSavedByObjectVersion
1070
     0
  0
VISUALSTYLE
  5
6A4
102
{ACAD_XDICTIONARY
360
6FC
102
}
102
{ACAD_REACTORS
330
69A
102
}
330
69A
100
AcDbVisualStyle
  2
Realistic
 70
     8
 71
     2
 72
     3
 73
     0
 90
        2
 40
-0.6
 41
30.0
 62
     5
 63
     7
 74
     0
 91
        0
 64
     7
 65
   257
 75
     1
175
     1
 42
1.0
 92
        8
 66
   257
 43
1.0
 76
     1
 77
     6
 78
     2
 67
     7
 79
     3
170
     0
171
     0
290
     0
174
     0
 93
       13
 44
0.0
173
     0
291
     0
 45
0.0
1001
ACAD
1000
AcDbSavedByObjectVersion
1070
     0
  0
VISUALSTYLE
  5
6AF
102
{ACAD_XDICTIONARY
360
712
102
}
102
{ACAD_REACTORS
330
69A
102
}
330
69A
100
AcDbVisualStyle
  2
Shaded
 70
    27
 71
     2
 72
     2
 73
     1
 90
        2
 40
-0.6
 41
30.0
 62
     5
 63
     7
 74
     0
 91
        4
 64
     7
 65
   257
 75
     1
175
     1
 42
1.0
 92
        8
 66
   257
 43
1.0
 76
     1
 77
     6
 78
     2
 67
     8
 79
     3
170
     0
171
     0
290
     0
174
     0
 93
        5
 44
0.0
173
     0
291
     0
 45
0.0
1001
ACAD
1000
AcDbSavedByObjectVersion
1070
     0
  0
VISUALSTYLE
  5
6AE
102
{ACAD_XDICTIONARY
360
710
102
}
102
{ACAD_REACTORS
330
69A
102
}
330
69A
100
AcDbVisualStyle
  2
Shaded with edges
 70
    26
 71
     2
 72
     2
 73
     1
 90
        2
 40
-0.6
 41
30.0
 62
     5
 63
     7
 74
     1
 91
       10
 64
     7
 65
   257
 75
     2
175
     1
 42
1.0
 92
        8
 66
   257
 43
1.0
 76
     1
 77
     6
 78
     2
 67
     7
 79
     3
170
     0
171
     0
290
     0
174
     0
 93
        5
 44
0.0
173
     0
291
     0
 45
0.0
1001
ACAD
1000
AcDbSavedByObjectVersion
1070
     0
  0
VISUALSTYLE
  5
6AB
102
{ACAD_XDICTIONARY
360
70A
102
}
102
{ACAD_REACTORS
330
69A
102
}
330
69A
100
AcDbVisualStyle
  2
Shades of Gray
 70
    23
 71
     2
 72
     2
 73
     3
 90
        0
 40
-0.6
 41
-30.0
 62
     5
 63
     7
 74
     2
 91
        2
 64
     7
 65
     7
 75
     1
175
     1
 42
40.0
 92
        8
 66
     7
 43
1.0
 76
     1
 77
     6
 78
     2
 67
     7
 79
     3
170
     0
171
     0
290
     0
174
     0
 93
        1
 44
0.0
173
     0
291
     0
 45
0.0
1001
ACAD
1000
AcDbSavedByObjectVersion
1070
     0
  0
VISUALSTYLE
  5
6AC
102
{ACAD_XDICTIONARY
360
70C
102
}
102
{ACAD_REACTORS
330
69A
102
}
330
69A
100
AcDbVisualStyle
  2
Sketchy
 70
    24
 71
     1
 72
     2
 73
     2
 90
        0
 40
-0.6
 41
-30.0
 62
     5
 63
     7
 74
     2
 91
        2
 64
     7
 65
     7
 75
     1
175
     1
 42
40.0
 92
       11
 66
     7
 43
1.0
 76
     1
 77
     6
 78
     2
 67
     7
 79
     6
170
     0
171
     0
290
     0
174
     0
 93
        1
 44
0.0
173
     0
291
     0
 45
0.0
1001
ACAD
1000
AcDbSavedByObjectVersion
1070
     0
  0
VISUALSTYLE
  5
6A7
102
{ACAD_XDICTIONARY
360
702
102
}
102
{ACAD_REACTORS
330
69A
102
}
330
69A
100
AcDbVisualStyle
  2
Thicken
 70
    13
 71
     2
 72
     2
 73
     0
 90
        0
 40
-0.6
 41
-30.0
 62
     5
 63
     7
 74
     1
 91
        4
 64
     7
 65
   257
 75
     1
175
     1
 42
1.0
 92
       12
 66
     7
 43
1.0
 76
     1
 77
     6
 78
     2
 67
     7
 79
     5
170
     0
171
     0
290
     0
174
     0
 93
        1
 44
0.0
173
     0
291
     1
 45
0.0
1001
ACAD
1000
AcDbSavedByObjectVersion
1070
     0
  0
VISUALSTYLE
  5
6A1
102
{ACAD_XDICTIONARY
360
6F6
102
}
102
{ACAD_REACTORS
330
69A
102
}
330
69A
100
AcDbVisualStyle
  2
Wireframe
 70
     5
 71
     0
 72
     2
 73
     0
 90
        0
 40
-0.6
 41
-30.0
 62
     5
 63
     7
 74
     1
 91
        4
 64
     7
 65
   257
 75
     1
175
     1
 42
1.0
 92
        0
 66
   257
 43
1.0
 76
     1
 77
     6
 78
     2
 67
     7
 79
     3
170
     0
171
     0
290
     0
174
     0
 93
        1
 44
0.0
173
     0
291
     0
 45
0.0
1001
ACAD
1000
AcDbSavedByObjectVersion
1070
     0
  0
VISUALSTYLE
  5
6AD
102
{ACAD_XDICTIONARY
360
70E
102
}
102
{ACAD_REACTORS
330
69A
102
}
330
69A
100
AcDbVisualStyle
  2
X-Ray
 70
    25
 71
     2
 72
     2
 73
     1
 90
        1
 40
0.5
 41
-30.0
 62
     5
 63
     7
 74
     1
 91
        0
 64
     7
 65
   257
 75
     1
175
     1
 42
1.0
 92
        8
 66
     7
 43
1.0
 76
     1
 77
     6
 78
     2
 67
     7
 79
     3
170
     0
171
     0
290
     0
174
     0
 93
       13
 44
0.0
173
     0
291
     0
 45
0.0
1001
ACAD
1000
AcDbSavedByObjectVersion
1070
     0
  0
DICTIONARYVAR
  5
6D8
102
{ACAD_REACTORS
330
6D3
102
}
330
6D3
100
DictionaryVariables
280
     0
  1
1:1
  0
DICTIONARYVAR
  5
6D5
102
{ACAD_REACTORS
330
6D3
102
}
330
6D3
100
DictionaryVariables
280
     0
  1
STANDARD
  0
DICTIONARYVAR
  5
6D4
102
{ACAD_REACTORS
330
6D3
102
}
330
6D3
100
DictionaryVariables
280
     0
  1
STANDARD
  0
DICTIONARYVAR
  5
6D6
102
{ACAD_REACTORS
330
6D3
102
}
330
6D3
100
DictionaryVariables
280
     0
  1
Metric50
  0
DICTIONARYVAR
  5
6D7
102
{ACAD_REACTORS
330
6D3
102
}
330
6D3
100
DictionaryVariables
280
     0
  1
Metric50
  0
DICTIONARYVAR
  5
6DB
102
{ACAD_REACTORS
330
6D3
102
}
330
6D3
100
DictionaryVariables
280
     0
  1
1
  0
DICTIONARYVAR
  5
6DA
102
{ACAD_REACTORS
330
6D3
102
}
330
6D3
100
DictionaryVariables
280
     0
  1
0
  0
DICTIONARYVAR
  5
6D9
102
{ACAD_REACTORS
330
6D3
102
}
330
6D3
100
DictionaryVariables
280
     0
  1
127
  0
DICTIONARYVAR
  5
6DC
102
{ACAD_REACTORS
330
6D3
102
}
330
6D3
100
DictionaryVariables
280
     0
  1
2
  0
DICTIONARY
  5
6E1
330
1E
100
AcDbDictionary
280
     1
281
     1
  3
ACAD_XREC_ROUNDTRIP
360
6E2
  0
DICTIONARY
  5
6E5
330
26
100
AcDbDictionary
280
     1
281
     1
  3
ACAD_XREC_ROUNDTRIP
360
6E6
  0
DICTIONARY
  5
6E3
330
22
100
AcDbDictionary
280
     1
281
     1
  3
ACAD_XREC_ROUNDTRIP
360
6E4
  0
DICTIONARY
  5
68B
330
68A
100
AcDbDictionary
280
     1
281
     1
  3
ACAD_XREC_ROUNDTRIP
360
6E8
  3
BUMPTILE
360
68D
  3
DIFFUSETILE
360
68C
  3
OPACITYTILE
360
690
  3
REFLECTIONTILE
360
68F
  3
REFRACTIONTILE
360
691
  3
SPECULARTILE
360
68E
  0
DICTIONARY
  5
683
330
682
100
AcDbDictionary
280
     1
281
     1
  3
ACAD_XREC_ROUNDTRIP
360
6E7
  3
BUMPTILE
360
685
  3
DIFFUSETILE
360
684
  3
OPACITYTILE
360
688
  3
REFLECTIONTILE
360
687
  3
REFRACTIONTILE
360
689
  3
SPECULARTILE
360
686
  0
DICTIONARY
  5
693
330
692
100
AcDbDictionary
280
     1
281
     1
  3
ACAD_XREC_ROUNDTRIP
360
6E9
  3
BUMPTILE
360
695
  3
DIFFUSETILE
360
694
  3
OPACITYTILE
360
698
  3
REFLECTIONTILE
360
697
  3
REFRACTIONTILE
360
699
  3
SPECULARTILE
360
696
  0
DICTIONARY
  5
6DD
330
6B5
100
AcDbDictionary
280
     1
281
     1
  3
ACAD_ROUNDTRIP_2008_TABLESTYLE_CELLSTYLEMAP
360
6DE
  3
ACAD_XREC_ROUNDTRIP
360
71A
  0
DICTIONARY
  5
6F4
330
6A0
100
AcDbDictionary
280
     1
281
     1
  3
ACAD_XREC_ROUNDTRIP
360
6F5
  0
DICTIONARY
  5
6F2
330
69F
100
AcDbDictionary
280
     1
281
     1
  3
ACAD_XREC_ROUNDTRIP
360
6F3
  0
DICTIONARY
  5
700
330
6A6
100
AcDbDictionary
280
     1
281
     1
  3
ACAD_XREC_ROUNDTRIP
360
701
  0
DICTIONARY
  5
708
330
6AA
100
AcDbDictionary
280
     1
281
     1
  3
ACAD_XREC_ROUNDTRIP
360
709
  0
DICTIONARY
  5
6FA
330
6A3
100
AcDbDictionary
280
     1
281
     1
  3
ACAD_XREC_ROUNDTRIP
360
6FB
  0
DICTIONARY
  5
6FE
330
6A5
100
AcDbDictionary
280
     1
281
     1
  3
ACAD_XREC_ROUNDTRIP
360
6FF
  0
DICTIONARY
  5
718
330
6B2
100
AcDbDictionary
280
     1
281
     1
  3
ACAD_XREC_ROUNDTRIP
360
719
  0
DICTIONARY
  5
706
330
6A9
100
AcDbDictionary
280
     1
281
     1
  3
ACAD_XREC_ROUNDTRIP
360
707
  0
DICTIONARY
  5
6EA
330
69B
100
AcDbDictionary
280
     1
281
     1
  3
ACAD_XREC_ROUNDTRIP
360
6EB
  0
DICTIONARY
  5
6EC
330
69C
100
AcDbDictionary
280
     1
281
     1
  3
ACAD_XREC_ROUNDTRIP
360
6ED
  0
DICTIONARY
  5
6EE
330
69D
100
AcDbDictionary
280
     1
281
     1
  3
ACAD_XREC_ROUNDTRIP
360
6EF
  0
DICTIONARY
  5
6F0
330
69E
100
AcDbDictionary
280
     1
281
     1
  3
ACAD_XREC_ROUNDTRIP
360
6F1
  0
DICTIONARY
  5
6F8
330
6A2
100
AcDbDictionary
280
     1
281
     1
  3
ACAD_XREC_ROUNDTRIP
360
6F9
  0
DICTIONARY
  5
714
330
6B0
100
AcDbDictionary
280
     1
281
     1
  3
ACAD_XREC_ROUNDTRIP
360
715
  0
DICTIONARY
  5
704
330
6A8
100
AcDbDictionary
280
     1
281
     1
  3
ACAD_XREC_ROUNDTRIP
360
705
  0
DICTIONARY
  5
716
330
6B1
100
AcDbDictionary
280
     1
281
     1
  3
ACAD_XREC_ROUNDTRIP
360
717
  0
DICTIONARY
  5
6FC
330
6A4
100
AcDbDictionary
280
     1
281
     1
  3
ACAD_XREC_ROUNDTRIP
360
6FD
  0
DICTIONARY
  5
712
330
6AF
100
AcDbDictionary
280
     1
281
     1
  3
ACAD_XREC_ROUNDTRIP
360
713
  0
DICTIONARY
  5
710
330
6AE
100
AcDbDictionary
280
     1
281
     1
  3
ACAD_XREC_ROUNDTRIP
360
711
  0
DICTIONARY
  5
70A
330
6AB
100
AcDbDictionary
280
     1
281
     1
  3
ACAD_XREC_ROUNDTRIP
360
70B
  0
DICTIONARY
  5
70C
330
6AC
100
AcDbDictionary
280
     1
281
     1
  3
ACAD_XREC_ROUNDTRIP
360
70D
  0
DICTIONARY
  5
702
330
6A7
100
AcDbDictionary
280
     1
281
     1
  3
ACAD_XREC_ROUNDTRIP
360
703
  0
DICTIONARY
  5
6F6
330
6A1
100
AcDbDictionary
280
     1
281
     1
  3
ACAD_XREC_ROUNDTRIP
360
6F7
  0
DICTIONARY
  5
70E
330
6AD
100
AcDbDictionary
280
     1
281
     1
  3
ACAD_XREC_ROUNDTRIP
360
70F
  0
XRECORD
  5
6E2
102
{ACAD_REACTORS
330
6E1
102
}
330
6E1
100
AcDbXrecord
280
     1
102
SHADEPLOT
 70
     0
102
SHADEPLOTRESLEVEL
 70
     2
102
SHADEPLOTCUSTOMDPI
 70
   300
  0
XRECORD
  5
6E6
102
{ACAD_REACTORS
330
6E5
102
}
330
6E5
100
AcDbXrecord
280
     1
102
SHADEPLOT
 70
     0
102
SHADEPLOTRESLEVEL
 70
     2
102
SHADEPLOTCUSTOMDPI
 70
   300
  0
XRECORD
  5
6E4
102
{ACAD_REACTORS
330
6E3
102
}
330
6E3
100
AcDbXrecord
280
     1
102
SHADEPLOT
 70
     0
102
SHADEPLOTRESLEVEL
 70
     2
102
SHADEPLOTCUSTOMDPI
 70
   300
  0
XRECORD
  5
6E8
102
{ACAD_REACTORS
330
68B
102
}
330
68B
100
AcDbXrecord
280
     1
102
MATERIAL
148
0.0
149
0.0
149
0.0
 93
        0
 94
      127
282
     0
 72
     0
 77
     0
171
     0
175
     0
179
     0
273
     0
  0
XRECORD
  5
68D
102
{ACAD_REACTORS
330
68B
102
}
330
68B
100
AcDbXrecord
280
     1
270
     1
271
     1
  0
XRECORD
  5
68C
102
{ACAD_REACTORS
330
68B
102
}
330
68B
100
AcDbXrecord
280
     1
270
     1
271
     1
  0
XRECORD
  5
690
102
{ACAD_REACTORS
330
68B
102
}
330
68B
100
AcDbXrecord
280
     1
270
     1
271
     1
  0
XRECORD
  5
68F
102
{ACAD_REACTORS
330
68B
102
}
330
68B
100
AcDbXrecord
280
     1
270
     1
271
     1
  0
XRECORD
  5
691
102
{ACAD_REACTORS
330
68B
102
}
330
68B
100
AcDbXrecord
280
     1
270
     1
271
     1
  0
XRECORD
  5
68E
102
{ACAD_REACTORS
330
68B
102
}
330
68B
100
AcDbXrecord
280
     1
270
     1
271
     1
  0
XRECORD
  5
6E7
102
{ACAD_REACTORS
330
683
102
}
330
683
100
AcDbXrecord
280
     1
102
MATERIAL
148
0.0
149
0.0
149
0.0
 93
        0
 94
      127
282
     0
 72
     0
 77
     0
171
     0
175
     0
179
     0
273
     0
  0
XRECORD
  5
685
102
{ACAD_REACTORS
330
683
102
}
330
683
100
AcDbXrecord
280
     1
270
     1
271
     1
  0
XRECORD
  5
684
102
{ACAD_REACTORS
330
683
102
}
330
683
100
AcDbXrecord
280
     1
270
     1
271
     1
  0
XRECORD
  5
688
102
{ACAD_REACTORS
330
683
102
}
330
683
100
AcDbXrecord
280
     1
270
     1
271
     1
  0
XRECORD
  5
687
102
{ACAD_REACTORS
330
683
102
}
330
683
100
AcDbXrecord
280
     1
270
     1
271
     1
  0
XRECORD
  5
689
102
{ACAD_REACTORS
330
683
102
}
330
683
100
AcDbXrecord
280
     1
270
     1
271
     1
  0
XRECORD
  5
686
102
{ACAD_REACTORS
330
683
102
}
330
683
100
AcDbXrecord
280
     1
270
     1
271
     1
  0
XRECORD
  5
6E9
102
{ACAD_REACTORS
330
693
102
}
330
693
100
AcDbXrecord
280
     1
102
MATERIAL
148
0.0
149
0.0
149
0.0
 93
        0
 94
      127
282
     0
 72
     0
 77
     0
171
     0
175
     0
179
     0
273
     0
  0
XRECORD
  5
695
102
{ACAD_REACTORS
330
693
102
}
330
693
100
AcDbXrecord
280
     1
270
     1
271
     1
  0
XRECORD
  5
694
102
{ACAD_REACTORS
330
693
102
}
330
693
100
AcDbXrecord
280
     1
270
     1
271
     1
  0
XRECORD
  5
698
102
{ACAD_REACTORS
330
693
102
}
330
693
100
AcDbXrecord
280
     1
270
     1
271
     1
  0
XRECORD
  5
697
102
{ACAD_REACTORS
330
693
102
}
330
693
100
AcDbXrecord
280
     1
270
     1
271
     1
  0
XRECORD
  5
699
102
{ACAD_REACTORS
330
693
102
}
330
693
100
AcDbXrecord
280
     1
270
     1
271
     1
  0
XRECORD
  5
696
102
{ACAD_REACTORS
330
693
102
}
330
693
100
AcDbXrecord
280
     1
270
     1
271
     1
  0
CELLSTYLEMAP
  5
6DE
102
{ACAD_REACTORS
330
6DD
102
}
330
6DD
100
AcDbCellStyleMap
 90
        3
300
CELLSTYLE
  1
TABLEFORMAT_BEGIN
 90
        5
170
     1
 91
        0
 92
    32768
 62
   257
 93
        1
300
CONTENTFORMAT
  1
CONTENTFORMAT_BEGIN
 90
        0
 91
        0
 92
      512
 93
        0
300

 40
0.0
140
1.0
 94
        5
 62
     0
340
11
144
6.0
309
CONTENTFORMAT_END
171
     1
301
MARGIN
  1
CELLMARGIN_BEGIN
 40
1.5
 40
1.5
 40
1.5
 40
1.5
 40
4.5
 40
4.5
309
CELLMARGIN_END
 94
        6
 95
        1
302
GRIDFORMAT
  1
GRIDFORMAT_BEGIN
 90
        0
 91
        1
 62
     0
 92
       -2
340
0
 93
        0
 40
1.125
309
GRIDFORMAT_END
 95
        2
302
GRIDFORMAT
  1
GRIDFORMAT_BEGIN
 90
        0
 91
        1
 62
     0
 92
       -2
340
0
 93
        0
 40
1.125
309
GRIDFORMAT_END
 95
        4
302
GRIDFORMAT
  1
GRIDFORMAT_BEGIN
 90
        0
 91
        1
 62
     0
 92
       -2
340
0
 93
        0
 40
1.125
309
GRIDFORMAT_END
 95
        8
302
GRIDFORMAT
  1
GRIDFORMAT_BEGIN
 90
        0
 91
        1
 62
     0
 92
       -2
340
0
 93
        0
 40
1.125
309
GRIDFORMAT_END
 95
       16
302
GRIDFORMAT
  1
GRIDFORMAT_BEGIN
 90
        0
 91
        1
 62
     0
 92
       -2
340
0
 93
        0
 40
1.125
309
GRIDFORMAT_END
 95
       32
302
GRIDFORMAT
  1
GRIDFORMAT_BEGIN
 90
        0
 91
        1
 62
     0
 92
       -2
340
0
 93
        0
 40
1.125
309
GRIDFORMAT_END
309
TABLEFORMAT_END
  1
CELLSTYLE_BEGIN
 90
        1
 91
        1
300
_TITLE
309
CELLSTYLE_END
300
CELLSTYLE
  1
TABLEFORMAT_BEGIN
 90
        5
170
     1
 91
        0
 92
        0
 62
   257
 93
        1
300
CONTENTFORMAT
  1
CONTENTFORMAT_BEGIN
 90
        0
 91
        0
 92
      512
 93
        0
300

 40
0.0
140
1.0
 94
        5
 62
     0
340
11
144
4.5
309
CONTENTFORMAT_END
171
     1
301
MARGIN
  1
CELLMARGIN_BEGIN
 40
1.5
 40
1.5
 40
1.5
 40
1.5
 40
4.5
 40
4.5
309
CELLMARGIN_END
 94
        6
 95
        1
302
GRIDFORMAT
  1
GRIDFORMAT_BEGIN
 90
        0
 91
        1
 62
     0
 92
       -2
340
0
 93
        0
 40
1.125
309
GRIDFORMAT_END
 95
        2
302
GRIDFORMAT
  1
GRIDFORMAT_BEGIN
 90
        0
 91
        1
 62
     0
 92
       -2
340
0
 93
        0
 40
1.125
309
GRIDFORMAT_END
 95
        4
302
GRIDFORMAT
  1
GRIDFORMAT_BEGIN
 90
        0
 91
        1
 62
     0
 92
       -2
340
0
 93
        0
 40
1.125
309
GRIDFORMAT_END
 95
        8
302
GRIDFORMAT
  1
GRIDFORMAT_BEGIN
 90
        0
 91
        1
 62
     0
 92
       -2
340
0
 93
        0
 40
1.125
309
GRIDFORMAT_END
 95
       16
302
GRIDFORMAT
  1
GRIDFORMAT_BEGIN
 90
        0
 91
        1
 62
     0
 92
       -2
340
0
 93
        0
 40
1.125
309
GRIDFORMAT_END
 95
       32
302
GRIDFORMAT
  1
GRIDFORMAT_BEGIN
 90
        0
 91
        1
 62
     0
 92
       -2
340
0
 93
        0
 40
1.125
309
GRIDFORMAT_END
309
TABLEFORMAT_END
  1
CELLSTYLE_BEGIN
 90
        2
 91
        1
300
_HEADER
309
CELLSTYLE_END
300
CELLSTYLE
  1
TABLEFORMAT_BEGIN
 90
        5
170
     1
 91
        0
 92
        0
 62
   257
 93
        1
300
CONTENTFORMAT
  1
CONTENTFORMAT_BEGIN
 90
        0
 91
        0
 92
      512
 93
        0
300

 40
0.0
140
1.0
 94
        2
 62
     0
340
11
144
4.5
309
CONTENTFORMAT_END
171
     1
301
MARGIN
  1
CELLMARGIN_BEGIN
 40
1.5
 40
1.5
 40
1.5
 40
1.5
 40
4.5
 40
4.5
309
CELLMARGIN_END
 94
        6
 95
        1
302
GRIDFORMAT
  1
GRIDFORMAT_BEGIN
 90
        0
 91
        1
 62
     0
 92
       -2
340
0
 93
        0
 40
1.125
309
GRIDFORMAT_END
 95
        2
302
GRIDFORMAT
  1
GRIDFORMAT_BEGIN
 90
        0
 91
        1
 62
     0
 92
       -2
340
0
 93
        0
 40
1.125
309
GRIDFORMAT_END
 95
        4
302
GRIDFORMAT
  1
GRIDFORMAT_BEGIN
 90
        0
 91
        1
 62
     0
 92
       -2
340
0
 93
        0
 40
1.125
309
GRIDFORMAT_END
 95
        8
302
GRIDFORMAT
  1
GRIDFORMAT_BEGIN
 90
        0
 91
        1
 62
     0
 92
       -2
340
0
 93
        0
 40
1.125
309
GRIDFORMAT_END
 95
       16
302
GRIDFORMAT
  1
GRIDFORMAT_BEGIN
 90
        0
 91
        1
 62
     0
 92
       -2
340
0
 93
        0
 40
1.125
309
GRIDFORMAT_END
 95
       32
302
GRIDFORMAT
  1
GRIDFORMAT_BEGIN
 90
        0
 91
        1
 62
     0
 92
       -2
340
0
 93
        0
 40
1.125
309
GRIDFORMAT_END
309
TABLEFORMAT_END
  1
CELLSTYLE_BEGIN
 90
        3
 91
        2
300
_DATA
309
CELLSTYLE_END
  0
XRECORD
  5
71A
102
{ACAD_REACTORS
330
6DD
102
}
330
6DD
100
AcDbXrecord
280
     1
102
ACAD_ROUNDTRIP_PRE2007_TABLESTYLE
 90
      512
 91
        0
  1

 92
      512
 93
        0
  2

 94
      512
 95
        0
  3

  0
XRECORD
  5
6F5
102
{ACAD_REACTORS
330
6F4
102
}
330
6F4
100
AcDbXrecord
280
     1
102
RTVSPost2010Prop28
280
     1
102
RTVSPost2010PropOp28
 70
     1
102
RTVSPost2010Prop29
280
     1
102
RTVSPost2010PropOp29
 70
     1
102
RTVSPost2010Prop30
280
     0
102
RTVSPost2010PropOp30
 70
     1
102
RTVSPost2010Prop31
280
     0
102
RTVSPost2010PropOp31
 70
     1
102
RTVSPost2010Prop32
280
     0
102
RTVSPost2010PropOp32
 70
     1
102
RTVSPost2010Prop33
280
     0
102
RTVSPost2010PropOp33
 70
     1
102
RTVSPost2010Prop34
280
     0
102
RTVSPost2010PropOp34
 70
     1
102
RTVSPost2010Prop35
280
     0
102
RTVSPost2010PropOp35
 70
     1
102
RTVSPost2010Prop36
280
     0
102
RTVSPost2010PropOp36
 70
     1
102
RTVSPost2010Prop37
 90
       50
102
RTVSPost2010PropOp37
 70
     1
102
RTVSPost2010Prop38
140
0.0
102
RTVSPost2010PropOp38
 70
     1
102
RTVSPost2010Prop39
140
1.0
102
RTVSPost2010PropOp39
 70
     1
102
RTVSPost2010Prop40
 90
        0
102
RTVSPost2010PropOp40
 70
     1
102
RTVSPost2010Prop41ColorIndex
 90
       18
102
RTVSPost2010Prop41ColorRGB
 90
        0
102
RTVSPost2010PropOp41
 70
     1
102
RTVSPost2010Prop42
 90
       50
102
RTVSPost2010PropOp42
 70
     1
102
RTVSPost2010Prop43
 90
        3
102
RTVSPost2010PropOp43
 70
     1
102
RTVSPost2010Prop44ColorIndex
 90
        5
102
RTVSPost2010Prop44ColorRGB
 90
      255
102
RTVSPost2010PropOp44
 70
     1
102
RTVSPost2010Prop45
280
     0
102
RTVSPost2010PropOp45
 70
     1
102
RTVSPost2010Prop46
 90
       50
102
RTVSPost2010PropOp46
 70
     1
102
RTVSPost2010Prop47
 90
       50
102
RTVSPost2010PropOp47
 70
     1
102
RTVSPost2010Prop48
 90
       50
102
RTVSPost2010PropOp48
 70
     1
102
RTVSPost2010Prop49
280
     0
102
RTVSPost2010PropOp49
 70
     1
102
RTVSPost2010Prop50
 90
       50
102
RTVSPost2010PropOp50
 70
     1
102
RTVSPost2010Prop51ColorIndex
 90
      256
102
RTVSPost2010Prop51ColorRGB
 90
-16777216
102
RTVSPost2010PropOp51
 70
     0
102
RTVSPost2010Prop52
140
1.0
102
RTVSPost2010PropOp52
 70
     0
102
RTVSPost2010Prop53
 90
        2
102
RTVSPost2010PropOp53
 70
     1
102
RTVSPost2010Prop54
  1
strokes_ogs.tif
102
RTVSPost2010PropOp54
 70
     1
102
RTVSPost2010Prop55
280
     0
102
RTVSPost2010PropOp55
 70
     1
102
RTVSPost2010Prop56
140
1.0
102
RTVSPost2010PropOp56
 70
     1
102
RTVSPost2010Prop57
140
1.0
102
RTVSPost2010PropOp57
 70
     1
102
RTVSPropertyOp0
 70
     1
102
RTVSPropertyOp1
 70
     1
102
RTVSPropertyOp2
 70
     1
102
RTVSPropertyOp3
 70
     1
102
RTVSPropertyOp4
 70
     1
102
RTVSPropertyOp5
 70
     1
102
RTVSPropertyOp6
 70
     1
102
RTVSPropertyOp7
 70
     1
102
RTVSPropertyOp8
 70
     1
102
RTVSPropertyOp9
 70
     1
102
RTVSPropertyOp10
 70
     1
102
RTVSPropertyOp11
 70
     1
102
RTVSPropertyOp12
 70
     1
102
RTVSPropertyOp13
 70
     1
102
RTVSPropertyOp14
 70
     1
102
RTVSPropertyOp15
 70
     1
102
RTVSPropertyOp16
 70
     1
102
RTVSPropertyOp17
 70
     1
102
RTVSPropertyOp18
 70
     1
102
RTVSPropertyOp19
 70
     1
102
RTVSPropertyOp20
 70
     1
102
RTVSPropertyOp21
 70
     1
102
RTVSPropertyOp22
 70
     1
102
RTVSPropertyOp23
 70
     1
102
RTVSPropertyOp24
 70
     1
102
RTVSPropertyOp25
 70
     1
102
RTVSPropertyOp26
 70
     1
102
RTVSPropertyOp27
 70
     1
102
RTVSPropertyOp28
 70
     1
102
RTVSPropertyOp29
 70
     1
102
RTVSPropertyOp30
 70
     1
102
RTVSPropertyOp31
 70
     1
102
RTVSPropertyOp32
 70
     1
102
RTVSPropertyOp33
 70
     1
102
RTVSPropertyOp34
 70
     1
102
RTVSPropertyOp35
 70
     1
102
RTVSPropertyOp36
 70
     1
102
RTVSPropertyOp37
 70
     1
102
RTVSPropertyOp38
 70
     1
102
RTVSPropertyOp39
 70
     1
102
RTVSPropertyOp40
 70
     1
102
RTVSPropertyOp41
 70
     1
102
RTVSPropertyOp42
 70
     1
102
RTVSPropertyOp43
 70
     1
102
RTVSPropertyOp44
 70
     1
102
RTVSPropertyOp45
 70
     1
102
RTVSPropertyOp46
 70
     1
102
RTVSPropertyOp47
 70
     1
102
RTVSPropertyOp48
 70
     1
102
RTVSPropertyOp49
 70
     1
102
RTVSPropertyOp50
 70
     1
102
RTVSPropertyOp51
 70
     0
102
RTVSPropertyOp52
 70
     0
102
RTVSPropertyOp53
 70
     1
102
RTVSPropertyOp54
 70
     1
102
RTVSPropertyOp55
 70
     1
102
RTVSPropertyOp56
 70
     1
102
RTVSPropertyOp57
 70
     1
102
RTVSPropertyOp58
 70
     1
102
RTVSPropertyOp59
 70
     1
102
RTVSPropertyOp60
 70
     1
102
RTVSPropertyOp61
 70
     1
102
RTVSPropertyOp62
 70
     1
  0
XRECORD
  5
6F3
102
{ACAD_REACTORS
330
6F2
102
}
330
6F2
100
AcDbXrecord
280
     1
102
RTVSPost2010Prop28
280
     0
102
RTVSPost2010PropOp28
 70
     1
102
RTVSPost2010Prop29
280
     1
102
RTVSPost2010PropOp29
 70
     1
102
RTVSPost2010Prop30
280
     1
102
RTVSPost2010PropOp30
 70
     1
102
RTVSPost2010Prop31
280
     0
102
RTVSPost2010PropOp31
 70
     1
102
RTVSPost2010Prop32
280
     0
102
RTVSPost2010PropOp32
 70
     1
102
RTVSPost2010Prop33
280
     0
102
RTVSPost2010PropOp33
 70
     1
102
RTVSPost2010Prop34
280
     0
102
RTVSPost2010PropOp34
 70
     1
102
RTVSPost2010Prop35
280
     0
102
RTVSPost2010PropOp35
 70
     1
102
RTVSPost2010Prop36
280
     0
102
RTVSPost2010PropOp36
 70
     1
102
RTVSPost2010Prop37
 90
       50
102
RTVSPost2010PropOp37
 70
     1
102
RTVSPost2010Prop38
140
0.0
102
RTVSPost2010PropOp38
 70
     1
102
RTVSPost2010Prop39
140
1.0
102
RTVSPost2010PropOp39
 70
     1
102
RTVSPost2010Prop40
 90
        0
102
RTVSPost2010PropOp40
 70
     1
102
RTVSPost2010Prop41ColorIndex
 90
       18
102
RTVSPost2010Prop41ColorRGB
 90
        0
102
RTVSPost2010PropOp41
 70
     1
102
RTVSPost2010Prop42
 90
       50
102
RTVSPost2010PropOp42
 70
     1
102
RTVSPost2010Prop43
 90
        3
102
RTVSPost2010PropOp43
 70
     1
102
RTVSPost2010Prop44ColorIndex
 90
        5
102
RTVSPost2010Prop44ColorRGB
 90
      255
102
RTVSPost2010PropOp44
 70
     1
102
RTVSPost2010Prop45
280
     0
102
RTVSPost2010PropOp45
 70
     1
102
RTVSPost2010Prop46
 90
       50
102
RTVSPost2010PropOp46
 70
     1
102
RTVSPost2010Prop47
 90
       50
102
RTVSPost2010PropOp47
 70
     1
102
RTVSPost2010Prop48
 90
       50
102
RTVSPost2010PropOp48
 70
     1
102
RTVSPost2010Prop49
280
     0
102
RTVSPost2010PropOp49
 70
     1
102
RTVSPost2010Prop50
 90
       50
102
RTVSPost2010PropOp50
 70
     1
102
RTVSPost2010Prop51ColorIndex
 90
      256
102
RTVSPost2010Prop51ColorRGB
 90
-16777216
102
RTVSPost2010PropOp51
 70
     0
102
RTVSPost2010Prop52
140
1.0
102
RTVSPost2010PropOp52
 70
     0
102
RTVSPost2010Prop53
 90
        2
102
RTVSPost2010PropOp53
 70
     1
102
RTVSPost2010Prop54
  1
strokes_ogs.tif
102
RTVSPost2010PropOp54
 70
     1
102
RTVSPost2010Prop55
280
     0
102
RTVSPost2010PropOp55
 70
     1
102
RTVSPost2010Prop56
140
1.0
102
RTVSPost2010PropOp56
 70
     1
102
RTVSPost2010Prop57
140
1.0
102
RTVSPost2010PropOp57
 70
     1
102
RTVSPropertyOp0
 70
     1
102
RTVSPropertyOp1
 70
     1
102
RTVSPropertyOp2
 70
     1
102
RTVSPropertyOp3
 70
     1
102
RTVSPropertyOp4
 70
     1
102
RTVSPropertyOp5
 70
     1
102
RTVSPropertyOp6
 70
     1
102
RTVSPropertyOp7
 70
     1
102
RTVSPropertyOp8
 70
     1
102
RTVSPropertyOp9
 70
     1
102
RTVSPropertyOp10
 70
     1
102
RTVSPropertyOp11
 70
     1
102
RTVSPropertyOp12
 70
     1
102
RTVSPropertyOp13
 70
     1
102
RTVSPropertyOp14
 70
     1
102
RTVSPropertyOp15
 70
     1
102
RTVSPropertyOp16
 70
     1
102
RTVSPropertyOp17
 70
     1
102
RTVSPropertyOp18
 70
     1
102
RTVSPropertyOp19
 70
     1
102
RTVSPropertyOp20
 70
     1
102
RTVSPropertyOp21
 70
     1
102
RTVSPropertyOp22
 70
     1
102
RTVSPropertyOp23
 70
     1
102
RTVSPropertyOp24
 70
     1
102
RTVSPropertyOp25
 70
     1
102
RTVSPropertyOp26
 70
     1
102
RTVSPropertyOp27
 70
     1
102
RTVSPropertyOp28
 70
     1
102
RTVSPropertyOp29
 70
     1
102
RTVSPropertyOp30
 70
     1
102
RTVSPropertyOp31
 70
     1
102
RTVSPropertyOp32
 70
     1
102
RTVSPropertyOp33
 70
     1
102
RTVSPropertyOp34
 70
     1
102
RTVSPropertyOp35
 70
     1
102
RTVSPropertyOp36
 70
     1
102
RTVSPropertyOp37
 70
     1
102
RTVSPropertyOp38
 70
     1
102
RTVSPropertyOp39
 70
     1
102
RTVSPropertyOp40
 70
     1
102
RTVSPropertyOp41
 70
     1
102
RTVSPropertyOp42
 70
     1
102
RTVSPropertyOp43
 70
     1
102
RTVSPropertyOp44
 70
     1
102
RTVSPropertyOp45
 70
     1
102
RTVSPropertyOp46
 70
     1
102
RTVSPropertyOp47
 70
     1
102
RTVSPropertyOp48
 70
     1
102
RTVSPropertyOp49
 70
     1
102
RTVSPropertyOp50
 70
     1
102
RTVSPropertyOp51
 70
     0
102
RTVSPropertyOp52
 70
     0
102
RTVSPropertyOp53
 70
     1
102
RTVSPropertyOp54
 70
     1
102
RTVSPropertyOp55
 70
     1
102
RTVSPropertyOp56
 70
     1
102
RTVSPropertyOp57
 70
     1
102
RTVSPropertyOp58
 70
     1
102
RTVSPropertyOp59
 70
     1
102
RTVSPropertyOp60
 70
     1
102
RTVSPropertyOp61
 70
     1
102
RTVSPropertyOp62
 70
     1
  0
XRECORD
  5
701
102
{ACAD_REACTORS
330
700
102
}
330
700
100
AcDbXrecord
280
     1
102
RTVSPost2010Prop28
280
     0
102
RTVSPost2010PropOp28
 70
     1
102
RTVSPost2010Prop29
280
     1
102
RTVSPost2010PropOp29
 70
     1
102
RTVSPost2010Prop30
280
     1
102
RTVSPost2010PropOp30
 70
     1
102
RTVSPost2010Prop31
280
     0
102
RTVSPost2010PropOp31
 70
     1
102
RTVSPost2010Prop32
280
     0
102
RTVSPost2010PropOp32
 70
     1
102
RTVSPost2010Prop33
280
     0
102
RTVSPost2010PropOp33
 70
     1
102
RTVSPost2010Prop34
280
     0
102
RTVSPost2010PropOp34
 70
     1
102
RTVSPost2010Prop35
280
     0
102
RTVSPost2010PropOp35
 70
     1
102
RTVSPost2010Prop36
280
     0
102
RTVSPost2010PropOp36
 70
     1
102
RTVSPost2010Prop37
 90
       50
102
RTVSPost2010PropOp37
 70
     1
102
RTVSPost2010Prop38
140
0.0
102
RTVSPost2010PropOp38
 70
     1
102
RTVSPost2010Prop39
140
1.0
102
RTVSPost2010PropOp39
 70
     1
102
RTVSPost2010Prop40
 90
        0
102
RTVSPost2010PropOp40
 70
     1
102
RTVSPost2010Prop41ColorIndex
 90
       18
102
RTVSPost2010Prop41ColorRGB
 90
        0
102
RTVSPost2010PropOp41
 70
     1
102
RTVSPost2010Prop42
 90
       50
102
RTVSPost2010PropOp42
 70
     1
102
RTVSPost2010Prop43
 90
        3
102
RTVSPost2010PropOp43
 70
     1
102
RTVSPost2010Prop44ColorIndex
 90
        5
102
RTVSPost2010Prop44ColorRGB
 90
      255
102
RTVSPost2010PropOp44
 70
     1
102
RTVSPost2010Prop45
280
     0
102
RTVSPost2010PropOp45
 70
     1
102
RTVSPost2010Prop46
 90
       50
102
RTVSPost2010PropOp46
 70
     1
102
RTVSPost2010Prop47
 90
       50
102
RTVSPost2010PropOp47
 70
     1
102
RTVSPost2010Prop48
 90
       50
102
RTVSPost2010PropOp48
 70
     1
102
RTVSPost2010Prop49
280
     0
102
RTVSPost2010PropOp49
 70
     1
102
RTVSPost2010Prop50
 90
       50
102
RTVSPost2010PropOp50
 70
     1
102
RTVSPost2010Prop51ColorIndex
 90
      256
102
RTVSPost2010Prop51ColorRGB
 90
-16777216
102
RTVSPost2010PropOp51
 70
     0
102
RTVSPost2010Prop52
140
1.0
102
RTVSPost2010PropOp52
 70
     0
102
RTVSPost2010Prop53
 90
        2
102
RTVSPost2010PropOp53
 70
     1
102
RTVSPost2010Prop54
  1
strokes_ogs.tif
102
RTVSPost2010PropOp54
 70
     1
102
RTVSPost2010Prop55
280
     0
102
RTVSPost2010PropOp55
 70
     1
102
RTVSPost2010Prop56
140
1.0
102
RTVSPost2010PropOp56
 70
     1
102
RTVSPost2010Prop57
140
1.0
102
RTVSPost2010PropOp57
 70
     1
102
RTVSPropertyOp0
 70
     1
102
RTVSPropertyOp1
 70
     1
102
RTVSPropertyOp2
 70
     1
102
RTVSPropertyOp3
 70
     1
102
RTVSPropertyOp4
 70
     1
102
RTVSPropertyOp5
 70
     1
102
RTVSPropertyOp6
 70
     1
102
RTVSPropertyOp7
 70
     1
102
RTVSPropertyOp8
 70
     1
102
RTVSPropertyOp9
 70
     1
102
RTVSPropertyOp10
 70
     1
102
RTVSPropertyOp11
 70
     1
102
RTVSPropertyOp12
 70
     1
102
RTVSPropertyOp13
 70
     1
102
RTVSPropertyOp14
 70
     1
102
RTVSPropertyOp15
 70
     1
102
RTVSPropertyOp16
 70
     1
102
RTVSPropertyOp17
 70
     1
102
RTVSPropertyOp18
 70
     1
102
RTVSPropertyOp19
 70
     1
102
RTVSPropertyOp20
 70
     1
102
RTVSPropertyOp21
 70
     1
102
RTVSPropertyOp22
 70
     1
102
RTVSPropertyOp23
 70
     1
102
RTVSPropertyOp24
 70
     1
102
RTVSPropertyOp25
 70
     1
102
RTVSPropertyOp26
 70
     1
102
RTVSPropertyOp27
 70
     1
102
RTVSPropertyOp28
 70
     1
102
RTVSPropertyOp29
 70
     1
102
RTVSPropertyOp30
 70
     1
102
RTVSPropertyOp31
 70
     1
102
RTVSPropertyOp32
 70
     1
102
RTVSPropertyOp33
 70
     1
102
RTVSPropertyOp34
 70
     1
102
RTVSPropertyOp35
 70
     1
102
RTVSPropertyOp36
 70
     1
102
RTVSPropertyOp37
 70
     1
102
RTVSPropertyOp38
 70
     1
102
RTVSPropertyOp39
 70
     1
102
RTVSPropertyOp40
 70
     1
102
RTVSPropertyOp41
 70
     1
102
RTVSPropertyOp42
 70
     1
102
RTVSPropertyOp43
 70
     1
102
RTVSPropertyOp44
 70
     1
102
RTVSPropertyOp45
 70
     1
102
RTVSPropertyOp46
 70
     1
102
RTVSPropertyOp47
 70
     1
102
RTVSPropertyOp48
 70
     1
102
RTVSPropertyOp49
 70
     1
102
RTVSPropertyOp50
 70
     1
102
RTVSPropertyOp51
 70
     0
102
RTVSPropertyOp52
 70
     0
102
RTVSPropertyOp53
 70
     1
102
RTVSPropertyOp54
 70
     1
102
RTVSPropertyOp55
 70
     1
102
RTVSPropertyOp56
 70
     1
102
RTVSPropertyOp57
 70
     1
102
RTVSPropertyOp58
 70
     1
102
RTVSPropertyOp59
 70
     1
102
RTVSPropertyOp60
 70
     1
102
RTVSPropertyOp61
 70
     1
102
RTVSPropertyOp62
 70
     1
  0
XRECORD
  5
709
102
{ACAD_REACTORS
330
708
102
}
330
708
100
AcDbXrecord
280
     1
102
RTVSPost2010Prop28
280
     0
102
RTVSPost2010PropOp28
 70
     1
102
RTVSPost2010Prop29
280
     1
102
RTVSPost2010PropOp29
 70
     1
102
RTVSPost2010Prop30
280
     1
102
RTVSPost2010PropOp30
 70
     1
102
RTVSPost2010Prop31
280
     0
102
RTVSPost2010PropOp31
 70
     1
102
RTVSPost2010Prop32
280
     0
102
RTVSPost2010PropOp32
 70
     1
102
RTVSPost2010Prop33
280
     0
102
RTVSPost2010PropOp33
 70
     1
102
RTVSPost2010Prop34
280
     0
102
RTVSPost2010PropOp34
 70
     1
102
RTVSPost2010Prop35
280
     0
102
RTVSPost2010PropOp35
 70
     1
102
RTVSPost2010Prop36
280
     0
102
RTVSPost2010PropOp36
 70
     1
102
RTVSPost2010Prop37
 90
       50
102
RTVSPost2010PropOp37
 70
     1
102
RTVSPost2010Prop38
140
0.0
102
RTVSPost2010PropOp38
 70
     1
102
RTVSPost2010Prop39
140
1.0
102
RTVSPost2010PropOp39
 70
     1
102
RTVSPost2010Prop40
 90
        0
102
RTVSPost2010PropOp40
 70
     1
102
RTVSPost2010Prop41ColorIndex
 90
       18
102
RTVSPost2010Prop41ColorRGB
 90
        0
102
RTVSPost2010PropOp41
 70
     1
102
RTVSPost2010Prop42
 90
       50
102
RTVSPost2010PropOp42
 70
     1
102
RTVSPost2010Prop43
 90
        3
102
RTVSPost2010PropOp43
 70
     1
102
RTVSPost2010Prop44ColorIndex
 90
        5
102
RTVSPost2010Prop44ColorRGB
 90
      255
102
RTVSPost2010PropOp44
 70
     1
102
RTVSPost2010Prop45
280
     0
102
RTVSPost2010PropOp45
 70
     1
102
RTVSPost2010Prop46
 90
       50
102
RTVSPost2010PropOp46
 70
     1
102
RTVSPost2010Prop47
 90
       50
102
RTVSPost2010PropOp47
 70
     1
102
RTVSPost2010Prop48
 90
       50
102
RTVSPost2010PropOp48
 70
     1
102
RTVSPost2010Prop49
280
     0
102
RTVSPost2010PropOp49
 70
     1
102
RTVSPost2010Prop50
 90
       50
102
RTVSPost2010PropOp50
 70
     1
102
RTVSPost2010Prop51ColorIndex
 90
      256
102
RTVSPost2010Prop51ColorRGB
 90
-16777216
102
RTVSPost2010PropOp51
 70
     0
102
RTVSPost2010Prop52
140
1.0
102
RTVSPost2010PropOp52
 70
     0
102
RTVSPost2010Prop53
 90
        2
102
RTVSPost2010PropOp53
 70
     1
102
RTVSPost2010Prop54
  1
strokes_ogs.tif
102
RTVSPost2010PropOp54
 70
     1
102
RTVSPost2010Prop55
280
     0
102
RTVSPost2010PropOp55
 70
     1
102
RTVSPost2010Prop56
140
1.0
102
RTVSPost2010PropOp56
 70
     1
102
RTVSPost2010Prop57
140
1.0
102
RTVSPost2010PropOp57
 70
     1
102
RTVSPropertyOp0
 70
     1
102
RTVSPropertyOp1
 70
     1
102
RTVSPropertyOp2
 70
     1
102
RTVSPropertyOp3
 70
     1
102
RTVSPropertyOp4
 70
     1
102
RTVSPropertyOp5
 70
     1
102
RTVSPropertyOp6
 70
     1
102
RTVSPropertyOp7
 70
     1
102
RTVSPropertyOp8
 70
     1
102
RTVSPropertyOp9
 70
     1
102
RTVSPropertyOp10
 70
     1
102
RTVSPropertyOp11
 70
     1
102
RTVSPropertyOp12
 70
     1
102
RTVSPropertyOp13
 70
     1
102
RTVSPropertyOp14
 70
     1
102
RTVSPropertyOp15
 70
     1
102
RTVSPropertyOp16
 70
     1
102
RTVSPropertyOp17
 70
     1
102
RTVSPropertyOp18
 70
     1
102
RTVSPropertyOp19
 70
     1
102
RTVSPropertyOp20
 70
     1
102
RTVSPropertyOp21
 70
     1
102
RTVSPropertyOp22
 70
     1
102
RTVSPropertyOp23
 70
     1
102
RTVSPropertyOp24
 70
     1
102
RTVSPropertyOp25
 70
     1
102
RTVSPropertyOp26
 70
     1
102
RTVSPropertyOp27
 70
     1
102
RTVSPropertyOp28
 70
     1
102
RTVSPropertyOp29
 70
     1
102
RTVSPropertyOp30
 70
     1
102
RTVSPropertyOp31
 70
     1
102
RTVSPropertyOp32
 70
     1
102
RTVSPropertyOp33
 70
     1
102
RTVSPropertyOp34
 70
     1
102
RTVSPropertyOp35
 70
     1
102
RTVSPropertyOp36
 70
     1
102
RTVSPropertyOp37
 70
     1
102
RTVSPropertyOp38
 70
     1
102
RTVSPropertyOp39
 70
     1
102
RTVSPropertyOp40
 70
     1
102
RTVSPropertyOp41
 70
     1
102
RTVSPropertyOp42
 70
     1
102
RTVSPropertyOp43
 70
     1
102
RTVSPropertyOp44
 70
     1
102
RTVSPropertyOp45
 70
     1
102
RTVSPropertyOp46
 70
     1
102
RTVSPropertyOp47
 70
     1
102
RTVSPropertyOp48
 70
     1
102
RTVSPropertyOp49
 70
     1
102
RTVSPropertyOp50
 70
     1
102
RTVSPropertyOp51
 70
     0
102
RTVSPropertyOp52
 70
     0
102
RTVSPropertyOp53
 70
     1
102
RTVSPropertyOp54
 70
     1
102
RTVSPropertyOp55
 70
     1
102
RTVSPropertyOp56
 70
     1
102
RTVSPropertyOp57
 70
     1
102
RTVSPropertyOp58
 70
     1
102
RTVSPropertyOp59
 70
     1
102
RTVSPropertyOp60
 70
     1
102
RTVSPropertyOp61
 70
     1
102
RTVSPropertyOp62
 70
     1
  0
XRECORD
  5
6FB
102
{ACAD_REACTORS
330
6FA
102
}
330
6FA
100
AcDbXrecord
280
     1
102
RTVSPost2010Prop28
280
     0
102
RTVSPost2010PropOp28
 70
     1
102
RTVSPost2010Prop29
280
     1
102
RTVSPost2010PropOp29
 70
     1
102
RTVSPost2010Prop30
280
     1
102
RTVSPost2010PropOp30
 70
     1
102
RTVSPost2010Prop31
280
     0
102
RTVSPost2010PropOp31
 70
     1
102
RTVSPost2010Prop32
280
     0
102
RTVSPost2010PropOp32
 70
     1
102
RTVSPost2010Prop33
280
     0
102
RTVSPost2010PropOp33
 70
     1
102
RTVSPost2010Prop34
280
     0
102
RTVSPost2010PropOp34
 70
     1
102
RTVSPost2010Prop35
280
     0
102
RTVSPost2010PropOp35
 70
     1
102
RTVSPost2010Prop36
280
     0
102
RTVSPost2010PropOp36
 70
     1
102
RTVSPost2010Prop37
 90
       50
102
RTVSPost2010PropOp37
 70
     1
102
RTVSPost2010Prop38
140
0.0
102
RTVSPost2010PropOp38
 70
     1
102
RTVSPost2010Prop39
140
1.0
102
RTVSPost2010PropOp39
 70
     1
102
RTVSPost2010Prop40
 90
        0
102
RTVSPost2010PropOp40
 70
     1
102
RTVSPost2010Prop41ColorIndex
 90
       18
102
RTVSPost2010Prop41ColorRGB
 90
        0
102
RTVSPost2010PropOp41
 70
     1
102
RTVSPost2010Prop42
 90
       50
102
RTVSPost2010PropOp42
 70
     1
102
RTVSPost2010Prop43
 90
        3
102
RTVSPost2010PropOp43
 70
     1
102
RTVSPost2010Prop44ColorIndex
 90
        5
102
RTVSPost2010Prop44ColorRGB
 90
      255
102
RTVSPost2010PropOp44
 70
     1
102
RTVSPost2010Prop45
280
     0
102
RTVSPost2010PropOp45
 70
     1
102
RTVSPost2010Prop46
 90
       50
102
RTVSPost2010PropOp46
 70
     1
102
RTVSPost2010Prop47
 90
       50
102
RTVSPost2010PropOp47
 70
     1
102
RTVSPost2010Prop48
 90
       50
102
RTVSPost2010PropOp48
 70
     1
102
RTVSPost2010Prop49
280
     0
102
RTVSPost2010PropOp49
 70
     1
102
RTVSPost2010Prop50
 90
       50
102
RTVSPost2010PropOp50
 70
     1
102
RTVSPost2010Prop51ColorIndex
 90
      256
102
RTVSPost2010Prop51ColorRGB
 90
-16777216
102
RTVSPost2010PropOp51
 70
     0
102
RTVSPost2010Prop52
140
1.0
102
RTVSPost2010PropOp52
 70
     0
102
RTVSPost2010Prop53
 90
        2
102
RTVSPost2010PropOp53
 70
     1
102
RTVSPost2010Prop54
  1
strokes_ogs.tif
102
RTVSPost2010PropOp54
 70
     1
102
RTVSPost2010Prop55
280
     0
102
RTVSPost2010PropOp55
 70
     1
102
RTVSPost2010Prop56
140
1.0
102
RTVSPost2010PropOp56
 70
     1
102
RTVSPost2010Prop57
140
1.0
102
RTVSPost2010PropOp57
 70
     1
102
RTVSPropertyOp0
 70
     1
102
RTVSPropertyOp1
 70
     1
102
RTVSPropertyOp2
 70
     1
102
RTVSPropertyOp3
 70
     1
102
RTVSPropertyOp4
 70
     1
102
RTVSPropertyOp5
 70
     1
102
RTVSPropertyOp6
 70
     1
102
RTVSPropertyOp7
 70
     1
102
RTVSPropertyOp8
 70
     1
102
RTVSPropertyOp9
 70
     1
102
RTVSPropertyOp10
 70
     1
102
RTVSPropertyOp11
 70
     1
102
RTVSPropertyOp12
 70
     1
102
RTVSPropertyOp13
 70
     1
102
RTVSPropertyOp14
 70
     1
102
RTVSPropertyOp15
 70
     1
102
RTVSPropertyOp16
 70
     1
102
RTVSPropertyOp17
 70
     1
102
RTVSPropertyOp18
 70
     1
102
RTVSPropertyOp19
 70
     1
102
RTVSPropertyOp20
 70
     1
102
RTVSPropertyOp21
 70
     1
102
RTVSPropertyOp22
 70
     1
102
RTVSPropertyOp23
 70
     1
102
RTVSPropertyOp24
 70
     1
102
RTVSPropertyOp25
 70
     1
102
RTVSPropertyOp26
 70
     1
102
RTVSPropertyOp27
 70
     1
102
RTVSPropertyOp28
 70
     1
102
RTVSPropertyOp29
 70
     1
102
RTVSPropertyOp30
 70
     1
102
RTVSPropertyOp31
 70
     1
102
RTVSPropertyOp32
 70
     1
102
RTVSPropertyOp33
 70
     1
102
RTVSPropertyOp34
 70
     1
102
RTVSPropertyOp35
 70
     1
102
RTVSPropertyOp36
 70
     1
102
RTVSPropertyOp37
 70
     1
102
RTVSPropertyOp38
 70
     1
102
RTVSPropertyOp39
 70
     1
102
RTVSPropertyOp40
 70
     1
102
RTVSPropertyOp41
 70
     1
102
RTVSPropertyOp42
 70
     1
102
RTVSPropertyOp43
 70
     1
102
RTVSPropertyOp44
 70
     1
102
RTVSPropertyOp45
 70
     1
102
RTVSPropertyOp46
 70
     1
102
RTVSPropertyOp47
 70
     1
102
RTVSPropertyOp48
 70
     1
102
RTVSPropertyOp49
 70
     1
102
RTVSPropertyOp50
 70
     1
102
RTVSPropertyOp51
 70
     0
102
RTVSPropertyOp52
 70
     0
102
RTVSPropertyOp53
 70
     1
102
RTVSPropertyOp54
 70
     1
102
RTVSPropertyOp55
 70
     1
102
RTVSPropertyOp56
 70
     1
102
RTVSPropertyOp57
 70
     1
102
RTVSPropertyOp58
 70
     1
102
RTVSPropertyOp59
 70
     1
102
RTVSPropertyOp60
 70
     1
102
RTVSPropertyOp61
 70
     1
102
RTVSPropertyOp62
 70
     1
  0
XRECORD
  5
6FF
102
{ACAD_REACTORS
330
6FE
102
}
330
6FE
100
AcDbXrecord
280
     1
102
RTVSPost2010Prop28
280
     0
102
RTVSPost2010PropOp28
 70
     1
102
RTVSPost2010Prop29
280
     1
102
RTVSPost2010PropOp29
 70
     1
102
RTVSPost2010Prop30
280
     1
102
RTVSPost2010PropOp30
 70
     1
102
RTVSPost2010Prop31
280
     0
102
RTVSPost2010PropOp31
 70
     1
102
RTVSPost2010Prop32
280
     0
102
RTVSPost2010PropOp32
 70
     1
102
RTVSPost2010Prop33
280
     0
102
RTVSPost2010PropOp33
 70
     1
102
RTVSPost2010Prop34
280
     0
102
RTVSPost2010PropOp34
 70
     1
102
RTVSPost2010Prop35
280
     0
102
RTVSPost2010PropOp35
 70
     1
102
RTVSPost2010Prop36
280
     0
102
RTVSPost2010PropOp36
 70
     1
102
RTVSPost2010Prop37
 90
       50
102
RTVSPost2010PropOp37
 70
     1
102
RTVSPost2010Prop38
140
0.0
102
RTVSPost2010PropOp38
 70
     1
102
RTVSPost2010Prop39
140
1.0
102
RTVSPost2010PropOp39
 70
     1
102
RTVSPost2010Prop40
 90
        0
102
RTVSPost2010PropOp40
 70
     1
102
RTVSPost2010Prop41ColorIndex
 90
       18
102
RTVSPost2010Prop41ColorRGB
 90
        0
102
RTVSPost2010PropOp41
 70
     1
102
RTVSPost2010Prop42
 90
       50
102
RTVSPost2010PropOp42
 70
     1
102
RTVSPost2010Prop43
 90
        3
102
RTVSPost2010PropOp43
 70
     1
102
RTVSPost2010Prop44ColorIndex
 90
        5
102
RTVSPost2010Prop44ColorRGB
 90
      255
102
RTVSPost2010PropOp44
 70
     1
102
RTVSPost2010Prop45
280
     0
102
RTVSPost2010PropOp45
 70
     1
102
RTVSPost2010Prop46
 90
       50
102
RTVSPost2010PropOp46
 70
     1
102
RTVSPost2010Prop47
 90
       50
102
RTVSPost2010PropOp47
 70
     1
102
RTVSPost2010Prop48
 90
       50
102
RTVSPost2010PropOp48
 70
     1
102
RTVSPost2010Prop49
280
     0
102
RTVSPost2010PropOp49
 70
     1
102
RTVSPost2010Prop50
 90
       50
102
RTVSPost2010PropOp50
 70
     1
102
RTVSPost2010Prop51ColorIndex
 90
      256
102
RTVSPost2010Prop51ColorRGB
 90
-16777216
102
RTVSPost2010PropOp51
 70
     0
102
RTVSPost2010Prop52
140
1.0
102
RTVSPost2010PropOp52
 70
     0
102
RTVSPost2010Prop53
 90
        2
102
RTVSPost2010PropOp53
 70
     1
102
RTVSPost2010Prop54
  1
strokes_ogs.tif
102
RTVSPost2010PropOp54
 70
     1
102
RTVSPost2010Prop55
280
     0
102
RTVSPost2010PropOp55
 70
     1
102
RTVSPost2010Prop56
140
1.0
102
RTVSPost2010PropOp56
 70
     1
102
RTVSPost2010Prop57
140
1.0
102
RTVSPost2010PropOp57
 70
     1
102
RTVSPropertyOp0
 70
     1
102
RTVSPropertyOp1
 70
     1
102
RTVSPropertyOp2
 70
     1
102
RTVSPropertyOp3
 70
     1
102
RTVSPropertyOp4
 70
     1
102
RTVSPropertyOp5
 70
     1
102
RTVSPropertyOp6
 70
     1
102
RTVSPropertyOp7
 70
     1
102
RTVSPropertyOp8
 70
     1
102
RTVSPropertyOp9
 70
     1
102
RTVSPropertyOp10
 70
     1
102
RTVSPropertyOp11
 70
     1
102
RTVSPropertyOp12
 70
     1
102
RTVSPropertyOp13
 70
     1
102
RTVSPropertyOp14
 70
     1
102
RTVSPropertyOp15
 70
     1
102
RTVSPropertyOp16
 70
     1
102
RTVSPropertyOp17
 70
     1
102
RTVSPropertyOp18
 70
     1
102
RTVSPropertyOp19
 70
     1
102
RTVSPropertyOp20
 70
     1
102
RTVSPropertyOp21
 70
     1
102
RTVSPropertyOp22
 70
     1
102
RTVSPropertyOp23
 70
     1
102
RTVSPropertyOp24
 70
     1
102
RTVSPropertyOp25
 70
     1
102
RTVSPropertyOp26
 70
     1
102
RTVSPropertyOp27
 70
     1
102
RTVSPropertyOp28
 70
     1
102
RTVSPropertyOp29
 70
     1
102
RTVSPropertyOp30
 70
     1
102
RTVSPropertyOp31
 70
     1
102
RTVSPropertyOp32
 70
     1
102
RTVSPropertyOp33
 70
     1
102
RTVSPropertyOp34
 70
     1
102
RTVSPropertyOp35
 70
     1
102
RTVSPropertyOp36
 70
     1
102
RTVSPropertyOp37
 70
     1
102
RTVSPropertyOp38
 70
     1
102
RTVSPropertyOp39
 70
     1
102
RTVSPropertyOp40
 70
     1
102
RTVSPropertyOp41
 70
     1
102
RTVSPropertyOp42
 70
     1
102
RTVSPropertyOp43
 70
     1
102
RTVSPropertyOp44
 70
     1
102
RTVSPropertyOp45
 70
     1
102
RTVSPropertyOp46
 70
     1
102
RTVSPropertyOp47
 70
     1
102
RTVSPropertyOp48
 70
     1
102
RTVSPropertyOp49
 70
     1
102
RTVSPropertyOp50
 70
     1
102
RTVSPropertyOp51
 70
     0
102
RTVSPropertyOp52
 70
     0
102
RTVSPropertyOp53
 70
     1
102
RTVSPropertyOp54
 70
     1
102
RTVSPropertyOp55
 70
     1
102
RTVSPropertyOp56
 70
     1
102
RTVSPropertyOp57
 70
     1
102
RTVSPropertyOp58
 70
     1
102
RTVSPropertyOp59
 70
     1
102
RTVSPropertyOp60
 70
     1
102
RTVSPropertyOp61
 70
     1
102
RTVSPropertyOp62
 70
     1
  0
XRECORD
  5
719
102
{ACAD_REACTORS
330
718
102
}
330
718
100
AcDbXrecord
280
     1
102
RTVSPost2010Prop28
280
     0
102
RTVSPost2010PropOp28
 70
     1
102
RTVSPost2010Prop29
280
     1
102
RTVSPost2010PropOp29
 70
     1
102
RTVSPost2010Prop30
280
     1
102
RTVSPost2010PropOp30
 70
     1
102
RTVSPost2010Prop31
280
     0
102
RTVSPost2010PropOp31
 70
     1
102
RTVSPost2010Prop32
280
     0
102
RTVSPost2010PropOp32
 70
     1
102
RTVSPost2010Prop33
280
     0
102
RTVSPost2010PropOp33
 70
     1
102
RTVSPost2010Prop34
280
     0
102
RTVSPost2010PropOp34
 70
     1
102
RTVSPost2010Prop35
280
     0
102
RTVSPost2010PropOp35
 70
     1
102
RTVSPost2010Prop36
280
     0
102
RTVSPost2010PropOp36
 70
     1
102
RTVSPost2010Prop37
 90
       50
102
RTVSPost2010PropOp37
 70
     0
102
RTVSPost2010Prop38
140
0.0
102
RTVSPost2010PropOp38
 70
     0
102
RTVSPost2010Prop39
140
1.0
102
RTVSPost2010PropOp39
 70
     0
102
RTVSPost2010Prop40
 90
        0
102
RTVSPost2010PropOp40
 70
     0
102
RTVSPost2010Prop41ColorIndex
 90
       18
102
RTVSPost2010Prop41ColorRGB
 90
        0
102
RTVSPost2010PropOp41
 70
     0
102
RTVSPost2010Prop42
 90
       50
102
RTVSPost2010PropOp42
 70
     0
102
RTVSPost2010Prop43
 90
        3
102
RTVSPost2010PropOp43
 70
     0
102
RTVSPost2010Prop44ColorIndex
 90
        5
102
RTVSPost2010Prop44ColorRGB
 90
      255
102
RTVSPost2010PropOp44
 70
     0
102
RTVSPost2010Prop45
280
     0
102
RTVSPost2010PropOp45
 70
     1
102
RTVSPost2010Prop46
 90
       50
102
RTVSPost2010PropOp46
 70
     0
102
RTVSPost2010Prop47
 90
       50
102
RTVSPost2010PropOp47
 70
     0
102
RTVSPost2010Prop48
 90
       50
102
RTVSPost2010PropOp48
 70
     0
102
RTVSPost2010Prop49
280
     0
102
RTVSPost2010PropOp49
 70
     1
102
RTVSPost2010Prop50
 90
       50
102
RTVSPost2010PropOp50
 70
     0
102
RTVSPost2010Prop51ColorIndex
 90
      256
102
RTVSPost2010Prop51ColorRGB
 90
-16777216
102
RTVSPost2010PropOp51
 70
     0
102
RTVSPost2010Prop52
140
1.0
102
RTVSPost2010PropOp52
 70
     0
102
RTVSPost2010Prop53
 90
        2
102
RTVSPost2010PropOp53
 70
     0
102
RTVSPost2010Prop54
  1
strokes_ogs.tif
102
RTVSPost2010PropOp54
 70
     0
102
RTVSPost2010Prop55
280
     0
102
RTVSPost2010PropOp55
 70
     1
102
RTVSPost2010Prop56
140
1.0
102
RTVSPost2010PropOp56
 70
     0
102
RTVSPost2010Prop57
140
1.0
102
RTVSPost2010PropOp57
 70
     0
102
RTVSPropertyOp0
 70
     0
102
RTVSPropertyOp1
 70
     0
102
RTVSPropertyOp2
 70
     0
102
RTVSPropertyOp3
 70
     0
102
RTVSPropertyOp4
 70
     0
102
RTVSPropertyOp5
 70
     0
102
RTVSPropertyOp6
 70
     0
102
RTVSPropertyOp7
 70
     0
102
RTVSPropertyOp8
 70
     0
102
RTVSPropertyOp9
 70
     0
102
RTVSPropertyOp10
 70
     0
102
RTVSPropertyOp11
 70
     0
102
RTVSPropertyOp12
 70
     0
102
RTVSPropertyOp13
 70
     0
102
RTVSPropertyOp14
 70
     2
102
RTVSPropertyOp15
 70
     0
102
RTVSPropertyOp16
 70
     0
102
RTVSPropertyOp17
 70
     0
102
RTVSPropertyOp18
 70
     0
102
RTVSPropertyOp19
 70
     0
102
RTVSPropertyOp20
 70
     0
102
RTVSPropertyOp21
 70
     0
102
RTVSPropertyOp22
 70
     0
102
RTVSPropertyOp23
 70
     0
102
RTVSPropertyOp24
 70
     0
102
RTVSPropertyOp25
 70
     0
102
RTVSPropertyOp26
 70
     0
102
RTVSPropertyOp27
 70
     0
102
RTVSPropertyOp28
 70
     1
102
RTVSPropertyOp29
 70
     1
102
RTVSPropertyOp30
 70
     1
102
RTVSPropertyOp31
 70
     1
102
RTVSPropertyOp32
 70
     1
102
RTVSPropertyOp33
 70
     1
102
RTVSPropertyOp34
 70
     1
102
RTVSPropertyOp35
 70
     1
102
RTVSPropertyOp36
 70
     1
102
RTVSPropertyOp37
 70
     0
102
RTVSPropertyOp38
 70
     0
102
RTVSPropertyOp39
 70
     0
102
RTVSPropertyOp40
 70
     0
102
RTVSPropertyOp41
 70
     0
102
RTVSPropertyOp42
 70
     0
102
RTVSPropertyOp43
 70
     0
102
RTVSPropertyOp44
 70
     0
102
RTVSPropertyOp45
 70
     1
102
RTVSPropertyOp46
 70
     0
102
RTVSPropertyOp47
 70
     0
102
RTVSPropertyOp48
 70
     0
102
RTVSPropertyOp49
 70
     1
102
RTVSPropertyOp50
 70
     0
102
RTVSPropertyOp51
 70
     0
102
RTVSPropertyOp52
 70
     0
102
RTVSPropertyOp53
 70
     0
102
RTVSPropertyOp54
 70
     0
102
RTVSPropertyOp55
 70
     1
102
RTVSPropertyOp56
 70
     0
102
RTVSPropertyOp57
 70
     0
102
RTVSPropertyOp58
 70
     0
102
RTVSPropertyOp59
 70
     0
102
RTVSPropertyOp60
 70
     0
102
RTVSPropertyOp61
 70
     0
102
RTVSPropertyOp62
 70
     0
  0
XRECORD
  5
707
102
{ACAD_REACTORS
330
706
102
}
330
706
100
AcDbXrecord
280
     1
102
RTVSPost2010Prop28
280
     0
102
RTVSPost2010PropOp28
 70
     1
102
RTVSPost2010Prop29
280
     1
102
RTVSPost2010PropOp29
 70
     1
102
RTVSPost2010Prop30
280
     1
102
RTVSPost2010PropOp30
 70
     1
102
RTVSPost2010Prop31
280
     0
102
RTVSPost2010PropOp31
 70
     1
102
RTVSPost2010Prop32
280
     0
102
RTVSPost2010PropOp32
 70
     1
102
RTVSPost2010Prop33
280
     0
102
RTVSPost2010PropOp33
 70
     1
102
RTVSPost2010Prop34
280
     0
102
RTVSPost2010PropOp34
 70
     1
102
RTVSPost2010Prop35
280
     0
102
RTVSPost2010PropOp35
 70
     1
102
RTVSPost2010Prop36
280
     0
102
RTVSPost2010PropOp36
 70
     1
102
RTVSPost2010Prop37
 90
       50
102
RTVSPost2010PropOp37
 70
     1
102
RTVSPost2010Prop38
140
0.0
102
RTVSPost2010PropOp38
 70
     1
102
RTVSPost2010Prop39
140
1.0
102
RTVSPost2010PropOp39
 70
     1
102
RTVSPost2010Prop40
 90
        0
102
RTVSPost2010PropOp40
 70
     1
102
RTVSPost2010Prop41ColorIndex
 90
       18
102
RTVSPost2010Prop41ColorRGB
 90
        0
102
RTVSPost2010PropOp41
 70
     1
102
RTVSPost2010Prop42
 90
       50
102
RTVSPost2010PropOp42
 70
     1
102
RTVSPost2010Prop43
 90
        3
102
RTVSPost2010PropOp43
 70
     1
102
RTVSPost2010Prop44ColorIndex
 90
        5
102
RTVSPost2010Prop44ColorRGB
 90
      255
102
RTVSPost2010PropOp44
 70
     1
102
RTVSPost2010Prop45
280
     0
102
RTVSPost2010PropOp45
 70
     1
102
RTVSPost2010Prop46
 90
       50
102
RTVSPost2010PropOp46
 70
     1
102
RTVSPost2010Prop47
 90
       50
102
RTVSPost2010PropOp47
 70
     1
102
RTVSPost2010Prop48
 90
       50
102
RTVSPost2010PropOp48
 70
     1
102
RTVSPost2010Prop49
280
     0
102
RTVSPost2010PropOp49
 70
     1
102
RTVSPost2010Prop50
 90
       50
102
RTVSPost2010PropOp50
 70
     1
102
RTVSPost2010Prop51ColorIndex
 90
      256
102
RTVSPost2010Prop51ColorRGB
 90
-16777216
102
RTVSPost2010PropOp51
 70
     0
102
RTVSPost2010Prop52
140
1.0
102
RTVSPost2010PropOp52
 70
     0
102
RTVSPost2010Prop53
 90
        2
102
RTVSPost2010PropOp53
 70
     1
102
RTVSPost2010Prop54
  1
strokes_ogs.tif
102
RTVSPost2010PropOp54
 70
     1
102
RTVSPost2010Prop55
280
     0
102
RTVSPost2010PropOp55
 70
     1
102
RTVSPost2010Prop56
140
1.0
102
RTVSPost2010PropOp56
 70
     1
102
RTVSPost2010Prop57
140
1.0
102
RTVSPost2010PropOp57
 70
     1
102
RTVSPropertyOp0
 70
     1
102
RTVSPropertyOp1
 70
     1
102
RTVSPropertyOp2
 70
     1
102
RTVSPropertyOp3
 70
     1
102
RTVSPropertyOp4
 70
     1
102
RTVSPropertyOp5
 70
     1
102
RTVSPropertyOp6
 70
     1
102
RTVSPropertyOp7
 70
     1
102
RTVSPropertyOp8
 70
     1
102
RTVSPropertyOp9
 70
     1
102
RTVSPropertyOp10
 70
     1
102
RTVSPropertyOp11
 70
     1
102
RTVSPropertyOp12
 70
     1
102
RTVSPropertyOp13
 70
     1
102
RTVSPropertyOp14
 70
     1
102
RTVSPropertyOp15
 70
     1
102
RTVSPropertyOp16
 70
     1
102
RTVSPropertyOp17
 70
     1
102
RTVSPropertyOp18
 70
     1
102
RTVSPropertyOp19
 70
     1
102
RTVSPropertyOp20
 70
     1
102
RTVSPropertyOp21
 70
     1
102
RTVSPropertyOp22
 70
     1
102
RTVSPropertyOp23
 70
     1
102
RTVSPropertyOp24
 70
     1
102
RTVSPropertyOp25
 70
     1
102
RTVSPropertyOp26
 70
     1
102
RTVSPropertyOp27
 70
     1
102
RTVSPropertyOp28
 70
     1
102
RTVSPropertyOp29
 70
     1
102
RTVSPropertyOp30
 70
     1
102
RTVSPropertyOp31
 70
     1
102
RTVSPropertyOp32
 70
     1
102
RTVSPropertyOp33
 70
     1
102
RTVSPropertyOp34
 70
     1
102
RTVSPropertyOp35
 70
     1
102
RTVSPropertyOp36
 70
     1
102
RTVSPropertyOp37
 70
     1
102
RTVSPropertyOp38
 70
     1
102
RTVSPropertyOp39
 70
     1
102
RTVSPropertyOp40
 70
     1
102
RTVSPropertyOp41
 70
     1
102
RTVSPropertyOp42
 70
     1
102
RTVSPropertyOp43
 70
     1
102
RTVSPropertyOp44
 70
     1
102
RTVSPropertyOp45
 70
     1
102
RTVSPropertyOp46
 70
     1
102
RTVSPropertyOp47
 70
     1
102
RTVSPropertyOp48
 70
     1
102
RTVSPropertyOp49
 70
     1
102
RTVSPropertyOp50
 70
     1
102
RTVSPropertyOp51
 70
     0
102
RTVSPropertyOp52
 70
     0
102
RTVSPropertyOp53
 70
     1
102
RTVSPropertyOp54
 70
     1
102
RTVSPropertyOp55
 70
     1
102
RTVSPropertyOp56
 70
     1
102
RTVSPropertyOp57
 70
     1
102
RTVSPropertyOp58
 70
     1
102
RTVSPropertyOp59
 70
     1
102
RTVSPropertyOp60
 70
     1
102
RTVSPropertyOp61
 70
     1
102
RTVSPropertyOp62
 70
     1
  0
XRECORD
  5
6EB
102
{ACAD_REACTORS
330
6EA
102
}
330
6EA
100
AcDbXrecord
280
     1
102
RTVSPost2010Prop28
280
     0
102
RTVSPost2010PropOp28
 70
     1
102
RTVSPost2010Prop29
280
     1
102
RTVSPost2010PropOp29
 70
     1
102
RTVSPost2010Prop30
280
     1
102
RTVSPost2010PropOp30
 70
     1
102
RTVSPost2010Prop31
280
     0
102
RTVSPost2010PropOp31
 70
     1
102
RTVSPost2010Prop32
280
     0
102
RTVSPost2010PropOp32
 70
     1
102
RTVSPost2010Prop33
280
     0
102
RTVSPost2010PropOp33
 70
     1
102
RTVSPost2010Prop34
280
     0
102
RTVSPost2010PropOp34
 70
     1
102
RTVSPost2010Prop35
280
     0
102
RTVSPost2010PropOp35
 70
     1
102
RTVSPost2010Prop36
280
     0
102
RTVSPost2010PropOp36
 70
     1
102
RTVSPost2010Prop37
 90
       50
102
RTVSPost2010PropOp37
 70
     1
102
RTVSPost2010Prop38
140
0.0
102
RTVSPost2010PropOp38
 70
     1
102
RTVSPost2010Prop39
140
1.0
102
RTVSPost2010PropOp39
 70
     1
102
RTVSPost2010Prop40
 90
        0
102
RTVSPost2010PropOp40
 70
     1
102
RTVSPost2010Prop41ColorIndex
 90
       18
102
RTVSPost2010Prop41ColorRGB
 90
        0
102
RTVSPost2010PropOp41
 70
     1
102
RTVSPost2010Prop42
 90
       50
102
RTVSPost2010PropOp42
 70
     1
102
RTVSPost2010Prop43
 90
        3
102
RTVSPost2010PropOp43
 70
     1
102
RTVSPost2010Prop44ColorIndex
 90
        5
102
RTVSPost2010Prop44ColorRGB
 90
      255
102
RTVSPost2010PropOp44
 70
     1
102
RTVSPost2010Prop45
280
     0
102
RTVSPost2010PropOp45
 70
     1
102
RTVSPost2010Prop46
 90
       50
102
RTVSPost2010PropOp46
 70
     1
102
RTVSPost2010Prop47
 90
       50
102
RTVSPost2010PropOp47
 70
     1
102
RTVSPost2010Prop48
 90
       50
102
RTVSPost2010PropOp48
 70
     1
102
RTVSPost2010Prop49
280
     0
102
RTVSPost2010PropOp49
 70
     1
102
RTVSPost2010Prop50
 90
       50
102
RTVSPost2010PropOp50
 70
     1
102
RTVSPost2010Prop51ColorIndex
 90
      256
102
RTVSPost2010Prop51ColorRGB
 90
-16777216
102
RTVSPost2010PropOp51
 70
     0
102
RTVSPost2010Prop52
140
1.0
102
RTVSPost2010PropOp52
 70
     0
102
RTVSPost2010Prop53
 90
        2
102
RTVSPost2010PropOp53
 70
     1
102
RTVSPost2010Prop54
  1
strokes_ogs.tif
102
RTVSPost2010PropOp54
 70
     1
102
RTVSPost2010Prop55
280
     0
102
RTVSPost2010PropOp55
 70
     1
102
RTVSPost2010Prop56
140
1.0
102
RTVSPost2010PropOp56
 70
     1
102
RTVSPost2010Prop57
140
1.0
102
RTVSPost2010PropOp57
 70
     1
102
RTVSPropertyOp0
 70
     1
102
RTVSPropertyOp1
 70
     1
102
RTVSPropertyOp2
 70
     1
102
RTVSPropertyOp3
 70
     1
102
RTVSPropertyOp4
 70
     1
102
RTVSPropertyOp5
 70
     1
102
RTVSPropertyOp6
 70
     1
102
RTVSPropertyOp7
 70
     1
102
RTVSPropertyOp8
 70
     1
102
RTVSPropertyOp9
 70
     1
102
RTVSPropertyOp10
 70
     1
102
RTVSPropertyOp11
 70
     1
102
RTVSPropertyOp12
 70
     1
102
RTVSPropertyOp13
 70
     1
102
RTVSPropertyOp14
 70
     1
102
RTVSPropertyOp15
 70
     1
102
RTVSPropertyOp16
 70
     1
102
RTVSPropertyOp17
 70
     1
102
RTVSPropertyOp18
 70
     1
102
RTVSPropertyOp19
 70
     1
102
RTVSPropertyOp20
 70
     1
102
RTVSPropertyOp21
 70
     1
102
RTVSPropertyOp22
 70
     1
102
RTVSPropertyOp23
 70
     1
102
RTVSPropertyOp24
 70
     1
102
RTVSPropertyOp25
 70
     1
102
RTVSPropertyOp26
 70
     1
102
RTVSPropertyOp27
 70
     1
102
RTVSPropertyOp28
 70
     1
102
RTVSPropertyOp29
 70
     1
102
RTVSPropertyOp30
 70
     1
102
RTVSPropertyOp31
 70
     1
102
RTVSPropertyOp32
 70
     1
102
RTVSPropertyOp33
 70
     1
102
RTVSPropertyOp34
 70
     1
102
RTVSPropertyOp35
 70
     1
102
RTVSPropertyOp36
 70
     1
102
RTVSPropertyOp37
 70
     1
102
RTVSPropertyOp38
 70
     1
102
RTVSPropertyOp39
 70
     1
102
RTVSPropertyOp40
 70
     1
102
RTVSPropertyOp41
 70
     1
102
RTVSPropertyOp42
 70
     1
102
RTVSPropertyOp43
 70
     1
102
RTVSPropertyOp44
 70
     1
102
RTVSPropertyOp45
 70
     1
102
RTVSPropertyOp46
 70
     1
102
RTVSPropertyOp47
 70
     1
102
RTVSPropertyOp48
 70
     1
102
RTVSPropertyOp49
 70
     1
102
RTVSPropertyOp50
 70
     1
102
RTVSPropertyOp51
 70
     0
102
RTVSPropertyOp52
 70
     0
102
RTVSPropertyOp53
 70
     1
102
RTVSPropertyOp54
 70
     1
102
RTVSPropertyOp55
 70
     1
102
RTVSPropertyOp56
 70
     1
102
RTVSPropertyOp57
 70
     1
102
RTVSPropertyOp58
 70
     1
102
RTVSPropertyOp59
 70
     1
102
RTVSPropertyOp60
 70
     1
102
RTVSPropertyOp61
 70
     1
102
RTVSPropertyOp62
 70
     1
  0
XRECORD
  5
6ED
102
{ACAD_REACTORS
330
6EC
102
}
330
6EC
100
AcDbXrecord
280
     1
102
RTVSPost2010Prop28
280
     0
102
RTVSPost2010PropOp28
 70
     1
102
RTVSPost2010Prop29
280
     1
102
RTVSPost2010PropOp29
 70
     1
102
RTVSPost2010Prop30
280
     1
102
RTVSPost2010PropOp30
 70
     1
102
RTVSPost2010Prop31
280
     0
102
RTVSPost2010PropOp31
 70
     1
102
RTVSPost2010Prop32
280
     0
102
RTVSPost2010PropOp32
 70
     1
102
RTVSPost2010Prop33
280
     0
102
RTVSPost2010PropOp33
 70
     1
102
RTVSPost2010Prop34
280
     0
102
RTVSPost2010PropOp34
 70
     1
102
RTVSPost2010Prop35
280
     0
102
RTVSPost2010PropOp35
 70
     1
102
RTVSPost2010Prop36
280
     0
102
RTVSPost2010PropOp36
 70
     1
102
RTVSPost2010Prop37
 90
       50
102
RTVSPost2010PropOp37
 70
     1
102
RTVSPost2010Prop38
140
0.0
102
RTVSPost2010PropOp38
 70
     1
102
RTVSPost2010Prop39
140
1.0
102
RTVSPost2010PropOp39
 70
     1
102
RTVSPost2010Prop40
 90
        0
102
RTVSPost2010PropOp40
 70
     1
102
RTVSPost2010Prop41ColorIndex
 90
       18
102
RTVSPost2010Prop41ColorRGB
 90
        0
102
RTVSPost2010PropOp41
 70
     1
102
RTVSPost2010Prop42
 90
       50
102
RTVSPost2010PropOp42
 70
     1
102
RTVSPost2010Prop43
 90
        3
102
RTVSPost2010PropOp43
 70
     1
102
RTVSPost2010Prop44ColorIndex
 90
        5
102
RTVSPost2010Prop44ColorRGB
 90
      255
102
RTVSPost2010PropOp44
 70
     1
102
RTVSPost2010Prop45
280
     0
102
RTVSPost2010PropOp45
 70
     1
102
RTVSPost2010Prop46
 90
       50
102
RTVSPost2010PropOp46
 70
     1
102
RTVSPost2010Prop47
 90
       50
102
RTVSPost2010PropOp47
 70
     1
102
RTVSPost2010Prop48
 90
       50
102
RTVSPost2010PropOp48
 70
     1
102
RTVSPost2010Prop49
280
     0
102
RTVSPost2010PropOp49
 70
     1
102
RTVSPost2010Prop50
 90
       50
102
RTVSPost2010PropOp50
 70
     1
102
RTVSPost2010Prop51ColorIndex
 90
      256
102
RTVSPost2010Prop51ColorRGB
 90
-16777216
102
RTVSPost2010PropOp51
 70
     0
102
RTVSPost2010Prop52
140
1.0
102
RTVSPost2010PropOp52
 70
     0
102
RTVSPost2010Prop53
 90
        2
102
RTVSPost2010PropOp53
 70
     1
102
RTVSPost2010Prop54
  1
strokes_ogs.tif
102
RTVSPost2010PropOp54
 70
     1
102
RTVSPost2010Prop55
280
     0
102
RTVSPost2010PropOp55
 70
     1
102
RTVSPost2010Prop56
140
1.0
102
RTVSPost2010PropOp56
 70
     1
102
RTVSPost2010Prop57
140
1.0
102
RTVSPost2010PropOp57
 70
     1
102
RTVSPropertyOp0
 70
     1
102
RTVSPropertyOp1
 70
     1
102
RTVSPropertyOp2
 70
     1
102
RTVSPropertyOp3
 70
     1
102
RTVSPropertyOp4
 70
     1
102
RTVSPropertyOp5
 70
     1
102
RTVSPropertyOp6
 70
     1
102
RTVSPropertyOp7
 70
     1
102
RTVSPropertyOp8
 70
     1
102
RTVSPropertyOp9
 70
     1
102
RTVSPropertyOp10
 70
     1
102
RTVSPropertyOp11
 70
     1
102
RTVSPropertyOp12
 70
     1
102
RTVSPropertyOp13
 70
     1
102
RTVSPropertyOp14
 70
     1
102
RTVSPropertyOp15
 70
     1
102
RTVSPropertyOp16
 70
     1
102
RTVSPropertyOp17
 70
     1
102
RTVSPropertyOp18
 70
     1
102
RTVSPropertyOp19
 70
     1
102
RTVSPropertyOp20
 70
     1
102
RTVSPropertyOp21
 70
     1
102
RTVSPropertyOp22
 70
     1
102
RTVSPropertyOp23
 70
     1
102
RTVSPropertyOp24
 70
     1
102
RTVSPropertyOp25
 70
     1
102
RTVSPropertyOp26
 70
     1
102
RTVSPropertyOp27
 70
     1
102
RTVSPropertyOp28
 70
     1
102
RTVSPropertyOp29
 70
     1
102
RTVSPropertyOp30
 70
     1
102
RTVSPropertyOp31
 70
     1
102
RTVSPropertyOp32
 70
     1
102
RTVSPropertyOp33
 70
     1
102
RTVSPropertyOp34
 70
     1
102
RTVSPropertyOp35
 70
     1
102
RTVSPropertyOp36
 70
     1
102
RTVSPropertyOp37
 70
     1
102
RTVSPropertyOp38
 70
     1
102
RTVSPropertyOp39
 70
     1
102
RTVSPropertyOp40
 70
     1
102
RTVSPropertyOp41
 70
     1
102
RTVSPropertyOp42
 70
     1
102
RTVSPropertyOp43
 70
     1
102
RTVSPropertyOp44
 70
     1
102
RTVSPropertyOp45
 70
     1
102
RTVSPropertyOp46
 70
     1
102
RTVSPropertyOp47
 70
     1
102
RTVSPropertyOp48
 70
     1
102
RTVSPropertyOp49
 70
     1
102
RTVSPropertyOp50
 70
     1
102
RTVSPropertyOp51
 70
     0
102
RTVSPropertyOp52
 70
     0
102
RTVSPropertyOp53
 70
     1
102
RTVSPropertyOp54
 70
     1
102
RTVSPropertyOp55
 70
     1
102
RTVSPropertyOp56
 70
     1
102
RTVSPropertyOp57
 70
     1
102
RTVSPropertyOp58
 70
     1
102
RTVSPropertyOp59
 70
     1
102
RTVSPropertyOp60
 70
     1
102
RTVSPropertyOp61
 70
     1
102
RTVSPropertyOp62
 70
     1
  0
XRECORD
  5
6EF
102
{ACAD_REACTORS
330
6EE
102
}
330
6EE
100
AcDbXrecord
280
     1
102
RTVSPost2010Prop28
280
     0
102
RTVSPost2010PropOp28
 70
     1
102
RTVSPost2010Prop29
280
     1
102
RTVSPost2010PropOp29
 70
     1
102
RTVSPost2010Prop30
280
     1
102
RTVSPost2010PropOp30
 70
     1
102
RTVSPost2010Prop31
280
     0
102
RTVSPost2010PropOp31
 70
     1
102
RTVSPost2010Prop32
280
     0
102
RTVSPost2010PropOp32
 70
     1
102
RTVSPost2010Prop33
280
     0
102
RTVSPost2010PropOp33
 70
     1
102
RTVSPost2010Prop34
280
     0
102
RTVSPost2010PropOp34
 70
     1
102
RTVSPost2010Prop35
280
     0
102
RTVSPost2010PropOp35
 70
     1
102
RTVSPost2010Prop36
280
     0
102
RTVSPost2010PropOp36
 70
     1
102
RTVSPost2010Prop37
 90
       50
102
RTVSPost2010PropOp37
 70
     1
102
RTVSPost2010Prop38
140
0.0
102
RTVSPost2010PropOp38
 70
     1
102
RTVSPost2010Prop39
140
1.0
102
RTVSPost2010PropOp39
 70
     1
102
RTVSPost2010Prop40
 90
        0
102
RTVSPost2010PropOp40
 70
     1
102
RTVSPost2010Prop41ColorIndex
 90
       18
102
RTVSPost2010Prop41ColorRGB
 90
        0
102
RTVSPost2010PropOp41
 70
     1
102
RTVSPost2010Prop42
 90
       50
102
RTVSPost2010PropOp42
 70
     1
102
RTVSPost2010Prop43
 90
        3
102
RTVSPost2010PropOp43
 70
     1
102
RTVSPost2010Prop44ColorIndex
 90
        5
102
RTVSPost2010Prop44ColorRGB
 90
      255
102
RTVSPost2010PropOp44
 70
     1
102
RTVSPost2010Prop45
280
     0
102
RTVSPost2010PropOp45
 70
     1
102
RTVSPost2010Prop46
 90
       50
102
RTVSPost2010PropOp46
 70
     1
102
RTVSPost2010Prop47
 90
       50
102
RTVSPost2010PropOp47
 70
     1
102
RTVSPost2010Prop48
 90
       50
102
RTVSPost2010PropOp48
 70
     1
102
RTVSPost2010Prop49
280
     0
102
RTVSPost2010PropOp49
 70
     1
102
RTVSPost2010Prop50
 90
       50
102
RTVSPost2010PropOp50
 70
     1
102
RTVSPost2010Prop51ColorIndex
 90
      256
102
RTVSPost2010Prop51ColorRGB
 90
-16777216
102
RTVSPost2010PropOp51
 70
     0
102
RTVSPost2010Prop52
140
1.0
102
RTVSPost2010PropOp52
 70
     0
102
RTVSPost2010Prop53
 90
        2
102
RTVSPost2010PropOp53
 70
     1
102
RTVSPost2010Prop54
  1
strokes_ogs.tif
102
RTVSPost2010PropOp54
 70
     1
102
RTVSPost2010Prop55
280
     0
102
RTVSPost2010PropOp55
 70
     1
102
RTVSPost2010Prop56
140
1.0
102
RTVSPost2010PropOp56
 70
     1
102
RTVSPost2010Prop57
140
1.0
102
RTVSPost2010PropOp57
 70
     1
102
RTVSPropertyOp0
 70
     1
102
RTVSPropertyOp1
 70
     1
102
RTVSPropertyOp2
 70
     1
102
RTVSPropertyOp3
 70
     1
102
RTVSPropertyOp4
 70
     1
102
RTVSPropertyOp5
 70
     1
102
RTVSPropertyOp6
 70
     1
102
RTVSPropertyOp7
 70
     1
102
RTVSPropertyOp8
 70
     1
102
RTVSPropertyOp9
 70
     1
102
RTVSPropertyOp10
 70
     1
102
RTVSPropertyOp11
 70
     1
102
RTVSPropertyOp12
 70
     1
102
RTVSPropertyOp13
 70
     1
102
RTVSPropertyOp14
 70
     1
102
RTVSPropertyOp15
 70
     1
102
RTVSPropertyOp16
 70
     1
102
RTVSPropertyOp17
 70
     1
102
RTVSPropertyOp18
 70
     1
102
RTVSPropertyOp19
 70
     1
102
RTVSPropertyOp20
 70
     1
102
RTVSPropertyOp21
 70
     1
102
RTVSPropertyOp22
 70
     1
102
RTVSPropertyOp23
 70
     1
102
RTVSPropertyOp24
 70
     1
102
RTVSPropertyOp25
 70
     1
102
RTVSPropertyOp26
 70
     1
102
RTVSPropertyOp27
 70
     1
102
RTVSPropertyOp28
 70
     1
102
RTVSPropertyOp29
 70
     1
102
RTVSPropertyOp30
 70
     1
102
RTVSPropertyOp31
 70
     1
102
RTVSPropertyOp32
 70
     1
102
RTVSPropertyOp33
 70
     1
102
RTVSPropertyOp34
 70
     1
102
RTVSPropertyOp35
 70
     1
102
RTVSPropertyOp36
 70
     1
102
RTVSPropertyOp37
 70
     1
102
RTVSPropertyOp38
 70
     1
102
RTVSPropertyOp39
 70
     1
102
RTVSPropertyOp40
 70
     1
102
RTVSPropertyOp41
 70
     1
102
RTVSPropertyOp42
 70
     1
102
RTVSPropertyOp43
 70
     1
102
RTVSPropertyOp44
 70
     1
102
RTVSPropertyOp45
 70
     1
102
RTVSPropertyOp46
 70
     1
102
RTVSPropertyOp47
 70
     1
102
RTVSPropertyOp48
 70
     1
102
RTVSPropertyOp49
 70
     1
102
RTVSPropertyOp50
 70
     1
102
RTVSPropertyOp51
 70
     0
102
RTVSPropertyOp52
 70
     0
102
RTVSPropertyOp53
 70
     1
102
RTVSPropertyOp54
 70
     1
102
RTVSPropertyOp55
 70
     1
102
RTVSPropertyOp56
 70
     1
102
RTVSPropertyOp57
 70
     1
102
RTVSPropertyOp58
 70
     1
102
RTVSPropertyOp59
 70
     1
102
RTVSPropertyOp60
 70
     1
102
RTVSPropertyOp61
 70
     1
102
RTVSPropertyOp62
 70
     1
  0
XRECORD
  5
6F1
102
{ACAD_REACTORS
330
6F0
102
}
330
6F0
100
AcDbXrecord
280
     1
102
RTVSPost2010Prop28
280
     0
102
RTVSPost2010PropOp28
 70
     1
102
RTVSPost2010Prop29
280
     1
102
RTVSPost2010PropOp29
 70
     1
102
RTVSPost2010Prop30
280
     1
102
RTVSPost2010PropOp30
 70
     1
102
RTVSPost2010Prop31
280
     0
102
RTVSPost2010PropOp31
 70
     1
102
RTVSPost2010Prop32
280
     0
102
RTVSPost2010PropOp32
 70
     1
102
RTVSPost2010Prop33
280
     0
102
RTVSPost2010PropOp33
 70
     1
102
RTVSPost2010Prop34
280
     0
102
RTVSPost2010PropOp34
 70
     1
102
RTVSPost2010Prop35
280
     0
102
RTVSPost2010PropOp35
 70
     1
102
RTVSPost2010Prop36
280
     0
102
RTVSPost2010PropOp36
 70
     1
102
RTVSPost2010Prop37
 90
       50
102
RTVSPost2010PropOp37
 70
     1
102
RTVSPost2010Prop38
140
0.0
102
RTVSPost2010PropOp38
 70
     1
102
RTVSPost2010Prop39
140
1.0
102
RTVSPost2010PropOp39
 70
     1
102
RTVSPost2010Prop40
 90
        0
102
RTVSPost2010PropOp40
 70
     1
102
RTVSPost2010Prop41ColorIndex
 90
       18
102
RTVSPost2010Prop41ColorRGB
 90
        0
102
RTVSPost2010PropOp41
 70
     1
102
RTVSPost2010Prop42
 90
       50
102
RTVSPost2010PropOp42
 70
     1
102
RTVSPost2010Prop43
 90
        3
102
RTVSPost2010PropOp43
 70
     1
102
RTVSPost2010Prop44ColorIndex
 90
        5
102
RTVSPost2010Prop44ColorRGB
 90
      255
102
RTVSPost2010PropOp44
 70
     1
102
RTVSPost2010Prop45
280
     0
102
RTVSPost2010PropOp45
 70
     1
102
RTVSPost2010Prop46
 90
       50
102
RTVSPost2010PropOp46
 70
     1
102
RTVSPost2010Prop47
 90
       50
102
RTVSPost2010PropOp47
 70
     1
102
RTVSPost2010Prop48
 90
       50
102
RTVSPost2010PropOp48
 70
     1
102
RTVSPost2010Prop49
280
     0
102
RTVSPost2010PropOp49
 70
     1
102
RTVSPost2010Prop50
 90
       50
102
RTVSPost2010PropOp50
 70
     1
102
RTVSPost2010Prop51ColorIndex
 90
      256
102
RTVSPost2010Prop51ColorRGB
 90
-16777216
102
RTVSPost2010PropOp51
 70
     0
102
RTVSPost2010Prop52
140
1.0
102
RTVSPost2010PropOp52
 70
     0
102
RTVSPost2010Prop53
 90
        2
102
RTVSPost2010PropOp53
 70
     1
102
RTVSPost2010Prop54
  1
strokes_ogs.tif
102
RTVSPost2010PropOp54
 70
     1
102
RTVSPost2010Prop55
280
     0
102
RTVSPost2010PropOp55
 70
     1
102
RTVSPost2010Prop56
140
1.0
102
RTVSPost2010PropOp56
 70
     1
102
RTVSPost2010Prop57
140
1.0
102
RTVSPost2010PropOp57
 70
     1
102
RTVSPropertyOp0
 70
     1
102
RTVSPropertyOp1
 70
     1
102
RTVSPropertyOp2
 70
     1
102
RTVSPropertyOp3
 70
     1
102
RTVSPropertyOp4
 70
     1
102
RTVSPropertyOp5
 70
     1
102
RTVSPropertyOp6
 70
     1
102
RTVSPropertyOp7
 70
     1
102
RTVSPropertyOp8
 70
     1
102
RTVSPropertyOp9
 70
     1
102
RTVSPropertyOp10
 70
     1
102
RTVSPropertyOp11
 70
     1
102
RTVSPropertyOp12
 70
     1
102
RTVSPropertyOp13
 70
     1
102
RTVSPropertyOp14
 70
     1
102
RTVSPropertyOp15
 70
     1
102
RTVSPropertyOp16
 70
     1
102
RTVSPropertyOp17
 70
     1
102
RTVSPropertyOp18
 70
     1
102
RTVSPropertyOp19
 70
     1
102
RTVSPropertyOp20
 70
     1
102
RTVSPropertyOp21
 70
     1
102
RTVSPropertyOp22
 70
     1
102
RTVSPropertyOp23
 70
     1
102
RTVSPropertyOp24
 70
     1
102
RTVSPropertyOp25
 70
     1
102
RTVSPropertyOp26
 70
     1
102
RTVSPropertyOp27
 70
     1
102
RTVSPropertyOp28
 70
     1
102
RTVSPropertyOp29
 70
     1
102
RTVSPropertyOp30
 70
     1
102
RTVSPropertyOp31
 70
     1
102
RTVSPropertyOp32
 70
     1
102
RTVSPropertyOp33
 70
     1
102
RTVSPropertyOp34
 70
     1
102
RTVSPropertyOp35
 70
     1
102
RTVSPropertyOp36
 70
     1
102
RTVSPropertyOp37
 70
     1
102
RTVSPropertyOp38
 70
     1
102
RTVSPropertyOp39
 70
     1
102
RTVSPropertyOp40
 70
     1
102
RTVSPropertyOp41
 70
     1
102
RTVSPropertyOp42
 70
     1
102
RTVSPropertyOp43
 70
     1
102
RTVSPropertyOp44
 70
     1
102
RTVSPropertyOp45
 70
     1
102
RTVSPropertyOp46
 70
     1
102
RTVSPropertyOp47
 70
     1
102
RTVSPropertyOp48
 70
     1
102
RTVSPropertyOp49
 70
     1
102
RTVSPropertyOp50
 70
     1
102
RTVSPropertyOp51
 70
     0
102
RTVSPropertyOp52
 70
     0
102
RTVSPropertyOp53
 70
     1
102
RTVSPropertyOp54
 70
     1
102
RTVSPropertyOp55
 70
     1
102
RTVSPropertyOp56
 70
     1
102
RTVSPropertyOp57
 70
     1
102
RTVSPropertyOp58
 70
     1
102
RTVSPropertyOp59
 70
     1
102
RTVSPropertyOp60
 70
     1
102
RTVSPropertyOp61
 70
     1
102
RTVSPropertyOp62
 70
     1
  0
XRECORD
  5
6F9
102
{ACAD_REACTORS
330
6F8
102
}
330
6F8
100
AcDbXrecord
280
     1
102
RTVSPost2010Prop28
280
     0
102
RTVSPost2010PropOp28
 70
     1
102
RTVSPost2010Prop29
280
     1
102
RTVSPost2010PropOp29
 70
     1
102
RTVSPost2010Prop30
280
     1
102
RTVSPost2010PropOp30
 70
     1
102
RTVSPost2010Prop31
280
     0
102
RTVSPost2010PropOp31
 70
     1
102
RTVSPost2010Prop32
280
     0
102
RTVSPost2010PropOp32
 70
     1
102
RTVSPost2010Prop33
280
     0
102
RTVSPost2010PropOp33
 70
     1
102
RTVSPost2010Prop34
280
     0
102
RTVSPost2010PropOp34
 70
     1
102
RTVSPost2010Prop35
280
     0
102
RTVSPost2010PropOp35
 70
     1
102
RTVSPost2010Prop36
280
     0
102
RTVSPost2010PropOp36
 70
     1
102
RTVSPost2010Prop37
 90
       50
102
RTVSPost2010PropOp37
 70
     1
102
RTVSPost2010Prop38
140
0.0
102
RTVSPost2010PropOp38
 70
     1
102
RTVSPost2010Prop39
140
1.0
102
RTVSPost2010PropOp39
 70
     1
102
RTVSPost2010Prop40
 90
        0
102
RTVSPost2010PropOp40
 70
     1
102
RTVSPost2010Prop41ColorIndex
 90
       18
102
RTVSPost2010Prop41ColorRGB
 90
        0
102
RTVSPost2010PropOp41
 70
     1
102
RTVSPost2010Prop42
 90
       50
102
RTVSPost2010PropOp42
 70
     1
102
RTVSPost2010Prop43
 90
        3
102
RTVSPost2010PropOp43
 70
     1
102
RTVSPost2010Prop44ColorIndex
 90
        5
102
RTVSPost2010Prop44ColorRGB
 90
      255
102
RTVSPost2010PropOp44
 70
     1
102
RTVSPost2010Prop45
280
     0
102
RTVSPost2010PropOp45
 70
     1
102
RTVSPost2010Prop46
 90
       50
102
RTVSPost2010PropOp46
 70
     1
102
RTVSPost2010Prop47
 90
       50
102
RTVSPost2010PropOp47
 70
     1
102
RTVSPost2010Prop48
 90
       50
102
RTVSPost2010PropOp48
 70
     1
102
RTVSPost2010Prop49
280
     0
102
RTVSPost2010PropOp49
 70
     1
102
RTVSPost2010Prop50
 90
       50
102
RTVSPost2010PropOp50
 70
     1
102
RTVSPost2010Prop51ColorIndex
 90
      256
102
RTVSPost2010Prop51ColorRGB
 90
-16777216
102
RTVSPost2010PropOp51
 70
     0
102
RTVSPost2010Prop52
140
1.0
102
RTVSPost2010PropOp52
 70
     0
102
RTVSPost2010Prop53
 90
        2
102
RTVSPost2010PropOp53
 70
     1
102
RTVSPost2010Prop54
  1
strokes_ogs.tif
102
RTVSPost2010PropOp54
 70
     1
102
RTVSPost2010Prop55
280
     0
102
RTVSPost2010PropOp55
 70
     1
102
RTVSPost2010Prop56
140
1.0
102
RTVSPost2010PropOp56
 70
     1
102
RTVSPost2010Prop57
140
1.0
102
RTVSPost2010PropOp57
 70
     1
102
RTVSPropertyOp0
 70
     1
102
RTVSPropertyOp1
 70
     1
102
RTVSPropertyOp2
 70
     1
102
RTVSPropertyOp3
 70
     1
102
RTVSPropertyOp4
 70
     1
102
RTVSPropertyOp5
 70
     1
102
RTVSPropertyOp6
 70
     1
102
RTVSPropertyOp7
 70
     1
102
RTVSPropertyOp8
 70
     1
102
RTVSPropertyOp9
 70
     1
102
RTVSPropertyOp10
 70
     1
102
RTVSPropertyOp11
 70
     1
102
RTVSPropertyOp12
 70
     1
102
RTVSPropertyOp13
 70
     1
102
RTVSPropertyOp14
 70
     1
102
RTVSPropertyOp15
 70
     1
102
RTVSPropertyOp16
 70
     1
102
RTVSPropertyOp17
 70
     1
102
RTVSPropertyOp18
 70
     1
102
RTVSPropertyOp19
 70
     1
102
RTVSPropertyOp20
 70
     1
102
RTVSPropertyOp21
 70
     1
102
RTVSPropertyOp22
 70
     1
102
RTVSPropertyOp23
 70
     1
102
RTVSPropertyOp24
 70
     1
102
RTVSPropertyOp25
 70
     1
102
RTVSPropertyOp26
 70
     1
102
RTVSPropertyOp27
 70
     1
102
RTVSPropertyOp28
 70
     1
102
RTVSPropertyOp29
 70
     1
102
RTVSPropertyOp30
 70
     1
102
RTVSPropertyOp31
 70
     1
102
RTVSPropertyOp32
 70
     1
102
RTVSPropertyOp33
 70
     1
102
RTVSPropertyOp34
 70
     1
102
RTVSPropertyOp35
 70
     1
102
RTVSPropertyOp36
 70
     1
102
RTVSPropertyOp37
 70
     1
102
RTVSPropertyOp38
 70
     1
102
RTVSPropertyOp39
 70
     1
102
RTVSPropertyOp40
 70
     1
102
RTVSPropertyOp41
 70
     1
102
RTVSPropertyOp42
 70
     1
102
RTVSPropertyOp43
 70
     1
102
RTVSPropertyOp44
 70
     1
102
RTVSPropertyOp45
 70
     1
102
RTVSPropertyOp46
 70
     1
102
RTVSPropertyOp47
 70
     1
102
RTVSPropertyOp48
 70
     1
102
RTVSPropertyOp49
 70
     1
102
RTVSPropertyOp50
 70
     1
102
RTVSPropertyOp51
 70
     0
102
RTVSPropertyOp52
 70
     0
102
RTVSPropertyOp53
 70
     1
102
RTVSPropertyOp54
 70
     1
102
RTVSPropertyOp55
 70
     1
102
RTVSPropertyOp56
 70
     1
102
RTVSPropertyOp57
 70
     1
102
RTVSPropertyOp58
 70
     1
102
RTVSPropertyOp59
 70
     1
102
RTVSPropertyOp60
 70
     1
102
RTVSPropertyOp61
 70
     1
102
RTVSPropertyOp62
 70
     1
  0
XRECORD
  5
715
102
{ACAD_REACTORS
330
714
102
}
330
714
100
AcDbXrecord
280
     1
102
RTVSPost2010Prop28
280
     0
102
RTVSPost2010PropOp28
 70
     1
102
RTVSPost2010Prop29
280
     1
102
RTVSPost2010PropOp29
 70
     1
102
RTVSPost2010Prop30
280
     1
102
RTVSPost2010PropOp30
 70
     1
102
RTVSPost2010Prop31
280
     0
102
RTVSPost2010PropOp31
 70
     1
102
RTVSPost2010Prop32
280
     0
102
RTVSPost2010PropOp32
 70
     1
102
RTVSPost2010Prop33
280
     0
102
RTVSPost2010PropOp33
 70
     1
102
RTVSPost2010Prop34
280
     0
102
RTVSPost2010PropOp34
 70
     1
102
RTVSPost2010Prop35
280
     0
102
RTVSPost2010PropOp35
 70
     1
102
RTVSPost2010Prop36
280
     0
102
RTVSPost2010PropOp36
 70
     1
102
RTVSPost2010Prop37
 90
       50
102
RTVSPost2010PropOp37
 70
     0
102
RTVSPost2010Prop38
140
0.0
102
RTVSPost2010PropOp38
 70
     0
102
RTVSPost2010Prop39
140
1.0
102
RTVSPost2010PropOp39
 70
     0
102
RTVSPost2010Prop40
 90
        0
102
RTVSPost2010PropOp40
 70
     0
102
RTVSPost2010Prop41ColorIndex
 90
       18
102
RTVSPost2010Prop41ColorRGB
 90
        0
102
RTVSPost2010PropOp41
 70
     0
102
RTVSPost2010Prop42
 90
       50
102
RTVSPost2010PropOp42
 70
     0
102
RTVSPost2010Prop43
 90
        3
102
RTVSPost2010PropOp43
 70
     0
102
RTVSPost2010Prop44ColorIndex
 90
        5
102
RTVSPost2010Prop44ColorRGB
 90
      255
102
RTVSPost2010PropOp44
 70
     0
102
RTVSPost2010Prop45
280
     0
102
RTVSPost2010PropOp45
 70
     1
102
RTVSPost2010Prop46
 90
       50
102
RTVSPost2010PropOp46
 70
     0
102
RTVSPost2010Prop47
 90
       50
102
RTVSPost2010PropOp47
 70
     0
102
RTVSPost2010Prop48
 90
       50
102
RTVSPost2010PropOp48
 70
     0
102
RTVSPost2010Prop49
280
     0
102
RTVSPost2010PropOp49
 70
     1
102
RTVSPost2010Prop50
 90
       50
102
RTVSPost2010PropOp50
 70
     0
102
RTVSPost2010Prop51ColorIndex
 90
      256
102
RTVSPost2010Prop51ColorRGB
 90
-16777216
102
RTVSPost2010PropOp51
 70
     0
102
RTVSPost2010Prop52
140
1.0
102
RTVSPost2010PropOp52
 70
     0
102
RTVSPost2010Prop53
 90
        2
102
RTVSPost2010PropOp53
 70
     0
102
RTVSPost2010Prop54
  1
strokes_ogs.tif
102
RTVSPost2010PropOp54
 70
     0
102
RTVSPost2010Prop55
280
     0
102
RTVSPost2010PropOp55
 70
     1
102
RTVSPost2010Prop56
140
1.0
102
RTVSPost2010PropOp56
 70
     0
102
RTVSPost2010Prop57
140
1.0
102
RTVSPost2010PropOp57
 70
     0
102
RTVSPropertyOp0
 70
     0
102
RTVSPropertyOp1
 70
     0
102
RTVSPropertyOp2
 70
     0
102
RTVSPropertyOp3
 70
     0
102
RTVSPropertyOp4
 70
     0
102
RTVSPropertyOp5
 70
     0
102
RTVSPropertyOp6
 70
     0
102
RTVSPropertyOp7
 70
     0
102
RTVSPropertyOp8
 70
     0
102
RTVSPropertyOp9
 70
     0
102
RTVSPropertyOp10
 70
     0
102
RTVSPropertyOp11
 70
     0
102
RTVSPropertyOp12
 70
     0
102
RTVSPropertyOp13
 70
     0
102
RTVSPropertyOp14
 70
     2
102
RTVSPropertyOp15
 70
     0
102
RTVSPropertyOp16
 70
     0
102
RTVSPropertyOp17
 70
     0
102
RTVSPropertyOp18
 70
     0
102
RTVSPropertyOp19
 70
     0
102
RTVSPropertyOp20
 70
     0
102
RTVSPropertyOp21
 70
     0
102
RTVSPropertyOp22
 70
     0
102
RTVSPropertyOp23
 70
     0
102
RTVSPropertyOp24
 70
     0
102
RTVSPropertyOp25
 70
     0
102
RTVSPropertyOp26
 70
     0
102
RTVSPropertyOp27
 70
     0
102
RTVSPropertyOp28
 70
     1
102
RTVSPropertyOp29
 70
     1
102
RTVSPropertyOp30
 70
     1
102
RTVSPropertyOp31
 70
     1
102
RTVSPropertyOp32
 70
     1
102
RTVSPropertyOp33
 70
     1
102
RTVSPropertyOp34
 70
     1
102
RTVSPropertyOp35
 70
     1
102
RTVSPropertyOp36
 70
     1
102
RTVSPropertyOp37
 70
     0
102
RTVSPropertyOp38
 70
     0
102
RTVSPropertyOp39
 70
     0
102
RTVSPropertyOp40
 70
     0
102
RTVSPropertyOp41
 70
     0
102
RTVSPropertyOp42
 70
     0
102
RTVSPropertyOp43
 70
     0
102
RTVSPropertyOp44
 70
     0
102
RTVSPropertyOp45
 70
     1
102
RTVSPropertyOp46
 70
     0
102
RTVSPropertyOp47
 70
     0
102
RTVSPropertyOp48
 70
     0
102
RTVSPropertyOp49
 70
     1
102
RTVSPropertyOp50
 70
     0
102
RTVSPropertyOp51
 70
     0
102
RTVSPropertyOp52
 70
     0
102
RTVSPropertyOp53
 70
     0
102
RTVSPropertyOp54
 70
     0
102
RTVSPropertyOp55
 70
     1
102
RTVSPropertyOp56
 70
     0
102
RTVSPropertyOp57
 70
     0
102
RTVSPropertyOp58
 70
     0
102
RTVSPropertyOp59
 70
     0
102
RTVSPropertyOp60
 70
     0
102
RTVSPropertyOp61
 70
     0
102
RTVSPropertyOp62
 70
     0
  0
XRECORD
  5
705
102
{ACAD_REACTORS
330
704
102
}
330
704
100
AcDbXrecord
280
     1
102
RTVSPost2010Prop28
280
     0
102
RTVSPost2010PropOp28
 70
     1
102
RTVSPost2010Prop29
280
     1
102
RTVSPost2010PropOp29
 70
     1
102
RTVSPost2010Prop30
280
     1
102
RTVSPost2010PropOp30
 70
     1
102
RTVSPost2010Prop31
280
     0
102
RTVSPost2010PropOp31
 70
     1
102
RTVSPost2010Prop32
280
     0
102
RTVSPost2010PropOp32
 70
     1
102
RTVSPost2010Prop33
280
     0
102
RTVSPost2010PropOp33
 70
     1
102
RTVSPost2010Prop34
280
     0
102
RTVSPost2010PropOp34
 70
     1
102
RTVSPost2010Prop35
280
     0
102
RTVSPost2010PropOp35
 70
     1
102
RTVSPost2010Prop36
280
     0
102
RTVSPost2010PropOp36
 70
     1
102
RTVSPost2010Prop37
 90
       50
102
RTVSPost2010PropOp37
 70
     1
102
RTVSPost2010Prop38
140
0.0
102
RTVSPost2010PropOp38
 70
     1
102
RTVSPost2010Prop39
140
1.0
102
RTVSPost2010PropOp39
 70
     1
102
RTVSPost2010Prop40
 90
        0
102
RTVSPost2010PropOp40
 70
     1
102
RTVSPost2010Prop41ColorIndex
 90
       18
102
RTVSPost2010Prop41ColorRGB
 90
        0
102
RTVSPost2010PropOp41
 70
     1
102
RTVSPost2010Prop42
 90
       50
102
RTVSPost2010PropOp42
 70
     1
102
RTVSPost2010Prop43
 90
        3
102
RTVSPost2010PropOp43
 70
     1
102
RTVSPost2010Prop44ColorIndex
 90
        5
102
RTVSPost2010Prop44ColorRGB
 90
      255
102
RTVSPost2010PropOp44
 70
     1
102
RTVSPost2010Prop45
280
     0
102
RTVSPost2010PropOp45
 70
     1
102
RTVSPost2010Prop46
 90
       50
102
RTVSPost2010PropOp46
 70
     1
102
RTVSPost2010Prop47
 90
       50
102
RTVSPost2010PropOp47
 70
     1
102
RTVSPost2010Prop48
 90
       50
102
RTVSPost2010PropOp48
 70
     1
102
RTVSPost2010Prop49
280
     0
102
RTVSPost2010PropOp49
 70
     1
102
RTVSPost2010Prop50
 90
       50
102
RTVSPost2010PropOp50
 70
     1
102
RTVSPost2010Prop51ColorIndex
 90
      256
102
RTVSPost2010Prop51ColorRGB
 90
-16777216
102
RTVSPost2010PropOp51
 70
     0
102
RTVSPost2010Prop52
140
1.0
102
RTVSPost2010PropOp52
 70
     0
102
RTVSPost2010Prop53
 90
        2
102
RTVSPost2010PropOp53
 70
     1
102
RTVSPost2010Prop54
  1
strokes_ogs.tif
102
RTVSPost2010PropOp54
 70
     1
102
RTVSPost2010Prop55
280
     0
102
RTVSPost2010PropOp55
 70
     1
102
RTVSPost2010Prop56
140
1.0
102
RTVSPost2010PropOp56
 70
     1
102
RTVSPost2010Prop57
140
1.0
102
RTVSPost2010PropOp57
 70
     1
102
RTVSPropertyOp0
 70
     1
102
RTVSPropertyOp1
 70
     1
102
RTVSPropertyOp2
 70
     1
102
RTVSPropertyOp3
 70
     1
102
RTVSPropertyOp4
 70
     1
102
RTVSPropertyOp5
 70
     1
102
RTVSPropertyOp6
 70
     1
102
RTVSPropertyOp7
 70
     1
102
RTVSPropertyOp8
 70
     1
102
RTVSPropertyOp9
 70
     1
102
RTVSPropertyOp10
 70
     1
102
RTVSPropertyOp11
 70
     1
102
RTVSPropertyOp12
 70
     1
102
RTVSPropertyOp13
 70
     1
102
RTVSPropertyOp14
 70
     1
102
RTVSPropertyOp15
 70
     1
102
RTVSPropertyOp16
 70
     1
102
RTVSPropertyOp17
 70
     1
102
RTVSPropertyOp18
 70
     1
102
RTVSPropertyOp19
 70
     1
102
RTVSPropertyOp20
 70
     1
102
RTVSPropertyOp21
 70
     1
102
RTVSPropertyOp22
 70
     1
102
RTVSPropertyOp23
 70
     1
102
RTVSPropertyOp24
 70
     1
102
RTVSPropertyOp25
 70
     1
102
RTVSPropertyOp26
 70
     1
102
RTVSPropertyOp27
 70
     1
102
RTVSPropertyOp28
 70
     1
102
RTVSPropertyOp29
 70
     1
102
RTVSPropertyOp30
 70
     1
102
RTVSPropertyOp31
 70
     1
102
RTVSPropertyOp32
 70
     1
102
RTVSPropertyOp33
 70
     1
102
RTVSPropertyOp34
 70
     1
102
RTVSPropertyOp35
 70
     1
102
RTVSPropertyOp36
 70
     1
102
RTVSPropertyOp37
 70
     1
102
RTVSPropertyOp38
 70
     1
102
RTVSPropertyOp39
 70
     1
102
RTVSPropertyOp40
 70
     1
102
RTVSPropertyOp41
 70
     1
102
RTVSPropertyOp42
 70
     1
102
RTVSPropertyOp43
 70
     1
102
RTVSPropertyOp44
 70
     1
102
RTVSPropertyOp45
 70
     1
102
RTVSPropertyOp46
 70
     1
102
RTVSPropertyOp47
 70
     1
102
RTVSPropertyOp48
 70
     1
102
RTVSPropertyOp49
 70
     1
102
RTVSPropertyOp50
 70
     1
102
RTVSPropertyOp51
 70
     0
102
RTVSPropertyOp52
 70
     0
102
RTVSPropertyOp53
 70
     1
102
RTVSPropertyOp54
 70
     1
102
RTVSPropertyOp55
 70
     1
102
RTVSPropertyOp56
 70
     1
102
RTVSPropertyOp57
 70
     1
102
RTVSPropertyOp58
 70
     1
102
RTVSPropertyOp59
 70
     1
102
RTVSPropertyOp60
 70
     1
102
RTVSPropertyOp61
 70
     1
102
RTVSPropertyOp62
 70
     1
  0
XRECORD
  5
717
102
{ACAD_REACTORS
330
716
102
}
330
716
100
AcDbXrecord
280
     1
102
RTVSPost2010Prop28
280
     0
102
RTVSPost2010PropOp28
 70
     1
102
RTVSPost2010Prop29
280
     1
102
RTVSPost2010PropOp29
 70
     1
102
RTVSPost2010Prop30
280
     1
102
RTVSPost2010PropOp30
 70
     1
102
RTVSPost2010Prop31
280
     0
102
RTVSPost2010PropOp31
 70
     1
102
RTVSPost2010Prop32
280
     0
102
RTVSPost2010PropOp32
 70
     1
102
RTVSPost2010Prop33
280
     0
102
RTVSPost2010PropOp33
 70
     1
102
RTVSPost2010Prop34
280
     0
102
RTVSPost2010PropOp34
 70
     1
102
RTVSPost2010Prop35
280
     0
102
RTVSPost2010PropOp35
 70
     1
102
RTVSPost2010Prop36
280
     0
102
RTVSPost2010PropOp36
 70
     1
102
RTVSPost2010Prop37
 90
       50
102
RTVSPost2010PropOp37
 70
     0
102
RTVSPost2010Prop38
140
0.0
102
RTVSPost2010PropOp38
 70
     0
102
RTVSPost2010Prop39
140
1.0
102
RTVSPost2010PropOp39
 70
     0
102
RTVSPost2010Prop40
 90
        0
102
RTVSPost2010PropOp40
 70
     0
102
RTVSPost2010Prop41ColorIndex
 90
       18
102
RTVSPost2010Prop41ColorRGB
 90
        0
102
RTVSPost2010PropOp41
 70
     0
102
RTVSPost2010Prop42
 90
       50
102
RTVSPost2010PropOp42
 70
     0
102
RTVSPost2010Prop43
 90
        3
102
RTVSPost2010PropOp43
 70
     0
102
RTVSPost2010Prop44ColorIndex
 90
        5
102
RTVSPost2010Prop44ColorRGB
 90
      255
102
RTVSPost2010PropOp44
 70
     0
102
RTVSPost2010Prop45
280
     0
102
RTVSPost2010PropOp45
 70
     1
102
RTVSPost2010Prop46
 90
       50
102
RTVSPost2010PropOp46
 70
     0
102
RTVSPost2010Prop47
 90
       50
102
RTVSPost2010PropOp47
 70
     0
102
RTVSPost2010Prop48
 90
       50
102
RTVSPost2010PropOp48
 70
     0
102
RTVSPost2010Prop49
280
     0
102
RTVSPost2010PropOp49
 70
     1
102
RTVSPost2010Prop50
 90
       50
102
RTVSPost2010PropOp50
 70
     0
102
RTVSPost2010Prop51ColorIndex
 90
      256
102
RTVSPost2010Prop51ColorRGB
 90
-16777216
102
RTVSPost2010PropOp51
 70
     0
102
RTVSPost2010Prop52
140
1.0
102
RTVSPost2010PropOp52
 70
     0
102
RTVSPost2010Prop53
 90
        2
102
RTVSPost2010PropOp53
 70
     0
102
RTVSPost2010Prop54
  1
strokes_ogs.tif
102
RTVSPost2010PropOp54
 70
     0
102
RTVSPost2010Prop55
280
     0
102
RTVSPost2010PropOp55
 70
     1
102
RTVSPost2010Prop56
140
1.0
102
RTVSPost2010PropOp56
 70
     0
102
RTVSPost2010Prop57
140
1.0
102
RTVSPost2010PropOp57
 70
     0
102
RTVSPropertyOp0
 70
     0
102
RTVSPropertyOp1
 70
     0
102
RTVSPropertyOp2
 70
     0
102
RTVSPropertyOp3
 70
     0
102
RTVSPropertyOp4
 70
     0
102
RTVSPropertyOp5
 70
     0
102
RTVSPropertyOp6
 70
     0
102
RTVSPropertyOp7
 70
     0
102
RTVSPropertyOp8
 70
     0
102
RTVSPropertyOp9
 70
     0
102
RTVSPropertyOp10
 70
     0
102
RTVSPropertyOp11
 70
     0
102
RTVSPropertyOp12
 70
     0
102
RTVSPropertyOp13
 70
     0
102
RTVSPropertyOp14
 70
     2
102
RTVSPropertyOp15
 70
     0
102
RTVSPropertyOp16
 70
     0
102
RTVSPropertyOp17
 70
     0
102
RTVSPropertyOp18
 70
     0
102
RTVSPropertyOp19
 70
     0
102
RTVSPropertyOp20
 70
     0
102
RTVSPropertyOp21
 70
     0
102
RTVSPropertyOp22
 70
     0
102
RTVSPropertyOp23
 70
     0
102
RTVSPropertyOp24
 70
     0
102
RTVSPropertyOp25
 70
     0
102
RTVSPropertyOp26
 70
     0
102
RTVSPropertyOp27
 70
     0
102
RTVSPropertyOp28
 70
     1
102
RTVSPropertyOp29
 70
     1
102
RTVSPropertyOp30
 70
     1
102
RTVSPropertyOp31
 70
     1
102
RTVSPropertyOp32
 70
     1
102
RTVSPropertyOp33
 70
     1
102
RTVSPropertyOp34
 70
     1
102
RTVSPropertyOp35
 70
     1
102
RTVSPropertyOp36
 70
     1
102
RTVSPropertyOp37
 70
     0
102
RTVSPropertyOp38
 70
     0
102
RTVSPropertyOp39
 70
     0
102
RTVSPropertyOp40
 70
     0
102
RTVSPropertyOp41
 70
     0
102
RTVSPropertyOp42
 70
     0
102
RTVSPropertyOp43
 70
     0
102
RTVSPropertyOp44
 70
     0
102
RTVSPropertyOp45
 70
     1
102
RTVSPropertyOp46
 70
     0
102
RTVSPropertyOp47
 70
     0
102
RTVSPropertyOp48
 70
     0
102
RTVSPropertyOp49
 70
     1
102
RTVSPropertyOp50
 70
     0
102
RTVSPropertyOp51
 70
     0
102
RTVSPropertyOp52
 70
     0
102
RTVSPropertyOp53
 70
     0
102
RTVSPropertyOp54
 70
     0
102
RTVSPropertyOp55
 70
     1
102
RTVSPropertyOp56
 70
     0
102
RTVSPropertyOp57
 70
     0
102
RTVSPropertyOp58
 70
     0
102
RTVSPropertyOp59
 70
     0
102
RTVSPropertyOp60
 70
     0
102
RTVSPropertyOp61
 70
     0
102
RTVSPropertyOp62
 70
     0
  0
XRECORD
  5
6FD
102
{ACAD_REACTORS
330
6FC
102
}
330
6FC
100
AcDbXrecord
280
     1
102
RTVSPost2010Prop28
280
     0
102
RTVSPost2010PropOp28
 70
     1
102
RTVSPost2010Prop29
280
     1
102
RTVSPost2010PropOp29
 70
     1
102
RTVSPost2010Prop30
280
     1
102
RTVSPost2010PropOp30
 70
     1
102
RTVSPost2010Prop31
280
     0
102
RTVSPost2010PropOp31
 70
     1
102
RTVSPost2010Prop32
280
     0
102
RTVSPost2010PropOp32
 70
     1
102
RTVSPost2010Prop33
280
     0
102
RTVSPost2010PropOp33
 70
     1
102
RTVSPost2010Prop34
280
     0
102
RTVSPost2010PropOp34
 70
     1
102
RTVSPost2010Prop35
280
     0
102
RTVSPost2010PropOp35
 70
     1
102
RTVSPost2010Prop36
280
     0
102
RTVSPost2010PropOp36
 70
     1
102
RTVSPost2010Prop37
 90
       50
102
RTVSPost2010PropOp37
 70
     1
102
RTVSPost2010Prop38
140
0.0
102
RTVSPost2010PropOp38
 70
     1
102
RTVSPost2010Prop39
140
1.0
102
RTVSPost2010PropOp39
 70
     1
102
RTVSPost2010Prop40
 90
        0
102
RTVSPost2010PropOp40
 70
     1
102
RTVSPost2010Prop41ColorIndex
 90
       18
102
RTVSPost2010Prop41ColorRGB
 90
        0
102
RTVSPost2010PropOp41
 70
     1
102
RTVSPost2010Prop42
 90
       50
102
RTVSPost2010PropOp42
 70
     1
102
RTVSPost2010Prop43
 90
        3
102
RTVSPost2010PropOp43
 70
     1
102
RTVSPost2010Prop44ColorIndex
 90
        5
102
RTVSPost2010Prop44ColorRGB
 90
      255
102
RTVSPost2010PropOp44
 70
     1
102
RTVSPost2010Prop45
280
     0
102
RTVSPost2010PropOp45
 70
     1
102
RTVSPost2010Prop46
 90
       50
102
RTVSPost2010PropOp46
 70
     1
102
RTVSPost2010Prop47
 90
       50
102
RTVSPost2010PropOp47
 70
     1
102
RTVSPost2010Prop48
 90
       50
102
RTVSPost2010PropOp48
 70
     1
102
RTVSPost2010Prop49
280
     0
102
RTVSPost2010PropOp49
 70
     1
102
RTVSPost2010Prop50
 90
       50
102
RTVSPost2010PropOp50
 70
     1
102
RTVSPost2010Prop51ColorIndex
 90
      256
102
RTVSPost2010Prop51ColorRGB
 90
-16777216
102
RTVSPost2010PropOp51
 70
     0
102
RTVSPost2010Prop52
140
1.0
102
RTVSPost2010PropOp52
 70
     0
102
RTVSPost2010Prop53
 90
        2
102
RTVSPost2010PropOp53
 70
     1
102
RTVSPost2010Prop54
  1
strokes_ogs.tif
102
RTVSPost2010PropOp54
 70
     1
102
RTVSPost2010Prop55
280
     0
102
RTVSPost2010PropOp55
 70
     1
102
RTVSPost2010Prop56
140
1.0
102
RTVSPost2010PropOp56
 70
     1
102
RTVSPost2010Prop57
140
1.0
102
RTVSPost2010PropOp57
 70
     1
102
RTVSPropertyOp0
 70
     1
102
RTVSPropertyOp1
 70
     1
102
RTVSPropertyOp2
 70
     1
102
RTVSPropertyOp3
 70
     1
102
RTVSPropertyOp4
 70
     1
102
RTVSPropertyOp5
 70
     1
102
RTVSPropertyOp6
 70
     1
102
RTVSPropertyOp7
 70
     1
102
RTVSPropertyOp8
 70
     1
102
RTVSPropertyOp9
 70
     1
102
RTVSPropertyOp10
 70
     1
102
RTVSPropertyOp11
 70
     1
102
RTVSPropertyOp12
 70
     1
102
RTVSPropertyOp13
 70
     1
102
RTVSPropertyOp14
 70
     1
102
RTVSPropertyOp15
 70
     1
102
RTVSPropertyOp16
 70
     1
102
RTVSPropertyOp17
 70
     1
102
RTVSPropertyOp18
 70
     1
102
RTVSPropertyOp19
 70
     1
102
RTVSPropertyOp20
 70
     1
102
RTVSPropertyOp21
 70
     1
102
RTVSPropertyOp22
 70
     1
102
RTVSPropertyOp23
 70
     1
102
RTVSPropertyOp24
 70
     1
102
RTVSPropertyOp25
 70
     1
102
RTVSPropertyOp26
 70
     1
102
RTVSPropertyOp27
 70
     1
102
RTVSPropertyOp28
 70
     1
102
RTVSPropertyOp29
 70
     1
102
RTVSPropertyOp30
 70
     1
102
RTVSPropertyOp31
 70
     1
102
RTVSPropertyOp32
 70
     1
102
RTVSPropertyOp33
 70
     1
102
RTVSPropertyOp34
 70
     1
102
RTVSPropertyOp35
 70
     1
102
RTVSPropertyOp36
 70
     1
102
RTVSPropertyOp37
 70
     1
102
RTVSPropertyOp38
 70
     1
102
RTVSPropertyOp39
 70
     1
102
RTVSPropertyOp40
 70
     1
102
RTVSPropertyOp41
 70
     1
102
RTVSPropertyOp42
 70
     1
102
RTVSPropertyOp43
 70
     1
102
RTVSPropertyOp44
 70
     1
102
RTVSPropertyOp45
 70
     1
102
RTVSPropertyOp46
 70
     1
102
RTVSPropertyOp47
 70
     1
102
RTVSPropertyOp48
 70
     1
102
RTVSPropertyOp49
 70
     1
102
RTVSPropertyOp50
 70
     1
102
RTVSPropertyOp51
 70
     0
102
RTVSPropertyOp52
 70
     0
102
RTVSPropertyOp53
 70
     1
102
RTVSPropertyOp54
 70
     1
102
RTVSPropertyOp55
 70
     1
102
RTVSPropertyOp56
 70
     1
102
RTVSPropertyOp57
 70
     1
102
RTVSPropertyOp58
 70
     1
102
RTVSPropertyOp59
 70
     1
102
RTVSPropertyOp60
 70
     1
102
RTVSPropertyOp61
 70
     1
102
RTVSPropertyOp62
 70
     1
  0
XRECORD
  5
713
102
{ACAD_REACTORS
330
712
102
}
330
712
100
AcDbXrecord
280
     1
102
RTVSPost2010Prop28
280
     0
102
RTVSPost2010PropOp28
 70
     1
102
RTVSPost2010Prop29
280
     1
102
RTVSPost2010PropOp29
 70
     1
102
RTVSPost2010Prop30
280
     1
102
RTVSPost2010PropOp30
 70
     1
102
RTVSPost2010Prop31
280
     0
102
RTVSPost2010PropOp31
 70
     1
102
RTVSPost2010Prop32
280
     0
102
RTVSPost2010PropOp32
 70
     1
102
RTVSPost2010Prop33
280
     0
102
RTVSPost2010PropOp33
 70
     1
102
RTVSPost2010Prop34
280
     0
102
RTVSPost2010PropOp34
 70
     1
102
RTVSPost2010Prop35
280
     0
102
RTVSPost2010PropOp35
 70
     1
102
RTVSPost2010Prop36
280
     0
102
RTVSPost2010PropOp36
 70
     1
102
RTVSPost2010Prop37
 90
       50
102
RTVSPost2010PropOp37
 70
     1
102
RTVSPost2010Prop38
140
0.0
102
RTVSPost2010PropOp38
 70
     1
102
RTVSPost2010Prop39
140
1.0
102
RTVSPost2010PropOp39
 70
     1
102
RTVSPost2010Prop40
 90
        0
102
RTVSPost2010PropOp40
 70
     1
102
RTVSPost2010Prop41ColorIndex
 90
       18
102
RTVSPost2010Prop41ColorRGB
 90
        0
102
RTVSPost2010PropOp41
 70
     1
102
RTVSPost2010Prop42
 90
       50
102
RTVSPost2010PropOp42
 70
     1
102
RTVSPost2010Prop43
 90
        3
102
RTVSPost2010PropOp43
 70
     1
102
RTVSPost2010Prop44ColorIndex
 90
        5
102
RTVSPost2010Prop44ColorRGB
 90
      255
102
RTVSPost2010PropOp44
 70
     1
102
RTVSPost2010Prop45
280
     0
102
RTVSPost2010PropOp45
 70
     1
102
RTVSPost2010Prop46
 90
       50
102
RTVSPost2010PropOp46
 70
     1
102
RTVSPost2010Prop47
 90
       50
102
RTVSPost2010PropOp47
 70
     1
102
RTVSPost2010Prop48
 90
       50
102
RTVSPost2010PropOp48
 70
     1
102
RTVSPost2010Prop49
280
     0
102
RTVSPost2010PropOp49
 70
     1
102
RTVSPost2010Prop50
 90
       50
102
RTVSPost2010PropOp50
 70
     1
102
RTVSPost2010Prop51ColorIndex
 90
      256
102
RTVSPost2010Prop51ColorRGB
 90
-16777216
102
RTVSPost2010PropOp51
 70
     0
102
RTVSPost2010Prop52
140
1.0
102
RTVSPost2010PropOp52
 70
     0
102
RTVSPost2010Prop53
 90
        2
102
RTVSPost2010PropOp53
 70
     1
102
RTVSPost2010Prop54
  1
strokes_ogs.tif
102
RTVSPost2010PropOp54
 70
     1
102
RTVSPost2010Prop55
280
     0
102
RTVSPost2010PropOp55
 70
     1
102
RTVSPost2010Prop56
140
1.0
102
RTVSPost2010PropOp56
 70
     1
102
RTVSPost2010Prop57
140
1.0
102
RTVSPost2010PropOp57
 70
     1
102
RTVSPropertyOp0
 70
     1
102
RTVSPropertyOp1
 70
     1
102
RTVSPropertyOp2
 70
     1
102
RTVSPropertyOp3
 70
     1
102
RTVSPropertyOp4
 70
     1
102
RTVSPropertyOp5
 70
     1
102
RTVSPropertyOp6
 70
     1
102
RTVSPropertyOp7
 70
     1
102
RTVSPropertyOp8
 70
     1
102
RTVSPropertyOp9
 70
     1
102
RTVSPropertyOp10
 70
     1
102
RTVSPropertyOp11
 70
     1
102
RTVSPropertyOp12
 70
     1
102
RTVSPropertyOp13
 70
     1
102
RTVSPropertyOp14
 70
     1
102
RTVSPropertyOp15
 70
     1
102
RTVSPropertyOp16
 70
     1
102
RTVSPropertyOp17
 70
     1
102
RTVSPropertyOp18
 70
     1
102
RTVSPropertyOp19
 70
     1
102
RTVSPropertyOp20
 70
     1
102
RTVSPropertyOp21
 70
     1
102
RTVSPropertyOp22
 70
     1
102
RTVSPropertyOp23
 70
     1
102
RTVSPropertyOp24
 70
     1
102
RTVSPropertyOp25
 70
     1
102
RTVSPropertyOp26
 70
     1
102
RTVSPropertyOp27
 70
     1
102
RTVSPropertyOp28
 70
     1
102
RTVSPropertyOp29
 70
     1
102
RTVSPropertyOp30
 70
     1
102
RTVSPropertyOp31
 70
     1
102
RTVSPropertyOp32
 70
     1
102
RTVSPropertyOp33
 70
     1
102
RTVSPropertyOp34
 70
     1
102
RTVSPropertyOp35
 70
     1
102
RTVSPropertyOp36
 70
     1
102
RTVSPropertyOp37
 70
     1
102
RTVSPropertyOp38
 70
     1
102
RTVSPropertyOp39
 70
     1
102
RTVSPropertyOp40
 70
     1
102
RTVSPropertyOp41
 70
     1
102
RTVSPropertyOp42
 70
     1
102
RTVSPropertyOp43
 70
     1
102
RTVSPropertyOp44
 70
     1
102
RTVSPropertyOp45
 70
     1
102
RTVSPropertyOp46
 70
     1
102
RTVSPropertyOp47
 70
     1
102
RTVSPropertyOp48
 70
     1
102
RTVSPropertyOp49
 70
     1
102
RTVSPropertyOp50
 70
     1
102
RTVSPropertyOp51
 70
     0
102
RTVSPropertyOp52
 70
     0
102
RTVSPropertyOp53
 70
     1
102
RTVSPropertyOp54
 70
     1
102
RTVSPropertyOp55
 70
     1
102
RTVSPropertyOp56
 70
     1
102
RTVSPropertyOp57
 70
     1
102
RTVSPropertyOp58
 70
     1
102
RTVSPropertyOp59
 70
     1
102
RTVSPropertyOp60
 70
     1
102
RTVSPropertyOp61
 70
     1
102
RTVSPropertyOp62
 70
     1
  0
XRECORD
  5
711
102
{ACAD_REACTORS
330
710
102
}
330
710
100
AcDbXrecord
280
     1
102
RTVSPost2010Prop28
280
     0
102
RTVSPost2010PropOp28
 70
     1
102
RTVSPost2010Prop29
280
     1
102
RTVSPost2010PropOp29
 70
     1
102
RTVSPost2010Prop30
280
     1
102
RTVSPost2010PropOp30
 70
     1
102
RTVSPost2010Prop31
280
     0
102
RTVSPost2010PropOp31
 70
     1
102
RTVSPost2010Prop32
280
     0
102
RTVSPost2010PropOp32
 70
     1
102
RTVSPost2010Prop33
280
     0
102
RTVSPost2010PropOp33
 70
     1
102
RTVSPost2010Prop34
280
     0
102
RTVSPost2010PropOp34
 70
     1
102
RTVSPost2010Prop35
280
     0
102
RTVSPost2010PropOp35
 70
     1
102
RTVSPost2010Prop36
280
     0
102
RTVSPost2010PropOp36
 70
     1
102
RTVSPost2010Prop37
 90
       50
102
RTVSPost2010PropOp37
 70
     1
102
RTVSPost2010Prop38
140
0.0
102
RTVSPost2010PropOp38
 70
     1
102
RTVSPost2010Prop39
140
1.0
102
RTVSPost2010PropOp39
 70
     1
102
RTVSPost2010Prop40
 90
        0
102
RTVSPost2010PropOp40
 70
     1
102
RTVSPost2010Prop41ColorIndex
 90
       18
102
RTVSPost2010Prop41ColorRGB
 90
        0
102
RTVSPost2010PropOp41
 70
     1
102
RTVSPost2010Prop42
 90
       50
102
RTVSPost2010PropOp42
 70
     1
102
RTVSPost2010Prop43
 90
        3
102
RTVSPost2010PropOp43
 70
     1
102
RTVSPost2010Prop44ColorIndex
 90
        5
102
RTVSPost2010Prop44ColorRGB
 90
      255
102
RTVSPost2010PropOp44
 70
     1
102
RTVSPost2010Prop45
280
     0
102
RTVSPost2010PropOp45
 70
     1
102
RTVSPost2010Prop46
 90
       50
102
RTVSPost2010PropOp46
 70
     1
102
RTVSPost2010Prop47
 90
       50
102
RTVSPost2010PropOp47
 70
     1
102
RTVSPost2010Prop48
 90
       50
102
RTVSPost2010PropOp48
 70
     1
102
RTVSPost2010Prop49
280
     0
102
RTVSPost2010PropOp49
 70
     1
102
RTVSPost2010Prop50
 90
       50
102
RTVSPost2010PropOp50
 70
     1
102
RTVSPost2010Prop51ColorIndex
 90
      256
102
RTVSPost2010Prop51ColorRGB
 90
-16777216
102
RTVSPost2010PropOp51
 70
     0
102
RTVSPost2010Prop52
140
1.0
102
RTVSPost2010PropOp52
 70
     0
102
RTVSPost2010Prop53
 90
        2
102
RTVSPost2010PropOp53
 70
     1
102
RTVSPost2010Prop54
  1
strokes_ogs.tif
102
RTVSPost2010PropOp54
 70
     1
102
RTVSPost2010Prop55
280
     0
102
RTVSPost2010PropOp55
 70
     1
102
RTVSPost2010Prop56
140
1.0
102
RTVSPost2010PropOp56
 70
     1
102
RTVSPost2010Prop57
140
1.0
102
RTVSPost2010PropOp57
 70
     1
102
RTVSPropertyOp0
 70
     1
102
RTVSPropertyOp1
 70
     1
102
RTVSPropertyOp2
 70
     1
102
RTVSPropertyOp3
 70
     1
102
RTVSPropertyOp4
 70
     1
102
RTVSPropertyOp5
 70
     1
102
RTVSPropertyOp6
 70
     1
102
RTVSPropertyOp7
 70
     1
102
RTVSPropertyOp8
 70
     1
102
RTVSPropertyOp9
 70
     1
102
RTVSPropertyOp10
 70
     1
102
RTVSPropertyOp11
 70
     1
102
RTVSPropertyOp12
 70
     1
102
RTVSPropertyOp13
 70
     1
102
RTVSPropertyOp14
 70
     1
102
RTVSPropertyOp15
 70
     1
102
RTVSPropertyOp16
 70
     1
102
RTVSPropertyOp17
 70
     1
102
RTVSPropertyOp18
 70
     1
102
RTVSPropertyOp19
 70
     1
102
RTVSPropertyOp20
 70
     1
102
RTVSPropertyOp21
 70
     1
102
RTVSPropertyOp22
 70
     1
102
RTVSPropertyOp23
 70
     1
102
RTVSPropertyOp24
 70
     1
102
RTVSPropertyOp25
 70
     1
102
RTVSPropertyOp26
 70
     1
102
RTVSPropertyOp27
 70
     1
102
RTVSPropertyOp28
 70
     1
102
RTVSPropertyOp29
 70
     1
102
RTVSPropertyOp30
 70
     1
102
RTVSPropertyOp31
 70
     1
102
RTVSPropertyOp32
 70
     1
102
RTVSPropertyOp33
 70
     1
102
RTVSPropertyOp34
 70
     1
102
RTVSPropertyOp35
 70
     1
102
RTVSPropertyOp36
 70
     1
102
RTVSPropertyOp37
 70
     1
102
RTVSPropertyOp38
 70
     1
102
RTVSPropertyOp39
 70
     1
102
RTVSPropertyOp40
 70
     1
102
RTVSPropertyOp41
 70
     1
102
RTVSPropertyOp42
 70
     1
102
RTVSPropertyOp43
 70
     1
102
RTVSPropertyOp44
 70
     1
102
RTVSPropertyOp45
 70
     1
102
RTVSPropertyOp46
 70
     1
102
RTVSPropertyOp47
 70
     1
102
RTVSPropertyOp48
 70
     1
102
RTVSPropertyOp49
 70
     1
102
RTVSPropertyOp50
 70
     1
102
RTVSPropertyOp51
 70
     0
102
RTVSPropertyOp52
 70
     0
102
RTVSPropertyOp53
 70
     1
102
RTVSPropertyOp54
 70
     1
102
RTVSPropertyOp55
 70
     1
102
RTVSPropertyOp56
 70
     1
102
RTVSPropertyOp57
 70
     1
102
RTVSPropertyOp58
 70
     1
102
RTVSPropertyOp59
 70
     1
102
RTVSPropertyOp60
 70
     1
102
RTVSPropertyOp61
 70
     1
102
RTVSPropertyOp62
 70
     1
  0
XRECORD
  5
70B
102
{ACAD_REACTORS
330
70A
102
}
330
70A
100
AcDbXrecord
280
     1
102
RTVSPost2010Prop28
280
     0
102
RTVSPost2010PropOp28
 70
     1
102
RTVSPost2010Prop29
280
     1
102
RTVSPost2010PropOp29
 70
     1
102
RTVSPost2010Prop30
280
     1
102
RTVSPost2010PropOp30
 70
     1
102
RTVSPost2010Prop31
280
     0
102
RTVSPost2010PropOp31
 70
     1
102
RTVSPost2010Prop32
280
     0
102
RTVSPost2010PropOp32
 70
     1
102
RTVSPost2010Prop33
280
     0
102
RTVSPost2010PropOp33
 70
     1
102
RTVSPost2010Prop34
280
     0
102
RTVSPost2010PropOp34
 70
     1
102
RTVSPost2010Prop35
280
     0
102
RTVSPost2010PropOp35
 70
     1
102
RTVSPost2010Prop36
280
     0
102
RTVSPost2010PropOp36
 70
     1
102
RTVSPost2010Prop37
 90
       50
102
RTVSPost2010PropOp37
 70
     1
102
RTVSPost2010Prop38
140
0.0
102
RTVSPost2010PropOp38
 70
     1
102
RTVSPost2010Prop39
140
1.0
102
RTVSPost2010PropOp39
 70
     1
102
RTVSPost2010Prop40
 90
        0
102
RTVSPost2010PropOp40
 70
     1
102
RTVSPost2010Prop41ColorIndex
 90
       18
102
RTVSPost2010Prop41ColorRGB
 90
        0
102
RTVSPost2010PropOp41
 70
     1
102
RTVSPost2010Prop42
 90
       50
102
RTVSPost2010PropOp42
 70
     1
102
RTVSPost2010Prop43
 90
        3
102
RTVSPost2010PropOp43
 70
     1
102
RTVSPost2010Prop44ColorIndex
 90
        5
102
RTVSPost2010Prop44ColorRGB
 90
      255
102
RTVSPost2010PropOp44
 70
     1
102
RTVSPost2010Prop45
280
     0
102
RTVSPost2010PropOp45
 70
     1
102
RTVSPost2010Prop46
 90
       50
102
RTVSPost2010PropOp46
 70
     1
102
RTVSPost2010Prop47
 90
       50
102
RTVSPost2010PropOp47
 70
     1
102
RTVSPost2010Prop48
 90
       50
102
RTVSPost2010PropOp48
 70
     1
102
RTVSPost2010Prop49
280
     0
102
RTVSPost2010PropOp49
 70
     1
102
RTVSPost2010Prop50
 90
       50
102
RTVSPost2010PropOp50
 70
     1
102
RTVSPost2010Prop51ColorIndex
 90
      256
102
RTVSPost2010Prop51ColorRGB
 90
-16777216
102
RTVSPost2010PropOp51
 70
     0
102
RTVSPost2010Prop52
140
1.0
102
RTVSPost2010PropOp52
 70
     0
102
RTVSPost2010Prop53
 90
        2
102
RTVSPost2010PropOp53
 70
     1
102
RTVSPost2010Prop54
  1
strokes_ogs.tif
102
RTVSPost2010PropOp54
 70
     1
102
RTVSPost2010Prop55
280
     0
102
RTVSPost2010PropOp55
 70
     1
102
RTVSPost2010Prop56
140
1.0
102
RTVSPost2010PropOp56
 70
     1
102
RTVSPost2010Prop57
140
1.0
102
RTVSPost2010PropOp57
 70
     1
102
RTVSPropertyOp0
 70
     1
102
RTVSPropertyOp1
 70
     1
102
RTVSPropertyOp2
 70
     1
102
RTVSPropertyOp3
 70
     1
102
RTVSPropertyOp4
 70
     1
102
RTVSPropertyOp5
 70
     1
102
RTVSPropertyOp6
 70
     1
102
RTVSPropertyOp7
 70
     1
102
RTVSPropertyOp8
 70
     1
102
RTVSPropertyOp9
 70
     1
102
RTVSPropertyOp10
 70
     1
102
RTVSPropertyOp11
 70
     1
102
RTVSPropertyOp12
 70
     1
102
RTVSPropertyOp13
 70
     1
102
RTVSPropertyOp14
 70
     1
102
RTVSPropertyOp15
 70
     1
102
RTVSPropertyOp16
 70
     1
102
RTVSPropertyOp17
 70
     1
102
RTVSPropertyOp18
 70
     1
102
RTVSPropertyOp19
 70
     1
102
RTVSPropertyOp20
 70
     1
102
RTVSPropertyOp21
 70
     1
102
RTVSPropertyOp22
 70
     1
102
RTVSPropertyOp23
 70
     1
102
RTVSPropertyOp24
 70
     1
102
RTVSPropertyOp25
 70
     1
102
RTVSPropertyOp26
 70
     1
102
RTVSPropertyOp27
 70
     1
102
RTVSPropertyOp28
 70
     1
102
RTVSPropertyOp29
 70
     1
102
RTVSPropertyOp30
 70
     1
102
RTVSPropertyOp31
 70
     1
102
RTVSPropertyOp32
 70
     1
102
RTVSPropertyOp33
 70
     1
102
RTVSPropertyOp34
 70
     1
102
RTVSPropertyOp35
 70
     1
102
RTVSPropertyOp36
 70
     1
102
RTVSPropertyOp37
 70
     1
102
RTVSPropertyOp38
 70
     1
102
RTVSPropertyOp39
 70
     1
102
RTVSPropertyOp40
 70
     1
102
RTVSPropertyOp41
 70
     1
102
RTVSPropertyOp42
 70
     1
102
RTVSPropertyOp43
 70
     1
102
RTVSPropertyOp44
 70
     1
102
RTVSPropertyOp45
 70
     1
102
RTVSPropertyOp46
 70
     1
102
RTVSPropertyOp47
 70
     1
102
RTVSPropertyOp48
 70
     1
102
RTVSPropertyOp49
 70
     1
102
RTVSPropertyOp50
 70
     1
102
RTVSPropertyOp51
 70
     0
102
RTVSPropertyOp52
 70
     0
102
RTVSPropertyOp53
 70
     1
102
RTVSPropertyOp54
 70
     1
102
RTVSPropertyOp55
 70
     1
102
RTVSPropertyOp56
 70
     1
102
RTVSPropertyOp57
 70
     1
102
RTVSPropertyOp58
 70
     1
102
RTVSPropertyOp59
 70
     1
102
RTVSPropertyOp60
 70
     1
102
RTVSPropertyOp61
 70
     1
102
RTVSPropertyOp62
 70
     1
  0
XRECORD
  5
70D
102
{ACAD_REACTORS
330
70C
102
}
330
70C
100
AcDbXrecord
280
     1
102
RTVSPost2010Prop28
280
     0
102
RTVSPost2010PropOp28
 70
     1
102
RTVSPost2010Prop29
280
     1
102
RTVSPost2010PropOp29
 70
     1
102
RTVSPost2010Prop30
280
     1
102
RTVSPost2010PropOp30
 70
     1
102
RTVSPost2010Prop31
280
     0
102
RTVSPost2010PropOp31
 70
     1
102
RTVSPost2010Prop32
280
     0
102
RTVSPost2010PropOp32
 70
     1
102
RTVSPost2010Prop33
280
     0
102
RTVSPost2010PropOp33
 70
     1
102
RTVSPost2010Prop34
280
     0
102
RTVSPost2010PropOp34
 70
     1
102
RTVSPost2010Prop35
280
     0
102
RTVSPost2010PropOp35
 70
     1
102
RTVSPost2010Prop36
280
     0
102
RTVSPost2010PropOp36
 70
     1
102
RTVSPost2010Prop37
 90
       50
102
RTVSPost2010PropOp37
 70
     1
102
RTVSPost2010Prop38
140
0.0
102
RTVSPost2010PropOp38
 70
     1
102
RTVSPost2010Prop39
140
1.0
102
RTVSPost2010PropOp39
 70
     1
102
RTVSPost2010Prop40
 90
        0
102
RTVSPost2010PropOp40
 70
     1
102
RTVSPost2010Prop41ColorIndex
 90
       18
102
RTVSPost2010Prop41ColorRGB
 90
        0
102
RTVSPost2010PropOp41
 70
     1
102
RTVSPost2010Prop42
 90
       50
102
RTVSPost2010PropOp42
 70
     1
102
RTVSPost2010Prop43
 90
        3
102
RTVSPost2010PropOp43
 70
     1
102
RTVSPost2010Prop44ColorIndex
 90
        5
102
RTVSPost2010Prop44ColorRGB
 90
      255
102
RTVSPost2010PropOp44
 70
     1
102
RTVSPost2010Prop45
280
     0
102
RTVSPost2010PropOp45
 70
     1
102
RTVSPost2010Prop46
 90
       50
102
RTVSPost2010PropOp46
 70
     1
102
RTVSPost2010Prop47
 90
       50
102
RTVSPost2010PropOp47
 70
     1
102
RTVSPost2010Prop48
 90
       50
102
RTVSPost2010PropOp48
 70
     1
102
RTVSPost2010Prop49
280
     0
102
RTVSPost2010PropOp49
 70
     1
102
RTVSPost2010Prop50
 90
       50
102
RTVSPost2010PropOp50
 70
     1
102
RTVSPost2010Prop51ColorIndex
 90
      256
102
RTVSPost2010Prop51ColorRGB
 90
-16777216
102
RTVSPost2010PropOp51
 70
     0
102
RTVSPost2010Prop52
140
1.0
102
RTVSPost2010PropOp52
 70
     0
102
RTVSPost2010Prop53
 90
        2
102
RTVSPost2010PropOp53
 70
     1
102
RTVSPost2010Prop54
  1
strokes_ogs.tif
102
RTVSPost2010PropOp54
 70
     1
102
RTVSPost2010Prop55
280
     0
102
RTVSPost2010PropOp55
 70
     1
102
RTVSPost2010Prop56
140
1.0
102
RTVSPost2010PropOp56
 70
     1
102
RTVSPost2010Prop57
140
1.0
102
RTVSPost2010PropOp57
 70
     1
102
RTVSPropertyOp0
 70
     1
102
RTVSPropertyOp1
 70
     1
102
RTVSPropertyOp2
 70
     1
102
RTVSPropertyOp3
 70
     1
102
RTVSPropertyOp4
 70
     1
102
RTVSPropertyOp5
 70
     1
102
RTVSPropertyOp6
 70
     1
102
RTVSPropertyOp7
 70
     1
102
RTVSPropertyOp8
 70
     1
102
RTVSPropertyOp9
 70
     1
102
RTVSPropertyOp10
 70
     1
102
RTVSPropertyOp11
 70
     1
102
RTVSPropertyOp12
 70
     1
102
RTVSPropertyOp13
 70
     1
102
RTVSPropertyOp14
 70
     1
102
RTVSPropertyOp15
 70
     1
102
RTVSPropertyOp16
 70
     1
102
RTVSPropertyOp17
 70
     1
102
RTVSPropertyOp18
 70
     1
102
RTVSPropertyOp19
 70
     1
102
RTVSPropertyOp20
 70
     1
102
RTVSPropertyOp21
 70
     1
102
RTVSPropertyOp22
 70
     1
102
RTVSPropertyOp23
 70
     1
102
RTVSPropertyOp24
 70
     1
102
RTVSPropertyOp25
 70
     1
102
RTVSPropertyOp26
 70
     1
102
RTVSPropertyOp27
 70
     1
102
RTVSPropertyOp28
 70
     1
102
RTVSPropertyOp29
 70
     1
102
RTVSPropertyOp30
 70
     1
102
RTVSPropertyOp31
 70
     1
102
RTVSPropertyOp32
 70
     1
102
RTVSPropertyOp33
 70
     1
102
RTVSPropertyOp34
 70
     1
102
RTVSPropertyOp35
 70
     1
102
RTVSPropertyOp36
 70
     1
102
RTVSPropertyOp37
 70
     1
102
RTVSPropertyOp38
 70
     1
102
RTVSPropertyOp39
 70
     1
102
RTVSPropertyOp40
 70
     1
102
RTVSPropertyOp41
 70
     1
102
RTVSPropertyOp42
 70
     1
102
RTVSPropertyOp43
 70
     1
102
RTVSPropertyOp44
 70
     1
102
RTVSPropertyOp45
 70
     1
102
RTVSPropertyOp46
 70
     1
102
RTVSPropertyOp47
 70
     1
102
RTVSPropertyOp48
 70
     1
102
RTVSPropertyOp49
 70
     1
102
RTVSPropertyOp50
 70
     1
102
RTVSPropertyOp51
 70
     0
102
RTVSPropertyOp52
 70
     0
102
RTVSPropertyOp53
 70
     1
102
RTVSPropertyOp54
 70
     1
102
RTVSPropertyOp55
 70
     1
102
RTVSPropertyOp56
 70
     1
102
RTVSPropertyOp57
 70
     1
102
RTVSPropertyOp58
 70
     1
102
RTVSPropertyOp59
 70
     1
102
RTVSPropertyOp60
 70
     1
102
RTVSPropertyOp61
 70
     1
102
RTVSPropertyOp62
 70
     1
  0
XRECORD
  5
703
102
{ACAD_REACTORS
330
702
102
}
330
702
100
AcDbXrecord
280
     1
102
RTVSPost2010Prop28
280
     0
102
RTVSPost2010PropOp28
 70
     1
102
RTVSPost2010Prop29
280
     1
102
RTVSPost2010PropOp29
 70
     1
102
RTVSPost2010Prop30
280
     1
102
RTVSPost2010PropOp30
 70
     1
102
RTVSPost2010Prop31
280
     0
102
RTVSPost2010PropOp31
 70
     1
102
RTVSPost2010Prop32
280
     0
102
RTVSPost2010PropOp32
 70
     1
102
RTVSPost2010Prop33
280
     0
102
RTVSPost2010PropOp33
 70
     1
102
RTVSPost2010Prop34
280
     0
102
RTVSPost2010PropOp34
 70
     1
102
RTVSPost2010Prop35
280
     0
102
RTVSPost2010PropOp35
 70
     1
102
RTVSPost2010Prop36
280
     0
102
RTVSPost2010PropOp36
 70
     1
102
RTVSPost2010Prop37
 90
       50
102
RTVSPost2010PropOp37
 70
     1
102
RTVSPost2010Prop38
140
0.0
102
RTVSPost2010PropOp38
 70
     1
102
RTVSPost2010Prop39
140
1.0
102
RTVSPost2010PropOp39
 70
     1
102
RTVSPost2010Prop40
 90
        0
102
RTVSPost2010PropOp40
 70
     1
102
RTVSPost2010Prop41ColorIndex
 90
       18
102
RTVSPost2010Prop41ColorRGB
 90
        0
102
RTVSPost2010PropOp41
 70
     1
102
RTVSPost2010Prop42
 90
       50
102
RTVSPost2010PropOp42
 70
     1
102
RTVSPost2010Prop43
 90
        3
102
RTVSPost2010PropOp43
 70
     1
102
RTVSPost2010Prop44ColorIndex
 90
        5
102
RTVSPost2010Prop44ColorRGB
 90
      255
102
RTVSPost2010PropOp44
 70
     1
102
RTVSPost2010Prop45
280
     0
102
RTVSPost2010PropOp45
 70
     1
102
RTVSPost2010Prop46
 90
       50
102
RTVSPost2010PropOp46
 70
     1
102
RTVSPost2010Prop47
 90
       50
102
RTVSPost2010PropOp47
 70
     1
102
RTVSPost2010Prop48
 90
       50
102
RTVSPost2010PropOp48
 70
     1
102
RTVSPost2010Prop49
280
     0
102
RTVSPost2010PropOp49
 70
     1
102
RTVSPost2010Prop50
 90
       50
102
RTVSPost2010PropOp50
 70
     1
102
RTVSPost2010Prop51ColorIndex
 90
      256
102
RTVSPost2010Prop51ColorRGB
 90
-16777216
102
RTVSPost2010PropOp51
 70
     0
102
RTVSPost2010Prop52
140
1.0
102
RTVSPost2010PropOp52
 70
     0
102
RTVSPost2010Prop53
 90
        2
102
RTVSPost2010PropOp53
 70
     1
102
RTVSPost2010Prop54
  1
strokes_ogs.tif
102
RTVSPost2010PropOp54
 70
     1
102
RTVSPost2010Prop55
280
     0
102
RTVSPost2010PropOp55
 70
     1
102
RTVSPost2010Prop56
140
1.0
102
RTVSPost2010PropOp56
 70
     1
102
RTVSPost2010Prop57
140
1.0
102
RTVSPost2010PropOp57
 70
     1
102
RTVSPropertyOp0
 70
     1
102
RTVSPropertyOp1
 70
     1
102
RTVSPropertyOp2
 70
     1
102
RTVSPropertyOp3
 70
     1
102
RTVSPropertyOp4
 70
     1
102
RTVSPropertyOp5
 70
     1
102
RTVSPropertyOp6
 70
     1
102
RTVSPropertyOp7
 70
     1
102
RTVSPropertyOp8
 70
     1
102
RTVSPropertyOp9
 70
     1
102
RTVSPropertyOp10
 70
     1
102
RTVSPropertyOp11
 70
     1
102
RTVSPropertyOp12
 70
     1
102
RTVSPropertyOp13
 70
     1
102
RTVSPropertyOp14
 70
     1
102
RTVSPropertyOp15
 70
     1
102
RTVSPropertyOp16
 70
     1
102
RTVSPropertyOp17
 70
     1
102
RTVSPropertyOp18
 70
     1
102
RTVSPropertyOp19
 70
     1
102
RTVSPropertyOp20
 70
     1
102
RTVSPropertyOp21
 70
     1
102
RTVSPropertyOp22
 70
     1
102
RTVSPropertyOp23
 70
     1
102
RTVSPropertyOp24
 70
     1
102
RTVSPropertyOp25
 70
     1
102
RTVSPropertyOp26
 70
     1
102
RTVSPropertyOp27
 70
     1
102
RTVSPropertyOp28
 70
     1
102
RTVSPropertyOp29
 70
     1
102
RTVSPropertyOp30
 70
     1
102
RTVSPropertyOp31
 70
     1
102
RTVSPropertyOp32
 70
     1
102
RTVSPropertyOp33
 70
     1
102
RTVSPropertyOp34
 70
     1
102
RTVSPropertyOp35
 70
     1
102
RTVSPropertyOp36
 70
     1
102
RTVSPropertyOp37
 70
     1
102
RTVSPropertyOp38
 70
     1
102
RTVSPropertyOp39
 70
     1
102
RTVSPropertyOp40
 70
     1
102
RTVSPropertyOp41
 70
     1
102
RTVSPropertyOp42
 70
     1
102
RTVSPropertyOp43
 70
     1
102
RTVSPropertyOp44
 70
     1
102
RTVSPropertyOp45
 70
     1
102
RTVSPropertyOp46
 70
     1
102
RTVSPropertyOp47
 70
     1
102
RTVSPropertyOp48
 70
     1
102
RTVSPropertyOp49
 70
     1
102
RTVSPropertyOp50
 70
     1
102
RTVSPropertyOp51
 70
     0
102
RTVSPropertyOp52
 70
     0
102
RTVSPropertyOp53
 70
     1
102
RTVSPropertyOp54
 70
     1
102
RTVSPropertyOp55
 70
     1
102
RTVSPropertyOp56
 70
     1
102
RTVSPropertyOp57
 70
     1
102
RTVSPropertyOp58
 70
     1
102
RTVSPropertyOp59
 70
     1
102
RTVSPropertyOp60
 70
     1
102
RTVSPropertyOp61
 70
     1
102
RTVSPropertyOp62
 70
     1
  0
XRECORD
  5
6F7
102
{ACAD_REACTORS
330
6F6
102
}
330
6F6
100
AcDbXrecord
280
     1
102
RTVSPost2010Prop28
280
     0
102
RTVSPost2010PropOp28
 70
     1
102
RTVSPost2010Prop29
280
     1
102
RTVSPost2010PropOp29
 70
     1
102
RTVSPost2010Prop30
280
     1
102
RTVSPost2010PropOp30
 70
     1
102
RTVSPost2010Prop31
280
     0
102
RTVSPost2010PropOp31
 70
     1
102
RTVSPost2010Prop32
280
     0
102
RTVSPost2010PropOp32
 70
     1
102
RTVSPost2010Prop33
280
     0
102
RTVSPost2010PropOp33
 70
     1
102
RTVSPost2010Prop34
280
     0
102
RTVSPost2010PropOp34
 70
     1
102
RTVSPost2010Prop35
280
     0
102
RTVSPost2010PropOp35
 70
     1
102
RTVSPost2010Prop36
280
     0
102
RTVSPost2010PropOp36
 70
     1
102
RTVSPost2010Prop37
 90
       50
102
RTVSPost2010PropOp37
 70
     1
102
RTVSPost2010Prop38
140
0.0
102
RTVSPost2010PropOp38
 70
     1
102
RTVSPost2010Prop39
140
1.0
102
RTVSPost2010PropOp39
 70
     1
102
RTVSPost2010Prop40
 90
        0
102
RTVSPost2010PropOp40
 70
     1
102
RTVSPost2010Prop41ColorIndex
 90
       18
102
RTVSPost2010Prop41ColorRGB
 90
        0
102
RTVSPost2010PropOp41
 70
     1
102
RTVSPost2010Prop42
 90
       50
102
RTVSPost2010PropOp42
 70
     1
102
RTVSPost2010Prop43
 90
        3
102
RTVSPost2010PropOp43
 70
     1
102
RTVSPost2010Prop44ColorIndex
 90
        5
102
RTVSPost2010Prop44ColorRGB
 90
      255
102
RTVSPost2010PropOp44
 70
     1
102
RTVSPost2010Prop45
280
     0
102
RTVSPost2010PropOp45
 70
     1
102
RTVSPost2010Prop46
 90
       50
102
RTVSPost2010PropOp46
 70
     1
102
RTVSPost2010Prop47
 90
       50
102
RTVSPost2010PropOp47
 70
     1
102
RTVSPost2010Prop48
 90
       50
102
RTVSPost2010PropOp48
 70
     1
102
RTVSPost2010Prop49
280
     0
102
RTVSPost2010PropOp49
 70
     1
102
RTVSPost2010Prop50
 90
       50
102
RTVSPost2010PropOp50
 70
     1
102
RTVSPost2010Prop51ColorIndex
 90
      256
102
RTVSPost2010Prop51ColorRGB
 90
-16777216
102
RTVSPost2010PropOp51
 70
     0
102
RTVSPost2010Prop52
140
1.0
102
RTVSPost2010PropOp52
 70
     0
102
RTVSPost2010Prop53
 90
        2
102
RTVSPost2010PropOp53
 70
     1
102
RTVSPost2010Prop54
  1
strokes_ogs.tif
102
RTVSPost2010PropOp54
 70
     1
102
RTVSPost2010Prop55
280
     0
102
RTVSPost2010PropOp55
 70
     1
102
RTVSPost2010Prop56
140
1.0
102
RTVSPost2010PropOp56
 70
     1
102
RTVSPost2010Prop57
140
1.0
102
RTVSPost2010PropOp57
 70
     1
102
RTVSPropertyOp0
 70
     1
102
RTVSPropertyOp1
 70
     1
102
RTVSPropertyOp2
 70
     1
102
RTVSPropertyOp3
 70
     1
102
RTVSPropertyOp4
 70
     1
102
RTVSPropertyOp5
 70
     1
102
RTVSPropertyOp6
 70
     1
102
RTVSPropertyOp7
 70
     1
102
RTVSPropertyOp8
 70
     1
102
RTVSPropertyOp9
 70
     1
102
RTVSPropertyOp10
 70
     1
102
RTVSPropertyOp11
 70
     1
102
RTVSPropertyOp12
 70
     1
102
RTVSPropertyOp13
 70
     1
102
RTVSPropertyOp14
 70
     1
102
RTVSPropertyOp15
 70
     1
102
RTVSPropertyOp16
 70
     1
102
RTVSPropertyOp17
 70
     1
102
RTVSPropertyOp18
 70
     1
102
RTVSPropertyOp19
 70
     1
102
RTVSPropertyOp20
 70
     1
102
RTVSPropertyOp21
 70
     1
102
RTVSPropertyOp22
 70
     1
102
RTVSPropertyOp23
 70
     1
102
RTVSPropertyOp24
 70
     1
102
RTVSPropertyOp25
 70
     1
102
RTVSPropertyOp26
 70
     1
102
RTVSPropertyOp27
 70
     1
102
RTVSPropertyOp28
 70
     1
102
RTVSPropertyOp29
 70
     1
102
RTVSPropertyOp30
 70
     1
102
RTVSPropertyOp31
 70
     1
102
RTVSPropertyOp32
 70
     1
102
RTVSPropertyOp33
 70
     1
102
RTVSPropertyOp34
 70
     1
102
RTVSPropertyOp35
 70
     1
102
RTVSPropertyOp36
 70
     1
102
RTVSPropertyOp37
 70
     1
102
RTVSPropertyOp38
 70
     1
102
RTVSPropertyOp39
 70
     1
102
RTVSPropertyOp40
 70
     1
102
RTVSPropertyOp41
 70
     1
102
RTVSPropertyOp42
 70
     1
102
RTVSPropertyOp43
 70
     1
102
RTVSPropertyOp44
 70
     1
102
RTVSPropertyOp45
 70
     1
102
RTVSPropertyOp46
 70
     1
102
RTVSPropertyOp47
 70
     1
102
RTVSPropertyOp48
 70
     1
102
RTVSPropertyOp49
 70
     1
102
RTVSPropertyOp50
 70
     1
102
RTVSPropertyOp51
 70
     0
102
RTVSPropertyOp52
 70
     0
102
RTVSPropertyOp53
 70
     1
102
RTVSPropertyOp54
 70
     1
102
RTVSPropertyOp55
 70
     1
102
RTVSPropertyOp56
 70
     1
102
RTVSPropertyOp57
 70
     1
102
RTVSPropertyOp58
 70
     1
102
RTVSPropertyOp59
 70
     1
102
RTVSPropertyOp60
 70
     1
102
RTVSPropertyOp61
 70
     1
102
RTVSPropertyOp62
 70
     1
  0
XRECORD
  5
70F
102
{ACAD_REACTORS
330
70E
102
}
330
70E
100
AcDbXrecord
280
     1
102
RTVSPost2010Prop28
280
     0
102
RTVSPost2010PropOp28
 70
     1
102
RTVSPost2010Prop29
280
     1
102
RTVSPost2010PropOp29
 70
     1
102
RTVSPost2010Prop30
280
     1
102
RTVSPost2010PropOp30
 70
     1
102
RTVSPost2010Prop31
280
     0
102
RTVSPost2010PropOp31
 70
     1
102
RTVSPost2010Prop32
280
     0
102
RTVSPost2010PropOp32
 70
     1
102
RTVSPost2010Prop33
280
     0
102
RTVSPost2010PropOp33
 70
     1
102
RTVSPost2010Prop34
280
     0
102
RTVSPost2010PropOp34
 70
     1
102
RTVSPost2010Prop35
280
     0
102
RTVSPost2010PropOp35
 70
     1
102
RTVSPost2010Prop36
280
     0
102
RTVSPost2010PropOp36
 70
     1
102
RTVSPost2010Prop37
 90
       50
102
RTVSPost2010PropOp37
 70
     1
102
RTVSPost2010Prop38
140
0.0
102
RTVSPost2010PropOp38
 70
     1
102
RTVSPost2010Prop39
140
1.0
102
RTVSPost2010PropOp39
 70
     1
102
RTVSPost2010Prop40
 90
        0
102
RTVSPost2010PropOp40
 70
     1
102
RTVSPost2010Prop41ColorIndex
 90
       18
102
RTVSPost2010Prop41ColorRGB
 90
        0
102
RTVSPost2010PropOp41
 70
     1
102
RTVSPost2010Prop42
 90
       50
102
RTVSPost2010PropOp42
 70
     1
102
RTVSPost2010Prop43
 90
        3
102
RTVSPost2010PropOp43
 70
     1
102
RTVSPost2010Prop44ColorIndex
 90
        5
102
RTVSPost2010Prop44ColorRGB
 90
      255
102
RTVSPost2010PropOp44
 70
     1
102
RTVSPost2010Prop45
280
     0
102
RTVSPost2010PropOp45
 70
     1
102
RTVSPost2010Prop46
 90
       50
102
RTVSPost2010PropOp46
 70
     1
102
RTVSPost2010Prop47
 90
       50
102
RTVSPost2010PropOp47
 70
     1
102
RTVSPost2010Prop48
 90
       50
102
RTVSPost2010PropOp48
 70
     1
102
RTVSPost2010Prop49
280
     0
102
RTVSPost2010PropOp49
 70
     1
102
RTVSPost2010Prop50
 90
       50
102
RTVSPost2010PropOp50
 70
     1
102
RTVSPost2010Prop51ColorIndex
 90
      256
102
RTVSPost2010Prop51ColorRGB
 90
-16777216
102
RTVSPost2010PropOp51
 70
     0
102
RTVSPost2010Prop52
140
1.0
102
RTVSPost2010PropOp52
 70
     0
102
RTVSPost2010Prop53
 90
        2
102
RTVSPost2010PropOp53
 70
     1
102
RTVSPost2010Prop54
  1
strokes_ogs.tif
102
RTVSPost2010PropOp54
 70
     1
102
RTVSPost2010Prop55
280
     0
102
RTVSPost2010PropOp55
 70
     1
102
RTVSPost2010Prop56
140
1.0
102
RTVSPost2010PropOp56
 70
     1
102
RTVSPost2010Prop57
140
1.0
102
RTVSPost2010PropOp57
 70
     1
102
RTVSPropertyOp0
 70
     1
102
RTVSPropertyOp1
 70
     1
102
RTVSPropertyOp2
 70
     1
102
RTVSPropertyOp3
 70
     1
102
RTVSPropertyOp4
 70
     1
102
RTVSPropertyOp5
 70
     1
102
RTVSPropertyOp6
 70
     1
102
RTVSPropertyOp7
 70
     1
102
RTVSPropertyOp8
 70
     1
102
RTVSPropertyOp9
 70
     1
102
RTVSPropertyOp10
 70
     1
102
RTVSPropertyOp11
 70
     1
102
RTVSPropertyOp12
 70
     1
102
RTVSPropertyOp13
 70
     1
102
RTVSPropertyOp14
 70
     1
102
RTVSPropertyOp15
 70
     1
102
RTVSPropertyOp16
 70
     1
102
RTVSPropertyOp17
 70
     1
102
RTVSPropertyOp18
 70
     1
102
RTVSPropertyOp19
 70
     1
102
RTVSPropertyOp20
 70
     1
102
RTVSPropertyOp21
 70
     1
102
RTVSPropertyOp22
 70
     1
102
RTVSPropertyOp23
 70
     1
102
RTVSPropertyOp24
 70
     1
102
RTVSPropertyOp25
 70
     1
102
RTVSPropertyOp26
 70
     1
102
RTVSPropertyOp27
 70
     1
102
RTVSPropertyOp28
 70
     1
102
RTVSPropertyOp29
 70
     1
102
RTVSPropertyOp30
 70
     1
102
RTVSPropertyOp31
 70
     1
102
RTVSPropertyOp32
 70
     1
102
RTVSPropertyOp33
 70
     1
102
RTVSPropertyOp34
 70
     1
102
RTVSPropertyOp35
 70
     1
102
RTVSPropertyOp36
 70
     1
102
RTVSPropertyOp37
 70
     1
102
RTVSPropertyOp38
 70
     1
102
RTVSPropertyOp39
 70
     1
102
RTVSPropertyOp40
 70
     1
102
RTVSPropertyOp41
 70
     1
102
RTVSPropertyOp42
 70
     1
102
RTVSPropertyOp43
 70
     1
102
RTVSPropertyOp44
 70
     1
102
RTVSPropertyOp45
 70
     1
102
RTVSPropertyOp46
 70
     1
102
RTVSPropertyOp47
 70
     1
102
RTVSPropertyOp48
 70
     1
102
RTVSPropertyOp49
 70
     1
102
RTVSPropertyOp50
 70
     1
102
RTVSPropertyOp51
 70
     0
102
RTVSPropertyOp52
 70
     0
102
RTVSPropertyOp53
 70
     1
102
RTVSPropertyOp54
 70
     1
102
RTVSPropertyOp55
 70
     1
102
RTVSPropertyOp56
 70
     1
102
RTVSPropertyOp57
 70
     1
102
RTVSPropertyOp58
 70
     1
102
RTVSPropertyOp59
 70
     1
102
RTVSPropertyOp60
 70
     1
102
RTVSPropertyOp61
 70
     1
102
RTVSPropertyOp62
 70
     1
  0
ENDSEC
  0
EOF
