  0
SECTION
  2
HEADER
  9
$ACADVER
  1
AC1015
  9
$ACADMAINTVER
 70
    20
  9
$DWGCODEPAGE
  3
ANSI_932
  9
$INSBASE
 10
0.0
 20
0.0
 30
0.0
  9
$EXTMIN
 10
11.5773635153
 20
4.655189354994046
 30
0.0
  9
$EXTMAX
 10
934.518113907138
 20
284.8521970706
 30
260.1702966432
  9
$LIMMIN
 10
0.0
 20
0.0
  9
$LIMMAX
 10
420.0
 20
297.0
  9
$ORTHOMODE
 70
     0
  9
$REGENMODE
 70
     1
  9
$FILLMODE
 70
     1
  9
$QTEXTMODE
 70
     0
  9
$MIRRTEXT
 70
     1
  9
$LTSCALE
 40
1.0
  9
$ATTMODE
 70
     1
  9
$TEXTSIZE
 40
3.5
  9
$TRACEWID
 40
1.0
  9
$TEXTSTYLE
  7
Standard
  9
$CLAYER
  8
0
  9
$CELTYPE
  6
ByLayer
  9
$CECOLOR
 62
   256
  9
$CELTSCALE
 40
1.0
  9
$DISPSILH
 70
     0
  9
$DIMSCALE
 40
1.0
  9
$DIMASZ
 40
2.0
  9
$DIMEXO
 40
1.0
  9
$DIMDLI
 40
3.75
  9
$DIMRND
 40
0.0
  9
$DIMDLE
 40
0.0
  9
$DIMEXE
 40
1.0
  9
$DIMTP
 40
0.0
  9
$DIMTM
 40
0.0
  9
$DIMTXT
 40
3.5
  9
$DIMCEN
 40
2.5
  9
$DIMTSZ
 40
0.0
  9
$DIMTOL
 70
     0
  9
$DIMLIM
 70
     0
  9
$DIMTIH
 70
     1
  9
$DIMTOH
 70
     1
  9
$DIMSE1
 70
     0
  9
$DIMSE2
 70
     0
  9
$DIMTAD
 70
     1
  9
$DIMZIN
 70
     0
  9
$DIMBLK
  1

  9
$DIMASO
 70
     1
  9
$DIMSHO
 70
     1
  9
$DIMPOST
  1

  9
$DIMAPOST
  1

  9
$DIMALT
 70
     0
  9
$DIMALTD
 70
     3
  9
$DIMALTF
 40
0.0393700787
  9
$DIMLFAC
 40
5.0
  9
$DIMTOFL
 70
     1
  9
$DIMTVP
 40
0.0
  9
$DIMTIX
 70
     0
  9
$DIMSOXD
 70
     0
  9
$DIMSAH
 70
     0
  9
$DIMBLK1
  1

  9
$DIMBLK2
  1

  9
$DIMSTYLE
  2
ISO-25
  9
$DIMCLRD
 70
     0
  9
$DIMCLRE
 70
     0
  9
$DIMCLRT
 70
     0
  9
$DIMTFAC
 40
1.0
  9
$DIMGAP
 40
1.524
  9
$DIMJUST
 70
     0
  9
$DIMSD1
 70
     0
  9
$DIMSD2
 70
     0
  9
$DIMTOLJ
 70
     0
  9
$DIMTZIN
 70
     0
  9
$DIMALTZ
 70
     0
  9
$DIMALTTZ
 70
     0
  9
$DIMUPT
 70
     0
  9
$DIMDEC
 70
     1
  9
$DIMTDEC
 70
     1
  9
$DIMALTU
 70
     2
  9
$DIMALTTD
 70
     3
  9
$DIMTXSTY
  7
Standard
  9
$DIMAUNIT
 70
     0
  9
$DIMADEC
 70
     1
  9
$DIMALTRND
 40
0.0
  9
$DIMAZIN
 70
     0
  9
$DIMDSEP
 70
    44
  9
$DIMATFIT
 70
     3
  9
$DIMFRAC
 70
     0
  9
$DIMLDRBLK
  1

  9
$DIMLUNIT
 70
     2
  9
$DIMLWD
 70
    -2
  9
$DIMLWE
 70
    -2
  9
$DIMTMOVE
 70
     0
  9
$LUNITS
 70
     2
  9
$LUPREC
 70
     1
  9
$SKETCHINC
 40
1.0
  9
$FILLETRAD
 40
10.0
  9
$AUNITS
 70
     0
  9
$AUPREC
 70
     1
  9
$MENU
  1
.
  9
$ELEVATION
 40
0.0
  9
$PELEVATION
 40
0.0
  9
$THICKNESS
 40
0.0
  9
$LIMCHECK
 70
     0
  9
$CHAMFERA
 40
0.0
  9
$CHAMFERB
 40
0.0
  9
$CHAMFERC
 40
0.0
  9
$CHAMFERD
 40
0.0
  9
$SKPOLY
 70
     0
  9
$TDCREATE
 40
2457225.497525116
  9
$TDUCREATE
 40
2457225.122525116
  9
$TDUPDATE
 40
2457225.516857501
  9
$TDUUPDATE
 40
2457225.141857501
  9
$TDINDWG
 40
0.0016753356
  9
$TDUSRTIMER
 40
0.0016753356
  9
$USRTIMER
 70
     1
  9
$ANGBASE
 50
0.0
  9
$ANGDIR
 70
     0
  9
$PDMODE
 70
     0
  9
$PDSIZE
 40
-1.0
  9
$PLINEWID
 40
0.0
  9
$SPLFRAME
 70
     0
  9
$SPLINETYPE
 70
     6
  9
$SPLINESEGS
 70
     8
  9
$HANDSEED
  5
71C
  9
$SURFTAB1
 70
     6
  9
$SURFTAB2
 70
     6
  9
$SURFTYPE
 70
     6
  9
$SURFU
 70
     6
  9
$SURFV
 70
     6
  9
$UCSBASE
  2

  9
$UCSNAME
  2

  9
$UCSORG
 10
0.0
 20
0.0
 30
0.0
  9
$UCSXDIR
 10
1.0
 20
0.0
 30
0.0
  9
$UCSYDIR
 10
0.0
 20
1.0
 30
0.0
  9
$UCSORTHOREF
  2

  9
$UCSORTHOVIEW
 70
     0
  9
$UCSORGTOP
 10
0.0
 20
0.0
 30
0.0
  9
$UCSORGBOTTOM
 10
0.0
 20
0.0
 30
0.0
  9
$UCSORGLEFT
 10
0.0
 20
0.0
 30
0.0
  9
$UCSORGRIGHT
 10
0.0
 20
0.0
 30
0.0
  9
$UCSORGFRONT
 10
0.0
 20
0.0
 30
0.0
  9
$UCSORGBACK
 10
0.0
 20
0.0
 30
0.0
  9
$PUCSBASE
  2

  9
$PUCSNAME
  2

  9
$PUCSORG
 10
0.0
 20
0.0
 30
0.0
  9
$PUCSXDIR
 10
1.0
 20
0.0
 30
0.0
  9
$PUCSYDIR
 10
0.0
 20
1.0
 30
0.0
  9
$PUCSORTHOREF
  2

  9
$PUCSORTHOVIEW
 70
     0
  9
$PUCSORGTOP
 10
0.0
 20
0.0
 30
0.0
  9
$PUCSORGBOTTOM
 10
0.0
 20
0.0
 30
0.0
  9
$PUCSORGLEFT
 10
0.0
 20
0.0
 30
0.0
  9
$PUCSORGRIGHT
 10
0.0
 20
0.0
 30
0.0
  9
$PUCSORGFRONT
 10
0.0
 20
0.0
 30
0.0
  9
$PUCSORGBACK
 10
0.0
 20
0.0
 30
0.0
  9
$USERI1
 70
     0
  9
$USERI2
 70
     0
  9
$USERI3
 70
     0
  9
$USERI4
 70
     0
  9
$USERI5
 70
     0
  9
$USERR1
 40
0.0
  9
$USERR2
 40
0.0
  9
$USERR3
 40
0.0
  9
$USERR4
 40
0.0
  9
$USERR5
 40
0.0
  9
$WORLDVIEW
 70
     1
  9
$SHADEDGE
 70
     3
  9
$SHADEDIF
 70
    70
  9
$TILEMODE
 70
     1
  9
$MAXACTVP
 70
    64
  9
$PINSBASE
 10
0.0
 20
0.0
 30
0.0
  9
$PLIMCHECK
 70
     0
  9
$PEXTMIN
 10
1.000000000000000E+20
 20
1.000000000000000E+20
 30
1.000000000000000E+20
  9
$PEXTMAX
 10
-1.000000000000000E+20
 20
-1.000000000000000E+20
 30
-1.000000000000000E+20
  9
$PLIMMIN
 10
0.0
 20
0.0
  9
$PLIMMAX
 10
420.0
 20
297.0
  9
$UNITMODE
 70
     0
  9
$VISRETAIN
 70
     1
  9
$PLINEGEN
 70
     0
  9
$PSLTSCALE
 70
     1
  9
$TREEDEPTH
 70
  3020
  9
$CMLSTYLE
  2
Standard
  9
$CMLJUST
 70
     0
  9
$CMLSCALE
 40
20.0
  9
$PROXYGRAPHICS
 70
     1
  9
$MEASUREMENT
 70
     1
  9
$CELWEIGHT
370
    -1
  9
$ENDCAPS
280
     0
  9
$JOINSTYLE
280
     0
  9
$LWDISPLAY
290
     1
  9
$INSUNITS
 70
     4
  9
$HYPERLINKBASE
  1

  9
$STYLESHEET
  1

  9
$XEDIT
290
     1
  9
$CEPSNTYPE
380
     0
  9
$PSTYLEMODE
290
     1
  9
$FINGERPRINTGUID
  2
{2E58991A-BA5C-4142-B281-4E3566238E75}
  9
$VERSIONGUID
  2
{7D229862-A169-4B48-B98F-25AF709F46B8}
  9
$EXTNAMES
290
     1
  9
$PSVPSCALE
 40
0.0
  9
$OLESTARTUP
290
     0
  0
ENDSEC
  0
SECTION
  2
CLASSES
  0
CLASS
  1
ACDBDICTIONARYWDFLT
  2
AcDbDictionaryWithDefault
  3
ObjectDBX Classes
 90
        0
280
     0
281
     0
  0
CLASS
  1
VISUALSTYLE
  2
AcDbVisualStyle
  3
ObjectDBX Classes
 90
     4095
280
     0
281
     0
  0
CLASS
  1
MATERIAL
  2
AcDbMaterial
  3
ObjectDBX Classes
 90
     1153
280
     0
281
     0
  0
CLASS
  1
SCALE
  2
AcDbScale
  3
ObjectDBX Classes
 90
     1153
280
     0
281
     0
  0
CLASS
  1
SUN
  2
AcDbSun
  3
SCENEOE
 90
    33921
280
     0
281
     0
  0
CLASS
  1
ACDBPLACEHOLDER
  2
AcDbPlaceHolder
  3
ObjectDBX Classes
 90
        0
280
     0
281
     0
  0
CLASS
  1
LAYOUT
  2
AcDbLayout
  3
ObjectDBX Classes
 90
        0
280
     0
281
     0
  0
CLASS
  1
TABLESTYLE
  2
AcDbTableStyle
  3
ObjectDBX Classes
 90
     4095
280
     0
281
     0
  0
CLASS
  1
MLEADERSTYLE
  2
AcDbMLeaderStyle
  3
ACDB_MLEADERSTYLE_CLASS
 90
     4095
280
     0
281
     0
  0
CLASS
  1
ACDBSECTIONVIEWSTYLE
  2
AcDbSectionViewStyle
  3
ObjectDBX Classes
 90
     1025
280
     0
281
     0
  0
CLASS
  1
ACDBDETAILVIEWSTYLE
  2
AcDbDetailViewStyle
  3
ObjectDBX Classes
 90
     1025
280
     0
281
     0
  0
CLASS
  1
DICTIONARYVAR
  2
AcDbDictionaryVar
  3
ObjectDBX Classes
 90
        0
280
     0
281
     0
  0
CLASS
  1
CELLSTYLEMAP
  2
AcDbCellStyleMap
  3
ObjectDBX Classes
 90
     1152
280
     0
281
     0
  0
ENDSEC
  0
SECTION
  2
TABLES
  0
TABLE
  2
VPORT
  5
8
330
0
100
AcDbSymbolTable
 70
     1
  0
VPORT
  5
29
330
8
100
AcDbSymbolTableRecord
100
AcDbViewportTableRecord
  2
*Active
 70
     0
 10
0.0
 20
0.0
 11
1.0
 21
1.0
 12
770.7523599052226
 22
132.0162541487491
 13
0.0
 23
0.0
 14
10.0
 24
10.0
 15
10.0
 25
10.0
 16
0.0
 26
0.0
 36
1.0
 17
0.0
 27
0.0
 37
0.0
 40
297.2283092030964
 41
1.921548117154811
 42
50.0
 43
0.0
 44
0.0
 50
0.0
 51
0.0
 71
     0
 72
  2000
 73
     1
 74
     3
 75
     0
 76
     0
 77
     0
 78
     0
281
     0
 65
     1
110
0.0
120
0.0
130
0.0
111
1.0
121
0.0
131
0.0
112
0.0
122
1.0
132
0.0
 79
     0
146
0.0
1001
ACAD_NAV_VCDISPLAY
1070
     3
  0
ENDTAB
  0
TABLE
  2
LTYPE
  5
5
330
0
100
AcDbSymbolTable
 70
     6
  0
LTYPE
  5
14
330
5
100
AcDbSymbolTableRecord
100
AcDbLinetypeTableRecord
  2
ByBlock
 70
     0
  3

 72
    65
 73
     0
 40
0.0
  0
LTYPE
  5
15
330
5
100
AcDbSymbolTableRecord
100
AcDbLinetypeTableRecord
  2
ByLayer
 70
     0
  3

 72
    65
 73
     0
 40
0.0
  0
LTYPE
  5
16
330
5
100
AcDbSymbolTableRecord
100
AcDbLinetypeTableRecord
  2
Continuous
 70
     0
  3
Solid line
 72
    65
 73
     0
 40
0.0
  0
LTYPE
  5
6A
330
5
100
AcDbSymbolTableRecord
100
AcDbLinetypeTableRecord
  2
HIDDEN
 70
     0
  3
Hidden __ __ __ __ __ __ __ __ __ __ __ __ __ __
 72
    65
 73
     2
 40
1.905
 49
1.27
 74
     0
 49
-0.635
 74
     0
  0
LTYPE
  5
6B
330
5
100
AcDbSymbolTableRecord
100
AcDbLinetypeTableRecord
  2
PHANTOM
 70
     0
  3
Phantom ______  __  __  ______  __  __  ______
 72
    65
 73
     6
 40
12.7
 49
6.349999999999999
 74
     0
 49
-1.27
 74
     0
 49
1.27
 74
     0
 49
-1.27
 74
     0
 49
1.27
 74
     0
 49
-1.27
 74
     0
  0
LTYPE
  5
6C
330
5
100
AcDbSymbolTableRecord
100
AcDbLinetypeTableRecord
  2
CENTER
 70
     0
  3
Center ____ _ ____ _ ____ _ ____ _ ____ _ ____
 72
    65
 73
     4
 40
10.16
 49
6.349999999999999
 74
     0
 49
-1.27
 74
     0
 49
1.27
 74
     0
 49
-1.27
 74
     0
  0
LTYPE
  5
6D
330
5
100
AcDbSymbolTableRecord
100
AcDbLinetypeTableRecord
  2
CENTERX2
 70
     0
  3
Center (2x) ________  __  ________  __  _____
 72
    65
 73
     4
 40
20.32
 49
12.7
 74
     0
 49
-2.54
 74
     0
 49
2.54
 74
     0
 49
-2.54
 74
     0
  0
LTYPE
  5
6E
330
5
100
AcDbSymbolTableRecord
100
AcDbLinetypeTableRecord
  2
DOT2
 70
     0
  3
Dot (.5x) ........................................
 72
    65
 73
     2
 40
0.635
 49
0.0
 74
     0
 49
-0.635
 74
     0
  0
ENDTAB
  0
TABLE
  2
LAYER
  5
2
330
0
100
AcDbSymbolTable
 70
     4
  0
LAYER
  5
10
102
{ACAD_XDICTIONARY
360
6C0
102
}
330
2
100
AcDbSymbolTableRecord
100
AcDbLayerTableRecord
  2
0
 70
     0
 62
     7
  6
Continuous
370
    -3
390
F
  0
LAYER
  5
6F
102
{ACAD_XDICTIONARY
360
6C2
102
}
330
2
100
AcDbSymbolTableRecord
100
AcDbLayerTableRecord
  2
FORMAT
 70
     0
 62
     7
  6
Continuous
370
    -3
390
F
  0
LAYER
  5
70
102
{ACAD_XDICTIONARY
360
6C4
102
}
330
2
100
AcDbSymbolTableRecord
100
AcDbLayerTableRecord
  2
図枠
 70
     0
 62
     7
  6
Continuous
370
    15
390
F
  0
LAYER
  5
71
102
{ACAD_XDICTIONARY
360
6C6
102
}
330
2
100
AcDbSymbolTableRecord
100
AcDbLayerTableRecord
  2
ﾚｲﾔｰ2
 70
     0
 62
     7
  6
Continuous
370
    -3
390
F
  0
ENDTAB
  0
TABLE
  2
STYLE
  5
3
330
0
100
AcDbSymbolTable
 70
     2
  0
STYLE
  5
11
330
3
100
AcDbSymbolTableRecord
100
AcDbTextStyleTableRecord
  2
Standard
 70
     0
 40
0.0
 41
1.0
 50
0.0
 71
     0
 42
3.5
  3
txt
  4
bigfont
  0
STYLE
  5
78
330
3
100
AcDbSymbolTableRecord
100
AcDbTextStyleTableRecord
  2
SLDTEXTSTYLE0
 70
     0
 40
0.0
 41
0.7
 50
0.0
 71
     0
 42
3.5
  3
TXT
  4
bigfont
  0
ENDTAB
  0
TABLE
  2
VIEW
  5
6
330
0
100
AcDbSymbolTable
 70
     0
  0
ENDTAB
  0
TABLE
  2
UCS
  5
7
330
0
100
AcDbSymbolTable
 70
     0
  0
ENDTAB
  0
TABLE
  2
APPID
  5
9
330
0
100
AcDbSymbolTable
 70
     3
  0
APPID
  5
12
330
9
100
AcDbSymbolTableRecord
100
AcDbRegAppTableRecord
  2
ACAD
 70
     0
  0
APPID
  5
6C8
330
9
100
AcDbSymbolTableRecord
100
AcDbRegAppTableRecord
  2
ACAD_NAV_VCDISPLAY
 70
     0
  0
APPID
  5
71B
330
9
100
AcDbSymbolTableRecord
100
AcDbRegAppTableRecord
  2
ACAD_MLEADERVER
 70
     0
  0
ENDTAB
  0
TABLE
  2
DIMSTYLE
  5
A
330
0
100
AcDbSymbolTable
 70
     4
100
AcDbDimStyleTable
 71
     0
  0
DIMSTYLE
105
27
330
A
100
AcDbSymbolTableRecord
100
AcDbDimStyleTableRecord
  2
ISO-25
 70
     0
 41
2.5
 42
0.625
 43
3.75
 44
1.25
 73
     0
 74
     0
 77
     1
 78
     8
140
2.5
141
2.5
143
0.0393700787
147
0.625
171
     3
172
     1
271
     2
272
     2
274
     3
278
    44
283
     0
284
     8
340
11
  0
DIMSTYLE
105
18B
330
A
100
AcDbSymbolTableRecord
100
AcDbDimStyleTableRecord
  2
SLDDIMSTYLE0
 70
     0
 41
2.0
 44
0.0
 45
0.000000001
 73
     0
 74
     0
 77
     3
 78
    12
 79
     3
140
3.5
147
0.875
173
     1
271
     1
272
     1
276
     2
284
    12
340
78
341
18C
343
18C
344
18C
  0
DIMSTYLE
105
19B
330
A
100
AcDbSymbolTableRecord
100
AcDbDimStyleTableRecord
  2
SLDDIMSTYLE1
 70
     0
 41
2.0
 44
0.0
 45
0.000000001
 73
     0
 74
     0
 77
     3
 78
    12
 79
     3
140
3.5
147
0.875
172
     1
173
     1
271
     1
272
     1
276
     2
284
    12
289
     0
340
78
341
18C
343
18C
344
18C
  0
DIMSTYLE
105
4E2
330
A
100
AcDbSymbolTableRecord
100
AcDbDimStyleTableRecord
  2
SLDDIMSTYLE2
 70
     0
 41
2.0
 44
0.0
 45
0.000000001
 73
     0
 74
     0
 77
     3
 78
    12
 79
     3
140
3.5
141
0.0
147
0.875
172
     1
173
     1
271
     1
272
     1
276
     2
284
    12
340
78
341
18C
343
18C
344
18C
  0
ENDTAB
  0
TABLE
  2
BLOCK_RECORD
  5
1
330
0
100
AcDbSymbolTable
 70
    22
  0
BLOCK_RECORD
  5
1F
330
1
100
AcDbSymbolTableRecord
100
AcDbBlockTableRecord
  2
*Model_Space
340
22
  0
BLOCK_RECORD
  5
1B
330
1
100
AcDbSymbolTableRecord
100
AcDbBlockTableRecord
  2
*Paper_Space
340
1E
  0
BLOCK_RECORD
  5
23
330
1
100
AcDbSymbolTableRecord
100
AcDbBlockTableRecord
  2
*Paper_Space0
340
26
  0
BLOCK_RECORD
  5
72
330
1
100
AcDbSymbolTableRecord
100
AcDbBlockTableRecord
  2
三角１
340
0
  0
BLOCK_RECORD
  5
7A
330
1
100
AcDbSymbolTableRecord
100
AcDbBlockTableRecord
  2
三角２
340
0
  0
BLOCK_RECORD
  5
81
330
1
100
AcDbSymbolTableRecord
100
AcDbBlockTableRecord
  2
三角３
340
0
  0
BLOCK_RECORD
  5
88
330
1
100
AcDbSymbolTableRecord
100
AcDbBlockTableRecord
  2
三角４
340
0
  0
BLOCK_RECORD
  5
8F
330
1
100
AcDbSymbolTableRecord
100
AcDbBlockTableRecord
  2
三角５
340
0
  0
BLOCK_RECORD
  5
96
330
1
100
AcDbSymbolTableRecord
100
AcDbBlockTableRecord
  2
三角６
340
0
  0
BLOCK_RECORD
  5
DD
330
1
100
AcDbSymbolTableRecord
100
AcDbBlockTableRecord
  2
SW_BROKEN_VIEW_0
340
0
102
{BLKREFS
331
E0
102
}
  0
BLOCK_RECORD
  5
18C
330
1
100
AcDbSymbolTableRecord
100
AcDbBlockTableRecord
  2
_OPEN30
340
0
102
{BLKREFS
331
2CA
331
2CB
331
4C3
331
4C4
331
4D9
331
4DA
331
4F1
331
4F2
331
1BF
331
4CD
331
4CE
331
4E6
331
4E7
331
195
331
196
331
1AB
331
1AC
331
1CB
331
1CC
331
1A0
331
1B5
331
1B6
331
1C0
331
19F
102
}
  0
BLOCK_RECORD
  5
192
330
1
100
AcDbSymbolTableRecord
100
AcDbBlockTableRecord
  2
_D
340
0
  0
BLOCK_RECORD
  5
19C
330
1
100
AcDbSymbolTableRecord
100
AcDbBlockTableRecord
  2
_D_1
340
0
  0
BLOCK_RECORD
  5
1A8
330
1
100
AcDbSymbolTableRecord
100
AcDbBlockTableRecord
  2
_D_2
340
0
  0
BLOCK_RECORD
  5
1B2
330
1
100
AcDbSymbolTableRecord
100
AcDbBlockTableRecord
  2
_D_3
340
0
  0
BLOCK_RECORD
  5
1BC
330
1
100
AcDbSymbolTableRecord
100
AcDbBlockTableRecord
  2
_D_4
340
0
  0
BLOCK_RECORD
  5
1C8
330
1
100
AcDbSymbolTableRecord
100
AcDbBlockTableRecord
  2
_D_5
340
0
  0
BLOCK_RECORD
  5
1DB
330
1
100
AcDbSymbolTableRecord
100
AcDbBlockTableRecord
  2
SW_BROKEN_VIEW_1
340
0
102
{BLKREFS
331
1DE
102
}
  0
BLOCK_RECORD
  5
2C7
330
1
100
AcDbSymbolTableRecord
100
AcDbBlockTableRecord
  2
_D_6
340
0
  0
BLOCK_RECORD
  5
4C0
330
1
100
AcDbSymbolTableRecord
100
AcDbBlockTableRecord
  2
_D_7
340
0
  0
BLOCK_RECORD
  5
4CA
330
1
100
AcDbSymbolTableRecord
100
AcDbBlockTableRecord
  2
_D_8
340
0
  0
BLOCK_RECORD
  5
4D6
330
1
100
AcDbSymbolTableRecord
100
AcDbBlockTableRecord
  2
_D_9
340
0
  0
BLOCK_RECORD
  5
4E3
330
1
100
AcDbSymbolTableRecord
100
AcDbBlockTableRecord
  2
_D_10
340
0
  0
BLOCK_RECORD
  5
4EE
330
1
100
AcDbSymbolTableRecord
100
AcDbBlockTableRecord
  2
_D_11
340
0
  0
ENDTAB
  0
ENDSEC
  0
SECTION
  2
BLOCKS
  0
BLOCK
  5
20
330
1F
100
AcDbEntity
  8
0
100
AcDbBlockBegin
  2
*Model_Space
 70
     0
 10
0.0
 20
0.0
 30
0.0
  3
*Model_Space
  1
*Model_Space
  0
ENDBLK
  5
21
330
1F
100
AcDbEntity
  8
0
100
AcDbBlockEnd
  0
BLOCK
  5
1C
330
1B
100
AcDbEntity
 67
     1
  8
0
100
AcDbBlockBegin
  2
*Paper_Space
 70
     0
 10
0.0
 20
0.0
 30
0.0
  3
*Paper_Space
  1
*Paper_Space
  0
ENDBLK
  5
1D
330
1B
100
AcDbEntity
 67
     1
  8
0
100
AcDbBlockEnd
  0
BLOCK
  5
24
330
23
100
AcDbEntity
 67
     1
  8
0
100
AcDbBlockBegin
  2
*Paper_Space0
 70
     0
 10
0.0
 20
0.0
 30
0.0
  3
*Paper_Space0
  1
*Paper_Space0
  0
ENDBLK
  5
25
330
23
100
AcDbEntity
 67
     1
  8
0
100
AcDbBlockEnd
  0
BLOCK
  5
73
330
72
100
AcDbEntity
  8
0
100
AcDbBlockBegin
  2
三角１
 70
     0
 10
0.0
 20
0.0
 30
0.0
  3
三角１
  1
三角１
  0
LINE
  5
75
330
72
100
AcDbEntity
  8
FORMAT
370
     0
100
AcDbLine
 10
0.0
 20
0.0
 30
0.0
 11
-1.75
 21
-3.5
 31
0.0
  0
LINE
  5
76
330
72
100
AcDbEntity
  8
FORMAT
370
     0
100
AcDbLine
 10
-1.75
 20
-3.5
 30
0.0
 11
1.75
 21
-3.5
 31
0.0
  0
LINE
  5
77
330
72
100
AcDbEntity
  8
FORMAT
370
     0
100
AcDbLine
 10
1.75
 20
-3.5
 30
0.0
 11
0.0
 21
0.0
 31
0.0
  0
MTEXT
  5
79
330
72
100
AcDbEntity
  8
FORMAT
 62
     7
100
AcDbMText
 10
-0.6943926639
 20
-0.9380245362
 30
0.0
 40
2.1166666667
 41
0.0
 71
     1
 72
     1
  1
1
  7
SLDTEXTSTYLE0
 73
     1
 44
1.0
1001
ACAD
1000
MTEXTBEGIN
1070
    73
1070
     1
1070
    44
1040
1.0
1070
    74
1070
     0
1000
MTEXTEND
  0
ENDBLK
  5
74
330
72
100
AcDbEntity
  8
0
100
AcDbBlockEnd
  0
BLOCK
  5
7B
330
7A
100
AcDbEntity
  8
0
100
AcDbBlockBegin
  2
三角２
 70
     0
 10
0.0
 20
0.0
 30
0.0
  3
三角２
  1
三角２
  0
LINE
  5
7D
330
7A
100
AcDbEntity
  8
FORMAT
370
     0
100
AcDbLine
 10
0.0
 20
0.0
 30
0.0
 11
-1.75
 21
-3.5
 31
0.0
  0
LINE
  5
7E
330
7A
100
AcDbEntity
  8
FORMAT
370
     0
100
AcDbLine
 10
-1.75
 20
-3.5
 30
0.0
 11
1.75
 21
-3.5
 31
0.0
  0
LINE
  5
7F
330
7A
100
AcDbEntity
  8
FORMAT
370
     0
100
AcDbLine
 10
1.75
 20
-3.5
 30
0.0
 11
0.0
 21
0.0
 31
0.0
  0
MTEXT
  5
80
330
7A
100
AcDbEntity
  8
FORMAT
 62
     7
100
AcDbMText
 10
-0.6943926639
 20
-0.9380245362
 30
0.0
 40
2.1166666667
 41
0.0
 71
     1
 72
     1
  1
2
  7
SLDTEXTSTYLE0
 73
     1
 44
1.0
1001
ACAD
1000
MTEXTBEGIN
1070
    73
1070
     1
1070
    44
1040
1.0
1070
    74
1070
     0
1000
MTEXTEND
  0
ENDBLK
  5
7C
330
7A
100
AcDbEntity
  8
0
100
AcDbBlockEnd
  0
BLOCK
  5
82
330
81
100
AcDbEntity
  8
0
100
AcDbBlockBegin
  2
三角３
 70
     0
 10
0.0
 20
0.0
 30
0.0
  3
三角３
  1
三角３
  0
LINE
  5
84
330
81
100
AcDbEntity
  8
FORMAT
370
     0
100
AcDbLine
 10
0.0
 20
0.0
 30
0.0
 11
-1.75
 21
-3.5
 31
0.0
  0
LINE
  5
85
330
81
100
AcDbEntity
  8
FORMAT
370
     0
100
AcDbLine
 10
-1.75
 20
-3.5
 30
0.0
 11
1.75
 21
-3.5
 31
0.0
  0
LINE
  5
86
330
81
100
AcDbEntity
  8
FORMAT
370
     0
100
AcDbLine
 10
1.75
 20
-3.5
 30
0.0
 11
0.0
 21
0.0
 31
0.0
  0
MTEXT
  5
87
330
81
100
AcDbEntity
  8
FORMAT
 62
     7
100
AcDbMText
 10
-0.6943926639
 20
-0.9380245362
 30
0.0
 40
2.1166666667
 41
0.0
 71
     1
 72
     1
  1
3
  7
SLDTEXTSTYLE0
 73
     1
 44
1.0
1001
ACAD
1000
MTEXTBEGIN
1070
    73
1070
     1
1070
    44
1040
1.0
1070
    74
1070
     0
1000
MTEXTEND
  0
ENDBLK
  5
83
330
81
100
AcDbEntity
  8
0
100
AcDbBlockEnd
  0
BLOCK
  5
89
330
88
100
AcDbEntity
  8
0
100
AcDbBlockBegin
  2
三角４
 70
     0
 10
0.0
 20
0.0
 30
0.0
  3
三角４
  1
三角４
  0
LINE
  5
8B
330
88
100
AcDbEntity
  8
FORMAT
370
     0
100
AcDbLine
 10
0.0
 20
0.0
 30
0.0
 11
-1.75
 21
-3.5
 31
0.0
  0
LINE
  5
8C
330
88
100
AcDbEntity
  8
FORMAT
370
     0
100
AcDbLine
 10
-1.75
 20
-3.5
 30
0.0
 11
1.75
 21
-3.5
 31
0.0
  0
LINE
  5
8D
330
88
100
AcDbEntity
  8
FORMAT
370
     0
100
AcDbLine
 10
1.75
 20
-3.5
 30
0.0
 11
0.0
 21
0.0
 31
0.0
  0
MTEXT
  5
8E
330
88
100
AcDbEntity
  8
FORMAT
 62
     7
100
AcDbMText
 10
-0.6943926639
 20
-0.9380245362
 30
0.0
 40
2.1166666667
 41
0.0
 71
     1
 72
     1
  1
4
  7
SLDTEXTSTYLE0
 73
     1
 44
1.0
1001
ACAD
1000
MTEXTBEGIN
1070
    73
1070
     1
1070
    44
1040
1.0
1070
    74
1070
     0
1000
MTEXTEND
  0
ENDBLK
  5
8A
330
88
100
AcDbEntity
  8
0
100
AcDbBlockEnd
  0
BLOCK
  5
90
330
8F
100
AcDbEntity
  8
0
100
AcDbBlockBegin
  2
三角５
 70
     0
 10
0.0
 20
0.0
 30
0.0
  3
三角５
  1
三角５
  0
LINE
  5
92
330
8F
100
AcDbEntity
  8
FORMAT
370
     0
100
AcDbLine
 10
0.0
 20
0.0
 30
0.0
 11
-1.75
 21
-3.5
 31
0.0
  0
LINE
  5
93
330
8F
100
AcDbEntity
  8
FORMAT
370
     0
100
AcDbLine
 10
-1.75
 20
-3.5
 30
0.0
 11
1.75
 21
-3.5
 31
0.0
  0
LINE
  5
94
330
8F
100
AcDbEntity
  8
FORMAT
370
     0
100
AcDbLine
 10
1.75
 20
-3.5
 30
0.0
 11
0.0
 21
0.0
 31
0.0
  0
MTEXT
  5
95
330
8F
100
AcDbEntity
  8
FORMAT
 62
     7
100
AcDbMText
 10
-0.6943926639
 20
-0.9380245362
 30
0.0
 40
2.1166666667
 41
0.0
 71
     1
 72
     1
  1
5
  7
SLDTEXTSTYLE0
 73
     1
 44
1.0
1001
ACAD
1000
MTEXTBEGIN
1070
    73
1070
     1
1070
    44
1040
1.0
1070
    74
1070
     0
1000
MTEXTEND
  0
ENDBLK
  5
91
330
8F
100
AcDbEntity
  8
0
100
AcDbBlockEnd
  0
BLOCK
  5
97
330
96
100
AcDbEntity
  8
0
100
AcDbBlockBegin
  2
三角６
 70
     0
 10
0.0
 20
0.0
 30
0.0
  3
三角６
  1
三角６
  0
LINE
  5
99
330
96
100
AcDbEntity
  8
FORMAT
370
     0
100
AcDbLine
 10
0.0
 20
0.0
 30
0.0
 11
-1.75
 21
-3.5
 31
0.0
  0
LINE
  5
9A
330
96
100
AcDbEntity
  8
FORMAT
370
     0
100
AcDbLine
 10
-1.75
 20
-3.5
 30
0.0
 11
1.75
 21
-3.5
 31
0.0
  0
LINE
  5
9B
330
96
100
AcDbEntity
  8
FORMAT
370
     0
100
AcDbLine
 10
1.75
 20
-3.5
 30
0.0
 11
0.0
 21
0.0
 31
0.0
  0
MTEXT
  5
9C
330
96
100
AcDbEntity
  8
FORMAT
 62
     7
100
AcDbMText
 10
-0.6943926639
 20
-0.9380245362
 30
0.0
 40
2.1166666667
 41
0.0
 71
     1
 72
     1
  1
6
  7
SLDTEXTSTYLE0
 73
     1
 44
1.0
1001
ACAD
1000
MTEXTBEGIN
1070
    73
1070
     1
1070
    44
1040
1.0
1070
    74
1070
     0
1000
MTEXTEND
  0
ENDBLK
  5
98
330
96
100
AcDbEntity
  8
0
100
AcDbBlockEnd
  0
BLOCK
  5
DE
330
DD
100
AcDbEntity
  8
0
100
AcDbBlockBegin
  2
SW_BROKEN_VIEW_0
 70
     0
 10
0.0
 20
0.0
 30
0.0
  3
SW_BROKEN_VIEW_0
  1
SW_BROKEN_VIEW_0
  0
ENDBLK
  5
DF
330
DD
100
AcDbEntity
  8
0
100
AcDbBlockEnd
  0
BLOCK
  5
18D
330
18C
100
AcDbEntity
  8
0
100
AcDbBlockBegin
  2
_OPEN30
 70
     0
 10
0.0
 20
0.0
 30
0.0
  3
_OPEN30
  1
_OPEN30
  0
LINE
  5
18F
330
18C
100
AcDbEntity
  8
0
  6
ByBlock
 62
     0
370
    -2
100
AcDbLine
 10
-1.0
 20
0.267949
 30
0.0
 11
0.0
 21
0.0
 31
0.0
  0
LINE
  5
190
330
18C
100
AcDbEntity
  8
0
  6
ByBlock
 62
     0
370
    -2
100
AcDbLine
 10
0.0
 20
0.0
 30
0.0
 11
-1.0
 21
-0.267949
 31
0.0
  0
LINE
  5
191
330
18C
100
AcDbEntity
  8
0
  6
ByBlock
 62
     0
370
    -2
100
AcDbLine
 10
0.0
 20
0.0
 30
0.0
 11
-1.0
 21
0.0
 31
0.0
  0
ENDBLK
  5
18E
330
18C
100
AcDbEntity
  8
0
100
AcDbBlockEnd
  0
BLOCK
  5
193
330
192
100
AcDbEntity
  8
0
100
AcDbBlockBegin
  2
_D
 70
     0
 10
0.0
 20
0.0
 30
0.0
  3
_D
  1
_D
  0
INSERT
  5
195
330
192
100
AcDbEntity
  8
FORMAT
100
AcDbBlockReference
  2
_OPEN30
 10
290.6969850978
 20
155.1996894434
 30
0.1
 41
2.0
 42
2.0
 50
90.0
  0
INSERT
  5
196
330
192
100
AcDbEntity
  8
FORMAT
100
AcDbBlockReference
  2
_OPEN30
 10
290.6969850978
 20
136.7019992727
 30
0.1
 41
2.0
 42
2.0
 50
270.0
  0
LINE
  5
197
330
192
100
AcDbEntity
  8
FORMAT
100
AcDbLine
 10
290.6969850978
 20
155.1996894434
 30
0.0
 11
290.6969850978
 21
167.049245009
 31
0.0
  0
LINE
  5
198
330
192
100
AcDbEntity
  8
FORMAT
100
AcDbLine
 10
290.6969850978
 20
155.1996894434
 30
0.0
 11
290.6969850978
 21
136.7019992727
 31
0.0
  0
MTEXT
  5
199
330
192
100
AcDbEntity
  8
FORMAT
100
AcDbMText
 10
286.1852482414
 20
158.9020230191
 30
0.0
 40
3.5
 41
0.0
 71
     1
 72
     1
  1
18.5
  7
SLDTEXTSTYLE0
 11
-0.000000000000007
 21
1.0
 31
0.0
 73
     1
 44
1.0
1001
ACAD
1000
MTEXTBEGIN
1070
    73
1070
     1
1070
    44
1040
1.0
1070
    74
1070
     0
1000
MTEXTEND
  0
ENDBLK
  5
194
330
192
100
AcDbEntity
  8
0
100
AcDbBlockEnd
  0
BLOCK
  5
19D
330
19C
100
AcDbEntity
  8
0
100
AcDbBlockBegin
  2
_D_1
 70
     0
 10
0.0
 20
0.0
 30
0.0
  3
_D_1
  1
_D_1
  0
INSERT
  5
19F
330
19C
100
AcDbEntity
  8
FORMAT
100
AcDbBlockReference
  2
_OPEN30
 10
304.2129105178
 20
124.8915854848
 30
0.1
 41
2.0
 42
2.0
  0
INSERT
  5
1A0
330
19C
100
AcDbEntity
  8
FORMAT
100
AcDbBlockReference
  2
_OPEN30
 10
312.2129105178
 20
124.8915854848
 30
0.1
 41
2.0
 42
2.0
 50
180.0
  0
LINE
  5
1A1
330
19C
100
AcDbEntity
  8
FORMAT
100
AcDbLine
 10
304.2129105178
 20
135.7019992727
 30
0.0
 11
304.2129105178
 21
123.8915854848
 31
0.0
  0
LINE
  5
1A2
330
19C
100
AcDbEntity
  8
FORMAT
100
AcDbLine
 10
312.2129105178
 20
136.8220272259
 30
0.0
 11
312.2129105178
 21
123.8915854848
 31
0.0
  0
LINE
  5
1A3
330
19C
100
AcDbEntity
  8
FORMAT
100
AcDbLine
 10
304.2129105178
 20
124.8915854848
 30
0.0
 11
301.2129105178
 21
124.8915854848
 31
0.0
  0
LINE
  5
1A4
330
19C
100
AcDbEntity
  8
FORMAT
100
AcDbLine
 10
304.2129105178
 20
124.8915854848
 30
0.0
 11
312.2129105178
 21
124.8915854848
 31
0.0
  0
LINE
  5
1A5
330
19C
100
AcDbEntity
  8
FORMAT
100
AcDbLine
 10
312.2129105178
 20
124.8915854848
 30
0.0
 11
315.2129105178
 21
124.8915854848
 31
0.0
  0
MTEXT
  5
1A6
330
19C
100
AcDbEntity
  8
FORMAT
100
AcDbMText
 10
307.1945077691
 20
129.4033223411
 30
0.0
 40
3.5
 41
0.0
 71
     1
 72
     1
  1
8
  7
SLDTEXTSTYLE0
 73
     1
 44
1.0
1001
ACAD
1000
MTEXTBEGIN
1070
    73
1070
     1
1070
    44
1040
1.0
1070
    74
1070
     0
1000
MTEXTEND
  0
ENDBLK
  5
19E
330
19C
100
AcDbEntity
  8
0
100
AcDbBlockEnd
  0
BLOCK
  5
1A9
330
1A8
100
AcDbEntity
  8
0
100
AcDbBlockBegin
  2
_D_2
 70
     0
 10
0.0
 20
0.0
 30
0.0
  3
_D_2
  1
_D_2
  0
INSERT
  5
1AB
330
1A8
100
AcDbEntity
  8
FORMAT
100
AcDbBlockReference
  2
_OPEN30
 10
128.173915266
 20
124.8915854848
 30
0.1
 41
2.0
 42
2.0
 50
180.0
  0
INSERT
  5
1AC
330
1A8
100
AcDbEntity
  8
FORMAT
100
AcDbBlockReference
  2
_OPEN30
 10
304.2129105178
 20
124.8915854848
 30
0.1
 41
2.0
 42
2.0
  0
LINE
  5
1AD
330
1A8
100
AcDbEntity
  8
FORMAT
100
AcDbLine
 10
128.173915266
 20
133.0675090483
 30
0.0
 11
128.173915266
 21
123.8915854848
 31
0.0
  0
LINE
  5
1AE
330
1A8
100
AcDbEntity
  8
FORMAT
100
AcDbLine
 10
304.2129105178
 20
135.7019992727
 30
0.0
 11
304.2129105178
 21
123.8915854848
 31
0.0
  0
LINE
  5
1AF
330
1A8
100
AcDbEntity
  8
FORMAT
100
AcDbLine
 10
128.173915266
 20
124.8915854848
 30
0.0
 11
304.2129105178
 21
124.8915854848
 31
0.0
  0
MTEXT
  5
1B0
330
1A8
100
AcDbEntity
  8
FORMAT
100
AcDbMText
 10
213.1382045293
 20
129.4033223411
 30
0.0
 40
3.5
 41
0.0
 71
     1
 72
     1
  1
527
  7
SLDTEXTSTYLE0
 73
     1
 44
1.0
1001
ACAD
1000
MTEXTBEGIN
1070
    73
1070
     1
1070
    44
1040
1.0
1070
    74
1070
     0
1000
MTEXTEND
  0
ENDBLK
  5
1AA
330
1A8
100
AcDbEntity
  8
0
100
AcDbBlockEnd
  0
BLOCK
  5
1B3
330
1B2
100
AcDbEntity
  8
0
100
AcDbBlockBegin
  2
_D_3
 70
     0
 10
0.0
 20
0.0
 30
0.0
  3
_D_3
  1
_D_3
  0
INSERT
  5
1B5
330
1B2
100
AcDbEntity
  8
FORMAT
100
AcDbBlockReference
  2
_OPEN30
 10
98.17391526600001
 20
124.8915854848
 30
0.1
 41
2.0
 42
2.0
 50
180.0
  0
INSERT
  5
1B6
330
1B2
100
AcDbEntity
  8
FORMAT
100
AcDbBlockReference
  2
_OPEN30
 10
128.173915266
 20
124.8915854848
 30
0.1
 41
2.0
 42
2.0
  0
LINE
  5
1B7
330
1B2
100
AcDbEntity
  8
FORMAT
100
AcDbLine
 10
98.17391526600001
 20
136.5690777002
 30
0.0
 11
98.17391526600001
 21
123.8915854848
 31
0.0
  0
LINE
  5
1B8
330
1B2
100
AcDbEntity
  8
FORMAT
100
AcDbLine
 10
128.173915266
 20
133.0675090483
 30
0.0
 11
128.173915266
 21
123.8915854848
 31
0.0
  0
LINE
  5
1B9
330
1B2
100
AcDbEntity
  8
FORMAT
100
AcDbLine
 10
98.17391526600001
 20
124.8915854848
 30
0.0
 11
128.173915266
 21
124.8915854848
 31
0.0
  0
MTEXT
  5
1BA
330
1B2
100
AcDbEntity
  8
FORMAT
100
AcDbMText
 10
111.1371097685
 20
129.4033223411
 30
0.0
 40
3.5
 41
0.0
 71
     1
 72
     1
  1
30
  7
SLDTEXTSTYLE0
 73
     1
 44
1.0
1001
ACAD
1000
MTEXTBEGIN
1070
    73
1070
     1
1070
    44
1040
1.0
1070
    74
1070
     0
1000
MTEXTEND
  0
ENDBLK
  5
1B4
330
1B2
100
AcDbEntity
  8
0
100
AcDbBlockEnd
  0
BLOCK
  5
1BD
330
1BC
100
AcDbEntity
  8
0
100
AcDbBlockBegin
  2
_D_4
 70
     0
 10
0.0
 20
0.0
 30
0.0
  3
_D_4
  1
_D_4
  0
INSERT
  5
1BF
330
1BC
100
AcDbEntity
  8
FORMAT
100
AcDbBlockReference
  2
_OPEN30
 10
91.173915266
 20
124.8915854848
 30
0.1
 41
2.0
 42
2.0
  0
INSERT
  5
1C0
330
1BC
100
AcDbEntity
  8
FORMAT
100
AcDbBlockReference
  2
_OPEN30
 10
98.17391526600001
 20
124.8915854848
 30
0.1
 41
2.0
 42
2.0
 50
180.0
  0
LINE
  5
1C1
330
1BC
100
AcDbEntity
  8
FORMAT
100
AcDbLine
 10
91.173915266
 20
141.1246894434
 30
0.0
 11
91.173915266
 21
123.8915854848
 31
0.0
  0
LINE
  5
1C2
330
1BC
100
AcDbEntity
  8
FORMAT
100
AcDbLine
 10
98.17391526600001
 20
134.6276831809
 30
0.0
 11
98.17391526600001
 21
123.8915854848
 31
0.0
  0
LINE
  5
1C3
330
1BC
100
AcDbEntity
  8
FORMAT
100
AcDbLine
 10
91.173915266
 20
124.8915854848
 30
0.0
 11
88.17391526600001
 21
124.8915854848
 31
0.0
  0
LINE
  5
1C4
330
1BC
100
AcDbEntity
  8
FORMAT
100
AcDbLine
 10
91.173915266
 20
124.8915854848
 30
0.0
 11
98.17391526600001
 21
124.8915854848
 31
0.0
  0
LINE
  5
1C5
330
1BC
100
AcDbEntity
  8
FORMAT
100
AcDbLine
 10
98.17391526600001
 20
124.8915854848
 30
0.0
 11
101.173915266
 21
124.8915854848
 31
0.0
  0
MTEXT
  5
1C6
330
1BC
100
AcDbEntity
  8
FORMAT
100
AcDbMText
 10
93.6555125173
 20
129.4033223411
 30
0.0
 40
3.5
 41
0.0
 71
     1
 72
     1
  1
7
  7
SLDTEXTSTYLE0
 73
     1
 44
1.0
1001
ACAD
1000
MTEXTBEGIN
1070
    73
1070
     1
1070
    44
1040
1.0
1070
    74
1070
     0
1000
MTEXTEND
  0
ENDBLK
  5
1BE
330
1BC
100
AcDbEntity
  8
0
100
AcDbBlockEnd
  0
BLOCK
  5
1C9
330
1C8
100
AcDbEntity
  8
0
100
AcDbBlockBegin
  2
_D_5
 70
     0
 10
0.0
 20
0.0
 30
0.0
  3
_D_5
  1
_D_5
  0
INSERT
  5
1CB
330
1C8
100
AcDbEntity
  8
FORMAT
100
AcDbBlockReference
  2
_OPEN30
 10
98.17391526600001
 20
115.8755671807
 30
0.1
 41
2.0
 42
2.0
 50
180.0
  0
INSERT
  5
1CC
330
1C8
100
AcDbEntity
  8
FORMAT
100
AcDbBlockReference
  2
_OPEN30
 10
312.2129105178
 20
115.8755671807
 30
0.1
 41
2.0
 42
2.0
  0
LINE
  5
1CD
330
1C8
100
AcDbEntity
  8
FORMAT
100
AcDbLine
 10
98.17391526600001
 20
134.6276831809
 30
0.0
 11
98.17391526600001
 21
114.8755671807
 31
0.0
  0
LINE
  5
1CE
330
1C8
100
AcDbEntity
  8
FORMAT
100
AcDbLine
 10
312.2129105178
 20
136.8220272259
 30
0.0
 11
312.2129105178
 21
114.8755671807
 31
0.0
  0
LINE
  5
1CF
330
1C8
100
AcDbEntity
  8
FORMAT
100
AcDbLine
 10
98.17391526600001
 20
115.8755671807
 30
0.0
 11
312.2129105178
 21
115.8755671807
 31
0.0
  0
MTEXT
  5
1D0
330
1C8
100
AcDbEntity
  8
FORMAT
100
AcDbMText
 10
202.1382045293
 20
120.3873040371
 30
0.0
 40
3.5
 41
0.0
 71
     1
 72
     1
  1
565
  7
SLDTEXTSTYLE0
 73
     1
 44
1.0
1001
ACAD
1000
MTEXTBEGIN
1070
    73
1070
     1
1070
    44
1040
1.0
1070
    74
1070
     0
1000
MTEXTEND
  0
ENDBLK
  5
1CA
330
1C8
100
AcDbEntity
  8
0
100
AcDbBlockEnd
  0
BLOCK
  5
1DC
330
1DB
100
AcDbEntity
  8
0
100
AcDbBlockBegin
  2
SW_BROKEN_VIEW_1
 70
     0
 10
0.0
 20
0.0
 30
0.0
  3
SW_BROKEN_VIEW_1
  1
SW_BROKEN_VIEW_1
  0
ENDBLK
  5
1DD
330
1DB
100
AcDbEntity
  8
0
100
AcDbBlockEnd
  0
BLOCK
  5
2C8
330
2C7
100
AcDbEntity
  8
0
100
AcDbBlockBegin
  2
_D_6
 70
     0
 10
0.0
 20
0.0
 30
0.0
  3
_D_6
  1
_D_6
  0
INSERT
  5
2CA
330
2C7
100
AcDbEntity
  8
FORMAT
100
AcDbBlockReference
  2
_OPEN30
 10
290.2062119794
 20
230.8156783224
 30
0.1
 41
2.0
 42
2.0
 50
90.0
  0
INSERT
  5
2CB
330
2C7
100
AcDbEntity
  8
FORMAT
100
AcDbBlockReference
  2
_OPEN30
 10
290.2062119794
 20
189.3156783224
 30
0.1
 41
2.0
 42
2.0
 50
270.0
  0
LINE
  5
2CC
330
2C7
100
AcDbEntity
  8
FORMAT
100
AcDbLine
 10
290.2062119794
 20
230.8156783224
 30
0.0
 11
290.2062119794
 21
242.378160326
 31
0.0
  0
LINE
  5
2CD
330
2C7
100
AcDbEntity
  8
FORMAT
100
AcDbLine
 10
290.2062119794
 20
230.8156783224
 30
0.0
 11
290.2062119794
 21
189.3156783224
 31
0.0
  0
MTEXT
  5
2CE
330
2C7
100
AcDbEntity
  8
FORMAT
100
AcDbMText
 10
285.6944751231
 20
234.230938336
 30
0.0
 40
3.5
 41
0.0
 71
     1
 72
     1
  1
41.5
  7
SLDTEXTSTYLE0
 11
-0.000000000000007
 21
1.0
 31
0.0
 73
     1
 44
1.0
1001
ACAD
1000
MTEXTBEGIN
1070
    73
1070
     1
1070
    44
1040
1.0
1070
    74
1070
     0
1000
MTEXTEND
  0
ENDBLK
  5
2C9
330
2C7
100
AcDbEntity
  8
0
100
AcDbBlockEnd
  0
BLOCK
  5
4C1
330
4C0
100
AcDbEntity
  8
0
100
AcDbBlockBegin
  2
_D_7
 70
     0
 10
0.0
 20
0.0
 30
0.0
  3
_D_7
  1
_D_7
  0
INSERT
  5
4C3
330
4C0
100
AcDbEntity
  8
FORMAT
100
AcDbBlockReference
  2
_OPEN30
 10
60.8307110027
 20
168.3707243127
 30
260.1702966432
 41
2.0
 42
2.0
  0
INSERT
  5
4C4
330
4C0
100
AcDbEntity
  8
FORMAT
100
AcDbBlockReference
  2
_OPEN30
 10
35.46648728840001
 20
168.3707243127
 30
260.1702966432
 41
2.0
 42
2.0
 50
180.0
  0
LINE
  5
4C5
330
4C0
100
AcDbEntity
  8
FORMAT
100
AcDbLine
 10
60.8307110027
 20
197.8656783224
 30
0.0
 11
60.8307110027
 21
167.3707243127
 31
0.0
  0
LINE
  5
4C6
330
4C0
100
AcDbEntity
  8
FORMAT
100
AcDbLine
 10
35.46648728840001
 20
197.8656783224
 30
0.0
 11
35.46648728840001
 21
167.3707243127
 31
0.0
  0
LINE
  5
4C7
330
4C0
100
AcDbEntity
  8
FORMAT
100
AcDbLine
 10
60.8307110027
 20
168.3707243127
 30
0.0
 11
35.46648728840001
 21
168.3707243127
 31
0.0
  0
MTEXT
  5
4C8
330
4C0
100
AcDbEntity
  8
FORMAT
100
AcDbMText
 10
44.07498815060001
 20
172.8824611691
 30
0.0
 40
3.5
 41
0.0
 71
     1
 72
     1
  1
25.4
  7
SLDTEXTSTYLE0
 73
     1
 44
1.0
1001
ACAD
1000
MTEXTBEGIN
1070
    73
1070
     1
1070
    44
1040
1.0
1070
    74
1070
     0
1000
MTEXTEND
  0
ENDBLK
  5
4C2
330
4C0
100
AcDbEntity
  8
0
100
AcDbBlockEnd
  0
BLOCK
  5
4CB
330
4CA
100
AcDbEntity
  8
0
100
AcDbBlockBegin
  2
_D_8
 70
     0
 10
0.0
 20
0.0
 30
0.0
  3
_D_8
  1
_D_8
  0
INSERT
  5
4CD
330
4CA
100
AcDbEntity
  8
FORMAT
100
AcDbBlockReference
  2
_OPEN30
 10
44.9735991455
 20
245.5960767551
 30
260.1702966432
 41
2.0
 42
2.0
  0
INSERT
  5
4CE
330
4CA
100
AcDbEntity
  8
FORMAT
100
AcDbBlockReference
  2
_OPEN30
 10
51.32359914550001
 20
245.5960767551
 30
260.1702966432
 41
2.0
 42
2.0
 50
180.0
  0
LINE
  5
4CF
330
4CA
100
AcDbEntity
  8
FORMAT
100
AcDbLine
 10
44.9735991455
 20
215.0256783224
 30
0.0
 11
44.9735991455
 21
246.5960767551
 31
0.0
  0
LINE
  5
4D0
330
4CA
100
AcDbEntity
  8
FORMAT
100
AcDbLine
 10
51.32359914550001
 20
215.0256783224
 30
0.0
 11
51.32359914550001
 21
246.5960767551
 31
0.0
  0
LINE
  5
4D1
330
4CA
100
AcDbEntity
  8
FORMAT
100
AcDbLine
 10
44.9735991455
 20
245.5960767551
 30
0.0
 11
41.9735991455
 21
245.5960767551
 31
0.0
  0
LINE
  5
4D2
330
4CA
100
AcDbEntity
  8
FORMAT
100
AcDbLine
 10
44.9735991455
 20
245.5960767551
 30
0.0
 11
51.32359914550001
 21
245.5960767551
 31
0.0
  0
LINE
  5
4D3
330
4CA
100
AcDbEntity
  8
FORMAT
100
AcDbLine
 10
51.32359914550001
 20
245.5960767551
 30
0.0
 11
54.32359914550001
 21
245.5960767551
 31
0.0
  0
MTEXT
  5
4D4
330
4CA
100
AcDbEntity
  8
FORMAT
100
AcDbMText
 10
45.0933907829
 20
250.1078136114
 30
0.0
 40
3.5
 41
0.0
 71
     1
 72
     1
  1
6.4
  7
SLDTEXTSTYLE0
 73
     1
 44
1.0
1001
ACAD
1000
MTEXTBEGIN
1070
    73
1070
     1
1070
    44
1040
1.0
1070
    74
1070
     0
1000
MTEXTEND
  0
ENDBLK
  5
4CC
330
4CA
100
AcDbEntity
  8
0
100
AcDbBlockEnd
  0
BLOCK
  5
4D7
330
4D6
100
AcDbEntity
  8
0
100
AcDbBlockBegin
  2
_D_9
 70
     0
 10
0.0
 20
0.0
 30
0.0
  3
_D_9
  1
_D_9
  0
INSERT
  5
4D9
330
4D6
100
AcDbEntity
  8
FORMAT
100
AcDbBlockReference
  2
_OPEN30
 10
30.6510254715
 20
214.0256783224
 30
260.1702966432
 41
2.0
 42
2.0
 50
270.0
  0
INSERT
  5
4DA
330
4D6
100
AcDbEntity
  8
FORMAT
100
AcDbBlockReference
  2
_OPEN30
 10
30.6510254715
 20
206.1056783224
 30
260.1702966432
 41
2.0
 42
2.0
 50
90.0
  0
LINE
  5
4DB
330
4D6
100
AcDbEntity
  8
FORMAT
100
AcDbLine
 10
43.9735991455
 20
214.0256783224
 30
0.0
 11
29.6510254715
 21
214.0256783224
 31
0.0
  0
LINE
  5
4DC
330
4D6
100
AcDbEntity
  8
FORMAT
100
AcDbLine
 10
43.9735991455
 20
206.1056783224
 30
0.0
 11
29.6510254715
 21
206.1056783224
 31
0.0
  0
LINE
  5
4DD
330
4D6
100
AcDbEntity
  8
FORMAT
100
AcDbLine
 10
30.6510254715
 20
214.0256783224
 30
0.0
 11
30.6510254715
 21
217.0256783224
 31
0.0
  0
LINE
  5
4DE
330
4D6
100
AcDbEntity
  8
FORMAT
100
AcDbLine
 10
30.6510254715
 20
214.0256783224
 30
0.0
 11
30.6510254715
 21
206.1056783224
 31
0.0
  0
LINE
  5
4DF
330
4D6
100
AcDbEntity
  8
FORMAT
100
AcDbLine
 10
30.6510254715
 20
206.1056783224
 30
0.0
 11
30.6510254715
 21
203.1056783224
 31
0.0
  0
MTEXT
  5
4E0
330
4D6
100
AcDbEntity
  8
FORMAT
100
AcDbMText
 10
26.13928861510001
 20
207.0104699597
 30
0.0
 40
3.5
 41
0.0
 71
     1
 72
     1
  1
7.9
  7
SLDTEXTSTYLE0
 11
-0.0000000000000035
 21
1.0
 31
0.0
 73
     1
 44
1.0
1001
ACAD
1000
MTEXTBEGIN
1070
    73
1070
     1
1070
    44
1040
1.0
1070
    74
1070
     0
1000
MTEXTEND
  0
ENDBLK
  5
4D8
330
4D6
100
AcDbEntity
  8
0
100
AcDbBlockEnd
  0
BLOCK
  5
4E4
330
4E3
100
AcDbEntity
  8
0
100
AcDbBlockBegin
  2
_D_10
 70
     0
 10
0.0
 20
0.0
 30
0.0
  3
_D_10
  1
_D_10
  0
INSERT
  5
4E6
330
4E3
100
AcDbEntity
  8
FORMAT
100
AcDbBlockReference
  2
_OPEN30
 10
50.83678631579999
 20
213.5949658094
 30
260.1702966432
 41
2.0
 42
2.0
 50
41.501115934
  0
INSERT
  5
4E7
330
4E3
100
AcDbEntity
  8
FORMAT
100
AcDbBlockReference
  2
_OPEN30
 10
51.81041197529999
 20
214.4563908353
 30
260.1702966432
 41
2.0
 42
2.0
 50
221.501115934
  0
LINE
  5
4E8
330
4E3
100
AcDbEntity
  8
FORMAT
100
AcDbLine
 10
51.81041197529999
 20
214.4563908353
 30
0.0
 11
71.99208453199999
 21
232.3123271855
 31
0.0
  0
LINE
  5
4E9
330
4E3
100
AcDbEntity
  8
FORMAT
100
AcDbLine
 10
50.83678631579999
 20
213.5949658094
 30
0.0
 11
48.5899578709
 21
211.6070619036
 31
0.0
  0
LINE
  5
4EA
330
4E3
100
AcDbEntity
  8
FORMAT
100
AcDbLine
 10
51.81041197529999
 20
214.4563908353
 30
0.0
 11
50.83678631579999
 21
213.5949658094
 31
0.0
  0
MTEXT
  5
4EB
330
4E3
100
AcDbEntity
  8
FORMAT
100
AcDbMText
 10
61.5380989508
 20
229.0663308189
 30
0.0
 40
3.5
 41
0.0
 71
     1
 72
     1
  1
%%c
  7
SLDTEXTSTYLE0
 11
0.7489428149803464
 21
0.6626346352925682
 31
0.0
 73
     1
 44
1.0
1001
ACAD
1000
MTEXTBEGIN
1070
    73
1070
     1
1070
    44
1040
1.0
1070
    74
1070
     0
1000
MTEXTEND
  0
MTEXT
  5
4EC
330
4E3
100
AcDbEntity
  8
FORMAT
100
AcDbMText
 10
64.4364556046
 20
231.6306808144
 30
0.0
 40
3.5
 41
0.0
 71
     1
 72
     1
  1
1.3
  7
SLDTEXTSTYLE0
 11
0.7489428149803464
 21
0.6626346352925682
 31
0.0
 73
     1
 44
1.0
1001
ACAD
1000
MTEXTBEGIN
1070
    73
1070
     1
1070
    44
1040
1.0
1070
    74
1070
     0
1000
MTEXTEND
  0
ENDBLK
  5
4E5
330
4E3
100
AcDbEntity
  8
0
100
AcDbBlockEnd
  0
BLOCK
  5
4EF
330
4EE
100
AcDbEntity
  8
0
100
AcDbBlockBegin
  2
_D_11
 70
     0
 10
0.0
 20
0.0
 30
0.0
  3
_D_11
  1
_D_11
  0
INSERT
  5
4F1
330
4EE
100
AcDbEntity
  8
FORMAT
100
AcDbBlockReference
  2
_OPEN30
 10
25.4664187505
 20
237.1052410737
 30
260.1702966432
 41
2.0
 42
2.0
 50
90.0
  0
INSERT
  5
4F2
330
4EE
100
AcDbEntity
  8
FORMAT
100
AcDbBlockReference
  2
_OPEN30
 10
25.4664187505
 20
183.0261155711
 30
260.1702966432
 41
2.0
 42
2.0
 50
270.0
  0
LINE
  5
4F3
330
4EE
100
AcDbEntity
  8
FORMAT
100
AcDbLine
 10
46.22936033
 20
237.1052410737
 30
0.0
 11
24.4664187505
 21
237.1052410737
 31
0.0
  0
LINE
  5
4F4
330
4EE
100
AcDbEntity
  8
FORMAT
100
AcDbLine
 10
46.22936033
 20
183.0261155711
 30
0.0
 11
24.4664187505
 21
183.0261155711
 31
0.0
  0
LINE
  5
4F5
330
4EE
100
AcDbEntity
  8
FORMAT
100
AcDbLine
 10
25.4664187505
 20
237.1052410737
 30
0.0
 11
25.4664187505
 21
183.0261155711
 31
0.0
  0
MTEXT
  5
4F6
330
4EE
100
AcDbEntity
  8
FORMAT
100
AcDbMText
 10
20.9546818941
 20
205.9920673274
 30
0.0
 40
3.5
 41
0.0
 71
     1
 72
     1
  1
54.1
  7
SLDTEXTSTYLE0
 11
-0.0000000000000035
 21
1.0
 31
0.0
 73
     1
 44
1.0
1001
ACAD
1000
MTEXTBEGIN
1070
    73
1070
     1
1070
    44
1040
1.0
1070
    74
1070
     0
1000
MTEXTEND
  0
ENDBLK
  5
4F0
330
4EE
100
AcDbEntity
  8
0
100
AcDbBlockEnd
  0
ENDSEC
  0
SECTION
  2
ENTITIES
  0
INSERT
  5
E0
330
1F
100
AcDbEntity
  8
0
  6
Continuous
 62
     7
100
AcDbBlockReference
  2
SW_BROKEN_VIEW_0
 10
0.0
 20
0.0
 30
0.0
  0
INSERT
  5
1DE
330
1F
100
AcDbEntity
  8
0
  6
Continuous
 62
     7
100
AcDbBlockReference
  2
SW_BROKEN_VIEW_1
 10
0.0
 20
0.0
 30
0.0
  0
LINE
  5
4F7
330
1F
100
AcDbEntity
  8
0
370
    15
100
AcDbLine
 10
928.4464526377
 20
32.024483394
 30
0.0
 11
558.5826715784
 21
245.542299345
 31
0.0
  0
LINE
  5
4F8
330
1F
100
AcDbEntity
  8
0
370
    15
100
AcDbLine
 10
533.2545335024999
 20
220.7518881062
 30
0.0
 11
901.5808225527999
 21
8.1216473994
 31
0.0
  0
LINE
  5
4F9
330
1F
100
AcDbEntity
  8
0
370
    15
100
AcDbLine
 10
927.4470547119999
 20
33.3281577106
 30
0.0
 11
558.5455770833999
 21
246.2904477158
 31
0.0
  0
SPLINE
  5
4FA
330
1F
100
AcDbEntity
  8
0
370
    15
100
AcDbSpline
210
0.0
220
0.0
230
1.0
 70
     8
 71
     3
 72
    11
 73
     7
 74
     0
 42
0.000000001
 43
0.0000000001
 40
0.0
 40
0.0
 40
0.0
 40
0.0
 40
0.1324251875675389
 40
0.4623480026196976
 40
0.7864209552731944
 40
1.0
 40
1.0
 40
1.0
 40
1.0
 10
513.9994587995604
 20
247.4237908441562
 30
0.0
 10
513.968055068118
 20
247.4454708620059
 30
0.0
 10
513.8584123877952
 20
247.5211642639461
 30
0.0
 10
513.623427960931
 20
247.5425016490297
 30
0.0
 10
513.3794065977163
 20
247.5002202020019
 30
0.0
 10
513.2409279281286
 20
247.4289296701501
 30
0.0
 10
513.1859181037261
 20
247.4006099321687
 30
0.0
  0
SPLINE
  5
4FB
330
1F
100
AcDbEntity
  8
0
370
    15
100
AcDbSpline
210
0.0
220
0.0
230
1.0
 70
     8
 71
     3
 72
    14
 73
    10
 74
     0
 42
0.000000001
 43
0.0000000001
 40
0.0
 40
0.0
 40
0.0
 40
0.0
 40
0.1380865506360939
 40
0.315066955981208
 40
0.4963483196016018
 40
0.6918550326232963
 40
0.8334606268721081
 40
0.9619800130662504
 40
1.0
 40
1.0
 40
1.0
 40
1.0
 10
513.1859181037261
 20
247.4006099321687
 30
0.0
 10
513.0980229391193
 20
247.3397908316048
 30
0.0
 10
512.8974758052345
 20
247.2010221478196
 30
0.0
 10
512.6512493057239
 20
246.8657759487969
 30
0.0
 10
512.4823800333256
 20
246.4422539305284
 30
0.0
 10
512.4583515404298
 20
246.0340970385704
 30
0.0
 10
512.5771927617566
 20
245.7069466283855
 30
0.0
 10
512.7250429120403
 20
245.5118973367594
 30
0.0
 10
512.8405340741213
 20
245.4623792415537
 30
0.0
 10
512.8669000462685
 20
245.4510745434673
 30
0.0
  0
LINE
  5
4FC
330
1F
100
AcDbEntity
  8
0
370
    15
100
AcDbLine
 10
518.6070449689
 20
244.7794637573
 30
0.0
 11
514.0108507963999
 21
247.4327901755
 31
0.0
  0
LINE
  5
4FD
330
1F
100
AcDbEntity
  8
0
370
    15
100
AcDbLine
 10
512.8609441697
 20
245.4408776987
 30
0.0
 11
517.4571383423
 21
242.7875512805
 31
0.0
  0
SPLINE
  5
4FE
330
1F
100
AcDbEntity
  8
0
370
    15
100
AcDbSpline
210
0.0
220
0.0
230
1.0
 70
     8
 71
     3
 72
    11
 73
     7
 74
     0
 42
0.000000001
 43
0.0000000001
 40
0.0
 40
0.0
 40
0.0
 40
0.0
 40
0.1324251939472333
 40
0.4623480248937005
 40
0.786420969189147
 40
1.0
 40
1.0
 40
1.0
 40
1.0
 10
513.9994587995604
 20
252.6088251270844
 30
0.0
 10
513.9680550680168
 20
252.6305051429516
 30
0.0
 10
513.8584123873399
 20
252.7061985379707
 30
0.0
 10
513.6234279733413
 20
252.7275360339384
 30
0.0
 10
513.379406601835
 20
252.6852541754131
 30
0.0
 10
513.2409279283653
 20
252.6139638646
 30
0.0
 10
513.1859181037261
 20
252.5856442150969
 30
0.0
  0
SPLINE
  5
4FF
330
1F
100
AcDbEntity
  8
0
370
    15
100
AcDbSpline
210
0.0
220
0.0
230
1.0
 70
     8
 71
     3
 72
    14
 73
    10
 74
     0
 42
0.000000001
 43
0.0000000001
 40
0.0
 40
0.0
 40
0.0
 40
0.0
 40
0.1380865819460144
 40
0.3150669364477535
 40
0.4963483832357189
 40
0.6918551006432832
 40
0.8334606980687823
 40
0.9619800122133352
 40
1.0
 40
1.0
 40
1.0
 40
1.0
 10
513.1859181037261
 20
252.5856442150969
 30
0.0
 10
513.0980229490538
 20
252.5248250349495
 30
0.0
 10
512.8974758957419
 20
252.3860562096498
 30
0.0
 10
512.6512491916456
 20
252.050810190147
 30
0.0
 10
512.4823800773754
 20
251.6272880613895
 30
0.0
 10
512.4583515537563
 20
251.2191311482424
 30
0.0
 10
512.5771926884811
 20
250.8919807408301
 30
0.0
 10
512.7250429716143
 20
250.6969316005444
 30
0.0
 10
512.8405340755356
 20
250.6474135250649
 30
0.0
 10
512.8669000462685
 20
250.6361088263955
 30
0.0
  0
LINE
  5
500
330
1F
100
AcDbEntity
  8
0
370
    15
100
AcDbLine
 10
518.3047111366001
 20
250.1390316466
 30
0.0
 11
514.0108507963999
 21
252.6178244584
 31
0.0
  0
LINE
  5
501
330
1F
100
AcDbEntity
  8
0
370
    15
100
AcDbLine
 10
512.8609441697
 20
250.6259119816
 30
0.0
 11
517.4571383423
 21
247.9725855634
 31
0.0
  0
SPLINE
  5
502
330
1F
100
AcDbEntity
  8
0
370
    15
100
AcDbSpline
210
0.0
220
0.0
230
1.0
 70
     8
 71
     3
 72
    11
 73
     7
 74
     0
 42
0.000000001
 43
0.0000000001
 40
0.0
 40
0.0
 40
0.0
 40
0.0
 40
0.1324251586710102
 40
0.4623476999963903
 40
0.7864210260836194
 40
1.0
 40
1.0
 40
1.0
 40
1.0
 10
519.5997445091393
 20
255.8418012513925
 30
0.0
 10
519.568340778481
 20
255.8634812640675
 30
0.0
 10
519.4586981487346
 20
255.939174614914
 30
0.0
 10
519.2237136264907
 20
255.9605123445851
 30
0.0
 10
518.9796922833672
 20
255.9182302256831
 30
0.0
 10
518.8412134778626
 20
255.8469398821903
 30
0.0
 10
518.7862036486689
 20
255.8186202443626
 30
0.0
  0
SPLINE
  5
503
330
1F
100
AcDbEntity
  8
0
370
    15
100
AcDbSpline
210
0.0
220
0.0
230
1.0
 70
     8
 71
     3
 72
    14
 73
    10
 74
     0
 42
0.000000001
 43
0.0000000001
 40
0.0
 40
0.0
 40
0.0
 40
0.0
 40
0.13808649508765
 40
0.3150668535887403
 40
0.4963483568878941
 40
0.6918550584206236
 40
0.8334606688145749
 40
0.9619799492823052
 40
1.0
 40
1.0
 40
1.0
 40
1.0
 10
518.7862036486689
 20
255.8186202443626
 30
0.0
 10
518.6983085485876
 20
255.757801089317
 30
0.0
 10
518.4977615464289
 20
255.6190322704981
 30
0.0
 10
518.2515349293416
 20
255.2837862673256
 30
0.0
 10
518.082665558009
 20
254.8602641704579
 30
0.0
 10
518.058637211143
 20
254.4521071477496
 30
0.0
 10
518.1774786514319
 20
254.1249571596289
 30
0.0
 10
518.3253286907347
 20
253.929907509715
 30
0.0
 10
518.4408198891653
 20
253.8803897003816
 30
0.0
 10
518.4671859204835
 20
253.869085045746
 30
0.0
  0
LINE
  5
504
330
1F
100
AcDbEntity
  8
0
370
    15
100
AcDbLine
 10
524.2073308430999
 20
253.1974742596
 30
0.0
 11
519.6111366705999
 21
255.8508006777
 31
0.0
  0
LINE
  5
505
330
1F
100
AcDbEntity
  8
0
370
    15
100
AcDbLine
 10
518.461230044
 20
253.8588882009
 30
0.0
 11
523.0574242165
 21
251.2055617828
 31
0.0
  0
SPLINE
  5
506
330
1F
100
AcDbEntity
  8
0
370
    15
100
AcDbSpline
210
0.0
220
0.0
230
1.0
 70
     8
 71
     3
 72
    11
 73
     7
 74
     0
 42
0.000000001
 43
0.0000000001
 40
0.0
 40
0.0
 40
0.0
 40
0.0
 40
0.1324251522913237
 40
0.4623476777224253
 40
0.7864210121676605
 40
1.0
 40
1.0
 40
1.0
 40
1.0
 10
519.5997445091393
 20
250.6567669684644
 30
0.0
 10
519.5683407785822
 20
250.6784469831217
 30
0.0
 10
519.45869814919
 20
250.7541403408894
 30
0.0
 10
519.2237136140806
 20
250.7754779596766
 30
0.0
 10
518.9796922792486
 20
250.7331962522719
 30
0.0
 10
518.841213477626
 20
250.6619056877404
 30
0.0
 10
518.7862036486689
 20
250.6335859614345
 30
0.0
  0
SPLINE
  5
507
330
1F
100
AcDbEntity
  8
0
370
    15
100
AcDbSpline
210
0.0
220
0.0
230
1.0
 70
     8
 71
     3
 72
    14
 73
    10
 74
     0
 42
0.000000001
 43
0.0000000001
 40
0.0
 40
0.0
 40
0.0
 40
0.0
 40
0.1380864637777087
 40
0.3150668731221706
 40
0.4963482932537678
 40
0.6918549904006226
 40
0.8334605976178828
 40
0.9619799501352231
 40
1.0
 40
1.0
 40
1.0
 40
1.0
 10
518.7862036486689
 20
250.6335859614345
 30
0.0
 10
518.6983085386531
 20
250.5727668859722
 30
0.0
 10
518.4977614559215
 20
250.4339982086679
 30
0.0
 10
518.2515350434202
 20
250.0987520259755
 30
0.0
 10
518.0826655139591
 20
249.6752300395969
 30
0.0
 10
518.0586371978169
 20
249.2670730380776
 30
0.0
 10
518.1774787247073
 20
248.9399230471843
 30
0.0
 10
518.3253286311606
 20
248.7448732459299
 30
0.0
 10
518.4408198877507
 20
248.6953554168704
 30
0.0
 10
518.4671859204835
 20
248.6840507628179
 30
0.0
  0
LINE
  5
508
330
1F
100
AcDbEntity
  8
0
370
    15
100
AcDbLine
 10
524.2073308430999
 20
248.0124399766
 30
0.0
 11
519.6111366705999
 21
250.6657663948
 31
0.0
  0
LINE
  5
509
330
1F
100
AcDbEntity
  8
0
370
    15
100
AcDbLine
 10
518.461230044
 20
248.673853918
 30
0.0
 11
523.0574242165
 21
246.0205274998
 31
0.0
  0
LINE
  5
50A
330
1F
100
AcDbEntity
  8
0
370
    15
100
AcDbLine
 10
555.6735070919
 20
251.665862605
 30
0.0
 11
545.8667168065
 21
257.1194801647
 31
0.0
  0
LINE
  5
50B
330
1F
100
AcDbEntity
  8
0
370
    15
100
AcDbLine
 10
539.1419615751
 20
260.8591610451
 30
0.0
 11
536.2526311320999
 21
262.4659358376
 31
0.0
  0
SPLINE
  5
50C
330
1F
100
AcDbEntity
  8
0
370
    15
100
AcDbSpline
210
0.0
220
0.0
230
1.0
 70
     8
 71
     3
 72
    13
 73
     9
 74
     0
 42
0.000000001
 43
0.0000000001
 40
0.0
 40
0.0
 40
0.0
 40
0.0
 40
0.1591865503623269
 40
0.3228398492992076
 40
0.5018073049671265
 40
0.6893616723067963
 40
0.8563751304476218
 40
1.0
 40
1.0
 40
1.0
 40
1.0
 10
538.4183640649975
 20
256.6890787614469
 30
0.0
 10
538.4170325808198
 20
256.6664547920701
 30
0.0
 10
538.4143322512364
 20
256.620572028435
 30
0.0
 10
538.3859417412781
 20
256.5222419058721
 30
0.0
 10
538.3356756575042
 20
256.4166269147609
 30
0.0
 10
538.2681884963946
 20
256.320109031717
 30
0.0
 10
538.1975957909335
 20
256.2489205960596
 30
0.0
 10
538.1610678829969
 20
256.2251493561623
 30
0.0
 10
538.1441790590988
 20
256.2141586286023
 30
0.0
  0
LINE
  5
50D
330
1F
100
AcDbEntity
  8
0
370
    15
100
AcDbLine
 10
538.4183640649999
 20
259.4569897295
 30
0.0
 11
538.4183640649999
 21
256.6890787614
 31
0.0
  0
LINE
  5
50E
330
1F
100
AcDbEntity
  8
0
370
    15
100
AcDbLine
 10
538.1441790591
 20
256.2141586286
 30
0.0
 11
536.8078868853
 21
255.4427335769
 31
0.0
  0
SPLINE
  5
50F
330
1F
100
AcDbEntity
  8
0
370
    15
100
AcDbSpline
210
0.0
220
0.0
230
1.0
 70
     8
 71
     3
 72
     9
 73
     5
 74
     0
 42
0.000000001
 43
0.0000000001
 40
0.0
 40
0.0
 40
0.0
 40
0.0
 40
0.6056383235792313
 40
1.0
 40
1.0
 40
1.0
 40
1.0
 10
536.8078868852807
 20
255.442733576901
 30
0.0
 10
536.792905541901
 20
255.435873545409
 30
0.0
 10
536.7681690898036
 20
255.4245466012167
 30
0.0
 10
536.7697019020005
 20
255.4253737946877
 30
0.0
 10
536.7703063843881
 20
255.4257000080916
 30
0.0
  0
SPLINE
  5
510
330
1F
100
AcDbEntity
  8
0
370
    15
100
AcDbSpline
210
0.0
220
0.0
230
1.0
 70
     8
 71
     3
 72
    11
 73
     7
 74
     0
 42
0.000000001
 43
0.0000000001
 40
0.0
 40
0.0
 40
0.0
 40
0.0
 40
0.1882807108410491
 40
0.4799828814258139
 40
0.7842049393927933
 40
1.0
 40
1.0
 40
1.0
 40
1.0
 10
541.1276886107343
 20
260.6925855766252
 30
0.0
 10
540.9897552646067
 20
260.7588300295315
 30
0.0
 10
540.638122616614
 20
260.9277066140863
 30
0.0
 10
539.9665458441369
 20
261.0188415929915
 30
0.0
 10
539.263906085173
 20
260.9420240889356
 30
0.0
 10
538.8817812327501
 20
260.7593241119736
 30
0.0
 10
538.7232082690097
 20
260.6835078528675
 30
0.0
  0
LINE
  5
511
330
1F
100
AcDbEntity
  8
0
370
    15
100
AcDbLine
 10
530.1592044104999
 20
244.6761140807
 30
0.0
 11
535.1600056946
 21
241.7010031589
 31
0.0
  0
SPLINE
  5
512
330
1F
100
AcDbEntity
  8
0
370
    15
100
AcDbSpline
210
0.0
220
0.0
230
1.0
 70
     8
 71
     3
 72
     9
 73
     5
 74
     0
 42
0.000000001
 43
0.0000000001
 40
0.0
 40
0.0
 40
0.0
 40
0.0
 40
0.7322827044875984
 40
1.0
 40
1.0
 40
1.0
 40
1.0
 10
530.0956818658343
 20
244.7341131849074
 30
0.0
 10
530.1030915767096
 20
244.724380743703
 30
0.0
 10
530.113210224644
 20
244.711090191919
 30
0.0
 10
530.1274552995683
 20
244.7027387380742
 30
0.0
 10
530.1312689525012
 20
244.7005029094373
 30
0.0
  0
SPLINE
  5
513
330
1F
100
AcDbEntity
  8
0
370
    15
100
AcDbSpline
210
0.0
220
0.0
230
1.0
 70
     8
 71
     3
 72
     9
 73
     5
 74
     0
 42
0.000000001
 43
0.0000000001
 40
0.0
 40
0.0
 40
0.0
 40
0.0
 40
0.5669637405088759
 40
1.0
 40
1.0
 40
1.0
 40
1.0
 10
538.4133011748201
 20
259.5000788595893
 30
0.0
 10
538.4142577030362
 20
259.4987504629854
 30
0.0
 10
538.4159448095437
 20
259.496407461998
 30
0.0
 10
538.4176330120841
 20
259.4689010174167
 30
0.0
 10
538.4183640649975
 20
259.4569897295432
 30
0.0
  0
LINE
  5
514
330
1F
100
AcDbEntity
  8
0
370
    15
100
AcDbLine
 10
538.7232082689999
 20
260.6835078529
 30
0.0
 11
536.6712059725999
 21
259.498912142
 31
0.0
  0
LINE
  5
515
330
1F
100
AcDbEntity
  8
0
370
    15
100
AcDbLine
 10
544.7743195546999
 20
258.6240168508
 30
0.0
 11
541.1276886107
 21
260.6925855766
 31
0.0
  0
SPLINE
  5
516
330
1F
100
AcDbEntity
  8
0
370
    15
100
AcDbSpline
210
0.0
220
0.0
230
1.0
 70
     8
 71
     3
 72
    13
 73
     9
 74
     0
 42
0.000000001
 43
0.0000000001
 40
0.0
 40
0.0
 40
0.0
 40
0.0
 40
0.131208662635766
 40
0.3201812357068244
 40
0.5116426232269055
 40
0.7099781704496012
 40
0.9164111704876091
 40
1.0
 40
1.0
 40
1.0
 40
1.0
 10
536.0753930974076
 20
262.5217595598019
 30
0.0
 10
535.8060385597112
 20
262.6588093654174
 30
0.0
 10
535.1487475928622
 20
262.9932444189712
 30
0.0
 10
533.9654541022613
 20
263.1933475864793
 30
0.0
 10
532.6011320444912
 20
263.1709064421481
 30
0.0
 10
531.1814803520332
 20
262.8542783153097
 30
0.0
 10
530.02938837984
 20
262.3901114534529
 30
0.0
 10
529.359264693335
 20
262.0187338034972
 30
0.0
 10
529.1661245608481
 20
261.9116969534953
 30
0.0
  0
SPLINE
  5
517
330
1F
100
AcDbEntity
  8
0
370
    15
100
AcDbSpline
210
0.0
220
0.0
230
1.0
 70
     8
 71
     3
 72
    12
 73
     8
 74
     0
 42
0.000000001
 43
0.0000000001
 40
0.0
 40
0.0
 40
0.0
 40
0.0
 40
0.1777749094208079
 40
0.3613848512647594
 40
0.5695268853895592
 40
0.8149755270395443
 40
1.0
 40
1.0
 40
1.0
 40
1.0
 10
546.2615033730706
 20
253.9403871049275
 30
0.0
 10
546.3684457506182
 20
254.0218425827984
 30
0.0
 10
546.5858406311992
 20
254.1874271180458
 30
0.0
 10
546.7611205333567
 20
254.5928812479046
 30
0.0
 10
546.8044524363079
 20
255.0910651080718
 30
0.0
 10
546.6951823201108
 20
255.6340962738744
 30
0.0
 10
546.5193990356567
 20
255.977889994811
 30
0.0
 10
546.4438444691635
 20
256.1256582290269
 30
0.0
  0
SPLINE
  5
518
330
1F
100
AcDbEntity
  8
0
370
    15
100
AcDbSpline
210
0.0
220
0.0
230
1.0
 70
     8
 71
     3
 72
    10
 73
     6
 74
     0
 42
0.000000001
 43
0.0000000001
 40
0.0
 40
0.0
 40
0.0
 40
0.0
 40
0.1710582677019112
 40
0.5959581921986149
 40
1.0
 40
1.0
 40
1.0
 40
1.0
 10
532.0729189456597
 20
255.3955175872373
 30
0.0
 10
532.0277716461267
 20
255.4070580150827
 30
0.0
 10
531.870480780425
 20
255.4472642711636
 30
0.0
 10
531.6983010319416
 20
255.7035731135419
 30
0.0
 10
531.6583383242548
 20
256.0793828531414
 30
0.0
 10
531.6388597481023
 20
256.2625595960423
 30
0.0
  0
SPLINE
  5
519
330
1F
100
AcDbEntity
  8
0
370
    15
100
AcDbSpline
210
0.0
220
0.0
230
1.0
 70
     8
 71
     3
 72
    12
 73
     8
 74
     0
 42
0.000000001
 43
0.0000000001
 40
0.0
 40
0.0
 40
0.0
 40
0.0
 40
0.184788438698007
 40
0.4158630475306275
 40
0.6430278907746638
 40
0.8639801145108243
 40
1.0
 40
1.0
 40
1.0
 40
1.0
 10
534.1042166026894
 20
256.8750832631449
 30
0.0
 10
534.0000463700203
 20
256.6841093997772
 30
0.0
 10
533.7656131407286
 20
256.2543261656187
 30
0.0
 10
533.2554881654126
 20
255.729151108892
 30
0.0
 10
532.7106406320108
 20
255.389756830928
 30
0.0
 10
532.2876078396128
 20
255.2944283366951
 30
0.0
 10
532.1321530895895
 20
255.3676263670342
 30
0.0
 10
532.0729189456597
 20
255.3955175872373
 30
0.0
  0
SPLINE
  5
51A
330
1F
100
AcDbEntity
  8
0
370
    15
100
AcDbSpline
210
0.0
220
0.0
230
1.0
 70
     8
 71
     3
 72
    11
 73
     7
 74
     0
 42
0.000000001
 43
0.0000000001
 40
0.0
 40
0.0
 40
0.0
 40
0.0
 40
0.0093635420111165
 40
0.4616350901982786
 40
0.9096951976460292
 40
1.0
 40
1.0
 40
1.0
 40
1.0
 10
534.4840742945169
 20
258.4022666752109
 30
0.0
 10
534.4849349645803
 20
258.3989014031512
 30
0.0
 10
534.527367144823
 20
258.2329890092136
 30
0.0
 10
534.4444912713555
 20
257.7350505512978
 30
0.0
 10
534.3003653935313
 20
257.1923646834688
 30
0.0
 10
534.1323922527111
 20
256.9206589213942
 30
0.0
 10
534.1042166026894
 20
256.8750832631449
 30
0.0
  0
SPLINE
  5
51B
330
1F
100
AcDbEntity
  8
0
370
    15
100
AcDbSpline
210
0.0
220
0.0
230
1.0
 70
     8
 71
     3
 72
     9
 73
     5
 74
     0
 42
0.000000001
 43
0.0000000001
 40
0.0
 40
0.0
 40
0.0
 40
0.0
 40
0.50634270057754
 40
1.0
 40
1.0
 40
1.0
 40
1.0
 10
534.1406420165149
 20
259.0933451884144
 30
0.0
 10
534.2270184387094
 20
259.031624262749
 30
0.0
 10
534.3976072950231
 20
258.9097287054614
 30
0.0
 10
534.4554967449842
 20
258.5699840863666
 30
0.0
 10
534.4840742945169
 20
258.4022666752109
 30
0.0
  0
SPLINE
  5
51C
330
1F
100
AcDbEntity
  8
0
370
    15
100
AcDbSpline
210
0.0
220
0.0
230
1.0
 70
     8
 71
     3
 72
    11
 73
     7
 74
     0
 42
0.000000001
 43
0.0000000001
 40
0.0
 40
0.0
 40
0.0
 40
0.0
 40
0.0885444566561248
 40
0.4843474159859233
 40
0.8464121833875733
 40
1.0
 40
1.0
 40
1.0
 40
1.0
 10
535.3850454995008
 20
240.7293942393216
 30
0.0
 10
535.3846819913573
 20
240.7222188965751
 30
0.0
 10
535.3826935638868
 20
240.6829690231291
 30
0.0
 10
535.4144445043827
 20
240.6184725358764
 30
0.0
 10
535.4604239023475
 20
240.5590749334287
 30
0.0
 10
535.4977317667963
 20
240.5397423514472
 30
0.0
 10
535.5088439644673
 20
240.5339841158675
 30
0.0
  0
LINE
  5
51D
330
1F
100
AcDbEntity
  8
0
370
    15
100
AcDbLine
 10
546.4438444692
 20
256.125658229
 30
0.0
 11
545.3157735321
 21
258.0682168761
 31
0.0
  0
LINE
  5
51E
330
1F
100
AcDbEntity
  8
0
370
    15
100
AcDbLine
 10
535.3467096480999
 20
241.1750429102
 30
0.0
 11
535.3820471463999
 21
240.7290212645
 31
0.0
  0
LINE
  5
51F
330
1F
100
AcDbEntity
  8
0
370
    15
100
AcDbLine
 10
535.5069295756
 20
240.5319884532
 30
0.0
 11
540.1224092239999
 21
237.7485152427
 31
0.0
  0
SPLINE
  5
520
330
1F
100
AcDbEntity
  8
0
370
    15
100
AcDbSpline
210
0.0
220
0.0
230
1.0
 70
     8
 71
     3
 72
     9
 73
     5
 74
     0
 42
0.000000001
 43
0.0000000001
 40
0.0
 40
0.0
 40
0.0
 40
0.0
 40
0.5191340328471382
 40
1.0
 40
1.0
 40
1.0
 40
1.0
 10
545.3157735320574
 20
258.0682168761344
 30
0.0
 10
545.2445038632016
 20
258.1788615943233
 30
0.0
 10
545.1072181829225
 20
258.391994833888
 30
0.0
 10
544.8996210746684
 20
258.5290612594115
 30
0.0
 10
544.7997946904297
 20
258.5949718386852
 30
0.0
  0
SPLINE
  5
521
330
1F
100
AcDbEntity
  8
0
370
    15
100
AcDbSpline
210
0.0
220
0.0
230
1.0
 70
     8
 71
     3
 72
     9
 73
     5
 74
     0
 42
0.000000001
 43
0.0000000001
 40
0.0
 40
0.0
 40
0.0
 40
0.0
 40
0.9956908562224503
 40
1.0
 40
1.0
 40
1.0
 40
1.0
 10
535.1585898239072
 20
241.6977920334284
 30
0.0
 10
535.182547917183
 20
241.684290399382
 30
0.0
 10
535.2066096961238
 20
241.6707303330601
 30
0.0
 10
535.2133090530858
 20
241.6490104845445
 30
0.0
 10
535.2133379215784
 20
241.6489168905944
 30
0.0
  0
SPLINE
  5
522
330
1F
100
AcDbEntity
  8
0
370
    15
100
AcDbSpline
210
0.0
220
0.0
230
1.0
 70
     8
 71
     3
 72
    23
 73
    19
 74
     0
 42
0.000000001
 43
0.0000000001
 40
0.0
 40
0.0
 40
0.0
 40
0.0
 40
0.0364438637090503
 40
0.1052783290882673
 40
0.1740317383964008
 40
0.2426693743099497
 40
0.3112233046400013
 40
0.3797497240436425
 40
0.4483093517763017
 40
0.5169523629598202
 40
0.58574817933526
 40
0.6547592649240118
 40
0.7240151796216163
 40
0.7934296765582675
 40
0.862544775631915
 40
0.9306273471260462
 40
0.99707234110103
 40
1.0
 40
1.0
 40
1.0
 40
1.0
 10
549.7993151054311
 20
230.2497152897984
 30
0.0
 10
550.0550743571077
 20
230.4049809558078
 30
0.0
 10
550.7939067399845
 20
230.8535094107691
 30
0.0
 10
551.9928185201471
 20
231.7877405147756
 30
0.0
 10
553.3485889661977
 20
233.1015104027149
 30
0.0
 10
554.6057097666168
 20
234.6040207038981
 30
0.0
 10
555.7346118523851
 20
236.2528754689684
 30
0.0
 10
556.7085089754388
 20
238.0089411297467
 30
0.0
 10
557.503808880602
 20
239.8294957405686
 30
0.0
 10
558.1005390188578
 20
241.6712596042317
 30
0.0
 10
558.4826523688408
 20
243.4910487972449
 30
0.0
 10
558.6376784960763
 20
245.2465292333601
 30
0.0
 10
558.5570929483402
 20
246.8974894202254
 30
0.0
 10
558.2339393818251
 20
248.3988318095614
 30
0.0
 10
557.6757553277336
 20
249.7186807857422
 30
0.0
 10
556.872960800183
 20
250.7695862143782
 30
0.0
 10
556.2304241183698
 20
251.3906751536824
 30
0.0
 10
555.830685655476
 20
251.5691950054958
 30
0.0
 10
555.8138159262719
 20
251.5767288853627
 30
0.0
  0
SPLINE
  5
523
330
1F
100
AcDbEntity
  8
0
370
    15
100
AcDbSpline
210
0.0
220
0.0
230
1.0
 70
     8
 71
     3
 72
    11
 73
     7
 74
     0
 42
0.000000001
 43
0.0000000001
 40
0.0
 40
0.0
 40
0.0
 40
0.0
 40
0.067075876130107
 40
0.4083309184765306
 40
0.7031031790998871
 40
1.0
 40
1.0
 40
1.0
 40
1.0
 10
505.4376358758548
 20
235.540890599483
 30
0.0
 10
505.465450601183
 20
235.4416225763276
 30
0.0
 10
505.6347754463534
 20
234.837318832434
 30
0.0
 10
506.112579570724
 20
233.9036311757557
 30
0.0
 10
506.9331555786833
 20
232.8033781400361
 30
0.0
 10
507.6293218533248
 20
232.303420437654
 30
0.0
 10
507.9786548845974
 20
232.0525439645425
 30
0.0
  0
LINE
  5
524
330
1F
100
AcDbEntity
  8
0
370
    15
100
AcDbLine
 10
529.1661245608
 20
261.9116969535
 30
0.0
 11
516.1818741466
 21
254.4160487387
 31
0.0
  0
LINE
  5
525
330
1F
100
AcDbEntity
  8
0
370
    15
100
AcDbLine
 10
508.0891296771
 20
231.9735222685
 30
0.0
 11
527.1537765219999
 21
220.5563751909
 31
0.0
  0
LINE
  5
526
330
1F
100
AcDbEntity
  8
0
370
    15
100
AcDbLine
 10
533.9601237716
 20
221.1059447634
 30
0.0
 11
549.7993151053999
 21
230.2497152898
 31
0.0
  0
LINE
  5
527
330
1F
100
AcDbEntity
  8
0
370
    15
100
AcDbLine
 10
514.4670509187999
 20
252.796954158
 30
0.0
 11
514.2416535243
 21
252.4845847567
 31
0.0
  0
SPLINE
  5
528
330
1F
100
AcDbEntity
  8
0
370
    15
100
AcDbSpline
210
0.0
220
0.0
230
1.0
 70
     8
 71
     3
 72
    13
 73
     9
 74
     0
 42
0.000000001
 43
0.0000000001
 40
0.0
 40
0.0
 40
0.0
 40
0.0
 40
0.1591862339134844
 40
0.3228394507154241
 40
0.5018051924154048
 40
0.6893618059510866
 40
0.8563724421497941
 40
1.0
 40
1.0
 40
1.0
 40
1.0
 10
505.2550570451947
 20
237.5443091267948
 30
0.0
 10
505.2537250260251
 20
237.5216848165357
 30
0.0
 10
505.2510236094108
 20
237.4758013270072
 30
0.0
 10
505.2226332983344
 20
237.3774720049711
 30
0.0
 10
505.1723687035333
 20
237.2718562375748
 30
0.0
 10
505.104880482289
 20
237.17533975969
 30
0.0
 10
505.0342882701648
 20
237.1041502364897
 30
0.0
 10
504.9977600252801
 20
237.0803791162795
 30
0.0
 10
504.980870722207
 20
237.069388233611
 30
0.0
  0
LINE
  5
529
330
1F
100
AcDbEntity
  8
0
370
    15
100
AcDbLine
 10
505.2550570451999
 20
240.3122200949
 30
0.0
 11
505.2550570451999
 21
237.5443091268
 31
0.0
  0
LINE
  5
52A
330
1F
100
AcDbEntity
  8
0
370
    15
100
AcDbLine
 10
504.9808707221999
 20
237.0693882336
 30
0.0
 11
503.6445785484
 21
236.2979631819
 31
0.0
  0
SPLINE
  5
52B
330
1F
100
AcDbEntity
  8
0
370
    15
100
AcDbSpline
210
0.0
220
0.0
230
1.0
 70
     8
 71
     3
 72
    11
 73
     7
 74
     0
 42
0.000000001
 43
0.0000000001
 40
0.0
 40
0.0
 40
0.0
 40
0.0
 40
0.0167514031152094
 40
0.3550582286808037
 40
0.6634127762860729
 40
1.0
 40
1.0
 40
1.0
 40
1.0
 10
502.5679201810208
 20
234.9758290346864
 30
0.0
 10
502.5660848700531
 20
234.9671055381832
 30
0.0
 10
502.5271841130963
 20
234.7822046558499
 30
0.0
 10
502.6461879044386
 20
234.4212305757936
 30
0.0
 10
502.9124381205029
 20
233.9727887524156
 30
0.0
 10
503.1972858646873
 20
233.7743210038087
 30
0.0
 10
503.3459444190868
 20
233.6707431127942
 30
0.0
  0
LINE
  5
52C
330
1F
100
AcDbEntity
  8
0
370
    15
100
AcDbLine
 10
511.4765858201
 20
251.0557314642
 30
0.0
 11
510.6517153598999
 21
249.483783778
 31
0.0
  0
SPLINE
  5
52D
330
1F
100
AcDbEntity
  8
0
370
    15
100
AcDbSpline
210
0.0
220
0.0
230
1.0
 70
     8
 71
     3
 72
     9
 73
     5
 74
     0
 42
0.000000001
 43
0.0000000001
 40
0.0
 40
0.0
 40
0.0
 40
0.0
 40
0.6056383235792313
 40
1.0
 40
1.0
 40
1.0
 40
1.0
 10
503.6445785483889
 20
236.2979631819097
 30
0.0
 10
503.6295972050092
 20
236.2911031504177
 30
0.0
 10
503.6048607529118
 20
236.2797762062253
 30
0.0
 10
503.6063935651086
 20
236.2806033996964
 30
0.0
 10
503.6069980474963
 20
236.2809296131003
 30
0.0
  0
SPLINE
  5
52E
330
1F
100
AcDbEntity
  8
0
370
    15
100
AcDbSpline
210
0.0
220
0.0
230
1.0
 70
     8
 71
     3
 72
    12
 73
     8
 74
     0
 42
0.000000001
 43
0.0000000001
 40
0.0
 40
0.0
 40
0.0
 40
0.0
 40
0.1424415540068458
 40
0.4071120310424708
 40
0.6725186781932927
 40
0.9306495286578771
 40
1.0
 40
1.0
 40
1.0
 40
1.0
 10
510.6517153599133
 20
249.4837837779612
 30
0.0
 10
510.5837152552678
 20
249.3639042565258
 30
0.0
 10
510.3893642394679
 20
249.0212767431416
 30
0.0
 10
509.9709374591304
 20
248.5300770107557
 30
0.0
 10
509.4421204848196
 20
248.1428040875138
 30
0.0
 10
509.0744951175898
 20
248.0281998494061
 30
0.0
 10
508.9159188857606
 20
248.0282173871947
 30
0.0
 10
508.8823373173207
 20
248.0282211011589
 30
0.0
  0
LINE
  5
52F
330
1F
100
AcDbEntity
  8
0
370
    15
100
AcDbLine
 10
502.5626202148
 20
238.9929863563
 30
0.0
 11
502.5626202148
 21
234.9419119409
 31
0.0
  0
LINE
  5
530
330
1F
100
AcDbEntity
  8
0
370
    15
100
AcDbLine
 10
508.6814061683
 20
247.882239219
 30
0.0
 11
507.5968347300999
 21
244.9006648515
 31
0.0
  0
SPLINE
  5
531
330
1F
100
AcDbEntity
  8
0
370
    15
100
AcDbSpline
210
0.0
220
0.0
230
1.0
 70
     8
 71
     3
 72
     9
 73
     5
 74
     0
 42
0.000000001
 43
0.0000000001
 40
0.0
 40
0.0
 40
0.0
 40
0.0
 40
0.5762102369935521
 40
1.0
 40
1.0
 40
1.0
 40
1.0
 10
505.7153704366515
 20
242.657043637325
 30
0.0
 10
505.6401749452549
 20
242.4148148070437
 30
0.0
 10
505.5096748489898
 20
241.9944320808618
 30
0.0
 10
505.4218372018955
 20
241.5773498209939
 30
0.0
 10
505.3846125062501
 20
241.4005946289303
 30
0.0
  0
SPLINE
  5
532
330
1F
100
AcDbEntity
  8
0
370
    15
100
AcDbSpline
210
0.0
220
0.0
230
1.0
 70
     8
 71
     3
 72
    13
 73
     9
 74
     0
 42
0.000000001
 43
0.0000000001
 40
0.0
 40
0.0
 40
0.0
 40
0.0
 40
0.0361536970832164
 40
0.2734578542677323
 40
0.5150462193186848
 40
0.7434793985703468
 40
0.9428159173479
 40
1.0
 40
1.0
 40
1.0
 40
1.0
 10
511.7556084939534
 20
251.1580015394078
 30
0.0
 10
511.7522151784902
 20
251.1599808303393
 30
0.0
 10
511.7265489578742
 20
251.1749517100766
 30
0.0
 10
511.6674395584634
 20
251.1796804947185
 30
0.0
 10
511.5902677316845
 20
251.1659511876046
 30
0.0
 10
511.5277368386873
 20
251.1255334916473
 30
0.0
 10
511.4910586044692
 20
251.0855274986659
 30
0.0
 10
511.4802423162463
 20
251.0603412087633
 30
0.0
 10
511.4778311277638
 20
251.0547266309264
 30
0.0
  0
LINE
  5
533
330
1F
100
AcDbEntity
  8
0
370
    15
100
AcDbLine
 10
505.4075561969
 20
241.4507912915
 30
0.0
 11
503.3555539005
 21
240.2661955807
 31
0.0
  0
LINE
  5
534
330
1F
100
AcDbEntity
  8
0
370
    15
100
AcDbLine
 10
512.2457236586
 20
250.8887180034
 30
0.0
 11
511.7824810611
 21
251.14819929
 31
0.0
  0
SPLINE
  5
535
330
1F
100
AcDbEntity
  8
0
370
    15
100
AcDbSpline
210
0.0
220
0.0
230
1.0
 70
     8
 71
     3
 72
     9
 73
     5
 74
     0
 42
0.000000001
 43
0.0000000001
 40
0.0
 40
0.0
 40
0.0
 40
0.0
 40
0.5669613996257941
 40
1.0
 40
1.0
 40
1.0
 40
1.0
 10
505.2499928379283
 20
240.3553084645979
 30
0.0
 10
505.2509492057855
 20
240.3539799262098
 30
0.0
 10
505.2526360364195
 20
240.351636665471
 30
0.0
 10
505.2543254597012
 20
240.3241310765989
 30
0.0
 10
505.2550570451947
 20
240.3122200948912
 30
0.0
  0
LINE
  5
536
330
1F
100
AcDbEntity
  8
0
370
    15
100
AcDbLine
 10
503.3459444191
 20
233.6707431128
 30
0.0
 11
506.9630528126999
 21
231.5460244145
 31
0.0
  0
SPLINE
  5
537
330
1F
100
AcDbEntity
  8
0
370
    15
100
AcDbSpline
210
0.0
220
0.0
230
1.0
 70
     8
 71
     3
 72
    10
 73
     6
 74
     0
 42
0.000000001
 43
0.0000000001
 40
0.0
 40
0.0
 40
0.0
 40
0.0
 40
0.0592926734697583
 40
0.6411007390507776
 40
1.0
 40
1.0
 40
1.0
 40
1.0
 10
506.3281737601988
 20
243.2291256717377
 30
0.0
 10
506.3101985991369
 20
243.2177808376167
 30
0.0
 10
506.1158425620948
 20
243.0951150660505
 30
0.0
 10
505.8888033094933
 20
242.9622849129968
 30
0.0
 10
505.7643191110367
 20
242.75405934996
 30
0.0
 10
505.7168258200142
 20
242.674616999957
 30
0.0
  0
SPLINE
  5
538
330
1F
100
AcDbEntity
  8
0
370
    15
100
AcDbSpline
210
0.0
220
0.0
230
1.0
 70
     8
 71
     3
 72
    12
 73
     8
 74
     0
 42
0.000000001
 43
0.0000000001
 40
0.0
 40
0.0
 40
0.0
 40
0.0
 40
0.1302778556776492
 40
0.4210294158611467
 40
0.7304046632131401
 40
0.9847864598713858
 40
1.0
 40
1.0
 40
1.0
 40
1.0
 10
508.8936537461458
 20
248.0243884948094
 30
0.0
 10
508.8817565160028
 20
248.0254365363646
 30
0.0
 10
508.8433072812384
 20
248.0288235764837
 30
0.0
 10
508.7774625081396
 20
248.0036917331152
 30
0.0
 10
508.7179155170888
 20
247.9526019256964
 30
0.0
 10
508.6871765209586
 20
247.9064087868717
 30
0.0
 10
508.682003643709
 20
247.8828737927013
 30
0.0
 10
508.6817117329637
 20
247.8815456889496
 30
0.0
  0
SPLINE
  5
539
330
1F
100
AcDbEntity
  8
0
370
    15
100
AcDbSpline
210
0.0
220
0.0
230
1.0
 70
     8
 71
     3
 72
    10
 73
     6
 74
     0
 42
0.000000001
 43
0.0000000001
 40
0.0
 40
0.0
 40
0.0
 40
0.0
 40
0.3253272921351576
 40
0.6805605669958243
 40
1.0
 40
1.0
 40
1.0
 40
1.0
 10
503.3555539005474
 20
240.266195580666
 30
0.0
 10
503.2183296405213
 20
240.1720490448561
 30
0.0
 10
502.9312666658901
 20
239.9751014743928
 30
0.0
 10
502.6327707797395
 20
239.5379378786588
 30
0.0
 10
502.5885012801623
 20
239.1920302145816
 30
0.0
 10
502.5675408593843
 20
239.0282522126014
 30
0.0
  0
SPLINE
  5
53A
330
1F
100
AcDbEntity
  8
0
370
    15
100
AcDbSpline
210
0.0
220
0.0
230
1.0
 70
     8
 71
     3
 72
    14
 73
    10
 74
     0
 42
0.000000001
 43
0.0000000001
 40
0.0
 40
0.0
 40
0.0
 40
0.0
 40
0.0062782152697394
 40
0.1929186133468213
 40
0.3786384985118006
 40
0.5664209329269604
 40
0.7582192664905829
 40
0.9459043115204035
 40
1.0
 40
1.0
 40
1.0
 40
1.0
 10
527.0630132837671
 20
220.6183237162189
 30
0.0
 10
527.0737177063478
 20
220.6095119165914
 30
0.0
 10
527.4026459562163
 20
220.3387406715512
 30
0.0
 10
528.2093186286088
 20
220.0556650408467
 30
0.0
 10
529.4409263459796
 20
219.8110619193167
 30
0.0
 10
530.7805359558983
 20
219.8850802914109
 30
0.0
 10
532.1624733348809
 20
220.2338300730735
 30
0.0
 10
533.2337989295703
 20
220.6982277842519
 30
0.0
 10
533.8273283223363
 20
221.0314010382214
 30
0.0
 10
533.9601237716201
 20
221.1059447634177
 30
0.0
  0
SPLINE
  5
53B
330
1F
100
AcDbEntity
  8
0
370
    15
100
AcDbSpline
210
0.0
220
0.0
230
1.0
 70
     8
 71
     3
 72
    10
 73
     6
 74
     0
 42
0.000000001
 43
0.0000000001
 40
0.0
 40
0.0
 40
0.0
 40
0.0
 40
0.0118449276743376
 40
0.7130401480420843
 40
1.0
 40
1.0
 40
1.0
 40
1.0
 10
507.505424801161
 20
231.5667067159341
 30
0.0
 10
507.5055831965252
 20
231.5667982986376
 30
0.0
 10
507.5151182698432
 20
231.5723113879694
 30
0.0
 10
507.5567038412091
 20
231.5963036455623
 30
0.0
 10
507.6008176426938
 20
231.6217707524746
 30
0.0
 10
507.6136282736343
 20
231.6291663905015
 30
0.0
  0
SPLINE
  5
53C
330
1F
100
AcDbEntity
  8
0
370
    15
100
AcDbSpline
210
0.0
220
0.0
230
1.0
 70
     8
 71
     3
 72
    21
 73
    17
 74
     0
 42
0.000000001
 43
0.0000000001
 40
0.0
 40
0.0
 40
0.0
 40
0.0
 40
0.083162508598364
 40
0.2505337102989038
 40
0.3917916347690777
 40
0.5075261635508401
 40
0.5963110264490524
 40
0.6564128752492703
 40
0.6886333631621561
 40
0.6950429476082589
 40
0.6983118118251755
 40
0.7010981427105266
 40
0.7051846826075085
 40
0.713497027896417
 40
0.7398011895020506
 40
1.0
 40
1.0
 40
1.0
 40
1.0
 10
506.9749586389025
 20
231.5453381337934
 30
0.0
 10
506.9921132255235
 20
231.5342086421207
 30
0.0
 10
507.0437927901165
 20
231.500680158078
 30
0.0
 10
507.1397826932831
 20
231.479689499661
 30
0.0
 10
507.2437175558208
 20
231.4747146625831
 30
0.0
 10
507.3279273868706
 20
231.4878492784875
 30
0.0
 10
507.3899394577693
 20
231.5071862438859
 30
0.0
 10
507.4305957896994
 20
231.5249612064307
 30
0.0
 10
507.4520894370314
 20
231.5361480209531
 30
0.0
 10
507.4609492852322
 20
231.5410855844067
 30
0.0
 10
507.4629267891128
 20
231.5422044707524
 30
0.0
 10
507.4639415375618
 20
231.5427813650781
 30
0.0
 10
507.4648137373338
 20
231.5432805901292
 30
0.0
 10
507.4658347209513
 20
231.5438640572445
 30
0.0
 10
507.4690657625577
 20
231.5457324162661
 30
0.0
 10
507.4881199763068
 20
231.5567241477438
 30
0.0
 10
507.505424801161
 20
231.5667067159341
 30
0.0
  0
LINE
  5
53D
330
1F
100
AcDbEntity
  8
0
370
    15
100
AcDbLine
 10
932.4039218578
 20
30.3243805613
 30
0.0
 11
927.6783934951
 21
33.1887561836
 31
0.0
  0
SPLINE
  5
53E
330
1F
100
AcDbEntity
  8
0
370
    15
100
AcDbSpline
210
0.0
220
0.0
230
1.0
 70
     8
 71
     3
 72
    20
 73
    16
 74
     0
 42
0.000000001
 43
0.0000000001
 40
0.0
 40
0.0
 40
0.0
 40
0.0
 40
0.0440679284542525
 40
0.1266398715695547
 40
0.2090121543479443
 40
0.2911608326612172
 40
0.3732067890593683
 40
0.4553356701534753
 40
0.5376885871094529
 40
0.6204809949463169
 40
0.7038911560874956
 40
0.7878907589546844
 40
0.8713950986420522
 40
0.9442337463068172
 40
1.0
 40
1.0
 40
1.0
 40
1.0
 10
928.2721444675146
 20
14.95715607479514
 30
0.0
 10
928.4942204238337
 20
15.09334453548494
 30
0.0
 10
929.1324095008643
 20
15.48471508036822
 30
0.0
 10
930.1528248507468
 20
16.32338919178372
 30
0.0
 10
931.2779470597874
 20
17.5122952734566
 30
0.0
 10
932.2830287452779
 20
18.87137999963587
 30
0.0
 10
933.1363191615093
 20
20.34944203031852
 30
0.0
 10
933.809662587206
 20
21.89898282777641
 30
0.0
 10
934.2793657438457
 20
23.47022966609483
 30
0.0
 10
934.5260559138436
 20
25.01508429284954
 30
0.0
 10
934.5328014768192
 20
26.48580122281606
 30
0.0
 10
934.2878891000612
 20
27.83630401980461
 30
0.0
 10
933.793003360312
 20
28.95716505890908
 30
0.0
 10
933.1637108854543
 20
29.80166316327873
 30
0.0
 10
932.6417398077452
 20
30.13372534061512
 30
0.0
 10
932.4154002885457
 20
30.27771568178975
 30
0.0
  0
LINE
  5
53F
330
1F
100
AcDbEntity
  8
0
370
    15
100
AcDbLine
 10
912.0086884685999
 20
5.568462770599999
 30
0.0
 11
928.2721444674999
 21
14.9571560748
 31
0.0
  0
LINE
  5
540
330
1F
100
AcDbEntity
  8
0
370
    15
100
AcDbLine
 10
902.1707572598
 20
7.786937706199999
 30
0.0
 11
907.0143929457
 21
5.127152781999999
 31
0.0
  0
SPLINE
  5
541
330
1F
100
AcDbEntity
  8
0
370
    15
100
AcDbSpline
210
0.0
220
0.0
230
1.0
 70
     8
 71
     3
 72
    13
 73
     9
 74
     0
 42
0.000000001
 43
0.0000000001
 40
0.0
 40
0.0
 40
0.0
 40
0.0
 40
0.0288291646324051
 40
0.2505402320045361
 40
0.4715493641498443
 40
0.6985917452074281
 40
0.9341561795893401
 40
1.0
 40
1.0
 40
1.0
 40
1.0
 10
907.0060570893566
 20
5.152820542115827
 30
0.0
 10
907.0439064634156
 20
5.124924569784693
 30
0.0
 10
907.3728369433251
 20
4.882494257669732
 30
0.0
 10
908.1466793764343
 20
4.691842203308093
 30
0.0
 10
909.2627710026258
 20
4.61200968842207
 30
0.0
 10
910.4536874749454
 20
4.84304767950311
 30
0.0
 10
911.3762362982763
 20
5.215247497221936
 30
0.0
 10
911.8952975038412
 20
5.505135577641429
 30
0.0
 10
912.0086884686141
 20
5.568462770586007
 30
0.0
  0
LWPOLYLINE
  5
542
330
1F
100
AcDbEntity
  8
0
370
    15
100
AcDbPolyline
 90
       11
 70
   128
 43
0.0
 10
922.4689027491999
 20
17.9682902172
 10
923.7575821550999
 20
18.8602774397
 10
924.9957419775999
 20
20.0133925873
 10
926.1348441938
 20
21.3824318364
 10
927.1302315834001
 20
22.9137243856
 10
927.9428834088001
 20
24.5472399138
 10
928.5409419208001
 20
26.2189411191
 10
928.9009603007999
 20
27.863292084
 10
929.0088272570001
 20
29.4158315467
 10
928.8603122996001
 20
30.8156950685
 10
928.4612382789999
 20
32.0080048671
  0
LINE
  5
543
330
1F
100
AcDbEntity
  8
0
370
    15
100
AcDbLine
 10
922.4689027491999
 20
17.9682902172
 30
0.0
 11
906.2054467502999
 21
8.579596912999999
 31
0.0
  0
LWPOLYLINE
  5
544
330
1F
100
AcDbEntity
  8
0
370
    15
100
AcDbPolyline
 90
        3
 70
   128
 43
0.0
 10
928.4464526377
 20
32.024483394
 10
928.4544091723999
 20
32.0181194742
 10
928.4612382789999
 20
32.0080048671
  0
ARC
  5
545
330
1F
100
AcDbEntity
  8
0
370
    15
100
AcDbCircle
 10
903.4968218073
 20
12.352805617
 30
0.0
 40
4.644755430109079
100
AcDbArc
 50
245.6375123681
 51
305.6729470584
  0
ARC
  5
546
330
1F
100
AcDbEntity
  8
0
370
    15
100
AcDbCircle
 10
928.4795586618999
 20
31.9056698257
 30
0.0
 40
0.2560598699939053
100
AcDbArc
 50
313.3692487681
 51
16.6222548869
  0
LINE
  5
547
330
1F
100
AcDbEntity
  8
0
370
    15
100
AcDbLine
 10
928.6090156666
 20
31.6686234036
 30
0.0
 11
928.6553943221001
 21
31.7195288103
 31
0.0
  0
ARC
  5
548
330
1F
100
AcDbEntity
  8
0
370
    15
100
AcDbCircle
 10
925.7400433167999
 20
30.4316971252
 30
0.0
 40
3.362048754240073
100
AcDbArc
 50
27.400138627
 51
59.48728789279999
  0
LWPOLYLINE
  5
549
330
1F
100
AcDbEntity
  8
0
370
    15
100
AcDbPolyline
 90
       17
 70
   128
 43
0.0
 10
513.0823435405999
 20
247.1716881454
 10
512.9064548636001
 20
247.0297486615
 10
512.7573435941
 20
246.8286160358
 10
512.6577104198999
 20
246.5989108382
 10
512.6227239258001
 20
246.3756038129
 10
512.6577104198999
 20
246.1926911437
 10
512.7573435941
 20
246.0780201506
 10
512.9064548636001
 20
246.0490477321
 10
513.0823435405999
 20
246.110184992
 10
513.2582322176
 20
246.252124476
 10
513.4073434870999
 20
246.4532571017
 10
513.5069764966999
 20
246.6829620141
 10
513.5419628260999
 20
246.9062691345
 10
513.5069764966999
 20
247.0891817087
 10
513.4073434870999
 20
247.2038529869
 10
513.2582322176
 20
247.2328254053
 10
513.0823435405999
 20
247.1716881454
  0
LWPOLYLINE
  5
54A
330
1F
100
AcDbEntity
  8
0
370
    15
100
AcDbPolyline
 90
        8
 70
   128
 43
0.0
 10
518.0320918201999
 20
242.8444856594
 10
518.3432794542
 20
243.0956094057
 10
518.6070917256
 20
243.451459231
 10
518.7833654864999
 20
243.8578605809
 10
518.8452645543
 20
244.2529423362
 10
518.7833654864999
 20
244.576556949
 10
518.6070917256
 20
244.7794367565
 10
518.6070449689
 20
244.7794637573
  0
LWPOLYLINE
  5
54B
330
1F
100
AcDbEntity
  8
0
370
    15
100
AcDbPolyline
 90
        3
 70
   128
 43
0.0
 10
517.4571383423
 20
242.7875512805
 10
517.7209038569999
 20
242.7363196211
 10
518.0320918201999
 20
242.8444856594
  0
LWPOLYLINE
  5
54C
330
1F
100
AcDbEntity
  8
0
370
    15
100
AcDbPolyline
 90
       17
 70
   128
 43
0.0
 10
513.0823435405999
 20
252.3567222383
 10
512.9064548636001
 20
252.2147827543
 10
512.7573435941
 20
252.0136501286
 10
512.6577104198999
 20
251.7839451211
 10
512.6227239258001
 20
251.5606379057
 10
512.6577104198999
 20
251.3777254266
 10
512.7573435941
 20
251.2630542434
 10
512.9064548636001
 20
251.2340818249
 10
513.0823435405999
 20
251.2952190849
 10
513.2582322176
 20
251.4371585688
 10
513.4073434870999
 20
251.6382911945
 10
513.5069764966999
 20
251.867996297
 10
513.5419628260999
 20
252.0913032273
 10
513.5069764966999
 20
252.2742159916
 10
513.4073434870999
 20
252.3888870797
 10
513.2582322176
 20
252.4178594982
 10
513.0823435405999
 20
252.3567222383
  0
LWPOLYLINE
  5
54D
330
1F
100
AcDbEntity
  8
0
370
    15
100
AcDbPolyline
 90
        3
 70
   128
 43
0.0
 10
518.0320918201999
 20
248.0295199424
 10
518.3432794542
 20
248.2806434985
 10
518.5864493187
 20
248.6015664397
  0
LWPOLYLINE
  5
54E
330
1F
100
AcDbEntity
  8
0
370
    15
100
AcDbPolyline
 90
        3
 70
   128
 43
0.0
 10
517.4571383423
 20
247.9725855634
 10
517.7209038569999
 20
247.9213537139
 10
518.0320918201999
 20
248.0295199424
  0
LWPOLYLINE
  5
54F
330
1F
100
AcDbEntity
  8
0
370
    15
100
AcDbPolyline
 90
       17
 70
   128
 43
0.0
 10
518.6826290855
 20
255.5896982675
 10
518.5067404085
 20
255.4477587836
 10
518.3576291389999
 20
255.2466261579
 10
518.2579961294
 20
255.0169212454
 10
518.2230097999999
 20
254.793614125
 10
518.2579961294
 20
254.6107015509
 10
518.3576291389999
 20
254.4960302727
 10
518.5067404085
 20
254.4670578542
 10
518.6826290855
 20
254.5281951141
 10
518.8585177624999
 20
254.6701345981
 10
519.0076290319999
 20
254.8712672238
 10
519.1072622063
 20
255.1009724213
 10
519.1422487004
 20
255.3242794467
 10
519.1072622063
 20
255.5071921159
 10
519.0076290319999
 20
255.621863109
 10
518.8585177624999
 20
255.6508355274
 10
518.6826290855
 20
255.5896982675
  0
LWPOLYLINE
  5
550
330
1F
100
AcDbEntity
  8
0
370
    15
100
AcDbPolyline
 90
        8
 70
   128
 43
0.0
 10
523.6323773651999
 20
251.2624959716
 10
523.9435653283999
 20
251.5136197178
 10
524.2073775998
 20
251.8694697333
 10
524.3836511960999
 20
252.275870798
 10
524.4455500993
 20
252.6709524583
 10
524.3836511960999
 20
252.9945671661
 10
524.2073775998
 20
253.1974472587
 10
524.2073308430999
 20
253.1974742596
  0
LWPOLYLINE
  5
551
330
1F
100
AcDbEntity
  8
0
370
    15
100
AcDbPolyline
 90
        3
 70
   128
 43
0.0
 10
523.0574242165
 20
251.2055617828
 10
523.3211897311999
 20
251.1543299332
 10
523.6323773651999
 20
251.2624959716
  0
LWPOLYLINE
  5
552
330
1F
100
AcDbEntity
  8
0
370
    15
100
AcDbPolyline
 90
       17
 70
   128
 43
0.0
 10
518.6826290855
 20
250.4046641747
 10
518.5067404085
 20
250.2627246908
 10
518.3576291389999
 20
250.0615920651
 10
518.2579961294
 20
249.8318869625
 10
518.2230097999999
 20
249.6085800322
 10
518.2579961294
 20
249.425667268
 10
518.3576291389999
 20
249.3109961799
 10
518.5067404085
 20
249.2820237614
 10
518.6826290855
 20
249.3431610213
 10
518.8585177624999
 20
249.4851005053
 10
519.0076290319999
 20
249.686233131
 10
519.1072622063
 20
249.9159381384
 10
519.1422487004
 20
250.1392453539
 10
519.1072622063
 20
250.322157833
 10
519.0076290319999
 20
250.4368290161
 10
518.8585177624999
 20
250.4658014346
 10
518.6826290855
 20
250.4046641747
  0
LWPOLYLINE
  5
553
330
1F
100
AcDbEntity
  8
0
370
    15
100
AcDbPolyline
 90
        8
 70
   128
 43
0.0
 10
523.6323773651999
 20
246.0774616887
 10
523.9435653283999
 20
246.328585625
 10
524.2073775998
 20
246.6844354504
 10
524.3836511960999
 20
247.0908367052
 10
524.4455500993
 20
247.4859183655
 10
524.3836511960999
 20
247.8095330733
 10
524.2073775998
 20
248.0124129758
 10
524.2073308430999
 20
248.0124399766
  0
LWPOLYLINE
  5
554
330
1F
100
AcDbEntity
  8
0
370
    15
100
AcDbPolyline
 90
        3
 70
   128
 43
0.0
 10
523.0574242165
 20
246.0205274998
 10
523.3211897311999
 20
245.9692958404
 10
523.6323773651999
 20
246.0774616887
  0
LWPOLYLINE
  5
555
330
1F
100
AcDbEntity
  8
0
370
    15
100
AcDbPolyline
 90
        7
 70
   128
 43
0.0
 10
516.9755654877
 20
248.2505919149
 10
517.0521693605
 20
247.9341296918
 10
517.2820916143999
 20
247.6695035336
 10
517.6261946199999
 20
247.602644333
 10
518.0320918201999
 20
247.7437305733
 10
518.4379888557999
 20
248.0712831701
 10
518.7615475777
 20
248.5004843964
  0
LWPOLYLINE
  5
556
330
1F
100
AcDbEntity
  8
0
370
    15
100
AcDbPolyline
 90
        3
 70
   128
 43
0.0
 10
518.4455894473
 20
250.3351513013
 10
518.4379888557999
 20
250.3344392706
 10
518.1254719496999
 20
250.2425042967
  0
LWPOLYLINE
  5
557
330
1F
100
AcDbEntity
  8
0
370
    15
100
AcDbPolyline
 90
       13
 70
   128
 43
0.0
 10
522.5758510326999
 20
251.4835679442
 10
522.6524552348
 20
251.1671059112
 10
522.8823774886
 20
250.9024797529
 10
523.2264803296
 20
250.8356204573
 10
523.6323773651999
 20
250.9767066026
 10
524.0382745654
 20
251.3042592944
 10
524.382377571
 20
251.7684113686
 10
524.6122998248999
 20
252.2985001106
 10
524.6930377107999
 20
252.8138240153
 10
524.6122998248999
 20
253.235929941
 10
524.382377571
 20
253.5005560993
 10
524.0382745654
 20
253.5674153949
 10
523.7257576593
 20
253.475480421
  0
LWPOLYLINE
  5
558
330
1F
100
AcDbEntity
  8
0
370
    15
100
AcDbPolyline
 90
       17
 70
   128
 43
0.0
 10
507.0850982322
 20
242.5060823297
 10
507.2165068374999
 20
243.344819123
 10
507.5907260712999
 20
244.2075865739
 10
508.1507852480999
 20
244.9630367938
 10
508.8114186592999
 20
245.4961577712
 10
509.4720533874999
 20
245.725788655
 10
510.0321125643
 20
245.6169689968
 10
510.4063317980999
 20
245.1862658764
 10
510.5377404033999
 20
244.4992502293
 10
510.4063317980999
 20
243.6605132459
 10
510.0321125643
 20
242.7977458901
 10
509.4720533874999
 20
242.0422958603
 10
508.8114186592999
 20
241.5091740276
 10
508.1507852480999
 20
241.2795439991
 10
507.5907260712999
 20
241.3883634672
 10
507.2165068374999
 20
241.8190664925
 10
507.0850982322
 20
242.5060823297
  0
LWPOLYLINE
  5
559
330
1F
100
AcDbEntity
  8
0
370
    15
100
AcDbPolyline
 90
       17
 70
   128
 43
0.0
 10
531.1267287819999
 20
256.3850202246
 10
531.2581373873
 20
257.2237570179
 10
531.6323566211
 20
258.0865244688
 10
532.1924157979
 20
258.8419746887
 10
532.8530505262
 20
259.3750964264
 10
533.5136839372999
 20
259.6047265499
 10
534.0737431141
 20
259.4959068917
 10
534.4479623478999
 20
259.0652037713
 10
534.5793709531999
 20
258.3781881242
 10
534.4479623478999
 20
257.5394511408
 10
534.0737431141
 20
256.676683785
 10
533.5136839372999
 20
255.9212337553
 10
532.8530505262
 20
255.3881126828
 10
532.1924157979
 20
255.158481894
 10
531.6323566211
 20
255.2673013621
 10
531.2581373873
 20
255.6980043874
 10
531.1267287819999
 20
256.3850202246
  0
LWPOLYLINE
  5
55A
330
1F
100
AcDbEntity
  8
0
370
    15
100
AcDbPolyline
 90
        9
 70
   128
 43
0.0
 10
535.8398238243999
 20
258.680703284
 10
535.4525825315
 20
259.7821039568
 10
534.8810304359
 20
260.684974569
 10
534.1408883121999
 20
261.3644803494
 10
533.2525157222
 20
261.8019321529
 10
532.2403459843
 20
261.9852948824
 10
531.1322223603
 20
261.9095282389
 10
529.9586236072
 20
261.5767137913
 10
528.7518302595999
 20
260.9960067651
  0
LINE
  5
55B
330
1F
100
AcDbEntity
  8
0
370
    15
100
AcDbLine
 10
538.5160617769001
 20
260.2256625686
 30
0.0
 11
535.8398238243999
 21
258.680703284
 31
0.0
  0
LINE
  5
55C
330
1F
100
AcDbEntity
  8
0
370
    15
100
AcDbLine
 10
538.5160617769001
 20
256.1766752436
 30
0.0
 11
538.5160617769001
 21
260.2256625686
 31
0.0
  0
LINE
  5
55D
330
1F
100
AcDbEntity
  8
0
370
    15
100
AcDbLine
 10
535.8398238243999
 20
254.631715959
 30
0.0
 11
538.5160617769001
 21
256.1766752436
 31
0.0
  0
ARC
  5
55E
330
1F
100
AcDbEntity
  8
0
370
    15
100
AcDbCircle
 10
521.5096880339
 20
257.390473285
 30
0.0
 40
14.59327015297137
100
AcDbArc
 50
342.0322775081
 51
349.1030529291001
  0
ARC
  5
55F
330
1F
100
AcDbEntity
  8
0
370
    15
100
AcDbCircle
 10
537.4878173197999
 20
249.8430387088
 30
0.0
 40
3.697538492791385
100
AcDbArc
 50
124.5424573654
 51
160.7110853981
  0
LINE
  5
560
330
1F
100
AcDbEntity
  8
0
370
    15
100
AcDbLine
 10
532.9320350373
 20
248.1344676266
 30
0.0
 11
533.9978405911999
 21
251.064453192
 31
0.0
  0
ARC
  5
561
330
1F
100
AcDbEntity
  8
0
370
    15
100
AcDbCircle
 10
533.4757931083999
 20
245.4586561754
 30
0.0
 40
2.730501741798752
100
AcDbArc
 50
101.4868005806
 51
157.1679088791
  0
LINE
  5
562
330
1F
100
AcDbEntity
  8
0
370
    15
100
AcDbLine
 10
530.1252959538
 20
244.9289433995
 30
0.0
 11
530.9592372061
 21
246.5181778375
 31
0.0
  0
LINE
  5
563
330
1F
100
AcDbEntity
  8
0
370
    15
100
AcDbLine
 10
530.1126025083999
 20
244.9380393466
 30
0.0
 11
530.1252959538
 21
244.9289433995
 31
0.0
  0
LWPOLYLINE
  5
564
330
1F
100
AcDbEntity
  8
0
370
    15
100
AcDbPolyline
 90
        9
 70
   128
 43
0.0
 10
527.8103539576
 20
244.1016796529
 10
528.0940305655
 20
244.4493667068
 10
528.4035491183999
 20
244.7437516325
 10
528.7267495919999
 20
244.9732700711
 10
529.0509352481999
 20
245.1289041242
 10
529.3633704948
 20
245.2045412454
 10
529.6517820376999
 20
245.1972095565
 10
529.9048396187
 20
245.1071964351
 10
530.1126025083999
 20
244.9380393466
  0
LINE
  5
565
330
1F
100
AcDbEntity
  8
0
370
    15
100
AcDbLine
 10
527.1766536997001
 20
243.2234592289
 30
0.0
 11
527.8103539576
 21
244.1016796529
 31
0.0
  0
LINE
  5
566
330
1F
100
AcDbEntity
  8
0
370
    15
100
AcDbLine
 10
512.9126389258
 20
234.989018775
 30
0.0
 11
527.1766536997001
 21
243.2234592289
 31
0.0
  0
LWPOLYLINE
  5
567
330
1F
100
AcDbEntity
  8
0
370
    15
100
AcDbPolyline
 90
        9
 70
   128
 43
0.0
 10
505.8246453609999
 20
237.3043222561
 10
506.2118866538999
 20
236.2029215833
 10
506.7834387495
 20
235.3000509711
 10
507.5235808731999
 20
234.6205451906
 10
508.4119534632
 20
234.1830933872
 10
509.4241232010999
 20
233.9997306577
 10
510.5322468250999
 20
234.0754973012
 10
511.7058455781999
 20
234.4083117488
 10
512.9126389258
 20
234.989018775
  0
LINE
  5
568
330
1F
100
AcDbEntity
  8
0
370
    15
100
AcDbLine
 10
503.1484074084999
 20
235.7593629714
 30
0.0
 11
505.8246453609999
 21
237.3043222561
 31
0.0
  0
LINE
  5
569
330
1F
100
AcDbEntity
  8
0
370
    15
100
AcDbLine
 10
503.1484074084999
 20
239.8083502964
 30
0.0
 11
503.1484074084999
 21
235.7593629714
 31
0.0
  0
LINE
  5
56A
330
1F
100
AcDbEntity
  8
0
370
    15
100
AcDbLine
 10
505.8246453609999
 20
241.353309581
 30
0.0
 11
503.1484074084999
 21
239.8083502964
 31
0.0
  0
ARC
  5
56B
330
1F
100
AcDbEntity
  8
0
370
    15
100
AcDbCircle
 10
520.1547811515
 20
238.594552255
 30
0.0
 40
14.59327015296568
100
AcDbArc
 50
162.0322775081
 51
169.1030529291
  0
ARC
  5
56C
330
1F
100
AcDbEntity
  8
0
370
    15
100
AcDbCircle
 10
504.1766518655999
 20
246.1419868313
 30
0.0
 40
3.697538492793913
100
AcDbArc
 50
304.5424573654
 51
340.7110853981
  0
LINE
  5
56D
330
1F
100
AcDbEntity
  8
0
370
    15
100
AcDbLine
 10
508.7324341480999
 20
247.8505579135
 30
0.0
 11
507.6666285942
 21
244.9205723481
 31
0.0
  0
ARC
  5
56E
330
1F
100
AcDbEntity
  8
0
370
    15
100
AcDbCircle
 10
508.1886760769999
 20
250.5263693646
 30
0.0
 40
2.730501741799101
100
AcDbArc
 50
281.4868005806
 51
337.1679088791
  0
LINE
  5
56F
330
1F
100
AcDbEntity
  8
0
370
    15
100
AcDbLine
 10
511.5391732316
 20
251.0560821405
 30
0.0
 11
510.7052319794
 21
249.4668477025
 31
0.0
  0
LINE
  5
570
330
1F
100
AcDbEntity
  8
0
370
    15
100
AcDbLine
 10
511.5518666769999
 20
251.0469861935
 30
0.0
 11
511.5391732316
 21
251.0560821405
 31
0.0
  0
ELLIPSE
  5
571
330
1F
100
AcDbEntity
  8
0
370
    15
100
AcDbEllipse
 10
536.7458718294999
 20
255.7954542665
 30
0.0
 11
0.3000670245035053
 21
0.519787600750675
 31
0.0
210
0.0
220
0.0
230
1.0
 40
0.5772057093999999
 41
2.356265568859555
 42
3.926757309158947
  0
LINE
  5
572
330
1F
100
AcDbEntity
  8
0
370
    15
100
AcDbLine
 10
538.0820348480999
 20
256.0768052144
 30
0.0
 11
536.7457426741999
 21
255.3053801627
 31
0.0
  0
ELLIPSE
  5
573
330
1F
100
AcDbEntity
  8
0
370
    15
100
AcDbEllipse
 10
538.0819045296
 20
256.5667295272
 30
0.0
 11
0.2999755974981326
 21
0.5196293302990967
 31
0.0
210
0.0
220
0.0
230
1.0
 40
0.5775574346
 41
3.927061796638274
 42
5.497553536938306
  0
LINE
  5
574
330
1F
100
AcDbEntity
  8
0
370
    15
100
AcDbLine
 10
538.5062336587
 20
259.5794507383
 30
0.0
 11
538.5062336587
 21
256.8115397702
 31
0.0
  0
ELLIPSE
  5
575
330
1F
100
AcDbEntity
  8
0
370
    15
100
AcDbEllipse
 10
538.0819045296
 20
259.3343419946
 30
0.0
 11
0.3000670245033916
 21
0.5197876007507034
 31
0.0
210
0.0
220
0.0
230
0.9999999999999998
 40
0.5772057093999999
 41
5.497858222448925
 42
7.068349962748481
  0
LINE
  5
576
330
1F
100
AcDbEntity
  8
0
370
    15
100
AcDbLine
 10
536.7457426741999
 20
259.0529907206
 30
0.0
 11
538.0820348480999
 21
259.8244157723
 31
0.0
  0
ELLIPSE
  5
577
330
1F
100
AcDbEntity
  8
0
370
    15
100
AcDbEllipse
 10
536.7458718294999
 20
258.5630667339
 30
0.0
 11
0.2999755974980189
 21
0.5196293302990967
 31
0.0
210
0.0
220
0.0
230
0.9999999999999998
 40
0.5775574346
 41
0.7854691430485968
 42
2.355960883348271
  0
LINE
  5
578
330
1F
100
AcDbEntity
  8
0
370
    15
100
AcDbLine
 10
536.3215438636
 20
255.5503451968
 30
0.0
 11
536.3215438636
 21
258.3182561649
 31
0.0
  0
ELLIPSE
  5
579
330
1F
100
AcDbEntity
  8
0
370
    15
100
AcDbEllipse
 10
503.5825637918
 20
239.4182965117
 30
0.0
 11
0.2999755974980758
 21
0.5196293302990967
 31
0.0
210
0.0
220
0.0
230
1.0
 40
0.5775574346
 41
0.7854691430484598
 42
2.355960883348521
  0
LINE
  5
57A
330
1F
100
AcDbEntity
  8
0
370
    15
100
AcDbLine
 10
503.1582355267
 20
236.4055748018
 30
0.0
 11
503.1582355267
 21
239.1734857699
 31
0.0
  0
ELLIPSE
  5
57B
330
1F
100
AcDbEntity
  8
0
370
    15
100
AcDbEllipse
 10
503.5825637918
 20
236.6506840442
 30
0.0
 11
0.3000670245035054
 21
0.5197876007507034
 31
0.0
210
0.0
220
0.0
230
1.0
 40
0.5772057093999999
 41
2.35626556885941
 42
3.926757309159116
  0
LINE
  5
57C
330
1F
100
AcDbEntity
  8
0
370
    15
100
AcDbLine
 10
504.9187265112
 20
236.9320348194
 30
0.0
 11
503.5824343373
 21
236.1606097677
 31
0.0
  0
ELLIPSE
  5
57D
330
1F
100
AcDbEntity
  8
0
370
    15
100
AcDbEllipse
 10
504.9185964919
 20
237.4219593049
 30
0.0
 11
0.2999755974980189
 21
0.5196293302990967
 31
0.0
210
0.0
220
0.0
230
0.9999999999999998
 40
0.5775574346
 41
3.9270617966382
 42
5.497553536938153
  0
LINE
  5
57E
330
1F
100
AcDbEntity
  8
0
370
    15
100
AcDbLine
 10
505.3429253217999
 20
240.4346803433
 30
0.0
 11
505.3429253217999
 21
237.6667693752
 31
0.0
  0
ELLIPSE
  5
57F
330
1F
100
AcDbEntity
  8
0
370
    15
100
AcDbEllipse
 10
504.9185964919
 20
240.1895717724
 30
0.0
 11
0.3000670245034484
 21
0.5197876007507319
 31
0.0
210
0.0
220
0.0
230
1.0
 40
0.5772057093999999
 41
5.497858222449028
 42
7.068349962748838
  0
LINE
  5
580
330
1F
100
AcDbEntity
  8
0
370
    15
100
AcDbLine
 10
503.5824343373
 20
239.9082203257
 30
0.0
 11
504.9187265112
 21
240.6796453774
 31
0.0
  0
LWPOLYLINE
  5
581
330
1F
100
AcDbEntity
  8
0
370
    15
100
AcDbPolyline
 90
       13
 70
   128
 43
0.0
 10
522.5758510326999
 20
246.2985338514
 10
522.6524552348
 20
245.9820718184
 10
522.8823774886
 20
245.7174456601
 10
523.2264803296
 20
245.6505862695
 10
523.6323773651999
 20
245.7916725098
 10
524.0382745654
 20
246.1192251065
 10
524.382377571
 20
246.5833772758
 10
524.6122998248999
 20
247.1134660178
 10
524.6930377107999
 20
247.6287899225
 10
524.6122998248999
 20
248.0508958482
 10
524.382377571
 20
248.3155220065
 10
524.0382745654
 20
248.382381207
 10
523.7257576593
 20
248.2904462331
  0
LWPOLYLINE
  5
582
330
1F
100
AcDbEntity
  8
0
370
    15
100
AcDbPolyline
 90
       13
 70
   128
 43
0.0
 10
516.9755654877
 20
243.0655578221
 10
517.0521693605
 20
242.749095599
 10
517.2820916143999
 20
242.4844694408
 10
517.6261946199999
 20
242.4176101452
 10
518.0320918201999
 20
242.5586964805
 10
518.4379888557999
 20
242.8862489822
 10
518.7820916967999
 20
243.3504010564
 10
519.0120139505999
 20
243.8804897985
 10
519.0927518366001
 20
244.3958137031
 10
519.0120139505999
 20
244.8179196289
 10
518.7820916967999
 20
245.0825457871
 10
518.4379888557999
 20
245.1494050827
 10
518.1254719496999
 20
245.0574701088
  0
ARC
  5
583
330
1F
100
AcDbEntity
  8
0
370
    15
100
AcDbCircle
 10
532.1219908137
 20
248.1212324835
 30
0.0
 40
13.40655481487207
100
AcDbArc
 50
300.1794828506
 51
308.5531825697
  0
LWPOLYLINE
  5
584
330
1F
100
AcDbEntity
  8
0
370
    15
100
AcDbPolyline
 90
        4
 70
   128
 43
0.0
 10
535.6350941905999
 20
240.5585736831
 10
535.8461807544999
 20
240.4312082755
 10
536.9687620646
 20
239.7538735945
 10
540.4775026789
 20
237.63690449
  0
SPLINE
  5
585
330
1F
100
AcDbEntity
  8
0
370
    15
100
AcDbSpline
210
0.0
220
0.0
230
1.0
 70
     8
 71
     3
 72
    13
 73
     9
 74
     0
 42
0.000000001
 43
0.0000000001
 40
0.0
 40
0.0
 40
0.0
 40
0.0
 40
0.0035694701880606
 40
0.2159542690419726
 40
0.4293735902747702
 40
0.6447937852019486
 40
0.8624016703731079
 40
1.0
 40
1.0
 40
1.0
 40
1.0
 10
535.6350941906372
 20
240.5585736831282
 30
0.0
 10
535.6349632368252
 20
240.5586531613822
 30
0.0
 10
535.6270404826717
 20
240.5634616251999
 30
0.0
 10
535.6139727581539
 20
240.5752992191564
 30
0.0
 10
535.605005307589
 20
240.5972706297785
 30
0.0
 10
535.6074782113286
 20
240.6212131513519
 30
0.0
 10
535.6190326088732
 20
240.6419033926006
 30
0.0
 10
535.6311511565307
 20
240.6528399615291
 30
0.0
 10
535.6358455899209
 20
240.6570765248372
 30
0.0
  0
ARC
  5
586
330
1F
100
AcDbEntity
  8
0
370
    15
100
AcDbCircle
 10
522.5600580274
 20
256.1749520388
 30
0.0
 40
20.29237987143255
100
AcDbArc
 50
310.1184077126
 51
342.4793028217
  0
SPLINE
  5
587
330
1F
100
AcDbEntity
  8
0
370
    15
100
AcDbSpline
210
0.0
220
0.0
230
1.0
 70
     8
 71
     3
 72
     9
 73
     5
 74
     0
 42
0.000000001
 43
0.0000000001
 40
0.0
 40
0.0
 40
0.0
 40
0.0
 40
0.8731109347735252
 40
1.0
 40
1.0
 40
1.0
 40
1.0
 10
538.1222139655796
 20
252.3013365982387
 30
0.0
 10
539.2250064195015
 20
251.6510017585488
 30
0.0
 10
540.4880675151775
 20
250.9061538660429
 30
0.0
 10
541.7508108370477
 20
250.1605358676105
 30
0.0
 10
541.9110391567808
 20
250.0659250967734
 30
0.0
  0
ARC
  5
588
330
1F
100
AcDbEntity
  8
0
370
    15
100
AcDbCircle
 10
521.2653297839999
 20
257.5898881316
 30
0.0
 40
17.66701224407326
100
AcDbArc
 50
342.581666297
 51
347.4150870929
  0
LINE
  5
589
330
1F
100
AcDbEntity
  8
0
370
    15
100
AcDbLine
 10
538.5078773858
 20
253.7404889795
 30
0.0
 11
542.0921336281
 21
251.7040333947
 31
0.0
  0
SPLINE
  5
58A
330
1F
100
AcDbEntity
  8
0
370
    15
100
AcDbSpline
210
0.0
220
0.0
230
1.0
 70
     8
 71
     3
 72
    10
 73
     6
 74
     0
 42
0.000000001
 43
0.0000000001
 40
0.0
 40
0.0
 40
0.0
 40
0.0
 40
0.4231323673386673
 40
0.8467413385555516
 40
1.0
 40
1.0
 40
1.0
 40
1.0
 10
542.3769488594667
 20
251.6976041998237
 30
0.0
 10
542.3392289930348
 20
251.6819741199365
 30
0.0
 10
542.2637467736213
 20
251.6506963548991
 30
0.0
 10
542.1619137049649
 20
251.668320983378
 30
0.0
 10
542.1067809586697
 20
251.6965371075559
 30
0.0
 10
542.09213362812
 20
251.704033394707
 30
0.0
  0
LINE
  5
58B
330
1F
100
AcDbEntity
  8
0
370
    15
100
AcDbLine
 10
536.1301523902999
 20
262.531363869
 30
0.0
 11
536.2526311320999
 21
262.4659358376
 31
0.0
  0
LINE
  5
58C
330
1F
100
AcDbEntity
  8
0
370
    15
100
AcDbLine
 10
555.8014306797
 20
251.5917670672
 30
0.0
 11
555.6735070919
 21
251.665862605
 31
0.0
  0
LINE
  5
58D
330
1F
100
AcDbEntity
  8
0
370
    15
100
AcDbLine
 10
549.3919434241
 20
230.2936523525
 30
0.0
 11
538.8616056779
 21
236.5318708321
 31
0.0
  0
ELLIPSE
  5
58E
330
1F
100
AcDbEntity
  8
0
370
    15
100
AcDbEllipse
 10
539.9302745002
 20
255.3567043642
 30
0.0
 11
1.999998800037701
 21
-0.0037868304682434
 31
0.0
210
0.0
220
0.0
230
1.0
 40
0.5785459913000001
 41
0.790856914540166
 42
2.357289918204978
  0
ARC
  5
58F
330
1F
100
AcDbEntity
  8
0
370
    15
100
AcDbCircle
 10
539.7915990082
 20
256.253183711
 30
0.0
 40
1.548594732236267
100
AcDbArc
 50
302.8315739271
 51
357.1684182248
  0
ELLIPSE
  5
590
330
1F
100
AcDbEntity
  8
0
370
    15
100
AcDbEllipse
 10
539.9271891746
 20
254.5419524457
 30
0.0
 11
0.9999975790642565
 21
-0.0037951334568902
 31
0.0
210
0.0
220
0.0
230
1.0
 40
0.5798014867
 41
0.7919619123237648
 42
2.358394915988696
  0
ARC
  5
591
330
1F
100
AcDbEntity
  8
0
370
    15
100
AcDbCircle
 10
540.0522674183999
 20
256.2469051043
 30
0.0
 40
1.537810133380475
100
AcDbArc
 50
182.6175368198
 51
237.2380975649
  0
ELLIPSE
  5
592
330
1F
100
AcDbEntity
  8
0
370
    15
100
AcDbEllipse
 10
539.9302745002
 20
259.4128172532
 30
0.0
 11
1.999998820799305
 21
0.0037703459202021
 31
0.0
210
0.0
220
0.0
230
1.0
 40
0.5760266851
 41
0.7886755763830305
 42
2.355108580047886
  0
LINE
  5
593
330
1F
100
AcDbEntity
  8
0
370
    15
100
AcDbLine
 10
541.3383029981999
 20
260.232764334
 30
0.0
 11
541.3383029981999
 21
256.1766826507
 31
0.0
  0
LINE
  5
594
330
1F
100
AcDbEntity
  8
0
370
    15
100
AcDbLine
 10
542.0921336281
 20
251.7040333947
 30
0.0
 11
544.1747490244999
 21
252.906301672
 31
0.0
  0
SPLINE
  5
595
330
1F
100
AcDbEntity
  8
0
370
    15
100
AcDbSpline
210
0.0
220
0.0
230
1.0
 70
     8
 71
     3
 72
    10
 73
     6
 74
     0
 42
0.000000001
 43
0.0000000001
 40
0.0
 40
0.0
 40
0.0
 40
0.0
 40
0.027121380834429
 40
0.6855109851413538
 40
1.0
 40
1.0
 40
1.0
 40
1.0
 10
537.6176556028095
 20
254.0286581423358
 30
0.0
 10
537.6266494850654
 20
254.0273263426616
 30
0.0
 10
537.8539758562139
 20
253.9936642178489
 30
0.0
 10
538.1772221665878
 20
253.9103620869606
 30
0.0
 10
538.4271021422644
 20
253.7819870137716
 30
0.0
 10
538.5078773857896
 20
253.7404889794802
 30
0.0
  0
LINE
  5
596
330
1F
100
AcDbEntity
  8
0
370
    15
100
AcDbLine
 10
539.2200827345
 20
254.953719635
 30
0.0
 11
537.6176556028
 21
254.0286581423
 31
0.0
  0
LINE
  5
597
330
1F
100
AcDbEntity
  8
0
370
    15
100
AcDbLine
 10
544.1747490244999
 20
252.906301672
 30
0.0
 11
540.6312026865
 21
254.9519491786
 31
0.0
  0
ELLIPSE
  5
598
330
1F
100
AcDbEntity
  8
0
370
    15
100
AcDbEllipse
 10
544.5298414548
 20
253.5178435904
 30
0.0
 11
0.7677206015537195
 21
0.7076150345716315
 31
0.0
210
0.0
220
0.0
230
1.0
 40
0.2625532148
 41
4.008691927729142
 42
5.579469216055855
  0
LINE
  5
599
330
1F
100
AcDbEntity
  8
0
370
    15
100
AcDbLine
 10
541.3383029981999
 20
256.1766826507
 30
0.0
 11
545.2353988333999
 21
253.9269346953
 31
0.0
  0
SPLINE
  5
59A
330
1F
100
AcDbEntity
  8
0
370
    15
100
AcDbSpline
210
0.0
220
0.0
230
1.0
 70
     8
 71
     3
 72
    12
 73
     8
 74
     0
 42
0.000000001
 43
0.0000000001
 40
0.0
 40
0.0
 40
0.0
 40
0.0
 40
0.233256307843706
 40
0.4973663102610013
 40
0.828378699161759
 40
0.9958207334540496
 40
1.0
 40
1.0
 40
1.0
 40
1.0
 10
537.6176556028095
 20
254.0286581423358
 30
0.0
 10
537.4503038066566
 20
254.0632521736239
 30
0.0
 10
537.0934639589473
 20
254.1370161196362
 30
0.0
 10
536.5453703146376
 20
254.344515744037
 30
0.0
 10
536.1288513217679
 20
254.517475874336
 30
0.0
 10
535.9096502742143
 20
254.6053352972082
 30
0.0
 10
535.8414837925364
 20
254.6310888175949
 30
0.0
 10
535.8398238243681
 20
254.6317159590142
 30
0.0
  0
SPLINE
  5
59B
330
1F
100
AcDbEntity
  8
0
370
    15
100
AcDbSpline
210
0.0
220
0.0
230
1.0
 70
     8
 71
     3
 72
    13
 73
     9
 74
     0
 42
0.000000001
 43
0.0000000001
 40
0.0
 40
0.0
 40
0.0
 40
0.0
 40
0.1799810141436122
 40
0.3629430755795938
 40
0.5429878663973594
 40
0.7400806687627953
 40
0.9542393008356587
 40
1.0
 40
1.0
 40
1.0
 40
1.0
 10
535.3912509643995
 20
252.888724251192
 30
0.0
 10
535.5343390942616
 20
252.9495860013789
 30
0.0
 10
535.8228853399758
 20
253.0723175622778
 30
0.0
 10
536.3509654196146
 20
253.0546639798321
 30
0.0
 10
536.9106593272022
 20
252.9079007637158
 30
0.0
 10
537.4854929411197
 20
252.6557951768087
 30
0.0
 10
537.8903354734263
 20
252.436181553457
 30
0.0
 10
538.0875014529298
 20
252.3215230638755
 30
0.0
 10
538.1222139655797
 20
252.3013365982387
 30
0.0
  0
LWPOLYLINE
  5
59C
330
1F
100
AcDbEntity
  8
0
370
    15
100
AcDbPolyline
 90
        9
 70
   128
 43
0.0
 10
538.1222139655999
 20
252.3013365982
 10
538.0968705387
 20
252.2386060077
 10
538.0626907616999
 20
252.1784268722
 10
538.0214935344
 20
252.1240043756
 10
537.975473127
 20
252.0782356776
 10
537.9270806424
 20
252.0435578316
 10
537.8788909894999
 20
252.0218181378
 10
537.8334724919
 20
252.0141730156
 10
537.7932406908
 20
252.0210313606
  0
SPLINE
  5
59D
330
1F
100
AcDbEntity
  8
0
370
    15
100
AcDbSpline
210
0.0
220
0.0
230
1.0
 70
     8
 71
     3
 72
    13
 73
     9
 74
     0
 42
0.000000001
 43
0.0000000001
 40
0.0
 40
0.0
 40
0.0
 40
0.0
 40
0.0486932947238377
 40
0.2749286743480046
 40
0.4771854532230198
 40
0.6548976653252687
 40
0.829450191133089
 40
1.0
 40
1.0
 40
1.0
 40
1.0
 10
537.7932406907948
 20
252.0210313605906
 30
0.0
 10
537.7638793577461
 20
252.0382359040134
 30
0.0
 10
537.5981014530481
 20
252.1353749935497
 30
0.0
 10
537.2689566988355
 20
252.3199384160534
 30
0.0
 10
536.806444686855
 20
252.5369324568848
 30
0.0
 10
536.3617594875403
 20
252.6671219796996
 30
0.0
 10
535.9430469981975
 20
252.6865799372904
 30
0.0
 10
535.7212617133516
 20
252.5807863020881
 30
0.0
 10
535.6116552745091
 20
252.5285030155084
 30
0.0
  0
ARC
  5
59E
330
1F
100
AcDbEntity
  8
0
370
    15
100
AcDbCircle
 10
535.8710543578999
 20
252.9347571749
 30
0.0
 40
0.4820065626694583
100
AcDbArc
 50
185.4802534237
 51
237.4411873566
  0
ARC
  5
59F
330
1F
100
AcDbEntity
  8
0
370
    15
100
AcDbCircle
 10
537.4416437977999
 20
249.8700727532
 30
0.0
 40
3.227399797846318
100
AcDbArc
 50
124.5424292392
 51
160.7110867454
  0
SPLINE
  5
5A0
330
1F
100
AcDbEntity
  8
0
370
    15
100
AcDbSpline
210
0.0
220
0.0
230
1.0
 70
     8
 71
     3
 72
     9
 73
     5
 74
     0
 42
0.000000001
 43
0.0000000001
 40
0.0
 40
0.0
 40
0.0
 40
0.0
 40
0.7645387175316606
 40
1.0
 40
1.0
 40
1.0
 40
1.0
 10
541.2945018858733
 20
249.956201355601
 30
0.0
 10
540.4023056011028
 20
250.482582912971
 30
0.0
 10
539.2353322820128
 20
251.1710785317009
 30
0.0
 10
538.0680827601688
 20
251.8590424856918
 30
0.0
 10
537.7932406907948
 20
252.0210313605906
 30
0.0
  0
LWPOLYLINE
  5
5A1
330
1F
100
AcDbEntity
  8
0
370
    15
100
AcDbPolyline
 90
        9
 70
   128
 43
0.0
 10
539.1013893064999
 20
248.2389359232
 10
539.2824877290999
 20
248.6479084207
 10
539.5181518325999
 20
249.0336562045
 10
539.7963486916
 20
249.3764840344
 10
540.1028735012
 20
249.658886247
 10
540.4220739754999
 20
249.866443273
 10
540.7376537720999
 20
249.9885584502
 10
541.0334983068
 20
250.0189959743
 10
541.2945018859
 20
249.9562013556
  0
LINE
  5
5A2
330
1F
100
AcDbEntity
  8
0
370
    15
100
AcDbLine
 10
539.1013893064999
 20
248.2389359232
 30
0.0
 11
534.3954144473999
 21
250.9361854113
 31
0.0
  0
ARC
  5
5A3
330
1F
100
AcDbEntity
  8
0
370
    15
100
AcDbCircle
 10
535.8350240283999
 20
240.9801784063
 30
0.0
 40
0.3795614260571366
100
AcDbArc
 50
195.0381617607
 51
238.3479502317
  0
ARC
  5
5A4
330
1F
100
AcDbEntity
  8
0
370
    15
100
AcDbCircle
 10
522.6229021642
 20
256.1340044208
 30
0.0
 40
19.94094500189792
100
AcDbArc
 50
310.1042271576
 51
341.163143589
  0
SPLINE
  5
5A5
330
1F
100
AcDbEntity
  8
0
370
    15
100
AcDbSpline
210
0.0
220
0.0
230
1.0
 70
     8
 71
     3
 72
    14
 73
    10
 74
     0
 42
0.000000001
 43
0.0000000001
 40
0.0
 40
0.0
 40
0.0
 40
0.0
 40
0.0077021076100693
 40
0.1416100588996623
 40
0.4889249532816422
 40
0.7317969716569778
 40
0.8746928196237689
 40
0.8978581463653155
 40
1.0
 40
1.0
 40
1.0
 40
1.0
 10
541.9110391567808
 20
250.0659250967734
 30
0.0
 10
541.9101940383382
 20
250.0649205677936
 30
0.0
 10
541.8946557884852
 20
250.0464514142594
 30
0.0
 10
541.8386545059591
 20
249.9825247044037
 30
0.0
 10
541.7446802889168
 20
249.8873640274451
 30
0.0
 10
541.6365790482537
 20
249.7934323739483
 30
0.0
 10
541.5718555956996
 20
249.7446874420981
 30
0.0
 10
541.5296290311667
 20
249.7156684467208
 30
0.0
 10
541.5110167466586
 20
249.7046013824178
 30
0.0
 10
541.4958452837439
 20
249.6955802675956
 30
0.0
  0
LINE
  5
5A6
330
1F
100
AcDbEntity
  8
0
370
    15
100
AcDbLine
 10
546.3634704291
 20
256.0795588798
 30
0.0
 11
545.2353988333999
 21
258.0221178595
 31
0.0
  0
ELLIPSE
  5
5A7
330
1F
100
AcDbEntity
  8
0
370
    15
100
AcDbEllipse
 10
545.7106337683
 20
255.7025624184
 30
0.0
 11
-0.6542184105627486
 21
1.123394154808722
 31
0.0
210
0.0
220
0.0
230
1.0
 40
0.5798953199
 41
3.139473132641295
 42
4.710269459436195
  0
LINE
  5
5A8
330
1F
100
AcDbEntity
  8
0
370
    15
100
AcDbLine
 10
545.2353988333999
 20
253.9269346953
 30
0.0
 11
546.3634704291
 21
254.5783668242
 31
0.0
  0
LINE
  5
5A9
330
1F
100
AcDbEntity
  8
0
370
    15
100
AcDbLine
 10
545.2353988333999
 20
258.0221178595
 30
0.0
 11
541.3383029981999
 21
260.232764334
 31
0.0
  0
ARC
  5
5AA
330
1F
100
AcDbEntity
  8
0
370
    15
100
AcDbCircle
 10
533.8903459668
 20
250.0509808371
 30
0.0
 40
1.019157155870234
100
AcDbArc
 50
60.2923475204
 51
83.9455211841
  0
LINE
  5
5AB
330
1F
100
AcDbEntity
  8
0
370
    15
100
AcDbLine
 10
534.3954144473999
 20
250.9361854113
 30
0.0
 11
533.2972572359999
 21
247.9172633244
 31
0.0
  0
SPLINE
  5
5AC
330
1F
100
AcDbEntity
  8
0
370
    15
100
AcDbSpline
210
0.0
220
0.0
230
1.0
 70
     8
 71
     3
 72
    14
 73
    10
 74
     0
 42
0.000000001
 43
0.0000000001
 40
0.0
 40
0.0
 40
0.0
 40
0.0
 40
0.0073834904381739
 40
0.1629737678625934
 40
0.3109737368252802
 40
0.5432307374566722
 40
0.7603472618701398
 40
0.9133107948668344
 40
1.0
 40
1.0
 40
1.0
 40
1.0
 10
532.9320350373494
 20
248.1344676266048
 30
0.0
 10
532.9326204606193
 20
248.1341136085469
 30
0.0
 10
532.9455423485617
 20
248.126299464644
 30
0.0
 10
532.97454795813
 20
248.1088264300857
 30
0.0
 10
533.0350034083838
 20
248.0724519243997
 30
0.0
 10
533.1142935733021
 20
248.0249365731147
 30
0.0
 10
533.198554048105
 20
247.9749014811047
 30
0.0
 10
533.2590489535674
 20
247.9393986948454
 30
0.0
 10
533.2871076193344
 20
247.9231433459853
 30
0.0
 10
533.2972572360317
 20
247.9172633244055
 30
0.0
  0
LINE
  5
5AD
330
1F
100
AcDbEntity
  8
0
370
    15
100
AcDbLine
 10
537.983935424
 20
245.1669657557
 30
0.0
 11
539.1013893064999
 21
248.2389359232
 31
0.0
  0
LWPOLYLINE
  5
5AE
330
1F
100
AcDbEntity
  8
0
370
    15
100
AcDbPolyline
 90
        3
 70
   128
 43
0.0
 10
533.2972572359999
 20
247.9172633244
 10
536.5038217393999
 20
246.0357278073
 10
537.983935424
 20
245.1669657557
  0
LINE
  5
5AF
330
1F
100
AcDbEntity
  8
0
370
    15
100
AcDbLine
 10
535.4336401573
 20
241.321198659
 30
0.0
 11
535.4684613567
 21
240.8816965101
 31
0.0
  0
ARC
  5
5B0
330
1F
100
AcDbEntity
  8
0
370
    15
100
AcDbCircle
 10
533.8795380004
 20
241.2140468267
 30
0.0
 40
1.557791715564735
100
AcDbArc
 50
3.944172519399999
 51
20.408871417
  0
SPLINE
  5
5B1
330
1F
100
AcDbEntity
  8
0
370
    15
100
AcDbSpline
210
0.0
220
0.0
230
1.0
 70
     8
 71
     3
 72
     9
 73
     5
 74
     0
 42
0.000000001
 43
0.0000000001
 40
0.0
 40
0.0
 40
0.0
 40
0.0
 40
0.8245019377771356
 40
1.0
 40
1.0
 40
1.0
 40
1.0
 10
535.4537553992856
 20
241.9236335727958
 30
0.0
 10
535.4249844201166
 20
241.874852710394
 30
0.0
 10
535.3900894394614
 20
241.8156886743054
 30
0.0
 10
535.3470902922747
 20
241.7659964334797
 30
0.0
 10
535.3395440252661
 20
241.7572755415073
 30
0.0
  0
LINE
  5
5B2
330
1F
100
AcDbEntity
  8
0
370
    15
100
AcDbLine
 10
536.2772725505
 20
243.4930030366
 30
0.0
 11
535.4537553993
 21
241.9236335728
 31
0.0
  0
ARC
  5
5B3
330
1F
100
AcDbEntity
  8
0
370
    15
100
AcDbCircle
 10
538.1276753367
 20
242.7496378075
 30
0.0
 40
1.994136990020223
100
AcDbArc
 50
97.6821261097
 51
158.113113991
  0
SPLINE
  5
5B4
330
1F
100
AcDbEntity
  8
0
370
    15
100
AcDbSpline
210
0.0
220
0.0
230
1.0
 70
     8
 71
     3
 72
    12
 73
     8
 74
     0
 42
0.000000001
 43
0.0000000001
 40
0.0
 40
0.0
 40
0.0
 40
0.0
 40
0.1528710064136178
 40
0.3646451396572357
 40
0.5764248972364304
 40
0.7882121937005896
 40
1.0
 40
1.0
 40
1.0
 40
1.0
 10
537.8611050194315
 20
244.7258773175233
 30
0.0
 10
537.8818822381236
 20
244.726617423527
 30
0.0
 10
537.9314423999193
 20
244.728382807712
 30
0.0
 10
538.0196859059923
 20
244.7706285251232
 30
0.0
 10
538.1130692121671
 20
244.8508246056414
 30
0.0
 10
538.1959199762957
 20
244.9586426395587
 30
0.0
 10
538.2312967115416
 20
245.0405167816386
 30
0.0
 10
538.248985100455
 20
245.0814539019524
 30
0.0
  0
LINE
  5
5B5
330
1F
100
AcDbEntity
  8
0
370
    15
100
AcDbLine
 10
539.366438983
 20
248.1534240695
 30
0.0
 11
538.2489851005
 21
245.081453902
 31
0.0
  0
LWPOLYLINE
  5
5B6
330
1F
100
AcDbEntity
  8
0
370
    15
100
AcDbPolyline
 90
        9
 70
   128
 43
0.0
 10
541.3404379994999
 20
249.6991176943
 10
541.1055114658999
 20
249.7556383287
 10
540.8392250428
 20
249.728242164
 10
540.5551750402
 20
249.6183279367
 10
540.2678652422
 20
249.4315072623
 10
539.9919653863999
 20
249.1773199121
 10
539.7415630569001
 20
248.8687441448
 10
539.5294445538
 20
248.5215363122
 10
539.366438983
 20
248.1534240695
  0
SPLINE
  5
5B7
330
1F
100
AcDbEntity
  8
0
370
    15
100
AcDbSpline
210
0.0
220
0.0
230
1.0
 70
     8
 71
     3
 72
     9
 73
     5
 74
     0
 42
0.000000001
 43
0.0000000001
 40
0.0
 40
0.0
 40
0.0
 40
0.0
 40
0.673246960994323
 40
1.0
 40
1.0
 40
1.0
 40
1.0
 10
541.4958452837439
 20
249.6955802675956
 30
0.0
 10
541.457697797689
 20
249.6879294031609
 30
0.0
 10
541.4010358470751
 20
249.6765652754663
 30
0.0
 10
541.3553620511158
 20
249.6935634794721
 30
0.0
 10
541.3404379994831
 20
249.6991176942886
 30
0.0
  0
LINE
  5
5B8
330
1F
100
AcDbEntity
  8
0
370
    15
100
AcDbLine
 10
538.4184707491999
 20
259.4523934784
 30
0.0
 11
538.4183640649999
 21
259.4569897295
 31
0.0
  0
ARC
  5
5B9
330
1F
100
AcDbEntity
  8
0
370
    15
100
AcDbCircle
 10
529.2465183414
 20
242.7173846744
 30
0.0
 40
4.168864902849917
100
AcDbArc
 50
60.02128829930001
 51
65.74265197869999
  0
SPLINE
  5
5BA
330
1F
100
AcDbEntity
  8
0
370
    15
100
AcDbSpline
210
0.0
220
0.0
230
1.0
 70
     8
 71
     3
 72
    14
 73
    10
 74
     0
 42
0.000000001
 43
0.0000000001
 40
0.0
 40
0.0
 40
0.0
 40
0.0
 40
0.0868865728977545
 40
0.2401103169222212
 40
0.4572730704635644
 40
0.6893270337858189
 40
0.9181166461114203
 40
0.9925968542307572
 40
1.0
 40
1.0
 40
1.0
 40
1.0
 10
533.1065572344991
 20
247.7393154111923
 30
0.0
 10
533.0968647314683
 20
247.7456088823112
 30
0.0
 10
533.0700795804731
 20
247.7630008370687
 30
0.0
 10
533.022863934726
 20
247.8104653809758
 30
0.0
 10
532.972019960739
 20
247.8910585403382
 30
0.0
 10
532.9366018374608
 20
247.995515015433
 30
0.0
 10
532.9282124084844
 20
248.0780641124408
 30
0.0
 10
532.9307198520702
 20
248.1221581125719
 30
0.0
 10
532.9319259894153
 20
248.1334469893631
 30
0.0
 10
532.9320350373494
 20
248.1344676266048
 30
0.0
  0
ARC
  5
5BB
330
1F
100
AcDbEntity
  8
0
370
    15
100
AcDbCircle
 10
533.4756167222
 20
245.4500199679
 30
0.0
 40
2.318852848363789
100
AcDbArc
 50
99.1579144483
 51
157.7379482617
  0
ARC
  5
5BC
330
1F
100
AcDbEntity
  8
0
370
    15
100
AcDbCircle
 10
533.0573048643
 20
247.9832542216
 30
0.0
 40
0.2488612850722804
100
AcDbArc
 50
281.4148228485
 51
344.6228618967
  0
LWPOLYLINE
  5
5BD
330
1F
100
AcDbEntity
  8
0
370
    15
100
AcDbPolyline
 90
        4
 70
   128
 43
0.0
 10
537.7899953835
 20
244.9891778437
 10
537.5063760688999
 20
245.1557665184
 10
536.3718764202999
 20
245.8220763519
 10
533.1065572344999
 20
247.7393154112
  0
ARC
  5
5BE
330
1F
100
AcDbEntity
  8
0
370
    15
100
AcDbCircle
 10
538.0861571489
 20
242.7935737125
 30
0.0
 40
2.21548849970481
100
AcDbArc
 50
97.6821739957
 51
158.1130892269
  0
LINE
  5
5BF
330
1F
100
AcDbEntity
  8
0
370
    15
100
AcDbLine
 10
536.0303578726999
 20
243.6194542293
 30
0.0
 11
531.3296092227999
 21
246.3285018088
 31
0.0
  0
SPLINE
  5
5C0
330
1F
100
AcDbEntity
  8
0
370
    15
100
AcDbSpline
210
0.0
220
0.0
230
1.0
 70
     8
 71
     3
 72
    12
 73
     8
 74
     0
 42
0.000000001
 43
0.0000000001
 40
0.0
 40
0.0
 40
0.0
 40
0.0
 40
0.1528772421427474
 40
0.364652325267742
 40
0.5764204061157883
 40
0.7882028725009298
 40
1.0
 40
1.0
 40
1.0
 40
1.0
 10
537.7899953834594
 20
244.9891778436926
 30
0.0
 10
537.8004790990543
 20
244.9894919692515
 30
0.0
 10
537.8254855108364
 20
244.9902412411109
 30
0.0
 10
537.8698081029784
 20
245.0112452416342
 30
0.0
 10
537.9165285985855
 20
245.0513283477545
 30
0.0
 10
537.9577890612335
 20
245.1053358457779
 30
0.0
 10
537.9752197686191
 20
245.1464219783463
 30
0.0
 10
537.9839354239713
 20
245.1669657556757
 30
0.0
  0
SPLINE
  5
5C1
330
1F
100
AcDbEntity
  8
0
370
    15
100
AcDbSpline
210
0.0
220
0.0
230
1.0
 70
     8
 71
     3
 72
    14
 73
    10
 74
     0
 42
0.000000001
 43
0.0000000001
 40
0.0
 40
0.0
 40
0.0
 40
0.0
 40
0.0922029708481679
 40
0.1330185027979878
 40
0.2762640980515576
 40
0.5163130851716514
 40
0.8597124025177878
 40
0.9931159860342434
 40
1.0
 40
1.0
 40
1.0
 40
1.0
 10
541.3887218242638
 20
249.9535025592161
 30
0.0
 10
541.4026908424578
 20
249.9573487932776
 30
0.0
 10
541.4228435324268
 20
249.9628976415584
 30
0.0
 10
541.4730194230874
 20
249.9743494795845
 30
0.0
 10
541.5551921812043
 20
249.9915379762137
 30
0.0
 10
541.692681180231
 20
250.0189957789246
 30
0.0
 10
541.8151533594216
 20
250.0444674757837
 30
0.0
 10
541.889310364619
 20
250.0609663660441
 30
0.0
 10
541.9100227833972
 20
250.0656931500599
 30
0.0
 10
541.9110391567808
 20
250.0659250967734
 30
0.0
  0
SPLINE
  5
5C2
330
1F
100
AcDbEntity
  8
0
370
    15
100
AcDbSpline
210
0.0
220
0.0
230
1.0
 70
     8
 71
     3
 72
     9
 73
     5
 74
     0
 42
0.000000001
 43
0.0000000001
 40
0.0
 40
0.0
 40
0.0
 40
0.0
 40
0.3267693666535616
 40
1.0
 40
1.0
 40
1.0
 40
1.0
 10
541.2945018858733
 20
249.956201355601
 30
0.0
 10
541.3035815671433
 20
249.9527947610518
 30
0.0
 10
541.3313677741643
 20
249.9423696879058
 30
0.0
 10
541.3656452066691
 20
249.9490232066069
 30
0.0
 10
541.3887218242638
 20
249.9535025592161
 30
0.0
  0
LINE
  5
5C3
330
1F
100
AcDbEntity
  8
0
370
    15
100
AcDbLine
 10
531.3296092227999
 20
246.3285018088
 30
0.0
 11
530.5415316442999
 21
244.8266699115
 31
0.0
  0
SPLINE
  5
5C4
330
1F
100
AcDbEntity
  8
0
370
    15
100
AcDbSpline
210
0.0
220
0.0
230
1.0
 70
     8
 71
     3
 72
    13
 73
     9
 74
     0
 42
0.000000001
 43
0.0000000001
 40
0.0
 40
0.0
 40
0.0
 40
0.0
 40
0.1666783934287165
 40
0.3240840059107492
 40
0.5288926596880243
 40
0.7869208928476424
 40
0.992618367807832
 40
1.0
 40
1.0
 40
1.0
 40
1.0
 10
530.1252959538138
 20
244.9289433995499
 30
0.0
 10
530.1413674919525
 20
244.9226899795052
 30
0.0
 10
530.1726164640232
 20
244.9105310345033
 30
0.0
 10
530.2433847551959
 20
244.8889945007337
 30
0.0
 10
530.3374086553749
 20
244.8645172338959
 30
0.0
 10
530.4441870204104
 20
244.8419062269112
 30
0.0
 10
530.5125559464528
 20
244.830662219626
 30
0.0
 10
530.5405614581676
 20
244.8268035849707
 30
0.0
 10
530.5415316442624
 20
244.8266699115094
 30
0.0
  0
LINE
  5
5C5
330
1F
100
AcDbEntity
  8
0
370
    15
100
AcDbLine
 10
535.2068400629
 20
242.0500851458
 30
0.0
 11
536.0303578726999
 21
243.6194542293
 31
0.0
  0
LWPOLYLINE
  5
5C6
330
1F
100
AcDbEntity
  8
0
370
    15
100
AcDbPolyline
 90
        3
 70
   128
 43
0.0
 10
530.5415316442999
 20
244.8266699115
 10
533.9610121481999
 20
242.7918375629
 10
535.2068400629
 20
242.0500851458
  0
ARC
  5
5C7
330
1F
100
AcDbEntity
  8
0
370
    15
100
AcDbCircle
 10
536.5338831192999
 20
255.1397084132
 30
0.0
 40
0.4622883597238138
100
AcDbArc
 50
63.23405501029999
 51
117.3433718711
  0
LWPOLYLINE
  5
5C8
330
1F
100
AcDbEntity
  8
0
370
    15
100
AcDbPolyline
 90
        9
 70
   128
 43
0.0
 10
530.1355527844999
 20
244.6981116035
 10
529.9456891344999
 20
244.8526942621
 10
529.7144339866
 20
244.9349520383
 10
529.4508699865
 20
244.9416521126
 10
529.1653527467
 20
244.8725315338
 10
528.8690972801
 20
244.7303063835
 10
528.5737420439
 20
244.5205623102
 10
528.2908905923
 20
244.251540122
 10
528.0316538882
 20
243.9338076895
  0
ARC
  5
5C9
330
1F
100
AcDbEntity
  8
0
370
    15
100
AcDbCircle
 10
534.2934421059999
 20
241.0074674093
 30
0.0
 40
1.140215455915004
100
AcDbArc
 50
2.462933229099999
 51
35.9114100897
  0
LWPOLYLINE
  5
5CA
330
1F
100
AcDbEntity
  8
0
370
    15
100
AcDbPolyline
 90
        3
 70
   128
 43
0.0
 10
537.7699871548998
 20
238.2879980194
 10
538.0977401467999
 20
238.6742288014
 10
538.2946923698
 20
238.8525092107
  0
LINE
  5
5CB
330
1F
100
AcDbEntity
  8
0
370
    15
100
AcDbLine
 10
537.7699871548998
 20
238.2879980194
 30
0.0
 11
528.0316538882
 21
243.9338076895
 31
0.0
  0
SPLINE
  5
5CC
330
1F
100
AcDbEntity
  8
0
370
    15
100
AcDbSpline
210
0.0
220
0.0
230
1.0
 70
     8
 71
     3
 72
    13
 73
     9
 74
     0
 42
0.000000001
 43
0.0000000001
 40
0.0
 40
0.0
 40
0.0
 40
0.0
 40
0.166679279043857
 40
0.3240848508616876
 40
0.5288938768940344
 40
0.7869182173881745
 40
0.9926187030820598
 40
1.0
 40
1.0
 40
1.0
 40
1.0
 10
530.1732478721626
 20
244.6710514850918
 30
0.0
 10
530.1889504349857
 20
244.6667814665261
 30
0.0
 10
530.2194819009236
 20
244.6584790048285
 30
0.0
 10
530.2847677159223
 20
244.6664347334093
 30
0.0
 10
530.3688436302311
 20
244.6954625398746
 30
0.0
 10
530.4609845223214
 20
244.7515373947024
 30
0.0
 10
530.517910925212
 20
244.8019145798222
 30
0.0
 10
530.5407408019086
 20
244.8258410813313
 30
0.0
 10
530.5415316442624
 20
244.8266699115094
 30
0.0
  0
ARC
  5
5CD
330
1F
100
AcDbEntity
  8
0
370
    15
100
AcDbCircle
 10
530.2907756291
 20
244.8263083666
 30
0.0
 40
0.1947240943074819
100
AcDbArc
 50
148.1916757438
 51
232.874677927
  0
SPLINE
  5
5CE
330
1F
100
AcDbEntity
  8
0
370
    15
100
AcDbSpline
210
0.0
220
0.0
230
1.0
 70
     8
 71
     3
 72
     9
 73
     5
 74
     0
 42
0.000000001
 43
0.0000000001
 40
0.0
 40
0.0
 40
0.0
 40
0.0
 40
0.1755014568358194
 40
1.0
 40
1.0
 40
1.0
 40
1.0
 10
535.1388723427937
 20
241.9499367645653
 30
0.0
 10
535.1433747231283
 20
241.9551848761492
 30
0.0
 10
535.1690290989711
 20
241.985088397627
 30
0.0
 10
535.1897531297403
 20
242.0207128427323
 30
0.0
 10
535.2068400629182
 20
242.0500851458227
 30
0.0
  0
ARC
  5
5CF
330
1F
100
AcDbEntity
  8
0
370
    15
100
AcDbCircle
 10
536.5338831192999
 20
257.9076193813
 30
0.0
 40
0.4622883597239265
100
AcDbArc
 50
63.23405501029999
 51
117.3433718711
  0
LINE
  5
5D0
330
1F
100
AcDbEntity
  8
0
370
    15
100
AcDbLine
 10
536.7420732642
 20
258.3203752305
 30
0.0
 11
536.7420732642
 21
255.5524642624
 31
0.0
  0
ARC
  5
5D1
330
1F
100
AcDbEntity
  8
0
370
    15
100
AcDbCircle
 10
544.8594219182
 20
253.6598911943
 30
0.0
 40
0.4611625225495561
100
AcDbArc
 50
306.447423682
 51
35.3848713048
  0
ELLIPSE
  5
5D2
330
1F
100
AcDbEntity
  8
0
370
    15
100
AcDbEllipse
 10
544.7798414548
 20
253.0848308898
 30
0.0
 11
0.5000000007148629
 21
0.288690571078547
 31
0.0
210
0.0
220
0.0
230
1.0
 40
0.0000700686
 41
3.926959881905116
 42
5.497737167225737
  0
ARC
  5
5D3
330
1F
100
AcDbEntity
  8
0
370
    15
100
AcDbCircle
 10
544.3226651118
 20
253.110760914
 30
0.0
 40
0.2523544145456256
100
AcDbArc
 50
234.1161332532
 51
294.2450510389
  0
ARC
  5
5D4
330
1F
100
AcDbEntity
  8
0
370
    15
100
AcDbCircle
 10
528.5949565599
 20
244.9061926345
 30
0.0
 40
1.123762600005482
100
AcDbArc
 50
225.7178338856
 51
239.9162840021
  0
ARC
  5
5D5
330
1F
100
AcDbEntity
  8
0
370
    15
100
AcDbCircle
 10
538.5437575377999
 20
259.8458036009
 30
0.0
 40
0.4622177857228728
100
AcDbArc
 50
182.6521481165
 51
236.7703829159999
  0
SPLINE
  5
5D6
330
1F
100
AcDbEntity
  8
0
370
    15
100
AcDbSpline
210
0.0
220
0.0
230
1.0
 70
     8
 71
     3
 72
    11
 73
     7
 74
     0
 42
0.000000001
 43
0.0000000001
 40
0.0
 40
0.0
 40
0.0
 40
0.0
 40
0.0077450670103294
 40
0.3180506581184904
 40
0.9314867969954976
 40
1.0
 40
1.0
 40
1.0
 40
1.0
 10
535.8398238243681
 20
258.6807032839801
 30
0.0
 10
535.8414835962553
 20
258.683241452372
 30
0.0
 10
535.9096420176666
 20
258.7874711674156
 30
0.0
 10
536.1317276449581
 20
259.0745200425546
 30
0.0
 10
536.4088094451111
 20
259.3777875617622
 30
0.0
 10
536.6513808928832
 20
259.4789712284935
 30
0.0
 10
536.675751246843
 20
259.489136818038
 30
0.0
  0
ELLIPSE
  5
5D7
330
1F
100
AcDbEntity
  8
0
370
    15
100
AcDbEllipse
 10
544.5298414548
 20
257.613011385
 30
0.0
 11
-0.1352168801870448
 21
1.092881083341751
 31
0.0
210
0.0
220
0.0
230
1.0
 40
0.7120820797000001
 41
5.006638301348078
 42
5.796471801081517
  0
LINE
  5
5D8
330
1F
100
AcDbEntity
  8
0
370
    15
100
AcDbLine
 10
544.4262919530999
 20
252.8806647856
 30
0.0
 11
542.3769488595
 21
251.6976041998
 31
0.0
  0
ARC
  5
5D9
330
1F
100
AcDbEntity
  8
0
370
    15
100
AcDbCircle
 10
545.9874924713999
 20
254.3113240766
 30
0.0
 40
0.461162936136809
100
AcDbArc
 50
306.4474450215
 51
35.3847199949
  0
LINE
  5
5DA
330
1F
100
AcDbEntity
  8
0
370
    15
100
AcDbLine
 10
546.2614625432999
 20
253.9403636295
 30
0.0
 11
545.1333916062
 21
253.2889309778
 31
0.0
  0
LINE
  5
5DB
330
1F
100
AcDbEntity
  8
0
370
    15
100
AcDbLine
 10
538.2904641848
 20
259.4591671324
 30
0.0
 11
536.9541720109999
 21
258.6877420807
 31
0.0
  0
ARC
  5
5DC
330
1F
100
AcDbEntity
  8
0
370
    15
100
AcDbCircle
 10
537.2074653639999
 20
259.0743785492
 30
0.0
 40
0.4622177857224382
100
AcDbArc
 50
182.6521481165
 51
236.7703829159999
  0
ELLIPSE
  5
5DD
330
1F
100
AcDbEntity
  8
0
370
    15
100
AcDbEllipse
 10
528.6901110848
 20
242.3319996988
 30
0.0
 11
1.903747743998679
 21
2.462283861707788
 31
0.0
210
0.0
220
0.0
230
1.0
 40
0.4718032797
 41
1.640870823922614
 42
3.198577181327497
  0
LINE
  5
5DE
330
1F
100
AcDbEntity
  8
0
370
    15
100
AcDbLine
 10
528.0316538882
 20
243.9338076895
 30
0.0
 11
527.3979536302999
 21
243.0555872656
 31
0.0
  0
LINE
  5
5DF
330
1F
100
AcDbEntity
  8
0
370
    15
100
AcDbLine
 10
535.5855966683
 20
235.2607357684
 30
0.0
 11
537.7699871548998
 21
238.2879980194
 31
0.0
  0
ELLIPSE
  5
5E0
330
1F
100
AcDbEntity
  8
0
370
    15
100
AcDbEllipse
 10
535.8727429273999
 20
235.0999381237
 30
0.0
 11
0.4230550542218908
 21
0.5471741914906261
 31
0.0
210
0.0
220
0.0
230
0.9999999999999998
 40
0.4718032797
 41
1.640870823922553
 42
2.587734364126634
  0
LINE
  5
5E1
330
1F
100
AcDbEntity
  8
0
370
    15
100
AcDbLine
 10
526.8556172032999
 20
239.8225575394
 30
0.0
 11
535.3771495509
 21
234.7395492869
 31
0.0
  0
LINE
  5
5E2
330
1F
100
AcDbEntity
  8
0
370
    15
100
AcDbLine
 10
526.7738878786
 20
239.7465621499
 30
0.0
 11
514.3083410338999
 21
232.550355132
 31
0.0
  0
LINE
  5
5E3
330
1F
100
AcDbEntity
  8
0
370
    15
100
AcDbLine
 10
535.4576306044
 20
234.56679785
 30
0.0
 11
526.7738878786
 21
239.7465621499
 31
0.0
  0
LINE
  5
5E4
330
1F
100
AcDbEntity
  8
0
370
    15
100
AcDbLine
 10
538.8616056779
 20
236.5318708321
 30
0.0
 11
535.4576306044
 21
234.56679785
 31
0.0
  0
LINE
  5
5E5
330
1F
100
AcDbEntity
  8
0
370
    15
100
AcDbLine
 10
533.5527520901999
 20
221.1498818261
 30
0.0
 11
549.3919434241
 21
230.2936523525
 31
0.0
  0
LINE
  5
5E6
330
1F
100
AcDbEntity
  8
0
370
    15
100
AcDbLine
 10
533.5527520901999
 20
221.1498818261
 30
0.0
 11
514.3083410338999
 21
232.550355132
 31
0.0
  0
ELLIPSE
  5
5E7
330
1F
100
AcDbEntity
  8
0
370
    15
100
AcDbEllipse
 10
528.6102323344
 20
242.4182309162
 30
0.0
 11
1.896382461504003
 21
2.63225948654599
 31
0.0
210
0.0
220
0.0
230
1.0
 40
0.5044324099000001
 41
1.627742977981531
 42
3.185449335386501
  0
ARC
  5
5E8
330
1F
100
AcDbEntity
  8
0
370
    15
100
AcDbCircle
 10
527.9613266666
 20
244.0280649698
 30
0.0
 40
1.123878135335312
100
AcDbArc
 50
225.7185674473
 51
239.9155504404
  0
ARC
  5
5E9
330
1F
100
AcDbEntity
  8
0
370
    15
100
AcDbCircle
 10
526.6316063537
 20
239.9815246119
 30
0.0
 40
0.2746841657491375
100
AcDbArc
 50
301.1970025433
 51
324.6389617389
  0
ARC
  5
5EA
330
1F
100
AcDbEntity
  8
0
370
    15
100
AcDbCircle
 10
515.9889181445
 20
235.1309149411
 30
0.0
 40
3.079550024478418
100
AcDbArc
 50
182.6409478432
 51
236.9260077503
  0
ARC
  5
5EB
330
1F
100
AcDbEntity
  8
0
370
    15
100
AcDbCircle
 10
541.239417465
 20
249.7402845734
 30
0.0
 40
0.2602954113550171
100
AcDbArc
 50
350.1107364036
 51
54.9986443757
  0
ARC
  5
5EC
330
1F
100
AcDbEntity
  8
0
370
    15
100
AcDbCircle
 10
538.3206382593
 20
245.7570731072
 30
0.0
 40
0.6794081877965397
100
AcDbArc
 50
240.2918289811999
 51
263.946095204
  0
ARC
  5
5ED
330
1F
100
AcDbEntity
  8
0
370
    15
100
AcDbCircle
 10
539.4380878912
 20
248.8290300995
 30
0.0
 40
0.6793946377995996
100
AcDbArc
 50
240.2915896897
 51
263.9463344955
  0
ARC
  5
5EE
330
1F
100
AcDbEntity
  8
0
370
    15
100
AcDbCircle
 10
541.1791821404
 20
249.8029500426
 30
0.0
 40
0.1917931402514226
100
AcDbArc
 50
327.2225900749
 51
53.0389848519
  0
ELLIPSE
  5
5EF
330
1F
100
AcDbEntity
  8
0
370
    15
100
AcDbEllipse
 10
536.9580038637999
 20
258.4406055171
 30
0.0
 11
0.149987112292024
 21
0.2598150614337555
 31
0.0
210
0.0
220
0.0
230
1.0
 40
0.5980578488
 41
0.7854675125342029
 42
2.355959252833424
  0
ARC
  5
5F0
330
1F
100
AcDbEntity
  8
0
370
    15
100
AcDbCircle
 10
537.6596575079999
 20
244.8127249013
 30
0.0
 40
0.2193709248677372
100
AcDbArc
 50
336.6782717674
 51
53.5483802281
  0
ARC
  5
5F1
330
1F
100
AcDbEntity
  8
0
370
    15
100
AcDbCircle
 10
537.4191035861
 20
246.0268915393
 30
0.0
 40
2.779274915924514
100
AcDbArc
 50
240.0212253325
 51
245.7425285783
  0
ARC
  5
5F2
330
1F
100
AcDbEntity
  8
0
370
    15
100
AcDbCircle
 10
548.6796525981
 20
252.1344196676
 30
0.0
 40
4.57480308247816
100
AcDbArc
 50
119.2566343736
 51
120.4170972411
  0
ARC
  5
5F3
330
1F
100
AcDbEntity
  8
0
370
    15
100
AcDbCircle
 10
536.5956132974999
 20
244.457574521
 30
0.0
 40
2.779333767044966
100
AcDbArc
 50
240.0212702062
 51
245.7424678818
  0
ARC
  5
5F4
330
1F
100
AcDbEntity
  8
0
370
    15
100
AcDbCircle
 10
534.8339839955
 20
241.4315335719
 30
0.0
 40
0.6014139792796644
100
AcDbArc
 50
32.7944555721
 51
59.5389473677
  0
ELLIPSE
  5
5F5
330
1F
100
AcDbEntity
  8
0
370
    15
100
AcDbEllipse
 10
535.4594816797999
 20
234.7290232451
 30
0.0
 11
-0.124019739526716
 21
0.2967453910443396
 31
0.0
210
0.0
220
0.0
230
1.0
 40
0.2254554362
 41
1.441526368690558
 42
2.052369185891516
  0
ARC
  5
5F6
330
1F
100
AcDbEntity
  8
0
370
    15
100
AcDbCircle
 10
539.9669407711
 20
237.7539089034
 30
0.0
 40
0.1250436794718611
100
AcDbArc
 50
303.4908526417
 51
5.9979721437
  0
SPLINE
  5
5F7
330
1F
100
AcDbEntity
  8
0
370
    15
100
AcDbSpline
210
0.0
220
0.0
230
1.0
 70
     8
 71
     3
 72
    14
 73
    10
 74
     0
 42
0.000000001
 43
0.0000000001
 40
0.0
 40
0.0
 40
0.0
 40
0.0
 40
0.0077418610799448
 40
0.2715307029737427
 40
0.5706442213843045
 40
0.7695436580422724
 40
0.8919878861390897
 40
0.932727280940942
 40
1.0
 40
1.0
 40
1.0
 40
1.0
 10
540.477502678919
 20
237.6369044900395
 30
0.0
 10
540.4762342326744
 20
237.6364968447522
 30
0.0
 10
540.4317459504723
 20
237.622199480037
 30
0.0
 10
540.3372419782098
 20
237.597652877016
 30
0.0
 10
540.211433777141
 20
237.5823146272292
 30
0.0
 10
540.1141860194292
 20
237.5896682204906
 30
0.0
 10
540.0662551432382
 20
237.6090100214158
 30
0.0
 10
540.0437238208868
 20
237.6288735364405
 30
0.0
 10
540.0389275778662
 20
237.6416612304012
 30
0.0
 10
540.0359403545103
 20
237.6496257346821
 30
0.0
  0
ARC
  5
5F8
330
1F
100
AcDbEntity
  8
0
370
    15
100
AcDbCircle
 10
539.0296646458999
 20
236.7899276133
 30
0.0
 40
0.3079563589849387
100
AcDbArc
 50
182.6410781672
 51
236.9258930344
  0
ARC
  5
5F9
330
1F
100
AcDbEntity
  8
0
370
    15
100
AcDbCircle
 10
532.2427074070999
 20
247.9421901757
 30
0.0
 40
12.91012635664314
100
AcDbArc
 50
300.124426015
 51
307.1319551438
  0
LINE
  5
5FA
330
1F
100
AcDbEntity
  8
0
370
    15
100
AcDbLine
 10
540.0359403544999
 20
237.6496257347
 30
0.0
 11
540.0323934337999
 21
237.6779259335
 31
0.0
  0
LINE
  5
5FB
330
1F
100
AcDbEntity
  8
0
370
    15
100
AcDbLine
 10
535.8068969281999
 20
235.0928636149
 30
0.0
 11
538.7220354012
 21
236.7757372344
 31
0.0
  0
LINE
  5
5FC
330
1F
100
AcDbEntity
  8
0
370
    15
100
AcDbLine
 10
537.9912874148999
 20
238.1201258659
 30
0.0
 11
535.8068969281999
 21
235.0928636149
 31
0.0
  0
ARC
  5
5FD
330
1F
100
AcDbEntity
  8
0
370
    15
100
AcDbCircle
 10
537.2066265145999
 20
237.3155360282
 30
0.0
 40
1.123858325256849
100
AcDbArc
 50
45.7184417992
 51
59.91569570799999
  0
ELLIPSE
  5
5FE
330
1F
100
AcDbEntity
  8
0
370
    15
100
AcDbEllipse
 10
535.4594816797999
 20
234.7290232451
 30
0.0
 11
0.1268198119031467
 21
0.2947126975712422
 31
0.0
210
0.0
220
0.0
230
0.9999999999999998
 40
0.2199918468
 41
4.226798803085536
 42
4.837641620286981
  0
ELLIPSE
  5
5FF
330
1F
100
AcDbEntity
  8
0
370
    15
100
AcDbEllipse
 10
535.9526216778
 20
235.0137069063
 30
0.0
 11
0.4157010806771951
 21
0.3874636095839036
 31
0.0
210
0.0
220
0.0
230
0.9999999999999998
 40
0.2779324163
 41
1.66354115661745
 42
2.610404696821522
  0
ARC
  5
600
330
1F
100
AcDbEntity
  8
0
370
    15
100
AcDbCircle
 10
535.0222445678
 20
234.288285035
 30
0.0
 40
1.1238443033478
100
AcDbArc
 50
45.71835277549999
 51
59.9157847317
  0
ARC
  5
601
330
1F
100
AcDbEntity
  8
0
370
    15
100
AcDbCircle
 10
535.4549597514
 20
234.3364949846
 30
0.0
 40
0.4104962824404352
100
AcDbArc
 50
78.093552077
 51
100.9266134745
  0
SPLINE
  5
602
330
1F
100
AcDbEntity
  8
0
370
    15
100
AcDbSpline
210
0.0
220
0.0
230
1.0
 70
     8
 71
     3
 72
    12
 73
     8
 74
     0
 42
0.000000001
 43
0.0000000001
 40
0.0
 40
0.0
 40
0.0
 40
0.0
 40
0.0041792665459503
 40
0.1716213008382409
 40
0.5026336897389988
 40
0.7667436921562941
 40
1.0
 40
1.0
 40
1.0
 40
1.0
 10
505.8246453610391
 20
237.3043222560801
 30
0.0
 10
505.8229906281519
 20
237.301781578472
 30
0.0
 10
505.7550391329496
 20
237.1974488226386
 30
0.0
 10
505.5759869182071
 20
236.8796826851448
 30
0.0
 10
505.4012580542243
 20
236.3654024322882
 30
0.0
 10
505.3533401935265
 20
235.8138326897847
 30
0.0
 10
505.4224460369477
 20
235.5739634387479
 30
0.0
 10
505.4548554976497
 20
235.4614688553638
 30
0.0
  0
LWPOLYLINE
  5
603
330
1F
100
AcDbEntity
  8
0
370
    15
100
AcDbPolyline
 90
        3
 70
   128
 43
0.0
 10
508.0891296771
 20
231.9735222685
 10
508.0399284998001
 20
232.0034579441
 10
508.0025547818999
 20
232.026834278
  0
ELLIPSE
  5
604
330
1F
100
AcDbEntity
  8
0
370
    15
100
AcDbEllipse
 10
515.8826631117
 20
251.933978899
 30
0.0
 11
1.872073160998183
 21
2.647188938347142
 31
0.0
210
0.0
220
0.0
230
1.0
 40
0.4990292963
 41
0.8253263243870719
 42
1.610805751846642
  0
ARC
  5
605
330
1F
100
AcDbEntity
  8
0
370
    15
100
AcDbCircle
 10
508.4662604535
 20
242.3332033533
 30
0.0
 40
0.9566322572474543
100
AcDbArc
 50
176.7424882225
 51
237.8864505473
  0
ARC
  5
606
330
1F
100
AcDbEntity
  8
0
370
    15
100
AcDbCircle
 10
509.6398428858
 20
244.1770421435
 30
0.0
 40
1.150489072015288
100
AcDbArc
 50
66.4837332734
 51
131.527561716
  0
LWPOLYLINE
  5
607
330
1F
100
AcDbEntity
  8
0
370
    15
100
AcDbPolyline
 90
        5
 70
   128
 43
0.0
 10
514.4878154857
 20
252.7615663111
 10
514.4747637921
 20
252.7768841429
 10
514.4675843398999
 20
252.7885175904
 10
514.4665477908
 20
252.7960236015
 10
514.4670509187999
 20
252.796954158
  0
LINE
  5
608
330
1F
100
AcDbEntity
  8
0
370
    15
100
AcDbLine
 10
505.4548554976
 20
235.4614688554
 30
0.0
 11
503.852428366
 21
234.5364073627
 31
0.0
  0
ARC
  5
609
330
1F
100
AcDbEntity
  8
0
370
    15
100
AcDbCircle
 10
504.6846130499999
 20
235.8295928321
 30
0.0
 40
1.537810133380524
100
AcDbArc
 50
182.6175368198
 51
237.2380975649
  0
ARC
  5
60A
330
1F
100
AcDbEntity
  8
0
370
    15
100
AcDbCircle
 10
511.7269249329
 20
250.9332042815
 30
0.0
 40
0.2087862937120146
100
AcDbArc
 50
66.7654203309
 51
146.9775024669
  0
ARC
  5
60B
330
1F
100
AcDbEntity
  8
0
370
    15
100
AcDbCircle
 10
512.392416582
 20
251.6729997087
 30
0.0
 40
0.8001730029166731
100
AcDbArc
 50
223.218285487
 51
283.0003909092
  0
LINE
  5
60C
330
1F
100
AcDbEntity
  8
0
370
    15
100
AcDbLine
 10
503.8493503289999
 20
233.7182377849
 30
0.0
 11
507.3621057598999
 21
231.654815066
 31
0.0
  0
ELLIPSE
  5
60D
330
1F
100
AcDbEntity
  8
0
370
    15
100
AcDbEllipse
 10
504.5595356203
 20
234.1246406435
 30
0.0
 11
0.9999975790641995
 21
-0.0037951334569186
 31
0.0
210
0.0
220
0.0
230
1.0
 40
0.5798014867
 41
2.358394915988748
 42
3.924827919653711
  0
LINE
  5
60E
330
1F
100
AcDbEntity
  8
0
370
    15
100
AcDbLine
 10
505.2551624123
 20
240.3076230835
 30
0.0
 11
505.2550570451999
 21
240.3122200949
 31
0.0
  0
LINE
  5
60F
330
1F
100
AcDbEntity
  8
0
370
    15
100
AcDbLine
 10
510.6517153598999
 20
249.483783778
 30
0.0
 11
510.6516020903
 21
249.4833759878
 31
0.0
  0
ARC
  5
610
330
1F
100
AcDbEntity
  8
0
370
    15
100
AcDbCircle
 10
503.3705747517999
 20
235.9949440793
 30
0.0
 40
0.4622829617959363
100
AcDbArc
 50
63.23371332059999
 51
117.3437135608
  0
LWPOLYLINE
  5
611
330
1F
100
AcDbEntity
  8
0
370
    15
100
AcDbPolyline
 90
        5
 70
   128
 43
0.0
 10
507.6666285942
 20
244.9205723481
 10
507.6343190834999
 20
244.91958031
 10
507.6113003187999
 20
244.9139702132
 10
507.59844553
 20
244.9039582419
 10
507.5968347300999
 20
244.9006648515
  0
SPLINE
  5
612
330
1F
100
AcDbEntity
  8
0
370
    15
100
AcDbSpline
210
0.0
220
0.0
230
1.0
 70
     8
 71
     3
 72
    11
 73
     7
 74
     0
 42
0.000000001
 43
0.0000000001
 40
0.0
 40
0.0
 40
0.0
 40
0.0
 40
0.0685132030045026
 40
0.6819493418815096
 40
0.9922549329896705
 40
1.0
 40
1.0
 40
1.0
 40
1.0
 10
505.4121014711023
 20
241.4410159675572
 30
0.0
 10
505.4135841620179
 20
241.4457750231395
 30
0.0
 10
505.4283421947718
 20
241.4931445034731
 30
0.0
 10
505.5817328827603
 20
241.4383834620605
 30
0.0
 10
505.7550226390343
 20
241.379579937515
 30
0.0
 10
505.8229902360458
 20
241.3539341002018
 30
0.0
 10
505.8246453610391
 20
241.353309581046
 30
0.0
  0
ARC
  5
613
330
1F
100
AcDbEntity
  8
0
370
    15
100
AcDbCircle
 10
506.4032802323
 20
243.1204265375
 30
0.0
 40
0.132280589702161
100
AcDbArc
 50
124.6358727287
 51
190.5083812751
  0
ARC
  5
614
330
1F
100
AcDbEntity
  8
0
370
    15
100
AcDbCircle
 10
503.3705747517999
 20
238.7628550474
 30
0.0
 40
0.4622829617959109
100
AcDbArc
 50
63.23371332059999
 51
117.3437135608
  0
LINE
  5
615
330
1F
100
AcDbEntity
  8
0
370
    15
100
AcDbLine
 10
503.5787649273999
 20
239.1756048355
 30
0.0
 11
503.5787649273999
 21
236.4076938674
 31
0.0
  0
LINE
  5
616
330
1F
100
AcDbEntity
  8
0
370
    15
100
AcDbLine
 10
511.7560931826999
 20
251.1596440599
 30
0.0
 11
511.7708261404
 21
251.152561624
 31
0.0
  0
LINE
  5
617
330
1F
100
AcDbEntity
  8
0
370
    15
100
AcDbLine
 10
511.780792553
 20
251.1454351701
 30
0.0
 11
511.7708261404
 21
251.152561624
 31
0.0
  0
ARC
  5
618
330
1F
100
AcDbEntity
  8
0
370
    15
100
AcDbCircle
 10
505.3804492009
 20
240.7010332059
 30
0.0
 40
0.4622177857227661
100
AcDbArc
 50
182.6521481165
 51
236.7703829159999
  0
LINE
  5
619
330
1F
100
AcDbEntity
  8
0
370
    15
100
AcDbLine
 10
505.1271558478999
 20
240.3143967374
 30
0.0
 11
503.7908636741
 21
239.5429716857
 31
0.0
  0
ARC
  5
61A
330
1F
100
AcDbEntity
  8
0
370
    15
100
AcDbCircle
 10
504.0441570270999
 20
239.9296081542
 30
0.0
 40
0.4622177857223525
100
AcDbArc
 50
182.6521481163999
 51
236.7703829159999
  0
ELLIPSE
  5
61B
330
1F
100
AcDbEntity
  8
0
370
    15
100
AcDbEllipse
 10
503.7946958262
 20
239.2958352949
 30
0.0
 11
0.1499871122920808
 21
0.2598150614337556
 31
0.0
210
0.0
220
0.0
230
0.9999999999999998
 40
0.5980578488
 41
0.7854675125340141
 42
2.355959252833707
  0
LINE
  5
61C
330
1F
100
AcDbEntity
  8
0
370
    15
100
AcDbLine
 10
508.1485224891999
 20
231.9379542522
 30
0.0
 11
507.6136486884999
 21
231.6291781796
 31
0.0
  0
ARC
  5
61D
330
1F
100
AcDbEntity
  8
0
370
    15
100
AcDbCircle
 10
507.5100218472
 20
231.859274308
 30
0.0
 40
0.2523544145452697
100
AcDbArc
 50
234.1161332531
 51
294.2450510389
  0
LINE
  5
61E
330
1F
100
AcDbEntity
  8
0
370
    15
100
AcDbLine
 10
922.9992365439999
 20
17.6656985633
 30
0.0
 11
927.7845475771
 21
14.9996521371
 31
0.0
  0
LWPOLYLINE
  5
61F
330
1F
100
AcDbEntity
  8
0
370
    15
100
AcDbPolyline
 90
       14
 70
   128
 43
0.0
 10
927.5902591664999
 20
33.2402036844
 10
927.6220550125
 20
33.2220936993
 10
928.4350953791001
 20
32.5474358736
 10
929.0392388424001
 20
31.5910020414
 10
929.4112690741998
 20
30.3895477427
 10
929.5368890733
 20
28.9892441125
 10
929.4112690741998
 20
27.4439027185
 10
929.0392388424001
 20
25.8129114571
 10
928.4350953791001
 20
24.1589484296
 10
927.6220550125
 20
22.5455741777
 10
926.6313617280999
 20
21.0347893514
 10
925.5010879596001
 20
19.6846532406
 10
924.2746693271
 20
18.547050054
 10
922.9992365439999
 20
17.6656985633
  0
ARC
  5
620
330
1F
100
AcDbEntity
  8
0
370
    15
100
AcDbCircle
 10
903.9119055952001
 20
12.7592406258
 30
0.0
 40
5.130513734084439
100
AcDbArc
 50
260.9857157386
 51
303.3949965615
  0
LINE
  5
621
330
1F
100
AcDbEntity
  8
0
370
    15
100
AcDbLine
 10
906.7357805450999
 20
8.475795582099999
 30
0.0
 11
922.9992365439999
 21
17.8644888863
 31
0.0
  0
LWPOLYLINE
  5
622
330
1F
100
AcDbEntity
  8
0
370
    15
100
AcDbPolyline
 90
       11
 70
   128
 43
0.0
 10
922.9992365439999
 20
17.8644888863
 10
924.3226989536999
 20
18.7891370075
 10
925.5883200821999
 20
19.9946317832
 10
926.7407854835001
 20
21.4282882115
 10
927.7297270394999
 20
23.0274477355
 10
928.5119238155999
 20
24.7222198863
 10
929.0531907663
 20
26.4385355541
 10
929.3298690217
 20
28.1013819523
 10
929.3298690217
 20
29.6380860089
 10
929.0531907663
 20
30.98148649300001
 10
928.6985013285001
 20
31.7791687309
  0
ARC
  5
623
330
1F
100
AcDbEntity
  8
0
370
    15
100
AcDbCircle
 10
904.0801637199999
 20
11.713701647
 30
0.0
 40
4.343176577633656
100
AcDbArc
 50
239.4681487634
 51
307.6941130942
  0
LINE
  5
624
330
1F
100
AcDbEntity
  8
0
370
    15
100
AcDbLine
 10
922.9992365439999
 20
17.6656985633
 30
0.0
 11
906.7357805450999
 21
8.277005259099999
 31
0.0
  0
LINE
  5
625
330
1F
100
AcDbEntity
  8
0
370
    15
100
AcDbLine
 10
922.9992365439999
 20
17.8644888863
 30
0.0
 11
922.8224305144999
 21
17.9683385991
 31
0.0
  0
LWPOLYLINE
  5
626
330
1F
100
AcDbEntity
  8
0
370
    15
100
AcDbPolyline
 90
       11
 70
   128
 43
0.0
 10
922.8224305144999
 20
17.9683385991
 10
924.145572213
 20
18.8927620336
 10
925.4108864597998
 20
20.0979648204
 10
926.5630732967998
 20
21.5312741235
 10
927.5517751425999
 20
23.1300462142
 10
928.3337822577999
 20
24.8244077328
 10
928.8749174997001
 20
26.5403070595
 10
929.1515285835
 20
28.2027503236
 10
929.1515285835
 20
29.7390819435
 10
928.8749174997001
 20
31.0821568482
 10
928.5232336589999
 20
31.8745448416
  0
LINE
  5
627
330
1F
100
AcDbEntity
  8
0
370
    15
100
AcDbLine
 10
906.5589745156
 20
8.5796452949
 30
0.0
 11
922.8224305144999
 21
17.9683385991
 31
0.0
  0
ARC
  5
628
330
1F
100
AcDbEntity
  8
0
370
    15
100
AcDbCircle
 10
903.5741909484
 20
13.2690050249
 30
0.0
 40
5.558689379768204
100
AcDbArc
 50
271.6198192323
 51
302.4768060424
  0
LINE
  5
629
330
1F
100
AcDbEntity
  8
0
370
    15
100
AcDbLine
 10
906.7357805450999
 20
8.475795582099999
 30
0.0
 11
906.5589745156
 21
8.5796452949
 31
0.0
  0
LINE
  5
62A
330
1F
100
AcDbEntity
  8
0
370
    15
100
AcDbLine
 10
911.5210915782
 20
5.610958832899999
 30
0.0
 11
927.7845475771
 21
14.9996521371
 31
0.0
  0
LINE
  5
62B
330
1F
100
AcDbEntity
  8
0
370
    15
100
AcDbLine
 10
906.7357805450999
 20
8.277005259099999
 30
0.0
 11
911.5210915782
 21
5.610958832899999
 31
0.0
  0
LINE
  5
62C
330
1F
100
AcDbEntity
  8
0
370
    15
100
AcDbLine
 10
922.4689027491999
 20
17.9682902172
 30
0.0
 11
551.9972758895
 21
231.8370080797
 31
0.0
  0
LINE
  5
62D
330
1F
100
AcDbEntity
  8
0
370
    15
100
AcDbLine
 10
928.4612382789999
 20
32.0080048671
 30
0.0
 11
558.5830765833
 21
245.5341225828
 31
0.0
  0
LINE
  5
62E
330
1F
100
AcDbEntity
  8
0
370
    15
100
AcDbLine
 10
906.2054467502999
 20
8.579596912999999
 30
0.0
 11
536.0096242574
 21
222.2890963036
 31
0.0
  0
LINE
  5
62F
330
1F
100
AcDbEntity
  8
0
370
    15
100
AcDbLine
 10
928.6553943221001
 20
31.7195288103
 30
0.0
 11
928.5683189330999
 21
31.7697963624
 31
0.0
  0
LINE
  5
630
330
1F
100
AcDbEntity
  8
0
370
    15
100
AcDbLine
 10
558.5767914345
 20
245.6608836836
 30
0.0
 11
928.7249181828999
 21
31.9789184603
 31
0.0
  0
LWPOLYLINE
  5
631
330
1F
100
AcDbEntity
  8
0
370
    15
100
AcDbPolyline
 90
       10
 70
   128
 43
0.0
 10
514.0073038755999
 20
247.4348127692
 10
514.010897553
 20
247.4327631746
 10
514.1871713138999
 20
247.2298833671
 10
514.2490703818
 20
246.9062687544
 10
514.1871713138999
 20
246.5111869991
 10
514.010897553
 20
246.1047856492
 10
513.7470852817
 20
245.7489358238
 10
513.4358976477
 20
245.4978120776
 10
513.1247096844
 20
245.3896460393
 10
512.8615394939999
 20
245.4405350543
  0
LWPOLYLINE
  5
632
330
1F
100
AcDbEntity
  8
0
370
    15
100
AcDbPolyline
 90
        9
 70
   128
 43
0.0
 10
518.0320918201999
 20
242.5586964805
 10
518.4379888557999
 20
242.8862489822
 10
518.7820916967999
 20
243.3504010564
 10
519.0120139505999
 20
243.8804897985
 10
519.0927518366001
 20
244.3958137031
 10
519.0120139505999
 20
244.8179196289
 10
518.7820916967999
 20
245.0825457871
 10
518.4379888557999
 20
245.1494050827
 10
518.1254719496999
 20
245.0574701088
  0
LWPOLYLINE
  5
633
330
1F
100
AcDbEntity
  8
0
370
    15
100
AcDbPolyline
 90
        5
 70
   128
 43
0.0
 10
516.9755654877
 20
243.0655578221
 10
517.0521693605
 20
242.749095599
 10
517.2820916143999
 20
242.4844694408
 10
517.6261946199999
 20
242.4176101452
 10
518.0320918201999
 20
242.5586964805
  0
LWPOLYLINE
  5
634
330
1F
100
AcDbEntity
  8
0
370
    15
100
AcDbPolyline
 90
       10
 70
   128
 43
0.0
 10
514.0073038755999
 20
252.619846862
 10
514.010897553
 20
252.6177974576
 10
514.1871713138999
 20
252.4149174599
 10
514.2490703818
 20
252.0913028472
 10
514.1871713138999
 20
251.6962210919
 10
514.010897553
 20
251.2898199321
 10
513.7470852817
 20
250.9339699167
 10
513.4358976477
 20
250.6828463605
 10
513.1247096844
 20
250.5746801321
 10
512.8615394939999
 20
250.625568957
  0
LWPOLYLINE
  5
635
330
1F
100
AcDbEntity
  8
0
370
    15
100
AcDbPolyline
 90
        3
 70
   128
 43
0.0
 10
518.0320918201999
 20
247.7437305733
 10
518.4379888557999
 20
248.0712831701
 10
518.7615475777
 20
248.5004843964
  0
LWPOLYLINE
  5
636
330
1F
100
AcDbEntity
  8
0
370
    15
100
AcDbPolyline
 90
        3
 70
   128
 43
0.0
 10
518.4479440730999
 20
250.3353558349
 10
518.4379888557999
 20
250.3344392706
 10
518.1254719496999
 20
250.2425042967
  0
LWPOLYLINE
  5
637
330
1F
100
AcDbEntity
  8
0
370
    15
100
AcDbPolyline
 90
        5
 70
   128
 43
0.0
 10
516.9755654877
 20
248.2505919149
 10
517.0521693605
 20
247.9341296918
 10
517.2820916143999
 20
247.6695035336
 10
517.6261946199999
 20
247.602644333
 10
518.0320918201999
 20
247.7437305733
  0
LWPOLYLINE
  5
638
330
1F
100
AcDbEntity
  8
0
370
    15
100
AcDbPolyline
 90
       10
 70
   128
 43
0.0
 10
519.6075894206
 20
255.8528228913
 10
519.6111834272
 20
255.8507736769
 10
519.7874570235
 20
255.6478935842
 10
519.8493559266999
 20
255.3242788764
 10
519.7874570235
 20
254.9291972162
 10
519.6111834272
 20
254.5227961515
 10
519.3473711559
 20
254.166946136
 10
519.0361831926
 20
253.9158223898
 10
518.7249955586
 20
253.8076563514
 10
518.4618252036
 20
253.8585450813
  0
LWPOLYLINE
  5
639
330
1F
100
AcDbEntity
  8
0
370
    15
100
AcDbPolyline
 90
        9
 70
   128
 43
0.0
 10
523.6323773651999
 20
250.9767066026
 10
524.0382745654
 20
251.3042592944
 10
524.382377571
 20
251.7684113686
 10
524.6122998248999
 20
252.2985001106
 10
524.6930377107999
 20
252.8138240153
 10
524.6122998248999
 20
253.235929941
 10
524.382377571
 20
253.5005560993
 10
524.0382745654
 20
253.5674153949
 10
523.7257576593
 20
253.475480421
  0
LWPOLYLINE
  5
63A
330
1F
100
AcDbEntity
  8
0
370
    15
100
AcDbPolyline
 90
        5
 70
   128
 43
0.0
 10
522.5758510326999
 20
251.4835679442
 10
522.6524552348
 20
251.1671059112
 10
522.8823774886
 20
250.9024797529
 10
523.2264803296
 20
250.8356204573
 10
523.6323773651999
 20
250.9767066026
  0
LWPOLYLINE
  5
63B
330
1F
100
AcDbEntity
  8
0
370
    15
100
AcDbPolyline
 90
       10
 70
   128
 43
0.0
 10
519.6075894206
 20
250.6677887985
 10
519.6111834272
 20
250.665739394
 10
519.7874570235
 20
250.4628594914
 10
519.8493559266999
 20
250.1392447836
 10
519.7874570235
 20
249.7441631234
 10
519.6111834272
 20
249.3377618685
 10
519.3473711559
 20
248.9819120432
 10
519.0361831926
 20
248.7307881069
 10
518.7249955586
 20
248.6226222586
 10
518.4618252036
 20
248.6735111786
  0
LWPOLYLINE
  5
63C
330
1F
100
AcDbEntity
  8
0
370
    15
100
AcDbPolyline
 90
        9
 70
   128
 43
0.0
 10
523.6323773651999
 20
245.7916725098
 10
524.0382745654
 20
246.1192251065
 10
524.382377571
 20
246.5833772758
 10
524.6122998248999
 20
247.1134660178
 10
524.6930377107999
 20
247.6287899225
 10
524.6122998248999
 20
248.0508958482
 10
524.382377571
 20
248.3155220065
 10
524.0382745654
 20
248.382381207
 10
523.7257576593
 20
248.2904462331
  0
LWPOLYLINE
  5
63D
330
1F
100
AcDbEntity
  8
0
370
    15
100
AcDbPolyline
 90
        5
 70
   128
 43
0.0
 10
522.5758510326999
 20
246.2985338514
 10
522.6524552348
 20
245.9820718184
 10
522.8823774886
 20
245.7174456601
 10
523.2264803296
 20
245.6505862695
 10
523.6323773651999
 20
245.7916725098
  0
LINE
  5
63E
330
1F
100
AcDbEntity
  8
0
370
    15
100
AcDbLine
 10
514.4878154857
 20
252.7615663111
 30
0.0
 11
514.2743384053
 21
252.4657164673
 31
0.0
  0
LINE
  5
63F
330
1F
100
AcDbEntity
  8
0
370
    15
100
AcDbLine
 10
528.7518302595999
 20
260.9960067651
 30
0.0
 11
519.7251213406999
 21
255.7849986256
 31
0.0
  0
LINE
  5
640
330
1F
100
AcDbEntity
  8
0
370
    15
100
AcDbLine
 10
518.1088213104
 20
254.8519284791
 30
0.0
 11
514.4878154857
 21
252.7615663111
 31
0.0
  0
ARC
  5
641
330
1F
100
AcDbEntity
  8
0
370
    15
100
AcDbCircle
 10
512.2233885299
 20
251.7317235877
 30
0.0
 40
0.9590656379515916
100
AcDbArc
 50
225.5582787937
 51
294.4104468327
  0
ARC
  5
642
330
1F
100
AcDbEntity
  8
0
370
    15
100
AcDbCircle
 10
533.9379220905
 20
258.4669442299
 30
0.0
 40
4.620585658369585
100
AcDbArc
 50
24.124294451
 51
59.93674666169999
  0
LWPOLYLINE
  5
643
330
1F
100
AcDbEntity
  8
0
370
    15
100
AcDbPolyline
 90
       15
 70
   128
 43
0.0
 10
549.3919434241
 20
230.2936523525
 10
550.9491522555999
 20
231.3499329181
 10
552.4590459814
 20
232.6887641083
 10
553.8757477566999
 20
234.2694662238
 10
555.1562111613
 20
236.0440109464
 10
556.2615293857
 20
237.9584790244
 10
557.158119294
 20
239.9547012395
 10
557.8187382172
 20
241.9720229663
 10
558.2233124015
 20
243.9491480263
 10
558.3595507722
 20
245.8260038562
 10
558.2233124015
 20
247.5455622115
 10
557.8187382172
 20
249.0555758611
 10
557.158119294
 20
250.3101632144
 10
556.2615293857
 20
251.2712047558
 10
555.8014306797
 20
251.5917670672
  0
ARC
  5
644
330
1F
100
AcDbEntity
  8
0
370
    15
100
AcDbCircle
 10
538.225178579
 20
256.0947985265
 30
0.0
 40
0.1442701874062268
100
AcDbArc
 50
124.2733179772
 51
187.1645601364
  0
ARC
  5
645
330
1F
100
AcDbEntity
  8
0
370
    15
100
AcDbCircle
 10
538.5692437581
 20
256.6733494456
 30
0.0
 40
0.151877708793568
100
AcDbArc
 50
114.5113764418
 51
173.3675009435
  0
ARC
  5
646
330
1F
100
AcDbEntity
  8
0
370
    15
100
AcDbCircle
 10
538.5659788072
 20
259.4438266391
 30
0.0
 40
0.1482004691428789
100
AcDbArc
 50
113.7744581778
 51
174.9043029881
  0
ARC
  5
647
330
1F
100
AcDbEntity
  8
0
370
    15
100
AcDbCircle
 10
536.8887411450999
 20
255.3234168787
 30
0.0
 40
0.1441314878227302
100
AcDbArc
 50
124.1232995883
 51
187.1888814059
  0
ELLIPSE
  5
648
330
1F
100
AcDbEntity
  8
0
370
    15
100
AcDbEllipse
 10
536.9580038637999
 20
255.6729930497
 30
0.0
 11
0.1579443292260976
 21
0.2554856004359749
 31
0.0
210
0.0
220
0.0
230
1.0
 40
0.5765060239000001
 41
2.373651624904238
 42
3.170766110038413
  0
ARC
  5
649
330
1F
100
AcDbEntity
  8
0
370
    15
100
AcDbCircle
 10
539.0063769791001
 20
260.2796163125999
 30
0.0
 40
0.4932747752790175
100
AcDbArc
 50
125.0438336332
 51
186.2795004627
  0
ARC
  5
64A
330
1F
100
AcDbEntity
  8
0
370
    15
100
AcDbCircle
 10
540.8459854762999
 20
260.2854199657
 30
0.0
 40
0.4951253961036736
100
AcDbArc
 50
353.8951596371
 51
55.3110679167
  0
LINE
  5
64B
330
1F
100
AcDbEntity
  8
0
370
    15
100
AcDbLine
 10
536.7420732642
 20
255.5524642624
 30
0.0
 11
536.8745645166999
 21
255.4812265987
 31
0.0
  0
SPLINE
  5
64C
330
1F
100
AcDbEntity
  8
0
370
    15
100
AcDbSpline
210
0.0
220
0.0
230
1.0
 70
     8
 71
     3
 72
    13
 73
     9
 74
     0
 42
0.000000001
 43
0.0000000001
 40
0.0
 40
0.0
 40
0.0
 40
0.0
 40
0.0392297461977924
 40
0.443348072602889
 40
0.6932293021498389
 40
0.8528934541384606
 40
0.8943968573546472
 40
1.0
 40
1.0
 40
1.0
 40
1.0
 10
535.1609895600943
 20
241.7024821692332
 30
0.0
 10
535.1580486989383
 20
241.7038337248389
 30
0.0
 10
535.1248130741448
 20
241.719108092655
 30
0.0
 10
535.089823060705
 20
241.7605983448552
 30
0.0
 10
535.0748811552031
 20
241.8268046287808
 30
0.0
 10
535.0902564619058
 20
241.8775853262964
 30
0.0
 10
535.1116991390886
 20
241.9161580862346
 30
0.0
 10
535.1275171164709
 20
241.9358212211241
 30
0.0
 10
535.1388723427937
 20
241.9499367645653
 30
0.0
  0
LINE
  5
64D
330
1F
100
AcDbEntity
  8
0
370
    15
100
AcDbLine
 10
538.4183653821
 20
257.3526664219
 30
0.0
 11
536.7420732642
 21
258.3203752305
 31
0.0
  0
ARC
  5
64E
330
1F
100
AcDbEntity
  8
0
370
    15
100
AcDbCircle
 10
530.2441131773
 20
244.8256204564
 30
0.0
 40
0.1730117420640694
100
AcDbArc
 50
139.4752792087
 51
215.8887806785
  0
ELLIPSE
  5
64F
330
1F
100
AcDbEntity
  8
0
370
    15
100
AcDbEllipse
 10
538.2940365639
 20
259.2118807778
 30
0.0
 11
0.1422601441408915
 21
0.2645398898343387
 31
0.0
210
0.0
220
0.0
230
1.0
 40
0.5765027651
 41
6.236309054349268
 42
7.050964300308686
  0
LINE
  5
650
330
1F
100
AcDbEntity
  8
0
370
    15
100
AcDbLine
 10
538.4183653821
 20
259.3800828645
 30
0.0
 11
538.2904641848
 21
259.4591671324
 31
0.0
  0
LINE
  5
651
330
1F
100
AcDbEntity
  8
0
370
    15
100
AcDbLine
 10
536.9541720109999
 20
258.6877420807
 30
0.0
 11
538.4183653821
 21
257.8424770957
 31
0.0
  0
ARC
  5
652
330
1F
100
AcDbEntity
  8
0
370
    15
100
AcDbCircle
 10
529.7333522487999
 20
261.1035269857
 30
0.0
 40
0.987393545172117
100
AcDbArc
 50
125.0840761312
 51
186.2515043688
  0
LWPOLYLINE
  5
653
330
1F
100
AcDbEntity
  8
0
370
    15
100
AcDbPolyline
 90
       11
 70
   128
 43
0.0
 10
534.1498629566999
 20
259.1052985499
 10
534.1340289126
 20
259.1147176081
 10
533.6427876367999
 20
259.2101652934
 10
533.0633303729999
 20
259.0087513726
 10
532.4838717920999
 20
258.5411374169
 10
531.9926305163
 20
257.8785146272
 10
531.6643941529
 20
257.1217607044
 10
531.5491324003
 20
256.3860846996
 10
531.6643941529
 20
255.7834868916
 10
531.9926305163
 20
255.4057069875
 10
531.9993463532
 20
255.4018773317
  0
ARC
  5
654
330
1F
100
AcDbEntity
  8
0
370
    15
100
AcDbCircle
 10
535.551409119
 20
240.6367292408
 30
0.0
 40
0.1145053816093673
100
AcDbArc
 50
247.2309648849
 51
316.9568301515
  0
SPLINE
  5
655
330
1F
100
AcDbEntity
  8
0
370
    15
100
AcDbSpline
210
0.0
220
0.0
230
1.0
 70
     8
 71
     3
 72
    10
 73
     6
 74
     0
 42
0.000000001
 43
0.0000000001
 40
0.0
 40
0.0
 40
0.0
 40
0.0
 40
0.3387557449169185
 40
0.7442483158460356
 40
1.0
 40
1.0
 40
1.0
 40
1.0
 10
535.3843046369292
 20
240.7293961357208
 30
0.0
 10
535.3843337660938
 20
240.7477093637434
 30
0.0
 10
535.3843977630354
 20
240.7879436308164
 30
0.0
 10
535.4187982624414
 20
240.8412351146965
 30
0.0
 10
535.4546102375643
 20
240.8704117600313
 30
0.0
 10
535.4684613566933
 20
240.8816965101445
 30
0.0
  0
ARC
  5
656
330
1F
100
AcDbEntity
  8
0
370
    15
100
AcDbCircle
 10
547.5439212923999
 20
254.090272789
 30
0.0
 40
4.559460670132969
100
AcDbArc
 50
119.2542982649
 51
120.4186712793
  0
ARC
  5
657
330
1F
100
AcDbEntity
  8
0
370
    15
100
AcDbCircle
 10
535.5141246566001
 20
241.174397956
 30
0.0
 40
0.1674162508415756
100
AcDbArc
 50
118.7340602149
 51
179.7792732507
  0
SPLINE
  5
658
330
1F
100
AcDbEntity
  8
0
370
    15
100
AcDbSpline
210
0.0
220
0.0
230
1.0
 70
     8
 71
     3
 72
    11
 73
     7
 74
     0
 42
0.000000001
 43
0.0000000001
 40
0.0
 40
0.0
 40
0.0
 40
0.0
 40
0.2141700988332471
 40
0.6255237927798789
 40
0.9893345370647288
 40
1.0
 40
1.0
 40
1.0
 40
1.0
 10
540.1228471561398
 20
237.7493323209725
 30
0.0
 10
540.1464753669471
 20
237.7359907037828
 30
0.0
 10
540.2154859717024
 20
237.6970240178084
 30
0.0
 10
540.3367632521097
 20
237.66189211357
 30
0.0
 10
540.4313822769534
 20
237.6431569524172
 30
0.0
 10
540.4762254984014
 20
237.6370776351726
 30
0.0
 10
540.477502678919
 20
237.6369044900395
 30
0.0
  0
SPLINE
  5
659
330
1F
100
AcDbEntity
  8
0
370
    15
100
AcDbSpline
210
0.0
220
0.0
230
1.0
 70
     8
 71
     3
 72
    12
 73
     8
 74
     0
 42
0.000000001
 43
0.0000000001
 40
0.0
 40
0.0
 40
0.0
 40
0.0
 40
0.1215479674812513
 40
0.1751843372185718
 40
0.3600301455465152
 40
0.6522092560610312
 40
1.0
 40
1.0
 40
1.0
 40
1.0
 10
535.3395440252661
 20
241.7572755415073
 30
0.0
 10
535.3283018696436
 20
241.7437461641746
 30
0.0
 10
535.3120988049403
 20
241.7242465785367
 30
0.0
 10
535.2833160154587
 20
241.6918543461082
 30
0.0
 10
535.2503007402358
 20
241.6580788577022
 30
0.0
 10
535.2234238893021
 20
241.6385279376924
 30
0.0
 10
535.2198767423779
 20
241.6458871152535
 30
0.0
 10
535.2179490502233
 20
241.6498864502549
 30
0.0
  0
ARC
  5
65A
330
1F
100
AcDbEntity
  8
0
370
    15
100
AcDbCircle
 10
539.9787667606999
 20
237.7757643254
 30
0.0
 40
0.1115713717567163
100
AcDbArc
 50
298.7278006451
 51
359.8554221761
  0
LINE
  5
65B
330
1F
100
AcDbEntity
  8
0
370
    15
100
AcDbLine
 10
540.0323934337999
 20
237.6779259335
 30
0.0
 11
540.0220035771
 21
237.8090675933
 31
0.0
  0
LWPOLYLINE
  5
65C
330
1F
100
AcDbEntity
  8
0
370
    15
100
AcDbPolyline
 90
        3
 70
   128
 43
0.0
 10
538.5532161995
 20
238.6976093427
 10
538.2862949396
 20
238.4677685102
 10
537.9912874148999
 20
238.1201258659
  0
ARC
  5
65D
330
1F
100
AcDbEntity
  8
0
370
    15
100
AcDbCircle
 10
549.6323277080001
 20
230.6118765527
 30
0.0
 40
0.3988122936428992
100
AcDbArc
 50
232.9328618586
 51
294.7416142706
  0
ARC
  5
65E
330
1F
100
AcDbEntity
  8
0
370
    15
100
AcDbCircle
 10
510.7151491966
 20
237.4757965121
 30
0.0
 40
6.096802470821142
100
AcDbArc
 50
244.4866886118
 51
306.1113762254
  0
ARC
  5
65F
330
1F
100
AcDbEntity
  8
0
370
    15
100
AcDbCircle
 10
529.8479926430998
 20
226.300786269
 30
0.0
 40
6.344845084110937
100
AcDbArc
 50
244.8727087188999
 51
305.7253669824
  0
ARC
  5
660
330
1F
100
AcDbEntity
  8
0
370
    15
100
AcDbCircle
 10
533.7931308106
 20
221.4681190159
 30
0.0
 40
0.3988193051509946
100
AcDbArc
 50
232.9346244429
 51
294.753697921
  0
LINE
  5
661
330
1F
100
AcDbEntity
  8
0
370
    15
100
AcDbLine
 10
507.5075018505
 20
242.5071468047
 30
0.0
 11
507.5111738947
 21
242.38756272
 31
0.0
  0
ARC
  5
662
330
1F
100
AcDbEntity
  8
0
370
    15
100
AcDbCircle
 10
510.8306715057
 20
242.3451602796
 30
0.0
 40
3.327115295742603
100
AcDbArc
 50
125.9563935442
 51
177.2093498431
  0
ARC
  5
663
330
1F
100
AcDbEntity
  8
0
370
    15
100
AcDbCircle
 10
505.4059368648
 20
237.5285779995
 30
0.0
 40
0.1518792641371644
100
AcDbArc
 50
114.5117074347
 51
173.3671699506
  0
ARC
  5
664
330
1F
100
AcDbEntity
  8
0
370
    15
100
AcDbCircle
 10
505.0700046762
 20
236.9465428171
 30
0.0
 40
0.1519722514907848
100
AcDbArc
 50
126.6944370735
 51
185.4780713645
  0
LINE
  5
665
330
1F
100
AcDbEntity
  8
0
370
    15
100
AcDbLine
 10
512.1271606224
 20
250.9470308881
 30
0.0
 11
511.8092904081
 21
251.1250574674
 31
0.0
  0
LINE
  5
666
330
1F
100
AcDbEntity
  8
0
370
    15
100
AcDbLine
 10
507.3621057598999
 20
231.654815066
 30
0.0
 11
508.0044527072
 21
232.0256340655
 31
0.0
  0
ARC
  5
667
330
1F
100
AcDbEntity
  8
0
370
    15
100
AcDbCircle
 10
505.4026175804
 20
240.2990956997
 30
0.0
 40
0.1481430434117041
100
AcDbArc
 50
113.761890218
 51
174.9173475292
  0
ARC
  5
668
330
1F
100
AcDbEntity
  8
0
370
    15
100
AcDbCircle
 10
503.7297059974
 20
236.176713121
 30
0.0
 40
0.1481494510797859
100
AcDbArc
 50
125.0719907307
 51
186.2401902635
  0
ELLIPSE
  5
669
330
1F
100
AcDbEntity
  8
0
370
    15
100
AcDbEllipse
 10
504.5626209458999
 20
234.939392562
 30
0.0
 11
1.999998800037645
 21
-0.0037868304683286
 31
0.0
210
0.0
220
0.0
230
0.9999999999999998
 40
0.5785459913000001
 41
2.357289918205076
 42
3.127709341624651
  0
ARC
  5
66A
330
1F
100
AcDbEntity
  8
0
370
    15
100
AcDbCircle
 10
503.5591721908999
 20
234.1024014981
 30
0.0
 40
0.4814406613896802
100
AcDbArc
 50
243.6953350905
 51
307.0655824706
  0
ARC
  5
66B
330
1F
100
AcDbEntity
  8
0
370
    15
100
AcDbCircle
 10
510.6517315508999
 20
249.3908128223
 30
0.0
 40
0.0929709570804705
100
AcDbArc
 50
54.8686284809
 51
90.00997810059999
  0
SPLINE
  5
66C
330
1F
100
AcDbEntity
  8
0
370
    15
100
AcDbSpline
210
0.0
220
0.0
230
1.0
 70
     8
 71
     3
 72
    10
 73
     6
 74
     0
 42
0.000000001
 43
0.0000000001
 40
0.0
 40
0.0
 40
0.0
 40
0.0
 40
0.4300016624298542
 40
0.8360811407037447
 40
1.0
 40
1.0
 40
1.0
 40
1.0
 10
511.5391732315933
 20
251.0560821405103
 30
0.0
 10
511.5262858964566
 20
251.0604218039641
 30
0.0
 10
511.501228184352
 20
251.0688597033673
 30
0.0
 10
511.4813949211759
 20
251.0670009991163
 30
0.0
 10
511.4799400112805
 20
251.0570619976199
 30
0.0
 10
511.4795216115157
 20
251.0542037615857
 30
0.0
  0
ELLIPSE
  5
66D
330
1F
100
AcDbEntity
  8
0
370
    15
100
AcDbEllipse
 10
503.7946958262
 20
236.5282228275
 30
0.0
 11
0.1579443292261545
 21
0.2554856004359181
 31
0.0
210
0.0
220
0.0
230
1.0
 40
0.5765060239000001
 41
2.373651624904482
 42
3.170766110039608
  0
SPLINE
  5
66E
330
1F
100
AcDbEntity
  8
0
370
    15
100
AcDbSpline
210
0.0
220
0.0
230
1.0
 70
     8
 71
     3
 72
    12
 73
     8
 74
     0
 42
0.000000001
 43
0.0000000001
 40
0.0
 40
0.0
 40
0.0
 40
0.0
 40
0.278673507847132
 40
0.5870913552835649
 40
0.8911706252044456
 40
0.9901606408711185
 40
1.0
 40
1.0
 40
1.0
 40
1.0
 10
508.8939487740856
 20
248.027248378478
 30
0.0
 10
508.8710136292989
 20
248.0247358708343
 30
0.0
 10
508.8226953469461
 20
248.0194426819371
 30
0.0
 10
508.7671202978761
 20
247.9663959103401
 30
0.0
 10
508.740888689214
 20
247.9043257920946
 30
0.0
 10
508.7338177696527
 20
247.8628275748325
 30
0.0
 10
508.732548870355
 20
247.8515752463339
 30
0.0
 10
508.7324341480577
 20
247.8505579134553
 30
0.0
  0
ELLIPSE
  5
66F
330
1F
100
AcDbEntity
  8
0
370
    15
100
AcDbEllipse
 10
504.5626209458999
 20
238.995505451
 30
0.0
 11
1.999998820799249
 21
0.0037703459202589
 31
0.0
210
0.0
220
0.0
230
1.0
 40
0.5760266851
 41
2.355108580047917
 42
3.140506743445341
  0
LINE
  5
670
330
1F
100
AcDbEntity
  8
0
370
    15
100
AcDbLine
 10
503.5787649273999
 20
236.4076938674
 30
0.0
 11
503.7112574969
 21
236.336456964
 31
0.0
  0
SPLINE
  5
671
330
1F
100
AcDbEntity
  8
0
370
    15
100
AcDbSpline
210
0.0
220
0.0
230
1.0
 70
     8
 71
     3
 72
    11
 73
     7
 74
     0
 42
0.000000001
 43
0.0000000001
 40
0.0
 40
0.0
 40
0.0
 40
0.0
 40
0.0178051322521704
 40
0.3930078212636886
 40
0.7499066406992147
 40
1.0
 40
1.0
 40
1.0
 40
1.0
 10
508.7324341480577
 20
247.8505579134553
 30
0.0
 10
508.7318541506599
 20
247.8509088002688
 30
0.0
 10
508.7190520265103
 20
247.8586538290678
 30
0.0
 10
508.6996310588343
 20
247.8705908976922
 30
0.0
 10
508.6820833525409
 20
247.8818527426012
 30
0.0
 10
508.6848152906613
 20
247.8809750557182
 30
0.0
 10
508.6859409057941
 20
247.8806134305298
 30
0.0
  0
SPLINE
  5
672
330
1F
100
AcDbEntity
  8
0
370
    15
100
AcDbSpline
210
0.0
220
0.0
230
1.0
 70
     8
 71
     3
 72
    10
 73
     6
 74
     0
 42
0.000000001
 43
0.0000000001
 40
0.0
 40
0.0
 40
0.0
 40
0.0
 40
0.4274198025521971
 40
0.8619190109582058
 40
1.0
 40
1.0
 40
1.0
 40
1.0
 10
506.2732182210076
 20
243.0963012888681
 30
0.0
 10
506.151196410953
 20
243.0247117340905
 30
0.0
 10
505.9051317288548
 20
242.8803468780863
 30
0.0
 10
505.7289778107144
 20
242.7423781220262
 30
0.0
 10
505.7272487243366
 20
242.6710551050469
 30
0.0
 10
505.7268317452686
 20
242.6538551516259
 30
0.0
  0
LINE
  5
673
330
1F
100
AcDbEntity
  8
0
370
    15
100
AcDbLine
 10
505.2550570451999
 20
238.2078960269
 30
0.0
 11
503.5787649273999
 21
239.1756048355
 31
0.0
  0
ARC
  5
674
330
1F
100
AcDbEntity
  8
0
370
    15
100
AcDbCircle
 10
511.7043665244999
 20
250.9890299567
 30
0.0
 40
0.17828297554575
100
AcDbArc
 50
73.13378454159999
 51
157.9076991529
  0
LINE
  5
675
330
1F
100
AcDbEntity
  8
0
370
    15
100
AcDbLine
 10
511.8092904081
 20
251.1250574674
 30
0.0
 11
511.780792553
 21
251.1454351701
 31
0.0
  0
ARC
  5
676
330
1F
100
AcDbEntity
  8
0
370
    15
100
AcDbCircle
 10
503.6243873183
 20
239.868782104
 30
0.0
 40
0.4798008732247819
100
AcDbArc
 50
124.0766897942
 51
187.235727226
  0
ELLIPSE
  5
677
330
1F
100
AcDbEntity
  8
0
370
    15
100
AcDbEllipse
 10
505.1307285262999
 20
240.0671105556
 30
0.0
 11
0.1422601441408347
 21
0.2645398898343672
 31
0.0
210
0.0
220
0.0
230
1.0
 40
0.5765027651
 41
6.236309054349268
 42
7.050964300308436
  0
LINE
  5
678
330
1F
100
AcDbEntity
  8
0
370
    15
100
AcDbLine
 10
505.2550583623
 20
240.2353132298
 30
0.0
 11
505.1271558478999
 21
240.3143967374
 31
0.0
  0
ELLIPSE
  5
679
330
1F
100
AcDbEntity
  8
0
370
    15
100
AcDbEllipse
 10
507.7141401675
 20
232.2645916254
 30
0.0
 11
0.7688460843943404
 21
0.7042939899846772
 31
0.0
210
0.0
220
0.0
230
0.9999999999999998
 40
0.265585288
 41
3.223009072731898
 42
4.012680050529896
  0
LINE
  5
67A
330
1F
100
AcDbEntity
  8
0
370
    15
100
AcDbLine
 10
503.7908636741
 20
239.5429716857
 30
0.0
 11
505.2550570451999
 21
238.6977067007
 31
0.0
  0
LWPOLYLINE
  5
67B
330
1F
100
AcDbEntity
  8
0
370
    15
100
AcDbPolyline
 90
       13
 70
   128
 43
0.0
 10
927.7845475771
 20
14.9996521371
 10
929.0436846763999
 20
15.8697430817
 10
930.2544339007999
 20
16.9928114905
 10
931.3702664467999
 20
18.3256978556
 10
932.3483025057001
 20
19.8171802796
 10
933.1509563083999
 20
21.4099420187
 10
933.7473803128998
 20
23.0427728871
 10
934.1146571704999
 20
24.6529257249
 10
934.238671638
 20
26.1785228962
 10
934.1146571704999
 20
27.560936011
 10
933.7473803128998
 20
28.7470400153
 10
933.1509563083999
 20
29.6912543857
 10
932.4039218578
 20
30.3243805613
  0
ARC
  5
67C
330
1F
100
AcDbEntity
  8
0
370
    15
100
AcDbCircle
 10
928.0656718549
 20
15.4070825199
 30
0.0
 40
0.4950054306367938
100
AcDbArc
 50
235.3945803745
 51
294.6738503796
  0
ARC
  5
67D
330
1F
100
AcDbEntity
  8
0
370
    15
100
AcDbCircle
 10
911.8022645321
 20
6.018543338799999
 30
0.0
 40
0.4951599332016772
100
AcDbArc
 50
235.4000726714
 51
294.6379767251
  0
ARC
  5
67E
330
1F
100
AcDbEntity
  8
0
370
    15
100
AcDbCircle
 10
908.8384235447
 20
9.368199828699999
 30
0.0
 40
4.616661962755925
100
AcDbArc
 50
246.7279584973
 51
305.526816006
  0
ENDSEC
  0
SECTION
  2
OBJECTS
  0
DICTIONARY
  5
C
330
0
100
AcDbDictionary
281
     1
  3
ACAD_CIP_PREVIOUS_PRODUCT_INFO
350
6BF
  3
ACAD_COLOR
350
6B3
  3
ACAD_DETAILVIEWSTYLE
350
6BA
  3
ACAD_GROUP
350
D
  3
ACAD_LAYOUT
350
1A
  3
ACAD_MATERIAL
350
681
  3
ACAD_MLEADERSTYLE
350
6B6
  3
ACAD_MLINESTYLE
350
17
  3
ACAD_PLOTSETTINGS
350
19
  3
ACAD_PLOTSTYLENAME
350
E
  3
ACAD_SCALELIST
350
47
  3
ACAD_SECTIONVIEWSTYLE
350
6B8
  3
ACAD_TABLESTYLE
350
6B4
  3
ACAD_VISUALSTYLE
350
69A
  3
ACDB_RECOMPOSE_DATA
350
6DF
  3
AcDbVariableDictionary
350
6D3
  3
DWGPROPS
350
6E0
  0
DICTIONARY
  5
6C0
330
10
100
AcDbDictionary
280
     1
281
     1
  3
ADSK_XREC_LAYER_RECONCILED
360
6C1
  0
DICTIONARY
  5
6C2
330
6F
100
AcDbDictionary
280
     1
281
     1
  3
ADSK_XREC_LAYER_RECONCILED
360
6C3
  0
DICTIONARY
  5
6C4
330
70
100
AcDbDictionary
280
     1
281
     1
  3
ADSK_XREC_LAYER_RECONCILED
360
6C5
  0
DICTIONARY
  5
6C6
330
71
100
AcDbDictionary
280
     1
281
     1
  3
ADSK_XREC_LAYER_RECONCILED
360
6C7
  0
XRECORD
  5
6BF
102
{ACAD_REACTORS
330
C
102
}
330
C
100
AcDbXrecord
280
     1
300
ACDLT
300
2013
300
ACDLT_F_S
  0
DICTIONARY
  5
6B3
102
{ACAD_REACTORS
330
C
102
}
330
C
100
AcDbDictionary
281
     1
  0
DICTIONARY
  5
6BA
102
{ACAD_REACTORS
330
C
102
}
330
C
100
AcDbDictionary
281
     1
  3
Metric50
350
6BB
  0
DICTIONARY
  5
D
102
{ACAD_REACTORS
330
C
102
}
330
C
100
AcDbDictionary
281
     1
  0
DICTIONARY
  5
1A
102
{ACAD_REACTORS
330
C
102
}
330
C
100
AcDbDictionary
281
     1
  3
Layout1
350
1E
  3
Layout2
350
26
  3
Model
350
22
  0
DICTIONARY
  5
681
102
{ACAD_REACTORS
330
C
102
}
330
C
100
AcDbDictionary
281
     1
  3
ByBlock
350
68A
  3
ByLayer
350
682
  3
Global
350
692
  0
DICTIONARY
  5
6B6
102
{ACAD_REACTORS
330
C
102
}
330
C
100
AcDbDictionary
281
     1
  3
Standard
350
6B7
  0
DICTIONARY
  5
17
102
{ACAD_REACTORS
330
C
102
}
330
C
100
AcDbDictionary
281
     1
  3
Standard
350
18
  0
DICTIONARY
  5
19
102
{ACAD_REACTORS
330
C
102
}
330
C
100
AcDbDictionary
281
     1
  0
ACDBDICTIONARYWDFLT
  5
E
102
{ACAD_REACTORS
330
C
102
}
330
C
100
AcDbDictionary
281
     1
  3
Normal
350
F
100
AcDbDictionaryWithDefault
340
F
  0
DICTIONARY
  5
47
102
{ACAD_REACTORS
330
C
102
}
330
C
100
AcDbDictionary
281
     1
  3
A0
350
48
  3
A1
350
49
  3
A2
350
4A
  3
A3
350
4B
  3
A4
350
4C
  3
A5
350
4D
  3
A6
350
4E
  3
A7
350
4F
  3
A8
350
50
  3
A9
350
51
  3
B0
350
52
  3
B1
350
53
  3
B2
350
54
  3
B3
350
55
  3
B4
350
56
  3
B5
350
57
  3
B6
350
58
  3
B7
350
59
  3
B8
350
5A
  3
B9
350
5B
  3
C0
350
5C
  3
C1
350
5D
  3
C2
350
5E
  3
C3
350
5F
  3
C4
350
60
  3
C5
350
61
  3
C6
350
62
  3
C7
350
63
  3
C8
350
64
  3
C9
350
65
  3
D0
350
66
  3
D1
350
67
  3
D2
350
68
  0
DICTIONARY
  5
6B8
102
{ACAD_REACTORS
330
C
102
}
330
C
100
AcDbDictionary
281
     1
  3
Metric50
350
6B9
  0
DICTIONARY
  5
6B4
102
{ACAD_REACTORS
330
C
102
}
330
C
100
AcDbDictionary
281
     1
  3
Standard
350
6B5
  0
DICTIONARY
  5
69A
102
{ACAD_REACTORS
330
C
102
}
330
C
100
AcDbDictionary
281
     1
  3
2dWireframe
350
6A0
  3
Basic
350
69F
  3
Brighten
350
6A6
  3
ColorChange
350
6AA
  3
Conceptual
350
6A3
  3
Dim
350
6A5
  3
EdgeColorOff
350
6B2
  3
Facepattern
350
6A9
  3
Flat
350
69B
  3
FlatWithEdges
350
69C
  3
Gouraud
350
69D
  3
GouraudWithEdges
350
69E
  3
Hidden
350
6A2
  3
JitterOff
350
6B0
  3
Linepattern
350
6A8
  3
OverhangOff
350
6B1
  3
Realistic
350
6A4
  3
Shaded
350
6AF
  3
Shaded with edges
350
6AE
  3
Shades of Gray
350
6AB
  3
Sketchy
350
6AC
  3
Thicken
350
6A7
  3
Wireframe
350
6A1
  3
X-Ray
350
6AD
  0
XRECORD
  5
6DF
102
{ACAD_REACTORS
330
C
102
}
330
C
100
AcDbXrecord
280
     1
 90
        1
330
6B5
  0
DICTIONARY
  5
6D3
102
{ACAD_REACTORS
330
C
102
}
330
C
100
AcDbDictionary
281
     1
  3
CANNOSCALE
350
6D8
  3
CMLEADERSTYLE
350
6D5
  3
CTABLESTYLE
350
6D4
  3
CVIEWDETAILSTYLE
350
6D6
  3
CVIEWSECTIONSTYLE
350
6D7
  3
DIMASSOC
350
6DB
  3
INDEXCTL
350
6DA
  3
SORTENTS
350
6D9
  3
XCLIPFRAME
350
6DC
  0
XRECORD
  5
6E0
102
{ACAD_REACTORS
330
C
102
}
330
C
100
AcDbXrecord
280
     1
  1
DWGPROPS COOKIE
  2

  3

  4

  6

  7

  8
j00675
  9

300
=
301
=
302
=
303
=
304
=
305
=
306
=
307
=
308
=
309
=
 40
0.0016746064814815
 41
2457225.497525116
 42
2457225.516857501
  1

 90
        0
  0
XRECORD
  5
6C1
102
{ACAD_REACTORS
330
6C0
102
}
330
6C0
100
AcDbXrecord
280
     1
290
     1
  0
XRECORD
  5
6C3
102
{ACAD_REACTORS
330
6C2
102
}
330
6C2
100
AcDbXrecord
280
     1
290
     1
  0
XRECORD
  5
6C5
102
{ACAD_REACTORS
330
6C4
102
}
330
6C4
100
AcDbXrecord
280
     1
290
     1
  0
XRECORD
  5
6C7
102
{ACAD_REACTORS
330
6C6
102
}
330
6C6
100
AcDbXrecord
280
     1
290
     1
  0
ACDBDETAILVIEWSTYLE
  5
6BB
102
{ACAD_REACTORS
330
6BA
102
}
330
6BA
100
AcDbModelDocViewStyle
 70
     0
  3
Metric50
290
     0
100
AcDbDetailViewStyle
 70
     0
 71
     0
 90
        3
 71
     1
340
11
 40
5.0
340
0
 40
5.0
300

 40
0.0
280
     1
 71
     2
340
16
 90
       25
 71
     3
340
11
 40
5.0
 90
        0
 40
15.0
 90
        1
300
%<\AcVar ViewDetailId>% (%<\AcVar ViewScale \f "%sn">%)
 71
     4
340
16
 90
       25
340
16
 90
       25
280
     0
  0
LAYOUT
  5
1E
102
{ACAD_XDICTIONARY
360
6E1
102
}
102
{ACAD_REACTORS
330
1A
102
}
330
1A
100
AcDbPlotSettings
  1

  2
none_device
  4

  6

 40
0.0
 41
0.0
 42
0.0
 43
0.0
 44
0.0
 45
0.0
 46
0.0
 47
0.0
 48
0.0
 49
0.0
140
0.0
141
0.0
142
1.0
143
1.0
 70
   688
 72
     1
 73
     0
 74
     5
  7

 75
    16
147
1.0
148
0.0
149
0.0
100
AcDbLayout
  1
Layout1
 70
     1
 71
     1
 10
0.0
 20
0.0
 11
420.0
 21
297.0
 12
0.0
 22
0.0
 32
0.0
 14
1.000000000000000E+20
 24
1.000000000000000E+20
 34
1.000000000000000E+20
 15
-1.000000000000000E+20
 25
-1.000000000000000E+20
 35
-1.000000000000000E+20
146
0.0
 13
0.0
 23
0.0
 33
0.0
 16
1.0
 26
0.0
 36
0.0
 17
0.0
 27
1.0
 37
0.0
 76
     0
330
1B
  0
LAYOUT
  5
26
102
{ACAD_XDICTIONARY
360
6E5
102
}
102
{ACAD_REACTORS
330
1A
102
}
330
1A
100
AcDbPlotSettings
  1

  2
none_device
  4

  6

 40
0.0
 41
0.0
 42
0.0
 43
0.0
 44
0.0
 45
0.0
 46
0.0
 47
0.0
 48
0.0
 49
0.0
140
0.0
141
0.0
142
1.0
143
1.0
 70
   688
 72
     1
 73
     0
 74
     5
  7

 75
    16
147
1.0
148
0.0
149
0.0
100
AcDbLayout
  1
Layout2
 70
     1
 71
     2
 10
0.0
 20
0.0
 11
0.0
 21
0.0
 12
0.0
 22
0.0
 32
0.0
 14
0.0
 24
0.0
 34
0.0
 15
0.0
 25
0.0
 35
0.0
146
0.0
 13
0.0
 23
0.0
 33
0.0
 16
1.0
 26
0.0
 36
0.0
 17
0.0
 27
1.0
 37
0.0
 76
     0
330
23
  0
LAYOUT
  5
22
102
{ACAD_XDICTIONARY
360
6E3
102
}
102
{ACAD_REACTORS
330
1A
102
}
330
1A
100
AcDbPlotSettings
  1

  2
none_device
  4
Letter_(8.50_x_11.00_Inches)
  6

 40
6.349999999999999
 41
6.349999999999999
 42
6.350005079999999
 43
6.350005079999999
 44
215.9
 45
279.4
 46
0.0
 47
0.0
 48
0.0
 49
0.0
140
0.0
141
0.0
142
1.0
143
1.0
 70
  1712
 72
     1
 73
     0
 74
     0
  7

 75
     0
147
1.0
148
0.0
149
0.0
100
AcDbLayout
  1
Model
 70
     1
 71
     0
 10
0.0
 20
0.0
 11
420.0
 21
297.0
 12
0.0
 22
0.0
 32
0.0
 14
0.0
 24
0.0
 34
0.0
 15
420.0
 25
297.0
 35
0.0
146
0.0
 13
0.0
 23
0.0
 33
0.0
 16
1.0
 26
0.0
 36
0.0
 17
0.0
 27
1.0
 37
0.0
 76
     0
330
1F
331
29
  0
MATERIAL
  5
68A
102
{ACAD_XDICTIONARY
360
68B
102
}
102
{ACAD_REACTORS
330
681
102
}
330
681
100
AcDbMaterial
  1
ByBlock
 72
     0
 43
0.0008202099737533
 43
0.0
 43
0.0
 43
0.0
 43
0.0
 43
0.0008202099737533
 43
0.0
 43
0.0
 43
0.0
 43
0.0
 43
1.0
 43
0.0
 43
0.0
 43
0.0
 43
0.0
 43
1.0
 77
     0
 47
0.0008202099737533
 47
0.0
 47
0.0
 47
0.0
 47
0.0
 47
0.0008202099737533
 47
0.0
 47
0.0
 47
0.0
 47
0.0
 47
1.0
 47
0.0
 47
0.0
 47
0.0
 47
0.0
 47
1.0
171
     0
 49
0.0008202099737533
 49
0.0
 49
0.0
 49
0.0
 49
0.0
 49
0.0008202099737533
 49
0.0
 49
0.0
 49
0.0
 49
0.0
 49
1.0
 49
0.0
 49
0.0
 49
0.0
 49
0.0
 49
1.0
175
     0
142
0.0008202099737533
142
0.0
142
0.0
142
0.0
142
0.0
142
0.0008202099737533
142
0.0
142
0.0
142
0.0
142
0.0
142
1.0
142
0.0
142
0.0
142
0.0
142
0.0
142
1.0
179
     0
144
0.0008202099737533
144
0.0
144
0.0
144
0.0
144
0.0
144
0.0008202099737533
144
0.0
144
0.0
144
0.0
144
0.0
144
1.0
144
0.0
144
0.0
144
0.0
144
0.0
144
1.0
147
0.0008202099737533
147
0.0
147
0.0
147
0.0
147
0.0
147
0.0008202099737533
147
0.0
147
0.0
147
0.0
147
0.0
147
1.0
147
0.0
147
0.0
147
0.0
147
0.0
147
1.0
  0
MATERIAL
  5
682
102
{ACAD_XDICTIONARY
360
683
102
}
102
{ACAD_REACTORS
330
681
102
}
330
681
100
AcDbMaterial
  1
ByLayer
 72
     0
 43
0.0008202099737533
 43
0.0
 43
0.0
 43
0.0
 43
0.0
 43
0.0008202099737533
 43
0.0
 43
0.0
 43
0.0
 43
0.0
 43
1.0
 43
0.0
 43
0.0
 43
0.0
 43
0.0
 43
1.0
 77
     0
 47
0.0008202099737533
 47
0.0
 47
0.0
 47
0.0
 47
0.0
 47
0.0008202099737533
 47
0.0
 47
0.0
 47
0.0
 47
0.0
 47
1.0
 47
0.0
 47
0.0
 47
0.0
 47
0.0
 47
1.0
171
     0
 49
0.0008202099737533
 49
0.0
 49
0.0
 49
0.0
 49
0.0
 49
0.0008202099737533
 49
0.0
 49
0.0
 49
0.0
 49
0.0
 49
1.0
 49
0.0
 49
0.0
 49
0.0
 49
0.0
 49
1.0
175
     0
142
0.0008202099737533
142
0.0
142
0.0
142
0.0
142
0.0
142
0.0008202099737533
142
0.0
142
0.0
142
0.0
142
0.0
142
1.0
142
0.0
142
0.0
142
0.0
142
0.0
142
1.0
179
     0
144
0.0008202099737533
144
0.0
144
0.0
144
0.0
144
0.0
144
0.0008202099737533
144
0.0
144
0.0
144
0.0
144
0.0
144
1.0
144
0.0
144
0.0
144
0.0
144
0.0
144
1.0
147
0.0008202099737533
147
0.0
147
0.0
147
0.0
147
0.0
147
0.0008202099737533
147
0.0
147
0.0
147
0.0
147
0.0
147
1.0
147
0.0
147
0.0
147
0.0
147
0.0
147
1.0
  0
MATERIAL
  5
692
102
{ACAD_XDICTIONARY
360
693
102
}
102
{ACAD_REACTORS
330
681
102
}
330
681
100
AcDbMaterial
  1
Global
 72
     0
 43
0.0008202099737533
 43
0.0
 43
0.0
 43
0.0
 43
0.0
 43
0.0008202099737533
 43
0.0
 43
0.0
 43
0.0
 43
0.0
 43
1.0
 43
0.0
 43
0.0
 43
0.0
 43
0.0
 43
1.0
 77
     0
 47
0.0008202099737533
 47
0.0
 47
0.0
 47
0.0
 47
0.0
 47
0.0008202099737533
 47
0.0
 47
0.0
 47
0.0
 47
0.0
 47
1.0
 47
0.0
 47
0.0
 47
0.0
 47
0.0
 47
1.0
171
     0
 49
0.0008202099737533
 49
0.0
 49
0.0
 49
0.0
 49
0.0
 49
0.0008202099737533
 49
0.0
 49
0.0
 49
0.0
 49
0.0
 49
1.0
 49
0.0
 49
0.0
 49
0.0
 49
0.0
 49
1.0
175
     0
142
0.0008202099737533
142
0.0
142
0.0
142
0.0
142
0.0
142
0.0008202099737533
142
0.0
142
0.0
142
0.0
142
0.0
142
1.0
142
0.0
142
0.0
142
0.0
142
0.0
142
1.0
179
     0
144
0.0008202099737533
144
0.0
144
0.0
144
0.0
144
0.0
144
0.0008202099737533
144
0.0
144
0.0
144
0.0
144
0.0
144
1.0
144
0.0
144
0.0
144
0.0
144
0.0
144
1.0
147
0.0008202099737533
147
0.0
147
0.0
147
0.0
147
0.0
147
0.0008202099737533
147
0.0
147
0.0
147
0.0
147
0.0
147
1.0
147
0.0
147
0.0
147
0.0
147
0.0
147
1.0
  0
MLEADERSTYLE
  5
6B7
102
{ACAD_REACTORS
330
6B6
102
}
330
6B6
100
AcDbMLeaderStyle
170
     2
171
     1
172
     0
 90
        2
 40
0.0
 41
0.0
173
     1
 91
-1056964608
340
14
 92
       -2
290
     1
 42
2.0
291
     1
 43
0.36
  3
Standard
 44
4.0
300

342
11
174
     1
178
     6
175
     1
176
     0
 93
-1056964608
 45
4.0
292
     0
297
     0
 46
4.0
 94
-1056964608
 47
1.0
 49
1.0
140
1.0
293
     1
141
0.0
294
     1
177
     0
142
1.0
295
     0
296
     0
143
0.125
1001
ACAD_MLEADERVER
1070
     2
  0
MLINESTYLE
  5
18
102
{ACAD_REACTORS
330
17
102
}
330
17
100
AcDbMlineStyle
  2
STANDARD
 70
     0
  3

 62
   256
 51
90.0
 52
90.0
 71
     2
 49
0.5
 62
   256
  6
BYLAYER
 49
-0.5
 62
   256
  6
BYLAYER
  0
ACDBPLACEHOLDER
  5
F
102
{ACAD_REACTORS
330
E
102
}
330
E
  0
SCALE
  5
48
102
{ACAD_REACTORS
330
47
102
}
330
47
100
AcDbScale
 70
     0
300
1:1
140
1.0
141
1.0
290
     1
  0
SCALE
  5
49
102
{ACAD_REACTORS
330
47
102
}
330
47
100
AcDbScale
 70
     0
300
1:2
140
1.0
141
2.0
290
     0
  0
SCALE
  5
4A
102
{ACAD_REACTORS
330
47
102
}
330
47
100
AcDbScale
 70
     0
300
1:4
140
1.0
141
4.0
290
     0
  0
SCALE
  5
4B
102
{ACAD_REACTORS
330
47
102
}
330
47
100
AcDbScale
 70
     0
300
1:5
140
1.0
141
5.0
290
     0
  0
SCALE
  5
4C
102
{ACAD_REACTORS
330
47
102
}
330
47
100
AcDbScale
 70
     0
300
1:8
140
1.0
141
8.0
290
     0
  0
SCALE
  5
4D
102
{ACAD_REACTORS
330
47
102
}
330
47
100
AcDbScale
 70
     0
300
1:10
140
1.0
141
10.0
290
     0
  0
SCALE
  5
4E
102
{ACAD_REACTORS
330
47
102
}
330
47
100
AcDbScale
 70
     0
300
1:16
140
1.0
141
16.0
290
     0
  0
SCALE
  5
4F
102
{ACAD_REACTORS
330
47
102
}
330
47
100
AcDbScale
 70
     0
300
1:20
140
1.0
141
20.0
290
     0
  0
SCALE
  5
50
102
{ACAD_REACTORS
330
47
102
}
330
47
100
AcDbScale
 70
     0
300
1:30
140
1.0
141
30.0
290
     0
  0
SCALE
  5
51
102
{ACAD_REACTORS
330
47
102
}
330
47
100
AcDbScale
 70
     0
300
1:40
140
1.0
141
40.0
290
     0
  0
SCALE
  5
52
102
{ACAD_REACTORS
330
47
102
}
330
47
100
AcDbScale
 70
     0
300
1:50
140
1.0
141
50.0
290
     0
  0
SCALE
  5
53
102
{ACAD_REACTORS
330
47
102
}
330
47
100
AcDbScale
 70
     0
300
1:100
140
1.0
141
100.0
290
     0
  0
SCALE
  5
54
102
{ACAD_REACTORS
330
47
102
}
330
47
100
AcDbScale
 70
     0
300
2:1
140
2.0
141
1.0
290
     0
  0
SCALE
  5
55
102
{ACAD_REACTORS
330
47
102
}
330
47
100
AcDbScale
 70
     0
300
4:1
140
4.0
141
1.0
290
     0
  0
SCALE
  5
56
102
{ACAD_REACTORS
330
47
102
}
330
47
100
AcDbScale
 70
     0
300
8:1
140
8.0
141
1.0
290
     0
  0
SCALE
  5
57
102
{ACAD_REACTORS
330
47
102
}
330
47
100
AcDbScale
 70
     0
300
10:1
140
10.0
141
1.0
290
     0
  0
SCALE
  5
58
102
{ACAD_REACTORS
330
47
102
}
330
47
100
AcDbScale
 70
     0
300
100:1
140
100.0
141
1.0
290
     0
  0
SCALE
  5
59
102
{ACAD_REACTORS
330
47
102
}
330
47
100
AcDbScale
 70
     0
300
1/128" = 1'-0"
140
0.0078125
141
12.0
290
     0
  0
SCALE
  5
5A
102
{ACAD_REACTORS
330
47
102
}
330
47
100
AcDbScale
 70
     0
300
1/64" = 1'-0"
140
0.015625
141
12.0
290
     0
  0
SCALE
  5
5B
102
{ACAD_REACTORS
330
47
102
}
330
47
100
AcDbScale
 70
     0
300
1/32" = 1'-0"
140
0.03125
141
12.0
290
     0
  0
SCALE
  5
5C
102
{ACAD_REACTORS
330
47
102
}
330
47
100
AcDbScale
 70
     0
300
1/16" = 1'-0"
140
0.0625
141
12.0
290
     0
  0
SCALE
  5
5D
102
{ACAD_REACTORS
330
47
102
}
330
47
100
AcDbScale
 70
     0
300
3/32" = 1'-0"
140
0.09375
141
12.0
290
     0
  0
SCALE
  5
5E
102
{ACAD_REACTORS
330
47
102
}
330
47
100
AcDbScale
 70
     0
300
1/8" = 1'-0"
140
0.125
141
12.0
290
     0
  0
SCALE
  5
5F
102
{ACAD_REACTORS
330
47
102
}
330
47
100
AcDbScale
 70
     0
300
3/16" = 1'-0"
140
0.1875
141
12.0
290
     0
  0
SCALE
  5
60
102
{ACAD_REACTORS
330
47
102
}
330
47
100
AcDbScale
 70
     0
300
1/4" = 1'-0"
140
0.25
141
12.0
290
     0
  0
SCALE
  5
61
102
{ACAD_REACTORS
330
47
102
}
330
47
100
AcDbScale
 70
     0
300
3/8" = 1'-0"
140
0.375
141
12.0
290
     0
  0
SCALE
  5
62
102
{ACAD_REACTORS
330
47
102
}
330
47
100
AcDbScale
 70
     0
300
1/2" = 1'-0"
140
0.5
141
12.0
290
     0
  0
SCALE
  5
63
102
{ACAD_REACTORS
330
47
102
}
330
47
100
AcDbScale
 70
     0
300
3/4" = 1'-0"
140
0.75
141
12.0
290
     0
  0
SCALE
  5
64
102
{ACAD_REACTORS
330
47
102
}
330
47
100
AcDbScale
 70
     0
300
1" = 1'-0"
140
1.0
141
12.0
290
     0
  0
SCALE
  5
65
102
{ACAD_REACTORS
330
47
102
}
330
47
100
AcDbScale
 70
     0
300
1-1/2" = 1'-0"
140
1.5
141
12.0
290
     0
  0
SCALE
  5
66
102
{ACAD_REACTORS
330
47
102
}
330
47
100
AcDbScale
 70
     0
300
3" = 1'-0"
140
3.0
141
12.0
290
     0
  0
SCALE
  5
67
102
{ACAD_REACTORS
330
47
102
}
330
47
100
AcDbScale
 70
     0
300
6" = 1'-0"
140
6.0
141
12.0
290
     0
  0
SCALE
  5
68
102
{ACAD_REACTORS
330
47
102
}
330
47
100
AcDbScale
 70
     0
300
1'-0" = 1'-0"
140
12.0
141
12.0
290
     0
  0
ACDBSECTIONVIEWSTYLE
  5
6B9
102
{ACAD_REACTORS
330
6B8
102
}
330
6B8
100
AcDbModelDocViewStyle
 70
     0
  3
Metric50
290
     0
100
AcDbSectionViewStyle
 70
     0
 71
     0
 90
      102
 71
     1
340
11
 40
5.0
340
0
340
0
 40
5.0
300
I, O, Q, S, X, Z
 40
10.0
 90
        0
 40
2.5
 90
        0
 71
     2
340
16
 90
       25
340
16
 90
       50
 40
5.0
 40
2.5
 40
5.0
 71
     3
340
11
 40
5.0
 90
        0
 40
15.0
 90
        1
300
%<\AcVar ViewSectionStartId>%-%<\AcVar ViewSectionEndId>% (%<\AcVar ViewScale \f "%sn">%)
 71
     4
300
ANSI31
 40
1.0
 90
        0
290
     0
290
     0
 90
        6
 40
0.0
 40
1.570796326794896
 40
0.2617993877991494
 40
1.308996938995747
 40
-0.2617993877991494
 40
1.832595714594046
  0
TABLESTYLE
  5
6B5
102
{ACAD_XDICTIONARY
360
6DD
102
}
102
{ACAD_REACTORS
330
6B4
102
}
330
6B4
100
AcDbTableStyle
  3
Standard
 70
     0
 71
     0
 40
1.5
 41
1.5
280
     0
281
     0
  7
Standard
140
4.5
170
     2
 62
     0
 63
     7
283
     0
274
    -2
284
     1
 64
     0
275
    -2
285
     1
 65
     0
276
    -2
286
     1
 66
     0
277
    -2
287
     1
 67
     0
278
    -2
288
     1
 68
     0
279
    -2
289
     1
 69
     0
  7
Standard
140
6.0
170
     5
 62
     0
 63
     7
283
     0
274
    -2
284
     1
 64
     0
275
    -2
285
     1
 65
     0
276
    -2
286
     1
 66
     0
277
    -2
287
     1
 67
     0
278
    -2
288
     1
 68
     0
279
    -2
289
     1
 69
     0
  7
Standard
140
4.5
170
     5
 62
     0
 63
     7
283
     0
274
    -2
284
     1
 64
     0
275
    -2
285
     1
 65
     0
276
    -2
286
     1
 66
     0
277
    -2
287
     1
 67
     0
278
    -2
288
     1
 68
     0
279
    -2
289
     1
 69
     0
  0
VISUALSTYLE
  5
6A0
102
{ACAD_XDICTIONARY
360
6F4
102
}
102
{ACAD_REACTORS
330
69A
102
}
330
69A
100
AcDbVisualStyle
  2
2dWireframe
 70
     4
 71
     0
 72
     2
 73
     0
 90
        0
 40
-0.6
 41
-30.0
 62
     5
 63
     7
 74
     1
 91
        4
 64
     7
 65
   257
 75
     1
175
     1
 42
1.0
 92
        0
 66
   257
 43
1.0
 76
     1
 77
     6
 78
     2
 67
     7
 79
     5
170
     0
171
     0
290
     0
174
     0
 93
        1
 44
0.0
173
     0
291
     0
 45
0.0
1001
ACAD
1000
AcDbSavedByObjectVersion
1070
     0
  0
VISUALSTYLE
  5
69F
102
{ACAD_XDICTIONARY
360
6F2
102
}
102
{ACAD_REACTORS
330
69A
102
}
330
69A
100
AcDbVisualStyle
  2
Basic
 70
     7
 71
     1
 72
     0
 73
     1
 90
        0
 40
-0.6
 41
-30.0
 62
     5
 63
     7
 74
     0
 91
        4
 64
     7
 65
   257
 75
     1
175
     1
 42
1.0
 92
        8
 66
     7
 43
1.0
 76
     1
 77
     6
 78
     2
 67
     7
 79
     5
170
     0
171
     0
290
     0
174
     0
 93
        1
 44
0.0
173
     0
291
     1
 45
0.0
1001
ACAD
1000
AcDbSavedByObjectVersion
1070
     0
  0
VISUALSTYLE
  5
6A6
102
{ACAD_XDICTIONARY
360
700
102
}
102
{ACAD_REACTORS
330
69A
102
}
330
69A
100
AcDbVisualStyle
  2
Brighten
 70
    12
 71
     2
 72
     2
 73
     0
 90
        0
 40
-0.6
 41
-30.0
 62
     5
 63
     7
 74
     1
 91
        4
 64
     7
 65
   257
 75
     1
175
     1
 42
1.0
 92
        8
 66
     7
 43
1.0
 76
     1
 77
     6
 78
     2
 67
     7
 79
     5
170
     0
171
     0
290
     0
174
     0
 93
        1
 44
50.0
173
     0
291
     1
 45
0.0
1001
ACAD
1000
AcDbSavedByObjectVersion
1070
     0
  0
VISUALSTYLE
  5
6AA
102
{ACAD_XDICTIONARY
360
708
102
}
102
{ACAD_REACTORS
330
69A
102
}
330
69A
100
AcDbVisualStyle
  2
ColorChange
 70
    16
 71
     2
 72
     2
 73
     3
 90
        0
 40
-0.6
 41
-30.0
 62
     5
 63
     8
 74
     1
 91
        4
 64
     7
 65
   257
 75
     1
175
     1
 42
1.0
 92
        8
 66
     8
 43
1.0
 76
     1
 77
     6
 78
     2
 67
     7
 79
     5
170
     0
171
     0
290
     0
174
     0
 93
        1
 44
0.0
173
     0
291
     1
 45
0.0
1001
ACAD
1000
AcDbSavedByObjectVersion
1070
     0
  0
VISUALSTYLE
  5
6A3
102
{ACAD_XDICTIONARY
360
6FA
102
}
102
{ACAD_REACTORS
330
69A
102
}
330
69A
100
AcDbVisualStyle
  2
Conceptual
 70
     9
 71
     3
 72
     2
 73
     0
 90
        0
 40
-0.6
 41
-30.0
 62
     5
 63
     7
 74
     2
 91
        2
 64
     7
 65
   257
 75
     1
175
     1
 42
179.0
 92
        8
 66
     7
 43
1.0
 76
     1
 77
     6
 78
     2
 67
     7
 79
     3
170
     0
171
     0
290
     0
174
     0
 93
        1
 44
0.0
173
     0
291
     0
 45
0.0
1001
ACAD
1000
AcDbSavedByObjectVersion
1070
     0
  0
VISUALSTYLE
  5
6A5
102
{ACAD_XDICTIONARY
360
6FE
102
}
102
{ACAD_REACTORS
330
69A
102
}
330
69A
100
AcDbVisualStyle
  2
Dim
 70
    11
 71
     2
 72
     2
 73
     0
 90
        0
 40
-0.6
 41
-30.0
 62
     5
 63
     7
 74
     1
 91
        4
 64
     7
 65
   257
 75
     1
175
     1
 42
1.0
 92
        8
 66
     7
 43
1.0
 76
     1
 77
     6
 78
     2
 67
     7
 79
     5
170
     0
171
     0
290
     0
174
     0
 93
        1
 44
-50.0
173
     0
291
     1
 45
0.0
1001
ACAD
1000
AcDbSavedByObjectVersion
1070
     0
  0
VISUALSTYLE
  5
6B2
102
{ACAD_XDICTIONARY
360
718
102
}
102
{ACAD_REACTORS
330
69A
102
}
330
69A
100
AcDbVisualStyle
  2
EdgeColorOff
 70
    22
 71
     2
 72
     2
 73
     0
 90
        0
 40
-0.6
 41
-30.0
 62
     5
 63
     7
 74
     1
 91
        4
 64
     7
 65
   257
 75
     1
175
     1
 42
1.0
 92
        8
 66
     7
 43
1.0
 76
     1
 77
     6
 78
     2
 67
     7
 79
     5
170
     0
171
     0
290
     0
174
     0
 93
        1
 44
0.0
173
     0
291
     1
 45
0.0
1001
ACAD
1000
AcDbSavedByObjectVersion
1070
     0
  0
VISUALSTYLE
  5
6A9
102
{ACAD_XDICTIONARY
360
706
102
}
102
{ACAD_REACTORS
330
69A
102
}
330
69A
100
AcDbVisualStyle
  2
Facepattern
 70
    15
 71
     2
 72
     2
 73
     0
 90
        0
 40
-0.6
 41
-30.0
 62
     5
 63
     7
 74
     1
 91
        4
 64
     7
 65
   257
 75
     1
175
     1
 42
1.0
 92
        8
 66
     7
 43
1.0
 76
     1
 77
     6
 78
     2
 67
     7
 79
     5
170
     0
171
     0
290
     0
174
     0
 93
        1
 44
0.0
173
     0
291
     1
 45
0.0
1001
ACAD
1000
AcDbSavedByObjectVersion
1070
     0
  0
VISUALSTYLE
  5
69B
102
{ACAD_XDICTIONARY
360
6EA
102
}
102
{ACAD_REACTORS
330
69A
102
}
330
69A
100
AcDbVisualStyle
  2
Flat
 70
     0
 71
     2
 72
     1
 73
     1
 90
        2
 40
-0.6
 41
30.0
 62
     5
 63
     7
 74
     0
 91
        0
 64
     7
 65
   257
 75
     1
175
     1
 42
1.0
 92
        8
 66
     7
 43
1.0
 76
     1
 77
     6
 78
     2
 67
     7
 79
     5
170
     0
171
     0
290
     0
174
     0
 93
       13
 44
0.0
173
     0
291
     1
 45
0.0
1001
ACAD
1000
AcDbSavedByObjectVersion
1070
     0
  0
VISUALSTYLE
  5
69C
102
{ACAD_XDICTIONARY
360
6EC
102
}
102
{ACAD_REACTORS
330
69A
102
}
330
69A
100
AcDbVisualStyle
  2
FlatWithEdges
 70
     1
 71
     2
 72
     1
 73
     1
 90
        2
 40
-0.6
 41
30.0
 62
     5
 63
     7
 74
     1
 91
        0
 64
     7
 65
   257
 75
     1
175
     1
 42
1.0
 92
        0
 66
   257
 43
1.0
 76
     1
 77
     6
 78
     2
 67
     7
 79
     5
170
     0
171
     0
290
     0
174
     0
 93
       13
 44
0.0
173
     0
291
     1
 45
0.0
1001
ACAD
1000
AcDbSavedByObjectVersion
1070
     0
  0
VISUALSTYLE
  5
69D
102
{ACAD_XDICTIONARY
360
6EE
102
}
102
{ACAD_REACTORS
330
69A
102
}
330
69A
100
AcDbVisualStyle
  2
Gouraud
 70
     2
 71
     2
 72
     2
 73
     1
 90
        2
 40
-0.6
 41
30.0
 62
     5
 63
     7
 74
     0
 91
        0
 64
     7
 65
   257
 75
     1
175
     1
 42
1.0
 92
        0
 66
     7
 43
1.0
 76
     1
 77
     6
 78
     2
 67
     7
 79
     5
170
     0
171
     0
290
     0
174
     0
 93
       13
 44
0.0
173
     0
291
     1
 45
0.0
1001
ACAD
1000
AcDbSavedByObjectVersion
1070
     0
  0
VISUALSTYLE
  5
69E
102
{ACAD_XDICTIONARY
360
6F0
102
}
102
{ACAD_REACTORS
330
69A
102
}
330
69A
100
AcDbVisualStyle
  2
GouraudWithEdges
 70
     3
 71
     2
 72
     2
 73
     1
 90
        2
 40
-0.6
 41
30.0
 62
     5
 63
     7
 74
     1
 91
        0
 64
     7
 65
   257
 75
     1
175
     1
 42
1.0
 92
        0
 66
   257
 43
1.0
 76
     1
 77
     6
 78
     2
 67
     7
 79
     5
170
     0
171
     0
290
     0
174
     0
 93
       13
 44
0.0
173
     0
291
     1
 45
0.0
1001
ACAD
1000
AcDbSavedByObjectVersion
1070
     0
  0
VISUALSTYLE
  5
6A2
102
{ACAD_XDICTIONARY
360
6F8
102
}
102
{ACAD_REACTORS
330
69A
102
}
330
69A
100
AcDbVisualStyle
  2
Hidden
 70
     6
 71
     1
 72
     2
 73
     2
 90
        0
 40
-0.6
 41
-30.0
 62
     5
 63
     7
 74
     2
 91
        2
 64
     7
 65
   257
 75
     2
175
     1
 42
40.0
 92
        0
 66
   257
 43
1.0
 76
     1
 77
     6
 78
     2
 67
     7
 79
     3
170
     0
171
     0
290
     0
174
     0
 93
        1
 44
0.0
173
     0
291
     0
 45
0.0
1001
ACAD
1000
AcDbSavedByObjectVersion
1070
     0
  0
VISUALSTYLE
  5
6B0
102
{ACAD_XDICTIONARY
360
714
102
}
102
{ACAD_REACTORS
330
69A
102
}
330
69A
100
AcDbVisualStyle
  2
JitterOff
 70
    20
 71
     2
 72
     2
 73
     0
 90
        0
 40
-0.6
 41
-30.0
 62
     5
 63
     7
 74
     1
 91
        4
 64
     7
 65
   257
 75
     1
175
     1
 42
1.0
 92
       10
 66
     7
 43
1.0
 76
     1
 77
     6
 78
     2
 67
     7
 79
     5
170
     0
171
     0
290
     0
174
     0
 93
        1
 44
0.0
173
     0
291
     1
 45
0.0
1001
ACAD
1000
AcDbSavedByObjectVersion
1070
     0
  0
VISUALSTYLE
  5
6A8
102
{ACAD_XDICTIONARY
360
704
102
}
102
{ACAD_REACTORS
330
69A
102
}
330
69A
100
AcDbVisualStyle
  2
Linepattern
 70
    14
 71
     2
 72
     2
 73
     0
 90
        0
 40
-0.6
 41
-30.0
 62
     5
 63
     7
 74
     1
 91
        4
 64
     7
 65
   257
 75
     7
175
     7
 42
1.0
 92
        8
 66
     7
 43
1.0
 76
     1
 77
     6
 78
     2
 67
     7
 79
     5
170
     0
171
     0
290
     0
174
     0
 93
        1
 44
0.0
173
     0
291
     1
 45
0.0
1001
ACAD
1000
AcDbSavedByObjectVersion
1070
     0
  0
VISUALSTYLE
  5
6B1
102
{ACAD_XDICTIONARY
360
716
102
}
102
{ACAD_REACTORS
330
69A
102
}
330
69A
100
AcDbVisualStyle
  2
OverhangOff
 70
    21
 71
     2
 72
     2
 73
     0
 90
        0
 40
-0.6
 41
-30.0
 62
     5
 63
     7
 74
     1
 91
        4
 64
     7
 65
   257
 75
     1
175
     1
 42
1.0
 92
        9
 66
     7
 43
1.0
 76
     1
 77
     6
 78
     2
 67
     7
 79
     5
170
     0
171
     0
290
     0
174
     0
 93
        1
 44
0.0
173
     0
291
     1
 45
0.0
1001
ACAD
1000
AcDbSavedByObjectVersion
1070
     0
  0
VISUALSTYLE
  5
6A4
102
{ACAD_XDICTIONARY
360
6FC
102
}
102
{ACAD_REACTORS
330
69A
102
}
330
69A
100
AcDbVisualStyle
  2
Realistic
 70
     8
 71
     2
 72
     3
 73
     0
 90
        2
 40
-0.6
 41
30.0
 62
     5
 63
     7
 74
     0
 91
        0
 64
     7
 65
   257
 75
     1
175
     1
 42
1.0
 92
        8
 66
   257
 43
1.0
 76
     1
 77
     6
 78
     2
 67
     7
 79
     3
170
     0
171
     0
290
     0
174
     0
 93
       13
 44
0.0
173
     0
291
     0
 45
0.0
1001
ACAD
1000
AcDbSavedByObjectVersion
1070
     0
  0
VISUALSTYLE
  5
6AF
102
{ACAD_XDICTIONARY
360
712
102
}
102
{ACAD_REACTORS
330
69A
102
}
330
69A
100
AcDbVisualStyle
  2
Shaded
 70
    27
 71
     2
 72
     2
 73
     1
 90
        2
 40
-0.6
 41
30.0
 62
     5
 63
     7
 74
     0
 91
        4
 64
     7
 65
   257
 75
     1
175
     1
 42
1.0
 92
        8
 66
   257
 43
1.0
 76
     1
 77
     6
 78
     2
 67
     8
 79
     3
170
     0
171
     0
290
     0
174
     0
 93
        5
 44
0.0
173
     0
291
     0
 45
0.0
1001
ACAD
1000
AcDbSavedByObjectVersion
1070
     0
  0
VISUALSTYLE
  5
6AE
102
{ACAD_XDICTIONARY
360
710
102
}
102
{ACAD_REACTORS
330
69A
102
}
330
69A
100
AcDbVisualStyle
  2
Shaded with edges
 70
    26
 71
     2
 72
     2
 73
     1
 90
        2
 40
-0.6
 41
30.0
 62
     5
 63
     7
 74
     1
 91
       10
 64
     7
 65
   257
 75
     2
175
     1
 42
1.0
 92
        8
 66
   257
 43
1.0
 76
     1
 77
     6
 78
     2
 67
     7
 79
     3
170
     0
171
     0
290
     0
174
     0
 93
        5
 44
0.0
173
     0
291
     0
 45
0.0
1001
ACAD
1000
AcDbSavedByObjectVersion
1070
     0
  0
VISUALSTYLE
  5
6AB
102
{ACAD_XDICTIONARY
360
70A
102
}
102
{ACAD_REACTORS
330
69A
102
}
330
69A
100
AcDbVisualStyle
  2
Shades of Gray
 70
    23
 71
     2
 72
     2
 73
     3
 90
        0
 40
-0.6
 41
-30.0
 62
     5
 63
     7
 74
     2
 91
        2
 64
     7
 65
     7
 75
     1
175
     1
 42
40.0
 92
        8
 66
     7
 43
1.0
 76
     1
 77
     6
 78
     2
 67
     7
 79
     3
170
     0
171
     0
290
     0
174
     0
 93
        1
 44
0.0
173
     0
291
     0
 45
0.0
1001
ACAD
1000
AcDbSavedByObjectVersion
1070
     0
  0
VISUALSTYLE
  5
6AC
102
{ACAD_XDICTIONARY
360
70C
102
}
102
{ACAD_REACTORS
330
69A
102
}
330
69A
100
AcDbVisualStyle
  2
Sketchy
 70
    24
 71
     1
 72
     2
 73
     2
 90
        0
 40
-0.6
 41
-30.0
 62
     5
 63
     7
 74
     2
 91
        2
 64
     7
 65
     7
 75
     1
175
     1
 42
40.0
 92
       11
 66
     7
 43
1.0
 76
     1
 77
     6
 78
     2
 67
     7
 79
     6
170
     0
171
     0
290
     0
174
     0
 93
        1
 44
0.0
173
     0
291
     0
 45
0.0
1001
ACAD
1000
AcDbSavedByObjectVersion
1070
     0
  0
VISUALSTYLE
  5
6A7
102
{ACAD_XDICTIONARY
360
702
102
}
102
{ACAD_REACTORS
330
69A
102
}
330
69A
100
AcDbVisualStyle
  2
Thicken
 70
    13
 71
     2
 72
     2
 73
     0
 90
        0
 40
-0.6
 41
-30.0
 62
     5
 63
     7
 74
     1
 91
        4
 64
     7
 65
   257
 75
     1
175
     1
 42
1.0
 92
       12
 66
     7
 43
1.0
 76
     1
 77
     6
 78
     2
 67
     7
 79
     5
170
     0
171
     0
290
     0
174
     0
 93
        1
 44
0.0
173
     0
291
     1
 45
0.0
1001
ACAD
1000
AcDbSavedByObjectVersion
1070
     0
  0
VISUALSTYLE
  5
6A1
102
{ACAD_XDICTIONARY
360
6F6
102
}
102
{ACAD_REACTORS
330
69A
102
}
330
69A
100
AcDbVisualStyle
  2
Wireframe
 70
     5
 71
     0
 72
     2
 73
     0
 90
        0
 40
-0.6
 41
-30.0
 62
     5
 63
     7
 74
     1
 91
        4
 64
     7
 65
   257
 75
     1
175
     1
 42
1.0
 92
        0
 66
   257
 43
1.0
 76
     1
 77
     6
 78
     2
 67
     7
 79
     3
170
     0
171
     0
290
     0
174
     0
 93
        1
 44
0.0
173
     0
291
     0
 45
0.0
1001
ACAD
1000
AcDbSavedByObjectVersion
1070
     0
  0
VISUALSTYLE
  5
6AD
102
{ACAD_XDICTIONARY
360
70E
102
}
102
{ACAD_REACTORS
330
69A
102
}
330
69A
100
AcDbVisualStyle
  2
X-Ray
 70
    25
 71
     2
 72
     2
 73
     1
 90
        1
 40
0.5
 41
-30.0
 62
     5
 63
     7
 74
     1
 91
        0
 64
     7
 65
   257
 75
     1
175
     1
 42
1.0
 92
        8
 66
     7
 43
1.0
 76
     1
 77
     6
 78
     2
 67
     7
 79
     3
170
     0
171
     0
290
     0
174
     0
 93
       13
 44
0.0
173
     0
291
     0
 45
0.0
1001
ACAD
1000
AcDbSavedByObjectVersion
1070
     0
  0
DICTIONARYVAR
  5
6D8
102
{ACAD_REACTORS
330
6D3
102
}
330
6D3
100
DictionaryVariables
280
     0
  1
1:1
  0
DICTIONARYVAR
  5
6D5
102
{ACAD_REACTORS
330
6D3
102
}
330
6D3
100
DictionaryVariables
280
     0
  1
STANDARD
  0
DICTIONARYVAR
  5
6D4
102
{ACAD_REACTORS
330
6D3
102
}
330
6D3
100
DictionaryVariables
280
     0
  1
STANDARD
  0
DICTIONARYVAR
  5
6D6
102
{ACAD_REACTORS
330
6D3
102
}
330
6D3
100
DictionaryVariables
280
     0
  1
Metric50
  0
DICTIONARYVAR
  5
6D7
102
{ACAD_REACTORS
330
6D3
102
}
330
6D3
100
DictionaryVariables
280
     0
  1
Metric50
  0
DICTIONARYVAR
  5
6DB
102
{ACAD_REACTORS
330
6D3
102
}
330
6D3
100
DictionaryVariables
280
     0
  1
1
  0
DICTIONARYVAR
  5
6DA
102
{ACAD_REACTORS
330
6D3
102
}
330
6D3
100
DictionaryVariables
280
     0
  1
0
  0
DICTIONARYVAR
  5
6D9
102
{ACAD_REACTORS
330
6D3
102
}
330
6D3
100
DictionaryVariables
280
     0
  1
127
  0
DICTIONARYVAR
  5
6DC
102
{ACAD_REACTORS
330
6D3
102
}
330
6D3
100
DictionaryVariables
280
     0
  1
2
  0
DICTIONARY
  5
6E1
330
1E
100
AcDbDictionary
280
     1
281
     1
  3
ACAD_XREC_ROUNDTRIP
360
6E2
  0
DICTIONARY
  5
6E5
330
26
100
AcDbDictionary
280
     1
281
     1
  3
ACAD_XREC_ROUNDTRIP
360
6E6
  0
DICTIONARY
  5
6E3
330
22
100
AcDbDictionary
280
     1
281
     1
  3
ACAD_XREC_ROUNDTRIP
360
6E4
  0
DICTIONARY
  5
68B
330
68A
100
AcDbDictionary
280
     1
281
     1
  3
ACAD_XREC_ROUNDTRIP
360
6E8
  3
BUMPTILE
360
68D
  3
DIFFUSETILE
360
68C
  3
OPACITYTILE
360
690
  3
REFLECTIONTILE
360
68F
  3
REFRACTIONTILE
360
691
  3
SPECULARTILE
360
68E
  0
DICTIONARY
  5
683
330
682
100
AcDbDictionary
280
     1
281
     1
  3
ACAD_XREC_ROUNDTRIP
360
6E7
  3
BUMPTILE
360
685
  3
DIFFUSETILE
360
684
  3
OPACITYTILE
360
688
  3
REFLECTIONTILE
360
687
  3
REFRACTIONTILE
360
689
  3
SPECULARTILE
360
686
  0
DICTIONARY
  5
693
330
692
100
AcDbDictionary
280
     1
281
     1
  3
ACAD_XREC_ROUNDTRIP
360
6E9
  3
BUMPTILE
360
695
  3
DIFFUSETILE
360
694
  3
OPACITYTILE
360
698
  3
REFLECTIONTILE
360
697
  3
REFRACTIONTILE
360
699
  3
SPECULARTILE
360
696
  0
DICTIONARY
  5
6DD
330
6B5
100
AcDbDictionary
280
     1
281
     1
  3
ACAD_ROUNDTRIP_2008_TABLESTYLE_CELLSTYLEMAP
360
6DE
  3
ACAD_XREC_ROUNDTRIP
360
71A
  0
DICTIONARY
  5
6F4
330
6A0
100
AcDbDictionary
280
     1
281
     1
  3
ACAD_XREC_ROUNDTRIP
360
6F5
  0
DICTIONARY
  5
6F2
330
69F
100
AcDbDictionary
280
     1
281
     1
  3
ACAD_XREC_ROUNDTRIP
360
6F3
  0
DICTIONARY
  5
700
330
6A6
100
AcDbDictionary
280
     1
281
     1
  3
ACAD_XREC_ROUNDTRIP
360
701
  0
DICTIONARY
  5
708
330
6AA
100
AcDbDictionary
280
     1
281
     1
  3
ACAD_XREC_ROUNDTRIP
360
709
  0
DICTIONARY
  5
6FA
330
6A3
100
AcDbDictionary
280
     1
281
     1
  3
ACAD_XREC_ROUNDTRIP
360
6FB
  0
DICTIONARY
  5
6FE
330
6A5
100
AcDbDictionary
280
     1
281
     1
  3
ACAD_XREC_ROUNDTRIP
360
6FF
  0
DICTIONARY
  5
718
330
6B2
100
AcDbDictionary
280
     1
281
     1
  3
ACAD_XREC_ROUNDTRIP
360
719
  0
DICTIONARY
  5
706
330
6A9
100
AcDbDictionary
280
     1
281
     1
  3
ACAD_XREC_ROUNDTRIP
360
707
  0
DICTIONARY
  5
6EA
330
69B
100
AcDbDictionary
280
     1
281
     1
  3
ACAD_XREC_ROUNDTRIP
360
6EB
  0
DICTIONARY
  5
6EC
330
69C
100
AcDbDictionary
280
     1
281
     1
  3
ACAD_XREC_ROUNDTRIP
360
6ED
  0
DICTIONARY
  5
6EE
330
69D
100
AcDbDictionary
280
     1
281
     1
  3
ACAD_XREC_ROUNDTRIP
360
6EF
  0
DICTIONARY
  5
6F0
330
69E
100
AcDbDictionary
280
     1
281
     1
  3
ACAD_XREC_ROUNDTRIP
360
6F1
  0
DICTIONARY
  5
6F8
330
6A2
100
AcDbDictionary
280
     1
281
     1
  3
ACAD_XREC_ROUNDTRIP
360
6F9
  0
DICTIONARY
  5
714
330
6B0
100
AcDbDictionary
280
     1
281
     1
  3
ACAD_XREC_ROUNDTRIP
360
715
  0
DICTIONARY
  5
704
330
6A8
100
AcDbDictionary
280
     1
281
     1
  3
ACAD_XREC_ROUNDTRIP
360
705
  0
DICTIONARY
  5
716
330
6B1
100
AcDbDictionary
280
     1
281
     1
  3
ACAD_XREC_ROUNDTRIP
360
717
  0
DICTIONARY
  5
6FC
330
6A4
100
AcDbDictionary
280
     1
281
     1
  3
ACAD_XREC_ROUNDTRIP
360
6FD
  0
DICTIONARY
  5
712
330
6AF
100
AcDbDictionary
280
     1
281
     1
  3
ACAD_XREC_ROUNDTRIP
360
713
  0
DICTIONARY
  5
710
330
6AE
100
AcDbDictionary
280
     1
281
     1
  3
ACAD_XREC_ROUNDTRIP
360
711
  0
DICTIONARY
  5
70A
330
6AB
100
AcDbDictionary
280
     1
281
     1
  3
ACAD_XREC_ROUNDTRIP
360
70B
  0
DICTIONARY
  5
70C
330
6AC
100
AcDbDictionary
280
     1
281
     1
  3
ACAD_XREC_ROUNDTRIP
360
70D
  0
DICTIONARY
  5
702
330
6A7
100
AcDbDictionary
280
     1
281
     1
  3
ACAD_XREC_ROUNDTRIP
360
703
  0
DICTIONARY
  5
6F6
330
6A1
100
AcDbDictionary
280
     1
281
     1
  3
ACAD_XREC_ROUNDTRIP
360
6F7
  0
DICTIONARY
  5
70E
330
6AD
100
AcDbDictionary
280
     1
281
     1
  3
ACAD_XREC_ROUNDTRIP
360
70F
  0
XRECORD
  5
6E2
102
{ACAD_REACTORS
330
6E1
102
}
330
6E1
100
AcDbXrecord
280
     1
102
SHADEPLOT
 70
     0
102
SHADEPLOTRESLEVEL
 70
     2
102
SHADEPLOTCUSTOMDPI
 70
   300
  0
XRECORD
  5
6E6
102
{ACAD_REACTORS
330
6E5
102
}
330
6E5
100
AcDbXrecord
280
     1
102
SHADEPLOT
 70
     0
102
SHADEPLOTRESLEVEL
 70
     2
102
SHADEPLOTCUSTOMDPI
 70
   300
  0
XRECORD
  5
6E4
102
{ACAD_REACTORS
330
6E3
102
}
330
6E3
100
AcDbXrecord
280
     1
102
SHADEPLOT
 70
     0
102
SHADEPLOTRESLEVEL
 70
     2
102
SHADEPLOTCUSTOMDPI
 70
   300
  0
XRECORD
  5
6E8
102
{ACAD_REACTORS
330
68B
102
}
330
68B
100
AcDbXrecord
280
     1
102
MATERIAL
148
0.0
149
0.0
149
0.0
 93
        0
 94
      127
282
     0
 72
     0
 77
     0
171
     0
175
     0
179
     0
273
     0
  0
XRECORD
  5
68D
102
{ACAD_REACTORS
330
68B
102
}
330
68B
100
AcDbXrecord
280
     1
270
     1
271
     1
  0
XRECORD
  5
68C
102
{ACAD_REACTORS
330
68B
102
}
330
68B
100
AcDbXrecord
280
     1
270
     1
271
     1
  0
XRECORD
  5
690
102
{ACAD_REACTORS
330
68B
102
}
330
68B
100
AcDbXrecord
280
     1
270
     1
271
     1
  0
XRECORD
  5
68F
102
{ACAD_REACTORS
330
68B
102
}
330
68B
100
AcDbXrecord
280
     1
270
     1
271
     1
  0
XRECORD
  5
691
102
{ACAD_REACTORS
330
68B
102
}
330
68B
100
AcDbXrecord
280
     1
270
     1
271
     1
  0
XRECORD
  5
68E
102
{ACAD_REACTORS
330
68B
102
}
330
68B
100
AcDbXrecord
280
     1
270
     1
271
     1
  0
XRECORD
  5
6E7
102
{ACAD_REACTORS
330
683
102
}
330
683
100
AcDbXrecord
280
     1
102
MATERIAL
148
0.0
149
0.0
149
0.0
 93
        0
 94
      127
282
     0
 72
     0
 77
     0
171
     0
175
     0
179
     0
273
     0
  0
XRECORD
  5
685
102
{ACAD_REACTORS
330
683
102
}
330
683
100
AcDbXrecord
280
     1
270
     1
271
     1
  0
XRECORD
  5
684
102
{ACAD_REACTORS
330
683
102
}
330
683
100
AcDbXrecord
280
     1
270
     1
271
     1
  0
XRECORD
  5
688
102
{ACAD_REACTORS
330
683
102
}
330
683
100
AcDbXrecord
280
     1
270
     1
271
     1
  0
XRECORD
  5
687
102
{ACAD_REACTORS
330
683
102
}
330
683
100
AcDbXrecord
280
     1
270
     1
271
     1
  0
XRECORD
  5
689
102
{ACAD_REACTORS
330
683
102
}
330
683
100
AcDbXrecord
280
     1
270
     1
271
     1
  0
XRECORD
  5
686
102
{ACAD_REACTORS
330
683
102
}
330
683
100
AcDbXrecord
280
     1
270
     1
271
     1
  0
XRECORD
  5
6E9
102
{ACAD_REACTORS
330
693
102
}
330
693
100
AcDbXrecord
280
     1
102
MATERIAL
148
0.0
149
0.0
149
0.0
 93
        0
 94
      127
282
     0
 72
     0
 77
     0
171
     0
175
     0
179
     0
273
     0
  0
XRECORD
  5
695
102
{ACAD_REACTORS
330
693
102
}
330
693
100
AcDbXrecord
280
     1
270
     1
271
     1
  0
XRECORD
  5
694
102
{ACAD_REACTORS
330
693
102
}
330
693
100
AcDbXrecord
280
     1
270
     1
271
     1
  0
XRECORD
  5
698
102
{ACAD_REACTORS
330
693
102
}
330
693
100
AcDbXrecord
280
     1
270
     1
271
     1
  0
XRECORD
  5
697
102
{ACAD_REACTORS
330
693
102
}
330
693
100
AcDbXrecord
280
     1
270
     1
271
     1
  0
XRECORD
  5
699
102
{ACAD_REACTORS
330
693
102
}
330
693
100
AcDbXrecord
280
     1
270
     1
271
     1
  0
XRECORD
  5
696
102
{ACAD_REACTORS
330
693
102
}
330
693
100
AcDbXrecord
280
     1
270
     1
271
     1
  0
CELLSTYLEMAP
  5
6DE
102
{ACAD_REACTORS
330
6DD
102
}
330
6DD
100
AcDbCellStyleMap
 90
        3
300
CELLSTYLE
  1
TABLEFORMAT_BEGIN
 90
        5
170
     1
 91
        0
 92
    32768
 62
   257
 93
        1
300
CONTENTFORMAT
  1
CONTENTFORMAT_BEGIN
 90
        0
 91
        0
 92
      512
 93
        0
300

 40
0.0
140
1.0
 94
        5
 62
     0
340
11
144
6.0
309
CONTENTFORMAT_END
171
     1
301
MARGIN
  1
CELLMARGIN_BEGIN
 40
1.5
 40
1.5
 40
1.5
 40
1.5
 40
4.5
 40
4.5
309
CELLMARGIN_END
 94
        6
 95
        1
302
GRIDFORMAT
  1
GRIDFORMAT_BEGIN
 90
        0
 91
        1
 62
     0
 92
       -2
340
0
 93
        0
 40
1.125
309
GRIDFORMAT_END
 95
        2
302
GRIDFORMAT
  1
GRIDFORMAT_BEGIN
 90
        0
 91
        1
 62
     0
 92
       -2
340
0
 93
        0
 40
1.125
309
GRIDFORMAT_END
 95
        4
302
GRIDFORMAT
  1
GRIDFORMAT_BEGIN
 90
        0
 91
        1
 62
     0
 92
       -2
340
0
 93
        0
 40
1.125
309
GRIDFORMAT_END
 95
        8
302
GRIDFORMAT
  1
GRIDFORMAT_BEGIN
 90
        0
 91
        1
 62
     0
 92
       -2
340
0
 93
        0
 40
1.125
309
GRIDFORMAT_END
 95
       16
302
GRIDFORMAT
  1
GRIDFORMAT_BEGIN
 90
        0
 91
        1
 62
     0
 92
       -2
340
0
 93
        0
 40
1.125
309
GRIDFORMAT_END
 95
       32
302
GRIDFORMAT
  1
GRIDFORMAT_BEGIN
 90
        0
 91
        1
 62
     0
 92
       -2
340
0
 93
        0
 40
1.125
309
GRIDFORMAT_END
309
TABLEFORMAT_END
  1
CELLSTYLE_BEGIN
 90
        1
 91
        1
300
_TITLE
309
CELLSTYLE_END
300
CELLSTYLE
  1
TABLEFORMAT_BEGIN
 90
        5
170
     1
 91
        0
 92
        0
 62
   257
 93
        1
300
CONTENTFORMAT
  1
CONTENTFORMAT_BEGIN
 90
        0
 91
        0
 92
      512
 93
        0
300

 40
0.0
140
1.0
 94
        5
 62
     0
340
11
144
4.5
309
CONTENTFORMAT_END
171
     1
301
MARGIN
  1
CELLMARGIN_BEGIN
 40
1.5
 40
1.5
 40
1.5
 40
1.5
 40
4.5
 40
4.5
309
CELLMARGIN_END
 94
        6
 95
        1
302
GRIDFORMAT
  1
GRIDFORMAT_BEGIN
 90
        0
 91
        1
 62
     0
 92
       -2
340
0
 93
        0
 40
1.125
309
GRIDFORMAT_END
 95
        2
302
GRIDFORMAT
  1
GRIDFORMAT_BEGIN
 90
        0
 91
        1
 62
     0
 92
       -2
340
0
 93
        0
 40
1.125
309
GRIDFORMAT_END
 95
        4
302
GRIDFORMAT
  1
GRIDFORMAT_BEGIN
 90
        0
 91
        1
 62
     0
 92
       -2
340
0
 93
        0
 40
1.125
309
GRIDFORMAT_END
 95
        8
302
GRIDFORMAT
  1
GRIDFORMAT_BEGIN
 90
        0
 91
        1
 62
     0
 92
       -2
340
0
 93
        0
 40
1.125
309
GRIDFORMAT_END
 95
       16
302
GRIDFORMAT
  1
GRIDFORMAT_BEGIN
 90
        0
 91
        1
 62
     0
 92
       -2
340
0
 93
        0
 40
1.125
309
GRIDFORMAT_END
 95
       32
302
GRIDFORMAT
  1
GRIDFORMAT_BEGIN
 90
        0
 91
        1
 62
     0
 92
       -2
340
0
 93
        0
 40
1.125
309
GRIDFORMAT_END
309
TABLEFORMAT_END
  1
CELLSTYLE_BEGIN
 90
        2
 91
        1
300
_HEADER
309
CELLSTYLE_END
300
CELLSTYLE
  1
TABLEFORMAT_BEGIN
 90
        5
170
     1
 91
        0
 92
        0
 62
   257
 93
        1
300
CONTENTFORMAT
  1
CONTENTFORMAT_BEGIN
 90
        0
 91
        0
 92
      512
 93
        0
300

 40
0.0
140
1.0
 94
        2
 62
     0
340
11
144
4.5
309
CONTENTFORMAT_END
171
     1
301
MARGIN
  1
CELLMARGIN_BEGIN
 40
1.5
 40
1.5
 40
1.5
 40
1.5
 40
4.5
 40
4.5
309
CELLMARGIN_END
 94
        6
 95
        1
302
GRIDFORMAT
  1
GRIDFORMAT_BEGIN
 90
        0
 91
        1
 62
     0
 92
       -2
340
0
 93
        0
 40
1.125
309
GRIDFORMAT_END
 95
        2
302
GRIDFORMAT
  1
GRIDFORMAT_BEGIN
 90
        0
 91
        1
 62
     0
 92
       -2
340
0
 93
        0
 40
1.125
309
GRIDFORMAT_END
 95
        4
302
GRIDFORMAT
  1
GRIDFORMAT_BEGIN
 90
        0
 91
        1
 62
     0
 92
       -2
340
0
 93
        0
 40
1.125
309
GRIDFORMAT_END
 95
        8
302
GRIDFORMAT
  1
GRIDFORMAT_BEGIN
 90
        0
 91
        1
 62
     0
 92
       -2
340
0
 93
        0
 40
1.125
309
GRIDFORMAT_END
 95
       16
302
GRIDFORMAT
  1
GRIDFORMAT_BEGIN
 90
        0
 91
        1
 62
     0
 92
       -2
340
0
 93
        0
 40
1.125
309
GRIDFORMAT_END
 95
       32
302
GRIDFORMAT
  1
GRIDFORMAT_BEGIN
 90
        0
 91
        1
 62
     0
 92
       -2
340
0
 93
        0
 40
1.125
309
GRIDFORMAT_END
309
TABLEFORMAT_END
  1
CELLSTYLE_BEGIN
 90
        3
 91
        2
300
_DATA
309
CELLSTYLE_END
  0
XRECORD
  5
71A
102
{ACAD_REACTORS
330
6DD
102
}
330
6DD
100
AcDbXrecord
280
     1
102
ACAD_ROUNDTRIP_PRE2007_TABLESTYLE
 90
      512
 91
        0
  1

 92
      512
 93
        0
  2

 94
      512
 95
        0
  3

  0
XRECORD
  5
6F5
102
{ACAD_REACTORS
330
6F4
102
}
330
6F4
100
AcDbXrecord
280
     1
102
RTVSPost2010Prop28
280
     1
102
RTVSPost2010PropOp28
 70
     1
102
RTVSPost2010Prop29
280
     1
102
RTVSPost2010PropOp29
 70
     1
102
RTVSPost2010Prop30
280
     0
102
RTVSPost2010PropOp30
 70
     1
102
RTVSPost2010Prop31
280
     0
102
RTVSPost2010PropOp31
 70
     1
102
RTVSPost2010Prop32
280
     0
102
RTVSPost2010PropOp32
 70
     1
102
RTVSPost2010Prop33
280
     0
102
RTVSPost2010PropOp33
 70
     1
102
RTVSPost2010Prop34
280
     0
102
RTVSPost2010PropOp34
 70
     1
102
RTVSPost2010Prop35
280
     0
102
RTVSPost2010PropOp35
 70
     1
102
RTVSPost2010Prop36
280
     0
102
RTVSPost2010PropOp36
 70
     1
102
RTVSPost2010Prop37
 90
       50
102
RTVSPost2010PropOp37
 70
     1
102
RTVSPost2010Prop38
140
0.0
102
RTVSPost2010PropOp38
 70
     1
102
RTVSPost2010Prop39
140
1.0
102
RTVSPost2010PropOp39
 70
     1
102
RTVSPost2010Prop40
 90
        0
102
RTVSPost2010PropOp40
 70
     1
102
RTVSPost2010Prop41ColorIndex
 90
       18
102
RTVSPost2010Prop41ColorRGB
 90
        0
102
RTVSPost2010PropOp41
 70
     1
102
RTVSPost2010Prop42
 90
       50
102
RTVSPost2010PropOp42
 70
     1
102
RTVSPost2010Prop43
 90
        3
102
RTVSPost2010PropOp43
 70
     1
102
RTVSPost2010Prop44ColorIndex
 90
        5
102
RTVSPost2010Prop44ColorRGB
 90
      255
102
RTVSPost2010PropOp44
 70
     1
102
RTVSPost2010Prop45
280
     0
102
RTVSPost2010PropOp45
 70
     1
102
RTVSPost2010Prop46
 90
       50
102
RTVSPost2010PropOp46
 70
     1
102
RTVSPost2010Prop47
 90
       50
102
RTVSPost2010PropOp47
 70
     1
102
RTVSPost2010Prop48
 90
       50
102
RTVSPost2010PropOp48
 70
     1
102
RTVSPost2010Prop49
280
     0
102
RTVSPost2010PropOp49
 70
     1
102
RTVSPost2010Prop50
 90
       50
102
RTVSPost2010PropOp50
 70
     1
102
RTVSPost2010Prop51ColorIndex
 90
      256
102
RTVSPost2010Prop51ColorRGB
 90
-16777216
102
RTVSPost2010PropOp51
 70
     0
102
RTVSPost2010Prop52
140
1.0
102
RTVSPost2010PropOp52
 70
     0
102
RTVSPost2010Prop53
 90
        2
102
RTVSPost2010PropOp53
 70
     1
102
RTVSPost2010Prop54
  1
strokes_ogs.tif
102
RTVSPost2010PropOp54
 70
     1
102
RTVSPost2010Prop55
280
     0
102
RTVSPost2010PropOp55
 70
     1
102
RTVSPost2010Prop56
140
1.0
102
RTVSPost2010PropOp56
 70
     1
102
RTVSPost2010Prop57
140
1.0
102
RTVSPost2010PropOp57
 70
     1
102
RTVSPropertyOp0
 70
     1
102
RTVSPropertyOp1
 70
     1
102
RTVSPropertyOp2
 70
     1
102
RTVSPropertyOp3
 70
     1
102
RTVSPropertyOp4
 70
     1
102
RTVSPropertyOp5
 70
     1
102
RTVSPropertyOp6
 70
     1
102
RTVSPropertyOp7
 70
     1
102
RTVSPropertyOp8
 70
     1
102
RTVSPropertyOp9
 70
     1
102
RTVSPropertyOp10
 70
     1
102
RTVSPropertyOp11
 70
     1
102
RTVSPropertyOp12
 70
     1
102
RTVSPropertyOp13
 70
     1
102
RTVSPropertyOp14
 70
     1
102
RTVSPropertyOp15
 70
     1
102
RTVSPropertyOp16
 70
     1
102
RTVSPropertyOp17
 70
     1
102
RTVSPropertyOp18
 70
     1
102
RTVSPropertyOp19
 70
     1
102
RTVSPropertyOp20
 70
     1
102
RTVSPropertyOp21
 70
     1
102
RTVSPropertyOp22
 70
     1
102
RTVSPropertyOp23
 70
     1
102
RTVSPropertyOp24
 70
     1
102
RTVSPropertyOp25
 70
     1
102
RTVSPropertyOp26
 70
     1
102
RTVSPropertyOp27
 70
     1
102
RTVSPropertyOp28
 70
     1
102
RTVSPropertyOp29
 70
     1
102
RTVSPropertyOp30
 70
     1
102
RTVSPropertyOp31
 70
     1
102
RTVSPropertyOp32
 70
     1
102
RTVSPropertyOp33
 70
     1
102
RTVSPropertyOp34
 70
     1
102
RTVSPropertyOp35
 70
     1
102
RTVSPropertyOp36
 70
     1
102
RTVSPropertyOp37
 70
     1
102
RTVSPropertyOp38
 70
     1
102
RTVSPropertyOp39
 70
     1
102
RTVSPropertyOp40
 70
     1
102
RTVSPropertyOp41
 70
     1
102
RTVSPropertyOp42
 70
     1
102
RTVSPropertyOp43
 70
     1
102
RTVSPropertyOp44
 70
     1
102
RTVSPropertyOp45
 70
     1
102
RTVSPropertyOp46
 70
     1
102
RTVSPropertyOp47
 70
     1
102
RTVSPropertyOp48
 70
     1
102
RTVSPropertyOp49
 70
     1
102
RTVSPropertyOp50
 70
     1
102
RTVSPropertyOp51
 70
     0
102
RTVSPropertyOp52
 70
     0
102
RTVSPropertyOp53
 70
     1
102
RTVSPropertyOp54
 70
     1
102
RTVSPropertyOp55
 70
     1
102
RTVSPropertyOp56
 70
     1
102
RTVSPropertyOp57
 70
     1
102
RTVSPropertyOp58
 70
     1
102
RTVSPropertyOp59
 70
     1
102
RTVSPropertyOp60
 70
     1
102
RTVSPropertyOp61
 70
     1
102
RTVSPropertyOp62
 70
     1
  0
XRECORD
  5
6F3
102
{ACAD_REACTORS
330
6F2
102
}
330
6F2
100
AcDbXrecord
280
     1
102
RTVSPost2010Prop28
280
     0
102
RTVSPost2010PropOp28
 70
     1
102
RTVSPost2010Prop29
280
     1
102
RTVSPost2010PropOp29
 70
     1
102
RTVSPost2010Prop30
280
     1
102
RTVSPost2010PropOp30
 70
     1
102
RTVSPost2010Prop31
280
     0
102
RTVSPost2010PropOp31
 70
     1
102
RTVSPost2010Prop32
280
     0
102
RTVSPost2010PropOp32
 70
     1
102
RTVSPost2010Prop33
280
     0
102
RTVSPost2010PropOp33
 70
     1
102
RTVSPost2010Prop34
280
     0
102
RTVSPost2010PropOp34
 70
     1
102
RTVSPost2010Prop35
280
     0
102
RTVSPost2010PropOp35
 70
     1
102
RTVSPost2010Prop36
280
     0
102
RTVSPost2010PropOp36
 70
     1
102
RTVSPost2010Prop37
 90
       50
102
RTVSPost2010PropOp37
 70
     1
102
RTVSPost2010Prop38
140
0.0
102
RTVSPost2010PropOp38
 70
     1
102
RTVSPost2010Prop39
140
1.0
102
RTVSPost2010PropOp39
 70
     1
102
RTVSPost2010Prop40
 90
        0
102
RTVSPost2010PropOp40
 70
     1
102
RTVSPost2010Prop41ColorIndex
 90
       18
102
RTVSPost2010Prop41ColorRGB
 90
        0
102
RTVSPost2010PropOp41
 70
     1
102
RTVSPost2010Prop42
 90
       50
102
RTVSPost2010PropOp42
 70
     1
102
RTVSPost2010Prop43
 90
        3
102
RTVSPost2010PropOp43
 70
     1
102
RTVSPost2010Prop44ColorIndex
 90
        5
102
RTVSPost2010Prop44ColorRGB
 90
      255
102
RTVSPost2010PropOp44
 70
     1
102
RTVSPost2010Prop45
280
     0
102
RTVSPost2010PropOp45
 70
     1
102
RTVSPost2010Prop46
 90
       50
102
RTVSPost2010PropOp46
 70
     1
102
RTVSPost2010Prop47
 90
       50
102
RTVSPost2010PropOp47
 70
     1
102
RTVSPost2010Prop48
 90
       50
102
RTVSPost2010PropOp48
 70
     1
102
RTVSPost2010Prop49
280
     0
102
RTVSPost2010PropOp49
 70
     1
102
RTVSPost2010Prop50
 90
       50
102
RTVSPost2010PropOp50
 70
     1
102
RTVSPost2010Prop51ColorIndex
 90
      256
102
RTVSPost2010Prop51ColorRGB
 90
-16777216
102
RTVSPost2010PropOp51
 70
     0
102
RTVSPost2010Prop52
140
1.0
102
RTVSPost2010PropOp52
 70
     0
102
RTVSPost2010Prop53
 90
        2
102
RTVSPost2010PropOp53
 70
     1
102
RTVSPost2010Prop54
  1
strokes_ogs.tif
102
RTVSPost2010PropOp54
 70
     1
102
RTVSPost2010Prop55
280
     0
102
RTVSPost2010PropOp55
 70
     1
102
RTVSPost2010Prop56
140
1.0
102
RTVSPost2010PropOp56
 70
     1
102
RTVSPost2010Prop57
140
1.0
102
RTVSPost2010PropOp57
 70
     1
102
RTVSPropertyOp0
 70
     1
102
RTVSPropertyOp1
 70
     1
102
RTVSPropertyOp2
 70
     1
102
RTVSPropertyOp3
 70
     1
102
RTVSPropertyOp4
 70
     1
102
RTVSPropertyOp5
 70
     1
102
RTVSPropertyOp6
 70
     1
102
RTVSPropertyOp7
 70
     1
102
RTVSPropertyOp8
 70
     1
102
RTVSPropertyOp9
 70
     1
102
RTVSPropertyOp10
 70
     1
102
RTVSPropertyOp11
 70
     1
102
RTVSPropertyOp12
 70
     1
102
RTVSPropertyOp13
 70
     1
102
RTVSPropertyOp14
 70
     1
102
RTVSPropertyOp15
 70
     1
102
RTVSPropertyOp16
 70
     1
102
RTVSPropertyOp17
 70
     1
102
RTVSPropertyOp18
 70
     1
102
RTVSPropertyOp19
 70
     1
102
RTVSPropertyOp20
 70
     1
102
RTVSPropertyOp21
 70
     1
102
RTVSPropertyOp22
 70
     1
102
RTVSPropertyOp23
 70
     1
102
RTVSPropertyOp24
 70
     1
102
RTVSPropertyOp25
 70
     1
102
RTVSPropertyOp26
 70
     1
102
RTVSPropertyOp27
 70
     1
102
RTVSPropertyOp28
 70
     1
102
RTVSPropertyOp29
 70
     1
102
RTVSPropertyOp30
 70
     1
102
RTVSPropertyOp31
 70
     1
102
RTVSPropertyOp32
 70
     1
102
RTVSPropertyOp33
 70
     1
102
RTVSPropertyOp34
 70
     1
102
RTVSPropertyOp35
 70
     1
102
RTVSPropertyOp36
 70
     1
102
RTVSPropertyOp37
 70
     1
102
RTVSPropertyOp38
 70
     1
102
RTVSPropertyOp39
 70
     1
102
RTVSPropertyOp40
 70
     1
102
RTVSPropertyOp41
 70
     1
102
RTVSPropertyOp42
 70
     1
102
RTVSPropertyOp43
 70
     1
102
RTVSPropertyOp44
 70
     1
102
RTVSPropertyOp45
 70
     1
102
RTVSPropertyOp46
 70
     1
102
RTVSPropertyOp47
 70
     1
102
RTVSPropertyOp48
 70
     1
102
RTVSPropertyOp49
 70
     1
102
RTVSPropertyOp50
 70
     1
102
RTVSPropertyOp51
 70
     0
102
RTVSPropertyOp52
 70
     0
102
RTVSPropertyOp53
 70
     1
102
RTVSPropertyOp54
 70
     1
102
RTVSPropertyOp55
 70
     1
102
RTVSPropertyOp56
 70
     1
102
RTVSPropertyOp57
 70
     1
102
RTVSPropertyOp58
 70
     1
102
RTVSPropertyOp59
 70
     1
102
RTVSPropertyOp60
 70
     1
102
RTVSPropertyOp61
 70
     1
102
RTVSPropertyOp62
 70
     1
  0
XRECORD
  5
701
102
{ACAD_REACTORS
330
700
102
}
330
700
100
AcDbXrecord
280
     1
102
RTVSPost2010Prop28
280
     0
102
RTVSPost2010PropOp28
 70
     1
102
RTVSPost2010Prop29
280
     1
102
RTVSPost2010PropOp29
 70
     1
102
RTVSPost2010Prop30
280
     1
102
RTVSPost2010PropOp30
 70
     1
102
RTVSPost2010Prop31
280
     0
102
RTVSPost2010PropOp31
 70
     1
102
RTVSPost2010Prop32
280
     0
102
RTVSPost2010PropOp32
 70
     1
102
RTVSPost2010Prop33
280
     0
102
RTVSPost2010PropOp33
 70
     1
102
RTVSPost2010Prop34
280
     0
102
RTVSPost2010PropOp34
 70
     1
102
RTVSPost2010Prop35
280
     0
102
RTVSPost2010PropOp35
 70
     1
102
RTVSPost2010Prop36
280
     0
102
RTVSPost2010PropOp36
 70
     1
102
RTVSPost2010Prop37
 90
       50
102
RTVSPost2010PropOp37
 70
     1
102
RTVSPost2010Prop38
140
0.0
102
RTVSPost2010PropOp38
 70
     1
102
RTVSPost2010Prop39
140
1.0
102
RTVSPost2010PropOp39
 70
     1
102
RTVSPost2010Prop40
 90
        0
102
RTVSPost2010PropOp40
 70
     1
102
RTVSPost2010Prop41ColorIndex
 90
       18
102
RTVSPost2010Prop41ColorRGB
 90
        0
102
RTVSPost2010PropOp41
 70
     1
102
RTVSPost2010Prop42
 90
       50
102
RTVSPost2010PropOp42
 70
     1
102
RTVSPost2010Prop43
 90
        3
102
RTVSPost2010PropOp43
 70
     1
102
RTVSPost2010Prop44ColorIndex
 90
        5
102
RTVSPost2010Prop44ColorRGB
 90
      255
102
RTVSPost2010PropOp44
 70
     1
102
RTVSPost2010Prop45
280
     0
102
RTVSPost2010PropOp45
 70
     1
102
RTVSPost2010Prop46
 90
       50
102
RTVSPost2010PropOp46
 70
     1
102
RTVSPost2010Prop47
 90
       50
102
RTVSPost2010PropOp47
 70
     1
102
RTVSPost2010Prop48
 90
       50
102
RTVSPost2010PropOp48
 70
     1
102
RTVSPost2010Prop49
280
     0
102
RTVSPost2010PropOp49
 70
     1
102
RTVSPost2010Prop50
 90
       50
102
RTVSPost2010PropOp50
 70
     1
102
RTVSPost2010Prop51ColorIndex
 90
      256
102
RTVSPost2010Prop51ColorRGB
 90
-16777216
102
RTVSPost2010PropOp51
 70
     0
102
RTVSPost2010Prop52
140
1.0
102
RTVSPost2010PropOp52
 70
     0
102
RTVSPost2010Prop53
 90
        2
102
RTVSPost2010PropOp53
 70
     1
102
RTVSPost2010Prop54
  1
strokes_ogs.tif
102
RTVSPost2010PropOp54
 70
     1
102
RTVSPost2010Prop55
280
     0
102
RTVSPost2010PropOp55
 70
     1
102
RTVSPost2010Prop56
140
1.0
102
RTVSPost2010PropOp56
 70
     1
102
RTVSPost2010Prop57
140
1.0
102
RTVSPost2010PropOp57
 70
     1
102
RTVSPropertyOp0
 70
     1
102
RTVSPropertyOp1
 70
     1
102
RTVSPropertyOp2
 70
     1
102
RTVSPropertyOp3
 70
     1
102
RTVSPropertyOp4
 70
     1
102
RTVSPropertyOp5
 70
     1
102
RTVSPropertyOp6
 70
     1
102
RTVSPropertyOp7
 70
     1
102
RTVSPropertyOp8
 70
     1
102
RTVSPropertyOp9
 70
     1
102
RTVSPropertyOp10
 70
     1
102
RTVSPropertyOp11
 70
     1
102
RTVSPropertyOp12
 70
     1
102
RTVSPropertyOp13
 70
     1
102
RTVSPropertyOp14
 70
     1
102
RTVSPropertyOp15
 70
     1
102
RTVSPropertyOp16
 70
     1
102
RTVSPropertyOp17
 70
     1
102
RTVSPropertyOp18
 70
     1
102
RTVSPropertyOp19
 70
     1
102
RTVSPropertyOp20
 70
     1
102
RTVSPropertyOp21
 70
     1
102
RTVSPropertyOp22
 70
     1
102
RTVSPropertyOp23
 70
     1
102
RTVSPropertyOp24
 70
     1
102
RTVSPropertyOp25
 70
     1
102
RTVSPropertyOp26
 70
     1
102
RTVSPropertyOp27
 70
     1
102
RTVSPropertyOp28
 70
     1
102
RTVSPropertyOp29
 70
     1
102
RTVSPropertyOp30
 70
     1
102
RTVSPropertyOp31
 70
     1
102
RTVSPropertyOp32
 70
     1
102
RTVSPropertyOp33
 70
     1
102
RTVSPropertyOp34
 70
     1
102
RTVSPropertyOp35
 70
     1
102
RTVSPropertyOp36
 70
     1
102
RTVSPropertyOp37
 70
     1
102
RTVSPropertyOp38
 70
     1
102
RTVSPropertyOp39
 70
     1
102
RTVSPropertyOp40
 70
     1
102
RTVSPropertyOp41
 70
     1
102
RTVSPropertyOp42
 70
     1
102
RTVSPropertyOp43
 70
     1
102
RTVSPropertyOp44
 70
     1
102
RTVSPropertyOp45
 70
     1
102
RTVSPropertyOp46
 70
     1
102
RTVSPropertyOp47
 70
     1
102
RTVSPropertyOp48
 70
     1
102
RTVSPropertyOp49
 70
     1
102
RTVSPropertyOp50
 70
     1
102
RTVSPropertyOp51
 70
     0
102
RTVSPropertyOp52
 70
     0
102
RTVSPropertyOp53
 70
     1
102
RTVSPropertyOp54
 70
     1
102
RTVSPropertyOp55
 70
     1
102
RTVSPropertyOp56
 70
     1
102
RTVSPropertyOp57
 70
     1
102
RTVSPropertyOp58
 70
     1
102
RTVSPropertyOp59
 70
     1
102
RTVSPropertyOp60
 70
     1
102
RTVSPropertyOp61
 70
     1
102
RTVSPropertyOp62
 70
     1
  0
XRECORD
  5
709
102
{ACAD_REACTORS
330
708
102
}
330
708
100
AcDbXrecord
280
     1
102
RTVSPost2010Prop28
280
     0
102
RTVSPost2010PropOp28
 70
     1
102
RTVSPost2010Prop29
280
     1
102
RTVSPost2010PropOp29
 70
     1
102
RTVSPost2010Prop30
280
     1
102
RTVSPost2010PropOp30
 70
     1
102
RTVSPost2010Prop31
280
     0
102
RTVSPost2010PropOp31
 70
     1
102
RTVSPost2010Prop32
280
     0
102
RTVSPost2010PropOp32
 70
     1
102
RTVSPost2010Prop33
280
     0
102
RTVSPost2010PropOp33
 70
     1
102
RTVSPost2010Prop34
280
     0
102
RTVSPost2010PropOp34
 70
     1
102
RTVSPost2010Prop35
280
     0
102
RTVSPost2010PropOp35
 70
     1
102
RTVSPost2010Prop36
280
     0
102
RTVSPost2010PropOp36
 70
     1
102
RTVSPost2010Prop37
 90
       50
102
RTVSPost2010PropOp37
 70
     1
102
RTVSPost2010Prop38
140
0.0
102
RTVSPost2010PropOp38
 70
     1
102
RTVSPost2010Prop39
140
1.0
102
RTVSPost2010PropOp39
 70
     1
102
RTVSPost2010Prop40
 90
        0
102
RTVSPost2010PropOp40
 70
     1
102
RTVSPost2010Prop41ColorIndex
 90
       18
102
RTVSPost2010Prop41ColorRGB
 90
        0
102
RTVSPost2010PropOp41
 70
     1
102
RTVSPost2010Prop42
 90
       50
102
RTVSPost2010PropOp42
 70
     1
102
RTVSPost2010Prop43
 90
        3
102
RTVSPost2010PropOp43
 70
     1
102
RTVSPost2010Prop44ColorIndex
 90
        5
102
RTVSPost2010Prop44ColorRGB
 90
      255
102
RTVSPost2010PropOp44
 70
     1
102
RTVSPost2010Prop45
280
     0
102
RTVSPost2010PropOp45
 70
     1
102
RTVSPost2010Prop46
 90
       50
102
RTVSPost2010PropOp46
 70
     1
102
RTVSPost2010Prop47
 90
       50
102
RTVSPost2010PropOp47
 70
     1
102
RTVSPost2010Prop48
 90
       50
102
RTVSPost2010PropOp48
 70
     1
102
RTVSPost2010Prop49
280
     0
102
RTVSPost2010PropOp49
 70
     1
102
RTVSPost2010Prop50
 90
       50
102
RTVSPost2010PropOp50
 70
     1
102
RTVSPost2010Prop51ColorIndex
 90
      256
102
RTVSPost2010Prop51ColorRGB
 90
-16777216
102
RTVSPost2010PropOp51
 70
     0
102
RTVSPost2010Prop52
140
1.0
102
RTVSPost2010PropOp52
 70
     0
102
RTVSPost2010Prop53
 90
        2
102
RTVSPost2010PropOp53
 70
     1
102
RTVSPost2010Prop54
  1
strokes_ogs.tif
102
RTVSPost2010PropOp54
 70
     1
102
RTVSPost2010Prop55
280
     0
102
RTVSPost2010PropOp55
 70
     1
102
RTVSPost2010Prop56
140
1.0
102
RTVSPost2010PropOp56
 70
     1
102
RTVSPost2010Prop57
140
1.0
102
RTVSPost2010PropOp57
 70
     1
102
RTVSPropertyOp0
 70
     1
102
RTVSPropertyOp1
 70
     1
102
RTVSPropertyOp2
 70
     1
102
RTVSPropertyOp3
 70
     1
102
RTVSPropertyOp4
 70
     1
102
RTVSPropertyOp5
 70
     1
102
RTVSPropertyOp6
 70
     1
102
RTVSPropertyOp7
 70
     1
102
RTVSPropertyOp8
 70
     1
102
RTVSPropertyOp9
 70
     1
102
RTVSPropertyOp10
 70
     1
102
RTVSPropertyOp11
 70
     1
102
RTVSPropertyOp12
 70
     1
102
RTVSPropertyOp13
 70
     1
102
RTVSPropertyOp14
 70
     1
102
RTVSPropertyOp15
 70
     1
102
RTVSPropertyOp16
 70
     1
102
RTVSPropertyOp17
 70
     1
102
RTVSPropertyOp18
 70
     1
102
RTVSPropertyOp19
 70
     1
102
RTVSPropertyOp20
 70
     1
102
RTVSPropertyOp21
 70
     1
102
RTVSPropertyOp22
 70
     1
102
RTVSPropertyOp23
 70
     1
102
RTVSPropertyOp24
 70
     1
102
RTVSPropertyOp25
 70
     1
102
RTVSPropertyOp26
 70
     1
102
RTVSPropertyOp27
 70
     1
102
RTVSPropertyOp28
 70
     1
102
RTVSPropertyOp29
 70
     1
102
RTVSPropertyOp30
 70
     1
102
RTVSPropertyOp31
 70
     1
102
RTVSPropertyOp32
 70
     1
102
RTVSPropertyOp33
 70
     1
102
RTVSPropertyOp34
 70
     1
102
RTVSPropertyOp35
 70
     1
102
RTVSPropertyOp36
 70
     1
102
RTVSPropertyOp37
 70
     1
102
RTVSPropertyOp38
 70
     1
102
RTVSPropertyOp39
 70
     1
102
RTVSPropertyOp40
 70
     1
102
RTVSPropertyOp41
 70
     1
102
RTVSPropertyOp42
 70
     1
102
RTVSPropertyOp43
 70
     1
102
RTVSPropertyOp44
 70
     1
102
RTVSPropertyOp45
 70
     1
102
RTVSPropertyOp46
 70
     1
102
RTVSPropertyOp47
 70
     1
102
RTVSPropertyOp48
 70
     1
102
RTVSPropertyOp49
 70
     1
102
RTVSPropertyOp50
 70
     1
102
RTVSPropertyOp51
 70
     0
102
RTVSPropertyOp52
 70
     0
102
RTVSPropertyOp53
 70
     1
102
RTVSPropertyOp54
 70
     1
102
RTVSPropertyOp55
 70
     1
102
RTVSPropertyOp56
 70
     1
102
RTVSPropertyOp57
 70
     1
102
RTVSPropertyOp58
 70
     1
102
RTVSPropertyOp59
 70
     1
102
RTVSPropertyOp60
 70
     1
102
RTVSPropertyOp61
 70
     1
102
RTVSPropertyOp62
 70
     1
  0
XRECORD
  5
6FB
102
{ACAD_REACTORS
330
6FA
102
}
330
6FA
100
AcDbXrecord
280
     1
102
RTVSPost2010Prop28
280
     0
102
RTVSPost2010PropOp28
 70
     1
102
RTVSPost2010Prop29
280
     1
102
RTVSPost2010PropOp29
 70
     1
102
RTVSPost2010Prop30
280
     1
102
RTVSPost2010PropOp30
 70
     1
102
RTVSPost2010Prop31
280
     0
102
RTVSPost2010PropOp31
 70
     1
102
RTVSPost2010Prop32
280
     0
102
RTVSPost2010PropOp32
 70
     1
102
RTVSPost2010Prop33
280
     0
102
RTVSPost2010PropOp33
 70
     1
102
RTVSPost2010Prop34
280
     0
102
RTVSPost2010PropOp34
 70
     1
102
RTVSPost2010Prop35
280
     0
102
RTVSPost2010PropOp35
 70
     1
102
RTVSPost2010Prop36
280
     0
102
RTVSPost2010PropOp36
 70
     1
102
RTVSPost2010Prop37
 90
       50
102
RTVSPost2010PropOp37
 70
     1
102
RTVSPost2010Prop38
140
0.0
102
RTVSPost2010PropOp38
 70
     1
102
RTVSPost2010Prop39
140
1.0
102
RTVSPost2010PropOp39
 70
     1
102
RTVSPost2010Prop40
 90
        0
102
RTVSPost2010PropOp40
 70
     1
102
RTVSPost2010Prop41ColorIndex
 90
       18
102
RTVSPost2010Prop41ColorRGB
 90
        0
102
RTVSPost2010PropOp41
 70
     1
102
RTVSPost2010Prop42
 90
       50
102
RTVSPost2010PropOp42
 70
     1
102
RTVSPost2010Prop43
 90
        3
102
RTVSPost2010PropOp43
 70
     1
102
RTVSPost2010Prop44ColorIndex
 90
        5
102
RTVSPost2010Prop44ColorRGB
 90
      255
102
RTVSPost2010PropOp44
 70
     1
102
RTVSPost2010Prop45
280
     0
102
RTVSPost2010PropOp45
 70
     1
102
RTVSPost2010Prop46
 90
       50
102
RTVSPost2010PropOp46
 70
     1
102
RTVSPost2010Prop47
 90
       50
102
RTVSPost2010PropOp47
 70
     1
102
RTVSPost2010Prop48
 90
       50
102
RTVSPost2010PropOp48
 70
     1
102
RTVSPost2010Prop49
280
     0
102
RTVSPost2010PropOp49
 70
     1
102
RTVSPost2010Prop50
 90
       50
102
RTVSPost2010PropOp50
 70
     1
102
RTVSPost2010Prop51ColorIndex
 90
      256
102
RTVSPost2010Prop51ColorRGB
 90
-16777216
102
RTVSPost2010PropOp51
 70
     0
102
RTVSPost2010Prop52
140
1.0
102
RTVSPost2010PropOp52
 70
     0
102
RTVSPost2010Prop53
 90
        2
102
RTVSPost2010PropOp53
 70
     1
102
RTVSPost2010Prop54
  1
strokes_ogs.tif
102
RTVSPost2010PropOp54
 70
     1
102
RTVSPost2010Prop55
280
     0
102
RTVSPost2010PropOp55
 70
     1
102
RTVSPost2010Prop56
140
1.0
102
RTVSPost2010PropOp56
 70
     1
102
RTVSPost2010Prop57
140
1.0
102
RTVSPost2010PropOp57
 70
     1
102
RTVSPropertyOp0
 70
     1
102
RTVSPropertyOp1
 70
     1
102
RTVSPropertyOp2
 70
     1
102
RTVSPropertyOp3
 70
     1
102
RTVSPropertyOp4
 70
     1
102
RTVSPropertyOp5
 70
     1
102
RTVSPropertyOp6
 70
     1
102
RTVSPropertyOp7
 70
     1
102
RTVSPropertyOp8
 70
     1
102
RTVSPropertyOp9
 70
     1
102
RTVSPropertyOp10
 70
     1
102
RTVSPropertyOp11
 70
     1
102
RTVSPropertyOp12
 70
     1
102
RTVSPropertyOp13
 70
     1
102
RTVSPropertyOp14
 70
     1
102
RTVSPropertyOp15
 70
     1
102
RTVSPropertyOp16
 70
     1
102
RTVSPropertyOp17
 70
     1
102
RTVSPropertyOp18
 70
     1
102
RTVSPropertyOp19
 70
     1
102
RTVSPropertyOp20
 70
     1
102
RTVSPropertyOp21
 70
     1
102
RTVSPropertyOp22
 70
     1
102
RTVSPropertyOp23
 70
     1
102
RTVSPropertyOp24
 70
     1
102
RTVSPropertyOp25
 70
     1
102
RTVSPropertyOp26
 70
     1
102
RTVSPropertyOp27
 70
     1
102
RTVSPropertyOp28
 70
     1
102
RTVSPropertyOp29
 70
     1
102
RTVSPropertyOp30
 70
     1
102
RTVSPropertyOp31
 70
     1
102
RTVSPropertyOp32
 70
     1
102
RTVSPropertyOp33
 70
     1
102
RTVSPropertyOp34
 70
     1
102
RTVSPropertyOp35
 70
     1
102
RTVSPropertyOp36
 70
     1
102
RTVSPropertyOp37
 70
     1
102
RTVSPropertyOp38
 70
     1
102
RTVSPropertyOp39
 70
     1
102
RTVSPropertyOp40
 70
     1
102
RTVSPropertyOp41
 70
     1
102
RTVSPropertyOp42
 70
     1
102
RTVSPropertyOp43
 70
     1
102
RTVSPropertyOp44
 70
     1
102
RTVSPropertyOp45
 70
     1
102
RTVSPropertyOp46
 70
     1
102
RTVSPropertyOp47
 70
     1
102
RTVSPropertyOp48
 70
     1
102
RTVSPropertyOp49
 70
     1
102
RTVSPropertyOp50
 70
     1
102
RTVSPropertyOp51
 70
     0
102
RTVSPropertyOp52
 70
     0
102
RTVSPropertyOp53
 70
     1
102
RTVSPropertyOp54
 70
     1
102
RTVSPropertyOp55
 70
     1
102
RTVSPropertyOp56
 70
     1
102
RTVSPropertyOp57
 70
     1
102
RTVSPropertyOp58
 70
     1
102
RTVSPropertyOp59
 70
     1
102
RTVSPropertyOp60
 70
     1
102
RTVSPropertyOp61
 70
     1
102
RTVSPropertyOp62
 70
     1
  0
XRECORD
  5
6FF
102
{ACAD_REACTORS
330
6FE
102
}
330
6FE
100
AcDbXrecord
280
     1
102
RTVSPost2010Prop28
280
     0
102
RTVSPost2010PropOp28
 70
     1
102
RTVSPost2010Prop29
280
     1
102
RTVSPost2010PropOp29
 70
     1
102
RTVSPost2010Prop30
280
     1
102
RTVSPost2010PropOp30
 70
     1
102
RTVSPost2010Prop31
280
     0
102
RTVSPost2010PropOp31
 70
     1
102
RTVSPost2010Prop32
280
     0
102
RTVSPost2010PropOp32
 70
     1
102
RTVSPost2010Prop33
280
     0
102
RTVSPost2010PropOp33
 70
     1
102
RTVSPost2010Prop34
280
     0
102
RTVSPost2010PropOp34
 70
     1
102
RTVSPost2010Prop35
280
     0
102
RTVSPost2010PropOp35
 70
     1
102
RTVSPost2010Prop36
280
     0
102
RTVSPost2010PropOp36
 70
     1
102
RTVSPost2010Prop37
 90
       50
102
RTVSPost2010PropOp37
 70
     1
102
RTVSPost2010Prop38
140
0.0
102
RTVSPost2010PropOp38
 70
     1
102
RTVSPost2010Prop39
140
1.0
102
RTVSPost2010PropOp39
 70
     1
102
RTVSPost2010Prop40
 90
        0
102
RTVSPost2010PropOp40
 70
     1
102
RTVSPost2010Prop41ColorIndex
 90
       18
102
RTVSPost2010Prop41ColorRGB
 90
        0
102
RTVSPost2010PropOp41
 70
     1
102
RTVSPost2010Prop42
 90
       50
102
RTVSPost2010PropOp42
 70
     1
102
RTVSPost2010Prop43
 90
        3
102
RTVSPost2010PropOp43
 70
     1
102
RTVSPost2010Prop44ColorIndex
 90
        5
102
RTVSPost2010Prop44ColorRGB
 90
      255
102
RTVSPost2010PropOp44
 70
     1
102
RTVSPost2010Prop45
280
     0
102
RTVSPost2010PropOp45
 70
     1
102
RTVSPost2010Prop46
 90
       50
102
RTVSPost2010PropOp46
 70
     1
102
RTVSPost2010Prop47
 90
       50
102
RTVSPost2010PropOp47
 70
     1
102
RTVSPost2010Prop48
 90
       50
102
RTVSPost2010PropOp48
 70
     1
102
RTVSPost2010Prop49
280
     0
102
RTVSPost2010PropOp49
 70
     1
102
RTVSPost2010Prop50
 90
       50
102
RTVSPost2010PropOp50
 70
     1
102
RTVSPost2010Prop51ColorIndex
 90
      256
102
RTVSPost2010Prop51ColorRGB
 90
-16777216
102
RTVSPost2010PropOp51
 70
     0
102
RTVSPost2010Prop52
140
1.0
102
RTVSPost2010PropOp52
 70
     0
102
RTVSPost2010Prop53
 90
        2
102
RTVSPost2010PropOp53
 70
     1
102
RTVSPost2010Prop54
  1
strokes_ogs.tif
102
RTVSPost2010PropOp54
 70
     1
102
RTVSPost2010Prop55
280
     0
102
RTVSPost2010PropOp55
 70
     1
102
RTVSPost2010Prop56
140
1.0
102
RTVSPost2010PropOp56
 70
     1
102
RTVSPost2010Prop57
140
1.0
102
RTVSPost2010PropOp57
 70
     1
102
RTVSPropertyOp0
 70
     1
102
RTVSPropertyOp1
 70
     1
102
RTVSPropertyOp2
 70
     1
102
RTVSPropertyOp3
 70
     1
102
RTVSPropertyOp4
 70
     1
102
RTVSPropertyOp5
 70
     1
102
RTVSPropertyOp6
 70
     1
102
RTVSPropertyOp7
 70
     1
102
RTVSPropertyOp8
 70
     1
102
RTVSPropertyOp9
 70
     1
102
RTVSPropertyOp10
 70
     1
102
RTVSPropertyOp11
 70
     1
102
RTVSPropertyOp12
 70
     1
102
RTVSPropertyOp13
 70
     1
102
RTVSPropertyOp14
 70
     1
102
RTVSPropertyOp15
 70
     1
102
RTVSPropertyOp16
 70
     1
102
RTVSPropertyOp17
 70
     1
102
RTVSPropertyOp18
 70
     1
102
RTVSPropertyOp19
 70
     1
102
RTVSPropertyOp20
 70
     1
102
RTVSPropertyOp21
 70
     1
102
RTVSPropertyOp22
 70
     1
102
RTVSPropertyOp23
 70
     1
102
RTVSPropertyOp24
 70
     1
102
RTVSPropertyOp25
 70
     1
102
RTVSPropertyOp26
 70
     1
102
RTVSPropertyOp27
 70
     1
102
RTVSPropertyOp28
 70
     1
102
RTVSPropertyOp29
 70
     1
102
RTVSPropertyOp30
 70
     1
102
RTVSPropertyOp31
 70
     1
102
RTVSPropertyOp32
 70
     1
102
RTVSPropertyOp33
 70
     1
102
RTVSPropertyOp34
 70
     1
102
RTVSPropertyOp35
 70
     1
102
RTVSPropertyOp36
 70
     1
102
RTVSPropertyOp37
 70
     1
102
RTVSPropertyOp38
 70
     1
102
RTVSPropertyOp39
 70
     1
102
RTVSPropertyOp40
 70
     1
102
RTVSPropertyOp41
 70
     1
102
RTVSPropertyOp42
 70
     1
102
RTVSPropertyOp43
 70
     1
102
RTVSPropertyOp44
 70
     1
102
RTVSPropertyOp45
 70
     1
102
RTVSPropertyOp46
 70
     1
102
RTVSPropertyOp47
 70
     1
102
RTVSPropertyOp48
 70
     1
102
RTVSPropertyOp49
 70
     1
102
RTVSPropertyOp50
 70
     1
102
RTVSPropertyOp51
 70
     0
102
RTVSPropertyOp52
 70
     0
102
RTVSPropertyOp53
 70
     1
102
RTVSPropertyOp54
 70
     1
102
RTVSPropertyOp55
 70
     1
102
RTVSPropertyOp56
 70
     1
102
RTVSPropertyOp57
 70
     1
102
RTVSPropertyOp58
 70
     1
102
RTVSPropertyOp59
 70
     1
102
RTVSPropertyOp60
 70
     1
102
RTVSPropertyOp61
 70
     1
102
RTVSPropertyOp62
 70
     1
  0
XRECORD
  5
719
102
{ACAD_REACTORS
330
718
102
}
330
718
100
AcDbXrecord
280
     1
102
RTVSPost2010Prop28
280
     0
102
RTVSPost2010PropOp28
 70
     1
102
RTVSPost2010Prop29
280
     1
102
RTVSPost2010PropOp29
 70
     1
102
RTVSPost2010Prop30
280
     1
102
RTVSPost2010PropOp30
 70
     1
102
RTVSPost2010Prop31
280
     0
102
RTVSPost2010PropOp31
 70
     1
102
RTVSPost2010Prop32
280
     0
102
RTVSPost2010PropOp32
 70
     1
102
RTVSPost2010Prop33
280
     0
102
RTVSPost2010PropOp33
 70
     1
102
RTVSPost2010Prop34
280
     0
102
RTVSPost2010PropOp34
 70
     1
102
RTVSPost2010Prop35
280
     0
102
RTVSPost2010PropOp35
 70
     1
102
RTVSPost2010Prop36
280
     0
102
RTVSPost2010PropOp36
 70
     1
102
RTVSPost2010Prop37
 90
       50
102
RTVSPost2010PropOp37
 70
     0
102
RTVSPost2010Prop38
140
0.0
102
RTVSPost2010PropOp38
 70
     0
102
RTVSPost2010Prop39
140
1.0
102
RTVSPost2010PropOp39
 70
     0
102
RTVSPost2010Prop40
 90
        0
102
RTVSPost2010PropOp40
 70
     0
102
RTVSPost2010Prop41ColorIndex
 90
       18
102
RTVSPost2010Prop41ColorRGB
 90
        0
102
RTVSPost2010PropOp41
 70
     0
102
RTVSPost2010Prop42
 90
       50
102
RTVSPost2010PropOp42
 70
     0
102
RTVSPost2010Prop43
 90
        3
102
RTVSPost2010PropOp43
 70
     0
102
RTVSPost2010Prop44ColorIndex
 90
        5
102
RTVSPost2010Prop44ColorRGB
 90
      255
102
RTVSPost2010PropOp44
 70
     0
102
RTVSPost2010Prop45
280
     0
102
RTVSPost2010PropOp45
 70
     1
102
RTVSPost2010Prop46
 90
       50
102
RTVSPost2010PropOp46
 70
     0
102
RTVSPost2010Prop47
 90
       50
102
RTVSPost2010PropOp47
 70
     0
102
RTVSPost2010Prop48
 90
       50
102
RTVSPost2010PropOp48
 70
     0
102
RTVSPost2010Prop49
280
     0
102
RTVSPost2010PropOp49
 70
     1
102
RTVSPost2010Prop50
 90
       50
102
RTVSPost2010PropOp50
 70
     0
102
RTVSPost2010Prop51ColorIndex
 90
      256
102
RTVSPost2010Prop51ColorRGB
 90
-16777216
102
RTVSPost2010PropOp51
 70
     0
102
RTVSPost2010Prop52
140
1.0
102
RTVSPost2010PropOp52
 70
     0
102
RTVSPost2010Prop53
 90
        2
102
RTVSPost2010PropOp53
 70
     0
102
RTVSPost2010Prop54
  1
strokes_ogs.tif
102
RTVSPost2010PropOp54
 70
     0
102
RTVSPost2010Prop55
280
     0
102
RTVSPost2010PropOp55
 70
     1
102
RTVSPost2010Prop56
140
1.0
102
RTVSPost2010PropOp56
 70
     0
102
RTVSPost2010Prop57
140
1.0
102
RTVSPost2010PropOp57
 70
     0
102
RTVSPropertyOp0
 70
     0
102
RTVSPropertyOp1
 70
     0
102
RTVSPropertyOp2
 70
     0
102
RTVSPropertyOp3
 70
     0
102
RTVSPropertyOp4
 70
     0
102
RTVSPropertyOp5
 70
     0
102
RTVSPropertyOp6
 70
     0
102
RTVSPropertyOp7
 70
     0
102
RTVSPropertyOp8
 70
     0
102
RTVSPropertyOp9
 70
     0
102
RTVSPropertyOp10
 70
     0
102
RTVSPropertyOp11
 70
     0
102
RTVSPropertyOp12
 70
     0
102
RTVSPropertyOp13
 70
     0
102
RTVSPropertyOp14
 70
     2
102
RTVSPropertyOp15
 70
     0
102
RTVSPropertyOp16
 70
     0
102
RTVSPropertyOp17
 70
     0
102
RTVSPropertyOp18
 70
     0
102
RTVSPropertyOp19
 70
     0
102
RTVSPropertyOp20
 70
     0
102
RTVSPropertyOp21
 70
     0
102
RTVSPropertyOp22
 70
     0
102
RTVSPropertyOp23
 70
     0
102
RTVSPropertyOp24
 70
     0
102
RTVSPropertyOp25
 70
     0
102
RTVSPropertyOp26
 70
     0
102
RTVSPropertyOp27
 70
     0
102
RTVSPropertyOp28
 70
     1
102
RTVSPropertyOp29
 70
     1
102
RTVSPropertyOp30
 70
     1
102
RTVSPropertyOp31
 70
     1
102
RTVSPropertyOp32
 70
     1
102
RTVSPropertyOp33
 70
     1
102
RTVSPropertyOp34
 70
     1
102
RTVSPropertyOp35
 70
     1
102
RTVSPropertyOp36
 70
     1
102
RTVSPropertyOp37
 70
     0
102
RTVSPropertyOp38
 70
     0
102
RTVSPropertyOp39
 70
     0
102
RTVSPropertyOp40
 70
     0
102
RTVSPropertyOp41
 70
     0
102
RTVSPropertyOp42
 70
     0
102
RTVSPropertyOp43
 70
     0
102
RTVSPropertyOp44
 70
     0
102
RTVSPropertyOp45
 70
     1
102
RTVSPropertyOp46
 70
     0
102
RTVSPropertyOp47
 70
     0
102
RTVSPropertyOp48
 70
     0
102
RTVSPropertyOp49
 70
     1
102
RTVSPropertyOp50
 70
     0
102
RTVSPropertyOp51
 70
     0
102
RTVSPropertyOp52
 70
     0
102
RTVSPropertyOp53
 70
     0
102
RTVSPropertyOp54
 70
     0
102
RTVSPropertyOp55
 70
     1
102
RTVSPropertyOp56
 70
     0
102
RTVSPropertyOp57
 70
     0
102
RTVSPropertyOp58
 70
     0
102
RTVSPropertyOp59
 70
     0
102
RTVSPropertyOp60
 70
     0
102
RTVSPropertyOp61
 70
     0
102
RTVSPropertyOp62
 70
     0
  0
XRECORD
  5
707
102
{ACAD_REACTORS
330
706
102
}
330
706
100
AcDbXrecord
280
     1
102
RTVSPost2010Prop28
280
     0
102
RTVSPost2010PropOp28
 70
     1
102
RTVSPost2010Prop29
280
     1
102
RTVSPost2010PropOp29
 70
     1
102
RTVSPost2010Prop30
280
     1
102
RTVSPost2010PropOp30
 70
     1
102
RTVSPost2010Prop31
280
     0
102
RTVSPost2010PropOp31
 70
     1
102
RTVSPost2010Prop32
280
     0
102
RTVSPost2010PropOp32
 70
     1
102
RTVSPost2010Prop33
280
     0
102
RTVSPost2010PropOp33
 70
     1
102
RTVSPost2010Prop34
280
     0
102
RTVSPost2010PropOp34
 70
     1
102
RTVSPost2010Prop35
280
     0
102
RTVSPost2010PropOp35
 70
     1
102
RTVSPost2010Prop36
280
     0
102
RTVSPost2010PropOp36
 70
     1
102
RTVSPost2010Prop37
 90
       50
102
RTVSPost2010PropOp37
 70
     1
102
RTVSPost2010Prop38
140
0.0
102
RTVSPost2010PropOp38
 70
     1
102
RTVSPost2010Prop39
140
1.0
102
RTVSPost2010PropOp39
 70
     1
102
RTVSPost2010Prop40
 90
        0
102
RTVSPost2010PropOp40
 70
     1
102
RTVSPost2010Prop41ColorIndex
 90
       18
102
RTVSPost2010Prop41ColorRGB
 90
        0
102
RTVSPost2010PropOp41
 70
     1
102
RTVSPost2010Prop42
 90
       50
102
RTVSPost2010PropOp42
 70
     1
102
RTVSPost2010Prop43
 90
        3
102
RTVSPost2010PropOp43
 70
     1
102
RTVSPost2010Prop44ColorIndex
 90
        5
102
RTVSPost2010Prop44ColorRGB
 90
      255
102
RTVSPost2010PropOp44
 70
     1
102
RTVSPost2010Prop45
280
     0
102
RTVSPost2010PropOp45
 70
     1
102
RTVSPost2010Prop46
 90
       50
102
RTVSPost2010PropOp46
 70
     1
102
RTVSPost2010Prop47
 90
       50
102
RTVSPost2010PropOp47
 70
     1
102
RTVSPost2010Prop48
 90
       50
102
RTVSPost2010PropOp48
 70
     1
102
RTVSPost2010Prop49
280
     0
102
RTVSPost2010PropOp49
 70
     1
102
RTVSPost2010Prop50
 90
       50
102
RTVSPost2010PropOp50
 70
     1
102
RTVSPost2010Prop51ColorIndex
 90
      256
102
RTVSPost2010Prop51ColorRGB
 90
-16777216
102
RTVSPost2010PropOp51
 70
     0
102
RTVSPost2010Prop52
140
1.0
102
RTVSPost2010PropOp52
 70
     0
102
RTVSPost2010Prop53
 90
        2
102
RTVSPost2010PropOp53
 70
     1
102
RTVSPost2010Prop54
  1
strokes_ogs.tif
102
RTVSPost2010PropOp54
 70
     1
102
RTVSPost2010Prop55
280
     0
102
RTVSPost2010PropOp55
 70
     1
102
RTVSPost2010Prop56
140
1.0
102
RTVSPost2010PropOp56
 70
     1
102
RTVSPost2010Prop57
140
1.0
102
RTVSPost2010PropOp57
 70
     1
102
RTVSPropertyOp0
 70
     1
102
RTVSPropertyOp1
 70
     1
102
RTVSPropertyOp2
 70
     1
102
RTVSPropertyOp3
 70
     1
102
RTVSPropertyOp4
 70
     1
102
RTVSPropertyOp5
 70
     1
102
RTVSPropertyOp6
 70
     1
102
RTVSPropertyOp7
 70
     1
102
RTVSPropertyOp8
 70
     1
102
RTVSPropertyOp9
 70
     1
102
RTVSPropertyOp10
 70
     1
102
RTVSPropertyOp11
 70
     1
102
RTVSPropertyOp12
 70
     1
102
RTVSPropertyOp13
 70
     1
102
RTVSPropertyOp14
 70
     1
102
RTVSPropertyOp15
 70
     1
102
RTVSPropertyOp16
 70
     1
102
RTVSPropertyOp17
 70
     1
102
RTVSPropertyOp18
 70
     1
102
RTVSPropertyOp19
 70
     1
102
RTVSPropertyOp20
 70
     1
102
RTVSPropertyOp21
 70
     1
102
RTVSPropertyOp22
 70
     1
102
RTVSPropertyOp23
 70
     1
102
RTVSPropertyOp24
 70
     1
102
RTVSPropertyOp25
 70
     1
102
RTVSPropertyOp26
 70
     1
102
RTVSPropertyOp27
 70
     1
102
RTVSPropertyOp28
 70
     1
102
RTVSPropertyOp29
 70
     1
102
RTVSPropertyOp30
 70
     1
102
RTVSPropertyOp31
 70
     1
102
RTVSPropertyOp32
 70
     1
102
RTVSPropertyOp33
 70
     1
102
RTVSPropertyOp34
 70
     1
102
RTVSPropertyOp35
 70
     1
102
RTVSPropertyOp36
 70
     1
102
RTVSPropertyOp37
 70
     1
102
RTVSPropertyOp38
 70
     1
102
RTVSPropertyOp39
 70
     1
102
RTVSPropertyOp40
 70
     1
102
RTVSPropertyOp41
 70
     1
102
RTVSPropertyOp42
 70
     1
102
RTVSPropertyOp43
 70
     1
102
RTVSPropertyOp44
 70
     1
102
RTVSPropertyOp45
 70
     1
102
RTVSPropertyOp46
 70
     1
102
RTVSPropertyOp47
 70
     1
102
RTVSPropertyOp48
 70
     1
102
RTVSPropertyOp49
 70
     1
102
RTVSPropertyOp50
 70
     1
102
RTVSPropertyOp51
 70
     0
102
RTVSPropertyOp52
 70
     0
102
RTVSPropertyOp53
 70
     1
102
RTVSPropertyOp54
 70
     1
102
RTVSPropertyOp55
 70
     1
102
RTVSPropertyOp56
 70
     1
102
RTVSPropertyOp57
 70
     1
102
RTVSPropertyOp58
 70
     1
102
RTVSPropertyOp59
 70
     1
102
RTVSPropertyOp60
 70
     1
102
RTVSPropertyOp61
 70
     1
102
RTVSPropertyOp62
 70
     1
  0
XRECORD
  5
6EB
102
{ACAD_REACTORS
330
6EA
102
}
330
6EA
100
AcDbXrecord
280
     1
102
RTVSPost2010Prop28
280
     0
102
RTVSPost2010PropOp28
 70
     1
102
RTVSPost2010Prop29
280
     1
102
RTVSPost2010PropOp29
 70
     1
102
RTVSPost2010Prop30
280
     1
102
RTVSPost2010PropOp30
 70
     1
102
RTVSPost2010Prop31
280
     0
102
RTVSPost2010PropOp31
 70
     1
102
RTVSPost2010Prop32
280
     0
102
RTVSPost2010PropOp32
 70
     1
102
RTVSPost2010Prop33
280
     0
102
RTVSPost2010PropOp33
 70
     1
102
RTVSPost2010Prop34
280
     0
102
RTVSPost2010PropOp34
 70
     1
102
RTVSPost2010Prop35
280
     0
102
RTVSPost2010PropOp35
 70
     1
102
RTVSPost2010Prop36
280
     0
102
RTVSPost2010PropOp36
 70
     1
102
RTVSPost2010Prop37
 90
       50
102
RTVSPost2010PropOp37
 70
     1
102
RTVSPost2010Prop38
140
0.0
102
RTVSPost2010PropOp38
 70
     1
102
RTVSPost2010Prop39
140
1.0
102
RTVSPost2010PropOp39
 70
     1
102
RTVSPost2010Prop40
 90
        0
102
RTVSPost2010PropOp40
 70
     1
102
RTVSPost2010Prop41ColorIndex
 90
       18
102
RTVSPost2010Prop41ColorRGB
 90
        0
102
RTVSPost2010PropOp41
 70
     1
102
RTVSPost2010Prop42
 90
       50
102
RTVSPost2010PropOp42
 70
     1
102
RTVSPost2010Prop43
 90
        3
102
RTVSPost2010PropOp43
 70
     1
102
RTVSPost2010Prop44ColorIndex
 90
        5
102
RTVSPost2010Prop44ColorRGB
 90
      255
102
RTVSPost2010PropOp44
 70
     1
102
RTVSPost2010Prop45
280
     0
102
RTVSPost2010PropOp45
 70
     1
102
RTVSPost2010Prop46
 90
       50
102
RTVSPost2010PropOp46
 70
     1
102
RTVSPost2010Prop47
 90
       50
102
RTVSPost2010PropOp47
 70
     1
102
RTVSPost2010Prop48
 90
       50
102
RTVSPost2010PropOp48
 70
     1
102
RTVSPost2010Prop49
280
     0
102
RTVSPost2010PropOp49
 70
     1
102
RTVSPost2010Prop50
 90
       50
102
RTVSPost2010PropOp50
 70
     1
102
RTVSPost2010Prop51ColorIndex
 90
      256
102
RTVSPost2010Prop51ColorRGB
 90
-16777216
102
RTVSPost2010PropOp51
 70
     0
102
RTVSPost2010Prop52
140
1.0
102
RTVSPost2010PropOp52
 70
     0
102
RTVSPost2010Prop53
 90
        2
102
RTVSPost2010PropOp53
 70
     1
102
RTVSPost2010Prop54
  1
strokes_ogs.tif
102
RTVSPost2010PropOp54
 70
     1
102
RTVSPost2010Prop55
280
     0
102
RTVSPost2010PropOp55
 70
     1
102
RTVSPost2010Prop56
140
1.0
102
RTVSPost2010PropOp56
 70
     1
102
RTVSPost2010Prop57
140
1.0
102
RTVSPost2010PropOp57
 70
     1
102
RTVSPropertyOp0
 70
     1
102
RTVSPropertyOp1
 70
     1
102
RTVSPropertyOp2
 70
     1
102
RTVSPropertyOp3
 70
     1
102
RTVSPropertyOp4
 70
     1
102
RTVSPropertyOp5
 70
     1
102
RTVSPropertyOp6
 70
     1
102
RTVSPropertyOp7
 70
     1
102
RTVSPropertyOp8
 70
     1
102
RTVSPropertyOp9
 70
     1
102
RTVSPropertyOp10
 70
     1
102
RTVSPropertyOp11
 70
     1
102
RTVSPropertyOp12
 70
     1
102
RTVSPropertyOp13
 70
     1
102
RTVSPropertyOp14
 70
     1
102
RTVSPropertyOp15
 70
     1
102
RTVSPropertyOp16
 70
     1
102
RTVSPropertyOp17
 70
     1
102
RTVSPropertyOp18
 70
     1
102
RTVSPropertyOp19
 70
     1
102
RTVSPropertyOp20
 70
     1
102
RTVSPropertyOp21
 70
     1
102
RTVSPropertyOp22
 70
     1
102
RTVSPropertyOp23
 70
     1
102
RTVSPropertyOp24
 70
     1
102
RTVSPropertyOp25
 70
     1
102
RTVSPropertyOp26
 70
     1
102
RTVSPropertyOp27
 70
     1
102
RTVSPropertyOp28
 70
     1
102
RTVSPropertyOp29
 70
     1
102
RTVSPropertyOp30
 70
     1
102
RTVSPropertyOp31
 70
     1
102
RTVSPropertyOp32
 70
     1
102
RTVSPropertyOp33
 70
     1
102
RTVSPropertyOp34
 70
     1
102
RTVSPropertyOp35
 70
     1
102
RTVSPropertyOp36
 70
     1
102
RTVSPropertyOp37
 70
     1
102
RTVSPropertyOp38
 70
     1
102
RTVSPropertyOp39
 70
     1
102
RTVSPropertyOp40
 70
     1
102
RTVSPropertyOp41
 70
     1
102
RTVSPropertyOp42
 70
     1
102
RTVSPropertyOp43
 70
     1
102
RTVSPropertyOp44
 70
     1
102
RTVSPropertyOp45
 70
     1
102
RTVSPropertyOp46
 70
     1
102
RTVSPropertyOp47
 70
     1
102
RTVSPropertyOp48
 70
     1
102
RTVSPropertyOp49
 70
     1
102
RTVSPropertyOp50
 70
     1
102
RTVSPropertyOp51
 70
     0
102
RTVSPropertyOp52
 70
     0
102
RTVSPropertyOp53
 70
     1
102
RTVSPropertyOp54
 70
     1
102
RTVSPropertyOp55
 70
     1
102
RTVSPropertyOp56
 70
     1
102
RTVSPropertyOp57
 70
     1
102
RTVSPropertyOp58
 70
     1
102
RTVSPropertyOp59
 70
     1
102
RTVSPropertyOp60
 70
     1
102
RTVSPropertyOp61
 70
     1
102
RTVSPropertyOp62
 70
     1
  0
XRECORD
  5
6ED
102
{ACAD_REACTORS
330
6EC
102
}
330
6EC
100
AcDbXrecord
280
     1
102
RTVSPost2010Prop28
280
     0
102
RTVSPost2010PropOp28
 70
     1
102
RTVSPost2010Prop29
280
     1
102
RTVSPost2010PropOp29
 70
     1
102
RTVSPost2010Prop30
280
     1
102
RTVSPost2010PropOp30
 70
     1
102
RTVSPost2010Prop31
280
     0
102
RTVSPost2010PropOp31
 70
     1
102
RTVSPost2010Prop32
280
     0
102
RTVSPost2010PropOp32
 70
     1
102
RTVSPost2010Prop33
280
     0
102
RTVSPost2010PropOp33
 70
     1
102
RTVSPost2010Prop34
280
     0
102
RTVSPost2010PropOp34
 70
     1
102
RTVSPost2010Prop35
280
     0
102
RTVSPost2010PropOp35
 70
     1
102
RTVSPost2010Prop36
280
     0
102
RTVSPost2010PropOp36
 70
     1
102
RTVSPost2010Prop37
 90
       50
102
RTVSPost2010PropOp37
 70
     1
102
RTVSPost2010Prop38
140
0.0
102
RTVSPost2010PropOp38
 70
     1
102
RTVSPost2010Prop39
140
1.0
102
RTVSPost2010PropOp39
 70
     1
102
RTVSPost2010Prop40
 90
        0
102
RTVSPost2010PropOp40
 70
     1
102
RTVSPost2010Prop41ColorIndex
 90
       18
102
RTVSPost2010Prop41ColorRGB
 90
        0
102
RTVSPost2010PropOp41
 70
     1
102
RTVSPost2010Prop42
 90
       50
102
RTVSPost2010PropOp42
 70
     1
102
RTVSPost2010Prop43
 90
        3
102
RTVSPost2010PropOp43
 70
     1
102
RTVSPost2010Prop44ColorIndex
 90
        5
102
RTVSPost2010Prop44ColorRGB
 90
      255
102
RTVSPost2010PropOp44
 70
     1
102
RTVSPost2010Prop45
280
     0
102
RTVSPost2010PropOp45
 70
     1
102
RTVSPost2010Prop46
 90
       50
102
RTVSPost2010PropOp46
 70
     1
102
RTVSPost2010Prop47
 90
       50
102
RTVSPost2010PropOp47
 70
     1
102
RTVSPost2010Prop48
 90
       50
102
RTVSPost2010PropOp48
 70
     1
102
RTVSPost2010Prop49
280
     0
102
RTVSPost2010PropOp49
 70
     1
102
RTVSPost2010Prop50
 90
       50
102
RTVSPost2010PropOp50
 70
     1
102
RTVSPost2010Prop51ColorIndex
 90
      256
102
RTVSPost2010Prop51ColorRGB
 90
-16777216
102
RTVSPost2010PropOp51
 70
     0
102
RTVSPost2010Prop52
140
1.0
102
RTVSPost2010PropOp52
 70
     0
102
RTVSPost2010Prop53
 90
        2
102
RTVSPost2010PropOp53
 70
     1
102
RTVSPost2010Prop54
  1
strokes_ogs.tif
102
RTVSPost2010PropOp54
 70
     1
102
RTVSPost2010Prop55
280
     0
102
RTVSPost2010PropOp55
 70
     1
102
RTVSPost2010Prop56
140
1.0
102
RTVSPost2010PropOp56
 70
     1
102
RTVSPost2010Prop57
140
1.0
102
RTVSPost2010PropOp57
 70
     1
102
RTVSPropertyOp0
 70
     1
102
RTVSPropertyOp1
 70
     1
102
RTVSPropertyOp2
 70
     1
102
RTVSPropertyOp3
 70
     1
102
RTVSPropertyOp4
 70
     1
102
RTVSPropertyOp5
 70
     1
102
RTVSPropertyOp6
 70
     1
102
RTVSPropertyOp7
 70
     1
102
RTVSPropertyOp8
 70
     1
102
RTVSPropertyOp9
 70
     1
102
RTVSPropertyOp10
 70
     1
102
RTVSPropertyOp11
 70
     1
102
RTVSPropertyOp12
 70
     1
102
RTVSPropertyOp13
 70
     1
102
RTVSPropertyOp14
 70
     1
102
RTVSPropertyOp15
 70
     1
102
RTVSPropertyOp16
 70
     1
102
RTVSPropertyOp17
 70
     1
102
RTVSPropertyOp18
 70
     1
102
RTVSPropertyOp19
 70
     1
102
RTVSPropertyOp20
 70
     1
102
RTVSPropertyOp21
 70
     1
102
RTVSPropertyOp22
 70
     1
102
RTVSPropertyOp23
 70
     1
102
RTVSPropertyOp24
 70
     1
102
RTVSPropertyOp25
 70
     1
102
RTVSPropertyOp26
 70
     1
102
RTVSPropertyOp27
 70
     1
102
RTVSPropertyOp28
 70
     1
102
RTVSPropertyOp29
 70
     1
102
RTVSPropertyOp30
 70
     1
102
RTVSPropertyOp31
 70
     1
102
RTVSPropertyOp32
 70
     1
102
RTVSPropertyOp33
 70
     1
102
RTVSPropertyOp34
 70
     1
102
RTVSPropertyOp35
 70
     1
102
RTVSPropertyOp36
 70
     1
102
RTVSPropertyOp37
 70
     1
102
RTVSPropertyOp38
 70
     1
102
RTVSPropertyOp39
 70
     1
102
RTVSPropertyOp40
 70
     1
102
RTVSPropertyOp41
 70
     1
102
RTVSPropertyOp42
 70
     1
102
RTVSPropertyOp43
 70
     1
102
RTVSPropertyOp44
 70
     1
102
RTVSPropertyOp45
 70
     1
102
RTVSPropertyOp46
 70
     1
102
RTVSPropertyOp47
 70
     1
102
RTVSPropertyOp48
 70
     1
102
RTVSPropertyOp49
 70
     1
102
RTVSPropertyOp50
 70
     1
102
RTVSPropertyOp51
 70
     0
102
RTVSPropertyOp52
 70
     0
102
RTVSPropertyOp53
 70
     1
102
RTVSPropertyOp54
 70
     1
102
RTVSPropertyOp55
 70
     1
102
RTVSPropertyOp56
 70
     1
102
RTVSPropertyOp57
 70
     1
102
RTVSPropertyOp58
 70
     1
102
RTVSPropertyOp59
 70
     1
102
RTVSPropertyOp60
 70
     1
102
RTVSPropertyOp61
 70
     1
102
RTVSPropertyOp62
 70
     1
  0
XRECORD
  5
6EF
102
{ACAD_REACTORS
330
6EE
102
}
330
6EE
100
AcDbXrecord
280
     1
102
RTVSPost2010Prop28
280
     0
102
RTVSPost2010PropOp28
 70
     1
102
RTVSPost2010Prop29
280
     1
102
RTVSPost2010PropOp29
 70
     1
102
RTVSPost2010Prop30
280
     1
102
RTVSPost2010PropOp30
 70
     1
102
RTVSPost2010Prop31
280
     0
102
RTVSPost2010PropOp31
 70
     1
102
RTVSPost2010Prop32
280
     0
102
RTVSPost2010PropOp32
 70
     1
102
RTVSPost2010Prop33
280
     0
102
RTVSPost2010PropOp33
 70
     1
102
RTVSPost2010Prop34
280
     0
102
RTVSPost2010PropOp34
 70
     1
102
RTVSPost2010Prop35
280
     0
102
RTVSPost2010PropOp35
 70
     1
102
RTVSPost2010Prop36
280
     0
102
RTVSPost2010PropOp36
 70
     1
102
RTVSPost2010Prop37
 90
       50
102
RTVSPost2010PropOp37
 70
     1
102
RTVSPost2010Prop38
140
0.0
102
RTVSPost2010PropOp38
 70
     1
102
RTVSPost2010Prop39
140
1.0
102
RTVSPost2010PropOp39
 70
     1
102
RTVSPost2010Prop40
 90
        0
102
RTVSPost2010PropOp40
 70
     1
102
RTVSPost2010Prop41ColorIndex
 90
       18
102
RTVSPost2010Prop41ColorRGB
 90
        0
102
RTVSPost2010PropOp41
 70
     1
102
RTVSPost2010Prop42
 90
       50
102
RTVSPost2010PropOp42
 70
     1
102
RTVSPost2010Prop43
 90
        3
102
RTVSPost2010PropOp43
 70
     1
102
RTVSPost2010Prop44ColorIndex
 90
        5
102
RTVSPost2010Prop44ColorRGB
 90
      255
102
RTVSPost2010PropOp44
 70
     1
102
RTVSPost2010Prop45
280
     0
102
RTVSPost2010PropOp45
 70
     1
102
RTVSPost2010Prop46
 90
       50
102
RTVSPost2010PropOp46
 70
     1
102
RTVSPost2010Prop47
 90
       50
102
RTVSPost2010PropOp47
 70
     1
102
RTVSPost2010Prop48
 90
       50
102
RTVSPost2010PropOp48
 70
     1
102
RTVSPost2010Prop49
280
     0
102
RTVSPost2010PropOp49
 70
     1
102
RTVSPost2010Prop50
 90
       50
102
RTVSPost2010PropOp50
 70
     1
102
RTVSPost2010Prop51ColorIndex
 90
      256
102
RTVSPost2010Prop51ColorRGB
 90
-16777216
102
RTVSPost2010PropOp51
 70
     0
102
RTVSPost2010Prop52
140
1.0
102
RTVSPost2010PropOp52
 70
     0
102
RTVSPost2010Prop53
 90
        2
102
RTVSPost2010PropOp53
 70
     1
102
RTVSPost2010Prop54
  1
strokes_ogs.tif
102
RTVSPost2010PropOp54
 70
     1
102
RTVSPost2010Prop55
280
     0
102
RTVSPost2010PropOp55
 70
     1
102
RTVSPost2010Prop56
140
1.0
102
RTVSPost2010PropOp56
 70
     1
102
RTVSPost2010Prop57
140
1.0
102
RTVSPost2010PropOp57
 70
     1
102
RTVSPropertyOp0
 70
     1
102
RTVSPropertyOp1
 70
     1
102
RTVSPropertyOp2
 70
     1
102
RTVSPropertyOp3
 70
     1
102
RTVSPropertyOp4
 70
     1
102
RTVSPropertyOp5
 70
     1
102
RTVSPropertyOp6
 70
     1
102
RTVSPropertyOp7
 70
     1
102
RTVSPropertyOp8
 70
     1
102
RTVSPropertyOp9
 70
     1
102
RTVSPropertyOp10
 70
     1
102
RTVSPropertyOp11
 70
     1
102
RTVSPropertyOp12
 70
     1
102
RTVSPropertyOp13
 70
     1
102
RTVSPropertyOp14
 70
     1
102
RTVSPropertyOp15
 70
     1
102
RTVSPropertyOp16
 70
     1
102
RTVSPropertyOp17
 70
     1
102
RTVSPropertyOp18
 70
     1
102
RTVSPropertyOp19
 70
     1
102
RTVSPropertyOp20
 70
     1
102
RTVSPropertyOp21
 70
     1
102
RTVSPropertyOp22
 70
     1
102
RTVSPropertyOp23
 70
     1
102
RTVSPropertyOp24
 70
     1
102
RTVSPropertyOp25
 70
     1
102
RTVSPropertyOp26
 70
     1
102
RTVSPropertyOp27
 70
     1
102
RTVSPropertyOp28
 70
     1
102
RTVSPropertyOp29
 70
     1
102
RTVSPropertyOp30
 70
     1
102
RTVSPropertyOp31
 70
     1
102
RTVSPropertyOp32
 70
     1
102
RTVSPropertyOp33
 70
     1
102
RTVSPropertyOp34
 70
     1
102
RTVSPropertyOp35
 70
     1
102
RTVSPropertyOp36
 70
     1
102
RTVSPropertyOp37
 70
     1
102
RTVSPropertyOp38
 70
     1
102
RTVSPropertyOp39
 70
     1
102
RTVSPropertyOp40
 70
     1
102
RTVSPropertyOp41
 70
     1
102
RTVSPropertyOp42
 70
     1
102
RTVSPropertyOp43
 70
     1
102
RTVSPropertyOp44
 70
     1
102
RTVSPropertyOp45
 70
     1
102
RTVSPropertyOp46
 70
     1
102
RTVSPropertyOp47
 70
     1
102
RTVSPropertyOp48
 70
     1
102
RTVSPropertyOp49
 70
     1
102
RTVSPropertyOp50
 70
     1
102
RTVSPropertyOp51
 70
     0
102
RTVSPropertyOp52
 70
     0
102
RTVSPropertyOp53
 70
     1
102
RTVSPropertyOp54
 70
     1
102
RTVSPropertyOp55
 70
     1
102
RTVSPropertyOp56
 70
     1
102
RTVSPropertyOp57
 70
     1
102
RTVSPropertyOp58
 70
     1
102
RTVSPropertyOp59
 70
     1
102
RTVSPropertyOp60
 70
     1
102
RTVSPropertyOp61
 70
     1
102
RTVSPropertyOp62
 70
     1
  0
XRECORD
  5
6F1
102
{ACAD_REACTORS
330
6F0
102
}
330
6F0
100
AcDbXrecord
280
     1
102
RTVSPost2010Prop28
280
     0
102
RTVSPost2010PropOp28
 70
     1
102
RTVSPost2010Prop29
280
     1
102
RTVSPost2010PropOp29
 70
     1
102
RTVSPost2010Prop30
280
     1
102
RTVSPost2010PropOp30
 70
     1
102
RTVSPost2010Prop31
280
     0
102
RTVSPost2010PropOp31
 70
     1
102
RTVSPost2010Prop32
280
     0
102
RTVSPost2010PropOp32
 70
     1
102
RTVSPost2010Prop33
280
     0
102
RTVSPost2010PropOp33
 70
     1
102
RTVSPost2010Prop34
280
     0
102
RTVSPost2010PropOp34
 70
     1
102
RTVSPost2010Prop35
280
     0
102
RTVSPost2010PropOp35
 70
     1
102
RTVSPost2010Prop36
280
     0
102
RTVSPost2010PropOp36
 70
     1
102
RTVSPost2010Prop37
 90
       50
102
RTVSPost2010PropOp37
 70
     1
102
RTVSPost2010Prop38
140
0.0
102
RTVSPost2010PropOp38
 70
     1
102
RTVSPost2010Prop39
140
1.0
102
RTVSPost2010PropOp39
 70
     1
102
RTVSPost2010Prop40
 90
        0
102
RTVSPost2010PropOp40
 70
     1
102
RTVSPost2010Prop41ColorIndex
 90
       18
102
RTVSPost2010Prop41ColorRGB
 90
        0
102
RTVSPost2010PropOp41
 70
     1
102
RTVSPost2010Prop42
 90
       50
102
RTVSPost2010PropOp42
 70
     1
102
RTVSPost2010Prop43
 90
        3
102
RTVSPost2010PropOp43
 70
     1
102
RTVSPost2010Prop44ColorIndex
 90
        5
102
RTVSPost2010Prop44ColorRGB
 90
      255
102
RTVSPost2010PropOp44
 70
     1
102
RTVSPost2010Prop45
280
     0
102
RTVSPost2010PropOp45
 70
     1
102
RTVSPost2010Prop46
 90
       50
102
RTVSPost2010PropOp46
 70
     1
102
RTVSPost2010Prop47
 90
       50
102
RTVSPost2010PropOp47
 70
     1
102
RTVSPost2010Prop48
 90
       50
102
RTVSPost2010PropOp48
 70
     1
102
RTVSPost2010Prop49
280
     0
102
RTVSPost2010PropOp49
 70
     1
102
RTVSPost2010Prop50
 90
       50
102
RTVSPost2010PropOp50
 70
     1
102
RTVSPost2010Prop51ColorIndex
 90
      256
102
RTVSPost2010Prop51ColorRGB
 90
-16777216
102
RTVSPost2010PropOp51
 70
     0
102
RTVSPost2010Prop52
140
1.0
102
RTVSPost2010PropOp52
 70
     0
102
RTVSPost2010Prop53
 90
        2
102
RTVSPost2010PropOp53
 70
     1
102
RTVSPost2010Prop54
  1
strokes_ogs.tif
102
RTVSPost2010PropOp54
 70
     1
102
RTVSPost2010Prop55
280
     0
102
RTVSPost2010PropOp55
 70
     1
102
RTVSPost2010Prop56
140
1.0
102
RTVSPost2010PropOp56
 70
     1
102
RTVSPost2010Prop57
140
1.0
102
RTVSPost2010PropOp57
 70
     1
102
RTVSPropertyOp0
 70
     1
102
RTVSPropertyOp1
 70
     1
102
RTVSPropertyOp2
 70
     1
102
RTVSPropertyOp3
 70
     1
102
RTVSPropertyOp4
 70
     1
102
RTVSPropertyOp5
 70
     1
102
RTVSPropertyOp6
 70
     1
102
RTVSPropertyOp7
 70
     1
102
RTVSPropertyOp8
 70
     1
102
RTVSPropertyOp9
 70
     1
102
RTVSPropertyOp10
 70
     1
102
RTVSPropertyOp11
 70
     1
102
RTVSPropertyOp12
 70
     1
102
RTVSPropertyOp13
 70
     1
102
RTVSPropertyOp14
 70
     1
102
RTVSPropertyOp15
 70
     1
102
RTVSPropertyOp16
 70
     1
102
RTVSPropertyOp17
 70
     1
102
RTVSPropertyOp18
 70
     1
102
RTVSPropertyOp19
 70
     1
102
RTVSPropertyOp20
 70
     1
102
RTVSPropertyOp21
 70
     1
102
RTVSPropertyOp22
 70
     1
102
RTVSPropertyOp23
 70
     1
102
RTVSPropertyOp24
 70
     1
102
RTVSPropertyOp25
 70
     1
102
RTVSPropertyOp26
 70
     1
102
RTVSPropertyOp27
 70
     1
102
RTVSPropertyOp28
 70
     1
102
RTVSPropertyOp29
 70
     1
102
RTVSPropertyOp30
 70
     1
102
RTVSPropertyOp31
 70
     1
102
RTVSPropertyOp32
 70
     1
102
RTVSPropertyOp33
 70
     1
102
RTVSPropertyOp34
 70
     1
102
RTVSPropertyOp35
 70
     1
102
RTVSPropertyOp36
 70
     1
102
RTVSPropertyOp37
 70
     1
102
RTVSPropertyOp38
 70
     1
102
RTVSPropertyOp39
 70
     1
102
RTVSPropertyOp40
 70
     1
102
RTVSPropertyOp41
 70
     1
102
RTVSPropertyOp42
 70
     1
102
RTVSPropertyOp43
 70
     1
102
RTVSPropertyOp44
 70
     1
102
RTVSPropertyOp45
 70
     1
102
RTVSPropertyOp46
 70
     1
102
RTVSPropertyOp47
 70
     1
102
RTVSPropertyOp48
 70
     1
102
RTVSPropertyOp49
 70
     1
102
RTVSPropertyOp50
 70
     1
102
RTVSPropertyOp51
 70
     0
102
RTVSPropertyOp52
 70
     0
102
RTVSPropertyOp53
 70
     1
102
RTVSPropertyOp54
 70
     1
102
RTVSPropertyOp55
 70
     1
102
RTVSPropertyOp56
 70
     1
102
RTVSPropertyOp57
 70
     1
102
RTVSPropertyOp58
 70
     1
102
RTVSPropertyOp59
 70
     1
102
RTVSPropertyOp60
 70
     1
102
RTVSPropertyOp61
 70
     1
102
RTVSPropertyOp62
 70
     1
  0
XRECORD
  5
6F9
102
{ACAD_REACTORS
330
6F8
102
}
330
6F8
100
AcDbXrecord
280
     1
102
RTVSPost2010Prop28
280
     0
102
RTVSPost2010PropOp28
 70
     1
102
RTVSPost2010Prop29
280
     1
102
RTVSPost2010PropOp29
 70
     1
102
RTVSPost2010Prop30
280
     1
102
RTVSPost2010PropOp30
 70
     1
102
RTVSPost2010Prop31
280
     0
102
RTVSPost2010PropOp31
 70
     1
102
RTVSPost2010Prop32
280
     0
102
RTVSPost2010PropOp32
 70
     1
102
RTVSPost2010Prop33
280
     0
102
RTVSPost2010PropOp33
 70
     1
102
RTVSPost2010Prop34
280
     0
102
RTVSPost2010PropOp34
 70
     1
102
RTVSPost2010Prop35
280
     0
102
RTVSPost2010PropOp35
 70
     1
102
RTVSPost2010Prop36
280
     0
102
RTVSPost2010PropOp36
 70
     1
102
RTVSPost2010Prop37
 90
       50
102
RTVSPost2010PropOp37
 70
     1
102
RTVSPost2010Prop38
140
0.0
102
RTVSPost2010PropOp38
 70
     1
102
RTVSPost2010Prop39
140
1.0
102
RTVSPost2010PropOp39
 70
     1
102
RTVSPost2010Prop40
 90
        0
102
RTVSPost2010PropOp40
 70
     1
102
RTVSPost2010Prop41ColorIndex
 90
       18
102
RTVSPost2010Prop41ColorRGB
 90
        0
102
RTVSPost2010PropOp41
 70
     1
102
RTVSPost2010Prop42
 90
       50
102
RTVSPost2010PropOp42
 70
     1
102
RTVSPost2010Prop43
 90
        3
102
RTVSPost2010PropOp43
 70
     1
102
RTVSPost2010Prop44ColorIndex
 90
        5
102
RTVSPost2010Prop44ColorRGB
 90
      255
102
RTVSPost2010PropOp44
 70
     1
102
RTVSPost2010Prop45
280
     0
102
RTVSPost2010PropOp45
 70
     1
102
RTVSPost2010Prop46
 90
       50
102
RTVSPost2010PropOp46
 70
     1
102
RTVSPost2010Prop47
 90
       50
102
RTVSPost2010PropOp47
 70
     1
102
RTVSPost2010Prop48
 90
       50
102
RTVSPost2010PropOp48
 70
     1
102
RTVSPost2010Prop49
280
     0
102
RTVSPost2010PropOp49
 70
     1
102
RTVSPost2010Prop50
 90
       50
102
RTVSPost2010PropOp50
 70
     1
102
RTVSPost2010Prop51ColorIndex
 90
      256
102
RTVSPost2010Prop51ColorRGB
 90
-16777216
102
RTVSPost2010PropOp51
 70
     0
102
RTVSPost2010Prop52
140
1.0
102
RTVSPost2010PropOp52
 70
     0
102
RTVSPost2010Prop53
 90
        2
102
RTVSPost2010PropOp53
 70
     1
102
RTVSPost2010Prop54
  1
strokes_ogs.tif
102
RTVSPost2010PropOp54
 70
     1
102
RTVSPost2010Prop55
280
     0
102
RTVSPost2010PropOp55
 70
     1
102
RTVSPost2010Prop56
140
1.0
102
RTVSPost2010PropOp56
 70
     1
102
RTVSPost2010Prop57
140
1.0
102
RTVSPost2010PropOp57
 70
     1
102
RTVSPropertyOp0
 70
     1
102
RTVSPropertyOp1
 70
     1
102
RTVSPropertyOp2
 70
     1
102
RTVSPropertyOp3
 70
     1
102
RTVSPropertyOp4
 70
     1
102
RTVSPropertyOp5
 70
     1
102
RTVSPropertyOp6
 70
     1
102
RTVSPropertyOp7
 70
     1
102
RTVSPropertyOp8
 70
     1
102
RTVSPropertyOp9
 70
     1
102
RTVSPropertyOp10
 70
     1
102
RTVSPropertyOp11
 70
     1
102
RTVSPropertyOp12
 70
     1
102
RTVSPropertyOp13
 70
     1
102
RTVSPropertyOp14
 70
     1
102
RTVSPropertyOp15
 70
     1
102
RTVSPropertyOp16
 70
     1
102
RTVSPropertyOp17
 70
     1
102
RTVSPropertyOp18
 70
     1
102
RTVSPropertyOp19
 70
     1
102
RTVSPropertyOp20
 70
     1
102
RTVSPropertyOp21
 70
     1
102
RTVSPropertyOp22
 70
     1
102
RTVSPropertyOp23
 70
     1
102
RTVSPropertyOp24
 70
     1
102
RTVSPropertyOp25
 70
     1
102
RTVSPropertyOp26
 70
     1
102
RTVSPropertyOp27
 70
     1
102
RTVSPropertyOp28
 70
     1
102
RTVSPropertyOp29
 70
     1
102
RTVSPropertyOp30
 70
     1
102
RTVSPropertyOp31
 70
     1
102
RTVSPropertyOp32
 70
     1
102
RTVSPropertyOp33
 70
     1
102
RTVSPropertyOp34
 70
     1
102
RTVSPropertyOp35
 70
     1
102
RTVSPropertyOp36
 70
     1
102
RTVSPropertyOp37
 70
     1
102
RTVSPropertyOp38
 70
     1
102
RTVSPropertyOp39
 70
     1
102
RTVSPropertyOp40
 70
     1
102
RTVSPropertyOp41
 70
     1
102
RTVSPropertyOp42
 70
     1
102
RTVSPropertyOp43
 70
     1
102
RTVSPropertyOp44
 70
     1
102
RTVSPropertyOp45
 70
     1
102
RTVSPropertyOp46
 70
     1
102
RTVSPropertyOp47
 70
     1
102
RTVSPropertyOp48
 70
     1
102
RTVSPropertyOp49
 70
     1
102
RTVSPropertyOp50
 70
     1
102
RTVSPropertyOp51
 70
     0
102
RTVSPropertyOp52
 70
     0
102
RTVSPropertyOp53
 70
     1
102
RTVSPropertyOp54
 70
     1
102
RTVSPropertyOp55
 70
     1
102
RTVSPropertyOp56
 70
     1
102
RTVSPropertyOp57
 70
     1
102
RTVSPropertyOp58
 70
     1
102
RTVSPropertyOp59
 70
     1
102
RTVSPropertyOp60
 70
     1
102
RTVSPropertyOp61
 70
     1
102
RTVSPropertyOp62
 70
     1
  0
XRECORD
  5
715
102
{ACAD_REACTORS
330
714
102
}
330
714
100
AcDbXrecord
280
     1
102
RTVSPost2010Prop28
280
     0
102
RTVSPost2010PropOp28
 70
     1
102
RTVSPost2010Prop29
280
     1
102
RTVSPost2010PropOp29
 70
     1
102
RTVSPost2010Prop30
280
     1
102
RTVSPost2010PropOp30
 70
     1
102
RTVSPost2010Prop31
280
     0
102
RTVSPost2010PropOp31
 70
     1
102
RTVSPost2010Prop32
280
     0
102
RTVSPost2010PropOp32
 70
     1
102
RTVSPost2010Prop33
280
     0
102
RTVSPost2010PropOp33
 70
     1
102
RTVSPost2010Prop34
280
     0
102
RTVSPost2010PropOp34
 70
     1
102
RTVSPost2010Prop35
280
     0
102
RTVSPost2010PropOp35
 70
     1
102
RTVSPost2010Prop36
280
     0
102
RTVSPost2010PropOp36
 70
     1
102
RTVSPost2010Prop37
 90
       50
102
RTVSPost2010PropOp37
 70
     0
102
RTVSPost2010Prop38
140
0.0
102
RTVSPost2010PropOp38
 70
     0
102
RTVSPost2010Prop39
140
1.0
102
RTVSPost2010PropOp39
 70
     0
102
RTVSPost2010Prop40
 90
        0
102
RTVSPost2010PropOp40
 70
     0
102
RTVSPost2010Prop41ColorIndex
 90
       18
102
RTVSPost2010Prop41ColorRGB
 90
        0
102
RTVSPost2010PropOp41
 70
     0
102
RTVSPost2010Prop42
 90
       50
102
RTVSPost2010PropOp42
 70
     0
102
RTVSPost2010Prop43
 90
        3
102
RTVSPost2010PropOp43
 70
     0
102
RTVSPost2010Prop44ColorIndex
 90
        5
102
RTVSPost2010Prop44ColorRGB
 90
      255
102
RTVSPost2010PropOp44
 70
     0
102
RTVSPost2010Prop45
280
     0
102
RTVSPost2010PropOp45
 70
     1
102
RTVSPost2010Prop46
 90
       50
102
RTVSPost2010PropOp46
 70
     0
102
RTVSPost2010Prop47
 90
       50
102
RTVSPost2010PropOp47
 70
     0
102
RTVSPost2010Prop48
 90
       50
102
RTVSPost2010PropOp48
 70
     0
102
RTVSPost2010Prop49
280
     0
102
RTVSPost2010PropOp49
 70
     1
102
RTVSPost2010Prop50
 90
       50
102
RTVSPost2010PropOp50
 70
     0
102
RTVSPost2010Prop51ColorIndex
 90
      256
102
RTVSPost2010Prop51ColorRGB
 90
-16777216
102
RTVSPost2010PropOp51
 70
     0
102
RTVSPost2010Prop52
140
1.0
102
RTVSPost2010PropOp52
 70
     0
102
RTVSPost2010Prop53
 90
        2
102
RTVSPost2010PropOp53
 70
     0
102
RTVSPost2010Prop54
  1
strokes_ogs.tif
102
RTVSPost2010PropOp54
 70
     0
102
RTVSPost2010Prop55
280
     0
102
RTVSPost2010PropOp55
 70
     1
102
RTVSPost2010Prop56
140
1.0
102
RTVSPost2010PropOp56
 70
     0
102
RTVSPost2010Prop57
140
1.0
102
RTVSPost2010PropOp57
 70
     0
102
RTVSPropertyOp0
 70
     0
102
RTVSPropertyOp1
 70
     0
102
RTVSPropertyOp2
 70
     0
102
RTVSPropertyOp3
 70
     0
102
RTVSPropertyOp4
 70
     0
102
RTVSPropertyOp5
 70
     0
102
RTVSPropertyOp6
 70
     0
102
RTVSPropertyOp7
 70
     0
102
RTVSPropertyOp8
 70
     0
102
RTVSPropertyOp9
 70
     0
102
RTVSPropertyOp10
 70
     0
102
RTVSPropertyOp11
 70
     0
102
RTVSPropertyOp12
 70
     0
102
RTVSPropertyOp13
 70
     0
102
RTVSPropertyOp14
 70
     2
102
RTVSPropertyOp15
 70
     0
102
RTVSPropertyOp16
 70
     0
102
RTVSPropertyOp17
 70
     0
102
RTVSPropertyOp18
 70
     0
102
RTVSPropertyOp19
 70
     0
102
RTVSPropertyOp20
 70
     0
102
RTVSPropertyOp21
 70
     0
102
RTVSPropertyOp22
 70
     0
102
RTVSPropertyOp23
 70
     0
102
RTVSPropertyOp24
 70
     0
102
RTVSPropertyOp25
 70
     0
102
RTVSPropertyOp26
 70
     0
102
RTVSPropertyOp27
 70
     0
102
RTVSPropertyOp28
 70
     1
102
RTVSPropertyOp29
 70
     1
102
RTVSPropertyOp30
 70
     1
102
RTVSPropertyOp31
 70
     1
102
RTVSPropertyOp32
 70
     1
102
RTVSPropertyOp33
 70
     1
102
RTVSPropertyOp34
 70
     1
102
RTVSPropertyOp35
 70
     1
102
RTVSPropertyOp36
 70
     1
102
RTVSPropertyOp37
 70
     0
102
RTVSPropertyOp38
 70
     0
102
RTVSPropertyOp39
 70
     0
102
RTVSPropertyOp40
 70
     0
102
RTVSPropertyOp41
 70
     0
102
RTVSPropertyOp42
 70
     0
102
RTVSPropertyOp43
 70
     0
102
RTVSPropertyOp44
 70
     0
102
RTVSPropertyOp45
 70
     1
102
RTVSPropertyOp46
 70
     0
102
RTVSPropertyOp47
 70
     0
102
RTVSPropertyOp48
 70
     0
102
RTVSPropertyOp49
 70
     1
102
RTVSPropertyOp50
 70
     0
102
RTVSPropertyOp51
 70
     0
102
RTVSPropertyOp52
 70
     0
102
RTVSPropertyOp53
 70
     0
102
RTVSPropertyOp54
 70
     0
102
RTVSPropertyOp55
 70
     1
102
RTVSPropertyOp56
 70
     0
102
RTVSPropertyOp57
 70
     0
102
RTVSPropertyOp58
 70
     0
102
RTVSPropertyOp59
 70
     0
102
RTVSPropertyOp60
 70
     0
102
RTVSPropertyOp61
 70
     0
102
RTVSPropertyOp62
 70
     0
  0
XRECORD
  5
705
102
{ACAD_REACTORS
330
704
102
}
330
704
100
AcDbXrecord
280
     1
102
RTVSPost2010Prop28
280
     0
102
RTVSPost2010PropOp28
 70
     1
102
RTVSPost2010Prop29
280
     1
102
RTVSPost2010PropOp29
 70
     1
102
RTVSPost2010Prop30
280
     1
102
RTVSPost2010PropOp30
 70
     1
102
RTVSPost2010Prop31
280
     0
102
RTVSPost2010PropOp31
 70
     1
102
RTVSPost2010Prop32
280
     0
102
RTVSPost2010PropOp32
 70
     1
102
RTVSPost2010Prop33
280
     0
102
RTVSPost2010PropOp33
 70
     1
102
RTVSPost2010Prop34
280
     0
102
RTVSPost2010PropOp34
 70
     1
102
RTVSPost2010Prop35
280
     0
102
RTVSPost2010PropOp35
 70
     1
102
RTVSPost2010Prop36
280
     0
102
RTVSPost2010PropOp36
 70
     1
102
RTVSPost2010Prop37
 90
       50
102
RTVSPost2010PropOp37
 70
     1
102
RTVSPost2010Prop38
140
0.0
102
RTVSPost2010PropOp38
 70
     1
102
RTVSPost2010Prop39
140
1.0
102
RTVSPost2010PropOp39
 70
     1
102
RTVSPost2010Prop40
 90
        0
102
RTVSPost2010PropOp40
 70
     1
102
RTVSPost2010Prop41ColorIndex
 90
       18
102
RTVSPost2010Prop41ColorRGB
 90
        0
102
RTVSPost2010PropOp41
 70
     1
102
RTVSPost2010Prop42
 90
       50
102
RTVSPost2010PropOp42
 70
     1
102
RTVSPost2010Prop43
 90
        3
102
RTVSPost2010PropOp43
 70
     1
102
RTVSPost2010Prop44ColorIndex
 90
        5
102
RTVSPost2010Prop44ColorRGB
 90
      255
102
RTVSPost2010PropOp44
 70
     1
102
RTVSPost2010Prop45
280
     0
102
RTVSPost2010PropOp45
 70
     1
102
RTVSPost2010Prop46
 90
       50
102
RTVSPost2010PropOp46
 70
     1
102
RTVSPost2010Prop47
 90
       50
102
RTVSPost2010PropOp47
 70
     1
102
RTVSPost2010Prop48
 90
       50
102
RTVSPost2010PropOp48
 70
     1
102
RTVSPost2010Prop49
280
     0
102
RTVSPost2010PropOp49
 70
     1
102
RTVSPost2010Prop50
 90
       50
102
RTVSPost2010PropOp50
 70
     1
102
RTVSPost2010Prop51ColorIndex
 90
      256
102
RTVSPost2010Prop51ColorRGB
 90
-16777216
102
RTVSPost2010PropOp51
 70
     0
102
RTVSPost2010Prop52
140
1.0
102
RTVSPost2010PropOp52
 70
     0
102
RTVSPost2010Prop53
 90
        2
102
RTVSPost2010PropOp53
 70
     1
102
RTVSPost2010Prop54
  1
strokes_ogs.tif
102
RTVSPost2010PropOp54
 70
     1
102
RTVSPost2010Prop55
280
     0
102
RTVSPost2010PropOp55
 70
     1
102
RTVSPost2010Prop56
140
1.0
102
RTVSPost2010PropOp56
 70
     1
102
RTVSPost2010Prop57
140
1.0
102
RTVSPost2010PropOp57
 70
     1
102
RTVSPropertyOp0
 70
     1
102
RTVSPropertyOp1
 70
     1
102
RTVSPropertyOp2
 70
     1
102
RTVSPropertyOp3
 70
     1
102
RTVSPropertyOp4
 70
     1
102
RTVSPropertyOp5
 70
     1
102
RTVSPropertyOp6
 70
     1
102
RTVSPropertyOp7
 70
     1
102
RTVSPropertyOp8
 70
     1
102
RTVSPropertyOp9
 70
     1
102
RTVSPropertyOp10
 70
     1
102
RTVSPropertyOp11
 70
     1
102
RTVSPropertyOp12
 70
     1
102
RTVSPropertyOp13
 70
     1
102
RTVSPropertyOp14
 70
     1
102
RTVSPropertyOp15
 70
     1
102
RTVSPropertyOp16
 70
     1
102
RTVSPropertyOp17
 70
     1
102
RTVSPropertyOp18
 70
     1
102
RTVSPropertyOp19
 70
     1
102
RTVSPropertyOp20
 70
     1
102
RTVSPropertyOp21
 70
     1
102
RTVSPropertyOp22
 70
     1
102
RTVSPropertyOp23
 70
     1
102
RTVSPropertyOp24
 70
     1
102
RTVSPropertyOp25
 70
     1
102
RTVSPropertyOp26
 70
     1
102
RTVSPropertyOp27
 70
     1
102
RTVSPropertyOp28
 70
     1
102
RTVSPropertyOp29
 70
     1
102
RTVSPropertyOp30
 70
     1
102
RTVSPropertyOp31
 70
     1
102
RTVSPropertyOp32
 70
     1
102
RTVSPropertyOp33
 70
     1
102
RTVSPropertyOp34
 70
     1
102
RTVSPropertyOp35
 70
     1
102
RTVSPropertyOp36
 70
     1
102
RTVSPropertyOp37
 70
     1
102
RTVSPropertyOp38
 70
     1
102
RTVSPropertyOp39
 70
     1
102
RTVSPropertyOp40
 70
     1
102
RTVSPropertyOp41
 70
     1
102
RTVSPropertyOp42
 70
     1
102
RTVSPropertyOp43
 70
     1
102
RTVSPropertyOp44
 70
     1
102
RTVSPropertyOp45
 70
     1
102
RTVSPropertyOp46
 70
     1
102
RTVSPropertyOp47
 70
     1
102
RTVSPropertyOp48
 70
     1
102
RTVSPropertyOp49
 70
     1
102
RTVSPropertyOp50
 70
     1
102
RTVSPropertyOp51
 70
     0
102
RTVSPropertyOp52
 70
     0
102
RTVSPropertyOp53
 70
     1
102
RTVSPropertyOp54
 70
     1
102
RTVSPropertyOp55
 70
     1
102
RTVSPropertyOp56
 70
     1
102
RTVSPropertyOp57
 70
     1
102
RTVSPropertyOp58
 70
     1
102
RTVSPropertyOp59
 70
     1
102
RTVSPropertyOp60
 70
     1
102
RTVSPropertyOp61
 70
     1
102
RTVSPropertyOp62
 70
     1
  0
XRECORD
  5
717
102
{ACAD_REACTORS
330
716
102
}
330
716
100
AcDbXrecord
280
     1
102
RTVSPost2010Prop28
280
     0
102
RTVSPost2010PropOp28
 70
     1
102
RTVSPost2010Prop29
280
     1
102
RTVSPost2010PropOp29
 70
     1
102
RTVSPost2010Prop30
280
     1
102
RTVSPost2010PropOp30
 70
     1
102
RTVSPost2010Prop31
280
     0
102
RTVSPost2010PropOp31
 70
     1
102
RTVSPost2010Prop32
280
     0
102
RTVSPost2010PropOp32
 70
     1
102
RTVSPost2010Prop33
280
     0
102
RTVSPost2010PropOp33
 70
     1
102
RTVSPost2010Prop34
280
     0
102
RTVSPost2010PropOp34
 70
     1
102
RTVSPost2010Prop35
280
     0
102
RTVSPost2010PropOp35
 70
     1
102
RTVSPost2010Prop36
280
     0
102
RTVSPost2010PropOp36
 70
     1
102
RTVSPost2010Prop37
 90
       50
102
RTVSPost2010PropOp37
 70
     0
102
RTVSPost2010Prop38
140
0.0
102
RTVSPost2010PropOp38
 70
     0
102
RTVSPost2010Prop39
140
1.0
102
RTVSPost2010PropOp39
 70
     0
102
RTVSPost2010Prop40
 90
        0
102
RTVSPost2010PropOp40
 70
     0
102
RTVSPost2010Prop41ColorIndex
 90
       18
102
RTVSPost2010Prop41ColorRGB
 90
        0
102
RTVSPost2010PropOp41
 70
     0
102
RTVSPost2010Prop42
 90
       50
102
RTVSPost2010PropOp42
 70
     0
102
RTVSPost2010Prop43
 90
        3
102
RTVSPost2010PropOp43
 70
     0
102
RTVSPost2010Prop44ColorIndex
 90
        5
102
RTVSPost2010Prop44ColorRGB
 90
      255
102
RTVSPost2010PropOp44
 70
     0
102
RTVSPost2010Prop45
280
     0
102
RTVSPost2010PropOp45
 70
     1
102
RTVSPost2010Prop46
 90
       50
102
RTVSPost2010PropOp46
 70
     0
102
RTVSPost2010Prop47
 90
       50
102
RTVSPost2010PropOp47
 70
     0
102
RTVSPost2010Prop48
 90
       50
102
RTVSPost2010PropOp48
 70
     0
102
RTVSPost2010Prop49
280
     0
102
RTVSPost2010PropOp49
 70
     1
102
RTVSPost2010Prop50
 90
       50
102
RTVSPost2010PropOp50
 70
     0
102
RTVSPost2010Prop51ColorIndex
 90
      256
102
RTVSPost2010Prop51ColorRGB
 90
-16777216
102
RTVSPost2010PropOp51
 70
     0
102
RTVSPost2010Prop52
140
1.0
102
RTVSPost2010PropOp52
 70
     0
102
RTVSPost2010Prop53
 90
        2
102
RTVSPost2010PropOp53
 70
     0
102
RTVSPost2010Prop54
  1
strokes_ogs.tif
102
RTVSPost2010PropOp54
 70
     0
102
RTVSPost2010Prop55
280
     0
102
RTVSPost2010PropOp55
 70
     1
102
RTVSPost2010Prop56
140
1.0
102
RTVSPost2010PropOp56
 70
     0
102
RTVSPost2010Prop57
140
1.0
102
RTVSPost2010PropOp57
 70
     0
102
RTVSPropertyOp0
 70
     0
102
RTVSPropertyOp1
 70
     0
102
RTVSPropertyOp2
 70
     0
102
RTVSPropertyOp3
 70
     0
102
RTVSPropertyOp4
 70
     0
102
RTVSPropertyOp5
 70
     0
102
RTVSPropertyOp6
 70
     0
102
RTVSPropertyOp7
 70
     0
102
RTVSPropertyOp8
 70
     0
102
RTVSPropertyOp9
 70
     0
102
RTVSPropertyOp10
 70
     0
102
RTVSPropertyOp11
 70
     0
102
RTVSPropertyOp12
 70
     0
102
RTVSPropertyOp13
 70
     0
102
RTVSPropertyOp14
 70
     2
102
RTVSPropertyOp15
 70
     0
102
RTVSPropertyOp16
 70
     0
102
RTVSPropertyOp17
 70
     0
102
RTVSPropertyOp18
 70
     0
102
RTVSPropertyOp19
 70
     0
102
RTVSPropertyOp20
 70
     0
102
RTVSPropertyOp21
 70
     0
102
RTVSPropertyOp22
 70
     0
102
RTVSPropertyOp23
 70
     0
102
RTVSPropertyOp24
 70
     0
102
RTVSPropertyOp25
 70
     0
102
RTVSPropertyOp26
 70
     0
102
RTVSPropertyOp27
 70
     0
102
RTVSPropertyOp28
 70
     1
102
RTVSPropertyOp29
 70
     1
102
RTVSPropertyOp30
 70
     1
102
RTVSPropertyOp31
 70
     1
102
RTVSPropertyOp32
 70
     1
102
RTVSPropertyOp33
 70
     1
102
RTVSPropertyOp34
 70
     1
102
RTVSPropertyOp35
 70
     1
102
RTVSPropertyOp36
 70
     1
102
RTVSPropertyOp37
 70
     0
102
RTVSPropertyOp38
 70
     0
102
RTVSPropertyOp39
 70
     0
102
RTVSPropertyOp40
 70
     0
102
RTVSPropertyOp41
 70
     0
102
RTVSPropertyOp42
 70
     0
102
RTVSPropertyOp43
 70
     0
102
RTVSPropertyOp44
 70
     0
102
RTVSPropertyOp45
 70
     1
102
RTVSPropertyOp46
 70
     0
102
RTVSPropertyOp47
 70
     0
102
RTVSPropertyOp48
 70
     0
102
RTVSPropertyOp49
 70
     1
102
RTVSPropertyOp50
 70
     0
102
RTVSPropertyOp51
 70
     0
102
RTVSPropertyOp52
 70
     0
102
RTVSPropertyOp53
 70
     0
102
RTVSPropertyOp54
 70
     0
102
RTVSPropertyOp55
 70
     1
102
RTVSPropertyOp56
 70
     0
102
RTVSPropertyOp57
 70
     0
102
RTVSPropertyOp58
 70
     0
102
RTVSPropertyOp59
 70
     0
102
RTVSPropertyOp60
 70
     0
102
RTVSPropertyOp61
 70
     0
102
RTVSPropertyOp62
 70
     0
  0
XRECORD
  5
6FD
102
{ACAD_REACTORS
330
6FC
102
}
330
6FC
100
AcDbXrecord
280
     1
102
RTVSPost2010Prop28
280
     0
102
RTVSPost2010PropOp28
 70
     1
102
RTVSPost2010Prop29
280
     1
102
RTVSPost2010PropOp29
 70
     1
102
RTVSPost2010Prop30
280
     1
102
RTVSPost2010PropOp30
 70
     1
102
RTVSPost2010Prop31
280
     0
102
RTVSPost2010PropOp31
 70
     1
102
RTVSPost2010Prop32
280
     0
102
RTVSPost2010PropOp32
 70
     1
102
RTVSPost2010Prop33
280
     0
102
RTVSPost2010PropOp33
 70
     1
102
RTVSPost2010Prop34
280
     0
102
RTVSPost2010PropOp34
 70
     1
102
RTVSPost2010Prop35
280
     0
102
RTVSPost2010PropOp35
 70
     1
102
RTVSPost2010Prop36
280
     0
102
RTVSPost2010PropOp36
 70
     1
102
RTVSPost2010Prop37
 90
       50
102
RTVSPost2010PropOp37
 70
     1
102
RTVSPost2010Prop38
140
0.0
102
RTVSPost2010PropOp38
 70
     1
102
RTVSPost2010Prop39
140
1.0
102
RTVSPost2010PropOp39
 70
     1
102
RTVSPost2010Prop40
 90
        0
102
RTVSPost2010PropOp40
 70
     1
102
RTVSPost2010Prop41ColorIndex
 90
       18
102
RTVSPost2010Prop41ColorRGB
 90
        0
102
RTVSPost2010PropOp41
 70
     1
102
RTVSPost2010Prop42
 90
       50
102
RTVSPost2010PropOp42
 70
     1
102
RTVSPost2010Prop43
 90
        3
102
RTVSPost2010PropOp43
 70
     1
102
RTVSPost2010Prop44ColorIndex
 90
        5
102
RTVSPost2010Prop44ColorRGB
 90
      255
102
RTVSPost2010PropOp44
 70
     1
102
RTVSPost2010Prop45
280
     0
102
RTVSPost2010PropOp45
 70
     1
102
RTVSPost2010Prop46
 90
       50
102
RTVSPost2010PropOp46
 70
     1
102
RTVSPost2010Prop47
 90
       50
102
RTVSPost2010PropOp47
 70
     1
102
RTVSPost2010Prop48
 90
       50
102
RTVSPost2010PropOp48
 70
     1
102
RTVSPost2010Prop49
280
     0
102
RTVSPost2010PropOp49
 70
     1
102
RTVSPost2010Prop50
 90
       50
102
RTVSPost2010PropOp50
 70
     1
102
RTVSPost2010Prop51ColorIndex
 90
      256
102
RTVSPost2010Prop51ColorRGB
 90
-16777216
102
RTVSPost2010PropOp51
 70
     0
102
RTVSPost2010Prop52
140
1.0
102
RTVSPost2010PropOp52
 70
     0
102
RTVSPost2010Prop53
 90
        2
102
RTVSPost2010PropOp53
 70
     1
102
RTVSPost2010Prop54
  1
strokes_ogs.tif
102
RTVSPost2010PropOp54
 70
     1
102
RTVSPost2010Prop55
280
     0
102
RTVSPost2010PropOp55
 70
     1
102
RTVSPost2010Prop56
140
1.0
102
RTVSPost2010PropOp56
 70
     1
102
RTVSPost2010Prop57
140
1.0
102
RTVSPost2010PropOp57
 70
     1
102
RTVSPropertyOp0
 70
     1
102
RTVSPropertyOp1
 70
     1
102
RTVSPropertyOp2
 70
     1
102
RTVSPropertyOp3
 70
     1
102
RTVSPropertyOp4
 70
     1
102
RTVSPropertyOp5
 70
     1
102
RTVSPropertyOp6
 70
     1
102
RTVSPropertyOp7
 70
     1
102
RTVSPropertyOp8
 70
     1
102
RTVSPropertyOp9
 70
     1
102
RTVSPropertyOp10
 70
     1
102
RTVSPropertyOp11
 70
     1
102
RTVSPropertyOp12
 70
     1
102
RTVSPropertyOp13
 70
     1
102
RTVSPropertyOp14
 70
     1
102
RTVSPropertyOp15
 70
     1
102
RTVSPropertyOp16
 70
     1
102
RTVSPropertyOp17
 70
     1
102
RTVSPropertyOp18
 70
     1
102
RTVSPropertyOp19
 70
     1
102
RTVSPropertyOp20
 70
     1
102
RTVSPropertyOp21
 70
     1
102
RTVSPropertyOp22
 70
     1
102
RTVSPropertyOp23
 70
     1
102
RTVSPropertyOp24
 70
     1
102
RTVSPropertyOp25
 70
     1
102
RTVSPropertyOp26
 70
     1
102
RTVSPropertyOp27
 70
     1
102
RTVSPropertyOp28
 70
     1
102
RTVSPropertyOp29
 70
     1
102
RTVSPropertyOp30
 70
     1
102
RTVSPropertyOp31
 70
     1
102
RTVSPropertyOp32
 70
     1
102
RTVSPropertyOp33
 70
     1
102
RTVSPropertyOp34
 70
     1
102
RTVSPropertyOp35
 70
     1
102
RTVSPropertyOp36
 70
     1
102
RTVSPropertyOp37
 70
     1
102
RTVSPropertyOp38
 70
     1
102
RTVSPropertyOp39
 70
     1
102
RTVSPropertyOp40
 70
     1
102
RTVSPropertyOp41
 70
     1
102
RTVSPropertyOp42
 70
     1
102
RTVSPropertyOp43
 70
     1
102
RTVSPropertyOp44
 70
     1
102
RTVSPropertyOp45
 70
     1
102
RTVSPropertyOp46
 70
     1
102
RTVSPropertyOp47
 70
     1
102
RTVSPropertyOp48
 70
     1
102
RTVSPropertyOp49
 70
     1
102
RTVSPropertyOp50
 70
     1
102
RTVSPropertyOp51
 70
     0
102
RTVSPropertyOp52
 70
     0
102
RTVSPropertyOp53
 70
     1
102
RTVSPropertyOp54
 70
     1
102
RTVSPropertyOp55
 70
     1
102
RTVSPropertyOp56
 70
     1
102
RTVSPropertyOp57
 70
     1
102
RTVSPropertyOp58
 70
     1
102
RTVSPropertyOp59
 70
     1
102
RTVSPropertyOp60
 70
     1
102
RTVSPropertyOp61
 70
     1
102
RTVSPropertyOp62
 70
     1
  0
XRECORD
  5
713
102
{ACAD_REACTORS
330
712
102
}
330
712
100
AcDbXrecord
280
     1
102
RTVSPost2010Prop28
280
     0
102
RTVSPost2010PropOp28
 70
     1
102
RTVSPost2010Prop29
280
     1
102
RTVSPost2010PropOp29
 70
     1
102
RTVSPost2010Prop30
280
     1
102
RTVSPost2010PropOp30
 70
     1
102
RTVSPost2010Prop31
280
     0
102
RTVSPost2010PropOp31
 70
     1
102
RTVSPost2010Prop32
280
     0
102
RTVSPost2010PropOp32
 70
     1
102
RTVSPost2010Prop33
280
     0
102
RTVSPost2010PropOp33
 70
     1
102
RTVSPost2010Prop34
280
     0
102
RTVSPost2010PropOp34
 70
     1
102
RTVSPost2010Prop35
280
     0
102
RTVSPost2010PropOp35
 70
     1
102
RTVSPost2010Prop36
280
     0
102
RTVSPost2010PropOp36
 70
     1
102
RTVSPost2010Prop37
 90
       50
102
RTVSPost2010PropOp37
 70
     1
102
RTVSPost2010Prop38
140
0.0
102
RTVSPost2010PropOp38
 70
     1
102
RTVSPost2010Prop39
140
1.0
102
RTVSPost2010PropOp39
 70
     1
102
RTVSPost2010Prop40
 90
        0
102
RTVSPost2010PropOp40
 70
     1
102
RTVSPost2010Prop41ColorIndex
 90
       18
102
RTVSPost2010Prop41ColorRGB
 90
        0
102
RTVSPost2010PropOp41
 70
     1
102
RTVSPost2010Prop42
 90
       50
102
RTVSPost2010PropOp42
 70
     1
102
RTVSPost2010Prop43
 90
        3
102
RTVSPost2010PropOp43
 70
     1
102
RTVSPost2010Prop44ColorIndex
 90
        5
102
RTVSPost2010Prop44ColorRGB
 90
      255
102
RTVSPost2010PropOp44
 70
     1
102
RTVSPost2010Prop45
280
     0
102
RTVSPost2010PropOp45
 70
     1
102
RTVSPost2010Prop46
 90
       50
102
RTVSPost2010PropOp46
 70
     1
102
RTVSPost2010Prop47
 90
       50
102
RTVSPost2010PropOp47
 70
     1
102
RTVSPost2010Prop48
 90
       50
102
RTVSPost2010PropOp48
 70
     1
102
RTVSPost2010Prop49
280
     0
102
RTVSPost2010PropOp49
 70
     1
102
RTVSPost2010Prop50
 90
       50
102
RTVSPost2010PropOp50
 70
     1
102
RTVSPost2010Prop51ColorIndex
 90
      256
102
RTVSPost2010Prop51ColorRGB
 90
-16777216
102
RTVSPost2010PropOp51
 70
     0
102
RTVSPost2010Prop52
140
1.0
102
RTVSPost2010PropOp52
 70
     0
102
RTVSPost2010Prop53
 90
        2
102
RTVSPost2010PropOp53
 70
     1
102
RTVSPost2010Prop54
  1
strokes_ogs.tif
102
RTVSPost2010PropOp54
 70
     1
102
RTVSPost2010Prop55
280
     0
102
RTVSPost2010PropOp55
 70
     1
102
RTVSPost2010Prop56
140
1.0
102
RTVSPost2010PropOp56
 70
     1
102
RTVSPost2010Prop57
140
1.0
102
RTVSPost2010PropOp57
 70
     1
102
RTVSPropertyOp0
 70
     1
102
RTVSPropertyOp1
 70
     1
102
RTVSPropertyOp2
 70
     1
102
RTVSPropertyOp3
 70
     1
102
RTVSPropertyOp4
 70
     1
102
RTVSPropertyOp5
 70
     1
102
RTVSPropertyOp6
 70
     1
102
RTVSPropertyOp7
 70
     1
102
RTVSPropertyOp8
 70
     1
102
RTVSPropertyOp9
 70
     1
102
RTVSPropertyOp10
 70
     1
102
RTVSPropertyOp11
 70
     1
102
RTVSPropertyOp12
 70
     1
102
RTVSPropertyOp13
 70
     1
102
RTVSPropertyOp14
 70
     1
102
RTVSPropertyOp15
 70
     1
102
RTVSPropertyOp16
 70
     1
102
RTVSPropertyOp17
 70
     1
102
RTVSPropertyOp18
 70
     1
102
RTVSPropertyOp19
 70
     1
102
RTVSPropertyOp20
 70
     1
102
RTVSPropertyOp21
 70
     1
102
RTVSPropertyOp22
 70
     1
102
RTVSPropertyOp23
 70
     1
102
RTVSPropertyOp24
 70
     1
102
RTVSPropertyOp25
 70
     1
102
RTVSPropertyOp26
 70
     1
102
RTVSPropertyOp27
 70
     1
102
RTVSPropertyOp28
 70
     1
102
RTVSPropertyOp29
 70
     1
102
RTVSPropertyOp30
 70
     1
102
RTVSPropertyOp31
 70
     1
102
RTVSPropertyOp32
 70
     1
102
RTVSPropertyOp33
 70
     1
102
RTVSPropertyOp34
 70
     1
102
RTVSPropertyOp35
 70
     1
102
RTVSPropertyOp36
 70
     1
102
RTVSPropertyOp37
 70
     1
102
RTVSPropertyOp38
 70
     1
102
RTVSPropertyOp39
 70
     1
102
RTVSPropertyOp40
 70
     1
102
RTVSPropertyOp41
 70
     1
102
RTVSPropertyOp42
 70
     1
102
RTVSPropertyOp43
 70
     1
102
RTVSPropertyOp44
 70
     1
102
RTVSPropertyOp45
 70
     1
102
RTVSPropertyOp46
 70
     1
102
RTVSPropertyOp47
 70
     1
102
RTVSPropertyOp48
 70
     1
102
RTVSPropertyOp49
 70
     1
102
RTVSPropertyOp50
 70
     1
102
RTVSPropertyOp51
 70
     0
102
RTVSPropertyOp52
 70
     0
102
RTVSPropertyOp53
 70
     1
102
RTVSPropertyOp54
 70
     1
102
RTVSPropertyOp55
 70
     1
102
RTVSPropertyOp56
 70
     1
102
RTVSPropertyOp57
 70
     1
102
RTVSPropertyOp58
 70
     1
102
RTVSPropertyOp59
 70
     1
102
RTVSPropertyOp60
 70
     1
102
RTVSPropertyOp61
 70
     1
102
RTVSPropertyOp62
 70
     1
  0
XRECORD
  5
711
102
{ACAD_REACTORS
330
710
102
}
330
710
100
AcDbXrecord
280
     1
102
RTVSPost2010Prop28
280
     0
102
RTVSPost2010PropOp28
 70
     1
102
RTVSPost2010Prop29
280
     1
102
RTVSPost2010PropOp29
 70
     1
102
RTVSPost2010Prop30
280
     1
102
RTVSPost2010PropOp30
 70
     1
102
RTVSPost2010Prop31
280
     0
102
RTVSPost2010PropOp31
 70
     1
102
RTVSPost2010Prop32
280
     0
102
RTVSPost2010PropOp32
 70
     1
102
RTVSPost2010Prop33
280
     0
102
RTVSPost2010PropOp33
 70
     1
102
RTVSPost2010Prop34
280
     0
102
RTVSPost2010PropOp34
 70
     1
102
RTVSPost2010Prop35
280
     0
102
RTVSPost2010PropOp35
 70
     1
102
RTVSPost2010Prop36
280
     0
102
RTVSPost2010PropOp36
 70
     1
102
RTVSPost2010Prop37
 90
       50
102
RTVSPost2010PropOp37
 70
     1
102
RTVSPost2010Prop38
140
0.0
102
RTVSPost2010PropOp38
 70
     1
102
RTVSPost2010Prop39
140
1.0
102
RTVSPost2010PropOp39
 70
     1
102
RTVSPost2010Prop40
 90
        0
102
RTVSPost2010PropOp40
 70
     1
102
RTVSPost2010Prop41ColorIndex
 90
       18
102
RTVSPost2010Prop41ColorRGB
 90
        0
102
RTVSPost2010PropOp41
 70
     1
102
RTVSPost2010Prop42
 90
       50
102
RTVSPost2010PropOp42
 70
     1
102
RTVSPost2010Prop43
 90
        3
102
RTVSPost2010PropOp43
 70
     1
102
RTVSPost2010Prop44ColorIndex
 90
        5
102
RTVSPost2010Prop44ColorRGB
 90
      255
102
RTVSPost2010PropOp44
 70
     1
102
RTVSPost2010Prop45
280
     0
102
RTVSPost2010PropOp45
 70
     1
102
RTVSPost2010Prop46
 90
       50
102
RTVSPost2010PropOp46
 70
     1
102
RTVSPost2010Prop47
 90
       50
102
RTVSPost2010PropOp47
 70
     1
102
RTVSPost2010Prop48
 90
       50
102
RTVSPost2010PropOp48
 70
     1
102
RTVSPost2010Prop49
280
     0
102
RTVSPost2010PropOp49
 70
     1
102
RTVSPost2010Prop50
 90
       50
102
RTVSPost2010PropOp50
 70
     1
102
RTVSPost2010Prop51ColorIndex
 90
      256
102
RTVSPost2010Prop51ColorRGB
 90
-16777216
102
RTVSPost2010PropOp51
 70
     0
102
RTVSPost2010Prop52
140
1.0
102
RTVSPost2010PropOp52
 70
     0
102
RTVSPost2010Prop53
 90
        2
102
RTVSPost2010PropOp53
 70
     1
102
RTVSPost2010Prop54
  1
strokes_ogs.tif
102
RTVSPost2010PropOp54
 70
     1
102
RTVSPost2010Prop55
280
     0
102
RTVSPost2010PropOp55
 70
     1
102
RTVSPost2010Prop56
140
1.0
102
RTVSPost2010PropOp56
 70
     1
102
RTVSPost2010Prop57
140
1.0
102
RTVSPost2010PropOp57
 70
     1
102
RTVSPropertyOp0
 70
     1
102
RTVSPropertyOp1
 70
     1
102
RTVSPropertyOp2
 70
     1
102
RTVSPropertyOp3
 70
     1
102
RTVSPropertyOp4
 70
     1
102
RTVSPropertyOp5
 70
     1
102
RTVSPropertyOp6
 70
     1
102
RTVSPropertyOp7
 70
     1
102
RTVSPropertyOp8
 70
     1
102
RTVSPropertyOp9
 70
     1
102
RTVSPropertyOp10
 70
     1
102
RTVSPropertyOp11
 70
     1
102
RTVSPropertyOp12
 70
     1
102
RTVSPropertyOp13
 70
     1
102
RTVSPropertyOp14
 70
     1
102
RTVSPropertyOp15
 70
     1
102
RTVSPropertyOp16
 70
     1
102
RTVSPropertyOp17
 70
     1
102
RTVSPropertyOp18
 70
     1
102
RTVSPropertyOp19
 70
     1
102
RTVSPropertyOp20
 70
     1
102
RTVSPropertyOp21
 70
     1
102
RTVSPropertyOp22
 70
     1
102
RTVSPropertyOp23
 70
     1
102
RTVSPropertyOp24
 70
     1
102
RTVSPropertyOp25
 70
     1
102
RTVSPropertyOp26
 70
     1
102
RTVSPropertyOp27
 70
     1
102
RTVSPropertyOp28
 70
     1
102
RTVSPropertyOp29
 70
     1
102
RTVSPropertyOp30
 70
     1
102
RTVSPropertyOp31
 70
     1
102
RTVSPropertyOp32
 70
     1
102
RTVSPropertyOp33
 70
     1
102
RTVSPropertyOp34
 70
     1
102
RTVSPropertyOp35
 70
     1
102
RTVSPropertyOp36
 70
     1
102
RTVSPropertyOp37
 70
     1
102
RTVSPropertyOp38
 70
     1
102
RTVSPropertyOp39
 70
     1
102
RTVSPropertyOp40
 70
     1
102
RTVSPropertyOp41
 70
     1
102
RTVSPropertyOp42
 70
     1
102
RTVSPropertyOp43
 70
     1
102
RTVSPropertyOp44
 70
     1
102
RTVSPropertyOp45
 70
     1
102
RTVSPropertyOp46
 70
     1
102
RTVSPropertyOp47
 70
     1
102
RTVSPropertyOp48
 70
     1
102
RTVSPropertyOp49
 70
     1
102
RTVSPropertyOp50
 70
     1
102
RTVSPropertyOp51
 70
     0
102
RTVSPropertyOp52
 70
     0
102
RTVSPropertyOp53
 70
     1
102
RTVSPropertyOp54
 70
     1
102
RTVSPropertyOp55
 70
     1
102
RTVSPropertyOp56
 70
     1
102
RTVSPropertyOp57
 70
     1
102
RTVSPropertyOp58
 70
     1
102
RTVSPropertyOp59
 70
     1
102
RTVSPropertyOp60
 70
     1
102
RTVSPropertyOp61
 70
     1
102
RTVSPropertyOp62
 70
     1
  0
XRECORD
  5
70B
102
{ACAD_REACTORS
330
70A
102
}
330
70A
100
AcDbXrecord
280
     1
102
RTVSPost2010Prop28
280
     0
102
RTVSPost2010PropOp28
 70
     1
102
RTVSPost2010Prop29
280
     1
102
RTVSPost2010PropOp29
 70
     1
102
RTVSPost2010Prop30
280
     1
102
RTVSPost2010PropOp30
 70
     1
102
RTVSPost2010Prop31
280
     0
102
RTVSPost2010PropOp31
 70
     1
102
RTVSPost2010Prop32
280
     0
102
RTVSPost2010PropOp32
 70
     1
102
RTVSPost2010Prop33
280
     0
102
RTVSPost2010PropOp33
 70
     1
102
RTVSPost2010Prop34
280
     0
102
RTVSPost2010PropOp34
 70
     1
102
RTVSPost2010Prop35
280
     0
102
RTVSPost2010PropOp35
 70
     1
102
RTVSPost2010Prop36
280
     0
102
RTVSPost2010PropOp36
 70
     1
102
RTVSPost2010Prop37
 90
       50
102
RTVSPost2010PropOp37
 70
     1
102
RTVSPost2010Prop38
140
0.0
102
RTVSPost2010PropOp38
 70
     1
102
RTVSPost2010Prop39
140
1.0
102
RTVSPost2010PropOp39
 70
     1
102
RTVSPost2010Prop40
 90
        0
102
RTVSPost2010PropOp40
 70
     1
102
RTVSPost2010Prop41ColorIndex
 90
       18
102
RTVSPost2010Prop41ColorRGB
 90
        0
102
RTVSPost2010PropOp41
 70
     1
102
RTVSPost2010Prop42
 90
       50
102
RTVSPost2010PropOp42
 70
     1
102
RTVSPost2010Prop43
 90
        3
102
RTVSPost2010PropOp43
 70
     1
102
RTVSPost2010Prop44ColorIndex
 90
        5
102
RTVSPost2010Prop44ColorRGB
 90
      255
102
RTVSPost2010PropOp44
 70
     1
102
RTVSPost2010Prop45
280
     0
102
RTVSPost2010PropOp45
 70
     1
102
RTVSPost2010Prop46
 90
       50
102
RTVSPost2010PropOp46
 70
     1
102
RTVSPost2010Prop47
 90
       50
102
RTVSPost2010PropOp47
 70
     1
102
RTVSPost2010Prop48
 90
       50
102
RTVSPost2010PropOp48
 70
     1
102
RTVSPost2010Prop49
280
     0
102
RTVSPost2010PropOp49
 70
     1
102
RTVSPost2010Prop50
 90
       50
102
RTVSPost2010PropOp50
 70
     1
102
RTVSPost2010Prop51ColorIndex
 90
      256
102
RTVSPost2010Prop51ColorRGB
 90
-16777216
102
RTVSPost2010PropOp51
 70
     0
102
RTVSPost2010Prop52
140
1.0
102
RTVSPost2010PropOp52
 70
     0
102
RTVSPost2010Prop53
 90
        2
102
RTVSPost2010PropOp53
 70
     1
102
RTVSPost2010Prop54
  1
strokes_ogs.tif
102
RTVSPost2010PropOp54
 70
     1
102
RTVSPost2010Prop55
280
     0
102
RTVSPost2010PropOp55
 70
     1
102
RTVSPost2010Prop56
140
1.0
102
RTVSPost2010PropOp56
 70
     1
102
RTVSPost2010Prop57
140
1.0
102
RTVSPost2010PropOp57
 70
     1
102
RTVSPropertyOp0
 70
     1
102
RTVSPropertyOp1
 70
     1
102
RTVSPropertyOp2
 70
     1
102
RTVSPropertyOp3
 70
     1
102
RTVSPropertyOp4
 70
     1
102
RTVSPropertyOp5
 70
     1
102
RTVSPropertyOp6
 70
     1
102
RTVSPropertyOp7
 70
     1
102
RTVSPropertyOp8
 70
     1
102
RTVSPropertyOp9
 70
     1
102
RTVSPropertyOp10
 70
     1
102
RTVSPropertyOp11
 70
     1
102
RTVSPropertyOp12
 70
     1
102
RTVSPropertyOp13
 70
     1
102
RTVSPropertyOp14
 70
     1
102
RTVSPropertyOp15
 70
     1
102
RTVSPropertyOp16
 70
     1
102
RTVSPropertyOp17
 70
     1
102
RTVSPropertyOp18
 70
     1
102
RTVSPropertyOp19
 70
     1
102
RTVSPropertyOp20
 70
     1
102
RTVSPropertyOp21
 70
     1
102
RTVSPropertyOp22
 70
     1
102
RTVSPropertyOp23
 70
     1
102
RTVSPropertyOp24
 70
     1
102
RTVSPropertyOp25
 70
     1
102
RTVSPropertyOp26
 70
     1
102
RTVSPropertyOp27
 70
     1
102
RTVSPropertyOp28
 70
     1
102
RTVSPropertyOp29
 70
     1
102
RTVSPropertyOp30
 70
     1
102
RTVSPropertyOp31
 70
     1
102
RTVSPropertyOp32
 70
     1
102
RTVSPropertyOp33
 70
     1
102
RTVSPropertyOp34
 70
     1
102
RTVSPropertyOp35
 70
     1
102
RTVSPropertyOp36
 70
     1
102
RTVSPropertyOp37
 70
     1
102
RTVSPropertyOp38
 70
     1
102
RTVSPropertyOp39
 70
     1
102
RTVSPropertyOp40
 70
     1
102
RTVSPropertyOp41
 70
     1
102
RTVSPropertyOp42
 70
     1
102
RTVSPropertyOp43
 70
     1
102
RTVSPropertyOp44
 70
     1
102
RTVSPropertyOp45
 70
     1
102
RTVSPropertyOp46
 70
     1
102
RTVSPropertyOp47
 70
     1
102
RTVSPropertyOp48
 70
     1
102
RTVSPropertyOp49
 70
     1
102
RTVSPropertyOp50
 70
     1
102
RTVSPropertyOp51
 70
     0
102
RTVSPropertyOp52
 70
     0
102
RTVSPropertyOp53
 70
     1
102
RTVSPropertyOp54
 70
     1
102
RTVSPropertyOp55
 70
     1
102
RTVSPropertyOp56
 70
     1
102
RTVSPropertyOp57
 70
     1
102
RTVSPropertyOp58
 70
     1
102
RTVSPropertyOp59
 70
     1
102
RTVSPropertyOp60
 70
     1
102
RTVSPropertyOp61
 70
     1
102
RTVSPropertyOp62
 70
     1
  0
XRECORD
  5
70D
102
{ACAD_REACTORS
330
70C
102
}
330
70C
100
AcDbXrecord
280
     1
102
RTVSPost2010Prop28
280
     0
102
RTVSPost2010PropOp28
 70
     1
102
RTVSPost2010Prop29
280
     1
102
RTVSPost2010PropOp29
 70
     1
102
RTVSPost2010Prop30
280
     1
102
RTVSPost2010PropOp30
 70
     1
102
RTVSPost2010Prop31
280
     0
102
RTVSPost2010PropOp31
 70
     1
102
RTVSPost2010Prop32
280
     0
102
RTVSPost2010PropOp32
 70
     1
102
RTVSPost2010Prop33
280
     0
102
RTVSPost2010PropOp33
 70
     1
102
RTVSPost2010Prop34
280
     0
102
RTVSPost2010PropOp34
 70
     1
102
RTVSPost2010Prop35
280
     0
102
RTVSPost2010PropOp35
 70
     1
102
RTVSPost2010Prop36
280
     0
102
RTVSPost2010PropOp36
 70
     1
102
RTVSPost2010Prop37
 90
       50
102
RTVSPost2010PropOp37
 70
     1
102
RTVSPost2010Prop38
140
0.0
102
RTVSPost2010PropOp38
 70
     1
102
RTVSPost2010Prop39
140
1.0
102
RTVSPost2010PropOp39
 70
     1
102
RTVSPost2010Prop40
 90
        0
102
RTVSPost2010PropOp40
 70
     1
102
RTVSPost2010Prop41ColorIndex
 90
       18
102
RTVSPost2010Prop41ColorRGB
 90
        0
102
RTVSPost2010PropOp41
 70
     1
102
RTVSPost2010Prop42
 90
       50
102
RTVSPost2010PropOp42
 70
     1
102
RTVSPost2010Prop43
 90
        3
102
RTVSPost2010PropOp43
 70
     1
102
RTVSPost2010Prop44ColorIndex
 90
        5
102
RTVSPost2010Prop44ColorRGB
 90
      255
102
RTVSPost2010PropOp44
 70
     1
102
RTVSPost2010Prop45
280
     0
102
RTVSPost2010PropOp45
 70
     1
102
RTVSPost2010Prop46
 90
       50
102
RTVSPost2010PropOp46
 70
     1
102
RTVSPost2010Prop47
 90
       50
102
RTVSPost2010PropOp47
 70
     1
102
RTVSPost2010Prop48
 90
       50
102
RTVSPost2010PropOp48
 70
     1
102
RTVSPost2010Prop49
280
     0
102
RTVSPost2010PropOp49
 70
     1
102
RTVSPost2010Prop50
 90
       50
102
RTVSPost2010PropOp50
 70
     1
102
RTVSPost2010Prop51ColorIndex
 90
      256
102
RTVSPost2010Prop51ColorRGB
 90
-16777216
102
RTVSPost2010PropOp51
 70
     0
102
RTVSPost2010Prop52
140
1.0
102
RTVSPost2010PropOp52
 70
     0
102
RTVSPost2010Prop53
 90
        2
102
RTVSPost2010PropOp53
 70
     1
102
RTVSPost2010Prop54
  1
strokes_ogs.tif
102
RTVSPost2010PropOp54
 70
     1
102
RTVSPost2010Prop55
280
     0
102
RTVSPost2010PropOp55
 70
     1
102
RTVSPost2010Prop56
140
1.0
102
RTVSPost2010PropOp56
 70
     1
102
RTVSPost2010Prop57
140
1.0
102
RTVSPost2010PropOp57
 70
     1
102
RTVSPropertyOp0
 70
     1
102
RTVSPropertyOp1
 70
     1
102
RTVSPropertyOp2
 70
     1
102
RTVSPropertyOp3
 70
     1
102
RTVSPropertyOp4
 70
     1
102
RTVSPropertyOp5
 70
     1
102
RTVSPropertyOp6
 70
     1
102
RTVSPropertyOp7
 70
     1
102
RTVSPropertyOp8
 70
     1
102
RTVSPropertyOp9
 70
     1
102
RTVSPropertyOp10
 70
     1
102
RTVSPropertyOp11
 70
     1
102
RTVSPropertyOp12
 70
     1
102
RTVSPropertyOp13
 70
     1
102
RTVSPropertyOp14
 70
     1
102
RTVSPropertyOp15
 70
     1
102
RTVSPropertyOp16
 70
     1
102
RTVSPropertyOp17
 70
     1
102
RTVSPropertyOp18
 70
     1
102
RTVSPropertyOp19
 70
     1
102
RTVSPropertyOp20
 70
     1
102
RTVSPropertyOp21
 70
     1
102
RTVSPropertyOp22
 70
     1
102
RTVSPropertyOp23
 70
     1
102
RTVSPropertyOp24
 70
     1
102
RTVSPropertyOp25
 70
     1
102
RTVSPropertyOp26
 70
     1
102
RTVSPropertyOp27
 70
     1
102
RTVSPropertyOp28
 70
     1
102
RTVSPropertyOp29
 70
     1
102
RTVSPropertyOp30
 70
     1
102
RTVSPropertyOp31
 70
     1
102
RTVSPropertyOp32
 70
     1
102
RTVSPropertyOp33
 70
     1
102
RTVSPropertyOp34
 70
     1
102
RTVSPropertyOp35
 70
     1
102
RTVSPropertyOp36
 70
     1
102
RTVSPropertyOp37
 70
     1
102
RTVSPropertyOp38
 70
     1
102
RTVSPropertyOp39
 70
     1
102
RTVSPropertyOp40
 70
     1
102
RTVSPropertyOp41
 70
     1
102
RTVSPropertyOp42
 70
     1
102
RTVSPropertyOp43
 70
     1
102
RTVSPropertyOp44
 70
     1
102
RTVSPropertyOp45
 70
     1
102
RTVSPropertyOp46
 70
     1
102
RTVSPropertyOp47
 70
     1
102
RTVSPropertyOp48
 70
     1
102
RTVSPropertyOp49
 70
     1
102
RTVSPropertyOp50
 70
     1
102
RTVSPropertyOp51
 70
     0
102
RTVSPropertyOp52
 70
     0
102
RTVSPropertyOp53
 70
     1
102
RTVSPropertyOp54
 70
     1
102
RTVSPropertyOp55
 70
     1
102
RTVSPropertyOp56
 70
     1
102
RTVSPropertyOp57
 70
     1
102
RTVSPropertyOp58
 70
     1
102
RTVSPropertyOp59
 70
     1
102
RTVSPropertyOp60
 70
     1
102
RTVSPropertyOp61
 70
     1
102
RTVSPropertyOp62
 70
     1
  0
XRECORD
  5
703
102
{ACAD_REACTORS
330
702
102
}
330
702
100
AcDbXrecord
280
     1
102
RTVSPost2010Prop28
280
     0
102
RTVSPost2010PropOp28
 70
     1
102
RTVSPost2010Prop29
280
     1
102
RTVSPost2010PropOp29
 70
     1
102
RTVSPost2010Prop30
280
     1
102
RTVSPost2010PropOp30
 70
     1
102
RTVSPost2010Prop31
280
     0
102
RTVSPost2010PropOp31
 70
     1
102
RTVSPost2010Prop32
280
     0
102
RTVSPost2010PropOp32
 70
     1
102
RTVSPost2010Prop33
280
     0
102
RTVSPost2010PropOp33
 70
     1
102
RTVSPost2010Prop34
280
     0
102
RTVSPost2010PropOp34
 70
     1
102
RTVSPost2010Prop35
280
     0
102
RTVSPost2010PropOp35
 70
     1
102
RTVSPost2010Prop36
280
     0
102
RTVSPost2010PropOp36
 70
     1
102
RTVSPost2010Prop37
 90
       50
102
RTVSPost2010PropOp37
 70
     1
102
RTVSPost2010Prop38
140
0.0
102
RTVSPost2010PropOp38
 70
     1
102
RTVSPost2010Prop39
140
1.0
102
RTVSPost2010PropOp39
 70
     1
102
RTVSPost2010Prop40
 90
        0
102
RTVSPost2010PropOp40
 70
     1
102
RTVSPost2010Prop41ColorIndex
 90
       18
102
RTVSPost2010Prop41ColorRGB
 90
        0
102
RTVSPost2010PropOp41
 70
     1
102
RTVSPost2010Prop42
 90
       50
102
RTVSPost2010PropOp42
 70
     1
102
RTVSPost2010Prop43
 90
        3
102
RTVSPost2010PropOp43
 70
     1
102
RTVSPost2010Prop44ColorIndex
 90
        5
102
RTVSPost2010Prop44ColorRGB
 90
      255
102
RTVSPost2010PropOp44
 70
     1
102
RTVSPost2010Prop45
280
     0
102
RTVSPost2010PropOp45
 70
     1
102
RTVSPost2010Prop46
 90
       50
102
RTVSPost2010PropOp46
 70
     1
102
RTVSPost2010Prop47
 90
       50
102
RTVSPost2010PropOp47
 70
     1
102
RTVSPost2010Prop48
 90
       50
102
RTVSPost2010PropOp48
 70
     1
102
RTVSPost2010Prop49
280
     0
102
RTVSPost2010PropOp49
 70
     1
102
RTVSPost2010Prop50
 90
       50
102
RTVSPost2010PropOp50
 70
     1
102
RTVSPost2010Prop51ColorIndex
 90
      256
102
RTVSPost2010Prop51ColorRGB
 90
-16777216
102
RTVSPost2010PropOp51
 70
     0
102
RTVSPost2010Prop52
140
1.0
102
RTVSPost2010PropOp52
 70
     0
102
RTVSPost2010Prop53
 90
        2
102
RTVSPost2010PropOp53
 70
     1
102
RTVSPost2010Prop54
  1
strokes_ogs.tif
102
RTVSPost2010PropOp54
 70
     1
102
RTVSPost2010Prop55
280
     0
102
RTVSPost2010PropOp55
 70
     1
102
RTVSPost2010Prop56
140
1.0
102
RTVSPost2010PropOp56
 70
     1
102
RTVSPost2010Prop57
140
1.0
102
RTVSPost2010PropOp57
 70
     1
102
RTVSPropertyOp0
 70
     1
102
RTVSPropertyOp1
 70
     1
102
RTVSPropertyOp2
 70
     1
102
RTVSPropertyOp3
 70
     1
102
RTVSPropertyOp4
 70
     1
102
RTVSPropertyOp5
 70
     1
102
RTVSPropertyOp6
 70
     1
102
RTVSPropertyOp7
 70
     1
102
RTVSPropertyOp8
 70
     1
102
RTVSPropertyOp9
 70
     1
102
RTVSPropertyOp10
 70
     1
102
RTVSPropertyOp11
 70
     1
102
RTVSPropertyOp12
 70
     1
102
RTVSPropertyOp13
 70
     1
102
RTVSPropertyOp14
 70
     1
102
RTVSPropertyOp15
 70
     1
102
RTVSPropertyOp16
 70
     1
102
RTVSPropertyOp17
 70
     1
102
RTVSPropertyOp18
 70
     1
102
RTVSPropertyOp19
 70
     1
102
RTVSPropertyOp20
 70
     1
102
RTVSPropertyOp21
 70
     1
102
RTVSPropertyOp22
 70
     1
102
RTVSPropertyOp23
 70
     1
102
RTVSPropertyOp24
 70
     1
102
RTVSPropertyOp25
 70
     1
102
RTVSPropertyOp26
 70
     1
102
RTVSPropertyOp27
 70
     1
102
RTVSPropertyOp28
 70
     1
102
RTVSPropertyOp29
 70
     1
102
RTVSPropertyOp30
 70
     1
102
RTVSPropertyOp31
 70
     1
102
RTVSPropertyOp32
 70
     1
102
RTVSPropertyOp33
 70
     1
102
RTVSPropertyOp34
 70
     1
102
RTVSPropertyOp35
 70
     1
102
RTVSPropertyOp36
 70
     1
102
RTVSPropertyOp37
 70
     1
102
RTVSPropertyOp38
 70
     1
102
RTVSPropertyOp39
 70
     1
102
RTVSPropertyOp40
 70
     1
102
RTVSPropertyOp41
 70
     1
102
RTVSPropertyOp42
 70
     1
102
RTVSPropertyOp43
 70
     1
102
RTVSPropertyOp44
 70
     1
102
RTVSPropertyOp45
 70
     1
102
RTVSPropertyOp46
 70
     1
102
RTVSPropertyOp47
 70
     1
102
RTVSPropertyOp48
 70
     1
102
RTVSPropertyOp49
 70
     1
102
RTVSPropertyOp50
 70
     1
102
RTVSPropertyOp51
 70
     0
102
RTVSPropertyOp52
 70
     0
102
RTVSPropertyOp53
 70
     1
102
RTVSPropertyOp54
 70
     1
102
RTVSPropertyOp55
 70
     1
102
RTVSPropertyOp56
 70
     1
102
RTVSPropertyOp57
 70
     1
102
RTVSPropertyOp58
 70
     1
102
RTVSPropertyOp59
 70
     1
102
RTVSPropertyOp60
 70
     1
102
RTVSPropertyOp61
 70
     1
102
RTVSPropertyOp62
 70
     1
  0
XRECORD
  5
6F7
102
{ACAD_REACTORS
330
6F6
102
}
330
6F6
100
AcDbXrecord
280
     1
102
RTVSPost2010Prop28
280
     0
102
RTVSPost2010PropOp28
 70
     1
102
RTVSPost2010Prop29
280
     1
102
RTVSPost2010PropOp29
 70
     1
102
RTVSPost2010Prop30
280
     1
102
RTVSPost2010PropOp30
 70
     1
102
RTVSPost2010Prop31
280
     0
102
RTVSPost2010PropOp31
 70
     1
102
RTVSPost2010Prop32
280
     0
102
RTVSPost2010PropOp32
 70
     1
102
RTVSPost2010Prop33
280
     0
102
RTVSPost2010PropOp33
 70
     1
102
RTVSPost2010Prop34
280
     0
102
RTVSPost2010PropOp34
 70
     1
102
RTVSPost2010Prop35
280
     0
102
RTVSPost2010PropOp35
 70
     1
102
RTVSPost2010Prop36
280
     0
102
RTVSPost2010PropOp36
 70
     1
102
RTVSPost2010Prop37
 90
       50
102
RTVSPost2010PropOp37
 70
     1
102
RTVSPost2010Prop38
140
0.0
102
RTVSPost2010PropOp38
 70
     1
102
RTVSPost2010Prop39
140
1.0
102
RTVSPost2010PropOp39
 70
     1
102
RTVSPost2010Prop40
 90
        0
102
RTVSPost2010PropOp40
 70
     1
102
RTVSPost2010Prop41ColorIndex
 90
       18
102
RTVSPost2010Prop41ColorRGB
 90
        0
102
RTVSPost2010PropOp41
 70
     1
102
RTVSPost2010Prop42
 90
       50
102
RTVSPost2010PropOp42
 70
     1
102
RTVSPost2010Prop43
 90
        3
102
RTVSPost2010PropOp43
 70
     1
102
RTVSPost2010Prop44ColorIndex
 90
        5
102
RTVSPost2010Prop44ColorRGB
 90
      255
102
RTVSPost2010PropOp44
 70
     1
102
RTVSPost2010Prop45
280
     0
102
RTVSPost2010PropOp45
 70
     1
102
RTVSPost2010Prop46
 90
       50
102
RTVSPost2010PropOp46
 70
     1
102
RTVSPost2010Prop47
 90
       50
102
RTVSPost2010PropOp47
 70
     1
102
RTVSPost2010Prop48
 90
       50
102
RTVSPost2010PropOp48
 70
     1
102
RTVSPost2010Prop49
280
     0
102
RTVSPost2010PropOp49
 70
     1
102
RTVSPost2010Prop50
 90
       50
102
RTVSPost2010PropOp50
 70
     1
102
RTVSPost2010Prop51ColorIndex
 90
      256
102
RTVSPost2010Prop51ColorRGB
 90
-16777216
102
RTVSPost2010PropOp51
 70
     0
102
RTVSPost2010Prop52
140
1.0
102
RTVSPost2010PropOp52
 70
     0
102
RTVSPost2010Prop53
 90
        2
102
RTVSPost2010PropOp53
 70
     1
102
RTVSPost2010Prop54
  1
strokes_ogs.tif
102
RTVSPost2010PropOp54
 70
     1
102
RTVSPost2010Prop55
280
     0
102
RTVSPost2010PropOp55
 70
     1
102
RTVSPost2010Prop56
140
1.0
102
RTVSPost2010PropOp56
 70
     1
102
RTVSPost2010Prop57
140
1.0
102
RTVSPost2010PropOp57
 70
     1
102
RTVSPropertyOp0
 70
     1
102
RTVSPropertyOp1
 70
     1
102
RTVSPropertyOp2
 70
     1
102
RTVSPropertyOp3
 70
     1
102
RTVSPropertyOp4
 70
     1
102
RTVSPropertyOp5
 70
     1
102
RTVSPropertyOp6
 70
     1
102
RTVSPropertyOp7
 70
     1
102
RTVSPropertyOp8
 70
     1
102
RTVSPropertyOp9
 70
     1
102
RTVSPropertyOp10
 70
     1
102
RTVSPropertyOp11
 70
     1
102
RTVSPropertyOp12
 70
     1
102
RTVSPropertyOp13
 70
     1
102
RTVSPropertyOp14
 70
     1
102
RTVSPropertyOp15
 70
     1
102
RTVSPropertyOp16
 70
     1
102
RTVSPropertyOp17
 70
     1
102
RTVSPropertyOp18
 70
     1
102
RTVSPropertyOp19
 70
     1
102
RTVSPropertyOp20
 70
     1
102
RTVSPropertyOp21
 70
     1
102
RTVSPropertyOp22
 70
     1
102
RTVSPropertyOp23
 70
     1
102
RTVSPropertyOp24
 70
     1
102
RTVSPropertyOp25
 70
     1
102
RTVSPropertyOp26
 70
     1
102
RTVSPropertyOp27
 70
     1
102
RTVSPropertyOp28
 70
     1
102
RTVSPropertyOp29
 70
     1
102
RTVSPropertyOp30
 70
     1
102
RTVSPropertyOp31
 70
     1
102
RTVSPropertyOp32
 70
     1
102
RTVSPropertyOp33
 70
     1
102
RTVSPropertyOp34
 70
     1
102
RTVSPropertyOp35
 70
     1
102
RTVSPropertyOp36
 70
     1
102
RTVSPropertyOp37
 70
     1
102
RTVSPropertyOp38
 70
     1
102
RTVSPropertyOp39
 70
     1
102
RTVSPropertyOp40
 70
     1
102
RTVSPropertyOp41
 70
     1
102
RTVSPropertyOp42
 70
     1
102
RTVSPropertyOp43
 70
     1
102
RTVSPropertyOp44
 70
     1
102
RTVSPropertyOp45
 70
     1
102
RTVSPropertyOp46
 70
     1
102
RTVSPropertyOp47
 70
     1
102
RTVSPropertyOp48
 70
     1
102
RTVSPropertyOp49
 70
     1
102
RTVSPropertyOp50
 70
     1
102
RTVSPropertyOp51
 70
     0
102
RTVSPropertyOp52
 70
     0
102
RTVSPropertyOp53
 70
     1
102
RTVSPropertyOp54
 70
     1
102
RTVSPropertyOp55
 70
     1
102
RTVSPropertyOp56
 70
     1
102
RTVSPropertyOp57
 70
     1
102
RTVSPropertyOp58
 70
     1
102
RTVSPropertyOp59
 70
     1
102
RTVSPropertyOp60
 70
     1
102
RTVSPropertyOp61
 70
     1
102
RTVSPropertyOp62
 70
     1
  0
XRECORD
  5
70F
102
{ACAD_REACTORS
330
70E
102
}
330
70E
100
AcDbXrecord
280
     1
102
RTVSPost2010Prop28
280
     0
102
RTVSPost2010PropOp28
 70
     1
102
RTVSPost2010Prop29
280
     1
102
RTVSPost2010PropOp29
 70
     1
102
RTVSPost2010Prop30
280
     1
102
RTVSPost2010PropOp30
 70
     1
102
RTVSPost2010Prop31
280
     0
102
RTVSPost2010PropOp31
 70
     1
102
RTVSPost2010Prop32
280
     0
102
RTVSPost2010PropOp32
 70
     1
102
RTVSPost2010Prop33
280
     0
102
RTVSPost2010PropOp33
 70
     1
102
RTVSPost2010Prop34
280
     0
102
RTVSPost2010PropOp34
 70
     1
102
RTVSPost2010Prop35
280
     0
102
RTVSPost2010PropOp35
 70
     1
102
RTVSPost2010Prop36
280
     0
102
RTVSPost2010PropOp36
 70
     1
102
RTVSPost2010Prop37
 90
       50
102
RTVSPost2010PropOp37
 70
     1
102
RTVSPost2010Prop38
140
0.0
102
RTVSPost2010PropOp38
 70
     1
102
RTVSPost2010Prop39
140
1.0
102
RTVSPost2010PropOp39
 70
     1
102
RTVSPost2010Prop40
 90
        0
102
RTVSPost2010PropOp40
 70
     1
102
RTVSPost2010Prop41ColorIndex
 90
       18
102
RTVSPost2010Prop41ColorRGB
 90
        0
102
RTVSPost2010PropOp41
 70
     1
102
RTVSPost2010Prop42
 90
       50
102
RTVSPost2010PropOp42
 70
     1
102
RTVSPost2010Prop43
 90
        3
102
RTVSPost2010PropOp43
 70
     1
102
RTVSPost2010Prop44ColorIndex
 90
        5
102
RTVSPost2010Prop44ColorRGB
 90
      255
102
RTVSPost2010PropOp44
 70
     1
102
RTVSPost2010Prop45
280
     0
102
RTVSPost2010PropOp45
 70
     1
102
RTVSPost2010Prop46
 90
       50
102
RTVSPost2010PropOp46
 70
     1
102
RTVSPost2010Prop47
 90
       50
102
RTVSPost2010PropOp47
 70
     1
102
RTVSPost2010Prop48
 90
       50
102
RTVSPost2010PropOp48
 70
     1
102
RTVSPost2010Prop49
280
     0
102
RTVSPost2010PropOp49
 70
     1
102
RTVSPost2010Prop50
 90
       50
102
RTVSPost2010PropOp50
 70
     1
102
RTVSPost2010Prop51ColorIndex
 90
      256
102
RTVSPost2010Prop51ColorRGB
 90
-16777216
102
RTVSPost2010PropOp51
 70
     0
102
RTVSPost2010Prop52
140
1.0
102
RTVSPost2010PropOp52
 70
     0
102
RTVSPost2010Prop53
 90
        2
102
RTVSPost2010PropOp53
 70
     1
102
RTVSPost2010Prop54
  1
strokes_ogs.tif
102
RTVSPost2010PropOp54
 70
     1
102
RTVSPost2010Prop55
280
     0
102
RTVSPost2010PropOp55
 70
     1
102
RTVSPost2010Prop56
140
1.0
102
RTVSPost2010PropOp56
 70
     1
102
RTVSPost2010Prop57
140
1.0
102
RTVSPost2010PropOp57
 70
     1
102
RTVSPropertyOp0
 70
     1
102
RTVSPropertyOp1
 70
     1
102
RTVSPropertyOp2
 70
     1
102
RTVSPropertyOp3
 70
     1
102
RTVSPropertyOp4
 70
     1
102
RTVSPropertyOp5
 70
     1
102
RTVSPropertyOp6
 70
     1
102
RTVSPropertyOp7
 70
     1
102
RTVSPropertyOp8
 70
     1
102
RTVSPropertyOp9
 70
     1
102
RTVSPropertyOp10
 70
     1
102
RTVSPropertyOp11
 70
     1
102
RTVSPropertyOp12
 70
     1
102
RTVSPropertyOp13
 70
     1
102
RTVSPropertyOp14
 70
     1
102
RTVSPropertyOp15
 70
     1
102
RTVSPropertyOp16
 70
     1
102
RTVSPropertyOp17
 70
     1
102
RTVSPropertyOp18
 70
     1
102
RTVSPropertyOp19
 70
     1
102
RTVSPropertyOp20
 70
     1
102
RTVSPropertyOp21
 70
     1
102
RTVSPropertyOp22
 70
     1
102
RTVSPropertyOp23
 70
     1
102
RTVSPropertyOp24
 70
     1
102
RTVSPropertyOp25
 70
     1
102
RTVSPropertyOp26
 70
     1
102
RTVSPropertyOp27
 70
     1
102
RTVSPropertyOp28
 70
     1
102
RTVSPropertyOp29
 70
     1
102
RTVSPropertyOp30
 70
     1
102
RTVSPropertyOp31
 70
     1
102
RTVSPropertyOp32
 70
     1
102
RTVSPropertyOp33
 70
     1
102
RTVSPropertyOp34
 70
     1
102
RTVSPropertyOp35
 70
     1
102
RTVSPropertyOp36
 70
     1
102
RTVSPropertyOp37
 70
     1
102
RTVSPropertyOp38
 70
     1
102
RTVSPropertyOp39
 70
     1
102
RTVSPropertyOp40
 70
     1
102
RTVSPropertyOp41
 70
     1
102
RTVSPropertyOp42
 70
     1
102
RTVSPropertyOp43
 70
     1
102
RTVSPropertyOp44
 70
     1
102
RTVSPropertyOp45
 70
     1
102
RTVSPropertyOp46
 70
     1
102
RTVSPropertyOp47
 70
     1
102
RTVSPropertyOp48
 70
     1
102
RTVSPropertyOp49
 70
     1
102
RTVSPropertyOp50
 70
     1
102
RTVSPropertyOp51
 70
     0
102
RTVSPropertyOp52
 70
     0
102
RTVSPropertyOp53
 70
     1
102
RTVSPropertyOp54
 70
     1
102
RTVSPropertyOp55
 70
     1
102
RTVSPropertyOp56
 70
     1
102
RTVSPropertyOp57
 70
     1
102
RTVSPropertyOp58
 70
     1
102
RTVSPropertyOp59
 70
     1
102
RTVSPropertyOp60
 70
     1
102
RTVSPropertyOp61
 70
     1
102
RTVSPropertyOp62
 70
     1
  0
ENDSEC
  0
EOF
