  0
SECTION
  2
HEADER
  9
$ACADVER
  1
AC1015
  9
$ACADMAINTVER
 70
     6
  9
$DWGCODEPAGE
  3
DOS932
  9
$INSBASE
 10
0.0
 20
0.0
 30
0.0
  9
$EXTMIN
 10
0.0
 20
0.0
 30
0.0
  9
$EXTMAX
 10
420.0
 20
297.0
 30
0.0
  9
$LIMMIN
 10
0.0
 20
0.0
  9
$LIMMAX
 10
420.0
 20
297.0
  9
$ORTHOMODE
 70
     0
  9
$REGENMODE
 70
     1
  9
$FILLMODE
 70
     1
  9
$QTEXTMODE
 70
     0
  9
$MIRRTEXT
 70
     1
  9
$LTSCALE
 40
1.0
  9
$ATTMODE
 70
     1
  9
$TEXTSIZE
 40
3.5
  9
$TRACEWID
 40
1.0
  9
$TEXTSTYLE
  7
Standard
  9
$CLAYER
  8
0
  9
$CELTYPE
  6
ByLayer
  9
$CECOLOR
 62
   256
  9
$CELTSCALE
 40
1.0
  9
$DISPSILH
 70
     0
  9
$DIMSCALE
 40
1.0
  9
$DIMASZ
 40
3.302
  9
$DIMEXO
 40
1.0
  9
$DIMDLI
 40
3.75
  9
$DIMRND
 40
0.0
  9
$DIMDLE
 40
0.0
  9
$DIMEXE
 40
1.0
  9
$DIMTP
 40
0.0
  9
$DIMTM
 40
0.0
  9
$DIMTXT
 40
3.5
  9
$DIMCEN
 40
2.5
  9
$DIMTSZ
 40
0.0
  9
$DIMTOL
 70
     0
  9
$DIMLIM
 70
     0
  9
$DIMTIH
 70
     1
  9
$DIMTOH
 70
     1
  9
$DIMSE1
 70
     0
  9
$DIMSE2
 70
     0
  9
$DIMTAD
 70
     1
  9
$DIMZIN
 70
     0
  9
$DIMBLK
  1

  9
$DIMASO
 70
     1
  9
$DIMSHO
 70
     1
  9
$DIMPOST
  1

  9
$DIMAPOST
  1

  9
$DIMALT
 70
     0
  9
$DIMALTD
 70
     3
  9
$DIMALTF
 40
0.0393700787
  9
$DIMLFAC
 40
5.0
  9
$DIMTOFL
 70
     1
  9
$DIMTVP
 40
0.0
  9
$DIMTIX
 70
     0
  9
$DIMSOXD
 70
     0
  9
$DIMSAH
 70
     0
  9
$DIMBLK1
  1

  9
$DIMBLK2
  1

  9
$DIMSTYLE
  2
ISO-25
  9
$DIMCLRD
 70
     0
  9
$DIMCLRE
 70
     0
  9
$DIMCLRT
 70
     0
  9
$DIMTFAC
 40
1.0
  9
$DIMGAP
 40
1.524
  9
$DIMJUST
 70
     0
  9
$DIMSD1
 70
     0
  9
$DIMSD2
 70
     0
  9
$DIMTOLJ
 70
     0
  9
$DIMTZIN
 70
     0
  9
$DIMALTZ
 70
     0
  9
$DIMALTTZ
 70
     0
  9
$DIMUPT
 70
     0
  9
$DIMDEC
 70
     3
  9
$DIMTDEC
 70
     3
  9
$DIMALTU
 70
     2
  9
$DIMALTTD
 70
     3
  9
$DIMTXSTY
  7
Standard
  9
$DIMAUNIT
 70
     0
  9
$DIMADEC
 70
     2
  9
$DIMALTRND
 40
0.0
  9
$DIMAZIN
 70
     0
  9
$DIMDSEP
 70
    44
  9
$DIMATFIT
 70
     3
  9
$DIMFRAC
 70
     0
  9
$DIMLDRBLK
  1

  9
$DIMLUNIT
 70
     2
  9
$DIMLWD
 70
    -2
  9
$DIMLWE
 70
    -2
  9
$DIMTMOVE
 70
     0
  9
$LUNITS
 70
     2
  9
$LUPREC
 70
     2
  9
$SKETCHINC
 40
1.0
  9
$FILLETRAD
 40
10.0
  9
$AUNITS
 70
     0
  9
$AUPREC
 70
     2
  9
$MENU
  1
.
  9
$ELEVATION
 40
0.0
  9
$PELEVATION
 40
0.0
  9
$THICKNESS
 40
0.0
  9
$LIMCHECK
 70
     0
  9
$CHAMFERA
 40
0.0
  9
$CHAMFERB
 40
0.0
  9
$CHAMFERC
 40
0.0
  9
$CHAMFERD
 40
0.0
  9
$SKPOLY
 70
     0
  9
$TDCREATE
 40
2457480.403560637
  9
$TDUCREATE
 40
2457480.028560637
  9
$TDUPDATE
 40
2457480.403562083
  9
$TDUUPDATE
 40
2457480.028562083
  9
$TDINDWG
 40
0.0000000116
  9
$TDUSRTIMER
 40
0.0000000116
  9
$USRTIMER
 70
     1
  9
$ANGBASE
 50
0.0
  9
$ANGDIR
 70
     0
  9
$PDMODE
 70
     0
  9
$PDSIZE
 40
-1.0
  9
$PLINEWID
 40
0.0
  9
$SPLFRAME
 70
     0
  9
$SPLINETYPE
 70
     6
  9
$SPLINESEGS
 70
     8
  9
$HANDSEED
  5
5FA
  9
$SURFTAB1
 70
     6
  9
$SURFTAB2
 70
     6
  9
$SURFTYPE
 70
     6
  9
$SURFU
 70
     6
  9
$SURFV
 70
     6
  9
$UCSBASE
  2

  9
$UCSNAME
  2

  9
$UCSORG
 10
0.0
 20
0.0
 30
0.0
  9
$UCSXDIR
 10
1.0
 20
0.0
 30
0.0
  9
$UCSYDIR
 10
0.0
 20
1.0
 30
0.0
  9
$UCSORTHOREF
  2

  9
$UCSORTHOVIEW
 70
     0
  9
$UCSORGTOP
 10
0.0
 20
0.0
 30
0.0
  9
$UCSORGBOTTOM
 10
0.0
 20
0.0
 30
0.0
  9
$UCSORGLEFT
 10
0.0
 20
0.0
 30
0.0
  9
$UCSORGRIGHT
 10
0.0
 20
0.0
 30
0.0
  9
$UCSORGFRONT
 10
0.0
 20
0.0
 30
0.0
  9
$UCSORGBACK
 10
0.0
 20
0.0
 30
0.0
  9
$PUCSBASE
  2

  9
$PUCSNAME
  2

  9
$PUCSORG
 10
0.0
 20
0.0
 30
0.0
  9
$PUCSXDIR
 10
1.0
 20
0.0
 30
0.0
  9
$PUCSYDIR
 10
0.0
 20
1.0
 30
0.0
  9
$PUCSORTHOREF
  2

  9
$PUCSORTHOVIEW
 70
     0
  9
$PUCSORGTOP
 10
0.0
 20
0.0
 30
0.0
  9
$PUCSORGBOTTOM
 10
0.0
 20
0.0
 30
0.0
  9
$PUCSORGLEFT
 10
0.0
 20
0.0
 30
0.0
  9
$PUCSORGRIGHT
 10
0.0
 20
0.0
 30
0.0
  9
$PUCSORGFRONT
 10
0.0
 20
0.0
 30
0.0
  9
$PUCSORGBACK
 10
0.0
 20
0.0
 30
0.0
  9
$USERI1
 70
     0
  9
$USERI2
 70
     0
  9
$USERI3
 70
     0
  9
$USERI4
 70
     0
  9
$USERI5
 70
     0
  9
$USERR1
 40
0.0
  9
$USERR2
 40
0.0
  9
$USERR3
 40
0.0
  9
$USERR4
 40
0.0
  9
$USERR5
 40
0.0
  9
$WORLDVIEW
 70
     1
  9
$SHADEDGE
 70
     3
  9
$SHADEDIF
 70
    70
  9
$TILEMODE
 70
     1
  9
$MAXACTVP
 70
    64
  9
$PINSBASE
 10
0.0
 20
0.0
 30
0.0
  9
$PLIMCHECK
 70
     0
  9
$PEXTMIN
 10
1.0000000000E+20
 20
1.0000000000E+20
 30
1.0000000000E+20
  9
$PEXTMAX
 10
-1.0000000000E+20
 20
-1.0000000000E+20
 30
-1.0000000000E+20
  9
$PLIMMIN
 10
0.0
 20
0.0
  9
$PLIMMAX
 10
420.0
 20
297.0
  9
$UNITMODE
 70
     0
  9
$VISRETAIN
 70
     1
  9
$PLINEGEN
 70
     0
  9
$PSLTSCALE
 70
     1
  9
$TREEDEPTH
 70
  3020
  9
$CMLSTYLE
  2
Standard
  9
$CMLJUST
 70
     0
  9
$CMLSCALE
 40
20.0
  9
$PROXYGRAPHICS
 70
     1
  9
$MEASUREMENT
 70
     1
  9
$CELWEIGHT
370
    -1
  9
$ENDCAPS
280
     0
  9
$JOINSTYLE
280
     0
  9
$LWDISPLAY
290
     1
  9
$INSUNITS
 70
     4
  9
$HYPERLINKBASE
  1

  9
$STYLESHEET
  1

  9
$XEDIT
290
     1
  9
$CEPSNTYPE
380
     0
  9
$PSTYLEMODE
290
     1
  9
$FINGERPRINTGUID
  2
{079B4AD9-CE90-4042-813A-1CD42EA268F2}
  9
$VERSIONGUID
  2
{FAEB1C32-E019-11D5-929B-00C0DF256EC4}
  9
$EXTNAMES
290
     1
  9
$PSVPSCALE
 40
0.0
  9
$OLESTARTUP
290
     0
  0
ENDSEC
  0
SECTION
  2
CLASSES
  0
CLASS
  1
ACDBDICTIONARYWDFLT
  2
AcDbDictionaryWithDefault
  3
ObjectDBX Classes
 90
        0
280
     0
281
     0
  0
CLASS
  1
VISUALSTYLE
  2
AcDbVisualStyle
  3
ObjectDBX Classes
 90
     4095
280
     0
281
     0
  0
CLASS
  1
MATERIAL
  2
AcDbMaterial
  3
ObjectDBX Classes
 90
     1153
280
     0
281
     0
  0
CLASS
  1
SCALE
  2
AcDbScale
  3
ObjectDBX Classes
 90
     1153
280
     0
281
     0
  0
CLASS
  1
SUN
  2
AcDbSun
  3
SCENEOE
 90
     1153
280
     0
281
     0
  0
CLASS
  1
ACDBPLACEHOLDER
  2
AcDbPlaceHolder
  3
ObjectDBX Classes
 90
        0
280
     0
281
     0
  0
CLASS
  1
LAYOUT
  2
AcDbLayout
  3
ObjectDBX Classes
 90
        0
280
     0
281
     0
  0
ENDSEC
  0
SECTION
  2
TABLES
  0
TABLE
  2
VPORT
  5
8
330
0
100
AcDbSymbolTable
 70
     1
  0
VPORT
  5
29
330
8
100
AcDbSymbolTableRecord
100
AcDbViewportTableRecord
  2
*Active
 70
     0
 10
0.0
 20
0.0
 11
1.0
 21
1.0
 12
210.0
 22
148.5
 13
0.0
 23
0.0
 14
10.0
 24
10.0
 15
10.0
 25
10.0
 16
0.0
 26
0.0
 36
1.0
 17
0.0
 27
0.0
 37
0.0
 40
297.0
 41
1.4141414141
 42
50.0
 43
0.0
 44
0.0
 50
0.0
 51
0.0
 71
     0
 72
  2000
 73
     1
 74
     3
 75
     0
 76
     0
 77
     0
 78
     0
281
     0
 65
     1
110
0.0
120
0.0
130
0.0
111
1.0
121
0.0
131
0.0
112
0.0
122
1.0
132
0.0
 79
     0
146
0.0
  0
ENDTAB
  0
TABLE
  2
LTYPE
  5
5
330
0
100
AcDbSymbolTable
 70
     6
  0
LTYPE
  5
14
330
5
100
AcDbSymbolTableRecord
100
AcDbLinetypeTableRecord
  2
ByBlock
 70
     0
  3

 72
    65
 73
     0
 40
0.0
  0
LTYPE
  5
15
330
5
100
AcDbSymbolTableRecord
100
AcDbLinetypeTableRecord
  2
ByLayer
 70
     0
  3

 72
    65
 73
     0
 40
0.0
  0
LTYPE
  5
16
330
5
100
AcDbSymbolTableRecord
100
AcDbLinetypeTableRecord
  2
Continuous
 70
     0
  3
Solid line
 72
    65
 73
     0
 40
0.0
  0
LTYPE
  5
6A
330
5
100
AcDbSymbolTableRecord
100
AcDbLinetypeTableRecord
  2
HIDDEN
 70
     0
  3
Hidden __ __ __ __ __ __ __ __ __ __ __ __ __ __
 72
    65
 73
     2
 40
1.905
 49
1.27
 74
     0
 49
-0.635
 74
     0
  0
LTYPE
  5
6B
330
5
100
AcDbSymbolTableRecord
100
AcDbLinetypeTableRecord
  2
PHANTOM
 70
     0
  3
Phantom ______  __  __  ______  __  __  ______
 72
    65
 73
     6
 40
12.7
 49
6.35
 74
     0
 49
-1.27
 74
     0
 49
1.27
 74
     0
 49
-1.27
 74
     0
 49
1.27
 74
     0
 49
-1.27
 74
     0
  0
LTYPE
  5
6C
330
5
100
AcDbSymbolTableRecord
100
AcDbLinetypeTableRecord
  2
CENTER
 70
     0
  3
Center ____ _ ____ _ ____ _ ____ _ ____ _ ____
 72
    65
 73
     4
 40
10.16
 49
6.35
 74
     0
 49
-1.27
 74
     0
 49
1.27
 74
     0
 49
-1.27
 74
     0
  0
LTYPE
  5
6D
330
5
100
AcDbSymbolTableRecord
100
AcDbLinetypeTableRecord
  2
CENTERX2
 70
     0
  3
Center (2x) ________  __  ________  __  _____
 72
    65
 73
     4
 40
20.32
 49
12.7
 74
     0
 49
-2.54
 74
     0
 49
2.54
 74
     0
 49
-2.54
 74
     0
  0
LTYPE
  5
6E
330
5
100
AcDbSymbolTableRecord
100
AcDbLinetypeTableRecord
  2
DOT2
 70
     0
  3
Dot (.5x) ........................................
 72
    65
 73
     2
 40
0.635
 49
0.0
 74
     0
 49
-0.635
 74
     0
  0
ENDTAB
  0
TABLE
  2
LAYER
  5
2
330
0
100
AcDbSymbolTable
 70
     4
  0
LAYER
  5
10
330
2
100
AcDbSymbolTableRecord
100
AcDbLayerTableRecord
  2
0
 70
     0
 62
     7
  6
Continuous
370
    -3
390
F
  0
LAYER
  5
6F
330
2
100
AcDbSymbolTableRecord
100
AcDbLayerTableRecord
  2
FORMAT
 70
     0
 62
     7
  6
Continuous
370
    -3
390
F
  0
LAYER
  5
70
330
2
100
AcDbSymbolTableRecord
100
AcDbLayerTableRecord
  2
図枠
 70
     0
 62
     7
  6
Continuous
370
    15
390
F
  0
LAYER
  5
71
330
2
100
AcDbSymbolTableRecord
100
AcDbLayerTableRecord
  2
ﾚｲﾔｰ2
 70
     0
 62
     7
  6
Continuous
370
    -3
390
F
  0
ENDTAB
  0
TABLE
  2
STYLE
  5
3
330
0
100
AcDbSymbolTable
 70
     2
  0
STYLE
  5
11
330
3
100
AcDbSymbolTableRecord
100
AcDbTextStyleTableRecord
  2
Standard
 70
     0
 40
0.0
 41
1.0
 50
0.0
 71
     0
 42
3.5
  3
txt
  4
bigfont
  0
STYLE
  5
78
330
3
100
AcDbSymbolTableRecord
100
AcDbTextStyleTableRecord
  2
SLDTEXTSTYLE0
 70
     0
 40
0.0
 41
0.7
 50
0.0
 71
     0
 42
3.5
  3
TXT
  4
bigfont
  0
ENDTAB
  0
TABLE
  2
VIEW
  5
6
330
0
100
AcDbSymbolTable
 70
     0
  0
ENDTAB
  0
TABLE
  2
UCS
  5
7
330
0
100
AcDbSymbolTable
 70
     0
  0
ENDTAB
  0
TABLE
  2
APPID
  5
9
330
0
100
AcDbSymbolTable
 70
     1
  0
APPID
  5
12
330
9
100
AcDbSymbolTableRecord
100
AcDbRegAppTableRecord
  2
ACAD
 70
     0
  0
ENDTAB
  0
TABLE
  2
DIMSTYLE
  5
A
330
0
100
AcDbSymbolTable
 70
     1
100
AcDbDimStyleTable
  0
DIMSTYLE
105
27
330
A
100
AcDbSymbolTableRecord
100
AcDbDimStyleTableRecord
  2
ISO-25
 70
     0
 41
2.5
 42
0.625
 43
3.75
 44
1.25
 73
     0
 74
     0
 77
     1
 78
     8
140
2.5
141
2.5
143
0.0393700787
147
0.625
171
     3
172
     1
178
     0
271
     2
272
     2
274
     3
278
    44
283
     0
284
     8
340
11
  0
ENDTAB
  0
TABLE
  2
BLOCK_RECORD
  5
1
330
0
100
AcDbSymbolTable
 70
     4
  0
BLOCK_RECORD
  5
1F
330
1
100
AcDbSymbolTableRecord
100
AcDbBlockTableRecord
  2
*Model_Space
340
22
  0
BLOCK_RECORD
  5
1B
330
1
100
AcDbSymbolTableRecord
100
AcDbBlockTableRecord
  2
*Paper_Space
340
1E
  0
BLOCK_RECORD
  5
23
330
1
100
AcDbSymbolTableRecord
100
AcDbBlockTableRecord
  2
*Paper_Space0
340
26
  0
BLOCK_RECORD
  5
72
330
1
100
AcDbSymbolTableRecord
100
AcDbBlockTableRecord
  2
三角３
340
0
102
{BLKREFS
331
AD
102
}
  0
BLOCK_RECORD
  5
7A
330
1
100
AcDbSymbolTableRecord
100
AcDbBlockTableRecord
  2
三角２
340
0
102
{BLKREFS
331
AE
102
}
  0
BLOCK_RECORD
  5
81
330
1
100
AcDbSymbolTableRecord
100
AcDbBlockTableRecord
  2
三角１
340
0
102
{BLKREFS
331
AF
102
}
  0
ENDTAB
  0
ENDSEC
  0
SECTION
  2
BLOCKS
  0
BLOCK
  5
20
330
1F
100
AcDbEntity
  8
0
100
AcDbBlockBegin
  2
*Model_Space
 70
     0
 10
0.0
 20
0.0
 30
0.0
  3
*Model_Space
  1
*Model_Space
  0
ENDBLK
  5
21
330
1F
100
AcDbEntity
  8
0
100
AcDbBlockEnd
  0
BLOCK
  5
1C
330
1B
100
AcDbEntity
 67
     1
  8
0
100
AcDbBlockBegin
  2
*Paper_Space
 70
     0
 10
0.0
 20
0.0
 30
0.0
  3
*Paper_Space
  1
*Paper_Space
  0
ENDBLK
  5
1D
330
1B
100
AcDbEntity
 67
     1
  8
0
100
AcDbBlockEnd
  0
BLOCK
  5
24
330
23
100
AcDbEntity
  8
0
100
AcDbBlockBegin
  2
*Paper_Space0
 70
     0
 10
0.0
 20
0.0
 30
0.0
  3
*Paper_Space0
  1
*Paper_Space0
  0
ENDBLK
  5
25
330
23
100
AcDbEntity
  8
0
100
AcDbBlockEnd
  0
BLOCK
  5
73
330
72
100
AcDbEntity
  8
0
100
AcDbBlockBegin
  2
三角３
 70
     0
 10
0.0
 20
0.0
 30
0.0
  3
三角３
  1
三角３
  0
LINE
  5
75
330
72
100
AcDbEntity
  8
FORMAT
370
     0
100
AcDbLine
 10
0.0
 20
0.0
 30
0.0
 11
-1.75
 21
-3.5
 31
0.0
  0
LINE
  5
76
330
72
100
AcDbEntity
  8
FORMAT
370
     0
100
AcDbLine
 10
-1.75
 20
-3.5
 30
0.0
 11
1.75
 21
-3.5
 31
0.0
  0
LINE
  5
77
330
72
100
AcDbEntity
  8
FORMAT
370
     0
100
AcDbLine
 10
1.75
 20
-3.5
 30
0.0
 11
0.0
 21
0.0
 31
0.0
  0
MTEXT
  5
79
330
72
100
AcDbEntity
  8
FORMAT
 62
     7
100
AcDbMText
 10
-0.6943926639
 20
-0.9380245362
 30
0.0
 40
2.1166666667
 41
0.0
 71
     1
 72
     1
  1
3
  7
SLDTEXTSTYLE0
 73
     1
 44
1.0
  0
ENDBLK
  5
74
330
72
100
AcDbEntity
  8
0
100
AcDbBlockEnd
  0
BLOCK
  5
7B
330
7A
100
AcDbEntity
  8
0
100
AcDbBlockBegin
  2
三角２
 70
     0
 10
0.0
 20
0.0
 30
0.0
  3
三角２
  1
三角２
  0
LINE
  5
7D
330
7A
100
AcDbEntity
  8
FORMAT
370
     0
100
AcDbLine
 10
0.0
 20
0.0
 30
0.0
 11
-1.75
 21
-3.5
 31
0.0
  0
LINE
  5
7E
330
7A
100
AcDbEntity
  8
FORMAT
370
     0
100
AcDbLine
 10
-1.75
 20
-3.5
 30
0.0
 11
1.75
 21
-3.5
 31
0.0
  0
LINE
  5
7F
330
7A
100
AcDbEntity
  8
FORMAT
370
     0
100
AcDbLine
 10
1.75
 20
-3.5
 30
0.0
 11
0.0
 21
0.0
 31
0.0
  0
MTEXT
  5
80
330
7A
100
AcDbEntity
  8
FORMAT
 62
     7
100
AcDbMText
 10
-0.6943926639
 20
-0.9380245362
 30
0.0
 40
2.1166666667
 41
0.0
 71
     1
 72
     1
  1
2
  7
SLDTEXTSTYLE0
 73
     1
 44
1.0
  0
ENDBLK
  5
7C
330
7A
100
AcDbEntity
  8
0
100
AcDbBlockEnd
  0
BLOCK
  5
82
330
81
100
AcDbEntity
  8
0
100
AcDbBlockBegin
  2
三角１
 70
     0
 10
0.0
 20
0.0
 30
0.0
  3
三角１
  1
三角１
  0
LINE
  5
84
330
81
100
AcDbEntity
  8
FORMAT
370
     0
100
AcDbLine
 10
0.0
 20
0.0
 30
0.0
 11
-1.75
 21
-3.5
 31
0.0
  0
LINE
  5
85
330
81
100
AcDbEntity
  8
FORMAT
370
     0
100
AcDbLine
 10
-1.75
 20
-3.5
 30
0.0
 11
1.75
 21
-3.5
 31
0.0
  0
LINE
  5
86
330
81
100
AcDbEntity
  8
FORMAT
370
     0
100
AcDbLine
 10
1.75
 20
-3.5
 30
0.0
 11
0.0
 21
0.0
 31
0.0
  0
MTEXT
  5
87
330
81
100
AcDbEntity
  8
FORMAT
 62
     7
100
AcDbMText
 10
-0.6943926639
 20
-0.9380245362
 30
0.0
 40
2.1166666667
 41
0.0
 71
     1
 72
     1
  1
1
  7
SLDTEXTSTYLE0
 73
     1
 44
1.0
  0
ENDBLK
  5
83
330
81
100
AcDbEntity
  8
0
100
AcDbBlockEnd
  0
ENDSEC
  0
SECTION
  2
ENTITIES
  0
LINE
  5
88
330
1F
100
AcDbEntity
  8
FORMAT
370
    15
100
AcDbLine
 10
327.9184892458
 20
52.3141150559
 30
0.0
 11
411.9184892458
 21
52.3141150559
 31
0.0
  0
LINE
  5
89
330
1F
100
AcDbEntity
  8
図枠
100
AcDbLine
 10
327.9184892458
 20
52.3141150559
 30
0.0
 11
327.9184892458
 21
9.3141150559
 31
0.0
  0
LINE
  5
8A
330
1F
100
AcDbEntity
  8
FORMAT
100
AcDbLine
 10
362.9184892458
 20
29.8141150559
 30
0.0
 11
362.9184892458
 21
16.3141150559
 31
0.0
  0
LINE
  5
8B
330
1F
100
AcDbEntity
  8
FORMAT
100
AcDbLine
 10
327.9184892458
 20
25.3141150559
 30
0.0
 11
411.9184892458
 21
25.3141150559
 31
0.0
  0
LINE
  5
8C
330
1F
100
AcDbEntity
  8
FORMAT
100
AcDbLine
 10
327.9184892458
 20
20.8141150559
 30
0.0
 11
411.9184892458
 21
20.8141150559
 31
0.0
  0
LINE
  5
8D
330
1F
100
AcDbEntity
  8
FORMAT
100
AcDbLine
 10
327.9184892458
 20
16.3141150559
 30
0.0
 11
411.9184892458
 21
16.3141150559
 31
0.0
  0
LINE
  5
8E
330
1F
100
AcDbEntity
  8
FORMAT
100
AcDbLine
 10
327.9184892458
 20
29.8141150559
 30
0.0
 11
411.9184892458
 21
29.8141150559
 31
0.0
  0
LINE
  5
8F
330
1F
100
AcDbEntity
  8
FORMAT
100
AcDbLine
 10
395.964747886
 20
15.163276668
 30
0.0
 11
395.964747886
 21
9.7954976906
 31
0.0
  0
LINE
  5
90
330
1F
100
AcDbEntity
  8
FORMAT
100
AcDbLine
 10
393.4100897143
 20
12.4793871793
 30
0.0
 11
399.5102194549
 21
12.4793871793
 31
0.0
  0
LINE
  5
91
330
1F
100
AcDbEntity
  8
FORMAT
100
AcDbLine
 10
344.9184892458
 20
52.3141150559
 30
0.0
 11
344.9184892458
 21
16.3141150559
 31
0.0
  0
LINE
  5
92
330
1F
100
AcDbEntity
  8
FORMAT
100
AcDbLine
 10
400.064776704
 20
12.4468322066
 30
0.0
 11
410.8892507903
 21
12.4468322066
 31
0.0
  0
LINE
  5
93
330
1F
100
AcDbEntity
  8
FORMAT
100
AcDbLine
 10
327.9184892458
 20
34.3141150559
 30
0.0
 11
411.9184892458
 21
34.3141150559
 31
0.0
  0
LINE
  5
94
330
1F
100
AcDbEntity
  8
FORMAT
100
AcDbLine
 10
327.9184892458
 20
46.3141150559
 30
0.0
 11
411.9184892458
 21
46.3141150559
 31
0.0
  0
LINE
  5
95
330
1F
100
AcDbEntity
  8
FORMAT
100
AcDbLine
 10
254.9184892458
 20
27.3141150559
 30
0.0
 11
254.9184892458
 21
9.3141150559
 31
0.0
  0
LINE
  5
96
330
1F
100
AcDbEntity
  8
FORMAT
100
AcDbLine
 10
391.9184892458
 20
9.3141150559
 30
0.0
 11
391.9184892458
 21
29.8141150559
 31
0.0
  0
LINE
  5
97
330
1F
100
AcDbEntity
  8
FORMAT
 62
     1
370
    15
100
AcDbLine
 10
13.0523646134
 20
287.9233482821
 30
0.0
 11
68.0523646134
 21
287.9233482821
 31
0.0
  0
LINE
  5
98
330
1F
100
AcDbEntity
  8
FORMAT
 62
     1
370
    15
100
AcDbLine
 10
13.0523646134
 20
287.9233482821
 30
0.0
 11
13.0523646134
 21
283.1455907949
 31
0.0
  0
LINE
  5
99
330
1F
100
AcDbEntity
  8
FORMAT
100
AcDbLine
 10
249.9184892458
 20
27.3141150559
 30
0.0
 11
327.9184892458
 21
27.3141150559
 31
0.0
  0
LINE
  5
9A
330
1F
100
AcDbEntity
  8
FORMAT
100
AcDbLine
 10
249.9184892458
 20
22.8141150559
 30
0.0
 11
327.9184892458
 21
22.8141150559
 31
0.0
  0
LINE
  5
9B
330
1F
100
AcDbEntity
  8
FORMAT
 62
     1
370
    15
100
AcDbLine
 10
13.0523646134
 20
283.1455907949
 30
0.0
 11
68.0523646134
 21
283.1455907949
 31
0.0
  0
LINE
  5
9C
330
1F
100
AcDbEntity
  8
FORMAT
 62
     1
370
    15
100
AcDbLine
 10
68.0523646134
 20
287.9233482821
 30
0.0
 11
68.0523646134
 21
283.1455907949
 31
0.0
  0
LINE
  5
9D
330
1F
100
AcDbEntity
  8
FORMAT
370
     0
100
AcDbLine
 10
399.9795186953
 20
13.7445824386
 30
0.0
 11
399.9795186953
 21
11.0441941227
 31
0.0
  0
LINE
  5
9E
330
1F
100
AcDbEntity
  8
FORMAT
370
     0
100
AcDbLine
 10
409.3000561087
 20
14.7255104492
 30
0.0
 11
409.3000561087
 21
10.0632661122
 31
0.0
  0
LINE
  5
9F
330
1F
100
AcDbEntity
  8
FORMAT
370
     0
100
AcDbLine
 10
399.9795186953
 20
13.7445824386
 30
0.0
 11
409.3000561087
 21
14.7255104492
 31
0.0
  0
LINE
  5
A0
330
1F
100
AcDbEntity
  8
FORMAT
370
     0
100
AcDbLine
 10
399.9795186953
 20
11.0441941227
 30
0.0
 11
409.3000561087
 21
10.0632661122
 31
0.0
  0
LINE
  5
A1
330
1F
100
AcDbEntity
  8
FORMAT
100
AcDbLine
 10
327.9184892458
 20
40.3141150559
 30
0.0
 11
411.9184892458
 21
40.3141150559
 31
0.0
  0
LINE
  5
A2
330
1F
100
AcDbEntity
  8
FORMAT
100
AcDbLine
 10
249.9184892458
 20
27.3141150559
 30
0.0
 11
249.9184892458
 21
9.3141150559
 31
0.0
  0
LINE
  5
A3
330
1F
100
AcDbEntity
  8
FORMAT
100
AcDbLine
 10
249.9184892458
 20
18.3141150559
 30
0.0
 11
327.9184892458
 21
18.3141150559
 31
0.0
  0
LINE
  5
A4
330
1F
100
AcDbEntity
  8
FORMAT
100
AcDbLine
 10
327.9184892458
 20
13.8141150559
 30
0.0
 11
249.9184892458
 21
13.8141150559
 31
0.0
  0
LINE
  5
A5
330
1F
100
AcDbEntity
  8
FORMAT
100
AcDbLine
 10
269.9184892458
 20
27.3141150559
 30
0.0
 11
269.9184892458
 21
9.3141150559
 31
0.0
  0
LINE
  5
A6
330
1F
100
AcDbEntity
  8
FORMAT
100
AcDbLine
 10
309.9184892458
 20
27.3141150559
 30
0.0
 11
309.9184892458
 21
9.3141150559
 31
0.0
  0
LINE
  5
A7
330
1F
100
AcDbEntity
  8
図枠
100
AcDbLine
 10
411.9184892458
 20
289.3141150559
 30
0.0
 11
11.9184892458
 21
289.3141150559
 31
0.0
  0
LINE
  5
A8
330
1F
100
AcDbEntity
  8
図枠
100
AcDbLine
 10
11.9184892458
 20
289.3141150559
 30
0.0
 11
11.9184892458
 21
9.3141150559
 31
0.0
  0
LINE
  5
A9
330
1F
100
AcDbEntity
  8
図枠
100
AcDbLine
 10
11.9184892458
 20
9.3141150559
 30
0.0
 11
411.9184892458
 21
9.3141150559
 31
0.0
  0
LINE
  5
AA
330
1F
100
AcDbEntity
  8
図枠
100
AcDbLine
 10
411.9184892458
 20
9.3141150559
 30
0.0
 11
411.9184892458
 21
289.3141150559
 31
0.0
  0
CIRCLE
  5
AB
330
1F
100
AcDbEntity
  8
FORMAT
370
     0
100
AcDbCircle
 10
395.964747886
 20
12.4793871793
 30
0.0
 40
2.427182618669598
  0
CIRCLE
  5
AC
330
1F
100
AcDbEntity
  8
FORMAT
370
     0
100
AcDbCircle
 10
395.964747886
 20
12.4793871793
 30
0.0
 40
1.430897461777088
  0
INSERT
  5
AD
330
1F
100
AcDbEntity
  8
FORMAT
100
AcDbBlockReference
  2
三角３
 10
252.5028371227
 20
26.8341728143
 30
0.0
  0
INSERT
  5
AE
330
1F
100
AcDbEntity
  8
FORMAT
100
AcDbBlockReference
  2
三角２
 10
252.5055333315
 20
22.4193729312
 30
0.0
  0
INSERT
  5
AF
330
1F
100
AcDbEntity
  8
FORMAT
100
AcDbBlockReference
  2
三角１
 10
252.4373686317
 20
18.0113890119
 30
0.0
  0
MTEXT
  5
B0
330
1F
100
AcDbEntity
  8
FORMAT
100
AcDbMText
 10
357.1446379321
 20
20.6049837094
 30
0.0
 40
3.5
 41
0.0
 71
     3
 72
     1
  1
1:5
  7
SLDTEXTSTYLE0
 73
     1
 44
1.0
  0
MTEXT
  5
B1
330
1F
100
AcDbEntity
  8
FORMAT
100
AcDbMText
 10
345.3849055723
 20
29.0499412816
 30
0.0
 40
2.38125
 41
0.0
 71
     1
 72
     1
  1
2016/04/01
  7
SLDTEXTSTYLE0
 73
     1
 44
1.0
  0
MTEXT
  5
B2
330
1F
100
AcDbEntity
  8
FORMAT
 62
     7
100
AcDbMText
 10
343.3390382792
 20
15.6952012488
 30
0.0
 40
4.7625
 41
0.0
 71
     1
 72
     1
  1
IRIS OHYAMA
  7
SLDTEXTSTYLE0
 73
     1
 44
1.0
  0
MTEXT
  5
B3
330
1F
100
AcDbEntity
  8
FORMAT
100
AcDbMText
 10
363.1493823157
 20
20.179702684
 30
0.0
 40
2.6458333333
 41
0.0
 71
     1
 72
     1
  1
ultimate approve by
  7
SLDTEXTSTYLE0
 73
     1
 44
1.0
  0
MTEXT
  5
B4
330
1F
100
AcDbEntity
  8
FORMAT
100
AcDbMText
 10
369.5373827236
 20
24.5580704988
 30
0.0
 40
2.6458333333
 41
0.0
 71
     1
 72
     1
  1
approve by
  7
SLDTEXTSTYLE0
 73
     1
 44
1.0
  0
MTEXT
  5
B5
330
1F
100
AcDbEntity
  8
FORMAT
100
AcDbMText
 10
368.0866937585
 20
29.1301367632
 30
0.0
 40
2.6458333333
 41
0.0
 71
     1
 72
     1
  1
inspected by
  7
SLDTEXTSTYLE0
 73
     1
 44
1.0
  0
MTEXT
  5
B6
330
1F
100
AcDbEntity
  8
FORMAT
100
AcDbMText
 10
330.7181248932
 20
33.6195947371
 30
0.0
 40
2.6458333333
 41
0.0
 71
     1
 72
     1
  1
drawn by
  7
SLDTEXTSTYLE0
 73
     1
 44
1.0
  0
MTEXT
  5
B7
330
1F
100
AcDbEntity
  8
FORMAT
100
AcDbMText
 10
332.7237977344
 20
29.2957874166
 30
0.0
 40
2.6458333333
 41
0.0
 71
     1
 72
     1
  1
date
  7
SLDTEXTSTYLE0
 73
     1
 44
1.0
  0
MTEXT
  5
B8
330
1F
100
AcDbEntity
  8
FORMAT
100
AcDbMText
 10
328.2447586453
 20
24.3793940558
 30
0.0
 40
2.6458333333
 41
0.0
 71
     1
 72
     1
  1
sequential#
  7
SLDTEXTSTYLE0
 73
     1
 44
1.0
  0
MTEXT
  5
B9
330
1F
100
AcDbEntity
  8
FORMAT
100
AcDbMText
 10
250.9196324129
 20
37.5072588899
 30
0.0
 40
2.6458333333
 41
0.0
 71
     1
 72
     1
  1
material:
  7
SLDTEXTSTYLE0
 73
     1
 44
1.0
  0
MTEXT
  5
BA
330
1F
100
AcDbEntity
  8
FORMAT
100
AcDbMText
 10
332.6336611184
 20
20.1297392161
 30
0.0
 40
2.6458333333
 41
0.0
 71
     1
 72
     1
  1
scale
  7
SLDTEXTSTYLE0
 73
     1
 44
1.0
  0
MTEXT
  5
BB
330
1F
100
AcDbEntity
  8
FORMAT
100
AcDbMText
 10
329.2728120581
 20
39.0547790648
 30
0.0
 40
2.6458333333
 41
0.0
 71
     1
 72
     1
  1
part name
  7
SLDTEXTSTYLE0
 73
     1
 44
1.0
  0
MTEXT
  5
BC
330
1F
100
AcDbEntity
  8
FORMAT
100
AcDbMText
 10
328.6848411752
 20
45.0689598859
 30
0.0
 40
2.6458333333
 41
0.0
 71
     1
 72
     1
  1
description
  7
SLDTEXTSTYLE0
 73
     1
 44
1.0
  0
MTEXT
  5
BD
330
1F
100
AcDbEntity
  8
FORMAT
100
AcDbMText
 10
329.8488527705
 20
51.2351315927
 30
0.0
 40
2.6458333333
 41
0.0
 71
     1
 72
     1
  1
drawing#
  7
SLDTEXTSTYLE0
 73
     1
 44
1.0
  0
MTEXT
  5
BE
330
1F
100
AcDbEntity
  8
FORMAT
100
AcDbMText
 10
256.4288054471
 20
13.0074440692
 30
0.0
 40
2.1166666667
 41
0.0
 71
     1
 72
     1
  1
ＤＡＴＥ
  7
SLDTEXTSTYLE0
 73
     1
 44
1.0
  0
MTEXT
  5
BF
330
1F
100
AcDbEntity
  8
FORMAT
100
AcDbMText
 10
278.5414535165
 20
13.062728981
 30
0.0
 40
2.1166666667
 41
0.0
 71
     1
 72
     1
  1
ＲＥＶＩＳＩＯＮＳ
  7
SLDTEXTSTYLE0
 73
     1
 44
1.0
  0
MTEXT
  5
C0
330
1F
100
AcDbEntity
  8
FORMAT
100
AcDbMText
 10
313.7595496542
 20
12.7919497978
 30
0.0
 40
2.1166666667
 41
0.0
 71
     1
 72
     1
  1
ＮＡＭＥ
  7
SLDTEXTSTYLE0
 73
     1
 44
1.0
  0
MTEXT
  5
C1
330
1F
100
AcDbEntity
  8
FORMAT
100
AcDbMText
 10
250.7202036515
 20
32.0430453656
 30
0.0
 40
2.6458333333
 41
0.0
 71
     1
 72
     1
  1
surface finish:
  7
SLDTEXTSTYLE0
 73
     1
 44
1.0
  0
MTEXT
  5
C2
330
1F
100
AcDbEntity
  8
FORMAT
100
AcDbMText
 10
13.7299660019
 20
287.9177418385
 30
0.0
 40
3.5
 41
0.0
 71
     1
 72
     1
  1
For your eyes only/Do not copy
  7
SLDTEXTSTYLE0
 73
     1
 44
1.0
  0
MTEXT
  5
C3
330
1F
100
AcDbEntity
  8
FORMAT
100
AcDbMText
 10
356.5337341316
 20
25.3963952686
 30
0.0
 40
3.5
 41
0.0
 71
     1
 72
     1
  1
1
  7
SLDTEXTSTYLE0
 73
     1
 44
1.0
  0
MTEXT
  5
C4
330
1F
100
AcDbEntity
  8
FORMAT
100
AcDbMText
 10
349.1209107346
 20
25.3191618019
 30
0.0
 40
3.5
 41
0.0
 71
     1
 72
     1
  1
1
  7
SLDTEXTSTYLE0
 73
     1
 44
1.0
  0
MTEXT
  5
C5
330
1F
100
AcDbEntity
  8
FORMAT
100
AcDbMText
 10
353.1402567606
 20
25.3726998767
 30
0.0
 40
3.5
 41
0.0
 71
     1
 72
     1
  1
/
  7
SLDTEXTSTYLE0
 73
     1
 44
1.0
  0
LINE
  5
C6
330
1F
100
AcDbEntity
  8
0
  6
Continuous
 62
     7
370
    15
100
AcDbLine
 10
251.7259253026
 20
200.4557604716
 30
0.0
 11
309.284110361
 21
167.2281275074
 31
0.0
  0
LINE
  5
C7
330
1F
100
AcDbEntity
  8
0
  6
Continuous
 62
     7
370
    15
100
AcDbLine
 10
232.7754636216
 20
189.5158918048
 30
0.0
 11
290.33364868
 21
156.2882588406
 31
0.0
  0
LINE
  5
C8
330
1F
100
AcDbEntity
  8
0
  6
Continuous
 62
     7
370
    15
100
AcDbLine
 10
272.6321524832
 20
223.4202028587
 30
0.0
 11
206.052969766
 21
184.9848587954
 31
0.0
  0
LINE
  5
C9
330
1F
100
AcDbEntity
  8
0
  6
Continuous
 62
     7
370
    15
100
AcDbLine
 10
212.2623638047
 20
177.6739317743
 30
0.0
 11
272.8321350647
 21
212.6401164465
 31
0.0
  0
LINE
  5
CA
330
1F
100
AcDbEntity
  8
0
  6
Continuous
 62
     7
370
    15
100
AcDbLine
 10
206.052969766
 20
177.5823956741
 30
0.0
 11
272.6321524832
 21
139.1470516108
 31
0.0
  0
LINE
  5
CB
330
1F
100
AcDbEntity
  8
0
  6
Continuous
 62
     7
370
    15
100
AcDbLine
 10
273.0321176462
 20
139.1470516108
 30
0.0
 11
339.6113003633
 21
177.5823956741
 31
0.0
  0
LINE
  5
CC
330
1F
100
AcDbEntity
  8
0
  6
Continuous
 62
     7
370
    15
100
AcDbLine
 10
339.6113003633
 20
184.9848587954
 30
0.0
 11
273.0321176462
 21
223.4202028587
 31
0.0
  0
LINE
  5
CD
330
1F
100
AcDbEntity
  8
0
  6
Continuous
 62
     7
370
    15
100
AcDbLine
 10
272.8321350647
 20
212.6401164465
 30
0.0
 11
333.4019063247
 21
177.6739317743
 31
0.0
  0
LINE
  5
CE
330
1F
100
AcDbEntity
  8
0
  6
Continuous
 62
     7
370
    15
100
AcDbLine
 10
299.8367878465
 20
169.5571389302
 30
0.0
 11
249.0194664792
 21
198.8933541166
 31
0.0
  0
LINE
  5
CF
330
1F
100
AcDbEntity
  8
0
  6
Continuous
 62
     7
370
    15
100
AcDbLine
 10
242.0664745385
 20
194.8794772673
 30
0.0
 11
254.3227254019
 21
187.8040942476
 31
0.0
  0
LINE
  5
D0
330
1F
100
AcDbEntity
  8
0
  6
Continuous
 62
     7
370
    15
100
AcDbLine
 10
254.9485850289
 20
187.4427931755
 30
0.0
 11
294.7342469677
 21
164.475019421
 31
0.0
  0
LINE
  5
D1
330
1F
100
AcDbEntity
  8
0
  6
Continuous
 62
     7
370
    15
100
AcDbLine
 10
280.8863261655
 20
158.6172702634
 30
0.0
 11
230.0690047982
 21
187.9534854499
 31
0.0
  0
LINE
  5
D2
330
1F
100
AcDbEntity
  8
0
  6
Continuous
 62
     7
370
    15
100
AcDbLine
 10
223.1160118039
 20
183.9396079922
 30
0.0
 11
235.3722626673
 21
176.8642249725
 31
0.0
  0
LINE
  5
D3
330
1F
100
AcDbEntity
  8
0
  6
Continuous
 62
     7
370
    15
100
AcDbLine
 10
235.9981222942
 20
176.5029239004
 30
0.0
 11
275.783784233
 21
153.5351501459
 31
0.0
  0
LINE
  5
D4
330
1F
100
AcDbEntity
  8
0
  6
Continuous
 62
     7
370
    15
100
AcDbLine
 10
318.7872505812
 20
180.4970082053
 30
0.0
 11
267.9699292138
 21
209.8332233917
 31
0.0
  0
LINE
  5
D5
330
1F
100
AcDbEntity
  8
0
  6
Continuous
 62
     7
370
    15
100
AcDbLine
 10
261.0169362195
 20
205.8193459341
 30
0.0
 11
273.273187083
 21
198.7439629144
 31
0.0
  0
LINE
  5
D6
330
1F
100
AcDbEntity
  8
0
  6
Continuous
 62
     7
370
    15
100
AcDbLine
 10
273.8990467099
 20
198.3826618423
 30
0.0
 11
313.6847086487
 21
175.4148880878
 31
0.0
  0
SPLINE
  5
D7
330
1F
100
AcDbEntity
  8
0
  6
Continuous
 62
     7
370
    15
100
AcDbSpline
210
0.0
220
0.0
230
1.0
 70
     8
 71
     3
 72
    12
 73
     8
 74
     0
 42
0.000000001
 43
0.00000001
 40
0.0
 40
0.0
 40
0.0
 40
0.0
 40
0.1119359235616824
 40
0.3437758000401315
 40
0.578189223650443
 40
0.8176166654711391
 40
1.0
 40
1.0
 40
1.0
 40
1.0
 10
318.8037004961365
 20
181.2160734241302
 30
0.0
 10
318.7683266431929
 20
181.2336348591617
 30
0.0
 10
318.6596870375218
 20
181.2875692547132
 30
0.0
 10
318.4495221827046
 20
181.3167895168633
 30
0.0
 10
318.1837509678438
 20
181.3044557741546
 30
0.0
 10
317.9270109649526
 20
181.2434771221776
 30
0.0
 10
317.760479149701
 20
181.1651736451238
 30
0.0
 10
317.6884738111139
 20
181.1313166408673
 30
0.0
  0
LINE
  5
D8
330
1F
100
AcDbEntity
  8
0
  6
Continuous
 62
     7
370
    15
100
AcDbLine
 10
321.248495879
 20
179.7691529227
 30
0.0
 11
318.9086250755
 21
181.1704202036
 31
0.0
  0
SPLINE
  5
D9
330
1F
100
AcDbEntity
  8
0
  6
Continuous
 62
     7
370
    15
100
AcDbSpline
210
0.0
220
0.0
230
1.0
 70
     8
 71
     3
 72
    10
 73
     6
 74
     0
 42
0.000000001
 43
0.00000001
 40
0.0
 40
0.0
 40
0.0
 40
0.0
 40
0.3252056055055374
 40
0.6803160677306198
 40
0.9999999999999999
 40
0.9999999999999999
 40
0.9999999999999999
 40
0.9999999999999999
 10
323.668270785182
 20
177.2284557074306
 30
0.0
 10
323.6957148380009
 20
177.2472851663368
 30
0.0
 10
323.7531266100619
 20
177.2866755803509
 30
0.0
 10
323.8128420868507
 20
177.3741399693558
 30
0.0
 10
323.821699556519
 20
177.4433591009339
 30
0.0
 10
323.8258957839279
 20
177.4761516735334
 30
0.0
  0
LINE
  5
DA
330
1F
100
AcDbEntity
  8
0
  6
Continuous
 62
     7
370
    15
100
AcDbLine
 10
323.8268567321
 20
177.4830974763
 30
0.0
 11
323.8268567321
 21
177.6843542846
 31
0.0
  0
SPLINE
  5
DB
330
1F
100
AcDbEntity
  8
0
  6
Continuous
 62
     7
370
    15
100
AcDbSpline
210
0.0
220
0.0
230
1.0
 70
     8
 71
     3
 72
    13
 73
     9
 74
     0
 42
0.000000001
 43
0.00000001
 40
0.0
 40
0.0
 40
0.0
 40
0.0
 40
0.0730910380885025
 40
0.2805952477372186
 40
0.4872045858015553
 40
0.6907274969048921
 40
0.8893549108651141
 40
1.0
 40
1.0
 40
1.0
 40
1.0
 10
312.6302650949412
 20
176.0236056262208
 30
0.0
 10
312.6315390970149
 20
175.9845118130126
 30
0.0
 10
312.6364299692318
 20
175.8344313313417
 30
0.0
 10
312.6944983882141
 20
175.6028555027394
 30
0.0
 10
312.8040789158715
 20
175.3383403965054
 30
0.0
 10
312.963556458338
 20
175.1254017923935
 30
0.0
 10
313.1291981772337
 20
174.9799980428159
 30
0.0
 10
313.2506869381063
 20
174.9307719710966
 30
0.0
 10
313.2941506623014
 20
174.9131608901288
 30
0.0
  0
LINE
  5
DC
330
1F
100
AcDbEntity
  8
0
  6
Continuous
 62
     7
370
    15
100
AcDbLine
 10
313.2046792249
 20
174.9485230249
 30
0.0
 11
315.4368532401
 21
173.7071963459
 31
0.0
  0
LINE
  5
DD
330
1F
100
AcDbEntity
  8
0
  6
Continuous
 62
     7
370
    15
100
AcDbLine
 10
323.4353082947
 20
177.0939693243
 30
0.0
 11
323.6682707852
 21
177.2284557074
 31
0.0
  0
LINE
  5
DE
330
1F
100
AcDbEntity
  8
0
  6
Continuous
 62
     7
370
    15
100
AcDbLine
 10
319.0771429272
 20
173.2289801994
 30
0.0
 11
321.1033526694
 21
174.3986861857
 31
0.0
  0
LINE
  5
DF
330
1F
100
AcDbEntity
  8
0
  6
Continuous
 62
     7
370
    15
100
AcDbLine
 10
316.7639658303
 20
173.9973790819
 30
0.0
 11
317.2265949277
 21
174.2644491751
 31
0.0
  0
SPLINE
  5
E0
330
1F
100
AcDbEntity
  8
0
  6
Continuous
 62
     7
370
    15
100
AcDbSpline
210
0.0
220
0.0
230
1.0
 70
     8
 71
     3
 72
    11
 73
     7
 74
     0
 42
0.000000001
 43
0.00000001
 40
0.0
 40
0.0
 40
0.0
 40
0.0
 40
0.1265033551314248
 40
0.4330011419902502
 40
0.7069618970826483
 40
1.0
 40
1.0
 40
1.0
 40
1.0
 10
317.2254401040036
 20
174.2633577623019
 30
0.0
 10
317.226425927308
 20
174.2640908503843
 30
0.0
 10
317.2298002458481
 20
174.2666000959021
 30
0.0
 10
317.2349300973453
 20
174.2679401217344
 30
0.0
 10
317.2386485447623
 20
174.2685986834611
 30
0.0
 10
317.2389113765224
 20
174.2685723973437
 30
0.0
 10
317.2390472140453
 20
174.2685588120713
 30
0.0
  0
SPLINE
  5
E1
330
1F
100
AcDbEntity
  8
0
  6
Continuous
 62
     7
370
    15
100
AcDbSpline
210
0.0
220
0.0
230
1.0
 70
     8
 71
     3
 72
    10
 73
     6
 74
     0
 42
0.000000001
 43
0.00000001
 40
0.0
 40
0.0
 40
0.0
 40
0.0
 40
0.3005670645069557
 40
0.8563398561435844
 40
1.0
 40
1.0
 40
1.0
 40
1.0
 10
318.8667521815088
 20
173.2417160454542
 30
0.0
 10
318.892768347835
 20
173.2365139388433
 30
0.0
 10
318.9668905081116
 20
173.2216927167173
 30
0.0
 10
319.0249931385846
 20
173.207655515472
 30
0.0
 10
319.0649683093187
 20
173.2260427172746
 30
0.0
 10
319.0731790161454
 20
173.2298193596402
 30
0.0
  0
LINE
  5
E2
330
1F
100
AcDbEntity
  8
0
  6
Continuous
 62
     7
370
    15
100
AcDbLine
 10
318.7400123934
 20
173.2710294856
 30
0.0
 11
318.8667521815
 21
173.2417160455
 31
0.0
  0
SPLINE
  5
E3
330
1F
100
AcDbEntity
  8
0
  6
Continuous
 62
     7
370
    15
100
AcDbSpline
210
0.0
220
0.0
230
1.0
 70
     8
 71
     3
 72
    12
 73
     8
 74
     0
 42
0.000000001
 43
0.00000001
 40
0.0
 40
0.0
 40
0.0
 40
0.0
 40
0.1119364730800295
 40
0.3437758457302464
 40
0.5781898716909899
 40
0.8176170601359165
 40
1.0
 40
1.0
 40
1.0
 40
1.0
 10
299.8532390785457
 20
170.2762049094039
 30
0.0
 10
299.8178649429655
 20
170.2937661399374
 30
0.0
 10
299.7092249881641
 20
170.3476996498347
 30
0.0
 10
299.4990605153518
 20
170.3769215338767
 30
0.0
 10
299.2332891547251
 20
170.3645866451669
 30
0.0
 10
298.9765493493254
 20
170.3036085103226
 30
0.0
 10
298.8100178246833
 20
170.2253051924078
 30
0.0
 10
298.738012656941
 20
170.1914482782088
 30
0.0
  0
LINE
  5
E4
330
1F
100
AcDbEntity
  8
0
  6
Continuous
 62
     7
370
    15
100
AcDbLine
 10
302.2980347248
 20
168.8292845601
 30
0.0
 11
299.9581631311
 21
170.2305513847
 31
0.0
  0
SPLINE
  5
E5
330
1F
100
AcDbEntity
  8
0
  6
Continuous
 62
     7
370
    15
100
AcDbSpline
210
0.0
220
0.0
230
1.0
 70
     8
 71
     3
 72
    10
 73
     6
 74
     0
 42
0.000000001
 43
0.00000001
 40
0.0
 40
0.0
 40
0.0
 40
0.0
 40
0.3252120762522394
 40
0.680319389771011
 40
0.9999999999999999
 40
0.9999999999999999
 40
0.9999999999999999
 40
0.9999999999999999
 10
304.7178085773379
 20
166.2885867365007
 30
0.0
 10
304.74525320799
 20
166.3074163965024
 30
0.0
 10
304.8026653268539
 20
166.3468066397848
 30
0.0
 10
304.8623807785987
 20
166.4342714514106
 30
0.0
 10
304.8712374614016
 20
166.5034901902907
 30
0.0
 10
304.875433312666
 20
166.5362825505356
 30
0.0
  0
LINE
  5
E6
330
1F
100
AcDbEntity
  8
0
  6
Continuous
 62
     7
370
    15
100
AcDbLine
 10
304.8763950511
 20
166.5432288095
 30
0.0
 11
304.8763950511
 21
166.7444856178
 31
0.0
  0
SPLINE
  5
E7
330
1F
100
AcDbEntity
  8
0
  6
Continuous
 62
     7
370
    15
100
AcDbSpline
210
0.0
220
0.0
230
1.0
 70
     8
 71
     3
 72
    13
 73
     9
 74
     0
 42
0.000000001
 43
0.00000001
 40
0.0
 40
0.0
 40
0.0
 40
0.0
 40
0.0730910547920777
 40
0.2805953475587364
 40
0.4872047978066831
 40
0.6907275689861178
 40
0.8893550283388809
 40
1.0
 40
1.0
 40
1.0
 40
1.0
 10
293.6798031505148
 20
165.0837368073587
 30
0.0
 10
293.6810771491582
 20
165.0446429919897
 30
0.0
 10
293.6859680088285
 20
164.8945624829306
 30
0.0
 10
293.7440366865899
 20
164.662986761651
 30
0.0
 10
293.853617648737
 20
164.3984722429109
 30
0.0
 10
294.0130944009944
 20
164.1855326813705
 30
0.0
 10
294.1787362532459
 20
164.0401293992402
 30
0.0
 10
294.3002248315823
 20
163.9909030756738
 30
0.0
 10
294.3436884544573
 20
163.9732919191989
 30
0.0
  0
LINE
  5
E8
330
1F
100
AcDbEntity
  8
0
  6
Continuous
 62
     7
370
    15
100
AcDbLine
 10
294.2542170171
 20
164.008654054
 30
0.0
 11
296.4863912956
 21
162.7673275271
 31
0.0
  0
LINE
  5
E9
330
1F
100
AcDbEntity
  8
0
  6
Continuous
 62
     7
370
    15
100
AcDbLine
 10
304.4848460869
 20
166.1541003534
 30
0.0
 11
304.7178085773
 21
166.2885867365
 31
0.0
  0
LINE
  5
EA
330
1F
100
AcDbEntity
  8
0
  6
Continuous
 62
     7
370
    15
100
AcDbLine
 10
300.1266818389
 20
162.2891118748
 30
0.0
 11
302.1528909884
 21
163.4588175189
 31
0.0
  0
LINE
  5
EB
330
1F
100
AcDbEntity
  8
0
  6
Continuous
 62
     7
370
    15
100
AcDbLine
 10
297.8135044127
 20
163.0575105672
 30
0.0
 11
298.2761332466
 21
163.3245805083
 31
0.0
  0
SPLINE
  5
EC
330
1F
100
AcDbEntity
  8
0
  6
Continuous
 62
     7
370
    15
100
AcDbSpline
210
0.0
220
0.0
230
1.0
 70
     8
 71
     3
 72
    11
 73
     7
 74
     0
 42
0.000000001
 43
0.00000001
 40
0.0
 40
0.0
 40
0.0
 40
0.0
 40
0.1264956243694589
 40
0.4330001381880558
 40
0.7069740159702047
 40
0.9999999999999999
 40
0.9999999999999999
 40
0.9999999999999999
 40
0.9999999999999999
 10
298.2749779620138
 20
163.3234888293889
 30
0.0
 10
298.2759635295019
 20
163.3242217655055
 30
0.0
 10
298.2793371707694
 20
163.3267306383722
 30
0.0
 10
298.2844693150076
 20
163.3280719337099
 30
0.0
 10
298.2881850419718
 20
163.3287290176916
 30
0.0
 10
298.2884488615794
 20
163.3287032644752
 30
0.0
 10
298.2885852037645
 20
163.3286899551922
 30
0.0
  0
SPLINE
  5
ED
330
1F
100
AcDbEntity
  8
0
  6
Continuous
 62
     7
370
    15
100
AcDbSpline
210
0.0
220
0.0
230
1.0
 70
     8
 71
     3
 72
    10
 73
     6
 74
     0
 42
0.000000001
 43
0.00000001
 40
0.0
 40
0.0
 40
0.0
 40
0.0
 40
0.300566322218723
 40
0.856341154259654
 40
1.0
 40
1.0
 40
1.0
 40
1.0
 10
299.916290763918
 20
162.3018475307279
 30
0.0
 10
299.942306661647
 20
162.2966452504971
 30
0.0
 10
300.0164283520806
 20
162.2818234746418
 30
0.0
 10
300.074531514774
 20
162.2677870077324
 30
0.0
 10
300.114505941971
 20
162.2861736676717
 30
0.0
 10
300.1227164131745
 20
162.2899501606085
 30
0.0
  0
LINE
  5
EE
330
1F
100
AcDbEntity
  8
0
  6
Continuous
 62
     7
370
    15
100
AcDbLine
 10
299.7895507123
 20
162.3311608188
 30
0.0
 11
299.9162907639
 21
162.3018475307
 31
0.0
  0
SPLINE
  5
EF
330
1F
100
AcDbEntity
  8
0
  6
Continuous
 62
     7
370
    15
100
AcDbSpline
210
0.0
220
0.0
230
1.0
 70
     8
 71
     3
 72
    12
 73
     8
 74
     0
 42
0.000000001
 43
0.00000001
 40
0.0
 40
0.0
 40
0.0
 40
0.0
 40
0.1119367190097771
 40
0.3437760536962723
 40
0.5781897115036919
 40
0.8176173925308875
 40
1.0
 40
1.0
 40
1.0
 40
1.0
 10
280.9027771341194
 20
159.3363360905418
 30
0.0
 10
280.8674029050837
 20
159.3538972573798
 30
0.0
 10
280.7587628362304
 20
159.4078304857903
 30
0.0
 10
280.5485987132178
 20
159.4370526853971
 30
0.0
 10
280.2828275525339
 20
159.4247183042631
 30
0.0
 10
280.026087976934
 20
159.3637398756173
 30
0.0
 10
279.8595564939313
 20
159.2854366955741
 30
0.0
 10
279.7875515027681
 20
159.2515799155503
 30
0.0
  0
LINE
  5
F0
330
1F
100
AcDbEntity
  8
0
  6
Continuous
 62
     7
370
    15
100
AcDbLine
 10
283.347572517
 20
157.8894155892
 30
0.0
 11
281.0077017135
 21
159.29068287
 31
0.0
  0
SPLINE
  5
F1
330
1F
100
AcDbEntity
  8
0
  6
Continuous
 62
     7
370
    15
100
AcDbSpline
210
0.0
220
0.0
230
1.0
 70
     8
 71
     3
 72
    10
 73
     6
 74
     0
 42
0.000000001
 43
0.00000001
 40
0.0
 40
0.0
 40
0.0
 40
0.0
 40
0.3252138838296886
 40
0.6803197663323564
 40
1.0
 40
1.0
 40
1.0
 40
1.0
 10
285.7673463694937
 20
155.3487177655708
 30
0.0
 10
285.7947912003743
 20
155.3675474895008
 30
0.0
 10
285.8522034507734
 20
155.4069376693828
 30
0.0
 10
285.911918834748
 20
155.4944027661688
 30
0.0
 10
285.9207755128874
 20
155.5636213809877
 30
0.0
 10
285.9249713682397
 20
155.5964137316736
 30
0.0
  0
LINE
  5
F2
330
1F
100
AcDbEntity
  8
0
  6
Continuous
 62
     7
370
    15
100
AcDbLine
 10
285.9259333701
 20
155.6033601427
 30
0.0
 11
285.9259333701
 21
155.804616951
 31
0.0
  0
SPLINE
  5
F3
330
1F
100
AcDbEntity
  8
0
  6
Continuous
 62
     7
370
    15
100
AcDbSpline
210
0.0
220
0.0
230
1.0
 70
     8
 71
     3
 72
    13
 73
     9
 74
     0
 42
0.000000001
 43
0.00000001
 40
0.0
 40
0.0
 40
0.0
 40
0.0
 40
0.0730910635550369
 40
0.2805952027173753
 40
0.4872048726377453
 40
0.690727481783033
 40
0.8893554433515588
 40
1.0
 40
1.0
 40
1.0
 40
1.0
 10
274.7293417329241
 20
154.1438682926324
 30
0.0
 10
274.7306157631324
 20
154.104774504344
 30
0.0
 10
274.7355067408687
 20
153.9546941947105
 30
0.0
 10
274.7935731762573
 20
153.72311654874
 30
0.0
 10
274.9031562227123
 20
153.4586042615236
 30
0.0
 10
275.0626316009856
 20
153.2456625620678
 30
0.0
 10
275.2282747883737
 20
153.1002616292153
 30
0.0
 10
275.3497629486006
 20
153.0510343688634
 30
0.0
 10
275.3932262466131
 20
153.0334229482689
 30
0.0
  0
LINE
  5
F4
330
1F
100
AcDbEntity
  8
0
  6
Continuous
 62
     7
370
    15
100
AcDbLine
 10
275.3037548093
 20
153.068785083
 30
0.0
 11
277.5359298781
 21
151.8274590123
 31
0.0
  0
LINE
  5
F5
330
1F
100
AcDbEntity
  8
0
  6
Continuous
 62
     7
370
    15
100
AcDbLine
 10
285.534383879
 20
155.2142313825
 30
0.0
 11
285.7673463695
 21
155.3487177656
 31
0.0
  0
LINE
  5
F6
330
1F
100
AcDbEntity
  8
0
  6
Continuous
 62
     7
370
    15
100
AcDbLine
 10
281.1762206189
 20
151.3492434741
 30
0.0
 11
283.2024282537
 21
152.5189482438
 31
0.0
  0
LINE
  5
F7
330
1F
100
AcDbEntity
  8
0
  6
Continuous
 62
     7
370
    15
100
AcDbLine
 10
278.8630435219
 20
152.1176423566
 30
0.0
 11
279.325670512
 21
152.3847112332
 31
0.0
  0
SPLINE
  5
F8
330
1F
100
AcDbEntity
  8
0
  6
Continuous
 62
     7
370
    15
100
AcDbSpline
210
0.0
220
0.0
230
1.0
 70
     8
 71
     3
 72
    11
 73
     7
 74
     0
 42
0.000000001
 43
0.00000001
 40
0.0
 40
0.0
 40
0.0
 40
0.0
 40
0.1265033551314248
 40
0.4330011419902502
 40
0.7069618970826483
 40
1.0
 40
1.0
 40
1.0
 40
1.0
 10
279.3245156883153
 20
152.383619820442
 30
0.0
 10
279.3255015116197
 20
152.3843529085244
 30
0.0
 10
279.3288758301598
 20
152.3868621540422
 30
0.0
 10
279.3340056816571
 20
152.3882021798746
 30
0.0
 10
279.337724129074
 20
152.3888607416013
 30
0.0
 10
279.3379869608341
 20
152.3888344554839
 30
0.0
 10
279.338122798357
 20
152.3888208702114
 30
0.0
  0
SPLINE
  5
F9
330
1F
100
AcDbEntity
  8
0
  6
Continuous
 62
     7
370
    15
100
AcDbSpline
210
0.0
220
0.0
230
1.0
 70
     8
 71
     3
 72
    10
 73
     6
 74
     0
 42
0.000000001
 43
0.00000001
 40
0.0
 40
0.0
 40
0.0
 40
0.0
 40
0.3005633319358066
 40
0.8563390894915138
 40
1.0
 40
1.0
 40
1.0
 40
1.0
 10
280.9658298731629
 20
151.3619793201372
 30
0.0
 10
280.9918452566301
 20
151.3567767113782
 30
0.0
 10
281.0659660405846
 20
151.3419538877856
 30
0.0
 10
281.1240687468033
 20
151.3279176272623
 30
0.0
 10
281.164043897704
 20
151.3463047845565
 30
0.0
 10
281.1722546004572
 20
151.3500814177803
 30
0.0
  0
LINE
  5
FA
330
1F
100
AcDbEntity
  8
0
  6
Continuous
 62
     7
370
    15
100
AcDbLine
 10
280.8390879777
 20
151.3912915437
 30
0.0
 11
280.9658298732
 21
151.3619793201
 31
0.0
  0
LINE
  5
FB
330
1F
100
AcDbEntity
  8
0
  6
Continuous
 62
     7
370
    15
100
AcDbLine
 10
324.5223429528
 20
174.8324934794
 30
0.0
 11
324.8758960062
 21
175.0365953127
 31
0.0
  0
LINE
  5
FC
330
1F
100
AcDbEntity
  8
0
  6
Continuous
 62
     7
370
    15
100
AcDbLine
 10
321.2976559631
 20
180.2806060782
 30
0.0
 11
320.9439954352
 21
180.4847699552
 31
0.0
  0
LINE
  5
FD
330
1F
100
AcDbEntity
  8
0
  6
Continuous
 62
     7
370
    15
100
AcDbLine
 10
317.6634059193
 20
170.872913412
 30
0.0
 11
318.0169600264
 21
171.0770158536
 31
0.0
  0
LINE
  5
FE
330
1F
100
AcDbEntity
  8
0
  6
Continuous
 62
     7
370
    15
100
AcDbLine
 10
286.6214185371
 20
152.9527555375
 30
0.0
 11
286.9749726442
 21
153.1568579791
 31
0.0
  0
LINE
  5
FF
330
1F
100
AcDbEntity
  8
0
  6
Continuous
 62
     7
370
    15
100
AcDbLine
 10
283.3967315474
 20
158.4008681363
 30
0.0
 11
283.0430710195
 21
158.6050320133
 31
0.0
  0
LINE
  5
100
330
1F
100
AcDbEntity
  8
0
  6
Continuous
 62
     7
370
    15
100
AcDbLine
 10
279.7624825573
 20
148.9931760784
 30
0.0
 11
280.1160356107
 21
149.1972779117
 31
0.0
  0
LINE
  5
101
330
1F
100
AcDbEntity
  8
0
  6
Continuous
 62
     7
370
    15
100
AcDbLine
 10
305.5718804815
 20
163.8926243564
 30
0.0
 11
305.9254337984
 21
164.0967263418
 31
0.0
  0
LINE
  5
102
330
1F
100
AcDbEntity
  8
0
  6
Continuous
 62
     7
370
    15
100
AcDbLine
 10
302.3471932284
 20
169.3407368031
 30
0.0
 11
301.9935327005
 21
169.5449006801
 31
0.0
  0
LINE
  5
103
330
1F
100
AcDbEntity
  8
0
  6
Continuous
 62
     7
370
    15
100
AcDbLine
 10
298.7129447651
 20
159.9330450493
 30
0.0
 11
299.066498082
 21
160.1371470347
 31
0.0
  0
LINE
  5
104
330
1F
100
AcDbEntity
  8
0
  6
Continuous
 62
     7
370
    15
100
AcDbLine
 10
318.6465791522
 20
173.0516998543
 30
0.0
 11
316.8862001203
 21
174.067945038
 31
0.0
  0
LINE
  5
105
330
1F
100
AcDbEntity
  8
0
  6
Continuous
 62
     7
370
    15
100
AcDbLine
 10
280.7456568439
 20
151.171963129
 30
0.0
 11
278.985277812
 21
152.1882083127
 31
0.0
  0
LINE
  5
106
330
1F
100
AcDbEntity
  8
0
  6
Continuous
 62
     7
370
    15
100
AcDbLine
 10
299.6961176029
 20
162.1118312635
 30
0.0
 11
297.935738571
 21
163.1280764473
 31
0.0
  0
LINE
  5
107
330
1F
100
AcDbEntity
  8
0
  6
Continuous
 62
     7
370
    15
100
AcDbLine
 10
324.0345311134
 20
176.1674224034
 30
0.0
 11
323.9638213457
 21
176.1266025234
 31
0.0
  0
LINE
  5
108
330
1F
100
AcDbEntity
  8
0
  6
Continuous
 62
     7
370
    15
100
AcDbLine
 10
317.8669720366
 20
171.3368300483
 30
0.0
 11
317.9298498662
 21
171.3731286467
 31
0.0
  0
LINE
  5
109
330
1F
100
AcDbEntity
  8
0
  6
Continuous
 62
     7
370
    15
100
AcDbLine
 10
305.084069169
 20
165.2275535846
 30
0.0
 11
305.013358611
 21
165.1867332483
 31
0.0
  0
LINE
  5
10A
330
1F
100
AcDbEntity
  8
0
  6
Continuous
 62
     7
370
    15
100
AcDbLine
 10
298.9165100922
 20
160.3969612295
 30
0.0
 11
298.9793876584
 21
160.4332596758
 31
0.0
  0
LINE
  5
10B
330
1F
100
AcDbEntity
  8
0
  6
Continuous
 62
     7
370
    15
100
AcDbLine
 10
286.1336077514
 20
154.2876850698
 30
0.0
 11
286.06289693
 21
154.2468645815
 31
0.0
  0
LINE
  5
10C
330
1F
100
AcDbEntity
  8
0
  6
Continuous
 62
     7
370
    15
100
AcDbLine
 10
279.9660476209
 20
149.4570921065
 30
0.0
 11
280.0289265042
 21
149.4933913131
 31
0.0
  0
LINE
  5
10D
330
1F
100
AcDbEntity
  8
0
  6
Continuous
 62
     7
370
    15
100
AcDbLine
 10
278.0785484255
 20
200.5099557818
 30
0.0
 11
278.1270636629
 21
200.6183530854
 31
0.0
  0
LINE
  5
10E
330
1F
100
AcDbEntity
  8
0
  6
Continuous
 62
     7
370
    15
100
AcDbLine
 10
277.1200669238
 20
200.9159524537
 30
0.0
 11
277.6857524415
 21
200.5893891554
 31
0.0
  0
LINE
  5
10F
330
1F
100
AcDbEntity
  8
0
  6
Continuous
 62
     7
370
    15
100
AcDbLine
 10
272.9828469266
 20
197.920454325
 30
0.0
 11
273.0313621639
 21
197.8680715222
 31
0.0
  0
LINE
  5
110
330
1F
100
AcDbEntity
  8
0
  6
Continuous
 62
     7
370
    15
100
AcDbLine
 10
276.769287133
 20
204.8392647641
 30
0.0
 11
275.9207593833
 21
205.3291094073
 31
0.0
  0
LINE
  5
111
330
1F
100
AcDbEntity
  8
0
  6
Continuous
 62
     7
370
    15
100
AcDbLine
 10
259.1280870079
 20
189.5700872671
 30
0.0
 11
259.176601455
 21
189.6784841144
 31
0.0
  0
LINE
  5
112
330
1F
100
AcDbEntity
  8
0
  6
Continuous
 62
     7
370
    15
100
AcDbLine
 10
258.169606033
 20
189.9760842431
 30
0.0
 11
258.7352915507
 21
189.6495209448
 31
0.0
  0
LINE
  5
113
330
1F
100
AcDbEntity
  8
0
  6
Continuous
 62
     7
370
    15
100
AcDbLine
 10
254.0323857724
 20
186.9805859623
 30
0.0
 11
254.0808999561
 21
186.9282025512
 31
0.0
  0
LINE
  5
114
330
1F
100
AcDbEntity
  8
0
  6
Continuous
 62
     7
370
    15
100
AcDbLine
 10
257.8188248593
 20
193.8993957551
 30
0.0
 11
256.9702971096
 21
194.3892403984
 31
0.0
  0
LINE
  5
115
330
1F
100
AcDbEntity
  8
0
  6
Continuous
 62
     7
370
    15
100
AcDbLine
 10
240.1776250635
 20
178.6302184483
 30
0.0
 11
240.2261392472
 21
178.7386151435
 31
0.0
  0
LINE
  5
116
330
1F
100
AcDbEntity
  8
0
  6
Continuous
 62
     7
370
    15
100
AcDbLine
 10
239.2191446155
 20
179.0362157284
 30
0.0
 11
239.7848301331
 21
178.7096524301
 31
0.0
  0
LINE
  5
117
330
1F
100
AcDbEntity
  8
0
  6
Continuous
 62
     7
370
    15
100
AcDbLine
 10
235.0819235646
 20
176.0407169914
 30
0.0
 11
235.1304388019
 21
175.9883341886
 31
0.0
  0
LINE
  5
118
330
1F
100
AcDbEntity
  8
0
  6
Continuous
 62
     7
370
    15
100
AcDbLine
 10
238.8683627173
 20
182.9595268222
 30
0.0
 11
238.0198349677
 21
183.4493714655
 31
0.0
  0
LINE
  5
119
330
1F
100
AcDbEntity
  8
0
  6
Continuous
 62
     7
370
    15
100
AcDbLine
 10
269.9521355388
 20
210.977527849
 30
0.0
 11
327.9996096836
 21
177.4674343076
 31
0.0
  0
LINE
  5
11A
330
1F
100
AcDbEntity
  8
0
  6
Continuous
 62
     7
370
    15
100
AcDbLine
 10
312.5839499231
 20
166.5015697284
 30
0.0
 11
315.700672492
 21
170.915696831
 31
0.0
  0
LINE
  5
11B
330
1F
100
AcDbEntity
  8
0
  6
Continuous
 62
     7
370
    15
100
AcDbLine
 10
315.7572272407
 20
171.0549170704
 30
0.0
 11
315.841907635
 21
171.7211972039
 31
0.0
  0
ARC
  5
11C
330
1F
100
AcDbEntity
  8
0
  6
Continuous
 62
     7
370
    15
100
AcDbCircle
 10
315.4425237472
 20
171.1016604151
 30
0.0
 40
0.3181559822969179
100
AcDbArc
 50
324.2320113378
 51
351.5515460719
  0
ARC
  5
11D
330
1F
100
AcDbEntity
  8
0
  6
Continuous
 62
     7
370
    15
100
AcDbCircle
 10
312.4245693362
 20
166.5856751451
 30
0.0
 40
0.1802106894969984
100
AcDbArc
 50
267.8153132891
 51
332.1793101783
  0
LINE
  5
11E
330
1F
100
AcDbEntity
  8
0
  6
Continuous
 62
     7
370
    15
100
AcDbLine
 10
309.3009770029
 20
167.221231264
 30
0.0
 11
312.4176995718
 21
166.4055954435
 31
0.0
  0
LWPOLYLINE
  5
11F
330
1F
100
AcDbEntity
  8
0
  6
Continuous
 62
     7
370
    15
100
AcDbPolyline
 90
        3
 70
   128
 43
0.0
 10
309.284110361
 20
167.2281275074
 10
309.2901626484
 20
167.2250330723
 10
309.3009770029
 20
167.221231264
  0
LINE
  5
120
330
1F
100
AcDbEntity
  8
0
  6
Continuous
 62
     7
370
    15
100
AcDbLine
 10
296.7502102842
 20
159.97582786
 30
0.0
 11
293.6334877153
 21
155.5617007575
 31
0.0
  0
LINE
  5
121
330
1F
100
AcDbEntity
  8
0
  6
Continuous
 62
     7
370
    15
100
AcDbLine
 10
296.8914454272
 20
160.7813282329
 30
0.0
 11
296.8067650328
 21
160.1150480994
 31
0.0
  0
ARC
  5
122
330
1F
100
AcDbEntity
  8
0
  6
Continuous
 62
     7
370
    15
100
AcDbCircle
 10
296.4920779893
 20
160.1617847618
 30
0.0
 40
0.3181387290878668
100
AcDbArc
 50
324.2312561822
 51
351.5523012275
  0
ARC
  5
123
330
1F
100
AcDbEntity
  8
0
  6
Continuous
 62
     7
370
    15
100
AcDbCircle
 10
293.4741068942
 20
155.6458065797
 30
0.0
 40
0.1802110857925502
100
AcDbArc
 50
267.8153925784
 51
332.1792308889
  0
LINE
  5
124
330
1F
100
AcDbEntity
  8
0
  6
Continuous
 62
     7
370
    15
100
AcDbLine
 10
293.467237364
 20
155.4657264725
 30
0.0
 11
290.3505147951
 21
156.2813622931
 31
0.0
  0
LWPOLYLINE
  5
125
330
1F
100
AcDbEntity
  8
0
  6
Continuous
 62
     7
370
    15
100
AcDbPolyline
 90
        3
 70
   128
 43
0.0
 10
290.3505147951
 20
156.2813622931
 10
290.3397009674
 20
156.2851644055
 10
290.33364868
 20
156.2882588406
  0
ELLIPSE
  5
126
330
1F
100
AcDbEntity
  8
0
  6
Continuous
 62
     7
370
    15
100
AcDbEllipse
 10
272.8321350647
 20
216.3641197669
 30
0.0
 11
0.2828427124746327
 21
0.0
 31
0.0
210
0.0
220
0.0
230
1.0
 40
0.5773815452
 41
3.141592653589793
 42
4.712388980384698
  0
LWPOLYLINE
  5
127
330
1F
100
AcDbEntity
  8
0
  6
Continuous
 62
     7
370
    15
100
AcDbPolyline
 90
        9
 70
   128
 43
0.0
 10
206.052969766
 20
177.6500203875
 10
206.052969766
 20
177.6850123205
 10
206.0529718734
 20
177.7249371188
 10
206.0529718734
 20
177.7682570139
 10
206.052969766
 20
177.8133095059
 10
206.052969766
 20
177.8583633274
 10
206.0529718734
 20
177.9016859666
 10
206.0529718734
 20
177.9416136251
 10
206.052969766
 20
177.9766108341
  0
LINE
  5
128
330
1F
100
AcDbEntity
  8
0
  6
Continuous
 62
     7
370
    15
100
AcDbLine
 10
272.549291779
 20
223.304717177
 30
0.0
 11
272.549291779
 21
216.3641204311
 31
0.0
  0
ELLIPSE
  5
129
330
1F
100
AcDbEntity
  8
0
  6
Continuous
 62
     7
370
    15
100
AcDbEllipse
 10
272.8321350647
 20
223.3047166679
 30
0.0
 11
0.2828427124746327
 21
0.0
 31
0.0
210
0.0
220
0.0
230
1.0
 40
0.5773815452
 41
1.570796326794897
 42
3.141592653589793
  0
LINE
  5
12A
330
1F
100
AcDbEntity
  8
0
  6
Continuous
 62
     7
370
    15
100
AcDbLine
 10
272.8321350647
 20
216.2008119377
 30
0.0
 11
272.8321350647
 21
223.4680253281
 31
0.0
  0
LINE
  5
12B
330
1F
100
AcDbEntity
  8
0
  6
Continuous
 62
     7
370
    15
100
AcDbLine
 10
272.8321350647
 20
216.2008119377
 30
0.0
 11
272.8321350647
 21
212.6739275866
 31
0.0
  0
LINE
  5
12C
330
1F
100
AcDbEntity
  8
0
  6
Continuous
 62
     7
370
    15
100
AcDbLine
 10
212.1623746213
 20
177.6500203875
 30
0.0
 11
206.052969766
 21
177.6500203875
 31
0.0
  0
LINE
  5
12D
330
1F
100
AcDbEntity
  8
0
  6
Continuous
 62
     7
370
    15
100
AcDbLine
 10
206.052969766
 20
184.91720758
 30
0.0
 11
206.052969766
 21
177.9766108341
 31
0.0
  0
LWPOLYLINE
  5
12E
330
1F
100
AcDbEntity
  8
0
  6
Continuous
 62
     7
370
    15
100
AcDbPolyline
 90
        6
 70
   128
 43
0.0
 10
206.052969766
 20
184.91720758
 10
206.0529718734
 20
184.9459299749
 10
206.0529718734
 20
184.967273496
 10
206.052969766
 20
184.9804185344
 10
206.052969766
 20
184.984859174
 10
206.052969766
 20
184.9848587954
  0
ELLIPSE
  5
12F
330
1F
100
AcDbEntity
  8
0
  6
Continuous
 62
     7
370
    15
100
AcDbEllipse
 10
212.1623732389
 20
177.7316746455
 30
0.0
 11
0.1414213562373163
 21
0.0
 31
0.0
210
0.0
220
0.0
230
1.0
 40
0.5773815452
 41
4.712388980384698
 42
5.497705879720076
  0
LINE
  5
130
330
1F
100
AcDbEntity
  8
0
  6
Continuous
 62
     7
370
    15
100
AcDbLine
 10
272.8321350647
 20
212.6739275866
 30
0.0
 11
272.8321350647
 21
212.6401164465
 31
0.0
  0
ELLIPSE
  5
131
330
1F
100
AcDbEntity
  8
0
  6
Continuous
 62
     7
370
    15
100
AcDbEllipse
 10
212.1623732389
 20
177.7316746455
 30
0.0
 11
0.1414213562373163
 21
0.0
 31
0.0
210
0.0
220
0.0
230
1.0
 40
0.5773815452
 41
4.712388980384698
 42
5.497705879719902
  0
LINE
  5
132
330
1F
100
AcDbEntity
  8
0
  6
Continuous
 62
     7
370
    15
100
AcDbLine
 10
272.8321350647
 20
142.6261131884
 30
0.0
 11
272.8321350647
 21
139.0992288373
 31
0.0
  0
LINE
  5
133
330
1F
100
AcDbEntity
  8
0
  6
Continuous
 62
     7
370
    15
100
AcDbLine
 10
272.8321350647
 20
142.7894071951
 30
0.0
 11
272.8321350647
 21
142.6261131884
 31
0.0
  0
ELLIPSE
  5
134
330
1F
100
AcDbEntity
  8
0
  6
Continuous
 62
     7
370
    15
100
AcDbEllipse
 10
272.8321350647
 20
139.2625376864
 30
0.0
 11
0.2828427124746327
 21
0.0
 31
0.0
210
0.0
220
0.0
230
1.0
 40
0.5773815452
 41
3.9270720810493
 42
4.712388980384698
  0
LWPOLYLINE
  5
135
330
1F
100
AcDbEntity
  8
0
  6
Continuous
 62
     7
370
    15
100
AcDbPolyline
 90
        5
 70
   128
 43
0.0
 10
206.052969766
 20
177.6500203875
 10
206.052969766
 20
177.6213044026
 10
206.0529718734
 20
177.5999665341
 10
206.0529718734
 20
177.586829107
 10
206.052969766
 20
177.5823956741
  0
LINE
  5
136
330
1F
100
AcDbEntity
  8
0
  6
Continuous
 62
     7
370
    15
100
AcDbLine
 10
272.8321350647
 20
143.0558770424
 30
0.0
 11
272.8321350647
 21
142.7894071951
 31
0.0
  0
LWPOLYLINE
  5
137
330
1F
100
AcDbEntity
  8
0
  6
Continuous
 62
     7
370
    15
100
AcDbPolyline
 90
        3
 70
   128
 43
0.0
 10
333.1003835557
 20
177.8479963252
 10
272.8321350647
 20
143.0558770424
 10
212.5638865736
 20
177.8479963252
  0
ELLIPSE
  5
138
330
1F
100
AcDbEntity
  8
0
  6
Continuous
 62
     7
370
    15
100
AcDbEllipse
 10
333.5018968905
 20
177.7316746455
 30
0.0
 11
0.1414213562373448
 21
0.0
 31
0.0
210
0.0
220
0.0
230
1.0
 40
0.5773815452
 41
3.927072081049016
 42
4.712388980384698
  0
LINE
  5
139
330
1F
100
AcDbEntity
  8
0
  6
Continuous
 62
     7
370
    15
100
AcDbLine
 10
333.5018955081
 20
177.6500203875
 30
0.0
 11
339.6113003633
 21
177.6500203875
 31
0.0
  0
LINE
  5
13A
330
1F
100
AcDbEntity
  8
0
  6
Continuous
 62
     7
370
    15
100
AcDbLine
 10
272.8321350647
 20
142.6261131884
 30
0.0
 11
272.8321350647
 21
142.7894071951
 31
0.0
  0
ELLIPSE
  5
13B
330
1F
100
AcDbEntity
  8
0
  6
Continuous
 62
     7
370
    15
100
AcDbEllipse
 10
272.8321350647
 20
139.2625376864
 30
0.0
 11
0.2828427124746327
 21
0.0
 31
0.0
210
0.0
220
0.0
230
1.0
 40
0.5773815452
 41
4.712388980384698
 42
5.497705879719989
  0
LWPOLYLINE
  5
13C
330
1F
100
AcDbEntity
  8
0
  6
Continuous
 62
     7
370
    15
100
AcDbPolyline
 90
        5
 70
   128
 43
0.0
 10
339.6113003633
 20
177.6500203875
 10
339.6113003633
 20
177.6213044026
 10
339.611298256
 20
177.5999665341
 10
339.611298256
 20
177.586829107
 10
339.6113003633
 20
177.5823956741
  0
LWPOLYLINE
  5
13D
330
1F
100
AcDbEntity
  8
0
  6
Continuous
 62
     7
370
    15
100
AcDbPolyline
 90
        9
 70
   128
 43
0.0
 10
339.6113003633
 20
177.6500203875
 10
339.6113003633
 20
177.6850123205
 10
339.611298256
 20
177.7249371188
 10
339.611298256
 20
177.7682570139
 10
339.6113003633
 20
177.8133095059
 10
339.6113003633
 20
177.8583633274
 10
339.611298256
 20
177.9016859666
 10
339.611298256
 20
177.9416136251
 10
339.6113003633
 20
177.9766108341
  0
ELLIPSE
  5
13E
330
1F
100
AcDbEntity
  8
0
  6
Continuous
 62
     7
370
    15
100
AcDbEllipse
 10
272.8321350647
 20
216.3641197669
 30
0.0
 11
0.2828427124745758
 21
0.0
 31
0.0
210
0.0
220
0.0
230
1.0
 40
0.5773815452
 41
4.712388980384698
 42
6.283185307179586
  0
LINE
  5
13F
330
1F
100
AcDbEntity
  8
0
  6
Continuous
 62
     7
370
    15
100
AcDbLine
 10
273.1149783504
 20
223.304717177
 30
0.0
 11
273.1149783504
 21
216.3641204311
 31
0.0
  0
ELLIPSE
  5
140
330
1F
100
AcDbEntity
  8
0
  6
Continuous
 62
     7
370
    15
100
AcDbEllipse
 10
272.8321350647
 20
223.3047166679
 30
0.0
 11
0.2828427124746327
 21
0.0
 31
0.0
210
0.0
220
0.0
230
1.0
 40
0.5773815452
 41
0.0
 42
1.570796326794696
  0
LINE
  5
141
330
1F
100
AcDbEntity
  8
0
  6
Continuous
 62
     7
370
    15
100
AcDbLine
 10
339.6113003633
 20
184.91720758
 30
0.0
 11
339.6113003633
 21
177.9766108341
 31
0.0
  0
LWPOLYLINE
  5
142
330
1F
100
AcDbEntity
  8
0
  6
Continuous
 62
     7
370
    15
100
AcDbPolyline
 90
        6
 70
   128
 43
0.0
 10
339.6113003633
 20
184.91720758
 10
339.611298256
 20
184.9459299749
 10
339.611298256
 20
184.967273496
 10
339.6113003633
 20
184.9804185344
 10
339.6113003633
 20
184.984859174
 10
339.6113003633
 20
184.9848587954
  0
ELLIPSE
  5
143
330
1F
100
AcDbEntity
  8
0
  6
Continuous
 62
     7
370
    15
100
AcDbEllipse
 10
333.5018968905
 20
177.7316746455
 30
0.0
 11
0.1414213562373448
 21
0.0
 31
0.0
210
0.0
220
0.0
230
1.0
 40
0.5773815452
 41
3.927072081049682
 42
4.712388980384698
  0
LINE
  5
144
330
1F
100
AcDbEntity
  8
0
  6
Continuous
 62
     7
370
    15
100
AcDbLine
 10
272.8321350647
 20
212.6401164465
 30
0.0
 11
272.8321350647
 21
212.6739275866
 31
0.0
  0
LINE
  5
145
330
1F
100
AcDbEntity
  8
0
  6
Continuous
 62
     7
370
    15
100
AcDbLine
 10
318.8186394466
 20
181.2172278377
 30
0.0
 11
318.9086250755
 21
181.1704202036
 31
0.0
  0
SPLINE
  5
146
330
1F
100
AcDbEntity
  8
0
  6
Continuous
 62
     7
370
    15
100
AcDbSpline
210
0.0
220
0.0
230
1.0
 70
     8
 71
     3
 72
     9
 73
     5
 74
     0
 42
0.000000001
 43
0.00000001
 40
0.0
 40
0.0
 40
0.0
 40
0.0
 40
0.2687070216906804
 40
1.0
 40
1.0
 40
1.0
 40
1.0
 10
322.1334363984123
 20
178.2721683864098
 30
0.0
 10
322.1355448856615
 20
178.2627512219426
 30
0.0
 10
322.1433916744651
 20
178.2277050054054
 30
0.0
 10
322.1598883748022
 20
178.1931679148738
 30
0.0
 10
322.171952295924
 20
178.1679111830769
 30
0.0
  0
ELLIPSE
  5
147
330
1F
100
AcDbEntity
  8
0
  6
Continuous
 62
     7
370
    15
100
AcDbEllipse
 10
320.2212349719
 20
177.5106619338
 30
0.0
 11
-1.759656501898803
 21
3.04764939130601
 31
0.0
210
0.0
220
0.0
230
1.0
 40
0.5772851604
 41
4.451540273172744
 42
4.596703194391921
  0
LWPOLYLINE
  5
148
330
1F
100
AcDbEntity
  8
0
  6
Continuous
 62
     7
370
    15
100
AcDbPolyline
 90
        8
 70
   128
 43
0.0
 10
314.3039491131
 20
175.4954689834
 10
314.0337456673
 20
175.3683969577
 10
313.7727428785
 20
175.3034776133
 10
313.5298305708
 20
175.3029227589
 10
313.3132800632
 20
175.3667510863
 10
313.1304649467
 20
175.4927885005
 10
312.9876124184
 20
175.6767435815
 10
312.9040552376
 20
175.8655494146
  0
LINE
  5
149
330
1F
100
AcDbEntity
  8
0
  6
Continuous
 62
     7
370
    15
100
AcDbLine
 10
317.5566405763
 20
177.3732077963
 30
0.0
 11
314.3039491131
 21
175.4954689834
 31
0.0
  0
LWPOLYLINE
  5
14A
330
1F
100
AcDbEntity
  8
0
  6
Continuous
 62
     7
370
    15
100
AcDbPolyline
 90
       17
 70
   128
 43
0.0
 10
318.0065961163
 20
180.9476690759
 10
318.0878447035
 20
180.9613535864
 10
318.3307580649
 20
180.961908897
 10
318.5473085726
 20
180.8980807218
 10
318.7301226353
 20
180.7720428514
 10
318.872977271
 20
180.5880889869
 10
318.9710024113
 20
180.3524804764
 10
319.0208663478
 20
180.0732441662
 10
319.0208663478
 20
179.7598863063
 10
318.9710024113
 20
179.4230783204
 10
318.872977271
 20
179.074292392
 10
318.7301226353
 20
178.725402076
 10
318.5473085726
 20
178.3882914295
 10
318.3307580649
 20
178.0744392079
 10
318.0878447035
 20
177.7945328733
 10
317.8268440221
 20
177.5581060287
 10
317.5566405763
 20
177.3732077963
  0
ARC
  5
14B
330
1F
100
AcDbEntity
  8
0
  6
Continuous
 62
     7
370
    15
100
AcDbCircle
 10
318.2057560777
 20
179.906210669
 30
0.0
 40
0.8201269906463289
100
AcDbArc
 50
356.4220104075
 51
71.9434306998
  0
LINE
  5
14C
330
1F
100
AcDbEntity
  8
0
  6
Continuous
 62
     7
370
    15
100
AcDbLine
 10
314.4459882073
 20
175.5774954966
 30
0.0
 11
317.5648781779
 21
177.3779923519
 31
0.0
  0
LINE
  5
14D
330
1F
100
AcDbEntity
  8
0
  6
Continuous
 62
     7
370
    15
100
AcDbLine
 10
313.2810029529
 20
174.9109596429
 30
0.0
 11
313.2046792249
 21
174.9485230249
 31
0.0
  0
ARC
  5
14E
330
1F
100
AcDbEntity
  8
0
  6
Continuous
 62
     7
370
    15
100
AcDbCircle
 10
313.9180228095
 20
176.2652678783
 30
0.0
 40
0.8670515038378078
100
AcDbArc
 50
229.7170361337
 51
307.5114858264
  0
ELLIPSE
  5
14F
330
1F
100
AcDbEntity
  8
0
  6
Continuous
 62
     7
370
    15
100
AcDbEllipse
 10
318.6173344304
 20
173.4254051656
 30
0.0
 11
0.4626014749166528
 21
-0.1934859146442704
 31
0.0
210
0.0
220
0.0
230
1.0
 40
0.0997271093
 41
6.207344857729598
 42
6.9795717876755
  0
ELLIPSE
  5
150
330
1F
100
AcDbEntity
  8
0
  6
Continuous
 62
     7
370
    15
100
AcDbEllipse
 10
318.6013586803
 20
173.3891437606
 30
0.0
 11
0.4455199421681186
 21
-0.1555500952541138
 31
0.0
210
0.0
220
0.0
230
1.0
 40
0.1386803037
 41
5.378748574789304
 42
6.48259507524324
  0
ARC
  5
151
330
1F
100
AcDbEntity
  8
0
  6
Continuous
 62
     7
370
    15
100
AcDbCircle
 10
318.7055727556
 20
172.9578812484
 30
0.0
 40
0.317050932718171
100
AcDbArc
 50
85.0280768242
 51
140.6072501978
  0
LWPOLYLINE
  5
152
330
1F
100
AcDbEntity
  8
0
  6
Continuous
 62
     7
370
    15
100
AcDbPolyline
 90
        3
 70
   128
 43
0.0
 10
318.8667521815
 20
173.2417160455
 10
318.8656100019
 20
173.2420082847
 10
318.8597905758
 20
173.2444257696
  0
LWPOLYLINE
  5
153
330
1F
100
AcDbEntity
  8
0
  6
Continuous
 62
     7
370
    15
100
AcDbPolyline
 90
        3
 70
   128
 43
0.0
 10
318.7400123934
 20
173.2710294856
 10
318.7388691601
 20
173.2713208124
 10
318.7330507876
 20
173.2737392097
  0
LINE
  5
154
330
1F
100
AcDbEntity
  8
0
  6
Continuous
 62
     7
370
    15
100
AcDbLine
 10
299.8681775022
 20
170.2773590189
 30
0.0
 11
299.9581631311
 21
170.2305513847
 31
0.0
  0
SPLINE
  5
155
330
1F
100
AcDbEntity
  8
0
  6
Continuous
 62
     7
370
    15
100
AcDbSpline
210
0.0
220
0.0
230
1.0
 70
     8
 71
     3
 72
     9
 73
     5
 74
     0
 42
0.000000001
 43
0.00000001
 40
0.0
 40
0.0
 40
0.0
 40
0.0
 40
0.2686918037687278
 40
1.0
 40
1.0
 40
1.0
 40
1.0
 10
303.1829747174038
 20
167.3322975903195
 30
0.0
 10
303.1850830487944
 20
167.3228810147634
 30
0.0
 10
303.1929297019525
 20
167.2878350050824
 30
0.0
 10
303.2094264256584
 20
167.2532989883698
 30
0.0
 10
303.2214906149154
 20
167.2280425162827
 30
0.0
  0
ELLIPSE
  5
156
330
1F
100
AcDbEntity
  8
0
  6
Continuous
 62
     7
370
    15
100
AcDbEllipse
 10
301.2707732361
 20
166.5707932354
 30
0.0
 11
-1.759656501898803
 21
3.04764939130601
 31
0.0
210
0.0
220
0.0
230
1.0
 40
0.5772851604
 41
4.451540273172744
 42
4.596703194391911
  0
LWPOLYLINE
  5
157
330
1F
100
AcDbEntity
  8
0
  6
Continuous
 62
     7
370
    15
100
AcDbPolyline
 90
        8
 70
   128
 43
0.0
 10
295.353487037
 20
164.5556000885
 10
295.0832835912
 20
164.4285280628
 10
294.8222815927
 20
164.3636091746
 10
294.5793691532
 20
164.3630542442
 10
294.3628183822
 20
164.4268824195
 10
294.1800035291
 20
164.5529199858
 10
294.037150474
 20
164.7368747626
 10
293.95359382
 20
164.9256808999
  0
LINE
  5
158
330
1F
100
AcDbEntity
  8
0
  6
Continuous
 62
     7
370
    15
100
AcDbLine
 10
298.6061782368
 20
166.4333387494
 30
0.0
 11
295.353487037
 21
164.5556000885
 31
0.0
  0
LWPOLYLINE
  5
159
330
1F
100
AcDbEntity
  8
0
  6
Continuous
 62
     7
370
    15
100
AcDbPolyline
 90
       17
 70
   128
 43
0.0
 10
299.056134567
 20
170.0078004851
 10
299.1373836811
 20
170.0214852998
 10
299.3802961205
 20
170.0220400781
 10
299.5968468916
 20
169.958212055
 10
299.7796617446
 20
169.8321746408
 10
299.9225147998
 20
169.6482198639
 10
300.020541784
 20
169.4126124179
 10
300.0704041399
 20
169.1333751952
 10
300.0704041399
 20
168.8200173354
 10
300.020541784
 20
168.4832102619
 10
299.9225147998
 20
168.134423269
 10
299.7796617446
 20
167.7855338654
 10
299.5968468916
 20
167.4484227627
 10
299.3802961205
 20
167.134570389
 10
299.1373836811
 20
166.8546645867
 10
298.8763816826
 20
166.6182369817
 10
298.6061782368
 20
166.4333387494
  0
ARC
  5
15A
330
1F
100
AcDbEntity
  8
0
  6
Continuous
 62
     7
370
    15
100
AcDbCircle
 10
299.2519077889
 20
168.961648106
 30
0.0
 40
0.8256419821634498
100
AcDbArc
 50
355.3835034049
 51
71.8209108973
  0
LINE
  5
15B
330
1F
100
AcDbEntity
  8
0
  6
Continuous
 62
     7
370
    15
100
AcDbLine
 10
295.4955261311
 20
164.6376266017
 30
0.0
 11
298.6144157066
 21
166.4381232289
 31
0.0
  0
LINE
  5
15C
330
1F
100
AcDbEntity
  8
0
  6
Continuous
 62
     7
370
    15
100
AcDbLine
 10
294.3305412719
 20
163.9710909761
 30
0.0
 11
294.2542170171
 21
164.008654054
 31
0.0
  0
ARC
  5
15D
330
1F
100
AcDbEntity
  8
0
  6
Continuous
 62
     7
370
    15
100
AcDbCircle
 10
294.9675610671
 20
165.3253986367
 30
0.0
 40
0.8670510255955093
100
AcDbArc
 50
229.7170146698
 51
307.511482287
  0
ELLIPSE
  5
15E
330
1F
100
AcDbEntity
  8
0
  6
Continuous
 62
     7
370
    15
100
AcDbEllipse
 10
299.6668726946
 20
162.4855364672
 30
0.0
 11
0.4626014749165961
 21
-0.1934859146442705
 31
0.0
210
0.0
220
0.0
230
1.0
 40
0.0997271093
 41
6.20734485772967
 42
6.979571787674816
  0
ELLIPSE
  5
15F
330
1F
100
AcDbEntity
  8
0
  6
Continuous
 62
     7
370
    15
100
AcDbEllipse
 10
299.6508969445
 20
162.4492750621
 30
0.0
 11
0.4455199421681186
 21
-0.1555500952541138
 31
0.0
210
0.0
220
0.0
230
1.0
 40
0.1386803037
 41
5.37874857478974
 42
6.482595075243567
  0
ARC
  5
160
330
1F
100
AcDbEntity
  8
0
  6
Continuous
 62
     7
370
    15
100
AcDbCircle
 10
299.7551103504
 20
162.0180132287
 30
0.0
 40
0.3170501765555058
100
AcDbArc
 50
85.0279813532
 51
140.6073604035
  0
LWPOLYLINE
  5
161
330
1F
100
AcDbEntity
  8
0
  6
Continuous
 62
     7
370
    15
100
AcDbPolyline
 90
        3
 70
   128
 43
0.0
 10
299.9162907639
 20
162.3018475307
 10
299.9151479258
 20
162.3021393898
 10
299.9093288948
 20
162.3045571028
  0
LWPOLYLINE
  5
162
330
1F
100
AcDbEntity
  8
0
  6
Continuous
 62
     7
370
    15
100
AcDbPolyline
 90
        3
 70
   128
 43
0.0
 10
299.7895507123
 20
162.3311608188
 10
299.7884080059
 20
162.3314524498
 10
299.7825888432
 20
162.3338703908
  0
LINE
  5
163
330
1F
100
AcDbEntity
  8
0
  6
Continuous
 62
     7
370
    15
100
AcDbLine
 10
280.9177160846
 20
159.3374905041
 30
0.0
 11
281.0077017135
 21
159.29068287
 31
0.0
  0
SPLINE
  5
164
330
1F
100
AcDbEntity
  8
0
  6
Continuous
 62
     7
370
    15
100
AcDbSpline
210
0.0
220
0.0
230
1.0
 70
     8
 71
     3
 72
     9
 73
     5
 74
     0
 42
0.000000001
 43
0.00000001
 40
0.0
 40
0.0
 40
0.0
 40
0.0
 40
0.2686922098938075
 40
0.9999999999999999
 40
0.9999999999999999
 40
0.9999999999999999
 40
0.9999999999999999
 10
284.2325130363952
 20
156.3924289235253
 30
0.0
 10
284.2346211585248
 20
156.3830122305341
 30
0.0
 10
284.2424670210096
 20
156.3479658367629
 30
0.0
 10
284.2589643261454
 20
156.313430101629
 30
0.0
 10
284.2710289339069
 20
156.2881738494885
 30
0.0
  0
ELLIPSE
  5
165
330
1F
100
AcDbEntity
  8
0
  6
Continuous
 62
     7
370
    15
100
AcDbEllipse
 10
282.3203115003
 20
155.6309245369
 30
0.0
 11
-1.759656501898746
 21
3.047649391306038
 31
0.0
210
0.0
220
0.0
230
1.0
 40
0.5772851604
 41
4.451540273172746
 42
4.596703194391931
  0
LWPOLYLINE
  5
166
330
1F
100
AcDbEntity
  8
0
  6
Continuous
 62
     7
370
    15
100
AcDbPolyline
 90
        8
 70
   128
 43
0.0
 10
276.4030246974
 20
153.6157310416
 10
276.1328212516
 20
153.4886590159
 10
275.8718205702
 20
153.423740888
 10
275.6289072088
 20
153.4231854253
 10
275.4123567012
 20
153.4870137527
 10
275.2295426384
 20
153.6130517752
 10
275.0866880027
 20
153.7970056396
 10
275.0031318755
 20
153.985812081
  0
LINE
  5
167
330
1F
100
AcDbEntity
  8
0
  6
Continuous
 62
     7
370
    15
100
AcDbLine
 10
279.6557161606
 20
155.4934698545
 30
0.0
 11
276.4030246974
 21
153.6157310416
 31
0.0
  0
LWPOLYLINE
  5
168
330
1F
100
AcDbEntity
  8
0
  6
Continuous
 62
     7
370
    15
100
AcDbPolyline
 90
       17
 70
   128
 43
0.0
 10
280.1056727543
 20
159.0679317423
 10
280.1869223952
 20
159.0816168611
 10
280.4298347029
 20
159.0821715634
 10
280.6463852106
 20
159.0183433882
 10
280.829200327
 20
158.892306126
 10
280.9720528553
 20
158.7083510451
 10
281.070080103
 20
158.4727437511
 10
281.1199419321
 20
158.1935062243
 10
281.1199419321
 20
157.8801483644
 10
281.070080103
 20
157.5433415951
 10
280.9720528553
 20
157.1945544502
 10
280.829200327
 20
156.8456653507
 10
280.6463852106
 20
156.5085540959
 10
280.4298347029
 20
156.1947018743
 10
280.1869223952
 20
155.914796148
 10
279.9259196064
 20
155.6783680868
 10
279.6557161606
 20
155.4934698545
  0
ARC
  5
169
330
1F
100
AcDbEntity
  8
0
  6
Continuous
 62
     7
370
    15
100
AcDbCircle
 10
280.3014448238
 20
158.0217788059
 30
0.0
 40
0.8256432112062716
100
AcDbArc
 50
355.383554386
 51
71.8208258661
  0
LINE
  5
16A
330
1F
100
AcDbEntity
  8
0
  6
Continuous
 62
     7
370
    15
100
AcDbLine
 10
276.5450637916
 20
153.6977575547
 30
0.0
 11
279.6639537622
 21
155.4982544101
 31
0.0
  0
LINE
  5
16B
330
1F
100
AcDbEntity
  8
0
  6
Continuous
 62
     7
370
    15
100
AcDbLine
 10
275.3800806446
 20
153.0312229176
 30
0.0
 11
275.3037548093
 21
153.068785083
 31
0.0
  0
ARC
  5
16C
330
1F
100
AcDbEntity
  8
0
  6
Continuous
 62
     7
370
    15
100
AcDbCircle
 10
276.0170984957
 20
154.3855341465
 30
0.0
 40
0.8670547813427357
100
AcDbArc
 50
229.7172108747
 51
307.5113110855
  0
ELLIPSE
  5
16D
330
1F
100
AcDbEntity
  8
0
  6
Continuous
 62
     7
370
    15
100
AcDbEllipse
 10
280.7164109588
 20
151.5456677688
 30
0.0
 11
0.4626014749166528
 21
-0.193485914644242
 31
0.0
210
0.0
220
0.0
230
1.0
 40
0.0997271093
 41
6.20734485772956
 42
6.979571787675436
  0
ELLIPSE
  5
16E
330
1F
100
AcDbEntity
  8
0
  6
Continuous
 62
     7
370
    15
100
AcDbEllipse
 10
280.7004352087
 20
151.5094063637
 30
0.0
 11
0.4455199421681755
 21
-0.1555500952541138
 31
0.0
210
0.0
220
0.0
230
1.0
 40
0.1386803037
 41
5.378748574789811
 42
6.482595075243312
  0
ARC
  5
16F
330
1F
100
AcDbEntity
  8
0
  6
Continuous
 62
     7
370
    15
100
AcDbCircle
 10
280.8046494233
 20
151.07814266
 30
0.0
 40
0.3170521803089773
100
AcDbArc
 50
85.0281018216
 51
140.6072841392
  0
LWPOLYLINE
  5
170
330
1F
100
AcDbEntity
  8
0
  6
Continuous
 62
     7
370
    15
100
AcDbPolyline
 90
        3
 70
   128
 43
0.0
 10
280.9658298732
 20
151.3619793201
 10
280.9646855862
 20
151.3622703429
 10
280.9588672138
 20
151.364688436
  0
LWPOLYLINE
  5
171
330
1F
100
AcDbEntity
  8
0
  6
Continuous
 62
     7
370
    15
100
AcDbPolyline
 90
        3
 70
   128
 43
0.0
 10
280.8390879777
 20
151.3912915437
 10
280.8379457981
 20
151.3915834788
 10
280.8321274256
 20
151.3940018761
  0
LINE
  5
172
330
1F
100
AcDbEntity
  8
0
  6
Continuous
 62
     7
370
    15
100
AcDbLine
 10
321.3043067358
 20
178.0383817783
 30
0.0
 11
321.3043067358
 21
178.3241710333
 31
0.0
  0
LINE
  5
173
330
1F
100
AcDbEntity
  8
0
  6
Continuous
 62
     7
370
    15
100
AcDbLine
 10
321.5164381463
 20
178.160842635
 30
0.0
 11
321.3043067358
 21
178.0383817783
 31
0.0
  0
LINE
  5
174
330
1F
100
AcDbEntity
  8
0
  6
Continuous
 62
     7
370
    15
100
AcDbLine
 10
321.5164381463
 20
177.9158805034
 30
0.0
 11
321.5164381463
 21
178.160842635
 31
0.0
  0
LINE
  5
175
330
1F
100
AcDbEntity
  8
0
  6
Continuous
 62
     7
370
    15
100
AcDbLine
 10
321.5164381463
 20
177.9158805034
 30
0.0
 11
321.3043067358
 21
177.7934196467
 31
0.0
  0
LINE
  5
176
330
1F
100
AcDbEntity
  8
0
  6
Continuous
 62
     7
370
    15
100
AcDbLine
 10
321.3043067358
 20
176.8952247585
 30
0.0
 11
321.3043067358
 21
177.7934196467
 31
0.0
  0
LINE
  5
177
330
1F
100
AcDbEntity
  8
0
  6
Continuous
 62
     7
370
    15
100
AcDbLine
 10
321.5164381463
 20
177.0176856152
 30
0.0
 11
321.3043067358
 21
176.8952247585
 31
0.0
  0
LINE
  5
178
330
1F
100
AcDbEntity
  8
0
  6
Continuous
 62
     7
370
    15
100
AcDbLine
 10
321.5164381463
 20
176.7727234836
 30
0.0
 11
321.5164381463
 21
177.0176856152
 31
0.0
  0
LINE
  5
179
330
1F
100
AcDbEntity
  8
0
  6
Continuous
 62
     7
370
    15
100
AcDbLine
 10
321.5164381463
 20
176.7727234836
 30
0.0
 11
319.2536960757
 21
175.4664702905
 31
0.0
  0
LINE
  5
17A
330
1F
100
AcDbEntity
  8
0
  6
Continuous
 62
     7
370
    15
100
AcDbLine
 10
319.2536960757
 20
175.6624397525
 30
0.0
 11
319.2536960757
 21
175.4664702905
 31
0.0
  0
LINE
  5
17B
330
1F
100
AcDbEntity
  8
0
  6
Continuous
 62
     7
370
    15
100
AcDbLine
 10
319.4941122363
 20
175.8012290478
 30
0.0
 11
319.2536960757
 21
175.6624397525
 31
0.0
  0
ARC
  5
17C
330
1F
100
AcDbEntity
  8
0
  6
Continuous
 62
     7
370
    15
100
AcDbCircle
 10
317.2320992365
 20
179.2964507914
 30
0.0
 40
4.163325335393885
100
AcDbArc
 50
302.9098522383
 51
346.2666222425
  0
LINE
  5
17D
330
1F
100
AcDbEntity
  8
0
  6
Continuous
 62
     7
370
    15
100
AcDbLine
 10
321.3043067358
 20
178.3241710333
 30
0.0
 11
321.2763992
 21
178.3080603558
 31
0.0
  0
LINE
  5
17E
330
1F
100
AcDbEntity
  8
0
  6
Continuous
 62
     7
370
    15
100
AcDbLine
 10
317.1323756478
 20
171.3844299747
 30
0.0
 11
317.5919954602
 21
171.1190971048
 31
0.0
  0
LINE
  5
17F
330
1F
100
AcDbEntity
  8
0
  6
Continuous
 62
     7
370
    15
100
AcDbLine
 10
317.2384413531
 20
170.9149946632
 30
0.0
 11
314.3039480594
 21
172.6090415829
 31
0.0
  0
LINE
  5
180
330
1F
100
AcDbEntity
  8
0
  6
Continuous
 62
     7
370
    15
100
AcDbLine
 10
316.5666901301
 20
173.9152947759
 30
0.0
 11
314.3039480594
 21
172.6090415829
 31
0.0
  0
LINE
  5
181
330
1F
100
AcDbEntity
  8
0
  6
Continuous
 62
     7
370
    15
100
AcDbLine
 10
316.5666901301
 20
173.9152947759
 30
0.0
 11
318.8294300935
 21
172.6090427994
 31
0.0
  0
LINE
  5
182
330
1F
100
AcDbEntity
  8
0
  6
Continuous
 62
     7
370
    15
100
AcDbLine
 10
318.8294300935
 20
172.6090427994
 30
0.0
 11
321.516436039
 21
174.1602183141
 31
0.0
  0
LINE
  5
183
330
1F
100
AcDbEntity
  8
0
  6
Continuous
 62
     7
370
    15
100
AcDbLine
 10
321.516436039
 20
174.1602183141
 30
0.0
 11
319.2536960757
 21
175.4664702905
 31
0.0
  0
LINE
  5
184
330
1F
100
AcDbEntity
  8
0
  6
Continuous
 62
     7
370
    15
100
AcDbLine
 10
324.45093144
 20
175.0786765639
 30
0.0
 11
321.5164381463
 21
176.7727234836
 31
0.0
  0
LINE
  5
185
330
1F
100
AcDbEntity
  8
0
  6
Continuous
 62
     7
370
    15
100
AcDbLine
 10
323.6377585742
 20
175.1399076006
 30
0.0
 11
324.0973783866
 21
174.8745747306
 31
0.0
  0
LINE
  5
186
330
1F
100
AcDbEntity
  8
0
  6
Continuous
 62
     7
370
    15
100
AcDbLine
 10
323.6377585742
 20
175.1399076006
 30
0.0
 11
317.1323756478
 21
171.3844299747
 31
0.0
  0
LINE
  5
187
330
1F
100
AcDbEntity
  8
0
  6
Continuous
 62
     7
370
    15
100
AcDbLine
 10
321.5164381463
 20
177.0176856152
 30
0.0
 11
324.45093144
 21
175.3236386956
 31
0.0
  0
LWPOLYLINE
  5
188
330
1F
100
AcDbEntity
  8
0
  6
Continuous
 62
     7
370
    15
100
AcDbPolyline
 90
        9
 70
   128
 43
0.0
 10
324.45093144
 20
175.3236386956
 10
324.5997603915
 20
175.2719071153
 10
324.7259311972
 20
175.2964222854
 10
324.8102354309
 20
175.3934521809
 10
324.8398393773
 20
175.5482243663
 10
324.8102354309
 20
175.7371765408
 10
324.7259311972
 20
175.9315420327
 10
324.5997603915
 20
176.1017309143
 10
324.45093144
 20
176.2218335838
  0
LINE
  5
189
330
1F
100
AcDbEntity
  8
0
  6
Continuous
 62
     7
370
    15
100
AcDbLine
 10
324.45093144
 20
176.2218335838
 30
0.0
 11
321.5164381463
 21
177.9158805034
 31
0.0
  0
LINE
  5
18A
330
1F
100
AcDbEntity
  8
0
  6
Continuous
 62
     7
370
    15
100
AcDbLine
 10
321.5164381463
 20
178.160842635
 30
0.0
 11
324.45093144
 21
176.4667957154
 31
0.0
  0
LWPOLYLINE
  5
18B
330
1F
100
AcDbEntity
  8
0
  6
Continuous
 62
     7
370
    15
100
AcDbPolyline
 90
       11
 70
   128
 43
0.0
 10
324.45093144
 20
176.4667957154
 10
324.6366620647
 20
176.3256061349
 10
324.8042126462
 20
176.1302972672
 10
324.9371817386
 20
175.8999877399
 10
325.022554395
 20
175.6572213187
 10
325.0519707879
 20
175.4257635097
 10
325.022554395
 20
175.2282688408
 10
324.9371817386
 20
175.0840715905
 10
324.8042126462
 20
175.0072852136
 10
324.6366620647
 20
175.0054261297
 10
324.45093144
 20
175.0786765639
  0
LINE
  5
18C
330
1F
100
AcDbEntity
  8
0
  6
Continuous
 62
     7
370
    15
100
AcDbLine
 10
324.0859186585
 20
176.187629264
 30
0.0
 11
321.3043067358
 21
177.7934196467
 31
0.0
  0
ARC
  5
18D
330
1F
100
AcDbEntity
  8
0
  6
Continuous
 62
     7
370
    15
100
AcDbCircle
 10
324.247103062
 20
175.8389285698
 30
0.0
 40
0.4037385718213863
100
AcDbArc
 50
134.5592447837
 51
208.5341605486
  0
LINE
  5
18E
330
1F
100
AcDbEntity
  8
0
  6
Continuous
 62
     7
370
    15
100
AcDbLine
 10
321.3043067358
 20
179.7122904889
 30
0.0
 11
321.3043067358
 21
180.1307657654
 31
0.0
  0
LINE
  5
18F
330
1F
100
AcDbEntity
  8
0
  6
Continuous
 62
     7
370
    15
100
AcDbLine
 10
321.3043067358
 20
180.1307657654
 30
0.0
 11
321.4732924175
 21
180.0332124078
 31
0.0
  0
LINE
  5
190
330
1F
100
AcDbEntity
  8
0
  6
Continuous
 62
     7
370
    15
100
AcDbLine
 10
323.779180217
 20
176.8545903162
 30
0.0
 11
323.779180217
 21
177.3388616025
 31
0.0
  0
LINE
  5
191
330
1F
100
AcDbEntity
  8
0
  6
Continuous
 62
     7
370
    15
100
AcDbLine
 10
323.5670466991
 20
177.0179190568
 30
0.0
 11
321.3043067358
 21
178.3241710333
 31
0.0
  0
LINE
  5
192
330
1F
100
AcDbEntity
  8
0
  6
Continuous
 62
     7
370
    15
100
AcDbLine
 10
323.5670466991
 20
177.0179190568
 30
0.0
 11
323.5670466991
 21
177.1700219774
 31
0.0
  0
LINE
  5
193
330
1F
100
AcDbEntity
  8
0
  6
Continuous
 62
     7
370
    15
100
AcDbLine
 10
321.3043067358
 20
179.7122904889
 30
0.0
 11
321.4810832625
 21
179.6102395723
 31
0.0
  0
LINE
  5
194
330
1F
100
AcDbEntity
  8
0
  6
Continuous
 62
     7
370
    15
100
AcDbLine
 10
318.8294300935
 20
172.8050122614
 30
0.0
 11
318.8294300935
 21
172.6090427994
 31
0.0
  0
LINE
  5
195
330
1F
100
AcDbEntity
  8
0
  6
Continuous
 62
     7
370
    15
100
AcDbLine
 10
321.2763992
 20
179.6961798115
 30
0.0
 11
321.4810811551
 21
179.5780194339
 31
0.0
  0
LINE
  5
196
330
1F
100
AcDbEntity
  8
0
  6
Continuous
 62
     7
370
    15
100
AcDbLine
 10
321.3043067358
 20
179.7122904889
 30
0.0
 11
321.2763992
 21
179.6961798115
 31
0.0
  0
ARC
  5
197
330
1F
100
AcDbEntity
  8
0
  6
Continuous
 62
     7
370
    15
100
AcDbCircle
 10
320.3281307062
 20
179.4123828163
 30
0.0
 40
0.9898251718151807
100
AcDbArc
 50
16.6613456403
 51
97.1823553971
  0
ARC
  5
198
330
1F
100
AcDbEntity
  8
0
  6
Continuous
 62
     7
370
    15
100
AcDbCircle
 10
320.3650704791
 20
179.4809618839
 30
0.0
 40
1.142107626386426
100
AcDbArc
 50
34.6771450717
 51
111.2125649369
  0
ARC
  5
199
330
1F
100
AcDbEntity
  8
0
  6
Continuous
 62
     7
370
    15
100
AcDbCircle
 10
324.3446777817
 20
175.2051405441
 30
0.0
 40
0.4128325906040382
100
AcDbArc
 50
233.199491965
 51
295.4901839325
  0
LWPOLYLINE
  5
19A
330
1F
100
AcDbEntity
  8
0
  6
Continuous
 62
     7
370
    15
100
AcDbPolyline
 90
        8
 70
   128
 43
0.0
 10
316.4959793087
 20
174.0704437495
 10
316.1807567067
 20
173.8861304309
 10
315.8695875778
 20
173.7647368233
 10
315.5711425825
 20
173.7096452602
 10
315.2937362403
 20
173.7223914008
 10
315.0450982832
 20
173.8026195356
 10
314.8321544921
 20
173.9480941666
 10
314.6771826374
 20
174.1296543183
  0
LINE
  5
19B
330
1F
100
AcDbEntity
  8
0
  6
Continuous
 62
     7
370
    15
100
AcDbLine
 10
316.5666901301
 20
174.1112642378
 30
0.0
 11
316.4959793087
 21
174.0704437495
 31
0.0
  0
LINE
  5
19C
330
1F
100
AcDbEntity
  8
0
  6
Continuous
 62
     7
370
    15
100
AcDbLine
 10
316.5666901301
 20
174.1112642378
 30
0.0
 11
316.5666901301
 21
173.9152947759
 31
0.0
  0
LINE
  5
19D
330
1F
100
AcDbEntity
  8
0
  6
Continuous
 62
     7
370
    15
100
AcDbLine
 10
314.3039480594
 20
172.6090415829
 30
0.0
 11
314.3039480594
 21
172.8540037145
 31
0.0
  0
LINE
  5
19E
330
1F
100
AcDbEntity
  8
0
  6
Continuous
 62
     7
370
    15
100
AcDbLine
 10
314.3039480594
 20
172.8540037145
 30
0.0
 11
314.5160805237
 21
172.9764651794
 31
0.0
  0
LINE
  5
19F
330
1F
100
AcDbEntity
  8
0
  6
Continuous
 62
     7
370
    15
100
AcDbLine
 10
314.5160805237
 20
172.9764651794
 30
0.0
 11
314.5160805237
 21
173.8746600676
 31
0.0
  0
LINE
  5
1A0
330
1F
100
AcDbEntity
  8
0
  6
Continuous
 62
     7
370
    15
100
AcDbLine
 10
314.3039480594
 20
173.7521986027
 30
0.0
 11
314.5160805237
 21
173.8746600676
 31
0.0
  0
LINE
  5
1A1
330
1F
100
AcDbEntity
  8
0
  6
Continuous
 62
     7
370
    15
100
AcDbLine
 10
314.3039480594
 20
173.7521986027
 30
0.0
 11
314.3039480594
 21
173.9971607343
 31
0.0
  0
LINE
  5
1A2
330
1F
100
AcDbEntity
  8
0
  6
Continuous
 62
     7
370
    15
100
AcDbLine
 10
314.3039480594
 20
173.9971607343
 30
0.0
 11
314.5160805237
 21
174.1196221993
 31
0.0
  0
LINE
  5
1A3
330
1F
100
AcDbEntity
  8
0
  6
Continuous
 62
     7
370
    15
100
AcDbLine
 10
314.5160805237
 20
174.1196221993
 30
0.0
 11
314.5160805237
 21
174.2192437506
 31
0.0
  0
LINE
  5
1A4
330
1F
100
AcDbEntity
  8
0
  6
Continuous
 62
     7
370
    15
100
AcDbLine
 10
318.8294300935
 20
172.8050122614
 30
0.0
 11
316.5666901301
 21
174.1112642378
 31
0.0
  0
LINE
  5
1A5
330
1F
100
AcDbEntity
  8
0
  6
Continuous
 62
     7
370
    15
100
AcDbLine
 10
314.51607947
 20
173.629737746
 30
0.0
 11
314.3039480594
 21
173.7521986027
 31
0.0
  0
ARC
  5
1A6
330
1F
100
AcDbEntity
  8
0
  6
Continuous
 62
     7
370
    15
100
AcDbCircle
 10
317.7580683238
 20
171.732800304
 30
0.0
 40
0.4106731815064913
100
AcDbArc
 50
208.4461749948
 51
285.3778510657
  0
LWPOLYLINE
  5
1A7
330
1F
100
AcDbEntity
  8
0
  6
Continuous
 62
     7
370
    15
100
AcDbPolyline
 90
        5
 70
   128
 43
0.0
 10
317.5919954602
 20
171.1190971048
 10
317.7777260849
 20
171.0458466706
 10
317.9452766664
 20
171.0477057544
 10
318.0782457588
 20
171.1244921314
 10
318.1543461085
 20
171.2435299657
  0
ARC
  5
1A8
330
1F
100
AcDbEntity
  8
0
  6
Continuous
 62
     7
370
    15
100
AcDbCircle
 10
317.4857407482
 20
171.2455604767
 30
0.0
 40
0.4128325906042269
100
AcDbArc
 50
233.199491965
 51
295.4901839325
  0
LINE
  5
1A9
330
1F
100
AcDbEntity
  8
0
  6
Continuous
 62
     7
370
    15
100
AcDbLine
 10
283.4033823201
 20
156.1586438365
 30
0.0
 11
283.4033823201
 21
156.4444330914
 31
0.0
  0
LINE
  5
1AA
330
1F
100
AcDbEntity
  8
0
  6
Continuous
 62
     7
370
    15
100
AcDbLine
 10
283.6155147843
 20
156.2811053014
 30
0.0
 11
283.4033823201
 21
156.1586438365
 31
0.0
  0
LINE
  5
1AB
330
1F
100
AcDbEntity
  8
0
  6
Continuous
 62
     7
370
    15
100
AcDbLine
 10
283.6155147843
 20
156.0361431698
 30
0.0
 11
283.6155147843
 21
156.2811053014
 31
0.0
  0
LINE
  5
1AC
330
1F
100
AcDbEntity
  8
0
  6
Continuous
 62
     7
370
    15
100
AcDbLine
 10
283.6155147843
 20
156.0361431698
 30
0.0
 11
283.4033823201
 21
155.9136817049
 31
0.0
  0
LINE
  5
1AD
330
1F
100
AcDbEntity
  8
0
  6
Continuous
 62
     7
370
    15
100
AcDbLine
 10
283.4033823201
 20
155.0154868167
 30
0.0
 11
283.4033823201
 21
155.9136817049
 31
0.0
  0
LINE
  5
1AE
330
1F
100
AcDbEntity
  8
0
  6
Continuous
 62
     7
370
    15
100
AcDbLine
 10
283.6155147843
 20
155.1379482816
 30
0.0
 11
283.4033823201
 21
155.0154868167
 31
0.0
  0
LINE
  5
1AF
330
1F
100
AcDbEntity
  8
0
  6
Continuous
 62
     7
370
    15
100
AcDbLine
 10
283.6155147843
 20
154.89298615
 30
0.0
 11
283.6155147843
 21
155.1379482816
 31
0.0
  0
LINE
  5
1B0
330
1F
100
AcDbEntity
  8
0
  6
Continuous
 62
     7
370
    15
100
AcDbLine
 10
283.6155147843
 20
154.89298615
 30
0.0
 11
281.3527727136
 21
153.5867329569
 31
0.0
  0
LINE
  5
1B1
330
1F
100
AcDbEntity
  8
0
  6
Continuous
 62
     7
370
    15
100
AcDbLine
 10
281.3527727136
 20
153.7827024189
 30
0.0
 11
281.3527727136
 21
153.5867329569
 31
0.0
  0
LINE
  5
1B2
330
1F
100
AcDbEntity
  8
0
  6
Continuous
 62
     7
370
    15
100
AcDbLine
 10
281.5931888743
 20
153.9214917142
 30
0.0
 11
281.3527727136
 21
153.7827024189
 31
0.0
  0
ARC
  5
1B3
330
1F
100
AcDbEntity
  8
0
  6
Continuous
 62
     7
370
    15
100
AcDbCircle
 10
279.3311741358
 20
157.416716154
 30
0.0
 40
4.163328543591535
100
AcDbArc
 50
302.9098521661
 51
346.2666034526
  0
LINE
  5
1B4
330
1F
100
AcDbEntity
  8
0
  6
Continuous
 62
     7
370
    15
100
AcDbLine
 10
283.4033823201
 20
156.4444330914
 30
0.0
 11
283.3754768917
 21
156.4283236305
 31
0.0
  0
LINE
  5
1B5
330
1F
100
AcDbEntity
  8
0
  6
Continuous
 62
     7
370
    15
100
AcDbLine
 10
286.550008078
 20
153.1989392304
 30
0.0
 11
283.6155147843
 21
154.89298615
 31
0.0
  0
LINE
  5
1B6
330
1F
100
AcDbEntity
  8
0
  6
Continuous
 62
     7
370
    15
100
AcDbLine
 10
283.6155147843
 20
155.1379482816
 30
0.0
 11
286.550008078
 21
153.443901362
 31
0.0
  0
LWPOLYLINE
  5
1B7
330
1F
100
AcDbEntity
  8
0
  6
Continuous
 62
     7
370
    15
100
AcDbPolyline
 90
        9
 70
   128
 43
0.0
 10
286.550008078
 20
153.443901362
 10
286.6988370294
 20
153.3921697817
 10
286.8250078351
 20
153.4166849518
 10
286.9093120689
 20
153.5137148473
 10
286.9389160153
 20
153.6684870328
 10
286.9093120689
 20
153.8574392072
 10
286.8250078351
 20
154.0518046991
 10
286.6988370294
 20
154.2219935807
 10
286.550008078
 20
154.3420962502
  0
LINE
  5
1B8
330
1F
100
AcDbEntity
  8
0
  6
Continuous
 62
     7
370
    15
100
AcDbLine
 10
286.550008078
 20
154.3420962502
 30
0.0
 11
283.6155147843
 21
156.0361431698
 31
0.0
  0
LINE
  5
1B9
330
1F
100
AcDbEntity
  8
0
  6
Continuous
 62
     7
370
    15
100
AcDbLine
 10
283.6155147843
 20
156.2811053014
 30
0.0
 11
286.550008078
 21
154.5870583818
 31
0.0
  0
LWPOLYLINE
  5
1BA
330
1F
100
AcDbEntity
  8
0
  6
Continuous
 62
     7
370
    15
100
AcDbPolyline
 90
       11
 70
   128
 43
0.0
 10
286.550008078
 20
154.5870583818
 10
286.7357387027
 20
154.4458688013
 10
286.9032892842
 20
154.2505599336
 10
287.0362583766
 20
154.0202504063
 10
287.1216310329
 20
153.7774839851
 10
287.1510474259
 20
153.5460261761
 10
287.1216310329
 20
153.3485315072
 10
287.0362583766
 20
153.2043342569
 10
286.9032892842
 20
153.12754788
 10
286.7357387027
 20
153.1256887961
 10
286.550008078
 20
153.1989392304
  0
LINE
  5
1BB
330
1F
100
AcDbEntity
  8
0
  6
Continuous
 62
     7
370
    15
100
AcDbLine
 10
279.2314512321
 20
149.5046920329
 30
0.0
 11
279.6910710445
 21
149.239359163
 31
0.0
  0
LINE
  5
1BC
330
1F
100
AcDbEntity
  8
0
  6
Continuous
 62
     7
370
    15
100
AcDbLine
 10
279.3375179911
 20
149.0352573296
 30
0.0
 11
276.4030246974
 21
150.7293042493
 31
0.0
  0
LINE
  5
1BD
330
1F
100
AcDbEntity
  8
0
  6
Continuous
 62
     7
370
    15
100
AcDbLine
 10
278.6657667681
 20
152.0355574423
 30
0.0
 11
276.4030246974
 21
150.7293042493
 31
0.0
  0
LINE
  5
1BE
330
1F
100
AcDbEntity
  8
0
  6
Continuous
 62
     7
370
    15
100
AcDbLine
 10
278.6657667681
 20
152.0355574423
 30
0.0
 11
280.9285067315
 21
150.7293054658
 31
0.0
  0
LINE
  5
1BF
330
1F
100
AcDbEntity
  8
0
  6
Continuous
 62
     7
370
    15
100
AcDbLine
 10
280.9285067315
 20
150.7293054658
 30
0.0
 11
283.615512677
 21
152.2804809805
 31
0.0
  0
LINE
  5
1C0
330
1F
100
AcDbEntity
  8
0
  6
Continuous
 62
     7
370
    15
100
AcDbLine
 10
283.615512677
 20
152.2804809805
 30
0.0
 11
281.3527727136
 21
153.5867329569
 31
0.0
  0
LINE
  5
1C1
330
1F
100
AcDbEntity
  8
0
  6
Continuous
 62
     7
370
    15
100
AcDbLine
 10
285.7368341585
 20
153.2601696587
 30
0.0
 11
286.1964539709
 21
152.9948367888
 31
0.0
  0
LINE
  5
1C2
330
1F
100
AcDbEntity
  8
0
  6
Continuous
 62
     7
370
    15
100
AcDbLine
 10
285.7368341585
 20
153.2601696587
 30
0.0
 11
279.2314512321
 21
149.5046920329
 31
0.0
  0
LINE
  5
1C3
330
1F
100
AcDbEntity
  8
0
  6
Continuous
 62
     7
370
    15
100
AcDbLine
 10
286.1849942428
 20
154.3078913221
 30
0.0
 11
283.4033823201
 21
155.9136817049
 31
0.0
  0
ARC
  5
1C4
330
1F
100
AcDbEntity
  8
0
  6
Continuous
 62
     7
370
    15
100
AcDbCircle
 10
286.3461786461
 20
153.959190628
 30
0.0
 40
0.4037385716215282
100
AcDbArc
 50
134.5592447624
 51
208.53416057
  0
LINE
  5
1C5
330
1F
100
AcDbEntity
  8
0
  6
Continuous
 62
     7
370
    15
100
AcDbLine
 10
283.4033823201
 20
157.8325525471
 30
0.0
 11
283.4033823201
 21
158.2510278236
 31
0.0
  0
LINE
  5
1C6
330
1F
100
AcDbEntity
  8
0
  6
Continuous
 62
     7
370
    15
100
AcDbLine
 10
283.4033823201
 20
158.2510278236
 30
0.0
 11
283.5723680018
 21
158.153474466
 31
0.0
  0
LINE
  5
1C7
330
1F
100
AcDbEntity
  8
0
  6
Continuous
 62
     7
370
    15
100
AcDbLine
 10
285.8782558014
 20
154.9748523743
 30
0.0
 11
285.8782558014
 21
155.4591236606
 31
0.0
  0
LINE
  5
1C8
330
1F
100
AcDbEntity
  8
0
  6
Continuous
 62
     7
370
    15
100
AcDbLine
 10
285.6661222834
 20
155.138181115
 30
0.0
 11
283.4033823201
 21
156.4444330914
 31
0.0
  0
LINE
  5
1C9
330
1F
100
AcDbEntity
  8
0
  6
Continuous
 62
     7
370
    15
100
AcDbLine
 10
285.6661222834
 20
155.138181115
 30
0.0
 11
285.6661222834
 21
155.2902840355
 31
0.0
  0
LINE
  5
1CA
330
1F
100
AcDbEntity
  8
0
  6
Continuous
 62
     7
370
    15
100
AcDbLine
 10
283.4033823201
 20
157.8325525471
 30
0.0
 11
283.5801588468
 21
157.7305016304
 31
0.0
  0
LINE
  5
1CB
330
1F
100
AcDbEntity
  8
0
  6
Continuous
 62
     7
370
    15
100
AcDbLine
 10
280.9285067315
 20
150.9252749278
 30
0.0
 11
280.9285067315
 21
150.7293054658
 31
0.0
  0
ARC
  5
1CC
330
1F
100
AcDbEntity
  8
0
  6
Continuous
 62
     7
370
    15
100
AcDbCircle
 10
282.4272070082
 20
157.5326432886
 30
0.0
 40
0.9898273066706652
100
AcDbArc
 50
16.6614779791
 51
97.1823202185
  0
ARC
  5
1CD
330
1F
100
AcDbEntity
  8
0
  6
Continuous
 62
     7
370
    15
100
AcDbCircle
 10
282.464145812
 20
157.6012236342
 30
0.0
 40
1.142108008266544
100
AcDbArc
 50
34.6771505991
 51
111.212487274
  0
LINE
  5
1CE
330
1F
100
AcDbEntity
  8
0
  6
Continuous
 62
     7
370
    15
100
AcDbLine
 10
283.4033823201
 20
157.8325525471
 30
0.0
 11
283.3754768917
 21
157.8164430862
 31
0.0
  0
LINE
  5
1CF
330
1F
100
AcDbEntity
  8
0
  6
Continuous
 62
     7
370
    15
100
AcDbLine
 10
283.3754768917
 20
157.8164430862
 30
0.0
 11
283.5801588468
 21
157.6982827086
 31
0.0
  0
ARC
  5
1D0
330
1F
100
AcDbEntity
  8
0
  6
Continuous
 62
     7
370
    15
100
AcDbCircle
 10
286.443753366
 20
153.3254026023
 30
0.0
 40
0.4128325906039994
100
AcDbArc
 50
233.199491965
 51
295.4901839325
  0
LWPOLYLINE
  5
1D1
330
1F
100
AcDbEntity
  8
0
  6
Continuous
 62
     7
370
    15
100
AcDbPolyline
 90
        8
 70
   128
 43
0.0
 10
278.5950570004
 20
152.1907070242
 10
278.279832291
 20
152.0063924891
 10
277.9686642158
 20
151.8849994897
 10
277.6702181668
 20
151.8299073183
 10
277.3928139319
 20
151.8426546755
 10
277.1441749211
 20
151.9228822021
 10
276.9312321837
 20
152.0683574413
 10
276.7762582218
 20
152.2499163764
  0
LINE
  5
1D2
330
1F
100
AcDbEntity
  8
0
  6
Continuous
 62
     7
370
    15
100
AcDbLine
 10
278.6657667681
 20
152.2315269042
 30
0.0
 11
278.5950570004
 21
152.1907070242
 31
0.0
  0
LINE
  5
1D3
330
1F
100
AcDbEntity
  8
0
  6
Continuous
 62
     7
370
    15
100
AcDbLine
 10
278.6657667681
 20
152.2315269042
 30
0.0
 11
278.6657667681
 21
152.0355574423
 31
0.0
  0
LINE
  5
1D4
330
1F
100
AcDbEntity
  8
0
  6
Continuous
 62
     7
370
    15
100
AcDbLine
 10
276.4030246974
 20
150.7293042493
 30
0.0
 11
276.4030246974
 21
150.9742663809
 31
0.0
  0
LINE
  5
1D5
330
1F
100
AcDbEntity
  8
0
  6
Continuous
 62
     7
370
    15
100
AcDbLine
 10
276.4030246974
 20
150.9742663809
 30
0.0
 11
276.615156108
 21
151.0967272376
 31
0.0
  0
LINE
  5
1D6
330
1F
100
AcDbEntity
  8
0
  6
Continuous
 62
     7
370
    15
100
AcDbLine
 10
276.615156108
 20
151.0967272376
 30
0.0
 11
276.615156108
 21
151.9949221258
 31
0.0
  0
LINE
  5
1D7
330
1F
100
AcDbEntity
  8
0
  6
Continuous
 62
     7
370
    15
100
AcDbLine
 10
276.4030246974
 20
151.8724612691
 30
0.0
 11
276.615156108
 21
151.9949221258
 31
0.0
  0
LINE
  5
1D8
330
1F
100
AcDbEntity
  8
0
  6
Continuous
 62
     7
370
    15
100
AcDbLine
 10
276.4030246974
 20
151.8724612691
 30
0.0
 11
276.4030246974
 21
152.1174234007
 31
0.0
  0
LINE
  5
1D9
330
1F
100
AcDbEntity
  8
0
  6
Continuous
 62
     7
370
    15
100
AcDbLine
 10
276.4030246974
 20
152.1174234007
 30
0.0
 11
276.615156108
 21
152.2398842574
 31
0.0
  0
LINE
  5
1DA
330
1F
100
AcDbEntity
  8
0
  6
Continuous
 62
     7
370
    15
100
AcDbLine
 10
276.615156108
 20
152.2398842574
 30
0.0
 11
276.615156108
 21
152.3395058087
 31
0.0
  0
LINE
  5
1DB
330
1F
100
AcDbEntity
  8
0
  6
Continuous
 62
     7
370
    15
100
AcDbLine
 10
280.9285067315
 20
150.9252749278
 30
0.0
 11
278.6657667681
 21
152.2315269042
 31
0.0
  0
LINE
  5
1DC
330
1F
100
AcDbEntity
  8
0
  6
Continuous
 62
     7
370
    15
100
AcDbLine
 10
276.615156108
 20
151.7500004124
 30
0.0
 11
276.4030246974
 21
151.8724612691
 31
0.0
  0
ARC
  5
1DD
330
1F
100
AcDbEntity
  8
0
  6
Continuous
 62
     7
370
    15
100
AcDbCircle
 10
279.8571439081
 20
149.8530623621
 30
0.0
 40
0.4106731815061506
100
AcDbArc
 50
208.4461749948
 51
285.3778510658
  0
LWPOLYLINE
  5
1DE
330
1F
100
AcDbEntity
  8
0
  6
Continuous
 62
     7
370
    15
100
AcDbPolyline
 90
        5
 70
   128
 43
0.0
 10
279.6910710445
 20
149.239359163
 10
279.8768016692
 20
149.1661087287
 10
280.0443522507
 20
149.1679678126
 10
280.1773213431
 20
149.2447541895
 10
280.2534216928
 20
149.3637920238
  0
ARC
  5
1DF
330
1F
100
AcDbEntity
  8
0
  6
Continuous
 62
     7
370
    15
100
AcDbCircle
 10
279.5848173862
 20
149.3658231431
 30
0.0
 40
0.4128325906042269
100
AcDbArc
 50
233.199491965
 51
295.4901839325
  0
LINE
  5
1E0
330
1F
100
AcDbEntity
  8
0
  6
Continuous
 62
     7
370
    15
100
AcDbLine
 10
302.3538440011
 20
167.0985125033
 30
0.0
 11
302.3538440011
 21
167.3843017582
 31
0.0
  0
LINE
  5
1E1
330
1F
100
AcDbEntity
  8
0
  6
Continuous
 62
     7
370
    15
100
AcDbLine
 10
302.5659759385
 20
167.2209736641
 30
0.0
 11
302.3538440011
 21
167.0985125033
 31
0.0
  0
LINE
  5
1E2
330
1F
100
AcDbEntity
  8
0
  6
Continuous
 62
     7
370
    15
100
AcDbLine
 10
302.5659759385
 20
166.9760115325
 30
0.0
 11
302.5659759385
 21
167.2209736641
 31
0.0
  0
LINE
  5
1E3
330
1F
100
AcDbEntity
  8
0
  6
Continuous
 62
     7
370
    15
100
AcDbLine
 10
302.5659759385
 20
166.9760115325
 30
0.0
 11
302.3538440011
 21
166.8535503717
 31
0.0
  0
LINE
  5
1E4
330
1F
100
AcDbEntity
  8
0
  6
Continuous
 62
     7
370
    15
100
AcDbLine
 10
302.3538440011
 20
165.9553554834
 30
0.0
 11
302.3538440011
 21
166.8535503717
 31
0.0
  0
LINE
  5
1E5
330
1F
100
AcDbEntity
  8
0
  6
Continuous
 62
     7
370
    15
100
AcDbLine
 10
302.5659759385
 20
166.0778166443
 30
0.0
 11
302.3538440011
 21
165.9553554834
 31
0.0
  0
LINE
  5
1E6
330
1F
100
AcDbEntity
  8
0
  6
Continuous
 62
     7
370
    15
100
AcDbLine
 10
302.5659759385
 20
165.8328545126
 30
0.0
 11
302.5659759385
 21
166.0778166443
 31
0.0
  0
LINE
  5
1E7
330
1F
100
AcDbEntity
  8
0
  6
Continuous
 62
     7
370
    15
100
AcDbLine
 10
302.5659759385
 20
165.8328545126
 30
0.0
 11
300.3032342629
 21
164.5266015477
 31
0.0
  0
LINE
  5
1E8
330
1F
100
AcDbEntity
  8
0
  6
Continuous
 62
     7
370
    15
100
AcDbLine
 10
300.3032342629
 20
164.7225710097
 30
0.0
 11
300.3032342629
 21
164.5266015477
 31
0.0
  0
LINE
  5
1E9
330
1F
100
AcDbEntity
  8
0
  6
Continuous
 62
     7
370
    15
100
AcDbLine
 10
300.5436505553
 20
164.861360381
 30
0.0
 11
300.3032342629
 21
164.7225710097
 31
0.0
  0
ARC
  5
1EA
330
1F
100
AcDbEntity
  8
0
  6
Continuous
 62
     7
370
    15
100
AcDbCircle
 10
298.2816341087
 20
168.3565860352
 30
0.0
 40
4.163330491104995
100
AcDbArc
 50
302.9098628201
 51
346.2665927987
  0
LINE
  5
1EB
330
1F
100
AcDbEntity
  8
0
  6
Continuous
 62
     7
370
    15
100
AcDbLine
 10
302.3538440011
 20
167.3843017582
 30
0.0
 11
302.3259385727
 21
167.3681922973
 31
0.0
  0
LINE
  5
1EC
330
1F
100
AcDbEntity
  8
0
  6
Continuous
 62
     7
370
    15
100
AcDbLine
 10
305.5004692322
 20
164.138807593
 30
0.0
 11
302.5659759385
 21
165.8328545126
 31
0.0
  0
LINE
  5
1ED
330
1F
100
AcDbEntity
  8
0
  6
Continuous
 62
     7
370
    15
100
AcDbLine
 10
302.5659759385
 20
166.0778166443
 30
0.0
 11
305.5004692322
 21
164.3837697246
 31
0.0
  0
LWPOLYLINE
  5
1EE
330
1F
100
AcDbEntity
  8
0
  6
Continuous
 62
     7
370
    15
100
AcDbPolyline
 90
        9
 70
   128
 43
0.0
 10
305.5004692322
 20
164.3837697246
 10
305.6492981836
 20
164.3320381444
 10
305.7754689893
 20
164.3565533145
 10
305.8597732231
 20
164.45358321
 10
305.8893771694
 20
164.6083553954
 10
305.8597732231
 20
164.7973075698
 10
305.7754689893
 20
164.9916730617
 10
305.6492981836
 20
165.1618619433
 10
305.5004692322
 20
165.2819646128
  0
LINE
  5
1EF
330
1F
100
AcDbEntity
  8
0
  6
Continuous
 62
     7
370
    15
100
AcDbLine
 10
305.5004692322
 20
165.2819646128
 30
0.0
 11
302.5659759385
 21
166.9760115325
 31
0.0
  0
LINE
  5
1F0
330
1F
100
AcDbEntity
  8
0
  6
Continuous
 62
     7
370
    15
100
AcDbLine
 10
302.5659759385
 20
167.2209736641
 30
0.0
 11
305.5004692322
 21
165.5269267445
 31
0.0
  0
LWPOLYLINE
  5
1F1
330
1F
100
AcDbEntity
  8
0
  6
Continuous
 62
     7
370
    15
100
AcDbPolyline
 90
       11
 70
   128
 43
0.0
 10
305.5004692322
 20
165.5269267445
 10
305.6861998568
 20
165.3857371639
 10
305.8537504384
 20
165.1904282963
 10
305.9867195308
 20
164.960118769
 10
306.0720921871
 20
164.7173523478
 10
306.10150858
 20
164.4858945387
 10
306.0720921871
 20
164.2883998698
 10
305.9867195308
 20
164.1442026196
 10
305.8537504384
 20
164.0674162426
 10
305.6861998568
 20
164.0655571588
 10
305.5004692322
 20
164.138807593
  0
LINE
  5
1F2
330
1F
100
AcDbEntity
  8
0
  6
Continuous
 62
     7
370
    15
100
AcDbLine
 10
298.1819137034
 20
160.4445611559
 30
0.0
 11
298.6415335158
 21
160.179228286
 31
0.0
  0
LINE
  5
1F3
330
1F
100
AcDbEntity
  8
0
  6
Continuous
 62
     7
370
    15
100
AcDbLine
 10
298.2879801989
 20
159.9751263006
 30
0.0
 11
295.3534869053
 21
161.6691732202
 31
0.0
  0
LINE
  5
1F4
330
1F
100
AcDbEntity
  8
0
  6
Continuous
 62
     7
370
    15
100
AcDbLine
 10
297.6162285808
 20
162.9754261851
 30
0.0
 11
295.3534869053
 21
161.6691732202
 31
0.0
  0
LINE
  5
1F5
330
1F
100
AcDbEntity
  8
0
  6
Continuous
 62
     7
370
    15
100
AcDbLine
 10
297.6162285808
 20
162.9754261851
 30
0.0
 11
299.8789685442
 21
161.6691742086
 31
0.0
  0
LINE
  5
1F6
330
1F
100
AcDbEntity
  8
0
  6
Continuous
 62
     7
370
    15
100
AcDbLine
 10
299.8789685442
 20
161.6691742086
 30
0.0
 11
302.5659742263
 21
163.2203495712
 31
0.0
  0
LINE
  5
1F7
330
1F
100
AcDbEntity
  8
0
  6
Continuous
 62
     7
370
    15
100
AcDbLine
 10
302.5659742263
 20
163.2203495712
 30
0.0
 11
300.3032342629
 21
164.5266015477
 31
0.0
  0
LINE
  5
1F8
330
1F
100
AcDbEntity
  8
0
  6
Continuous
 62
     7
370
    15
100
AcDbLine
 10
304.6872961029
 20
164.2000384776
 30
0.0
 11
305.1469159153
 21
163.9347056076
 31
0.0
  0
LINE
  5
1F9
330
1F
100
AcDbEntity
  8
0
  6
Continuous
 62
     7
370
    15
100
AcDbLine
 10
304.6872961029
 20
164.2000384776
 30
0.0
 11
298.1819137034
 21
160.4445611559
 31
0.0
  0
LINE
  5
1FA
330
1F
100
AcDbEntity
  8
0
  6
Continuous
 62
     7
370
    15
100
AcDbLine
 10
305.1354559238
 20
165.2477599889
 30
0.0
 11
302.3538440011
 21
166.8535503717
 31
0.0
  0
ARC
  5
1FB
330
1F
100
AcDbEntity
  8
0
  6
Continuous
 62
     7
370
    15
100
AcDbCircle
 10
305.2966403274
 20
164.8990592948
 30
0.0
 40
0.4037385718171905
100
AcDbArc
 50
134.5592447833
 51
208.5341605491
  0
LINE
  5
1FC
330
1F
100
AcDbEntity
  8
0
  6
Continuous
 62
     7
370
    15
100
AcDbLine
 10
302.3538440011
 20
168.7724212139
 30
0.0
 11
302.3538440011
 21
169.1908964904
 31
0.0
  0
LINE
  5
1FD
330
1F
100
AcDbEntity
  8
0
  6
Continuous
 62
     7
370
    15
100
AcDbLine
 10
302.3538440011
 20
169.1908964904
 30
0.0
 11
302.5228296828
 21
169.0933431328
 31
0.0
  0
LINE
  5
1FE
330
1F
100
AcDbEntity
  8
0
  6
Continuous
 62
     7
370
    15
100
AcDbLine
 10
304.8287174824
 20
165.9147210411
 30
0.0
 11
304.8287174824
 21
166.3989923274
 31
0.0
  0
LINE
  5
1FF
330
1F
100
AcDbEntity
  8
0
  6
Continuous
 62
     7
370
    15
100
AcDbLine
 10
304.6165839644
 20
166.0780497818
 30
0.0
 11
302.3538440011
 21
167.3843017582
 31
0.0
  0
LINE
  5
200
330
1F
100
AcDbEntity
  8
0
  6
Continuous
 62
     7
370
    15
100
AcDbLine
 10
304.6165839644
 20
166.0780497818
 30
0.0
 11
304.6165839644
 21
166.2301527023
 31
0.0
  0
LINE
  5
201
330
1F
100
AcDbEntity
  8
0
  6
Continuous
 62
     7
370
    15
100
AcDbLine
 10
302.3538440011
 20
168.7724212139
 30
0.0
 11
302.5306205278
 21
168.6703702972
 31
0.0
  0
LINE
  5
202
330
1F
100
AcDbEntity
  8
0
  6
Continuous
 62
     7
370
    15
100
AcDbLine
 10
299.8789685442
 20
161.8651436706
 30
0.0
 11
299.8789685442
 21
161.6691742086
 31
0.0
  0
LINE
  5
203
330
1F
100
AcDbEntity
  8
0
  6
Continuous
 62
     7
370
    15
100
AcDbLine
 10
302.3259385727
 20
168.756311753
 30
0.0
 11
302.5306205278
 21
168.6381513754
 31
0.0
  0
LINE
  5
204
330
1F
100
AcDbEntity
  8
0
  6
Continuous
 62
     7
370
    15
100
AcDbLine
 10
302.3538440011
 20
168.7724212139
 30
0.0
 11
302.3259385727
 21
168.756311753
 31
0.0
  0
ARC
  5
205
330
1F
100
AcDbEntity
  8
0
  6
Continuous
 62
     7
370
    15
100
AcDbCircle
 10
301.3776701801
 20
168.4725140773
 30
0.0
 40
0.9898252699577031
100
AcDbArc
 50
16.6613850585
 51
97.1824374292
  0
ARC
  5
206
330
1F
100
AcDbEntity
  8
0
  6
Continuous
 62
     7
370
    15
100
AcDbCircle
 10
301.4146079987
 20
168.5410939493
 30
0.0
 40
1.142106654648063
100
AcDbArc
 50
34.6770970318
 51
111.2125408412
  0
ARC
  5
207
330
1F
100
AcDbEntity
  8
0
  6
Continuous
 62
     7
370
    15
100
AcDbCircle
 10
305.3942153104
 20
164.2652714211
 30
0.0
 40
0.4128325906042959
100
AcDbArc
 50
233.199491965
 51
295.4901839325
  0
LWPOLYLINE
  5
208
330
1F
100
AcDbEntity
  8
0
  6
Continuous
 62
     7
370
    15
100
AcDbPolyline
 90
        8
 70
   128
 43
0.0
 10
297.5455178911
 20
163.1305752348
 10
297.2302947622
 20
162.9462616121
 10
296.9191258968
 20
162.8248681565
 10
296.6206809015
 20
162.7697765934
 10
296.3432745592
 20
162.782522734
 10
296.0946363387
 20
162.8627507168
 10
295.8816928111
 20
163.0082254998
 10
295.7267204296
 20
163.1897853473
  0
LINE
  5
209
330
1F
100
AcDbEntity
  8
0
  6
Continuous
 62
     7
370
    15
100
AcDbLine
 10
297.6162285808
 20
163.1713956471
 30
0.0
 11
297.5455178911
 21
163.1305752348
 31
0.0
  0
LINE
  5
20A
330
1F
100
AcDbEntity
  8
0
  6
Continuous
 62
     7
370
    15
100
AcDbLine
 10
297.6162285808
 20
163.1713956471
 30
0.0
 11
297.6162285808
 21
162.9754261851
 31
0.0
  0
LINE
  5
20B
330
1F
100
AcDbEntity
  8
0
  6
Continuous
 62
     7
370
    15
100
AcDbLine
 10
295.3534869053
 20
161.6691732202
 30
0.0
 11
295.3534869053
 21
161.9141353518
 31
0.0
  0
LINE
  5
20C
330
1F
100
AcDbEntity
  8
0
  6
Continuous
 62
     7
370
    15
100
AcDbLine
 10
295.3534869053
 20
161.9141353518
 30
0.0
 11
295.5656188427
 21
162.0365965126
 31
0.0
  0
LINE
  5
20D
330
1F
100
AcDbEntity
  8
0
  6
Continuous
 62
     7
370
    15
100
AcDbLine
 10
295.5656188427
 20
162.0365965126
 30
0.0
 11
295.5656188427
 21
162.9347914008
 31
0.0
  0
LINE
  5
20E
330
1F
100
AcDbEntity
  8
0
  6
Continuous
 62
     7
370
    15
100
AcDbLine
 10
295.3534869053
 20
162.81233024
 30
0.0
 11
295.5656188427
 21
162.9347914008
 31
0.0
  0
LINE
  5
20F
330
1F
100
AcDbEntity
  8
0
  6
Continuous
 62
     7
370
    15
100
AcDbLine
 10
295.3534869053
 20
162.81233024
 30
0.0
 11
295.3534869053
 21
163.0572923717
 31
0.0
  0
LINE
  5
210
330
1F
100
AcDbEntity
  8
0
  6
Continuous
 62
     7
370
    15
100
AcDbLine
 10
295.3534869053
 20
163.0572923717
 30
0.0
 11
295.5656188427
 21
163.1797535325
 31
0.0
  0
LINE
  5
211
330
1F
100
AcDbEntity
  8
0
  6
Continuous
 62
     7
370
    15
100
AcDbLine
 10
295.5656188427
 20
163.1797535325
 30
0.0
 11
295.5656188427
 21
163.2793750838
 31
0.0
  0
LINE
  5
212
330
1F
100
AcDbEntity
  8
0
  6
Continuous
 62
     7
370
    15
100
AcDbLine
 10
299.8789685442
 20
161.8651436706
 30
0.0
 11
297.6162285808
 21
163.1713956471
 31
0.0
  0
LINE
  5
213
330
1F
100
AcDbEntity
  8
0
  6
Continuous
 62
     7
370
    15
100
AcDbLine
 10
295.5656183159
 20
162.6898693834
 30
0.0
 11
295.3534869053
 21
162.81233024
 31
0.0
  0
ARC
  5
214
330
1F
100
AcDbEntity
  8
0
  6
Continuous
 62
     7
370
    15
100
AcDbCircle
 10
298.8076063793
 20
160.7929314851
 30
0.0
 40
0.4106731815058665
100
AcDbArc
 50
208.4461749947
 51
285.3778510658
  0
LWPOLYLINE
  5
215
330
1F
100
AcDbEntity
  8
0
  6
Continuous
 62
     7
370
    15
100
AcDbPolyline
 90
        5
 70
   128
 43
0.0
 10
298.6415335158
 20
160.179228286
 10
298.8272641404
 20
160.1059778517
 10
298.994814722
 20
160.1078369356
 10
299.1277838144
 20
160.1846233125
 10
299.203884164
 20
160.3036611468
  0
ARC
  5
216
330
1F
100
AcDbEntity
  8
0
  6
Continuous
 62
     7
370
    15
100
AcDbCircle
 10
298.535279594
 20
160.3056921141
 30
0.0
 40
0.4128325906040639
100
AcDbArc
 50
233.199491965
 51
295.4901839325
  0
LINE
  5
217
330
1F
100
AcDbEntity
  8
0
  6
Continuous
 62
     7
370
    15
100
AcDbLine
 10
318.6864816811
 20
172.8875346816
 30
0.0
 11
318.6879631428
 21
172.9559719442
 31
0.0
  0
ARC
  5
218
330
1F
100
AcDbEntity
  8
0
  6
Continuous
 62
     7
370
    15
100
AcDbCircle
 10
318.5941304597
 20
172.9722165572
 30
0.0
 40
0.0952284613892321
100
AcDbArc
 50
350.1781258262
 51
56.580352786
  0
LINE
  5
219
330
1F
100
AcDbEntity
  8
0
  6
Continuous
 62
     7
370
    15
100
AcDbLine
 10
280.7855593727
 20
151.0077979563
 30
0.0
 11
280.7870408344
 21
151.0762352189
 31
0.0
  0
ARC
  5
21A
330
1F
100
AcDbEntity
  8
0
  6
Continuous
 62
     7
370
    15
100
AcDbCircle
 10
280.6931784606
 20
151.0924669963
 30
0.0
 40
0.0952555290541778
100
AcDbArc
 50
350.1887796706
 51
56.5696989415
  0
LINE
  5
21B
330
1F
100
AcDbEntity
  8
0
  6
Continuous
 62
     7
370
    15
100
AcDbLine
 10
299.7360202635
 20
161.9476661669
 30
0.0
 11
299.7375018569
 21
162.0161035055
 31
0.0
  0
ARC
  5
21C
330
1F
100
AcDbEntity
  8
0
  6
Continuous
 62
     7
370
    15
100
AcDbCircle
 10
299.6436733939
 20
162.0323496723
 30
0.0
 40
0.0952245683186355
100
AcDbArc
 50
350.176771499
 51
56.58203909
  0
LINE
  5
21D
330
1F
100
AcDbEntity
  8
0
  6
Continuous
 62
     7
370
    15
100
AcDbLine
 10
326.3601183499
 20
176.1402402687
 30
0.0
 11
326.3601183499
 21
178.4138927533
 31
0.0
  0
LINE
  5
21E
330
1F
100
AcDbEntity
  8
0
  6
Continuous
 62
     7
370
    15
100
AcDbLine
 10
324.5923530828
 20
177.1607494352
 30
0.0
 11
326.3601183499
 21
176.1402402687
 31
0.0
  0
LINE
  5
21F
330
1F
100
AcDbEntity
  8
0
  6
Continuous
 62
     7
370
    15
100
AcDbLine
 10
324.5923530828
 20
177.1607494352
 30
0.0
 11
324.5923530828
 21
177.4873658135
 31
0.0
  0
LINE
  5
220
330
1F
100
AcDbEntity
  8
0
  6
Continuous
 62
     7
370
    15
100
AcDbLine
 10
324.5923530828
 20
177.4873658135
 30
0.0
 11
322.2588991371
 21
178.8344401032
 31
0.0
  0
LINE
  5
221
330
1F
100
AcDbEntity
  8
0
  6
Continuous
 62
     7
370
    15
100
AcDbLine
 10
322.2588991371
 20
178.8344401032
 30
0.0
 11
322.2588991371
 21
180.7814762095
 31
0.0
  0
LINE
  5
222
330
1F
100
AcDbEntity
  8
0
  6
Continuous
 62
     7
370
    15
100
AcDbLine
 10
314.38782661
 20
174.2905666524
 30
0.0
 11
313.7736174256
 21
173.9359912376
 31
0.0
  0
LINE
  5
223
330
1F
100
AcDbEntity
  8
0
  6
Continuous
 62
     7
370
    15
100
AcDbLine
 10
313.7736174256
 20
173.9359912376
 30
0.0
 11
313.7736174256
 21
174.6321326565
 31
0.0
  0
LINE
  5
224
330
1F
100
AcDbEntity
  8
0
  6
Continuous
 62
     7
370
    15
100
AcDbLine
 10
320.6920436821
 20
181.6860013018
 30
0.0
 11
319.3456120302
 21
180.908722854
 31
0.0
  0
LINE
  5
225
330
1F
100
AcDbEntity
  8
0
  6
Continuous
 62
     7
370
    15
100
AcDbLine
 10
322.2588991371
 20
178.8344401032
 30
0.0
 11
321.4810811551
 21
178.3854153399
 31
0.0
  0
LINE
  5
226
330
1F
100
AcDbEntity
  8
0
  6
Continuous
 62
     7
370
    15
100
AcDbLine
 10
321.4810811551
 20
178.3854153399
 30
0.0
 11
321.4810811551
 21
180.0184967751
 31
0.0
  0
ARC
  5
227
330
1F
100
AcDbEntity
  8
0
  6
Continuous
 62
     7
370
    15
100
AcDbCircle
 10
320.5478537991
 20
179.5642304961
 30
0.0
 40
1.037916735722844
100
AcDbArc
 50
25.9553896496
 51
84.6870451418
  0
LINE
  5
228
330
1F
100
AcDbEntity
  8
0
  6
Continuous
 62
     7
370
    15
100
AcDbLine
 10
322.1174774942
 20
178.2629532667
 30
0.0
 11
321.9053460836
 21
178.1404924101
 31
0.0
  0
LINE
  5
229
330
1F
100
AcDbEntity
  8
0
  6
Continuous
 62
     7
370
    15
100
AcDbLine
 10
321.9053460836
 20
178.1404924101
 30
0.0
 11
321.4810811551
 21
178.3854153399
 31
0.0
  0
LINE
  5
22A
330
1F
100
AcDbEntity
  8
0
  6
Continuous
 62
     7
370
    15
100
AcDbLine
 10
324.5923530828
 20
177.4873658135
 30
0.0
 11
324.3802195649
 21
177.3649037403
 31
0.0
  0
LINE
  5
22B
330
1F
100
AcDbEntity
  8
0
  6
Continuous
 62
     7
370
    15
100
AcDbLine
 10
324.3802195649
 20
177.3649037403
 30
0.0
 11
322.4710305476
 21
178.4670551
 31
0.0
  0
LINE
  5
22C
330
1F
100
AcDbEntity
  8
0
  6
Continuous
 62
     7
370
    15
100
AcDbLine
 10
322.4710305476
 20
178.4670551
 30
0.0
 11
322.1174774942
 21
178.2629532667
 31
0.0
  0
LWPOLYLINE
  5
22D
330
1F
100
AcDbEntity
  8
0
  6
Continuous
 62
     7
370
    15
100
AcDbPolyline
 90
        8
 70
   128
 43
0.0
 10
324.3095097972
 20
176.1401926071
 10
324.1690195997
 20
176.1909692201
 10
324.0475018061
 20
176.1742361513
 10
323.9613726138
 20
176.092250474
 10
323.922258231
 20
175.9560880524
 10
323.9354459799
 20
175.7841361586
 10
323.9991530488
 20
175.5996185535
 10
324.0095274955
 20
175.5784555405
  0
ARC
  5
22E
330
1F
100
AcDbEntity
  8
0
  6
Continuous
 62
     7
370
    15
100
AcDbCircle
 10
323.9896950468
 20
175.5168592322
 30
0.0
 40
0.7005897307426705
100
AcDbArc
 50
339.5082622458
 51
62.8389216467
  0
LINE
  5
22F
330
1F
100
AcDbEntity
  8
0
  6
Continuous
 62
     7
370
    15
100
AcDbLine
 10
323.9205955378
 20
176.772952059
 30
0.0
 11
324.5923530828
 21
177.1607494352
 31
0.0
  0
LINE
  5
230
330
1F
100
AcDbEntity
  8
0
  6
Continuous
 62
     7
370
    15
100
AcDbLine
 10
323.8145351009
 20
177.0383410503
 30
0.0
 11
323.8145351009
 21
176.8341792737
 31
0.0
  0
LINE
  5
231
330
1F
100
AcDbEntity
  8
0
  6
Continuous
 62
     7
370
    15
100
AcDbLine
 10
324.3802195649
 20
177.3649037403
 30
0.0
 11
323.8145351009
 21
177.0383410503
 31
0.0
  0
LINE
  5
232
330
1F
100
AcDbEntity
  8
0
  6
Continuous
 62
     7
370
    15
100
AcDbLine
 10
326.3601183499
 20
176.1402402687
 30
0.0
 11
325.2287473146
 21
175.4871136722
 31
0.0
  0
LINE
  5
233
330
1F
100
AcDbEntity
  8
0
  6
Continuous
 62
     7
370
    15
100
AcDbLine
 10
325.0350762237
 20
175.5989176132
 30
0.0
 11
325.2287473146
 21
175.4871136722
 31
0.0
  0
LINE
  5
234
330
1F
100
AcDbEntity
  8
0
  6
Continuous
 62
     7
370
    15
100
AcDbLine
 10
324.0266665115
 20
177.160802477
 30
0.0
 11
324.0266665115
 21
177.5690064854
 31
0.0
  0
LINE
  5
235
330
1F
100
AcDbEntity
  8
0
  6
Continuous
 62
     7
370
    15
100
AcDbLine
 10
324.4383653571
 20
174.8002344443
 30
0.0
 11
325.2287473146
 21
174.3439566524
 31
0.0
  0
LINE
  5
236
330
1F
100
AcDbEntity
  8
0
  6
Continuous
 62
     7
370
    15
100
AcDbLine
 10
325.2287473146
 20
174.3439566524
 30
0.0
 11
319.0062076739
 21
170.7517609798
 31
0.0
  0
LINE
  5
237
330
1F
100
AcDbEntity
  8
0
  6
Continuous
 62
     7
370
    15
100
AcDbLine
 10
317.8954338034
 20
171.3929970861
 30
0.0
 11
319.0062076739
 21
170.7517609798
 31
0.0
  0
LINE
  5
238
330
1F
100
AcDbEntity
  8
0
  6
Continuous
 62
     7
370
    15
100
AcDbLine
 10
317.5713982953
 20
171.5800588032
 30
0.0
 11
317.8954338034
 21
171.3929970861
 31
0.0
  0
LINE
  5
239
330
1F
100
AcDbEntity
  8
0
  6
Continuous
 62
     7
370
    15
100
AcDbLine
 10
317.5213236246
 20
171.6089662953
 30
0.0
 11
317.5713982953
 21
171.5800588032
 31
0.0
  0
LINE
  5
23A
330
1F
100
AcDbEntity
  8
0
  6
Continuous
 62
     7
370
    15
100
AcDbLine
 10
325.2287473146
 20
174.3439566524
 30
0.0
 11
325.2287473146
 21
175.4871136722
 31
0.0
  0
LINE
  5
23B
330
1F
100
AcDbEntity
  8
0
  6
Continuous
 62
     7
370
    15
100
AcDbLine
 10
314.5160805237
 20
173.5073764144
 30
0.0
 11
313.7736174256
 21
173.9359912376
 31
0.0
  0
ARC
  5
23C
330
1F
100
AcDbEntity
  8
0
  6
Continuous
 62
     7
370
    15
100
AcDbCircle
 10
317.9690596431
 20
171.8947188498
 30
0.0
 40
0.5070951512502472
100
AcDbArc
 50
218.3537376838
 51
261.6516388489
  0
LINE
  5
23D
330
1F
100
AcDbEntity
  8
0
  6
Continuous
 62
     7
370
    15
100
AcDbLine
 10
307.4096558787
 20
165.2003711457
 30
0.0
 11
307.4096558787
 21
168.3102271046
 31
0.0
  0
LINE
  5
23E
330
1F
100
AcDbEntity
  8
0
  6
Continuous
 62
     7
370
    15
100
AcDbLine
 10
305.6418906116
 20
166.2208803122
 30
0.0
 11
307.4096558787
 21
165.2003711457
 31
0.0
  0
LINE
  5
23F
330
1F
100
AcDbEntity
  8
0
  6
Continuous
 62
     7
370
    15
100
AcDbLine
 10
305.6418906116
 20
166.2208803122
 30
0.0
 11
305.6418906116
 21
166.5474966905
 31
0.0
  0
LINE
  5
240
330
1F
100
AcDbEntity
  8
0
  6
Continuous
 62
     7
370
    15
100
AcDbLine
 10
305.6418906116
 20
166.5474966905
 30
0.0
 11
303.3084366658
 21
167.8945709802
 31
0.0
  0
LINE
  5
241
330
1F
100
AcDbEntity
  8
0
  6
Continuous
 62
     7
370
    15
100
AcDbLine
 10
303.3084366658
 20
167.8945709802
 30
0.0
 11
303.3084366658
 21
170.6778105607
 31
0.0
  0
LINE
  5
242
330
1F
100
AcDbEntity
  8
0
  6
Continuous
 62
     7
370
    15
100
AcDbLine
 10
295.437364929
 20
163.3506979856
 30
0.0
 11
294.8231554812
 21
162.9961224187
 31
0.0
  0
LINE
  5
243
330
1F
100
AcDbEntity
  8
0
  6
Continuous
 62
     7
370
    15
100
AcDbLine
 10
294.8231554812
 20
162.9961224187
 30
0.0
 11
294.8231554812
 21
163.6922638376
 31
0.0
  0
LINE
  5
244
330
1F
100
AcDbEntity
  8
0
  6
Continuous
 62
     7
370
    15
100
AcDbLine
 10
302.4658342362
 20
171.1642345508
 30
0.0
 11
300.3951510078
 21
169.9688545674
 31
0.0
  0
LINE
  5
245
330
1F
100
AcDbEntity
  8
0
  6
Continuous
 62
     7
370
    15
100
AcDbLine
 10
303.3084366658
 20
167.8945709802
 30
0.0
 11
302.5306192107
 21
167.4455465211
 31
0.0
  0
LINE
  5
246
330
1F
100
AcDbEntity
  8
0
  6
Continuous
 62
     7
370
    15
100
AcDbLine
 10
302.5306192107
 20
167.4455465211
 30
0.0
 11
302.5306192107
 21
169.0786279563
 31
0.0
  0
ARC
  5
247
330
1F
100
AcDbEntity
  8
0
  6
Continuous
 62
     7
370
    15
100
AcDbCircle
 10
301.5973859685
 20
168.6243541149
 30
0.0
 40
1.037925338055786
100
AcDbArc
 50
25.9556227878
 51
84.6867191562
  0
LINE
  5
248
330
1F
100
AcDbEntity
  8
0
  6
Continuous
 62
     7
370
    15
100
AcDbLine
 10
303.1670163401
 20
167.3230849041
 30
0.0
 11
302.9548841392
 21
167.2006235912
 31
0.0
  0
LINE
  5
249
330
1F
100
AcDbEntity
  8
0
  6
Continuous
 62
     7
370
    15
100
AcDbLine
 10
302.9548841392
 20
167.2006235912
 30
0.0
 11
302.5306192107
 21
167.4455465211
 31
0.0
  0
LINE
  5
24A
330
1F
100
AcDbEntity
  8
0
  6
Continuous
 62
     7
370
    15
100
AcDbLine
 10
305.6418906116
 20
166.5474966905
 30
0.0
 11
305.4297586742
 21
166.4250355297
 31
0.0
  0
LINE
  5
24B
330
1F
100
AcDbEntity
  8
0
  6
Continuous
 62
     7
370
    15
100
AcDbLine
 10
305.4297586742
 20
166.4250355297
 30
0.0
 11
303.5205696569
 21
167.5271868894
 31
0.0
  0
LINE
  5
24C
330
1F
100
AcDbEntity
  8
0
  6
Continuous
 62
     7
370
    15
100
AcDbLine
 10
303.5205696569
 20
167.5271868894
 30
0.0
 11
303.1670163401
 21
167.3230849041
 31
0.0
  0
LWPOLYLINE
  5
24D
330
1F
100
AcDbEntity
  8
0
  6
Continuous
 62
     7
370
    15
100
AcDbPolyline
 90
        8
 70
   128
 43
0.0
 10
305.3590478527
 20
165.2003237883
 10
305.2185576553
 20
165.2511004012
 10
305.0970398616
 20
165.2343673324
 10
305.0109106694
 20
165.1523816552
 10
304.9717962866
 20
165.0162192336
 10
304.9849840355
 20
164.8442673397
 10
305.0486911044
 20
164.6597497347
 10
305.0590655511
 20
164.6385867217
  0
ARC
  5
24E
330
1F
100
AcDbEntity
  8
0
  6
Continuous
 62
     7
370
    15
100
AcDbCircle
 10
305.0392331024
 20
164.5769904134
 30
0.0
 40
0.7005897307424597
100
AcDbArc
 50
339.5082622458
 51
62.8389216468
  0
LINE
  5
24F
330
1F
100
AcDbEntity
  8
0
  6
Continuous
 62
     7
370
    15
100
AcDbLine
 10
307.4096558787
 20
165.2003711457
 30
0.0
 11
306.2782851067
 21
164.5472447013
 31
0.0
  0
LINE
  5
250
330
1F
100
AcDbEntity
  8
0
  6
Continuous
 62
     7
370
    15
100
AcDbLine
 10
306.0846140158
 20
164.6590486422
 30
0.0
 11
306.2782851067
 21
164.5472447013
 31
0.0
  0
LINE
  5
251
330
1F
100
AcDbEntity
  8
0
  6
Continuous
 62
     7
370
    15
100
AcDbLine
 10
304.9701335934
 20
165.8330832402
 30
0.0
 11
305.6418906116
 21
166.2208803122
 31
0.0
  0
LINE
  5
252
330
1F
100
AcDbEntity
  8
0
  6
Continuous
 62
     7
370
    15
100
AcDbLine
 10
304.8640731565
 20
166.0984722315
 30
0.0
 11
304.8640731565
 21
165.8943104549
 31
0.0
  0
LINE
  5
253
330
1F
100
AcDbEntity
  8
0
  6
Continuous
 62
     7
370
    15
100
AcDbLine
 10
305.4297586742
 20
166.4250355297
 30
0.0
 11
304.8640731565
 21
166.0984722315
 31
0.0
  0
LINE
  5
254
330
1F
100
AcDbEntity
  8
0
  6
Continuous
 62
     7
370
    15
100
AcDbLine
 10
305.0762045671
 20
166.2209336582
 30
0.0
 11
305.0762045671
 21
166.6291376666
 31
0.0
  0
LINE
  5
255
330
1F
100
AcDbEntity
  8
0
  6
Continuous
 62
     7
370
    15
100
AcDbLine
 10
305.4879031493
 20
163.8603654733
 30
0.0
 11
306.2782851067
 21
163.4040876814
 31
0.0
  0
LINE
  5
256
330
1F
100
AcDbEntity
  8
0
  6
Continuous
 62
     7
370
    15
100
AcDbLine
 10
306.2782851067
 20
163.4040876814
 30
0.0
 11
300.055745466
 21
159.8118920089
 31
0.0
  0
LINE
  5
257
330
1F
100
AcDbEntity
  8
0
  6
Continuous
 62
     7
370
    15
100
AcDbLine
 10
298.9449715955
 20
160.4531281152
 30
0.0
 11
300.055745466
 21
159.8118920089
 31
0.0
  0
LINE
  5
258
330
1F
100
AcDbEntity
  8
0
  6
Continuous
 62
     7
370
    15
100
AcDbLine
 10
298.6209360875
 20
160.6401898323
 30
0.0
 11
298.9449715955
 21
160.4531281152
 31
0.0
  0
LINE
  5
259
330
1F
100
AcDbEntity
  8
0
  6
Continuous
 62
     7
370
    15
100
AcDbLine
 10
298.5708614168
 20
160.6690973244
 30
0.0
 11
298.6209360875
 21
160.6401898323
 31
0.0
  0
LINE
  5
25A
330
1F
100
AcDbEntity
  8
0
  6
Continuous
 62
     7
370
    15
100
AcDbLine
 10
306.2782851067
 20
163.4040876814
 30
0.0
 11
306.2782851067
 21
164.5472447013
 31
0.0
  0
LINE
  5
25B
330
1F
100
AcDbEntity
  8
0
  6
Continuous
 62
     7
370
    15
100
AcDbLine
 10
295.5656185793
 20
162.5675075955
 30
0.0
 11
294.8231554812
 21
162.9961224187
 31
0.0
  0
ARC
  5
25C
330
1F
100
AcDbEntity
  8
0
  6
Continuous
 62
     7
370
    15
100
AcDbCircle
 10
299.0185974352
 20
160.9548498789
 30
0.0
 40
0.5070951512504445
100
AcDbArc
 50
218.3537376838
 51
261.6516388489
  0
LINE
  5
25D
330
1F
100
AcDbEntity
  8
0
  6
Continuous
 62
     7
370
    15
100
AcDbLine
 10
288.4591939342
 20
154.2605023268
 30
0.0
 11
288.4591939342
 21
157.3703582857
 31
0.0
  0
LINE
  5
25E
330
1F
100
AcDbEntity
  8
0
  6
Continuous
 62
     7
370
    15
100
AcDbLine
 10
286.6914286671
 20
155.2810114934
 30
0.0
 11
288.4591939342
 21
154.2605023268
 31
0.0
  0
LINE
  5
25F
330
1F
100
AcDbEntity
  8
0
  6
Continuous
 62
     7
370
    15
100
AcDbLine
 10
286.6914286671
 20
155.2810114934
 30
0.0
 11
286.6914286671
 21
155.6076278717
 31
0.0
  0
LINE
  5
260
330
1F
100
AcDbEntity
  8
0
  6
Continuous
 62
     7
370
    15
100
AcDbLine
 10
286.6914286671
 20
155.6076278717
 30
0.0
 11
284.3579747214
 21
156.9547021613
 31
0.0
  0
LINE
  5
261
330
1F
100
AcDbEntity
  8
0
  6
Continuous
 62
     7
370
    15
100
AcDbLine
 10
284.3579747214
 20
156.9547021613
 30
0.0
 11
284.3579747214
 21
159.7379417419
 31
0.0
  0
LINE
  5
262
330
1F
100
AcDbEntity
  8
0
  6
Continuous
 62
     7
370
    15
100
AcDbLine
 10
276.486903248
 20
152.4108293188
 30
0.0
 11
275.87269301
 21
152.0562532957
 31
0.0
  0
LINE
  5
263
330
1F
100
AcDbEntity
  8
0
  6
Continuous
 62
     7
370
    15
100
AcDbLine
 10
275.87269301
 20
152.0562532957
 30
0.0
 11
275.87269301
 21
152.7523947146
 31
0.0
  0
LINE
  5
264
330
1F
100
AcDbEntity
  8
0
  6
Continuous
 62
     7
370
    15
100
AcDbLine
 10
283.5153728186
 20
160.224366036
 30
0.0
 11
281.4446897219
 21
159.0289861287
 31
0.0
  0
LINE
  5
265
330
1F
100
AcDbEntity
  8
0
  6
Continuous
 62
     7
370
    15
100
AcDbLine
 10
284.3579747214
 20
156.9547021613
 30
0.0
 11
283.5801577931
 21
156.5056780064
 31
0.0
  0
LINE
  5
266
330
1F
100
AcDbEntity
  8
0
  6
Continuous
 62
     7
370
    15
100
AcDbLine
 10
283.5801577931
 20
156.5056780064
 30
0.0
 11
283.5801577931
 21
158.1387594415
 31
0.0
  0
ARC
  5
267
330
1F
100
AcDbEntity
  8
0
  6
Continuous
 62
     7
370
    15
100
AcDbCircle
 10
282.6469206526
 20
157.684480281
 30
0.0
 40
1.037931171150017
100
AcDbArc
 50
25.9557926148
 51
84.6865183799
  0
LINE
  5
268
330
1F
100
AcDbEntity
  8
0
  6
Continuous
 62
     7
370
    15
100
AcDbLine
 10
284.2165541322
 20
156.3832159331
 30
0.0
 11
284.0044227216
 21
156.2607550765
 31
0.0
  0
LINE
  5
269
330
1F
100
AcDbEntity
  8
0
  6
Continuous
 62
     7
370
    15
100
AcDbLine
 10
284.0044227216
 20
156.2607550765
 30
0.0
 11
283.5801577931
 21
156.5056780064
 31
0.0
  0
LINE
  5
26A
330
1F
100
AcDbEntity
  8
0
  6
Continuous
 62
     7
370
    15
100
AcDbLine
 10
286.6914286671
 20
155.6076278717
 30
0.0
 11
286.4792972566
 21
155.485167015
 31
0.0
  0
LINE
  5
26B
330
1F
100
AcDbEntity
  8
0
  6
Continuous
 62
     7
370
    15
100
AcDbLine
 10
286.4792972566
 20
155.485167015
 30
0.0
 11
284.5701082393
 21
156.5873183747
 31
0.0
  0
LINE
  5
26C
330
1F
100
AcDbEntity
  8
0
  6
Continuous
 62
     7
370
    15
100
AcDbLine
 10
284.5701082393
 20
156.5873183747
 30
0.0
 11
284.2165541322
 21
156.3832159331
 31
0.0
  0
LWPOLYLINE
  5
26D
330
1F
100
AcDbEntity
  8
0
  6
Continuous
 62
     7
370
    15
100
AcDbPolyline
 90
        8
 70
   128
 43
0.0
 10
286.4085864351
 20
154.2604552736
 10
286.2680962377
 20
154.3112318865
 10
286.146578444
 20
154.2944988177
 10
286.0604492518
 20
154.2125131404
 10
286.021334869
 20
154.0763507188
 10
286.0345226179
 20
153.904398825
 10
286.0982296868
 20
153.7198812199
 10
286.1086041335
 20
153.698718207
  0
ARC
  5
26E
330
1F
100
AcDbEntity
  8
0
  6
Continuous
 62
     7
370
    15
100
AcDbCircle
 10
286.0887716848
 20
153.6371218986
 30
0.0
 40
0.7005897307426705
100
AcDbArc
 50
339.5082622458
 51
62.8389216467
  0
LINE
  5
26F
330
1F
100
AcDbEntity
  8
0
  6
Continuous
 62
     7
370
    15
100
AcDbLine
 10
288.4591939342
 20
154.2605023268
 30
0.0
 11
287.3278228989
 21
153.6073757303
 31
0.0
  0
LINE
  5
270
330
1F
100
AcDbEntity
  8
0
  6
Continuous
 62
     7
370
    15
100
AcDbLine
 10
287.134151808
 20
153.7191796713
 30
0.0
 11
287.3278228989
 21
153.6073757303
 31
0.0
  0
LINE
  5
271
330
1F
100
AcDbEntity
  8
0
  6
Continuous
 62
     7
370
    15
100
AcDbLine
 10
286.0196721758
 20
154.8932147254
 30
0.0
 11
286.6914286671
 21
155.2810114934
 31
0.0
  0
LINE
  5
272
330
1F
100
AcDbEntity
  8
0
  6
Continuous
 62
     7
370
    15
100
AcDbLine
 10
285.9136117389
 20
155.1586037167
 30
0.0
 11
285.9136117389
 21
154.9544419402
 31
0.0
  0
LINE
  5
273
330
1F
100
AcDbEntity
  8
0
  6
Continuous
 62
     7
370
    15
100
AcDbLine
 10
286.4792972566
 20
155.485167015
 30
0.0
 11
285.9136117389
 21
155.1586037167
 31
0.0
  0
LINE
  5
274
330
1F
100
AcDbEntity
  8
0
  6
Continuous
 62
     7
370
    15
100
AcDbLine
 10
286.1257431495
 20
155.2810651434
 30
0.0
 11
286.1257431495
 21
155.6892691518
 31
0.0
  0
LINE
  5
275
330
1F
100
AcDbEntity
  8
0
  6
Continuous
 62
     7
370
    15
100
AcDbLine
 10
286.5374409414
 20
152.9204965024
 30
0.0
 11
287.3278228989
 21
152.4642187105
 31
0.0
  0
LINE
  5
276
330
1F
100
AcDbEntity
  8
0
  6
Continuous
 62
     7
370
    15
100
AcDbLine
 10
287.3278228989
 20
152.4642187105
 30
0.0
 11
281.1052832582
 21
148.8720230379
 31
0.0
  0
LINE
  5
277
330
1F
100
AcDbEntity
  8
0
  6
Continuous
 62
     7
370
    15
100
AcDbLine
 10
279.9945093877
 20
149.5132591443
 30
0.0
 11
281.1052832582
 21
148.8720230379
 31
0.0
  0
LINE
  5
278
330
1F
100
AcDbEntity
  8
0
  6
Continuous
 62
     7
370
    15
100
AcDbLine
 10
279.6704738796
 20
149.7003208614
 30
0.0
 11
279.9945093877
 21
149.5132591443
 31
0.0
  0
LINE
  5
279
330
1F
100
AcDbEntity
  8
0
  6
Continuous
 62
     7
370
    15
100
AcDbLine
 10
279.6203992089
 20
149.7292283534
 30
0.0
 11
279.6704738796
 21
149.7003208614
 31
0.0
  0
LINE
  5
27A
330
1F
100
AcDbEntity
  8
0
  6
Continuous
 62
     7
370
    15
100
AcDbLine
 10
287.3278228989
 20
152.4642187105
 30
0.0
 11
287.3278228989
 21
153.6073757303
 31
0.0
  0
LINE
  5
27B
330
1F
100
AcDbEntity
  8
0
  6
Continuous
 62
     7
370
    15
100
AcDbLine
 10
276.615156108
 20
151.6276384725
 30
0.0
 11
275.87269301
 21
152.0562532957
 31
0.0
  0
ARC
  5
27C
330
1F
100
AcDbEntity
  8
0
  6
Continuous
 62
     7
370
    15
100
AcDbCircle
 10
280.0681352274
 20
150.014980908
 30
0.0
 40
0.5070951512498065
100
AcDbArc
 50
218.3537376838
 51
261.6516388489
  0
ARC
  5
27D
330
1F
100
AcDbEntity
  8
0
  6
Continuous
 62
     7
370
    15
100
AcDbCircle
 10
277.2543507005
 20
201.1314924769
 30
0.0
 40
0.24979955783968
100
AcDbArc
 50
177.1573877357
 51
251.1503528614
  0
ARC
  5
27E
330
1F
100
AcDbEntity
  8
0
  6
Continuous
 62
     7
370
    15
100
AcDbCircle
 10
277.2869927344
 20
201.1909969209
 30
0.0
 40
0.1984022314442359
100
AcDbArc
 50
175.536442509
 51
250.9266659616
  0
LINE
  5
27F
330
1F
100
AcDbEntity
  8
0
  6
Continuous
 62
     7
370
    15
100
AcDbLine
 10
277.479120141
 20
200.9450405369
 30
0.0
 11
277.2221592349
 21
201.0034867537
 31
0.0
  0
LINE
  5
280
330
1F
100
AcDbEntity
  8
0
  6
Continuous
 62
     7
370
    15
100
AcDbLine
 10
277.1736439976
 20
200.8950897544
 30
0.0
 11
277.4306049036
 21
200.8366438418
 31
0.0
  0
ARC
  5
281
330
1F
100
AcDbEntity
  8
0
  6
Continuous
 62
     7
370
    15
100
AcDbCircle
 10
276.8834271826
 20
198.8039104235
 30
0.0
 40
2.222450958533732
100
AcDbArc
 50
60.0189956838
 51
74.4526737729
  0
ARC
  5
282
330
1F
100
AcDbEntity
  8
0
  6
Continuous
 62
     7
370
    15
100
AcDbCircle
 10
276.8349375151
 20
198.6955746632
 30
0.0
 40
2.22238539983368
100
AcDbArc
 50
60.0187816593
 51
74.4528877974
  0
LINE
  5
283
330
1F
100
AcDbEntity
  8
0
  6
Continuous
 62
     7
370
    15
100
AcDbLine
 10
277.9962904213
 20
200.5100805435
 30
0.0
 11
277.7393295153
 21
200.5685264561
 31
0.0
  0
LWPOLYLINE
  5
284
330
1F
100
AcDbEntity
  8
0
  6
Continuous
 62
     7
370
    15
100
AcDbPolyline
 90
        9
 70
   128
 43
0.0
 10
277.9962904213
 20
200.5100805435
 10
278.0361276225
 20
200.5029213507
 10
278.0635631136
 20
200.5023116439
 10
278.0775432232
 20
200.5082747565
 10
278.0775337402
 20
200.5205827882
 10
278.0635304497
 20
200.538761464
 10
278.036074939
 20
200.5621138499
 10
277.9962198253
 20
200.5897404201
 10
277.9454992542
 20
200.620581024
  0
ARC
  5
285
330
1F
100
AcDbEntity
  8
0
  6
Continuous
 62
     7
370
    15
100
AcDbCircle
 10
277.9273686277
 20
200.5135001899
 30
0.0
 40
0.2255487457901761
100
AcDbArc
 50
27.7023971644
 51
72.8134859659
  0
LINE
  5
286
330
1F
100
AcDbEntity
  8
0
  6
Continuous
 62
     7
370
    15
100
AcDbLine
 10
277.7393295153
 20
200.5685264561
 30
0.0
 11
277.6857524415
 21
200.5893891554
 31
0.0
  0
ARC
  5
287
330
1F
100
AcDbEntity
  8
0
  6
Continuous
 62
     7
370
    15
100
AcDbCircle
 10
272.7144819113
 20
199.113962379
 30
0.0
 40
0.6707462836499247
100
AcDbArc
 50
323.0388457322
 51
355.5015249984
  0
ARC
  5
288
330
1F
100
AcDbEntity
  8
0
  6
Continuous
 62
     7
370
    15
100
AcDbCircle
 10
272.6156619221
 20
199.1721634722
 30
0.0
 40
0.8549645212793135
100
AcDbArc
 50
323.0541032719
 51
355.2889397286
  0
LINE
  5
289
330
1F
100
AcDbEntity
  8
0
  6
Continuous
 62
     7
370
    15
100
AcDbLine
 10
273.2989525051
 20
198.6582779676
 30
0.0
 11
273.0419915991
 21
198.303151308
 31
0.0
  0
LINE
  5
28A
330
1F
100
AcDbEntity
  8
0
  6
Continuous
 62
     7
370
    15
100
AcDbLine
 10
272.9934774155
 20
198.3555341107
 30
0.0
 11
273.2504372678
 21
198.7106604662
 31
0.0
  0
ARC
  5
28B
330
1F
100
AcDbEntity
  8
0
  6
Continuous
 62
     7
370
    15
100
AcDbCircle
 10
273.2587297133
 20
198.1971558963
 30
0.0
 40
0.4128128910350495
100
AcDbArc
 50
246.2971538101
 51
327.7032267757
  0
ARC
  5
28C
330
1F
100
AcDbEntity
  8
0
  6
Continuous
 62
     7
370
    15
100
AcDbCircle
 10
273.2816558377
 20
198.0836448162
 30
0.0
 40
0.3249954571888974
100
AcDbArc
 50
137.513689653
 51
234.4678785821
  0
LINE
  5
28D
330
1F
100
AcDbEntity
  8
0
  6
Continuous
 62
     7
370
    15
100
AcDbLine
 10
273.6076771168
 20
197.9765880097
 30
0.0
 11
273.8646380228
 21
198.3317146694
 31
0.0
  0
ARC
  5
28E
330
1F
100
AcDbEntity
  8
0
  6
Continuous
 62
     7
370
    15
100
AcDbCircle
 10
273.1813474398
 20
198.845600174
 30
0.0
 40
0.8549645212785678
100
AcDbArc
 50
323.0541032718
 51
355.2889397287
  0
ARC
  5
28F
330
1F
100
AcDbEntity
  8
0
  6
Continuous
 62
     7
370
    15
100
AcDbCircle
 10
273.2606740183
 20
198.1313358203
 30
0.0
 40
0.3487963560318459
100
AcDbArc
 50
140.0007903172
 51
217.1999025039
  0
ARC
  5
290
330
1F
100
AcDbEntity
  8
0
  6
Continuous
 62
     7
370
    15
100
AcDbCircle
 10
275.8593392933
 20
205.2227155618
 30
0.0
 40
0.1199497064621075
100
AcDbArc
 50
353.8730340663
 51
126.1327083384
  0
ARC
  5
291
330
1F
100
AcDbEntity
  8
0
  6
Continuous
 62
     7
370
    15
100
AcDbCircle
 10
276.6876408096
 20
204.7260091102
 30
0.0
 40
0.1396172097425103
100
AcDbArc
 50
357.5613463141
 51
54.212058959
  0
ARC
  5
292
330
1F
100
AcDbEntity
  8
0
  6
Continuous
 62
     7
370
    15
100
AcDbCircle
 10
258.3038889853
 20
190.1916246317
 30
0.0
 40
0.2497998663427998
100
AcDbArc
 50
177.1576323191
 51
251.1505129751
  0
ARC
  5
293
330
1F
100
AcDbEntity
  8
0
  6
Continuous
 62
     7
370
    15
100
AcDbCircle
 10
258.3365336185
 20
190.2511306907
 30
0.0
 40
0.1984056022945632
100
AcDbArc
 50
175.5374004709
 51
250.9261382687
  0
LINE
  5
294
330
1F
100
AcDbEntity
  8
0
  6
Continuous
 62
     7
370
    15
100
AcDbLine
 10
258.5286576697
 20
190.0051714139
 30
0.0
 11
258.2716972905
 21
190.0636179348
 31
0.0
  0
LINE
  5
295
330
1F
100
AcDbEntity
  8
0
  6
Continuous
 62
     7
370
    15
100
AcDbLine
 10
258.2231828435
 20
189.9552213917
 30
0.0
 11
258.4801433543
 21
189.896775251
 31
0.0
  0
ARC
  5
296
330
1F
100
AcDbEntity
  8
0
  6
Continuous
 62
     7
370
    15
100
AcDbCircle
 10
257.9329849725
 20
187.8640841668
 30
0.0
 40
2.222404230135273
100
AcDbArc
 50
60.0188880447
 51
74.4528807986
  0
ARC
  5
297
330
1F
100
AcDbEntity
  8
0
  6
Continuous
 62
     7
370
    15
100
AcDbCircle
 10
257.8844546905
 20
187.7556513083
 30
0.0
 40
2.222443862573156
100
AcDbArc
 50
60.0190062014
 51
74.4527377952
  0
LINE
  5
298
330
1F
100
AcDbEntity
  8
0
  6
Continuous
 62
     7
370
    15
100
AcDbLine
 10
259.045828872
 20
189.5702119528
 30
0.0
 11
258.7888683611
 21
189.6286580935
 31
0.0
  0
LWPOLYLINE
  5
299
330
1F
100
AcDbEntity
  8
0
  6
Continuous
 62
     7
370
    15
100
AcDbPolyline
 90
        9
 70
   128
 43
0.0
 10
259.045828872
 20
189.5702119528
 10
259.0856651513
 20
189.5630522277
 10
259.1131009057
 20
189.562442673
 10
259.1270823324
 20
189.5684065459
 10
259.1270720592
 20
189.5807141214
 10
259.113069559
 20
189.5988932534
 10
259.0856135214
 20
189.6222453352
 10
259.0457589346
 20
189.6498722095
 10
258.9950381
 20
189.6807126613
  0
ARC
  5
29A
330
1F
100
AcDbEntity
  8
0
  6
Continuous
 62
     7
370
    15
100
AcDbCircle
 10
258.9769107323
 20
189.5736368605
 30
0.0
 40
0.2255423051303861
100
AcDbArc
 50
27.7016375871
 51
72.8140565735
  0
LINE
  5
29B
330
1F
100
AcDbEntity
  8
0
  6
Continuous
 62
     7
370
    15
100
AcDbLine
 10
258.7888683611
 20
189.6286580935
 30
0.0
 11
258.7352915507
 21
189.6495209448
 31
0.0
  0
ARC
  5
29C
330
1F
100
AcDbEntity
  8
0
  6
Continuous
 62
     7
370
    15
100
AcDbCircle
 10
253.7640170705
 20
188.1740951598
 30
0.0
 40
0.6707497978467493
100
AcDbArc
 50
323.0389331219
 51
355.5014376087
  0
ARC
  5
29D
330
1F
100
AcDbEntity
  8
0
  6
Continuous
 62
     7
370
    15
100
AcDbCircle
 10
253.6651956215
 20
188.2322977447
 30
0.0
 40
0.8549697417643563
100
AcDbArc
 50
323.0540944144
 51
355.2887862512
  0
LINE
  5
29E
330
1F
100
AcDbEntity
  8
0
  6
Continuous
 62
     7
370
    15
100
AcDbLine
 10
254.3484902973
 20
187.7184089967
 30
0.0
 11
254.0915297864
 21
187.3632825652
 31
0.0
  0
LINE
  5
29F
330
1F
100
AcDbEntity
  8
0
  6
Continuous
 62
     7
370
    15
100
AcDbLine
 10
254.043015471
 20
187.4156652918
 30
0.0
 11
254.2999758502
 21
187.7707919515
 31
0.0
  0
ARC
  5
2A0
330
1F
100
AcDbEntity
  8
0
  6
Continuous
 62
     7
370
    15
100
AcDbCircle
 10
254.30826735
 20
187.2572879901
 30
0.0
 40
0.4128138034236
100
AcDbArc
 50
246.2972329683
 51
327.7031694557
  0
ARC
  5
2A1
330
1F
100
AcDbEntity
  8
0
  6
Continuous
 62
     7
370
    15
100
AcDbCircle
 10
254.3311943263
 20
187.1437758261
 30
0.0
 40
0.3249958463763043
100
AcDbArc
 50
137.5136933914
 51
234.4677767039
  0
LINE
  5
2A2
330
1F
100
AcDbEntity
  8
0
  6
Continuous
 62
     7
370
    15
100
AcDbLine
 10
254.6572153041
 20
187.0367192669
 30
0.0
 11
254.9141758149
 21
187.3918456984
 31
0.0
  0
ARC
  5
2A3
330
1F
100
AcDbEntity
  8
0
  6
Continuous
 62
     7
370
    15
100
AcDbCircle
 10
254.2308811392
 20
187.9057344465
 30
0.0
 40
0.8549697417650374
100
AcDbArc
 50
323.0540944144
 51
355.2887862512
  0
ARC
  5
2A4
330
1F
100
AcDbEntity
  8
0
  6
Continuous
 62
     7
370
    15
100
AcDbCircle
 10
254.3102100641
 20
187.1914677763
 30
0.0
 40
0.3487943183900329
100
AcDbArc
 50
140.0006756165
 51
217.2002222841
  0
ARC
  5
2A5
330
1F
100
AcDbEntity
  8
0
  6
Continuous
 62
     7
370
    15
100
AcDbCircle
 10
256.9088780477
 20
194.2828479318
 30
0.0
 40
0.1199490770507741
100
AcDbArc
 50
353.8724123513
 51
126.1329516988
  0
ARC
  5
2A6
330
1F
100
AcDbEntity
  8
0
  6
Continuous
 62
     7
370
    15
100
AcDbCircle
 10
257.7419100075
 20
193.7884359363
 30
0.0
 40
0.1350110210564039
100
AcDbArc
 50
356.5024975294
 51
55.2711701365
  0
ARC
  5
2A7
330
1F
100
AcDbEntity
  8
0
  6
Continuous
 62
     7
370
    15
100
AcDbCircle
 10
239.3534273384
 20
179.2517551433
 30
0.0
 40
0.2497995578396769
100
AcDbArc
 50
177.1573877357
 51
251.1503528614
  0
ARC
  5
2A8
330
1F
100
AcDbEntity
  8
0
  6
Continuous
 62
     7
370
    15
100
AcDbCircle
 10
239.3860720677
 20
179.3112623338
 30
0.0
 40
0.198405708000841
100
AcDbArc
 50
175.5374926391
 51
250.9261895234
  0
LINE
  5
2A9
330
1F
100
AcDbEntity
  8
0
  6
Continuous
 62
     7
370
    15
100
AcDbLine
 10
239.5781957253
 20
179.0653025951
 30
0.0
 11
239.3212358729
 21
179.1237494201
 31
0.0
  0
LINE
  5
2AA
330
1F
100
AcDbEntity
  8
0
  6
Continuous
 62
     7
370
    15
100
AcDbLine
 10
239.2727206356
 20
179.0153524208
 30
0.0
 11
239.5296815416
 21
178.9569065082
 31
0.0
  0
ARC
  5
2AB
330
1F
100
AcDbEntity
  8
0
  6
Continuous
 62
     7
370
    15
100
AcDbCircle
 10
238.9825123456
 20
176.9241844729
 30
0.0
 40
2.222436838639993
100
AcDbArc
 50
60.0190394092
 51
74.4528288206
  0
ARC
  5
2AC
330
1F
100
AcDbEntity
  8
0
  6
Continuous
 62
     7
370
    15
100
AcDbCircle
 10
238.9339953717
 20
176.8157925721
 30
0.0
 40
2.222433553618564
100
AcDbArc
 50
60.0189388645
 51
74.4527305922
  0
LINE
  5
2AD
330
1F
100
AcDbEntity
  8
0
  6
Continuous
 62
     7
370
    15
100
AcDbLine
 10
240.0953670593
 20
178.6303432099
 30
0.0
 11
239.8384061533
 21
178.6887891225
 31
0.0
  0
LWPOLYLINE
  5
2AE
330
1F
100
AcDbEntity
  8
0
  6
Continuous
 62
     7
370
    15
100
AcDbPolyline
 90
        9
 70
   128
 43
0.0
 10
240.0953670593
 20
178.6303432099
 10
240.1352032068
 20
178.6231834088
 10
240.1626386979
 20
178.6225737021
 10
240.1766209149
 20
178.6285380312
 10
240.1766103781
 20
178.6408454546
 10
240.1626081414
 20
178.6590247386
 10
240.1351515769
 20
178.6823765163
 10
240.095297517
 20
178.7100036948
 10
240.0445758921
 20
178.7408436904
  0
LWPOLYLINE
  5
2AF
330
1F
100
AcDbEntity
  8
0
  6
Continuous
 62
     7
370
    15
100
AcDbPolyline
 90
        6
 70
   128
 43
0.0
 10
240.0930911295
 20
178.8492403855
 10
240.1438117006
 20
178.81840039
 10
240.1836657606
 20
178.7907726032
 10
240.211122325
 20
178.7674214339
 10
240.2251245618
 20
178.7492415415
 10
240.2261392472
 20
178.7386151435
  0
LINE
  5
2B0
330
1F
100
AcDbEntity
  8
0
  6
Continuous
 62
     7
370
    15
100
AcDbLine
 10
239.8384061533
 20
178.6887891225
 30
0.0
 11
239.7848301331
 21
178.7096524301
 31
0.0
  0
ARC
  5
2B1
330
1F
100
AcDbEntity
  8
0
  6
Continuous
 62
     7
370
    15
100
AcDbCircle
 10
234.8161240672
 20
177.232916912
 30
0.0
 40
0.6679099628868909
100
AcDbArc
 50
322.9961835748
 51
356.0918784262
  0
ARC
  5
2B2
330
1F
100
AcDbEntity
  8
0
  6
Continuous
 62
     7
370
    15
100
AcDbCircle
 10
234.7147385601
 20
177.2924261386
 30
0.0
 40
0.8549645212790633
100
AcDbArc
 50
323.0541032719
 51
355.2889397286
  0
LINE
  5
2B3
330
1F
100
AcDbEntity
  8
0
  6
Continuous
 62
     7
370
    15
100
AcDbLine
 10
235.3980291431
 20
176.778540634
 30
0.0
 11
235.1410682371
 21
176.4234139744
 31
0.0
  0
LINE
  5
2B4
330
1F
100
AcDbEntity
  8
0
  6
Continuous
 62
     7
370
    15
100
AcDbLine
 10
235.0925529998
 20
176.4757961688
 30
0.0
 11
235.3495139058
 21
176.8309231327
 31
0.0
  0
ARC
  5
2B5
330
1F
100
AcDbEntity
  8
0
  6
Continuous
 62
     7
370
    15
100
AcDbCircle
 10
235.3578062944
 20
176.3174187485
 30
0.0
 40
0.4128130383332766
100
AcDbArc
 50
246.2971713966
 51
327.7032091892
  0
ARC
  5
2B6
330
1F
100
AcDbEntity
  8
0
  6
Continuous
 62
     7
370
    15
100
AcDbCircle
 10
235.3807312416
 20
176.2039073531
 30
0.0
 40
0.3249946345919378
100
AcDbArc
 50
137.5135258673
 51
234.4680423678
  0
LINE
  5
2B7
330
1F
100
AcDbEntity
  8
0
  6
Continuous
 62
     7
370
    15
100
AcDbLine
 10
235.7067537548
 20
176.0968506761
 30
0.0
 11
235.9637146608
 21
176.4519773358
 31
0.0
  0
ARC
  5
2B8
330
1F
100
AcDbEntity
  8
0
  6
Continuous
 62
     7
370
    15
100
AcDbCircle
 10
235.2804240778
 20
176.9658628404
 30
0.0
 40
0.8549645212790373
100
AcDbArc
 50
323.0541032719
 51
355.2889397286
  0
ARC
  5
2B9
330
1F
100
AcDbEntity
  8
0
  6
Continuous
 62
     7
370
    15
100
AcDbCircle
 10
235.3597524355
 20
176.2515987769
 30
0.0
 40
0.3487979486357747
100
AcDbArc
 50
140.0012024855
 51
217.1997637749
  0
ARC
  5
2BA
330
1F
100
AcDbEntity
  8
0
  6
Continuous
 62
     7
370
    15
100
AcDbCircle
 10
238.796458109
 20
182.8509986974
 30
0.0
 40
0.1301868909027236
100
AcDbArc
 50
355.2996123387
 51
56.4737929345
  0
ARC
  5
2BB
330
1F
100
AcDbEntity
  8
0
  6
Continuous
 62
     7
370
    15
100
AcDbCircle
 10
237.9584166129
 20
183.3429803414
 30
0.0
 40
0.1199482715755022
100
AcDbArc
 50
353.8716530212
 51
126.1329887115
  0
LINE
  5
2BC
330
1F
100
AcDbEntity
  8
0
  6
Continuous
 62
     7
370
    15
100
AcDbLine
 10
332.8206528148
 20
178.0094827766
 30
0.0
 11
328.0470775717
 21
177.4586948726
 31
0.0
  0
ARC
  5
2BD
330
1F
100
AcDbEntity
  8
0
  6
Continuous
 62
     7
370
    15
100
AcDbCircle
 10
328.0363280414
 20
177.5335889087
 30
0.0
 40
0.0756615427289173
100
AcDbArc
 50
240.9680341174
 51
278.1678716172
  0
LINE
  5
2BE
330
1F
100
AcDbEntity
  8
0
  6
Continuous
 62
     7
370
    15
100
AcDbLine
 10
272.8990178986
 20
143.0944876196
 30
0.0
 11
278.3718072512
 21
148.781771722
 31
0.0
  0
ARC
  5
2BF
330
1F
100
AcDbEntity
  8
0
  6
Continuous
 62
     7
370
    15
100
AcDbCircle
 10
278.1490046168
 20
149.000311257
 30
0.0
 40
0.3120905993883539
100
AcDbArc
 50
315.5534254799
 51
357.1363394578
  0
LINE
  5
2C0
330
1F
100
AcDbEntity
  8
0
  6
Continuous
 62
     7
370
    15
100
AcDbLine
 10
278.4607054914
 20
148.984719367
 30
0.0
 11
278.4607054914
 21
149.5414311316
 31
0.0
  0
LINE
  5
2C1
330
1F
100
AcDbEntity
  8
0
  6
Continuous
 62
     8
370
     0
100
AcDbLine
 10
252.746560235
 20
201.0449595186
 30
0.0
 11
312.5839499231
 21
166.5015697284
 31
0.0
  0
LINE
  5
2C2
330
1F
100
AcDbEntity
  8
0
  6
Continuous
 62
     8
370
     0
100
AcDbLine
 10
258.1280816408
 20
204.1516460823
 30
0.0
 11
315.700672492
 21
170.915696831
 31
0.0
  0
LINE
  5
2C3
330
1F
100
AcDbEntity
  8
0
  6
Continuous
 62
     8
370
     0
100
AcDbLine
 10
258.2769400951
 20
204.2375805267
 30
0.0
 11
315.7572272407
 21
171.0549170704
 31
0.0
  0
LINE
  5
2C4
330
1F
100
AcDbEntity
  8
0
  6
Continuous
 62
     8
370
     0
100
AcDbLine
 10
252.5803098837
 20
200.9489852337
 30
0.0
 11
312.4176995718
 21
166.4055954435
 31
0.0
  0
LINE
  5
2C5
330
1F
100
AcDbEntity
  8
0
  6
Continuous
 62
     8
370
     0
100
AcDbLine
 10
251.7283861517
 20
200.4571805153
 30
0.0
 11
309.3009770029
 21
167.221231264
 31
0.0
  0
LINE
  5
2C6
330
1F
100
AcDbEntity
  8
0
  6
Continuous
 62
     8
370
     0
100
AcDbLine
 10
296.7502102842
 20
159.97582786
 30
0.0
 11
239.177619433
 21
193.2117771113
 31
0.0
  0
LINE
  5
2C7
330
1F
100
AcDbEntity
  8
0
  6
Continuous
 62
     8
370
     0
100
AcDbLine
 10
293.6334877153
 20
155.5617007575
 30
0.0
 11
233.7960980272
 21
190.1050905477
 31
0.0
  0
LINE
  5
2C8
330
1F
100
AcDbEntity
  8
0
  6
Continuous
 62
     8
370
     0
100
AcDbLine
 10
296.8067650328
 20
160.1150480994
 30
0.0
 11
239.3264778872
 21
193.2977115557
 31
0.0
  0
LINE
  5
2C9
330
1F
100
AcDbEntity
  8
0
  6
Continuous
 62
     8
370
     0
100
AcDbLine
 10
293.467237364
 20
155.4657264725
 30
0.0
 11
233.6298476759
 21
190.0091162628
 31
0.0
  0
LINE
  5
2CA
330
1F
100
AcDbEntity
  8
0
  6
Continuous
 62
     8
370
     0
100
AcDbLine
 10
290.3505147951
 20
156.2813622931
 30
0.0
 11
232.7779239439
 21
189.5173115444
 31
0.0
  0
LINE
  5
2CB
330
1F
100
AcDbEntity
  8
0
  6
Continuous
 62
     8
370
     0
100
AcDbLine
 10
206.052969766
 20
177.9766108341
 30
0.0
 11
272.549291779
 21
216.3641204311
 31
0.0
  0
LINE
  5
2CC
330
1F
100
AcDbEntity
  8
0
  6
Continuous
 62
     8
370
     0
100
AcDbLine
 10
272.8321350647
 20
216.2008119377
 30
0.0
 11
206.052969766
 21
177.6500203875
 31
0.0
  0
LINE
  5
2CD
330
1F
100
AcDbEntity
  8
0
  6
Continuous
 62
     8
370
     0
100
AcDbLine
 10
212.1623746213
 20
177.6500203875
 30
0.0
 11
272.8321350647
 21
212.6739275866
 31
0.0
  0
LINE
  5
2CE
330
1F
100
AcDbEntity
  8
0
  6
Continuous
 62
     8
370
     0
100
AcDbLine
 10
272.549291779
 20
223.304717177
 30
0.0
 11
206.052969766
 21
184.91720758
 31
0.0
  0
LINE
  5
2CF
330
1F
100
AcDbEntity
  8
0
  6
Continuous
 62
     8
370
     0
100
AcDbLine
 10
206.052969766
 20
177.6500203875
 30
0.0
 11
272.8321350647
 21
139.0992288373
 31
0.0
  0
LINE
  5
2D0
330
1F
100
AcDbEntity
  8
0
  6
Continuous
 62
     8
370
     0
100
AcDbLine
 10
272.8321350647
 20
142.6261131884
 30
0.0
 11
212.1623746213
 21
177.6500203875
 31
0.0
  0
LWPOLYLINE
  5
2D1
330
1F
100
AcDbEntity
  8
0
  6
Continuous
 62
     8
370
     0
100
AcDbPolyline
 90
        3
 70
   128
 43
0.0
 10
212.3330925385
 20
177.7147610384
 10
272.8321350647
 20
142.7894071951
 10
333.3311775908
 20
177.7147610384
  0
LINE
  5
2D2
330
1F
100
AcDbEntity
  8
0
  6
Continuous
 62
     8
370
     0
100
AcDbLine
 10
272.8321350647
 20
139.0992288373
 30
0.0
 11
339.6113003633
 21
177.6500203875
 31
0.0
  0
LINE
  5
2D3
330
1F
100
AcDbEntity
  8
0
  6
Continuous
 62
     8
370
     0
100
AcDbLine
 10
333.5018955081
 20
177.6500203875
 30
0.0
 11
272.8321350647
 21
142.6261131884
 31
0.0
  0
LINE
  5
2D4
330
1F
100
AcDbEntity
  8
0
  6
Continuous
 62
     8
370
     0
100
AcDbLine
 10
273.1149783504
 20
216.3641204311
 30
0.0
 11
339.6113003633
 21
177.9766108341
 31
0.0
  0
LINE
  5
2D5
330
1F
100
AcDbEntity
  8
0
  6
Continuous
 62
     8
370
     0
100
AcDbLine
 10
339.6113003633
 20
177.6500203875
 30
0.0
 11
272.8321350647
 21
216.2008119377
 31
0.0
  0
LINE
  5
2D6
330
1F
100
AcDbEntity
  8
0
  6
Continuous
 62
     8
370
     0
100
AcDbLine
 10
272.8321350647
 20
212.6739275866
 30
0.0
 11
333.5018955081
 21
177.6500203875
 31
0.0
  0
LINE
  5
2D7
330
1F
100
AcDbEntity
  8
0
  6
Continuous
 62
     8
370
     0
100
AcDbLine
 10
339.6113003633
 20
184.91720758
 30
0.0
 11
273.1149783504
 21
223.304717177
 31
0.0
  0
LINE
  5
2D8
330
1F
100
AcDbEntity
  8
0
  6
Continuous
 62
     8
370
     0
100
AcDbLine
 10
245.8609546514
 20
197.0699854172
 30
0.0
 11
298.760439917
 21
166.5317625977
 31
0.0
  0
LINE
  5
2D9
330
1F
100
AcDbEntity
  8
0
  6
Continuous
 62
     8
370
     0
100
AcDbLine
 10
242.6082634516
 20
195.1922467563
 30
0.0
 11
295.5158409121
 21
164.6493524122
 31
0.0
  0
LINE
  5
2DA
330
1F
100
AcDbEntity
  8
0
  6
Continuous
 62
     8
370
     0
100
AcDbLine
 10
226.9104925753
 20
186.1301165223
 30
0.0
 11
279.8099778409
 21
155.5918937028
 31
0.0
  0
LINE
  5
2DB
330
1F
100
AcDbEntity
  8
0
  6
Continuous
 62
     8
370
     0
100
AcDbLine
 10
223.6578011121
 20
184.2523777093
 30
0.0
 11
276.5653785726
 21
153.7094833652
 31
0.0
  0
LINE
  5
2DC
330
1F
100
AcDbEntity
  8
0
  6
Continuous
 62
     8
370
     0
100
AcDbLine
 10
264.811416991
 20
208.0098544641
 30
0.0
 11
317.7109022565
 21
177.4716316447
 31
0.0
  0
LINE
  5
2DD
330
1F
100
AcDbEntity
  8
0
  6
Continuous
 62
     8
370
     0
100
AcDbLine
 10
261.5587255278
 20
206.1321156512
 30
0.0
 11
314.4663029883
 21
175.5892213071
 31
0.0
  0
LWPOLYLINE
  5
2DE
330
1F
100
AcDbEntity
  8
0
  6
Continuous
 62
     8
370
     0
100
AcDbPolyline
 90
       15
 70
   128
 43
0.0
 10
318.9086250755
 20
181.1704202036
 10
319.0027474176
 20
181.1050447193
 10
319.1820653993
 20
180.9128365631
 10
319.3141894473
 20
180.6619191685
 10
319.3951029671
 20
180.3599156402
 10
319.4223509047
 20
180.0160040832
 10
319.3951029671
 20
179.6406327271
 10
319.3141894473
 20
179.2452087416
 10
319.1820653993
 20
178.8417441682
 10
319.0027474176
 20
178.4424997251
 10
318.7816829825
 20
178.0596058054
 10
318.5255903016
 20
177.7046965567
 10
318.2422496831
 20
177.3885558295
 10
317.9402717282
 20
177.1207905039
 10
317.6288296984
 20
176.9095339345
  0
ARC
  5
2DF
330
1F
100
AcDbEntity
  8
0
  6
Continuous
 62
     8
370
     0
100
AcDbCircle
 10
317.7593524249
 20
177.1173264455
 30
0.0
 40
0.2453852272283027
100
AcDbArc
 50
182.5670896388
 51
237.8654388848
  0
LWPOLYLINE
  5
2E0
330
1F
100
AcDbEntity
  8
0
  6
Continuous
 62
     8
370
     0
100
AcDbPolyline
 90
       19
 70
   128
 43
0.0
 10
317.5142134513
 20
177.1063358429
 10
317.8060108349
 20
177.3042666872
 10
318.088942629
 20
177.5551436149
 10
318.3544108763
 20
177.8513436403
 10
318.5943507776
 20
178.1838666814
 10
318.8014709279
 20
178.5426093039
 10
318.9694766954
 20
178.9166701025
 10
319.0932683115
 20
179.2946864151
 10
319.1690778479
 20
179.6651689135
 10
319.1946083014
 20
180.016864179
 10
319.1690778479
 20
180.3390826105
 10
319.0932683115
 20
180.6220372811
 10
318.9694766954
 20
180.8571271402
 10
318.8014709279
 20
181.0372126085
 10
318.5943507776
 20
181.1568193957
 10
318.3544108763
 20
181.2123137235
 10
318.088942629
 20
181.2020101783
 10
317.8060108349
 20
181.126221162
 10
317.7415788402
 20
181.1006609017
  0
LINE
  5
2E1
330
1F
100
AcDbEntity
  8
0
  6
Continuous
 62
     8
370
     0
100
AcDbLine
 10
317.6288296984
 20
176.9095339345
 30
0.0
 11
319.5457821652
 21
175.8318787256
 31
0.0
  0
LWPOLYLINE
  5
2E2
330
1F
100
AcDbEntity
  8
0
  6
Continuous
 62
     8
370
     0
100
AcDbPolyline
 90
       10
 70
   128
 43
0.0
 10
312.6814714085
 20
175.9940453347
 10
312.6915097342
 20
175.9257484372
 10
312.7673213779
 20
175.6427949831
 10
312.8911108867
 20
175.4077042116
 10
313.0591187616
 20
175.2276199598
 10
313.2662389119
 20
175.1080131727
 10
313.5061777594
 20
175.0525182366
 10
313.7716470605
 20
175.0628219338
 10
314.0545778009
 20
175.1386104939
 10
314.3463751845
 20
175.2775817377
  0
LINE
  5
2E3
330
1F
100
AcDbEntity
  8
0
  6
Continuous
 62
     8
370
     0
100
AcDbLine
 10
314.3463751845
 20
175.2775817377
 30
0.0
 11
317.5142134513
 21
177.1063358429
 31
0.0
  0
LINE
  5
2E4
330
1F
100
AcDbEntity
  8
0
  6
Continuous
 62
     8
370
     0
100
AcDbLine
 10
317.6288296984
 20
176.9095339345
 30
0.0
 11
314.4609914317
 21
175.0807798292
 31
0.0
  0
ARC
  5
2E5
330
1F
100
AcDbEntity
  8
0
  6
Continuous
 62
     8
370
     0
100
AcDbCircle
 10
314.5915141581
 20
175.2885723402
 30
0.0
 40
0.2453852272282351
100
AcDbArc
 50
182.5670896388
 51
237.8654388848
  0
LINE
  5
2E6
330
1F
100
AcDbEntity
  8
0
  6
Continuous
 62
     8
370
     0
100
AcDbLine
 10
318.9846053067
 20
173.3065624566
 30
0.0
 11
320.9898891385
 21
174.4641881719
 31
0.0
  0
LINE
  5
2E7
330
1F
100
AcDbEntity
  8
0
  6
Continuous
 62
     8
370
     0
100
AcDbLine
 10
317.247853798
 20
174.2898240975
 30
0.0
 11
318.9846053067
 21
173.3065624566
 31
0.0
  0
LINE
  5
2E8
330
1F
100
AcDbEntity
  8
0
  6
Continuous
 62
     8
370
     0
100
AcDbLine
 10
316.7526177913
 20
174.0039304363
 30
0.0
 11
317.247853798
 21
174.2898240975
 31
0.0
  0
LINE
  5
2E9
330
1F
100
AcDbEntity
  8
0
  6
Continuous
 62
     8
370
     0
100
AcDbLine
 10
314.4609914317
 20
175.0807798292
 30
0.0
 11
316.3854671109
 21
173.9988953274
 31
0.0
  0
LINE
  5
2EA
330
1F
100
AcDbEntity
  8
0
  6
Continuous
 62
     8
370
     0
100
AcDbLine
 10
314.4459882073
 20
175.5774954966
 30
0.0
 11
314.3039491131
 21
175.4954689834
 31
0.0
  0
LINE
  5
2EB
330
1F
100
AcDbEntity
  8
0
  6
Continuous
 62
     8
370
     0
100
AcDbLine
 10
322.8471890633
 20
178.2499030404
 30
0.0
 11
322.9382831543
 21
178.0912039699
 31
0.0
  0
ARC
  5
2EC
330
1F
100
AcDbEntity
  8
0
  6
Continuous
 62
     8
370
     0
100
AcDbCircle
 10
302.4556987388
 20
213.6088140299
 30
0.0
 40
41.00044985983497
100
AcDbArc
 50
299.7765072827
 51
299.9715388548
  0
LINE
  5
2ED
330
1F
100
AcDbEntity
  8
0
  6
Continuous
 62
     8
370
     0
100
AcDbLine
 10
322.8172648008
 20
178.0216883211
 30
0.0
 11
322.6065221289
 21
178.388837804
 31
0.0
  0
LINE
  5
2EE
330
1F
100
AcDbEntity
  8
0
  6
Continuous
 62
     8
370
     0
100
AcDbLine
 10
322.1719522959
 20
178.1679111831
 30
0.0
 11
322.5805870657
 21
178.4038110144
 31
0.0
  0
ELLIPSE
  5
2EF
330
1F
100
AcDbEntity
  8
0
  6
Continuous
 62
     8
370
     0
100
AcDbEllipse
 10
322.7465528638
 20
177.9808691559
 30
0.0
 11
-0.06994611198774693
 21
0.1222076158881009
 31
0.0
210
0.0
220
0.0
230
1.0
 40
0.5798484545
 41
3.14374262742242
 42
4.714519915748478
  0
LINE
  5
2F0
330
1F
100
AcDbEntity
  8
0
  6
Continuous
 62
     8
370
     0
100
AcDbLine
 10
322.4635895215
 20
177.6549303114
 30
0.0
 11
322.8166515642
 21
177.8587486902
 31
0.0
  0
LINE
  5
2F1
330
1F
100
AcDbEntity
  8
0
  6
Continuous
 62
     8
370
     0
100
AcDbLine
 10
323.7109297179
 20
177.6451646301
 30
0.0
 11
323.7109297179
 21
177.7512768843
 31
0.0
  0
LINE
  5
2F2
330
1F
100
AcDbEntity
  8
0
  6
Continuous
 62
     8
370
     0
100
AcDbLine
 10
322.9382831543
 20
178.0912039699
 30
0.0
 11
323.7109297179
 21
177.6451646301
 31
0.0
  0
ELLIPSE
  5
2F3
330
1F
100
AcDbEntity
  8
0
  6
Continuous
 62
     8
370
     0
100
AcDbEllipse
 10
322.7965528638
 20
178.0097429248
 30
0.0
 11
-0.02617242835299294
 21
0.2188245673048641
 31
0.0
210
0.0
220
0.0
230
1.0
 40
0.7132437612
 41
3.436505877663074
 42
5.007283165989923
  0
ARC
  5
2F4
330
1F
100
AcDbEntity
  8
0
  6
Continuous
 62
     8
370
     0
100
AcDbCircle
 10
322.9427663687
 20
177.928180294
 30
0.0
 40
0.1439642022391966
100
AcDbArc
 50
208.8346676802
 51
238.226478228
  0
ARC
  5
2F5
330
1F
100
AcDbEntity
  8
0
  6
Continuous
 62
     8
370
     0
100
AcDbCircle
 10
323.406147985
 20
177.6578325928
 30
0.0
 40
0.3050448852071155
100
AcDbArc
 50
302.3801976936
 51
357.6199254004
  0
LINE
  5
2F6
330
1F
100
AcDbEntity
  8
0
  6
Continuous
 62
     8
370
     0
100
AcDbLine
 10
323.5695101824
 20
177.4002182018
 30
0.0
 11
322.8669601499
 21
177.8057911249
 31
0.0
  0
LINE
  5
2F7
330
1F
100
AcDbEntity
  8
0
  6
Continuous
 62
     8
370
     0
100
AcDbLine
 10
322.8669601499
 20
177.8057911249
 30
0.0
 11
322.534611176
 21
177.6139301461
 31
0.0
  0
ELLIPSE
  5
2F8
330
1F
100
AcDbEntity
  8
0
  6
Continuous
 62
     8
370
     0
100
AcDbEllipse
 10
323.4274737732
 20
177.3189308867
 30
0.0
 11
0.1999995324225665
 21
0.0007524328603949471
 31
0.0
210
0.0
220
0.0
230
1.0
 40
0.5747629462
 41
5.49562478945872
 42
7.062057793123644
  0
LINE
  5
2F9
330
1F
100
AcDbEntity
  8
0
  6
Continuous
 62
     8
370
     0
100
AcDbLine
 10
323.377350056
 20
177.1274271269
 30
0.0
 11
323.5688948384
 21
177.2380035761
 31
0.0
  0
ELLIPSE
  5
2FA
330
1F
100
AcDbEntity
  8
0
  6
Continuous
 62
     8
370
     0
100
AcDbEllipse
 10
323.4268567081
 20
177.4825937186
 30
0.0
 11
0.3999997641598156
 21
0.0007540691840688396
 31
0.0
210
0.0
220
0.0
230
1.0
 40
0.5760266851
 41
6.266807636423246
 42
7.063134237302567
  0
ARC
  5
2FB
330
1F
100
AcDbEntity
  8
0
  6
Continuous
 62
     8
370
     0
100
AcDbCircle
 10
323.6268844006
 20
177.319693409
 30
0.0
 40
0.100179928749815
100
AcDbArc
 50
234.6300137856
 51
294.4248371685
  0
ARC
  5
2FC
330
1F
100
AcDbEntity
  8
0
  6
Continuous
 62
     8
370
     0
100
AcDbCircle
 10
313.7098363253
 20
176.1156892953
 30
0.0
 40
1.278777383579925
100
AcDbArc
 50
250.4063972108
 51
305.9727909605
  0
ARC
  5
2FD
330
1F
100
AcDbEntity
  8
0
  6
Continuous
 62
     8
370
     0
100
AcDbCircle
 10
318.9720882694
 20
173.3258135757
 30
0.0
 40
0.0229626176149537
100
AcDbArc
 50
260.3942343564
 51
303.0318379581
  0
LINE
  5
2FE
330
1F
100
AcDbEntity
  8
0
  6
Continuous
 62
     8
370
     0
100
AcDbLine
 10
318.9682565441
 20
173.3031729112
 30
0.0
 11
317.2639496795
 21
174.2680684842
 31
0.0
  0
ELLIPSE
  5
2FF
330
1F
100
AcDbEntity
  8
0
  6
Continuous
 62
     8
370
     0
100
AcDbEllipse
 10
317.2474845613
 20
174.3226965479
 30
0.0
 11
-0.02489897517051532
 21
0.05814756255566068
 31
0.0
210
0.0
220
0.0
230
1.0
 40
0.2270585379
 41
2.07149398316456
 42
2.682336800364573
  0
ELLIPSE
  5
300
330
1F
100
AcDbEntity
  8
0
  6
Continuous
 62
     8
370
     0
100
AcDbEllipse
 10
317.2474845613
 20
174.3226965479
 30
0.0
 11
0.02490898985672629
 21
0.05843465512967328
 31
0.0
210
0.0
220
0.0
230
1.0
 40
0.2365160853
 41
3.607984615937916
 42
4.218827433137694
  0
ARC
  5
301
330
1F
100
AcDbEntity
  8
0
  6
Continuous
 62
     8
370
     0
100
AcDbCircle
 10
317.2479443476
 20
174.2309784418
 30
0.0
 40
0.0403960628650156
100
AcDbArc
 50
66.6585278208
 51
114.0986948586
  0
ELLIPSE
  5
302
330
1F
100
AcDbEntity
  8
0
  6
Continuous
 62
     8
370
     0
100
AcDbEllipse
 10
317.1648323118
 20
174.3020212207
 30
0.0
 11
0.09900443159295945
 21
-0.03456668783422856
 31
0.0
210
0.0
220
0.0
230
1.0
 40
0.1386803037
 41
5.378748574787123
 42
6.325612114991793
  0
ELLIPSE
  5
303
330
1F
100
AcDbEntity
  8
0
  6
Continuous
 62
     8
370
     0
100
AcDbEllipse
 10
318.6013586803
 20
173.3891437606
 30
0.0
 11
0.4455199421681186
 21
-0.1555500952541138
 31
0.0
210
0.0
220
0.0
230
1.0
 40
0.1386803037
 41
0.1994097680636532
 42
0.6532696250150782
  0
LINE
  5
304
330
1F
100
AcDbEntity
  8
0
  6
Continuous
 62
     8
370
     0
100
AcDbLine
 10
318.7330507876
 20
173.2737392097
 30
0.0
 11
318.8597905758
 21
173.2444257696
 31
0.0
  0
LINE
  5
305
330
1F
100
AcDbEntity
  8
0
  6
Continuous
 62
     8
370
     0
100
AcDbLine
 10
317.1020225412
 20
174.1925353061
 30
0.0
 11
318.7330507876
 21
173.2737392097
 31
0.0
  0
LWPOLYLINE
  5
306
330
1F
100
AcDbEntity
  8
0
  6
Continuous
 62
     8
370
     0
100
AcDbPolyline
 90
       15
 70
   128
 43
0.0
 10
299.9581631311
 20
170.2305513847
 10
300.0522852098
 20
170.1651757484
 10
300.2316031914
 20
169.9729675922
 10
300.3637269761
 20
169.7220500455
 10
300.4446418129
 20
169.4200472776
 10
300.4718894871
 20
169.0761355685
 10
300.4446418129
 20
168.7007643645
 10
300.3637269761
 20
168.3053396186
 10
300.2316031914
 20
167.9018751972
 10
300.0522852098
 20
167.5026307542
 10
299.8312215649
 20
167.1197372907
 10
299.575128884
 20
166.764828042
 10
299.2917885289
 20
166.4486874668
 10
298.9898097837
 20
166.180921685
 10
298.6783680174
 20
165.9696652677
  0
ARC
  5
307
330
1F
100
AcDbEntity
  8
0
  6
Continuous
 62
     8
370
     0
100
AcDbCircle
 10
298.8088907439
 20
166.1774577787
 30
0.0
 40
0.2453852272282995
100
AcDbArc
 50
182.5670896388
 51
237.8654388848
  0
LWPOLYLINE
  5
308
330
1F
100
AcDbEntity
  8
0
  6
Continuous
 62
     8
370
     0
100
AcDbPolyline
 90
       19
 70
   128
 43
0.0
 10
298.5637517703
 20
166.1664671761
 10
298.8555491539
 20
166.3643980204
 10
299.1384804211
 20
166.615274644
 10
299.4039489319
 20
166.9114748215
 10
299.6438883063
 20
167.2439975584
 10
299.8510084566
 20
167.6027401809
 10
300.0190158046
 20
167.976801892
 10
300.1428058402
 20
168.3548172921
 10
300.2186169571
 20
168.7253007029
 10
300.2441458301
 20
169.076995056
 10
300.2186169571
 20
169.3992143999
 10
300.1428058402
 20
169.6821681581
 10
300.0190158046
 20
169.9172589296
 10
299.8510084566
 20
170.0973434855
 10
299.6438883063
 20
170.2169502727
 10
299.4039489319
 20
170.2724449046
 10
299.1384804211
 20
170.2621412074
 10
298.8555491539
 20
170.1863524952
 10
298.7911166324
 20
170.1607919308
  0
LINE
  5
309
330
1F
100
AcDbEntity
  8
0
  6
Continuous
 62
     8
370
     0
100
AcDbLine
 10
298.6783680174
 20
165.9696652677
 30
0.0
 11
300.5953204842
 21
164.8920100588
 31
0.0
  0
LWPOLYLINE
  5
30A
330
1F
100
AcDbEntity
  8
0
  6
Continuous
 62
     8
370
     0
100
AcDbPolyline
 90
       10
 70
   128
 43
0.0
 10
293.7310092007
 20
165.0541763637
 10
293.7410483166
 20
164.9858799225
 10
293.8168594335
 20
164.7029261642
 10
293.9406494691
 20
164.4678356969
 10
294.1086568172
 20
164.287751141
 10
294.3157769674
 20
164.1681443538
 10
294.5557163418
 20
164.1126497219
 10
294.8211848526
 20
164.1229529629
 10
295.1041161199
 20
164.1987418271
 10
295.3959135035
 20
164.3377130709
  0
LINE
  5
30B
330
1F
100
AcDbEntity
  8
0
  6
Continuous
 62
     8
370
     0
100
AcDbLine
 10
295.3959135035
 20
164.3377130709
 30
0.0
 11
298.5637517703
 21
166.1664671761
 31
0.0
  0
LINE
  5
30C
330
1F
100
AcDbEntity
  8
0
  6
Continuous
 62
     8
370
     0
100
AcDbLine
 10
298.6783680174
 20
165.9696652677
 30
0.0
 11
295.5105297507
 21
164.1409111625
 31
0.0
  0
ARC
  5
30D
330
1F
100
AcDbEntity
  8
0
  6
Continuous
 62
     8
370
     0
100
AcDbCircle
 10
295.6410524771
 20
164.3487036734
 30
0.0
 40
0.2453852272280054
100
AcDbArc
 50
182.5670896388
 51
237.8654388848
  0
LINE
  5
30E
330
1F
100
AcDbEntity
  8
0
  6
Continuous
 62
     8
370
     0
100
AcDbLine
 10
300.034142572
 20
162.3666931815
 30
0.0
 11
302.0394267331
 21
163.524319087
 31
0.0
  0
LINE
  5
30F
330
1F
100
AcDbEntity
  8
0
  6
Continuous
 62
     8
370
     0
100
AcDbLine
 10
298.2973922487
 20
163.3499555068
 30
0.0
 11
300.034142572
 21
162.3666931815
 31
0.0
  0
LINE
  5
310
330
1F
100
AcDbEntity
  8
0
  6
Continuous
 62
     8
370
     0
100
AcDbLine
 10
297.8021561103
 20
163.0640617695
 30
0.0
 11
298.2973922487
 21
163.3499555068
 31
0.0
  0
LINE
  5
311
330
1F
100
AcDbEntity
  8
0
  6
Continuous
 62
     8
370
     0
100
AcDbLine
 10
295.5105297507
 20
164.1409111625
 30
0.0
 11
297.4350054299
 21
163.0590266606
 31
0.0
  0
LINE
  5
312
330
1F
100
AcDbEntity
  8
0
  6
Continuous
 62
     8
370
     0
100
AcDbLine
 10
295.4955261311
 20
164.6376266017
 30
0.0
 11
295.353487037
 21
164.5556000885
 31
0.0
  0
LINE
  5
313
330
1F
100
AcDbEntity
  8
0
  6
Continuous
 62
     8
370
     0
100
AcDbLine
 10
303.8967281725
 20
167.3100348298
 30
0.0
 11
303.9878214733
 21
167.1513353031
 31
0.0
  0
ARC
  5
314
330
1F
100
AcDbEntity
  8
0
  6
Continuous
 62
     8
370
     0
100
AcDbCircle
 10
283.5047505941
 20
202.6697915463
 30
0.0
 40
41.00142590861142
100
AcDbArc
 50
299.7765096602
 51
299.9715370147
  0
LINE
  5
315
330
1F
100
AcDbEntity
  8
0
  6
Continuous
 62
     8
370
     0
100
AcDbLine
 10
303.8668028564
 20
167.0818195022
 30
0.0
 11
303.6560607113
 21
167.4489692893
 31
0.0
  0
LINE
  5
316
330
1F
100
AcDbEntity
  8
0
  6
Continuous
 62
     8
370
     0
100
AcDbLine
 10
303.2214906149
 20
167.2280425163
 30
0.0
 11
303.6301245944
 21
167.4639418914
 31
0.0
  0
ELLIPSE
  5
317
330
1F
100
AcDbEntity
  8
0
  6
Continuous
 62
     8
370
     0
100
AcDbEllipse
 10
303.796091128
 20
167.0410004575
 30
0.0
 11
-0.06994611198774693
 21
0.1222076158881009
 31
0.0
210
0.0
220
0.0
230
1.0
 40
0.5798484545
 41
3.143742627421815
 42
4.714519915748856
  0
LINE
  5
318
330
1F
100
AcDbEntity
  8
0
  6
Continuous
 62
     8
370
     0
100
AcDbLine
 10
303.5131275771
 20
166.7150614926
 30
0.0
 11
303.8661898832
 21
166.9188800235
 31
0.0
  0
LINE
  5
319
330
1F
100
AcDbEntity
  8
0
  6
Continuous
 62
     8
370
     0
100
AcDbLine
 10
304.7604683003
 20
166.7052961154
 30
0.0
 11
304.7604683003
 21
166.8114083695
 31
0.0
  0
LINE
  5
31A
330
1F
100
AcDbEntity
  8
0
  6
Continuous
 62
     8
370
     0
100
AcDbLine
 10
303.9878214733
 20
167.1513353031
 30
0.0
 11
304.7604683003
 21
166.7052961154
 31
0.0
  0
ELLIPSE
  5
31B
330
1F
100
AcDbEntity
  8
0
  6
Continuous
 62
     8
370
     0
100
AcDbEllipse
 10
303.846091128
 20
167.0698742264
 30
0.0
 11
-0.02617242835299294
 21
0.2188245673048641
 31
0.0
210
0.0
220
0.0
230
1.0
 40
0.7132437612
 41
3.436505877662845
 42
5.007283165989701
  0
ARC
  5
31C
330
1F
100
AcDbEntity
  8
0
  6
Continuous
 62
     8
370
     0
100
AcDbCircle
 10
303.9923046877
 20
166.9883116272
 30
0.0
 40
0.1439642022389377
100
AcDbArc
 50
208.8346676802
 51
238.226478228
  0
ARC
  5
31D
330
1F
100
AcDbEntity
  8
0
  6
Continuous
 62
     8
370
     0
100
AcDbCircle
 10
304.4556824458
 20
166.7179664892
 30
0.0
 40
0.3050491034386129
100
AcDbArc
 50
302.3804947847
 51
357.6195050697
  0
LINE
  5
31E
330
1F
100
AcDbEntity
  8
0
  6
Continuous
 62
     8
370
     0
100
AcDbLine
 10
304.619048238
 20
166.4603493829
 30
0.0
 11
303.9164984689
 21
166.8659224581
 31
0.0
  0
LINE
  5
31F
330
1F
100
AcDbEntity
  8
0
  6
Continuous
 62
     8
370
     0
100
AcDbLine
 10
303.9164984689
 20
166.8659224581
 30
0.0
 11
303.584149495
 21
166.6740614793
 31
0.0
  0
ELLIPSE
  5
320
330
1F
100
AcDbEntity
  8
0
  6
Continuous
 62
     8
370
     0
100
AcDbEllipse
 10
304.4770120374
 20
166.3790621883
 30
0.0
 11
0.1999995324225665
 21
0.0007524328603949471
 31
0.0
210
0.0
220
0.0
230
1.0
 40
0.5747629462
 41
5.495624789458596
 42
7.062057793123769
  0
LINE
  5
321
330
1F
100
AcDbEntity
  8
0
  6
Continuous
 62
     8
370
     0
100
AcDbLine
 10
304.4268886384
 20
166.1875586122
 30
0.0
 11
304.6184326306
 21
166.2981346052
 31
0.0
  0
ELLIPSE
  5
322
330
1F
100
AcDbEntity
  8
0
  6
Continuous
 62
     8
370
     0
100
AcDbEllipse
 10
304.4763949723
 20
166.5427250202
 30
0.0
 11
0.3999997641598725
 21
0.0007540691840404179
 31
0.0
210
0.0
220
0.0
230
1.0
 40
0.5760266851
 41
6.266807636423245
 42
7.063134237302446
  0
ARC
  5
323
330
1F
100
AcDbEntity
  8
0
  6
Continuous
 62
     8
370
     0
100
AcDbCircle
 10
304.6764221928
 20
166.3798244381
 30
0.0
 40
0.1001799287498276
100
AcDbArc
 50
234.6300137856
 51
294.4248371684
  0
ARC
  5
324
330
1F
100
AcDbEntity
  8
0
  6
Continuous
 62
     8
370
     0
100
AcDbCircle
 10
294.7593755729
 20
165.1758141765
 30
0.0
 40
1.278771616574352
100
AcDbArc
 50
250.4062610726
 51
305.9729270987
  0
ARC
  5
325
330
1F
100
AcDbEntity
  8
0
  6
Continuous
 62
     8
370
     0
100
AcDbCircle
 10
298.2974831017
 20
163.2911098202
 30
0.0
 40
0.0403962149555129
100
AcDbArc
 50
66.6586827933
 51
114.0990699056
  0
ELLIPSE
  5
326
330
1F
100
AcDbEntity
  8
0
  6
Continuous
 62
     8
370
     0
100
AcDbEllipse
 10
298.2970228255
 20
163.3828278495
 30
0.0
 11
0.02490898985672629
 21
0.05843465512967328
 31
0.0
210
0.0
220
0.0
230
1.0
 40
0.2365160853
 41
3.607984615933252
 42
4.218827433134283
  0
ELLIPSE
  5
327
330
1F
100
AcDbEntity
  8
0
  6
Continuous
 62
     8
370
     0
100
AcDbEllipse
 10
298.2970228255
 20
163.3828278495
 30
0.0
 11
-0.02489897517051532
 21
0.05814756255566068
 31
0.0
210
0.0
220
0.0
230
1.0
 40
0.2270585379
 41
2.071493983164035
 42
2.682336800366018
  0
ARC
  5
328
330
1F
100
AcDbEntity
  8
0
  6
Continuous
 62
     8
370
     0
100
AcDbCircle
 10
300.0216282092
 20
162.3859405954
 30
0.0
 40
0.0229580534447016
100
AcDbArc
 50
260.3902044356
 51
303.0312828634
  0
LINE
  5
329
330
1F
100
AcDbEntity
  8
0
  6
Continuous
 62
     8
370
     0
100
AcDbLine
 10
300.0177956534
 20
162.3633047006
 30
0.0
 11
298.3134883936
 21
163.3282000455
 31
0.0
  0
ELLIPSE
  5
32A
330
1F
100
AcDbEntity
  8
0
  6
Continuous
 62
     8
370
     0
100
AcDbEllipse
 10
298.214370576
 20
163.3621525223
 30
0.0
 11
0.09900443159290261
 21
-0.03456668783422855
 31
0.0
210
0.0
220
0.0
230
1.0
 40
0.1386803037
 41
5.378748574789876
 42
6.325612114994928
  0
ELLIPSE
  5
32B
330
1F
100
AcDbEntity
  8
0
  6
Continuous
 62
     8
370
     0
100
AcDbEllipse
 10
299.6508969445
 20
162.4492750621
 30
0.0
 11
0.4455199421681186
 21
-0.1555500952541138
 31
0.0
210
0.0
220
0.0
230
1.0
 40
0.1386803037
 41
0.1994097680639795
 42
0.6532696250148803
  0
LINE
  5
32C
330
1F
100
AcDbEntity
  8
0
  6
Continuous
 62
     8
370
     0
100
AcDbLine
 10
299.7825888432
 20
162.3338703908
 30
0.0
 11
299.9093288948
 21
162.3045571028
 31
0.0
  0
LINE
  5
32D
330
1F
100
AcDbEntity
  8
0
  6
Continuous
 62
     8
370
     0
100
AcDbLine
 10
298.1515609919
 20
163.2526667154
 30
0.0
 11
299.7825888432
 21
162.3338703908
 31
0.0
  0
LWPOLYLINE
  5
32E
330
1F
100
AcDbEntity
  8
0
  6
Continuous
 62
     8
370
     0
100
AcDbPolyline
 90
       15
 70
   128
 43
0.0
 10
281.0077017135
 20
159.29068287
 10
281.1018230019
 20
159.2253067775
 10
281.2811409836
 20
159.0330986213
 10
281.4132650316
 20
158.7821812266
 10
281.4941806588
 20
158.4801789149
 10
281.5214275426
 20
158.1362667496
 10
281.4941806588
 20
157.7608960018
 10
281.4132650316
 20
157.3654707998
 10
281.2811409836
 20
156.9620062263
 10
281.1018230019
 20
156.5627617833
 10
280.8807596205
 20
156.1798684718
 10
280.6246669395
 20
155.8249592231
 10
280.3413263211
 20
155.5088184959
 10
280.0393483662
 20
155.2410531703
 10
279.7279063364
 20
155.0297966009
  0
ARC
  5
32F
330
1F
100
AcDbEntity
  8
0
  6
Continuous
 62
     8
370
     0
100
AcDbCircle
 10
279.8584290629
 20
155.2375891119
 30
0.0
 40
0.2453852272281202
100
AcDbArc
 50
182.5670896388
 51
237.8654388848
  0
LWPOLYLINE
  5
330
330
1F
100
AcDbEntity
  8
0
  6
Continuous
 62
     8
370
     0
100
AcDbPolyline
 90
       19
 70
   128
 43
0.0
 10
279.6132900892
 20
155.2265985093
 10
279.9050874729
 20
155.4245293536
 10
280.1880182133
 20
155.6754056731
 10
280.4534875143
 20
155.9716063067
 10
280.6934263619
 20
156.3041287395
 10
280.9005465122
 20
156.662871362
 10
281.068554387
 20
157.0369333772
 10
281.1923438958
 20
157.4149484733
 10
281.2681555396
 20
157.7854321881
 10
281.2936838857
 20
158.1371262372
 10
281.2681555396
 20
158.4593458851
 10
281.1923438958
 20
158.7422993393
 10
281.068554387
 20
158.9773904149
 10
280.9005465122
 20
159.1574746667
 10
280.6934263619
 20
159.2770814538
 10
280.4534875143
 20
159.3325763899
 10
280.1880182133
 20
159.3222722365
 10
279.9050874729
 20
159.2464838284
 10
279.8406554782
 20
159.2209235682
  0
LINE
  5
331
330
1F
100
AcDbEntity
  8
0
  6
Continuous
 62
     8
370
     0
100
AcDbLine
 10
279.7279063364
 20
155.0297966009
 30
0.0
 11
281.6448588032
 21
153.952141392
 31
0.0
  0
LWPOLYLINE
  5
332
330
1F
100
AcDbEntity
  8
0
  6
Continuous
 62
     8
370
     0
100
AcDbPolyline
 90
       10
 70
   128
 43
0.0
 10
274.7805480465
 20
154.1143080011
 10
274.7905874258
 20
154.0460117119
 10
274.8663969623
 20
153.7630570412
 10
274.9901885784
 20
153.5279674863
 10
275.1581943459
 20
153.347882018
 10
275.3653144962
 20
153.2282752308
 10
275.6052543974
 20
153.172780903
 10
275.8707226448
 20
153.1830839919
 10
276.1536544388
 20
153.2588731603
 10
276.4454518225
 20
153.3978444041
  0
LINE
  5
333
330
1F
100
AcDbEntity
  8
0
  6
Continuous
 62
     8
370
     0
100
AcDbLine
 10
276.4454518225
 20
153.3978444041
 30
0.0
 11
279.6132900892
 21
155.2265985093
 31
0.0
  0
LINE
  5
334
330
1F
100
AcDbEntity
  8
0
  6
Continuous
 62
     8
370
     0
100
AcDbLine
 10
279.7279063364
 20
155.0297966009
 30
0.0
 11
276.5600680697
 21
153.2010424957
 31
0.0
  0
ARC
  5
335
330
1F
100
AcDbEntity
  8
0
  6
Continuous
 62
     8
370
     0
100
AcDbCircle
 10
276.6905907961
 20
153.4088350066
 30
0.0
 40
0.2453852272281228
100
AcDbArc
 50
182.5670896388
 51
237.8654388848
  0
LINE
  5
336
330
1F
100
AcDbEntity
  8
0
  6
Continuous
 62
     8
370
     0
100
AcDbLine
 10
281.083680891
 20
151.4268245147
 30
0.0
 11
283.0889647228
 21
152.5844502301
 31
0.0
  0
LINE
  5
337
330
1F
100
AcDbEntity
  8
0
  6
Continuous
 62
     8
370
     0
100
AcDbLine
 10
279.3469314897
 20
152.4100873722
 30
0.0
 11
281.083680891
 21
151.4268245147
 31
0.0
  0
LINE
  5
338
330
1F
100
AcDbEntity
  8
0
  6
Continuous
 62
     8
370
     0
100
AcDbLine
 10
278.8516933756
 20
152.1241924944
 30
0.0
 11
279.3469314897
 21
152.4100873722
 31
0.0
  0
LINE
  5
339
330
1F
100
AcDbEntity
  8
0
  6
Continuous
 62
     8
370
     0
100
AcDbLine
 10
276.5600680697
 20
153.2010424957
 30
0.0
 11
278.4845437489
 21
152.1191579938
 31
0.0
  0
LINE
  5
33A
330
1F
100
AcDbEntity
  8
0
  6
Continuous
 62
     8
370
     0
100
AcDbLine
 10
276.5450637916
 20
153.6977575547
 30
0.0
 11
276.4030246974
 21
153.6157310416
 31
0.0
  0
LINE
  5
33B
330
1F
100
AcDbEntity
  8
0
  6
Continuous
 62
     8
370
     0
100
AcDbLine
 10
284.9462667549
 20
156.370166315
 30
0.0
 11
285.0373597923
 21
156.2114666363
 31
0.0
  0
ARC
  5
33C
330
1F
100
AcDbEntity
  8
0
  6
Continuous
 62
     8
370
     0
100
AcDbCircle
 10
264.5543537509
 20
191.729810696
 30
0.0
 40
41.00129633605162
100
AcDbArc
 50
299.7765092959
 51
299.9715368416
  0
LINE
  5
33D
330
1F
100
AcDbEntity
  8
0
  6
Continuous
 62
     8
370
     0
100
AcDbLine
 10
284.9163414388
 20
156.1419509875
 30
0.0
 11
284.7055987669
 21
156.5091004704
 31
0.0
  0
LINE
  5
33E
330
1F
100
AcDbEntity
  8
0
  6
Continuous
 62
     8
370
     0
100
AcDbLine
 10
284.2710289339
 20
156.2881738495
 30
0.0
 11
284.67966265
 21
156.5240730725
 31
0.0
  0
ELLIPSE
  5
33F
330
1F
100
AcDbEntity
  8
0
  6
Continuous
 62
     8
370
     0
100
AcDbEllipse
 10
284.8456293922
 20
156.101131759
 30
0.0
 11
-0.06994611198780377
 21
0.1222076158881009
 31
0.0
210
0.0
220
0.0
230
1.0
 40
0.5798484545
 41
3.143742627421039
 42
4.714519915748477
  0
LINE
  5
340
330
1F
100
AcDbEntity
  8
0
  6
Continuous
 62
     8
370
     0
100
AcDbLine
 10
284.5626661595
 20
155.7751929778
 30
0.0
 11
284.9157282022
 21
155.9790113567
 31
0.0
  0
LINE
  5
341
330
1F
100
AcDbEntity
  8
0
  6
Continuous
 62
     8
370
     0
100
AcDbLine
 10
285.8100063559
 20
155.7654272965
 30
0.0
 11
285.8100063559
 21
155.8715395507
 31
0.0
  0
LINE
  5
342
330
1F
100
AcDbEntity
  8
0
  6
Continuous
 62
     8
370
     0
100
AcDbLine
 10
285.0373597923
 20
156.2114666363
 30
0.0
 11
285.8100063559
 21
155.7654272965
 31
0.0
  0
ELLIPSE
  5
343
330
1F
100
AcDbEntity
  8
0
  6
Continuous
 62
     8
370
     0
100
AcDbEllipse
 10
284.8956293922
 20
156.130005528
 30
0.0
 11
-0.02617242835304978
 21
0.2188245673048641
 31
0.0
210
0.0
220
0.0
230
1.0
 40
0.7132437612
 41
3.436505877662504
 42
5.007283165989751
  0
ARC
  5
344
330
1F
100
AcDbEntity
  8
0
  6
Continuous
 62
     8
370
     0
100
AcDbCircle
 10
285.0418430067
 20
156.0484429604
 30
0.0
 40
0.1439642022388135
100
AcDbArc
 50
208.8346676801
 51
238.226478228
  0
ARC
  5
345
330
1F
100
AcDbEntity
  8
0
  6
Continuous
 62
     8
370
     0
100
AcDbCircle
 10
285.5052216656
 20
155.7780969667
 30
0.0
 40
0.3050479109653644
100
AcDbArc
 50
302.3804950518
 51
357.6196280422
  0
LINE
  5
346
330
1F
100
AcDbEntity
  8
0
  6
Continuous
 62
     8
370
     0
100
AcDbLine
 10
285.6685868204
 20
155.5204808682
 30
0.0
 11
284.9660367879
 21
155.9260537913
 31
0.0
  0
LINE
  5
347
330
1F
100
AcDbEntity
  8
0
  6
Continuous
 62
     8
370
     0
100
AcDbLine
 10
284.9660367879
 20
155.9260537913
 30
0.0
 11
284.6336878139
 21
155.7341928125
 31
0.0
  0
ELLIPSE
  5
348
330
1F
100
AcDbEntity
  8
0
  6
Continuous
 62
     8
370
     0
100
AcDbEllipse
 10
285.5265503016
 20
155.4391934898
 30
0.0
 11
0.1999995324225665
 21
0.0007524328603949471
 31
0.0
210
0.0
220
0.0
230
1.0
 40
0.5747629462
 41
5.495624789458895
 42
7.06205779312382
  0
LINE
  5
349
330
1F
100
AcDbEntity
  8
0
  6
Continuous
 62
     8
370
     0
100
AcDbLine
 10
285.476426694
 20
155.2476897933
 30
0.0
 11
285.6679704227
 21
155.3582656342
 31
0.0
  0
ELLIPSE
  5
34A
330
1F
100
AcDbEntity
  8
0
  6
Continuous
 62
     8
370
     0
100
AcDbEllipse
 10
285.5259332365
 20
155.6028563218
 30
0.0
 11
0.3999997641598156
 21
0.0007540691840404179
 31
0.0
210
0.0
220
0.0
230
1.0
 40
0.5760266851
 41
6.266807636423367
 42
7.063134237302624
  0
ARC
  5
34B
330
1F
100
AcDbEntity
  8
0
  6
Continuous
 62
     8
370
     0
100
AcDbCircle
 10
285.7259599849
 20
155.4399554672
 30
0.0
 40
0.1001799287495845
100
AcDbArc
 50
234.6300137856
 51
294.4248371685
  0
ARC
  5
34C
330
1F
100
AcDbEntity
  8
0
  6
Continuous
 62
     8
370
     0
100
AcDbCircle
 10
275.808917977
 20
154.2359241
 30
0.0
 40
1.278751890157034
100
AcDbArc
 50
250.4058022736
 51
305.9733424531
  0
ARC
  5
34D
330
1F
100
AcDbEntity
  8
0
  6
Continuous
 62
     8
370
     0
100
AcDbCircle
 10
281.0711673786
 20
151.4460691397
 30
0.0
 40
0.0229552517685318
100
AcDbArc
 50
260.3875344546
 51
303.0332977518
  0
LINE
  5
34E
330
1F
100
AcDbEntity
  8
0
  6
Continuous
 62
     8
370
     0
100
AcDbLine
 10
281.0673342358
 20
151.4234361858
 30
0.0
 11
279.3630273711
 21
152.3883317589
 31
0.0
  0
ELLIPSE
  5
34F
330
1F
100
AcDbEntity
  8
0
  6
Continuous
 62
     8
370
     0
100
AcDbEllipse
 10
279.3465610897
 20
152.4429591511
 30
0.0
 11
-0.02489897517051531
 21
0.05814756255568909
 31
0.0
210
0.0
220
0.0
230
1.0
 40
0.2270585379
 41
2.07149398316428
 42
2.682336800364732
  0
ELLIPSE
  5
350
330
1F
100
AcDbEntity
  8
0
  6
Continuous
 62
     8
370
     0
100
AcDbEllipse
 10
279.3465610897
 20
152.4429591511
 30
0.0
 11
0.02490898985672629
 21
0.05843465512967328
 31
0.0
210
0.0
220
0.0
230
1.0
 40
0.2365160853
 41
3.607984615937916
 42
4.218827433137704
  0
ARC
  5
351
330
1F
100
AcDbEntity
  8
0
  6
Continuous
 62
     8
370
     0
100
AcDbCircle
 10
279.3470220955
 20
152.3512331982
 30
0.0
 40
0.0404038618421176
100
AcDbArc
 50
66.663387157
 51
114.0938355224
  0
ELLIPSE
  5
352
330
1F
100
AcDbEntity
  8
0
  6
Continuous
 62
     8
370
     0
100
AcDbEllipse
 10
279.2639088402
 20
152.4222838239
 30
0.0
 11
0.09900443159290263
 21
-0.03456668783425698
 31
0.0
210
0.0
220
0.0
230
1.0
 40
0.1386803037
 41
5.378748574790257
 42
6.325612114993581
  0
ELLIPSE
  5
353
330
1F
100
AcDbEntity
  8
0
  6
Continuous
 62
     8
370
     0
100
AcDbEllipse
 10
280.7004352087
 20
151.5094063637
 30
0.0
 11
0.4455199421681755
 21
-0.1555500952541138
 31
0.0
210
0.0
220
0.0
230
1.0
 40
0.1386803037
 41
0.1994097680637262
 42
0.6532696250152487
  0
LINE
  5
354
330
1F
100
AcDbEntity
  8
0
  6
Continuous
 62
     8
370
     0
100
AcDbLine
 10
280.8321274256
 20
151.3940018761
 30
0.0
 11
280.9588672138
 21
151.364688436
 31
0.0
  0
LINE
  5
355
330
1F
100
AcDbEntity
  8
0
  6
Continuous
 62
     8
370
     0
100
AcDbLine
 10
279.2010991792
 20
152.3127979725
 30
0.0
 11
280.8321274256
 21
151.3940018761
 31
0.0
  0
LINE
  5
356
330
1F
100
AcDbEntity
  8
0
  6
Continuous
 62
     8
370
     0
100
AcDbLine
 10
317.2384413531
 20
170.9149946632
 30
0.0
 11
317.5919954602
 21
171.1190971048
 31
0.0
  0
LINE
  5
357
330
1F
100
AcDbEntity
  8
0
  6
Continuous
 62
     8
370
     0
100
AcDbLine
 10
324.45093144
 20
175.0786765639
 30
0.0
 11
324.0973783866
 21
174.8745747306
 31
0.0
  0
LINE
  5
358
330
1F
100
AcDbEntity
  8
0
  6
Continuous
 62
     8
370
     0
100
AcDbLine
 10
324.45093144
 20
176.2218335838
 30
0.0
 11
324.3095097972
 21
176.1401926071
 31
0.0
  0
LINE
  5
359
330
1F
100
AcDbEntity
  8
0
  6
Continuous
 62
     8
370
     0
100
AcDbLine
 10
279.3375179911
 20
149.0352573296
 30
0.0
 11
279.6910710445
 21
149.239359163
 31
0.0
  0
LINE
  5
35A
330
1F
100
AcDbEntity
  8
0
  6
Continuous
 62
     8
370
     0
100
AcDbLine
 10
286.550008078
 20
153.1989392304
 30
0.0
 11
286.1964539709
 21
152.9948367888
 31
0.0
  0
LINE
  5
35B
330
1F
100
AcDbEntity
  8
0
  6
Continuous
 62
     8
370
     0
100
AcDbLine
 10
286.550008078
 20
154.3420962502
 30
0.0
 11
286.4085864351
 21
154.2604552736
 31
0.0
  0
LINE
  5
35C
330
1F
100
AcDbEntity
  8
0
  6
Continuous
 62
     8
370
     0
100
AcDbLine
 10
298.2879801989
 20
159.9751263006
 30
0.0
 11
298.6415335158
 21
160.179228286
 31
0.0
  0
LINE
  5
35D
330
1F
100
AcDbEntity
  8
0
  6
Continuous
 62
     8
370
     0
100
AcDbLine
 10
305.5004692322
 20
164.138807593
 30
0.0
 11
305.1469159153
 21
163.9347056076
 31
0.0
  0
LINE
  5
35E
330
1F
100
AcDbEntity
  8
0
  6
Continuous
 62
     8
370
     0
100
AcDbLine
 10
305.5004692322
 20
165.2819646128
 30
0.0
 11
305.3590478527
 21
165.2003237883
 31
0.0
  0
LINE
  5
35F
330
1F
100
AcDbEntity
  8
0
  6
Continuous
 62
     8
370
     0
100
AcDbLine
 10
316.8239808352
 20
174.0320260259
 30
0.0
 11
318.6879631428
 21
172.9559719442
 31
0.0
  0
LINE
  5
360
330
1F
100
AcDbEntity
  8
0
  6
Continuous
 62
     8
370
     0
100
AcDbLine
 10
278.9230585269
 20
152.1522893006
 30
0.0
 11
280.7870408344
 21
151.0762352189
 31
0.0
  0
LINE
  5
361
330
1F
100
AcDbEntity
  8
0
  6
Continuous
 62
     8
370
     0
100
AcDbLine
 10
297.8735195493
 20
163.0921575872
 30
0.0
 11
299.7375018569
 21
162.0161035055
 31
0.0
  0
LINE
  5
362
330
1F
100
AcDbEntity
  8
0
  6
Continuous
 62
     8
370
     0
100
AcDbLine
 10
277.4306049036
 20
200.8366438418
 30
0.0
 11
277.479120141
 21
200.9450405369
 31
0.0
  0
LINE
  5
363
330
1F
100
AcDbEntity
  8
0
  6
Continuous
 62
     8
370
     0
100
AcDbLine
 10
277.9454992542
 20
200.620581024
 30
0.0
 11
277.9940144915
 21
200.7289777191
 31
0.0
  0
LINE
  5
364
330
1F
100
AcDbEntity
  8
0
  6
Continuous
 62
     8
370
     0
100
AcDbLine
 10
277.1736439976
 20
200.8950897544
 30
0.0
 11
277.7393295153
 21
200.5685264561
 31
0.0
  0
LINE
  5
365
330
1F
100
AcDbEntity
  8
0
  6
Continuous
 62
     8
370
     0
100
AcDbLine
 10
272.9934774155
 20
198.3555341107
 30
0.0
 11
273.0419915991
 21
198.303151308
 31
0.0
  0
LINE
  5
366
330
1F
100
AcDbEntity
  8
0
  6
Continuous
 62
     8
370
     0
100
AcDbLine
 10
273.2989525051
 20
198.6582779676
 30
0.0
 11
273.8646380228
 21
198.3317146694
 31
0.0
  0
LINE
  5
367
330
1F
100
AcDbEntity
  8
0
  6
Continuous
 62
     8
370
     0
100
AcDbLine
 10
258.4801433543
 20
189.896775251
 30
0.0
 11
258.5286576697
 21
190.0051714139
 31
0.0
  0
LINE
  5
368
330
1F
100
AcDbEntity
  8
0
  6
Continuous
 62
     8
370
     0
100
AcDbLine
 10
258.9950381
 20
189.6807126613
 30
0.0
 11
259.0435525471
 21
189.7891089002
 31
0.0
  0
LINE
  5
369
330
1F
100
AcDbEntity
  8
0
  6
Continuous
 62
     8
370
     0
100
AcDbLine
 10
258.2231828435
 20
189.9552213917
 30
0.0
 11
258.7888683611
 21
189.6286580935
 31
0.0
  0
LINE
  5
36A
330
1F
100
AcDbEntity
  8
0
  6
Continuous
 62
     8
370
     0
100
AcDbLine
 10
254.043015471
 20
187.4156652918
 30
0.0
 11
254.0915297864
 21
187.3632825652
 31
0.0
  0
LINE
  5
36B
330
1F
100
AcDbEntity
  8
0
  6
Continuous
 62
     8
370
     0
100
AcDbLine
 10
254.3484902973
 20
187.7184089967
 30
0.0
 11
254.9141758149
 21
187.3918456984
 31
0.0
  0
LINE
  5
36C
330
1F
100
AcDbEntity
  8
0
  6
Continuous
 62
     8
370
     0
100
AcDbLine
 10
239.5296815416
 20
178.9569065082
 30
0.0
 11
239.5781957253
 21
179.0653025951
 31
0.0
  0
LINE
  5
36D
330
1F
100
AcDbEntity
  8
0
  6
Continuous
 62
     8
370
     0
100
AcDbLine
 10
240.0445758921
 20
178.7408436904
 30
0.0
 11
240.0930911295
 21
178.8492403855
 31
0.0
  0
LINE
  5
36E
330
1F
100
AcDbEntity
  8
0
  6
Continuous
 62
     8
370
     0
100
AcDbLine
 10
239.2727206356
 20
179.0153524208
 30
0.0
 11
239.8384061533
 21
178.6887891225
 31
0.0
  0
LINE
  5
36F
330
1F
100
AcDbEntity
  8
0
  6
Continuous
 62
     8
370
     0
100
AcDbLine
 10
235.0925529998
 20
176.4757961688
 30
0.0
 11
235.1410682371
 21
176.4234139744
 31
0.0
  0
LINE
  5
370
330
1F
100
AcDbEntity
  8
0
  6
Continuous
 62
     8
370
     0
100
AcDbLine
 10
235.3980291431
 20
176.778540634
 30
0.0
 11
235.9637146608
 21
176.4519773358
 31
0.0
  0
LINE
  5
371
330
1F
100
AcDbEntity
  8
0
  6
Continuous
 62
     8
370
     0
100
AcDbLine
 10
328.0470775717
 20
177.4586948726
 30
0.0
 11
269.9683009626
 21
210.986858942
 31
0.0
  0
LINE
  5
372
330
1F
100
AcDbEntity
  8
0
  6
Continuous
 62
     8
370
     0
100
AcDbLine
 10
220.293030642
 20
182.3099357914
 30
0.0
 11
278.3718072512
 21
148.781771722
 31
0.0
  0
LINE
  5
373
330
1F
100
AcDbEntity
  8
0
  6
Continuous
 62
     8
370
     0
100
AcDbLine
 10
220.5132563548
 20
182.4370697003
 30
0.0
 11
278.4607054914
 21
148.984719367
 31
0.0
  0
LINE
  5
374
330
1F
100
AcDbEntity
  8
0
  6
Continuous
 62
     8
370
     0
100
AcDbLine
 10
273.029612016
 20
143.2302001816
 30
0.0
 11
333.0481383223
 21
177.8781579157
 31
0.0
  0
LINE
  5
375
330
1F
100
AcDbEntity
  8
0
  6
Continuous
 62
     7
370
    15
100
AcDbLine
 10
81.4796924874
 20
153.6217294124
 30
0.0
 11
139.0378775458
 21
186.8493623765
 31
0.0
  0
LINE
  5
376
330
1F
100
AcDbEntity
  8
0
  6
Continuous
 62
     7
370
    15
100
AcDbLine
 10
62.5292308064
 20
164.5615980792
 30
0.0
 11
120.0874158648
 21
197.7892310433
 31
0.0
  0
LINE
  5
377
330
1F
100
AcDbEntity
  8
0
  6
Continuous
 62
     7
370
    15
100
AcDbLine
 10
165.7603714014
 20
182.3183293672
 30
0.0
 11
99.1811886842
 21
220.7536734305
 31
0.0
  0
LINE
  5
378
330
1F
100
AcDbEntity
  8
0
  6
Continuous
 62
     7
370
    15
100
AcDbLine
 10
98.9812061027
 20
209.9735870183
 30
0.0
 11
159.5509773627
 21
175.007402346
 31
0.0
  0
LINE
  5
379
330
1F
100
AcDbEntity
  8
0
  6
Continuous
 62
     7
370
    15
100
AcDbLine
 10
98.7812235212
 20
220.7536734305
 30
0.0
 11
32.2020408041
 21
182.3183293672
 31
0.0
  0
LINE
  5
37A
330
1F
100
AcDbEntity
  8
0
  6
Continuous
 62
     7
370
    15
100
AcDbLine
 10
38.4114348428
 20
175.007402346
 30
0.0
 11
98.9812061027
 21
209.9735870183
 31
0.0
  0
LINE
  5
37B
330
1F
100
AcDbEntity
  8
0
  6
Continuous
 62
     7
370
    15
100
AcDbLine
 10
32.2020408041
 20
174.9158662459
 30
0.0
 11
98.7812235212
 21
136.4805221826
 31
0.0
  0
LINE
  5
37C
330
1F
100
AcDbEntity
  8
0
  6
Continuous
 62
     7
370
    15
100
AcDbLine
 10
99.1811886842
 20
136.4805221826
 30
0.0
 11
165.7603714014
 21
174.9158662459
 31
0.0
  0
LINE
  5
37D
330
1F
100
AcDbEntity
  8
0
  6
Continuous
 62
     7
370
    15
100
AcDbLine
 10
122.7938746883
 20
196.2268246884
 30
0.0
 11
71.9765533209
 21
166.890609502
 31
0.0
  0
LINE
  5
37E
330
1F
100
AcDbEntity
  8
0
  6
Continuous
 62
     7
370
    15
100
AcDbLine
 10
77.0790941997
 20
161.8084899928
 30
0.0
 11
116.8647561385
 21
184.7762637472
 31
0.0
  0
LINE
  5
37F
330
1F
100
AcDbEntity
  8
0
  6
Continuous
 62
     7
370
    15
100
AcDbLine
 10
117.4906157655
 20
185.1375648194
 30
0.0
 11
129.7468666289
 21
192.212947839
 31
0.0
  0
LINE
  5
380
330
1F
100
AcDbEntity
  8
0
  6
Continuous
 62
     7
370
    15
100
AcDbLine
 10
103.8434119536
 20
207.1666939635
 30
0.0
 11
53.0260905863
 21
177.830478777
 31
0.0
  0
LINE
  5
381
330
1F
100
AcDbEntity
  8
0
  6
Continuous
 62
     7
370
    15
100
AcDbLine
 10
58.1286325187
 20
172.7483586596
 30
0.0
 11
97.9142944575
 21
195.716132414
 31
0.0
  0
LINE
  5
382
330
1F
100
AcDbEntity
  8
0
  6
Continuous
 62
     7
370
    15
100
AcDbLine
 10
98.5401540845
 20
196.0774334862
 30
0.0
 11
110.7964049479
 21
203.1528165058
 31
0.0
  0
LINE
  5
383
330
1F
100
AcDbEntity
  8
0
  6
Continuous
 62
     7
370
    15
100
AcDbLine
 10
141.7443363693
 20
185.2869560216
 30
0.0
 11
90.927015002
 21
155.9507408352
 31
0.0
  0
LINE
  5
384
330
1F
100
AcDbEntity
  8
0
  6
Continuous
 62
     7
370
    15
100
AcDbLine
 10
96.0295569344
 20
150.8686207177
 30
0.0
 11
135.8152188732
 21
173.8363944722
 31
0.0
  0
LINE
  5
385
330
1F
100
AcDbEntity
  8
0
  6
Continuous
 62
     7
370
    15
100
AcDbLine
 10
136.4410785002
 20
174.1976955443
 30
0.0
 11
148.6973293636
 21
181.273078564
 31
0.0
  0
SPLINE
  5
386
330
1F
100
AcDbEntity
  8
0
  6
Continuous
 62
     7
370
    15
100
AcDbSpline
210
0.0
220
0.0
230
1.0
 70
     8
 71
     3
 72
    13
 73
     9
 74
     0
 42
0.000000001
 43
0.00000001
 40
0.0
 40
0.0
 40
0.0
 40
0.0
 40
0.0127054389806693
 40
0.2362755629539457
 40
0.459789088499016
 40
0.6807859245664685
 40
0.8969027522166997
 40
0.9999999999999999
 40
0.9999999999999999
 40
0.9999999999999999
 40
0.9999999999999999
 10
92.02911399733298
 20
156.5869685532701
 30
0.0
 10
92.02356326950589
 20
156.5899161754751
 30
0.0
 10
91.92033965447376
 20
156.6447313689455
 30
0.0
 10
91.7187343128861
 20
156.7157193487924
 30
0.0
 10
91.43128492730378
 20
156.7721659638642
 30
0.0
 10
91.16051278688391
 20
156.760014050324
 30
0.0
 10
90.9497342206891
 20
156.7083620189777
 30
0.0
 10
90.84506020369845
 20
156.6401766217438
 30
0.0
 10
90.81125341415917
 20
156.6181546392098
 30
0.0
  0
LINE
  5
387
330
1F
100
AcDbEntity
  8
0
  6
Continuous
 62
     7
370
    15
100
AcDbLine
 10
90.8056394539
 20
156.6241534418
 30
0.0
 11
88.4524007238
 21
155.2148814376
 31
0.0
  0
LINE
  5
388
330
1F
100
AcDbEntity
  8
0
  6
Continuous
 62
     7
370
    15
100
AcDbLine
 10
90.433026542
 20
150.9043026044
 30
0.0
 11
90.5996435708
 21
150.808116641
 31
0.0
  0
SPLINE
  5
389
330
1F
100
AcDbEntity
  8
0
  6
Continuous
 62
     7
370
    15
100
AcDbSpline
210
0.0
220
0.0
230
1.0
 70
     8
 71
     3
 72
    11
 73
     7
 74
     0
 42
0.000000001
 43
0.00000001
 40
0.0
 40
0.0
 40
0.0
 40
0.0
 40
0.0172835062332382
 40
0.352173652921224
 40
0.6570306019637084
 40
1.0
 40
1.0
 40
1.0
 40
1.0
 10
85.88850256175795
 20
152.9436347778958
 30
0.0
 10
85.88812226848525
 20
152.9418244157054
 30
0.0
 10
85.88037330428632
 20
152.9049359593297
 30
0.0
 10
85.90408614007521
 20
152.8330550129819
 30
0.0
 10
85.95763627530906
 20
152.742957244603
 30
0.0
 10
86.01540900922085
 20
152.7032238289073
 30
0.0
 10
86.04599479793104
 20
152.6821883373369
 30
0.0
  0
LINE
  5
38A
330
1F
100
AcDbEntity
  8
0
  6
Continuous
 62
     7
370
    15
100
AcDbLine
 10
85.8874077974
 20
153.1380875228
 30
0.0
 11
85.8874077974
 21
152.9368307145
 31
0.0
  0
SPLINE
  5
38B
330
1F
100
AcDbEntity
  8
0
  6
Continuous
 62
     7
370
    15
100
AcDbSpline
210
0.0
220
0.0
230
1.0
 70
     8
 71
     3
 72
    13
 73
     9
 74
     0
 42
0.000000001
 43
0.00000001
 40
0.0
 40
0.0
 40
0.0
 40
0.0
 40
0.1168192714742463
 40
0.3295315444008772
 40
0.5433564070571106
 40
0.7614098212980032
 40
0.9838555981454603
 40
1.0
 40
1.0
 40
1.0
 40
1.0
 10
96.52353064300281
 20
150.4193855610575
 30
0.0
 10
96.56294412815264
 20
150.4409741036621
 30
0.0
 10
96.67412429960669
 20
150.5018724956493
 30
0.0
 10
96.8188532945188
 20
150.6607932790606
 30
0.0
 10
96.95600829947799
 20
150.8828317846362
 30
0.0
 10
97.04442129808037
 20
151.1513962697957
 30
0.0
 10
97.0878624609112
 20
151.3538774214271
 30
0.0
 10
97.08820959623472
 20
151.4718028843901
 30
0.0
 10
97.0882330854336
 20
151.4797824084146
 30
0.0
  0
LINE
  5
38C
330
1F
100
AcDbEntity
  8
0
  6
Continuous
 62
     7
370
    15
100
AcDbLine
 10
94.2972392742
 20
149.1719550779
 30
0.0
 11
96.5095863582
 21
150.4022556548
 31
0.0
  0
LINE
  5
38D
330
1F
100
AcDbEntity
  8
0
  6
Continuous
 62
     7
370
    15
100
AcDbLine
 10
86.0459947979
 20
152.6821883373
 30
0.0
 11
86.2789572884
 21
152.5477019542
 31
0.0
  0
LINE
  5
38E
330
1F
100
AcDbEntity
  8
0
  6
Continuous
 62
     7
370
    15
100
AcDbLine
 10
88.6112585179
 20
149.8522193025
 30
0.0
 11
91.1281840172
 21
148.3992291395
 31
0.0
  0
SPLINE
  5
38F
330
1F
100
AcDbEntity
  8
0
  6
Continuous
 62
     7
370
    15
100
AcDbSpline
210
0.0
220
0.0
230
1.0
 70
     8
 71
     3
 72
    13
 73
     9
 74
     0
 42
0.000000001
 43
0.00000001
 40
0.0
 40
0.0
 40
0.0
 40
0.0
 40
0.0127054409457445
 40
0.2362752937064087
 40
0.459789050507325
 40
0.6807859207550516
 40
0.8969024493752087
 40
1.0
 40
1.0
 40
1.0
 40
1.0
 10
73.07865192119775
 20
167.5268374481661
 30
0.0
 10
73.0731011933769
 20
167.5297850704642
 30
0.0
 10
72.96987771205482
 20
167.5846001947234
 30
0.0
 10
72.76827240681209
 20
167.6555880193122
 30
0.0
 10
72.48082309348902
 20
167.7120347491237
 30
0.0
 10
72.21005086270286
 20
167.6998831472923
 30
0.0
 10
71.99927275294496
 20
167.6482300787931
 30
0.0
 10
71.89459845040005
 20
167.5800453039996
 30
0.0
 10
71.86079146973283
 20
167.5580234580718
 30
0.0
  0
LINE
  5
390
330
1F
100
AcDbEntity
  8
0
  6
Continuous
 62
     7
370
    15
100
AcDbLine
 10
71.8551780363
 20
167.5640219565
 30
0.0
 11
69.5019393062
 21
166.1547499523
 31
0.0
  0
LINE
  5
391
330
1F
100
AcDbEntity
  8
0
  6
Continuous
 62
     7
370
    15
100
AcDbLine
 10
71.4825642024
 20
161.8441716514
 30
0.0
 11
71.6491818898
 21
161.7479853078
 31
0.0
  0
SPLINE
  5
392
330
1F
100
AcDbEntity
  8
0
  6
Continuous
 62
     7
370
    15
100
AcDbSpline
210
0.0
220
0.0
230
1.0
 70
     8
 71
     3
 72
    11
 73
     7
 74
     0
 42
0.000000001
 43
0.00000001
 40
0.0
 40
0.0
 40
0.0
 40
0.0
 40
0.0172844998064951
 40
0.3521736809516907
 40
0.65703211129113
 40
1.0
 40
1.0
 40
1.0
 40
1.0
 10
66.93804061733161
 20
163.8835035967579
 30
0.0
 10
66.9376605036332
 20
163.8816931334543
 30
0.0
 10
66.92991564310233
 20
163.844804734427
 30
0.0
 10
66.95362259850432
 20
163.7729234703314
 30
0.0
 10
67.007174890618
 20
163.6828262442697
 30
0.0
 10
67.06494717345772
 20
163.6430927498518
 30
0.0
 10
67.09553259008688
 20
163.6220573082669
 30
0.0
  0
LINE
  5
393
330
1F
100
AcDbEntity
  8
0
  6
Continuous
 62
     7
370
    15
100
AcDbLine
 10
66.9369461164
 20
164.0779561896
 30
0.0
 11
66.9369461164
 21
163.8766993813
 31
0.0
  0
SPLINE
  5
394
330
1F
100
AcDbEntity
  8
0
  6
Continuous
 62
     7
370
    15
100
AcDbSpline
210
0.0
220
0.0
230
1.0
 70
     8
 71
     3
 72
    13
 73
     9
 74
     0
 42
0.000000001
 43
0.00000001
 40
0.0
 40
0.0
 40
0.0
 40
0.0
 40
0.1168195293017638
 40
0.3295320981112776
 40
0.5433563552247623
 40
0.7614098875593965
 40
0.9838555997290115
 40
1.0
 40
1.0
 40
1.0
 40
1.0
 10
77.57306843515869
 20
161.3592545319873
 30
0.0
 10
77.61248207546397
 20
161.3808429915117
 30
0.0
 10
77.72366262602463
 20
161.4417411170611
 30
0.0
 10
77.86839283489783
 20
161.6006603970717
 30
0.0
 10
78.00554531324886
 20
161.8227019720945
 30
0.0
 10
78.09395951714949
 20
162.0912646978802
 30
0.0
 10
78.1374019502967
 20
162.2937454373038
 30
0.0
 10
78.13774774267564
 20
162.4116716510185
 30
0.0
 10
78.13777114100726
 20
162.4196512272766
 30
0.0
  0
LINE
  5
395
330
1F
100
AcDbEntity
  8
0
  6
Continuous
 62
     7
370
    15
100
AcDbLine
 10
75.346776803
 20
160.1118242009
 30
0.0
 11
77.5591241503
 21
161.3421246257
 31
0.0
  0
LINE
  5
396
330
1F
100
AcDbEntity
  8
0
  6
Continuous
 62
     7
370
    15
100
AcDbLine
 10
67.0955325901
 20
163.6220573083
 30
0.0
 11
67.3284950805
 21
163.4875709251
 31
0.0
  0
LINE
  5
397
330
1F
100
AcDbEntity
  8
0
  6
Continuous
 62
     7
370
    15
100
AcDbLine
 10
69.6607974295
 20
160.7920876272
 30
0.0
 11
72.1777227314
 21
159.3390975782
 31
0.0
  0
SPLINE
  5
398
330
1F
100
AcDbEntity
  8
0
  6
Continuous
 62
     7
370
    15
100
AcDbSpline
210
0.0
220
0.0
230
1.0
 70
     8
 71
     3
 72
    13
 73
     9
 74
     0
 42
0.000000001
 43
0.00000001
 40
0.0
 40
0.0
 40
0.0
 40
0.0
 40
0.0127062613804395
 40
0.2362755520860729
 40
0.4597890598101533
 40
0.6807866149285158
 40
0.8969027604367616
 40
1.0
 40
1.0
 40
1.0
 40
1.0
 10
54.1281906353159
 20
178.4667058868585
 30
0.0
 10
54.12263955659819
 20
178.4696537146007
 30
0.0
 10
54.01941610247299
 20
178.5244691796997
 30
0.0
 10
53.81781049989596
 20
178.5954566969968
 30
0.0
 10
53.53036136253731
 20
178.6519030413755
 30
0.0
 10
53.25958875088383
 20
178.6397526297129
 30
0.0
 10
53.04881068374079
 20
178.5880990805548
 30
0.0
 10
52.94413685220341
 20
178.5199139235997
 30
0.0
 10
52.91033005214208
 20
178.4978919727982
 30
0.0
  0
LINE
  5
399
330
1F
100
AcDbEntity
  8
0
  6
Continuous
 62
     7
370
    15
100
AcDbLine
 10
52.9047160919
 20
178.5038907753
 30
0.0
 11
50.5514784155
 21
177.0946181629
 31
0.0
  0
LINE
  5
39A
330
1F
100
AcDbEntity
  8
0
  6
Continuous
 62
     7
370
    15
100
AcDbLine
 10
52.5321021263
 20
172.7840405463
 30
0.0
 11
52.6987191551
 21
172.6878545829
 31
0.0
  0
SPLINE
  5
39B
330
1F
100
AcDbEntity
  8
0
  6
Continuous
 62
     7
370
    15
100
AcDbSpline
210
0.0
220
0.0
230
1.0
 70
     8
 71
     3
 72
    11
 73
     7
 74
     0
 42
0.000000001
 43
0.00000001
 40
0.0
 40
0.0
 40
0.0
 40
0.0
 40
0.0172874037180215
 40
0.3521721740987051
 40
0.6570298190519429
 40
1.0
 40
1.0
 40
1.0
 40
1.0
 10
47.98757814606966
 20
174.8233727197556
 30
0.0
 10
47.98719857104635
 20
174.8215619530454
 30
0.0
 10
47.97946601829453
 20
174.7846737274033
 30
0.0
 10
48.00315531012676
 20
174.7127920907836
 30
0.0
 10
48.0567137195634
 20
174.6226952694323
 30
0.0
 10
48.11448523736192
 20
174.5829617994875
 30
0.0
 10
48.14507038224274
 20
174.5619262791968
 30
0.0
  0
LINE
  5
39C
330
1F
100
AcDbEntity
  8
0
  6
Continuous
 62
     7
370
    15
100
AcDbLine
 10
47.9864844354
 20
175.0178248564
 30
0.0
 11
47.9864844354
 21
174.816568048
 31
0.0
  0
SPLINE
  5
39D
330
1F
100
AcDbEntity
  8
0
  6
Continuous
 62
     7
370
    15
100
AcDbSpline
210
0.0
220
0.0
230
1.0
 70
     8
 71
     3
 72
    13
 73
     9
 74
     0
 42
0.000000001
 43
0.00000001
 40
0.0
 40
0.0
 40
0.0
 40
0.0
 40
0.1168197875334116
 40
0.3295324144736252
 40
0.5433564290321808
 40
0.761409959217756
 40
0.9838556074779145
 40
1.0
 40
1.0
 40
1.0
 40
1.0
 10
58.62260622731453
 20
172.2991235029173
 30
0.0
 10
58.66202004781046
 20
172.320711843465
 30
0.0
 10
58.77320096763491
 20
172.3816095572462
 30
0.0
 10
58.91793158238035
 20
172.5405285736855
 30
0.0
 10
59.05508302807311
 20
172.7625712299519
 30
0.0
 10
59.14349847780543
 20
173.0311329103417
 30
0.0
 10
59.18693909152933
 20
173.2336147626538
 30
0.0
 10
59.18728623375087
 20
173.3515402184626
 30
0.0
 10
59.18730972341652
 20
173.359519742003
 30
0.0
  0
LINE
  5
39E
330
1F
100
AcDbEntity
  8
0
  6
Continuous
 62
     7
370
    15
100
AcDbLine
 10
56.3963148586
 20
171.0516930197
 30
0.0
 11
58.6086619425
 21
172.2819935967
 31
0.0
  0
LINE
  5
39F
330
1F
100
AcDbEntity
  8
0
  6
Continuous
 62
     7
370
    15
100
AcDbLine
 10
48.1450703822
 20
174.5619262792
 30
0.0
 11
48.3780328727
 21
174.4274398961
 31
0.0
  0
LINE
  5
3A0
330
1F
100
AcDbEntity
  8
0
  6
Continuous
 62
     7
370
    15
100
AcDbLine
 10
50.7103362095
 20
171.7319560278
 30
0.0
 11
53.2272606552
 21
170.2789664731
 31
0.0
  0
LINE
  5
3A1
330
1F
100
AcDbEntity
  8
0
  6
Continuous
 62
     7
370
    15
100
AcDbLine
 10
84.8383685232
 20
150.4903285509
 30
0.0
 11
85.1919226303
 21
150.2862261093
 31
0.0
  0
LINE
  5
3A2
330
1F
100
AcDbEntity
  8
0
  6
Continuous
 62
     7
370
    15
100
AcDbLine
 10
88.7702701479
 20
155.9385025851
 30
0.0
 11
88.41660962
 21
155.7343387081
 31
0.0
  0
LINE
  5
3A3
330
1F
100
AcDbEntity
  8
0
  6
Continuous
 62
     7
370
    15
100
AcDbLine
 10
91.6973055567
 20
146.5307484835
 30
0.0
 11
92.0508586102
 21
146.3266466502
 31
0.0
  0
LINE
  5
3A4
330
1F
100
AcDbEntity
  8
0
  6
Continuous
 62
     7
370
    15
100
AcDbLine
 10
46.9374451612
 20
172.3700658845
 30
0.0
 11
47.2909982146
 21
172.1659640512
 31
0.0
  0
LINE
  5
3A5
330
1F
100
AcDbEntity
  8
0
  6
Continuous
 62
     7
370
    15
100
AcDbLine
 10
50.8693457322
 20
177.8182405269
 30
0.0
 11
50.5156852044
 21
177.6140766499
 31
0.0
  0
LINE
  5
3A6
330
1F
100
AcDbEntity
  8
0
  6
Continuous
 62
     7
370
    15
100
AcDbLine
 10
53.796381141
 20
168.4104864253
 30
0.0
 11
54.1499352481
 21
168.2063839838
 31
0.0
  0
LINE
  5
3A7
330
1F
100
AcDbEntity
  8
0
  6
Continuous
 62
     7
370
    15
100
AcDbLine
 10
65.8879073691
 20
161.4301969135
 30
0.0
 11
66.2414606859
 21
161.2260949282
 31
0.0
  0
LINE
  5
3A8
330
1F
100
AcDbEntity
  8
0
  6
Continuous
 62
     7
370
    15
100
AcDbLine
 10
69.8198084669
 20
166.8783712519
 30
0.0
 11
69.466147939
 21
166.6742073749
 31
0.0
  0
LINE
  5
3A9
330
1F
100
AcDbEntity
  8
0
  6
Continuous
 62
     7
370
    15
100
AcDbLine
 10
72.7468430855
 20
157.4706176065
 30
0.0
 11
73.1003964023
 21
157.2665156211
 31
0.0
  0
LINE
  5
3AA
330
1F
100
AcDbEntity
  8
0
  6
Continuous
 62
     7
370
    15
100
AcDbLine
 10
85.7504442374
 20
151.5803351533
 30
0.0
 11
85.679733416
 21
151.6211556416
 31
0.0
  0
LINE
  5
3AB
330
1F
100
AcDbEntity
  8
0
  6
Continuous
 62
     7
370
    15
100
AcDbLine
 10
91.7844146632
 20
146.8268618849
 30
0.0
 11
91.8472935465
 21
146.7905626782
 31
0.0
  0
LINE
  5
3AC
330
1F
100
AcDbEntity
  8
0
  6
Continuous
 62
     7
370
    15
100
AcDbLine
 10
66.7999825564
 20
162.5202038201
 30
0.0
 11
66.7292719984
 21
162.5610241563
 31
0.0
  0
LINE
  5
3AD
330
1F
100
AcDbEntity
  8
0
  6
Continuous
 62
     7
370
    15
100
AcDbLine
 10
72.8339535091
 20
157.7667302476
 30
0.0
 11
72.8968310753
 21
157.7304318012
 31
0.0
  0
LINE
  5
3AE
330
1F
100
AcDbEntity
  8
0
  6
Continuous
 62
     7
370
    15
100
AcDbLine
 10
47.8495198217
 20
173.4600730951
 30
0.0
 11
47.778810054
 21
173.5008929752
 31
0.0
  0
LINE
  5
3AF
330
1F
100
AcDbEntity
  8
0
  6
Continuous
 62
     7
370
    15
100
AcDbLine
 10
53.8834913012
 20
168.7065992185
 30
0.0
 11
53.9463691308
 21
168.6703006201
 31
0.0
  0
LINE
  5
3B0
330
1F
100
AcDbEntity
  8
0
  6
Continuous
 62
     7
370
    15
100
AcDbLine
 10
131.5872019203
 20
176.0720857153
 30
0.0
 11
131.6357161039
 21
175.96368902
 31
0.0
  0
LINE
  5
3B1
330
1F
100
AcDbEntity
  8
0
  6
Continuous
 62
     7
370
    15
100
AcDbLine
 10
132.0285110343
 20
176.0431230019
 30
0.0
 11
132.594196552
 21
176.3696863001
 31
0.0
  0
LINE
  5
3B2
330
1F
100
AcDbEntity
  8
0
  6
Continuous
 62
     7
370
    15
100
AcDbLine
 10
136.6829023655
 20
173.3218047603
 30
0.0
 11
136.7314176028
 21
173.3741875631
 31
0.0
  0
LINE
  5
3B3
330
1F
100
AcDbEntity
  8
0
  6
Continuous
 62
     7
370
    15
100
AcDbLine
 10
133.7935061998
 20
180.7828420372
 30
0.0
 11
132.9449784501
 21
180.292997394
 31
0.0
  0
LINE
  5
3B4
330
1F
100
AcDbEntity
  8
0
  6
Continuous
 62
     7
370
    15
100
AcDbLine
 10
112.6367397124
 20
187.0119546862
 30
0.0
 11
112.6852541595
 21
186.9035578389
 31
0.0
  0
LINE
  5
3B5
330
1F
100
AcDbEntity
  8
0
  6
Continuous
 62
     7
370
    15
100
AcDbLine
 10
113.0780496167
 20
186.9829915166
 30
0.0
 11
113.6437351344
 21
187.3095548148
 31
0.0
  0
LINE
  5
3B6
330
1F
100
AcDbEntity
  8
0
  6
Continuous
 62
     7
370
    15
100
AcDbLine
 10
117.7324412113
 20
184.261673123
 30
0.0
 11
117.780955395
 21
184.3140565341
 31
0.0
  0
LINE
  5
3B7
330
1F
100
AcDbEntity
  8
0
  6
Continuous
 62
     7
370
    15
100
AcDbLine
 10
114.8430440578
 20
191.7227109701
 30
0.0
 11
113.9945163081
 21
191.2328663269
 31
0.0
  0
LINE
  5
3B8
330
1F
100
AcDbEntity
  8
0
  6
Continuous
 62
     7
370
    15
100
AcDbLine
 10
93.6862775046
 20
197.9518236571
 30
0.0
 11
93.7347927419
 21
197.8434263536
 31
0.0
  0
LINE
  5
3B9
330
1F
100
AcDbEntity
  8
0
  6
Continuous
 62
     7
370
    15
100
AcDbLine
 10
94.127588726
 20
197.9228597272
 30
0.0
 11
94.6932742436
 21
198.2494230254
 31
0.0
  0
LINE
  5
3BA
330
1F
100
AcDbEntity
  8
0
  6
Continuous
 62
     7
370
    15
100
AcDbLine
 10
98.7819790035
 20
195.2015420939
 30
0.0
 11
98.8304942408
 21
195.2539248967
 31
0.0
  0
LINE
  5
3BB
330
1F
100
AcDbEntity
  8
0
  6
Continuous
 62
     7
370
    15
100
AcDbLine
 10
95.8925817841
 20
202.6625799791
 30
0.0
 11
95.0440540344
 21
202.1727353358
 31
0.0
  0
LINE
  5
3BC
330
1F
100
AcDbEntity
  8
0
  6
Continuous
 62
     7
370
    15
100
AcDbLine
 10
43.8137314838
 20
174.8009048794
 30
0.0
 11
101.8612056286
 21
208.3109984207
 31
0.0
  0
LINE
  5
3BD
330
1F
100
AcDbEntity
  8
0
  6
Continuous
 62
     7
370
    15
100
AcDbLine
 10
75.0631308833
 20
157.3092984318
 30
0.0
 11
78.1798534522
 21
152.8951713292
 31
0.0
  0
LINE
  5
3BE
330
1F
100
AcDbEntity
  8
0
  6
Continuous
 62
     7
370
    15
100
AcDbLine
 10
74.9218957402
 20
158.1147988047
 30
0.0
 11
75.0065761346
 21
157.4485186712
 31
0.0
  0
ARC
  5
3BF
330
1F
100
AcDbEntity
  8
0
  6
Continuous
 62
     7
370
    15
100
AcDbCircle
 10
75.3212631781
 20
157.4952553336
 30
0.0
 40
0.3181387290876979
100
AcDbArc
 50
188.4476987725
 51
215.7687438178
  0
ARC
  5
3C0
330
1F
100
AcDbEntity
  8
0
  6
Continuous
 62
     7
370
    15
100
AcDbCircle
 10
78.3392342732
 20
152.9792771515
 30
0.0
 40
0.1802110857924646
100
AcDbArc
 50
207.820769111
 51
272.1846074217
  0
LINE
  5
3C1
330
1F
100
AcDbEntity
  8
0
  6
Continuous
 62
     7
370
    15
100
AcDbLine
 10
78.3461038035
 20
152.7991970443
 30
0.0
 11
81.4628263723
 21
153.6148328649
 31
0.0
  0
LWPOLYLINE
  5
3C2
330
1F
100
AcDbEntity
  8
0
  6
Continuous
 62
     7
370
    15
100
AcDbPolyline
 90
        3
 70
   128
 43
0.0
 10
81.4628263723
 20
153.6148328649
 10
81.4736402
 20
153.6186349773
 10
81.4796924874
 20
153.6217294124
  0
LINE
  5
3C3
330
1F
100
AcDbEntity
  8
0
  6
Continuous
 62
     7
370
    15
100
AcDbLine
 10
59.2293912443
 20
163.8350403002
 30
0.0
 11
56.1126686754
 21
168.2491674027
 31
0.0
  0
LINE
  5
3C4
330
1F
100
AcDbEntity
  8
0
  6
Continuous
 62
     7
370
    15
100
AcDbLine
 10
56.0561139267
 20
168.3883876421
 30
0.0
 11
55.9714335324
 21
169.0546677756
 31
0.0
  0
ARC
  5
3C5
330
1F
100
AcDbEntity
  8
0
  6
Continuous
 62
     7
370
    15
100
AcDbCircle
 10
56.3708174202
 20
168.4351309869
 30
0.0
 40
0.3181559822977484
100
AcDbArc
 50
188.4484539281
 51
215.7679886622
  0
ARC
  5
3C6
330
1F
100
AcDbEntity
  8
0
  6
Continuous
 62
     7
370
    15
100
AcDbCircle
 10
59.3887718312
 20
163.9191457169
 30
0.0
 40
0.180210689496673
100
AcDbArc
 50
207.8206898217
 51
272.184686711
  0
LINE
  5
3C7
330
1F
100
AcDbEntity
  8
0
  6
Continuous
 62
     7
370
    15
100
AcDbLine
 10
62.5123641645
 20
164.5547018358
 30
0.0
 11
59.3956415956
 21
163.7390660152
 31
0.0
  0
LWPOLYLINE
  5
3C8
330
1F
100
AcDbEntity
  8
0
  6
Continuous
 62
     7
370
    15
100
AcDbPolyline
 90
        3
 70
   128
 43
0.0
 10
62.5292308064
 20
164.5615980792
 10
62.523178519
 20
164.5585036441
 10
62.5123641645
 20
164.5547018358
  0
LWPOLYLINE
  5
3C9
330
1F
100
AcDbEntity
  8
0
  6
Continuous
 62
     7
370
    15
100
AcDbPolyline
 90
        9
 70
   128
 43
0.0
 10
165.7603714014
 20
174.9834909593
 10
165.7603714014
 20
175.0184828923
 10
165.7603692941
 20
175.0584076906
 10
165.7603692941
 20
175.1017275857
 10
165.7603714014
 20
175.1467800777
 10
165.7603714014
 20
175.1918338991
 10
165.7603692941
 20
175.2351565384
 10
165.7603692941
 20
175.2750841968
 10
165.7603714014
 20
175.3100814059
  0
ELLIPSE
  5
3CA
330
1F
100
AcDbEntity
  8
0
  6
Continuous
 62
     7
370
    15
100
AcDbEllipse
 10
98.9812061027
 20
213.6975903387
 30
0.0
 11
0.2828427124746042
 21
0.0
 31
0.0
210
0.0
220
0.0
230
1.0
 40
0.5773815452
 41
4.712388980384698
 42
6.283185307179586
  0
LINE
  5
3CB
330
1F
100
AcDbEntity
  8
0
  6
Continuous
 62
     7
370
    15
100
AcDbLine
 10
99.2640493884
 20
220.6381877487
 30
0.0
 11
99.2640493884
 21
213.6975910028
 31
0.0
  0
LINE
  5
3CC
330
1F
100
AcDbEntity
  8
0
  6
Continuous
 62
     7
370
    15
100
AcDbLine
 10
98.9812061027
 20
213.5342825095
 30
0.0
 11
98.9812061027
 21
220.8014958999
 31
0.0
  0
ELLIPSE
  5
3CD
330
1F
100
AcDbEntity
  8
0
  6
Continuous
 62
     7
370
    15
100
AcDbEllipse
 10
98.9812061027
 20
220.6381872397
 30
0.0
 11
0.2828427124746042
 21
0.0
 31
0.0
210
0.0
220
0.0
230
1.0
 40
0.5773815452
 41
0.0
 42
1.570796326794897
  0
LINE
  5
3CE
330
1F
100
AcDbEntity
  8
0
  6
Continuous
 62
     7
370
    15
100
AcDbLine
 10
165.7603714014
 20
174.9834909593
 30
0.0
 11
159.6509665461
 21
174.9834909593
 31
0.0
  0
LINE
  5
3CF
330
1F
100
AcDbEntity
  8
0
  6
Continuous
 62
     7
370
    15
100
AcDbLine
 10
98.9812061027
 20
210.0073981584
 30
0.0
 11
98.9812061027
 21
213.5342825095
 31
0.0
  0
LINE
  5
3D0
330
1F
100
AcDbEntity
  8
0
  6
Continuous
 62
     7
370
    15
100
AcDbLine
 10
165.7603714014
 20
182.2506781518
 30
0.0
 11
165.7603714014
 21
175.3100814059
 31
0.0
  0
LWPOLYLINE
  5
3D1
330
1F
100
AcDbEntity
  8
0
  6
Continuous
 62
     7
370
    15
100
AcDbPolyline
 90
        6
 70
   128
 43
0.0
 10
165.7603714014
 20
182.2506781518
 10
165.7603692941
 20
182.2794005466
 10
165.7603692941
 20
182.3007440678
 10
165.7603714014
 20
182.3138891062
 10
165.7603714014
 20
182.3183297458
 10
165.7603714014
 20
182.3183293672
  0
ELLIPSE
  5
3D2
330
1F
100
AcDbEntity
  8
0
  6
Continuous
 62
     7
370
    15
100
AcDbEllipse
 10
159.6509679285
 20
175.0651452172
 30
0.0
 11
0.1414213562373163
 21
0.0
 31
0.0
210
0.0
220
0.0
230
1.0
 40
0.5773815452
 41
3.927072081049193
 42
4.712388980384698
  0
LINE
  5
3D3
330
1F
100
AcDbEntity
  8
0
  6
Continuous
 62
     7
370
    15
100
AcDbLine
 10
98.9812061027
 20
209.9735870183
 30
0.0
 11
98.9812061027
 21
210.0073981584
 31
0.0
  0
ELLIPSE
  5
3D4
330
1F
100
AcDbEntity
  8
0
  6
Continuous
 62
     7
370
    15
100
AcDbEllipse
 10
98.9812061027
 20
213.6975903387
 30
0.0
 11
0.2828427124746185
 21
0.0
 31
0.0
210
0.0
220
0.0
230
1.0
 40
0.5773815452
 41
3.141592653589793
 42
4.712388980384547
  0
LINE
  5
3D5
330
1F
100
AcDbEntity
  8
0
  6
Continuous
 62
     7
370
    15
100
AcDbLine
 10
98.6983628171
 20
220.6381877487
 30
0.0
 11
98.6983628171
 21
213.6975910028
 31
0.0
  0
ELLIPSE
  5
3D6
330
1F
100
AcDbEntity
  8
0
  6
Continuous
 62
     7
370
    15
100
AcDbEllipse
 10
98.9812061027
 20
220.6381872397
 30
0.0
 11
0.2828427124746185
 21
0.0
 31
0.0
210
0.0
220
0.0
230
1.0
 40
0.5773815452
 41
1.570796326794997
 42
3.141592653589793
  0
LWPOLYLINE
  5
3D7
330
1F
100
AcDbEntity
  8
0
  6
Continuous
 62
     7
370
    15
100
AcDbPolyline
 90
        9
 70
   128
 43
0.0
 10
32.2020408041
 20
174.9834909593
 10
32.2020408041
 20
175.0184828923
 10
32.2020429114
 20
175.0584076906
 10
32.2020429114
 20
175.1017275857
 10
32.2020408041
 20
175.1467800777
 10
32.2020408041
 20
175.1918338991
 10
32.2020429114
 20
175.2351565384
 10
32.2020429114
 20
175.2750841968
 10
32.2020408041
 20
175.3100814059
  0
LINE
  5
3D8
330
1F
100
AcDbEntity
  8
0
  6
Continuous
 62
     7
370
    15
100
AcDbLine
 10
38.3114456594
 20
174.9834909593
 30
0.0
 11
32.2020408041
 21
174.9834909593
 31
0.0
  0
LINE
  5
3D9
330
1F
100
AcDbEntity
  8
0
  6
Continuous
 62
     7
370
    15
100
AcDbLine
 10
32.2020408041
 20
182.2506781518
 30
0.0
 11
32.2020408041
 21
175.3100814059
 31
0.0
  0
LWPOLYLINE
  5
3DA
330
1F
100
AcDbEntity
  8
0
  6
Continuous
 62
     7
370
    15
100
AcDbPolyline
 90
        6
 70
   128
 43
0.0
 10
32.2020408041
 20
182.2506781518
 10
32.2020429114
 20
182.2794005466
 10
32.2020429114
 20
182.3007440678
 10
32.2020408041
 20
182.3138891062
 10
32.2020408041
 20
182.3183297458
 10
32.2020408041
 20
182.3183293672
  0
ELLIPSE
  5
3DB
330
1F
100
AcDbEntity
  8
0
  6
Continuous
 62
     7
370
    15
100
AcDbEllipse
 10
38.3114442769
 20
175.0651452172
 30
0.0
 11
0.1414213562373092
 21
0.0
 31
0.0
210
0.0
220
0.0
230
1.0
 40
0.5773815452
 41
4.712388980384698
 42
5.497705879720066
  0
LINE
  5
3DC
330
1F
100
AcDbEntity
  8
0
  6
Continuous
 62
     7
370
    15
100
AcDbLine
 10
98.9812061027
 20
210.0073981584
 30
0.0
 11
98.9812061027
 21
209.9735870183
 31
0.0
  0
ELLIPSE
  5
3DD
330
1F
100
AcDbEntity
  8
0
  6
Continuous
 62
     7
370
    15
100
AcDbEllipse
 10
38.3114442769
 20
175.0651452172
 30
0.0
 11
0.1414213562373163
 21
0.0
 31
0.0
210
0.0
220
0.0
230
1.0
 40
0.5773815452
 41
4.712388980384698
 42
5.497705879719902
  0
LINE
  5
3DE
330
1F
100
AcDbEntity
  8
0
  6
Continuous
 62
     7
370
    15
100
AcDbLine
 10
98.9812061027
 20
139.9595837601
 30
0.0
 11
98.9812061027
 21
136.432699409
 31
0.0
  0
LINE
  5
3DF
330
1F
100
AcDbEntity
  8
0
  6
Continuous
 62
     7
370
    15
100
AcDbLine
 10
98.9812061027
 20
140.1228777669
 30
0.0
 11
98.9812061027
 21
139.9595837601
 31
0.0
  0
LWPOLYLINE
  5
3E0
330
1F
100
AcDbEntity
  8
0
  6
Continuous
 62
     7
370
    15
100
AcDbPolyline
 90
        5
 70
   128
 43
0.0
 10
32.2020408041
 20
174.9834909593
 10
32.2020408041
 20
174.9547749744
 10
32.2020429114
 20
174.9334371059
 10
32.2020429114
 20
174.9202996787
 10
32.2020408041
 20
174.9158662459
  0
ELLIPSE
  5
3E1
330
1F
100
AcDbEntity
  8
0
  6
Continuous
 62
     7
370
    15
100
AcDbEllipse
 10
98.9812061027
 20
136.5960082581
 30
0.0
 11
0.2828427124746185
 21
0.0
 31
0.0
210
0.0
220
0.0
230
1.0
 40
0.5773815452
 41
3.927072081049397
 42
4.712388980384698
  0
LINE
  5
3E2
330
1F
100
AcDbEntity
  8
0
  6
Continuous
 62
     7
370
    15
100
AcDbLine
 10
98.9812061027
 20
140.3893476142
 30
0.0
 11
98.9812061027
 21
140.1228777669
 31
0.0
  0
LWPOLYLINE
  5
3E3
330
1F
100
AcDbEntity
  8
0
  6
Continuous
 62
     7
370
    15
100
AcDbPolyline
 90
        3
 70
   128
 43
0.0
 10
159.2494545938
 20
175.181466897
 10
98.9812061027
 20
140.3893476142
 10
38.7129576117
 20
175.181466897
  0
ELLIPSE
  5
3E4
330
1F
100
AcDbEntity
  8
0
  6
Continuous
 62
     7
370
    15
100
AcDbEllipse
 10
159.6509679285
 20
175.0651452172
 30
0.0
 11
0.1414213562373163
 21
0.0
 31
0.0
210
0.0
220
0.0
230
1.0
 40
0.5773815452
 41
3.927072081048947
 42
4.712388980384698
  0
LINE
  5
3E5
330
1F
100
AcDbEntity
  8
0
  6
Continuous
 62
     7
370
    15
100
AcDbLine
 10
98.9812061027
 20
139.9595837601
 30
0.0
 11
98.9812061027
 21
140.1228777669
 31
0.0
  0
ELLIPSE
  5
3E6
330
1F
100
AcDbEntity
  8
0
  6
Continuous
 62
     7
370
    15
100
AcDbEllipse
 10
98.9812061027
 20
136.5960082581
 30
0.0
 11
0.2828427124746185
 21
0.0
 31
0.0
210
0.0
220
0.0
230
1.0
 40
0.5773815452
 41
4.712388980384798
 42
5.497705879719927
  0
LWPOLYLINE
  5
3E7
330
1F
100
AcDbEntity
  8
0
  6
Continuous
 62
     7
370
    15
100
AcDbPolyline
 90
        5
 70
   128
 43
0.0
 10
165.7603714014
 20
174.9834909593
 10
165.7603714014
 20
174.9547749744
 10
165.7603692941
 20
174.9334371059
 10
165.7603692941
 20
174.9202996787
 10
165.7603714014
 20
174.9158662459
  0
ELLIPSE
  5
3E8
330
1F
100
AcDbEntity
  8
0
  6
Continuous
 62
     7
370
    15
100
AcDbEllipse
 10
89.4930296671
 20
152.9643951087
 30
0.0
 11
1.759656501898818
 21
3.04764939130601
 31
0.0
210
0.0
220
0.0
230
1.0
 40
0.5772851604
 41
1.686482112787683
 42
1.831645034006856
  0
SPLINE
  5
3E9
330
1F
100
AcDbEntity
  8
0
  6
Continuous
 62
     7
370
    15
100
AcDbSpline
210
0.0
220
0.0
230
1.0
 70
     8
 71
     3
 72
     9
 73
     5
 74
     0
 42
0.000000001
 43
0.00000001
 40
0.0
 40
0.0
 40
0.0
 40
0.0
 40
0.2687078337830668
 40
1.0
 40
1.0
 40
1.0
 40
1.0
 10
87.58082813102952
 20
153.7259016245876
 30
0.0
 10
87.57872006230717
 20
153.7164842252467
 30
0.0
 10
87.570874854772
 20
153.6814372405413
 30
0.0
 10
87.55437699160858
 20
153.6469007131698
 30
0.0
 10
87.54231223351785
 20
153.6216444212546
 30
0.0
  0
LWPOLYLINE
  5
3EA
330
1F
100
AcDbEntity
  8
0
  6
Continuous
 62
     7
370
    15
100
AcDbPolyline
 90
       17
 70
   128
 43
0.0
 10
92.1576250068
 20
152.8269404263
 10
91.887421561
 20
153.0118386586
 10
91.6264187722
 20
153.2482667198
 10
91.3835064645
 20
153.5281724461
 10
91.1669559569
 20
153.8420246676
 10
90.9841408404
 20
154.1791359225
 10
90.8412883121
 20
154.5280250219
 10
90.7432610645
 20
154.8768121669
 10
90.6933992353
 20
155.2136189362
 10
90.6933992353
 20
155.5269767961
 10
90.7432610645
 20
155.8062143229
 10
90.8412883121
 20
156.0418216168
 10
90.9841408404
 20
156.2257766978
 10
91.1669559569
 20
156.3518139599
 10
91.3835064645
 20
156.4156421352
 10
91.6264187722
 20
156.4150874329
 10
91.7076684131
 20
156.4014023141
  0
LINE
  5
3EB
330
1F
100
AcDbEntity
  8
0
  6
Continuous
 62
     7
370
    15
100
AcDbLine
 10
95.41031647
 20
150.9492016133
 30
0.0
 11
92.1576250068
 21
152.8269404263
 31
0.0
  0
LWPOLYLINE
  5
3EC
330
1F
100
AcDbEntity
  8
0
  6
Continuous
 62
     7
370
    15
100
AcDbPolyline
 90
        8
 70
   128
 43
0.0
 10
96.8102092919
 20
151.3192826528
 10
96.7266531647
 20
151.1304762114
 10
96.583798529
 20
150.9465223469
 10
96.4009844663
 20
150.8204843244
 10
96.1844339586
 20
150.7566559971
 10
95.9415205972
 20
150.7572114598
 10
95.6805199158
 20
150.8221295876
 10
95.41031647
 20
150.9492016133
  0
ARC
  5
3ED
330
1F
100
AcDbEntity
  8
0
  6
Continuous
 62
     7
370
    15
100
AcDbCircle
 10
91.5317505273
 20
155.3420571957
 30
0.0
 40
0.8444999860509805
100
AcDbArc
 50
109.179770703
 51
183.6158490449
  0
LINE
  5
3EE
330
1F
100
AcDbEntity
  8
0
  6
Continuous
 62
     7
370
    15
100
AcDbLine
 10
92.1493874053
 20
152.8317249818
 30
0.0
 11
95.2682773758
 21
151.0312281265
 31
0.0
  0
ELLIPSE
  5
3EF
330
1F
100
AcDbEntity
  8
0
  6
Continuous
 62
     7
370
    15
100
AcDbEllipse
 10
90.5619038589
 20
150.876091357
 30
0.0
 11
0.08260021875736356
 21
-0.07783285163804976
 31
0.0
210
0.0
220
0.0
230
1.0
 40
0.2743587813
 41
4.638128236270354
 42
5.584991776474805
  0
ELLIPSE
  5
3F0
330
1F
100
AcDbEntity
  8
0
  6
Continuous
 62
     7
370
    15
100
AcDbEllipse
 10
88.5349469666
 20
150.3311009839
 30
0.0
 11
-0.376288230932417
 21
0.4952368701339083
 31
0.0
210
0.0
220
0.0
230
1.0
 40
0.4666874631
 41
2.333110336748085
 42
3.075626107197986
  0
ARC
  5
3F1
330
1F
100
AcDbEntity
  8
0
  6
Continuous
 62
     7
370
    15
100
AcDbCircle
 10
95.7968493565
 20
151.6939251772
 30
0.0
 40
0.8476766599686251
100
AcDbArc
 50
231.4238831204
 51
311.3475949195
  0
ELLIPSE
  5
3F2
330
1F
100
AcDbEntity
  8
0
  6
Continuous
 62
     7
370
    15
100
AcDbEllipse
 10
88.5514163641
 20
150.3486322039
 30
0.0
 11
-0.3744146321996454
 21
0.5294377876694227
 31
0.0
210
0.0
220
0.0
230
1.0
 40
0.4990292963
 41
2.316266329202667
 42
3.088493259148037
  0
ELLIPSE
  5
3F3
330
1F
100
AcDbEntity
  8
0
  6
Continuous
 62
     7
370
    15
100
AcDbEllipse
 10
70.5425679313
 20
163.9042638071
 30
0.0
 11
1.759656501898803
 21
3.04764939130601
 31
0.0
210
0.0
220
0.0
230
1.0
 40
0.5772851604
 41
1.686482112787682
 42
1.831645034006856
  0
SPLINE
  5
3F4
330
1F
100
AcDbEntity
  8
0
  6
Continuous
 62
     7
370
    15
100
AcDbSpline
210
0.0
220
0.0
230
1.0
 70
     8
 71
     3
 72
     9
 73
     5
 74
     0
 42
0.000000001
 43
0.00000001
 40
0.0
 40
0.0
 40
0.0
 40
0.0
 40
0.2686918037687278
 40
1.0
 40
1.0
 40
1.0
 40
1.0
 10
68.63036645002099
 20
164.6657681620856
 30
0.0
 10
68.62825811863038
 20
164.6563515865296
 30
0.0
 10
68.62041146547226
 20
164.6213055768485
 30
0.0
 10
68.60391474176639
 20
164.5867695601359
 30
0.0
 10
68.5918505525093
 20
164.5615130880488
 30
0.0
  0
LWPOLYLINE
  5
3F5
330
1F
100
AcDbEntity
  8
0
  6
Continuous
 62
     7
370
    15
100
AcDbPolyline
 90
       17
 70
   128
 43
0.0
 10
73.2071629307
 20
163.7668093211
 10
72.9369594849
 20
163.9517075535
 10
72.6759574863
 20
164.1881351584
 10
72.4330450469
 20
164.4680409608
 10
72.2164942758
 20
164.7818933344
 10
72.0336794228
 20
165.1190044372
 10
71.8908263677
 20
165.4678938408
 10
71.7927993835
 20
165.8166808337
 10
71.7429370275
 20
166.1534879071
 10
71.7429370275
 20
166.466845767
 10
71.7927993835
 20
166.7460829897
 10
71.8908263677
 20
166.9816904357
 10
72.0336794228
 20
167.1656452125
 10
72.2164942758
 20
167.2916826267
 10
72.4330450469
 20
167.3555106499
 10
72.6759574863
 20
167.3549558716
 10
72.7572066004
 20
167.3412710569
  0
LINE
  5
3F6
330
1F
100
AcDbEntity
  8
0
  6
Continuous
 62
     7
370
    15
100
AcDbLine
 10
76.4598541304
 20
161.8890706603
 30
0.0
 11
73.2071629307
 21
163.7668093211
 31
0.0
  0
LWPOLYLINE
  5
3F7
330
1F
100
AcDbEntity
  8
0
  6
Continuous
 62
     7
370
    15
100
AcDbPolyline
 90
        8
 70
   128
 43
0.0
 10
77.8597473475
 20
162.2591514716
 10
77.7761906935
 20
162.0703453344
 10
77.6333376383
 20
161.8863905575
 10
77.4505227853
 20
161.7603529912
 10
77.2339720142
 20
161.696524816
 10
76.9910595748
 20
161.6970797464
 10
76.7300575762
 20
161.7619986346
 10
76.4598541304
 20
161.8890706603
  0
ARC
  5
3F8
330
1F
100
AcDbEntity
  8
0
  6
Continuous
 62
     7
370
    15
100
AcDbCircle
 10
72.5775034323
 20
166.2865998883
 30
0.0
 40
0.8388440200615004
100
AcDbArc
 50
109.0404373147
 51
182.5943292249
  0
LINE
  5
3F9
330
1F
100
AcDbEntity
  8
0
  6
Continuous
 62
     7
370
    15
100
AcDbLine
 10
73.1989254608
 20
163.7715938007
 30
0.0
 11
76.3178150363
 21
161.9710971734
 31
0.0
  0
ELLIPSE
  5
3FA
330
1F
100
AcDbEntity
  8
0
  6
Continuous
 62
     7
370
    15
100
AcDbEllipse
 10
71.6114421231
 20
161.8159600555
 30
0.0
 11
0.08260021875736356
 21
-0.07783285163804976
 31
0.0
210
0.0
220
0.0
230
1.0
 40
0.2743587813
 41
4.638128236270305
 42
5.584991776474833
  0
ELLIPSE
  5
3FB
330
1F
100
AcDbEntity
  8
0
  6
Continuous
 62
     7
370
    15
100
AcDbEllipse
 10
69.5844852308
 20
161.2709696823
 30
0.0
 11
-0.3762882309324027
 21
0.4952368701339367
 31
0.0
210
0.0
220
0.0
230
1.0
 40
0.4666874631
 41
2.333110336748121
 42
3.075626107198132
  0
ARC
  5
3FC
330
1F
100
AcDbEntity
  8
0
  6
Continuous
 62
     7
370
    15
100
AcDbCircle
 10
76.8463868006
 20
162.6337892523
 30
0.0
 40
0.8476726381038637
100
AcDbArc
 50
231.4236849986
 51
311.3478180447
  0
ELLIPSE
  5
3FD
330
1F
100
AcDbEntity
  8
0
  6
Continuous
 62
     7
370
    15
100
AcDbEllipse
 10
69.6009546283
 20
161.2885009024
 30
0.0
 11
-0.3744146321996453
 21
0.5294377876694512
 31
0.0
210
0.0
220
0.0
230
1.0
 40
0.4990292963
 41
2.316266329202687
 42
3.088493259148122
  0
ELLIPSE
  5
3FE
330
1F
100
AcDbEntity
  8
0
  6
Continuous
 62
     7
370
    15
100
AcDbEllipse
 10
51.5921061955
 20
174.8441325056
 30
0.0
 11
1.759656501898818
 21
3.04764939130601
 31
0.0
210
0.0
220
0.0
230
1.0
 40
0.5772851604
 41
1.686482112787682
 42
1.831645034006864
  0
SPLINE
  5
3FF
330
1F
100
AcDbEntity
  8
0
  6
Continuous
 62
     7
370
    15
100
AcDbSpline
210
0.0
220
0.0
230
1.0
 70
     8
 71
     3
 72
     9
 73
     5
 74
     0
 42
0.000000001
 43
0.00000001
 40
0.0
 40
0.0
 40
0.0
 40
0.0
 40
0.2686913977463816
 40
0.9999999999999999
 40
0.9999999999999999
 40
0.9999999999999999
 40
0.9999999999999999
 10
49.67990476901245
 20
175.6056368288799
 30
0.0
 10
49.67779622836129
 20
175.5962203707595
 30
0.0
 10
49.6699487845323
 20
175.5611747451854
 30
0.0
 10
49.65345264225335
 20
175.5266384468821
 30
0.0
 10
49.64138887150077
 20
175.501381754843
 30
0.0
  0
LWPOLYLINE
  5
400
330
1F
100
AcDbEntity
  8
0
  6
Continuous
 62
     7
370
    15
100
AcDbPolyline
 90
       17
 70
   128
 43
0.0
 10
54.2567005911
 20
174.7066783681
 10
53.9864971453
 20
174.8915766004
 10
53.7254964639
 20
175.1280034451
 10
53.4825831025
 20
175.4079097797
 10
53.2660325948
 20
175.7217620012
 10
53.0832185321
 20
176.0588726478
 10
52.9403638964
 20
176.4077629638
 10
52.8423387561
 20
176.7565488922
 10
52.7924748197
 20
177.0933568781
 10
52.7924748197
 20
177.4067147379
 10
52.8423387561
 20
177.6859510482
 10
52.9403638964
 20
177.9215595587
 10
53.0832185321
 20
178.1055134231
 10
53.2660325948
 20
178.2315512935
 10
53.4825831025
 20
178.2953794688
 10
53.7254964639
 20
178.2948241582
 10
53.8067450511
 20
178.2811396476
  0
LINE
  5
401
330
1F
100
AcDbEntity
  8
0
  6
Continuous
 62
     7
370
    15
100
AcDbLine
 10
57.5093920543
 20
172.8289395552
 30
0.0
 11
54.2567005911
 21
174.7066783681
 31
0.0
  0
LWPOLYLINE
  5
402
330
1F
100
AcDbEntity
  8
0
  6
Continuous
 62
     7
370
    15
100
AcDbPolyline
 90
        8
 70
   128
 43
0.0
 10
58.9092859299
 20
173.1990199864
 10
58.825728749
 20
173.0102141532
 10
58.6828762207
 20
172.8262590723
 10
58.5000611043
 20
172.700221658
 10
58.2835105966
 20
172.6363933307
 10
58.0405982889
 20
172.6369481851
 10
57.7795955001
 20
172.7018675295
 10
57.5093920543
 20
172.8289395552
  0
ARC
  5
403
330
1F
100
AcDbEntity
  8
0
  6
Continuous
 62
     7
370
    15
100
AcDbCircle
 10
53.6270382721
 20
177.2264694463
 30
0.0
 40
0.8388413535604595
100
AcDbArc
 50
109.0401916748
 51
182.5943672179
  0
LINE
  5
404
330
1F
100
AcDbEntity
  8
0
  6
Continuous
 62
     7
370
    15
100
AcDbLine
 10
54.2484629896
 20
174.7114629237
 30
0.0
 11
57.3673529601
 21
172.9109660683
 31
0.0
  0
ELLIPSE
  5
405
330
1F
100
AcDbEntity
  8
0
  6
Continuous
 62
     7
370
    15
100
AcDbEllipse
 10
52.6609803873
 20
172.7558287539
 30
0.0
 11
0.08260021875735646
 21
-0.07783285163804976
 31
0.0
210
0.0
220
0.0
230
1.0
 40
0.2743587813
 41
4.638128236270607
 42
5.58499177647492
  0
ELLIPSE
  5
406
330
1F
100
AcDbEntity
  8
0
  6
Continuous
 62
     7
370
    15
100
AcDbEllipse
 10
50.634023495
 20
172.2108383807
 30
0.0
 11
-0.3762882309324099
 21
0.4952368701339367
 31
0.0
210
0.0
220
0.0
230
1.0
 40
0.4666874631
 41
2.333110336748116
 42
3.075626107198189
  0
ARC
  5
407
330
1F
100
AcDbEntity
  8
0
  6
Continuous
 62
     7
370
    15
100
AcDbCircle
 10
57.8959250294
 20
173.5736594551
 30
0.0
 40
0.8476738508088704
100
AcDbArc
 50
231.4237240105
 51
311.3477540293
  0
ELLIPSE
  5
408
330
1F
100
AcDbEntity
  8
0
  6
Continuous
 62
     7
370
    15
100
AcDbEllipse
 10
50.6504928925
 20
172.2283696008
 30
0.0
 11
-0.3744146321996382
 21
0.5294377876694226
 31
0.0
210
0.0
220
0.0
230
1.0
 40
0.4990292963
 41
2.316266329202715
 42
3.088493259148076
  0
ARC
  5
409
330
1F
100
AcDbEntity
  8
0
  6
Continuous
 62
     7
370
    15
100
AcDbCircle
 10
92.3890664309
 20
154.6995320734
 30
0.0
 40
4.067728544654221
100
AcDbArc
 50
193.2609836827
 51
240.5620703741
  0
LINE
  5
40A
330
1F
100
AcDbEntity
  8
0
  6
Continuous
 62
     7
370
    15
100
AcDbLine
 10
90.4605684538
 20
151.1161729907
 30
0.0
 11
90.3898576324
 21
151.156993479
 31
0.0
  0
LINE
  5
40B
330
1F
100
AcDbEntity
  8
0
  6
Continuous
 62
     7
370
    15
100
AcDbLine
 10
90.4605684538
 20
151.1161729907
 30
0.0
 11
90.4605684538
 21
150.9202035287
 31
0.0
  0
LINE
  5
40C
330
1F
100
AcDbEntity
  8
0
  6
Continuous
 62
     7
370
    15
100
AcDbLine
 10
90.4605684538
 20
150.9202035287
 30
0.0
 11
88.1978263831
 21
152.2264567217
 31
0.0
  0
LINE
  5
40D
330
1F
100
AcDbEntity
  8
0
  6
Continuous
 62
     7
370
    15
100
AcDbLine
 10
88.1978263831
 20
152.2264567217
 30
0.0
 11
88.1978263831
 21
152.4714188534
 31
0.0
  0
LINE
  5
40E
330
1F
100
AcDbEntity
  8
0
  6
Continuous
 62
     7
370
    15
100
AcDbLine
 10
88.1978263831
 20
152.4714188534
 30
0.0
 11
88.4099588473
 21
152.3489573884
 31
0.0
  0
LINE
  5
40F
330
1F
100
AcDbEntity
  8
0
  6
Continuous
 62
     7
370
    15
100
AcDbLine
 10
88.4099588473
 20
152.3489573884
 30
0.0
 11
88.4099588473
 21
153.2471522766
 31
0.0
  0
LINE
  5
410
330
1F
100
AcDbEntity
  8
0
  6
Continuous
 62
     7
370
    15
100
AcDbLine
 10
88.1978263831
 20
153.3696137416
 30
0.0
 11
88.4099588473
 21
153.2471522766
 31
0.0
  0
LINE
  5
411
330
1F
100
AcDbEntity
  8
0
  6
Continuous
 62
     7
370
    15
100
AcDbLine
 10
88.1978263831
 20
153.3696137416
 30
0.0
 11
88.1978263831
 21
153.6145758732
 31
0.0
  0
LINE
  5
412
330
1F
100
AcDbEntity
  8
0
  6
Continuous
 62
     7
370
    15
100
AcDbLine
 10
88.1978263831
 20
153.6145758732
 30
0.0
 11
88.4099588473
 21
153.4921144083
 31
0.0
  0
LINE
  5
413
330
1F
100
AcDbEntity
  8
0
  6
Continuous
 62
     7
370
    15
100
AcDbLine
 10
88.4099588473
 20
153.4921144083
 30
0.0
 11
88.4099588473
 21
153.7779036632
 31
0.0
  0
LINE
  5
414
330
1F
100
AcDbEntity
  8
0
  6
Continuous
 62
     7
370
    15
100
AcDbLine
 10
88.4298026373
 20
153.7664480871
 30
0.0
 11
88.4099588473
 21
153.7779036632
 31
0.0
  0
LINE
  5
415
330
1F
100
AcDbEntity
  8
0
  6
Continuous
 62
     7
370
    15
100
AcDbLine
 10
88.1978263831
 20
153.6145758732
 30
0.0
 11
85.2633330894
 21
151.9205289536
 31
0.0
  0
LINE
  5
416
330
1F
100
AcDbEntity
  8
0
  6
Continuous
 62
     7
370
    15
100
AcDbLine
 10
85.2633330894
 20
151.675566822
 30
0.0
 11
88.1978263831
 21
153.3696137416
 31
0.0
  0
LWPOLYLINE
  5
417
330
1F
100
AcDbEntity
  8
0
  6
Continuous
 62
     7
370
    15
100
AcDbPolyline
 90
        9
 70
   128
 43
0.0
 10
85.2633330894
 20
150.7773719337
 10
85.114504138
 20
150.7256403535
 10
84.9883333323
 20
150.7501555236
 10
84.9040290985
 20
150.8471854191
 10
84.8744251521
 20
151.0019576045
 10
84.9040290985
 20
151.1909097789
 10
84.9883333323
 20
151.3852752708
 10
85.114504138
 20
151.5554641524
 10
85.2633330894
 20
151.675566822
  0
LINE
  5
418
330
1F
100
AcDbEntity
  8
0
  6
Continuous
 62
     7
370
    15
100
AcDbLine
 10
88.1978263831
 20
152.4714188534
 30
0.0
 11
85.2633330894
 21
150.7773719337
 31
0.0
  0
LINE
  5
419
330
1F
100
AcDbEntity
  8
0
  6
Continuous
 62
     7
370
    15
100
AcDbLine
 10
85.2633330894
 20
150.5324098021
 30
0.0
 11
88.1978263831
 21
152.2264567217
 31
0.0
  0
LWPOLYLINE
  5
41A
330
1F
100
AcDbEntity
  8
0
  6
Continuous
 62
     7
370
    15
100
AcDbPolyline
 90
       11
 70
   128
 43
0.0
 10
85.2633330894
 20
151.9205289536
 10
85.0776024648
 20
151.779339373
 10
84.9100518832
 20
151.5840305054
 10
84.7770827908
 20
151.3537209781
 10
84.6917101345
 20
151.1109545569
 10
84.6622937416
 20
150.8794967478
 10
84.6917101345
 20
150.6820020789
 10
84.7770827908
 20
150.5378048287
 10
84.9100518832
 20
150.4610184517
 10
85.0776024648
 20
150.4591593679
 10
85.2633330894
 20
150.5324098021
  0
LINE
  5
41B
330
1F
100
AcDbEntity
  8
0
  6
Continuous
 62
     7
370
    15
100
AcDbLine
 10
86.0765070089
 20
150.5936402305
 30
0.0
 11
85.6168871965
 21
150.3283073605
 31
0.0
  0
LINE
  5
41C
330
1F
100
AcDbEntity
  8
0
  6
Continuous
 62
     7
370
    15
100
AcDbLine
 10
90.4605684538
 20
150.9202035287
 30
0.0
 11
88.1978284904
 21
149.6139515522
 31
0.0
  0
LINE
  5
41D
330
1F
100
AcDbEntity
  8
0
  6
Continuous
 62
     7
370
    15
100
AcDbLine
 10
88.1978284904
 20
149.6139515522
 30
0.0
 11
90.884834436
 21
148.0627760376
 31
0.0
  0
LINE
  5
41E
330
1F
100
AcDbEntity
  8
0
  6
Continuous
 62
     7
370
    15
100
AcDbLine
 10
90.884834436
 20
148.0627760376
 30
0.0
 11
93.1475743993
 21
149.3690280141
 31
0.0
  0
LINE
  5
41F
330
1F
100
AcDbEntity
  8
0
  6
Continuous
 62
     7
370
    15
100
AcDbLine
 10
95.41031647
 20
148.062774821
 30
0.0
 11
93.1475743993
 21
149.3690280141
 31
0.0
  0
LINE
  5
420
330
1F
100
AcDbEntity
  8
0
  6
Continuous
 62
     7
370
    15
100
AcDbLine
 10
92.4758231763
 20
146.3687279014
 30
0.0
 11
95.41031647
 21
148.062774821
 31
0.0
  0
LINE
  5
421
330
1F
100
AcDbEntity
  8
0
  6
Continuous
 62
     7
370
    15
100
AcDbLine
 10
92.5818899353
 20
146.8381626046
 30
0.0
 11
92.1222701229
 21
146.5728297347
 31
0.0
  0
LINE
  5
422
330
1F
100
AcDbEntity
  8
0
  6
Continuous
 62
     7
370
    15
100
AcDbLine
 10
92.5818899353
 20
146.8381626046
 30
0.0
 11
86.0765070089
 21
150.5936402305
 31
0.0
  0
ARC
  5
423
330
1F
100
AcDbEntity
  8
0
  6
Continuous
 62
     7
370
    15
100
AcDbCircle
 10
85.4671625212
 20
151.2926611998
 30
0.0
 40
0.4037385717215763
100
AcDbArc
 50
331.4658394407
 51
45.4407552269
  0
LINE
  5
424
330
1F
100
AcDbEntity
  8
0
  6
Continuous
 62
     7
370
    15
100
AcDbLine
 10
85.6283469246
 20
151.6413618939
 30
0.0
 11
88.4099588473
 21
153.2471522766
 31
0.0
  0
LINE
  5
425
330
1F
100
AcDbEntity
  8
0
  6
Continuous
 62
     7
370
    15
100
AcDbLine
 10
86.147218884
 20
152.4716516867
 30
0.0
 11
88.4099588473
 21
153.7779036632
 31
0.0
  0
LINE
  5
426
330
1F
100
AcDbEntity
  8
0
  6
Continuous
 62
     7
370
    15
100
AcDbLine
 10
85.9350853661
 20
152.3083229461
 30
0.0
 11
85.9350853661
 21
152.7908625063
 31
0.0
  0
LINE
  5
427
330
1F
100
AcDbEntity
  8
0
  6
Continuous
 62
     7
370
    15
100
AcDbLine
 10
88.4099588473
 20
155.5844983953
 30
0.0
 11
88.2409731656
 21
155.4869450377
 31
0.0
  0
LINE
  5
428
330
1F
100
AcDbEntity
  8
0
  6
Continuous
 62
     7
370
    15
100
AcDbLine
 10
88.4099588473
 20
155.1660231189
 30
0.0
 11
88.4099588473
 21
155.5844983953
 31
0.0
  0
LINE
  5
429
330
1F
100
AcDbEntity
  8
0
  6
Continuous
 62
     7
370
    15
100
AcDbLine
 10
88.4099588473
 20
155.1660231189
 30
0.0
 11
88.2331823206
 21
155.0639722022
 31
0.0
  0
LINE
  5
42A
330
1F
100
AcDbEntity
  8
0
  6
Continuous
 62
     7
370
    15
100
AcDbLine
 10
86.147218884
 20
152.4716516867
 30
0.0
 11
86.147218884
 21
152.6237546073
 31
0.0
  0
LINE
  5
42B
330
1F
100
AcDbEntity
  8
0
  6
Continuous
 62
     7
370
    15
100
AcDbLine
 10
90.884834436
 20
148.2587454995
 30
0.0
 11
90.884834436
 21
148.0627760376
 31
0.0
  0
LINE
  5
42C
330
1F
100
AcDbEntity
  8
0
  6
Continuous
 62
     7
370
    15
100
AcDbLine
 10
88.4298026373
 20
155.1545675428
 30
0.0
 11
88.4099588473
 21
155.1660231189
 31
0.0
  0
LINE
  5
42D
330
1F
100
AcDbEntity
  8
0
  6
Continuous
 62
     7
370
    15
100
AcDbLine
 10
88.2331833743
 20
155.0410616583
 30
0.0
 11
88.4298026373
 21
155.1545675428
 31
0.0
  0
ARC
  5
42E
330
1F
100
AcDbEntity
  8
0
  6
Continuous
 62
     7
370
    15
100
AcDbCircle
 10
89.3860900606
 20
154.8670779254
 30
0.0
 40
0.9985669312165687
100
AcDbArc
 50
82.1046530293
 51
163.2675945377
  0
ARC
  5
42F
330
1F
100
AcDbEntity
  8
0
  6
Continuous
 62
     7
370
    15
100
AcDbCircle
 10
89.3491953554
 20
154.934694206
 30
0.0
 40
1.142108008266321
100
AcDbArc
 50
68.787512726
 51
145.3228494009
  0
ARC
  5
430
330
1F
100
AcDbEntity
  8
0
  6
Continuous
 62
     7
370
    15
100
AcDbCircle
 10
85.3695878014
 20
150.658873174
 30
0.0
 40
0.4128325906040895
100
AcDbArc
 50
244.5098160675
 51
306.800508035
  0
LINE
  5
431
330
1F
100
AcDbEntity
  8
0
  6
Continuous
 62
     7
370
    15
100
AcDbLine
 10
95.1981850594
 20
149.5733548292
 30
0.0
 11
95.1981850594
 21
149.6729763805
 31
0.0
  0
LINE
  5
432
330
1F
100
AcDbEntity
  8
0
  6
Continuous
 62
     7
370
    15
100
AcDbLine
 10
95.41031647
 20
149.4508939725
 30
0.0
 11
95.1981850594
 21
149.5733548292
 31
0.0
  0
LINE
  5
433
330
1F
100
AcDbEntity
  8
0
  6
Continuous
 62
     7
370
    15
100
AcDbLine
 10
95.41031647
 20
149.2059318409
 30
0.0
 11
95.41031647
 21
149.4508939725
 31
0.0
  0
LINE
  5
434
330
1F
100
AcDbEntity
  8
0
  6
Continuous
 62
     7
370
    15
100
AcDbLine
 10
95.41031647
 20
149.2059318409
 30
0.0
 11
95.1981850594
 21
149.3283926975
 31
0.0
  0
LINE
  5
435
330
1F
100
AcDbEntity
  8
0
  6
Continuous
 62
     7
370
    15
100
AcDbLine
 10
95.1981850594
 20
148.4301978093
 30
0.0
 11
95.1981850594
 21
149.3283926975
 31
0.0
  0
LINE
  5
436
330
1F
100
AcDbEntity
  8
0
  6
Continuous
 62
     7
370
    15
100
AcDbLine
 10
95.41031647
 20
148.3077369527
 30
0.0
 11
95.1981850594
 21
148.4301978093
 31
0.0
  0
LINE
  5
437
330
1F
100
AcDbEntity
  8
0
  6
Continuous
 62
     7
370
    15
100
AcDbLine
 10
95.41031647
 20
148.062774821
 30
0.0
 11
95.41031647
 21
148.3077369527
 31
0.0
  0
LINE
  5
438
330
1F
100
AcDbEntity
  8
0
  6
Continuous
 62
     7
370
    15
100
AcDbLine
 10
93.1475743993
 20
149.564997476
 30
0.0
 11
93.1475743993
 21
149.3690280141
 31
0.0
  0
LINE
  5
439
330
1F
100
AcDbEntity
  8
0
  6
Continuous
 62
     7
370
    15
100
AcDbLine
 10
93.3879905599
 20
149.4262081807
 30
0.0
 11
93.1475743993
 21
149.564997476
 31
0.0
  0
LWPOLYLINE
  5
43A
330
1F
100
AcDbEntity
  8
0
  6
Continuous
 62
     7
370
    15
100
AcDbPolyline
 90
        8
 70
   128
 43
0.0
 10
95.0172549608
 20
149.5723614176
 10
94.9004217894
 20
149.4338537363
 10
94.708735815
 20
149.2893097773
 10
94.4851004221
 20
149.2006203407
 10
94.2349230514
 20
149.1699325685
 10
93.9642580976
 20
149.1979877197
 10
93.6796530736
 20
149.284106859
 10
93.3879905599
 20
149.4262081807
  0
LINE
  5
43B
330
1F
100
AcDbEntity
  8
0
  6
Continuous
 62
     7
370
    15
100
AcDbLine
 10
93.1475743993
 20
149.564997476
 30
0.0
 11
90.884834436
 21
148.2587454995
 31
0.0
  0
LINE
  5
43C
330
1F
100
AcDbEntity
  8
0
  6
Continuous
 62
     7
370
    15
100
AcDbLine
 10
95.1981850594
 20
149.0834709842
 30
0.0
 11
95.41031647
 21
149.2059318409
 31
0.0
  0
LWPOLYLINE
  5
43D
330
1F
100
AcDbEntity
  8
0
  6
Continuous
 62
     7
370
    15
100
AcDbPolyline
 90
        5
 70
   128
 43
0.0
 10
92.1222701229
 20
146.5728297347
 10
91.9365394982
 20
146.4995793005
 10
91.7689889167
 20
146.5014383843
 10
91.6360198243
 20
146.5782247613
 10
91.5599194746
 20
146.6972625956
  0
ARC
  5
43E
330
1F
100
AcDbEntity
  8
0
  6
Continuous
 62
     7
370
    15
100
AcDbCircle
 10
91.9561972594
 20
147.1865329339
 30
0.0
 40
0.4106731815059588
100
AcDbArc
 50
254.6221489342
 51
331.5538250053
  0
ARC
  5
43F
330
1F
100
AcDbEntity
  8
0
  6
Continuous
 62
     7
370
    15
100
AcDbCircle
 10
92.2285237812
 20
146.6992937149
 30
0.0
 40
0.4128325906043668
100
AcDbArc
 50
244.5098160675
 51
306.800508035
  0
ARC
  5
440
330
1F
100
AcDbEntity
  8
0
  6
Continuous
 62
     7
370
    15
100
AcDbCircle
 10
54.4881477651
 20
176.5792729159
 30
0.0
 40
4.067733920507817
100
AcDbArc
 50
193.2610166164
 51
240.5620541945
  0
LINE
  5
441
330
1F
100
AcDbEntity
  8
0
  6
Continuous
 62
     7
370
    15
100
AcDbLine
 10
52.5596450918
 20
172.9959103243
 30
0.0
 11
52.488935324
 21
173.0367302043
 31
0.0
  0
LINE
  5
442
330
1F
100
AcDbEntity
  8
0
  6
Continuous
 62
     7
370
    15
100
AcDbLine
 10
52.5596450918
 20
172.9959103243
 30
0.0
 11
52.5596450918
 21
172.7999408623
 31
0.0
  0
LINE
  5
443
330
1F
100
AcDbEntity
  8
0
  6
Continuous
 62
     7
370
    15
100
AcDbLine
 10
52.5596450918
 20
172.7999408623
 30
0.0
 11
50.2969030211
 21
174.1061940553
 31
0.0
  0
LINE
  5
444
330
1F
100
AcDbEntity
  8
0
  6
Continuous
 62
     7
370
    15
100
AcDbLine
 10
50.2969030211
 20
174.1061940553
 30
0.0
 11
50.2969030211
 21
174.351156187
 31
0.0
  0
LINE
  5
445
330
1F
100
AcDbEntity
  8
0
  6
Continuous
 62
     7
370
    15
100
AcDbLine
 10
50.2969030211
 20
174.351156187
 30
0.0
 11
50.5090344317
 21
174.2286953303
 31
0.0
  0
LINE
  5
446
330
1F
100
AcDbEntity
  8
0
  6
Continuous
 62
     7
370
    15
100
AcDbLine
 10
50.5090344317
 20
174.2286953303
 30
0.0
 11
50.5090344317
 21
175.1268902185
 31
0.0
  0
LINE
  5
447
330
1F
100
AcDbEntity
  8
0
  6
Continuous
 62
     7
370
    15
100
AcDbLine
 10
50.2969030211
 20
175.2493510752
 30
0.0
 11
50.5090344317
 21
175.1268902185
 31
0.0
  0
LINE
  5
448
330
1F
100
AcDbEntity
  8
0
  6
Continuous
 62
     7
370
    15
100
AcDbLine
 10
50.2969030211
 20
175.2493510752
 30
0.0
 11
50.2969030211
 21
175.4943132068
 31
0.0
  0
LINE
  5
449
330
1F
100
AcDbEntity
  8
0
  6
Continuous
 62
     7
370
    15
100
AcDbLine
 10
50.2969030211
 20
175.4943132068
 30
0.0
 11
50.5090344317
 21
175.3718523501
 31
0.0
  0
LINE
  5
44A
330
1F
100
AcDbEntity
  8
0
  6
Continuous
 62
     7
370
    15
100
AcDbLine
 10
50.5090344317
 20
175.3718523501
 30
0.0
 11
50.5090344317
 21
175.6576416051
 31
0.0
  0
LINE
  5
44B
330
1F
100
AcDbEntity
  8
0
  6
Continuous
 62
     7
370
    15
100
AcDbLine
 10
50.5288792753
 20
175.6461854207
 30
0.0
 11
50.5090344317
 21
175.6576416051
 31
0.0
  0
LINE
  5
44C
330
1F
100
AcDbEntity
  8
0
  6
Continuous
 62
     7
370
    15
100
AcDbLine
 10
48.1755825932
 20
172.4733781723
 30
0.0
 11
47.7159627808
 21
172.2080453024
 31
0.0
  0
LINE
  5
44D
330
1F
100
AcDbEntity
  8
0
  6
Continuous
 62
     7
370
    15
100
AcDbLine
 10
47.3624097274
 20
172.4121471357
 30
0.0
 11
50.2969030211
 21
174.1061940553
 31
0.0
  0
LINE
  5
44E
330
1F
100
AcDbEntity
  8
0
  6
Continuous
 62
     7
370
    15
100
AcDbLine
 10
52.5596450918
 20
172.7999408623
 30
0.0
 11
50.2969051284
 21
171.4936888858
 31
0.0
  0
LINE
  5
44F
330
1F
100
AcDbEntity
  8
0
  6
Continuous
 62
     7
370
    15
100
AcDbLine
 10
50.2969051284
 20
171.4936888858
 30
0.0
 11
52.9839110739
 21
169.9425133712
 31
0.0
  0
LINE
  5
450
330
1F
100
AcDbEntity
  8
0
  6
Continuous
 62
     7
370
    15
100
AcDbLine
 10
52.9839110739
 20
169.9425133712
 30
0.0
 11
55.2466510373
 21
171.2487653476
 31
0.0
  0
LINE
  5
451
330
1F
100
AcDbEntity
  8
0
  6
Continuous
 62
     7
370
    15
100
AcDbLine
 10
57.509393108
 20
169.9425121546
 30
0.0
 11
55.2466510373
 21
171.2487653476
 31
0.0
  0
LINE
  5
452
330
1F
100
AcDbEntity
  8
0
  6
Continuous
 62
     7
370
    15
100
AcDbLine
 10
54.5748998143
 20
168.248465235
 30
0.0
 11
57.509393108
 21
169.9425121546
 31
0.0
  0
LINE
  5
453
330
1F
100
AcDbEntity
  8
0
  6
Continuous
 62
     7
370
    15
100
AcDbLine
 10
54.6809655196
 20
168.7179005465
 30
0.0
 11
54.2213457072
 21
168.4525676766
 31
0.0
  0
LINE
  5
454
330
1F
100
AcDbEntity
  8
0
  6
Continuous
 62
     7
370
    15
100
AcDbLine
 10
54.6809655196
 20
168.7179005465
 30
0.0
 11
48.1755825932
 21
172.4733781723
 31
0.0
  0
LINE
  5
455
330
1F
100
AcDbEntity
  8
0
  6
Continuous
 62
     7
370
    15
100
AcDbLine
 10
50.2969030211
 20
175.4943132068
 30
0.0
 11
47.3624097274
 21
173.8002662872
 31
0.0
  0
LINE
  5
456
330
1F
100
AcDbEntity
  8
0
  6
Continuous
 62
     7
370
    15
100
AcDbLine
 10
47.3624097274
 20
173.5553041555
 30
0.0
 11
50.2969030211
 21
175.2493510752
 31
0.0
  0
LWPOLYLINE
  5
457
330
1F
100
AcDbEntity
  8
0
  6
Continuous
 62
     7
370
    15
100
AcDbPolyline
 90
        9
 70
   128
 43
0.0
 10
47.3624097274
 20
172.6571092673
 10
47.213580776
 20
172.6053776871
 10
47.0874099703
 20
172.6298928572
 10
47.0031057365
 20
172.7269227527
 10
46.9735017901
 20
172.8816949381
 10
47.0031057365
 20
173.0706471125
 10
47.0874099703
 20
173.2650126044
 10
47.213580776
 20
173.435201486
 10
47.3624097274
 20
173.5553041555
  0
LINE
  5
458
330
1F
100
AcDbEntity
  8
0
  6
Continuous
 62
     7
370
    15
100
AcDbLine
 10
50.2969030211
 20
174.351156187
 30
0.0
 11
47.3624097274
 21
172.6571092673
 31
0.0
  0
LWPOLYLINE
  5
459
330
1F
100
AcDbEntity
  8
0
  6
Continuous
 62
     7
370
    15
100
AcDbPolyline
 90
       11
 70
   128
 43
0.0
 10
47.3624097274
 20
173.8002662872
 10
47.1766791027
 20
173.6590767066
 10
47.0091285212
 20
173.463767839
 10
46.8761594288
 20
173.2334583117
 10
46.7907867725
 20
172.9906918905
 10
46.7613703795
 20
172.7592340814
 10
46.7907867725
 20
172.5617394125
 10
46.8761594288
 20
172.4175421622
 10
47.0091285212
 20
172.3407557853
 10
47.1766791027
 20
172.3388967015
 10
47.3624097274
 20
172.4121471357
  0
ARC
  5
45A
330
1F
100
AcDbEntity
  8
0
  6
Continuous
 62
     7
370
    15
100
AcDbCircle
 10
47.5662381055
 20
173.1723991416
 30
0.0
 40
0.4037385717092872
100
AcDbArc
 50
331.4658394394
 51
45.4407552283
  0
LINE
  5
45B
330
1F
100
AcDbEntity
  8
0
  6
Continuous
 62
     7
370
    15
100
AcDbLine
 10
47.727422509
 20
173.5210998357
 30
0.0
 11
50.5090344317
 21
175.1268902185
 31
0.0
  0
LINE
  5
45C
330
1F
100
AcDbEntity
  8
0
  6
Continuous
 62
     7
370
    15
100
AcDbLine
 10
48.2462944683
 20
174.3513896286
 30
0.0
 11
50.5090344317
 21
175.6576416051
 31
0.0
  0
LINE
  5
45D
330
1F
100
AcDbEntity
  8
0
  6
Continuous
 62
     7
370
    15
100
AcDbLine
 10
48.0341609504
 20
174.188060888
 30
0.0
 11
48.0341609504
 21
174.6706004482
 31
0.0
  0
LINE
  5
45E
330
1F
100
AcDbEntity
  8
0
  6
Continuous
 62
     7
370
    15
100
AcDbLine
 10
50.5090344317
 20
177.4642363372
 30
0.0
 11
50.3400487499
 21
177.3666829796
 31
0.0
  0
LINE
  5
45F
330
1F
100
AcDbEntity
  8
0
  6
Continuous
 62
     7
370
    15
100
AcDbLine
 10
50.5090344317
 20
177.0457610607
 30
0.0
 11
50.5090344317
 21
177.4642363372
 31
0.0
  0
LINE
  5
460
330
1F
100
AcDbEntity
  8
0
  6
Continuous
 62
     7
370
    15
100
AcDbLine
 10
50.5090344317
 20
177.0457610607
 30
0.0
 11
50.3322579049
 21
176.9437101441
 31
0.0
  0
LINE
  5
461
330
1F
100
AcDbEntity
  8
0
  6
Continuous
 62
     7
370
    15
100
AcDbLine
 10
48.2462944683
 20
174.3513896286
 30
0.0
 11
48.2462944683
 21
174.5034925491
 31
0.0
  0
LINE
  5
462
330
1F
100
AcDbEntity
  8
0
  6
Continuous
 62
     7
370
    15
100
AcDbLine
 10
52.9839110739
 20
170.1384828331
 30
0.0
 11
52.9839110739
 21
169.9425133712
 31
0.0
  0
LINE
  5
463
330
1F
100
AcDbEntity
  8
0
  6
Continuous
 62
     7
370
    15
100
AcDbLine
 10
50.5288792753
 20
177.0343048763
 30
0.0
 11
50.5090344317
 21
177.0457610607
 31
0.0
  0
LINE
  5
464
330
1F
100
AcDbEntity
  8
0
  6
Continuous
 62
     7
370
    15
100
AcDbLine
 10
50.3322600123
 20
176.9207989919
 30
0.0
 11
50.5288792753
 21
177.0343048763
 31
0.0
  0
ARC
  5
465
330
1F
100
AcDbEntity
  8
0
  6
Continuous
 62
     7
370
    15
100
AcDbCircle
 10
51.4851668766
 20
176.746815633
 30
0.0
 40
0.9985669940119511
100
AcDbArc
 50
82.1047248777
 51
163.2676180329
  0
ARC
  5
466
330
1F
100
AcDbEntity
  8
0
  6
Continuous
 62
     7
370
    15
100
AcDbCircle
 10
51.4482706883
 20
176.8144324557
 30
0.0
 40
1.142107626386447
100
AcDbArc
 50
68.7874350631
 51
145.3228549283
  0
ARC
  5
467
330
1F
100
AcDbEntity
  8
0
  6
Continuous
 62
     7
370
    15
100
AcDbCircle
 10
47.4686633857
 20
172.5386111159
 30
0.0
 40
0.4128325906042412
100
AcDbArc
 50
244.5098160675
 51
306.800508035
  0
LINE
  5
468
330
1F
100
AcDbEntity
  8
0
  6
Continuous
 62
     7
370
    15
100
AcDbLine
 10
57.2972606437
 20
171.453092771
 30
0.0
 11
57.2972606437
 21
171.5527143223
 31
0.0
  0
LINE
  5
469
330
1F
100
AcDbEntity
  8
0
  6
Continuous
 62
     7
370
    15
100
AcDbLine
 10
57.509393108
 20
171.3306313061
 30
0.0
 11
57.2972606437
 21
171.453092771
 31
0.0
  0
LINE
  5
46A
330
1F
100
AcDbEntity
  8
0
  6
Continuous
 62
     7
370
    15
100
AcDbLine
 10
57.509393108
 20
171.0856691745
 30
0.0
 11
57.509393108
 21
171.3306313061
 31
0.0
  0
LINE
  5
46B
330
1F
100
AcDbEntity
  8
0
  6
Continuous
 62
     7
370
    15
100
AcDbLine
 10
57.509393108
 20
171.0856691745
 30
0.0
 11
57.2972606437
 21
171.2081306394
 31
0.0
  0
LINE
  5
46C
330
1F
100
AcDbEntity
  8
0
  6
Continuous
 62
     7
370
    15
100
AcDbLine
 10
57.2972606437
 20
170.3099357512
 30
0.0
 11
57.2972606437
 21
171.2081306394
 31
0.0
  0
LINE
  5
46D
330
1F
100
AcDbEntity
  8
0
  6
Continuous
 62
     7
370
    15
100
AcDbLine
 10
57.509393108
 20
170.1874742862
 30
0.0
 11
57.2972606437
 21
170.3099357512
 31
0.0
  0
LINE
  5
46E
330
1F
100
AcDbEntity
  8
0
  6
Continuous
 62
     7
370
    15
100
AcDbLine
 10
57.509393108
 20
169.9425121546
 30
0.0
 11
57.509393108
 21
170.1874742862
 31
0.0
  0
LINE
  5
46F
330
1F
100
AcDbEntity
  8
0
  6
Continuous
 62
     7
370
    15
100
AcDbLine
 10
55.2466510373
 20
171.4447348096
 30
0.0
 11
55.2466510373
 21
171.2487653476
 31
0.0
  0
LINE
  5
470
330
1F
100
AcDbEntity
  8
0
  6
Continuous
 62
     7
370
    15
100
AcDbLine
 10
55.4870671979
 20
171.3059455143
 30
0.0
 11
55.2466510373
 21
171.4447348096
 31
0.0
  0
LWPOLYLINE
  5
471
330
1F
100
AcDbEntity
  8
0
  6
Continuous
 62
     7
370
    15
100
AcDbPolyline
 90
        8
 70
   128
 43
0.0
 10
57.1163315988
 20
171.4520987512
 10
56.999499481
 20
171.3135904616
 10
56.8078135067
 20
171.1690465026
 10
56.5841770601
 20
171.0803576743
 10
56.3339996894
 20
171.0496699021
 10
56.0633347356
 20
171.0777250533
 10
55.778728658
 20
171.1638448009
 10
55.4870671979
 20
171.3059455143
  0
LINE
  5
472
330
1F
100
AcDbEntity
  8
0
  6
Continuous
 62
     7
370
    15
100
AcDbLine
 10
55.2466510373
 20
171.4447348096
 30
0.0
 11
52.9839110739
 21
170.1384828331
 31
0.0
  0
LINE
  5
473
330
1F
100
AcDbEntity
  8
0
  6
Continuous
 62
     7
370
    15
100
AcDbLine
 10
57.2972616974
 20
170.9632083178
 30
0.0
 11
57.509393108
 21
171.0856691745
 31
0.0
  0
LWPOLYLINE
  5
474
330
1F
100
AcDbEntity
  8
0
  6
Continuous
 62
     7
370
    15
100
AcDbPolyline
 90
        5
 70
   128
 43
0.0
 10
54.2213457072
 20
168.4525676766
 10
54.0356150826
 20
168.3793172424
 10
53.868064501
 20
168.3811763262
 10
53.7350954086
 20
168.4579627031
 10
53.658995059
 20
168.5770005374
  0
ARC
  5
475
330
1F
100
AcDbEntity
  8
0
  6
Continuous
 62
     7
370
    15
100
AcDbCircle
 10
54.0552728437
 20
169.0662708757
 30
0.0
 40
0.4106731815061261
100
AcDbArc
 50
254.6221489342
 51
331.5538250052
  0
ARC
  5
476
330
1F
100
AcDbEntity
  8
0
  6
Continuous
 62
     7
370
    15
100
AcDbCircle
 10
54.3276004192
 20
168.5790310485
 30
0.0
 40
0.4128325906040322
100
AcDbArc
 50
244.5098160675
 51
306.800508035
  0
ARC
  5
477
330
1F
100
AcDbEntity
  8
0
  6
Continuous
 62
     7
370
    15
100
AcDbCircle
 10
73.4386025598
 20
165.6393983999
 30
0.0
 40
4.067725433120029
100
AcDbArc
 50
193.2609645458
 51
240.5620853224
  0
LINE
  5
478
330
1F
100
AcDbEntity
  8
0
  6
Continuous
 62
     7
370
    15
100
AcDbLine
 10
71.5101069045
 20
162.0560415814
 30
0.0
 11
71.4393962148
 21
162.0968619937
 31
0.0
  0
LINE
  5
479
330
1F
100
AcDbEntity
  8
0
  6
Continuous
 62
     7
370
    15
100
AcDbLine
 10
71.5101069045
 20
162.0560415814
 30
0.0
 11
71.5101069045
 21
161.8600721195
 31
0.0
  0
LINE
  5
47A
330
1F
100
AcDbEntity
  8
0
  6
Continuous
 62
     7
370
    15
100
AcDbLine
 10
71.5101069045
 20
161.8600721195
 30
0.0
 11
69.2473652289
 21
163.1663250844
 31
0.0
  0
LINE
  5
47B
330
1F
100
AcDbEntity
  8
0
  6
Continuous
 62
     7
370
    15
100
AcDbLine
 10
69.2473652289
 20
163.1663250844
 30
0.0
 11
69.2473652289
 21
163.411287216
 31
0.0
  0
LINE
  5
47C
330
1F
100
AcDbEntity
  8
0
  6
Continuous
 62
     7
370
    15
100
AcDbLine
 10
69.2473652289
 20
163.411287216
 30
0.0
 11
69.4594971663
 21
163.2888260552
 31
0.0
  0
LINE
  5
47D
330
1F
100
AcDbEntity
  8
0
  6
Continuous
 62
     7
370
    15
100
AcDbLine
 10
69.4594971663
 20
163.2888260552
 30
0.0
 11
69.4594971663
 21
164.1870209434
 31
0.0
  0
LINE
  5
47E
330
1F
100
AcDbEntity
  8
0
  6
Continuous
 62
     7
370
    15
100
AcDbLine
 10
69.2473652289
 20
164.3094821042
 30
0.0
 11
69.4594971663
 21
164.1870209434
 31
0.0
  0
LINE
  5
47F
330
1F
100
AcDbEntity
  8
0
  6
Continuous
 62
     7
370
    15
100
AcDbLine
 10
69.2473652289
 20
164.3094821042
 30
0.0
 11
69.2473652289
 21
164.5544442359
 31
0.0
  0
LINE
  5
480
330
1F
100
AcDbEntity
  8
0
  6
Continuous
 62
     7
370
    15
100
AcDbLine
 10
69.2473652289
 20
164.5544442359
 30
0.0
 11
69.4594971663
 21
164.431983075
 31
0.0
  0
LINE
  5
481
330
1F
100
AcDbEntity
  8
0
  6
Continuous
 62
     7
370
    15
100
AcDbLine
 10
69.4594971663
 20
164.431983075
 30
0.0
 11
69.4594971663
 21
164.71777233
 31
0.0
  0
LINE
  5
482
330
1F
100
AcDbEntity
  8
0
  6
Continuous
 62
     7
370
    15
100
AcDbLine
 10
69.4793414831
 20
164.7063164498
 30
0.0
 11
69.4594971663
 21
164.71777233
 31
0.0
  0
LINE
  5
483
330
1F
100
AcDbEntity
  8
0
  6
Continuous
 62
     7
370
    15
100
AcDbLine
 10
67.1260450645
 20
161.5335090493
 30
0.0
 11
66.6664252521
 21
161.2681761794
 31
0.0
  0
LINE
  5
484
330
1F
100
AcDbEntity
  8
0
  6
Continuous
 62
     7
370
    15
100
AcDbLine
 10
66.3128719353
 20
161.4722781648
 30
0.0
 11
69.2473652289
 21
163.1663250844
 31
0.0
  0
LINE
  5
485
330
1F
100
AcDbEntity
  8
0
  6
Continuous
 62
     7
370
    15
100
AcDbLine
 10
71.5101069045
 20
161.8600721195
 30
0.0
 11
69.2473669411
 21
160.553820143
 31
0.0
  0
LINE
  5
486
330
1F
100
AcDbEntity
  8
0
  6
Continuous
 62
     7
370
    15
100
AcDbLine
 10
69.2473669411
 20
160.553820143
 30
0.0
 11
71.9343726232
 21
159.0026447804
 31
0.0
  0
LINE
  5
487
330
1F
100
AcDbEntity
  8
0
  6
Continuous
 62
     7
370
    15
100
AcDbLine
 10
71.9343726232
 20
159.0026447804
 30
0.0
 11
74.1971125866
 21
160.3088967569
 31
0.0
  0
LINE
  5
488
330
1F
100
AcDbEntity
  8
0
  6
Continuous
 62
     7
370
    15
100
AcDbLine
 10
76.4598542622
 20
159.002643792
 30
0.0
 11
74.1971125866
 21
160.3088967569
 31
0.0
  0
LINE
  5
489
330
1F
100
AcDbEntity
  8
0
  6
Continuous
 62
     7
370
    15
100
AcDbLine
 10
73.5253609685
 20
157.3085968723
 30
0.0
 11
76.4598542622
 21
159.002643792
 31
0.0
  0
LINE
  5
48A
330
1F
100
AcDbEntity
  8
0
  6
Continuous
 62
     7
370
    15
100
AcDbLine
 10
73.631427464
 20
157.7780317276
 30
0.0
 11
73.1718076517
 21
157.5126988577
 31
0.0
  0
LINE
  5
48B
330
1F
100
AcDbEntity
  8
0
  6
Continuous
 62
     7
370
    15
100
AcDbLine
 10
73.631427464
 20
157.7780317276
 30
0.0
 11
67.1260450645
 21
161.5335090493
 31
0.0
  0
LINE
  5
48C
330
1F
100
AcDbEntity
  8
0
  6
Continuous
 62
     7
370
    15
100
AcDbLine
 10
69.2473652289
 20
164.5544442359
 30
0.0
 11
66.3128719353
 21
162.8603973162
 31
0.0
  0
LINE
  5
48D
330
1F
100
AcDbEntity
  8
0
  6
Continuous
 62
     7
370
    15
100
AcDbLine
 10
66.3128719353
 20
162.6154351846
 30
0.0
 11
69.2473652289
 21
164.3094821042
 31
0.0
  0
LWPOLYLINE
  5
48E
330
1F
100
AcDbEntity
  8
0
  6
Continuous
 62
     7
370
    15
100
AcDbPolyline
 90
        9
 70
   128
 43
0.0
 10
66.3128719353
 20
161.7172402964
 10
66.1640429838
 20
161.6655087161
 10
66.0378721781
 20
161.6900238862
 10
65.9535679444
 20
161.7870537817
 10
65.923963998
 20
161.9418259672
 10
65.9535679444
 20
162.1307781416
 10
66.0378721781
 20
162.3251436335
 10
66.1640429838
 20
162.4953325151
 10
66.3128719353
 20
162.6154351846
  0
LINE
  5
48F
330
1F
100
AcDbEntity
  8
0
  6
Continuous
 62
     7
370
    15
100
AcDbLine
 10
69.2473652289
 20
163.411287216
 30
0.0
 11
66.3128719353
 21
161.7172402964
 31
0.0
  0
LWPOLYLINE
  5
490
330
1F
100
AcDbEntity
  8
0
  6
Continuous
 62
     7
370
    15
100
AcDbPolyline
 90
       11
 70
   128
 43
0.0
 10
66.3128719353
 20
162.8603973162
 10
66.1271413106
 20
162.7192077357
 10
65.959590729
 20
162.5238988681
 10
65.8266216367
 20
162.2935893407
 10
65.7412489803
 20
162.0508229195
 10
65.7118325874
 20
161.8193651105
 10
65.7412489803
 20
161.6218704416
 10
65.8266216367
 20
161.4776731913
 10
65.959590729
 20
161.4008868144
 10
66.1271413106
 20
161.3990277306
 10
66.3128719353
 20
161.4722781648
  0
ARC
  5
491
330
1F
100
AcDbEntity
  8
0
  6
Continuous
 62
     7
370
    15
100
AcDbCircle
 10
66.5167008401
 20
162.2325298665
 30
0.0
 40
0.4037385718171609
100
AcDbArc
 50
331.4658394509
 51
45.4407552167
  0
LINE
  5
492
330
1F
100
AcDbEntity
  8
0
  6
Continuous
 62
     7
370
    15
100
AcDbLine
 10
66.6778852436
 20
162.5812305607
 30
0.0
 11
69.4594971663
 21
164.1870209434
 31
0.0
  0
LINE
  5
493
330
1F
100
AcDbEntity
  8
0
  6
Continuous
 62
     7
370
    15
100
AcDbLine
 10
67.196757203
 20
163.4115203535
 30
0.0
 11
69.4594971663
 21
164.71777233
 31
0.0
  0
LINE
  5
494
330
1F
100
AcDbEntity
  8
0
  6
Continuous
 62
     7
370
    15
100
AcDbLine
 10
66.9846236851
 20
163.2481916129
 30
0.0
 11
66.9846236851
 21
163.7307311731
 31
0.0
  0
LINE
  5
495
330
1F
100
AcDbEntity
  8
0
  6
Continuous
 62
     7
370
    15
100
AcDbLine
 10
69.4594971663
 20
166.5243670621
 30
0.0
 11
69.2905114846
 21
166.4268137045
 31
0.0
  0
LINE
  5
496
330
1F
100
AcDbEntity
  8
0
  6
Continuous
 62
     7
370
    15
100
AcDbLine
 10
69.4594971663
 20
166.1058917856
 30
0.0
 11
69.4594971663
 21
166.5243670621
 31
0.0
  0
LINE
  5
497
330
1F
100
AcDbEntity
  8
0
  6
Continuous
 62
     7
370
    15
100
AcDbLine
 10
69.4594971663
 20
166.1058917856
 30
0.0
 11
69.2827206396
 21
166.003840869
 31
0.0
  0
LINE
  5
498
330
1F
100
AcDbEntity
  8
0
  6
Continuous
 62
     7
370
    15
100
AcDbLine
 10
67.196757203
 20
163.4115203535
 30
0.0
 11
67.196757203
 21
163.5636232741
 31
0.0
  0
LINE
  5
499
330
1F
100
AcDbEntity
  8
0
  6
Continuous
 62
     7
370
    15
100
AcDbLine
 10
71.9343726232
 20
159.1986142424
 30
0.0
 11
71.9343726232
 21
159.0026447804
 31
0.0
  0
LINE
  5
49A
330
1F
100
AcDbEntity
  8
0
  6
Continuous
 62
     7
370
    15
100
AcDbLine
 10
69.4793414831
 20
166.0944359054
 30
0.0
 11
69.4594971663
 21
166.1058917856
 31
0.0
  0
LINE
  5
49B
330
1F
100
AcDbEntity
  8
0
  6
Continuous
 62
     7
370
    15
100
AcDbLine
 10
69.2827222201
 20
165.9809300209
 30
0.0
 11
69.4793414831
 21
166.0944359054
 31
0.0
  0
ARC
  5
49C
330
1F
100
AcDbEntity
  8
0
  6
Continuous
 62
     7
370
    15
100
AcDbCircle
 10
70.4356284479
 20
165.8069474913
 30
0.0
 40
0.9985661456550045
100
AcDbArc
 50
82.1046659932
 51
163.2676530815
  0
ARC
  5
49D
330
1F
100
AcDbEntity
  8
0
  6
Continuous
 62
     7
370
    15
100
AcDbCircle
 10
70.3987331687
 20
165.874564521
 30
0.0
 40
1.142106654648537
100
AcDbArc
 50
68.7874591588
 51
145.3229029682
  0
ARC
  5
49E
330
1F
100
AcDbEntity
  8
0
  6
Continuous
 62
     7
370
    15
100
AcDbCircle
 10
66.419125857
 20
161.5987419929
 30
0.0
 40
0.4128325906040364
100
AcDbArc
 50
244.5098160675
 51
306.800508035
  0
LINE
  5
49F
330
1F
100
AcDbEntity
  8
0
  6
Continuous
 62
     7
370
    15
100
AcDbLine
 10
76.2477223247
 20
160.5132241042
 30
0.0
 11
76.2477223247
 21
160.6128456555
 31
0.0
  0
LINE
  5
4A0
330
1F
100
AcDbEntity
  8
0
  6
Continuous
 62
     7
370
    15
100
AcDbLine
 10
76.4598542622
 20
160.3907629434
 30
0.0
 11
76.2477223247
 21
160.5132241042
 31
0.0
  0
LINE
  5
4A1
330
1F
100
AcDbEntity
  8
0
  6
Continuous
 62
     7
370
    15
100
AcDbLine
 10
76.4598542622
 20
160.1458008118
 30
0.0
 11
76.4598542622
 21
160.3907629434
 31
0.0
  0
LINE
  5
4A2
330
1F
100
AcDbEntity
  8
0
  6
Continuous
 62
     7
370
    15
100
AcDbLine
 10
76.4598542622
 20
160.1458008118
 30
0.0
 11
76.2477223247
 21
160.2682619726
 31
0.0
  0
LINE
  5
4A3
330
1F
100
AcDbEntity
  8
0
  6
Continuous
 62
     7
370
    15
100
AcDbLine
 10
76.2477223247
 20
159.3700670844
 30
0.0
 11
76.2477223247
 21
160.2682619726
 31
0.0
  0
LINE
  5
4A4
330
1F
100
AcDbEntity
  8
0
  6
Continuous
 62
     7
370
    15
100
AcDbLine
 10
76.4598542622
 20
159.2476059236
 30
0.0
 11
76.2477223247
 21
159.3700670844
 31
0.0
  0
LINE
  5
4A5
330
1F
100
AcDbEntity
  8
0
  6
Continuous
 62
     7
370
    15
100
AcDbLine
 10
76.4598542622
 20
159.002643792
 30
0.0
 11
76.4598542622
 21
159.2476059236
 31
0.0
  0
LINE
  5
4A6
330
1F
100
AcDbEntity
  8
0
  6
Continuous
 62
     7
370
    15
100
AcDbLine
 10
74.1971125866
 20
160.5048662188
 30
0.0
 11
74.1971125866
 21
160.3088967569
 31
0.0
  0
LINE
  5
4A7
330
1F
100
AcDbEntity
  8
0
  6
Continuous
 62
     7
370
    15
100
AcDbLine
 10
74.4375288789
 20
160.3660768475
 30
0.0
 11
74.1971125866
 21
160.5048662188
 31
0.0
  0
LWPOLYLINE
  5
4A8
330
1F
100
AcDbEntity
  8
0
  6
Continuous
 62
     7
370
    15
100
AcDbPolyline
 90
        8
 70
   128
 43
0.0
 10
76.0667935432
 20
160.5122299323
 10
75.9499606352
 20
160.3737220989
 10
75.7582751877
 20
160.2291778358
 10
75.5346387411
 20
160.1404890075
 10
75.2844618972
 20
160.1098009312
 10
75.0137965483
 20
160.1378563105
 10
74.7291906024
 20
160.223975982
 10
74.4375288789
 20
160.3660768475
  0
LINE
  5
4A9
330
1F
100
AcDbEntity
  8
0
  6
Continuous
 62
     7
370
    15
100
AcDbLine
 10
74.1971125866
 20
160.5048662188
 30
0.0
 11
71.9343726232
 21
159.1986142424
 31
0.0
  0
LINE
  5
4AA
330
1F
100
AcDbEntity
  8
0
  6
Continuous
 62
     7
370
    15
100
AcDbLine
 10
76.2477228516
 20
160.0233399551
 30
0.0
 11
76.4598542622
 21
160.1458008118
 31
0.0
  0
LWPOLYLINE
  5
4AB
330
1F
100
AcDbEntity
  8
0
  6
Continuous
 62
     7
370
    15
100
AcDbPolyline
 90
        5
 70
   128
 43
0.0
 10
73.1718076517
 20
157.5126988577
 10
72.986077027
 20
157.4394484235
 10
72.8185264454
 20
157.4413075073
 10
72.6855573531
 20
157.5180938843
 10
72.6094570034
 20
157.6371317186
  0
ARC
  5
4AC
330
1F
100
AcDbEntity
  8
0
  6
Continuous
 62
     7
370
    15
100
AcDbCircle
 10
73.0057347881
 20
158.1264020569
 30
0.0
 40
0.4106731815061554
100
AcDbArc
 50
254.6221489342
 51
331.5538250052
  0
ARC
  5
4AD
330
1F
100
AcDbEntity
  8
0
  6
Continuous
 62
     7
370
    15
100
AcDbCircle
 10
73.2780615734
 20
157.6391626858
 30
0.0
 40
0.4128325906040321
100
AcDbArc
 50
244.5098160675
 51
306.800508035
  0
LINE
  5
4AE
330
1F
100
AcDbEntity
  8
0
  6
Continuous
 62
     7
370
    15
100
AcDbLine
 10
87.4553664461
 20
154.2881727331
 30
0.0
 11
87.4553664461
 21
157.0714123136
 31
0.0
  0
LINE
  5
4AF
330
1F
100
AcDbEntity
  8
0
  6
Continuous
 62
     7
370
    15
100
AcDbLine
 10
85.1219125003
 20
152.9410984434
 30
0.0
 11
87.4553664461
 21
154.2881727331
 31
0.0
  0
LINE
  5
4B0
330
1F
100
AcDbEntity
  8
0
  6
Continuous
 62
     7
370
    15
100
AcDbLine
 10
85.1219125003
 20
152.9410984434
 30
0.0
 11
85.1219125003
 21
152.6144820652
 31
0.0
  0
LINE
  5
4B1
330
1F
100
AcDbEntity
  8
0
  6
Continuous
 62
     7
370
    15
100
AcDbLine
 10
85.1219125003
 20
152.6144820652
 30
0.0
 11
83.3541472332
 21
151.5939728986
 31
0.0
  0
LINE
  5
4B2
330
1F
100
AcDbEntity
  8
0
  6
Continuous
 62
     7
370
    15
100
AcDbLine
 10
83.3541472332
 20
151.5939728986
 30
0.0
 11
83.3541472332
 21
154.7038288575
 31
0.0
  0
LINE
  5
4B3
330
1F
100
AcDbEntity
  8
0
  6
Continuous
 62
     7
370
    15
100
AcDbLine
 10
85.3340439109
 20
152.8186375868
 30
0.0
 11
85.1219125003
 21
152.9410984434
 31
0.0
  0
LINE
  5
4B4
330
1F
100
AcDbEntity
  8
0
  6
Continuous
 62
     7
370
    15
100
AcDbLine
 10
88.2331833743
 20
153.8391485781
 30
0.0
 11
87.4553664461
 21
154.2881727331
 31
0.0
  0
LINE
  5
4B5
330
1F
100
AcDbEntity
  8
0
  6
Continuous
 62
     7
370
    15
100
AcDbLine
 10
87.8089184458
 20
153.5942256482
 30
0.0
 11
88.2331833743
 21
153.8391485781
 31
0.0
  0
LINE
  5
4B6
330
1F
100
AcDbEntity
  8
0
  6
Continuous
 62
     7
370
    15
100
AcDbLine
 10
87.5967870352
 20
153.7166865049
 30
0.0
 11
87.8089184458
 21
153.5942256482
 31
0.0
  0
LINE
  5
4B7
330
1F
100
AcDbEntity
  8
0
  6
Continuous
 62
     7
370
    15
100
AcDbLine
 10
87.2432329281
 20
153.9207889465
 30
0.0
 11
87.5967870352
 21
153.7166865049
 31
0.0
  0
LINE
  5
4B8
330
1F
100
AcDbEntity
  8
0
  6
Continuous
 62
     7
370
    15
100
AcDbLine
 10
85.3340439109
 20
152.8186375868
 30
0.0
 11
87.2432329281
 21
153.9207889465
 31
0.0
  0
ARC
  5
4B9
330
1F
100
AcDbEntity
  8
0
  6
Continuous
 62
     7
370
    15
100
AcDbCircle
 10
89.1675752066
 20
155.0162818138
 30
0.0
 40
1.039700368809511
100
AcDbArc
 50
95.368323757
 51
153.9893582085
  0
LINE
  5
4BA
330
1F
100
AcDbEntity
  8
0
  6
Continuous
 62
     7
370
    15
100
AcDbLine
 10
88.2331833743
 20
155.4722300133
 30
0.0
 11
88.2331833743
 21
153.8391485781
 31
0.0
  0
LINE
  5
4BB
330
1F
100
AcDbEntity
  8
0
  6
Continuous
 62
     7
370
    15
100
AcDbLine
 10
90.3686514455
 20
156.3624567004
 30
0.0
 11
88.2979683488
 21
157.5578366078
 31
0.0
  0
LINE
  5
4BC
330
1F
100
AcDbEntity
  8
0
  6
Continuous
 62
     7
370
    15
100
AcDbLine
 10
95.9406481575
 20
149.3897238675
 30
0.0
 11
95.9406481575
 21
150.0858652864
 31
0.0
  0
LINE
  5
4BD
330
1F
100
AcDbEntity
  8
0
  6
Continuous
 62
     7
370
    15
100
AcDbLine
 10
95.9406481575
 20
149.3897238675
 30
0.0
 11
95.3264379194
 21
149.7442998905
 31
0.0
  0
LWPOLYLINE
  5
4BE
330
1F
100
AcDbEntity
  8
0
  6
Continuous
 62
     7
370
    15
100
AcDbPolyline
 90
        8
 70
   128
 43
0.0
 10
85.4047547323
 20
151.5939258453
 10
85.5452449298
 20
151.6447024583
 10
85.6667627234
 20
151.6279693894
 10
85.7528919157
 20
151.5459837122
 10
85.7920062984
 20
151.4098212906
 10
85.7788185495
 20
151.2378693967
 10
85.7151114807
 20
151.0533517917
 10
85.7047370339
 20
151.0321887787
  0
ARC
  5
4BF
330
1F
100
AcDbEntity
  8
0
  6
Continuous
 62
     7
370
    15
100
AcDbCircle
 10
85.7245694826
 20
150.9705924704
 30
0.0
 40
0.7005897307424156
100
AcDbArc
 50
117.1610783532
 51
200.4917377543
  0
LINE
  5
4C0
330
1F
100
AcDbEntity
  8
0
  6
Continuous
 62
     7
370
    15
100
AcDbLine
 10
85.8997294285
 20
152.4920742885
 30
0.0
 11
85.3340439109
 21
152.8186375868
 31
0.0
  0
LINE
  5
4C1
330
1F
100
AcDbEntity
  8
0
  6
Continuous
 62
     7
370
    15
100
AcDbLine
 10
85.8997294285
 20
152.2879125119
 30
0.0
 11
85.8997294285
 21
152.4920742885
 31
0.0
  0
LINE
  5
4C2
330
1F
100
AcDbEntity
  8
0
  6
Continuous
 62
     7
370
    15
100
AcDbLine
 10
85.1219125003
 20
152.6144820652
 30
0.0
 11
85.7936689916
 21
152.2266852972
 31
0.0
  0
LINE
  5
4C3
330
1F
100
AcDbEntity
  8
0
  6
Continuous
 62
     7
370
    15
100
AcDbLine
 10
84.6791893595
 20
151.0526502431
 30
0.0
 11
84.4855182685
 21
150.9408463021
 31
0.0
  0
LINE
  5
4C4
330
1F
100
AcDbEntity
  8
0
  6
Continuous
 62
     7
370
    15
100
AcDbLine
 10
83.3541472332
 20
151.5939728986
 30
0.0
 11
84.4855182685
 21
150.9408463021
 31
0.0
  0
LINE
  5
4C5
330
1F
100
AcDbEntity
  8
0
  6
Continuous
 62
     7
370
    15
100
AcDbLine
 10
85.6875980179
 20
153.0227397236
 30
0.0
 11
85.6875980179
 21
152.6145357152
 31
0.0
  0
LINE
  5
4C6
330
1F
100
AcDbEntity
  8
0
  6
Continuous
 62
     7
370
    15
100
AcDbLine
 10
92.1428672878
 20
147.0337914331
 30
0.0
 11
91.8188317797
 21
146.846729716
 31
0.0
  0
LINE
  5
4C7
330
1F
100
AcDbEntity
  8
0
  6
Continuous
 62
     7
370
    15
100
AcDbLine
 10
91.8188317797
 20
146.846729716
 30
0.0
 11
90.7080579093
 21
146.2054936097
 31
0.0
  0
LINE
  5
4C8
330
1F
100
AcDbEntity
  8
0
  6
Continuous
 62
     7
370
    15
100
AcDbLine
 10
90.7080579093
 20
146.2054936097
 30
0.0
 11
84.4855182685
 21
149.7976892823
 31
0.0
  0
LINE
  5
4C9
330
1F
100
AcDbEntity
  8
0
  6
Continuous
 62
     7
370
    15
100
AcDbLine
 10
85.275900226
 20
150.2539670742
 30
0.0
 11
84.4855182685
 21
149.7976892823
 31
0.0
  0
LINE
  5
4CA
330
1F
100
AcDbEntity
  8
0
  6
Continuous
 62
     7
370
    15
100
AcDbLine
 10
92.1929419585
 20
147.0626989252
 30
0.0
 11
92.1428672878
 21
147.0337914331
 31
0.0
  0
LINE
  5
4CB
330
1F
100
AcDbEntity
  8
0
  6
Continuous
 62
     7
370
    15
100
AcDbLine
 10
84.4855182685
 20
149.7976892823
 30
0.0
 11
84.4855182685
 21
150.9408463021
 31
0.0
  0
LINE
  5
4CC
330
1F
100
AcDbEntity
  8
0
  6
Continuous
 62
     7
370
    15
100
AcDbLine
 10
95.1981850594
 20
148.9611090443
 30
0.0
 11
95.9406481575
 21
149.3897238675
 31
0.0
  0
ARC
  5
4CD
330
1F
100
AcDbEntity
  8
0
  6
Continuous
 62
     7
370
    15
100
AcDbCircle
 10
91.74520594
 20
147.3484514797
 30
0.0
 40
0.507095151250191
100
AcDbArc
 50
278.3483611511
 51
321.6462623162
  0
LINE
  5
4CE
330
1F
100
AcDbEntity
  8
0
  6
Continuous
 62
     7
370
    15
100
AcDbLine
 10
68.5049045016
 20
165.2280415519
 30
0.0
 11
68.5049045016
 21
168.0112811325
 31
0.0
  0
LINE
  5
4CF
330
1F
100
AcDbEntity
  8
0
  6
Continuous
 62
     7
370
    15
100
AcDbLine
 10
66.1714505558
 20
163.8809672623
 30
0.0
 11
68.5049045016
 21
165.2280415519
 31
0.0
  0
LINE
  5
4D0
330
1F
100
AcDbEntity
  8
0
  6
Continuous
 62
     7
370
    15
100
AcDbLine
 10
66.1714505558
 20
163.8809672623
 30
0.0
 11
66.1714505558
 21
163.554350884
 31
0.0
  0
LINE
  5
4D1
330
1F
100
AcDbEntity
  8
0
  6
Continuous
 62
     7
370
    15
100
AcDbLine
 10
66.1714505558
 20
163.554350884
 30
0.0
 11
64.4036852888
 21
162.5338417175
 31
0.0
  0
LINE
  5
4D2
330
1F
100
AcDbEntity
  8
0
  6
Continuous
 62
     7
370
    15
100
AcDbLine
 10
64.4036852888
 20
162.5338417175
 30
0.0
 11
64.4036852888
 21
165.6436976763
 31
0.0
  0
ARC
  5
4D3
330
1F
100
AcDbEntity
  8
0
  6
Continuous
 62
     7
370
    15
100
AcDbCircle
 10
70.217111229
 20
165.9561537126
 30
0.0
 40
1.039696584065058
100
AcDbArc
 50
95.3681870767
 51
153.9894639396
  0
LINE
  5
4D4
330
1F
100
AcDbEntity
  8
0
  6
Continuous
 62
     7
370
    15
100
AcDbLine
 10
69.2827219567
 20
166.412098528
 30
0.0
 11
69.2827219567
 21
164.7790170929
 31
0.0
  0
LINE
  5
4D5
330
1F
100
AcDbEntity
  8
0
  6
Continuous
 62
     7
370
    15
100
AcDbLine
 10
69.2827219567
 20
164.7790170929
 30
0.0
 11
68.5049045016
 21
165.2280415519
 31
0.0
  0
LINE
  5
4D6
330
1F
100
AcDbEntity
  8
0
  6
Continuous
 62
     7
370
    15
100
AcDbLine
 10
71.4181901597
 20
167.3023251391
 30
0.0
 11
69.3475069312
 21
168.4977051225
 31
0.0
  0
LINE
  5
4D7
330
1F
100
AcDbEntity
  8
0
  6
Continuous
 62
     7
370
    15
100
AcDbLine
 10
76.9901856862
 20
160.3295929905
 30
0.0
 11
76.9901856862
 21
161.0257344094
 31
0.0
  0
LINE
  5
4D8
330
1F
100
AcDbEntity
  8
0
  6
Continuous
 62
     7
370
    15
100
AcDbLine
 10
76.9901856862
 20
160.3295929905
 30
0.0
 11
76.3759762384
 21
160.6841685573
 31
0.0
  0
LINE
  5
4D9
330
1F
100
AcDbEntity
  8
0
  6
Continuous
 62
     7
370
    15
100
AcDbLine
 10
66.3835824933
 20
163.7585061015
 30
0.0
 11
66.1714505558
 21
163.8809672623
 31
0.0
  0
LINE
  5
4DA
330
1F
100
AcDbEntity
  8
0
  6
Continuous
 62
     7
370
    15
100
AcDbLine
 10
68.8584570282
 20
164.534094163
 30
0.0
 11
69.2827219567
 21
164.7790170929
 31
0.0
  0
LINE
  5
4DB
330
1F
100
AcDbEntity
  8
0
  6
Continuous
 62
     7
370
    15
100
AcDbLine
 10
68.6463248274
 20
164.6565554758
 30
0.0
 11
68.8584570282
 21
164.534094163
 31
0.0
  0
LINE
  5
4DC
330
1F
100
AcDbEntity
  8
0
  6
Continuous
 62
     7
370
    15
100
AcDbLine
 10
68.2927715105
 20
164.8606574612
 30
0.0
 11
68.6463248274
 21
164.6565554758
 31
0.0
  0
LINE
  5
4DD
330
1F
100
AcDbEntity
  8
0
  6
Continuous
 62
     7
370
    15
100
AcDbLine
 10
66.3835824933
 20
163.7585061015
 30
0.0
 11
68.2927715105
 21
164.8606574612
 31
0.0
  0
LWPOLYLINE
  5
4DE
330
1F
100
AcDbEntity
  8
0
  6
Continuous
 62
     7
370
    15
100
AcDbPolyline
 90
        8
 70
   128
 43
0.0
 10
66.4542933147
 20
162.53379436
 10
66.5947835122
 20
162.584570973
 10
66.7163013058
 20
162.5678379042
 10
66.8024304981
 20
162.4858522269
 10
66.8415448808
 20
162.3496898053
 10
66.8283571319
 20
162.1777379115
 10
66.7646500631
 20
161.9932203064
 10
66.7542756163
 20
161.9720572934
  0
ARC
  5
4DF
330
1F
100
AcDbEntity
  8
0
  6
Continuous
 62
     7
370
    15
100
AcDbCircle
 10
66.774108065
 20
161.9104609851
 30
0.0
 40
0.7005897307424175
100
AcDbArc
 50
117.1610783532
 51
200.4917377543
  0
LINE
  5
4E0
330
1F
100
AcDbEntity
  8
0
  6
Continuous
 62
     7
370
    15
100
AcDbLine
 10
66.9492680109
 20
163.4319428032
 30
0.0
 11
66.3835824933
 21
163.7585061015
 31
0.0
  0
LINE
  5
4E1
330
1F
100
AcDbEntity
  8
0
  6
Continuous
 62
     7
370
    15
100
AcDbLine
 10
66.9492680109
 20
163.2277810266
 30
0.0
 11
66.9492680109
 21
163.4319428032
 31
0.0
  0
LINE
  5
4E2
330
1F
100
AcDbEntity
  8
0
  6
Continuous
 62
     7
370
    15
100
AcDbLine
 10
66.1714505558
 20
163.554350884
 30
0.0
 11
66.843207574
 21
163.1665538119
 31
0.0
  0
LINE
  5
4E3
330
1F
100
AcDbEntity
  8
0
  6
Continuous
 62
     7
370
    15
100
AcDbLine
 10
65.7287271516
 20
161.992519214
 30
0.0
 11
65.5350560607
 21
161.880715273
 31
0.0
  0
LINE
  5
4E4
330
1F
100
AcDbEntity
  8
0
  6
Continuous
 62
     7
370
    15
100
AcDbLine
 10
64.4036852888
 20
162.5338417175
 30
0.0
 11
65.5350560607
 21
161.880715273
 31
0.0
  0
LINE
  5
4E5
330
1F
100
AcDbEntity
  8
0
  6
Continuous
 62
     7
370
    15
100
AcDbLine
 10
66.7371366004
 20
163.9626082383
 30
0.0
 11
66.7371366004
 21
163.5544042299
 31
0.0
  0
LINE
  5
4E6
330
1F
100
AcDbEntity
  8
0
  6
Continuous
 62
     7
370
    15
100
AcDbLine
 10
73.1924050799
 20
157.9736604041
 30
0.0
 11
72.8683695719
 21
157.786598687
 31
0.0
  0
LINE
  5
4E7
330
1F
100
AcDbEntity
  8
0
  6
Continuous
 62
     7
370
    15
100
AcDbLine
 10
72.8683695719
 20
157.786598687
 30
0.0
 11
71.7575957014
 21
157.1453625806
 31
0.0
  0
LINE
  5
4E8
330
1F
100
AcDbEntity
  8
0
  6
Continuous
 62
     7
370
    15
100
AcDbLine
 10
71.7575957014
 20
157.1453625806
 30
0.0
 11
65.5350560607
 21
160.7375582532
 31
0.0
  0
LINE
  5
4E9
330
1F
100
AcDbEntity
  8
0
  6
Continuous
 62
     7
370
    15
100
AcDbLine
 10
66.3254380182
 20
161.1938360451
 30
0.0
 11
65.5350560607
 21
160.7375582532
 31
0.0
  0
LINE
  5
4EA
330
1F
100
AcDbEntity
  8
0
  6
Continuous
 62
     7
370
    15
100
AcDbLine
 10
73.2424797507
 20
158.0025678961
 30
0.0
 11
73.1924050799
 21
157.9736604041
 31
0.0
  0
LINE
  5
4EB
330
1F
100
AcDbEntity
  8
0
  6
Continuous
 62
     7
370
    15
100
AcDbLine
 10
65.5350560607
 20
160.7375582532
 30
0.0
 11
65.5350560607
 21
161.880715273
 31
0.0
  0
LINE
  5
4EC
330
1F
100
AcDbEntity
  8
0
  6
Continuous
 62
     7
370
    15
100
AcDbLine
 10
76.2477225882
 20
159.9009781673
 30
0.0
 11
76.9901856862
 21
160.3295929905
 31
0.0
  0
ARC
  5
4ED
330
1F
100
AcDbEntity
  8
0
  6
Continuous
 62
     7
370
    15
100
AcDbCircle
 10
72.7947437322
 20
158.2883204506
 30
0.0
 40
0.5070951512499673
100
AcDbArc
 50
278.3483611511
 51
321.6462623162
  0
LINE
  5
4EE
330
1F
100
AcDbEntity
  8
0
  6
Continuous
 62
     7
370
    15
100
AcDbLine
 10
49.5544420304
 20
176.1679106749
 30
0.0
 11
49.5544420304
 21
178.1149467812
 31
0.0
  0
LINE
  5
4EF
330
1F
100
AcDbEntity
  8
0
  6
Continuous
 62
     7
370
    15
100
AcDbLine
 10
47.2209880846
 20
174.8208363853
 30
0.0
 11
49.5544420304
 21
176.1679106749
 31
0.0
  0
LINE
  5
4F0
330
1F
100
AcDbEntity
  8
0
  6
Continuous
 62
     7
370
    15
100
AcDbLine
 10
47.2209880846
 20
174.8208363853
 30
0.0
 11
47.2209880846
 21
174.494220007
 31
0.0
  0
LINE
  5
4F1
330
1F
100
AcDbEntity
  8
0
  6
Continuous
 62
     7
370
    15
100
AcDbLine
 10
47.2209880846
 20
174.494220007
 30
0.0
 11
45.4532228175
 21
173.4737108405
 31
0.0
  0
LINE
  5
4F2
330
1F
100
AcDbEntity
  8
0
  6
Continuous
 62
     7
370
    15
100
AcDbLine
 10
45.4532228175
 20
173.4737108405
 30
0.0
 11
45.4532228175
 21
175.7473633251
 31
0.0
  0
ARC
  5
4F3
330
1F
100
AcDbEntity
  8
0
  6
Continuous
 62
     7
370
    15
100
AcDbCircle
 10
51.2666462759
 20
176.8960260679
 30
0.0
 40
1.039692329282936
100
AcDbArc
 50
95.367998834
 51
153.9895663745
  0
LINE
  5
4F4
330
1F
100
AcDbEntity
  8
0
  6
Continuous
 62
     7
370
    15
100
AcDbLine
 10
50.3322600123
 20
177.3519673469
 30
0.0
 11
50.3322600123
 21
175.7188859117
 31
0.0
  0
LINE
  5
4F5
330
1F
100
AcDbEntity
  8
0
  6
Continuous
 62
     7
370
    15
100
AcDbLine
 10
50.3322600123
 20
175.7188859117
 30
0.0
 11
49.5544420304
 21
176.1679106749
 31
0.0
  0
LINE
  5
4F6
330
1F
100
AcDbEntity
  8
0
  6
Continuous
 62
     7
370
    15
100
AcDbLine
 10
52.4677291372
 20
178.2421934258
 30
0.0
 11
51.1212974853
 21
179.0194718736
 31
0.0
  0
LINE
  5
4F7
330
1F
100
AcDbEntity
  8
0
  6
Continuous
 62
     7
370
    15
100
AcDbLine
 10
58.0397237418
 20
171.2694618093
 30
0.0
 11
58.0397237418
 21
171.9656032283
 31
0.0
  0
LINE
  5
4F8
330
1F
100
AcDbEntity
  8
0
  6
Continuous
 62
     7
370
    15
100
AcDbLine
 10
58.0397237418
 20
171.2694618093
 30
0.0
 11
57.4255145574
 21
171.6240372241
 31
0.0
  0
LINE
  5
4F9
330
1F
100
AcDbEntity
  8
0
  6
Continuous
 62
     7
370
    15
100
AcDbLine
 10
47.4331216025
 20
174.6983743121
 30
0.0
 11
47.2209880846
 21
174.8208363853
 31
0.0
  0
LINE
  5
4FA
330
1F
100
AcDbEntity
  8
0
  6
Continuous
 62
     7
370
    15
100
AcDbLine
 10
49.9079950838
 20
175.4739629818
 30
0.0
 11
50.3322600123
 21
175.7188859117
 31
0.0
  0
LINE
  5
4FB
330
1F
100
AcDbEntity
  8
0
  6
Continuous
 62
     7
370
    15
100
AcDbLine
 10
49.6958636732
 20
175.5964238385
 30
0.0
 11
49.9079950838
 21
175.4739629818
 31
0.0
  0
LINE
  5
4FC
330
1F
100
AcDbEntity
  8
0
  6
Continuous
 62
     7
370
    15
100
AcDbLine
 10
49.3423106198
 20
175.8005256718
 30
0.0
 11
49.6958636732
 21
175.5964238385
 31
0.0
  0
LINE
  5
4FD
330
1F
100
AcDbEntity
  8
0
  6
Continuous
 62
     7
370
    15
100
AcDbLine
 10
47.4331216025
 20
174.6983743121
 30
0.0
 11
49.3423106198
 21
175.8005256718
 31
0.0
  0
LWPOLYLINE
  5
4FE
330
1F
100
AcDbEntity
  8
0
  6
Continuous
 62
     7
370
    15
100
AcDbPolyline
 90
        8
 70
   128
 43
0.0
 10
47.5038313703
 20
173.4736631789
 10
47.6443215677
 20
173.5244397919
 10
47.7658393614
 20
173.507706723
 10
47.8519685536
 20
173.4257210458
 10
47.8910829364
 20
173.2895586242
 10
47.8778951875
 20
173.1176067303
 10
47.8141881186
 20
172.9330891253
 10
47.8038136719
 20
172.9119261123
  0
ARC
  5
4FF
330
1F
100
AcDbEntity
  8
0
  6
Continuous
 62
     7
370
    15
100
AcDbCircle
 10
47.8236461206
 20
172.850329804
 30
0.0
 40
0.7005897307424773
100
AcDbArc
 50
117.1610783532
 51
200.4917377542
  0
LINE
  5
500
330
1F
100
AcDbEntity
  8
0
  6
Continuous
 62
     7
370
    15
100
AcDbLine
 10
46.7782649438
 20
172.9323881849
 30
0.0
 11
46.5845938528
 21
172.820584244
 31
0.0
  0
LINE
  5
501
330
1F
100
AcDbEntity
  8
0
  6
Continuous
 62
     7
370
    15
100
AcDbLine
 10
45.4532228175
 20
173.4737108405
 30
0.0
 11
46.5845938528
 21
172.820584244
 31
0.0
  0
LINE
  5
502
330
1F
100
AcDbEntity
  8
0
  6
Continuous
 62
     7
370
    15
100
AcDbLine
 10
47.2209880846
 20
174.494220007
 30
0.0
 11
47.8927456296
 21
174.1064226308
 31
0.0
  0
LINE
  5
503
330
1F
100
AcDbEntity
  8
0
  6
Continuous
 62
     7
370
    15
100
AcDbLine
 10
47.9988060665
 20
174.3718116221
 30
0.0
 11
47.4331216025
 21
174.6983743121
 31
0.0
  0
LINE
  5
504
330
1F
100
AcDbEntity
  8
0
  6
Continuous
 62
     7
370
    15
100
AcDbLine
 10
47.9988060665
 20
174.1676498455
 30
0.0
 11
47.9988060665
 21
174.3718116221
 31
0.0
  0
LINE
  5
505
330
1F
100
AcDbEntity
  8
0
  6
Continuous
 62
     7
370
    15
100
AcDbLine
 10
47.7866746559
 20
174.9024770572
 30
0.0
 11
47.7866746559
 21
174.4942730488
 31
0.0
  0
LINE
  5
506
330
1F
100
AcDbEntity
  8
0
  6
Continuous
 62
     7
370
    15
100
AcDbLine
 10
54.2419428721
 20
168.913529375
 30
0.0
 11
53.917907364
 21
168.7264676579
 31
0.0
  0
LINE
  5
507
330
1F
100
AcDbEntity
  8
0
  6
Continuous
 62
     7
370
    15
100
AcDbLine
 10
53.917907364
 20
168.7264676579
 30
0.0
 11
52.8071334936
 21
168.0852315516
 31
0.0
  0
LINE
  5
508
330
1F
100
AcDbEntity
  8
0
  6
Continuous
 62
     7
370
    15
100
AcDbLine
 10
52.8071334936
 20
168.0852315516
 30
0.0
 11
46.5845938528
 21
171.6774272241
 31
0.0
  0
LINE
  5
509
330
1F
100
AcDbEntity
  8
0
  6
Continuous
 62
     7
370
    15
100
AcDbLine
 10
47.3749758103
 20
172.133705016
 30
0.0
 11
46.5845938528
 21
171.6774272241
 31
0.0
  0
LINE
  5
50A
330
1F
100
AcDbEntity
  8
0
  6
Continuous
 62
     7
370
    15
100
AcDbLine
 10
54.2920175428
 20
168.9424368671
 30
0.0
 11
54.2419428721
 21
168.913529375
 31
0.0
  0
LINE
  5
50B
330
1F
100
AcDbEntity
  8
0
  6
Continuous
 62
     7
370
    15
100
AcDbLine
 10
46.5845938528
 20
171.6774272241
 30
0.0
 11
46.5845938528
 21
172.820584244
 31
0.0
  0
LINE
  5
50C
330
1F
100
AcDbEntity
  8
0
  6
Continuous
 62
     7
370
    15
100
AcDbLine
 10
57.2972606437
 20
170.8408469862
 30
0.0
 11
58.0397237418
 21
171.2694618093
 31
0.0
  0
ARC
  5
50D
330
1F
100
AcDbEntity
  8
0
  6
Continuous
 62
     7
370
    15
100
AcDbCircle
 10
53.8442815244
 20
169.2281894216
 30
0.0
 40
0.5070951512500713
100
AcDbArc
 50
278.3483611511
 51
321.6462623162
  0
ARC
  5
50E
330
1F
100
AcDbEntity
  8
0
  6
Continuous
 62
     7
370
    15
100
AcDbCircle
 10
132.4272690997
 20
176.6447329056
 30
0.0
 40
0.1984057080007829
100
AcDbArc
 50
289.0738104766
 51
4.4625073609
  0
ARC
  5
50F
330
1F
100
AcDbEntity
  8
0
  6
Continuous
 62
     7
370
    15
100
AcDbCircle
 10
132.459913829
 20
176.5852257151
 30
0.0
 40
0.249799557839653
100
AcDbArc
 50
288.8496471386
 51
2.8426122643
  0
LINE
  5
510
330
1F
100
AcDbEntity
  8
0
  6
Continuous
 62
     7
370
    15
100
AcDbLine
 10
132.5406205318
 20
176.3488229926
 30
0.0
 11
132.2836596258
 21
176.29037708
 31
0.0
  0
LINE
  5
511
330
1F
100
AcDbEntity
  8
0
  6
Continuous
 62
     7
370
    15
100
AcDbLine
 10
132.2351454422
 20
176.3987731668
 30
0.0
 11
132.4921052945
 21
176.4572199919
 31
0.0
  0
ARC
  5
512
330
1F
100
AcDbEntity
  8
0
  6
Continuous
 62
     7
370
    15
100
AcDbCircle
 10
132.8793457957
 20
174.1492631439
 30
0.0
 40
2.222433553618345
100
AcDbArc
 50
105.5472694078
 51
119.9810611355
  0
ARC
  5
513
330
1F
100
AcDbEntity
  8
0
  6
Continuous
 62
     7
370
    15
100
AcDbCircle
 10
132.8308288218
 20
174.2576550447
 30
0.0
 40
2.222436838641149
100
AcDbArc
 50
105.5471711795
 51
119.9809605908
  0
LINE
  5
514
330
1F
100
AcDbEntity
  8
0
  6
Continuous
 62
     7
370
    15
100
AcDbLine
 10
131.7179741081
 20
175.9638137817
 30
0.0
 11
131.9749350141
 21
176.0222596943
 31
0.0
  0
LWPOLYLINE
  5
515
330
1F
100
AcDbEntity
  8
0
  6
Continuous
 62
     7
370
    15
100
AcDbPolyline
 90
        9
 70
   128
 43
0.0
 10
131.7687652753
 20
176.0743142621
 10
131.7180436504
 20
176.0434742665
 10
131.6781895905
 20
176.0158470881
 10
131.650733026
 20
175.9924953104
 10
131.6367307893
 20
175.9743160264
 10
131.6367202526
 20
175.962008603
 10
131.6507024696
 20
175.9560442738
 10
131.6781379606
 20
175.9566539806
 10
131.7179741081
 20
175.9638137817
  0
ARC
  5
516
330
1F
100
AcDbEntity
  8
0
  6
Continuous
 62
     7
370
    15
100
AcDbCircle
 10
131.8085723793
 20
175.9411657757
 30
0.0
 40
0.2571865290331516
100
AcDbArc
 50
110.0852207859
 51
149.399651964
  0
LINE
  5
517
330
1F
100
AcDbEntity
  8
0
  6
Continuous
 62
     7
370
    15
100
AcDbLine
 10
131.9749350141
 20
176.0222596943
 30
0.0
 11
132.0285110343
 21
176.0431230019
 31
0.0
  0
ARC
  5
518
330
1F
100
AcDbEntity
  8
0
  6
Continuous
 62
     7
370
    15
100
AcDbCircle
 10
137.0986026073
 20
174.6258967104
 30
0.0
 40
0.8549645212789454
100
AcDbArc
 50
184.7110602714
 51
216.9458967281
  0
ARC
  5
519
330
1F
100
AcDbEntity
  8
0
  6
Continuous
 62
     7
370
    15
100
AcDbCircle
 10
136.9972171002
 20
174.5663874838
 30
0.0
 40
0.6679099628865158
100
AcDbArc
 50
183.9081215738
 51
217.0038164253
  0
LINE
  5
51A
330
1F
100
AcDbEntity
  8
0
  6
Continuous
 62
     7
370
    15
100
AcDbLine
 10
136.7207881676
 20
173.8092667406
 30
0.0
 11
136.4638272616
 21
174.1643937044
 31
0.0
  0
LINE
  5
51B
330
1F
100
AcDbEntity
  8
0
  6
Continuous
 62
     7
370
    15
100
AcDbLine
 10
136.4153120243
 20
174.1120112058
 30
0.0
 11
136.6722729303
 21
173.7568845462
 31
0.0
  0
ARC
  5
51C
330
1F
100
AcDbEntity
  8
0
  6
Continuous
 62
     7
370
    15
100
AcDbCircle
 10
136.4326099258
 20
173.5373779249
 30
0.0
 40
0.3249946345920198
100
AcDbArc
 50
305.5319576323
 51
42.4864741327
  0
ARC
  5
51D
330
1F
100
AcDbEntity
  8
0
  6
Continuous
 62
     7
370
    15
100
AcDbCircle
 10
136.455534873
 20
173.6508893203
 30
0.0
 40
0.4128130383334156
100
AcDbArc
 50
212.2967908108
 51
293.7028286034
  0
LINE
  5
51E
330
1F
100
AcDbEntity
  8
0
  6
Continuous
 62
     7
370
    15
100
AcDbLine
 10
136.1065874127
 20
173.4303212479
 30
0.0
 11
135.8496265066
 21
173.7854479075
 31
0.0
  0
ARC
  5
51F
330
1F
100
AcDbEntity
  8
0
  6
Continuous
 62
     7
370
    15
100
AcDbCircle
 10
136.5329170897
 20
174.2993334121
 30
0.0
 40
0.8549645212794295
100
AcDbArc
 50
184.7110602714
 51
216.9458967281
  0
ARC
  5
520
330
1F
100
AcDbEntity
  8
0
  6
Continuous
 62
     7
370
    15
100
AcDbCircle
 10
136.4675538804
 20
173.5854105317
 30
0.0
 40
0.337992908931073
100
AcDbArc
 50
321.3227200016
 51
41.476313738
  0
ARC
  5
521
330
1F
100
AcDbEntity
  8
0
  6
Continuous
 62
     7
370
    15
100
AcDbCircle
 10
133.8549245545
 20
180.6764509132
 30
0.0
 40
0.1199482715755145
100
AcDbArc
 50
53.8670112885
 51
186.1283469787
  0
ARC
  5
522
330
1F
100
AcDbEntity
  8
0
  6
Continuous
 62
     7
370
    15
100
AcDbCircle
 10
133.013061769
 20
180.1863236918
 30
0.0
 40
0.1265488721446107
100
AcDbArc
 50
122.5476074857
 51
185.6789872412
  0
ARC
  5
523
330
1F
100
AcDbEntity
  8
0
  6
Continuous
 62
     7
370
    15
100
AcDbCircle
 10
113.4768075489
 20
187.5846012624
 30
0.0
 40
0.1984056022946125
100
AcDbArc
 50
289.0738617313
 51
4.4625995291
  0
ARC
  5
524
330
1F
100
AcDbEntity
  8
0
  6
Continuous
 62
     7
370
    15
100
AcDbCircle
 10
113.5094521821
 20
187.5250952035
 30
0.0
 40
0.2497998663428537
100
AcDbArc
 50
288.8494870249
 51
2.8423676809
  0
LINE
  5
525
330
1F
100
AcDbEntity
  8
0
  6
Continuous
 62
     7
370
    15
100
AcDbLine
 10
113.590158324
 20
187.2886919635
 30
0.0
 11
113.3331978131
 21
187.2302458228
 31
0.0
  0
LINE
  5
526
330
1F
100
AcDbEntity
  8
0
  6
Continuous
 62
     7
370
    15
100
AcDbLine
 10
113.2846834977
 20
187.3386419857
 30
0.0
 11
113.5416438769
 21
187.3970885066
 31
0.0
  0
ARC
  5
527
330
1F
100
AcDbEntity
  8
0
  6
Continuous
 62
     7
370
    15
100
AcDbCircle
 10
113.928886477
 20
185.0891218801
 30
0.0
 40
2.222443862574822
100
AcDbArc
 50
105.5472622048
 51
119.9809937985
  0
ARC
  5
528
330
1F
100
AcDbEntity
  8
0
  6
Continuous
 62
     7
370
    15
100
AcDbCircle
 10
113.8803561949
 20
185.1975547385
 30
0.0
 40
2.222404230133787
100
AcDbArc
 50
105.5471192014
 51
119.9811119554
  0
LINE
  5
529
330
1F
100
AcDbEntity
  8
0
  6
Continuous
 62
     7
370
    15
100
AcDbLine
 10
112.7675122954
 20
186.9036825245
 30
0.0
 11
113.0244728063
 21
186.9621286652
 31
0.0
  0
LWPOLYLINE
  5
52A
330
1F
100
AcDbEntity
  8
0
  6
Continuous
 62
     7
370
    15
100
AcDbPolyline
 90
        9
 70
   128
 43
0.0
 10
112.8183030674
 20
187.0141832331
 10
112.7675822328
 20
186.9833427813
 10
112.7277276461
 20
186.9557159069
 10
112.7002716084
 20
186.9323638251
 10
112.6862691083
 20
186.9141846932
 10
112.686258835
 20
186.9018771177
 10
112.7002402617
 20
186.8959132448
 10
112.7276760162
 20
186.8965227994
 10
112.7675122954
 20
186.9036825245
  0
ARC
  5
52B
330
1F
100
AcDbEntity
  8
0
  6
Continuous
 62
     7
370
    15
100
AcDbCircle
 10
112.8581094693
 20
186.8810339641
 30
0.0
 40
0.2571863230392846
100
AcDbArc
 50
110.0848835628
 51
149.3994222766
  0
LINE
  5
52C
330
1F
100
AcDbEntity
  8
0
  6
Continuous
 62
     7
370
    15
100
AcDbLine
 10
113.0244728063
 20
186.9621286652
 30
0.0
 11
113.0780496167
 21
186.9829915166
 31
0.0
  0
ARC
  5
52D
330
1F
100
AcDbEntity
  8
0
  6
Continuous
 62
     7
370
    15
100
AcDbCircle
 10
118.1481455459
 20
185.5657683165
 30
0.0
 40
0.8549697417652596
100
AcDbArc
 50
184.7112137489
 51
216.9459055856
  0
ARC
  5
52E
330
1F
100
AcDbEntity
  8
0
  6
Continuous
 62
     7
370
    15
100
AcDbCircle
 10
118.0493240969
 20
185.5075657316
 30
0.0
 40
0.6707497978462647
100
AcDbArc
 50
184.4985623913
 51
216.9610668781
  0
LINE
  5
52F
330
1F
100
AcDbEntity
  8
0
  6
Continuous
 62
     7
370
    15
100
AcDbLine
 10
117.7703256964
 20
184.7491358636
 30
0.0
 11
117.5133653172
 21
185.1042625233
 31
0.0
  0
LINE
  5
530
330
1F
100
AcDbEntity
  8
0
  6
Continuous
 62
     7
370
    15
100
AcDbLine
 10
117.4648508701
 20
185.0518795685
 30
0.0
 11
117.721811381
 21
184.6967531369
 31
0.0
  0
ARC
  5
531
330
1F
100
AcDbEntity
  8
0
  6
Continuous
 62
     7
370
    15
100
AcDbCircle
 10
117.4821468411
 20
184.4772463979
 30
0.0
 40
0.3249958463763079
100
AcDbArc
 50
305.5322232961
 51
42.4863066086
  0
ARC
  5
532
330
1F
100
AcDbEntity
  8
0
  6
Continuous
 62
     7
370
    15
100
AcDbCircle
 10
117.5050738174
 20
184.5907585618
 30
0.0
 40
0.4128138034236456
100
AcDbArc
 50
212.2968305443
 51
293.7027670317
  0
LINE
  5
533
330
1F
100
AcDbEntity
  8
0
  6
Continuous
 62
     7
370
    15
100
AcDbLine
 10
117.1561258634
 20
184.3701898387
 30
0.0
 11
116.8991653525
 21
184.7253162702
 31
0.0
  0
ARC
  5
534
330
1F
100
AcDbEntity
  8
0
  6
Continuous
 62
     7
370
    15
100
AcDbCircle
 10
117.5824600283
 20
185.2392050182
 30
0.0
 40
0.8549697417651034
100
AcDbArc
 50
184.7112137489
 51
216.9459055856
  0
ARC
  5
535
330
1F
100
AcDbEntity
  8
0
  6
Continuous
 62
     7
370
    15
100
AcDbCircle
 10
117.5170935087
 20
184.5252794724
 30
0.0
 40
0.3379914565756607
100
AcDbArc
 50
321.3225294788
 51
41.4765726207
  0
ARC
  5
536
330
1F
100
AcDbEntity
  8
0
  6
Continuous
 62
     7
370
    15
100
AcDbCircle
 10
114.9044631197
 20
191.6163185036
 30
0.0
 40
0.1199490770507912
100
AcDbArc
 50
53.8670483013
 51
186.1275876487
  0
ARC
  5
537
330
1F
100
AcDbEntity
  8
0
  6
Continuous
 62
     7
370
    15
100
AcDbCircle
 10
114.0676108381
 20
191.123760472
 30
0.0
 40
0.1313274453073089
100
AcDbArc
 50
123.8197681388
 51
184.4065641952
  0
ARC
  5
538
330
1F
100
AcDbEntity
  8
0
  6
Continuous
 62
     7
370
    15
100
AcDbCircle
 10
94.526348433
 20
198.5244674926
 30
0.0
 40
0.1984022314443023
100
AcDbArc
 50
289.0733340384
 51
4.463557491
  0
ARC
  5
539
330
1F
100
AcDbEntity
  8
0
  6
Continuous
 62
     7
370
    15
100
AcDbCircle
 10
94.558990467
 20
198.4649630487
 30
0.0
 40
0.2497995578397714
100
AcDbArc
 50
288.8496471386
 51
2.8426122643
  0
LINE
  5
53A
330
1F
100
AcDbEntity
  8
0
  6
Continuous
 62
     7
370
    15
100
AcDbLine
 10
94.6396971698
 20
198.2285603261
 30
0.0
 11
94.3827362638
 21
198.1701144135
 31
0.0
  0
LINE
  5
53B
330
1F
100
AcDbEntity
  8
0
  6
Continuous
 62
     7
370
    15
100
AcDbLine
 10
94.3342210265
 20
198.2785111087
 30
0.0
 11
94.5911819325
 21
198.3369573255
 31
0.0
  0
ARC
  5
53C
330
1F
100
AcDbEntity
  8
0
  6
Continuous
 62
     7
370
    15
100
AcDbCircle
 10
94.9784036523
 20
196.0290452349
 30
0.0
 40
2.22238539983253
100
AcDbArc
 50
105.5471122026
 51
119.9812183407
  0
ARC
  5
53D
330
1F
100
AcDbEntity
  8
0
  6
Continuous
 62
     7
370
    15
100
AcDbCircle
 10
94.9299139848
 20
196.1373809953
 30
0.0
 40
2.222450958538955
100
AcDbArc
 50
105.5473262271
 51
119.9810043162
  0
LINE
  5
53E
330
1F
100
AcDbEntity
  8
0
  6
Continuous
 62
     7
370
    15
100
AcDbLine
 10
93.8170507461
 20
197.8435511153
 30
0.0
 11
94.0740116521
 21
197.9019970279
 31
0.0
  0
LWPOLYLINE
  5
53F
330
1F
100
AcDbEntity
  8
0
  6
Continuous
 62
     7
370
    15
100
AcDbPolyline
 90
        9
 70
   128
 43
0.0
 10
93.8678419133
 20
197.9540515957
 10
93.8171213421
 20
197.9232109918
 10
93.7772662285
 20
197.8955844217
 10
93.7498107177
 20
197.8722320357
 10
93.7358074273
 20
197.85405336
 10
93.7357979442
 20
197.8417453283
 10
93.7497780539
 20
197.8357822157
 10
93.7772135449
 20
197.8363919224
 10
93.8170507461
 20
197.8435511153
  0
ARC
  5
540
330
1F
100
AcDbEntity
  8
0
  6
Continuous
 62
     7
370
    15
100
AcDbCircle
 10
93.9076493038
 20
197.8208999364
 30
0.0
 40
0.2571896074021813
100
AcDbArc
 50
110.0850379828
 51
149.3990788869
  0
LINE
  5
541
330
1F
100
AcDbEntity
  8
0
  6
Continuous
 62
     7
370
    15
100
AcDbLine
 10
94.0740116521
 20
197.9019970279
 30
0.0
 11
94.127588726
 21
197.9228597272
 31
0.0
  0
ARC
  5
542
330
1F
100
AcDbEntity
  8
0
  6
Continuous
 62
     7
370
    15
100
AcDbCircle
 10
99.1976792453
 20
196.505634044
 30
0.0
 40
0.8549645212787637
100
AcDbArc
 50
184.7110602713
 51
216.9458967281
  0
ARC
  5
543
330
1F
100
AcDbEntity
  8
0
  6
Continuous
 62
     7
370
    15
100
AcDbCircle
 10
99.0988592562
 20
196.4474329508
 30
0.0
 40
0.6707462836497087
100
AcDbArc
 50
184.4984750016
 51
216.9611542678
  0
LINE
  5
544
330
1F
100
AcDbEntity
  8
0
  6
Continuous
 62
     7
370
    15
100
AcDbLine
 10
98.819863752
 20
195.6890046825
 30
0.0
 11
98.5629038996
 21
196.044131038
 31
0.0
  0
LINE
  5
545
330
1F
100
AcDbEntity
  8
0
  6
Continuous
 62
     7
370
    15
100
AcDbLine
 10
98.5143886623
 20
195.9917485394
 30
0.0
 11
98.7713495683
 21
195.6366218798
 31
0.0
  0
ARC
  5
546
330
1F
100
AcDbEntity
  8
0
  6
Continuous
 62
     7
370
    15
100
AcDbCircle
 10
98.5316853297
 20
195.417115388
 30
0.0
 40
0.3249954571888136
100
AcDbArc
 50
305.5321214179
 51
42.486310347
  0
ARC
  5
547
330
1F
100
AcDbEntity
  8
0
  6
Continuous
 62
     7
370
    15
100
AcDbCircle
 10
98.5546114542
 20
195.5306264681
 30
0.0
 40
0.4128128910348591
100
AcDbArc
 50
212.2967732243
 51
293.7028461899
  0
LINE
  5
548
330
1F
100
AcDbEntity
  8
0
  6
Continuous
 62
     7
370
    15
100
AcDbLine
 10
98.2056640506
 20
195.3100585815
 30
0.0
 11
97.9487031446
 21
195.6651852411
 31
0.0
  0
ARC
  5
549
330
1F
100
AcDbEntity
  8
0
  6
Continuous
 62
     7
370
    15
100
AcDbCircle
 10
98.6319937276
 20
196.1790707457
 30
0.0
 40
0.854964521279172
100
AcDbArc
 50
184.7110602714
 51
216.9458967281
  0
ARC
  5
54A
330
1F
100
AcDbEntity
  8
0
  6
Continuous
 62
     7
370
    15
100
AcDbCircle
 10
98.566627055
 20
195.4651474804
 30
0.0
 40
0.3379953721849602
100
AcDbArc
 50
321.3231378436
 51
41.4761693353
  0
ARC
  5
54B
330
1F
100
AcDbEntity
  8
0
  6
Continuous
 62
     7
370
    15
100
AcDbCircle
 10
95.9540018742
 20
202.5561861335
 30
0.0
 40
0.119949706462122
100
AcDbArc
 50
53.8672916617
 51
186.1269659337
  0
ARC
  5
54C
330
1F
100
AcDbEntity
  8
0
  6
Continuous
 62
     7
370
    15
100
AcDbCircle
 10
95.1218799788
 20
202.0613336628
 30
0.0
 40
0.1358941145681372
100
AcDbArc
 50
124.938404089
 51
183.2881906379
  0
LINE
  5
54D
330
1F
100
AcDbEntity
  8
0
  6
Continuous
 62
     7
370
    15
100
AcDbLine
 10
98.9143232688
 20
140.4279581914
 30
0.0
 11
93.4415339163
 21
146.1152422938
 31
0.0
  0
ARC
  5
54E
330
1F
100
AcDbEntity
  8
0
  6
Continuous
 62
     7
370
    15
100
AcDbCircle
 10
93.6643365506
 20
146.3337818288
 30
0.0
 40
0.3120905993877351
100
AcDbArc
 50
182.8636605422
 51
224.4465745202
  0
LINE
  5
54F
330
1F
100
AcDbEntity
  8
0
  6
Continuous
 62
     7
370
    15
100
AcDbLine
 10
93.3526356761
 20
146.3181899388
 30
0.0
 11
93.3526356761
 21
146.8749017034
 31
0.0
  0
LINE
  5
550
330
1F
100
AcDbEntity
  8
0
  6
Continuous
 62
     7
370
    15
100
AcDbLine
 10
38.9926883526
 20
175.3429533483
 30
0.0
 11
43.7662635957
 21
174.7921654444
 31
0.0
  0
ARC
  5
551
330
1F
100
AcDbEntity
  8
0
  6
Continuous
 62
     7
370
    15
100
AcDbCircle
 10
43.777013126
 20
174.8670594805
 30
0.0
 40
0.0756615427292268
100
AcDbArc
 50
261.8321283828
 51
299.0319658825
  0
LINE
  5
552
330
1F
100
AcDbEntity
  8
0
  6
Continuous
 62
     8
370
     0
100
AcDbLine
 10
132.6357217345
 20
190.5452476831
 30
0.0
 11
75.0631308833
 21
157.3092984318
 31
0.0
  0
LINE
  5
553
330
1F
100
AcDbEntity
  8
0
  6
Continuous
 62
     8
370
     0
100
AcDbLine
 10
138.0172431402
 20
187.4385611194
 30
0.0
 11
78.1798534522
 21
152.8951713292
 31
0.0
  0
LINE
  5
554
330
1F
100
AcDbEntity
  8
0
  6
Continuous
 62
     8
370
     0
100
AcDbLine
 10
132.4868632802
 20
190.6311821275
 30
0.0
 11
75.0065761346
 21
157.4485186712
 31
0.0
  0
LINE
  5
555
330
1F
100
AcDbEntity
  8
0
  6
Continuous
 62
     8
370
     0
100
AcDbLine
 10
138.1834934915
 20
187.3425868345
 30
0.0
 11
78.3461038035
 21
152.7991970443
 31
0.0
  0
LINE
  5
556
330
1F
100
AcDbEntity
  8
0
  6
Continuous
 62
     8
370
     0
100
AcDbLine
 10
139.0354172235
 20
186.8507821162
 30
0.0
 11
81.4628263723
 21
153.6148328649
 31
0.0
  0
LINE
  5
557
330
1F
100
AcDbEntity
  8
0
  6
Continuous
 62
     8
370
     0
100
AcDbLine
 10
59.2293912443
 20
163.8350403002
 30
0.0
 11
119.0667809324
 21
198.3784300904
 31
0.0
  0
LINE
  5
558
330
1F
100
AcDbEntity
  8
0
  6
Continuous
 62
     8
370
     0
100
AcDbLine
 10
56.1126686754
 20
168.2491674027
 30
0.0
 11
113.6852595266
 21
201.485116654
 31
0.0
  0
LINE
  5
559
330
1F
100
AcDbEntity
  8
0
  6
Continuous
 62
     8
370
     0
100
AcDbLine
 10
56.0561139267
 20
168.3883876421
 30
0.0
 11
113.5364010724
 21
201.5710510984
 31
0.0
  0
LINE
  5
55A
330
1F
100
AcDbEntity
  8
0
  6
Continuous
 62
     8
370
     0
100
AcDbLine
 10
59.3956415956
 20
163.7390660152
 30
0.0
 11
119.2330312837
 21
198.2824558054
 31
0.0
  0
LINE
  5
55B
330
1F
100
AcDbEntity
  8
0
  6
Continuous
 62
     8
370
     0
100
AcDbLine
 10
62.5123641645
 20
164.5547018358
 30
0.0
 11
120.0849550157
 21
197.7906510871
 31
0.0
  0
LINE
  5
55C
330
1F
100
AcDbEntity
  8
0
  6
Continuous
 62
     8
370
     0
100
AcDbLine
 10
99.2640493884
 20
213.6975910028
 30
0.0
 11
165.7603714014
 21
175.3100814059
 31
0.0
  0
LINE
  5
55D
330
1F
100
AcDbEntity
  8
0
  6
Continuous
 62
     8
370
     0
100
AcDbLine
 10
165.7603714014
 20
174.9834909593
 30
0.0
 11
98.9812061027
 21
213.5342825095
 31
0.0
  0
LINE
  5
55E
330
1F
100
AcDbEntity
  8
0
  6
Continuous
 62
     8
370
     0
100
AcDbLine
 10
98.9812061027
 20
210.0073981584
 30
0.0
 11
159.6509665461
 21
174.9834909593
 31
0.0
  0
LINE
  5
55F
330
1F
100
AcDbEntity
  8
0
  6
Continuous
 62
     8
370
     0
100
AcDbLine
 10
165.7603714014
 20
182.2506781518
 30
0.0
 11
99.2640493884
 21
220.6381877487
 31
0.0
  0
LINE
  5
560
330
1F
100
AcDbEntity
  8
0
  6
Continuous
 62
     8
370
     0
100
AcDbLine
 10
32.2020408041
 20
175.3100814059
 30
0.0
 11
98.6983628171
 21
213.6975910028
 31
0.0
  0
LINE
  5
561
330
1F
100
AcDbEntity
  8
0
  6
Continuous
 62
     8
370
     0
100
AcDbLine
 10
98.9812061027
 20
213.5342825095
 30
0.0
 11
32.2020408041
 21
174.9834909593
 31
0.0
  0
LINE
  5
562
330
1F
100
AcDbEntity
  8
0
  6
Continuous
 62
     8
370
     0
100
AcDbLine
 10
38.3114456594
 20
174.9834909593
 30
0.0
 11
98.9812061027
 21
210.0073981584
 31
0.0
  0
LINE
  5
563
330
1F
100
AcDbEntity
  8
0
  6
Continuous
 62
     8
370
     0
100
AcDbLine
 10
98.6983628171
 20
220.6381877487
 30
0.0
 11
32.2020408041
 21
182.2506781518
 31
0.0
  0
LINE
  5
564
330
1F
100
AcDbEntity
  8
0
  6
Continuous
 62
     8
370
     0
100
AcDbLine
 10
32.2020408041
 20
174.9834909593
 30
0.0
 11
98.9812061027
 21
136.432699409
 31
0.0
  0
LINE
  5
565
330
1F
100
AcDbEntity
  8
0
  6
Continuous
 62
     8
370
     0
100
AcDbLine
 10
98.9812061027
 20
139.9595837601
 30
0.0
 11
38.3114456594
 21
174.9834909593
 31
0.0
  0
LWPOLYLINE
  5
566
330
1F
100
AcDbEntity
  8
0
  6
Continuous
 62
     8
370
     0
100
AcDbPolyline
 90
        3
 70
   128
 43
0.0
 10
38.4821635766
 20
175.0482316102
 10
98.9812061027
 20
140.1228777669
 10
159.4802486289
 20
175.0482316102
  0
LINE
  5
567
330
1F
100
AcDbEntity
  8
0
  6
Continuous
 62
     8
370
     0
100
AcDbLine
 10
98.9812061027
 20
136.432699409
 30
0.0
 11
165.7603714014
 21
174.9834909593
 31
0.0
  0
LINE
  5
568
330
1F
100
AcDbEntity
  8
0
  6
Continuous
 62
     8
370
     0
100
AcDbLine
 10
159.6509665461
 20
174.9834909593
 30
0.0
 11
98.9812061027
 21
139.9595837601
 31
0.0
  0
LINE
  5
569
330
1F
100
AcDbEntity
  8
0
  6
Continuous
 62
     8
370
     0
100
AcDbLine
 10
125.952386516
 20
194.4034559889
 30
0.0
 11
73.0529012504
 21
163.8652331695
 31
0.0
  0
LINE
  5
56A
330
1F
100
AcDbEntity
  8
0
  6
Continuous
 62
     8
370
     0
100
AcDbLine
 10
129.2050777158
 20
192.5257173281
 30
0.0
 11
76.2975002553
 21
161.9828229839
 31
0.0
  0
LINE
  5
56B
330
1F
100
AcDbEntity
  8
0
  6
Continuous
 62
     8
370
     0
100
AcDbLine
 10
107.0019241764
 20
205.3433250359
 30
0.0
 11
54.1024389109
 21
174.8051022164
 31
0.0
  0
LINE
  5
56C
330
1F
100
AcDbEntity
  8
0
  6
Continuous
 62
     8
370
     0
100
AcDbLine
 10
110.2546156396
 20
203.465586223
 30
0.0
 11
57.3470381792
 21
172.9226918788
 31
0.0
  0
LINE
  5
56D
330
1F
100
AcDbEntity
  8
0
  6
Continuous
 62
     8
370
     0
100
AcDbLine
 10
144.9028485921
 20
183.463587094
 30
0.0
 11
92.0033633266
 21
152.9253642746
 31
0.0
  0
LINE
  5
56E
330
1F
100
AcDbEntity
  8
0
  6
Continuous
 62
     8
370
     0
100
AcDbLine
 10
148.1555400553
 20
181.5858482811
 30
0.0
 11
95.2479625948
 21
151.042953937
 31
0.0
  0
LWPOLYLINE
  5
56F
330
1F
100
AcDbEntity
  8
0
  6
Continuous
 62
     8
370
     0
100
AcDbPolyline
 90
       15
 70
   128
 43
0.0
 10
92.085434831
 20
152.3632671727
 10
91.7739928013
 20
152.5745237421
 10
91.4720148464
 20
152.8422890676
 10
91.1886742279
 20
153.1584297949
 10
90.932581547
 20
153.5133390436
 10
90.7115181655
 20
153.896232355
 10
90.5322001838
 20
154.2954767981
 10
90.4000761358
 20
154.6989413715
 10
90.3191605087
 20
155.0943665736
 10
90.2919136248
 20
155.4697373214
 10
90.3191605087
 20
155.8136494867
 10
90.4000761358
 20
156.1156517984
 10
90.5322001838
 20
156.366569193
 10
90.7115181655
 20
156.5587773492
 10
90.8074022459
 20
156.6252062399
  0
LWPOLYLINE
  5
570
330
1F
100
AcDbEntity
  8
0
  6
Continuous
 62
     8
370
     0
100
AcDbPolyline
 90
       19
 70
   128
 43
0.0
 10
91.9726856892
 20
156.5543941399
 10
91.9082536945
 20
156.5799544002
 10
91.6253229542
 20
156.6557428082
 10
91.3598536531
 20
156.6660469617
 10
91.1199148056
 20
156.6105520256
 10
90.9127946553
 20
156.4909452384
 10
90.7447867804
 20
156.3108609867
 10
90.6209972716
 20
156.075769911
 10
90.5451856279
 20
155.7928164569
 10
90.5196572817
 20
155.4705968089
 10
90.5451856279
 20
155.1189027599
 10
90.6209972716
 20
154.748419045
 10
90.7447867804
 20
154.370403949
 10
90.9127946553
 20
153.9963419338
 10
91.1199148056
 20
153.6375993113
 10
91.3598536531
 20
153.3050768785
 10
91.6253229542
 20
153.0088762448
 10
91.9082536945
 20
152.7579999254
 10
92.2000510782
 20
152.5600690811
  0
ARC
  5
571
330
1F
100
AcDbEntity
  8
0
  6
Continuous
 62
     8
370
     0
100
AcDbCircle
 10
91.9549121045
 20
152.5710596837
 30
0.0
 40
0.2453852272281615
100
AcDbArc
 50
302.1345611152
 51
357.4329103612
  0
LINE
  5
572
330
1F
100
AcDbEntity
  8
0
  6
Continuous
 62
     8
370
     0
100
AcDbLine
 10
92.085434831
 20
152.3632671727
 30
0.0
 11
90.1609591518
 21
151.2813826709
 31
0.0
  0
LWPOLYLINE
  5
573
330
1F
100
AcDbEntity
  8
0
  6
Continuous
 62
     8
370
     0
100
AcDbPolyline
 90
       10
 70
   128
 43
0.0
 10
95.3678893449
 20
150.7313149758
 10
95.6596867286
 20
150.5923437321
 10
95.9426185226
 20
150.5165545637
 10
96.20808677
 20
150.5062514748
 10
96.4480266712
 20
150.5617458026
 10
96.6551468215
 20
150.6813525898
 10
96.8231525891
 20
150.8614380581
 10
96.9469442052
 20
151.096527613
 10
97.0227537416
 20
151.3794822837
 10
97.0327931209
 20
151.4477785728
  0
LINE
  5
574
330
1F
100
AcDbEntity
  8
0
  6
Continuous
 62
     8
370
     0
100
AcDbLine
 10
92.2000510782
 20
152.5600690811
 30
0.0
 11
95.3678893449
 21
150.7313149758
 31
0.0
  0
ARC
  5
575
330
1F
100
AcDbEntity
  8
0
  6
Continuous
 62
     8
370
     0
100
AcDbCircle
 10
95.1227503713
 20
150.7423055784
 30
0.0
 40
0.2453852272280751
100
AcDbArc
 50
302.1345611152
 51
357.4329103612
  0
LINE
  5
576
330
1F
100
AcDbEntity
  8
0
  6
Continuous
 62
     8
370
     0
100
AcDbLine
 10
95.2532730978
 20
150.5345130674
 30
0.0
 11
92.085434831
 21
152.3632671727
 31
0.0
  0
LINE
  5
577
330
1F
100
AcDbEntity
  8
0
  6
Continuous
 62
     8
370
     0
100
AcDbLine
 10
88.911280859
 20
149.8100231801
 30
0.0
 11
91.2416496555
 21
148.4647299093
 31
0.0
  0
LINE
  5
578
330
1F
100
AcDbEntity
  8
0
  6
Continuous
 62
     8
370
     0
100
AcDbLine
 10
90.6601622306
 20
150.7862824002
 30
0.0
 11
88.911280859
 21
149.8100231801
 31
0.0
  0
LINE
  5
579
330
1F
100
AcDbEntity
  8
0
  6
Continuous
 62
     8
370
     0
100
AcDbLine
 10
90.4443745809
 20
150.9108539588
 30
0.0
 11
90.6601622306
 21
150.7862824002
 31
0.0
  0
LINE
  5
57A
330
1F
100
AcDbEntity
  8
0
  6
Continuous
 62
     8
370
     0
100
AcDbLine
 10
95.2532730978
 20
150.5345130674
 30
0.0
 11
93.3355999199
 21
149.4564527515
 31
0.0
  0
LINE
  5
57B
330
1F
100
AcDbEntity
  8
0
  6
Continuous
 62
     8
370
     0
100
AcDbLine
 10
95.2682773758
 20
151.0312281265
 30
0.0
 11
95.41031647
 21
150.9492016133
 31
0.0
  0
LINE
  5
57C
330
1F
100
AcDbEntity
  8
0
  6
Continuous
 62
     8
370
     0
100
AcDbLine
 10
87.1077424005
 20
153.8425710422
 30
0.0
 11
86.8969997286
 21
153.4754215593
 31
0.0
  0
ARC
  5
57D
330
1F
100
AcDbEntity
  8
0
  6
Continuous
 62
     8
370
     0
100
AcDbCircle
 10
107.2589874289
 20
189.0632812893
 30
0.0
 40
41.00129636082426
100
AcDbArc
 50
240.0284631584
 51
240.223490704
  0
LINE
  5
57E
330
1F
100
AcDbEntity
  8
0
  6
Continuous
 62
     8
370
     0
100
AcDbLine
 10
86.7759813752
 20
153.5449372081
 30
0.0
 11
86.8670744125
 21
153.7036368868
 31
0.0
  0
LINE
  5
57F
330
1F
100
AcDbEntity
  8
0
  6
Continuous
 62
     8
370
     0
100
AcDbLine
 10
87.5423122335
 20
153.6216444213
 30
0.0
 11
87.1336785175
 21
153.8575436443
 31
0.0
  0
LINE
  5
580
330
1F
100
AcDbEntity
  8
0
  6
Continuous
 62
     8
370
     0
100
AcDbLine
 10
86.8976129653
 20
153.3124819284
 30
0.0
 11
87.2506750079
 21
153.1086635496
 31
0.0
  0
ELLIPSE
  5
581
330
1F
100
AcDbEntity
  8
0
  6
Continuous
 62
     8
370
     0
100
AcDbEllipse
 10
86.9677117753
 20
153.4346023308
 30
0.0
 11
0.06994611198776113
 21
0.1222076158880725
 31
0.0
210
0.0
220
0.0
230
1.0
 40
0.5798484545
 41
1.568665391431123
 42
3.139442679758142
  0
LINE
  5
582
330
1F
100
AcDbEntity
  8
0
  6
Continuous
 62
     8
370
     0
100
AcDbLine
 10
86.0033348115
 20
153.0988978683
 30
0.0
 11
86.7759813752
 21
153.5449372081
 31
0.0
  0
LINE
  5
583
330
1F
100
AcDbEntity
  8
0
  6
Continuous
 62
     8
370
     0
100
AcDbLine
 10
86.0033348115
 20
153.2050101225
 30
0.0
 11
86.0033348115
 21
153.0988978683
 31
0.0
  0
ELLIPSE
  5
584
330
1F
100
AcDbEntity
  8
0
  6
Continuous
 62
     8
370
     0
100
AcDbEllipse
 10
86.9177117753
 20
153.4634760997
 30
0.0
 11
0.02617242835299294
 21
0.2188245673048641
 31
0.0
210
0.0
220
0.0
230
1.0
 40
0.7132437612
 41
1.275902141189723
 42
2.846679429516615
  0
ARC
  5
585
330
1F
100
AcDbEntity
  8
0
  6
Continuous
 62
     8
370
     0
100
AcDbCircle
 10
86.7714981607
 20
153.3819135322
 30
0.0
 40
0.1439642022393415
100
AcDbArc
 50
301.7735217721
 51
331.1653323198
  0
LINE
  5
586
330
1F
100
AcDbEntity
  8
0
  6
Continuous
 62
     8
370
     0
100
AcDbLine
 10
86.8473043795
 20
153.2595243631
 30
0.0
 11
86.144754347
 21
152.85395144
 31
0.0
  0
ARC
  5
587
330
1F
100
AcDbEntity
  8
0
  6
Continuous
 62
     8
370
     0
100
AcDbCircle
 10
86.3081195018
 20
153.1115675384
 30
0.0
 40
0.3050479109657155
100
AcDbArc
 50
182.3803719578
 51
237.6195049481
  0
ELLIPSE
  5
588
330
1F
100
AcDbEntity
  8
0
  6
Continuous
 62
     8
370
     0
100
AcDbEllipse
 10
90.6605318585
 20
150.8191546248
 30
0.0
 11
0.08474198473723504
 21
-0.01946160637052685
 31
0.0
210
0.0
220
0.0
230
1.0
 40
0.3706342134
 41
4.182107120141794
 42
4.792949937343269
  0
LINE
  5
589
330
1F
100
AcDbEntity
  8
0
  6
Continuous
 62
     8
370
     0
100
AcDbLine
 10
87.1796533535
 20
153.0676633843
 30
0.0
 11
86.8473043795
 21
153.2595243631
 31
0.0
  0
LINE
  5
58A
330
1F
100
AcDbEntity
  8
0
  6
Continuous
 62
     8
370
     0
100
AcDbLine
 10
86.1453707447
 20
152.691736206
 30
0.0
 11
86.3369144734
 21
152.5811603651
 31
0.0
  0
ELLIPSE
  5
58B
330
1F
100
AcDbEntity
  8
0
  6
Continuous
 62
     8
370
     0
100
AcDbEllipse
 10
86.2867908658
 20
152.7726640616
 30
0.0
 11
0.1999995324225665
 21
-0.0007524328604233689
 31
0.0
210
0.0
220
0.0
230
1.0
 40
0.5747629462
 41
2.362720167645748
 42
3.929153171310806
  0
ELLIPSE
  5
58C
330
1F
100
AcDbEntity
  8
0
  6
Continuous
 62
     8
370
     0
100
AcDbEllipse
 10
90.5783732563
 20
150.8936225771
 30
0.0
 11
-0.08361960687385306
 21
0.1100526378075699
 31
0.0
210
0.0
220
0.0
230
1.0
 40
0.4666874631
 41
1.51791974979327
 42
2.464783289998094
  0
LINE
  5
58D
330
1F
100
AcDbEntity
  8
0
  6
Continuous
 62
     8
370
     0
100
AcDbLine
 10
88.8951807629
 20
149.8253659621
 30
0.0
 11
90.6113941122
 21
150.7833880678
 31
0.0
  0
ARC
  5
58E
330
1F
100
AcDbEntity
  8
0
  6
Continuous
 62
     8
370
     0
100
AcDbCircle
 10
90.5863271838
 20
150.7927198954
 30
0.0
 40
0.0267475962585773
100
AcDbArc
 50
339.5808853334
 51
20.0800106381
  0
ELLIPSE
  5
58F
330
1F
100
AcDbEntity
  8
0
  6
Continuous
 62
     8
370
     0
100
AcDbEllipse
 10
90.6605318585
 20
150.8191546248
 30
0.0
 11
0.08487986090715083
 21
0.0180910394015541
 31
0.0
210
0.0
220
0.0
230
1.0
 40
0.3708489864
 41
4.01832025268461
 42
4.629163069885255
  0
ARC
  5
590
330
1F
100
AcDbEntity
  8
0
  6
Continuous
 62
     8
370
     0
100
AcDbCircle
 10
88.9392444093
 20
149.8554857876
 30
0.0
 40
0.0533742336979611
100
AcDbArc
 50
214.3546654393
 51
238.4047840648
  0
ELLIPSE
  5
591
330
1F
100
AcDbEntity
  8
0
  6
Continuous
 62
     8
370
     0
100
AcDbEllipse
 10
86.2874079309
 20
152.9363268935
 30
0.0
 11
0.3999997641598583
 21
-0.0007540691840404179
 31
0.0
210
0.0
220
0.0
230
1.0
 40
0.5760266851
 41
2.361643723466876
 42
3.12764026877816
  0
ARC
  5
592
330
1F
100
AcDbEntity
  8
0
  6
Continuous
 62
     8
370
     0
100
AcDbCircle
 10
86.0873720089
 20
152.7734525932
 30
0.0
 40
0.1002068924288242
100
AcDbArc
 50
245.6183550948
 51
305.3654745338
  0
ARC
  5
593
330
1F
100
AcDbEntity
  8
0
  6
Continuous
 62
     8
370
     0
100
AcDbCircle
 10
95.9954596004
 20
151.5681141859
 30
0.0
 40
1.272466925628958
100
AcDbArc
 50
234.3194255114
 51
294.6021215426
  0
LWPOLYLINE
  5
594
330
1F
100
AcDbEntity
  8
0
  6
Continuous
 62
     8
370
     0
100
AcDbPolyline
 90
       15
 70
   128
 43
0.0
 10
73.13497315
 20
163.3031358395
 10
72.8235313837
 20
163.5143922568
 10
72.5215526385
 20
163.7821580386
 10
72.2382122835
 20
164.0982986138
 10
71.9821196025
 20
164.4532078625
 10
71.7610559577
 20
164.836101326
 10
71.581737976
 20
165.235345769
 10
71.4496141914
 20
165.6388101904
 10
71.3686993545
 20
166.0342349362
 10
71.3414516804
 20
166.4096061403
 10
71.3686993545
 20
166.7535178493
 10
71.4496141914
 20
167.0555206173
 10
71.581737976
 20
167.306438164
 10
71.7610559577
 20
167.4986463202
 10
71.8569408283
 20
167.5650747546
  0
LWPOLYLINE
  5
595
330
1F
100
AcDbEntity
  8
0
  6
Continuous
 62
     8
370
     0
100
AcDbPolyline
 90
       19
 70
   128
 43
0.0
 10
73.022224535
 20
167.4942625026
 10
72.9577920135
 20
167.519823067
 10
72.6748607463
 20
167.5956117792
 10
72.4093922355
 20
167.6059154764
 10
72.1694528611
 20
167.5504208445
 10
71.9623327108
 20
167.4308140573
 10
71.7943253628
 20
167.2507295014
 10
71.6705353272
 20
167.0156387299
 10
71.5947242103
 20
166.7326849716
 10
71.5691953373
 20
166.4104656278
 10
71.5947242103
 20
166.0587712746
 10
71.6705353272
 20
165.6882878639
 10
71.7943253628
 20
165.3102724637
 10
71.9623327108
 20
164.9362107527
 10
72.1694528611
 20
164.5774681301
 10
72.4093922355
 20
164.2449453932
 10
72.6748607463
 20
163.9487452157
 10
72.9577920135
 20
163.6978685922
 10
73.2495893972
 20
163.4999377479
  0
ARC
  5
596
330
1F
100
AcDbEntity
  8
0
  6
Continuous
 62
     8
370
     0
100
AcDbCircle
 10
73.0044504235
 20
163.5109283505
 30
0.0
 40
0.2453852272281714
100
AcDbArc
 50
302.1345611152
 51
357.4329103612
  0
LINE
  5
597
330
1F
100
AcDbEntity
  8
0
  6
Continuous
 62
     8
370
     0
100
AcDbLine
 10
73.13497315
 20
163.3031358395
 30
0.0
 11
71.2104974708
 21
162.2212513377
 31
0.0
  0
LWPOLYLINE
  5
598
330
1F
100
AcDbEntity
  8
0
  6
Continuous
 62
     8
370
     0
100
AcDbPolyline
 90
       10
 70
   128
 43
0.0
 10
76.4174276639
 20
161.6711836426
 10
76.7092250476
 20
161.5322123989
 10
76.9921563148
 20
161.4564235346
 10
77.2576248256
 20
161.4461202937
 10
77.4975642
 20
161.5016149256
 10
77.7046843503
 20
161.6212217127
 10
77.8726916983
 20
161.8013062687
 10
77.9964817339
 20
162.036396736
 10
78.0722928508
 20
162.3193504942
 10
78.0823319667
 20
162.3876469355
  0
LINE
  5
599
330
1F
100
AcDbEntity
  8
0
  6
Continuous
 62
     8
370
     0
100
AcDbLine
 10
73.2495893972
 20
163.4999377479
 30
0.0
 11
76.4174276639
 21
161.6711836426
 31
0.0
  0
ARC
  5
59A
330
1F
100
AcDbEntity
  8
0
  6
Continuous
 62
     8
370
     0
100
AcDbCircle
 10
76.1722886903
 20
161.6821742452
 30
0.0
 40
0.2453852272281486
100
AcDbArc
 50
302.1345611152
 51
357.4329103612
  0
LINE
  5
59B
330
1F
100
AcDbEntity
  8
0
  6
Continuous
 62
     8
370
     0
100
AcDbLine
 10
76.3028114168
 20
161.4743817342
 30
0.0
 11
73.13497315
 21
163.3031358395
 31
0.0
  0
LINE
  5
59C
330
1F
100
AcDbEntity
  8
0
  6
Continuous
 62
     8
370
     0
100
AcDbLine
 10
69.9608181243
 20
160.7498924551
 30
0.0
 11
72.2911870525
 21
159.4045991083
 31
0.0
  0
LINE
  5
59D
330
1F
100
AcDbEntity
  8
0
  6
Continuous
 62
     8
370
     0
100
AcDbLine
 10
71.7097006813
 20
161.7261509909
 30
0.0
 11
69.9608181243
 21
160.7498924551
 31
0.0
  0
LINE
  5
59E
330
1F
100
AcDbEntity
  8
0
  6
Continuous
 62
     8
370
     0
100
AcDbLine
 10
71.4939125048
 20
161.8507228537
 30
0.0
 11
71.7097006813
 21
161.7261509909
 31
0.0
  0
LINE
  5
59F
330
1F
100
AcDbEntity
  8
0
  6
Continuous
 62
     8
370
     0
100
AcDbLine
 10
76.3028114168
 20
161.4743817342
 30
0.0
 11
74.3851382389
 21
160.3963214182
 31
0.0
  0
LINE
  5
5A0
330
1F
100
AcDbEntity
  8
0
  6
Continuous
 62
     8
370
     0
100
AcDbLine
 10
76.3178150363
 20
161.9710971734
 30
0.0
 11
76.4598541304
 21
161.8890706603
 31
0.0
  0
LINE
  5
5A1
330
1F
100
AcDbEntity
  8
0
  6
Continuous
 62
     8
370
     0
100
AcDbLine
 10
68.1572804561
 20
164.7824398611
 30
0.0
 11
67.946538311
 21
164.415290074
 31
0.0
  0
ARC
  5
5A2
330
1F
100
AcDbEntity
  8
0
  6
Continuous
 62
     8
370
     0
100
AcDbCircle
 10
88.3085905661
 20
200.0032621054
 30
0.0
 40
41.00142589404567
100
AcDbArc
 50
240.0284629853
 51
240.2234903398
  0
LINE
  5
5A3
330
1F
100
AcDbEntity
  8
0
  6
Continuous
 62
     8
370
     0
100
AcDbLine
 10
67.8255196941
 20
164.4848058749
 30
0.0
 11
67.9166129949
 21
164.6435054015
 31
0.0
  0
LINE
  5
5A4
330
1F
100
AcDbEntity
  8
0
  6
Continuous
 62
     8
370
     0
100
AcDbLine
 10
68.5918505525
 20
164.561513088
 30
0.0
 11
68.183216573
 21
164.7974124631
 31
0.0
  0
LINE
  5
5A5
330
1F
100
AcDbEntity
  8
0
  6
Continuous
 62
     8
370
     0
100
AcDbLine
 10
67.9471512843
 20
164.2523505952
 30
0.0
 11
68.3002135903
 21
164.0485320643
 31
0.0
  0
ELLIPSE
  5
5A6
330
1F
100
AcDbEntity
  8
0
  6
Continuous
 62
     8
370
     0
100
AcDbEllipse
 10
68.0172500395
 20
164.3744710292
 30
0.0
 11
0.06994611198776113
 21
0.1222076158881009
 31
0.0
210
0.0
220
0.0
230
1.0
 40
0.5798484545
 41
1.568665391431066
 42
3.139442679758097
  0
LINE
  5
5A7
330
1F
100
AcDbEntity
  8
0
  6
Continuous
 62
     8
370
     0
100
AcDbLine
 10
67.0528728671
 20
164.0387666871
 30
0.0
 11
67.8255196941
 21
164.4848058749
 31
0.0
  0
LINE
  5
5A8
330
1F
100
AcDbEntity
  8
0
  6
Continuous
 62
     8
370
     0
100
AcDbLine
 10
67.0528728671
 20
164.1448789413
 30
0.0
 11
67.0528728671
 21
164.0387666871
 31
0.0
  0
ELLIPSE
  5
5A9
330
1F
100
AcDbEntity
  8
0
  6
Continuous
 62
     8
370
     0
100
AcDbEllipse
 10
67.9672500395
 20
164.4033447981
 30
0.0
 11
0.02617242835299294
 21
0.2188245673048641
 31
0.0
210
0.0
220
0.0
230
1.0
 40
0.7132437612
 41
1.27590214118949
 42
2.846679429516698
  0
ARC
  5
5AA
330
1F
100
AcDbEntity
  8
0
  6
Continuous
 62
     8
370
     0
100
AcDbCircle
 10
67.8210364797
 20
164.321782199
 30
0.0
 40
0.1439642022392008
100
AcDbArc
 50
301.7735217721
 51
331.1653323198
  0
LINE
  5
5AB
330
1F
100
AcDbEntity
  8
0
  6
Continuous
 62
     8
370
     0
100
AcDbLine
 10
67.8968426985
 20
164.1993930299
 30
0.0
 11
67.1942929294
 21
163.7938199547
 31
0.0
  0
ARC
  5
5AC
330
1F
100
AcDbEntity
  8
0
  6
Continuous
 62
     8
370
     0
100
AcDbCircle
 10
67.3576587217
 20
164.051437061
 30
0.0
 40
0.3050491034389052
100
AcDbArc
 50
182.3804949304
 51
237.6195052153
  0
ELLIPSE
  5
5AD
330
1F
100
AcDbEntity
  8
0
  6
Continuous
 62
     8
370
     0
100
AcDbEllipse
 10
71.7100701227
 20
161.7590233232
 30
0.0
 11
0.08474198473723504
 21
-0.0194616063705837
 31
0.0
210
0.0
220
0.0
230
1.0
 40
0.3706342134
 41
4.182107120144219
 42
4.792949937343373
  0
LINE
  5
5AE
330
1F
100
AcDbEntity
  8
0
  6
Continuous
 62
     8
370
     0
100
AcDbLine
 10
68.2291916725
 20
164.0075320511
 30
0.0
 11
67.8968426985
 21
164.1993930299
 31
0.0
  0
LINE
  5
5AF
330
1F
100
AcDbEntity
  8
0
  6
Continuous
 62
     8
370
     0
100
AcDbLine
 10
67.1949085368
 20
163.6316051769
 30
0.0
 11
67.386452529
 21
163.5210291839
 31
0.0
  0
ELLIPSE
  5
5B0
330
1F
100
AcDbEntity
  8
0
  6
Continuous
 62
     8
370
     0
100
AcDbEllipse
 10
67.33632913
 20
163.71253276
 30
0.0
 11
0.1999995324225523
 21
-0.0007524328603949471
 31
0.0
210
0.0
220
0.0
230
1.0
 40
0.5747629462
 41
2.362720167645719
 42
3.929153171310557
  0
ELLIPSE
  5
5B1
330
1F
100
AcDbEntity
  8
0
  6
Continuous
 62
     8
370
     0
100
AcDbEllipse
 10
71.6279115205
 20
161.8334912755
 30
0.0
 11
-0.08361960687386727
 21
0.1100526378075415
 31
0.0
210
0.0
220
0.0
230
1.0
 40
0.4666874631
 41
1.517919749793124
 42
2.464783289997575
  0
LINE
  5
5B2
330
1F
100
AcDbEntity
  8
0
  6
Continuous
 62
     8
370
     0
100
AcDbLine
 10
69.9447198721
 20
160.7652341726
 30
0.0
 11
71.6609328263
 21
161.7232565065
 31
0.0
  0
ARC
  5
5B3
330
1F
100
AcDbEntity
  8
0
  6
Continuous
 62
     8
370
     0
100
AcDbCircle
 10
71.6358668785
 20
161.7325880492
 30
0.0
 40
0.0267465778754921
100
AcDbArc
 50
339.5807243479
 51
20.0818046935
  0
ELLIPSE
  5
5B4
330
1F
100
AcDbEntity
  8
0
  6
Continuous
 62
     8
370
     0
100
AcDbEllipse
 10
71.7100701227
 20
161.7590233232
 30
0.0
 11
0.08487986090716504
 21
0.01809103940152568
 31
0.0
210
0.0
220
0.0
230
1.0
 40
0.3708489864
 41
4.018320252685198
 42
4.629163069885336
  0
ARC
  5
5B5
330
1F
100
AcDbEntity
  8
0
  6
Continuous
 62
     8
370
     0
100
AcDbCircle
 10
69.9887790363
 20
160.7953490882
 30
0.0
 40
0.0533677625888487
100
AcDbArc
 50
214.3530291756
 51
238.4038362253
  0
ELLIPSE
  5
5B6
330
1F
100
AcDbEntity
  8
0
  6
Continuous
 62
     8
370
     0
100
AcDbEllipse
 10
67.3369461951
 20
163.8761955919
 30
0.0
 11
0.3999997641598441
 21
-0.0007540691840688396
 31
0.0
210
0.0
220
0.0
230
1.0
 40
0.5760266851
 41
2.361643723466914
 42
3.127640268778284
  0
ARC
  5
5B7
330
1F
100
AcDbEntity
  8
0
  6
Continuous
 62
     8
370
     0
100
AcDbCircle
 10
67.1369098011
 20
163.7133215642
 30
0.0
 40
0.100206892428867
100
AcDbArc
 50
245.6183550948
 51
305.3654745338
  0
ARC
  5
5B8
330
1F
100
AcDbEntity
  8
0
  6
Continuous
 62
     8
370
     0
100
AcDbCircle
 10
77.0449973314
 20
162.5079793479
 30
0.0
 40
1.272463735803012
100
AcDbArc
 50
234.3193549677
 51
294.6022033787
  0
LWPOLYLINE
  5
5B9
330
1F
100
AcDbEntity
  8
0
  6
Continuous
 62
     8
370
     0
100
AcDbPolyline
 90
       15
 70
   128
 43
0.0
 10
54.184511469
 20
174.2430045063
 10
53.8730694393
 20
174.4542610757
 10
53.5710914844
 20
174.7220264012
 10
53.2877508659
 20
175.0381671285
 10
53.031658185
 20
175.3930763772
 10
52.8105937498
 20
175.7759702969
 10
52.6312757682
 20
176.1752147399
 10
52.4991517201
 20
176.5786793134
 10
52.4182382003
 20
176.9741032989
 10
52.3909902628
 20
177.349474655
 10
52.4182382003
 20
177.693386212
 10
52.4991517201
 20
177.9953897403
 10
52.6312757682
 20
178.2463071349
 10
52.8105937498
 20
178.4385152911
 10
52.9064799375
 20
178.5049429652
  0
LWPOLYLINE
  5
5BA
330
1F
100
AcDbEntity
  8
0
  6
Continuous
 62
     8
370
     0
100
AcDbPolyline
 90
       19
 70
   128
 43
0.0
 10
54.0717623272
 20
178.4341314735
 10
54.0073303325
 20
178.4596917338
 10
53.7243985385
 20
178.5354807501
 10
53.4589302911
 20
178.5457842953
 10
53.2189903899
 20
178.4902899675
 10
53.0118702396
 20
178.3706831803
 10
52.843864472
 20
178.190597712
 10
52.7200728559
 20
177.9555078529
 10
52.6442633195
 20
177.6725531822
 10
52.618732866
 20
177.3503347508
 10
52.6442633195
 20
176.9986394852
 10
52.7200728559
 20
176.6281569869
 10
52.843864472
 20
176.2501406743
 10
53.0118702396
 20
175.8760798757
 10
53.2189903899
 20
175.5173372531
 10
53.4589302911
 20
175.1848142121
 10
53.7243985385
 20
174.8886141867
 10
54.0073303325
 20
174.6377372589
 10
54.2991277162
 20
174.4398064147
  0
ARC
  5
5BB
330
1F
100
AcDbEntity
  8
0
  6
Continuous
 62
     8
370
     0
100
AcDbCircle
 10
54.0539887425
 20
174.4507970173
 30
0.0
 40
0.2453852272282718
100
AcDbArc
 50
302.1345611152
 51
357.4329103612
  0
LINE
  5
5BC
330
1F
100
AcDbEntity
  8
0
  6
Continuous
 62
     8
370
     0
100
AcDbLine
 10
54.184511469
 20
174.2430045063
 30
0.0
 11
52.2600357898
 21
173.1611200045
 31
0.0
  0
LWPOLYLINE
  5
5BD
330
1F
100
AcDbEntity
  8
0
  6
Continuous
 62
     8
370
     0
100
AcDbPolyline
 90
       10
 70
   128
 43
0.0
 10
57.4669659829
 20
172.6110523094
 10
57.7587633666
 20
172.4720810657
 10
58.0416941069
 20
172.3962925056
 10
58.307163408
 20
172.3859888084
 10
58.5471022555
 20
172.4414837445
 10
58.7542224058
 20
172.5610905316
 10
58.9222302807
 20
172.7411747834
 10
59.0460197895
 20
172.9762655548
 10
59.1218314332
 20
173.259219009
 10
59.1318697589
 20
173.3275159064
  0
LINE
  5
5BE
330
1F
100
AcDbEntity
  8
0
  6
Continuous
 62
     8
370
     0
100
AcDbLine
 10
54.2991277162
 20
174.4398064147
 30
0.0
 11
57.4669659829
 21
172.6110523094
 31
0.0
  0
ARC
  5
5BF
330
1F
100
AcDbEntity
  8
0
  6
Continuous
 62
     8
370
     0
100
AcDbCircle
 10
57.2218270093
 20
172.622042912
 30
0.0
 40
0.2453852272281357
100
AcDbArc
 50
302.1345611152
 51
357.4329103612
  0
LINE
  5
5C0
330
1F
100
AcDbEntity
  8
0
  6
Continuous
 62
     8
370
     0
100
AcDbLine
 10
57.3523497357
 20
172.414250401
 30
0.0
 11
54.184511469
 21
174.2430045063
 31
0.0
  0
LINE
  5
5C1
330
1F
100
AcDbEntity
  8
0
  6
Continuous
 62
     8
370
     0
100
AcDbLine
 10
51.0103564433
 20
171.6897611219
 30
0.0
 11
53.3407252398
 21
170.3444678511
 31
0.0
  0
LINE
  5
5C2
330
1F
100
AcDbEntity
  8
0
  6
Continuous
 62
     8
370
     0
100
AcDbLine
 10
52.7592399223
 20
172.6660191255
 30
0.0
 11
51.0103564433
 21
171.6897611219
 31
0.0
  0
LINE
  5
5C3
330
1F
100
AcDbEntity
  8
0
  6
Continuous
 62
     8
370
     0
100
AcDbLine
 10
52.5434501652
 20
172.7905919006
 30
0.0
 11
52.7592399223
 21
172.6660191255
 31
0.0
  0
LINE
  5
5C4
330
1F
100
AcDbEntity
  8
0
  6
Continuous
 62
     8
370
     0
100
AcDbLine
 10
57.3523497357
 20
172.414250401
 30
0.0
 11
55.4346765579
 21
171.336190085
 31
0.0
  0
LINE
  5
5C5
330
1F
100
AcDbEntity
  8
0
  6
Continuous
 62
     8
370
     0
100
AcDbLine
 10
57.3673529601
 20
172.9109660683
 30
0.0
 11
57.5093920543
 21
172.8289395552
 31
0.0
  0
LINE
  5
5C6
330
1F
100
AcDbEntity
  8
0
  6
Continuous
 62
     8
370
     0
100
AcDbLine
 10
49.2068190385
 20
175.7223083758
 30
0.0
 11
48.9960763666
 21
175.3551588929
 31
0.0
  0
ARC
  5
5C7
330
1F
100
AcDbEntity
  8
0
  6
Continuous
 62
     8
370
     0
100
AcDbCircle
 10
69.3576424221
 20
210.9422845902
 30
0.0
 40
41.00044984668572
100
AcDbArc
 50
240.0284611451
 51
240.2234927174
  0
LINE
  5
5C8
330
1F
100
AcDbEntity
  8
0
  6
Continuous
 62
     8
370
     0
100
AcDbLine
 10
48.8750580131
 20
175.4246745417
 30
0.0
 11
48.9661521042
 21
175.5833736121
 31
0.0
  0
LINE
  5
5C9
330
1F
100
AcDbEntity
  8
0
  6
Continuous
 62
     8
370
     0
100
AcDbLine
 10
49.6413888715
 20
175.5013817548
 30
0.0
 11
49.2327541018
 21
175.7372815861
 31
0.0
  0
LINE
  5
5CA
330
1F
100
AcDbEntity
  8
0
  6
Continuous
 62
     8
370
     0
100
AcDbLine
 10
48.9966896033
 20
175.192219262
 30
0.0
 11
49.3497516459
 21
174.9884008832
 31
0.0
  0
ELLIPSE
  5
5CB
330
1F
100
AcDbEntity
  8
0
  6
Continuous
 62
     8
370
     0
100
AcDbEllipse
 10
49.0667883037
 20
175.3143397277
 30
0.0
 11
0.06994611198776113
 21
0.1222076158881009
 31
0.0
210
0.0
220
0.0
230
1.0
 40
0.5798484545
 41
1.568665391430941
 42
3.139442679758044
  0
LINE
  5
5CC
330
1F
100
AcDbEntity
  8
0
  6
Continuous
 62
     8
370
     0
100
AcDbLine
 10
48.1024114495
 20
174.9786352019
 30
0.0
 11
48.8750580131
 21
175.4246745417
 31
0.0
  0
LINE
  5
5CD
330
1F
100
AcDbEntity
  8
0
  6
Continuous
 62
     8
370
     0
100
AcDbLine
 10
48.1024114495
 20
175.084747456
 30
0.0
 11
48.1024114495
 21
174.9786352019
 31
0.0
  0
ELLIPSE
  5
5CE
330
1F
100
AcDbEntity
  8
0
  6
Continuous
 62
     8
370
     0
100
AcDbEllipse
 10
49.0167883037
 20
175.3432134966
 30
0.0
 11
0.02617242835300005
 21
0.2188245673048926
 31
0.0
210
0.0
220
0.0
230
1.0
 40
0.7132437612
 41
1.275902141189604
 42
2.846679429516512
  0
ARC
  5
5CF
330
1F
100
AcDbEntity
  8
0
  6
Continuous
 62
     8
370
     0
100
AcDbCircle
 10
48.8705747987
 20
175.2616508658
 30
0.0
 40
0.1439642022388994
100
AcDbArc
 50
301.773521772
 51
331.1653323198
  0
LINE
  5
5D0
330
1F
100
AcDbEntity
  8
0
  6
Continuous
 62
     8
370
     0
100
AcDbLine
 10
48.9463810175
 20
175.1392616967
 30
0.0
 11
48.243830985
 21
174.7336887736
 31
0.0
  0
ARC
  5
5D1
330
1F
100
AcDbEntity
  8
0
  6
Continuous
 62
     8
370
     0
100
AcDbCircle
 10
48.4071931824
 20
174.9913031646
 30
0.0
 40
0.3050448852070043
100
AcDbArc
 50
182.3800745996
 51
237.6198023064
  0
ELLIPSE
  5
5D2
330
1F
100
AcDbEntity
  8
0
  6
Continuous
 62
     8
370
     0
100
AcDbEllipse
 10
52.7596083869
 20
172.6988920216
 30
0.0
 11
0.08474198473723504
 21
-0.0194616063705837
 31
0.0
210
0.0
220
0.0
230
1.0
 40
0.3706342134
 41
4.182107120143478
 42
4.792949937343772
  0
LINE
  5
5D3
330
1F
100
AcDbEntity
  8
0
  6
Continuous
 62
     8
370
     0
100
AcDbLine
 10
49.2787299915
 20
174.9474007179
 30
0.0
 11
48.9463810175
 21
175.1392616967
 31
0.0
  0
LINE
  5
5D4
330
1F
100
AcDbEntity
  8
0
  6
Continuous
 62
     8
370
     0
100
AcDbLine
 10
48.244446329
 20
174.5714741479
 30
0.0
 11
48.4359911114
 21
174.4608976987
 31
0.0
  0
ELLIPSE
  5
5D5
330
1F
100
AcDbEntity
  8
0
  6
Continuous
 62
     8
370
     0
100
AcDbEllipse
 10
48.3858673942
 20
174.6524014585
 30
0.0
 11
0.1999995324225594
 21
-0.0007524328603949471
 31
0.0
210
0.0
220
0.0
230
1.0
 40
0.5747629462
 41
2.362720167645526
 42
3.929153171310425
  0
ELLIPSE
  5
5D6
330
1F
100
AcDbEntity
  8
0
  6
Continuous
 62
     8
370
     0
100
AcDbEllipse
 10
52.6774497847
 20
172.7733599739
 30
0.0
 11
-0.08361960687386727
 21
0.1100526378075415
 31
0.0
210
0.0
220
0.0
230
1.0
 40
0.4666874631
 41
1.517919749793128
 42
2.46478328999762
  0
LINE
  5
5D7
330
1F
100
AcDbEntity
  8
0
  6
Continuous
 62
     8
370
     0
100
AcDbLine
 10
50.9942584545
 20
171.7051026874
 30
0.0
 11
52.7104718038
 21
172.6631247931
 31
0.0
  0
ARC
  5
5D8
330
1F
100
AcDbEntity
  8
0
  6
Continuous
 62
     8
370
     0
100
AcDbCircle
 10
52.685383087
 20
172.6724566852
 30
0.0
 40
0.0267680392220479
100
AcDbArc
 50
339.5970270136
 51
20.063868958
  0
ELLIPSE
  5
5D9
330
1F
100
AcDbEntity
  8
0
  6
Continuous
 62
     8
370
     0
100
AcDbEllipse
 10
52.7596083869
 20
172.6988920216
 30
0.0
 11
0.08487986090715793
 21
0.01809103940152568
 31
0.0
210
0.0
220
0.0
230
1.0
 40
0.3708489864
 41
4.01832025268572
 42
4.62916306988572
  0
ARC
  5
5DA
330
1F
100
AcDbEntity
  8
0
  6
Continuous
 62
     8
370
     0
100
AcDbCircle
 10
51.0383137365
 20
171.7352134997
 30
0.0
 40
0.0533622421622114
100
AcDbArc
 50
214.3517441854
 51
238.4047520186
  0
ELLIPSE
  5
5DB
330
1F
100
AcDbEntity
  8
0
  6
Continuous
 62
     8
370
     0
100
AcDbEllipse
 10
48.3864844593
 20
174.8160642904
 30
0.0
 11
0.3999997641598512
 21
-0.0007540691840688395
 31
0.0
210
0.0
220
0.0
230
1.0
 40
0.5760266851
 41
2.36164372346683
 42
3.12764026877828
  0
ARC
  5
5DC
330
1F
100
AcDbEntity
  8
0
  6
Continuous
 62
     8
370
     0
100
AcDbCircle
 10
48.1864475933
 20
174.6531905351
 30
0.0
 40
0.1002068924290225
100
AcDbArc
 50
245.6183550949
 51
305.3654745338
  0
ARC
  5
5DD
330
1F
100
AcDbEntity
  8
0
  6
Continuous
 62
     8
370
     0
100
AcDbCircle
 10
58.0945362384
 20
173.4478515195
 30
0.0
 40
1.272466925629261
100
AcDbArc
 50
234.3194255114
 51
294.6021215426
  0
LINE
  5
5DE
330
1F
100
AcDbEntity
  8
0
  6
Continuous
 62
     8
370
     0
100
AcDbLine
 10
85.2633330894
 20
150.5324098021
 30
0.0
 11
85.6168871965
 21
150.3283073605
 31
0.0
  0
LINE
  5
5DF
330
1F
100
AcDbEntity
  8
0
  6
Continuous
 62
     8
370
     0
100
AcDbLine
 10
92.4758231763
 20
146.3687279014
 30
0.0
 11
92.1222701229
 21
146.5728297347
 31
0.0
  0
LINE
  5
5E0
330
1F
100
AcDbEntity
  8
0
  6
Continuous
 62
     8
370
     0
100
AcDbLine
 10
85.2633330894
 20
151.675566822
 30
0.0
 11
85.4047547323
 21
151.5939258453
 31
0.0
  0
LINE
  5
5E1
330
1F
100
AcDbEntity
  8
0
  6
Continuous
 62
     8
370
     0
100
AcDbLine
 10
47.3624097274
 20
172.4121471357
 30
0.0
 11
47.7159627808
 21
172.2080453024
 31
0.0
  0
LINE
  5
5E2
330
1F
100
AcDbEntity
  8
0
  6
Continuous
 62
     8
370
     0
100
AcDbLine
 10
54.5748998143
 20
168.248465235
 30
0.0
 11
54.2213457072
 21
168.4525676766
 31
0.0
  0
LINE
  5
5E3
330
1F
100
AcDbEntity
  8
0
  6
Continuous
 62
     8
370
     0
100
AcDbLine
 10
47.3624097274
 20
173.5553041555
 30
0.0
 11
47.5038313703
 21
173.4736631789
 31
0.0
  0
LINE
  5
5E4
330
1F
100
AcDbEntity
  8
0
  6
Continuous
 62
     8
370
     0
100
AcDbLine
 10
66.3128719353
 20
161.4722781648
 30
0.0
 11
66.6664252521
 21
161.2681761794
 31
0.0
  0
LINE
  5
5E5
330
1F
100
AcDbEntity
  8
0
  6
Continuous
 62
     8
370
     0
100
AcDbLine
 10
73.5253609685
 20
157.3085968723
 30
0.0
 11
73.1718076517
 21
157.5126988577
 31
0.0
  0
LINE
  5
5E6
330
1F
100
AcDbEntity
  8
0
  6
Continuous
 62
     8
370
     0
100
AcDbLine
 10
66.3128719353
 20
162.6154351846
 30
0.0
 11
66.4542933147
 21
162.53379436
 31
0.0
  0
LINE
  5
5E7
330
1F
100
AcDbEntity
  8
0
  6
Continuous
 62
     8
370
     0
100
AcDbLine
 10
132.2351454422
 20
176.3987731668
 30
0.0
 11
132.2836596258
 21
176.29037708
 31
0.0
  0
LINE
  5
5E8
330
1F
100
AcDbEntity
  8
0
  6
Continuous
 62
     8
370
     0
100
AcDbLine
 10
131.7687652753
 20
176.0743142621
 30
0.0
 11
131.720250038
 21
176.1827109573
 31
0.0
  0
LINE
  5
5E9
330
1F
100
AcDbEntity
  8
0
  6
Continuous
 62
     8
370
     0
100
AcDbLine
 10
132.5406205318
 20
176.3488229926
 30
0.0
 11
131.9749350141
 21
176.0222596943
 31
0.0
  0
LINE
  5
5EA
330
1F
100
AcDbEntity
  8
0
  6
Continuous
 62
     8
370
     0
100
AcDbLine
 10
136.6722729303
 20
173.7568845462
 30
0.0
 11
136.7207881676
 21
173.8092667406
 31
0.0
  0
LINE
  5
5EB
330
1F
100
AcDbEntity
  8
0
  6
Continuous
 62
     8
370
     0
100
AcDbLine
 10
136.4153120243
 20
174.1120112058
 30
0.0
 11
135.8496265066
 21
173.7854479075
 31
0.0
  0
LINE
  5
5EC
330
1F
100
AcDbEntity
  8
0
  6
Continuous
 62
     8
370
     0
100
AcDbLine
 10
113.2846834977
 20
187.3386419857
 30
0.0
 11
113.3331978131
 21
187.2302458228
 31
0.0
  0
LINE
  5
5ED
330
1F
100
AcDbEntity
  8
0
  6
Continuous
 62
     8
370
     0
100
AcDbLine
 10
112.8183030674
 20
187.0141832331
 30
0.0
 11
112.7697886204
 21
187.122579472
 31
0.0
  0
LINE
  5
5EE
330
1F
100
AcDbEntity
  8
0
  6
Continuous
 62
     8
370
     0
100
AcDbLine
 10
113.590158324
 20
187.2886919635
 30
0.0
 11
113.0244728063
 21
186.9621286652
 31
0.0
  0
LINE
  5
5EF
330
1F
100
AcDbEntity
  8
0
  6
Continuous
 62
     8
370
     0
100
AcDbLine
 10
117.721811381
 20
184.6967531369
 30
0.0
 11
117.7703256964
 21
184.7491358636
 31
0.0
  0
LINE
  5
5F0
330
1F
100
AcDbEntity
  8
0
  6
Continuous
 62
     8
370
     0
100
AcDbLine
 10
117.4648508701
 20
185.0518795685
 30
0.0
 11
116.8991653525
 21
184.7253162702
 31
0.0
  0
LINE
  5
5F1
330
1F
100
AcDbEntity
  8
0
  6
Continuous
 62
     8
370
     0
100
AcDbLine
 10
94.3342210265
 20
198.2785111087
 30
0.0
 11
94.3827362638
 21
198.1701144135
 31
0.0
  0
LINE
  5
5F2
330
1F
100
AcDbEntity
  8
0
  6
Continuous
 62
     8
370
     0
100
AcDbLine
 10
93.8678419133
 20
197.9540515957
 30
0.0
 11
93.8193266759
 21
198.0624482909
 31
0.0
  0
LINE
  5
5F3
330
1F
100
AcDbEntity
  8
0
  6
Continuous
 62
     8
370
     0
100
AcDbLine
 10
94.6396971698
 20
198.2285603261
 30
0.0
 11
94.0740116521
 21
197.9019970279
 31
0.0
  0
LINE
  5
5F4
330
1F
100
AcDbEntity
  8
0
  6
Continuous
 62
     8
370
     0
100
AcDbLine
 10
98.7713495683
 20
195.6366218798
 30
0.0
 11
98.819863752
 21
195.6890046825
 31
0.0
  0
LINE
  5
5F5
330
1F
100
AcDbEntity
  8
0
  6
Continuous
 62
     8
370
     0
100
AcDbLine
 10
98.5143886623
 20
195.9917485394
 30
0.0
 11
97.9487031446
 21
195.6651852411
 31
0.0
  0
LINE
  5
5F6
330
1F
100
AcDbEntity
  8
0
  6
Continuous
 62
     8
370
     0
100
AcDbLine
 10
93.4415339163
 20
146.1152422938
 30
0.0
 11
151.5203105254
 21
179.6434063632
 31
0.0
  0
LINE
  5
5F7
330
1F
100
AcDbEntity
  8
0
  6
Continuous
 62
     8
370
     0
100
AcDbLine
 10
93.3526356761
 20
146.3181899388
 30
0.0
 11
151.3000848126
 21
179.770540272
 31
0.0
  0
LINE
  5
5F8
330
1F
100
AcDbEntity
  8
0
  6
Continuous
 62
     8
370
     0
100
AcDbLine
 10
101.8450402049
 20
208.3203295138
 30
0.0
 11
43.7662635957
 21
174.7921654444
 31
0.0
  0
LINE
  5
5F9
330
1F
100
AcDbEntity
  8
0
  6
Continuous
 62
     8
370
     0
100
AcDbLine
 10
38.7652028451
 20
175.2116284875
 30
0.0
 11
98.7837291514
 21
140.5636707534
 31
0.0
  0
ENDSEC
  0
SECTION
  2
OBJECTS
  0
DICTIONARY
  5
C
330
0
100
AcDbDictionary
281
     1
  3
ACAD_GROUP
350
D
  3
ACAD_LAYOUT
350
1A
  3
ACAD_MLINESTYLE
350
17
  3
ACAD_PLOTSETTINGS
350
19
  3
ACAD_PLOTSTYLENAME
350
E
  3
ACAD_SCALELIST
350
47
  0
DICTIONARY
  5
D
102
{ACAD_REACTORS
330
C
102
}
330
C
100
AcDbDictionary
281
     1
  0
DICTIONARY
  5
1A
102
{ACAD_REACTORS
330
C
102
}
330
C
100
AcDbDictionary
281
     1
  3
Layout1
350
1E
  3
Layout2
350
26
  3
Model
350
22
  0
DICTIONARY
  5
17
102
{ACAD_REACTORS
330
C
102
}
330
C
100
AcDbDictionary
281
     1
  3
Standard
350
18
  0
DICTIONARY
  5
19
102
{ACAD_REACTORS
330
C
102
}
330
C
100
AcDbDictionary
281
     1
  0
ACDBDICTIONARYWDFLT
  5
E
102
{ACAD_REACTORS
330
C
102
}
330
C
100
AcDbDictionary
281
     1
  3
Normal
350
F
100
AcDbDictionaryWithDefault
340
F
  0
DICTIONARY
  5
47
102
{ACAD_REACTORS
330
C
102
}
330
C
100
AcDbDictionary
281
     1
  3
A0
350
48
  3
A1
350
49
  3
A2
350
4A
  3
A3
350
4B
  3
A4
350
4C
  3
A5
350
4D
  3
A6
350
4E
  3
A7
350
4F
  3
A8
350
50
  3
A9
350
51
  3
B0
350
52
  3
B1
350
53
  3
B2
350
54
  3
B3
350
55
  3
B4
350
56
  3
B5
350
57
  3
B6
350
58
  3
B7
350
59
  3
B8
350
5A
  3
B9
350
5B
  3
C0
350
5C
  3
C1
350
5D
  3
C2
350
5E
  3
C3
350
5F
  3
C4
350
60
  3
C5
350
61
  3
C6
350
62
  3
C7
350
63
  3
C8
350
64
  3
C9
350
65
  3
D0
350
66
  3
D1
350
67
  3
D2
350
68
  0
LAYOUT
  5
1E
102
{ACAD_REACTORS
330
1A
102
}
330
1A
100
AcDbPlotSettings
  1

  2
none_device
  4

  6

 40
0.0
 41
0.0
 42
0.0
 43
0.0
 44
0.0
 45
0.0
 46
0.0
 47
0.0
 48
0.0
 49
0.0
140
0.0
141
0.0
142
1.0
143
1.0
 70
   688
 72
     1
 73
     0
 74
     5
  7

 75
    16
147
1.0
148
0.0
149
0.0
100
AcDbLayout
  1
Layout1
 70
     1
 71
     1
 10
0.0
 20
0.0
 11
420.0
 21
297.0
 12
0.0
 22
0.0
 32
0.0
 14
1.0000000000E+20
 24
1.0000000000E+20
 34
1.0000000000E+20
 15
-1.0000000000E+20
 25
-1.0000000000E+20
 35
-1.0000000000E+20
146
0.0
 13
0.0
 23
0.0
 33
0.0
 16
1.0
 26
0.0
 36
0.0
 17
0.0
 27
1.0
 37
0.0
 76
     0
330
1B
  0
LAYOUT
  5
26
102
{ACAD_REACTORS
330
1A
102
}
330
1A
100
AcDbPlotSettings
  1

  2
none_device
  4

  6

 40
0.0
 41
0.0
 42
0.0
 43
0.0
 44
0.0
 45
0.0
 46
0.0
 47
0.0
 48
0.0
 49
0.0
140
0.0
141
0.0
142
1.0
143
1.0
 70
   688
 72
     1
 73
     0
 74
     5
  7

 75
    16
147
1.0
148
0.0
149
0.0
100
AcDbLayout
  1
Layout2
 70
     1
 71
     2
 10
0.0
 20
0.0
 11
0.0
 21
0.0
 12
0.0
 22
0.0
 32
0.0
 14
0.0
 24
0.0
 34
0.0
 15
0.0
 25
0.0
 35
0.0
146
0.0
 13
0.0
 23
0.0
 33
0.0
 16
1.0
 26
0.0
 36
0.0
 17
0.0
 27
1.0
 37
0.0
 76
     0
330
23
  0
LAYOUT
  5
22
102
{ACAD_REACTORS
330
1A
102
}
330
1A
100
AcDbPlotSettings
  1

  2
none_device
  4
Letter_(8.50_x_11.00_Inches)
  6

 40
6.35
 41
6.35
 42
6.35000508
 43
6.35000508
 44
215.9
 45
279.4
 46
0.0
 47
0.0
 48
0.0
 49
0.0
140
0.0
141
0.0
142
1.0
143
1.0
 70
  1712
 72
     1
 73
     0
 74
     0
  7

 75
     0
147
1.0
148
0.0
149
0.0
100
AcDbLayout
  1
Model
 70
     1
 71
     0
 10
0.0
 20
0.0
 11
420.0
 21
297.0
 12
0.0
 22
0.0
 32
0.0
 14
0.0
 24
0.0
 34
0.0
 15
420.0
 25
297.0
 35
0.0
146
0.0
 13
0.0
 23
0.0
 33
0.0
 16
1.0
 26
0.0
 36
0.0
 17
0.0
 27
1.0
 37
0.0
 76
     0
330
1F
331
29
  0
MLINESTYLE
  5
18
102
{ACAD_REACTORS
330
17
102
}
330
17
100
AcDbMlineStyle
  2
Standard
 70
     0
  3

 62
   256
 51
90.0
 52
90.0
 71
     2
 49
0.5
 62
   256
  6
BYLAYER
 49
-0.5
 62
   256
  6
BYLAYER
  0
ACDBPLACEHOLDER
  5
F
102
{ACAD_REACTORS
330
E
102
}
330
E
  0
SCALE
  5
48
102
{ACAD_REACTORS
330
47
102
}
330
47
100
AcDbScale
 70
     0
300
1:1
140
1.0
141
1.0
290
     1
  0
SCALE
  5
49
102
{ACAD_REACTORS
330
47
102
}
330
47
100
AcDbScale
 70
     0
300
1:2
140
1.0
141
2.0
290
     0
  0
SCALE
  5
4A
102
{ACAD_REACTORS
330
47
102
}
330
47
100
AcDbScale
 70
     0
300
1:4
140
1.0
141
4.0
290
     0
  0
SCALE
  5
4B
102
{ACAD_REACTORS
330
47
102
}
330
47
100
AcDbScale
 70
     0
300
1:5
140
1.0
141
5.0
290
     0
  0
SCALE
  5
4C
102
{ACAD_REACTORS
330
47
102
}
330
47
100
AcDbScale
 70
     0
300
1:8
140
1.0
141
8.0
290
     0
  0
SCALE
  5
4D
102
{ACAD_REACTORS
330
47
102
}
330
47
100
AcDbScale
 70
     0
300
1:10
140
1.0
141
10.0
290
     0
  0
SCALE
  5
4E
102
{ACAD_REACTORS
330
47
102
}
330
47
100
AcDbScale
 70
     0
300
1:16
140
1.0
141
16.0
290
     0
  0
SCALE
  5
4F
102
{ACAD_REACTORS
330
47
102
}
330
47
100
AcDbScale
 70
     0
300
1:20
140
1.0
141
20.0
290
     0
  0
SCALE
  5
50
102
{ACAD_REACTORS
330
47
102
}
330
47
100
AcDbScale
 70
     0
300
1:30
140
1.0
141
30.0
290
     0
  0
SCALE
  5
51
102
{ACAD_REACTORS
330
47
102
}
330
47
100
AcDbScale
 70
     0
300
1:40
140
1.0
141
40.0
290
     0
  0
SCALE
  5
52
102
{ACAD_REACTORS
330
47
102
}
330
47
100
AcDbScale
 70
     0
300
1:50
140
1.0
141
50.0
290
     0
  0
SCALE
  5
53
102
{ACAD_REACTORS
330
47
102
}
330
47
100
AcDbScale
 70
     0
300
1:100
140
1.0
141
100.0
290
     0
  0
SCALE
  5
54
102
{ACAD_REACTORS
330
47
102
}
330
47
100
AcDbScale
 70
     0
300
2:1
140
2.0
141
1.0
290
     0
  0
SCALE
  5
55
102
{ACAD_REACTORS
330
47
102
}
330
47
100
AcDbScale
 70
     0
300
4:1
140
4.0
141
1.0
290
     0
  0
SCALE
  5
56
102
{ACAD_REACTORS
330
47
102
}
330
47
100
AcDbScale
 70
     0
300
8:1
140
8.0
141
1.0
290
     0
  0
SCALE
  5
57
102
{ACAD_REACTORS
330
47
102
}
330
47
100
AcDbScale
 70
     0
300
10:1
140
10.0
141
1.0
290
     0
  0
SCALE
  5
58
102
{ACAD_REACTORS
330
47
102
}
330
47
100
AcDbScale
 70
     0
300
100:1
140
100.0
141
1.0
290
     0
  0
SCALE
  5
59
102
{ACAD_REACTORS
330
47
102
}
330
47
100
AcDbScale
 70
     0
300
1/128" = 1'-0"
140
0.0078125
141
12.0
290
     0
  0
SCALE
  5
5A
102
{ACAD_REACTORS
330
47
102
}
330
47
100
AcDbScale
 70
     0
300
1/64" = 1'-0"
140
0.015625
141
12.0
290
     0
  0
SCALE
  5
5B
102
{ACAD_REACTORS
330
47
102
}
330
47
100
AcDbScale
 70
     0
300
1/32" = 1'-0"
140
0.03125
141
12.0
290
     0
  0
SCALE
  5
5C
102
{ACAD_REACTORS
330
47
102
}
330
47
100
AcDbScale
 70
     0
300
1/16" = 1'-0"
140
0.0625
141
12.0
290
     0
  0
SCALE
  5
5D
102
{ACAD_REACTORS
330
47
102
}
330
47
100
AcDbScale
 70
     0
300
3/32" = 1'-0"
140
0.09375
141
12.0
290
     0
  0
SCALE
  5
5E
102
{ACAD_REACTORS
330
47
102
}
330
47
100
AcDbScale
 70
     0
300
1/8" = 1'-0"
140
0.125
141
12.0
290
     0
  0
SCALE
  5
5F
102
{ACAD_REACTORS
330
47
102
}
330
47
100
AcDbScale
 70
     0
300
3/16" = 1'-0"
140
0.1875
141
12.0
290
     0
  0
SCALE
  5
60
102
{ACAD_REACTORS
330
47
102
}
330
47
100
AcDbScale
 70
     0
300
1/4" = 1'-0"
140
0.25
141
12.0
290
     0
  0
SCALE
  5
61
102
{ACAD_REACTORS
330
47
102
}
330
47
100
AcDbScale
 70
     0
300
3/8" = 1'-0"
140
0.375
141
12.0
290
     0
  0
SCALE
  5
62
102
{ACAD_REACTORS
330
47
102
}
330
47
100
AcDbScale
 70
     0
300
1/2" = 1'-0"
140
0.5
141
12.0
290
     0
  0
SCALE
  5
63
102
{ACAD_REACTORS
330
47
102
}
330
47
100
AcDbScale
 70
     0
300
3/4" = 1'-0"
140
0.75
141
12.0
290
     0
  0
SCALE
  5
64
102
{ACAD_REACTORS
330
47
102
}
330
47
100
AcDbScale
 70
     0
300
1" = 1'-0"
140
1.0
141
12.0
290
     0
  0
SCALE
  5
65
102
{ACAD_REACTORS
330
47
102
}
330
47
100
AcDbScale
 70
     0
300
1-1/2" = 1'-0"
140
1.5
141
12.0
290
     0
  0
SCALE
  5
66
102
{ACAD_REACTORS
330
47
102
}
330
47
100
AcDbScale
 70
     0
300
3" = 1'-0"
140
3.0
141
12.0
290
     0
  0
SCALE
  5
67
102
{ACAD_REACTORS
330
47
102
}
330
47
100
AcDbScale
 70
     0
300
6" = 1'-0"
140
6.0
141
12.0
290
     0
  0
SCALE
  5
68
102
{ACAD_REACTORS
330
47
102
}
330
47
100
AcDbScale
 70
     0
300
1'-0" = 1'-0"
140
12.0
141
12.0
290
     0
  0
ENDSEC
  0
EOF
