  0
SECTION
  2
HEADER
  9
$ACADVER
  1
AC1018
  9
$ACADMAINTVER
 70
     0
  9
$DWGCODEPAGE
  3
ANSI_932
  9
$INSBASE
 10
0.0
 20
0.0
 30
0.0
  9
$EXTMIN
 10
1.000000000000000E+20
 20
1.000000000000000E+20
 30
1.000000000000000E+20
  9
$EXTMAX
 10
-1.000000000000000E+20
 20
-1.000000000000000E+20
 30
-1.000000000000000E+20
  9
$LIMMIN
 10
0.0
 20
0.0
  9
$LIMMAX
 10
12.0
 20
9.0
  9
$ORTHOMODE
 70
     0
  9
$REGENMODE
 70
     1
  9
$FILLMODE
 70
     1
  9
$QTEXTMODE
 70
     0
  9
$MIRRTEXT
 70
     1
  9
$LTSCALE
 40
1.0
  9
$ATTMODE
 70
     1
  9
$TEXTSIZE
 40
0.2
  9
$TRACEWID
 40
0.05
  9
$TEXTSTYLE
  7
Standard
  9
$CLAYER
  8
0
  9
$CELTYPE
  6
ByLayer
  9
$CECOLOR
 62
   256
  9
$CELTSCALE
 40
1.0
  9
$DISPSILH
 70
     0
  9
$DIMSCALE
 40
1.0
  9
$DIMASZ
 40
0.18
  9
$DIMEXO
 40
0.0625
  9
$DIMDLI
 40
0.38
  9
$DIMRND
 40
0.0
  9
$DIMDLE
 40
0.0
  9
$DIMEXE
 40
0.18
  9
$DIMTP
 40
0.0
  9
$DIMTM
 40
0.0
  9
$DIMTXT
 40
0.18
  9
$DIMCEN
 40
0.09
  9
$DIMTSZ
 40
0.0
  9
$DIMTOL
 70
     0
  9
$DIMLIM
 70
     0
  9
$DIMTIH
 70
     1
  9
$DIMTOH
 70
     1
  9
$DIMSE1
 70
     0
  9
$DIMSE2
 70
     0
  9
$DIMTAD
 70
     0
  9
$DIMZIN
 70
     0
  9
$DIMBLK
  1

  9
$DIMASO
 70
     1
  9
$DIMSHO
 70
     1
  9
$DIMPOST
  1

  9
$DIMAPOST
  1

  9
$DIMALT
 70
     0
  9
$DIMALTD
 70
     2
  9
$DIMALTF
 40
25.4
  9
$DIMLFAC
 40
1.0
  9
$DIMTOFL
 70
     0
  9
$DIMTVP
 40
0.0
  9
$DIMTIX
 70
     0
  9
$DIMSOXD
 70
     0
  9
$DIMSAH
 70
     0
  9
$DIMBLK1
  1

  9
$DIMBLK2
  1

  9
$DIMSTYLE
  2
Standard
  9
$DIMCLRD
 70
     0
  9
$DIMCLRE
 70
     0
  9
$DIMCLRT
 70
     0
  9
$DIMTFAC
 40
1.0
  9
$DIMGAP
 40
0.09
  9
$DIMJUST
 70
     0
  9
$DIMSD1
 70
     0
  9
$DIMSD2
 70
     0
  9
$DIMTOLJ
 70
     1
  9
$DIMTZIN
 70
     0
  9
$DIMALTZ
 70
     0
  9
$DIMALTTZ
 70
     0
  9
$DIMUPT
 70
     0
  9
$DIMDEC
 70
     4
  9
$DIMTDEC
 70
     4
  9
$DIMALTU
 70
     2
  9
$DIMALTTD
 70
     2
  9
$DIMTXSTY
  7
Standard
  9
$DIMAUNIT
 70
     0
  9
$DIMADEC
 70
     0
  9
$DIMALTRND
 40
0.0
  9
$DIMAZIN
 70
     0
  9
$DIMDSEP
 70
    46
  9
$DIMATFIT
 70
     3
  9
$DIMFRAC
 70
     0
  9
$DIMLDRBLK
  1

  9
$DIMLUNIT
 70
     2
  9
$DIMLWD
 70
    -2
  9
$DIMLWE
 70
    -2
  9
$DIMTMOVE
 70
     0
  9
$LUNITS
 70
     2
  9
$LUPREC
 70
     4
  9
$SKETCHINC
 40
0.1
  9
$FILLETRAD
 40
0.5
  9
$AUNITS
 70
     0
  9
$AUPREC
 70
     0
  9
$MENU
  1
.
  9
$ELEVATION
 40
0.0
  9
$PELEVATION
 40
0.0
  9
$THICKNESS
 40
0.0
  9
$LIMCHECK
 70
     0
  9
$CHAMFERA
 40
0.5
  9
$CHAMFERB
 40
0.5
  9
$CHAMFERC
 40
1.0
  9
$CHAMFERD
 40
0.0
  9
$SKPOLY
 70
     0
  9
$TDCREATE
 40
2457515.408979584
  9
$TDUCREATE
 40
2457515.033979584
  9
$TDUPDATE
 40
2457515.408979595
  9
$TDUUPDATE
 40
2457515.033979595
  9
$TDINDWG
 40
0.0000000116
  9
$TDUSRTIMER
 40
0.0000000116
  9
$USRTIMER
 70
     1
  9
$ANGBASE
 50
0.0
  9
$ANGDIR
 70
     0
  9
$PDMODE
 70
     0
  9
$PDSIZE
 40
0.0
  9
$PLINEWID
 40
0.0
  9
$SPLFRAME
 70
     0
  9
$SPLINETYPE
 70
     6
  9
$SPLINESEGS
 70
     8
  9
$HANDSEED
  5
4CE
  9
$SURFTAB1
 70
     6
  9
$SURFTAB2
 70
     6
  9
$SURFTYPE
 70
     6
  9
$SURFU
 70
     6
  9
$SURFV
 70
     6
  9
$UCSBASE
  2

  9
$UCSNAME
  2

  9
$UCSORG
 10
0.0
 20
0.0
 30
0.0
  9
$UCSXDIR
 10
1.0
 20
0.0
 30
0.0
  9
$UCSYDIR
 10
0.0
 20
1.0
 30
0.0
  9
$UCSORTHOREF
  2

  9
$UCSORTHOVIEW
 70
     0
  9
$UCSORGTOP
 10
0.0
 20
0.0
 30
0.0
  9
$UCSORGBOTTOM
 10
0.0
 20
0.0
 30
0.0
  9
$UCSORGLEFT
 10
0.0
 20
0.0
 30
0.0
  9
$UCSORGRIGHT
 10
0.0
 20
0.0
 30
0.0
  9
$UCSORGFRONT
 10
0.0
 20
0.0
 30
0.0
  9
$UCSORGBACK
 10
0.0
 20
0.0
 30
0.0
  9
$PUCSBASE
  2

  9
$PUCSNAME
  2

  9
$PUCSORG
 10
0.0
 20
0.0
 30
0.0
  9
$PUCSXDIR
 10
1.0
 20
0.0
 30
0.0
  9
$PUCSYDIR
 10
0.0
 20
1.0
 30
0.0
  9
$PUCSORTHOREF
  2

  9
$PUCSORTHOVIEW
 70
     0
  9
$PUCSORGTOP
 10
0.0
 20
0.0
 30
0.0
  9
$PUCSORGBOTTOM
 10
0.0
 20
0.0
 30
0.0
  9
$PUCSORGLEFT
 10
0.0
 20
0.0
 30
0.0
  9
$PUCSORGRIGHT
 10
0.0
 20
0.0
 30
0.0
  9
$PUCSORGFRONT
 10
0.0
 20
0.0
 30
0.0
  9
$PUCSORGBACK
 10
0.0
 20
0.0
 30
0.0
  9
$USERI1
 70
     0
  9
$USERI2
 70
     0
  9
$USERI3
 70
     0
  9
$USERI4
 70
     0
  9
$USERI5
 70
     0
  9
$USERR1
 40
0.0
  9
$USERR2
 40
0.0
  9
$USERR3
 40
0.0
  9
$USERR4
 40
0.0
  9
$USERR5
 40
0.0
  9
$WORLDVIEW
 70
     1
  9
$SHADEDGE
 70
     3
  9
$SHADEDIF
 70
    70
  9
$TILEMODE
 70
     1
  9
$MAXACTVP
 70
    64
  9
$PINSBASE
 10
0.0
 20
0.0
 30
0.0
  9
$PLIMCHECK
 70
     0
  9
$PEXTMIN
 10
1.000000000000000E+20
 20
1.000000000000000E+20
 30
1.000000000000000E+20
  9
$PEXTMAX
 10
-1.000000000000000E+20
 20
-1.000000000000000E+20
 30
-1.000000000000000E+20
  9
$PLIMMIN
 10
0.0
 20
0.0
  9
$PLIMMAX
 10
12.0
 20
9.0
  9
$UNITMODE
 70
     0
  9
$VISRETAIN
 70
     1
  9
$PLINEGEN
 70
     0
  9
$PSLTSCALE
 70
     1
  9
$TREEDEPTH
 70
  3020
  9
$CMLSTYLE
  2
Standard
  9
$CMLJUST
 70
     0
  9
$CMLSCALE
 40
1.0
  9
$PROXYGRAPHICS
 70
     1
  9
$MEASUREMENT
 70
     0
  9
$CELWEIGHT
370
    -1
  9
$ENDCAPS
280
     0
  9
$JOINSTYLE
280
     0
  9
$LWDISPLAY
290
     1
  9
$INSUNITS
 70
     1
  9
$HYPERLINKBASE
  1

  9
$STYLESHEET
  1

  9
$XEDIT
290
     1
  9
$CEPSNTYPE
380
     0
  9
$PSTYLEMODE
290
     1
  9
$FINGERPRINTGUID
  2
{41976B07-2E5B-40DE-8085-A28F4CABC4C6}
  9
$VERSIONGUID
  2
{FAEB1C32-E019-11D5-929B-00C0DF256EC4}
  9
$EXTNAMES
290
     1
  9
$PSVPSCALE
 40
0.0
  9
$OLESTARTUP
290
     0
  9
$SORTENTS
280
   127
  9
$INDEXCTL
280
     0
  9
$HIDETEXT
280
     1
  9
$XCLIPFRAME
290
     0
  9
$HALOGAP
280
     0
  9
$OBSCOLOR
 70
   257
  9
$OBSLTYPE
280
     0
  9
$INTERSECTIONDISPLAY
280
     0
  9
$INTERSECTIONCOLOR
 70
   257
  9
$DIMASSOC
280
     2
  9
$PROJECTNAME
  1

  0
ENDSEC
  0
SECTION
  2
CLASSES
  0
CLASS
  1
ACDBDICTIONARYWDFLT
  2
AcDbDictionaryWithDefault
  3
ObjectDBX Classes
 90
        0
 91
        3
280
     0
281
     0
  0
CLASS
  1
VISUALSTYLE
  2
AcDbVisualStyle
  3
ObjectDBX Classes
 90
     4095
 91
        3
280
     0
281
     0
  0
ENDSEC
  0
SECTION
  2
TABLES
  0
TABLE
  2
VPORT
  5
8
330
0
100
AcDbSymbolTable
 70
     1
  0
VPORT
  5
29
330
8
100
AcDbSymbolTableRecord
100
AcDbViewportTableRecord
  2
*Active
 70
     0
 10
0.0
 20
0.0
 11
1.0
 21
1.0
 12
0.0
 22
0.0
 13
0.0
 23
0.0
 14
0.5
 24
0.5
 15
0.5
 25
0.5
 16
0.0
 26
0.0
 36
1.0
 17
105.0008259828644
 27
-148.4999796178229
 37
0.0
 40
296.9999592356459
 41
0.7070763662937379
 42
50.0
 43
0.0
 44
0.0
 50
0.0
 51
0.0
 71
     0
 72
   100
 73
     1
 74
     3
 75
     0
 76
     0
 77
     0
 78
     0
281
     0
 65
     1
110
0.0
120
0.0
130
0.0
111
1.0
121
0.0
131
0.0
112
0.0
122
1.0
132
0.0
 79
     0
146
0.0
  0
ENDTAB
  0
TABLE
  2
LTYPE
  5
5
330
0
100
AcDbSymbolTable
 70
     1
  0
LTYPE
  5
14
330
5
100
AcDbSymbolTableRecord
100
AcDbLinetypeTableRecord
  2
ByBlock
 70
     0
  3

 72
    65
 73
     0
 40
0.0
  0
LTYPE
  5
15
330
5
100
AcDbSymbolTableRecord
100
AcDbLinetypeTableRecord
  2
ByLayer
 70
     0
  3

 72
    65
 73
     0
 40
0.0
  0
LTYPE
  5
16
330
5
100
AcDbSymbolTableRecord
100
AcDbLinetypeTableRecord
  2
Continuous
 70
     0
  3
Solid line
 72
    65
 73
     0
 40
0.0
  0
ENDTAB
  0
TABLE
  2
LAYER
  5
2
330
0
100
AcDbSymbolTable
 70
     2
  0
LAYER
  5
10
330
2
100
AcDbSymbolTableRecord
100
AcDbLayerTableRecord
  2
0
 70
     0
 62
     7
  6
Continuous
370
    -3
390
F
  0
LAYER
  5
3B
330
2
100
AcDbSymbolTableRecord
100
AcDbLayerTableRecord
  2
\U+30EC\U+30A4\U+30E4\U+30FC 1
 70
     0
 62
     7
  6
Continuous
370
    -3
390
F
  0
ENDTAB
  0
TABLE
  2
STYLE
  5
3
330
0
100
AcDbSymbolTable
 70
     1
  0
STYLE
  5
11
330
3
100
AcDbSymbolTableRecord
100
AcDbTextStyleTableRecord
  2
Standard
 70
     0
 40
0.0
 41
1.0
 50
0.0
 71
     0
 42
0.2
  3
txt
  4

  0
ENDTAB
  0
TABLE
  2
VIEW
  5
6
330
0
100
AcDbSymbolTable
 70
     0
  0
ENDTAB
  0
TABLE
  2
UCS
  5
7
330
0
100
AcDbSymbolTable
 70
     0
  0
ENDTAB
  0
TABLE
  2
APPID
  5
9
330
0
100
AcDbSymbolTable
 70
     1
  0
APPID
  5
12
330
9
100
AcDbSymbolTableRecord
100
AcDbRegAppTableRecord
  2
ACAD
 70
     0
  0
ENDTAB
  0
TABLE
  2
DIMSTYLE
  5
A
330
0
100
AcDbSymbolTable
 70
     1
100
AcDbDimStyleTable
  0
DIMSTYLE
105
27
330
A
100
AcDbSymbolTableRecord
100
AcDbDimStyleTableRecord
  2
Standard
 70
     0
340
11
  0
ENDTAB
  0
TABLE
  2
BLOCK_RECORD
  5
1
330
0
100
AcDbSymbolTable
 70
     1
  0
BLOCK_RECORD
  5
1F
330
1
100
AcDbSymbolTableRecord
100
AcDbBlockTableRecord
  2
*Model_Space
340
22
  0
BLOCK_RECORD
  5
1B
330
1
100
AcDbSymbolTableRecord
100
AcDbBlockTableRecord
  2
*Paper_Space
340
1E
  0
BLOCK_RECORD
  5
23
330
1
100
AcDbSymbolTableRecord
100
AcDbBlockTableRecord
  2
*Paper_Space0
340
26
  0
ENDTAB
  0
ENDSEC
  0
SECTION
  2
BLOCKS
  0
BLOCK
  5
20
330
1F
100
AcDbEntity
  8
0
100
AcDbBlockBegin
  2
*Model_Space
 70
     0
 71
     0
 10
0.0
 20
0.0
 30
0.0
  3
*Model_Space
  1

  0
ENDBLK
  5
21
330
1F
100
AcDbEntity
  8
0
100
AcDbBlockEnd
  0
BLOCK
  5
1C
330
1B
100
AcDbEntity
 67
     1
  8
0
100
AcDbBlockBegin
  2
*Paper_Space
 70
     0
 71
     0
 10
0.0
 20
0.0
 30
0.0
  3
*Paper_Space
  1

  0
ENDBLK
  5
1D
330
1B
100
AcDbEntity
 67
     1
  8
0
100
AcDbBlockEnd
  0
BLOCK
  5
24
330
23
100
AcDbEntity
  8
0
100
AcDbBlockBegin
  2
*Paper_Space0
 70
     0
 71
     0
 10
0.0
 20
0.0
 30
0.0
  3
*Paper_Space0
  1

  0
ENDBLK
  5
25
330
23
100
AcDbEntity
  8
0
100
AcDbBlockEnd
  0
ENDSEC
  0
SECTION
  2
ENTITIES
  0
POLYLINE
  5
3C
330
1F
100
AcDbEntity
  8
\U+30EC\U+30A4\U+30E4\U+30FC 1
 62
    18
420
   262144
370
    25
100
AcDb2dPolyline
 66
     1
 10
0.0
 20
0.0
 30
0.0
  0
VERTEX
  5
3D
330
3C
100
AcDbEntity
  8
\U+30EC\U+30A4\U+30E4\U+30FC 1
 62
    18
420
   262144
370
    25
100
AcDbVertex
100
AcDb2dVertex
 10
79.58704560727338
 20
-228.5428113577949
 30
0.0
  0
VERTEX
  5
3E
330
3C
100
AcDbEntity
  8
\U+30EC\U+30A4\U+30E4\U+30FC 1
 62
    18
420
   262144
370
    25
100
AcDbVertex
100
AcDb2dVertex
 10
79.58704560727338
 20
-228.5428113577949
 30
0.0
  0
VERTEX
  5
3F
330
3C
100
AcDbEntity
  8
\U+30EC\U+30A4\U+30E4\U+30FC 1
 62
    18
420
   262144
370
    25
100
AcDbVertex
100
AcDb2dVertex
 10
79.53950328957693
 20
-228.5428113577949
 30
0.0
  0
VERTEX
  5
40
330
3C
100
AcDbEntity
  8
\U+30EC\U+30A4\U+30E4\U+30FC 1
 62
    18
420
   262144
370
    25
100
AcDbVertex
100
AcDb2dVertex
 10
79.49230548142901
 20
-228.5428113577949
 30
0.0
  0
SEQEND
  5
41
330
3C
100
AcDbEntity
  8
\U+30EC\U+30A4\U+30E4\U+30FC 1
370
    25
  0
POLYLINE
  5
42
330
1F
100
AcDbEntity
  8
\U+30EC\U+30A4\U+30E4\U+30FC 1
 62
    18
420
   262144
370
    25
100
AcDb2dPolyline
 66
     1
 10
0.0
 20
0.0
 30
0.0
  0
VERTEX
  5
43
330
42
100
AcDbEntity
  8
\U+30EC\U+30A4\U+30E4\U+30FC 1
 62
    18
420
   262144
370
    25
100
AcDbVertex
100
AcDb2dVertex
 10
122.7315266620255
 20
-203.7112521192111
 30
0.0
  0
VERTEX
  5
44
330
42
100
AcDbEntity
  8
\U+30EC\U+30A4\U+30E4\U+30FC 1
 62
    18
420
   262144
370
    25
100
AcDbVertex
100
AcDb2dVertex
 10
122.7315266620255
 20
-203.7112521192111
 30
0.0
  0
VERTEX
  5
45
330
42
100
AcDbEntity
  8
\U+30EC\U+30A4\U+30E4\U+30FC 1
 62
    18
420
   262144
370
    25
100
AcDbVertex
100
AcDb2dVertex
 10
122.6846733634261
 20
-203.7112521192111
 30
0.0
  0
VERTEX
  5
46
330
42
100
AcDbEntity
  8
\U+30EC\U+30A4\U+30E4\U+30FC 1
 62
    18
420
   262144
370
    25
100
AcDbVertex
100
AcDb2dVertex
 10
122.6364420266326
 20
-203.7112521192111
 30
0.0
  0
SEQEND
  5
47
330
42
100
AcDbEntity
  8
\U+30EC\U+30A4\U+30E4\U+30FC 1
370
    25
  0
POLYLINE
  5
48
330
1F
100
AcDbEntity
  8
\U+30EC\U+30A4\U+30E4\U+30FC 1
 62
    18
420
   262144
370
    25
100
AcDb2dPolyline
 66
     1
 10
0.0
 20
0.0
 30
0.0
  0
VERTEX
  5
49
330
48
100
AcDbEntity
  8
\U+30EC\U+30A4\U+30E4\U+30FC 1
 62
    18
420
   262144
370
    25
100
AcDbVertex
100
AcDb2dVertex
 10
124.4919704549881
 20
-202.6653211298892
 30
0.0
  0
VERTEX
  5
4A
330
48
100
AcDbEntity
  8
\U+30EC\U+30A4\U+30E4\U+30FC 1
 62
    18
420
   262144
370
    25
100
AcDbVertex
100
AcDb2dVertex
 10
124.4919704549881
 20
-202.7128634475857
 30
0.0
  0
VERTEX
  5
4B
330
48
100
AcDbEntity
  8
\U+30EC\U+30A4\U+30E4\U+30FC 1
 62
    18
420
   262144
370
    25
100
AcDbVertex
100
AcDb2dVertex
 10
124.4444281372917
 20
-202.7128634475857
 30
0.0
  0
VERTEX
  5
4C
330
48
100
AcDbEntity
  8
\U+30EC\U+30A4\U+30E4\U+30FC 1
 62
    18
420
   262144
370
    25
100
AcDbVertex
100
AcDb2dVertex
 10
124.4444281372917
 20
-202.6653211298892
 30
0.0
  0
VERTEX
  5
4D
330
48
100
AcDbEntity
  8
\U+30EC\U+30A4\U+30E4\U+30FC 1
 62
    18
420
   262144
370
    25
100
AcDbVertex
100
AcDb2dVertex
 10
124.3968858195952
 20
-202.6653211298892
 30
0.0
  0
SEQEND
  5
4E
330
48
100
AcDbEntity
  8
\U+30EC\U+30A4\U+30E4\U+30FC 1
370
    25
  0
POLYLINE
  5
4F
330
1F
100
AcDbEntity
  8
\U+30EC\U+30A4\U+30E4\U+30FC 1
 62
    18
420
   262144
370
    25
100
AcDb2dPolyline
 66
     1
 10
0.0
 20
0.0
 30
0.0
  0
VERTEX
  5
50
330
4F
100
AcDbEntity
  8
\U+30EC\U+30A4\U+30E4\U+30FC 1
 62
    18
420
   262144
370
    25
100
AcDbVertex
100
AcDb2dVertex
 10
125.110020585042
 20
-201.6193901405674
 30
0.0
  0
VERTEX
  5
51
330
4F
100
AcDbEntity
  8
\U+30EC\U+30A4\U+30E4\U+30FC 1
 62
    18
420
   262144
370
    25
100
AcDbVertex
100
AcDb2dVertex
 10
125.110020585042
 20
-201.6193901405674
 30
0.0
  0
VERTEX
  5
52
330
4F
100
AcDbEntity
  8
\U+30EC\U+30A4\U+30E4\U+30FC 1
 62
    18
420
   262144
370
    25
100
AcDbVertex
100
AcDb2dVertex
 10
125.110020585042
 20
-201.5711588037739
 30
0.0
  0
VERTEX
  5
53
330
4F
100
AcDbEntity
  8
\U+30EC\U+30A4\U+30E4\U+30FC 1
 62
    18
420
   262144
370
    25
100
AcDbVertex
100
AcDb2dVertex
 10
125.110020585042
 20
-201.5236164860774
 30
0.0
  0
VERTEX
  5
54
330
4F
100
AcDbEntity
  8
\U+30EC\U+30A4\U+30E4\U+30FC 1
 62
    18
420
   262144
370
    25
100
AcDbVertex
100
AcDb2dVertex
 10
125.0624782673455
 20
-201.5236164860774
 30
0.0
  0
SEQEND
  5
55
330
4F
100
AcDbEntity
  8
\U+30EC\U+30A4\U+30E4\U+30FC 1
370
    25
  0
POLYLINE
  5
56
330
1F
100
AcDbEntity
  8
\U+30EC\U+30A4\U+30E4\U+30FC 1
 62
    18
420
   262144
370
    25
100
AcDb2dPolyline
 66
     1
 10
0.0
 20
0.0
 30
0.0
  0
VERTEX
  5
57
330
56
100
AcDbEntity
  8
\U+30EC\U+30A4\U+30E4\U+30FC 1
 62
    18
420
   262144
370
    25
100
AcDbVertex
100
AcDb2dVertex
 10
85.5332804148146
 20
-219.884597384265
 30
0.0
  0
VERTEX
  5
58
330
56
100
AcDbEntity
  8
\U+30EC\U+30A4\U+30E4\U+30FC 1
 62
    18
420
   262144
370
    25
100
AcDbVertex
100
AcDb2dVertex
 10
86.1992173721134
 20
-220.3607095803265
 30
0.0
  0
SEQEND
  5
59
330
56
100
AcDbEntity
  8
\U+30EC\U+30A4\U+30E4\U+30FC 1
370
    25
  0
POLYLINE
  5
5A
330
1F
100
AcDbEntity
  8
\U+30EC\U+30A4\U+30E4\U+30FC 1
 62
    18
420
   262144
370
    25
100
AcDb2dPolyline
 66
     1
 10
0.0
 20
0.0
 30
0.0
  0
VERTEX
  5
5B
330
5A
100
AcDbEntity
  8
\U+30EC\U+30A4\U+30E4\U+30FC 1
 62
    18
420
   262144
370
    25
100
AcDbVertex
100
AcDb2dVertex
 10
118.8792208904191
 20
-69.66379257155975
 30
0.0
  0
VERTEX
  5
5C
330
5A
100
AcDbEntity
  8
\U+30EC\U+30A4\U+30E4\U+30FC 1
 62
    18
420
   262144
370
    25
100
AcDbVertex
100
AcDb2dVertex
 10
117.8326008820002
 20
-69.23573945751745
 30
0.0
  0
SEQEND
  5
5D
330
5A
100
AcDbEntity
  8
\U+30EC\U+30A4\U+30E4\U+30FC 1
370
    25
  0
POLYLINE
  5
5E
330
1F
100
AcDbEntity
  8
\U+30EC\U+30A4\U+30E4\U+30FC 1
 62
    18
420
   262144
370
    25
100
AcDb2dPolyline
 66
     1
 10
0.0
 20
0.0
 30
0.0
  0
VERTEX
  5
5F
330
5E
100
AcDbEntity
  8
\U+30EC\U+30A4\U+30E4\U+30FC 1
 62
    18
420
   262144
370
    25
100
AcDbVertex
100
AcDb2dVertex
 10
117.8326008820002
 20
-198.1460448723385
 30
0.0
  0
VERTEX
  5
60
330
5E
100
AcDbEntity
  8
\U+30EC\U+30A4\U+30E4\U+30FC 1
 62
    18
420
   262144
370
    25
100
AcDbVertex
100
AcDb2dVertex
 10
118.8792208904191
 20
-198.7165526846959
 30
0.0
  0
SEQEND
  5
61
330
5E
100
AcDbEntity
  8
\U+30EC\U+30A4\U+30E4\U+30FC 1
370
    25
  0
POLYLINE
  5
62
330
1F
100
AcDbEntity
  8
\U+30EC\U+30A4\U+30E4\U+30FC 1
 62
    18
420
   262144
370
    25
100
AcDb2dPolyline
 66
     1
 10
0.0
 20
0.0
 30
0.0
  0
VERTEX
  5
63
330
62
100
AcDbEntity
  8
\U+30EC\U+30A4\U+30E4\U+30FC 1
 62
    18
420
   262144
370
    25
100
AcDbVertex
100
AcDb2dVertex
 10
116.4524956306091
 20
-202.9030327183715
 30
0.0
  0
VERTEX
  5
64
330
62
100
AcDbEntity
  8
\U+30EC\U+30A4\U+30E4\U+30FC 1
 62
    18
420
   262144
370
    25
100
AcDbVertex
100
AcDb2dVertex
 10
115.6918185474659
 20
-202.4751518591034
 30
0.0
  0
SEQEND
  5
65
330
62
100
AcDbEntity
  8
\U+30EC\U+30A4\U+30E4\U+30FC 1
370
    25
  0
POLYLINE
  5
66
330
1F
100
AcDbEntity
  8
\U+30EC\U+30A4\U+30E4\U+30FC 1
 62
    18
420
   262144
370
    25
100
AcDb2dPolyline
 66
     1
 10
0.0
 20
0.0
 30
0.0
  0
VERTEX
  5
67
330
66
100
AcDbEntity
  8
\U+30EC\U+30A4\U+30E4\U+30FC 1
 62
    18
420
   262144
370
    25
100
AcDbVertex
100
AcDb2dVertex
 10
125.2051052204348
 20
-60.91135523650828
 30
0.0
  0
VERTEX
  5
68
330
66
100
AcDbEntity
  8
\U+30EC\U+30A4\U+30E4\U+30FC 1
 62
    18
420
   262144
370
    25
100
AcDbVertex
100
AcDb2dVertex
 10
125.2051052204348
 20
-60.91135523650828
 30
0.0
  0
VERTEX
  5
69
330
66
100
AcDbEntity
  8
\U+30EC\U+30A4\U+30E4\U+30FC 1
 62
    18
420
   262144
370
    25
100
AcDbVertex
100
AcDb2dVertex
 10
125.3008788749248
 20
-61.00626761712691
 30
0.0
  0
VERTEX
  5
6A
330
66
100
AcDbEntity
  8
\U+30EC\U+30A4\U+30E4\U+30FC 1
 62
    18
420
   262144
370
    25
100
AcDbVertex
100
AcDb2dVertex
 10
125.3477321735242
 20
-61.10152450729407
 30
0.0
  0
VERTEX
  5
6B
330
66
100
AcDbEntity
  8
\U+30EC\U+30A4\U+30E4\U+30FC 1
 62
    18
420
   262144
370
    25
100
AcDbVertex
100
AcDb2dVertex
 10
125.3959635103177
 20
-61.24415146038341
 30
0.0
  0
VERTEX
  5
6C
330
66
100
AcDbEntity
  8
\U+30EC\U+30A4\U+30E4\U+30FC 1
 62
    18
420
   262144
370
    25
100
AcDbVertex
100
AcDb2dVertex
 10
125.3959635103177
 20
-61.38695066824702
 30
0.0
  0
SEQEND
  5
6D
330
66
100
AcDbEntity
  8
\U+30EC\U+30A4\U+30E4\U+30FC 1
370
    25
  0
POLYLINE
  5
6E
330
1F
100
AcDbEntity
  8
\U+30EC\U+30A4\U+30E4\U+30FC 1
 62
    18
420
   262144
370
    25
100
AcDb2dPolyline
 66
     1
 10
0.0
 20
0.0
 30
0.0
  0
VERTEX
  5
6F
330
6E
100
AcDbEntity
  8
\U+30EC\U+30A4\U+30E4\U+30FC 1
 62
    18
420
   262144
370
    25
100
AcDbVertex
100
AcDb2dVertex
 10
79.92018634069704
 20
-228.8280652639735
 30
0.0
  0
VERTEX
  5
70
330
6E
100
AcDbEntity
  8
\U+30EC\U+30A4\U+30E4\U+30FC 1
 62
    18
420
   262144
370
    25
100
AcDbVertex
100
AcDb2dVertex
 10
79.7775593876077
 20
-228.87560758167
 30
0.0
  0
VERTEX
  5
71
330
6E
100
AcDbEntity
  8
\U+30EC\U+30A4\U+30E4\U+30FC 1
 62
    18
420
   262144
370
    25
100
AcDbVertex
100
AcDb2dVertex
 10
79.63493243451835
 20
-228.9224608802694
 30
0.0
  0
VERTEX
  5
72
330
6E
100
AcDbEntity
  8
\U+30EC\U+30A4\U+30E4\U+30FC 1
 62
    18
420
   262144
370
    25
100
AcDbVertex
100
AcDb2dVertex
 10
79.53950328957693
 20
-228.87560758167
 30
0.0
  0
VERTEX
  5
73
330
6E
100
AcDbEntity
  8
\U+30EC\U+30A4\U+30E4\U+30FC 1
 62
    18
420
   262144
370
    25
100
AcDbVertex
100
AcDb2dVertex
 10
79.44441865418403
 20
-228.87560758167
 30
0.0
  0
VERTEX
  5
74
330
6E
100
AcDbEntity
  8
\U+30EC\U+30A4\U+30E4\U+30FC 1
 62
    18
420
   262144
370
    25
100
AcDbVertex
100
AcDb2dVertex
 10
79.3968763364876
 20
-228.8280652639735
 30
0.0
  0
SEQEND
  5
75
330
6E
100
AcDbEntity
  8
\U+30EC\U+30A4\U+30E4\U+30FC 1
370
    25
  0
POLYLINE
  5
76
330
1F
100
AcDbEntity
  8
\U+30EC\U+30A4\U+30E4\U+30FC 1
 62
    18
420
   262144
370
    25
100
AcDb2dPolyline
 66
     1
 10
0.0
 20
0.0
 30
0.0
  0
VERTEX
  5
77
330
76
100
AcDbEntity
  8
\U+30EC\U+30A4\U+30E4\U+30FC 1
 62
    18
420
   262144
370
    25
100
AcDbVertex
100
AcDb2dVertex
 10
79.3968763364876
 20
-228.5903536754913
 30
0.0
  0
VERTEX
  5
78
330
76
100
AcDbEntity
  8
\U+30EC\U+30A4\U+30E4\U+30FC 1
 62
    18
420
   262144
370
    25
100
AcDbVertex
100
AcDb2dVertex
 10
79.3968763364876
 20
-228.5903536754913
 30
0.0
  0
VERTEX
  5
79
330
76
100
AcDbEntity
  8
\U+30EC\U+30A4\U+30E4\U+30FC 1
 62
    18
420
   262144
370
    25
100
AcDbVertex
100
AcDb2dVertex
 10
79.44441865418403
 20
-228.6372069740907
 30
0.0
  0
VERTEX
  5
7A
330
76
100
AcDbEntity
  8
\U+30EC\U+30A4\U+30E4\U+30FC 1
 62
    18
420
   262144
370
    25
100
AcDbVertex
100
AcDb2dVertex
 10
79.53950328957693
 20
-228.6372069740907
 30
0.0
  0
VERTEX
  5
7B
330
76
100
AcDbEntity
  8
\U+30EC\U+30A4\U+30E4\U+30FC 1
 62
    18
420
   262144
370
    25
100
AcDbVertex
100
AcDb2dVertex
 10
79.58704560727338
 20
-228.6372069740907
 30
0.0
  0
SEQEND
  5
7C
330
76
100
AcDbEntity
  8
\U+30EC\U+30A4\U+30E4\U+30FC 1
370
    25
  0
POLYLINE
  5
7D
330
1F
100
AcDbEntity
  8
\U+30EC\U+30A4\U+30E4\U+30FC 1
 62
    18
420
   262144
370
    25
100
AcDb2dPolyline
 66
     1
 10
0.0
 20
0.0
 30
0.0
  0
VERTEX
  5
7E
330
7D
100
AcDbEntity
  8
\U+30EC\U+30A4\U+30E4\U+30FC 1
 62
    18
420
   262144
370
    25
100
AcDbVertex
100
AcDb2dVertex
 10
125.0624782673455
 20
-61.14906682499051
 30
0.0
  0
VERTEX
  5
7F
330
7D
100
AcDbEntity
  8
\U+30EC\U+30A4\U+30E4\U+30FC 1
 62
    18
420
   262144
370
    25
100
AcDbVertex
100
AcDb2dVertex
 10
125.0624782673455
 20
-61.10152450729407
 30
0.0
  0
SEQEND
  5
80
330
7D
100
AcDbEntity
  8
\U+30EC\U+30A4\U+30E4\U+30FC 1
370
    25
  0
POLYLINE
  5
81
330
1F
100
AcDbEntity
  8
\U+30EC\U+30A4\U+30E4\U+30FC 1
 62
    18
420
   262144
370
    25
100
AcDb2dPolyline
 66
     1
 10
0.0
 20
0.0
 30
0.0
  0
VERTEX
  5
82
330
81
100
AcDbEntity
  8
\U+30EC\U+30A4\U+30E4\U+30FC 1
 62
    18
420
   262144
370
    25
100
AcDbVertex
100
AcDb2dVertex
 10
125.110020585042
 20
-61.38695066824702
 30
0.0
  0
VERTEX
  5
83
330
81
100
AcDbEntity
  8
\U+30EC\U+30A4\U+30E4\U+30FC 1
 62
    18
420
   262144
370
    25
100
AcDbVertex
100
AcDb2dVertex
 10
125.110020585042
 20
-61.29169377807986
 30
0.0
  0
SEQEND
  5
84
330
81
100
AcDbEntity
  8
\U+30EC\U+30A4\U+30E4\U+30FC 1
370
    25
  0
POLYLINE
  5
85
330
1F
100
AcDbEntity
  8
\U+30EC\U+30A4\U+30E4\U+30FC 1
 62
    18
420
   262144
370
    25
100
AcDb2dPolyline
 66
     1
 10
0.0
 20
0.0
 30
0.0
  0
VERTEX
  5
86
330
85
100
AcDbEntity
  8
\U+30EC\U+30A4\U+30E4\U+30FC 1
 62
    18
420
   262144
370
    25
100
AcDbVertex
100
AcDb2dVertex
 10
115.168853052805
 20
-36.98430581757684
 30
0.0
  0
VERTEX
  5
87
330
85
100
AcDbEntity
  8
\U+30EC\U+30A4\U+30E4\U+30FC 1
 62
    18
420
   262144
370
    25
100
AcDbVertex
100
AcDb2dVertex
 10
115.2157063514044
 20
-36.98430581757684
 30
0.0
  0
VERTEX
  5
88
330
85
100
AcDbEntity
  8
\U+30EC\U+30A4\U+30E4\U+30FC 1
 62
    18
420
   262144
370
    25
100
AcDbVertex
100
AcDb2dVertex
 10
115.3114800058944
 20
-37.07939045296974
 30
0.0
  0
VERTEX
  5
89
330
85
100
AcDbEntity
  8
\U+30EC\U+30A4\U+30E4\U+30FC 1
 62
    18
420
   262144
370
    25
100
AcDbVertex
100
AcDb2dVertex
 10
115.3583333044938
 20
-37.1746473431369
 30
0.0
  0
VERTEX
  5
8A
330
85
100
AcDbEntity
  8
\U+30EC\U+30A4\U+30E4\U+30FC 1
 62
    18
420
   262144
370
    25
100
AcDbVertex
100
AcDb2dVertex
 10
115.4065646412872
 20
-37.31727429622624
 30
0.0
  0
VERTEX
  5
8B
330
85
100
AcDbEntity
  8
\U+30EC\U+30A4\U+30E4\U+30FC 1
 62
    18
420
   262144
370
    25
100
AcDbVertex
100
AcDb2dVertex
 10
115.4065646412872
 20
-37.45990124931559
 30
0.0
  0
SEQEND
  5
8C
330
85
100
AcDbEntity
  8
\U+30EC\U+30A4\U+30E4\U+30FC 1
370
    25
  0
POLYLINE
  5
8D
330
1F
100
AcDbEntity
  8
\U+30EC\U+30A4\U+30E4\U+30FC 1
 62
    18
420
   262144
370
    25
100
AcDb2dPolyline
 66
     1
 10
0.0
 20
0.0
 30
0.0
  0
VERTEX
  5
8E
330
8D
100
AcDbEntity
  8
\U+30EC\U+30A4\U+30E4\U+30FC 1
 62
    18
420
   262144
370
    25
100
AcDbVertex
100
AcDb2dVertex
 10
56.84941540462445
 20
-233.6319064086059
 30
0.0
  0
VERTEX
  5
8F
330
8D
100
AcDbEntity
  8
\U+30EC\U+30A4\U+30E4\U+30FC 1
 62
    18
420
   262144
370
    25
100
AcDbVertex
100
AcDb2dVertex
 10
56.70678845153511
 20
-233.7276800630959
 30
0.0
  0
VERTEX
  5
90
330
8D
100
AcDbEntity
  8
\U+30EC\U+30A4\U+30E4\U+30FC 1
 62
    18
420
   262144
370
    25
100
AcDbVertex
100
AcDb2dVertex
 10
56.56416149844577
 20
-233.7276800630959
 30
0.0
  0
VERTEX
  5
91
330
8D
100
AcDbEntity
  8
\U+30EC\U+30A4\U+30E4\U+30FC 1
 62
    18
420
   262144
370
    25
100
AcDbVertex
100
AcDb2dVertex
 10
56.42153454535642
 20
-233.7276800630959
 30
0.0
  0
VERTEX
  5
92
330
8D
100
AcDbEntity
  8
\U+30EC\U+30A4\U+30E4\U+30FC 1
 62
    18
420
   262144
370
    25
100
AcDbVertex
100
AcDb2dVertex
 10
56.32644990996353
 20
-233.6794487263024
 30
0.0
  0
SEQEND
  5
93
330
8D
100
AcDbEntity
  8
\U+30EC\U+30A4\U+30E4\U+30FC 1
370
    25
  0
POLYLINE
  5
94
330
1F
100
AcDbEntity
  8
\U+30EC\U+30A4\U+30E4\U+30FC 1
 62
    18
420
   262144
370
    25
100
AcDb2dPolyline
 66
     1
 10
0.0
 20
0.0
 30
0.0
  0
VERTEX
  5
95
330
94
100
AcDbEntity
  8
\U+30EC\U+30A4\U+30E4\U+30FC 1
 62
    18
420
   262144
370
    25
100
AcDbVertex
100
AcDb2dVertex
 10
91.66968449314162
 20
-68.61717256314085
 30
0.0
  0
VERTEX
  5
96
330
94
100
AcDbEntity
  8
\U+30EC\U+30A4\U+30E4\U+30FC 1
 62
    18
420
   262144
370
    25
100
AcDbVertex
100
AcDb2dVertex
 10
91.66968449314162
 20
-194.9111002116889
 30
0.0
  0
SEQEND
  5
97
330
94
100
AcDbEntity
  8
\U+30EC\U+30A4\U+30E4\U+30FC 1
370
    25
  0
POLYLINE
  5
98
330
1F
100
AcDbEntity
  8
\U+30EC\U+30A4\U+30E4\U+30FC 1
 62
    18
420
   262144
370
    25
100
AcDb2dPolyline
 66
     1
 10
0.0
 20
0.0
 30
0.0
  0
VERTEX
  5
99
330
98
100
AcDbEntity
  8
\U+30EC\U+30A4\U+30E4\U+30FC 1
 62
    18
420
   262144
370
    25
100
AcDbVertex
100
AcDb2dVertex
 10
125.0624782673455
 20
-61.14906682499051
 30
0.0
  0
VERTEX
  5
9A
330
98
100
AcDbEntity
  8
\U+30EC\U+30A4\U+30E4\U+30FC 1
 62
    18
420
   262144
370
    25
100
AcDbVertex
100
AcDb2dVertex
 10
125.0624782673455
 20
-61.00626761712691
 30
0.0
  0
VERTEX
  5
9B
330
98
100
AcDbEntity
  8
\U+30EC\U+30A4\U+30E4\U+30FC 1
 62
    18
420
   262144
370
    25
100
AcDbVertex
100
AcDb2dVertex
 10
125.014935949649
 20
-60.86364066403757
 30
0.0
  0
VERTEX
  5
9C
330
98
100
AcDbEntity
  8
\U+30EC\U+30A4\U+30E4\U+30FC 1
 62
    18
420
   262144
370
    25
100
AcDbVertex
100
AcDb2dVertex
 10
124.9673936319526
 20
-60.7683837738704
 30
0.0
  0
VERTEX
  5
9D
330
98
100
AcDbEntity
  8
\U+30EC\U+30A4\U+30E4\U+30FC 1
 62
    18
420
   262144
370
    25
100
AcDbVertex
100
AcDb2dVertex
 10
124.8723089965597
 20
-60.72101371094822
 30
0.0
  0
SEQEND
  5
9E
330
98
100
AcDbEntity
  8
\U+30EC\U+30A4\U+30E4\U+30FC 1
370
    25
  0
POLYLINE
  5
9F
330
1F
100
AcDbEntity
  8
\U+30EC\U+30A4\U+30E4\U+30FC 1
 62
    18
420
   262144
370
    25
100
AcDb2dPolyline
 66
     1
 10
0.0
 20
0.0
 30
0.0
  0
VERTEX
  5
A0
330
9F
100
AcDbEntity
  8
\U+30EC\U+30A4\U+30E4\U+30FC 1
 62
    18
420
   262144
370
    25
100
AcDbVertex
100
AcDb2dVertex
 10
117.8326008820002
 20
-63.9556138620493
 30
0.0
  0
VERTEX
  5
A1
330
9F
100
AcDbEntity
  8
\U+30EC\U+30A4\U+30E4\U+30FC 1
 62
    18
420
   262144
370
    25
100
AcDbVertex
100
AcDb2dVertex
 10
122.1134765319716
 20
-61.48203530363991
 30
0.0
  0
SEQEND
  5
A2
330
9F
100
AcDbEntity
  8
\U+30EC\U+30A4\U+30E4\U+30FC 1
370
    25
  0
POLYLINE
  5
A3
330
1F
100
AcDbEntity
  8
\U+30EC\U+30A4\U+30E4\U+30FC 1
 62
    18
420
   262144
370
    25
100
AcDb2dPolyline
 66
     1
 10
0.0
 20
0.0
 30
0.0
  0
VERTEX
  5
A4
330
A3
100
AcDbEntity
  8
\U+30EC\U+30A4\U+30E4\U+30FC 1
 62
    18
420
   262144
370
    25
100
AcDbVertex
100
AcDb2dVertex
 10
117.9752278350895
 20
-67.99895017831277
 30
0.0
  0
VERTEX
  5
A5
330
A3
100
AcDbEntity
  8
\U+30EC\U+30A4\U+30E4\U+30FC 1
 62
    18
420
   262144
370
    25
100
AcDbVertex
100
AcDb2dVertex
 10
118.1178547881789
 20
-68.09420706847992
 30
0.0
  0
SEQEND
  5
A6
330
A3
100
AcDbEntity
  8
\U+30EC\U+30A4\U+30E4\U+30FC 1
370
    25
  0
POLYLINE
  5
A7
330
1F
100
AcDbEntity
  8
\U+30EC\U+30A4\U+30E4\U+30FC 1
 62
    18
420
   262144
370
    25
100
AcDb2dPolyline
 66
     1
 10
0.0
 20
0.0
 30
0.0
  0
VERTEX
  5
A8
330
A7
100
AcDbEntity
  8
\U+30EC\U+30A4\U+30E4\U+30FC 1
 62
    18
420
   262144
370
    25
100
AcDbVertex
100
AcDb2dVertex
 10
79.3968763364876
 20
-228.5903536754913
 30
0.0
  0
VERTEX
  5
A9
330
A7
100
AcDbEntity
  8
\U+30EC\U+30A4\U+30E4\U+30FC 1
 62
    18
420
   262144
370
    25
100
AcDbVertex
100
AcDb2dVertex
 10
79.3968763364876
 20
-228.5903536754913
 30
0.0
  0
VERTEX
  5
AA
330
A7
100
AcDbEntity
  8
\U+30EC\U+30A4\U+30E4\U+30FC 1
 62
    18
420
   262144
370
    25
100
AcDbVertex
100
AcDb2dVertex
 10
79.44441865418403
 20
-228.5903536754913
 30
0.0
  0
VERTEX
  5
AB
330
A7
100
AcDbEntity
  8
\U+30EC\U+30A4\U+30E4\U+30FC 1
 62
    18
420
   262144
370
    25
100
AcDbVertex
100
AcDb2dVertex
 10
79.49230548142901
 20
-228.5903536754913
 30
0.0
  0
SEQEND
  5
AC
330
A7
100
AcDbEntity
  8
\U+30EC\U+30A4\U+30E4\U+30FC 1
370
    25
  0
POLYLINE
  5
AD
330
1F
100
AcDbEntity
  8
\U+30EC\U+30A4\U+30E4\U+30FC 1
 62
    18
420
   262144
370
    25
100
AcDb2dPolyline
 66
     1
 10
0.0
 20
0.0
 30
0.0
  0
VERTEX
  5
AE
330
AD
100
AcDbEntity
  8
\U+30EC\U+30A4\U+30E4\U+30FC 1
 62
    18
420
   262144
370
    25
100
AcDbVertex
100
AcDb2dVertex
 10
79.016537794916
 20
-228.5903536754913
 30
0.0
  0
VERTEX
  5
AF
330
AD
100
AcDbEntity
  8
\U+30EC\U+30A4\U+30E4\U+30FC 1
 62
    18
420
   262144
370
    25
100
AcDbVertex
100
AcDb2dVertex
 10
79.06408011261246
 20
-228.5903536754913
 30
0.0
  0
VERTEX
  5
B0
330
AD
100
AcDbEntity
  8
\U+30EC\U+30A4\U+30E4\U+30FC 1
 62
    18
420
   262144
370
    25
100
AcDbVertex
100
AcDb2dVertex
 10
79.15916474800535
 20
-228.6372069740907
 30
0.0
  0
VERTEX
  5
B1
330
AD
100
AcDbEntity
  8
\U+30EC\U+30A4\U+30E4\U+30FC 1
 62
    18
420
   262144
370
    25
100
AcDbVertex
100
AcDb2dVertex
 10
79.3017917010947
 20
-228.6372069740907
 30
0.0
  0
VERTEX
  5
B2
330
AD
100
AcDbEntity
  8
\U+30EC\U+30A4\U+30E4\U+30FC 1
 62
    18
420
   262144
370
    25
100
AcDbVertex
100
AcDb2dVertex
 10
79.3968763364876
 20
-228.5903536754913
 30
0.0
  0
SEQEND
  5
B3
330
AD
100
AcDbEntity
  8
\U+30EC\U+30A4\U+30E4\U+30FC 1
370
    25
  0
POLYLINE
  5
B4
330
1F
100
AcDbEntity
  8
\U+30EC\U+30A4\U+30E4\U+30FC 1
 62
    18
420
   262144
370
    25
100
AcDb2dPolyline
 66
     1
 10
0.0
 20
0.0
 30
0.0
  0
VERTEX
  5
B5
330
B4
100
AcDbEntity
  8
\U+30EC\U+30A4\U+30E4\U+30FC 1
 62
    18
420
   262144
370
    25
100
AcDbVertex
100
AcDb2dVertex
 10
79.3968763364876
 20
-228.5903536754913
 30
0.0
  0
VERTEX
  5
B6
330
B4
100
AcDbEntity
  8
\U+30EC\U+30A4\U+30E4\U+30FC 1
 62
    18
420
   262144
370
    25
100
AcDbVertex
100
AcDb2dVertex
 10
79.44441865418403
 20
-228.5903536754913
 30
0.0
  0
VERTEX
  5
B7
330
B4
100
AcDbEntity
  8
\U+30EC\U+30A4\U+30E4\U+30FC 1
 62
    18
420
   262144
370
    25
100
AcDbVertex
100
AcDb2dVertex
 10
79.44441865418403
 20
-228.5428113577949
 30
0.0
  0
VERTEX
  5
B8
330
B4
100
AcDbEntity
  8
\U+30EC\U+30A4\U+30E4\U+30FC 1
 62
    18
420
   262144
370
    25
100
AcDbVertex
100
AcDb2dVertex
 10
79.49230548142901
 20
-228.5428113577949
 30
0.0
  0
SEQEND
  5
B9
330
B4
100
AcDbEntity
  8
\U+30EC\U+30A4\U+30E4\U+30FC 1
370
    25
  0
POLYLINE
  5
BA
330
1F
100
AcDbEntity
  8
\U+30EC\U+30A4\U+30E4\U+30FC 1
 62
    18
420
   262144
370
    25
100
AcDb2dPolyline
 66
     1
 10
0.0
 20
0.0
 30
0.0
  0
VERTEX
  5
BB
330
BA
100
AcDbEntity
  8
\U+30EC\U+30A4\U+30E4\U+30FC 1
 62
    18
420
   262144
370
    25
100
AcDbVertex
100
AcDb2dVertex
 10
79.016537794916
 20
-228.2575574516162
 30
0.0
  0
VERTEX
  5
BC
330
BA
100
AcDbEntity
  8
\U+30EC\U+30A4\U+30E4\U+30FC 1
 62
    18
420
   262144
370
    25
100
AcDbVertex
100
AcDb2dVertex
 10
79.49230548142901
 20
-228.5428113577949
 30
0.0
  0
SEQEND
  5
BD
330
BA
100
AcDbEntity
  8
\U+30EC\U+30A4\U+30E4\U+30FC 1
370
    25
  0
POLYLINE
  5
BE
330
1F
100
AcDbEntity
  8
\U+30EC\U+30A4\U+30E4\U+30FC 1
 62
    18
420
   262144
370
    25
100
AcDb2dPolyline
 66
     1
 10
0.0
 20
0.0
 30
0.0
  0
VERTEX
  5
BF
330
BE
100
AcDbEntity
  8
\U+30EC\U+30A4\U+30E4\U+30FC 1
 62
    18
420
   262144
370
    25
100
AcDbVertex
100
AcDb2dVertex
 10
79.49230548142901
 20
-228.5428113577949
 30
0.0
  0
VERTEX
  5
C0
330
BE
100
AcDbEntity
  8
\U+30EC\U+30A4\U+30E4\U+30FC 1
 62
    18
420
   262144
370
    25
100
AcDbVertex
100
AcDb2dVertex
 10
81.2517157457461
 20
-227.5912759847689
 30
0.0
  0
SEQEND
  5
C1
330
BE
100
AcDbEntity
  8
\U+30EC\U+30A4\U+30E4\U+30FC 1
370
    25
  0
POLYLINE
  5
C2
330
1F
100
AcDbEntity
  8
\U+30EC\U+30A4\U+30E4\U+30FC 1
 62
    18
420
   262144
370
    25
100
AcDb2dPolyline
 66
     1
 10
0.0
 20
0.0
 30
0.0
  0
VERTEX
  5
C3
330
C2
100
AcDbEntity
  8
\U+30EC\U+30A4\U+30E4\U+30FC 1
 62
    18
420
   262144
370
    25
100
AcDbVertex
100
AcDb2dVertex
 10
78.39779864576514
 20
-224.0235351002441
 30
0.0
  0
VERTEX
  5
C4
330
C2
100
AcDbEntity
  8
\U+30EC\U+30A4\U+30E4\U+30FC 1
 62
    18
420
   262144
370
    25
100
AcDbVertex
100
AcDb2dVertex
 10
78.39779864576514
 20
-227.8765298909476
 30
0.0
  0
SEQEND
  5
C5
330
C2
100
AcDbEntity
  8
\U+30EC\U+30A4\U+30E4\U+30FC 1
370
    25
  0
POLYLINE
  5
C6
330
1F
100
AcDbEntity
  8
\U+30EC\U+30A4\U+30E4\U+30FC 1
 62
    18
420
   262144
370
    25
100
AcDb2dPolyline
 66
     1
 10
0.0
 20
0.0
 30
0.0
  0
VERTEX
  5
C7
330
C6
100
AcDbEntity
  8
\U+30EC\U+30A4\U+30E4\U+30FC 1
 62
    18
420
   262144
370
    25
100
AcDbVertex
100
AcDb2dVertex
 10
78.39779864576514
 20
-227.8765298909476
 30
0.0
  0
VERTEX
  5
C8
330
C6
100
AcDbEntity
  8
\U+30EC\U+30A4\U+30E4\U+30FC 1
 62
    18
420
   262144
370
    25
100
AcDbVertex
100
AcDb2dVertex
 10
78.39779864576514
 20
-228.019845863134
 30
0.0
  0
VERTEX
  5
C9
330
C6
100
AcDbEntity
  8
\U+30EC\U+30A4\U+30E4\U+30FC 1
 62
    18
420
   262144
370
    25
100
AcDbVertex
100
AcDb2dVertex
 10
78.44568547301012
 20
-228.1617837971262
 30
0.0
  0
VERTEX
  5
CA
330
C6
100
AcDbEntity
  8
\U+30EC\U+30A4\U+30E4\U+30FC 1
 62
    18
420
   262144
370
    25
100
AcDbVertex
100
AcDb2dVertex
 10
78.49288328115803
 20
-228.2575574516162
 30
0.0
  0
VERTEX
  5
CB
330
C6
100
AcDbEntity
  8
\U+30EC\U+30A4\U+30E4\U+30FC 1
 62
    18
420
   262144
370
    25
100
AcDbVertex
100
AcDb2dVertex
 10
78.58831242609945
 20
-228.3050997693126
 30
0.0
  0
VERTEX
  5
CC
330
C6
100
AcDbEntity
  8
\U+30EC\U+30A4\U+30E4\U+30FC 1
 62
    18
420
   262144
370
    25
100
AcDbVertex
100
AcDb2dVertex
 10
78.68374157104087
 20
-228.351953067912
 30
0.0
  0
VERTEX
  5
CD
330
C6
100
AcDbEntity
  8
\U+30EC\U+30A4\U+30E4\U+30FC 1
 62
    18
420
   262144
370
    25
100
AcDbVertex
100
AcDb2dVertex
 10
78.77882620643376
 20
-228.351953067912
 30
0.0
  0
VERTEX
  5
CE
330
C6
100
AcDbEntity
  8
\U+30EC\U+30A4\U+30E4\U+30FC 1
 62
    18
420
   262144
370
    25
100
AcDbVertex
100
AcDb2dVertex
 10
78.87356633227814
 20
-228.351953067912
 30
0.0
  0
VERTEX
  5
CF
330
C6
100
AcDbEntity
  8
\U+30EC\U+30A4\U+30E4\U+30FC 1
 62
    18
420
   262144
370
    25
100
AcDbVertex
100
AcDb2dVertex
 10
79.016537794916
 20
-228.2575574516162
 30
0.0
  0
SEQEND
  5
D0
330
C6
100
AcDbEntity
  8
\U+30EC\U+30A4\U+30E4\U+30FC 1
370
    25
  0
POLYLINE
  5
D1
330
1F
100
AcDbEntity
  8
\U+30EC\U+30A4\U+30E4\U+30FC 1
 62
    18
420
   262144
370
    25
100
AcDb2dPolyline
 66
     1
 10
0.0
 20
0.0
 30
0.0
  0
VERTEX
  5
D2
330
D1
100
AcDbEntity
  8
\U+30EC\U+30A4\U+30E4\U+30FC 1
 62
    18
420
   262144
370
    25
100
AcDbVertex
100
AcDb2dVertex
 10
80.72875025108517
 20
-227.3060220785902
 30
0.0
  0
VERTEX
  5
D3
330
D1
100
AcDbEntity
  8
\U+30EC\U+30A4\U+30E4\U+30FC 1
 62
    18
420
   262144
370
    25
100
AcDbVertex
100
AcDb2dVertex
 10
79.016537794916
 20
-228.2575574516162
 30
0.0
  0
SEQEND
  5
D4
330
D1
100
AcDbEntity
  8
\U+30EC\U+30A4\U+30E4\U+30FC 1
370
    25
  0
POLYLINE
  5
D5
330
1F
100
AcDbEntity
  8
\U+30EC\U+30A4\U+30E4\U+30FC 1
 62
    18
420
   262144
370
    25
100
AcDb2dPolyline
 66
     1
 10
0.0
 20
0.0
 30
0.0
  0
VERTEX
  5
D6
330
D5
100
AcDbEntity
  8
\U+30EC\U+30A4\U+30E4\U+30FC 1
 62
    18
420
   262144
370
    25
100
AcDbVertex
100
AcDb2dVertex
 10
81.34714489068752
 20
-227.5912759847689
 30
0.0
  0
VERTEX
  5
D7
330
D5
100
AcDbEntity
  8
\U+30EC\U+30A4\U+30E4\U+30FC 1
 62
    18
420
   262144
370
    25
100
AcDbVertex
100
AcDb2dVertex
 10
81.34714489068752
 20
-227.5912759847689
 30
0.0
  0
VERTEX
  5
D8
330
D5
100
AcDbEntity
  8
\U+30EC\U+30A4\U+30E4\U+30FC 1
 62
    18
420
   262144
370
    25
100
AcDbVertex
100
AcDb2dVertex
 10
81.2999470825396
 20
-227.5912759847689
 30
0.0
  0
VERTEX
  5
D9
330
D5
100
AcDbEntity
  8
\U+30EC\U+30A4\U+30E4\U+30FC 1
 62
    18
420
   262144
370
    25
100
AcDbVertex
100
AcDb2dVertex
 10
81.2517157457461
 20
-227.5912759847689
 30
0.0
  0
SEQEND
  5
DA
330
D5
100
AcDbEntity
  8
\U+30EC\U+30A4\U+30E4\U+30FC 1
370
    25
  0
POLYLINE
  5
DB
330
1F
100
AcDbEntity
  8
\U+30EC\U+30A4\U+30E4\U+30FC 1
 62
    18
420
   262144
370
    25
100
AcDb2dPolyline
 66
     1
 10
0.0
 20
0.0
 30
0.0
  0
VERTEX
  5
DC
330
DB
100
AcDbEntity
  8
\U+30EC\U+30A4\U+30E4\U+30FC 1
 62
    18
420
   262144
370
    25
100
AcDbVertex
100
AcDb2dVertex
 10
81.2517157457461
 20
-227.5912759847689
 30
0.0
  0
VERTEX
  5
DD
330
DB
100
AcDbEntity
  8
\U+30EC\U+30A4\U+30E4\U+30FC 1
 62
    18
420
   262144
370
    25
100
AcDbVertex
100
AcDb2dVertex
 10
81.2517157457461
 20
-227.5912759847689
 30
0.0
  0
SEQEND
  5
DE
330
DB
100
AcDbEntity
  8
\U+30EC\U+30A4\U+30E4\U+30FC 1
370
    25
  0
POLYLINE
  5
DF
330
1F
100
AcDbEntity
  8
\U+30EC\U+30A4\U+30E4\U+30FC 1
 62
    18
420
   262144
370
    25
100
AcDb2dPolyline
 66
     1
 10
0.0
 20
0.0
 30
0.0
  0
VERTEX
  5
E0
330
DF
100
AcDbEntity
  8
\U+30EC\U+30A4\U+30E4\U+30FC 1
 62
    18
420
   262144
370
    25
100
AcDbVertex
100
AcDb2dVertex
 10
81.2517157457461
 20
-227.5912759847689
 30
0.0
  0
VERTEX
  5
E1
330
DF
100
AcDbEntity
  8
\U+30EC\U+30A4\U+30E4\U+30FC 1
 62
    18
420
   262144
370
    25
100
AcDbVertex
100
AcDb2dVertex
 10
122.6364420266326
 20
-203.7112521192111
 30
0.0
  0
SEQEND
  5
E2
330
DF
100
AcDbEntity
  8
\U+30EC\U+30A4\U+30E4\U+30FC 1
370
    25
  0
POLYLINE
  5
E3
330
1F
100
AcDbEntity
  8
\U+30EC\U+30A4\U+30E4\U+30FC 1
 62
    18
420
   262144
370
    25
100
AcDb2dPolyline
 66
     1
 10
0.0
 20
0.0
 30
0.0
  0
VERTEX
  5
E4
330
E3
100
AcDbEntity
  8
\U+30EC\U+30A4\U+30E4\U+30FC 1
 62
    18
420
   262144
370
    25
100
AcDbVertex
100
AcDb2dVertex
 10
81.2517157457461
 20
-227.5912759847689
 30
0.0
  0
VERTEX
  5
E5
330
E3
100
AcDbEntity
  8
\U+30EC\U+30A4\U+30E4\U+30FC 1
 62
    18
420
   262144
370
    25
100
AcDbVertex
100
AcDb2dVertex
 10
80.72875025108517
 20
-227.3060220785902
 30
0.0
  0
SEQEND
  5
E6
330
E3
100
AcDbEntity
  8
\U+30EC\U+30A4\U+30E4\U+30FC 1
370
    25
  0
POLYLINE
  5
E7
330
1F
100
AcDbEntity
  8
\U+30EC\U+30A4\U+30E4\U+30FC 1
 62
    18
420
   262144
370
    25
100
AcDb2dPolyline
 66
     1
 10
0.0
 20
0.0
 30
0.0
  0
VERTEX
  5
E8
330
E7
100
AcDbEntity
  8
\U+30EC\U+30A4\U+30E4\U+30FC 1
 62
    18
420
   262144
370
    25
100
AcDbVertex
100
AcDb2dVertex
 10
80.72875025108517
 20
-227.3060220785902
 30
0.0
  0
VERTEX
  5
E9
330
E7
100
AcDbEntity
  8
\U+30EC\U+30A4\U+30E4\U+30FC 1
 62
    18
420
   262144
370
    25
100
AcDbVertex
100
AcDb2dVertex
 10
122.1134765319716
 20
-203.379144914433
 30
0.0
  0
SEQEND
  5
EA
330
E7
100
AcDbEntity
  8
\U+30EC\U+30A4\U+30E4\U+30FC 1
370
    25
  0
POLYLINE
  5
EB
330
1F
100
AcDbEntity
  8
\U+30EC\U+30A4\U+30E4\U+30FC 1
 62
    18
420
   262144
370
    25
100
AcDb2dPolyline
 66
     1
 10
0.0
 20
0.0
 30
0.0
  0
VERTEX
  5
EC
330
EB
100
AcDbEntity
  8
\U+30EC\U+30A4\U+30E4\U+30FC 1
 62
    18
420
   262144
370
    25
100
AcDbVertex
100
AcDb2dVertex
 10
86.1992173721134
 20
-220.3607095803265
 30
0.0
  0
VERTEX
  5
ED
330
EB
100
AcDbEntity
  8
\U+30EC\U+30A4\U+30E4\U+30FC 1
 62
    18
420
   262144
370
    25
100
AcDbVertex
100
AcDb2dVertex
 10
85.72344968560039
 20
-220.5984211688087
 30
0.0
  0
VERTEX
  5
EE
330
EB
100
AcDbEntity
  8
\U+30EC\U+30A4\U+30E4\U+30FC 1
 62
    18
420
   262144
370
    25
100
AcDbVertex
100
AcDb2dVertex
 10
85.24802650863592
 20
-220.6941948232987
 30
0.0
  0
VERTEX
  5
EF
330
EB
100
AcDbEntity
  8
\U+30EC\U+30A4\U+30E4\U+30FC 1
 62
    18
420
   262144
370
    25
100
AcDbVertex
100
AcDb2dVertex
 10
84.81945663027084
 20
-220.6466525056022
 30
0.0
  0
VERTEX
  5
F0
330
EB
100
AcDbEntity
  8
\U+30EC\U+30A4\U+30E4\U+30FC 1
 62
    18
420
   262144
370
    25
100
AcDbVertex
100
AcDb2dVertex
 10
84.48700491594423
 20
-220.5033365334158
 30
0.0
  0
SEQEND
  5
F1
330
EB
100
AcDbEntity
  8
\U+30EC\U+30A4\U+30E4\U+30FC 1
370
    25
  0
POLYLINE
  5
F2
330
1F
100
AcDbEntity
  8
\U+30EC\U+30A4\U+30E4\U+30FC 1
 62
    18
420
   262144
370
    25
100
AcDb2dPolyline
 66
     1
 10
0.0
 20
0.0
 30
0.0
  0
VERTEX
  5
F3
330
F2
100
AcDbEntity
  8
\U+30EC\U+30A4\U+30E4\U+30FC 1
 62
    18
420
   262144
370
    25
100
AcDbVertex
100
AcDb2dVertex
 10
80.72875025108517
 20
-227.3060220785902
 30
0.0
  0
VERTEX
  5
F4
330
F2
100
AcDbEntity
  8
\U+30EC\U+30A4\U+30E4\U+30FC 1
 62
    18
420
   262144
370
    25
100
AcDbVertex
100
AcDb2dVertex
 10
84.48700491594423
 20
-220.5033365334158
 30
0.0
  0
SEQEND
  5
F5
330
F2
100
AcDbEntity
  8
\U+30EC\U+30A4\U+30E4\U+30FC 1
370
    25
  0
POLYLINE
  5
F6
330
1F
100
AcDbEntity
  8
\U+30EC\U+30A4\U+30E4\U+30FC 1
 62
    18
420
   262144
370
    25
100
AcDb2dPolyline
 66
     1
 10
0.0
 20
0.0
 30
0.0
  0
VERTEX
  5
F7
330
F6
100
AcDbEntity
  8
\U+30EC\U+30A4\U+30E4\U+30FC 1
 62
    18
420
   262144
370
    25
100
AcDbVertex
100
AcDb2dVertex
 10
125.110020585042
 20
-61.19678139746122
 30
0.0
  0
VERTEX
  5
F8
330
F6
100
AcDbEntity
  8
\U+30EC\U+30A4\U+30E4\U+30FC 1
 62
    18
420
   262144
370
    25
100
AcDbVertex
100
AcDb2dVertex
 10
125.110020585042
 20
-61.19678139746122
 30
0.0
  0
VERTEX
  5
F9
330
F6
100
AcDbEntity
  8
\U+30EC\U+30A4\U+30E4\U+30FC 1
 62
    18
420
   262144
370
    25
100
AcDbVertex
100
AcDb2dVertex
 10
125.110020585042
 20
-61.14906682499051
 30
0.0
  0
VERTEX
  5
FA
330
F6
100
AcDbEntity
  8
\U+30EC\U+30A4\U+30E4\U+30FC 1
 62
    18
420
   262144
370
    25
100
AcDbVertex
100
AcDb2dVertex
 10
125.0624782673455
 20
-61.14906682499051
 30
0.0
  0
SEQEND
  5
FB
330
F6
100
AcDbEntity
  8
\U+30EC\U+30A4\U+30E4\U+30FC 1
370
    25
  0
POLYLINE
  5
FC
330
1F
100
AcDbEntity
  8
\U+30EC\U+30A4\U+30E4\U+30FC 1
 62
    18
420
   262144
370
    25
100
AcDb2dPolyline
 66
     1
 10
0.0
 20
0.0
 30
0.0
  0
VERTEX
  5
FD
330
FC
100
AcDbEntity
  8
\U+30EC\U+30A4\U+30E4\U+30FC 1
 62
    18
420
   262144
370
    25
100
AcDbVertex
100
AcDb2dVertex
 10
124.5395127726846
 20
-202.6177788121928
 30
0.0
  0
VERTEX
  5
FE
330
FC
100
AcDbEntity
  8
\U+30EC\U+30A4\U+30E4\U+30FC 1
 62
    18
420
   262144
370
    25
100
AcDbVertex
100
AcDb2dVertex
 10
124.5395127726846
 20
-202.6653211298892
 30
0.0
  0
VERTEX
  5
FF
330
FC
100
AcDbEntity
  8
\U+30EC\U+30A4\U+30E4\U+30FC 1
 62
    18
420
   262144
370
    25
100
AcDbVertex
100
AcDb2dVertex
 10
124.4919704549881
 20
-202.6653211298892
 30
0.0
  0
SEQEND
  5
100
330
FC
100
AcDbEntity
  8
\U+30EC\U+30A4\U+30E4\U+30FC 1
370
    25
  0
POLYLINE
  5
101
330
1F
100
AcDbEntity
  8
\U+30EC\U+30A4\U+30E4\U+30FC 1
 62
    18
420
   262144
370
    25
100
AcDb2dPolyline
 66
     1
 10
0.0
 20
0.0
 30
0.0
  0
VERTEX
  5
102
330
101
100
AcDbEntity
  8
\U+30EC\U+30A4\U+30E4\U+30FC 1
 62
    18
420
   262144
370
    25
100
AcDbVertex
100
AcDb2dVertex
 10
124.7772243611668
 20
-202.427609541407
 30
0.0
  0
VERTEX
  5
103
330
101
100
AcDbEntity
  8
\U+30EC\U+30A4\U+30E4\U+30FC 1
 62
    18
420
   262144
370
    25
100
AcDbVertex
100
AcDb2dVertex
 10
124.6821397257739
 20
-202.5220051577028
 30
0.0
  0
VERTEX
  5
104
330
101
100
AcDbEntity
  8
\U+30EC\U+30A4\U+30E4\U+30FC 1
 62
    18
420
   262144
370
    25
100
AcDbVertex
100
AcDb2dVertex
 10
124.6345974080775
 20
-202.5702364944963
 30
0.0
  0
VERTEX
  5
105
330
101
100
AcDbEntity
  8
\U+30EC\U+30A4\U+30E4\U+30FC 1
 62
    18
420
   262144
370
    25
100
AcDbVertex
100
AcDb2dVertex
 10
124.5395127726846
 20
-202.6177788121928
 30
0.0
  0
SEQEND
  5
106
330
101
100
AcDbEntity
  8
\U+30EC\U+30A4\U+30E4\U+30FC 1
370
    25
  0
POLYLINE
  5
107
330
1F
100
AcDbEntity
  8
\U+30EC\U+30A4\U+30E4\U+30FC 1
 62
    18
420
   262144
370
    25
100
AcDb2dPolyline
 66
     1
 10
0.0
 20
0.0
 30
0.0
  0
VERTEX
  5
108
330
107
100
AcDbEntity
  8
\U+30EC\U+30A4\U+30E4\U+30FC 1
 62
    18
420
   262144
370
    25
100
AcDbVertex
100
AcDb2dVertex
 10
125.0624782673455
 20
-201.5236164860774
 30
0.0
  0
VERTEX
  5
109
330
107
100
AcDbEntity
  8
\U+30EC\U+30A4\U+30E4\U+30FC 1
 62
    18
420
   262144
370
    25
100
AcDbVertex
100
AcDb2dVertex
 10
125.0624782673455
 20
-61.14906682499051
 30
0.0
  0
SEQEND
  5
10A
330
107
100
AcDbEntity
  8
\U+30EC\U+30A4\U+30E4\U+30FC 1
370
    25
  0
POLYLINE
  5
10B
330
1F
100
AcDbEntity
  8
\U+30EC\U+30A4\U+30E4\U+30FC 1
 62
    18
420
   262144
370
    25
100
AcDb2dPolyline
 66
     1
 10
0.0
 20
0.0
 30
0.0
  0
VERTEX
  5
10C
330
10B
100
AcDbEntity
  8
\U+30EC\U+30A4\U+30E4\U+30FC 1
 62
    18
420
   262144
370
    25
100
AcDbVertex
100
AcDb2dVertex
 10
125.0624782673455
 20
-61.14906682499051
 30
0.0
  0
VERTEX
  5
10D
330
10B
100
AcDbEntity
  8
\U+30EC\U+30A4\U+30E4\U+30FC 1
 62
    18
420
   262144
370
    25
100
AcDbVertex
100
AcDb2dVertex
 10
124.6345974080775
 20
-60.91135523650828
 30
0.0
  0
SEQEND
  5
10E
330
10B
100
AcDbEntity
  8
\U+30EC\U+30A4\U+30E4\U+30FC 1
370
    25
  0
POLYLINE
  5
10F
330
1F
100
AcDbEntity
  8
\U+30EC\U+30A4\U+30E4\U+30FC 1
 62
    18
420
   262144
370
    25
100
AcDb2dPolyline
 66
     1
 10
0.0
 20
0.0
 30
0.0
  0
VERTEX
  5
110
330
10F
100
AcDbEntity
  8
\U+30EC\U+30A4\U+30E4\U+30FC 1
 62
    18
420
   262144
370
    25
100
AcDbVertex
100
AcDb2dVertex
 10
122.1134765319716
 20
-203.379144914433
 30
0.0
  0
VERTEX
  5
111
330
10F
100
AcDbEntity
  8
\U+30EC\U+30A4\U+30E4\U+30FC 1
 62
    18
420
   262144
370
    25
100
AcDbVertex
100
AcDb2dVertex
 10
122.6364420266326
 20
-203.7112521192111
 30
0.0
  0
SEQEND
  5
112
330
10F
100
AcDbEntity
  8
\U+30EC\U+30A4\U+30E4\U+30FC 1
370
    25
  0
POLYLINE
  5
113
330
1F
100
AcDbEntity
  8
\U+30EC\U+30A4\U+30E4\U+30FC 1
 62
    18
420
   262144
370
    25
100
AcDb2dPolyline
 66
     1
 10
0.0
 20
0.0
 30
0.0
  0
VERTEX
  5
114
330
113
100
AcDbEntity
  8
\U+30EC\U+30A4\U+30E4\U+30FC 1
 62
    18
420
   262144
370
    25
100
AcDbVertex
100
AcDb2dVertex
 10
122.6364420266326
 20
-203.7112521192111
 30
0.0
  0
VERTEX
  5
115
330
113
100
AcDbEntity
  8
\U+30EC\U+30A4\U+30E4\U+30FC 1
 62
    18
420
   262144
370
    25
100
AcDbVertex
100
AcDb2dVertex
 10
124.3968858195952
 20
-202.6653211298892
 30
0.0
  0
SEQEND
  5
116
330
113
100
AcDbEntity
  8
\U+30EC\U+30A4\U+30E4\U+30FC 1
370
    25
  0
POLYLINE
  5
117
330
1F
100
AcDbEntity
  8
\U+30EC\U+30A4\U+30E4\U+30FC 1
 62
    18
420
   262144
370
    25
100
AcDb2dPolyline
 66
     1
 10
0.0
 20
0.0
 30
0.0
  0
VERTEX
  5
118
330
117
100
AcDbEntity
  8
\U+30EC\U+30A4\U+30E4\U+30FC 1
 62
    18
420
   262144
370
    25
100
AcDbVertex
100
AcDb2dVertex
 10
125.0624782673455
 20
-201.6662434391668
 30
0.0
  0
VERTEX
  5
119
330
117
100
AcDbEntity
  8
\U+30EC\U+30A4\U+30E4\U+30FC 1
 62
    18
420
   262144
370
    25
100
AcDbVertex
100
AcDb2dVertex
 10
125.110020585042
 20
-201.6662434391668
 30
0.0
  0
VERTEX
  5
11A
330
117
100
AcDbEntity
  8
\U+30EC\U+30A4\U+30E4\U+30FC 1
 62
    18
420
   262144
370
    25
100
AcDbVertex
100
AcDb2dVertex
 10
125.110020585042
 20
-201.6193901405674
 30
0.0
  0
SEQEND
  5
11B
330
117
100
AcDbEntity
  8
\U+30EC\U+30A4\U+30E4\U+30FC 1
370
    25
  0
POLYLINE
  5
11C
330
1F
100
AcDbEntity
  8
\U+30EC\U+30A4\U+30E4\U+30FC 1
 62
    18
420
   262144
370
    25
100
AcDb2dPolyline
 66
     1
 10
0.0
 20
0.0
 30
0.0
  0
VERTEX
  5
11D
330
11C
100
AcDbEntity
  8
\U+30EC\U+30A4\U+30E4\U+30FC 1
 62
    18
420
   262144
370
    25
100
AcDbVertex
100
AcDb2dVertex
 10
124.7772243611668
 20
-202.427609541407
 30
0.0
  0
VERTEX
  5
11E
330
11C
100
AcDbEntity
  8
\U+30EC\U+30A4\U+30E4\U+30FC 1
 62
    18
420
   262144
370
    25
100
AcDbVertex
100
AcDb2dVertex
 10
124.7772243611668
 20
-202.4751518591034
 30
0.0
  0
VERTEX
  5
11F
330
11C
100
AcDbEntity
  8
\U+30EC\U+30A4\U+30E4\U+30FC 1
 62
    18
420
   262144
370
    25
100
AcDbVertex
100
AcDb2dVertex
 10
124.7296820434704
 20
-202.4751518591034
 30
0.0
  0
VERTEX
  5
120
330
11C
100
AcDbEntity
  8
\U+30EC\U+30A4\U+30E4\U+30FC 1
 62
    18
420
   262144
370
    25
100
AcDbVertex
100
AcDb2dVertex
 10
124.6821397257739
 20
-202.4751518591034
 30
0.0
  0
SEQEND
  5
121
330
11C
100
AcDbEntity
  8
\U+30EC\U+30A4\U+30E4\U+30FC 1
370
    25
  0
POLYLINE
  5
122
330
1F
100
AcDbEntity
  8
\U+30EC\U+30A4\U+30E4\U+30FC 1
 62
    18
420
   262144
370
    25
100
AcDb2dPolyline
 66
     1
 10
0.0
 20
0.0
 30
0.0
  0
VERTEX
  5
123
330
122
100
AcDbEntity
  8
\U+30EC\U+30A4\U+30E4\U+30FC 1
 62
    18
420
   262144
370
    25
100
AcDbVertex
100
AcDb2dVertex
 10
124.7296820434704
 20
-202.427609541407
 30
0.0
  0
VERTEX
  5
124
330
122
100
AcDbEntity
  8
\U+30EC\U+30A4\U+30E4\U+30FC 1
 62
    18
420
   262144
370
    25
100
AcDbVertex
100
AcDb2dVertex
 10
124.7296820434704
 20
-202.427609541407
 30
0.0
  0
VERTEX
  5
125
330
122
100
AcDbEntity
  8
\U+30EC\U+30A4\U+30E4\U+30FC 1
 62
    18
420
   262144
370
    25
100
AcDbVertex
100
AcDb2dVertex
 10
124.7772243611668
 20
-202.427609541407
 30
0.0
  0
SEQEND
  5
126
330
122
100
AcDbEntity
  8
\U+30EC\U+30A4\U+30E4\U+30FC 1
370
    25
  0
POLYLINE
  5
127
330
1F
100
AcDbEntity
  8
\U+30EC\U+30A4\U+30E4\U+30FC 1
 62
    18
420
   262144
370
    25
100
AcDb2dPolyline
 66
     1
 10
0.0
 20
0.0
 30
0.0
  0
VERTEX
  5
128
330
127
100
AcDbEntity
  8
\U+30EC\U+30A4\U+30E4\U+30FC 1
 62
    18
420
   262144
370
    25
100
AcDbVertex
100
AcDb2dVertex
 10
125.0624782673455
 20
-201.6662434391668
 30
0.0
  0
VERTEX
  5
129
330
127
100
AcDbEntity
  8
\U+30EC\U+30A4\U+30E4\U+30FC 1
 62
    18
420
   262144
370
    25
100
AcDbVertex
100
AcDb2dVertex
 10
125.0624782673455
 20
-201.8088703922561
 30
0.0
  0
VERTEX
  5
12A
330
127
100
AcDbEntity
  8
\U+30EC\U+30A4\U+30E4\U+30FC 1
 62
    18
420
   262144
370
    25
100
AcDbVertex
100
AcDb2dVertex
 10
125.014935949649
 20
-201.9514973453455
 30
0.0
  0
VERTEX
  5
12B
330
127
100
AcDbEntity
  8
\U+30EC\U+30A4\U+30E4\U+30FC 1
 62
    18
420
   262144
370
    25
100
AcDbVertex
100
AcDb2dVertex
 10
124.9673936319526
 20
-202.0948133175319
 30
0.0
  0
VERTEX
  5
12C
330
127
100
AcDbEntity
  8
\U+30EC\U+30A4\U+30E4\U+30FC 1
 62
    18
420
   262144
370
    25
100
AcDbVertex
100
AcDb2dVertex
 10
124.9198513142561
 20
-202.1898979529248
 30
0.0
  0
VERTEX
  5
12D
330
127
100
AcDbEntity
  8
\U+30EC\U+30A4\U+30E4\U+30FC 1
 62
    18
420
   262144
370
    25
100
AcDbVertex
100
AcDb2dVertex
 10
124.8247666788633
 20
-202.3325249060141
 30
0.0
  0
VERTEX
  5
12E
330
127
100
AcDbEntity
  8
\U+30EC\U+30A4\U+30E4\U+30FC 1
 62
    18
420
   262144
370
    25
100
AcDbVertex
100
AcDb2dVertex
 10
124.7296820434704
 20
-202.427609541407
 30
0.0
  0
SEQEND
  5
12F
330
127
100
AcDbEntity
  8
\U+30EC\U+30A4\U+30E4\U+30FC 1
370
    25
  0
POLYLINE
  5
130
330
1F
100
AcDbEntity
  8
\U+30EC\U+30A4\U+30E4\U+30FC 1
 62
    18
420
   262144
370
    25
100
AcDb2dPolyline
 66
     1
 10
0.0
 20
0.0
 30
0.0
  0
VERTEX
  5
131
330
130
100
AcDbEntity
  8
\U+30EC\U+30A4\U+30E4\U+30FC 1
 62
    18
420
   262144
370
    25
100
AcDbVertex
100
AcDb2dVertex
 10
124.3968858195952
 20
-202.6653211298892
 30
0.0
  0
VERTEX
  5
132
330
130
100
AcDbEntity
  8
\U+30EC\U+30A4\U+30E4\U+30FC 1
 62
    18
420
   262144
370
    25
100
AcDbVertex
100
AcDb2dVertex
 10
123.9690049603272
 20
-202.427609541407
 30
0.0
  0
SEQEND
  5
133
330
130
100
AcDbEntity
  8
\U+30EC\U+30A4\U+30E4\U+30FC 1
370
    25
  0
POLYLINE
  5
134
330
1F
100
AcDbEntity
  8
\U+30EC\U+30A4\U+30E4\U+30FC 1
 62
    18
420
   262144
370
    25
100
AcDb2dPolyline
 66
     1
 10
0.0
 20
0.0
 30
0.0
  0
VERTEX
  5
135
330
134
100
AcDbEntity
  8
\U+30EC\U+30A4\U+30E4\U+30FC 1
 62
    18
420
   262144
370
    25
100
AcDbVertex
100
AcDb2dVertex
 10
124.3968858195952
 20
-202.6653211298892
 30
0.0
  0
VERTEX
  5
136
330
134
100
AcDbEntity
  8
\U+30EC\U+30A4\U+30E4\U+30FC 1
 62
    18
420
   262144
370
    25
100
AcDbVertex
100
AcDb2dVertex
 10
124.4919704549881
 20
-202.6177788121928
 30
0.0
  0
VERTEX
  5
137
330
134
100
AcDbEntity
  8
\U+30EC\U+30A4\U+30E4\U+30FC 1
 62
    18
420
   262144
370
    25
100
AcDbVertex
100
AcDb2dVertex
 10
124.587055090381
 20
-202.5702364944963
 30
0.0
  0
VERTEX
  5
138
330
134
100
AcDbEntity
  8
\U+30EC\U+30A4\U+30E4\U+30FC 1
 62
    18
420
   262144
370
    25
100
AcDbVertex
100
AcDb2dVertex
 10
124.6821397257739
 20
-202.4751518591034
 30
0.0
  0
SEQEND
  5
139
330
134
100
AcDbEntity
  8
\U+30EC\U+30A4\U+30E4\U+30FC 1
370
    25
  0
POLYLINE
  5
13A
330
1F
100
AcDbEntity
  8
\U+30EC\U+30A4\U+30E4\U+30FC 1
 62
    18
420
   262144
370
    25
100
AcDb2dPolyline
 66
     1
 10
0.0
 20
0.0
 30
0.0
  0
VERTEX
  5
13B
330
13A
100
AcDbEntity
  8
\U+30EC\U+30A4\U+30E4\U+30FC 1
 62
    18
420
   262144
370
    25
100
AcDbVertex
100
AcDb2dVertex
 10
124.6821397257739
 20
-202.4751518591034
 30
0.0
  0
VERTEX
  5
13C
330
13A
100
AcDbEntity
  8
\U+30EC\U+30A4\U+30E4\U+30FC 1
 62
    18
420
   262144
370
    25
100
AcDbVertex
100
AcDb2dVertex
 10
124.7772243611668
 20
-202.3325249060141
 30
0.0
  0
VERTEX
  5
13D
330
13A
100
AcDbEntity
  8
\U+30EC\U+30A4\U+30E4\U+30FC 1
 62
    18
420
   262144
370
    25
100
AcDbVertex
100
AcDb2dVertex
 10
124.8723089965597
 20
-202.1898979529248
 30
0.0
  0
VERTEX
  5
13E
330
13A
100
AcDbEntity
  8
\U+30EC\U+30A4\U+30E4\U+30FC 1
 62
    18
420
   262144
370
    25
100
AcDbVertex
100
AcDb2dVertex
 10
124.9673936319526
 20
-201.9990396630419
 30
0.0
  0
VERTEX
  5
13F
330
13A
100
AcDbEntity
  8
\U+30EC\U+30A4\U+30E4\U+30FC 1
 62
    18
420
   262144
370
    25
100
AcDbVertex
100
AcDb2dVertex
 10
125.014935949649
 20
-201.8571017290496
 30
0.0
  0
VERTEX
  5
140
330
13A
100
AcDbEntity
  8
\U+30EC\U+30A4\U+30E4\U+30FC 1
 62
    18
420
   262144
370
    25
100
AcDbVertex
100
AcDb2dVertex
 10
125.0624782673455
 20
-201.6662434391668
 30
0.0
  0
VERTEX
  5
141
330
13A
100
AcDbEntity
  8
\U+30EC\U+30A4\U+30E4\U+30FC 1
 62
    18
420
   262144
370
    25
100
AcDbVertex
100
AcDb2dVertex
 10
125.0624782673455
 20
-201.5236164860774
 30
0.0
  0
SEQEND
  5
142
330
13A
100
AcDbEntity
  8
\U+30EC\U+30A4\U+30E4\U+30FC 1
370
    25
  0
POLYLINE
  5
143
330
1F
100
AcDbEntity
  8
\U+30EC\U+30A4\U+30E4\U+30FC 1
 62
    18
420
   262144
370
    25
100
AcDb2dPolyline
 66
     1
 10
0.0
 20
0.0
 30
0.0
  0
VERTEX
  5
144
330
143
100
AcDbEntity
  8
\U+30EC\U+30A4\U+30E4\U+30FC 1
 62
    18
420
   262144
370
    25
100
AcDbVertex
100
AcDb2dVertex
 10
124.6345974080775
 20
-201.2859048975952
 30
0.0
  0
VERTEX
  5
145
330
143
100
AcDbEntity
  8
\U+30EC\U+30A4\U+30E4\U+30FC 1
 62
    18
420
   262144
370
    25
100
AcDbVertex
100
AcDb2dVertex
 10
125.0624782673455
 20
-201.5236164860774
 30
0.0
  0
SEQEND
  5
146
330
143
100
AcDbEntity
  8
\U+30EC\U+30A4\U+30E4\U+30FC 1
370
    25
  0
POLYLINE
  5
147
330
1F
100
AcDbEntity
  8
\U+30EC\U+30A4\U+30E4\U+30FC 1
 62
    18
420
   262144
370
    25
100
AcDb2dPolyline
 66
     1
 10
0.0
 20
0.0
 30
0.0
  0
VERTEX
  5
148
330
147
100
AcDbEntity
  8
\U+30EC\U+30A4\U+30E4\U+30FC 1
 62
    18
420
   262144
370
    25
100
AcDbVertex
100
AcDb2dVertex
 10
122.1134765319716
 20
-203.379144914433
 30
0.0
  0
VERTEX
  5
149
330
147
100
AcDbEntity
  8
\U+30EC\U+30A4\U+30E4\U+30FC 1
 62
    18
420
   262144
370
    25
100
AcDbVertex
100
AcDb2dVertex
 10
123.9690049603272
 20
-202.427609541407
 30
0.0
  0
SEQEND
  5
14A
330
147
100
AcDbEntity
  8
\U+30EC\U+30A4\U+30E4\U+30FC 1
370
    25
  0
POLYLINE
  5
14B
330
1F
100
AcDbEntity
  8
\U+30EC\U+30A4\U+30E4\U+30FC 1
 62
    18
420
   262144
370
    25
100
AcDb2dPolyline
 66
     1
 10
0.0
 20
0.0
 30
0.0
  0
VERTEX
  5
14C
330
14B
100
AcDbEntity
  8
\U+30EC\U+30A4\U+30E4\U+30FC 1
 62
    18
420
   262144
370
    25
100
AcDbVertex
100
AcDb2dVertex
 10
123.9690049603272
 20
-202.427609541407
 30
0.0
  0
VERTEX
  5
14D
330
14B
100
AcDbEntity
  8
\U+30EC\U+30A4\U+30E4\U+30FC 1
 62
    18
420
   262144
370
    25
100
AcDbVertex
100
AcDb2dVertex
 10
124.063400576623
 20
-202.3325249060141
 30
0.0
  0
VERTEX
  5
14E
330
14B
100
AcDbEntity
  8
\U+30EC\U+30A4\U+30E4\U+30FC 1
 62
    18
420
   262144
370
    25
100
AcDbVertex
100
AcDb2dVertex
 10
124.2067165488094
 20
-202.2367512515242
 30
0.0
  0
VERTEX
  5
14F
330
14B
100
AcDbEntity
  8
\U+30EC\U+30A4\U+30E4\U+30FC 1
 62
    18
420
   262144
370
    25
100
AcDbVertex
100
AcDb2dVertex
 10
124.3011121651053
 20
-202.1423556352283
 30
0.0
  0
VERTEX
  5
150
330
14B
100
AcDbEntity
  8
\U+30EC\U+30A4\U+30E4\U+30FC 1
 62
    18
420
   262144
370
    25
100
AcDbVertex
100
AcDb2dVertex
 10
124.3968858195952
 20
-201.9990396630419
 30
0.0
  0
VERTEX
  5
151
330
14B
100
AcDbEntity
  8
\U+30EC\U+30A4\U+30E4\U+30FC 1
 62
    18
420
   262144
370
    25
100
AcDbVertex
100
AcDb2dVertex
 10
124.4919704549881
 20
-201.8571017290496
 30
0.0
  0
VERTEX
  5
152
330
14B
100
AcDbEntity
  8
\U+30EC\U+30A4\U+30E4\U+30FC 1
 62
    18
420
   262144
370
    25
100
AcDbVertex
100
AcDb2dVertex
 10
124.5395127726846
 20
-201.7137857568632
 30
0.0
  0
VERTEX
  5
153
330
14B
100
AcDbEntity
  8
\U+30EC\U+30A4\U+30E4\U+30FC 1
 62
    18
420
   262144
370
    25
100
AcDbVertex
100
AcDb2dVertex
 10
124.587055090381
 20
-201.5711588037739
 30
0.0
  0
VERTEX
  5
154
330
14B
100
AcDbEntity
  8
\U+30EC\U+30A4\U+30E4\U+30FC 1
 62
    18
420
   262144
370
    25
100
AcDbVertex
100
AcDb2dVertex
 10
124.6345974080775
 20
-201.4285318506845
 30
0.0
  0
VERTEX
  5
155
330
14B
100
AcDbEntity
  8
\U+30EC\U+30A4\U+30E4\U+30FC 1
 62
    18
420
   262144
370
    25
100
AcDbVertex
100
AcDb2dVertex
 10
124.6345974080775
 20
-201.2859048975952
 30
0.0
  0
SEQEND
  5
156
330
14B
100
AcDbEntity
  8
\U+30EC\U+30A4\U+30E4\U+30FC 1
370
    25
  0
POLYLINE
  5
157
330
1F
100
AcDbEntity
  8
\U+30EC\U+30A4\U+30E4\U+30FC 1
 62
    18
420
   262144
370
    25
100
AcDb2dPolyline
 66
     1
 10
0.0
 20
0.0
 30
0.0
  0
VERTEX
  5
158
330
157
100
AcDbEntity
  8
\U+30EC\U+30A4\U+30E4\U+30FC 1
 62
    18
420
   262144
370
    25
100
AcDbVertex
100
AcDb2dVertex
 10
124.6345974080775
 20
-201.2859048975952
 30
0.0
  0
VERTEX
  5
159
330
157
100
AcDbEntity
  8
\U+30EC\U+30A4\U+30E4\U+30FC 1
 62
    18
420
   262144
370
    25
100
AcDbVertex
100
AcDb2dVertex
 10
124.6345974080775
 20
-60.91135523650828
 30
0.0
  0
SEQEND
  5
15A
330
157
100
AcDbEntity
  8
\U+30EC\U+30A4\U+30E4\U+30FC 1
370
    25
  0
POLYLINE
  5
15B
330
1F
100
AcDbEntity
  8
\U+30EC\U+30A4\U+30E4\U+30FC 1
 62
    18
420
   262144
370
    25
100
AcDb2dPolyline
 66
     1
 10
0.0
 20
0.0
 30
0.0
  0
VERTEX
  5
15C
330
15B
100
AcDbEntity
  8
\U+30EC\U+30A4\U+30E4\U+30FC 1
 62
    18
420
   262144
370
    25
100
AcDbVertex
100
AcDb2dVertex
 10
124.6345974080775
 20
-60.91135523650828
 30
0.0
  0
VERTEX
  5
15D
330
15B
100
AcDbEntity
  8
\U+30EC\U+30A4\U+30E4\U+30FC 1
 62
    18
420
   262144
370
    25
100
AcDbVertex
100
AcDb2dVertex
 10
124.6345974080775
 20
-60.7683837738704
 30
0.0
  0
VERTEX
  5
15E
330
15B
100
AcDbEntity
  8
\U+30EC\U+30A4\U+30E4\U+30FC 1
 62
    18
420
   262144
370
    25
100
AcDbVertex
100
AcDb2dVertex
 10
124.587055090381
 20
-60.62575682078106
 30
0.0
  0
VERTEX
  5
15F
330
15B
100
AcDbEntity
  8
\U+30EC\U+30A4\U+30E4\U+30FC 1
 62
    18
420
   262144
370
    25
100
AcDbVertex
100
AcDb2dVertex
 10
124.5395127726846
 20
-60.53067218538817
 30
0.0
  0
VERTEX
  5
160
330
15B
100
AcDbEntity
  8
\U+30EC\U+30A4\U+30E4\U+30FC 1
 62
    18
420
   262144
370
    25
100
AcDbVertex
100
AcDb2dVertex
 10
124.4444281372917
 20
-60.43558754999528
 30
0.0
  0
VERTEX
  5
161
330
15B
100
AcDbEntity
  8
\U+30EC\U+30A4\U+30E4\U+30FC 1
 62
    18
420
   262144
370
    25
100
AcDbVertex
100
AcDb2dVertex
 10
124.3493435018988
 20
-60.43558754999528
 30
0.0
  0
VERTEX
  5
162
330
15B
100
AcDbEntity
  8
\U+30EC\U+30A4\U+30E4\U+30FC 1
 62
    18
420
   262144
370
    25
100
AcDbVertex
100
AcDb2dVertex
 10
124.2067165488094
 20
-60.38804523229882
 30
0.0
  0
VERTEX
  5
163
330
15B
100
AcDbEntity
  8
\U+30EC\U+30A4\U+30E4\U+30FC 1
 62
    18
420
   262144
370
    25
100
AcDbVertex
100
AcDb2dVertex
 10
124.063400576623
 20
-60.43558754999528
 30
0.0
  0
VERTEX
  5
164
330
15B
100
AcDbEntity
  8
\U+30EC\U+30A4\U+30E4\U+30FC 1
 62
    18
420
   262144
370
    25
100
AcDbVertex
100
AcDb2dVertex
 10
123.9690049603272
 20
-60.48330212246599
 30
0.0
  0
SEQEND
  5
165
330
15B
100
AcDbEntity
  8
\U+30EC\U+30A4\U+30E4\U+30FC 1
370
    25
  0
POLYLINE
  5
166
330
1F
100
AcDbEntity
  8
\U+30EC\U+30A4\U+30E4\U+30FC 1
 62
    18
420
   262144
370
    25
100
AcDb2dPolyline
 66
     1
 10
0.0
 20
0.0
 30
0.0
  0
VERTEX
  5
167
330
166
100
AcDbEntity
  8
\U+30EC\U+30A4\U+30E4\U+30FC 1
 62
    18
420
   262144
370
    25
100
AcDbVertex
100
AcDb2dVertex
 10
123.9690049603272
 20
-60.48330212246599
 30
0.0
  0
VERTEX
  5
168
330
166
100
AcDbEntity
  8
\U+30EC\U+30A4\U+30E4\U+30FC 1
 62
    18
420
   262144
370
    25
100
AcDbVertex
100
AcDb2dVertex
 10
122.1134765319716
 20
-61.48203530363991
 30
0.0
  0
SEQEND
  5
169
330
166
100
AcDbEntity
  8
\U+30EC\U+30A4\U+30E4\U+30FC 1
370
    25
  0
POLYLINE
  5
16A
330
1F
100
AcDbEntity
  8
\U+30EC\U+30A4\U+30E4\U+30FC 1
 62
    18
420
   262144
370
    25
100
AcDb2dPolyline
 66
     1
 10
0.0
 20
0.0
 30
0.0
  0
VERTEX
  5
16B
330
16A
100
AcDbEntity
  8
\U+30EC\U+30A4\U+30E4\U+30FC 1
 62
    18
420
   262144
370
    25
100
AcDbVertex
100
AcDb2dVertex
 10
118.1178547881789
 20
-68.09420706847992
 30
0.0
  0
VERTEX
  5
16C
330
16A
100
AcDbEntity
  8
\U+30EC\U+30A4\U+30E4\U+30FC 1
 62
    18
420
   262144
370
    25
100
AcDbVertex
100
AcDb2dVertex
 10
122.1134765319716
 20
-61.48203530363991
 30
0.0
  0
SEQEND
  5
16D
330
16A
100
AcDbEntity
  8
\U+30EC\U+30A4\U+30E4\U+30FC 1
370
    25
  0
POLYLINE
  5
16E
330
1F
100
AcDbEntity
  8
\U+30EC\U+30A4\U+30E4\U+30FC 1
 62
    18
420
   262144
370
    25
100
AcDb2dPolyline
 66
     1
 10
0.0
 20
0.0
 30
0.0
  0
VERTEX
  5
16F
330
16E
100
AcDbEntity
  8
\U+30EC\U+30A4\U+30E4\U+30FC 1
 62
    18
420
   262144
370
    25
100
AcDbVertex
100
AcDb2dVertex
 10
118.1178547881789
 20
-68.09420706847992
 30
0.0
  0
VERTEX
  5
170
330
16E
100
AcDbEntity
  8
\U+30EC\U+30A4\U+30E4\U+30FC 1
 62
    18
420
   262144
370
    25
100
AcDbVertex
100
AcDb2dVertex
 10
118.450651012054
 20
-68.33209091173643
 30
0.0
  0
VERTEX
  5
171
330
16E
100
AcDbEntity
  8
\U+30EC\U+30A4\U+30E4\U+30FC 1
 62
    18
420
   262144
370
    25
100
AcDbVertex
100
AcDb2dVertex
 10
118.6883626005363
 20
-68.712429453308
 30
0.0
  0
VERTEX
  5
172
330
16E
100
AcDbEntity
  8
\U+30EC\U+30A4\U+30E4\U+30FC 1
 62
    18
420
   262144
370
    25
100
AcDbVertex
100
AcDb2dVertex
 10
118.8309895536256
 20
-69.1404825673503
 30
0.0
  0
VERTEX
  5
173
330
16E
100
AcDbEntity
  8
\U+30EC\U+30A4\U+30E4\U+30FC 1
 62
    18
420
   262144
370
    25
100
AcDbVertex
100
AcDb2dVertex
 10
118.8792208904191
 20
-69.66379257155975
 30
0.0
  0
SEQEND
  5
174
330
16E
100
AcDbEntity
  8
\U+30EC\U+30A4\U+30E4\U+30FC 1
370
    25
  0
POLYLINE
  5
175
330
1F
100
AcDbEntity
  8
\U+30EC\U+30A4\U+30E4\U+30FC 1
 62
    18
420
   262144
370
    25
100
AcDb2dPolyline
 66
     1
 10
0.0
 20
0.0
 30
0.0
  0
VERTEX
  5
176
330
175
100
AcDbEntity
  8
\U+30EC\U+30A4\U+30E4\U+30FC 1
 62
    18
420
   262144
370
    25
100
AcDbVertex
100
AcDb2dVertex
 10
118.1178547881789
 20
-201.0950466077124
 30
0.0
  0
VERTEX
  5
177
330
175
100
AcDbEntity
  8
\U+30EC\U+30A4\U+30E4\U+30FC 1
 62
    18
420
   262144
370
    25
100
AcDbVertex
100
AcDb2dVertex
 10
122.1134765319716
 20
-203.379144914433
 30
0.0
  0
SEQEND
  5
178
330
175
100
AcDbEntity
  8
\U+30EC\U+30A4\U+30E4\U+30FC 1
370
    25
  0
POLYLINE
  5
179
330
1F
100
AcDbEntity
  8
\U+30EC\U+30A4\U+30E4\U+30FC 1
 62
    18
420
   262144
370
    25
100
AcDb2dPolyline
 66
     1
 10
0.0
 20
0.0
 30
0.0
  0
VERTEX
  5
17A
330
179
100
AcDbEntity
  8
\U+30EC\U+30A4\U+30E4\U+30FC 1
 62
    18
420
   262144
370
    25
100
AcDbVertex
100
AcDb2dVertex
 10
116.4524956306091
 20
-202.9030327183715
 30
0.0
  0
VERTEX
  5
17B
330
179
100
AcDbEntity
  8
\U+30EC\U+30A4\U+30E4\U+30FC 1
 62
    18
420
   262144
370
    25
100
AcDbVertex
100
AcDb2dVertex
 10
86.1992173721134
 20
-220.3607095803265
 30
0.0
  0
SEQEND
  5
17C
330
179
100
AcDbEntity
  8
\U+30EC\U+30A4\U+30E4\U+30FC 1
370
    25
  0
POLYLINE
  5
17D
330
1F
100
AcDbEntity
  8
\U+30EC\U+30A4\U+30E4\U+30FC 1
 62
    18
420
   262144
370
    25
100
AcDb2dPolyline
 66
     1
 10
0.0
 20
0.0
 30
0.0
  0
VERTEX
  5
17E
330
17D
100
AcDbEntity
  8
\U+30EC\U+30A4\U+30E4\U+30FC 1
 62
    18
420
   262144
370
    25
100
AcDbVertex
100
AcDb2dVertex
 10
118.8792208904191
 20
-69.66379257155975
 30
0.0
  0
VERTEX
  5
17F
330
17D
100
AcDbEntity
  8
\U+30EC\U+30A4\U+30E4\U+30FC 1
 62
    18
420
   262144
370
    25
100
AcDbVertex
100
AcDb2dVertex
 10
118.8792208904191
 20
-198.7165526846959
 30
0.0
  0
SEQEND
  5
180
330
17D
100
AcDbEntity
  8
\U+30EC\U+30A4\U+30E4\U+30FC 1
370
    25
  0
POLYLINE
  5
181
330
1F
100
AcDbEntity
  8
\U+30EC\U+30A4\U+30E4\U+30FC 1
 62
    18
420
   262144
370
    25
100
AcDb2dPolyline
 66
     1
 10
0.0
 20
0.0
 30
0.0
  0
VERTEX
  5
182
330
181
100
AcDbEntity
  8
\U+30EC\U+30A4\U+30E4\U+30FC 1
 62
    18
420
   262144
370
    25
100
AcDbVertex
100
AcDb2dVertex
 10
118.8792208904191
 20
-198.7165526846959
 30
0.0
  0
VERTEX
  5
183
330
181
100
AcDbEntity
  8
\U+30EC\U+30A4\U+30E4\U+30FC 1
 62
    18
420
   262144
370
    25
100
AcDbVertex
100
AcDb2dVertex
 10
118.8309895536256
 20
-199.2884385352473
 30
0.0
  0
VERTEX
  5
184
330
181
100
AcDbEntity
  8
\U+30EC\U+30A4\U+30E4\U+30FC 1
 62
    18
420
   262144
370
    25
100
AcDbVertex
100
AcDb2dVertex
 10
118.6883626005363
 20
-199.9057996462041
 30
0.0
  0
VERTEX
  5
185
330
181
100
AcDbEntity
  8
\U+30EC\U+30A4\U+30E4\U+30FC 1
 62
    18
420
   262144
370
    25
100
AcDbVertex
100
AcDb2dVertex
 10
118.450651012054
 20
-200.4776854967556
 30
0.0
  0
VERTEX
  5
186
330
181
100
AcDbEntity
  8
\U+30EC\U+30A4\U+30E4\U+30FC 1
 62
    18
420
   262144
370
    25
100
AcDbVertex
100
AcDb2dVertex
 10
118.1178547881789
 20
-201.0950466077124
 30
0.0
  0
SEQEND
  5
187
330
181
100
AcDbEntity
  8
\U+30EC\U+30A4\U+30E4\U+30FC 1
370
    25
  0
POLYLINE
  5
188
330
1F
100
AcDbEntity
  8
\U+30EC\U+30A4\U+30E4\U+30FC 1
 62
    18
420
   262144
370
    25
100
AcDb2dPolyline
 66
     1
 10
0.0
 20
0.0
 30
0.0
  0
VERTEX
  5
189
330
188
100
AcDbEntity
  8
\U+30EC\U+30A4\U+30E4\U+30FC 1
 62
    18
420
   262144
370
    25
100
AcDbVertex
100
AcDb2dVertex
 10
118.1178547881789
 20
-201.0950466077124
 30
0.0
  0
VERTEX
  5
18A
330
188
100
AcDbEntity
  8
\U+30EC\U+30A4\U+30E4\U+30FC 1
 62
    18
420
   262144
370
    25
100
AcDbVertex
100
AcDb2dVertex
 10
117.7850585643037
 20
-201.6662434391668
 30
0.0
  0
VERTEX
  5
18B
330
188
100
AcDbEntity
  8
\U+30EC\U+30A4\U+30E4\U+30FC 1
 62
    18
420
   262144
370
    25
100
AcDbVertex
100
AcDb2dVertex
 10
117.3564886859387
 20
-202.1423556352283
 30
0.0
  0
VERTEX
  5
18C
330
188
100
AcDbEntity
  8
\U+30EC\U+30A4\U+30E4\U+30FC 1
 62
    18
420
   262144
370
    25
100
AcDbVertex
100
AcDb2dVertex
 10
116.9286078266706
 20
-202.5702364944963
 30
0.0
  0
VERTEX
  5
18D
330
188
100
AcDbEntity
  8
\U+30EC\U+30A4\U+30E4\U+30FC 1
 62
    18
420
   262144
370
    25
100
AcDbVertex
100
AcDb2dVertex
 10
116.4524956306091
 20
-202.9030327183715
 30
0.0
  0
SEQEND
  5
18E
330
188
100
AcDbEntity
  8
\U+30EC\U+30A4\U+30E4\U+30FC 1
370
    25
  0
POLYLINE
  5
18F
330
1F
100
AcDbEntity
  8
\U+30EC\U+30A4\U+30E4\U+30FC 1
 62
    18
420
   262144
370
    25
100
AcDb2dPolyline
 66
     1
 10
0.0
 20
0.0
 30
0.0
  0
VERTEX
  5
190
330
18F
100
AcDbEntity
  8
\U+30EC\U+30A4\U+30E4\U+30FC 1
 62
    18
420
   262144
370
    25
100
AcDbVertex
100
AcDb2dVertex
 10
147.1820583399406
 20
-71.99474417687979
 30
0.0
  0
VERTEX
  5
191
330
18F
100
AcDbEntity
  8
\U+30EC\U+30A4\U+30E4\U+30FC 1
 62
    18
420
   262144
370
    25
100
AcDbVertex
100
AcDb2dVertex
 10
147.2296006576371
 20
-72.04228649457623
 30
0.0
  0
VERTEX
  5
192
330
18F
100
AcDbEntity
  8
\U+30EC\U+30A4\U+30E4\U+30FC 1
 62
    18
420
   262144
370
    25
100
AcDbVertex
100
AcDb2dVertex
 10
147.4197699284229
 20
-72.18491344766558
 30
0.0
  0
VERTEX
  5
193
330
18F
100
AcDbEntity
  8
\U+30EC\U+30A4\U+30E4\U+30FC 1
 62
    18
420
   262144
370
    25
100
AcDbVertex
100
AcDb2dVertex
 10
147.5623968815122
 20
-72.42279729092208
 30
0.0
  0
VERTEX
  5
194
330
18F
100
AcDbEntity
  8
\U+30EC\U+30A4\U+30E4\U+30FC 1
 62
    18
420
   262144
370
    25
100
AcDbVertex
100
AcDb2dVertex
 10
147.6574815169051
 20
-72.75576576957148
 30
0.0
  0
VERTEX
  5
195
330
18F
100
AcDbEntity
  8
\U+30EC\U+30A4\U+30E4\U+30FC 1
 62
    18
420
   262144
370
    25
100
AcDbVertex
100
AcDb2dVertex
 10
147.7050238346015
 20
-73.08890650299514
 30
0.0
  0
SEQEND
  5
196
330
18F
100
AcDbEntity
  8
\U+30EC\U+30A4\U+30E4\U+30FC 1
370
    25
  0
POLYLINE
  5
197
330
1F
100
AcDbEntity
  8
\U+30EC\U+30A4\U+30E4\U+30FC 1
 62
    18
420
   262144
370
    25
100
AcDb2dPolyline
 66
     1
 10
0.0
 20
0.0
 30
0.0
  0
VERTEX
  5
198
330
197
100
AcDbEntity
  8
\U+30EC\U+30A4\U+30E4\U+30FC 1
 62
    18
420
   262144
370
    25
100
AcDbVertex
100
AcDb2dVertex
 10
101.230513483807
 20
-242.2418890453423
 30
0.0
  0
VERTEX
  5
199
330
197
100
AcDbEntity
  8
\U+30EC\U+30A4\U+30E4\U+30FC 1
 62
    18
420
   262144
370
    25
100
AcDbVertex
100
AcDb2dVertex
 10
100.8980617694803
 20
-242.3852050175287
 30
0.0
  0
VERTEX
  5
19A
330
197
100
AcDbEntity
  8
\U+30EC\U+30A4\U+30E4\U+30FC 1
 62
    18
420
   262144
370
    25
100
AcDbVertex
100
AcDb2dVertex
 10
100.5649210360567
 20
-242.4796006338246
 30
0.0
  0
VERTEX
  5
19B
330
197
100
AcDbEntity
  8
\U+30EC\U+30A4\U+30E4\U+30FC 1
 62
    18
420
   262144
370
    25
100
AcDbVertex
100
AcDb2dVertex
 10
100.2793226203295
 20
-242.4796006338246
 30
0.0
  0
VERTEX
  5
19C
330
197
100
AcDbEntity
  8
\U+30EC\U+30A4\U+30E4\U+30FC 1
 62
    18
420
   262144
370
    25
100
AcDbVertex
100
AcDb2dVertex
 10
100.0412665222987
 20
-242.3852050175287
 30
0.0
  0
VERTEX
  5
19D
330
197
100
AcDbEntity
  8
\U+30EC\U+30A4\U+30E4\U+30FC 1
 62
    18
420
   262144
370
    25
100
AcDbVertex
100
AcDb2dVertex
 10
100.0412665222987
 20
-242.3376626998323
 30
0.0
  0
SEQEND
  5
19E
330
197
100
AcDbEntity
  8
\U+30EC\U+30A4\U+30E4\U+30FC 1
370
    25
  0
POLYLINE
  5
19F
330
1F
100
AcDbEntity
  8
\U+30EC\U+30A4\U+30E4\U+30FC 1
 62
    18
420
   262144
370
    25
100
AcDb2dPolyline
 66
     1
 10
0.0
 20
0.0
 30
0.0
  0
VERTEX
  5
1A0
330
19F
100
AcDbEntity
  8
\U+30EC\U+30A4\U+30E4\U+30FC 1
 62
    18
420
   262144
370
    25
100
AcDbVertex
100
AcDb2dVertex
 10
101.4685695818377
 20
-242.3852050175287
 30
0.0
  0
VERTEX
  5
1A1
330
19F
100
AcDbEntity
  8
\U+30EC\U+30A4\U+30E4\U+30FC 1
 62
    18
420
   262144
370
    25
100
AcDbVertex
100
AcDb2dVertex
 10
101.230513483807
 20
-242.2418890453423
 30
0.0
  0
SEQEND
  5
1A2
330
19F
100
AcDbEntity
  8
\U+30EC\U+30A4\U+30E4\U+30FC 1
370
    25
  0
POLYLINE
  5
1A3
330
1F
100
AcDbEntity
  8
\U+30EC\U+30A4\U+30E4\U+30FC 1
 62
    18
420
   262144
370
    25
100
AcDb2dPolyline
 66
     1
 10
0.0
 20
0.0
 30
0.0
  0
VERTEX
  5
1A4
330
1A3
100
AcDbEntity
  8
\U+30EC\U+30A4\U+30E4\U+30FC 1
 62
    18
420
   262144
370
    25
100
AcDbVertex
100
AcDb2dVertex
 10
85.96150578363115
 20
-232.8236870077663
 30
0.0
  0
VERTEX
  5
1A5
330
1A3
100
AcDbEntity
  8
\U+30EC\U+30A4\U+30E4\U+30FC 1
 62
    18
420
   262144
370
    25
100
AcDbVertex
100
AcDb2dVertex
 10
101.230513483807
 20
-242.2418890453423
 30
0.0
  0
SEQEND
  5
1A6
330
1A3
100
AcDbEntity
  8
\U+30EC\U+30A4\U+30E4\U+30FC 1
370
    25
  0
POLYLINE
  5
1A7
330
1F
100
AcDbEntity
  8
\U+30EC\U+30A4\U+30E4\U+30FC 1
 62
    18
420
   262144
370
    25
100
AcDb2dPolyline
 66
     1
 10
0.0
 20
0.0
 30
0.0
  0
VERTEX
  5
1A8
330
1A7
100
AcDbEntity
  8
\U+30EC\U+30A4\U+30E4\U+30FC 1
 62
    18
420
   262144
370
    25
100
AcDbVertex
100
AcDb2dVertex
 10
86.1992173721134
 20
-232.9663139608556
 30
0.0
  0
VERTEX
  5
1A9
330
1A7
100
AcDbEntity
  8
\U+30EC\U+30A4\U+30E4\U+30FC 1
 62
    18
420
   262144
370
    25
100
AcDbVertex
100
AcDb2dVertex
 10
86.1992173721134
 20
-232.9663139608556
 30
0.0
  0
SEQEND
  5
1AA
330
1A7
100
AcDbEntity
  8
\U+30EC\U+30A4\U+30E4\U+30FC 1
370
    25
  0
POLYLINE
  5
1AB
330
1F
100
AcDbEntity
  8
\U+30EC\U+30A4\U+30E4\U+30FC 1
 62
    18
420
   262144
370
    25
100
AcDb2dPolyline
 66
     1
 10
0.0
 20
0.0
 30
0.0
  0
VERTEX
  5
1AC
330
1AB
100
AcDbEntity
  8
\U+30EC\U+30A4\U+30E4\U+30FC 1
 62
    18
420
   262144
370
    25
100
AcDbVertex
100
AcDb2dVertex
 10
79.58704560727338
 20
-228.6372069740907
 30
0.0
  0
VERTEX
  5
1AD
330
1AB
100
AcDbEntity
  8
\U+30EC\U+30A4\U+30E4\U+30FC 1
 62
    18
420
   262144
370
    25
100
AcDbVertex
100
AcDb2dVertex
 10
79.73036157945977
 20
-228.6847492917872
 30
0.0
  0
VERTEX
  5
1AE
330
1AB
100
AcDbEntity
  8
\U+30EC\U+30A4\U+30E4\U+30FC 1
 62
    18
420
   262144
370
    25
100
AcDbVertex
100
AcDb2dVertex
 10
79.7775593876077
 20
-228.7329806285807
 30
0.0
  0
VERTEX
  5
1AF
330
1AB
100
AcDbEntity
  8
\U+30EC\U+30A4\U+30E4\U+30FC 1
 62
    18
420
   262144
370
    25
100
AcDbVertex
100
AcDb2dVertex
 10
79.82475719575562
 20
-228.7805229462771
 30
0.0
  0
VERTEX
  5
1B0
330
1AB
100
AcDbEntity
  8
\U+30EC\U+30A4\U+30E4\U+30FC 1
 62
    18
420
   262144
370
    25
100
AcDbVertex
100
AcDb2dVertex
 10
79.87298853254912
 20
-228.7805229462771
 30
0.0
  0
VERTEX
  5
1B1
330
1AB
100
AcDbEntity
  8
\U+30EC\U+30A4\U+30E4\U+30FC 1
 62
    18
420
   262144
370
    25
100
AcDbVertex
100
AcDb2dVertex
 10
79.92018634069704
 20
-228.8280652639735
 30
0.0
  0
SEQEND
  5
1B2
330
1AB
100
AcDbEntity
  8
\U+30EC\U+30A4\U+30E4\U+30FC 1
370
    25
  0
POLYLINE
  5
1B3
330
1F
100
AcDbEntity
  8
\U+30EC\U+30A4\U+30E4\U+30FC 1
 62
    18
420
   262144
370
    25
100
AcDb2dPolyline
 66
     1
 10
0.0
 20
0.0
 30
0.0
  0
VERTEX
  5
1B4
330
1B3
100
AcDbEntity
  8
\U+30EC\U+30A4\U+30E4\U+30FC 1
 62
    18
420
   262144
370
    25
100
AcDbVertex
100
AcDb2dVertex
 10
85.96150578363115
 20
-232.5384331015876
 30
0.0
  0
VERTEX
  5
1B5
330
1B3
100
AcDbEntity
  8
\U+30EC\U+30A4\U+30E4\U+30FC 1
 62
    18
420
   262144
370
    25
100
AcDbVertex
100
AcDb2dVertex
 10
84.24894881791346
 20
-231.4918130931687
 30
0.0
  0
VERTEX
  5
1B6
330
1B3
100
AcDbEntity
  8
\U+30EC\U+30A4\U+30E4\U+30FC 1
 62
    18
420
   262144
370
    25
100
AcDbVertex
100
AcDb2dVertex
 10
82.86953258561942
 20
-230.6360513746327
 30
0.0
  0
VERTEX
  5
1B7
330
1B3
100
AcDbEntity
  8
\U+30EC\U+30A4\U+30E4\U+30FC 1
 62
    18
420
   262144
370
    25
100
AcDbVertex
100
AcDb2dVertex
 10
81.34714489068752
 20
-229.6845160016067
 30
0.0
  0
VERTEX
  5
1B8
330
1B3
100
AcDbEntity
  8
\U+30EC\U+30A4\U+30E4\U+30FC 1
 62
    18
420
   262144
370
    25
100
AcDbVertex
100
AcDb2dVertex
 10
79.92018634069704
 20
-228.8280652639735
 30
0.0
  0
SEQEND
  5
1B9
330
1B3
100
AcDbEntity
  8
\U+30EC\U+30A4\U+30E4\U+30FC 1
370
    25
  0
POLYLINE
  5
1BA
330
1F
100
AcDbEntity
  8
\U+30EC\U+30A4\U+30E4\U+30FC 1
 62
    18
420
   262144
370
    25
100
AcDb2dPolyline
 66
     1
 10
0.0
 20
0.0
 30
0.0
  0
VERTEX
  5
1BB
330
1BA
100
AcDbEntity
  8
\U+30EC\U+30A4\U+30E4\U+30FC 1
 62
    18
420
   262144
370
    25
100
AcDbVertex
100
AcDb2dVertex
 10
86.1992173721134
 20
-232.9663139608556
 30
0.0
  0
VERTEX
  5
1BC
330
1BA
100
AcDbEntity
  8
\U+30EC\U+30A4\U+30E4\U+30FC 1
 62
    18
420
   262144
370
    25
100
AcDbVertex
100
AcDb2dVertex
 10
86.1992173721134
 20
-232.681060054677
 30
0.0
  0
SEQEND
  5
1BD
330
1BA
100
AcDbEntity
  8
\U+30EC\U+30A4\U+30E4\U+30FC 1
370
    25
  0
POLYLINE
  5
1BE
330
1F
100
AcDbEntity
  8
\U+30EC\U+30A4\U+30E4\U+30FC 1
 62
    18
420
   262144
370
    25
100
AcDb2dPolyline
 66
     1
 10
0.0
 20
0.0
 30
0.0
  0
VERTEX
  5
1BF
330
1BE
100
AcDbEntity
  8
\U+30EC\U+30A4\U+30E4\U+30FC 1
 62
    18
420
   262144
370
    25
100
AcDbVertex
100
AcDb2dVertex
 10
86.1992173721134
 20
-232.9663139608556
 30
0.0
  0
VERTEX
  5
1C0
330
1BE
100
AcDbEntity
  8
\U+30EC\U+30A4\U+30E4\U+30FC 1
 62
    18
420
   262144
370
    25
100
AcDbVertex
100
AcDb2dVertex
 10
130.5332898979222
 20
-207.3747666582258
 30
0.0
  0
SEQEND
  5
1C1
330
1BE
100
AcDbEntity
  8
\U+30EC\U+30A4\U+30E4\U+30FC 1
370
    25
  0
POLYLINE
  5
1C2
330
1F
100
AcDbEntity
  8
\U+30EC\U+30A4\U+30E4\U+30FC 1
 62
    18
420
   262144
370
    25
100
AcDb2dPolyline
 66
     1
 10
0.0
 20
0.0
 30
0.0
  0
VERTEX
  5
1C3
330
1C2
100
AcDbEntity
  8
\U+30EC\U+30A4\U+30E4\U+30FC 1
 62
    18
420
   262144
370
    25
100
AcDbVertex
100
AcDb2dVertex
 10
86.1992173721134
 20
-232.9663139608556
 30
0.0
  0
VERTEX
  5
1C4
330
1C2
100
AcDbEntity
  8
\U+30EC\U+30A4\U+30E4\U+30FC 1
 62
    18
420
   262144
370
    25
100
AcDbVertex
100
AcDb2dVertex
 10
101.4685695818377
 20
-242.3852050175287
 30
0.0
  0
SEQEND
  5
1C5
330
1C2
100
AcDbEntity
  8
\U+30EC\U+30A4\U+30E4\U+30FC 1
370
    25
  0
POLYLINE
  5
1C6
330
1F
100
AcDbEntity
  8
\U+30EC\U+30A4\U+30E4\U+30FC 1
 62
    18
420
   262144
370
    25
100
AcDb2dPolyline
 66
     1
 10
0.0
 20
0.0
 30
0.0
  0
VERTEX
  5
1C7
330
1C6
100
AcDbEntity
  8
\U+30EC\U+30A4\U+30E4\U+30FC 1
 62
    18
420
   262144
370
    25
100
AcDbVertex
100
AcDb2dVertex
 10
145.8026421076466
 20
-216.7929686958018
 30
0.0
  0
VERTEX
  5
1C8
330
1C6
100
AcDbEntity
  8
\U+30EC\U+30A4\U+30E4\U+30FC 1
 62
    18
420
   262144
370
    25
100
AcDbVertex
100
AcDb2dVertex
 10
101.4685695818377
 20
-242.3852050175287
 30
0.0
  0
SEQEND
  5
1C9
330
1C6
100
AcDbEntity
  8
\U+30EC\U+30A4\U+30E4\U+30FC 1
370
    25
  0
POLYLINE
  5
1CA
330
1F
100
AcDbEntity
  8
\U+30EC\U+30A4\U+30E4\U+30FC 1
 62
    18
420
   262144
370
    25
100
AcDb2dPolyline
 66
     1
 10
0.0
 20
0.0
 30
0.0
  0
VERTEX
  5
1CB
330
1CA
100
AcDbEntity
  8
\U+30EC\U+30A4\U+30E4\U+30FC 1
 62
    18
420
   262144
370
    25
100
AcDbVertex
100
AcDb2dVertex
 10
146.278065284611
 20
-179.8801486095439
 30
0.0
  0
VERTEX
  5
1CC
330
1CA
100
AcDbEntity
  8
\U+30EC\U+30A4\U+30E4\U+30FC 1
 62
    18
420
   262144
370
    25
100
AcDbVertex
100
AcDb2dVertex
 10
147.6574815169051
 20
-179.1187825073036
 30
0.0
  0
SEQEND
  5
1CD
330
1CA
100
AcDbEntity
  8
\U+30EC\U+30A4\U+30E4\U+30FC 1
370
    25
  0
POLYLINE
  5
1CE
330
1F
100
AcDbEntity
  8
\U+30EC\U+30A4\U+30E4\U+30FC 1
 62
    18
420
   262144
370
    25
100
AcDb2dPolyline
 66
     1
 10
0.0
 20
0.0
 30
0.0
  0
VERTEX
  5
1CF
330
1CE
100
AcDbEntity
  8
\U+30EC\U+30A4\U+30E4\U+30FC 1
 62
    18
420
   262144
370
    25
100
AcDbVertex
100
AcDb2dVertex
 10
147.6574815169051
 20
-179.1187825073036
 30
0.0
  0
VERTEX
  5
1D0
330
1CE
100
AcDbEntity
  8
\U+30EC\U+30A4\U+30E4\U+30FC 1
 62
    18
420
   262144
370
    25
100
AcDbVertex
100
AcDb2dVertex
 10
147.6574815169051
 20
-179.1187825073036
 30
0.0
  0
VERTEX
  5
1D1
330
1CE
100
AcDbEntity
  8
\U+30EC\U+30A4\U+30E4\U+30FC 1
 62
    18
420
   262144
370
    25
100
AcDbVertex
100
AcDb2dVertex
 10
147.7050238346015
 20
-179.0712401896072
 30
0.0
  0
VERTEX
  5
1D2
330
1CE
100
AcDbEntity
  8
\U+30EC\U+30A4\U+30E4\U+30FC 1
 62
    18
420
   262144
370
    25
100
AcDbVertex
100
AcDb2dVertex
 10
147.7050238346015
 20
-179.0243868910078
 30
0.0
  0
VERTEX
  5
1D3
330
1CE
100
AcDbEntity
  8
\U+30EC\U+30A4\U+30E4\U+30FC 1
 62
    18
420
   262144
370
    25
100
AcDbVertex
100
AcDb2dVertex
 10
147.7050238346015
 20
-178.9761555542143
 30
0.0
  0
SEQEND
  5
1D4
330
1CE
100
AcDbEntity
  8
\U+30EC\U+30A4\U+30E4\U+30FC 1
370
    25
  0
POLYLINE
  5
1D5
330
1F
100
AcDbEntity
  8
\U+30EC\U+30A4\U+30E4\U+30FC 1
 62
    18
420
   262144
370
    25
100
AcDb2dPolyline
 66
     1
 10
0.0
 20
0.0
 30
0.0
  0
VERTEX
  5
1D6
330
1D5
100
AcDbEntity
  8
\U+30EC\U+30A4\U+30E4\U+30FC 1
 62
    18
420
   262144
370
    25
100
AcDbVertex
100
AcDb2dVertex
 10
147.7050238346015
 20
-73.08890650299514
 30
0.0
  0
VERTEX
  5
1D7
330
1D5
100
AcDbEntity
  8
\U+30EC\U+30A4\U+30E4\U+30FC 1
 62
    18
420
   262144
370
    25
100
AcDbVertex
100
AcDb2dVertex
 10
147.7050238346015
 20
-178.9761555542143
 30
0.0
  0
SEQEND
  5
1D8
330
1D5
100
AcDbEntity
  8
\U+30EC\U+30A4\U+30E4\U+30FC 1
370
    25
  0
POLYLINE
  5
1D9
330
1F
100
AcDbEntity
  8
\U+30EC\U+30A4\U+30E4\U+30FC 1
 62
    18
420
   262144
370
    25
100
AcDb2dPolyline
 66
     1
 10
0.0
 20
0.0
 30
0.0
  0
VERTEX
  5
1DA
330
1D9
100
AcDbEntity
  8
\U+30EC\U+30A4\U+30E4\U+30FC 1
 62
    18
420
   262144
370
    25
100
AcDbVertex
100
AcDb2dVertex
 10
147.7050238346015
 20
-73.08890650299514
 30
0.0
  0
VERTEX
  5
1DB
330
1D9
100
AcDbEntity
  8
\U+30EC\U+30A4\U+30E4\U+30FC 1
 62
    18
420
   262144
370
    25
100
AcDbVertex
100
AcDb2dVertex
 10
131.9127061302163
 20
-64.62155081934809
 30
0.0
  0
SEQEND
  5
1DC
330
1D9
100
AcDbEntity
  8
\U+30EC\U+30A4\U+30E4\U+30FC 1
370
    25
  0
POLYLINE
  5
1DD
330
1F
100
AcDbEntity
  8
\U+30EC\U+30A4\U+30E4\U+30FC 1
 62
    18
420
   262144
370
    25
100
AcDb2dPolyline
 66
     1
 10
0.0
 20
0.0
 30
0.0
  0
VERTEX
  5
1DE
330
1DD
100
AcDbEntity
  8
\U+30EC\U+30A4\U+30E4\U+30FC 1
 62
    18
420
   262144
370
    25
100
AcDbVertex
100
AcDb2dVertex
 10
147.7050238346015
 20
-189.1557236940305
 30
0.0
  0
VERTEX
  5
1DF
330
1DD
100
AcDbEntity
  8
\U+30EC\U+30A4\U+30E4\U+30FC 1
 62
    18
420
   262144
370
    25
100
AcDbVertex
100
AcDb2dVertex
 10
147.7050238346015
 20
-213.5111707365528
 30
0.0
  0
SEQEND
  5
1E0
330
1DD
100
AcDbEntity
  8
\U+30EC\U+30A4\U+30E4\U+30FC 1
370
    25
  0
POLYLINE
  5
1E1
330
1F
100
AcDbEntity
  8
\U+30EC\U+30A4\U+30E4\U+30FC 1
 62
    18
420
   262144
370
    25
100
AcDb2dPolyline
 66
     1
 10
0.0
 20
0.0
 30
0.0
  0
VERTEX
  5
1E2
330
1E1
100
AcDbEntity
  8
\U+30EC\U+30A4\U+30E4\U+30FC 1
 62
    18
420
   262144
370
    25
100
AcDbVertex
100
AcDb2dVertex
 10
146.4689235744939
 20
-188.4894422271832
 30
0.0
  0
VERTEX
  5
1E3
330
1E1
100
AcDbEntity
  8
\U+30EC\U+30A4\U+30E4\U+30FC 1
 62
    18
420
   262144
370
    25
100
AcDbVertex
100
AcDb2dVertex
 10
147.7050238346015
 20
-189.1557236940305
 30
0.0
  0
SEQEND
  5
1E4
330
1E1
100
AcDbEntity
  8
\U+30EC\U+30A4\U+30E4\U+30FC 1
370
    25
  0
POLYLINE
  5
1E5
330
1F
100
AcDbEntity
  8
\U+30EC\U+30A4\U+30E4\U+30FC 1
 62
    18
420
   262144
370
    25
100
AcDb2dPolyline
 66
     1
 10
0.0
 20
0.0
 30
0.0
  0
VERTEX
  5
1E6
330
1E5
100
AcDbEntity
  8
\U+30EC\U+30A4\U+30E4\U+30FC 1
 62
    18
420
   262144
370
    25
100
AcDbVertex
100
AcDb2dVertex
 10
146.4689235744939
 20
-188.4894422271832
 30
0.0
  0
VERTEX
  5
1E7
330
1E5
100
AcDbEntity
  8
\U+30EC\U+30A4\U+30E4\U+30FC 1
 62
    18
420
   262144
370
    25
100
AcDbVertex
100
AcDb2dVertex
 10
146.4206922377004
 20
-188.4418999094868
 30
0.0
  0
VERTEX
  5
1E8
330
1E5
100
AcDbEntity
  8
\U+30EC\U+30A4\U+30E4\U+30FC 1
 62
    18
420
   262144
370
    25
100
AcDbVertex
100
AcDb2dVertex
 10
146.373149920004
 20
-188.3950466108874
 30
0.0
  0
VERTEX
  5
1E9
330
1E5
100
AcDbEntity
  8
\U+30EC\U+30A4\U+30E4\U+30FC 1
 62
    18
420
   262144
370
    25
100
AcDbVertex
100
AcDb2dVertex
 10
146.3262966214045
 20
-188.3475042931909
 30
0.0
  0
VERTEX
  5
1EA
330
1E5
100
AcDbEntity
  8
\U+30EC\U+30A4\U+30E4\U+30FC 1
 62
    18
420
   262144
370
    25
100
AcDbVertex
100
AcDb2dVertex
 10
146.278065284611
 20
-188.2999619754945
 30
0.0
  0
VERTEX
  5
1EB
330
1E5
100
AcDbEntity
  8
\U+30EC\U+30A4\U+30E4\U+30FC 1
 62
    18
420
   262144
370
    25
100
AcDbVertex
100
AcDb2dVertex
 10
146.278065284611
 20
-188.251730638701
 30
0.0
  0
VERTEX
  5
1EC
330
1E5
100
AcDbEntity
  8
\U+30EC\U+30A4\U+30E4\U+30FC 1
 62
    18
420
   262144
370
    25
100
AcDbVertex
100
AcDb2dVertex
 10
146.2305229669146
 20
-188.2041883210045
 30
0.0
  0
VERTEX
  5
1ED
330
1E5
100
AcDbEntity
  8
\U+30EC\U+30A4\U+30E4\U+30FC 1
 62
    18
420
   262144
370
    25
100
AcDbVertex
100
AcDb2dVertex
 10
146.2305229669146
 20
-188.1097927047087
 30
0.0
  0
VERTEX
  5
1EE
330
1E5
100
AcDbEntity
  8
\U+30EC\U+30A4\U+30E4\U+30FC 1
 62
    18
420
   262144
370
    25
100
AcDbVertex
100
AcDb2dVertex
 10
146.2305229669146
 20
-188.0622503870122
 30
0.0
  0
SEQEND
  5
1EF
330
1E5
100
AcDbEntity
  8
\U+30EC\U+30A4\U+30E4\U+30FC 1
370
    25
  0
POLYLINE
  5
1F0
330
1F
100
AcDbEntity
  8
\U+30EC\U+30A4\U+30E4\U+30FC 1
 62
    18
420
   262144
370
    25
100
AcDb2dPolyline
 66
     1
 10
0.0
 20
0.0
 30
0.0
  0
VERTEX
  5
1F1
330
1F0
100
AcDbEntity
  8
\U+30EC\U+30A4\U+30E4\U+30FC 1
 62
    18
420
   262144
370
    25
100
AcDbVertex
100
AcDb2dVertex
 10
146.2305229669146
 20
-180.0703178803296
 30
0.0
  0
VERTEX
  5
1F2
330
1F0
100
AcDbEntity
  8
\U+30EC\U+30A4\U+30E4\U+30FC 1
 62
    18
420
   262144
370
    25
100
AcDbVertex
100
AcDb2dVertex
 10
146.2305229669146
 20
-188.0622503870122
 30
0.0
  0
SEQEND
  5
1F3
330
1F0
100
AcDbEntity
  8
\U+30EC\U+30A4\U+30E4\U+30FC 1
370
    25
  0
POLYLINE
  5
1F4
330
1F
100
AcDbEntity
  8
\U+30EC\U+30A4\U+30E4\U+30FC 1
 62
    18
420
   262144
370
    25
100
AcDb2dPolyline
 66
     1
 10
0.0
 20
0.0
 30
0.0
  0
VERTEX
  5
1F5
330
1F4
100
AcDbEntity
  8
\U+30EC\U+30A4\U+30E4\U+30FC 1
 62
    18
420
   262144
370
    25
100
AcDbVertex
100
AcDb2dVertex
 10
146.2305229669146
 20
-180.0703178803296
 30
0.0
  0
VERTEX
  5
1F6
330
1F4
100
AcDbEntity
  8
\U+30EC\U+30A4\U+30E4\U+30FC 1
 62
    18
420
   262144
370
    25
100
AcDbVertex
100
AcDb2dVertex
 10
146.2305229669146
 20
-180.0227755626332
 30
0.0
  0
VERTEX
  5
1F7
330
1F4
100
AcDbEntity
  8
\U+30EC\U+30A4\U+30E4\U+30FC 1
 62
    18
420
   262144
370
    25
100
AcDbVertex
100
AcDb2dVertex
 10
146.2305229669146
 20
-179.9752332449368
 30
0.0
  0
VERTEX
  5
1F8
330
1F4
100
AcDbEntity
  8
\U+30EC\U+30A4\U+30E4\U+30FC 1
 62
    18
420
   262144
370
    25
100
AcDbVertex
100
AcDb2dVertex
 10
146.278065284611
 20
-179.9270019081433
 30
0.0
  0
VERTEX
  5
1F9
330
1F4
100
AcDbEntity
  8
\U+30EC\U+30A4\U+30E4\U+30FC 1
 62
    18
420
   262144
370
    25
100
AcDbVertex
100
AcDb2dVertex
 10
146.278065284611
 20
-179.8801486095439
 30
0.0
  0
SEQEND
  5
1FA
330
1F4
100
AcDbEntity
  8
\U+30EC\U+30A4\U+30E4\U+30FC 1
370
    25
  0
POLYLINE
  5
1FB
330
1F
100
AcDbEntity
  8
\U+30EC\U+30A4\U+30E4\U+30FC 1
 62
    18
420
   262144
370
    25
100
AcDb2dPolyline
 66
     1
 10
0.0
 20
0.0
 30
0.0
  0
VERTEX
  5
1FC
330
1FB
100
AcDbEntity
  8
\U+30EC\U+30A4\U+30E4\U+30FC 1
 62
    18
420
   262144
370
    25
100
AcDbVertex
100
AcDb2dVertex
 10
130.5332898979222
 20
-207.3747666582258
 30
0.0
  0
VERTEX
  5
1FD
330
1FB
100
AcDbEntity
  8
\U+30EC\U+30A4\U+30E4\U+30FC 1
 62
    18
420
   262144
370
    25
100
AcDbVertex
100
AcDb2dVertex
 10
130.5332898979222
 20
-207.3747666582258
 30
0.0
  0
SEQEND
  5
1FE
330
1FB
100
AcDbEntity
  8
\U+30EC\U+30A4\U+30E4\U+30FC 1
370
    25
  0
POLYLINE
  5
1FF
330
1F
100
AcDbEntity
  8
\U+30EC\U+30A4\U+30E4\U+30FC 1
 62
    18
420
   262144
370
    25
100
AcDb2dPolyline
 66
     1
 10
0.0
 20
0.0
 30
0.0
  0
VERTEX
  5
200
330
1FF
100
AcDbEntity
  8
\U+30EC\U+30A4\U+30E4\U+30FC 1
 62
    18
420
   262144
370
    25
100
AcDbVertex
100
AcDb2dVertex
 10
145.8026421076466
 20
-216.7929686958018
 30
0.0
  0
VERTEX
  5
201
330
1FF
100
AcDbEntity
  8
\U+30EC\U+30A4\U+30E4\U+30FC 1
 62
    18
420
   262144
370
    25
100
AcDbVertex
100
AcDb2dVertex
 10
130.5332898979222
 20
-207.3747666582258
 30
0.0
  0
SEQEND
  5
202
330
1FF
100
AcDbEntity
  8
\U+30EC\U+30A4\U+30E4\U+30FC 1
370
    25
  0
POLYLINE
  5
203
330
1F
100
AcDbEntity
  8
\U+30EC\U+30A4\U+30E4\U+30FC 1
 62
    18
420
   262144
370
    25
100
AcDb2dPolyline
 66
     1
 10
0.0
 20
0.0
 30
0.0
  0
VERTEX
  5
204
330
203
100
AcDbEntity
  8
\U+30EC\U+30A4\U+30E4\U+30FC 1
 62
    18
420
   262144
370
    25
100
AcDbVertex
100
AcDb2dVertex
 10
146.0403536961288
 20
-216.3650878365337
 30
0.0
  0
VERTEX
  5
205
330
203
100
AcDbEntity
  8
\U+30EC\U+30A4\U+30E4\U+30FC 1
 62
    18
420
   262144
370
    25
100
AcDbVertex
100
AcDb2dVertex
 10
145.8026421076466
 20
-216.7929686958018
 30
0.0
  0
SEQEND
  5
206
330
203
100
AcDbEntity
  8
\U+30EC\U+30A4\U+30E4\U+30FC 1
370
    25
  0
POLYLINE
  5
207
330
1F
100
AcDbEntity
  8
\U+30EC\U+30A4\U+30E4\U+30FC 1
 62
    18
420
   262144
370
    25
100
AcDb2dPolyline
 66
     1
 10
0.0
 20
0.0
 30
0.0
  0
VERTEX
  5
208
330
207
100
AcDbEntity
  8
\U+30EC\U+30A4\U+30E4\U+30FC 1
 62
    18
420
   262144
370
    25
100
AcDbVertex
100
AcDb2dVertex
 10
85.96150578363115
 20
-232.8236870077663
 30
0.0
  0
VERTEX
  5
209
330
207
100
AcDbEntity
  8
\U+30EC\U+30A4\U+30E4\U+30FC 1
 62
    18
420
   262144
370
    25
100
AcDbVertex
100
AcDb2dVertex
 10
86.1992173721134
 20
-232.9663139608556
 30
0.0
  0
SEQEND
  5
20A
330
207
100
AcDbEntity
  8
\U+30EC\U+30A4\U+30E4\U+30FC 1
370
    25
  0
POLYLINE
  5
20B
330
1F
100
AcDbEntity
  8
\U+30EC\U+30A4\U+30E4\U+30FC 1
 62
    18
420
   262144
370
    25
100
AcDb2dPolyline
 66
     1
 10
0.0
 20
0.0
 30
0.0
  0
VERTEX
  5
20C
330
20B
100
AcDbEntity
  8
\U+30EC\U+30A4\U+30E4\U+30FC 1
 62
    18
420
   262144
370
    25
100
AcDbVertex
100
AcDb2dVertex
 10
86.1992173721134
 20
-232.681060054677
 30
0.0
  0
VERTEX
  5
20D
330
20B
100
AcDbEntity
  8
\U+30EC\U+30A4\U+30E4\U+30FC 1
 62
    18
420
   262144
370
    25
100
AcDbVertex
100
AcDb2dVertex
 10
86.1992173721134
 20
-232.9663139608556
 30
0.0
  0
SEQEND
  5
20E
330
20B
100
AcDbEntity
  8
\U+30EC\U+30A4\U+30E4\U+30FC 1
370
    25
  0
POLYLINE
  5
20F
330
1F
100
AcDbEntity
  8
\U+30EC\U+30A4\U+30E4\U+30FC 1
 62
    18
420
   262144
370
    25
100
AcDb2dPolyline
 66
     1
 10
0.0
 20
0.0
 30
0.0
  0
VERTEX
  5
210
330
20F
100
AcDbEntity
  8
\U+30EC\U+30A4\U+30E4\U+30FC 1
 62
    18
420
   262144
370
    25
100
AcDbVertex
100
AcDb2dVertex
 10
86.1992173721134
 20
-232.681060054677
 30
0.0
  0
VERTEX
  5
211
330
20F
100
AcDbEntity
  8
\U+30EC\U+30A4\U+30E4\U+30FC 1
 62
    18
420
   262144
370
    25
100
AcDbVertex
100
AcDb2dVertex
 10
85.96150578363115
 20
-232.5384331015876
 30
0.0
  0
SEQEND
  5
212
330
20F
100
AcDbEntity
  8
\U+30EC\U+30A4\U+30E4\U+30FC 1
370
    25
  0
POLYLINE
  5
213
330
1F
100
AcDbEntity
  8
\U+30EC\U+30A4\U+30E4\U+30FC 1
 62
    18
420
   262144
370
    25
100
AcDb2dPolyline
 66
     1
 10
0.0
 20
0.0
 30
0.0
  0
VERTEX
  5
214
330
213
100
AcDbEntity
  8
\U+30EC\U+30A4\U+30E4\U+30FC 1
 62
    18
420
   262144
370
    25
100
AcDbVertex
100
AcDb2dVertex
 10
85.34311114402881
 20
-232.5859754192841
 30
0.0
  0
VERTEX
  5
215
330
213
100
AcDbEntity
  8
\U+30EC\U+30A4\U+30E4\U+30FC 1
 62
    18
420
   262144
370
    25
100
AcDbVertex
100
AcDb2dVertex
 10
85.34311114402881
 20
-232.6335177369805
 30
0.0
  0
VERTEX
  5
216
330
213
100
AcDbEntity
  8
\U+30EC\U+30A4\U+30E4\U+30FC 1
 62
    18
420
   262144
370
    25
100
AcDbVertex
100
AcDb2dVertex
 10
85.48573809711816
 20
-232.681060054677
 30
0.0
  0
VERTEX
  5
217
330
213
100
AcDbEntity
  8
\U+30EC\U+30A4\U+30E4\U+30FC 1
 62
    18
420
   262144
370
    25
100
AcDbVertex
100
AcDb2dVertex
 10
85.62836505020749
 20
-232.681060054677
 30
0.0
  0
VERTEX
  5
218
330
213
100
AcDbEntity
  8
\U+30EC\U+30A4\U+30E4\U+30FC 1
 62
    18
420
   262144
370
    25
100
AcDbVertex
100
AcDb2dVertex
 10
85.8188788305418
 20
-232.6335177369805
 30
0.0
  0
VERTEX
  5
219
330
213
100
AcDbEntity
  8
\U+30EC\U+30A4\U+30E4\U+30FC 1
 62
    18
420
   262144
370
    25
100
AcDbVertex
100
AcDb2dVertex
 10
85.96150578363115
 20
-232.5384331015876
 30
0.0
  0
SEQEND
  5
21A
330
213
100
AcDbEntity
  8
\U+30EC\U+30A4\U+30E4\U+30FC 1
370
    25
  0
POLYLINE
  5
21B
330
1F
100
AcDbEntity
  8
\U+30EC\U+30A4\U+30E4\U+30FC 1
 62
    18
420
   262144
370
    25
100
AcDb2dPolyline
 66
     1
 10
0.0
 20
0.0
 30
0.0
  0
VERTEX
  5
21C
330
21B
100
AcDbEntity
  8
\U+30EC\U+30A4\U+30E4\U+30FC 1
 62
    18
420
   262144
370
    25
100
AcDbVertex
100
AcDb2dVertex
 10
131.3890516164583
 20
-64.14578313283508
 30
0.0
  0
VERTEX
  5
21D
330
21B
100
AcDbEntity
  8
\U+30EC\U+30A4\U+30E4\U+30FC 1
 62
    18
420
   262144
370
    25
100
AcDbVertex
100
AcDb2dVertex
 10
131.4365939341548
 20
-64.14578313283508
 30
0.0
  0
VERTEX
  5
21E
330
21B
100
AcDbEntity
  8
\U+30EC\U+30A4\U+30E4\U+30FC 1
 62
    18
420
   262144
370
    25
100
AcDbVertex
100
AcDb2dVertex
 10
131.5316785695476
 20
-64.24104002300224
 30
0.0
  0
VERTEX
  5
21F
330
21B
100
AcDbEntity
  8
\U+30EC\U+30A4\U+30E4\U+30FC 1
 62
    18
420
   262144
370
    25
100
AcDbVertex
100
AcDb2dVertex
 10
131.6274522240376
 20
-64.38366697609159
 30
0.0
  0
VERTEX
  5
220
330
21B
100
AcDbEntity
  8
\U+30EC\U+30A4\U+30E4\U+30FC 1
 62
    18
420
   262144
370
    25
100
AcDbVertex
100
AcDb2dVertex
 10
131.674305522637
 20
-64.57400850165163
 30
0.0
  0
VERTEX
  5
221
330
21B
100
AcDbEntity
  8
\U+30EC\U+30A4\U+30E4\U+30FC 1
 62
    18
420
   262144
370
    25
100
AcDbVertex
100
AcDb2dVertex
 10
131.674305522637
 20
-64.76435002721169
 30
0.0
  0
SEQEND
  5
222
330
21B
100
AcDbEntity
  8
\U+30EC\U+30A4\U+30E4\U+30FC 1
370
    25
  0
POLYLINE
  5
223
330
1F
100
AcDbEntity
  8
\U+30EC\U+30A4\U+30E4\U+30FC 1
 62
    18
420
   262144
370
    25
100
AcDb2dPolyline
 66
     1
 10
0.0
 20
0.0
 30
0.0
  0
VERTEX
  5
224
330
223
100
AcDbEntity
  8
\U+30EC\U+30A4\U+30E4\U+30FC 1
 62
    18
420
   262144
370
    25
100
AcDbVertex
100
AcDb2dVertex
 10
130.5332898979222
 20
-207.0895127520471
 30
0.0
  0
VERTEX
  5
225
330
223
100
AcDbEntity
  8
\U+30EC\U+30A4\U+30E4\U+30FC 1
 62
    18
420
   262144
370
    25
100
AcDbVertex
100
AcDb2dVertex
 10
130.5332898979222
 20
-207.3747666582258
 30
0.0
  0
SEQEND
  5
226
330
223
100
AcDbEntity
  8
\U+30EC\U+30A4\U+30E4\U+30FC 1
370
    25
  0
POLYLINE
  5
227
330
1F
100
AcDbEntity
  8
\U+30EC\U+30A4\U+30E4\U+30FC 1
 62
    18
420
   262144
370
    25
100
AcDb2dPolyline
 66
     1
 10
0.0
 20
0.0
 30
0.0
  0
VERTEX
  5
228
330
227
100
AcDbEntity
  8
\U+30EC\U+30A4\U+30E4\U+30FC 1
 62
    18
420
   262144
370
    25
100
AcDbVertex
100
AcDb2dVertex
 10
130.5332898979222
 20
-207.3747666582258
 30
0.0
  0
VERTEX
  5
229
330
227
100
AcDbEntity
  8
\U+30EC\U+30A4\U+30E4\U+30FC 1
 62
    18
420
   262144
370
    25
100
AcDbVertex
100
AcDb2dVertex
 10
130.7710014864045
 20
-206.9461967798607
 30
0.0
  0
SEQEND
  5
22A
330
227
100
AcDbEntity
  8
\U+30EC\U+30A4\U+30E4\U+30FC 1
370
    25
  0
POLYLINE
  5
22B
330
1F
100
AcDbEntity
  8
\U+30EC\U+30A4\U+30E4\U+30FC 1
 62
    18
420
   262144
370
    25
100
AcDb2dPolyline
 66
     1
 10
0.0
 20
0.0
 30
0.0
  0
VERTEX
  5
22C
330
22B
100
AcDbEntity
  8
\U+30EC\U+30A4\U+30E4\U+30FC 1
 62
    18
420
   262144
370
    25
100
AcDbVertex
100
AcDb2dVertex
 10
131.9127061302163
 20
-64.62155081934809
 30
0.0
  0
VERTEX
  5
22D
330
22B
100
AcDbEntity
  8
\U+30EC\U+30A4\U+30E4\U+30FC 1
 62
    18
420
   262144
370
    25
100
AcDbVertex
100
AcDb2dVertex
 10
131.9127061302163
 20
-204.9962727352093
 30
0.0
  0
SEQEND
  5
22E
330
22B
100
AcDbEntity
  8
\U+30EC\U+30A4\U+30E4\U+30FC 1
370
    25
  0
POLYLINE
  5
22F
330
1F
100
AcDbEntity
  8
\U+30EC\U+30A4\U+30E4\U+30FC 1
 62
    18
420
   262144
370
    25
100
AcDb2dPolyline
 66
     1
 10
0.0
 20
0.0
 30
0.0
  0
VERTEX
  5
230
330
22F
100
AcDbEntity
  8
\U+30EC\U+30A4\U+30E4\U+30FC 1
 62
    18
420
   262144
370
    25
100
AcDbVertex
100
AcDb2dVertex
 10
131.9127061302163
 20
-64.62155081934809
 30
0.0
  0
VERTEX
  5
231
330
22F
100
AcDbEntity
  8
\U+30EC\U+30A4\U+30E4\U+30FC 1
 62
    18
420
   262144
370
    25
100
AcDbVertex
100
AcDb2dVertex
 10
131.9127061302163
 20
-64.38366697609159
 30
0.0
  0
VERTEX
  5
232
330
22F
100
AcDbEntity
  8
\U+30EC\U+30A4\U+30E4\U+30FC 1
 62
    18
420
   262144
370
    25
100
AcDbVertex
100
AcDb2dVertex
 10
131.8176214948234
 20
-64.14578313283508
 30
0.0
  0
VERTEX
  5
233
330
22F
100
AcDbEntity
  8
\U+30EC\U+30A4\U+30E4\U+30FC 1
 62
    18
420
   262144
370
    25
100
AcDbVertex
100
AcDb2dVertex
 10
131.7225368594305
 20
-64.00332843452
 30
0.0
  0
VERTEX
  5
234
330
22F
100
AcDbEntity
  8
\U+30EC\U+30A4\U+30E4\U+30FC 1
 62
    18
420
   262144
370
    25
100
AcDbVertex
100
AcDb2dVertex
 10
131.5799099063411
 20
-63.86035697188213
 30
0.0
  0
VERTEX
  5
235
330
22F
100
AcDbEntity
  8
\U+30EC\U+30A4\U+30E4\U+30FC 1
 62
    18
420
   262144
370
    25
100
AcDbVertex
100
AcDb2dVertex
 10
131.4365939341548
 20
-63.81298690895995
 30
0.0
  0
VERTEX
  5
236
330
22F
100
AcDbEntity
  8
\U+30EC\U+30A4\U+30E4\U+30FC 1
 62
    18
420
   262144
370
    25
100
AcDbVertex
100
AcDb2dVertex
 10
131.1988823456725
 20
-63.81298690895995
 30
0.0
  0
VERTEX
  5
237
330
22F
100
AcDbEntity
  8
\U+30EC\U+30A4\U+30E4\U+30FC 1
 62
    18
420
   262144
370
    25
100
AcDbVertex
100
AcDb2dVertex
 10
131.0087130748867
 20
-63.86035697188213
 30
0.0
  0
VERTEX
  5
238
330
22F
100
AcDbEntity
  8
\U+30EC\U+30A4\U+30E4\U+30FC 1
 62
    18
420
   262144
370
    25
100
AcDbVertex
100
AcDb2dVertex
 10
130.9136284394938
 20
-63.90807154435284
 30
0.0
  0
SEQEND
  5
239
330
22F
100
AcDbEntity
  8
\U+30EC\U+30A4\U+30E4\U+30FC 1
370
    25
  0
POLYLINE
  5
23A
330
1F
100
AcDbEntity
  8
\U+30EC\U+30A4\U+30E4\U+30FC 1
 62
    18
420
   262144
370
    25
100
AcDb2dPolyline
 66
     1
 10
0.0
 20
0.0
 30
0.0
  0
VERTEX
  5
23B
330
23A
100
AcDbEntity
  8
\U+30EC\U+30A4\U+30E4\U+30FC 1
 62
    18
420
   262144
370
    25
100
AcDbVertex
100
AcDb2dVertex
 10
84.81945663027084
 20
-232.3007215131054
 30
0.0
  0
VERTEX
  5
23C
330
23A
100
AcDbEntity
  8
\U+30EC\U+30A4\U+30E4\U+30FC 1
 62
    18
420
   262144
370
    25
100
AcDbVertex
100
AcDb2dVertex
 10
84.86768796706433
 20
-232.3958061484983
 30
0.0
  0
VERTEX
  5
23D
330
23A
100
AcDbEntity
  8
\U+30EC\U+30A4\U+30E4\U+30FC 1
 62
    18
420
   262144
370
    25
100
AcDbVertex
100
AcDb2dVertex
 10
84.91488577521226
 20
-232.6335177369805
 30
0.0
  0
VERTEX
  5
23E
330
23A
100
AcDbEntity
  8
\U+30EC\U+30A4\U+30E4\U+30FC 1
 62
    18
420
   262144
370
    25
100
AcDbVertex
100
AcDb2dVertex
 10
85.00997041060515
 20
-232.7768337091669
 30
0.0
  0
VERTEX
  5
23F
330
23A
100
AcDbEntity
  8
\U+30EC\U+30A4\U+30E4\U+30FC 1
 62
    18
420
   262144
370
    25
100
AcDbVertex
100
AcDb2dVertex
 10
85.1525973636945
 20
-232.9187716431592
 30
0.0
  0
VERTEX
  5
240
330
23A
100
AcDbEntity
  8
\U+30EC\U+30A4\U+30E4\U+30FC 1
 62
    18
420
   262144
370
    25
100
AcDbVertex
100
AcDb2dVertex
 10
85.34311114402881
 20
-232.9663139608556
 30
0.0
  0
VERTEX
  5
241
330
23A
100
AcDbEntity
  8
\U+30EC\U+30A4\U+30E4\U+30FC 1
 62
    18
420
   262144
370
    25
100
AcDbVertex
100
AcDb2dVertex
 10
85.5332804148146
 20
-232.9663139608556
 30
0.0
  0
VERTEX
  5
242
330
23A
100
AcDbEntity
  8
\U+30EC\U+30A4\U+30E4\U+30FC 1
 62
    18
420
   262144
370
    25
100
AcDbVertex
100
AcDb2dVertex
 10
85.77099200329684
 20
-232.9187716431592
 30
0.0
  0
VERTEX
  5
243
330
23A
100
AcDbEntity
  8
\U+30EC\U+30A4\U+30E4\U+30FC 1
 62
    18
420
   262144
370
    25
100
AcDbVertex
100
AcDb2dVertex
 10
85.96150578363115
 20
-232.8236870077663
 30
0.0
  0
SEQEND
  5
244
330
23A
100
AcDbEntity
  8
\U+30EC\U+30A4\U+30E4\U+30FC 1
370
    25
  0
POLYLINE
  5
245
330
1F
100
AcDbEntity
  8
\U+30EC\U+30A4\U+30E4\U+30FC 1
 62
    18
420
   262144
370
    25
100
AcDb2dPolyline
 66
     1
 10
0.0
 20
0.0
 30
0.0
  0
VERTEX
  5
246
330
245
100
AcDbEntity
  8
\U+30EC\U+30A4\U+30E4\U+30FC 1
 62
    18
420
   262144
370
    25
100
AcDbVertex
100
AcDb2dVertex
 10
147.7050238346015
 20
-213.5111707365528
 30
0.0
  0
VERTEX
  5
247
330
245
100
AcDbEntity
  8
\U+30EC\U+30A4\U+30E4\U+30FC 1
 62
    18
420
   262144
370
    25
100
AcDbVertex
100
AcDb2dVertex
 10
147.6574815169051
 20
-213.8915092781243
 30
0.0
  0
VERTEX
  5
248
330
245
100
AcDbEntity
  8
\U+30EC\U+30A4\U+30E4\U+30FC 1
 62
    18
420
   262144
370
    25
100
AcDbVertex
100
AcDb2dVertex
 10
147.5623968815122
 20
-214.3193901373924
 30
0.0
  0
VERTEX
  5
249
330
245
100
AcDbEntity
  8
\U+30EC\U+30A4\U+30E4\U+30FC 1
 62
    18
420
   262144
370
    25
100
AcDbVertex
100
AcDb2dVertex
 10
147.4197699284229
 20
-214.700417698061
 30
0.0
  0
VERTEX
  5
24A
330
245
100
AcDbEntity
  8
\U+30EC\U+30A4\U+30E4\U+30FC 1
 62
    18
420
   262144
370
    25
100
AcDbVertex
100
AcDb2dVertex
 10
147.2296006576371
 20
-215.127609538232
 30
0.0
  0
VERTEX
  5
24B
330
245
100
AcDbEntity
  8
\U+30EC\U+30A4\U+30E4\U+30FC 1
 62
    18
420
   262144
370
    25
100
AcDbVertex
100
AcDb2dVertex
 10
146.9443467514584
 20
-215.5086370989006
 30
0.0
  0
VERTEX
  5
24C
330
245
100
AcDbEntity
  8
\U+30EC\U+30A4\U+30E4\U+30FC 1
 62
    18
420
   262144
370
    25
100
AcDbVertex
100
AcDb2dVertex
 10
146.6584038261826
 20
-215.8414333227758
 30
0.0
  0
VERTEX
  5
24D
330
245
100
AcDbEntity
  8
\U+30EC\U+30A4\U+30E4\U+30FC 1
 62
    18
420
   262144
370
    25
100
AcDbVertex
100
AcDb2dVertex
 10
146.373149920004
 20
-216.174918565748
 30
0.0
  0
VERTEX
  5
24E
330
245
100
AcDbEntity
  8
\U+30EC\U+30A4\U+30E4\U+30FC 1
 62
    18
420
   262144
370
    25
100
AcDbVertex
100
AcDb2dVertex
 10
146.0403536961288
 20
-216.3650878365337
 30
0.0
  0
SEQEND
  5
24F
330
245
100
AcDbEntity
  8
\U+30EC\U+30A4\U+30E4\U+30FC 1
370
    25
  0
POLYLINE
  5
250
330
1F
100
AcDbEntity
  8
\U+30EC\U+30A4\U+30E4\U+30FC 1
 62
    18
420
   262144
370
    25
100
AcDb2dPolyline
 66
     1
 10
0.0
 20
0.0
 30
0.0
  0
VERTEX
  5
251
330
250
100
AcDbEntity
  8
\U+30EC\U+30A4\U+30E4\U+30FC 1
 62
    18
420
   262144
370
    25
100
AcDbVertex
100
AcDb2dVertex
 10
131.9127061302163
 20
-204.9962727352093
 30
0.0
  0
VERTEX
  5
252
330
250
100
AcDbEntity
  8
\U+30EC\U+30A4\U+30E4\U+30FC 1
 62
    18
420
   262144
370
    25
100
AcDbVertex
100
AcDb2dVertex
 10
147.7050238346015
 20
-213.5111707365528
 30
0.0
  0
SEQEND
  5
253
330
250
100
AcDbEntity
  8
\U+30EC\U+30A4\U+30E4\U+30FC 1
370
    25
  0
POLYLINE
  5
254
330
1F
100
AcDbEntity
  8
\U+30EC\U+30A4\U+30E4\U+30FC 1
 62
    18
420
   262144
370
    25
100
AcDb2dPolyline
 66
     1
 10
0.0
 20
0.0
 30
0.0
  0
VERTEX
  5
255
330
254
100
AcDbEntity
  8
\U+30EC\U+30A4\U+30E4\U+30FC 1
 62
    18
420
   262144
370
    25
100
AcDbVertex
100
AcDb2dVertex
 10
130.7710014864045
 20
-206.9461967798607
 30
0.0
  0
VERTEX
  5
256
330
254
100
AcDbEntity
  8
\U+30EC\U+30A4\U+30E4\U+30FC 1
 62
    18
420
   262144
370
    25
100
AcDbVertex
100
AcDb2dVertex
 10
131.0087130748867
 20
-206.8035698267713
 30
0.0
  0
VERTEX
  5
257
330
254
100
AcDbEntity
  8
\U+30EC\U+30A4\U+30E4\U+30FC 1
 62
    18
420
   262144
370
    25
100
AcDbVertex
100
AcDb2dVertex
 10
131.1988823456725
 20
-206.6140895750826
 30
0.0
  0
VERTEX
  5
258
330
254
100
AcDbEntity
  8
\U+30EC\U+30A4\U+30E4\U+30FC 1
 62
    18
420
   262144
370
    25
100
AcDbVertex
100
AcDb2dVertex
 10
131.4365939341548
 20
-206.3756889675033
 30
0.0
  0
VERTEX
  5
259
330
254
100
AcDbEntity
  8
\U+30EC\U+30A4\U+30E4\U+30FC 1
 62
    18
420
   262144
370
    25
100
AcDbVertex
100
AcDb2dVertex
 10
131.5799099063411
 20
-206.0897460422276
 30
0.0
  0
VERTEX
  5
25A
330
254
100
AcDbEntity
  8
\U+30EC\U+30A4\U+30E4\U+30FC 1
 62
    18
420
   262144
370
    25
100
AcDbVertex
100
AcDb2dVertex
 10
131.7225368594305
 20
-205.8044921360489
 30
0.0
  0
VERTEX
  5
25B
330
254
100
AcDbEntity
  8
\U+30EC\U+30A4\U+30E4\U+30FC 1
 62
    18
420
   262144
370
    25
100
AcDbVertex
100
AcDb2dVertex
 10
131.8176214948234
 20
-205.5192382298702
 30
0.0
  0
VERTEX
  5
25C
330
254
100
AcDbEntity
  8
\U+30EC\U+30A4\U+30E4\U+30FC 1
 62
    18
420
   262144
370
    25
100
AcDbVertex
100
AcDb2dVertex
 10
131.9127061302163
 20
-205.2339843236915
 30
0.0
  0
VERTEX
  5
25D
330
254
100
AcDbEntity
  8
\U+30EC\U+30A4\U+30E4\U+30FC 1
 62
    18
420
   262144
370
    25
100
AcDbVertex
100
AcDb2dVertex
 10
131.9127061302163
 20
-204.9962727352093
 30
0.0
  0
SEQEND
  5
25E
330
254
100
AcDbEntity
  8
\U+30EC\U+30A4\U+30E4\U+30FC 1
370
    25
  0
POLYLINE
  5
25F
330
1F
100
AcDbEntity
  8
\U+30EC\U+30A4\U+30E4\U+30FC 1
 62
    18
420
   262144
370
    25
100
AcDb2dPolyline
 66
     1
 10
0.0
 20
0.0
 30
0.0
  0
VERTEX
  5
260
330
25F
100
AcDbEntity
  8
\U+30EC\U+30A4\U+30E4\U+30FC 1
 62
    18
420
   262144
370
    25
100
AcDbVertex
100
AcDb2dVertex
 10
146.0403536961288
 20
-216.3650878365337
 30
0.0
  0
VERTEX
  5
261
330
25F
100
AcDbEntity
  8
\U+30EC\U+30A4\U+30E4\U+30FC 1
 62
    18
420
   262144
370
    25
100
AcDbVertex
100
AcDb2dVertex
 10
130.7710014864045
 20
-206.9461967798607
 30
0.0
  0
SEQEND
  5
262
330
25F
100
AcDbEntity
  8
\U+30EC\U+30A4\U+30E4\U+30FC 1
370
    25
  0
POLYLINE
  5
263
330
1F
100
AcDbEntity
  8
\U+30EC\U+30A4\U+30E4\U+30FC 1
 62
    18
420
   262144
370
    25
100
AcDb2dPolyline
 66
     1
 10
0.0
 20
0.0
 30
0.0
  0
VERTEX
  5
264
330
263
100
AcDbEntity
  8
\U+30EC\U+30A4\U+30E4\U+30FC 1
 62
    18
420
   262144
370
    25
100
AcDbVertex
100
AcDb2dVertex
 10
125.110020585042
 20
-61.38695066824702
 30
0.0
  0
VERTEX
  5
265
330
263
100
AcDbEntity
  8
\U+30EC\U+30A4\U+30E4\U+30FC 1
 62
    18
420
   262144
370
    25
100
AcDbVertex
100
AcDb2dVertex
 10
125.1582519218354
 20
-61.33940835055057
 30
0.0
  0
VERTEX
  5
266
330
263
100
AcDbEntity
  8
\U+30EC\U+30A4\U+30E4\U+30FC 1
 62
    18
420
   262144
370
    25
100
AcDbVertex
100
AcDb2dVertex
 10
125.2051052204348
 20
-61.33940835055057
 30
0.0
  0
VERTEX
  5
267
330
263
100
AcDbEntity
  8
\U+30EC\U+30A4\U+30E4\U+30FC 1
 62
    18
420
   262144
370
    25
100
AcDbVertex
100
AcDb2dVertex
 10
125.2526475381313
 20
-61.33940835055057
 30
0.0
  0
VERTEX
  5
268
330
263
100
AcDbEntity
  8
\U+30EC\U+30A4\U+30E4\U+30FC 1
 62
    18
420
   262144
370
    25
100
AcDbVertex
100
AcDb2dVertex
 10
125.3008788749248
 20
-61.33940835055057
 30
0.0
  0
VERTEX
  5
269
330
263
100
AcDbEntity
  8
\U+30EC\U+30A4\U+30E4\U+30FC 1
 62
    18
420
   262144
370
    25
100
AcDbVertex
100
AcDb2dVertex
 10
125.3477321735242
 20
-61.33940835055057
 30
0.0
  0
VERTEX
  5
26A
330
263
100
AcDbEntity
  8
\U+30EC\U+30A4\U+30E4\U+30FC 1
 62
    18
420
   262144
370
    25
100
AcDbVertex
100
AcDb2dVertex
 10
125.3959635103177
 20
-61.33940835055057
 30
0.0
  0
VERTEX
  5
26B
330
263
100
AcDbEntity
  8
\U+30EC\U+30A4\U+30E4\U+30FC 1
 62
    18
420
   262144
370
    25
100
AcDbVertex
100
AcDb2dVertex
 10
125.3959635103177
 20
-61.38695066824702
 30
0.0
  0
SEQEND
  5
26C
330
263
100
AcDbEntity
  8
\U+30EC\U+30A4\U+30E4\U+30FC 1
370
    25
  0
POLYLINE
  5
26D
330
1F
100
AcDbEntity
  8
\U+30EC\U+30A4\U+30E4\U+30FC 1
 62
    18
420
   262144
370
    25
100
AcDb2dPolyline
 66
     1
 10
0.0
 20
0.0
 30
0.0
  0
VERTEX
  5
26E
330
26D
100
AcDbEntity
  8
\U+30EC\U+30A4\U+30E4\U+30FC 1
 62
    18
420
   262144
370
    25
100
AcDbVertex
100
AcDb2dVertex
 10
131.674305522637
 20
-64.76435002721169
 30
0.0
  0
VERTEX
  5
26F
330
26D
100
AcDbEntity
  8
\U+30EC\U+30A4\U+30E4\U+30FC 1
 62
    18
420
   262144
370
    25
100
AcDbVertex
100
AcDb2dVertex
 10
125.3959635103177
 20
-61.38695066824702
 30
0.0
  0
SEQEND
  5
270
330
26D
100
AcDbEntity
  8
\U+30EC\U+30A4\U+30E4\U+30FC 1
370
    25
  0
POLYLINE
  5
271
330
1F
100
AcDbEntity
  8
\U+30EC\U+30A4\U+30E4\U+30FC 1
 62
    18
420
   262144
370
    25
100
AcDb2dPolyline
 66
     1
 10
0.0
 20
0.0
 30
0.0
  0
VERTEX
  5
272
330
271
100
AcDbEntity
  8
\U+30EC\U+30A4\U+30E4\U+30FC 1
 62
    18
420
   262144
370
    25
100
AcDbVertex
100
AcDb2dVertex
 10
125.3959635103177
 20
-61.38695066824702
 30
0.0
  0
VERTEX
  5
273
330
271
100
AcDbEntity
  8
\U+30EC\U+30A4\U+30E4\U+30FC 1
 62
    18
420
   262144
370
    25
100
AcDbVertex
100
AcDb2dVertex
 10
125.3959635103177
 20
-201.7613280745597
 30
0.0
  0
SEQEND
  5
274
330
271
100
AcDbEntity
  8
\U+30EC\U+30A4\U+30E4\U+30FC 1
370
    25
  0
POLYLINE
  5
275
330
1F
100
AcDbEntity
  8
\U+30EC\U+30A4\U+30E4\U+30FC 1
 62
    18
420
   262144
370
    25
100
AcDb2dPolyline
 66
     1
 10
0.0
 20
0.0
 30
0.0
  0
VERTEX
  5
276
330
275
100
AcDbEntity
  8
\U+30EC\U+30A4\U+30E4\U+30FC 1
 62
    18
420
   262144
370
    25
100
AcDbVertex
100
AcDb2dVertex
 10
131.674305522637
 20
-64.76435002721169
 30
0.0
  0
VERTEX
  5
277
330
275
100
AcDbEntity
  8
\U+30EC\U+30A4\U+30E4\U+30FC 1
 62
    18
420
   262144
370
    25
100
AcDbVertex
100
AcDb2dVertex
 10
131.674305522637
 20
-205.1382106692016
 30
0.0
  0
SEQEND
  5
278
330
275
100
AcDbEntity
  8
\U+30EC\U+30A4\U+30E4\U+30FC 1
370
    25
  0
POLYLINE
  5
279
330
1F
100
AcDbEntity
  8
\U+30EC\U+30A4\U+30E4\U+30FC 1
 62
    18
420
   262144
370
    25
100
AcDb2dPolyline
 66
     1
 10
0.0
 20
0.0
 30
0.0
  0
VERTEX
  5
27A
330
279
100
AcDbEntity
  8
\U+30EC\U+30A4\U+30E4\U+30FC 1
 62
    18
420
   262144
370
    25
100
AcDbVertex
100
AcDb2dVertex
 10
80.01561548563846
 20
-228.87560758167
 30
0.0
  0
VERTEX
  5
27B
330
279
100
AcDbEntity
  8
\U+30EC\U+30A4\U+30E4\U+30FC 1
 62
    18
420
   262144
370
    25
100
AcDbVertex
100
AcDb2dVertex
 10
86.1992173721134
 20
-232.681060054677
 30
0.0
  0
SEQEND
  5
27C
330
279
100
AcDbEntity
  8
\U+30EC\U+30A4\U+30E4\U+30FC 1
370
    25
  0
POLYLINE
  5
27D
330
1F
100
AcDbEntity
  8
\U+30EC\U+30A4\U+30E4\U+30FC 1
 62
    18
420
   262144
370
    25
100
AcDb2dPolyline
 66
     1
 10
0.0
 20
0.0
 30
0.0
  0
VERTEX
  5
27E
330
27D
100
AcDbEntity
  8
\U+30EC\U+30A4\U+30E4\U+30FC 1
 62
    18
420
   262144
370
    25
100
AcDbVertex
100
AcDb2dVertex
 10
130.5332898979222
 20
-207.0895127520471
 30
0.0
  0
VERTEX
  5
27F
330
27D
100
AcDbEntity
  8
\U+30EC\U+30A4\U+30E4\U+30FC 1
 62
    18
420
   262144
370
    25
100
AcDbVertex
100
AcDb2dVertex
 10
86.1992173721134
 20
-232.681060054677
 30
0.0
  0
SEQEND
  5
280
330
27D
100
AcDbEntity
  8
\U+30EC\U+30A4\U+30E4\U+30FC 1
370
    25
  0
POLYLINE
  5
281
330
1F
100
AcDbEntity
  8
\U+30EC\U+30A4\U+30E4\U+30FC 1
 62
    18
420
   262144
370
    25
100
AcDb2dPolyline
 66
     1
 10
0.0
 20
0.0
 30
0.0
  0
VERTEX
  5
282
330
281
100
AcDbEntity
  8
\U+30EC\U+30A4\U+30E4\U+30FC 1
 62
    18
420
   262144
370
    25
100
AcDbVertex
100
AcDb2dVertex
 10
130.5332898979222
 20
-207.0895127520471
 30
0.0
  0
VERTEX
  5
283
330
281
100
AcDbEntity
  8
\U+30EC\U+30A4\U+30E4\U+30FC 1
 62
    18
420
   262144
370
    25
100
AcDbVertex
100
AcDb2dVertex
 10
124.3493435018988
 20
-203.2840602790401
 30
0.0
  0
SEQEND
  5
284
330
281
100
AcDbEntity
  8
\U+30EC\U+30A4\U+30E4\U+30FC 1
370
    25
  0
POLYLINE
  5
285
330
1F
100
AcDbEntity
  8
\U+30EC\U+30A4\U+30E4\U+30FC 1
 62
    18
420
   262144
370
    25
100
AcDb2dPolyline
 66
     1
 10
0.0
 20
0.0
 30
0.0
  0
VERTEX
  5
286
330
285
100
AcDbEntity
  8
\U+30EC\U+30A4\U+30E4\U+30FC 1
 62
    18
420
   262144
370
    25
100
AcDbVertex
100
AcDb2dVertex
 10
130.7710014864045
 20
-206.660942873682
 30
0.0
  0
VERTEX
  5
287
330
285
100
AcDbEntity
  8
\U+30EC\U+30A4\U+30E4\U+30FC 1
 62
    18
420
   262144
370
    25
100
AcDbVertex
100
AcDb2dVertex
 10
130.5332898979222
 20
-207.0895127520471
 30
0.0
  0
SEQEND
  5
288
330
285
100
AcDbEntity
  8
\U+30EC\U+30A4\U+30E4\U+30FC 1
370
    25
  0
POLYLINE
  5
289
330
1F
100
AcDbEntity
  8
\U+30EC\U+30A4\U+30E4\U+30FC 1
 62
    18
420
   262144
370
    25
100
AcDb2dPolyline
 66
     1
 10
0.0
 20
0.0
 30
0.0
  0
VERTEX
  5
28A
330
289
100
AcDbEntity
  8
\U+30EC\U+30A4\U+30E4\U+30FC 1
 62
    18
420
   262144
370
    25
100
AcDbVertex
100
AcDb2dVertex
 10
124.7296820434704
 20
-202.9505750360679
 30
0.0
  0
VERTEX
  5
28B
330
289
100
AcDbEntity
  8
\U+30EC\U+30A4\U+30E4\U+30FC 1
 62
    18
420
   262144
370
    25
100
AcDbVertex
100
AcDb2dVertex
 10
124.6821397257739
 20
-202.9030327183715
 30
0.0
  0
VERTEX
  5
28C
330
289
100
AcDbEntity
  8
\U+30EC\U+30A4\U+30E4\U+30FC 1
 62
    18
420
   262144
370
    25
100
AcDbVertex
100
AcDb2dVertex
 10
124.6821397257739
 20
-202.855490400675
 30
0.0
  0
VERTEX
  5
28D
330
289
100
AcDbEntity
  8
\U+30EC\U+30A4\U+30E4\U+30FC 1
 62
    18
420
   262144
370
    25
100
AcDbVertex
100
AcDb2dVertex
 10
124.6821397257739
 20
-202.8086371020756
 30
0.0
  0
VERTEX
  5
28E
330
289
100
AcDbEntity
  8
\U+30EC\U+30A4\U+30E4\U+30FC 1
 62
    18
420
   262144
370
    25
100
AcDbVertex
100
AcDb2dVertex
 10
124.6821397257739
 20
-202.7128634475857
 30
0.0
  0
VERTEX
  5
28F
330
289
100
AcDbEntity
  8
\U+30EC\U+30A4\U+30E4\U+30FC 1
 62
    18
420
   262144
370
    25
100
AcDbVertex
100
AcDb2dVertex
 10
124.7296820434704
 20
-202.5702364944963
 30
0.0
  0
SEQEND
  5
290
330
289
100
AcDbEntity
  8
\U+30EC\U+30A4\U+30E4\U+30FC 1
370
    25
  0
POLYLINE
  5
291
330
1F
100
AcDbEntity
  8
\U+30EC\U+30A4\U+30E4\U+30FC 1
 62
    18
420
   262144
370
    25
100
AcDb2dPolyline
 66
     1
 10
0.0
 20
0.0
 30
0.0
  0
VERTEX
  5
292
330
291
100
AcDbEntity
  8
\U+30EC\U+30A4\U+30E4\U+30FC 1
 62
    18
420
   262144
370
    25
100
AcDbVertex
100
AcDb2dVertex
 10
125.110020585042
 20
-201.7613280745597
 30
0.0
  0
VERTEX
  5
293
330
291
100
AcDbEntity
  8
\U+30EC\U+30A4\U+30E4\U+30FC 1
 62
    18
420
   262144
370
    25
100
AcDbVertex
100
AcDb2dVertex
 10
125.1582519218354
 20
-201.7613280745597
 30
0.0
  0
VERTEX
  5
294
330
291
100
AcDbEntity
  8
\U+30EC\U+30A4\U+30E4\U+30FC 1
 62
    18
420
   262144
370
    25
100
AcDbVertex
100
AcDb2dVertex
 10
125.2051052204348
 20
-201.7137857568632
 30
0.0
  0
VERTEX
  5
295
330
291
100
AcDbEntity
  8
\U+30EC\U+30A4\U+30E4\U+30FC 1
 62
    18
420
   262144
370
    25
100
AcDbVertex
100
AcDb2dVertex
 10
125.2526475381313
 20
-201.7137857568632
 30
0.0
  0
VERTEX
  5
296
330
291
100
AcDbEntity
  8
\U+30EC\U+30A4\U+30E4\U+30FC 1
 62
    18
420
   262144
370
    25
100
AcDbVertex
100
AcDb2dVertex
 10
125.3008788749248
 20
-201.7137857568632
 30
0.0
  0
VERTEX
  5
297
330
291
100
AcDbEntity
  8
\U+30EC\U+30A4\U+30E4\U+30FC 1
 62
    18
420
   262144
370
    25
100
AcDbVertex
100
AcDb2dVertex
 10
125.3477321735242
 20
-201.7137857568632
 30
0.0
  0
VERTEX
  5
298
330
291
100
AcDbEntity
  8
\U+30EC\U+30A4\U+30E4\U+30FC 1
 62
    18
420
   262144
370
    25
100
AcDbVertex
100
AcDb2dVertex
 10
125.3959635103177
 20
-201.7137857568632
 30
0.0
  0
VERTEX
  5
299
330
291
100
AcDbEntity
  8
\U+30EC\U+30A4\U+30E4\U+30FC 1
 62
    18
420
   262144
370
    25
100
AcDbVertex
100
AcDb2dVertex
 10
125.3959635103177
 20
-201.7613280745597
 30
0.0
  0
SEQEND
  5
29A
330
291
100
AcDbEntity
  8
\U+30EC\U+30A4\U+30E4\U+30FC 1
370
    25
  0
POLYLINE
  5
29B
330
1F
100
AcDbEntity
  8
\U+30EC\U+30A4\U+30E4\U+30FC 1
 62
    18
420
   262144
370
    25
100
AcDb2dPolyline
 66
     1
 10
0.0
 20
0.0
 30
0.0
  0
VERTEX
  5
29C
330
29B
100
AcDbEntity
  8
\U+30EC\U+30A4\U+30E4\U+30FC 1
 62
    18
420
   262144
370
    25
100
AcDbVertex
100
AcDb2dVertex
 10
79.58704560727338
 20
-228.6372069740907
 30
0.0
  0
VERTEX
  5
29D
330
29B
100
AcDbEntity
  8
\U+30EC\U+30A4\U+30E4\U+30FC 1
 62
    18
420
   262144
370
    25
100
AcDbVertex
100
AcDb2dVertex
 10
80.01561548563846
 20
-228.87560758167
 30
0.0
  0
SEQEND
  5
29E
330
29B
100
AcDbEntity
  8
\U+30EC\U+30A4\U+30E4\U+30FC 1
370
    25
  0
POLYLINE
  5
29F
330
1F
100
AcDbEntity
  8
\U+30EC\U+30A4\U+30E4\U+30FC 1
 62
    18
420
   262144
370
    25
100
AcDb2dPolyline
 66
     1
 10
0.0
 20
0.0
 30
0.0
  0
VERTEX
  5
2A0
330
29F
100
AcDbEntity
  8
\U+30EC\U+30A4\U+30E4\U+30FC 1
 62
    18
420
   262144
370
    25
100
AcDbVertex
100
AcDb2dVertex
 10
124.3493435018988
 20
-203.2840602790401
 30
0.0
  0
VERTEX
  5
2A1
330
29F
100
AcDbEntity
  8
\U+30EC\U+30A4\U+30E4\U+30FC 1
 62
    18
420
   262144
370
    25
100
AcDbVertex
100
AcDb2dVertex
 10
80.01561548563846
 20
-228.87560758167
 30
0.0
  0
SEQEND
  5
2A2
330
29F
100
AcDbEntity
  8
\U+30EC\U+30A4\U+30E4\U+30FC 1
370
    25
  0
POLYLINE
  5
2A3
330
1F
100
AcDbEntity
  8
\U+30EC\U+30A4\U+30E4\U+30FC 1
 62
    18
420
   262144
370
    25
100
AcDb2dPolyline
 66
     1
 10
0.0
 20
0.0
 30
0.0
  0
VERTEX
  5
2A4
330
2A3
100
AcDbEntity
  8
\U+30EC\U+30A4\U+30E4\U+30FC 1
 62
    18
420
   262144
370
    25
100
AcDbVertex
100
AcDb2dVertex
 10
124.3493435018988
 20
-203.2840602790401
 30
0.0
  0
VERTEX
  5
2A5
330
2A3
100
AcDbEntity
  8
\U+30EC\U+30A4\U+30E4\U+30FC 1
 62
    18
420
   262144
370
    25
100
AcDbVertex
100
AcDb2dVertex
 10
124.7296820434704
 20
-202.5702364944963
 30
0.0
  0
SEQEND
  5
2A6
330
2A3
100
AcDbEntity
  8
\U+30EC\U+30A4\U+30E4\U+30FC 1
370
    25
  0
POLYLINE
  5
2A7
330
1F
100
AcDbEntity
  8
\U+30EC\U+30A4\U+30E4\U+30FC 1
 62
    18
420
   262144
370
    25
100
AcDb2dPolyline
 66
     1
 10
0.0
 20
0.0
 30
0.0
  0
VERTEX
  5
2A8
330
2A7
100
AcDbEntity
  8
\U+30EC\U+30A4\U+30E4\U+30FC 1
 62
    18
420
   262144
370
    25
100
AcDbVertex
100
AcDb2dVertex
 10
124.7296820434704
 20
-202.5702364944963
 30
0.0
  0
VERTEX
  5
2A9
330
2A7
100
AcDbEntity
  8
\U+30EC\U+30A4\U+30E4\U+30FC 1
 62
    18
420
   262144
370
    25
100
AcDbVertex
100
AcDb2dVertex
 10
124.8247666788633
 20
-202.4751518591034
 30
0.0
  0
VERTEX
  5
2AA
330
2A7
100
AcDbEntity
  8
\U+30EC\U+30A4\U+30E4\U+30FC 1
 62
    18
420
   262144
370
    25
100
AcDbVertex
100
AcDb2dVertex
 10
124.9198513142561
 20
-202.3800672237105
 30
0.0
  0
VERTEX
  5
2AB
330
2A7
100
AcDbEntity
  8
\U+30EC\U+30A4\U+30E4\U+30FC 1
 62
    18
420
   262144
370
    25
100
AcDbVertex
100
AcDb2dVertex
 10
124.9673936319526
 20
-202.2842935692206
 30
0.0
  0
VERTEX
  5
2AC
330
2A7
100
AcDbEntity
  8
\U+30EC\U+30A4\U+30E4\U+30FC 1
 62
    18
420
   262144
370
    25
100
AcDbVertex
100
AcDb2dVertex
 10
125.014935949649
 20
-202.1898979529248
 30
0.0
  0
VERTEX
  5
2AD
330
2A7
100
AcDbEntity
  8
\U+30EC\U+30A4\U+30E4\U+30FC 1
 62
    18
420
   262144
370
    25
100
AcDbVertex
100
AcDb2dVertex
 10
125.0624782673455
 20
-202.0948133175319
 30
0.0
  0
VERTEX
  5
2AE
330
2A7
100
AcDbEntity
  8
\U+30EC\U+30A4\U+30E4\U+30FC 1
 62
    18
420
   262144
370
    25
100
AcDbVertex
100
AcDb2dVertex
 10
125.110020585042
 20
-201.9514973453455
 30
0.0
  0
VERTEX
  5
2AF
330
2A7
100
AcDbEntity
  8
\U+30EC\U+30A4\U+30E4\U+30FC 1
 62
    18
420
   262144
370
    25
100
AcDbVertex
100
AcDb2dVertex
 10
125.110020585042
 20
-201.8571017290496
 30
0.0
  0
VERTEX
  5
2B0
330
2A7
100
AcDbEntity
  8
\U+30EC\U+30A4\U+30E4\U+30FC 1
 62
    18
420
   262144
370
    25
100
AcDbVertex
100
AcDb2dVertex
 10
125.110020585042
 20
-201.7613280745597
 30
0.0
  0
SEQEND
  5
2B1
330
2A7
100
AcDbEntity
  8
\U+30EC\U+30A4\U+30E4\U+30FC 1
370
    25
  0
POLYLINE
  5
2B2
330
1F
100
AcDbEntity
  8
\U+30EC\U+30A4\U+30E4\U+30FC 1
 62
    18
420
   262144
370
    25
100
AcDb2dPolyline
 66
     1
 10
0.0
 20
0.0
 30
0.0
  0
VERTEX
  5
2B3
330
2B2
100
AcDbEntity
  8
\U+30EC\U+30A4\U+30E4\U+30FC 1
 62
    18
420
   262144
370
    25
100
AcDbVertex
100
AcDb2dVertex
 10
125.110020585042
 20
-201.7613280745597
 30
0.0
  0
VERTEX
  5
2B4
330
2B2
100
AcDbEntity
  8
\U+30EC\U+30A4\U+30E4\U+30FC 1
 62
    18
420
   262144
370
    25
100
AcDbVertex
100
AcDb2dVertex
 10
125.110020585042
 20
-61.38695066824702
 30
0.0
  0
SEQEND
  5
2B5
330
2B2
100
AcDbEntity
  8
\U+30EC\U+30A4\U+30E4\U+30FC 1
370
    25
  0
POLYLINE
  5
2B6
330
1F
100
AcDbEntity
  8
\U+30EC\U+30A4\U+30E4\U+30FC 1
 62
    18
420
   262144
370
    25
100
AcDb2dPolyline
 66
     1
 10
0.0
 20
0.0
 30
0.0
  0
VERTEX
  5
2B7
330
2B6
100
AcDbEntity
  8
\U+30EC\U+30A4\U+30E4\U+30FC 1
 62
    18
420
   262144
370
    25
100
AcDbVertex
100
AcDb2dVertex
 10
125.3959635103177
 20
-201.7613280745597
 30
0.0
  0
VERTEX
  5
2B8
330
2B6
100
AcDbEntity
  8
\U+30EC\U+30A4\U+30E4\U+30FC 1
 62
    18
420
   262144
370
    25
100
AcDbVertex
100
AcDb2dVertex
 10
131.674305522637
 20
-205.1382106692016
 30
0.0
  0
SEQEND
  5
2B9
330
2B6
100
AcDbEntity
  8
\U+30EC\U+30A4\U+30E4\U+30FC 1
370
    25
  0
POLYLINE
  5
2BA
330
1F
100
AcDbEntity
  8
\U+30EC\U+30A4\U+30E4\U+30FC 1
 62
    18
420
   262144
370
    25
100
AcDb2dPolyline
 66
     1
 10
0.0
 20
0.0
 30
0.0
  0
VERTEX
  5
2BB
330
2BA
100
AcDbEntity
  8
\U+30EC\U+30A4\U+30E4\U+30FC 1
 62
    18
420
   262144
370
    25
100
AcDbVertex
100
AcDb2dVertex
 10
125.3959635103177
 20
-201.7613280745597
 30
0.0
  0
VERTEX
  5
2BC
330
2BA
100
AcDbEntity
  8
\U+30EC\U+30A4\U+30E4\U+30FC 1
 62
    18
420
   262144
370
    25
100
AcDbVertex
100
AcDb2dVertex
 10
125.3959635103177
 20
-201.9046440467461
 30
0.0
  0
VERTEX
  5
2BD
330
2BA
100
AcDbEntity
  8
\U+30EC\U+30A4\U+30E4\U+30FC 1
 62
    18
420
   262144
370
    25
100
AcDbVertex
100
AcDb2dVertex
 10
125.3477321735242
 20
-202.0948133175319
 30
0.0
  0
VERTEX
  5
2BE
330
2BA
100
AcDbEntity
  8
\U+30EC\U+30A4\U+30E4\U+30FC 1
 62
    18
420
   262144
370
    25
100
AcDbVertex
100
AcDb2dVertex
 10
125.3008788749248
 20
-202.2367512515242
 30
0.0
  0
VERTEX
  5
2BF
330
2BA
100
AcDbEntity
  8
\U+30EC\U+30A4\U+30E4\U+30FC 1
 62
    18
420
   262144
370
    25
100
AcDbVertex
100
AcDb2dVertex
 10
125.2051052204348
 20
-202.427609541407
 30
0.0
  0
VERTEX
  5
2C0
330
2BA
100
AcDbEntity
  8
\U+30EC\U+30A4\U+30E4\U+30FC 1
 62
    18
420
   262144
370
    25
100
AcDbVertex
100
AcDb2dVertex
 10
125.110020585042
 20
-202.5702364944963
 30
0.0
  0
VERTEX
  5
2C1
330
2BA
100
AcDbEntity
  8
\U+30EC\U+30A4\U+30E4\U+30FC 1
 62
    18
420
   262144
370
    25
100
AcDbVertex
100
AcDb2dVertex
 10
124.9673936319526
 20
-202.7128634475857
 30
0.0
  0
VERTEX
  5
2C2
330
2BA
100
AcDbEntity
  8
\U+30EC\U+30A4\U+30E4\U+30FC 1
 62
    18
420
   262144
370
    25
100
AcDbVertex
100
AcDb2dVertex
 10
124.8723089965597
 20
-202.855490400675
 30
0.0
  0
VERTEX
  5
2C3
330
2BA
100
AcDbEntity
  8
\U+30EC\U+30A4\U+30E4\U+30FC 1
 62
    18
420
   262144
370
    25
100
AcDbVertex
100
AcDb2dVertex
 10
124.7296820434704
 20
-202.9505750360679
 30
0.0
  0
SEQEND
  5
2C4
330
2BA
100
AcDbEntity
  8
\U+30EC\U+30A4\U+30E4\U+30FC 1
370
    25
  0
POLYLINE
  5
2C5
330
1F
100
AcDbEntity
  8
\U+30EC\U+30A4\U+30E4\U+30FC 1
 62
    18
420
   262144
370
    25
100
AcDb2dPolyline
 66
     1
 10
0.0
 20
0.0
 30
0.0
  0
VERTEX
  5
2C6
330
2C5
100
AcDbEntity
  8
\U+30EC\U+30A4\U+30E4\U+30FC 1
 62
    18
420
   262144
370
    25
100
AcDbVertex
100
AcDb2dVertex
 10
124.7296820434704
 20
-202.9505750360679
 30
0.0
  0
VERTEX
  5
2C7
330
2C5
100
AcDbEntity
  8
\U+30EC\U+30A4\U+30E4\U+30FC 1
 62
    18
420
   262144
370
    25
100
AcDbVertex
100
AcDb2dVertex
 10
125.9189290049786
 20
-203.6643988206117
 30
0.0
  0
VERTEX
  5
2C8
330
2C5
100
AcDbEntity
  8
\U+30EC\U+30A4\U+30E4\U+30FC 1
 62
    18
420
   262144
370
    25
100
AcDbVertex
100
AcDb2dVertex
 10
127.6793727979413
 20
-204.758561146727
 30
0.0
  0
VERTEX
  5
2C9
330
2C5
100
AcDbEntity
  8
\U+30EC\U+30A4\U+30E4\U+30FC 1
 62
    18
420
   262144
370
    25
100
AcDbVertex
100
AcDb2dVertex
 10
129.2014159833247
 20
-205.7100965197531
 30
0.0
  0
VERTEX
  5
2CA
330
2C5
100
AcDbEntity
  8
\U+30EC\U+30A4\U+30E4\U+30FC 1
 62
    18
420
   262144
370
    25
100
AcDbVertex
100
AcDb2dVertex
 10
130.7710014864045
 20
-206.660942873682
 30
0.0
  0
SEQEND
  5
2CB
330
2C5
100
AcDbEntity
  8
\U+30EC\U+30A4\U+30E4\U+30FC 1
370
    25
  0
POLYLINE
  5
2CC
330
1F
100
AcDbEntity
  8
\U+30EC\U+30A4\U+30E4\U+30FC 1
 62
    18
420
   262144
370
    25
100
AcDb2dPolyline
 66
     1
 10
0.0
 20
0.0
 30
0.0
  0
VERTEX
  5
2CD
330
2CC
100
AcDbEntity
  8
\U+30EC\U+30A4\U+30E4\U+30FC 1
 62
    18
420
   262144
370
    25
100
AcDbVertex
100
AcDb2dVertex
 10
131.674305522637
 20
-205.1382106692016
 30
0.0
  0
VERTEX
  5
2CE
330
2CC
100
AcDbEntity
  8
\U+30EC\U+30A4\U+30E4\U+30FC 1
 62
    18
420
   262144
370
    25
100
AcDbVertex
100
AcDb2dVertex
 10
131.674305522637
 20
-205.3290689590844
 30
0.0
  0
VERTEX
  5
2CF
330
2CC
100
AcDbEntity
  8
\U+30EC\U+30A4\U+30E4\U+30FC 1
 62
    18
420
   262144
370
    25
100
AcDbVertex
100
AcDb2dVertex
 10
131.6274522240376
 20
-205.5667805475667
 30
0.0
  0
VERTEX
  5
2D0
330
2CC
100
AcDbEntity
  8
\U+30EC\U+30A4\U+30E4\U+30FC 1
 62
    18
420
   262144
370
    25
100
AcDbVertex
100
AcDb2dVertex
 10
131.5316785695476
 20
-205.8044921360489
 30
0.0
  0
VERTEX
  5
2D1
330
2CC
100
AcDbEntity
  8
\U+30EC\U+30A4\U+30E4\U+30FC 1
 62
    18
420
   262144
370
    25
100
AcDbVertex
100
AcDb2dVertex
 10
131.4365939341548
 20
-205.9953504259317
 30
0.0
  0
VERTEX
  5
2D2
330
2CC
100
AcDbEntity
  8
\U+30EC\U+30A4\U+30E4\U+30FC 1
 62
    18
420
   262144
370
    25
100
AcDbVertex
100
AcDb2dVertex
 10
131.2939669810654
 20
-206.233062014414
 30
0.0
  0
VERTEX
  5
2D3
330
2CC
100
AcDbEntity
  8
\U+30EC\U+30A4\U+30E4\U+30FC 1
 62
    18
420
   262144
370
    25
100
AcDbVertex
100
AcDb2dVertex
 10
131.1037977102796
 20
-206.4232312851998
 30
0.0
  0
VERTEX
  5
2D4
330
2CC
100
AcDbEntity
  8
\U+30EC\U+30A4\U+30E4\U+30FC 1
 62
    18
420
   262144
370
    25
100
AcDbVertex
100
AcDb2dVertex
 10
130.9611707571903
 20
-206.5658582382891
 30
0.0
  0
VERTEX
  5
2D5
330
2CC
100
AcDbEntity
  8
\U+30EC\U+30A4\U+30E4\U+30FC 1
 62
    18
420
   262144
370
    25
100
AcDbVertex
100
AcDb2dVertex
 10
130.7710014864045
 20
-206.660942873682
 30
0.0
  0
SEQEND
  5
2D6
330
2CC
100
AcDbEntity
  8
\U+30EC\U+30A4\U+30E4\U+30FC 1
370
    25
  0
POLYLINE
  5
2D7
330
1F
100
AcDbEntity
  8
\U+30EC\U+30A4\U+30E4\U+30FC 1
 62
    18
420
   262144
370
    25
100
AcDb2dPolyline
 66
     1
 10
0.0
 20
0.0
 30
0.0
  0
VERTEX
  5
2D8
330
2D7
100
AcDbEntity
  8
\U+30EC\U+30A4\U+30E4\U+30FC 1
 62
    18
420
   262144
370
    25
100
AcDbVertex
100
AcDb2dVertex
 10
55.85068222345053
 20
-71.28109264711028
 30
0.0
  0
VERTEX
  5
2D9
330
2D7
100
AcDbEntity
  8
\U+30EC\U+30A4\U+30E4\U+30FC 1
 62
    18
420
   262144
370
    25
100
AcDbVertex
100
AcDb2dVertex
 10
55.85068222345053
 20
-71.28109264711028
 30
0.0
  0
SEQEND
  5
2DA
330
2D7
100
AcDbEntity
  8
\U+30EC\U+30A4\U+30E4\U+30FC 1
370
    25
  0
POLYLINE
  5
2DB
330
1F
100
AcDbEntity
  8
\U+30EC\U+30A4\U+30E4\U+30FC 1
 62
    18
420
   262144
370
    25
100
AcDb2dPolyline
 66
     1
 10
0.0
 20
0.0
 30
0.0
  0
VERTEX
  5
2DC
330
2DB
100
AcDbEntity
  8
\U+30EC\U+30A4\U+30E4\U+30FC 1
 62
    18
420
   262144
370
    25
100
AcDbVertex
100
AcDb2dVertex
 10
56.37399222765998
 20
-70.4249864190257
 30
0.0
  0
VERTEX
  5
2DD
330
2DB
100
AcDbEntity
  8
\U+30EC\U+30A4\U+30E4\U+30FC 1
 62
    18
420
   262144
370
    25
100
AcDbVertex
100
AcDb2dVertex
 10
56.27856308271856
 20
-70.47252873672215
 30
0.0
  0
VERTEX
  5
2DE
330
2DB
100
AcDbEntity
  8
\U+30EC\U+30A4\U+30E4\U+30FC 1
 62
    18
420
   262144
370
    25
100
AcDbVertex
100
AcDb2dVertex
 10
56.13593612962921
 20
-70.56761337211505
 30
0.0
  0
VERTEX
  5
2DF
330
2DB
100
AcDbEntity
  8
\U+30EC\U+30A4\U+30E4\U+30FC 1
 62
    18
420
   262144
370
    25
100
AcDbVertex
100
AcDb2dVertex
 10
56.08873832148129
 20
-70.6628702622822
 30
0.0
  0
VERTEX
  5
2E0
330
2DB
100
AcDbEntity
  8
\U+30EC\U+30A4\U+30E4\U+30FC 1
 62
    18
420
   262144
370
    25
100
AcDbVertex
100
AcDb2dVertex
 10
55.99330917653987
 20
-70.75778264290084
 30
0.0
  0
VERTEX
  5
2E1
330
2DB
100
AcDbEntity
  8
\U+30EC\U+30A4\U+30E4\U+30FC 1
 62
    18
420
   262144
370
    25
100
AcDbVertex
100
AcDb2dVertex
 10
55.94611136839195
 20
-70.90075410553871
 30
0.0
  0
VERTEX
  5
2E2
330
2DB
100
AcDbEntity
  8
\U+30EC\U+30A4\U+30E4\U+30FC 1
 62
    18
420
   262144
370
    25
100
AcDbVertex
100
AcDb2dVertex
 10
55.89788003159845
 20
-70.99566648615733
 30
0.0
  0
VERTEX
  5
2E3
330
2DB
100
AcDbEntity
  8
\U+30EC\U+30A4\U+30E4\U+30FC 1
 62
    18
420
   262144
370
    25
100
AcDbVertex
100
AcDb2dVertex
 10
55.85068222345053
 20
-71.13846569402094
 30
0.0
  0
VERTEX
  5
2E4
330
2DB
100
AcDbEntity
  8
\U+30EC\U+30A4\U+30E4\U+30FC 1
 62
    18
420
   262144
370
    25
100
AcDbVertex
100
AcDb2dVertex
 10
55.85068222345053
 20
-71.28109264711028
 30
0.0
  0
SEQEND
  5
2E5
330
2DB
100
AcDbEntity
  8
\U+30EC\U+30A4\U+30E4\U+30FC 1
370
    25
  0
POLYLINE
  5
2E6
330
1F
100
AcDbEntity
  8
\U+30EC\U+30A4\U+30E4\U+30FC 1
 62
    18
420
   262144
370
    25
100
AcDb2dPolyline
 66
     1
 10
0.0
 20
0.0
 30
0.0
  0
VERTEX
  5
2E7
330
2E6
100
AcDbEntity
  8
\U+30EC\U+30A4\U+30E4\U+30FC 1
 62
    18
420
   262144
370
    25
100
AcDbVertex
100
AcDb2dVertex
 10
70.45409747587607
 20
-80.88998071979486
 30
0.0
  0
VERTEX
  5
2E8
330
2E6
100
AcDbEntity
  8
\U+30EC\U+30A4\U+30E4\U+30FC 1
 62
    18
420
   262144
370
    25
100
AcDbVertex
100
AcDb2dVertex
 10
79.73036157945977
 20
-75.51459823415955
 30
0.0
  0
SEQEND
  5
2E9
330
2E6
100
AcDbEntity
  8
\U+30EC\U+30A4\U+30E4\U+30FC 1
370
    25
  0
POLYLINE
  5
2EA
330
1F
100
AcDbEntity
  8
\U+30EC\U+30A4\U+30E4\U+30FC 1
 62
    18
420
   262144
370
    25
100
AcDb2dPolyline
 66
     1
 10
0.0
 20
0.0
 30
0.0
  0
VERTEX
  5
2EB
330
2EA
100
AcDbEntity
  8
\U+30EC\U+30A4\U+30E4\U+30FC 1
 62
    18
420
   262144
370
    25
100
AcDbVertex
100
AcDb2dVertex
 10
69.31239283206426
 20
-80.27158608019252
 30
0.0
  0
VERTEX
  5
2EC
330
2EA
100
AcDbEntity
  8
\U+30EC\U+30A4\U+30E4\U+30FC 1
 62
    18
420
   262144
370
    25
100
AcDbVertex
100
AcDb2dVertex
 10
79.73036157945977
 20
-74.23043889203267
 30
0.0
  0
SEQEND
  5
2ED
330
2EA
100
AcDbEntity
  8
\U+30EC\U+30A4\U+30E4\U+30FC 1
370
    25
  0
POLYLINE
  5
2EE
330
1F
100
AcDbEntity
  8
\U+30EC\U+30A4\U+30E4\U+30FC 1
 62
    18
420
   262144
370
    25
100
AcDb2dPolyline
 66
     1
 10
0.0
 20
0.0
 30
0.0
  0
VERTEX
  5
2EF
330
2EE
100
AcDbEntity
  8
\U+30EC\U+30A4\U+30E4\U+30FC 1
 62
    18
420
   262144
370
    25
100
AcDbVertex
100
AcDb2dVertex
 10
117.5942002744209
 20
-38.17338052431082
 30
0.0
  0
VERTEX
  5
2F0
330
2EE
100
AcDbEntity
  8
\U+30EC\U+30A4\U+30E4\U+30FC 1
 62
    18
420
   262144
370
    25
100
AcDbVertex
100
AcDb2dVertex
 10
117.6417425921174
 20
-38.22109509678153
 30
0.0
  0
VERTEX
  5
2F1
330
2EE
100
AcDbEntity
  8
\U+30EC\U+30A4\U+30E4\U+30FC 1
 62
    18
420
   262144
370
    25
100
AcDbVertex
100
AcDb2dVertex
 10
117.7368272275102
 20
-38.26863741447798
 30
0.0
  0
VERTEX
  5
2F2
330
2EE
100
AcDbEntity
  8
\U+30EC\U+30A4\U+30E4\U+30FC 1
 62
    18
420
   262144
370
    25
100
AcDbVertex
100
AcDb2dVertex
 10
117.7850585643037
 20
-38.36389430464514
 30
0.0
  0
VERTEX
  5
2F3
330
2EE
100
AcDbEntity
  8
\U+30EC\U+30A4\U+30E4\U+30FC 1
 62
    18
420
   262144
370
    25
100
AcDbVertex
100
AcDb2dVertex
 10
117.8326008820002
 20
-38.50652125773448
 30
0.0
  0
VERTEX
  5
2F4
330
2EE
100
AcDbEntity
  8
\U+30EC\U+30A4\U+30E4\U+30FC 1
 62
    18
420
   262144
370
    25
100
AcDbVertex
100
AcDb2dVertex
 10
117.8326008820002
 20
-38.64914821082382
 30
0.0
  0
SEQEND
  5
2F5
330
2EE
100
AcDbEntity
  8
\U+30EC\U+30A4\U+30E4\U+30FC 1
370
    25
  0
POLYLINE
  5
2F6
330
1F
100
AcDbEntity
  8
\U+30EC\U+30A4\U+30E4\U+30FC 1
 62
    18
420
   262144
370
    25
100
AcDb2dPolyline
 66
     1
 10
0.0
 20
0.0
 30
0.0
  0
VERTEX
  5
2F7
330
2F6
100
AcDbEntity
  8
\U+30EC\U+30A4\U+30E4\U+30FC 1
 62
    18
420
   262144
370
    25
100
AcDbVertex
100
AcDb2dVertex
 10
100.7550903068425
 20
-44.78555228915084
 30
0.0
  0
VERTEX
  5
2F8
330
2F6
100
AcDbEntity
  8
\U+30EC\U+30A4\U+30E4\U+30FC 1
 62
    18
420
   262144
370
    25
100
AcDbVertex
100
AcDb2dVertex
 10
100.707547989146
 20
-44.78555228915084
 30
0.0
  0
SEQEND
  5
2F9
330
2F6
100
AcDbEntity
  8
\U+30EC\U+30A4\U+30E4\U+30FC 1
370
    25
  0
POLYLINE
  5
2FA
330
1F
100
AcDbEntity
  8
\U+30EC\U+30A4\U+30E4\U+30FC 1
 62
    18
420
   262144
370
    25
100
AcDb2dPolyline
 66
     1
 10
0.0
 20
0.0
 30
0.0
  0
VERTEX
  5
2FB
330
2FA
100
AcDbEntity
  8
\U+30EC\U+30A4\U+30E4\U+30FC 1
 62
    18
420
   262144
370
    25
100
AcDbVertex
100
AcDb2dVertex
 10
79.7775593876077
 20
-56.91556123794125
 30
0.0
  0
VERTEX
  5
2FC
330
2FA
100
AcDbEntity
  8
\U+30EC\U+30A4\U+30E4\U+30FC 1
 62
    18
420
   262144
370
    25
100
AcDbVertex
100
AcDb2dVertex
 10
79.73036157945977
 20
-56.91556123794125
 30
0.0
  0
SEQEND
  5
2FD
330
2FA
100
AcDbEntity
  8
\U+30EC\U+30A4\U+30E4\U+30FC 1
370
    25
  0
POLYLINE
  5
2FE
330
1F
100
AcDbEntity
  8
\U+30EC\U+30A4\U+30E4\U+30FC 1
 62
    18
420
   262144
370
    25
100
AcDb2dPolyline
 66
     1
 10
0.0
 20
0.0
 30
0.0
  0
VERTEX
  5
2FF
330
2FE
100
AcDbEntity
  8
\U+30EC\U+30A4\U+30E4\U+30FC 1
 62
    18
420
   262144
370
    25
100
AcDbVertex
100
AcDb2dVertex
 10
114.217317679779
 20
-36.98430581757684
 30
0.0
  0
VERTEX
  5
300
330
2FE
100
AcDbEntity
  8
\U+30EC\U+30A4\U+30E4\U+30FC 1
 62
    18
420
   262144
370
    25
100
AcDbVertex
100
AcDb2dVertex
 10
56.37399222765998
 20
-70.4249864190257
 30
0.0
  0
SEQEND
  5
301
330
2FE
100
AcDbEntity
  8
\U+30EC\U+30A4\U+30E4\U+30FC 1
370
    25
  0
POLYLINE
  5
302
330
1F
100
AcDbEntity
  8
\U+30EC\U+30A4\U+30E4\U+30FC 1
 62
    18
420
   262144
370
    25
100
AcDb2dPolyline
 66
     1
 10
0.0
 20
0.0
 30
0.0
  0
VERTEX
  5
303
330
302
100
AcDbEntity
  8
\U+30EC\U+30A4\U+30E4\U+30FC 1
 62
    18
420
   262144
370
    25
100
AcDbVertex
100
AcDb2dVertex
 10
56.37399222765998
 20
-70.4249864190257
 30
0.0
  0
VERTEX
  5
304
330
302
100
AcDbEntity
  8
\U+30EC\U+30A4\U+30E4\U+30FC 1
 62
    18
420
   262144
370
    25
100
AcDbVertex
100
AcDb2dVertex
 10
56.37399222765998
 20
-70.4249864190257
 30
0.0
  0
SEQEND
  5
305
330
302
100
AcDbEntity
  8
\U+30EC\U+30A4\U+30E4\U+30FC 1
370
    25
  0
POLYLINE
  5
306
330
1F
100
AcDbEntity
  8
\U+30EC\U+30A4\U+30E4\U+30FC 1
 62
    18
420
   262144
370
    25
100
AcDb2dPolyline
 66
     1
 10
0.0
 20
0.0
 30
0.0
  0
VERTEX
  5
307
330
306
100
AcDbEntity
  8
\U+30EC\U+30A4\U+30E4\U+30FC 1
 62
    18
420
   262144
370
    25
100
AcDbVertex
100
AcDb2dVertex
 10
69.31239283206426
 20
-62.9567084261011
 30
0.0
  0
VERTEX
  5
308
330
306
100
AcDbEntity
  8
\U+30EC\U+30A4\U+30E4\U+30FC 1
 62
    18
420
   262144
370
    25
100
AcDbVertex
100
AcDb2dVertex
 10
79.7775593876077
 20
-56.91556123794125
 30
0.0
  0
SEQEND
  5
309
330
306
100
AcDbEntity
  8
\U+30EC\U+30A4\U+30E4\U+30FC 1
370
    25
  0
POLYLINE
  5
30A
330
1F
100
AcDbEntity
  8
\U+30EC\U+30A4\U+30E4\U+30FC 1
 62
    18
420
   262144
370
    25
100
AcDb2dPolyline
 66
     1
 10
0.0
 20
0.0
 30
0.0
  0
VERTEX
  5
30B
330
30A
100
AcDbEntity
  8
\U+30EC\U+30A4\U+30E4\U+30FC 1
 62
    18
420
   262144
370
    25
100
AcDbVertex
100
AcDb2dVertex
 10
114.7402831744399
 20
-37.31727429622624
 30
0.0
  0
VERTEX
  5
30C
330
30A
100
AcDbEntity
  8
\U+30EC\U+30A4\U+30E4\U+30FC 1
 62
    18
420
   262144
370
    25
100
AcDbVertex
100
AcDb2dVertex
 10
114.645198539047
 20
-37.22201740605908
 30
0.0
  0
VERTEX
  5
30D
330
30A
100
AcDbEntity
  8
\U+30EC\U+30A4\U+30E4\U+30FC 1
 62
    18
420
   262144
370
    25
100
AcDbVertex
100
AcDb2dVertex
 10
114.5976562213506
 20
-37.12710502544045
 30
0.0
  0
VERTEX
  5
30E
330
30A
100
AcDbEntity
  8
\U+30EC\U+30A4\U+30E4\U+30FC 1
 62
    18
420
   262144
370
    25
100
AcDbVertex
100
AcDb2dVertex
 10
114.5025715859577
 20
-37.07939045296974
 30
0.0
  0
VERTEX
  5
30F
330
30A
100
AcDbEntity
  8
\U+30EC\U+30A4\U+30E4\U+30FC 1
 62
    18
420
   262144
370
    25
100
AcDbVertex
100
AcDb2dVertex
 10
114.4550292682612
 20
-37.03184813527329
 30
0.0
  0
VERTEX
  5
310
330
30A
100
AcDbEntity
  8
\U+30EC\U+30A4\U+30E4\U+30FC 1
 62
    18
420
   262144
370
    25
100
AcDbVertex
100
AcDb2dVertex
 10
114.3599446328683
 20
-36.98430581757684
 30
0.0
  0
VERTEX
  5
311
330
30A
100
AcDbEntity
  8
\U+30EC\U+30A4\U+30E4\U+30FC 1
 62
    18
420
   262144
370
    25
100
AcDbVertex
100
AcDb2dVertex
 10
114.3117132960749
 20
-36.98430581757684
 30
0.0
  0
VERTEX
  5
312
330
30A
100
AcDbEntity
  8
\U+30EC\U+30A4\U+30E4\U+30FC 1
 62
    18
420
   262144
370
    25
100
AcDbVertex
100
AcDb2dVertex
 10
114.2648599974755
 20
-36.98430581757684
 30
0.0
  0
VERTEX
  5
313
330
30A
100
AcDbEntity
  8
\U+30EC\U+30A4\U+30E4\U+30FC 1
 62
    18
420
   262144
370
    25
100
AcDbVertex
100
AcDb2dVertex
 10
114.217317679779
 20
-36.98430581757684
 30
0.0
  0
SEQEND
  5
314
330
30A
100
AcDbEntity
  8
\U+30EC\U+30A4\U+30E4\U+30FC 1
370
    25
  0
POLYLINE
  5
315
330
1F
100
AcDbEntity
  8
\U+30EC\U+30A4\U+30E4\U+30FC 1
 62
    18
420
   262144
370
    25
100
AcDb2dPolyline
 66
     1
 10
0.0
 20
0.0
 30
0.0
  0
VERTEX
  5
316
330
315
100
AcDbEntity
  8
\U+30EC\U+30A4\U+30E4\U+30FC 1
 62
    18
420
   262144
370
    25
100
AcDbVertex
100
AcDb2dVertex
 10
113.1706976713601
 20
-37.60270045717919
 30
0.0
  0
VERTEX
  5
317
330
315
100
AcDbEntity
  8
\U+30EC\U+30A4\U+30E4\U+30FC 1
 62
    18
420
   262144
370
    25
100
AcDbVertex
100
AcDb2dVertex
 10
114.217317679779
 20
-36.98430581757684
 30
0.0
  0
SEQEND
  5
318
330
315
100
AcDbEntity
  8
\U+30EC\U+30A4\U+30E4\U+30FC 1
370
    25
  0
POLYLINE
  5
319
330
1F
100
AcDbEntity
  8
\U+30EC\U+30A4\U+30E4\U+30FC 1
 62
    18
420
   262144
370
    25
100
AcDb2dPolyline
 66
     1
 10
0.0
 20
0.0
 30
0.0
  0
VERTEX
  5
31A
330
319
100
AcDbEntity
  8
\U+30EC\U+30A4\U+30E4\U+30FC 1
 62
    18
420
   262144
370
    25
100
AcDbVertex
100
AcDb2dVertex
 10
90.28992375129906
 20
-50.82669947731069
 30
0.0
  0
VERTEX
  5
31B
330
319
100
AcDbEntity
  8
\U+30EC\U+30A4\U+30E4\U+30FC 1
 62
    18
420
   262144
370
    25
100
AcDbVertex
100
AcDb2dVertex
 10
100.7550903068425
 20
-44.78555228915084
 30
0.0
  0
SEQEND
  5
31C
330
319
100
AcDbEntity
  8
\U+30EC\U+30A4\U+30E4\U+30FC 1
370
    25
  0
POLYLINE
  5
31D
330
1F
100
AcDbEntity
  8
\U+30EC\U+30A4\U+30E4\U+30FC 1
 62
    18
420
   262144
370
    25
100
AcDb2dPolyline
 66
     1
 10
0.0
 20
0.0
 30
0.0
  0
VERTEX
  5
31E
330
31D
100
AcDbEntity
  8
\U+30EC\U+30A4\U+30E4\U+30FC 1
 62
    18
420
   262144
370
    25
100
AcDbVertex
100
AcDb2dVertex
 10
91.47917071280729
 20
-68.76014402577871
 30
0.0
  0
VERTEX
  5
31F
330
31D
100
AcDbEntity
  8
\U+30EC\U+30A4\U+30E4\U+30FC 1
 62
    18
420
   262144
370
    25
100
AcDbVertex
100
AcDb2dVertex
 10
100.707547989146
 20
-63.43230385783984
 30
0.0
  0
SEQEND
  5
320
330
31D
100
AcDbEntity
  8
\U+30EC\U+30A4\U+30E4\U+30FC 1
370
    25
  0
POLYLINE
  5
321
330
1F
100
AcDbEntity
  8
\U+30EC\U+30A4\U+30E4\U+30FC 1
 62
    18
420
   262144
370
    25
100
AcDb2dPolyline
 66
     1
 10
0.0
 20
0.0
 30
0.0
  0
VERTEX
  5
322
330
321
100
AcDbEntity
  8
\U+30EC\U+30A4\U+30E4\U+30FC 1
 62
    18
420
   262144
370
    25
100
AcDbVertex
100
AcDb2dVertex
 10
90.28992375129906
 20
-68.14157713140212
 30
0.0
  0
VERTEX
  5
323
330
321
100
AcDbEntity
  8
\U+30EC\U+30A4\U+30E4\U+30FC 1
 62
    18
420
   262144
370
    25
100
AcDbVertex
100
AcDb2dVertex
 10
100.707547989146
 20
-62.10042994324225
 30
0.0
  0
SEQEND
  5
324
330
321
100
AcDbEntity
  8
\U+30EC\U+30A4\U+30E4\U+30FC 1
370
    25
  0
POLYLINE
  5
325
330
1F
100
AcDbEntity
  8
\U+30EC\U+30A4\U+30E4\U+30FC 1
 62
    18
420
   262144
370
    25
100
AcDb2dPolyline
 66
     1
 10
0.0
 20
0.0
 30
0.0
  0
VERTEX
  5
326
330
325
100
AcDbEntity
  8
\U+30EC\U+30A4\U+30E4\U+30FC 1
 62
    18
420
   262144
370
    25
100
AcDbVertex
100
AcDb2dVertex
 10
70.45409747587607
 20
-207.1370550697435
 30
0.0
  0
VERTEX
  5
327
330
325
100
AcDbEntity
  8
\U+30EC\U+30A4\U+30E4\U+30FC 1
 62
    18
420
   262144
370
    25
100
AcDbVertex
100
AcDb2dVertex
 10
70.45409747587607
 20
-80.88998071979486
 30
0.0
  0
SEQEND
  5
328
330
325
100
AcDbEntity
  8
\U+30EC\U+30A4\U+30E4\U+30FC 1
370
    25
  0
POLYLINE
  5
329
330
1F
100
AcDbEntity
  8
\U+30EC\U+30A4\U+30E4\U+30FC 1
 62
    18
420
   262144
370
    25
100
AcDb2dPolyline
 66
     1
 10
0.0
 20
0.0
 30
0.0
  0
VERTEX
  5
32A
330
329
100
AcDbEntity
  8
\U+30EC\U+30A4\U+30E4\U+30FC 1
 62
    18
420
   262144
370
    25
100
AcDbVertex
100
AcDb2dVertex
 10
70.45409747587607
 20
-80.88998071979486
 30
0.0
  0
VERTEX
  5
32B
330
329
100
AcDbEntity
  8
\U+30EC\U+30A4\U+30E4\U+30FC 1
 62
    18
420
   262144
370
    25
100
AcDbVertex
100
AcDb2dVertex
 10
70.21638588739383
 20
-80.55701224114547
 30
0.0
  0
SEQEND
  5
32C
330
329
100
AcDbEntity
  8
\U+30EC\U+30A4\U+30E4\U+30FC 1
370
    25
  0
POLYLINE
  5
32D
330
1F
100
AcDbEntity
  8
\U+30EC\U+30A4\U+30E4\U+30FC 1
 62
    18
420
   262144
370
    25
100
AcDb2dPolyline
 66
     1
 10
0.0
 20
0.0
 30
0.0
  0
VERTEX
  5
32E
330
32D
100
AcDbEntity
  8
\U+30EC\U+30A4\U+30E4\U+30FC 1
 62
    18
420
   262144
370
    25
100
AcDbVertex
100
AcDb2dVertex
 10
59.0852823745516
 20
-235.1546386130863
 30
0.0
  0
VERTEX
  5
32F
330
32D
100
AcDbEntity
  8
\U+30EC\U+30A4\U+30E4\U+30FC 1
 62
    18
420
   262144
370
    25
100
AcDbVertex
100
AcDb2dVertex
 10
58.9901977391587
 20
-235.2021809307828
 30
0.0
  0
VERTEX
  5
330
330
32D
100
AcDbEntity
  8
\U+30EC\U+30A4\U+30E4\U+30FC 1
 62
    18
420
   262144
370
    25
100
AcDbVertex
100
AcDb2dVertex
 10
58.84757078606936
 20
-235.2497232484793
 30
0.0
  0
VERTEX
  5
331
330
32D
100
AcDbEntity
  8
\U+30EC\U+30A4\U+30E4\U+30FC 1
 62
    18
420
   262144
370
    25
100
AcDbVertex
100
AcDb2dVertex
 10
58.70494383298001
 20
-235.2021809307828
 30
0.0
  0
VERTEX
  5
332
330
32D
100
AcDbEntity
  8
\U+30EC\U+30A4\U+30E4\U+30FC 1
 62
    18
420
   262144
370
    25
100
AcDbVertex
100
AcDb2dVertex
 10
58.60951468803859
 20
-235.2021809307828
 30
0.0
  0
VERTEX
  5
333
330
32D
100
AcDbEntity
  8
\U+30EC\U+30A4\U+30E4\U+30FC 1
 62
    18
420
   262144
370
    25
100
AcDbVertex
100
AcDb2dVertex
 10
58.56231687989067
 20
-235.1546386130863
 30
0.0
  0
SEQEND
  5
334
330
32D
100
AcDbEntity
  8
\U+30EC\U+30A4\U+30E4\U+30FC 1
370
    25
  0
POLYLINE
  5
335
330
1F
100
AcDbEntity
  8
\U+30EC\U+30A4\U+30E4\U+30FC 1
 62
    18
420
   262144
370
    25
100
AcDb2dPolyline
 66
     1
 10
0.0
 20
0.0
 30
0.0
  0
VERTEX
  5
336
330
335
100
AcDbEntity
  8
\U+30EC\U+30A4\U+30E4\U+30FC 1
 62
    18
420
   262144
370
    25
100
AcDbVertex
100
AcDb2dVertex
 10
55.85068222345053
 20
-232.8236870077663
 30
0.0
  0
VERTEX
  5
337
330
335
100
AcDbEntity
  8
\U+30EC\U+30A4\U+30E4\U+30FC 1
 62
    18
420
   262144
370
    25
100
AcDbVertex
100
AcDb2dVertex
 10
55.85068222345053
 20
-231.6344400462581
 30
0.0
  0
SEQEND
  5
338
330
335
100
AcDbEntity
  8
\U+30EC\U+30A4\U+30E4\U+30FC 1
370
    25
  0
POLYLINE
  5
339
330
1F
100
AcDbEntity
  8
\U+30EC\U+30A4\U+30E4\U+30FC 1
 62
    18
420
   262144
370
    25
100
AcDb2dPolyline
 66
     1
 10
0.0
 20
0.0
 30
0.0
  0
VERTEX
  5
33A
330
339
100
AcDbEntity
  8
\U+30EC\U+30A4\U+30E4\U+30FC 1
 62
    18
420
   262144
370
    25
100
AcDbVertex
100
AcDb2dVertex
 10
55.85068222345053
 20
-232.8236870077663
 30
0.0
  0
VERTEX
  5
33B
330
339
100
AcDbEntity
  8
\U+30EC\U+30A4\U+30E4\U+30FC 1
 62
    18
420
   262144
370
    25
100
AcDbVertex
100
AcDb2dVertex
 10
55.85068222345053
 20
-232.8712293254628
 30
0.0
  0
VERTEX
  5
33C
330
339
100
AcDbEntity
  8
\U+30EC\U+30A4\U+30E4\U+30FC 1
 62
    18
420
   262144
370
    25
100
AcDbVertex
100
AcDb2dVertex
 10
55.89788003159845
 20
-232.9187716431592
 30
0.0
  0
VERTEX
  5
33D
330
339
100
AcDbEntity
  8
\U+30EC\U+30A4\U+30E4\U+30FC 1
 62
    18
420
   262144
370
    25
100
AcDbVertex
100
AcDb2dVertex
 10
55.94611136839195
 20
-232.9663139608556
 30
0.0
  0
VERTEX
  5
33E
330
339
100
AcDbEntity
  8
\U+30EC\U+30A4\U+30E4\U+30FC 1
 62
    18
420
   262144
370
    25
100
AcDbVertex
100
AcDb2dVertex
 10
55.99330917653987
 20
-233.0145452976492
 30
0.0
  0
VERTEX
  5
33F
330
339
100
AcDbEntity
  8
\U+30EC\U+30A4\U+30E4\U+30FC 1
 62
    18
420
   262144
370
    25
100
AcDbVertex
100
AcDb2dVertex
 10
56.08873832148129
 20
-233.0145452976492
 30
0.0
  0
VERTEX
  5
340
330
339
100
AcDbEntity
  8
\U+30EC\U+30A4\U+30E4\U+30FC 1
 62
    18
420
   262144
370
    25
100
AcDbVertex
100
AcDb2dVertex
 10
56.13593612962921
 20
-233.0613985962486
 30
0.0
  0
VERTEX
  5
341
330
339
100
AcDbEntity
  8
\U+30EC\U+30A4\U+30E4\U+30FC 1
 62
    18
420
   262144
370
    25
100
AcDbVertex
100
AcDb2dVertex
 10
56.27856308271856
 20
-233.108940913945
 30
0.0
  0
VERTEX
  5
342
330
339
100
AcDbEntity
  8
\U+30EC\U+30A4\U+30E4\U+30FC 1
 62
    18
420
   262144
370
    25
100
AcDbVertex
100
AcDb2dVertex
 10
56.37399222765998
 20
-233.108940913945
 30
0.0
  0
SEQEND
  5
343
330
339
100
AcDbEntity
  8
\U+30EC\U+30A4\U+30E4\U+30FC 1
370
    25
  0
POLYLINE
  5
344
330
1F
100
AcDbEntity
  8
\U+30EC\U+30A4\U+30E4\U+30FC 1
 62
    18
420
   262144
370
    25
100
AcDb2dPolyline
 66
     1
 10
0.0
 20
0.0
 30
0.0
  0
VERTEX
  5
345
330
344
100
AcDbEntity
  8
\U+30EC\U+30A4\U+30E4\U+30FC 1
 62
    18
420
   262144
370
    25
100
AcDbVertex
100
AcDb2dVertex
 10
70.64426674666186
 20
-80.79489608440197
 30
0.0
  0
VERTEX
  5
346
330
344
100
AcDbEntity
  8
\U+30EC\U+30A4\U+30E4\U+30FC 1
 62
    18
420
   262144
370
    25
100
AcDbVertex
100
AcDb2dVertex
 10
70.64426674666186
 20
-207.0895127520471
 30
0.0
  0
SEQEND
  5
347
330
344
100
AcDbEntity
  8
\U+30EC\U+30A4\U+30E4\U+30FC 1
370
    25
  0
POLYLINE
  5
348
330
1F
100
AcDbEntity
  8
\U+30EC\U+30A4\U+30E4\U+30FC 1
 62
    18
420
   262144
370
    25
100
AcDb2dPolyline
 66
     1
 10
0.0
 20
0.0
 30
0.0
  0
VERTEX
  5
349
330
348
100
AcDbEntity
  8
\U+30EC\U+30A4\U+30E4\U+30FC 1
 62
    18
420
   262144
370
    25
100
AcDbVertex
100
AcDb2dVertex
 10
56.37399222765998
 20
-70.4249864190257
 30
0.0
  0
VERTEX
  5
34A
330
348
100
AcDbEntity
  8
\U+30EC\U+30A4\U+30E4\U+30FC 1
 62
    18
420
   262144
370
    25
100
AcDbVertex
100
AcDb2dVertex
 10
68.8369696550998
 20
-63.19442001458334
 30
0.0
  0
SEQEND
  5
34B
330
348
100
AcDbEntity
  8
\U+30EC\U+30A4\U+30E4\U+30FC 1
370
    25
  0
POLYLINE
  5
34C
330
1F
100
AcDbEntity
  8
\U+30EC\U+30A4\U+30E4\U+30FC 1
 62
    18
420
   262144
370
    25
100
AcDb2dPolyline
 66
     1
 10
0.0
 20
0.0
 30
0.0
  0
VERTEX
  5
34D
330
34C
100
AcDbEntity
  8
\U+30EC\U+30A4\U+30E4\U+30FC 1
 62
    18
420
   262144
370
    25
100
AcDbVertex
100
AcDb2dVertex
 10
56.37399222765998
 20
-70.4249864190257
 30
0.0
  0
VERTEX
  5
34E
330
34C
100
AcDbEntity
  8
\U+30EC\U+30A4\U+30E4\U+30FC 1
 62
    18
420
   262144
370
    25
100
AcDbVertex
100
AcDb2dVertex
 10
56.23136527457063
 20
-70.51989879964434
 30
0.0
  0
VERTEX
  5
34F
330
34C
100
AcDbEntity
  8
\U+30EC\U+30A4\U+30E4\U+30FC 1
 62
    18
420
   262144
370
    25
100
AcDbVertex
100
AcDb2dVertex
 10
56.08873832148129
 20
-70.61515568981149
 30
0.0
  0
VERTEX
  5
350
330
34C
100
AcDbEntity
  8
\U+30EC\U+30A4\U+30E4\U+30FC 1
 62
    18
420
   262144
370
    25
100
AcDbVertex
100
AcDb2dVertex
 10
55.99330917653987
 20
-70.75778264290084
 30
0.0
  0
VERTEX
  5
351
330
34C
100
AcDbEntity
  8
\U+30EC\U+30A4\U+30E4\U+30FC 1
 62
    18
420
   262144
370
    25
100
AcDbVertex
100
AcDb2dVertex
 10
55.94611136839195
 20
-70.94829642323515
 30
0.0
  0
VERTEX
  5
352
330
34C
100
AcDbEntity
  8
\U+30EC\U+30A4\U+30E4\U+30FC 1
 62
    18
420
   262144
370
    25
100
AcDbVertex
100
AcDb2dVertex
 10
55.89788003159845
 20
-71.0909233763245
 30
0.0
  0
VERTEX
  5
353
330
34C
100
AcDbEntity
  8
\U+30EC\U+30A4\U+30E4\U+30FC 1
 62
    18
420
   262144
370
    25
100
AcDbVertex
100
AcDb2dVertex
 10
55.85068222345053
 20
-71.28109264711028
 30
0.0
  0
SEQEND
  5
354
330
34C
100
AcDbEntity
  8
\U+30EC\U+30A4\U+30E4\U+30FC 1
370
    25
  0
POLYLINE
  5
355
330
1F
100
AcDbEntity
  8
\U+30EC\U+30A4\U+30E4\U+30FC 1
 62
    18
420
   262144
370
    25
100
AcDb2dPolyline
 66
     1
 10
0.0
 20
0.0
 30
0.0
  0
VERTEX
  5
356
330
355
100
AcDbEntity
  8
\U+30EC\U+30A4\U+30E4\U+30FC 1
 62
    18
420
   262144
370
    25
100
AcDbVertex
100
AcDb2dVertex
 10
55.85068222345053
 20
-71.28109264711028
 30
0.0
  0
VERTEX
  5
357
330
355
100
AcDbEntity
  8
\U+30EC\U+30A4\U+30E4\U+30FC 1
 62
    18
420
   262144
370
    25
100
AcDbVertex
100
AcDb2dVertex
 10
55.85068222345053
 20
-231.6344400462581
 30
0.0
  0
SEQEND
  5
358
330
355
100
AcDbEntity
  8
\U+30EC\U+30A4\U+30E4\U+30FC 1
370
    25
  0
POLYLINE
  5
359
330
1F
100
AcDbEntity
  8
\U+30EC\U+30A4\U+30E4\U+30FC 1
 62
    18
420
   262144
370
    25
100
AcDb2dPolyline
 66
     1
 10
0.0
 20
0.0
 30
0.0
  0
VERTEX
  5
35A
330
359
100
AcDbEntity
  8
\U+30EC\U+30A4\U+30E4\U+30FC 1
 62
    18
420
   262144
370
    25
100
AcDbVertex
100
AcDb2dVertex
 10
55.85068222345053
 20
-231.6344400462581
 30
0.0
  0
VERTEX
  5
35B
330
359
100
AcDbEntity
  8
\U+30EC\U+30A4\U+30E4\U+30FC 1
 62
    18
420
   262144
370
    25
100
AcDbVertex
100
AcDb2dVertex
 10
55.89788003159845
 20
-231.7770669993474
 30
0.0
  0
VERTEX
  5
35C
330
359
100
AcDbEntity
  8
\U+30EC\U+30A4\U+30E4\U+30FC 1
 62
    18
420
   262144
370
    25
100
AcDbVertex
100
AcDb2dVertex
 10
55.94611136839195
 20
-231.9196939524367
 30
0.0
  0
VERTEX
  5
35D
330
359
100
AcDbEntity
  8
\U+30EC\U+30A4\U+30E4\U+30FC 1
 62
    18
420
   262144
370
    25
100
AcDbVertex
100
AcDb2dVertex
 10
55.99330917653987
 20
-231.9672362701332
 30
0.0
  0
VERTEX
  5
35E
330
359
100
AcDbEntity
  8
\U+30EC\U+30A4\U+30E4\U+30FC 1
 62
    18
420
   262144
370
    25
100
AcDbVertex
100
AcDb2dVertex
 10
56.08873832148129
 20
-232.0147785878297
 30
0.0
  0
VERTEX
  5
35F
330
359
100
AcDbEntity
  8
\U+30EC\U+30A4\U+30E4\U+30FC 1
 62
    18
420
   262144
370
    25
100
AcDbVertex
100
AcDb2dVertex
 10
56.23136527457063
 20
-232.0147785878297
 30
0.0
  0
VERTEX
  5
360
330
359
100
AcDbEntity
  8
\U+30EC\U+30A4\U+30E4\U+30FC 1
 62
    18
420
   262144
370
    25
100
AcDbVertex
100
AcDb2dVertex
 10
56.37399222765998
 20
-231.9196939524367
 30
0.0
  0
SEQEND
  5
361
330
359
100
AcDbEntity
  8
\U+30EC\U+30A4\U+30E4\U+30FC 1
370
    25
  0
POLYLINE
  5
362
330
1F
100
AcDbEntity
  8
\U+30EC\U+30A4\U+30E4\U+30FC 1
 62
    18
420
   262144
370
    25
100
AcDb2dPolyline
 66
     1
 10
0.0
 20
0.0
 30
0.0
  0
VERTEX
  5
363
330
362
100
AcDbEntity
  8
\U+30EC\U+30A4\U+30E4\U+30FC 1
 62
    18
420
   262144
370
    25
100
AcDbVertex
100
AcDb2dVertex
 10
68.8369696550998
 20
-63.19442001458334
 30
0.0
  0
VERTEX
  5
364
330
362
100
AcDbEntity
  8
\U+30EC\U+30A4\U+30E4\U+30FC 1
 62
    18
420
   262144
370
    25
100
AcDbVertex
100
AcDb2dVertex
 10
69.31239283206426
 20
-62.9567084261011
 30
0.0
  0
SEQEND
  5
365
330
362
100
AcDbEntity
  8
\U+30EC\U+30A4\U+30E4\U+30FC 1
370
    25
  0
POLYLINE
  5
366
330
1F
100
AcDbEntity
  8
\U+30EC\U+30A4\U+30E4\U+30FC 1
 62
    18
420
   262144
370
    25
100
AcDb2dPolyline
 66
     1
 10
0.0
 20
0.0
 30
0.0
  0
VERTEX
  5
367
330
366
100
AcDbEntity
  8
\U+30EC\U+30A4\U+30E4\U+30FC 1
 62
    18
420
   262144
370
    25
100
AcDbVertex
100
AcDb2dVertex
 10
68.8369696550998
 20
-224.7373588847879
 30
0.0
  0
VERTEX
  5
368
330
366
100
AcDbEntity
  8
\U+30EC\U+30A4\U+30E4\U+30FC 1
 62
    18
420
   262144
370
    25
100
AcDbVertex
100
AcDb2dVertex
 10
68.8369696550998
 20
-63.19442001458334
 30
0.0
  0
SEQEND
  5
369
330
366
100
AcDbEntity
  8
\U+30EC\U+30A4\U+30E4\U+30FC 1
370
    25
  0
POLYLINE
  5
36A
330
1F
100
AcDbEntity
  8
\U+30EC\U+30A4\U+30E4\U+30FC 1
 62
    18
420
   262144
370
    25
100
AcDb2dPolyline
 66
     1
 10
0.0
 20
0.0
 30
0.0
  0
VERTEX
  5
36B
330
36A
100
AcDbEntity
  8
\U+30EC\U+30A4\U+30E4\U+30FC 1
 62
    18
420
   262144
370
    25
100
AcDbVertex
100
AcDb2dVertex
 10
70.21638588739383
 20
-80.55701224114547
 30
0.0
  0
VERTEX
  5
36C
330
36A
100
AcDbEntity
  8
\U+30EC\U+30A4\U+30E4\U+30FC 1
 62
    18
420
   262144
370
    25
100
AcDbVertex
100
AcDb2dVertex
 10
70.21638588739383
 20
-207.2789930037358
 30
0.0
  0
SEQEND
  5
36D
330
36A
100
AcDbEntity
  8
\U+30EC\U+30A4\U+30E4\U+30FC 1
370
    25
  0
POLYLINE
  5
36E
330
1F
100
AcDbEntity
  8
\U+30EC\U+30A4\U+30E4\U+30FC 1
 62
    18
420
   262144
370
    25
100
AcDb2dPolyline
 66
     1
 10
0.0
 20
0.0
 30
0.0
  0
VERTEX
  5
36F
330
36E
100
AcDbEntity
  8
\U+30EC\U+30A4\U+30E4\U+30FC 1
 62
    18
420
   262144
370
    25
100
AcDbVertex
100
AcDb2dVertex
 10
70.21638588739383
 20
-80.55701224114547
 30
0.0
  0
VERTEX
  5
370
330
36E
100
AcDbEntity
  8
\U+30EC\U+30A4\U+30E4\U+30FC 1
 62
    18
420
   262144
370
    25
100
AcDbVertex
100
AcDb2dVertex
 10
69.31239283206426
 20
-80.27158608019252
 30
0.0
  0
SEQEND
  5
371
330
36E
100
AcDbEntity
  8
\U+30EC\U+30A4\U+30E4\U+30FC 1
370
    25
  0
POLYLINE
  5
372
330
1F
100
AcDbEntity
  8
\U+30EC\U+30A4\U+30E4\U+30FC 1
 62
    18
420
   262144
370
    25
100
AcDb2dPolyline
 66
     1
 10
0.0
 20
0.0
 30
0.0
  0
VERTEX
  5
373
330
372
100
AcDbEntity
  8
\U+30EC\U+30A4\U+30E4\U+30FC 1
 62
    18
420
   262144
370
    25
100
AcDbVertex
100
AcDb2dVertex
 10
69.31239283206426
 20
-62.9567084261011
 30
0.0
  0
VERTEX
  5
374
330
372
100
AcDbEntity
  8
\U+30EC\U+30A4\U+30E4\U+30FC 1
 62
    18
420
   262144
370
    25
100
AcDbVertex
100
AcDb2dVertex
 10
69.31239283206426
 20
-80.27158608019252
 30
0.0
  0
SEQEND
  5
375
330
372
100
AcDbEntity
  8
\U+30EC\U+30A4\U+30E4\U+30FC 1
370
    25
  0
POLYLINE
  5
376
330
1F
100
AcDbEntity
  8
\U+30EC\U+30A4\U+30E4\U+30FC 1
 62
    18
420
   262144
370
    25
100
AcDb2dPolyline
 66
     1
 10
0.0
 20
0.0
 30
0.0
  0
VERTEX
  5
377
330
376
100
AcDbEntity
  8
\U+30EC\U+30A4\U+30E4\U+30FC 1
 62
    18
420
   262144
370
    25
100
AcDbVertex
100
AcDb2dVertex
 10
91.52705754005227
 20
-68.85505640639735
 30
0.0
  0
VERTEX
  5
378
330
376
100
AcDbEntity
  8
\U+30EC\U+30A4\U+30E4\U+30FC 1
 62
    18
420
   262144
370
    25
100
AcDbVertex
100
AcDb2dVertex
 10
91.19391680662861
 20
-68.47471786482576
 30
0.0
  0
SEQEND
  5
379
330
376
100
AcDbEntity
  8
\U+30EC\U+30A4\U+30E4\U+30FC 1
370
    25
  0
POLYLINE
  5
37A
330
1F
100
AcDbEntity
  8
\U+30EC\U+30A4\U+30E4\U+30FC 1
 62
    18
420
   262144
370
    25
100
AcDb2dPolyline
 66
     1
 10
0.0
 20
0.0
 30
0.0
  0
VERTEX
  5
37B
330
37A
100
AcDbEntity
  8
\U+30EC\U+30A4\U+30E4\U+30FC 1
 62
    18
420
   262144
370
    25
100
AcDbVertex
100
AcDb2dVertex
 10
79.73036157945977
 20
-201.8088703922561
 30
0.0
  0
VERTEX
  5
37C
330
37A
100
AcDbEntity
  8
\U+30EC\U+30A4\U+30E4\U+30FC 1
 62
    18
420
   262144
370
    25
100
AcDbVertex
100
AcDb2dVertex
 10
69.31239283206426
 20
-207.8501898351902
 30
0.0
  0
SEQEND
  5
37D
330
37A
100
AcDbEntity
  8
\U+30EC\U+30A4\U+30E4\U+30FC 1
370
    25
  0
POLYLINE
  5
37E
330
1F
100
AcDbEntity
  8
\U+30EC\U+30A4\U+30E4\U+30FC 1
 62
    18
420
   262144
370
    25
100
AcDb2dPolyline
 66
     1
 10
0.0
 20
0.0
 30
0.0
  0
VERTEX
  5
37F
330
37E
100
AcDbEntity
  8
\U+30EC\U+30A4\U+30E4\U+30FC 1
 62
    18
420
   262144
370
    25
100
AcDbVertex
100
AcDb2dVertex
 10
69.31239283206426
 20
-207.8501898351902
 30
0.0
  0
VERTEX
  5
380
330
37E
100
AcDbEntity
  8
\U+30EC\U+30A4\U+30E4\U+30FC 1
 62
    18
420
   262144
370
    25
100
AcDbVertex
100
AcDb2dVertex
 10
69.31239283206426
 20
-225.0226127909666
 30
0.0
  0
SEQEND
  5
381
330
37E
100
AcDbEntity
  8
\U+30EC\U+30A4\U+30E4\U+30FC 1
370
    25
  0
POLYLINE
  5
382
330
1F
100
AcDbEntity
  8
\U+30EC\U+30A4\U+30E4\U+30FC 1
 62
    18
420
   262144
370
    25
100
AcDb2dPolyline
 66
     1
 10
0.0
 20
0.0
 30
0.0
  0
VERTEX
  5
383
330
382
100
AcDbEntity
  8
\U+30EC\U+30A4\U+30E4\U+30FC 1
 62
    18
420
   262144
370
    25
100
AcDbVertex
100
AcDb2dVertex
 10
91.47917071280729
 20
-68.76014402577871
 30
0.0
  0
VERTEX
  5
384
330
382
100
AcDbEntity
  8
\U+30EC\U+30A4\U+30E4\U+30FC 1
 62
    18
420
   262144
370
    25
100
AcDbVertex
100
AcDb2dVertex
 10
91.52705754005227
 20
-68.85505640639735
 30
0.0
  0
SEQEND
  5
385
330
382
100
AcDbEntity
  8
\U+30EC\U+30A4\U+30E4\U+30FC 1
370
    25
  0
POLYLINE
  5
386
330
1F
100
AcDbEntity
  8
\U+30EC\U+30A4\U+30E4\U+30FC 1
 62
    18
420
   262144
370
    25
100
AcDb2dPolyline
 66
     1
 10
0.0
 20
0.0
 30
0.0
  0
VERTEX
  5
387
330
386
100
AcDbEntity
  8
\U+30EC\U+30A4\U+30E4\U+30FC 1
 62
    18
420
   262144
370
    25
100
AcDbVertex
100
AcDb2dVertex
 10
91.52705754005227
 20
-195.0068738661788
 30
0.0
  0
VERTEX
  5
388
330
386
100
AcDbEntity
  8
\U+30EC\U+30A4\U+30E4\U+30FC 1
 62
    18
420
   262144
370
    25
100
AcDbVertex
100
AcDb2dVertex
 10
91.52705754005227
 20
-68.85505640639735
 30
0.0
  0
SEQEND
  5
389
330
386
100
AcDbEntity
  8
\U+30EC\U+30A4\U+30E4\U+30FC 1
370
    25
  0
POLYLINE
  5
38A
330
1F
100
AcDbEntity
  8
\U+30EC\U+30A4\U+30E4\U+30FC 1
 62
    18
420
   262144
370
    25
100
AcDb2dPolyline
 66
     1
 10
0.0
 20
0.0
 30
0.0
  0
VERTEX
  5
38B
330
38A
100
AcDbEntity
  8
\U+30EC\U+30A4\U+30E4\U+30FC 1
 62
    18
420
   262144
370
    25
100
AcDbVertex
100
AcDb2dVertex
 10
79.73036157945977
 20
-56.91556123794125
 30
0.0
  0
VERTEX
  5
38C
330
38A
100
AcDbEntity
  8
\U+30EC\U+30A4\U+30E4\U+30FC 1
 62
    18
420
   262144
370
    25
100
AcDbVertex
100
AcDb2dVertex
 10
89.81415606478605
 20
-51.11212563826363
 30
0.0
  0
SEQEND
  5
38D
330
38A
100
AcDbEntity
  8
\U+30EC\U+30A4\U+30E4\U+30FC 1
370
    25
  0
POLYLINE
  5
38E
330
1F
100
AcDbEntity
  8
\U+30EC\U+30A4\U+30E4\U+30FC 1
 62
    18
420
   262144
370
    25
100
AcDb2dPolyline
 66
     1
 10
0.0
 20
0.0
 30
0.0
  0
VERTEX
  5
38F
330
38E
100
AcDbEntity
  8
\U+30EC\U+30A4\U+30E4\U+30FC 1
 62
    18
420
   262144
370
    25
100
AcDbVertex
100
AcDb2dVertex
 10
79.73036157945977
 20
-56.91556123794125
 30
0.0
  0
VERTEX
  5
390
330
38E
100
AcDbEntity
  8
\U+30EC\U+30A4\U+30E4\U+30FC 1
 62
    18
420
   262144
370
    25
100
AcDbVertex
100
AcDb2dVertex
 10
79.73036157945977
 20
-218.4100965165781
 30
0.0
  0
SEQEND
  5
391
330
38E
100
AcDbEntity
  8
\U+30EC\U+30A4\U+30E4\U+30FC 1
370
    25
  0
POLYLINE
  5
392
330
1F
100
AcDbEntity
  8
\U+30EC\U+30A4\U+30E4\U+30FC 1
 62
    18
420
   262144
370
    25
100
AcDb2dPolyline
 66
     1
 10
0.0
 20
0.0
 30
0.0
  0
VERTEX
  5
393
330
392
100
AcDbEntity
  8
\U+30EC\U+30A4\U+30E4\U+30FC 1
 62
    18
420
   262144
370
    25
100
AcDbVertex
100
AcDb2dVertex
 10
89.81415606478605
 20
-51.11212563826363
 30
0.0
  0
VERTEX
  5
394
330
392
100
AcDbEntity
  8
\U+30EC\U+30A4\U+30E4\U+30FC 1
 62
    18
420
   262144
370
    25
100
AcDbVertex
100
AcDb2dVertex
 10
90.28992375129906
 20
-50.82669947731069
 30
0.0
  0
SEQEND
  5
395
330
392
100
AcDbEntity
  8
\U+30EC\U+30A4\U+30E4\U+30FC 1
370
    25
  0
POLYLINE
  5
396
330
1F
100
AcDbEntity
  8
\U+30EC\U+30A4\U+30E4\U+30FC 1
 62
    18
420
   262144
370
    25
100
AcDb2dPolyline
 66
     1
 10
0.0
 20
0.0
 30
0.0
  0
VERTEX
  5
397
330
396
100
AcDbEntity
  8
\U+30EC\U+30A4\U+30E4\U+30FC 1
 62
    18
420
   262144
370
    25
100
AcDbVertex
100
AcDb2dVertex
 10
89.81415606478605
 20
-212.6071776812232
 30
0.0
  0
VERTEX
  5
398
330
396
100
AcDbEntity
  8
\U+30EC\U+30A4\U+30E4\U+30FC 1
 62
    18
420
   262144
370
    25
100
AcDbVertex
100
AcDb2dVertex
 10
89.81415606478605
 20
-51.11212563826363
 30
0.0
  0
SEQEND
  5
399
330
396
100
AcDbEntity
  8
\U+30EC\U+30A4\U+30E4\U+30FC 1
370
    25
  0
POLYLINE
  5
39A
330
1F
100
AcDbEntity
  8
\U+30EC\U+30A4\U+30E4\U+30FC 1
 62
    18
420
   262144
370
    25
100
AcDb2dPolyline
 66
     1
 10
0.0
 20
0.0
 30
0.0
  0
VERTEX
  5
39B
330
39A
100
AcDbEntity
  8
\U+30EC\U+30A4\U+30E4\U+30FC 1
 62
    18
420
   262144
370
    25
100
AcDbVertex
100
AcDb2dVertex
 10
91.19391680662861
 20
-68.47471786482576
 30
0.0
  0
VERTEX
  5
39C
330
39A
100
AcDbEntity
  8
\U+30EC\U+30A4\U+30E4\U+30FC 1
 62
    18
420
   262144
370
    25
100
AcDbVertex
100
AcDb2dVertex
 10
91.19391680662861
 20
-195.1977321560617
 30
0.0
  0
SEQEND
  5
39D
330
39A
100
AcDbEntity
  8
\U+30EC\U+30A4\U+30E4\U+30FC 1
370
    25
  0
POLYLINE
  5
39E
330
1F
100
AcDbEntity
  8
\U+30EC\U+30A4\U+30E4\U+30FC 1
 62
    18
420
   262144
370
    25
100
AcDb2dPolyline
 66
     1
 10
0.0
 20
0.0
 30
0.0
  0
VERTEX
  5
39F
330
39E
100
AcDbEntity
  8
\U+30EC\U+30A4\U+30E4\U+30FC 1
 62
    18
420
   262144
370
    25
100
AcDbVertex
100
AcDb2dVertex
 10
91.19391680662861
 20
-68.47471786482576
 30
0.0
  0
VERTEX
  5
3A0
330
39E
100
AcDbEntity
  8
\U+30EC\U+30A4\U+30E4\U+30FC 1
 62
    18
420
   262144
370
    25
100
AcDbVertex
100
AcDb2dVertex
 10
90.28992375129906
 20
-68.14157713140212
 30
0.0
  0
SEQEND
  5
3A1
330
39E
100
AcDbEntity
  8
\U+30EC\U+30A4\U+30E4\U+30FC 1
370
    25
  0
POLYLINE
  5
3A2
330
1F
100
AcDbEntity
  8
\U+30EC\U+30A4\U+30E4\U+30FC 1
 62
    18
420
   262144
370
    25
100
AcDb2dPolyline
 66
     1
 10
0.0
 20
0.0
 30
0.0
  0
VERTEX
  5
3A3
330
3A2
100
AcDbEntity
  8
\U+30EC\U+30A4\U+30E4\U+30FC 1
 62
    18
420
   262144
370
    25
100
AcDbVertex
100
AcDb2dVertex
 10
90.28992375129906
 20
-50.82669947731069
 30
0.0
  0
VERTEX
  5
3A4
330
3A2
100
AcDbEntity
  8
\U+30EC\U+30A4\U+30E4\U+30FC 1
 62
    18
420
   262144
370
    25
100
AcDbVertex
100
AcDb2dVertex
 10
90.28992375129906
 20
-68.14157713140212
 30
0.0
  0
SEQEND
  5
3A5
330
3A2
100
AcDbEntity
  8
\U+30EC\U+30A4\U+30E4\U+30FC 1
370
    25
  0
POLYLINE
  5
3A6
330
1F
100
AcDbEntity
  8
\U+30EC\U+30A4\U+30E4\U+30FC 1
 62
    18
420
   262144
370
    25
100
AcDb2dPolyline
 66
     1
 10
0.0
 20
0.0
 30
0.0
  0
VERTEX
  5
3A7
330
3A6
100
AcDbEntity
  8
\U+30EC\U+30A4\U+30E4\U+30FC 1
 62
    18
420
   262144
370
    25
100
AcDbVertex
100
AcDb2dVertex
 10
100.707547989146
 20
-189.6786891886914
 30
0.0
  0
VERTEX
  5
3A8
330
3A6
100
AcDbEntity
  8
\U+30EC\U+30A4\U+30E4\U+30FC 1
 62
    18
420
   262144
370
    25
100
AcDbVertex
100
AcDb2dVertex
 10
90.28992375129906
 20
-195.7206976507226
 30
0.0
  0
SEQEND
  5
3A9
330
3A6
100
AcDbEntity
  8
\U+30EC\U+30A4\U+30E4\U+30FC 1
370
    25
  0
POLYLINE
  5
3AA
330
1F
100
AcDbEntity
  8
\U+30EC\U+30A4\U+30E4\U+30FC 1
 62
    18
420
   262144
370
    25
100
AcDb2dPolyline
 66
     1
 10
0.0
 20
0.0
 30
0.0
  0
VERTEX
  5
3AB
330
3AA
100
AcDbEntity
  8
\U+30EC\U+30A4\U+30E4\U+30FC 1
 62
    18
420
   262144
370
    25
100
AcDbVertex
100
AcDb2dVertex
 10
90.28992375129906
 20
-195.7206976507226
 30
0.0
  0
VERTEX
  5
3AC
330
3AA
100
AcDbEntity
  8
\U+30EC\U+30A4\U+30E4\U+30FC 1
 62
    18
420
   262144
370
    25
100
AcDbVertex
100
AcDb2dVertex
 10
90.28992375129906
 20
-212.8924315874019
 30
0.0
  0
SEQEND
  5
3AD
330
3AA
100
AcDbEntity
  8
\U+30EC\U+30A4\U+30E4\U+30FC 1
370
    25
  0
POLYLINE
  5
3AE
330
1F
100
AcDbEntity
  8
\U+30EC\U+30A4\U+30E4\U+30FC 1
 62
    18
420
   262144
370
    25
100
AcDb2dPolyline
 66
     1
 10
0.0
 20
0.0
 30
0.0
  0
VERTEX
  5
3AF
330
3AE
100
AcDbEntity
  8
\U+30EC\U+30A4\U+30E4\U+30FC 1
 62
    18
420
   262144
370
    25
100
AcDbVertex
100
AcDb2dVertex
 10
56.84941540462445
 20
-233.6319064086059
 30
0.0
  0
VERTEX
  5
3B0
330
3AE
100
AcDbEntity
  8
\U+30EC\U+30A4\U+30E4\U+30FC 1
 62
    18
420
   262144
370
    25
100
AcDbVertex
100
AcDb2dVertex
 10
59.0852823745516
 20
-235.1546386130863
 30
0.0
  0
SEQEND
  5
3B1
330
3AE
100
AcDbEntity
  8
\U+30EC\U+30A4\U+30E4\U+30FC 1
370
    25
  0
POLYLINE
  5
3B2
330
1F
100
AcDbEntity
  8
\U+30EC\U+30A4\U+30E4\U+30FC 1
 62
    18
420
   262144
370
    25
100
AcDb2dPolyline
 66
     1
 10
0.0
 20
0.0
 30
0.0
  0
VERTEX
  5
3B3
330
3B2
100
AcDbEntity
  8
\U+30EC\U+30A4\U+30E4\U+30FC 1
 62
    18
420
   262144
370
    25
100
AcDbVertex
100
AcDb2dVertex
 10
59.0852823745516
 20
-235.1546386130863
 30
0.0
  0
VERTEX
  5
3B4
330
3B2
100
AcDbEntity
  8
\U+30EC\U+30A4\U+30E4\U+30FC 1
 62
    18
420
   262144
370
    25
100
AcDbVertex
100
AcDb2dVertex
 10
117.1187770974564
 20
-201.6193901405674
 30
0.0
  0
SEQEND
  5
3B5
330
3B2
100
AcDbEntity
  8
\U+30EC\U+30A4\U+30E4\U+30FC 1
370
    25
  0
POLYLINE
  5
3B6
330
1F
100
AcDbEntity
  8
\U+30EC\U+30A4\U+30E4\U+30FC 1
 62
    18
420
   262144
370
    25
100
AcDb2dPolyline
 66
     1
 10
0.0
 20
0.0
 30
0.0
  0
VERTEX
  5
3B7
330
3B6
100
AcDbEntity
  8
\U+30EC\U+30A4\U+30E4\U+30FC 1
 62
    18
420
   262144
370
    25
100
AcDbVertex
100
AcDb2dVertex
 10
117.8326008820002
 20
-38.64914821082382
 30
0.0
  0
VERTEX
  5
3B8
330
3B6
100
AcDbEntity
  8
\U+30EC\U+30A4\U+30E4\U+30FC 1
 62
    18
420
   262144
370
    25
100
AcDbVertex
100
AcDb2dVertex
 10
115.4065646412872
 20
-37.45990124931559
 30
0.0
  0
SEQEND
  5
3B9
330
3B6
100
AcDbEntity
  8
\U+30EC\U+30A4\U+30E4\U+30FC 1
370
    25
  0
POLYLINE
  5
3BA
330
1F
100
AcDbEntity
  8
\U+30EC\U+30A4\U+30E4\U+30FC 1
 62
    18
420
   262144
370
    25
100
AcDb2dPolyline
 66
     1
 10
0.0
 20
0.0
 30
0.0
  0
VERTEX
  5
3BB
330
3BA
100
AcDbEntity
  8
\U+30EC\U+30A4\U+30E4\U+30FC 1
 62
    18
420
   262144
370
    25
100
AcDbVertex
100
AcDb2dVertex
 10
117.8326008820002
 20
-200.3819118422657
 30
0.0
  0
VERTEX
  5
3BC
330
3BA
100
AcDbEntity
  8
\U+30EC\U+30A4\U+30E4\U+30FC 1
 62
    18
420
   262144
370
    25
100
AcDbVertex
100
AcDb2dVertex
 10
117.8326008820002
 20
-38.64914821082382
 30
0.0
  0
SEQEND
  5
3BD
330
3BA
100
AcDbEntity
  8
\U+30EC\U+30A4\U+30E4\U+30FC 1
370
    25
  0
POLYLINE
  5
3BE
330
1F
100
AcDbEntity
  8
\U+30EC\U+30A4\U+30E4\U+30FC 1
 62
    18
420
   262144
370
    25
100
AcDb2dPolyline
 66
     1
 10
0.0
 20
0.0
 30
0.0
  0
VERTEX
  5
3BF
330
3BE
100
AcDbEntity
  8
\U+30EC\U+30A4\U+30E4\U+30FC 1
 62
    18
420
   262144
370
    25
100
AcDbVertex
100
AcDb2dVertex
 10
113.693663166021
 20
-37.88812661813213
 30
0.0
  0
VERTEX
  5
3C0
330
3BE
100
AcDbEntity
  8
\U+30EC\U+30A4\U+30E4\U+30FC 1
 62
    18
420
   262144
370
    25
100
AcDbVertex
100
AcDb2dVertex
 10
113.693663166021
 20
-37.69778509257208
 30
0.0
  0
VERTEX
  5
3C1
330
3BE
100
AcDbEntity
  8
\U+30EC\U+30A4\U+30E4\U+30FC 1
 62
    18
420
   262144
370
    25
100
AcDbVertex
100
AcDb2dVertex
 10
113.5985785306281
 20
-37.60270045717919
 30
0.0
  0
VERTEX
  5
3C2
330
3BE
100
AcDbEntity
  8
\U+30EC\U+30A4\U+30E4\U+30FC 1
 62
    18
420
   262144
370
    25
100
AcDbVertex
100
AcDb2dVertex
 10
113.5034938952352
 20
-37.50744356701203
 30
0.0
  0
VERTEX
  5
3C3
330
3BE
100
AcDbEntity
  8
\U+30EC\U+30A4\U+30E4\U+30FC 1
 62
    18
420
   262144
370
    25
100
AcDbVertex
100
AcDb2dVertex
 10
113.3608669421459
 20
-37.50744356701203
 30
0.0
  0
VERTEX
  5
3C4
330
3BE
100
AcDbEntity
  8
\U+30EC\U+30A4\U+30E4\U+30FC 1
 62
    18
420
   262144
370
    25
100
AcDbVertex
100
AcDb2dVertex
 10
113.1706976713601
 20
-37.60270045717919
 30
0.0
  0
SEQEND
  5
3C5
330
3BE
100
AcDbEntity
  8
\U+30EC\U+30A4\U+30E4\U+30FC 1
370
    25
  0
POLYLINE
  5
3C6
330
1F
100
AcDbEntity
  8
\U+30EC\U+30A4\U+30E4\U+30FC 1
 62
    18
420
   262144
370
    25
100
AcDb2dPolyline
 66
     1
 10
0.0
 20
0.0
 30
0.0
  0
VERTEX
  5
3C7
330
3C6
100
AcDbEntity
  8
\U+30EC\U+30A4\U+30E4\U+30FC 1
 62
    18
420
   262144
370
    25
100
AcDbVertex
100
AcDb2dVertex
 10
100.707547989146
 20
-44.78555228915084
 30
0.0
  0
VERTEX
  5
3C8
330
3C6
100
AcDbEntity
  8
\U+30EC\U+30A4\U+30E4\U+30FC 1
 62
    18
420
   262144
370
    25
100
AcDbVertex
100
AcDb2dVertex
 10
113.1706976713601
 20
-37.60270045717919
 30
0.0
  0
SEQEND
  5
3C9
330
3C6
100
AcDbEntity
  8
\U+30EC\U+30A4\U+30E4\U+30FC 1
370
    25
  0
POLYLINE
  5
3CA
330
1F
100
AcDbEntity
  8
\U+30EC\U+30A4\U+30E4\U+30FC 1
 62
    18
420
   262144
370
    25
100
AcDb2dPolyline
 66
     1
 10
0.0
 20
0.0
 30
0.0
  0
VERTEX
  5
3CB
330
3CA
100
AcDbEntity
  8
\U+30EC\U+30A4\U+30E4\U+30FC 1
 62
    18
420
   262144
370
    25
100
AcDbVertex
100
AcDb2dVertex
 10
100.707547989146
 20
-44.78555228915084
 30
0.0
  0
VERTEX
  5
3CC
330
3CA
100
AcDbEntity
  8
\U+30EC\U+30A4\U+30E4\U+30FC 1
 62
    18
420
   262144
370
    25
100
AcDbVertex
100
AcDb2dVertex
 10
100.707547989146
 20
-206.3274576307098
 30
0.0
  0
SEQEND
  5
3CD
330
3CA
100
AcDbEntity
  8
\U+30EC\U+30A4\U+30E4\U+30FC 1
370
    25
  0
POLYLINE
  5
3CE
330
1F
100
AcDbEntity
  8
\U+30EC\U+30A4\U+30E4\U+30FC 1
 62
    18
420
   262144
370
    25
100
AcDb2dPolyline
 66
     1
 10
0.0
 20
0.0
 30
0.0
  0
VERTEX
  5
3CF
330
3CE
100
AcDbEntity
  8
\U+30EC\U+30A4\U+30E4\U+30FC 1
 62
    18
420
   262144
370
    25
100
AcDbVertex
100
AcDb2dVertex
 10
56.84941540462445
 20
-233.6319064086059
 30
0.0
  0
VERTEX
  5
3D0
330
3CE
100
AcDbEntity
  8
\U+30EC\U+30A4\U+30E4\U+30FC 1
 62
    18
420
   262144
370
    25
100
AcDbVertex
100
AcDb2dVertex
 10
56.801873086928
 20
-233.5850531100065
 30
0.0
  0
VERTEX
  5
3D1
330
3CE
100
AcDbEntity
  8
\U+30EC\U+30A4\U+30E4\U+30FC 1
 62
    18
420
   262144
370
    25
100
AcDbVertex
100
AcDb2dVertex
 10
56.70678845153511
 20
-233.5375107923101
 30
0.0
  0
VERTEX
  5
3D2
330
3CE
100
AcDbEntity
  8
\U+30EC\U+30A4\U+30E4\U+30FC 1
 62
    18
420
   262144
370
    25
100
AcDbVertex
100
AcDb2dVertex
 10
56.65924613383866
 20
-233.4899684746136
 30
0.0
  0
VERTEX
  5
3D3
330
3CE
100
AcDbEntity
  8
\U+30EC\U+30A4\U+30E4\U+30FC 1
 62
    18
420
   262144
370
    25
100
AcDbVertex
100
AcDb2dVertex
 10
56.61170381614222
 20
-233.4417371378201
 30
0.0
  0
VERTEX
  5
3D4
330
3CE
100
AcDbEntity
  8
\U+30EC\U+30A4\U+30E4\U+30FC 1
 62
    18
420
   262144
370
    25
100
AcDbVertex
100
AcDb2dVertex
 10
56.5162746712008
 20
-233.3466525024272
 30
0.0
  0
VERTEX
  5
3D5
330
3CE
100
AcDbEntity
  8
\U+30EC\U+30A4\U+30E4\U+30FC 1
 62
    18
420
   262144
370
    25
100
AcDbVertex
100
AcDb2dVertex
 10
56.46907686305287
 20
-233.2997992038278
 30
0.0
  0
VERTEX
  5
3D6
330
3CE
100
AcDbEntity
  8
\U+30EC\U+30A4\U+30E4\U+30FC 1
 62
    18
420
   262144
370
    25
100
AcDbVertex
100
AcDb2dVertex
 10
56.42153454535642
 20
-233.2040255493379
 30
0.0
  0
VERTEX
  5
3D7
330
3CE
100
AcDbEntity
  8
\U+30EC\U+30A4\U+30E4\U+30FC 1
 62
    18
420
   262144
370
    25
100
AcDbVertex
100
AcDb2dVertex
 10
56.37399222765998
 20
-233.108940913945
 30
0.0
  0
SEQEND
  5
3D8
330
3CE
100
AcDbEntity
  8
\U+30EC\U+30A4\U+30E4\U+30FC 1
370
    25
  0
POLYLINE
  5
3D9
330
1F
100
AcDbEntity
  8
\U+30EC\U+30A4\U+30E4\U+30FC 1
 62
    18
420
   262144
370
    25
100
AcDb2dPolyline
 66
     1
 10
0.0
 20
0.0
 30
0.0
  0
VERTEX
  5
3DA
330
3D9
100
AcDbEntity
  8
\U+30EC\U+30A4\U+30E4\U+30FC 1
 62
    18
420
   262144
370
    25
100
AcDbVertex
100
AcDb2dVertex
 10
114.6927408567435
 20
-200.2392848891763
 30
0.0
  0
VERTEX
  5
3DB
330
3D9
100
AcDbEntity
  8
\U+30EC\U+30A4\U+30E4\U+30FC 1
 62
    18
420
   262144
370
    25
100
AcDbVertex
100
AcDb2dVertex
 10
56.84941540462445
 20
-233.6319064086059
 30
0.0
  0
SEQEND
  5
3DC
330
3D9
100
AcDbEntity
  8
\U+30EC\U+30A4\U+30E4\U+30FC 1
370
    25
  0
POLYLINE
  5
3DD
330
1F
100
AcDbEntity
  8
\U+30EC\U+30A4\U+30E4\U+30FC 1
 62
    18
420
   262144
370
    25
100
AcDb2dPolyline
 66
     1
 10
0.0
 20
0.0
 30
0.0
  0
VERTEX
  5
3DE
330
3DD
100
AcDbEntity
  8
\U+30EC\U+30A4\U+30E4\U+30FC 1
 62
    18
420
   262144
370
    25
100
AcDbVertex
100
AcDb2dVertex
 10
115.4065646412872
 20
-37.45990124931559
 30
0.0
  0
VERTEX
  5
3DF
330
3DD
100
AcDbEntity
  8
\U+30EC\U+30A4\U+30E4\U+30FC 1
 62
    18
420
   262144
370
    25
100
AcDbVertex
100
AcDb2dVertex
 10
115.4065646412872
 20
-199.0031846290687
 30
0.0
  0
SEQEND
  5
3E0
330
3DD
100
AcDbEntity
  8
\U+30EC\U+30A4\U+30E4\U+30FC 1
370
    25
  0
POLYLINE
  5
3E1
330
1F
100
AcDbEntity
  8
\U+30EC\U+30A4\U+30E4\U+30FC 1
 62
    18
420
   262144
370
    25
100
AcDb2dPolyline
 66
     1
 10
0.0
 20
0.0
 30
0.0
  0
VERTEX
  5
3E2
330
3E1
100
AcDbEntity
  8
\U+30EC\U+30A4\U+30E4\U+30FC 1
 62
    18
420
   262144
370
    25
100
AcDbVertex
100
AcDb2dVertex
 10
114.7402831744399
 20
-37.31727429622624
 30
0.0
  0
VERTEX
  5
3E3
330
3E1
100
AcDbEntity
  8
\U+30EC\U+30A4\U+30E4\U+30FC 1
 62
    18
420
   262144
370
    25
100
AcDbVertex
100
AcDb2dVertex
 10
114.8353678098328
 20
-37.31727429622624
 30
0.0
  0
VERTEX
  5
3E4
330
3E1
100
AcDbEntity
  8
\U+30EC\U+30A4\U+30E4\U+30FC 1
 62
    18
420
   262144
370
    25
100
AcDbVertex
100
AcDb2dVertex
 10
114.9311414643228
 20
-37.31727429622624
 30
0.0
  0
VERTEX
  5
3E5
330
3E1
100
AcDbEntity
  8
\U+30EC\U+30A4\U+30E4\U+30FC 1
 62
    18
420
   262144
370
    25
100
AcDbVertex
100
AcDb2dVertex
 10
115.0255370806186
 20
-37.31727429622624
 30
0.0
  0
VERTEX
  5
3E6
330
3E1
100
AcDbEntity
  8
\U+30EC\U+30A4\U+30E4\U+30FC 1
 62
    18
420
   262144
370
    25
100
AcDbVertex
100
AcDb2dVertex
 10
115.1206217160115
 20
-37.31727429622624
 30
0.0
  0
VERTEX
  5
3E7
330
3E1
100
AcDbEntity
  8
\U+30EC\U+30A4\U+30E4\U+30FC 1
 62
    18
420
   262144
370
    25
100
AcDbVertex
100
AcDb2dVertex
 10
115.168853052805
 20
-37.36498886869695
 30
0.0
  0
VERTEX
  5
3E8
330
3E1
100
AcDbEntity
  8
\U+30EC\U+30A4\U+30E4\U+30FC 1
 62
    18
420
   262144
370
    25
100
AcDbVertex
100
AcDb2dVertex
 10
115.2632486691009
 20
-37.36498886869695
 30
0.0
  0
VERTEX
  5
3E9
330
3E1
100
AcDbEntity
  8
\U+30EC\U+30A4\U+30E4\U+30FC 1
 62
    18
420
   262144
370
    25
100
AcDbVertex
100
AcDb2dVertex
 10
115.3583333044938
 20
-37.41253118639339
 30
0.0
  0
VERTEX
  5
3EA
330
3E1
100
AcDbEntity
  8
\U+30EC\U+30A4\U+30E4\U+30FC 1
 62
    18
420
   262144
370
    25
100
AcDbVertex
100
AcDb2dVertex
 10
115.4065646412872
 20
-37.45990124931559
 30
0.0
  0
SEQEND
  5
3EB
330
3E1
100
AcDbEntity
  8
\U+30EC\U+30A4\U+30E4\U+30FC 1
370
    25
  0
POLYLINE
  5
3EC
330
1F
100
AcDbEntity
  8
\U+30EC\U+30A4\U+30E4\U+30FC 1
 62
    18
420
   262144
370
    25
100
AcDb2dPolyline
 66
     1
 10
0.0
 20
0.0
 30
0.0
  0
VERTEX
  5
3ED
330
3EC
100
AcDbEntity
  8
\U+30EC\U+30A4\U+30E4\U+30FC 1
 62
    18
420
   262144
370
    25
100
AcDbVertex
100
AcDb2dVertex
 10
56.37399222765998
 20
-231.9196939524367
 30
0.0
  0
VERTEX
  5
3EE
330
3EC
100
AcDbEntity
  8
\U+30EC\U+30A4\U+30E4\U+30FC 1
 62
    18
420
   262144
370
    25
100
AcDbVertex
100
AcDb2dVertex
 10
56.37399222765998
 20
-233.108940913945
 30
0.0
  0
SEQEND
  5
3EF
330
3EC
100
AcDbEntity
  8
\U+30EC\U+30A4\U+30E4\U+30FC 1
370
    25
  0
POLYLINE
  5
3F0
330
1F
100
AcDbEntity
  8
\U+30EC\U+30A4\U+30E4\U+30FC 1
 62
    18
420
   262144
370
    25
100
AcDb2dPolyline
 66
     1
 10
0.0
 20
0.0
 30
0.0
  0
VERTEX
  5
3F1
330
3F0
100
AcDbEntity
  8
\U+30EC\U+30A4\U+30E4\U+30FC 1
 62
    18
420
   262144
370
    25
100
AcDbVertex
100
AcDb2dVertex
 10
56.37399222765998
 20
-233.108940913945
 30
0.0
  0
VERTEX
  5
3F2
330
3F0
100
AcDbEntity
  8
\U+30EC\U+30A4\U+30E4\U+30FC 1
 62
    18
420
   262144
370
    25
100
AcDbVertex
100
AcDb2dVertex
 10
114.217317679779
 20
-199.7163193945154
 30
0.0
  0
SEQEND
  5
3F3
330
3F0
100
AcDbEntity
  8
\U+30EC\U+30A4\U+30E4\U+30FC 1
370
    25
  0
POLYLINE
  5
3F4
330
1F
100
AcDbEntity
  8
\U+30EC\U+30A4\U+30E4\U+30FC 1
 62
    18
420
   262144
370
    25
100
AcDb2dPolyline
 66
     1
 10
0.0
 20
0.0
 30
0.0
  0
VERTEX
  5
3F5
330
3F4
100
AcDbEntity
  8
\U+30EC\U+30A4\U+30E4\U+30FC 1
 62
    18
420
   262144
370
    25
100
AcDbVertex
100
AcDb2dVertex
 10
100.707547989146
 20
-206.3274576307098
 30
0.0
  0
VERTEX
  5
3F6
330
3F4
100
AcDbEntity
  8
\U+30EC\U+30A4\U+30E4\U+30FC 1
 62
    18
420
   262144
370
    25
100
AcDbVertex
100
AcDb2dVertex
 10
113.1706976713601
 20
-199.1451225630609
 30
0.0
  0
SEQEND
  5
3F7
330
3F4
100
AcDbEntity
  8
\U+30EC\U+30A4\U+30E4\U+30FC 1
370
    25
  0
POLYLINE
  5
3F8
330
1F
100
AcDbEntity
  8
\U+30EC\U+30A4\U+30E4\U+30FC 1
 62
    18
420
   262144
370
    25
100
AcDb2dPolyline
 66
     1
 10
0.0
 20
0.0
 30
0.0
  0
VERTEX
  5
3F9
330
3F8
100
AcDbEntity
  8
\U+30EC\U+30A4\U+30E4\U+30FC 1
 62
    18
420
   262144
370
    25
100
AcDbVertex
100
AcDb2dVertex
 10
100.707547989146
 20
-206.3274576307098
 30
0.0
  0
VERTEX
  5
3FA
330
3F8
100
AcDbEntity
  8
\U+30EC\U+30A4\U+30E4\U+30FC 1
 62
    18
420
   262144
370
    25
100
AcDbVertex
100
AcDb2dVertex
 10
100.7550903068425
 20
-206.8518011635648
 30
0.0
  0
SEQEND
  5
3FB
330
3F8
100
AcDbEntity
  8
\U+30EC\U+30A4\U+30E4\U+30FC 1
370
    25
  0
POLYLINE
  5
3FC
330
1F
100
AcDbEntity
  8
\U+30EC\U+30A4\U+30E4\U+30FC 1
 62
    18
420
   262144
370
    25
100
AcDb2dPolyline
 66
     1
 10
0.0
 20
0.0
 30
0.0
  0
VERTEX
  5
3FD
330
3FC
100
AcDbEntity
  8
\U+30EC\U+30A4\U+30E4\U+30FC 1
 62
    18
420
   262144
370
    25
100
AcDbVertex
100
AcDb2dVertex
 10
90.28992375129906
 20
-212.8924315874019
 30
0.0
  0
VERTEX
  5
3FE
330
3FC
100
AcDbEntity
  8
\U+30EC\U+30A4\U+30E4\U+30FC 1
 62
    18
420
   262144
370
    25
100
AcDbVertex
100
AcDb2dVertex
 10
100.7550903068425
 20
-206.8518011635648
 30
0.0
  0
SEQEND
  5
3FF
330
3FC
100
AcDbEntity
  8
\U+30EC\U+30A4\U+30E4\U+30FC 1
370
    25
  0
POLYLINE
  5
400
330
1F
100
AcDbEntity
  8
\U+30EC\U+30A4\U+30E4\U+30FC 1
 62
    18
420
   262144
370
    25
100
AcDb2dPolyline
 66
     1
 10
0.0
 20
0.0
 30
0.0
  0
VERTEX
  5
401
330
400
100
AcDbEntity
  8
\U+30EC\U+30A4\U+30E4\U+30FC 1
 62
    18
420
   262144
370
    25
100
AcDbVertex
100
AcDb2dVertex
 10
90.28992375129906
 20
-212.8924315874019
 30
0.0
  0
VERTEX
  5
402
330
400
100
AcDbEntity
  8
\U+30EC\U+30A4\U+30E4\U+30FC 1
 62
    18
420
   262144
370
    25
100
AcDbVertex
100
AcDb2dVertex
 10
89.81415606478605
 20
-212.6071776812232
 30
0.0
  0
SEQEND
  5
403
330
400
100
AcDbEntity
  8
\U+30EC\U+30A4\U+30E4\U+30FC 1
370
    25
  0
POLYLINE
  5
404
330
1F
100
AcDbEntity
  8
\U+30EC\U+30A4\U+30E4\U+30FC 1
 62
    18
420
   262144
370
    25
100
AcDb2dPolyline
 66
     1
 10
0.0
 20
0.0
 30
0.0
  0
VERTEX
  5
405
330
404
100
AcDbEntity
  8
\U+30EC\U+30A4\U+30E4\U+30FC 1
 62
    18
420
   262144
370
    25
100
AcDbVertex
100
AcDb2dVertex
 10
79.73036157945977
 20
-218.4100965165781
 30
0.0
  0
VERTEX
  5
406
330
404
100
AcDbEntity
  8
\U+30EC\U+30A4\U+30E4\U+30FC 1
 62
    18
420
   262144
370
    25
100
AcDbVertex
100
AcDb2dVertex
 10
89.81415606478605
 20
-212.6071776812232
 30
0.0
  0
SEQEND
  5
407
330
404
100
AcDbEntity
  8
\U+30EC\U+30A4\U+30E4\U+30FC 1
370
    25
  0
POLYLINE
  5
408
330
1F
100
AcDbEntity
  8
\U+30EC\U+30A4\U+30E4\U+30FC 1
 62
    18
420
   262144
370
    25
100
AcDb2dPolyline
 66
     1
 10
0.0
 20
0.0
 30
0.0
  0
VERTEX
  5
409
330
408
100
AcDbEntity
  8
\U+30EC\U+30A4\U+30E4\U+30FC 1
 62
    18
420
   262144
370
    25
100
AcDbVertex
100
AcDb2dVertex
 10
79.73036157945977
 20
-218.4100965165781
 30
0.0
  0
VERTEX
  5
40A
330
408
100
AcDbEntity
  8
\U+30EC\U+30A4\U+30E4\U+30FC 1
 62
    18
420
   262144
370
    25
100
AcDbVertex
100
AcDb2dVertex
 10
79.7775593876077
 20
-218.9819823671295
 30
0.0
  0
SEQEND
  5
40B
330
408
100
AcDbEntity
  8
\U+30EC\U+30A4\U+30E4\U+30FC 1
370
    25
  0
POLYLINE
  5
40C
330
1F
100
AcDbEntity
  8
\U+30EC\U+30A4\U+30E4\U+30FC 1
 62
    18
420
   262144
370
    25
100
AcDb2dPolyline
 66
     1
 10
0.0
 20
0.0
 30
0.0
  0
VERTEX
  5
40D
330
40C
100
AcDbEntity
  8
\U+30EC\U+30A4\U+30E4\U+30FC 1
 62
    18
420
   262144
370
    25
100
AcDbVertex
100
AcDb2dVertex
 10
69.31239283206426
 20
-225.0226127909666
 30
0.0
  0
VERTEX
  5
40E
330
40C
100
AcDbEntity
  8
\U+30EC\U+30A4\U+30E4\U+30FC 1
 62
    18
420
   262144
370
    25
100
AcDbVertex
100
AcDb2dVertex
 10
79.7775593876077
 20
-218.9819823671295
 30
0.0
  0
SEQEND
  5
40F
330
40C
100
AcDbEntity
  8
\U+30EC\U+30A4\U+30E4\U+30FC 1
370
    25
  0
POLYLINE
  5
410
330
1F
100
AcDbEntity
  8
\U+30EC\U+30A4\U+30E4\U+30FC 1
 62
    18
420
   262144
370
    25
100
AcDb2dPolyline
 66
     1
 10
0.0
 20
0.0
 30
0.0
  0
VERTEX
  5
411
330
410
100
AcDbEntity
  8
\U+30EC\U+30A4\U+30E4\U+30FC 1
 62
    18
420
   262144
370
    25
100
AcDbVertex
100
AcDb2dVertex
 10
69.31239283206426
 20
-225.0226127909666
 30
0.0
  0
VERTEX
  5
412
330
410
100
AcDbEntity
  8
\U+30EC\U+30A4\U+30E4\U+30FC 1
 62
    18
420
   262144
370
    25
100
AcDbVertex
100
AcDb2dVertex
 10
68.8369696550998
 20
-224.7373588847879
 30
0.0
  0
SEQEND
  5
413
330
410
100
AcDbEntity
  8
\U+30EC\U+30A4\U+30E4\U+30FC 1
370
    25
  0
POLYLINE
  5
414
330
1F
100
AcDbEntity
  8
\U+30EC\U+30A4\U+30E4\U+30FC 1
 62
    18
420
   262144
370
    25
100
AcDb2dPolyline
 66
     1
 10
0.0
 20
0.0
 30
0.0
  0
VERTEX
  5
415
330
414
100
AcDbEntity
  8
\U+30EC\U+30A4\U+30E4\U+30FC 1
 62
    18
420
   262144
370
    25
100
AcDbVertex
100
AcDb2dVertex
 10
56.37399222765998
 20
-231.9196939524367
 30
0.0
  0
VERTEX
  5
416
330
414
100
AcDbEntity
  8
\U+30EC\U+30A4\U+30E4\U+30FC 1
 62
    18
420
   262144
370
    25
100
AcDbVertex
100
AcDb2dVertex
 10
68.8369696550998
 20
-224.7373588847879
 30
0.0
  0
SEQEND
  5
417
330
414
100
AcDbEntity
  8
\U+30EC\U+30A4\U+30E4\U+30FC 1
370
    25
  0
POLYLINE
  5
418
330
1F
100
AcDbEntity
  8
\U+30EC\U+30A4\U+30E4\U+30FC 1
 62
    18
420
   262144
370
    25
100
AcDb2dPolyline
 66
     1
 10
0.0
 20
0.0
 30
0.0
  0
VERTEX
  5
419
330
418
100
AcDbEntity
  8
\U+30EC\U+30A4\U+30E4\U+30FC 1
 62
    18
420
   262144
370
    25
100
AcDbVertex
100
AcDb2dVertex
 10
114.7402831744399
 20
-198.8598686568823
 30
0.0
  0
VERTEX
  5
41A
330
418
100
AcDbEntity
  8
\U+30EC\U+30A4\U+30E4\U+30FC 1
 62
    18
420
   262144
370
    25
100
AcDbVertex
100
AcDb2dVertex
 10
114.7402831744399
 20
-37.31727429622624
 30
0.0
  0
SEQEND
  5
41B
330
418
100
AcDbEntity
  8
\U+30EC\U+30A4\U+30E4\U+30FC 1
370
    25
  0
POLYLINE
  5
41C
330
1F
100
AcDbEntity
  8
\U+30EC\U+30A4\U+30E4\U+30FC 1
 62
    18
420
   262144
370
    25
100
AcDb2dPolyline
 66
     1
 10
0.0
 20
0.0
 30
0.0
  0
VERTEX
  5
41D
330
41C
100
AcDbEntity
  8
\U+30EC\U+30A4\U+30E4\U+30FC 1
 62
    18
420
   262144
370
    25
100
AcDbVertex
100
AcDb2dVertex
 10
114.7402831744399
 20
-37.31727429622624
 30
0.0
  0
VERTEX
  5
41E
330
41C
100
AcDbEntity
  8
\U+30EC\U+30A4\U+30E4\U+30FC 1
 62
    18
420
   262144
370
    25
100
AcDbVertex
100
AcDb2dVertex
 10
113.693663166021
 20
-37.88812661813213
 30
0.0
  0
SEQEND
  5
41F
330
41C
100
AcDbEntity
  8
\U+30EC\U+30A4\U+30E4\U+30FC 1
370
    25
  0
POLYLINE
  5
420
330
1F
100
AcDbEntity
  8
\U+30EC\U+30A4\U+30E4\U+30FC 1
 62
    18
420
   262144
370
    25
100
AcDb2dPolyline
 66
     1
 10
0.0
 20
0.0
 30
0.0
  0
VERTEX
  5
421
330
420
100
AcDbEntity
  8
\U+30EC\U+30A4\U+30E4\U+30FC 1
 62
    18
420
   262144
370
    25
100
AcDbVertex
100
AcDb2dVertex
 10
113.693663166021
 20
-37.88812661813213
 30
0.0
  0
VERTEX
  5
422
330
420
100
AcDbEntity
  8
\U+30EC\U+30A4\U+30E4\U+30FC 1
 62
    18
420
   262144
370
    25
100
AcDbVertex
100
AcDb2dVertex
 10
113.693663166021
 20
-198.2411295077314
 30
0.0
  0
SEQEND
  5
423
330
420
100
AcDbEntity
  8
\U+30EC\U+30A4\U+30E4\U+30FC 1
370
    25
  0
POLYLINE
  5
424
330
1F
100
AcDbEntity
  8
\U+30EC\U+30A4\U+30E4\U+30FC 1
 62
    18
420
   262144
370
    25
100
AcDb2dPolyline
 66
     1
 10
0.0
 20
0.0
 30
0.0
  0
VERTEX
  5
425
330
424
100
AcDbEntity
  8
\U+30EC\U+30A4\U+30E4\U+30FC 1
 62
    18
420
   262144
370
    25
100
AcDbVertex
100
AcDb2dVertex
 10
115.4065646412872
 20
-199.0031846290687
 30
0.0
  0
VERTEX
  5
426
330
424
100
AcDbEntity
  8
\U+30EC\U+30A4\U+30E4\U+30FC 1
 62
    18
420
   262144
370
    25
100
AcDbVertex
100
AcDb2dVertex
 10
117.8326008820002
 20
-200.3819118422657
 30
0.0
  0
SEQEND
  5
427
330
424
100
AcDbEntity
  8
\U+30EC\U+30A4\U+30E4\U+30FC 1
370
    25
  0
POLYLINE
  5
428
330
1F
100
AcDbEntity
  8
\U+30EC\U+30A4\U+30E4\U+30FC 1
 62
    18
420
   262144
370
    25
100
AcDb2dPolyline
 66
     1
 10
0.0
 20
0.0
 30
0.0
  0
VERTEX
  5
429
330
428
100
AcDbEntity
  8
\U+30EC\U+30A4\U+30E4\U+30FC 1
 62
    18
420
   262144
370
    25
100
AcDbVertex
100
AcDb2dVertex
 10
117.1187770974564
 20
-201.6193901405674
 30
0.0
  0
VERTEX
  5
42A
330
428
100
AcDbEntity
  8
\U+30EC\U+30A4\U+30E4\U+30FC 1
 62
    18
420
   262144
370
    25
100
AcDbVertex
100
AcDb2dVertex
 10
114.6927408567435
 20
-200.2392848891763
 30
0.0
  0
SEQEND
  5
42B
330
428
100
AcDbEntity
  8
\U+30EC\U+30A4\U+30E4\U+30FC 1
370
    25
  0
POLYLINE
  5
42C
330
1F
100
AcDbEntity
  8
\U+30EC\U+30A4\U+30E4\U+30FC 1
 62
    18
420
   262144
370
    25
100
AcDb2dPolyline
 66
     1
 10
0.0
 20
0.0
 30
0.0
  0
VERTEX
  5
42D
330
42C
100
AcDbEntity
  8
\U+30EC\U+30A4\U+30E4\U+30FC 1
 62
    18
420
   262144
370
    25
100
AcDbVertex
100
AcDb2dVertex
 10
117.8326008820002
 20
-200.3819118422657
 30
0.0
  0
VERTEX
  5
42E
330
42C
100
AcDbEntity
  8
\U+30EC\U+30A4\U+30E4\U+30FC 1
 62
    18
420
   262144
370
    25
100
AcDbVertex
100
AcDb2dVertex
 10
117.8326008820002
 20
-200.5720811130514
 30
0.0
  0
VERTEX
  5
42F
330
42C
100
AcDbEntity
  8
\U+30EC\U+30A4\U+30E4\U+30FC 1
 62
    18
420
   262144
370
    25
100
AcDbVertex
100
AcDb2dVertex
 10
117.7850585643037
 20
-200.7622503838372
 30
0.0
  0
VERTEX
  5
430
330
42C
100
AcDbEntity
  8
\U+30EC\U+30A4\U+30E4\U+30FC 1
 62
    18
420
   262144
370
    25
100
AcDbVertex
100
AcDb2dVertex
 10
117.7368272275102
 20
-200.9531086737201
 30
0.0
  0
VERTEX
  5
431
330
42C
100
AcDbEntity
  8
\U+30EC\U+30A4\U+30E4\U+30FC 1
 62
    18
420
   262144
370
    25
100
AcDbVertex
100
AcDb2dVertex
 10
117.6417425921174
 20
-201.0950466077124
 30
0.0
  0
VERTEX
  5
432
330
42C
100
AcDbEntity
  8
\U+30EC\U+30A4\U+30E4\U+30FC 1
 62
    18
420
   262144
370
    25
100
AcDbVertex
100
AcDb2dVertex
 10
117.5473469758215
 20
-201.2859048975952
 30
0.0
  0
VERTEX
  5
433
330
42C
100
AcDbEntity
  8
\U+30EC\U+30A4\U+30E4\U+30FC 1
 62
    18
420
   262144
370
    25
100
AcDbVertex
100
AcDb2dVertex
 10
117.4040310036351
 20
-201.4285318506845
 30
0.0
  0
VERTEX
  5
434
330
42C
100
AcDbEntity
  8
\U+30EC\U+30A4\U+30E4\U+30FC 1
 62
    18
420
   262144
370
    25
100
AcDbVertex
100
AcDb2dVertex
 10
117.2614040505458
 20
-201.5236164860774
 30
0.0
  0
VERTEX
  5
435
330
42C
100
AcDbEntity
  8
\U+30EC\U+30A4\U+30E4\U+30FC 1
 62
    18
420
   262144
370
    25
100
AcDbVertex
100
AcDb2dVertex
 10
117.1187770974564
 20
-201.6193901405674
 30
0.0
  0
SEQEND
  5
436
330
42C
100
AcDbEntity
  8
\U+30EC\U+30A4\U+30E4\U+30FC 1
370
    25
  0
POLYLINE
  5
437
330
1F
100
AcDbEntity
  8
\U+30EC\U+30A4\U+30E4\U+30FC 1
 62
    18
420
   262144
370
    25
100
AcDb2dPolyline
 66
     1
 10
0.0
 20
0.0
 30
0.0
  0
VERTEX
  5
438
330
437
100
AcDbEntity
  8
\U+30EC\U+30A4\U+30E4\U+30FC 1
 62
    18
420
   262144
370
    25
100
AcDbVertex
100
AcDb2dVertex
 10
114.7402831744399
 20
-198.8598686568823
 30
0.0
  0
VERTEX
  5
439
330
437
100
AcDbEntity
  8
\U+30EC\U+30A4\U+30E4\U+30FC 1
 62
    18
420
   262144
370
    25
100
AcDbVertex
100
AcDb2dVertex
 10
114.8353678098328
 20
-198.8598686568823
 30
0.0
  0
VERTEX
  5
43A
330
437
100
AcDbEntity
  8
\U+30EC\U+30A4\U+30E4\U+30FC 1
 62
    18
420
   262144
370
    25
100
AcDbVertex
100
AcDb2dVertex
 10
114.9311414643228
 20
-198.8598686568823
 30
0.0
  0
VERTEX
  5
43B
330
437
100
AcDbEntity
  8
\U+30EC\U+30A4\U+30E4\U+30FC 1
 62
    18
420
   262144
370
    25
100
AcDbVertex
100
AcDb2dVertex
 10
115.0255370806186
 20
-198.8598686568823
 30
0.0
  0
VERTEX
  5
43C
330
437
100
AcDbEntity
  8
\U+30EC\U+30A4\U+30E4\U+30FC 1
 62
    18
420
   262144
370
    25
100
AcDbVertex
100
AcDb2dVertex
 10
115.1206217160115
 20
-198.9074109745787
 30
0.0
  0
VERTEX
  5
43D
330
437
100
AcDbEntity
  8
\U+30EC\U+30A4\U+30E4\U+30FC 1
 62
    18
420
   262144
370
    25
100
AcDbVertex
100
AcDb2dVertex
 10
115.168853052805
 20
-198.9074109745787
 30
0.0
  0
VERTEX
  5
43E
330
437
100
AcDbEntity
  8
\U+30EC\U+30A4\U+30E4\U+30FC 1
 62
    18
420
   262144
370
    25
100
AcDbVertex
100
AcDb2dVertex
 10
115.2632486691009
 20
-198.9542642731781
 30
0.0
  0
VERTEX
  5
43F
330
437
100
AcDbEntity
  8
\U+30EC\U+30A4\U+30E4\U+30FC 1
 62
    18
420
   262144
370
    25
100
AcDbVertex
100
AcDb2dVertex
 10
115.3583333044938
 20
-198.9542642731781
 30
0.0
  0
VERTEX
  5
440
330
437
100
AcDbEntity
  8
\U+30EC\U+30A4\U+30E4\U+30FC 1
 62
    18
420
   262144
370
    25
100
AcDbVertex
100
AcDb2dVertex
 10
115.4065646412872
 20
-199.0031846290687
 30
0.0
  0
SEQEND
  5
441
330
437
100
AcDbEntity
  8
\U+30EC\U+30A4\U+30E4\U+30FC 1
370
    25
  0
POLYLINE
  5
442
330
1F
100
AcDbEntity
  8
\U+30EC\U+30A4\U+30E4\U+30FC 1
 62
    18
420
   262144
370
    25
100
AcDb2dPolyline
 66
     1
 10
0.0
 20
0.0
 30
0.0
  0
VERTEX
  5
443
330
442
100
AcDbEntity
  8
\U+30EC\U+30A4\U+30E4\U+30FC 1
 62
    18
420
   262144
370
    25
100
AcDbVertex
100
AcDb2dVertex
 10
114.6927408567435
 20
-200.2392848891763
 30
0.0
  0
VERTEX
  5
444
330
442
100
AcDbEntity
  8
\U+30EC\U+30A4\U+30E4\U+30FC 1
 62
    18
420
   262144
370
    25
100
AcDbVertex
100
AcDb2dVertex
 10
114.645198539047
 20
-200.1924315905769
 30
0.0
  0
VERTEX
  5
445
330
442
100
AcDbEntity
  8
\U+30EC\U+30A4\U+30E4\U+30FC 1
 62
    18
420
   262144
370
    25
100
AcDbVertex
100
AcDb2dVertex
 10
114.5501139036542
 20
-200.1435112346863
 30
0.0
  0
VERTEX
  5
446
330
442
100
AcDbEntity
  8
\U+30EC\U+30A4\U+30E4\U+30FC 1
 62
    18
420
   262144
370
    25
100
AcDbVertex
100
AcDb2dVertex
 10
114.5025715859577
 20
-200.096657936087
 30
0.0
  0
VERTEX
  5
447
330
442
100
AcDbEntity
  8
\U+30EC\U+30A4\U+30E4\U+30FC 1
 62
    18
420
   262144
370
    25
100
AcDbVertex
100
AcDb2dVertex
 10
114.4550292682612
 20
-200.001573300694
 30
0.0
  0
VERTEX
  5
448
330
442
100
AcDbEntity
  8
\U+30EC\U+30A4\U+30E4\U+30FC 1
 62
    18
420
   262144
370
    25
100
AcDbVertex
100
AcDb2dVertex
 10
114.3599446328683
 20
-199.9540309829976
 30
0.0
  0
VERTEX
  5
449
330
442
100
AcDbEntity
  8
\U+30EC\U+30A4\U+30E4\U+30FC 1
 62
    18
420
   262144
370
    25
100
AcDbVertex
100
AcDb2dVertex
 10
114.3117132960749
 20
-199.9057996462041
 30
0.0
  0
VERTEX
  5
44A
330
442
100
AcDbEntity
  8
\U+30EC\U+30A4\U+30E4\U+30FC 1
 62
    18
420
   262144
370
    25
100
AcDbVertex
100
AcDb2dVertex
 10
114.2648599974755
 20
-199.8114040299083
 30
0.0
  0
VERTEX
  5
44B
330
442
100
AcDbEntity
  8
\U+30EC\U+30A4\U+30E4\U+30FC 1
 62
    18
420
   262144
370
    25
100
AcDbVertex
100
AcDb2dVertex
 10
114.217317679779
 20
-199.7163193945154
 30
0.0
  0
SEQEND
  5
44C
330
442
100
AcDbEntity
  8
\U+30EC\U+30A4\U+30E4\U+30FC 1
370
    25
  0
POLYLINE
  5
44D
330
1F
100
AcDbEntity
  8
\U+30EC\U+30A4\U+30E4\U+30FC 1
 62
    18
420
   262144
370
    25
100
AcDb2dPolyline
 66
     1
 10
0.0
 20
0.0
 30
0.0
  0
VERTEX
  5
44E
330
44D
100
AcDbEntity
  8
\U+30EC\U+30A4\U+30E4\U+30FC 1
 62
    18
420
   262144
370
    25
100
AcDbVertex
100
AcDb2dVertex
 10
115.4065646412872
 20
-199.0031846290687
 30
0.0
  0
VERTEX
  5
44F
330
44D
100
AcDbEntity
  8
\U+30EC\U+30A4\U+30E4\U+30FC 1
 62
    18
420
   262144
370
    25
100
AcDbVertex
100
AcDb2dVertex
 10
115.4065646412872
 20
-199.1926648807574
 30
0.0
  0
VERTEX
  5
450
330
44D
100
AcDbEntity
  8
\U+30EC\U+30A4\U+30E4\U+30FC 1
 62
    18
420
   262144
370
    25
100
AcDbVertex
100
AcDb2dVertex
 10
115.3583333044938
 20
-199.3352918338468
 30
0.0
  0
VERTEX
  5
451
330
44D
100
AcDbEntity
  8
\U+30EC\U+30A4\U+30E4\U+30FC 1
 62
    18
420
   262144
370
    25
100
AcDbVertex
100
AcDb2dVertex
 10
115.3114800058944
 20
-199.5261501237296
 30
0.0
  0
VERTEX
  5
452
330
44D
100
AcDbEntity
  8
\U+30EC\U+30A4\U+30E4\U+30FC 1
 62
    18
420
   262144
370
    25
100
AcDbVertex
100
AcDb2dVertex
 10
115.2157063514044
 20
-199.7163193945154
 30
0.0
  0
VERTEX
  5
453
330
44D
100
AcDbEntity
  8
\U+30EC\U+30A4\U+30E4\U+30FC 1
 62
    18
420
   262144
370
    25
100
AcDbVertex
100
AcDb2dVertex
 10
115.0730793983151
 20
-199.8582573285077
 30
0.0
  0
VERTEX
  5
454
330
44D
100
AcDbEntity
  8
\U+30EC\U+30A4\U+30E4\U+30FC 1
 62
    18
420
   262144
370
    25
100
AcDbVertex
100
AcDb2dVertex
 10
114.9779947629222
 20
-200.001573300694
 30
0.0
  0
VERTEX
  5
455
330
44D
100
AcDbEntity
  8
\U+30EC\U+30A4\U+30E4\U+30FC 1
 62
    18
420
   262144
370
    25
100
AcDbVertex
100
AcDb2dVertex
 10
114.8353678098328
 20
-200.1435112346863
 30
0.0
  0
VERTEX
  5
456
330
44D
100
AcDbEntity
  8
\U+30EC\U+30A4\U+30E4\U+30FC 1
 62
    18
420
   262144
370
    25
100
AcDbVertex
100
AcDb2dVertex
 10
114.6927408567435
 20
-200.2392848891763
 30
0.0
  0
SEQEND
  5
457
330
44D
100
AcDbEntity
  8
\U+30EC\U+30A4\U+30E4\U+30FC 1
370
    25
  0
POLYLINE
  5
458
330
1F
100
AcDbEntity
  8
\U+30EC\U+30A4\U+30E4\U+30FC 1
 62
    18
420
   262144
370
    25
100
AcDb2dPolyline
 66
     1
 10
0.0
 20
0.0
 30
0.0
  0
VERTEX
  5
459
330
458
100
AcDbEntity
  8
\U+30EC\U+30A4\U+30E4\U+30FC 1
 62
    18
420
   262144
370
    25
100
AcDbVertex
100
AcDb2dVertex
 10
114.217317679779
 20
-199.7163193945154
 30
0.0
  0
VERTEX
  5
45A
330
458
100
AcDbEntity
  8
\U+30EC\U+30A4\U+30E4\U+30FC 1
 62
    18
420
   262144
370
    25
100
AcDbVertex
100
AcDb2dVertex
 10
113.1706976713601
 20
-199.1451225630609
 30
0.0
  0
SEQEND
  5
45B
330
458
100
AcDbEntity
  8
\U+30EC\U+30A4\U+30E4\U+30FC 1
370
    25
  0
POLYLINE
  5
45C
330
1F
100
AcDbEntity
  8
\U+30EC\U+30A4\U+30E4\U+30FC 1
 62
    18
420
   262144
370
    25
100
AcDb2dPolyline
 66
     1
 10
0.0
 20
0.0
 30
0.0
  0
VERTEX
  5
45D
330
45C
100
AcDbEntity
  8
\U+30EC\U+30A4\U+30E4\U+30FC 1
 62
    18
420
   262144
370
    25
100
AcDbVertex
100
AcDb2dVertex
 10
114.217317679779
 20
-199.7163193945154
 30
0.0
  0
VERTEX
  5
45E
330
45C
100
AcDbEntity
  8
\U+30EC\U+30A4\U+30E4\U+30FC 1
 62
    18
420
   262144
370
    25
100
AcDbVertex
100
AcDb2dVertex
 10
114.2648599974755
 20
-199.6205457400254
 30
0.0
  0
VERTEX
  5
45F
330
45C
100
AcDbEntity
  8
\U+30EC\U+30A4\U+30E4\U+30FC 1
 62
    18
420
   262144
370
    25
100
AcDbVertex
100
AcDb2dVertex
 10
114.3117132960749
 20
-199.4786078060331
 30
0.0
  0
VERTEX
  5
460
330
45C
100
AcDbEntity
  8
\U+30EC\U+30A4\U+30E4\U+30FC 1
 62
    18
420
   262144
370
    25
100
AcDbVertex
100
AcDb2dVertex
 10
114.3599446328683
 20
-199.3828341515432
 30
0.0
  0
VERTEX
  5
461
330
45C
100
AcDbEntity
  8
\U+30EC\U+30A4\U+30E4\U+30FC 1
 62
    18
420
   262144
370
    25
100
AcDbVertex
100
AcDb2dVertex
 10
114.4550292682612
 20
-199.2408962175509
 30
0.0
  0
VERTEX
  5
462
330
45C
100
AcDbEntity
  8
\U+30EC\U+30A4\U+30E4\U+30FC 1
 62
    18
420
   262144
370
    25
100
AcDbVertex
100
AcDb2dVertex
 10
114.5025715859577
 20
-199.1451225630609
 30
0.0
  0
VERTEX
  5
463
330
45C
100
AcDbEntity
  8
\U+30EC\U+30A4\U+30E4\U+30FC 1
 62
    18
420
   262144
370
    25
100
AcDbVertex
100
AcDb2dVertex
 10
114.5976562213506
 20
-199.0500379276681
 30
0.0
  0
VERTEX
  5
464
330
45C
100
AcDbEntity
  8
\U+30EC\U+30A4\U+30E4\U+30FC 1
 62
    18
420
   262144
370
    25
100
AcDbVertex
100
AcDb2dVertex
 10
114.645198539047
 20
-198.9542642731781
 30
0.0
  0
VERTEX
  5
465
330
45C
100
AcDbEntity
  8
\U+30EC\U+30A4\U+30E4\U+30FC 1
 62
    18
420
   262144
370
    25
100
AcDbVertex
100
AcDb2dVertex
 10
114.7402831744399
 20
-198.8598686568823
 30
0.0
  0
SEQEND
  5
466
330
45C
100
AcDbEntity
  8
\U+30EC\U+30A4\U+30E4\U+30FC 1
370
    25
  0
POLYLINE
  5
467
330
1F
100
AcDbEntity
  8
\U+30EC\U+30A4\U+30E4\U+30FC 1
 62
    18
420
   262144
370
    25
100
AcDb2dPolyline
 66
     1
 10
0.0
 20
0.0
 30
0.0
  0
VERTEX
  5
468
330
467
100
AcDbEntity
  8
\U+30EC\U+30A4\U+30E4\U+30FC 1
 62
    18
420
   262144
370
    25
100
AcDbVertex
100
AcDb2dVertex
 10
113.693663166021
 20
-198.2411295077314
 30
0.0
  0
VERTEX
  5
469
330
467
100
AcDbEntity
  8
\U+30EC\U+30A4\U+30E4\U+30FC 1
 62
    18
420
   262144
370
    25
100
AcDbVertex
100
AcDb2dVertex
 10
114.7402831744399
 20
-198.8598686568823
 30
0.0
  0
SEQEND
  5
46A
330
467
100
AcDbEntity
  8
\U+30EC\U+30A4\U+30E4\U+30FC 1
370
    25
  0
POLYLINE
  5
46B
330
1F
100
AcDbEntity
  8
\U+30EC\U+30A4\U+30E4\U+30FC 1
 62
    18
420
   262144
370
    25
100
AcDb2dPolyline
 66
     1
 10
0.0
 20
0.0
 30
0.0
  0
VERTEX
  5
46C
330
46B
100
AcDbEntity
  8
\U+30EC\U+30A4\U+30E4\U+30FC 1
 62
    18
420
   262144
370
    25
100
AcDbVertex
100
AcDb2dVertex
 10
113.1706976713601
 20
-199.1451225630609
 30
0.0
  0
VERTEX
  5
46D
330
46B
100
AcDbEntity
  8
\U+30EC\U+30A4\U+30E4\U+30FC 1
 62
    18
420
   262144
370
    25
100
AcDbVertex
100
AcDb2dVertex
 10
113.3133246244495
 20
-199.0500379276681
 30
0.0
  0
VERTEX
  5
46E
330
46B
100
AcDbEntity
  8
\U+30EC\U+30A4\U+30E4\U+30FC 1
 62
    18
420
   262144
370
    25
100
AcDbVertex
100
AcDb2dVertex
 10
113.4559515775388
 20
-198.9074109745787
 30
0.0
  0
VERTEX
  5
46F
330
46B
100
AcDbEntity
  8
\U+30EC\U+30A4\U+30E4\U+30FC 1
 62
    18
420
   262144
370
    25
100
AcDbVertex
100
AcDb2dVertex
 10
113.5510362129317
 20
-198.7647840214894
 30
0.0
  0
VERTEX
  5
470
330
46B
100
AcDbEntity
  8
\U+30EC\U+30A4\U+30E4\U+30FC 1
 62
    18
420
   262144
370
    25
100
AcDbVertex
100
AcDb2dVertex
 10
113.6461208483246
 20
-198.6221570684
 30
0.0
  0
VERTEX
  5
471
330
46B
100
AcDbEntity
  8
\U+30EC\U+30A4\U+30E4\U+30FC 1
 62
    18
420
   262144
370
    25
100
AcDbVertex
100
AcDb2dVertex
 10
113.693663166021
 20
-198.4312987785172
 30
0.0
  0
VERTEX
  5
472
330
46B
100
AcDbEntity
  8
\U+30EC\U+30A4\U+30E4\U+30FC 1
 62
    18
420
   262144
370
    25
100
AcDbVertex
100
AcDb2dVertex
 10
113.693663166021
 20
-198.2411295077314
 30
0.0
  0
SEQEND
  5
473
330
46B
100
AcDbEntity
  8
\U+30EC\U+30A4\U+30E4\U+30FC 1
370
    25
  0
POLYLINE
  5
474
330
1F
100
AcDbEntity
  8
\U+30EC\U+30A4\U+30E4\U+30FC 1
 62
    18
420
   262144
370
    25
100
AcDb2dPolyline
 66
     1
 10
0.0
 20
0.0
 30
0.0
  0
VERTEX
  5
475
330
474
100
AcDbEntity
  8
\U+30EC\U+30A4\U+30E4\U+30FC 1
 62
    18
420
   262144
370
    25
100
AcDbVertex
100
AcDb2dVertex
 10
124.8723089965597
 20
-60.72101371094822
 30
0.0
  0
VERTEX
  5
476
330
474
100
AcDbEntity
  8
\U+30EC\U+30A4\U+30E4\U+30FC 1
 62
    18
420
   262144
370
    25
100
AcDbVertex
100
AcDb2dVertex
 10
124.4444281372917
 20
-60.43558754999528
 30
0.0
  0
SEQEND
  5
477
330
474
100
AcDbEntity
  8
\U+30EC\U+30A4\U+30E4\U+30FC 1
370
    25
  0
POLYLINE
  5
478
330
1F
100
AcDbEntity
  8
\U+30EC\U+30A4\U+30E4\U+30FC 1
 62
    18
420
   262144
370
    25
100
AcDb2dPolyline
 66
     1
 10
0.0
 20
0.0
 30
0.0
  0
VERTEX
  5
479
330
478
100
AcDbEntity
  8
\U+30EC\U+30A4\U+30E4\U+30FC 1
 62
    18
420
   262144
370
    25
100
AcDbVertex
100
AcDb2dVertex
 10
117.9752278350895
 20
-67.99895017831277
 30
0.0
  0
VERTEX
  5
47A
330
478
100
AcDbEntity
  8
\U+30EC\U+30A4\U+30E4\U+30FC 1
 62
    18
420
   262144
370
    25
100
AcDbVertex
100
AcDb2dVertex
 10
117.8326008820002
 20
-67.95140786061631
 30
0.0
  0
SEQEND
  5
47B
330
478
100
AcDbEntity
  8
\U+30EC\U+30A4\U+30E4\U+30FC 1
370
    25
  0
POLYLINE
  5
47C
330
1F
100
AcDbEntity
  8
\U+30EC\U+30A4\U+30E4\U+30FC 1
 62
    18
420
   262144
370
    25
100
AcDb2dPolyline
 66
     1
 10
0.0
 20
0.0
 30
0.0
  0
VERTEX
  5
47D
330
47C
100
AcDbEntity
  8
\U+30EC\U+30A4\U+30E4\U+30FC 1
 62
    18
420
   262144
370
    25
100
AcDbVertex
100
AcDb2dVertex
 10
79.49230548142901
 20
-228.5903536754913
 30
0.0
  0
VERTEX
  5
47E
330
47C
100
AcDbEntity
  8
\U+30EC\U+30A4\U+30E4\U+30FC 1
 62
    18
420
   262144
370
    25
100
AcDbVertex
100
AcDb2dVertex
 10
79.49230548142901
 20
-228.5903536754913
 30
0.0
  0
VERTEX
  5
47F
330
47C
100
AcDbEntity
  8
\U+30EC\U+30A4\U+30E4\U+30FC 1
 62
    18
420
   262144
370
    25
100
AcDbVertex
100
AcDb2dVertex
 10
79.58704560727338
 20
-228.5428113577949
 30
0.0
  0
SEQEND
  5
480
330
47C
100
AcDbEntity
  8
\U+30EC\U+30A4\U+30E4\U+30FC 1
370
    25
  0
POLYLINE
  5
481
330
1F
100
AcDbEntity
  8
\U+30EC\U+30A4\U+30E4\U+30FC 1
 62
    18
420
   262144
370
    25
100
AcDb2dPolyline
 66
     1
 10
0.0
 20
0.0
 30
0.0
  0
VERTEX
  5
482
330
481
100
AcDbEntity
  8
\U+30EC\U+30A4\U+30E4\U+30FC 1
 62
    18
420
   262144
370
    25
100
AcDbVertex
100
AcDb2dVertex
 10
78.58831242609945
 20
-228.3050997693126
 30
0.0
  0
VERTEX
  5
483
330
481
100
AcDbEntity
  8
\U+30EC\U+30A4\U+30E4\U+30FC 1
 62
    18
420
   262144
370
    25
100
AcDbVertex
100
AcDb2dVertex
 10
79.016537794916
 20
-228.5903536754913
 30
0.0
  0
SEQEND
  5
484
330
481
100
AcDbEntity
  8
\U+30EC\U+30A4\U+30E4\U+30FC 1
370
    25
  0
POLYLINE
  5
485
330
1F
100
AcDbEntity
  8
\U+30EC\U+30A4\U+30E4\U+30FC 1
 62
    18
420
   262144
370
    25
100
AcDb2dPolyline
 66
     1
 10
0.0
 20
0.0
 30
0.0
  0
VERTEX
  5
486
330
485
100
AcDbEntity
  8
\U+30EC\U+30A4\U+30E4\U+30FC 1
 62
    18
420
   262144
370
    25
100
AcDbVertex
100
AcDb2dVertex
 10
79.58704560727338
 20
-228.5428113577949
 30
0.0
  0
VERTEX
  5
487
330
485
100
AcDbEntity
  8
\U+30EC\U+30A4\U+30E4\U+30FC 1
 62
    18
420
   262144
370
    25
100
AcDbVertex
100
AcDb2dVertex
 10
81.34714489068752
 20
-227.5912759847689
 30
0.0
  0
SEQEND
  5
488
330
485
100
AcDbEntity
  8
\U+30EC\U+30A4\U+30E4\U+30FC 1
370
    25
  0
POLYLINE
  5
489
330
1F
100
AcDbEntity
  8
\U+30EC\U+30A4\U+30E4\U+30FC 1
 62
    18
420
   262144
370
    25
100
AcDb2dPolyline
 66
     1
 10
0.0
 20
0.0
 30
0.0
  0
VERTEX
  5
48A
330
489
100
AcDbEntity
  8
\U+30EC\U+30A4\U+30E4\U+30FC 1
 62
    18
420
   262144
370
    25
100
AcDbVertex
100
AcDb2dVertex
 10
81.34714489068752
 20
-227.5912759847689
 30
0.0
  0
VERTEX
  5
48B
330
489
100
AcDbEntity
  8
\U+30EC\U+30A4\U+30E4\U+30FC 1
 62
    18
420
   262144
370
    25
100
AcDbVertex
100
AcDb2dVertex
 10
122.7315266620255
 20
-203.7112521192111
 30
0.0
  0
SEQEND
  5
48C
330
489
100
AcDbEntity
  8
\U+30EC\U+30A4\U+30E4\U+30FC 1
370
    25
  0
POLYLINE
  5
48D
330
1F
100
AcDbEntity
  8
\U+30EC\U+30A4\U+30E4\U+30FC 1
 62
    18
420
   262144
370
    25
100
AcDb2dPolyline
 66
     1
 10
0.0
 20
0.0
 30
0.0
  0
VERTEX
  5
48E
330
48D
100
AcDbEntity
  8
\U+30EC\U+30A4\U+30E4\U+30FC 1
 62
    18
420
   262144
370
    25
100
AcDbVertex
100
AcDb2dVertex
 10
122.7315266620255
 20
-203.7112521192111
 30
0.0
  0
VERTEX
  5
48F
330
48D
100
AcDbEntity
  8
\U+30EC\U+30A4\U+30E4\U+30FC 1
 62
    18
420
   262144
370
    25
100
AcDbVertex
100
AcDb2dVertex
 10
124.4919704549881
 20
-202.6653211298892
 30
0.0
  0
SEQEND
  5
490
330
48D
100
AcDbEntity
  8
\U+30EC\U+30A4\U+30E4\U+30FC 1
370
    25
  0
POLYLINE
  5
491
330
1F
100
AcDbEntity
  8
\U+30EC\U+30A4\U+30E4\U+30FC 1
 62
    18
420
   262144
370
    25
100
AcDb2dPolyline
 66
     1
 10
0.0
 20
0.0
 30
0.0
  0
VERTEX
  5
492
330
491
100
AcDbEntity
  8
\U+30EC\U+30A4\U+30E4\U+30FC 1
 62
    18
420
   262144
370
    25
100
AcDbVertex
100
AcDb2dVertex
 10
125.110020585042
 20
-201.6193901405674
 30
0.0
  0
VERTEX
  5
493
330
491
100
AcDbEntity
  8
\U+30EC\U+30A4\U+30E4\U+30FC 1
 62
    18
420
   262144
370
    25
100
AcDbVertex
100
AcDb2dVertex
 10
125.110020585042
 20
-61.19678139746122
 30
0.0
  0
SEQEND
  5
494
330
491
100
AcDbEntity
  8
\U+30EC\U+30A4\U+30E4\U+30FC 1
370
    25
  0
POLYLINE
  5
495
330
1F
100
AcDbEntity
  8
\U+30EC\U+30A4\U+30E4\U+30FC 1
 62
    18
420
   262144
370
    25
100
AcDb2dPolyline
 66
     1
 10
0.0
 20
0.0
 30
0.0
  0
VERTEX
  5
496
330
495
100
AcDbEntity
  8
\U+30EC\U+30A4\U+30E4\U+30FC 1
 62
    18
420
   262144
370
    25
100
AcDbVertex
100
AcDb2dVertex
 10
147.1820583399406
 20
-71.99474417687979
 30
0.0
  0
VERTEX
  5
497
330
495
100
AcDbEntity
  8
\U+30EC\U+30A4\U+30E4\U+30FC 1
 62
    18
420
   262144
370
    25
100
AcDbVertex
100
AcDb2dVertex
 10
131.5799099063411
 20
-63.86035697188213
 30
0.0
  0
SEQEND
  5
498
330
495
100
AcDbEntity
  8
\U+30EC\U+30A4\U+30E4\U+30FC 1
370
    25
  0
POLYLINE
  5
499
330
1F
100
AcDbEntity
  8
\U+30EC\U+30A4\U+30E4\U+30FC 1
 62
    18
420
   262144
370
    25
100
AcDb2dPolyline
 66
     1
 10
0.0
 20
0.0
 30
0.0
  0
VERTEX
  5
49A
330
499
100
AcDbEntity
  8
\U+30EC\U+30A4\U+30E4\U+30FC 1
 62
    18
420
   262144
370
    25
100
AcDbVertex
100
AcDb2dVertex
 10
125.2051052204348
 20
-60.91135523650828
 30
0.0
  0
VERTEX
  5
49B
330
499
100
AcDbEntity
  8
\U+30EC\U+30A4\U+30E4\U+30FC 1
 62
    18
420
   262144
370
    25
100
AcDbVertex
100
AcDb2dVertex
 10
125.1582519218354
 20
-60.91135523650828
 30
0.0
  0
VERTEX
  5
49C
330
499
100
AcDbEntity
  8
\U+30EC\U+30A4\U+30E4\U+30FC 1
 62
    18
420
   262144
370
    25
100
AcDbVertex
100
AcDb2dVertex
 10
125.014935949649
 20
-60.86364066403757
 30
0.0
  0
SEQEND
  5
49D
330
499
100
AcDbEntity
  8
\U+30EC\U+30A4\U+30E4\U+30FC 1
370
    25
  0
POLYLINE
  5
49E
330
1F
100
AcDbEntity
  8
\U+30EC\U+30A4\U+30E4\U+30FC 1
 62
    18
420
   262144
370
    25
100
AcDb2dPolyline
 66
     1
 10
0.0
 20
0.0
 30
0.0
  0
VERTEX
  5
49F
330
49E
100
AcDbEntity
  8
\U+30EC\U+30A4\U+30E4\U+30FC 1
 62
    18
420
   262144
370
    25
100
AcDbVertex
100
AcDb2dVertex
 10
131.3890516164583
 20
-64.14578313283508
 30
0.0
  0
VERTEX
  5
4A0
330
49E
100
AcDbEntity
  8
\U+30EC\U+30A4\U+30E4\U+30FC 1
 62
    18
420
   262144
370
    25
100
AcDbVertex
100
AcDb2dVertex
 10
125.2051052204348
 20
-60.91135523650828
 30
0.0
  0
SEQEND
  5
4A1
330
49E
100
AcDbEntity
  8
\U+30EC\U+30A4\U+30E4\U+30FC 1
370
    25
  0
POLYLINE
  5
4A2
330
1F
100
AcDbEntity
  8
\U+30EC\U+30A4\U+30E4\U+30FC 1
 62
    18
420
   262144
370
    25
100
AcDb2dPolyline
 66
     1
 10
0.0
 20
0.0
 30
0.0
  0
VERTEX
  5
4A3
330
4A2
100
AcDbEntity
  8
\U+30EC\U+30A4\U+30E4\U+30FC 1
 62
    18
420
   262144
370
    25
100
AcDbVertex
100
AcDb2dVertex
 10
85.1525973636945
 20
-232.8712293254628
 30
0.0
  0
VERTEX
  5
4A4
330
4A2
100
AcDbEntity
  8
\U+30EC\U+30A4\U+30E4\U+30FC 1
 62
    18
420
   262144
370
    25
100
AcDbVertex
100
AcDb2dVertex
 10
100.0412665222987
 20
-242.3376626998323
 30
0.0
  0
SEQEND
  5
4A5
330
4A2
100
AcDbEntity
  8
\U+30EC\U+30A4\U+30E4\U+30FC 1
370
    25
  0
POLYLINE
  5
4A6
330
1F
100
AcDbEntity
  8
\U+30EC\U+30A4\U+30E4\U+30FC 1
 62
    18
420
   262144
370
    25
100
AcDb2dPolyline
 66
     1
 10
0.0
 20
0.0
 30
0.0
  0
VERTEX
  5
4A7
330
4A6
100
AcDbEntity
  8
\U+30EC\U+30A4\U+30E4\U+30FC 1
 62
    18
420
   262144
370
    25
100
AcDbVertex
100
AcDb2dVertex
 10
79.25424938339825
 20
-228.5903536754913
 30
0.0
  0
VERTEX
  5
4A8
330
4A6
100
AcDbEntity
  8
\U+30EC\U+30A4\U+30E4\U+30FC 1
 62
    18
420
   262144
370
    25
100
AcDbVertex
100
AcDb2dVertex
 10
79.3017917010947
 20
-228.7329806285807
 30
0.0
  0
VERTEX
  5
4A9
330
4A6
100
AcDbEntity
  8
\U+30EC\U+30A4\U+30E4\U+30FC 1
 62
    18
420
   262144
370
    25
100
AcDbVertex
100
AcDb2dVertex
 10
79.3968763364876
 20
-228.8280652639735
 30
0.0
  0
SEQEND
  5
4AA
330
4A6
100
AcDbEntity
  8
\U+30EC\U+30A4\U+30E4\U+30FC 1
370
    25
  0
POLYLINE
  5
4AB
330
1F
100
AcDbEntity
  8
\U+30EC\U+30A4\U+30E4\U+30FC 1
 62
    18
420
   262144
370
    25
100
AcDb2dPolyline
 66
     1
 10
0.0
 20
0.0
 30
0.0
  0
VERTEX
  5
4AC
330
4AB
100
AcDbEntity
  8
\U+30EC\U+30A4\U+30E4\U+30FC 1
 62
    18
420
   262144
370
    25
100
AcDbVertex
100
AcDb2dVertex
 10
79.3968763364876
 20
-228.8280652639735
 30
0.0
  0
VERTEX
  5
4AD
330
4AB
100
AcDbEntity
  8
\U+30EC\U+30A4\U+30E4\U+30FC 1
 62
    18
420
   262144
370
    25
100
AcDbVertex
100
AcDb2dVertex
 10
85.34311114402881
 20
-232.5859754192841
 30
0.0
  0
SEQEND
  5
4AE
330
4AB
100
AcDbEntity
  8
\U+30EC\U+30A4\U+30E4\U+30FC 1
370
    25
  0
POLYLINE
  5
4AF
330
1F
100
AcDbEntity
  8
\U+30EC\U+30A4\U+30E4\U+30FC 1
 62
    18
420
   262144
370
    25
100
AcDb2dPolyline
 66
     1
 10
0.0
 20
0.0
 30
0.0
  0
VERTEX
  5
4B0
330
4AF
100
AcDbEntity
  8
\U+30EC\U+30A4\U+30E4\U+30FC 1
 62
    18
420
   262144
370
    25
100
AcDbVertex
100
AcDb2dVertex
 10
117.5942002744209
 20
-38.17338052431082
 30
0.0
  0
VERTEX
  5
4B1
330
4AF
100
AcDbEntity
  8
\U+30EC\U+30A4\U+30E4\U+30FC 1
 62
    18
420
   262144
370
    25
100
AcDbVertex
100
AcDb2dVertex
 10
115.168853052805
 20
-36.98430581757684
 30
0.0
  0
SEQEND
  5
4B2
330
4AF
100
AcDbEntity
  8
\U+30EC\U+30A4\U+30E4\U+30FC 1
370
    25
  0
POLYLINE
  5
4B3
330
1F
100
AcDbEntity
  8
\U+30EC\U+30A4\U+30E4\U+30FC 1
 62
    18
420
   262144
370
    25
100
AcDb2dPolyline
 66
     1
 10
0.0
 20
0.0
 30
0.0
  0
VERTEX
  5
4B4
330
4B3
100
AcDbEntity
  8
\U+30EC\U+30A4\U+30E4\U+30FC 1
 62
    18
420
   262144
370
    25
100
AcDbVertex
100
AcDb2dVertex
 10
115.168853052805
 20
-36.98430581757684
 30
0.0
  0
VERTEX
  5
4B5
330
4B3
100
AcDbEntity
  8
\U+30EC\U+30A4\U+30E4\U+30FC 1
 62
    18
420
   262144
370
    25
100
AcDbVertex
100
AcDb2dVertex
 10
115.0730793983151
 20
-36.93676349988039
 30
0.0
  0
VERTEX
  5
4B6
330
4B3
100
AcDbEntity
  8
\U+30EC\U+30A4\U+30E4\U+30FC 1
 62
    18
420
   262144
370
    25
100
AcDbVertex
100
AcDb2dVertex
 10
114.9311414643228
 20
-36.88922118218395
 30
0.0
  0
VERTEX
  5
4B7
330
4B3
100
AcDbEntity
  8
\U+30EC\U+30A4\U+30E4\U+30FC 1
 62
    18
420
   262144
370
    25
100
AcDbVertex
100
AcDb2dVertex
 10
114.8353678098328
 20
-36.88922118218395
 30
0.0
  0
VERTEX
  5
4B8
330
4B3
100
AcDbEntity
  8
\U+30EC\U+30A4\U+30E4\U+30FC 1
 62
    18
420
   262144
370
    25
100
AcDbVertex
100
AcDb2dVertex
 10
114.6927408567435
 20
-36.88922118218395
 30
0.0
  0
VERTEX
  5
4B9
330
4B3
100
AcDbEntity
  8
\U+30EC\U+30A4\U+30E4\U+30FC 1
 62
    18
420
   262144
370
    25
100
AcDbVertex
100
AcDb2dVertex
 10
114.5976562213506
 20
-36.88922118218395
 30
0.0
  0
VERTEX
  5
4BA
330
4B3
100
AcDbEntity
  8
\U+30EC\U+30A4\U+30E4\U+30FC 1
 62
    18
420
   262144
370
    25
100
AcDbVertex
100
AcDb2dVertex
 10
114.4550292682612
 20
-36.88922118218395
 30
0.0
  0
VERTEX
  5
4BB
330
4B3
100
AcDbEntity
  8
\U+30EC\U+30A4\U+30E4\U+30FC 1
 62
    18
420
   262144
370
    25
100
AcDbVertex
100
AcDb2dVertex
 10
114.3117132960749
 20
-36.93676349988039
 30
0.0
  0
VERTEX
  5
4BC
330
4B3
100
AcDbEntity
  8
\U+30EC\U+30A4\U+30E4\U+30FC 1
 62
    18
420
   262144
370
    25
100
AcDbVertex
100
AcDb2dVertex
 10
114.217317679779
 20
-36.98430581757684
 30
0.0
  0
SEQEND
  5
4BD
330
4B3
100
AcDbEntity
  8
\U+30EC\U+30A4\U+30E4\U+30FC 1
370
    25
  0
POLYLINE
  5
4BE
330
1F
100
AcDbEntity
  8
\U+30EC\U+30A4\U+30E4\U+30FC 1
 62
    18
420
   262144
370
    25
100
AcDb2dPolyline
 66
     1
 10
0.0
 20
0.0
 30
0.0
  0
VERTEX
  5
4BF
330
4BE
100
AcDbEntity
  8
\U+30EC\U+30A4\U+30E4\U+30FC 1
 62
    18
420
   262144
370
    25
100
AcDbVertex
100
AcDb2dVertex
 10
56.32644990996353
 20
-233.6794487263024
 30
0.0
  0
VERTEX
  5
4C0
330
4BE
100
AcDbEntity
  8
\U+30EC\U+30A4\U+30E4\U+30FC 1
 62
    18
420
   262144
370
    25
100
AcDbVertex
100
AcDb2dVertex
 10
58.56231687989067
 20
-235.1546386130863
 30
0.0
  0
SEQEND
  5
4C1
330
4BE
100
AcDbEntity
  8
\U+30EC\U+30A4\U+30E4\U+30FC 1
370
    25
  0
POLYLINE
  5
4C2
330
1F
100
AcDbEntity
  8
\U+30EC\U+30A4\U+30E4\U+30FC 1
 62
    18
420
   262144
370
    25
100
AcDb2dPolyline
 66
     1
 10
0.0
 20
0.0
 30
0.0
  0
VERTEX
  5
4C3
330
4C2
100
AcDbEntity
  8
\U+30EC\U+30A4\U+30E4\U+30FC 1
 62
    18
420
   262144
370
    25
100
AcDbVertex
100
AcDb2dVertex
 10
55.85068222345053
 20
-232.8236870077663
 30
0.0
  0
VERTEX
  5
4C4
330
4C2
100
AcDbEntity
  8
\U+30EC\U+30A4\U+30E4\U+30FC 1
 62
    18
420
   262144
370
    25
100
AcDbVertex
100
AcDb2dVertex
 10
55.85068222345053
 20
-232.9663139608556
 30
0.0
  0
VERTEX
  5
4C5
330
4C2
100
AcDbEntity
  8
\U+30EC\U+30A4\U+30E4\U+30FC 1
 62
    18
420
   262144
370
    25
100
AcDbVertex
100
AcDb2dVertex
 10
55.89788003159845
 20
-233.0613985962486
 30
0.0
  0
VERTEX
  5
4C6
330
4C2
100
AcDbEntity
  8
\U+30EC\U+30A4\U+30E4\U+30FC 1
 62
    18
420
   262144
370
    25
100
AcDbVertex
100
AcDb2dVertex
 10
55.94611136839195
 20
-233.2040255493379
 30
0.0
  0
VERTEX
  5
4C7
330
4C2
100
AcDbEntity
  8
\U+30EC\U+30A4\U+30E4\U+30FC 1
 62
    18
420
   262144
370
    25
100
AcDbVertex
100
AcDb2dVertex
 10
55.99330917653987
 20
-233.2997992038278
 30
0.0
  0
VERTEX
  5
4C8
330
4C2
100
AcDbEntity
  8
\U+30EC\U+30A4\U+30E4\U+30FC 1
 62
    18
420
   262144
370
    25
100
AcDbVertex
100
AcDb2dVertex
 10
56.0405069846878
 20
-233.3941948201237
 30
0.0
  0
VERTEX
  5
4C9
330
4C2
100
AcDbEntity
  8
\U+30EC\U+30A4\U+30E4\U+30FC 1
 62
    18
420
   262144
370
    25
100
AcDbVertex
100
AcDb2dVertex
 10
56.13593612962921
 20
-233.5375107923101
 30
0.0
  0
VERTEX
  5
4CA
330
4C2
100
AcDbEntity
  8
\U+30EC\U+30A4\U+30E4\U+30FC 1
 62
    18
420
   262144
370
    25
100
AcDbVertex
100
AcDb2dVertex
 10
56.23136527457063
 20
-233.5850531100065
 30
0.0
  0
VERTEX
  5
4CB
330
4C2
100
AcDbEntity
  8
\U+30EC\U+30A4\U+30E4\U+30FC 1
 62
    18
420
   262144
370
    25
100
AcDbVertex
100
AcDb2dVertex
 10
56.32644990996353
 20
-233.6794487263024
 30
0.0
  0
SEQEND
  5
4CC
330
4C2
100
AcDbEntity
  8
\U+30EC\U+30A4\U+30E4\U+30FC 1
370
    25
  0
ENDSEC
  0
SECTION
  2
OBJECTS
  0
DICTIONARY
  5
C
330
0
100
AcDbDictionary
281
     1
  3
ACAD_GROUP
350
D
  3
ACAD_LAYOUT
350
1A
  3
ACAD_MLINESTYLE
350
17
  3
ACAD_PLOTSETTINGS
350
19
  3
ACAD_PLOTSTYLENAME
350
E
  3
ACAD_TABLESTYLE
350
4CD
  3
ACAD_VISUALSTYLE
350
2A
  0
DICTIONARY
  5
D
102
{ACAD_REACTORS
330
C
102
}
330
C
100
AcDbDictionary
281
     1
  0
DICTIONARY
  5
1A
102
{ACAD_REACTORS
330
C
102
}
330
C
100
AcDbDictionary
281
     1
  3
Layout1
350
1E
  3
Layout2
350
26
  3
Model
350
22
  0
DICTIONARY
  5
17
102
{ACAD_REACTORS
330
C
102
}
330
C
100
AcDbDictionary
281
     1
  3
Standard
350
18
  0
DICTIONARY
  5
19
102
{ACAD_REACTORS
330
C
102
}
330
C
100
AcDbDictionary
281
     1
  0
ACDBDICTIONARYWDFLT
  5
E
102
{ACAD_REACTORS
330
C
102
}
330
C
100
AcDbDictionary
281
     1
  3
Normal
350
F
100
AcDbDictionaryWithDefault
340
F
  0
DICTIONARY
  5
4CD
102
{ACAD_REACTORS
330
C
102
}
330
C
100
AcDbDictionary
281
     1
  0
DICTIONARY
  5
2A
102
{ACAD_REACTORS
330
C
102
}
330
C
100
AcDbDictionary
281
     1
  3
2dWireframe
350
2F
  3
3D Hidden
350
31
  3
3dWireframe
350
30
  3
Basic
350
32
  3
Brighten
350
36
  3
ColorChange
350
3A
  3
Conceptual
350
34
  3
Dim
350
35
  3
Facepattern
350
39
  3
Flat
350
2B
  3
FlatWithEdges
350
2C
  3
Gouraud
350
2D
  3
GouraudWithEdges
350
2E
  3
Linepattern
350
38
  3
Realistic
350
33
  3
Thicken
350
37
  0
LAYOUT
  5
1E
102
{ACAD_REACTORS
330
1A
102
}
330
1A
100
AcDbPlotSettings
  1

  2
none_device
  4

  6

 40
0.0
 41
0.0
 42
0.0
 43
0.0
 44
0.0
 45
0.0
 46
0.0
 47
0.0
 48
0.0
 49
0.0
140
0.0
141
0.0
142
1.0
143
1.0
 70
   688
 72
     0
 73
     0
 74
     5
  7

 75
    16
 76
     0
 77
     2
 78
   300
147
1.0
148
0.0
149
0.0
100
AcDbLayout
  1
Layout1
 70
     1
 71
     1
 10
0.0
 20
0.0
 11
12.0
 21
9.0
 12
0.0
 22
0.0
 32
0.0
 14
1.000000000000000E+20
 24
1.000000000000000E+20
 34
1.000000000000000E+20
 15
-1.000000000000000E+20
 25
-1.000000000000000E+20
 35
-1.000000000000000E+20
146
0.0
 13
0.0
 23
0.0
 33
0.0
 16
1.0
 26
0.0
 36
0.0
 17
0.0
 27
1.0
 37
0.0
 76
     0
330
1B
  0
LAYOUT
  5
26
102
{ACAD_REACTORS
330
1A
102
}
330
1A
100
AcDbPlotSettings
  1

  2
none_device
  4

  6

 40
0.0
 41
0.0
 42
0.0
 43
0.0
 44
0.0
 45
0.0
 46
0.0
 47
0.0
 48
0.0
 49
0.0
140
0.0
141
0.0
142
1.0
143
1.0
 70
   688
 72
     0
 73
     0
 74
     5
  7

 75
    16
 76
     0
 77
     2
 78
   300
147
1.0
148
0.0
149
0.0
100
AcDbLayout
  1
Layout2
 70
     1
 71
     2
 10
0.0
 20
0.0
 11
0.0
 21
0.0
 12
0.0
 22
0.0
 32
0.0
 14
0.0
 24
0.0
 34
0.0
 15
0.0
 25
0.0
 35
0.0
146
0.0
 13
0.0
 23
0.0
 33
0.0
 16
1.0
 26
0.0
 36
0.0
 17
0.0
 27
1.0
 37
0.0
 76
     0
330
23
  0
LAYOUT
  5
22
102
{ACAD_REACTORS
330
1A
102
}
330
1A
100
AcDbPlotSettings
  1

  2
none_device
  4

  6

 40
0.0
 41
0.0
 42
0.0
 43
0.0
 44
0.0
 45
0.0
 46
0.0
 47
0.0
 48
0.0
 49
0.0
140
0.0
141
0.0
142
1.0
143
1.0
 70
  1712
 72
     0
 73
     0
 74
     0
  7

 75
     0
 76
     0
 77
     2
 78
   300
147
1.0
148
0.0
149
0.0
100
AcDbLayout
  1
Model
 70
     1
 71
     0
 10
0.0
 20
0.0
 11
12.0
 21
9.0
 12
0.0
 22
0.0
 32
0.0
 14
1.000000000000000E+20
 24
1.000000000000000E+20
 34
1.000000000000000E+20
 15
-1.000000000000000E+20
 25
-1.000000000000000E+20
 35
-1.000000000000000E+20
146
0.0
 13
0.0
 23
0.0
 33
0.0
 16
1.0
 26
0.0
 36
0.0
 17
0.0
 27
1.0
 37
0.0
 76
     0
330
1F
331
29
  0
MLINESTYLE
  5
18
102
{ACAD_REACTORS
330
17
102
}
330
17
100
AcDbMlineStyle
  2
Standard
 70
     0
  3

 62
   256
 51
90.0
 52
90.0
 71
     2
 49
0.5
 62
   256
  6
BYLAYER
 49
-0.5
 62
   256
  6
BYLAYER
  0
ACDBPLACEHOLDER
  5
F
102
{ACAD_REACTORS
330
E
102
}
330
E
  0
VISUALSTYLE
  5
2F
102
{ACAD_REACTORS
330
2A
102
}
330
2A
100
AcDbVisualStyle
  2
2dWireframe
 70
     4
 71
     0
 72
     2
 73
     0
 90
        0
 40
-0.6
 41
-30.0
 62
     5
 63
     7
421
 16777215
 74
     1
 91
        4
 64
     7
 65
   257
 75
     1
175
     1
 42
1.0
 92
        0
 66
   257
 43
1.0
 76
     1
 77
     6
 78
     2
 67
     7
 79
     5
170
     0
171
     0
290
     0
174
     0
 93
        1
 44
0.0
173
     0
291
     0
 45
0.0
1001
ACAD
1000
AcDbSavedByObjectVersion
1070
     0
  0
VISUALSTYLE
  5
31
102
{ACAD_REACTORS
330
2A
102
}
330
2A
100
AcDbVisualStyle
  2
3D Hidden
 70
     6
 71
     1
 72
     2
 73
     2
 90
        0
 40
-0.6
 41
-30.0
 62
     5
 63
     7
421
 16777215
 74
     2
 91
        2
 64
     7
 65
   257
 75
     2
175
     1
 42
40.0
 92
        0
 66
   257
 43
1.0
 76
     1
 77
     6
 78
     2
 67
     7
 79
     3
170
     0
171
     0
290
     0
174
     0
 93
        1
 44
0.0
173
     0
291
     0
 45
0.0
1001
ACAD
1000
AcDbSavedByObjectVersion
1070
     0
  0
VISUALSTYLE
  5
30
102
{ACAD_REACTORS
330
2A
102
}
330
2A
100
AcDbVisualStyle
  2
3dWireframe
 70
     5
 71
     0
 72
     2
 73
     0
 90
        0
 40
-0.6
 41
-30.0
 62
     5
 63
     7
421
 16777215
 74
     1
 91
        4
 64
     7
 65
   257
 75
     1
175
     1
 42
1.0
 92
        0
 66
   257
 43
1.0
 76
     1
 77
     6
 78
     2
 67
     7
 79
     5
170
     0
171
     0
290
     0
174
     0
 93
        1
 44
0.0
173
     0
291
     0
 45
0.0
1001
ACAD
1000
AcDbSavedByObjectVersion
1070
     0
  0
VISUALSTYLE
  5
32
102
{ACAD_REACTORS
330
2A
102
}
330
2A
100
AcDbVisualStyle
  2
Basic
 70
     7
 71
     1
 72
     0
 73
     1
 90
        0
 40
-0.6
 41
-30.0
 62
     5
 63
     7
421
 16777215
 74
     0
 91
        4
 64
     7
 65
   257
 75
     1
175
     1
 42
1.0
 92
        8
 66
     7
 43
1.0
 76
     1
 77
     6
 78
     2
 67
     7
 79
     5
170
     0
171
     0
290
     0
174
     0
 93
        1
 44
0.0
173
     0
291
     1
 45
0.0
1001
ACAD
1000
AcDbSavedByObjectVersion
1070
     0
  0
VISUALSTYLE
  5
36
102
{ACAD_REACTORS
330
2A
102
}
330
2A
100
AcDbVisualStyle
  2
Brighten
 70
    12
 71
     2
 72
     2
 73
     0
 90
        0
 40
-0.6
 41
-30.0
 62
     5
 63
     7
421
 16777215
 74
     1
 91
        4
 64
     7
 65
   257
 75
     1
175
     1
 42
1.0
 92
        8
 66
     7
 43
1.0
 76
     1
 77
     6
 78
     2
 67
     7
 79
     5
170
     0
171
     0
290
     0
174
     0
 93
        1
 44
50.0
173
     0
291
     1
 45
0.0
1001
ACAD
1000
AcDbSavedByObjectVersion
1070
     0
  0
VISUALSTYLE
  5
3A
102
{ACAD_REACTORS
330
2A
102
}
330
2A
100
AcDbVisualStyle
  2
ColorChange
 70
    16
 71
     2
 72
     2
 73
     3
 90
        0
 40
-0.6
 41
-30.0
 62
     5
 63
     8
421
  8421504
 74
     1
 91
        4
 64
     7
 65
   257
 75
     1
175
     1
 42
1.0
 92
        8
 66
     8
424
  8421504
 43
1.0
 76
     1
 77
     6
 78
     2
 67
     7
 79
     5
170
     0
171
     0
290
     0
174
     0
 93
        1
 44
0.0
173
     0
291
     1
 45
0.0
1001
ACAD
1000
AcDbSavedByObjectVersion
1070
     0
  0
VISUALSTYLE
  5
34
102
{ACAD_REACTORS
330
2A
102
}
330
2A
100
AcDbVisualStyle
  2
Conceptual
 70
     9
 71
     3
 72
     2
 73
     0
 90
        0
 40
-0.6
 41
-30.0
 62
     5
 63
     7
421
 16777215
 74
     2
 91
        2
 64
     7
 65
   257
 75
     1
175
     1
 42
40.0
 92
        8
 66
     7
 43
1.0
 76
     1
 77
     6
 78
     2
 67
     7
 79
     3
170
     0
171
     0
290
     0
174
     0
 93
        1
 44
0.0
173
     0
291
     0
 45
0.0
1001
ACAD
1000
AcDbSavedByObjectVersion
1070
     0
  0
VISUALSTYLE
  5
35
102
{ACAD_REACTORS
330
2A
102
}
330
2A
100
AcDbVisualStyle
  2
Dim
 70
    11
 71
     2
 72
     2
 73
     0
 90
        0
 40
-0.6
 41
-30.0
 62
     5
 63
     7
421
 16777215
 74
     1
 91
        4
 64
     7
 65
   257
 75
     1
175
     1
 42
1.0
 92
        8
 66
     7
 43
1.0
 76
     1
 77
     6
 78
     2
 67
     7
 79
     5
170
     0
171
     0
290
     0
174
     0
 93
        1
 44
-50.0
173
     0
291
     1
 45
0.0
1001
ACAD
1000
AcDbSavedByObjectVersion
1070
     0
  0
VISUALSTYLE
  5
39
102
{ACAD_REACTORS
330
2A
102
}
330
2A
100
AcDbVisualStyle
  2
Facepattern
 70
    15
 71
     2
 72
     2
 73
     0
 90
        0
 40
-0.6
 41
-30.0
 62
     5
 63
     7
421
 16777215
 74
     1
 91
        4
 64
     7
 65
   257
 75
     1
175
     1
 42
1.0
 92
        8
 66
     7
 43
1.0
 76
     1
 77
     6
 78
     2
 67
     7
 79
     5
170
     0
171
     0
290
     0
174
     0
 93
        1
 44
0.0
173
     0
291
     1
 45
0.0
1001
ACAD
1000
AcDbSavedByObjectVersion
1070
     0
  0
VISUALSTYLE
  5
2B
102
{ACAD_REACTORS
330
2A
102
}
330
2A
100
AcDbVisualStyle
  2
Flat
 70
     0
 71
     2
 72
     1
 73
     1
 90
        2
 40
-0.6
 41
30.0
 62
     5
 63
     7
421
 16777215
 74
     0
 91
        4
 64
     7
 65
   257
 75
     1
175
     1
 42
1.0
 92
        8
 66
     7
 43
1.0
 76
     1
 77
     6
 78
     2
 67
     7
 79
     5
170
     0
171
     0
290
     0
174
     0
 93
       13
 44
0.0
173
     0
291
     1
 45
0.0
1001
ACAD
1000
AcDbSavedByObjectVersion
1070
     0
  0
VISUALSTYLE
  5
2C
102
{ACAD_REACTORS
330
2A
102
}
330
2A
100
AcDbVisualStyle
  2
FlatWithEdges
 70
     1
 71
     2
 72
     1
 73
     1
 90
        2
 40
-0.6
 41
30.0
 62
     5
 63
     7
421
 16777215
 74
     1
 91
        4
 64
     7
 65
   257
 75
     1
175
     1
 42
1.0
 92
        0
 66
   257
 43
1.0
 76
     1
 77
     6
 78
     2
 67
     7
 79
     5
170
     0
171
     0
290
     0
174
     0
 93
       13
 44
0.0
173
     0
291
     1
 45
0.0
1001
ACAD
1000
AcDbSavedByObjectVersion
1070
     0
  0
VISUALSTYLE
  5
2D
102
{ACAD_REACTORS
330
2A
102
}
330
2A
100
AcDbVisualStyle
  2
Gouraud
 70
     2
 71
     2
 72
     2
 73
     1
 90
        2
 40
-0.6
 41
30.0
 62
     5
 63
     7
421
 16777215
 74
     0
 91
        4
 64
     7
 65
   257
 75
     1
175
     1
 42
1.0
 92
        0
 66
     7
 43
1.0
 76
     1
 77
     6
 78
     2
 67
     7
 79
     5
170
     0
171
     0
290
     0
174
     0
 93
       13
 44
0.0
173
     0
291
     1
 45
0.0
1001
ACAD
1000
AcDbSavedByObjectVersion
1070
     0
  0
VISUALSTYLE
  5
2E
102
{ACAD_REACTORS
330
2A
102
}
330
2A
100
AcDbVisualStyle
  2
GouraudWithEdges
 70
     3
 71
     2
 72
     2
 73
     1
 90
        2
 40
-0.6
 41
30.0
 62
     5
 63
     7
421
 16777215
 74
     1
 91
        4
 64
     7
 65
   257
 75
     1
175
     1
 42
1.0
 92
        0
 66
   257
 43
1.0
 76
     1
 77
     6
 78
     2
 67
     7
 79
     5
170
     0
171
     0
290
     0
174
     0
 93
       13
 44
0.0
173
     0
291
     1
 45
0.0
1001
ACAD
1000
AcDbSavedByObjectVersion
1070
     0
  0
VISUALSTYLE
  5
38
102
{ACAD_REACTORS
330
2A
102
}
330
2A
100
AcDbVisualStyle
  2
Linepattern
 70
    14
 71
     2
 72
     2
 73
     0
 90
        0
 40
-0.6
 41
-30.0
 62
     5
 63
     7
421
 16777215
 74
     1
 91
        4
 64
     7
 65
   257
 75
     7
175
     7
 42
1.0
 92
        8
 66
     7
 43
1.0
 76
     1
 77
     6
 78
     2
 67
     7
 79
     5
170
     0
171
     0
290
     0
174
     0
 93
        1
 44
0.0
173
     0
291
     1
 45
0.0
1001
ACAD
1000
AcDbSavedByObjectVersion
1070
     0
  0
VISUALSTYLE
  5
33
102
{ACAD_REACTORS
330
2A
102
}
330
2A
100
AcDbVisualStyle
  2
Realistic
 70
     8
 71
     2
 72
     2
 73
     0
 90
        0
 40
-0.6
 41
-30.0
 62
     5
 63
     7
421
 16777215
 74
     1
 91
        0
 64
     7
 65
   257
 75
     1
175
     1
 42
1.0
 92
        8
 66
     8
424
  7895160
 43
1.0
 76
     1
 77
     6
 78
     2
 67
     7
 79
     5
170
     0
171
     0
290
     0
174
     0
 93
       13
 44
0.0
173
     0
291
     0
 45
0.0
1001
ACAD
1000
AcDbSavedByObjectVersion
1070
     0
  0
VISUALSTYLE
  5
37
102
{ACAD_REACTORS
330
2A
102
}
330
2A
100
AcDbVisualStyle
  2
Thicken
 70
    13
 71
     2
 72
     2
 73
     0
 90
        0
 40
-0.6
 41
-30.0
 62
     5
 63
     7
421
 16777215
 74
     1
 91
        4
 64
     7
 65
   257
 75
     1
175
     1
 42
1.0
 92
       12
 66
     7
 43
1.0
 76
     1
 77
     6
 78
     2
 67
     7
 79
     5
170
     0
171
     0
290
     0
174
     0
 93
        1
 44
0.0
173
     0
291
     1
 45
0.0
1001
ACAD
1000
AcDbSavedByObjectVersion
1070
     0
  0
ENDSEC
  0
EOF
