  0
SECTION
  2
HEADER
  9
$ACADVER
  1
AC1012
  9
$DWGCODEPAGE
  3
ansi_932
  9
$INSBASE
 10
0.0
 20
0.0
 30
0.0
  9
$EXTMIN
 10
1.000000000000000E+20
 20
1.000000000000000E+20
 30
1.000000000000000E+20
  9
$EXTMAX
 10
-1.000000000000000E+20
 20
-1.000000000000000E+20
 30
-1.000000000000000E+20
  9
$LIMMIN
 10
0.0
 20
0.0
  9
$LIMMAX
 10
12.0
 20
9.0
  9
$ORTHOMODE
 70
     0
  9
$REGENMODE
 70
     1
  9
$FILLMODE
 70
     1
  9
$QTEXTMODE
 70
     0
  9
$MIRRTEXT
 70
     1
  9
$DRAGMODE
 70
     2
  9
$LTSCALE
 40
1.0
  9
$OSMODE
 70
    37
  9
$ATTMODE
 70
     1
  9
$TEXTSIZE
 40
0.2
  9
$TRACEWID
 40
0.05
  9
$TEXTSTYLE
  7
STANDARD
  9
$CLAYER
  8
0
  9
$CELTYPE
  6
BYLAYER
  9
$CECOLOR
 62
   256
  9
$CELTSCALE
 40
1.0
  9
$DELOBJ
 70
     1
  9
$DISPSILH
 70
     0
  9
$DIMSCALE
 40
1.0
  9
$DIMASZ
 40
0.18
  9
$DIMEXO
 40
0.0625
  9
$DIMDLI
 40
0.38
  9
$DIMRND
 40
0.0
  9
$DIMDLE
 40
0.0
  9
$DIMEXE
 40
0.18
  9
$DIMTP
 40
0.0
  9
$DIMTM
 40
0.0
  9
$DIMTXT
 40
0.18
  9
$DIMCEN
 40
0.09
  9
$DIMTSZ
 40
0.0
  9
$DIMTOL
 70
     0
  9
$DIMLIM
 70
     0
  9
$DIMTIH
 70
     1
  9
$DIMTOH
 70
     1
  9
$DIMSE1
 70
     0
  9
$DIMSE2
 70
     0
  9
$DIMTAD
 70
     0
  9
$DIMZIN
 70
     0
  9
$DIMBLK
  1

  9
$DIMASO
 70
     1
  9
$DIMSHO
 70
     1
  9
$DIMPOST
  1

  9
$DIMAPOST
  1

  9
$DIMALT
 70
     0
  9
$DIMALTD
 70
     2
  9
$DIMALTF
 40
25.4
  9
$DIMLFAC
 40
1.0
  9
$DIMTOFL
 70
     0
  9
$DIMTVP
 40
0.0
  9
$DIMTIX
 70
     0
  9
$DIMSOXD
 70
     0
  9
$DIMSAH
 70
     0
  9
$DIMBLK1
  1

  9
$DIMBLK2
  1

  9
$DIMSTYLE
  2
STANDARD
  9
$DIMCLRD
 70
     0
  9
$DIMCLRE
 70
     0
  9
$DIMCLRT
 70
     0
  9
$DIMTFAC
 40
1.0
  9
$DIMGAP
 40
0.09
  9
$DIMJUST
 70
     0
  9
$DIMSD1
 70
     0
  9
$DIMSD2
 70
     0
  9
$DIMTOLJ
 70
     1
  9
$DIMTZIN
 70
     0
  9
$DIMALTZ
 70
     0
  9
$DIMALTTZ
 70
     0
  9
$DIMFIT
 70
     3
  9
$DIMUPT
 70
     0
  9
$DIMUNIT
 70
     2
  9
$DIMDEC
 70
     4
  9
$DIMTDEC
 70
     4
  9
$DIMALTU
 70
     2
  9
$DIMALTTD
 70
     2
  9
$DIMTXSTY
  7
STANDARD
  9
$DIMAUNIT
 70
     0
  9
$LUNITS
 70
     2
  9
$LUPREC
 70
     4
  9
$SKETCHINC
 40
0.1
  9
$FILLETRAD
 40
0.5
  9
$AUNITS
 70
     0
  9
$AUPREC
 70
     0
  9
$MENU
  1
.
  9
$ELEVATION
 40
0.0
  9
$PELEVATION
 40
0.0
  9
$THICKNESS
 40
0.0
  9
$LIMCHECK
 70
     0
  9
$CHAMFERA
 40
0.5
  9
$CHAMFERB
 40
0.5
  9
$CHAMFERC
 40
1.0
  9
$CHAMFERD
 40
0.0
  9
$SKPOLY
 70
     0
  9
$TDCREATE
 40
2456856.357316181
  9
$TDUPDATE
 40
2456856.357316192
  9
$TDINDWG
 40
0.0000000116
  9
$TDUSRTIMER
 40
0.0000000116
  9
$USRTIMER
 70
     1
  9
$ANGBASE
 50
0.0
  9
$ANGDIR
 70
     0
  9
$PDMODE
 70
     0
  9
$PDSIZE
 40
0.0
  9
$PLINEWID
 40
0.0
  9
$COORDS
 70
     1
  9
$SPLFRAME
 70
     0
  9
$SPLINETYPE
 70
     6
  9
$SPLINESEGS
 70
     8
  9
$ATTDIA
 70
     0
  9
$ATTREQ
 70
     1
  9
$HANDLING
 70
     1
  9
$HANDSEED
  5
81F
  9
$SURFTAB1
 70
     6
  9
$SURFTAB2
 70
     6
  9
$SURFTYPE
 70
     6
  9
$SURFU
 70
     6
  9
$SURFV
 70
     6
  9
$UCSNAME
  2

  9
$UCSORG
 10
0.0
 20
0.0
 30
0.0
  9
$UCSXDIR
 10
1.0
 20
0.0
 30
0.0
  9
$UCSYDIR
 10
0.0
 20
1.0
 30
0.0
  9
$PUCSNAME
  2

  9
$PUCSORG
 10
0.0
 20
0.0
 30
0.0
  9
$PUCSXDIR
 10
1.0
 20
0.0
 30
0.0
  9
$PUCSYDIR
 10
0.0
 20
1.0
 30
0.0
  9
$USERI1
 70
     0
  9
$USERI2
 70
     0
  9
$USERI3
 70
     0
  9
$USERI4
 70
     0
  9
$USERI5
 70
     0
  9
$USERR1
 40
0.0
  9
$USERR2
 40
0.0
  9
$USERR3
 40
0.0
  9
$USERR4
 40
0.0
  9
$USERR5
 40
0.0
  9
$WORLDVIEW
 70
     1
  9
$SHADEDGE
 70
     3
  9
$SHADEDIF
 70
    70
  9
$TILEMODE
 70
     1
  9
$MAXACTVP
 70
    64
  9
$PINSBASE
 10
0.0
 20
0.0
 30
0.0
  9
$PLIMCHECK
 70
     0
  9
$PEXTMIN
 10
1.000000000000000E+20
 20
1.000000000000000E+20
 30
1.000000000000000E+20
  9
$PEXTMAX
 10
-1.000000000000000E+20
 20
-1.000000000000000E+20
 30
-1.000000000000000E+20
  9
$PLIMMIN
 10
0.0
 20
0.0
  9
$PLIMMAX
 10
12.0
 20
9.0
  9
$UNITMODE
 70
     0
  9
$VISRETAIN
 70
     1
  9
$PLINEGEN
 70
     0
  9
$PSLTSCALE
 70
     1
  9
$TREEDEPTH
 70
  3020
  9
$PICKSTYLE
 70
     1
  9
$CMLSTYLE
  2
STANDARD
  9
$CMLJUST
 70
     0
  9
$CMLSCALE
 40
1.0
  9
$SAVEIMAGES
 70
     1
  0
ENDSEC
  0
SECTION
  2
CLASSES
  0
CLASS
  1
ACDBDICTIONARYWDFLT
  2
AcDbDictionaryWithDefault
  3
ObjectDBX Classes
 90
    32768
280
     0
281
     0
  0
CLASS
  1
VISUALSTYLE
  2
AcDbVisualStyle
  3
ObjectDBX Classes
 90
     4095
280
     0
281
     0
  0
CLASS
  1
XRECORD
  2
AcDbXrecord
  3
AutoCAD 2000
 90
    32768
280
     0
281
     0
  0
CLASS
  1
LWPOLYLINE
  2
AcDbPolyline
  3
AutoCAD 2000
 90
    32768
280
     0
281
     1
  0
CLASS
  1
HATCH
  2
AcDbHatch
  3
AutoCAD 2000
 90
    32768
280
     0
281
     1
  0
CLASS
  1
ACDBPLACEHOLDER
  2
AcDbPlaceHolder
  3
ObjectDBX Classes
 90
        0
280
     0
281
     0
  0
CLASS
  1
LAYOUT
  2
AcDbLayout
  3
ObjectDBX Classes
 90
        0
280
     0
281
     0
  0
ENDSEC
  0
SECTION
  2
TABLES
  0
TABLE
  2
VPORT
  5
8
330
0
100
AcDbSymbolTable
 70
     1
  0
VPORT
  5
29
330
8
100
AcDbSymbolTableRecord
100
AcDbViewportTableRecord
  2
*ACTIVE
 70
     0
 10
0.0
 20
0.0
 11
1.0
 21
1.0
 12
0.0
 22
0.0
 13
0.0
 23
0.0
 14
0.5
 24
0.5
 15
0.5
 25
0.5
 16
0.0
 26
0.0
 36
1.0
 17
105.0008259828644
 27
-148.4999796178229
 37
0.0
 40
296.9999592356459
 41
0.7070763662937379
 42
50.0
 43
0.0
 44
0.0
 50
0.0
 51
0.0
 71
     0
 72
   100
 73
     1
 74
     3
 75
     0
 76
     0
 77
     0
 78
     0
  0
ENDTAB
  0
TABLE
  2
LTYPE
  5
5
330
0
100
AcDbSymbolTable
 70
     1
  0
LTYPE
  5
14
330
5
100
AcDbSymbolTableRecord
100
AcDbLinetypeTableRecord
  2
BYBLOCK
 70
     0
  3

 72
    65
 73
     0
 40
0.0
  0
LTYPE
  5
15
330
5
100
AcDbSymbolTableRecord
100
AcDbLinetypeTableRecord
  2
BYLAYER
 70
     0
  3

 72
    65
 73
     0
 40
0.0
  0
LTYPE
  5
16
330
5
100
AcDbSymbolTableRecord
100
AcDbLinetypeTableRecord
  2
CONTINUOUS
 70
     0
  3
Solid line
 72
    65
 73
     0
 40
0.0
  0
ENDTAB
  0
TABLE
  2
LAYER
  5
2
330
0
100
AcDbSymbolTable
 70
     2
  0
LAYER
  5
10
330
2
100
AcDbSymbolTableRecord
100
AcDbLayerTableRecord
  2
0
 70
     0
 62
     7
  6
CONTINUOUS
  0
LAYER
  5
3B
330
2
100
AcDbSymbolTableRecord
100
AcDbLayerTableRecord
  2
\U+838C\U+8343\U+8384\U+815B_1
 70
     0
 62
     7
  6
CONTINUOUS
  0
ENDTAB
  0
TABLE
  2
STYLE
  5
3
330
0
100
AcDbSymbolTable
 70
     1
  0
STYLE
  5
11
330
3
100
AcDbSymbolTableRecord
100
AcDbTextStyleTableRecord
  2
STANDARD
 70
     0
 40
0.0
 41
1.0
 50
0.0
 71
     0
 42
0.2
  3
txt
  4

  0
ENDTAB
  0
TABLE
  2
VIEW
  5
6
330
0
100
AcDbSymbolTable
 70
     0
  0
ENDTAB
  0
TABLE
  2
UCS
  5
7
330
0
100
AcDbSymbolTable
 70
     0
  0
ENDTAB
  0
TABLE
  2
APPID
  5
9
330
0
100
AcDbSymbolTable
 70
     1
  0
APPID
  5
12
330
9
100
AcDbSymbolTableRecord
100
AcDbRegAppTableRecord
  2
ACAD
 70
     0
  0
ENDTAB
  0
TABLE
  2
DIMSTYLE
  5
A
330
0
100
AcDbSymbolTable
 70
     1
  0
DIMSTYLE
105
27
330
A
100
AcDbSymbolTableRecord
100
AcDbDimStyleTableRecord
  2
STANDARD
 70
     0
  3

  4

  5

  6

  7

 40
1.0
 41
0.18
 42
0.0625
 43
0.38
 44
0.18
 45
0.0
 46
0.0
 47
0.0
 48
0.0
140
0.18
141
0.09
142
0.0
143
25.4
144
1.0
145
0.0
146
1.0
147
0.09
 71
     0
 72
     0
 73
     1
 74
     1
 75
     0
 76
     0
 77
     0
 78
     0
170
     0
171
     2
172
     0
173
     0
174
     0
175
     0
176
     0
177
     0
178
     0
270
     2
271
     4
272
     4
273
     2
274
     2
340
11
275
     0
280
     0
281
     0
282
     0
283
     1
284
     0
285
     0
286
     0
287
     3
288
     0
  0
ENDTAB
  0
TABLE
  2
BLOCK_RECORD
  5
1
330
0
100
AcDbSymbolTable
 70
     2
  0
BLOCK_RECORD
  5
1F
330
1
100
AcDbSymbolTableRecord
100
AcDbBlockTableRecord
  2
*MODEL_SPACE
  0
BLOCK_RECORD
  5
1B
330
1
100
AcDbSymbolTableRecord
100
AcDbBlockTableRecord
  2
*PAPER_SPACE
  0
BLOCK_RECORD
  5
3C
330
1
100
AcDbSymbolTableRecord
100
AcDbBlockTableRecord
  2
BLOCK_2
  0
ENDTAB
  0
ENDSEC
  0
SECTION
  2
BLOCKS
  0
BLOCK
  5
20
330
1F
100
AcDbEntity
  8
0
100
AcDbBlockBegin
  2
*MODEL_SPACE
 70
     0
 71
     0
 10
0.0
 20
0.0
 30
0.0
  3
*MODEL_SPACE
  1

  0
ENDBLK
  5
21
330
1F
100
AcDbEntity
  8
0
100
AcDbBlockEnd
  0
BLOCK
  5
1C
330
1B
100
AcDbEntity
 67
     1
  8
0
100
AcDbBlockBegin
  2
*PAPER_SPACE
 70
     0
 71
     0
 10
0.0
 20
0.0
 30
0.0
  3
*PAPER_SPACE
  1

  0
ENDBLK
  5
1D
330
1B
100
AcDbEntity
 67
     1
  8
0
100
AcDbBlockEnd
  0
BLOCK
  5
3E
330
3C
100
AcDbEntity
  8
0
100
AcDbBlockBegin
  2
BLOCK_2
 70
     0
 71
     0
 10
0.0
 20
0.0
 30
0.0
  3
BLOCK_2
  1

  0
POLYLINE
  5
40
330
3C
100
AcDbEntity
  8
\U+838C\U+8343\U+8384\U+815B_1
100
AcDb2dPolyline
 66
     1
 10
0.0
 20
0.0
 30
0.0
  0
VERTEX
  5
41
330
40
100
AcDbEntity
  8
\U+838C\U+8343\U+8384\U+815B_1
100
AcDbVertex
100
AcDb2dVertex
 10
99.68883325415766
 20
-214.0334472121166
 30
0.0
  0
VERTEX
  5
42
330
40
100
AcDbEntity
  8
\U+838C\U+8343\U+8384\U+815B_1
100
AcDbVertex
100
AcDb2dVertex
 10
97.44693736713133
 20
-214.1168185228597
 30
0.0
  0
VERTEX
  5
43
330
40
100
AcDbEntity
  8
\U+838C\U+8343\U+8384\U+815B_1
100
AcDbVertex
100
AcDb2dVertex
 10
95.35834822919861
 20
-214.1168185228597
 30
0.0
  0
VERTEX
  5
44
330
40
100
AcDbEntity
  8
\U+838C\U+8343\U+8384\U+815B_1
100
AcDbVertex
100
AcDb2dVertex
 10
93.67352428213718
 20
-214.2008788526998
 30
0.0
  0
VERTEX
  5
45
330
40
100
AcDbEntity
  8
\U+838C\U+8343\U+8384\U+815B_1
100
AcDbVertex
100
AcDb2dVertex
 10
92.23933103162767
 20
-214.2704697815018
 30
0.0
  0
VERTEX
  5
46
330
40
100
AcDbEntity
  8
\U+838C\U+8343\U+8384\U+815B_1
100
AcDbVertex
100
AcDb2dVertex
 10
90.7911851444029
 20
-214.3538410922449
 30
0.0
  0
VERTEX
  5
47
330
40
100
AcDbEntity
  8
\U+838C\U+8343\U+8384\U+815B_1
100
AcDbVertex
100
AcDb2dVertex
 10
90.55450708456624
 20
-214.3538410922449
 30
0.0
  0
VERTEX
  5
48
330
40
100
AcDbEntity
  8
\U+838C\U+8343\U+8384\U+815B_1
100
AcDbVertex
100
AcDb2dVertex
 10
90.30387638801432
 20
-214.4372124029879
 30
0.0
  0
SEQEND
  5
49
330
40
100
AcDbEntity
  8
\U+838C\U+8343\U+8384\U+815B_1
  0
POLYLINE
  5
4A
330
3C
100
AcDbEntity
  8
\U+838C\U+8343\U+8384\U+815B_1
100
AcDb2dPolyline
 66
     1
 10
0.0
 20
0.0
 30
0.0
  0
VERTEX
  5
4B
330
4A
100
AcDbEntity
  8
\U+838C\U+8343\U+8384\U+815B_1
100
AcDbVertex
100
AcDb2dVertex
 10
99.68883325415766
 20
-214.0334472121166
 30
0.0
  0
VERTEX
  5
4C
330
4A
100
AcDbEntity
  8
\U+838C\U+8343\U+8384\U+815B_1
100
AcDbVertex
100
AcDb2dVertex
 10
99.71656627281392
 20
-214.0334472121166
 30
0.0
  0
SEQEND
  5
4D
330
4A
100
AcDbEntity
  8
\U+838C\U+8343\U+8384\U+815B_1
  0
POLYLINE
  5
4E
330
3C
100
AcDbEntity
  8
\U+838C\U+8343\U+8384\U+815B_1
100
AcDb2dPolyline
 66
     1
 10
0.0
 20
0.0
 30
0.0
  0
VERTEX
  5
4F
330
4E
100
AcDbEntity
  8
\U+838C\U+8343\U+8384\U+815B_1
100
AcDbVertex
100
AcDb2dVertex
 10
99.68883325415766
 20
-214.0334472121166
 30
0.0
  0
VERTEX
  5
50
330
4E
100
AcDbEntity
  8
\U+838C\U+8343\U+8384\U+815B_1
100
AcDbVertex
100
AcDb2dVertex
 10
99.68883325415766
 20
-213.9500759013736
 30
0.0
  0
VERTEX
  5
51
330
4E
100
AcDbEntity
  8
\U+838C\U+8343\U+8384\U+815B_1
100
AcDbVertex
100
AcDb2dVertex
 10
99.60528968864035
 20
-213.9500759013736
 30
0.0
  0
VERTEX
  5
52
330
4E
100
AcDbEntity
  8
\U+838C\U+8343\U+8384\U+815B_1
100
AcDbVertex
100
AcDb2dVertex
 10
99.60528968864035
 20
-213.8667045906305
 30
0.0
  0
VERTEX
  5
53
330
4E
100
AcDbEntity
  8
\U+838C\U+8343\U+8384\U+815B_1
100
AcDbVertex
100
AcDb2dVertex
 10
99.60528968864035
 20
-213.7971136618285
 30
0.0
  0
VERTEX
  5
54
330
4E
100
AcDbEntity
  8
\U+838C\U+8343\U+8384\U+815B_1
100
AcDbVertex
100
AcDb2dVertex
 10
99.60528968864035
 20
-213.7130533319884
 30
0.0
  0
VERTEX
  5
55
330
4E
100
AcDbEntity
  8
\U+838C\U+8343\U+8384\U+815B_1
100
AcDbVertex
100
AcDb2dVertex
 10
99.60528968864035
 20
-213.6296820212454
 30
0.0
  0
SEQEND
  5
56
330
4E
100
AcDbEntity
  8
\U+838C\U+8343\U+8384\U+815B_1
  0
POLYLINE
  5
57
330
3C
100
AcDbEntity
  8
\U+838C\U+8343\U+8384\U+815B_1
100
AcDb2dPolyline
 66
     1
 10
0.0
 20
0.0
 30
0.0
  0
VERTEX
  5
58
330
57
100
AcDbEntity
  8
\U+838C\U+8343\U+8384\U+815B_1
100
AcDbVertex
100
AcDb2dVertex
 10
99.68883325415766
 20
-214.0334472121166
 30
0.0
  0
VERTEX
  5
59
330
57
100
AcDbEntity
  8
\U+838C\U+8343\U+8384\U+815B_1
100
AcDbVertex
100
AcDb2dVertex
 10
99.71656627281392
 20
-214.0334472121166
 30
0.0
  0
SEQEND
  5
5A
330
57
100
AcDbEntity
  8
\U+838C\U+8343\U+8384\U+815B_1
  0
POLYLINE
  5
5B
330
3C
100
AcDbEntity
  8
\U+838C\U+8343\U+8384\U+815B_1
100
AcDb2dPolyline
 66
     1
 10
0.0
 20
0.0
 30
0.0
  0
VERTEX
  5
5C
330
5B
100
AcDbEntity
  8
\U+838C\U+8343\U+8384\U+815B_1
100
AcDbVertex
100
AcDb2dVertex
 10
102.7382595229266
 20
-214.0334472121166
 30
0.0
  0
VERTEX
  5
5D
330
5B
100
AcDbEntity
  8
\U+838C\U+8343\U+8384\U+815B_1
100
AcDbVertex
100
AcDb2dVertex
 10
102.7382595229266
 20
-213.9500759013736
 30
0.0
  0
VERTEX
  5
5E
330
5B
100
AcDbEntity
  8
\U+838C\U+8343\U+8384\U+815B_1
100
AcDbVertex
100
AcDb2dVertex
 10
102.7382595229266
 20
-213.8667045906305
 30
0.0
  0
VERTEX
  5
5F
330
5B
100
AcDbEntity
  8
\U+838C\U+8343\U+8384\U+815B_1
100
AcDbVertex
100
AcDb2dVertex
 10
102.6547159574092
 20
-213.7971136618285
 30
0.0
  0
VERTEX
  5
60
330
5B
100
AcDbEntity
  8
\U+838C\U+8343\U+8384\U+815B_1
100
AcDbVertex
100
AcDb2dVertex
 10
102.6547159574092
 20
-213.7130533319884
 30
0.0
  0
VERTEX
  5
61
330
5B
100
AcDbEntity
  8
\U+838C\U+8343\U+8384\U+815B_1
100
AcDbVertex
100
AcDb2dVertex
 10
102.6547159574092
 20
-213.6296820212454
 30
0.0
  0
VERTEX
  5
62
330
5B
100
AcDbEntity
  8
\U+838C\U+8343\U+8384\U+815B_1
100
AcDbVertex
100
AcDb2dVertex
 10
102.6547159574092
 20
-213.5463107105023
 30
0.0
  0
SEQEND
  5
63
330
5B
100
AcDbEntity
  8
\U+838C\U+8343\U+8384\U+815B_1
  0
POLYLINE
  5
64
330
3C
100
AcDbEntity
  8
\U+838C\U+8343\U+8384\U+815B_1
100
AcDb2dPolyline
 66
     1
 10
0.0
 20
0.0
 30
0.0
  0
VERTEX
  5
65
330
64
100
AcDbEntity
  8
\U+838C\U+8343\U+8384\U+815B_1
100
AcDbVertex
100
AcDb2dVertex
 10
102.7382595229266
 20
-214.0334472121166
 30
0.0
  0
VERTEX
  5
66
330
64
100
AcDbEntity
  8
\U+838C\U+8343\U+8384\U+815B_1
100
AcDbVertex
100
AcDb2dVertex
 10
102.7659925415828
 20
-214.0334472121166
 30
0.0
  0
SEQEND
  5
67
330
64
100
AcDbEntity
  8
\U+838C\U+8343\U+8384\U+815B_1
  0
POLYLINE
  5
68
330
3C
100
AcDbEntity
  8
\U+838C\U+8343\U+8384\U+815B_1
100
AcDb2dPolyline
 66
     1
 10
0.0
 20
0.0
 30
0.0
  0
VERTEX
  5
69
330
68
100
AcDbEntity
  8
\U+838C\U+8343\U+8384\U+815B_1
100
AcDbVertex
100
AcDb2dVertex
 10
99.77237681967496
 20
-214.0334472121166
 30
0.0
  0
VERTEX
  5
6A
330
68
100
AcDbEntity
  8
\U+838C\U+8343\U+8384\U+815B_1
100
AcDbVertex
100
AcDb2dVertex
 10
99.68883325415766
 20
-214.0334472121166
 30
0.0
  0
SEQEND
  5
6B
330
68
100
AcDbEntity
  8
\U+838C\U+8343\U+8384\U+815B_1
  0
POLYLINE
  5
6C
330
3C
100
AcDbEntity
  8
\U+838C\U+8343\U+8384\U+815B_1
100
AcDb2dPolyline
 66
     1
 10
0.0
 20
0.0
 30
0.0
  0
VERTEX
  5
6D
330
6C
100
AcDbEntity
  8
\U+838C\U+8343\U+8384\U+815B_1
100
AcDbVertex
100
AcDb2dVertex
 10
99.77237681967496
 20
-214.0334472121166
 30
0.0
  0
VERTEX
  5
6E
330
6C
100
AcDbEntity
  8
\U+838C\U+8343\U+8384\U+815B_1
100
AcDbVertex
100
AcDb2dVertex
 10
99.8002820931055
 20
-214.0334472121166
 30
0.0
  0
SEQEND
  5
6F
330
6C
100
AcDbEntity
  8
\U+838C\U+8343\U+8384\U+815B_1
  0
POLYLINE
  5
70
330
3C
100
AcDbEntity
  8
\U+838C\U+8343\U+8384\U+815B_1
100
AcDb2dPolyline
 66
     1
 10
0.0
 20
0.0
 30
0.0
  0
VERTEX
  5
71
330
70
100
AcDbEntity
  8
\U+838C\U+8343\U+8384\U+815B_1
100
AcDbVertex
100
AcDb2dVertex
 10
119.099017982378
 20
-214.9939398334043
 30
0.0
  0
VERTEX
  5
72
330
70
100
AcDbEntity
  8
\U+838C\U+8343\U+8384\U+815B_1
100
AcDbVertex
100
AcDb2dVertex
 10
119.015646671635
 20
-214.9939398334043
 30
0.0
  0
VERTEX
  5
73
330
70
100
AcDbEntity
  8
\U+838C\U+8343\U+8384\U+815B_1
100
AcDbVertex
100
AcDb2dVertex
 10
118.6118814807637
 20
-214.8409775938592
 30
0.0
  0
VERTEX
  5
74
330
70
100
AcDbEntity
  8
\U+838C\U+8343\U+8384\U+815B_1
100
AcDbVertex
100
AcDb2dVertex
 10
117.8181314809621
 20
-214.7576062831162
 30
0.0
  0
VERTEX
  5
75
330
70
100
AcDbEntity
  8
\U+838C\U+8343\U+8384\U+815B_1
100
AcDbVertex
100
AcDb2dVertex
 10
116.6068359083483
 20
-214.6742349723731
 30
0.0
  0
VERTEX
  5
76
330
70
100
AcDbEntity
  8
\U+838C\U+8343\U+8384\U+815B_1
100
AcDbVertex
100
AcDb2dVertex
 10
115.1726426578388
 20
-214.590174642533
 30
0.0
  0
VERTEX
  5
77
330
70
100
AcDbEntity
  8
\U+838C\U+8343\U+8384\U+815B_1
100
AcDbVertex
100
AcDb2dVertex
 10
113.40427514526
 20
-214.520583713731
 30
0.0
  0
VERTEX
  5
78
330
70
100
AcDbEntity
  8
\U+838C\U+8343\U+8384\U+815B_1
100
AcDbVertex
100
AcDb2dVertex
 10
111.3155137525531
 20
-214.4372124029879
 30
0.0
  0
VERTEX
  5
79
330
70
100
AcDbEntity
  8
\U+838C\U+8343\U+8384\U+815B_1
100
AcDbVertex
100
AcDb2dVertex
 10
108.9900743000094
 20
-214.3538410922449
 30
0.0
  0
VERTEX
  5
7A
330
70
100
AcDbEntity
  8
\U+838C\U+8343\U+8384\U+815B_1
100
AcDbVertex
100
AcDb2dVertex
 10
106.5953884282123
 20
-214.2704697815018
 30
0.0
  0
VERTEX
  5
7B
330
70
100
AcDbEntity
  8
\U+838C\U+8343\U+8384\U+815B_1
100
AcDbVertex
100
AcDb2dVertex
 10
104.0193182791167
 20
-214.2008788526998
 30
0.0
  0
VERTEX
  5
7C
330
70
100
AcDbEntity
  8
\U+838C\U+8343\U+8384\U+815B_1
100
AcDbVertex
100
AcDb2dVertex
 10
101.2901136357018
 20
-214.1168185228597
 30
0.0
  0
VERTEX
  5
7D
330
70
100
AcDbEntity
  8
\U+838C\U+8343\U+8384\U+815B_1
100
AcDbVertex
100
AcDb2dVertex
 10
99.85592038519228
 20
-214.0334472121166
 30
0.0
  0
VERTEX
  5
7E
330
70
100
AcDbEntity
  8
\U+838C\U+8343\U+8384\U+815B_1
100
AcDbVertex
100
AcDb2dVertex
 10
99.77237681967496
 20
-214.0334472121166
 30
0.0
  0
SEQEND
  5
7F
330
70
100
AcDbEntity
  8
\U+838C\U+8343\U+8384\U+815B_1
  0
POLYLINE
  5
80
330
3C
100
AcDbEntity
  8
\U+838C\U+8343\U+8384\U+815B_1
100
AcDb2dPolyline
 66
     1
 10
0.0
 20
0.0
 30
0.0
  0
VERTEX
  5
81
330
80
100
AcDbEntity
  8
\U+838C\U+8343\U+8384\U+815B_1
100
AcDbVertex
100
AcDb2dVertex
 10
90.30387638801432
 20
-214.2704697815018
 30
0.0
  0
VERTEX
  5
82
330
80
100
AcDbEntity
  8
\U+838C\U+8343\U+8384\U+815B_1
100
AcDbVertex
100
AcDb2dVertex
 10
90.23428545921226
 20
-214.2704697815018
 30
0.0
  0
VERTEX
  5
83
330
80
100
AcDbEntity
  8
\U+838C\U+8343\U+8384\U+815B_1
100
AcDbVertex
100
AcDb2dVertex
 10
90.55450708456624
 20
-214.2008788526998
 30
0.0
  0
VERTEX
  5
84
330
80
100
AcDbEntity
  8
\U+838C\U+8343\U+8384\U+815B_1
100
AcDbVertex
100
AcDb2dVertex
 10
91.11140676975687
 20
-214.1168185228597
 30
0.0
  0
VERTEX
  5
85
330
80
100
AcDbEntity
  8
\U+838C\U+8343\U+8384\U+815B_1
100
AcDbVertex
100
AcDb2dVertex
 10
92.15578746611037
 20
-214.0334472121166
 30
0.0
  0
VERTEX
  5
86
330
80
100
AcDbEntity
  8
\U+838C\U+8343\U+8384\U+815B_1
100
AcDbVertex
100
AcDb2dVertex
 10
93.52038978781782
 20
-213.8667045906305
 30
0.0
  0
VERTEX
  5
87
330
80
100
AcDbEntity
  8
\U+838C\U+8343\U+8384\U+815B_1
100
AcDbVertex
100
AcDb2dVertex
 10
95.27480466368131
 20
-213.7971136618285
 30
0.0
  0
VERTEX
  5
88
330
80
100
AcDbEntity
  8
\U+838C\U+8343\U+8384\U+815B_1
100
AcDbVertex
100
AcDb2dVertex
 10
97.2798502360967
 20
-213.7130533319884
 30
0.0
  0
VERTEX
  5
89
330
80
100
AcDbEntity
  8
\U+838C\U+8343\U+8384\U+815B_1
100
AcDbVertex
100
AcDb2dVertex
 10
99.5356987598383
 20
-213.6296820212454
 30
0.0
  0
VERTEX
  5
8A
330
80
100
AcDbEntity
  8
\U+838C\U+8343\U+8384\U+815B_1
100
AcDbVertex
100
AcDb2dVertex
 10
99.60528968864035
 20
-213.6296820212454
 30
0.0
  0
SEQEND
  5
8B
330
80
100
AcDbEntity
  8
\U+838C\U+8343\U+8384\U+815B_1
  0
POLYLINE
  5
8C
330
3C
100
AcDbEntity
  8
\U+838C\U+8343\U+8384\U+815B_1
100
AcDb2dPolyline
 66
     1
 10
0.0
 20
0.0
 30
0.0
  0
VERTEX
  5
8D
330
8C
100
AcDbEntity
  8
\U+838C\U+8343\U+8384\U+815B_1
100
AcDbVertex
100
AcDb2dVertex
 10
99.60528968864035
 20
-213.6296820212454
 30
0.0
  0
VERTEX
  5
8E
330
8C
100
AcDbEntity
  8
\U+838C\U+8343\U+8384\U+815B_1
100
AcDbVertex
100
AcDb2dVertex
 10
101.2901136357018
 20
-213.5463107105023
 30
0.0
  0
VERTEX
  5
8F
330
8C
100
AcDbEntity
  8
\U+838C\U+8343\U+8384\U+815B_1
100
AcDbVertex
100
AcDb2dVertex
 10
102.6547159574092
 20
-213.5463107105023
 30
0.0
  0
SEQEND
  5
90
330
8C
100
AcDbEntity
  8
\U+838C\U+8343\U+8384\U+815B_1
  0
POLYLINE
  5
91
330
3C
100
AcDbEntity
  8
\U+838C\U+8343\U+8384\U+815B_1
100
AcDb2dPolyline
 66
     1
 10
0.0
 20
0.0
 30
0.0
  0
VERTEX
  5
92
330
91
100
AcDbEntity
  8
\U+838C\U+8343\U+8384\U+815B_1
100
AcDbVertex
100
AcDb2dVertex
 10
102.6547159574092
 20
-213.5463107105023
 30
0.0
  0
VERTEX
  5
93
330
91
100
AcDbEntity
  8
\U+838C\U+8343\U+8384\U+815B_1
100
AcDbVertex
100
AcDb2dVertex
 10
104.743305095342
 20
-213.5463107105023
 30
0.0
  0
VERTEX
  5
94
330
91
100
AcDbEntity
  8
\U+838C\U+8343\U+8384\U+815B_1
100
AcDbVertex
100
AcDb2dVertex
 10
106.915437798792
 20
-213.5463107105023
 30
0.0
  0
SEQEND
  5
95
330
91
100
AcDbEntity
  8
\U+838C\U+8343\U+8384\U+815B_1
  0
POLYLINE
  5
96
330
3C
100
AcDbEntity
  8
\U+838C\U+8343\U+8384\U+815B_1
100
AcDb2dPolyline
 66
     1
 10
0.0
 20
0.0
 30
0.0
  0
VERTEX
  5
97
330
96
100
AcDbEntity
  8
\U+838C\U+8343\U+8384\U+815B_1
100
AcDbVertex
100
AcDb2dVertex
 10
106.915437798792
 20
-213.5463107105023
 30
0.0
  0
VERTEX
  5
98
330
96
100
AcDbEntity
  8
\U+838C\U+8343\U+8384\U+815B_1
100
AcDbVertex
100
AcDb2dVertex
 10
108.9204833712074
 20
-213.5463107105023
 30
0.0
  0
SEQEND
  5
99
330
96
100
AcDbEntity
  8
\U+838C\U+8343\U+8384\U+815B_1
  0
POLYLINE
  5
9A
330
3C
100
AcDbEntity
  8
\U+838C\U+8343\U+8384\U+815B_1
100
AcDb2dPolyline
 66
     1
 10
0.0
 20
0.0
 30
0.0
  0
VERTEX
  5
9B
330
9A
100
AcDbEntity
  8
\U+838C\U+8343\U+8384\U+815B_1
100
AcDbVertex
100
AcDb2dVertex
 10
108.9204833712074
 20
-213.5463107105023
 30
0.0
  0
VERTEX
  5
9C
330
9A
100
AcDbEntity
  8
\U+838C\U+8343\U+8384\U+815B_1
100
AcDbVertex
100
AcDb2dVertex
 10
110.9255289436228
 20
-213.5463107105023
 30
0.0
  0
VERTEX
  5
9D
330
9A
100
AcDbEntity
  8
\U+838C\U+8343\U+8384\U+815B_1
100
AcDbVertex
100
AcDb2dVertex
 10
112.8472032052951
 20
-213.5463107105023
 30
0.0
  0
VERTEX
  5
9E
330
9A
100
AcDbEntity
  8
\U+838C\U+8343\U+8384\U+815B_1
100
AcDbVertex
100
AcDb2dVertex
 10
114.5321994071308
 20
-213.5463107105023
 30
0.0
  0
VERTEX
  5
9F
330
9A
100
AcDbEntity
  8
\U+838C\U+8343\U+8384\U+815B_1
100
AcDbVertex
100
AcDb2dVertex
 10
116.0497639683834
 20
-213.5463107105023
 30
0.0
  0
VERTEX
  5
A0
330
9A
100
AcDbEntity
  8
\U+838C\U+8343\U+8384\U+815B_1
100
AcDbVertex
100
AcDb2dVertex
 10
117.4143662900909
 20
-213.5463107105023
 30
0.0
  0
VERTEX
  5
A1
330
9A
100
AcDbEntity
  8
\U+838C\U+8343\U+8384\U+815B_1
100
AcDbVertex
100
AcDb2dVertex
 10
118.4585747316701
 20
-213.5463107105023
 30
0.0
  0
VERTEX
  5
A2
330
9A
100
AcDbEntity
  8
\U+838C\U+8343\U+8384\U+815B_1
100
AcDbVertex
100
AcDb2dVertex
 10
119.2664496229612
 20
-213.5463107105023
 30
0.0
  0
VERTEX
  5
A3
330
9A
100
AcDbEntity
  8
\U+838C\U+8343\U+8384\U+815B_1
100
AcDbVertex
100
AcDb2dVertex
 10
119.7398057426345
 20
-213.5463107105023
 30
0.0
  0
VERTEX
  5
A4
330
9A
100
AcDbEntity
  8
\U+838C\U+8343\U+8384\U+815B_1
100
AcDbVertex
100
AcDb2dVertex
 10
119.9764838024712
 20
-213.5463107105023
 30
0.0
  0
SEQEND
  5
A5
330
9A
100
AcDbEntity
  8
\U+838C\U+8343\U+8384\U+815B_1
  0
POLYLINE
  5
A6
330
3C
100
AcDbEntity
  8
\U+838C\U+8343\U+8384\U+815B_1
100
AcDb2dPolyline
 66
     1
 10
0.0
 20
0.0
 30
0.0
  0
VERTEX
  5
A7
330
A6
100
AcDbEntity
  8
\U+838C\U+8343\U+8384\U+815B_1
100
AcDbVertex
100
AcDb2dVertex
 10
119.9764838024712
 20
-228.2224174776666
 30
0.0
  0
VERTEX
  5
A8
330
A6
100
AcDbEntity
  8
\U+838C\U+8343\U+8384\U+815B_1
100
AcDbVertex
100
AcDb2dVertex
 10
119.9068928736691
 20
-228.3057887884097
 30
0.0
  0
VERTEX
  5
A9
330
A6
100
AcDbEntity
  8
\U+838C\U+8343\U+8384\U+815B_1
100
AcDbVertex
100
AcDb2dVertex
 10
119.4194118625063
 20
-228.4732204289928
 30
0.0
  0
VERTEX
  5
AA
330
A6
100
AcDbEntity
  8
\U+838C\U+8343\U+8384\U+815B_1
100
AcDbVertex
100
AcDb2dVertex
 10
118.4585747316701
 20
-228.5428113577949
 30
0.0
  0
VERTEX
  5
AB
330
A6
100
AcDbEntity
  8
\U+838C\U+8343\U+8384\U+815B_1
100
AcDbVertex
100
AcDb2dVertex
 10
117.1776882302542
 20
-228.6261826685379
 30
0.0
  0
VERTEX
  5
AC
330
A6
100
AcDbEntity
  8
\U+838C\U+8343\U+8384\U+815B_1
100
AcDbVertex
100
AcDb2dVertex
 10
115.5764078487101
 20
-228.793614309121
 30
0.0
  0
VERTEX
  5
AD
330
A6
100
AcDbEntity
  8
\U+838C\U+8343\U+8384\U+815B_1
100
AcDbVertex
100
AcDb2dVertex
 10
113.6409532050967
 20
-228.8632052379231
 30
0.0
  0
VERTEX
  5
AE
330
A6
100
AcDbEntity
  8
\U+838C\U+8343\U+8384\U+815B_1
100
AcDbVertex
100
AcDb2dVertex
 10
111.4826008835877
 20
-229.0299478594092
 30
0.0
  0
VERTEX
  5
AF
330
A6
100
AcDbEntity
  8
\U+838C\U+8343\U+8384\U+815B_1
100
AcDbVertex
100
AcDb2dVertex
 10
109.073790120301
 20
-229.1133191701522
 30
0.0
  0
VERTEX
  5
B0
330
A6
100
AcDbEntity
  8
\U+838C\U+8343\U+8384\U+815B_1
100
AcDbVertex
100
AcDb2dVertex
 10
106.5953884282123
 20
-229.1829100989543
 30
0.0
  0
VERTEX
  5
B1
330
A6
100
AcDbEntity
  8
\U+838C\U+8343\U+8384\U+815B_1
100
AcDbVertex
100
AcDb2dVertex
 10
104.102861844634
 20
-229.3503417395374
 30
0.0
  0
VERTEX
  5
B2
330
A6
100
AcDbEntity
  8
\U+838C\U+8343\U+8384\U+815B_1
100
AcDbVertex
100
AcDb2dVertex
 10
101.6103352610558
 20
-229.4337130502805
 30
0.0
  0
VERTEX
  5
B3
330
A6
100
AcDbEntity
  8
\U+838C\U+8343\U+8384\U+815B_1
100
AcDbVertex
100
AcDb2dVertex
 10
99.21530487971006
 20
-229.5033039790825
 30
0.0
  0
VERTEX
  5
B4
330
A6
100
AcDbEntity
  8
\U+838C\U+8343\U+8384\U+815B_1
100
AcDbVertex
100
AcDb2dVertex
 10
95.92920055110451
 20
-229.7541069304087
 30
0.0
  0
SEQEND
  5
B5
330
A6
100
AcDbEntity
  8
\U+838C\U+8343\U+8384\U+815B_1
  0
POLYLINE
  5
B6
330
3C
100
AcDbEntity
  8
\U+838C\U+8343\U+8384\U+815B_1
100
AcDb2dPolyline
 66
     1
 10
0.0
 20
0.0
 30
0.0
  0
VERTEX
  5
B7
330
B6
100
AcDbEntity
  8
\U+838C\U+8343\U+8384\U+815B_1
100
AcDbVertex
100
AcDb2dVertex
 10
119.9764838024712
 20
-224.1427354040338
 30
0.0
  0
VERTEX
  5
B8
330
B6
100
AcDbEntity
  8
\U+838C\U+8343\U+8384\U+815B_1
100
AcDbVertex
100
AcDb2dVertex
 10
119.8231770533775
 20
-224.2123263328358
 30
0.0
  0
VERTEX
  5
B9
330
B6
100
AcDbEntity
  8
\U+838C\U+8343\U+8384\U+815B_1
100
AcDbVertex
100
AcDb2dVertex
 10
119.2664496229612
 20
-224.2956976435789
 30
0.0
  0
VERTEX
  5
BA
330
B6
100
AcDbEntity
  8
\U+838C\U+8343\U+8384\U+815B_1
100
AcDbVertex
100
AcDb2dVertex
 10
118.2218966718334
 20
-224.463129284162
 30
0.0
  0
VERTEX
  5
BB
330
B6
100
AcDbEntity
  8
\U+838C\U+8343\U+8384\U+815B_1
100
AcDbVertex
100
AcDb2dVertex
 10
116.857294350126
 20
-224.5327202129641
 30
0.0
  0
VERTEX
  5
BC
330
B6
100
AcDbEntity
  8
\U+838C\U+8343\U+8384\U+815B_1
100
AcDbVertex
100
AcDb2dVertex
 10
115.1726426578388
 20
-224.6994628344501
 30
0.0
  0
VERTEX
  5
BD
330
B6
100
AcDbEntity
  8
\U+838C\U+8343\U+8384\U+815B_1
100
AcDbVertex
100
AcDb2dVertex
 10
113.1675970854234
 20
-224.7828341451932
 30
0.0
  0
VERTEX
  5
BE
330
B6
100
AcDbEntity
  8
\U+838C\U+8343\U+8384\U+815B_1
100
AcDbVertex
100
AcDb2dVertex
 10
110.9951198724248
 20
-224.8524250739952
 30
0.0
  0
VERTEX
  5
BF
330
B6
100
AcDbEntity
  8
\U+838C\U+8343\U+8384\U+815B_1
100
AcDbVertex
100
AcDb2dVertex
 10
108.6004340006277
 20
-225.0198567145784
 30
0.0
  0
VERTEX
  5
C0
330
B6
100
AcDbEntity
  8
\U+838C\U+8343\U+8384\U+815B_1
100
AcDbVertex
100
AcDb2dVertex
 10
106.1079074170494
 20
-225.1032280253214
 30
0.0
  0
VERTEX
  5
C1
330
B6
100
AcDbEntity
  8
\U+838C\U+8343\U+8384\U+815B_1
100
AcDbVertex
100
AcDb2dVertex
 10
103.6153808334712
 20
-225.2568792839636
 30
0.0
  0
VERTEX
  5
C2
330
B6
100
AcDbEntity
  8
\U+838C\U+8343\U+8384\U+815B_1
100
AcDbVertex
100
AcDb2dVertex
 10
101.1369791413824
 20
-225.3402505947066
 30
0.0
  0
VERTEX
  5
C3
330
B6
100
AcDbEntity
  8
\U+838C\U+8343\U+8384\U+815B_1
100
AcDbVertex
100
AcDb2dVertex
 10
98.72799612332147
 20
-225.4236219054497
 30
0.0
  0
VERTEX
  5
C4
330
B6
100
AcDbEntity
  8
\U+838C\U+8343\U+8384\U+815B_1
100
AcDbVertex
100
AcDb2dVertex
 10
96.56981605658672
 20
-225.5765841449947
 30
0.0
  0
VERTEX
  5
C5
330
B6
100
AcDbEntity
  8
\U+838C\U+8343\U+8384\U+815B_1
100
AcDbVertex
100
AcDb2dVertex
 10
94.63436141297336
 20
-225.6606444748348
 30
0.0
  0
VERTEX
  5
C6
330
B6
100
AcDbEntity
  8
\U+838C\U+8343\U+8384\U+815B_1
100
AcDbVertex
100
AcDb2dVertex
 10
93.03308103142923
 20
-225.7440157855779
 30
0.0
  0
VERTEX
  5
C7
330
B6
100
AcDbEntity
  8
\U+838C\U+8343\U+8384\U+815B_1
100
AcDbVertex
100
AcDb2dVertex
 10
91.75202227523909
 20
-225.896978025123
 30
0.0
  0
VERTEX
  5
C8
330
B6
100
AcDbEntity
  8
\U+838C\U+8343\U+8384\U+815B_1
100
AcDbVertex
100
AcDb2dVertex
 10
90.8747287099202
 20
-225.980349335866
 30
0.0
  0
VERTEX
  5
C9
330
B6
100
AcDbEntity
  8
\U+838C\U+8343\U+8384\U+815B_1
100
AcDbVertex
100
AcDb2dVertex
 10
90.30387638801432
 20
-226.1477809764492
 30
0.0
  0
VERTEX
  5
CA
330
B6
100
AcDbEntity
  8
\U+838C\U+8343\U+8384\U+815B_1
100
AcDbVertex
100
AcDb2dVertex
 10
90.30387638801432
 20
-226.2173719052512
 30
0.0
  0
SEQEND
  5
CB
330
B6
100
AcDbEntity
  8
\U+838C\U+8343\U+8384\U+815B_1
  0
POLYLINE
  5
CC
330
3C
100
AcDbEntity
  8
\U+838C\U+8343\U+8384\U+815B_1
100
AcDb2dPolyline
 66
     1
 10
0.0
 20
0.0
 30
0.0
  0
VERTEX
  5
CD
330
CC
100
AcDbEntity
  8
\U+838C\U+8343\U+8384\U+815B_1
100
AcDbVertex
100
AcDb2dVertex
 10
119.9764838024712
 20
-219.9652126186198
 30
0.0
  0
VERTEX
  5
CE
330
CC
100
AcDbEntity
  8
\U+838C\U+8343\U+8384\U+815B_1
100
AcDbVertex
100
AcDb2dVertex
 10
119.9764838024712
 20
-220.0485839293629
 30
0.0
  0
VERTEX
  5
CF
330
CC
100
AcDbEntity
  8
\U+838C\U+8343\U+8384\U+815B_1
100
AcDbVertex
100
AcDb2dVertex
 10
119.5031276827978
 20
-220.1326442592029
 30
0.0
  0
VERTEX
  5
D0
330
CC
100
AcDbEntity
  8
\U+838C\U+8343\U+8384\U+815B_1
100
AcDbVertex
100
AcDb2dVertex
 10
118.6952527915067
 20
-220.2856064987481
 30
0.0
  0
VERTEX
  5
D1
330
CC
100
AcDbEntity
  8
\U+838C\U+8343\U+8384\U+815B_1
100
AcDbVertex
100
AcDb2dVertex
 10
117.4977376008339
 20
-220.3689778094911
 30
0.0
  0
VERTEX
  5
D2
330
CC
100
AcDbEntity
  8
\U+838C\U+8343\U+8384\U+815B_1
100
AcDbVertex
100
AcDb2dVertex
 10
115.8964572192898
 20
-220.5219400490362
 30
0.0
  0
VERTEX
  5
D3
330
CC
100
AcDbEntity
  8
\U+838C\U+8343\U+8384\U+815B_1
100
AcDbVertex
100
AcDb2dVertex
 10
113.9610025756764
 20
-220.6060003788763
 30
0.0
  0
VERTEX
  5
D4
330
CC
100
AcDbEntity
  8
\U+838C\U+8343\U+8384\U+815B_1
100
AcDbVertex
100
AcDb2dVertex
 10
111.886366074459
 20
-220.6893716896193
 30
0.0
  0
VERTEX
  5
D5
330
CC
100
AcDbEntity
  8
\U+838C\U+8343\U+8384\U+815B_1
100
AcDbVertex
100
AcDb2dVertex
 10
109.5609266219153
 20
-220.8561143111054
 30
0.0
  0
VERTEX
  5
D6
330
CC
100
AcDbEntity
  8
\U+838C\U+8343\U+8384\U+815B_1
100
AcDbVertex
100
AcDb2dVertex
 10
107.0687445478856
 20
-220.9263942590045
 30
0.0
  0
VERTEX
  5
D7
330
CC
100
AcDbEntity
  8
\U+838C\U+8343\U+8384\U+815B_1
100
AcDbVertex
100
AcDb2dVertex
 10
104.5901706010226
 20
-221.0931368804906
 30
0.0
  0
VERTEX
  5
D8
330
CC
100
AcDbEntity
  8
\U+838C\U+8343\U+8384\U+815B_1
100
AcDbVertex
100
AcDb2dVertex
 10
102.0976440174443
 20
-221.1627278092926
 30
0.0
  0
VERTEX
  5
D9
330
CC
100
AcDbEntity
  8
\U+838C\U+8343\U+8384\U+815B_1
100
AcDbVertex
100
AcDb2dVertex
 10
99.68883325415766
 20
-221.2460991200357
 30
0.0
  0
VERTEX
  5
DA
330
CC
100
AcDbEntity
  8
\U+838C\U+8343\U+8384\U+815B_1
100
AcDbVertex
100
AcDb2dVertex
 10
97.44693736713133
 20
-221.4135307606188
 30
0.0
  0
VERTEX
  5
DB
330
CC
100
AcDbEntity
  8
\U+838C\U+8343\U+8384\U+815B_1
100
AcDbVertex
100
AcDb2dVertex
 10
95.35834822919861
 20
-221.4969020713619
 30
0.0
  0
VERTEX
  5
DC
330
CC
100
AcDbEntity
  8
\U+838C\U+8343\U+8384\U+815B_1
100
AcDbVertex
100
AcDb2dVertex
 10
93.67352428213718
 20
-221.5664930001639
 30
0.0
  0
VERTEX
  5
DD
330
CC
100
AcDbEntity
  8
\U+838C\U+8343\U+8384\U+815B_1
100
AcDbVertex
100
AcDb2dVertex
 10
92.23933103162767
 20
-221.7339246407471
 30
0.0
  0
VERTEX
  5
DE
330
CC
100
AcDbEntity
  8
\U+838C\U+8343\U+8384\U+815B_1
100
AcDbVertex
100
AcDb2dVertex
 10
91.19495033527419
 20
-221.8172959514901
 30
0.0
  0
VERTEX
  5
DF
330
CC
100
AcDbEntity
  8
\U+838C\U+8343\U+8384\U+815B_1
100
AcDbVertex
100
AcDb2dVertex
 10
90.47096351904894
 20
-221.9702581910352
 30
0.0
  0
VERTEX
  5
E0
330
CC
100
AcDbEntity
  8
\U+838C\U+8343\U+8384\U+815B_1
100
AcDbVertex
100
AcDb2dVertex
 10
90.23428545921226
 20
-222.0536295017783
 30
0.0
  0
SEQEND
  5
E1
330
CC
100
AcDbEntity
  8
\U+838C\U+8343\U+8384\U+815B_1
  0
POLYLINE
  5
E2
330
3C
100
AcDbEntity
  8
\U+838C\U+8343\U+8384\U+815B_1
100
AcDb2dPolyline
 66
     1
 10
0.0
 20
0.0
 30
0.0
  0
VERTEX
  5
E3
330
E2
100
AcDbEntity
  8
\U+838C\U+8343\U+8384\U+815B_1
100
AcDbVertex
100
AcDb2dVertex
 10
119.9764838024712
 20
-215.871750163046
 30
0.0
  0
VERTEX
  5
E4
330
E2
100
AcDbEntity
  8
\U+838C\U+8343\U+8384\U+815B_1
100
AcDbVertex
100
AcDb2dVertex
 10
119.9068928736691
 20
-215.955121473789
 30
0.0
  0
VERTEX
  5
E5
330
E2
100
AcDbEntity
  8
\U+838C\U+8343\U+8384\U+815B_1
100
AcDbVertex
100
AcDb2dVertex
 10
119.4194118625063
 20
-216.0384927845321
 30
0.0
  0
VERTEX
  5
E6
330
E2
100
AcDbEntity
  8
\U+838C\U+8343\U+8384\U+815B_1
100
AcDbVertex
100
AcDb2dVertex
 10
118.4585747316701
 20
-216.2059244251152
 30
0.0
  0
VERTEX
  5
E7
330
E2
100
AcDbEntity
  8
\U+838C\U+8343\U+8384\U+815B_1
100
AcDbVertex
100
AcDb2dVertex
 10
117.1776882302542
 20
-216.2755153539172
 30
0.0
  0
VERTEX
  5
E8
330
E2
100
AcDbEntity
  8
\U+838C\U+8343\U+8384\U+815B_1
100
AcDbVertex
100
AcDb2dVertex
 10
115.4926920284185
 20
-216.3588866646603
 30
0.0
  0
VERTEX
  5
E9
330
E2
100
AcDbEntity
  8
\U+838C\U+8343\U+8384\U+815B_1
100
AcDbVertex
100
AcDb2dVertex
 10
113.5713622762947
 20
-216.5256292861464
 30
0.0
  0
VERTEX
  5
EA
330
E2
100
AcDbEntity
  8
\U+838C\U+8343\U+8384\U+815B_1
100
AcDbVertex
100
AcDb2dVertex
 10
111.3992295728446
 20
-216.5959092340455
 30
0.0
  0
VERTEX
  5
EB
330
E2
100
AcDbEntity
  8
\U+838C\U+8343\U+8384\U+815B_1
100
AcDbVertex
100
AcDb2dVertex
 10
108.9900743000094
 20
-216.7626518555316
 30
0.0
  0
VERTEX
  5
EC
330
E2
100
AcDbEntity
  8
\U+838C\U+8343\U+8384\U+815B_1
100
AcDbVertex
100
AcDb2dVertex
 10
106.5953884282123
 20
-216.8460231662746
 30
0.0
  0
VERTEX
  5
ED
330
E2
100
AcDbEntity
  8
\U+838C\U+8343\U+8384\U+815B_1
100
AcDbVertex
100
AcDb2dVertex
 10
104.0193182791167
 20
-216.9156140950766
 30
0.0
  0
VERTEX
  5
EE
330
E2
100
AcDbEntity
  8
\U+838C\U+8343\U+8384\U+815B_1
100
AcDbVertex
100
AcDb2dVertex
 10
101.5407443322537
 20
-217.0830457356598
 30
0.0
  0
VERTEX
  5
EF
330
E2
100
AcDbEntity
  8
\U+838C\U+8343\U+8384\U+815B_1
100
AcDbVertex
100
AcDb2dVertex
 10
99.21530487971006
 20
-217.1664170464028
 30
0.0
  0
VERTEX
  5
F0
330
E2
100
AcDbEntity
  8
\U+838C\U+8343\U+8384\U+815B_1
100
AcDbVertex
100
AcDb2dVertex
 10
96.95962861074274
 20
-217.3193792859479
 30
0.0
  0
VERTEX
  5
F1
330
E2
100
AcDbEntity
  8
\U+838C\U+8343\U+8384\U+815B_1
100
AcDbVertex
100
AcDb2dVertex
 10
95.03812660384465
 20
-217.403439615788
 30
0.0
  0
VERTEX
  5
F2
330
E2
100
AcDbEntity
  8
\U+838C\U+8343\U+8384\U+815B_1
100
AcDbVertex
100
AcDb2dVertex
 10
93.2697590912659
 20
-217.4868109265311
 30
0.0
  0
VERTEX
  5
F3
330
E2
100
AcDbEntity
  8
\U+838C\U+8343\U+8384\U+815B_1
100
AcDbVertex
100
AcDb2dVertex
 10
91.98870033507575
 20
-217.6397731660762
 30
0.0
  0
VERTEX
  5
F4
330
E2
100
AcDbEntity
  8
\U+838C\U+8343\U+8384\U+815B_1
100
AcDbVertex
100
AcDb2dVertex
 10
90.94431963872226
 20
-217.7231444768192
 30
0.0
  0
VERTEX
  5
F5
330
E2
100
AcDbEntity
  8
\U+838C\U+8343\U+8384\U+815B_1
100
AcDbVertex
100
AcDb2dVertex
 10
90.38741995353162
 20
-217.8072048066593
 30
0.0
  0
VERTEX
  5
F6
330
E2
100
AcDbEntity
  8
\U+838C\U+8343\U+8384\U+815B_1
100
AcDbVertex
100
AcDb2dVertex
 10
90.23428545921226
 20
-217.9601670462044
 30
0.0
  0
SEQEND
  5
F7
330
E2
100
AcDbEntity
  8
\U+838C\U+8343\U+8384\U+815B_1
  0
POLYLINE
  5
F8
330
3C
100
AcDbEntity
  8
\U+838C\U+8343\U+8384\U+815B_1
100
AcDb2dPolyline
 66
     1
 10
0.0
 20
0.0
 30
0.0
  0
VERTEX
  5
F9
330
F8
100
AcDbEntity
  8
\U+838C\U+8343\U+8384\U+815B_1
100
AcDbVertex
100
AcDb2dVertex
 10
119.2664496229612
 20
-215.4817653541157
 30
0.0
  0
VERTEX
  5
FA
330
F8
100
AcDbEntity
  8
\U+838C\U+8343\U+8384\U+815B_1
100
AcDbVertex
100
AcDb2dVertex
 10
119.5031276827978
 20
-215.3983940433726
 30
0.0
  0
VERTEX
  5
FB
330
F8
100
AcDbEntity
  8
\U+838C\U+8343\U+8384\U+815B_1
100
AcDbVertex
100
AcDb2dVertex
 10
119.6560899223429
 20
-215.3143337135325
 30
0.0
  0
VERTEX
  5
FC
330
F8
100
AcDbEntity
  8
\U+838C\U+8343\U+8384\U+815B_1
100
AcDbVertex
100
AcDb2dVertex
 10
119.5031276827978
 20
-215.2309624027895
 30
0.0
  0
SEQEND
  5
FD
330
F8
100
AcDbEntity
  8
\U+838C\U+8343\U+8384\U+815B_1
  0
POLYLINE
  5
FE
330
3C
100
AcDbEntity
  8
\U+838C\U+8343\U+8384\U+815B_1
100
AcDb2dPolyline
 66
     1
 10
0.0
 20
0.0
 30
0.0
  0
VERTEX
  5
FF
330
FE
100
AcDbEntity
  8
\U+838C\U+8343\U+8384\U+815B_1
100
AcDbVertex
100
AcDb2dVertex
 10
119.2664496229612
 20
-219.6448187384916
 30
0.0
  0
VERTEX
  5
100
330
FE
100
AcDbEntity
  8
\U+838C\U+8343\U+8384\U+815B_1
100
AcDbVertex
100
AcDb2dVertex
 10
119.5864989935409
 20
-219.4918564989465
 30
0.0
  0
VERTEX
  5
101
330
FE
100
AcDbEntity
  8
\U+838C\U+8343\U+8384\U+815B_1
100
AcDbVertex
100
AcDb2dVertex
 10
119.5864989935409
 20
-219.4084851882035
 30
0.0
  0
SEQEND
  5
102
330
FE
100
AcDbEntity
  8
\U+838C\U+8343\U+8384\U+815B_1
  0
POLYLINE
  5
103
330
3C
100
AcDbEntity
  8
\U+838C\U+8343\U+8384\U+815B_1
100
AcDb2dPolyline
 66
     1
 10
0.0
 20
0.0
 30
0.0
  0
VERTEX
  5
104
330
103
100
AcDbEntity
  8
\U+838C\U+8343\U+8384\U+815B_1
100
AcDbVertex
100
AcDb2dVertex
 10
119.2664496229612
 20
-223.7389702131625
 30
0.0
  0
VERTEX
  5
105
330
103
100
AcDbEntity
  8
\U+838C\U+8343\U+8384\U+815B_1
100
AcDbVertex
100
AcDb2dVertex
 10
119.4194118625063
 20
-223.6555989024195
 30
0.0
  0
VERTEX
  5
106
330
103
100
AcDbEntity
  8
\U+838C\U+8343\U+8384\U+815B_1
100
AcDbVertex
100
AcDb2dVertex
 10
119.6560899223429
 20
-223.5715385725794
 30
0.0
  0
VERTEX
  5
107
330
103
100
AcDbEntity
  8
\U+838C\U+8343\U+8384\U+815B_1
100
AcDbVertex
100
AcDb2dVertex
 10
119.5864989935409
 20
-223.5715385725794
 30
0.0
  0
SEQEND
  5
108
330
103
100
AcDbEntity
  8
\U+838C\U+8343\U+8384\U+815B_1
  0
POLYLINE
  5
109
330
3C
100
AcDbEntity
  8
\U+838C\U+8343\U+8384\U+815B_1
100
AcDb2dPolyline
 66
     1
 10
0.0
 20
0.0
 30
0.0
  0
VERTEX
  5
10A
330
109
100
AcDbEntity
  8
\U+838C\U+8343\U+8384\U+815B_1
100
AcDbVertex
100
AcDb2dVertex
 10
119.2664496229612
 20
-227.8186522867954
 30
0.0
  0
VERTEX
  5
10B
330
109
100
AcDbEntity
  8
\U+838C\U+8343\U+8384\U+815B_1
100
AcDbVertex
100
AcDb2dVertex
 10
119.5031276827978
 20
-227.8186522867954
 30
0.0
  0
VERTEX
  5
10C
330
109
100
AcDbEntity
  8
\U+838C\U+8343\U+8384\U+815B_1
100
AcDbVertex
100
AcDb2dVertex
 10
119.5864989935409
 20
-227.6656900472503
 30
0.0
  0
SEQEND
  5
10D
330
109
100
AcDbEntity
  8
\U+838C\U+8343\U+8384\U+815B_1
  0
POLYLINE
  5
10E
330
3C
100
AcDbEntity
  8
\U+838C\U+8343\U+8384\U+815B_1
100
AcDb2dPolyline
 66
     1
 10
0.0
 20
0.0
 30
0.0
  0
VERTEX
  5
10F
330
10E
100
AcDbEntity
  8
\U+838C\U+8343\U+8384\U+815B_1
100
AcDbVertex
100
AcDb2dVertex
 10
119.4194118625063
 20
-229.3503417395374
 30
0.0
  0
VERTEX
  5
110
330
10E
100
AcDbEntity
  8
\U+838C\U+8343\U+8384\U+815B_1
100
AcDbVertex
100
AcDb2dVertex
 10
119.3360405517632
 20
-229.4337130502805
 30
0.0
  0
VERTEX
  5
111
330
10E
100
AcDbEntity
  8
\U+838C\U+8343\U+8384\U+815B_1
100
AcDbVertex
100
AcDb2dVertex
 10
118.6952527915067
 20
-229.5033039790825
 30
0.0
  0
VERTEX
  5
112
330
10E
100
AcDbEntity
  8
\U+838C\U+8343\U+8384\U+815B_1
100
AcDbVertex
100
AcDb2dVertex
 10
117.7347601702191
 20
-229.5873643089226
 30
0.0
  0
VERTEX
  5
113
330
10E
100
AcDbEntity
  8
\U+838C\U+8343\U+8384\U+815B_1
100
AcDbVertex
100
AcDb2dVertex
 10
116.3701578485116
 20
-229.7541069304087
 30
0.0
  0
SEQEND
  5
114
330
10E
100
AcDbEntity
  8
\U+838C\U+8343\U+8384\U+815B_1
  0
POLYLINE
  5
115
330
3C
100
AcDbEntity
  8
\U+838C\U+8343\U+8384\U+815B_1
100
AcDb2dPolyline
 66
     1
 10
0.0
 20
0.0
 30
0.0
  0
VERTEX
  5
116
330
115
100
AcDbEntity
  8
\U+838C\U+8343\U+8384\U+815B_1
100
AcDbVertex
100
AcDb2dVertex
 10
91.11140676975687
 20
-227.0249022869938
 30
0.0
  0
VERTEX
  5
117
330
115
100
AcDbEntity
  8
\U+838C\U+8343\U+8384\U+815B_1
100
AcDbVertex
100
AcDb2dVertex
 10
90.94431963872226
 20
-227.1082735977368
 30
0.0
  0
VERTEX
  5
118
330
115
100
AcDbEntity
  8
\U+838C\U+8343\U+8384\U+815B_1
100
AcDbVertex
100
AcDb2dVertex
 10
90.62409801336828
 20
-227.1778645265389
 30
0.0
  0
VERTEX
  5
119
330
115
100
AcDbEntity
  8
\U+838C\U+8343\U+8384\U+815B_1
100
AcDbVertex
100
AcDb2dVertex
 10
90.7076415788856
 20
-227.261924856379
 30
0.0
  0
SEQEND
  5
11A
330
115
100
AcDbEntity
  8
\U+838C\U+8343\U+8384\U+815B_1
  0
POLYLINE
  5
11B
330
3C
100
AcDbEntity
  8
\U+838C\U+8343\U+8384\U+815B_1
100
AcDb2dPolyline
 66
     1
 10
0.0
 20
0.0
 30
0.0
  0
VERTEX
  5
11C
330
11B
100
AcDbEntity
  8
\U+838C\U+8343\U+8384\U+815B_1
100
AcDbVertex
100
AcDb2dVertex
 10
91.02786320423957
 20
-222.9314398314199
 30
0.0
  0
VERTEX
  5
11D
330
11B
100
AcDbEntity
  8
\U+838C\U+8343\U+8384\U+815B_1
100
AcDbVertex
100
AcDb2dVertex
 10
90.8747287099202
 20
-222.9314398314199
 30
0.0
  0
VERTEX
  5
11E
330
11B
100
AcDbEntity
  8
\U+838C\U+8343\U+8384\U+815B_1
100
AcDbVertex
100
AcDb2dVertex
 10
90.62409801336828
 20
-223.098182452906
 30
0.0
  0
VERTEX
  5
11F
330
11B
100
AcDbEntity
  8
\U+838C\U+8343\U+8384\U+815B_1
100
AcDbVertex
100
AcDb2dVertex
 10
90.7076415788856
 20
-223.098182452906
 30
0.0
  0
SEQEND
  5
120
330
11B
100
AcDbEntity
  8
\U+838C\U+8343\U+8384\U+815B_1
  0
POLYLINE
  5
121
330
3C
100
AcDbEntity
  8
\U+838C\U+8343\U+8384\U+815B_1
100
AcDb2dPolyline
 66
     1
 10
0.0
 20
0.0
 30
0.0
  0
VERTEX
  5
122
330
121
100
AcDbEntity
  8
\U+838C\U+8343\U+8384\U+815B_1
100
AcDbVertex
100
AcDb2dVertex
 10
91.11140676975687
 20
-218.767697427947
 30
0.0
  0
VERTEX
  5
123
330
121
100
AcDbEntity
  8
\U+838C\U+8343\U+8384\U+815B_1
100
AcDbVertex
100
AcDb2dVertex
 10
90.94431963872226
 20
-218.85106873869
 30
0.0
  0
VERTEX
  5
124
330
121
100
AcDbEntity
  8
\U+838C\U+8343\U+8384\U+815B_1
100
AcDbVertex
100
AcDb2dVertex
 10
90.62409801336828
 20
-218.9206596674921
 30
0.0
  0
VERTEX
  5
125
330
121
100
AcDbEntity
  8
\U+838C\U+8343\U+8384\U+815B_1
100
AcDbVertex
100
AcDb2dVertex
 10
90.7076415788856
 20
-219.0047199973322
 30
0.0
  0
SEQEND
  5
126
330
121
100
AcDbEntity
  8
\U+838C\U+8343\U+8384\U+815B_1
  0
POLYLINE
  5
127
330
3C
100
AcDbEntity
  8
\U+838C\U+8343\U+8384\U+815B_1
100
AcDb2dPolyline
 66
     1
 10
0.0
 20
0.0
 30
0.0
  0
VERTEX
  5
128
330
127
100
AcDbEntity
  8
\U+838C\U+8343\U+8384\U+815B_1
100
AcDbVertex
100
AcDb2dVertex
 10
91.02786320423957
 20
-214.6742349723731
 30
0.0
  0
VERTEX
  5
129
330
127
100
AcDbEntity
  8
\U+838C\U+8343\U+8384\U+815B_1
100
AcDbVertex
100
AcDb2dVertex
 10
90.8747287099202
 20
-214.6742349723731
 30
0.0
  0
VERTEX
  5
12A
330
127
100
AcDbEntity
  8
\U+838C\U+8343\U+8384\U+815B_1
100
AcDbVertex
100
AcDb2dVertex
 10
90.62409801336828
 20
-214.8409775938592
 30
0.0
  0
VERTEX
  5
12B
330
127
100
AcDbEntity
  8
\U+838C\U+8343\U+8384\U+815B_1
100
AcDbVertex
100
AcDb2dVertex
 10
90.7076415788856
 20
-214.8409775938592
 30
0.0
  0
SEQEND
  5
12C
330
127
100
AcDbEntity
  8
\U+838C\U+8343\U+8384\U+815B_1
  0
POLYLINE
  5
12D
330
3C
100
AcDbEntity
  8
\U+838C\U+8343\U+8384\U+815B_1
100
AcDb2dPolyline
 66
     1
 10
0.0
 20
0.0
 30
0.0
  0
VERTEX
  5
12E
330
12D
100
AcDbEntity
  8
\U+838C\U+8343\U+8384\U+815B_1
100
AcDbVertex
100
AcDb2dVertex
 10
99.77237681967496
 20
-214.0334472121166
 30
0.0
  0
VERTEX
  5
12F
330
12D
100
AcDbEntity
  8
\U+838C\U+8343\U+8384\U+815B_1
100
AcDbVertex
100
AcDb2dVertex
 10
97.68378768174225
 20
-214.1168185228597
 30
0.0
  0
VERTEX
  5
130
330
12D
100
AcDbEntity
  8
\U+838C\U+8343\U+8384\U+815B_1
100
AcDbVertex
100
AcDb2dVertex
 10
95.92920055110451
 20
-214.1168185228597
 30
0.0
  0
VERTEX
  5
131
330
12D
100
AcDbEntity
  8
\U+838C\U+8343\U+8384\U+815B_1
100
AcDbVertex
100
AcDb2dVertex
 10
94.24437660404308
 20
-214.2008788526998
 30
0.0
  0
VERTEX
  5
132
330
12D
100
AcDbEntity
  8
\U+838C\U+8343\U+8384\U+815B_1
100
AcDbVertex
100
AcDb2dVertex
 10
92.87977428233562
 20
-214.2704697815018
 30
0.0
  0
VERTEX
  5
133
330
12D
100
AcDbEntity
  8
\U+838C\U+8343\U+8384\U+815B_1
100
AcDbVertex
100
AcDb2dVertex
 10
91.75202227523909
 20
-214.2704697815018
 30
0.0
  0
VERTEX
  5
134
330
12D
100
AcDbEntity
  8
\U+838C\U+8343\U+8384\U+815B_1
100
AcDbVertex
100
AcDb2dVertex
 10
90.8747287099202
 20
-214.3538410922449
 30
0.0
  0
VERTEX
  5
135
330
12D
100
AcDbEntity
  8
\U+838C\U+8343\U+8384\U+815B_1
100
AcDbVertex
100
AcDb2dVertex
 10
90.38741995353162
 20
-214.4372124029879
 30
0.0
  0
VERTEX
  5
136
330
12D
100
AcDbEntity
  8
\U+838C\U+8343\U+8384\U+815B_1
100
AcDbVertex
100
AcDb2dVertex
 10
90.30387638801432
 20
-214.4372124029879
 30
0.0
  0
SEQEND
  5
137
330
12D
100
AcDbEntity
  8
\U+838C\U+8343\U+8384\U+815B_1
  0
POLYLINE
  5
138
330
3C
100
AcDbEntity
  8
\U+838C\U+8343\U+8384\U+815B_1
100
AcDb2dPolyline
 66
     1
 10
0.0
 20
0.0
 30
0.0
  0
VERTEX
  5
139
330
138
100
AcDbEntity
  8
\U+838C\U+8343\U+8384\U+815B_1
100
AcDbVertex
100
AcDb2dVertex
 10
90.30387638801432
 20
-218.4473035478187
 30
0.0
  0
VERTEX
  5
13A
330
138
100
AcDbEntity
  8
\U+838C\U+8343\U+8384\U+815B_1
100
AcDbVertex
100
AcDb2dVertex
 10
90.23428545921226
 20
-218.3639322370757
 30
0.0
  0
VERTEX
  5
13B
330
138
100
AcDbEntity
  8
\U+838C\U+8343\U+8384\U+815B_1
100
AcDbVertex
100
AcDb2dVertex
 10
90.55450708456624
 20
-218.2805609263326
 30
0.0
  0
VERTEX
  5
13C
330
138
100
AcDbEntity
  8
\U+838C\U+8343\U+8384\U+815B_1
100
AcDbVertex
100
AcDb2dVertex
 10
91.2647135188505
 20
-218.1971896155896
 30
0.0
  0
VERTEX
  5
13D
330
138
100
AcDbEntity
  8
\U+838C\U+8343\U+8384\U+815B_1
100
AcDbVertex
100
AcDb2dVertex
 10
92.47600909146433
 20
-218.0435383569475
 30
0.0
  0
VERTEX
  5
13E
330
138
100
AcDbEntity
  8
\U+838C\U+8343\U+8384\U+815B_1
100
AcDbVertex
100
AcDb2dVertex
 10
93.9241549786891
 20
-217.9601670462044
 30
0.0
  0
VERTEX
  5
13F
330
138
100
AcDbEntity
  8
\U+838C\U+8343\U+8384\U+815B_1
100
AcDbVertex
100
AcDb2dVertex
 10
95.7621134200699
 20
-217.8072048066593
 30
0.0
  0
VERTEX
  5
140
330
138
100
AcDbEntity
  8
\U+838C\U+8343\U+8384\U+815B_1
100
AcDbVertex
100
AcDb2dVertex
 10
97.76733124725956
 20
-217.7231444768192
 30
0.0
  0
VERTEX
  5
141
330
138
100
AcDbEntity
  8
\U+838C\U+8343\U+8384\U+815B_1
100
AcDbVertex
100
AcDb2dVertex
 10
100.0925984450289
 20
-217.6397731660762
 30
0.0
  0
VERTEX
  5
142
330
138
100
AcDbEntity
  8
\U+838C\U+8343\U+8384\U+815B_1
100
AcDbVertex
100
AcDb2dVertex
 10
102.5015814630899
 20
-217.4868109265311
 30
0.0
  0
VERTEX
  5
143
330
138
100
AcDbEntity
  8
\U+838C\U+8343\U+8384\U+815B_1
100
AcDbVertex
100
AcDb2dVertex
 10
104.9799831551786
 20
-217.403439615788
 30
0.0
  0
VERTEX
  5
144
330
138
100
AcDbEntity
  8
\U+838C\U+8343\U+8384\U+815B_1
100
AcDbVertex
100
AcDb2dVertex
 10
107.4725097387569
 20
-217.2360079752049
 30
0.0
  0
VERTEX
  5
145
330
138
100
AcDbEntity
  8
\U+838C\U+8343\U+8384\U+815B_1
100
AcDbVertex
100
AcDb2dVertex
 10
109.9509114308456
 20
-217.1664170464028
 30
0.0
  0
VERTEX
  5
146
330
138
100
AcDbEntity
  8
\U+838C\U+8343\U+8384\U+815B_1
100
AcDbVertex
100
AcDb2dVertex
 10
112.2067599545872
 20
-217.0830457356598
 30
0.0
  0
VERTEX
  5
147
330
138
100
AcDbEntity
  8
\U+838C\U+8343\U+8384\U+815B_1
100
AcDbVertex
100
AcDb2dVertex
 10
114.3651122760962
 20
-216.9156140950766
 30
0.0
  0
VERTEX
  5
148
330
138
100
AcDbEntity
  8
\U+838C\U+8343\U+8384\U+815B_1
100
AcDbVertex
100
AcDb2dVertex
 10
116.133479788675
 20
-216.8460231662746
 30
0.0
  0
VERTEX
  5
149
330
138
100
AcDbEntity
  8
\U+838C\U+8343\U+8384\U+815B_1
100
AcDbVertex
100
AcDb2dVertex
 10
117.7347601702191
 20
-216.7626518555316
 30
0.0
  0
VERTEX
  5
14A
330
138
100
AcDbEntity
  8
\U+838C\U+8343\U+8384\U+815B_1
100
AcDbVertex
100
AcDb2dVertex
 10
118.8623399225414
 20
-216.5959092340455
 30
0.0
  0
VERTEX
  5
14B
330
138
100
AcDbEntity
  8
\U+838C\U+8343\U+8384\U+815B_1
100
AcDbVertex
100
AcDb2dVertex
 10
119.6560899223429
 20
-216.5256292861464
 30
0.0
  0
VERTEX
  5
14C
330
138
100
AcDbEntity
  8
\U+838C\U+8343\U+8384\U+815B_1
100
AcDbVertex
100
AcDb2dVertex
 10
119.9764838024712
 20
-216.3588866646603
 30
0.0
  0
SEQEND
  5
14D
330
138
100
AcDbEntity
  8
\U+838C\U+8343\U+8384\U+815B_1
  0
POLYLINE
  5
14E
330
3C
100
AcDbEntity
  8
\U+838C\U+8343\U+8384\U+815B_1
100
AcDb2dPolyline
 66
     1
 10
0.0
 20
0.0
 30
0.0
  0
VERTEX
  5
14F
330
14E
100
AcDbEntity
  8
\U+838C\U+8343\U+8384\U+815B_1
100
AcDbVertex
100
AcDb2dVertex
 10
90.23428545921226
 20
-222.5276746405486
 30
0.0
  0
VERTEX
  5
150
330
14E
100
AcDbEntity
  8
\U+838C\U+8343\U+8384\U+815B_1
100
AcDbVertex
100
AcDb2dVertex
 10
90.47096351904894
 20
-222.4580837117466
 30
0.0
  0
VERTEX
  5
151
330
14E
100
AcDbEntity
  8
\U+838C\U+8343\U+8384\U+815B_1
100
AcDbVertex
100
AcDb2dVertex
 10
91.11140676975687
 20
-222.2906520711635
 30
0.0
  0
VERTEX
  5
152
330
14E
100
AcDbEntity
  8
\U+838C\U+8343\U+8384\U+815B_1
100
AcDbVertex
100
AcDb2dVertex
 10
92.15578746611037
 20
-222.2072807604204
 30
0.0
  0
VERTEX
  5
153
330
14E
100
AcDbEntity
  8
\U+838C\U+8343\U+8384\U+815B_1
100
AcDbVertex
100
AcDb2dVertex
 10
93.52038978781782
 20
-222.1376898316184
 30
0.0
  0
VERTEX
  5
154
330
14E
100
AcDbEntity
  8
\U+838C\U+8343\U+8384\U+815B_1
100
AcDbVertex
100
AcDb2dVertex
 10
95.27480466368131
 20
-221.9702581910352
 30
0.0
  0
VERTEX
  5
155
330
14E
100
AcDbEntity
  8
\U+838C\U+8343\U+8384\U+815B_1
100
AcDbVertex
100
AcDb2dVertex
 10
97.2798502360967
 20
-221.8868868802922
 30
0.0
  0
VERTEX
  5
156
330
14E
100
AcDbEntity
  8
\U+838C\U+8343\U+8384\U+815B_1
100
AcDbVertex
100
AcDb2dVertex
 10
99.5356987598383
 20
-221.7339246407471
 30
0.0
  0
VERTEX
  5
157
330
14E
100
AcDbEntity
  8
\U+838C\U+8343\U+8384\U+815B_1
100
AcDbVertex
100
AcDb2dVertex
 10
101.9305568864097
 20
-221.649864310907
 30
0.0
  0
VERTEX
  5
158
330
14E
100
AcDbEntity
  8
\U+838C\U+8343\U+8384\U+815B_1
100
AcDbVertex
100
AcDb2dVertex
 10
104.423083469988
 20
-221.5664930001639
 30
0.0
  0
VERTEX
  5
159
330
14E
100
AcDbEntity
  8
\U+838C\U+8343\U+8384\U+815B_1
100
AcDbVertex
100
AcDb2dVertex
 10
106.915437798792
 20
-221.4135307606188
 30
0.0
  0
VERTEX
  5
15A
330
14E
100
AcDbEntity
  8
\U+838C\U+8343\U+8384\U+815B_1
100
AcDbVertex
100
AcDb2dVertex
 10
108.9900743000094
 20
-221.3301594498758
 30
0.0
  0
VERTEX
  5
15B
330
14E
100
AcDbEntity
  8
\U+838C\U+8343\U+8384\U+815B_1
100
AcDbVertex
100
AcDb2dVertex
 10
110.9255289436228
 20
-221.2460991200357
 30
0.0
  0
VERTEX
  5
15C
330
14E
100
AcDbEntity
  8
\U+838C\U+8343\U+8384\U+815B_1
100
AcDbVertex
100
AcDb2dVertex
 10
112.6801160742605
 20
-221.1627278092926
 30
0.0
  0
VERTEX
  5
15D
330
14E
100
AcDbEntity
  8
\U+838C\U+8343\U+8384\U+815B_1
100
AcDbVertex
100
AcDb2dVertex
 10
114.7688774669675
 20
-221.0097655697476
 30
0.0
  0
VERTEX
  5
15E
330
14E
100
AcDbEntity
  8
\U+838C\U+8343\U+8384\U+815B_1
100
AcDbVertex
100
AcDb2dVertex
 10
116.5372449795462
 20
-220.9263942590045
 30
0.0
  0
VERTEX
  5
15F
330
14E
100
AcDbEntity
  8
\U+838C\U+8343\U+8384\U+815B_1
100
AcDbVertex
100
AcDb2dVertex
 10
117.9714382300558
 20
-220.8561143111054
 30
0.0
  0
VERTEX
  5
160
330
14E
100
AcDbEntity
  8
\U+838C\U+8343\U+8384\U+815B_1
100
AcDbVertex
100
AcDb2dVertex
 10
119.099017982378
 20
-220.6893716896193
 30
0.0
  0
VERTEX
  5
161
330
14E
100
AcDbEntity
  8
\U+838C\U+8343\U+8384\U+815B_1
100
AcDbVertex
100
AcDb2dVertex
 10
119.7398057426345
 20
-220.6060003788763
 30
0.0
  0
VERTEX
  5
162
330
14E
100
AcDbEntity
  8
\U+838C\U+8343\U+8384\U+815B_1
100
AcDbVertex
100
AcDb2dVertex
 10
119.9764838024712
 20
-220.5219400490362
 30
0.0
  0
VERTEX
  5
163
330
14E
100
AcDbEntity
  8
\U+838C\U+8343\U+8384\U+815B_1
100
AcDbVertex
100
AcDb2dVertex
 10
119.9764838024712
 20
-220.4523491202341
 30
0.0
  0
SEQEND
  5
164
330
14E
100
AcDbEntity
  8
\U+838C\U+8343\U+8384\U+815B_1
  0
POLYLINE
  5
165
330
3C
100
AcDbEntity
  8
\U+838C\U+8343\U+8384\U+815B_1
100
AcDb2dPolyline
 66
     1
 10
0.0
 20
0.0
 30
0.0
  0
VERTEX
  5
166
330
165
100
AcDbEntity
  8
\U+838C\U+8343\U+8384\U+815B_1
100
AcDbVertex
100
AcDb2dVertex
 10
90.23428545921226
 20
-222.5276746405486
 30
0.0
  0
VERTEX
  5
167
330
165
100
AcDbEntity
  8
\U+838C\U+8343\U+8384\U+815B_1
100
AcDbVertex
100
AcDb2dVertex
 10
90.26201847786852
 20
-222.5276746405486
 30
0.0
  0
SEQEND
  5
168
330
165
100
AcDbEntity
  8
\U+838C\U+8343\U+8384\U+815B_1
  0
POLYLINE
  5
169
330
3C
100
AcDbEntity
  8
\U+838C\U+8343\U+8384\U+815B_1
100
AcDb2dPolyline
 66
     1
 10
0.0
 20
0.0
 30
0.0
  0
VERTEX
  5
16A
330
169
100
AcDbEntity
  8
\U+838C\U+8343\U+8384\U+815B_1
100
AcDbVertex
100
AcDb2dVertex
 10
90.30387638801432
 20
-226.7045084068656
 30
0.0
  0
VERTEX
  5
16B
330
169
100
AcDbEntity
  8
\U+838C\U+8343\U+8384\U+815B_1
100
AcDbVertex
100
AcDb2dVertex
 10
90.23428545921226
 20
-226.6211370961225
 30
0.0
  0
VERTEX
  5
16C
330
169
100
AcDbEntity
  8
\U+838C\U+8343\U+8384\U+815B_1
100
AcDbVertex
100
AcDb2dVertex
 10
90.55450708456624
 20
-226.5377657853795
 30
0.0
  0
VERTEX
  5
16D
330
169
100
AcDbEntity
  8
\U+838C\U+8343\U+8384\U+815B_1
100
AcDbVertex
100
AcDb2dVertex
 10
91.2647135188505
 20
-226.3841145267373
 30
0.0
  0
VERTEX
  5
16E
330
169
100
AcDbEntity
  8
\U+838C\U+8343\U+8384\U+815B_1
100
AcDbVertex
100
AcDb2dVertex
 10
92.39246552594703
 20
-226.3007432159943
 30
0.0
  0
VERTEX
  5
16F
330
169
100
AcDbEntity
  8
\U+838C\U+8343\U+8384\U+815B_1
100
AcDbVertex
100
AcDb2dVertex
 10
93.8406114131718
 20
-226.2173719052512
 30
0.0
  0
VERTEX
  5
170
330
169
100
AcDbEntity
  8
\U+838C\U+8343\U+8384\U+815B_1
100
AcDbVertex
100
AcDb2dVertex
 10
95.67856985455258
 20
-226.0644096657061
 30
0.0
  0
VERTEX
  5
171
330
169
100
AcDbEntity
  8
\U+838C\U+8343\U+8384\U+815B_1
100
AcDbVertex
100
AcDb2dVertex
 10
97.76733124725956
 20
-225.980349335866
 30
0.0
  0
VERTEX
  5
172
330
169
100
AcDbEntity
  8
\U+838C\U+8343\U+8384\U+815B_1
100
AcDbVertex
100
AcDb2dVertex
 10
100.0090548795116
 20
-225.896978025123
 30
0.0
  0
VERTEX
  5
173
330
169
100
AcDbEntity
  8
\U+838C\U+8343\U+8384\U+815B_1
100
AcDbVertex
100
AcDb2dVertex
 10
102.4178656427983
 20
-225.7440157855779
 30
0.0
  0
VERTEX
  5
174
330
169
100
AcDbEntity
  8
\U+838C\U+8343\U+8384\U+815B_1
100
AcDbVertex
100
AcDb2dVertex
 10
104.9799831551786
 20
-225.6606444748348
 30
0.0
  0
VERTEX
  5
175
330
169
100
AcDbEntity
  8
\U+838C\U+8343\U+8384\U+815B_1
100
AcDbVertex
100
AcDb2dVertex
 10
107.4725097387569
 20
-225.4932128342517
 30
0.0
  0
VERTEX
  5
176
330
169
100
AcDbEntity
  8
\U+838C\U+8343\U+8384\U+815B_1
100
AcDbVertex
100
AcDb2dVertex
 10
109.8813205020436
 20
-225.4236219054497
 30
0.0
  0
VERTEX
  5
177
330
169
100
AcDbEntity
  8
\U+838C\U+8343\U+8384\U+815B_1
100
AcDbVertex
100
AcDb2dVertex
 10
112.2067599545872
 20
-225.3402505947066
 30
0.0
  0
VERTEX
  5
178
330
169
100
AcDbEntity
  8
\U+838C\U+8343\U+8384\U+815B_1
100
AcDbVertex
100
AcDb2dVertex
 10
114.2813964558047
 20
-225.1728189541235
 30
0.0
  0
VERTEX
  5
179
330
169
100
AcDbEntity
  8
\U+838C\U+8343\U+8384\U+815B_1
100
AcDbVertex
100
AcDb2dVertex
 10
116.133479788675
 20
-225.1032280253214
 30
0.0
  0
VERTEX
  5
17A
330
169
100
AcDbEntity
  8
\U+838C\U+8343\U+8384\U+815B_1
100
AcDbVertex
100
AcDb2dVertex
 10
117.6510443499275
 20
-224.9364854038353
 30
0.0
  0
VERTEX
  5
17B
330
169
100
AcDbEntity
  8
\U+838C\U+8343\U+8384\U+815B_1
100
AcDbVertex
100
AcDb2dVertex
 10
118.8623399225414
 20
-224.8524250739952
 30
0.0
  0
VERTEX
  5
17C
330
169
100
AcDbEntity
  8
\U+838C\U+8343\U+8384\U+815B_1
100
AcDbVertex
100
AcDb2dVertex
 10
119.6560899223429
 20
-224.7828341451932
 30
0.0
  0
VERTEX
  5
17D
330
169
100
AcDbEntity
  8
\U+838C\U+8343\U+8384\U+815B_1
100
AcDbVertex
100
AcDb2dVertex
 10
119.9764838024712
 20
-224.6160915237071
 30
0.0
  0
SEQEND
  5
17E
330
169
100
AcDbEntity
  8
\U+838C\U+8343\U+8384\U+815B_1
  0
POLYLINE
  5
17F
330
3C
100
AcDbEntity
  8
\U+838C\U+8343\U+8384\U+815B_1
100
AcDb2dPolyline
 66
     1
 10
0.0
 20
0.0
 30
0.0
  0
VERTEX
  5
180
330
17F
100
AcDbEntity
  8
\U+838C\U+8343\U+8384\U+815B_1
100
AcDbVertex
100
AcDb2dVertex
 10
106.1079074170494
 20
-229.7541069304087
 30
0.0
  0
VERTEX
  5
181
330
17F
100
AcDbEntity
  8
\U+838C\U+8343\U+8384\U+815B_1
100
AcDbVertex
100
AcDb2dVertex
 10
107.9458658584302
 20
-229.6707356196657
 30
0.0
  0
VERTEX
  5
182
330
17F
100
AcDbEntity
  8
\U+838C\U+8343\U+8384\U+815B_1
100
AcDbVertex
100
AcDb2dVertex
 10
110.3546766217169
 20
-229.5033039790825
 30
0.0
  0
VERTEX
  5
183
330
17F
100
AcDbEntity
  8
\U+838C\U+8343\U+8384\U+815B_1
100
AcDbVertex
100
AcDb2dVertex
 10
112.6801160742605
 20
-229.4337130502805
 30
0.0
  0
VERTEX
  5
184
330
17F
100
AcDbEntity
  8
\U+838C\U+8343\U+8384\U+815B_1
100
AcDbVertex
100
AcDb2dVertex
 10
114.6851616466759
 20
-229.2669704287944
 30
0.0
  0
VERTEX
  5
185
330
17F
100
AcDbEntity
  8
\U+838C\U+8343\U+8384\U+815B_1
100
AcDbVertex
100
AcDb2dVertex
 10
116.5372449795462
 20
-229.1829100989543
 30
0.0
  0
SEQEND
  5
186
330
17F
100
AcDbEntity
  8
\U+838C\U+8343\U+8384\U+815B_1
  0
POLYLINE
  5
187
330
3C
100
AcDbEntity
  8
\U+838C\U+8343\U+8384\U+815B_1
100
AcDb2dPolyline
 66
     1
 10
0.0
 20
0.0
 30
0.0
  0
VERTEX
  5
188
330
187
100
AcDbEntity
  8
\U+838C\U+8343\U+8384\U+815B_1
100
AcDbVertex
100
AcDb2dVertex
 10
116.5372449795462
 20
-229.1829100989543
 30
0.0
  0
VERTEX
  5
189
330
187
100
AcDbEntity
  8
\U+838C\U+8343\U+8384\U+815B_1
100
AcDbVertex
100
AcDb2dVertex
 10
117.9018473012537
 20
-229.1133191701522
 30
0.0
  0
SEQEND
  5
18A
330
187
100
AcDbEntity
  8
\U+838C\U+8343\U+8384\U+815B_1
  0
POLYLINE
  5
18B
330
3C
100
AcDbEntity
  8
\U+838C\U+8343\U+8384\U+815B_1
100
AcDb2dPolyline
 66
     1
 10
0.0
 20
0.0
 30
0.0
  0
VERTEX
  5
18C
330
18B
100
AcDbEntity
  8
\U+838C\U+8343\U+8384\U+815B_1
100
AcDbVertex
100
AcDb2dVertex
 10
117.9018473012537
 20
-229.1133191701522
 30
0.0
  0
VERTEX
  5
18D
330
18B
100
AcDbEntity
  8
\U+838C\U+8343\U+8384\U+815B_1
100
AcDbVertex
100
AcDb2dVertex
 10
119.015646671635
 20
-228.9465765486661
 30
0.0
  0
VERTEX
  5
18E
330
18B
100
AcDbEntity
  8
\U+838C\U+8343\U+8384\U+815B_1
100
AcDbVertex
100
AcDb2dVertex
 10
119.7398057426345
 20
-228.8632052379231
 30
0.0
  0
VERTEX
  5
18F
330
18B
100
AcDbEntity
  8
\U+838C\U+8343\U+8384\U+815B_1
100
AcDbVertex
100
AcDb2dVertex
 10
119.9764838024712
 20
-228.709553979281
 30
0.0
  0
SEQEND
  5
190
330
18B
100
AcDbEntity
  8
\U+838C\U+8343\U+8384\U+815B_1
  0
POLYLINE
  5
191
330
3C
100
AcDbEntity
  8
\U+838C\U+8343\U+8384\U+815B_1
100
AcDb2dPolyline
 66
     1
 10
0.0
 20
0.0
 30
0.0
  0
VERTEX
  5
192
330
191
100
AcDbEntity
  8
\U+838C\U+8343\U+8384\U+815B_1
100
AcDbVertex
100
AcDb2dVertex
 10
36.97397053112109
 20
-100.7306301288972
 30
0.0
  0
VERTEX
  5
193
330
191
100
AcDbEntity
  8
\U+838C\U+8343\U+8384\U+815B_1
100
AcDbVertex
100
AcDb2dVertex
 10
37.37790797676664
 20
-100.7306301288972
 30
0.0
  0
VERTEX
  5
194
330
191
100
AcDbEntity
  8
\U+838C\U+8343\U+8384\U+815B_1
100
AcDbVertex
100
AcDb2dVertex
 10
37.93480766195727
 20
-100.7306301288972
 30
0.0
  0
VERTEX
  5
195
330
191
100
AcDbEntity
  8
\U+838C\U+8343\U+8384\U+815B_1
100
AcDbVertex
100
AcDb2dVertex
 10
38.82588160921714
 20
-100.7306301288972
 30
0.0
  0
VERTEX
  5
196
330
191
100
AcDbEntity
  8
\U+838C\U+8343\U+8384\U+815B_1
100
AcDbVertex
100
AcDb2dVertex
 10
39.87026230557063
 20
-100.7306301288972
 30
0.0
  0
VERTEX
  5
197
330
191
100
AcDbEntity
  8
\U+838C\U+8343\U+8384\U+815B_1
100
AcDbVertex
100
AcDb2dVertex
 10
41.23486462727809
 20
-100.7306301288972
 30
0.0
  0
VERTEX
  5
198
330
191
100
AcDbEntity
  8
\U+838C\U+8343\U+8384\U+815B_1
100
AcDbVertex
100
AcDb2dVertex
 10
42.83614500882221
 20
-100.7306301288972
 30
0.0
  0
VERTEX
  5
199
330
191
100
AcDbEntity
  8
\U+838C\U+8343\U+8384\U+815B_1
100
AcDbVertex
100
AcDb2dVertex
 10
44.67410345020301
 20
-100.7306301288972
 30
0.0
  0
VERTEX
  5
19A
330
191
100
AcDbEntity
  8
\U+838C\U+8343\U+8384\U+815B_1
100
AcDbVertex
100
AcDb2dVertex
 10
46.76269258813572
 20
-100.7306301288972
 30
0.0
  0
VERTEX
  5
19B
330
191
100
AcDbEntity
  8
\U+838C\U+8343\U+8384\U+815B_1
100
AcDbVertex
100
AcDb2dVertex
 10
49.08813204067935
 20
-100.7306301288972
 30
0.0
  0
VERTEX
  5
19C
330
191
100
AcDbEntity
  8
\U+838C\U+8343\U+8384\U+815B_1
100
AcDbVertex
100
AcDb2dVertex
 10
51.65024955305966
 20
-100.7306301288972
 30
0.0
  0
VERTEX
  5
19D
330
191
100
AcDbEntity
  8
\U+838C\U+8343\U+8384\U+815B_1
100
AcDbVertex
100
AcDb2dVertex
 10
54.37928194170032
 20
-100.7306301288972
 30
0.0
  0
VERTEX
  5
19E
330
191
100
AcDbEntity
  8
\U+838C\U+8343\U+8384\U+815B_1
100
AcDbVertex
100
AcDb2dVertex
 10
57.2616210794346
 20
-100.7306301288972
 30
0.0
  0
VERTEX
  5
19F
330
191
100
AcDbEntity
  8
\U+838C\U+8343\U+8384\U+815B_1
100
AcDbVertex
100
AcDb2dVertex
 10
60.3945909137208
 20
-100.7306301288972
 30
0.0
  0
VERTEX
  5
1A0
330
191
100
AcDbEntity
  8
\U+838C\U+8343\U+8384\U+815B_1
100
AcDbVertex
100
AcDb2dVertex
 10
63.68069524232636
 20
-100.7306301288972
 30
0.0
  0
VERTEX
  5
1A1
330
191
100
AcDbEntity
  8
\U+838C\U+8343\U+8384\U+815B_1
100
AcDbVertex
100
AcDb2dVertex
 10
67.13388670196653
 20
-100.7306301288972
 30
0.0
  0
VERTEX
  5
1A2
330
191
100
AcDbEntity
  8
\U+838C\U+8343\U+8384\U+815B_1
100
AcDbVertex
100
AcDb2dVertex
 10
70.74038491070033
 20
-100.7306301288972
 30
0.0
  0
VERTEX
  5
1A3
330
191
100
AcDbEntity
  8
\U+838C\U+8343\U+8384\U+815B_1
100
AcDbVertex
100
AcDb2dVertex
 10
74.43025443017716
 20
-100.7306301288972
 30
0.0
  0
VERTEX
  5
1A4
330
191
100
AcDbEntity
  8
\U+838C\U+8343\U+8384\U+815B_1
100
AcDbVertex
100
AcDb2dVertex
 10
78.27325844397336
 20
-100.7306301288972
 30
0.0
  0
VERTEX
  5
1A5
330
191
100
AcDbEntity
  8
\U+838C\U+8343\U+8384\U+815B_1
100
AcDbVertex
100
AcDb2dVertex
 10
82.28352184357843
 20
-100.7306301288972
 30
0.0
  0
VERTEX
  5
1A6
330
191
100
AcDbEntity
  8
\U+838C\U+8343\U+8384\U+815B_1
100
AcDbVertex
100
AcDb2dVertex
 10
86.29361298840924
 20
-100.7306301288972
 30
0.0
  0
VERTEX
  5
1A7
330
191
100
AcDbEntity
  8
\U+838C\U+8343\U+8384\U+815B_1
100
AcDbVertex
100
AcDb2dVertex
 10
90.38741995353162
 20
-100.7306301288972
 30
0.0
  0
VERTEX
  5
1A8
330
191
100
AcDbEntity
  8
\U+838C\U+8343\U+8384\U+815B_1
100
AcDbVertex
100
AcDb2dVertex
 10
94.5647704841713
 20
-100.7306301288972
 30
0.0
  0
VERTEX
  5
1A9
330
191
100
AcDbEntity
  8
\U+838C\U+8343\U+8384\U+815B_1
100
AcDbVertex
100
AcDb2dVertex
 10
98.81153968883879
 20
-100.7306301288972
 30
0.0
  0
VERTEX
  5
1AA
330
191
100
AcDbEntity
  8
\U+838C\U+8343\U+8384\U+815B_1
100
AcDbVertex
100
AcDb2dVertex
 10
102.9749375827632
 20
-100.7306301288972
 30
0.0
  0
VERTEX
  5
1AB
330
191
100
AcDbEntity
  8
\U+838C\U+8343\U+8384\U+815B_1
100
AcDbVertex
100
AcDb2dVertex
 10
107.2358316789202
 20
-100.7306301288972
 30
0.0
  0
VERTEX
  5
1AC
330
191
100
AcDbEntity
  8
\U+838C\U+8343\U+8384\U+815B_1
100
AcDbVertex
100
AcDb2dVertex
 10
111.4826008835877
 20
-100.7306301288972
 30
0.0
  0
VERTEX
  5
1AD
330
191
100
AcDbEntity
  8
\U+838C\U+8343\U+8384\U+815B_1
100
AcDbVertex
100
AcDb2dVertex
 10
115.7293700882552
 20
-100.7306301288972
 30
0.0
  0
VERTEX
  5
1AE
330
191
100
AcDbEntity
  8
\U+838C\U+8343\U+8384\U+815B_1
100
AcDbVertex
100
AcDb2dVertex
 10
119.9068928736691
 20
-100.7306301288972
 30
0.0
  0
VERTEX
  5
1AF
330
191
100
AcDbEntity
  8
\U+838C\U+8343\U+8384\U+815B_1
100
AcDbVertex
100
AcDb2dVertex
 10
123.986574947302
 20
-100.7306301288972
 30
0.0
  0
VERTEX
  5
1B0
330
191
100
AcDbEntity
  8
\U+838C\U+8343\U+8384\U+815B_1
100
AcDbVertex
100
AcDb2dVertex
 10
127.9966660921328
 20
-100.7306301288972
 30
0.0
  0
VERTEX
  5
1B1
330
191
100
AcDbEntity
  8
\U+838C\U+8343\U+8384\U+815B_1
100
AcDbVertex
100
AcDb2dVertex
 10
131.9375108177101
 20
-100.7306301288972
 30
0.0
  0
VERTEX
  5
1B2
330
191
100
AcDbEntity
  8
\U+838C\U+8343\U+8384\U+815B_1
100
AcDbVertex
100
AcDb2dVertex
 10
135.7805148315063
 20
-100.7306301288972
 30
0.0
  0
VERTEX
  5
1B3
330
191
100
AcDbEntity
  8
\U+838C\U+8343\U+8384\U+815B_1
100
AcDbVertex
100
AcDb2dVertex
 10
139.5539279165004
 20
-100.7306301288972
 30
0.0
  0
VERTEX
  5
1B4
330
191
100
AcDbEntity
  8
\U+838C\U+8343\U+8384\U+815B_1
100
AcDbVertex
100
AcDb2dVertex
 10
143.1602538704599
 20
-100.7306301288972
 30
0.0
  0
VERTEX
  5
1B5
330
191
100
AcDbEntity
  8
\U+838C\U+8343\U+8384\U+815B_1
100
AcDbVertex
100
AcDb2dVertex
 10
146.6136175848744
 20
-100.7306301288972
 30
0.0
  0
VERTEX
  5
1B6
330
191
100
AcDbEntity
  8
\U+838C\U+8343\U+8384\U+815B_1
100
AcDbVertex
100
AcDb2dVertex
 10
149.8995496587057
 20
-100.7306301288972
 30
0.0
  0
VERTEX
  5
1B7
330
191
100
AcDbEntity
  8
\U+838C\U+8343\U+8384\U+815B_1
100
AcDbVertex
100
AcDb2dVertex
 10
152.9491481822488
 20
-100.7306301288972
 30
0.0
  0
VERTEX
  5
1B8
330
191
100
AcDbEntity
  8
\U+838C\U+8343\U+8384\U+815B_1
100
AcDbVertex
100
AcDb2dVertex
 10
155.9150308855004
 20
-100.7306301288972
 30
0.0
  0
VERTEX
  5
1B9
330
191
100
AcDbEntity
  8
\U+838C\U+8343\U+8384\U+815B_1
100
AcDbVertex
100
AcDb2dVertex
 10
158.6301106374258
 20
-100.7306301288972
 30
0.0
  0
VERTEX
  5
1BA
330
191
100
AcDbEntity
  8
\U+838C\U+8343\U+8384\U+815B_1
100
AcDbVertex
100
AcDb2dVertex
 10
161.1226372210041
 20
-100.7306301288972
 30
0.0
  0
VERTEX
  5
1BB
330
191
100
AcDbEntity
  8
\U+838C\U+8343\U+8384\U+815B_1
100
AcDbVertex
100
AcDb2dVertex
 10
163.4477321639992
 20
-100.7306301288972
 30
0.0
  0
VERTEX
  5
1BC
330
191
100
AcDbEntity
  8
\U+838C\U+8343\U+8384\U+815B_1
100
AcDbVertex
100
AcDb2dVertex
 10
165.5364935567061
 20
-100.7306301288972
 30
0.0
  0
VERTEX
  5
1BD
330
191
100
AcDbEntity
  8
\U+838C\U+8343\U+8384\U+815B_1
100
AcDbVertex
100
AcDb2dVertex
 10
167.374451998087
 20
-100.7306301288972
 30
0.0
  0
VERTEX
  5
1BE
330
191
100
AcDbEntity
  8
\U+838C\U+8343\U+8384\U+815B_1
100
AcDbVertex
100
AcDb2dVertex
 10
168.9757323796311
 20
-100.7306301288972
 30
0.0
  0
VERTEX
  5
1BF
330
191
100
AcDbEntity
  8
\U+838C\U+8343\U+8384\U+815B_1
100
AcDbVertex
100
AcDb2dVertex
 10
170.3403347013385
 20
-100.7306301288972
 30
0.0
  0
VERTEX
  5
1C0
330
191
100
AcDbEntity
  8
\U+838C\U+8343\U+8384\U+815B_1
100
AcDbVertex
100
AcDb2dVertex
 10
171.4682589632093
 20
-100.7306301288972
 30
0.0
  0
VERTEX
  5
1C1
330
191
100
AcDbEntity
  8
\U+838C\U+8343\U+8384\U+815B_1
100
AcDbVertex
100
AcDb2dVertex
 10
172.3453802737539
 20
-100.7306301288972
 30
0.0
  0
VERTEX
  5
1C2
330
191
100
AcDbEntity
  8
\U+838C\U+8343\U+8384\U+815B_1
100
AcDbVertex
100
AcDb2dVertex
 10
172.9162325956598
 20
-100.7306301288972
 30
0.0
  0
VERTEX
  5
1C3
330
191
100
AcDbEntity
  8
\U+838C\U+8343\U+8384\U+815B_1
100
AcDbVertex
100
AcDb2dVertex
 10
173.2366264757881
 20
-100.7306301288972
 30
0.0
  0
VERTEX
  5
1C4
330
191
100
AcDbEntity
  8
\U+838C\U+8343\U+8384\U+815B_1
100
AcDbVertex
100
AcDb2dVertex
 10
173.3062174045901
 20
-100.7306301288972
 30
0.0
  0
SEQEND
  5
1C5
330
191
100
AcDbEntity
  8
\U+838C\U+8343\U+8384\U+815B_1
  0
POLYLINE
  5
1C6
330
3C
100
AcDbEntity
  8
\U+838C\U+8343\U+8384\U+815B_1
100
AcDb2dPolyline
 66
     1
 10
0.0
 20
0.0
 30
0.0
  0
VERTEX
  5
1C7
330
1C6
100
AcDbEntity
  8
\U+838C\U+8343\U+8384\U+815B_1
100
AcDbVertex
100
AcDb2dVertex
 10
36.97397053112109
 20
-100.7306301288972
 30
0.0
  0
VERTEX
  5
1C8
330
1C6
100
AcDbEntity
  8
\U+838C\U+8343\U+8384\U+815B_1
100
AcDbVertex
100
AcDb2dVertex
 10
37.00187580455162
 20
-100.7306301288972
 30
0.0
  0
SEQEND
  5
1C9
330
1C6
100
AcDbEntity
  8
\U+838C\U+8343\U+8384\U+815B_1
  0
POLYLINE
  5
1CA
330
3C
100
AcDbEntity
  8
\U+838C\U+8343\U+8384\U+815B_1
100
AcDb2dPolyline
 66
     1
 10
0.0
 20
0.0
 30
0.0
  0
VERTEX
  5
1CB
330
1CA
100
AcDbEntity
  8
\U+838C\U+8343\U+8384\U+815B_1
100
AcDbVertex
100
AcDb2dVertex
 10
44.5905598846857
 20
-123.2603488190113
 30
0.0
  0
VERTEX
  5
1CC
330
1CA
100
AcDbEntity
  8
\U+838C\U+8343\U+8384\U+815B_1
100
AcDbVertex
100
AcDb2dVertex
 10
44.67410345020301
 20
-123.2603488190113
 30
0.0
  0
VERTEX
  5
1CD
330
1CA
100
AcDbEntity
  8
\U+838C\U+8343\U+8384\U+815B_1
100
AcDbVertex
100
AcDb2dVertex
 10
45.07786864107428
 20
-123.2603488190113
 30
0.0
  0
VERTEX
  5
1CE
330
1CA
100
AcDbEntity
  8
\U+838C\U+8343\U+8384\U+815B_1
100
AcDbVertex
100
AcDb2dVertex
 10
45.63494058103918
 20
-123.2603488190113
 30
0.0
  0
VERTEX
  5
1CF
330
1CA
100
AcDbEntity
  8
\U+838C\U+8343\U+8384\U+815B_1
100
AcDbVertex
100
AcDb2dVertex
 10
46.52601452829905
 20
-123.2603488190113
 30
0.0
  0
VERTEX
  5
1D0
330
1CA
100
AcDbEntity
  8
\U+838C\U+8343\U+8384\U+815B_1
100
AcDbVertex
100
AcDb2dVertex
 10
47.57039522465254
 20
-123.2603488190113
 30
0.0
  0
VERTEX
  5
1D1
330
1CA
100
AcDbEntity
  8
\U+838C\U+8343\U+8384\U+815B_1
100
AcDbVertex
100
AcDb2dVertex
 10
48.92104490964474
 20
-123.2603488190113
 30
0.0
  0
VERTEX
  5
1D2
330
1CA
100
AcDbEntity
  8
\U+838C\U+8343\U+8384\U+815B_1
100
AcDbVertex
100
AcDb2dVertex
 10
50.53627792790413
 20
-123.2603488190113
 30
0.0
  0
VERTEX
  5
1D3
330
1CA
100
AcDbEntity
  8
\U+838C\U+8343\U+8384\U+815B_1
100
AcDbVertex
100
AcDb2dVertex
 10
52.37423636928492
 20
-123.2603488190113
 30
0.0
  0
VERTEX
  5
1D4
330
1CA
100
AcDbEntity
  8
\U+838C\U+8343\U+8384\U+815B_1
100
AcDbVertex
100
AcDb2dVertex
 10
54.46282550721763
 20
-123.2603488190113
 30
0.0
  0
VERTEX
  5
1D5
330
1CA
100
AcDbEntity
  8
\U+838C\U+8343\U+8384\U+815B_1
100
AcDbVertex
100
AcDb2dVertex
 10
56.78826495976127
 20
-123.2603488190113
 30
0.0
  0
VERTEX
  5
1D6
330
1CA
100
AcDbEntity
  8
\U+838C\U+8343\U+8384\U+815B_1
100
AcDbVertex
100
AcDb2dVertex
 10
59.26666665185
 20
-123.2603488190113
 30
0.0
  0
VERTEX
  5
1D7
330
1CA
100
AcDbEntity
  8
\U+838C\U+8343\U+8384\U+815B_1
100
AcDbVertex
100
AcDb2dVertex
 10
61.99587129526493
 20
-123.2603488190113
 30
0.0
  0
VERTEX
  5
1D8
330
1CA
100
AcDbEntity
  8
\U+838C\U+8343\U+8384\U+815B_1
100
AcDbVertex
100
AcDb2dVertex
 10
64.89216306971446
 20
-123.2603488190113
 30
0.0
  0
VERTEX
  5
1D9
330
1CA
100
AcDbEntity
  8
\U+838C\U+8343\U+8384\U+815B_1
100
AcDbVertex
100
AcDb2dVertex
 10
67.94158933848335
 20
-123.2603488190113
 30
0.0
  0
VERTEX
  5
1DA
330
1CA
100
AcDbEntity
  8
\U+838C\U+8343\U+8384\U+815B_1
100
AcDbVertex
100
AcDb2dVertex
 10
71.22769366708891
 20
-123.2603488190113
 30
0.0
  0
VERTEX
  5
1DB
330
1CA
100
AcDbEntity
  8
\U+838C\U+8343\U+8384\U+815B_1
100
AcDbVertex
100
AcDb2dVertex
 10
74.58338892449652
 20
-123.2603488190113
 30
0.0
  0
VERTEX
  5
1DC
330
1CA
100
AcDbEntity
  8
\U+838C\U+8343\U+8384\U+815B_1
100
AcDbVertex
100
AcDb2dVertex
 10
78.120123949654
 20
-123.2603488190113
 30
0.0
  0
VERTEX
  5
1DD
330
1CA
100
AcDbEntity
  8
\U+838C\U+8343\U+8384\U+815B_1
100
AcDbVertex
100
AcDb2dVertex
 10
81.7266221583878
 20
-123.2603488190113
 30
0.0
  0
VERTEX
  5
1DE
330
1CA
100
AcDbEntity
  8
\U+838C\U+8343\U+8384\U+815B_1
100
AcDbVertex
100
AcDb2dVertex
 10
85.50003524338194
 20
-123.2603488190113
 30
0.0
  0
VERTEX
  5
1DF
330
1CA
100
AcDbEntity
  8
\U+838C\U+8343\U+8384\U+815B_1
100
AcDbVertex
100
AcDb2dVertex
 10
89.34303925717813
 20
-123.2603488190113
 30
0.0
  0
VERTEX
  5
1E0
330
1CA
100
AcDbEntity
  8
\U+838C\U+8343\U+8384\U+815B_1
100
AcDbVertex
100
AcDb2dVertex
 10
93.20016816246385
 20
-123.2603488190113
 30
0.0
  0
VERTEX
  5
1E1
330
1CA
100
AcDbEntity
  8
\U+838C\U+8343\U+8384\U+815B_1
100
AcDbVertex
100
AcDb2dVertex
 10
97.12671574177736
 20
-123.2603488190113
 30
0.0
  0
VERTEX
  5
1E2
330
1CA
100
AcDbEntity
  8
\U+838C\U+8343\U+8384\U+815B_1
100
AcDbVertex
100
AcDb2dVertex
 10
101.1369791413824
 20
-123.2603488190113
 30
0.0
  0
VERTEX
  5
1E3
330
1CA
100
AcDbEntity
  8
\U+838C\U+8343\U+8384\U+815B_1
100
AcDbVertex
100
AcDb2dVertex
 10
105.1470702862132
 20
-123.2603488190113
 30
0.0
  0
SEQEND
  5
1E4
330
1CA
100
AcDbEntity
  8
\U+838C\U+8343\U+8384\U+815B_1
  0
POLYLINE
  5
1E5
330
3C
100
AcDbEntity
  8
\U+838C\U+8343\U+8384\U+815B_1
100
AcDb2dPolyline
 66
     1
 10
0.0
 20
0.0
 30
0.0
  0
VERTEX
  5
1E6
330
1E5
100
AcDbEntity
  8
\U+838C\U+8343\U+8384\U+815B_1
100
AcDbVertex
100
AcDb2dVertex
 10
105.1470702862132
 20
-123.2603488190113
 30
0.0
  0
VERTEX
  5
1E7
330
1E5
100
AcDbEntity
  8
\U+838C\U+8343\U+8384\U+815B_1
100
AcDbVertex
100
AcDb2dVertex
 10
109.157161431044
 20
-123.2603488190113
 30
0.0
  0
VERTEX
  5
1E8
330
1E5
100
AcDbEntity
  8
\U+838C\U+8343\U+8384\U+815B_1
100
AcDbVertex
100
AcDb2dVertex
 10
113.0838812651318
 20
-123.2603488190113
 30
0.0
  0
VERTEX
  5
1E9
330
1E5
100
AcDbEntity
  8
\U+838C\U+8343\U+8384\U+815B_1
100
AcDbVertex
100
AcDb2dVertex
 10
117.0939724099626
 20
-123.2603488190113
 30
0.0
  0
VERTEX
  5
1EA
330
1E5
100
AcDbEntity
  8
\U+838C\U+8343\U+8384\U+815B_1
100
AcDbVertex
100
AcDb2dVertex
 10
120.9511013152483
 20
-123.2603488190113
 30
0.0
  0
VERTEX
  5
1EB
330
1E5
100
AcDbEntity
  8
\U+838C\U+8343\U+8384\U+815B_1
100
AcDbVertex
100
AcDb2dVertex
 10
124.7941053290445
 20
-123.2603488190113
 30
0.0
  0
VERTEX
  5
1EC
330
1E5
100
AcDbEntity
  8
\U+838C\U+8343\U+8384\U+815B_1
100
AcDbVertex
100
AcDb2dVertex
 10
128.4841471032956
 20
-123.2603488190113
 30
0.0
  0
VERTEX
  5
1ED
330
1E5
100
AcDbEntity
  8
\U+838C\U+8343\U+8384\U+815B_1
100
AcDbVertex
100
AcDb2dVertex
 10
132.1741888775467
 20
-123.2603488190113
 30
0.0
  0
VERTEX
  5
1EE
330
1E5
100
AcDbEntity
  8
\U+838C\U+8343\U+8384\U+815B_1
100
AcDbVertex
100
AcDb2dVertex
 10
135.6967990112147
 20
-123.2603488190113
 30
0.0
  0
VERTEX
  5
1EF
330
1E5
100
AcDbEntity
  8
\U+838C\U+8343\U+8384\U+815B_1
100
AcDbVertex
100
AcDb2dVertex
 10
139.0664469053376
 20
-123.2603488190113
 30
0.0
  0
VERTEX
  5
1F0
330
1E5
100
AcDbEntity
  8
\U+838C\U+8343\U+8384\U+815B_1
100
AcDbVertex
100
AcDb2dVertex
 10
142.2831325599153
 20
-123.2603488190113
 30
0.0
  0
VERTEX
  5
1F1
330
1E5
100
AcDbEntity
  8
\U+838C\U+8343\U+8384\U+815B_1
100
AcDbVertex
100
AcDb2dVertex
 10
145.318606191969
 20
-123.2603488190113
 30
0.0
  0
VERTEX
  5
1F2
330
1E5
100
AcDbEntity
  8
\U+838C\U+8343\U+8384\U+815B_1
100
AcDbVertex
100
AcDb2dVertex
 10
148.2844888952206
 20
-123.2603488190113
 30
0.0
  0
VERTEX
  5
1F3
330
1E5
100
AcDbEntity
  8
\U+838C\U+8343\U+8384\U+815B_1
100
AcDbVertex
100
AcDb2dVertex
 10
150.9437581002849
 20
-123.2603488190113
 30
0.0
  0
VERTEX
  5
1F4
330
1E5
100
AcDbEntity
  8
\U+838C\U+8343\U+8384\U+815B_1
100
AcDbVertex
100
AcDb2dVertex
 10
153.5058756126652
 20
-123.2603488190113
 30
0.0
  0
VERTEX
  5
1F5
330
1E5
100
AcDbEntity
  8
\U+838C\U+8343\U+8384\U+815B_1
100
AcDbVertex
100
AcDb2dVertex
 10
155.7479437544658
 20
-123.2603488190113
 30
0.0
  0
VERTEX
  5
1F6
330
1E5
100
AcDbEntity
  8
\U+838C\U+8343\U+8384\U+815B_1
100
AcDbVertex
100
AcDb2dVertex
 10
157.8363606376242
 20
-123.2603488190113
 30
0.0
  0
VERTEX
  5
1F7
330
1E5
100
AcDbEntity
  8
\U+838C\U+8343\U+8384\U+815B_1
100
AcDbVertex
100
AcDb2dVertex
 10
159.674319079005
 20
-123.2603488190113
 30
0.0
  0
VERTEX
  5
1F8
330
1E5
100
AcDbEntity
  8
\U+838C\U+8343\U+8384\U+815B_1
100
AcDbVertex
100
AcDb2dVertex
 10
161.2897243520387
 20
-123.2603488190113
 30
0.0
  0
VERTEX
  5
1F9
330
1E5
100
AcDbEntity
  8
\U+838C\U+8343\U+8384\U+815B_1
100
AcDbVertex
100
AcDb2dVertex
 10
162.6402017822566
 20
-123.2603488190113
 30
0.0
  0
VERTEX
  5
1FA
330
1E5
100
AcDbEntity
  8
\U+838C\U+8343\U+8384\U+815B_1
100
AcDbVertex
100
AcDb2dVertex
 10
163.7681260441274
 20
-123.2603488190113
 30
0.0
  0
VERTEX
  5
1FB
330
1E5
100
AcDbEntity
  8
\U+838C\U+8343\U+8384\U+815B_1
100
AcDbVertex
100
AcDb2dVertex
 10
164.645247354672
 20
-123.2603488190113
 30
0.0
  0
VERTEX
  5
1FC
330
1E5
100
AcDbEntity
  8
\U+838C\U+8343\U+8384\U+815B_1
100
AcDbVertex
100
AcDb2dVertex
 10
165.2160996765779
 20
-123.2603488190113
 30
0.0
  0
VERTEX
  5
1FD
330
1E5
100
AcDbEntity
  8
\U+838C\U+8343\U+8384\U+815B_1
100
AcDbVertex
100
AcDb2dVertex
 10
165.5364935567061
 20
-123.2603488190113
 30
0.0
  0
VERTEX
  5
1FE
330
1E5
100
AcDbEntity
  8
\U+838C\U+8343\U+8384\U+815B_1
100
AcDbVertex
100
AcDb2dVertex
 10
165.6202093769977
 20
-123.2603488190113
 30
0.0
  0
SEQEND
  5
1FF
330
1E5
100
AcDbEntity
  8
\U+838C\U+8343\U+8384\U+815B_1
  0
POLYLINE
  5
200
330
3C
100
AcDbEntity
  8
\U+838C\U+8343\U+8384\U+815B_1
100
AcDb2dPolyline
 66
     1
 10
0.0
 20
0.0
 30
0.0
  0
VERTEX
  5
201
330
200
100
AcDbEntity
  8
\U+838C\U+8343\U+8384\U+815B_1
100
AcDbVertex
100
AcDb2dVertex
 10
169.3794975705024
 20
-116.9385986035779
 30
0.0
  0
VERTEX
  5
202
330
200
100
AcDbEntity
  8
\U+838C\U+8343\U+8384\U+815B_1
100
AcDbVertex
100
AcDb2dVertex
 10
169.2961262597593
 20
-116.9385986035779
 30
0.0
  0
VERTEX
  5
203
330
200
100
AcDbEntity
  8
\U+838C\U+8343\U+8384\U+815B_1
100
AcDbVertex
100
AcDb2dVertex
 10
169.0594481999227
 20
-116.9385986035779
 30
0.0
  0
VERTEX
  5
204
330
200
100
AcDbEntity
  8
\U+838C\U+8343\U+8384\U+815B_1
100
AcDbVertex
100
AcDb2dVertex
 10
168.5023762599577
 20
-116.9385986035779
 30
0.0
  0
VERTEX
  5
205
330
200
100
AcDbEntity
  8
\U+838C\U+8343\U+8384\U+815B_1
100
AcDbVertex
100
AcDb2dVertex
 10
167.7782171889582
 20
-116.9385986035779
 30
0.0
  0
VERTEX
  5
206
330
200
100
AcDbEntity
  8
\U+838C\U+8343\U+8384\U+815B_1
100
AcDbVertex
100
AcDb2dVertex
 10
166.734008747379
 20
-116.9385986035779
 30
0.0
  0
SEQEND
  5
207
330
200
100
AcDbEntity
  8
\U+838C\U+8343\U+8384\U+815B_1
  0
POLYLINE
  5
208
330
3C
100
AcDbEntity
  8
\U+838C\U+8343\U+8384\U+815B_1
100
AcDb2dPolyline
 66
     1
 10
0.0
 20
0.0
 30
0.0
  0
VERTEX
  5
209
330
208
100
AcDbEntity
  8
\U+838C\U+8343\U+8384\U+815B_1
100
AcDbVertex
100
AcDb2dVertex
 10
166.734008747379
 20
-116.9385986035779
 30
0.0
  0
VERTEX
  5
20A
330
208
100
AcDbEntity
  8
\U+838C\U+8343\U+8384\U+815B_1
100
AcDbVertex
100
AcDb2dVertex
 10
165.3694064256715
 20
-116.9385986035779
 30
0.0
  0
SEQEND
  5
20B
330
208
100
AcDbEntity
  8
\U+838C\U+8343\U+8384\U+815B_1
  0
POLYLINE
  5
20C
330
3C
100
AcDbEntity
  8
\U+838C\U+8343\U+8384\U+815B_1
100
AcDb2dPolyline
 66
     1
 10
0.0
 20
0.0
 30
0.0
  0
VERTEX
  5
20D
330
20C
100
AcDbEntity
  8
\U+838C\U+8343\U+8384\U+815B_1
100
AcDbVertex
100
AcDb2dVertex
 10
165.3694064256715
 20
-116.9385986035779
 30
0.0
  0
VERTEX
  5
20E
330
20C
100
AcDbEntity
  8
\U+838C\U+8343\U+8384\U+815B_1
100
AcDbVertex
100
AcDb2dVertex
 10
163.851841864419
 20
-116.9385986035779
 30
0.0
  0
VERTEX
  5
20F
330
20C
100
AcDbEntity
  8
\U+838C\U+8343\U+8384\U+815B_1
100
AcDbVertex
100
AcDb2dVertex
 10
162.0834743518402
 20
-116.9385986035779
 30
0.0
  0
VERTEX
  5
210
330
20C
100
AcDbEntity
  8
\U+838C\U+8343\U+8384\U+815B_1
100
AcDbVertex
100
AcDb2dVertex
 10
160.0780842698763
 20
-116.9385986035779
 30
0.0
  0
VERTEX
  5
211
330
20C
100
AcDbEntity
  8
\U+838C\U+8343\U+8384\U+815B_1
100
AcDbVertex
100
AcDb2dVertex
 10
157.8363606376242
 20
-116.9385986035779
 30
0.0
  0
VERTEX
  5
212
330
20C
100
AcDbEntity
  8
\U+838C\U+8343\U+8384\U+815B_1
100
AcDbVertex
100
AcDb2dVertex
 10
155.343834054046
 20
-116.9385986035779
 30
0.0
  0
VERTEX
  5
213
330
20C
100
AcDbEntity
  8
\U+838C\U+8343\U+8384\U+815B_1
100
AcDbVertex
100
AcDb2dVertex
 10
152.6983452309227
 20
-116.9385986035779
 30
0.0
  0
VERTEX
  5
214
330
20C
100
AcDbEntity
  8
\U+838C\U+8343\U+8384\U+815B_1
100
AcDbVertex
100
AcDb2dVertex
 10
149.8161783479626
 20
-116.9385986035779
 30
0.0
  0
VERTEX
  5
215
330
20C
100
AcDbEntity
  8
\U+838C\U+8343\U+8384\U+815B_1
100
AcDbVertex
100
AcDb2dVertex
 10
146.7665798244195
 20
-116.9385986035779
 30
0.0
  0
VERTEX
  5
216
330
20C
100
AcDbEntity
  8
\U+838C\U+8343\U+8384\U+815B_1
100
AcDbVertex
100
AcDb2dVertex
 10
143.5640190613312
 20
-116.9385986035779
 30
0.0
  0
VERTEX
  5
217
330
20C
100
AcDbEntity
  8
\U+838C\U+8343\U+8384\U+815B_1
100
AcDbVertex
100
AcDb2dVertex
 10
140.1943711672083
 20
-116.9385986035779
 30
0.0
  0
VERTEX
  5
218
330
20C
100
AcDbEntity
  8
\U+838C\U+8343\U+8384\U+815B_1
100
AcDbVertex
100
AcDb2dVertex
 10
136.6576361420509
 20
-116.9385986035779
 30
0.0
  0
VERTEX
  5
219
330
20C
100
AcDbEntity
  8
\U+838C\U+8343\U+8384\U+815B_1
100
AcDbVertex
100
AcDb2dVertex
 10
132.9675943677998
 20
-116.9385986035779
 30
0.0
  0
VERTEX
  5
21A
330
20C
100
AcDbEntity
  8
\U+838C\U+8343\U+8384\U+815B_1
100
AcDbVertex
100
AcDb2dVertex
 10
129.2083061742952
 20
-116.9385986035779
 30
0.0
  0
VERTEX
  5
21B
330
20C
100
AcDbEntity
  8
\U+838C\U+8343\U+8384\U+815B_1
100
AcDbVertex
100
AcDb2dVertex
 10
125.3511772690094
 20
-116.9385986035779
 30
0.0
  0
VERTEX
  5
21C
330
20C
100
AcDbEntity
  8
\U+838C\U+8343\U+8384\U+815B_1
100
AcDbVertex
100
AcDb2dVertex
 10
121.4244574349217
 20
-116.9385986035779
 30
0.0
  0
VERTEX
  5
21D
330
20C
100
AcDbEntity
  8
\U+838C\U+8343\U+8384\U+815B_1
100
AcDbVertex
100
AcDb2dVertex
 10
117.4143662900909
 20
-116.9385986035779
 30
0.0
  0
VERTEX
  5
21E
330
20C
100
AcDbEntity
  8
\U+838C\U+8343\U+8384\U+815B_1
100
AcDbVertex
100
AcDb2dVertex
 10
113.3205593249685
 20
-116.9385986035779
 30
0.0
  0
VERTEX
  5
21F
330
20C
100
AcDbEntity
  8
\U+838C\U+8343\U+8384\U+815B_1
100
AcDbVertex
100
AcDb2dVertex
 10
109.2408772513356
 20
-116.9385986035779
 30
0.0
  0
VERTEX
  5
220
330
20C
100
AcDbEntity
  8
\U+838C\U+8343\U+8384\U+815B_1
100
AcDbVertex
100
AcDb2dVertex
 10
105.1470702862132
 20
-116.9385986035779
 30
0.0
  0
VERTEX
  5
221
330
20C
100
AcDbEntity
  8
\U+838C\U+8343\U+8384\U+815B_1
100
AcDbVertex
100
AcDb2dVertex
 10
101.0534355758651
 20
-116.9385986035779
 30
0.0
  0
VERTEX
  5
222
330
20C
100
AcDbEntity
  8
\U+838C\U+8343\U+8384\U+815B_1
100
AcDbVertex
100
AcDb2dVertex
 10
96.89003768194068
 20
-116.9385986035779
 30
0.0
  0
VERTEX
  5
223
330
20C
100
AcDbEntity
  8
\U+838C\U+8343\U+8384\U+815B_1
100
AcDbVertex
100
AcDb2dVertex
 10
92.87977428233562
 20
-116.9385986035779
 30
0.0
  0
VERTEX
  5
224
330
20C
100
AcDbEntity
  8
\U+838C\U+8343\U+8384\U+815B_1
100
AcDbVertex
100
AcDb2dVertex
 10
88.86968313750481
 20
-116.9385986035779
 30
0.0
  0
VERTEX
  5
225
330
20C
100
AcDbEntity
  8
\U+838C\U+8343\U+8384\U+815B_1
100
AcDbVertex
100
AcDb2dVertex
 10
84.85941973789973
 20
-116.9385986035779
 30
0.0
  0
VERTEX
  5
226
330
20C
100
AcDbEntity
  8
\U+838C\U+8343\U+8384\U+815B_1
100
AcDbVertex
100
AcDb2dVertex
 10
81.00246308738828
 20
-116.9385986035779
 30
0.0
  0
VERTEX
  5
227
330
20C
100
AcDbEntity
  8
\U+838C\U+8343\U+8384\U+815B_1
100
AcDbVertex
100
AcDb2dVertex
 10
77.24300263910939
 20
-116.9385986035779
 30
0.0
  0
VERTEX
  5
228
330
20C
100
AcDbEntity
  8
\U+838C\U+8343\U+8384\U+815B_1
100
AcDbVertex
100
AcDb2dVertex
 10
73.62255179366034
 20
-116.9385986035779
 30
0.0
  0
VERTEX
  5
229
330
20C
100
AcDbEntity
  8
\U+838C\U+8343\U+8384\U+815B_1
100
AcDbVertex
100
AcDb2dVertex
 10
70.09976940521811
 20
-116.9385986035779
 30
0.0
  0
VERTEX
  5
22A
330
20C
100
AcDbEntity
  8
\U+838C\U+8343\U+8384\U+815B_1
100
AcDbVertex
100
AcDb2dVertex
 10
66.73012151109525
 20
-116.9385986035779
 30
0.0
  0
VERTEX
  5
22B
330
20C
100
AcDbEntity
  8
\U+838C\U+8343\U+8384\U+815B_1
100
AcDbVertex
100
AcDb2dVertex
 10
63.52756074800701
 20
-116.9385986035779
 30
0.0
  0
VERTEX
  5
22C
330
20C
100
AcDbEntity
  8
\U+838C\U+8343\U+8384\U+815B_1
100
AcDbVertex
100
AcDb2dVertex
 10
60.47813447923811
 20
-116.9385986035779
 30
0.0
  0
VERTEX
  5
22D
330
20C
100
AcDbEntity
  8
\U+838C\U+8343\U+8384\U+815B_1
100
AcDbVertex
100
AcDb2dVertex
 10
57.58184270478857
 20
-116.9385986035779
 30
0.0
  0
VERTEX
  5
22E
330
20C
100
AcDbEntity
  8
\U+838C\U+8343\U+8384\U+815B_1
100
AcDbVertex
100
AcDb2dVertex
 10
54.93635388166522
 20
-116.9385986035779
 30
0.0
  0
VERTEX
  5
22F
330
20C
100
AcDbEntity
  8
\U+838C\U+8343\U+8384\U+815B_1
100
AcDbVertex
100
AcDb2dVertex
 10
52.45777993480223
 20
-116.9385986035779
 30
0.0
  0
VERTEX
  5
230
330
20C
100
AcDbEntity
  8
\U+838C\U+8343\U+8384\U+815B_1
100
AcDbVertex
100
AcDb2dVertex
 10
50.21605630255016
 20
-116.9385986035779
 30
0.0
  0
VERTEX
  5
231
330
20C
100
AcDbEntity
  8
\U+838C\U+8343\U+8384\U+815B_1
100
AcDbVertex
100
AcDb2dVertex
 10
48.21083847536049
 20
-116.9385986035779
 30
0.0
  0
VERTEX
  5
232
330
20C
100
AcDbEntity
  8
\U+838C\U+8343\U+8384\U+815B_1
100
AcDbVertex
100
AcDb2dVertex
 10
46.44247096278175
 20
-116.9385986035779
 30
0.0
  0
VERTEX
  5
233
330
20C
100
AcDbEntity
  8
\U+838C\U+8343\U+8384\U+815B_1
100
AcDbVertex
100
AcDb2dVertex
 10
44.84119058123762
 20
-116.9385986035779
 30
0.0
  0
VERTEX
  5
234
330
20C
100
AcDbEntity
  8
\U+838C\U+8343\U+8384\U+815B_1
100
AcDbVertex
100
AcDb2dVertex
 10
43.56013182504747
 20
-116.9385986035779
 30
0.0
  0
VERTEX
  5
235
330
20C
100
AcDbEntity
  8
\U+838C\U+8343\U+8384\U+815B_1
100
AcDbVertex
100
AcDb2dVertex
 10
42.51592338346824
 20
-116.9385986035779
 30
0.0
  0
VERTEX
  5
236
330
20C
100
AcDbEntity
  8
\U+838C\U+8343\U+8384\U+815B_1
100
AcDbVertex
100
AcDb2dVertex
 10
41.70822074695142
 20
-116.9385986035779
 30
0.0
  0
VERTEX
  5
237
330
20C
100
AcDbEntity
  8
\U+838C\U+8343\U+8384\U+815B_1
100
AcDbVertex
100
AcDb2dVertex
 10
41.23486462727809
 20
-116.9385986035779
 30
0.0
  0
VERTEX
  5
238
330
20C
100
AcDbEntity
  8
\U+838C\U+8343\U+8384\U+815B_1
100
AcDbVertex
100
AcDb2dVertex
 10
40.91464300192412
 20
-116.9385986035779
 30
0.0
  0
SEQEND
  5
239
330
20C
100
AcDbEntity
  8
\U+838C\U+8343\U+8384\U+815B_1
  0
POLYLINE
  5
23A
330
3C
100
AcDbEntity
  8
\U+838C\U+8343\U+8384\U+815B_1
100
AcDb2dPolyline
 66
     1
 10
0.0
 20
0.0
 30
0.0
  0
VERTEX
  5
23B
330
23A
100
AcDbEntity
  8
\U+838C\U+8343\U+8384\U+815B_1
100
AcDbVertex
100
AcDb2dVertex
 10
88.61905244095288
 20
-207.5449543751971
 30
0.0
  0
VERTEX
  5
23C
330
23A
100
AcDbEntity
  8
\U+838C\U+8343\U+8384\U+815B_1
100
AcDbVertex
100
AcDb2dVertex
 10
89.02281763182415
 20
-207.5449543751971
 30
0.0
  0
VERTEX
  5
23D
330
23A
100
AcDbEntity
  8
\U+838C\U+8343\U+8384\U+815B_1
100
AcDbVertex
100
AcDb2dVertex
 10
89.59366995373006
 20
-207.5449543751971
 30
0.0
  0
VERTEX
  5
23E
330
23A
100
AcDbEntity
  8
\U+838C\U+8343\U+8384\U+815B_1
100
AcDbVertex
100
AcDb2dVertex
 10
90.47096351904894
 20
-207.5449543751971
 30
0.0
  0
VERTEX
  5
23F
330
23A
100
AcDbEntity
  8
\U+838C\U+8343\U+8384\U+815B_1
100
AcDbVertex
100
AcDb2dVertex
 10
91.51534421540242
 20
-207.5449543751971
 30
0.0
  0
VERTEX
  5
240
330
23A
100
AcDbEntity
  8
\U+838C\U+8343\U+8384\U+815B_1
100
AcDbVertex
100
AcDb2dVertex
 10
92.87977428233562
 20
-207.5449543751971
 30
0.0
  0
VERTEX
  5
241
330
23A
100
AcDbEntity
  8
\U+838C\U+8343\U+8384\U+815B_1
100
AcDbVertex
100
AcDb2dVertex
 10
94.39751109836243
 20
-207.5449543751971
 30
0.0
  0
VERTEX
  5
242
330
23A
100
AcDbEntity
  8
\U+838C\U+8343\U+8384\U+815B_1
100
AcDbVertex
100
AcDb2dVertex
 10
96.08233504542386
 20
-207.5449543751971
 30
0.0
  0
VERTEX
  5
243
330
23A
100
AcDbEntity
  8
\U+838C\U+8343\U+8384\U+815B_1
100
AcDbVertex
100
AcDb2dVertex
 10
97.93441837829418
 20
-207.5449543751971
 30
0.0
  0
VERTEX
  5
244
330
23A
100
AcDbEntity
  8
\U+838C\U+8343\U+8384\U+815B_1
100
AcDbVertex
100
AcDb2dVertex
 10
99.85592038519228
 20
-207.5449543751971
 30
0.0
  0
VERTEX
  5
245
330
23A
100
AcDbEntity
  8
\U+838C\U+8343\U+8384\U+815B_1
100
AcDbVertex
100
AcDb2dVertex
 10
101.9305568864097
 20
-207.5449543751971
 30
0.0
  0
VERTEX
  5
246
330
23A
100
AcDbEntity
  8
\U+838C\U+8343\U+8384\U+815B_1
100
AcDbVertex
100
AcDb2dVertex
 10
104.0193182791167
 20
-207.5449543751971
 30
0.0
  0
SEQEND
  5
247
330
23A
100
AcDbEntity
  8
\U+838C\U+8343\U+8384\U+815B_1
  0
POLYLINE
  5
248
330
3C
100
AcDbEntity
  8
\U+838C\U+8343\U+8384\U+815B_1
100
AcDb2dPolyline
 66
     1
 10
0.0
 20
0.0
 30
0.0
  0
VERTEX
  5
249
330
248
100
AcDbEntity
  8
\U+838C\U+8343\U+8384\U+815B_1
100
AcDbVertex
100
AcDb2dVertex
 10
88.61905244095288
 20
-207.5449543751971
 30
0.0
  0
VERTEX
  5
24A
330
248
100
AcDbEntity
  8
\U+838C\U+8343\U+8384\U+815B_1
100
AcDbVertex
100
AcDb2dVertex
 10
88.6469577143834
 20
-207.5449543751971
 30
0.0
  0
SEQEND
  5
24B
330
248
100
AcDbEntity
  8
\U+838C\U+8343\U+8384\U+815B_1
  0
POLYLINE
  5
24C
330
3C
100
AcDbEntity
  8
\U+838C\U+8343\U+8384\U+815B_1
100
AcDb2dPolyline
 66
     1
 10
0.0
 20
0.0
 30
0.0
  0
VERTEX
  5
24D
330
24C
100
AcDbEntity
  8
\U+838C\U+8343\U+8384\U+815B_1
100
AcDbVertex
100
AcDb2dVertex
 10
106.274994548084
 20
-207.5449543751971
 30
0.0
  0
VERTEX
  5
24E
330
24C
100
AcDbEntity
  8
\U+838C\U+8343\U+8384\U+815B_1
100
AcDbVertex
100
AcDb2dVertex
 10
108.3496310493015
 20
-207.5449543751971
 30
0.0
  0
VERTEX
  5
24F
330
24C
100
AcDbEntity
  8
\U+838C\U+8343\U+8384\U+815B_1
100
AcDbVertex
100
AcDb2dVertex
 10
110.4383924420085
 20
-207.5449543751971
 30
0.0
  0
VERTEX
  5
250
330
24C
100
AcDbEntity
  8
\U+838C\U+8343\U+8384\U+815B_1
100
AcDbVertex
100
AcDb2dVertex
 10
112.3597221941323
 20
-207.5449543751971
 30
0.0
  0
VERTEX
  5
251
330
24C
100
AcDbEntity
  8
\U+838C\U+8343\U+8384\U+815B_1
100
AcDbVertex
100
AcDb2dVertex
 10
114.2118055270026
 20
-207.5449543751971
 30
0.0
  0
VERTEX
  5
252
330
24C
100
AcDbEntity
  8
\U+838C\U+8343\U+8384\U+815B_1
100
AcDbVertex
100
AcDb2dVertex
 10
115.8964572192898
 20
-207.5449543751971
 30
0.0
  0
VERTEX
  5
253
330
24C
100
AcDbEntity
  8
\U+838C\U+8343\U+8384\U+815B_1
100
AcDbVertex
100
AcDb2dVertex
 10
117.4143662900909
 20
-207.5449543751971
 30
0.0
  0
VERTEX
  5
254
330
24C
100
AcDbEntity
  8
\U+838C\U+8343\U+8384\U+815B_1
100
AcDbVertex
100
AcDb2dVertex
 10
118.6952527915067
 20
-207.5449543751971
 30
0.0
  0
VERTEX
  5
255
330
24C
100
AcDbEntity
  8
\U+838C\U+8343\U+8384\U+815B_1
100
AcDbVertex
100
AcDb2dVertex
 10
119.8231770533775
 20
-207.5449543751971
 30
0.0
  0
VERTEX
  5
256
330
24C
100
AcDbEntity
  8
\U+838C\U+8343\U+8384\U+815B_1
100
AcDbVertex
100
AcDb2dVertex
 10
120.7006428734707
 20
-207.5449543751971
 30
0.0
  0
VERTEX
  5
257
330
24C
100
AcDbEntity
  8
\U+838C\U+8343\U+8384\U+815B_1
100
AcDbVertex
100
AcDb2dVertex
 10
121.2714951953766
 20
-207.5449543751971
 30
0.0
  0
VERTEX
  5
258
330
24C
100
AcDbEntity
  8
\U+838C\U+8343\U+8384\U+815B_1
100
AcDbVertex
100
AcDb2dVertex
 10
121.5915445659563
 20
-207.5449543751971
 30
0.0
  0
VERTEX
  5
259
330
24C
100
AcDbEntity
  8
\U+838C\U+8343\U+8384\U+815B_1
100
AcDbVertex
100
AcDb2dVertex
 10
121.6611354947583
 20
-207.5449543751971
 30
0.0
  0
SEQEND
  5
25A
330
24C
100
AcDbEntity
  8
\U+838C\U+8343\U+8384\U+815B_1
  0
POLYLINE
  5
25B
330
3C
100
AcDbEntity
  8
\U+838C\U+8343\U+8384\U+815B_1
100
AcDb2dPolyline
 66
     1
 10
0.0
 20
0.0
 30
0.0
  0
VERTEX
  5
25C
330
25B
100
AcDbEntity
  8
\U+838C\U+8343\U+8384\U+815B_1
100
AcDbVertex
100
AcDb2dVertex
 10
128.4004312830041
 20
-189.9859917059757
 30
0.0
  0
VERTEX
  5
25D
330
25B
100
AcDbEntity
  8
\U+838C\U+8343\U+8384\U+815B_1
100
AcDbVertex
100
AcDb2dVertex
 10
128.247469043459
 20
-189.9859917059757
 30
0.0
  0
VERTEX
  5
25E
330
25B
100
AcDbEntity
  8
\U+838C\U+8343\U+8384\U+815B_1
100
AcDbVertex
100
AcDb2dVertex
 10
127.7599880322961
 20
-189.9859917059757
 30
0.0
  0
VERTEX
  5
25F
330
25B
100
AcDbEntity
  8
\U+838C\U+8343\U+8384\U+815B_1
100
AcDbVertex
100
AcDb2dVertex
 10
127.0358289612966
 20
-189.9859917059757
 30
0.0
  0
VERTEX
  5
260
330
25B
100
AcDbEntity
  8
\U+838C\U+8343\U+8384\U+815B_1
100
AcDbVertex
100
AcDb2dVertex
 10
126.0753363400089
 20
-189.9859917059757
 30
0.0
  0
VERTEX
  5
261
330
25B
100
AcDbEntity
  8
\U+838C\U+8343\U+8384\U+815B_1
100
AcDbVertex
100
AcDb2dVertex
 10
124.8778211493361
 20
-189.9859917059757
 30
0.0
  0
VERTEX
  5
262
330
25B
100
AcDbEntity
  8
\U+838C\U+8343\U+8384\U+815B_1
100
AcDbVertex
100
AcDb2dVertex
 10
123.4295030073371
 20
-189.9859917059757
 30
0.0
  0
VERTEX
  5
263
330
25B
100
AcDbEntity
  8
\U+838C\U+8343\U+8384\U+815B_1
100
AcDbVertex
100
AcDb2dVertex
 10
121.8282226257929
 20
-189.9859917059757
 30
0.0
  0
VERTEX
  5
264
330
25B
100
AcDbEntity
  8
\U+838C\U+8343\U+8384\U+815B_1
100
AcDbVertex
100
AcDb2dVertex
 10
119.9764838024712
 20
-189.9859917059757
 30
0.0
  0
VERTEX
  5
265
330
25B
100
AcDbEntity
  8
\U+838C\U+8343\U+8384\U+815B_1
100
AcDbVertex
100
AcDb2dVertex
 10
117.9714382300558
 20
-189.9859917059757
 30
0.0
  0
VERTEX
  5
266
330
25B
100
AcDbEntity
  8
\U+838C\U+8343\U+8384\U+815B_1
100
AcDbVertex
100
AcDb2dVertex
 10
115.8964572192898
 20
-189.9859917059757
 30
0.0
  0
VERTEX
  5
267
330
25B
100
AcDbEntity
  8
\U+838C\U+8343\U+8384\U+815B_1
100
AcDbVertex
100
AcDb2dVertex
 10
113.6409532050967
 20
-189.9859917059757
 30
0.0
  0
VERTEX
  5
268
330
25B
100
AcDbEntity
  8
\U+838C\U+8343\U+8384\U+815B_1
100
AcDbVertex
100
AcDb2dVertex
 10
111.245922823751
 20
-189.9859917059757
 30
0.0
  0
VERTEX
  5
269
330
25B
100
AcDbEntity
  8
\U+838C\U+8343\U+8384\U+815B_1
100
AcDbVertex
100
AcDb2dVertex
 10
108.8371120604643
 20
-189.9859917059757
 30
0.0
  0
VERTEX
  5
26A
330
25B
100
AcDbEntity
  8
\U+838C\U+8343\U+8384\U+815B_1
100
AcDbVertex
100
AcDb2dVertex
 10
106.3445854768861
 20
-189.9859917059757
 30
0.0
  0
VERTEX
  5
26B
330
25B
100
AcDbEntity
  8
\U+838C\U+8343\U+8384\U+815B_1
100
AcDbVertex
100
AcDb2dVertex
 10
103.8660115300231
 20
-189.9859917059757
 30
0.0
  0
VERTEX
  5
26C
330
25B
100
AcDbEntity
  8
\U+838C\U+8343\U+8384\U+815B_1
100
AcDbVertex
100
AcDb2dVertex
 10
101.4572007667364
 20
-189.9859917059757
 30
0.0
  0
VERTEX
  5
26D
330
25B
100
AcDbEntity
  8
\U+838C\U+8343\U+8384\U+815B_1
100
AcDbVertex
100
AcDb2dVertex
 10
98.96467418315814
 20
-189.9859917059757
 30
0.0
  0
VERTEX
  5
26E
330
25B
100
AcDbEntity
  8
\U+838C\U+8343\U+8384\U+815B_1
100
AcDbVertex
100
AcDb2dVertex
 10
96.63940698538876
 20
-189.9859917059757
 30
0.0
  0
VERTEX
  5
26F
330
25B
100
AcDbEntity
  8
\U+838C\U+8343\U+8384\U+815B_1
100
AcDbVertex
100
AcDb2dVertex
 10
94.39751109836243
 20
-189.9859917059757
 30
0.0
  0
VERTEX
  5
270
330
25B
100
AcDbEntity
  8
\U+838C\U+8343\U+8384\U+815B_1
100
AcDbVertex
100
AcDb2dVertex
 10
92.23933103162767
 20
-189.9859917059757
 30
0.0
  0
VERTEX
  5
271
330
25B
100
AcDbEntity
  8
\U+838C\U+8343\U+8384\U+815B_1
100
AcDbVertex
100
AcDb2dVertex
 10
90.23428545921226
 20
-189.9859917059757
 30
0.0
  0
VERTEX
  5
272
330
25B
100
AcDbEntity
  8
\U+838C\U+8343\U+8384\U+815B_1
100
AcDbVertex
100
AcDb2dVertex
 10
88.46591794663352
 20
-189.9859917059757
 30
0.0
  0
VERTEX
  5
273
330
25B
100
AcDbEntity
  8
\U+838C\U+8343\U+8384\U+815B_1
100
AcDbVertex
100
AcDb2dVertex
 10
86.7810939995721
 20
-189.9859917059757
 30
0.0
  0
VERTEX
  5
274
330
25B
100
AcDbEntity
  8
\U+838C\U+8343\U+8384\U+815B_1
100
AcDbVertex
100
AcDb2dVertex
 10
85.41649167786463
 20
-189.9859917059757
 30
0.0
  0
VERTEX
  5
275
330
25B
100
AcDbEntity
  8
\U+838C\U+8343\U+8384\U+815B_1
100
AcDbVertex
100
AcDb2dVertex
 10
84.21897648719178
 20
-189.9859917059757
 30
0.0
  0
VERTEX
  5
276
330
25B
100
AcDbEntity
  8
\U+838C\U+8343\U+8384\U+815B_1
100
AcDbVertex
100
AcDb2dVertex
 10
83.25813935635561
 20
-189.9859917059757
 30
0.0
  0
VERTEX
  5
277
330
25B
100
AcDbEntity
  8
\U+838C\U+8343\U+8384\U+815B_1
100
AcDbVertex
100
AcDb2dVertex
 10
82.53415254013035
 20
-189.9859917059757
 30
0.0
  0
VERTEX
  5
278
330
25B
100
AcDbEntity
  8
\U+838C\U+8343\U+8384\U+815B_1
100
AcDbVertex
100
AcDb2dVertex
 10
82.04684378374176
 20
-189.9859917059757
 30
0.0
  0
VERTEX
  5
279
330
25B
100
AcDbEntity
  8
\U+838C\U+8343\U+8384\U+815B_1
100
AcDbVertex
100
AcDb2dVertex
 10
81.80999346913084
 20
-189.9859917059757
 30
0.0
  0
SEQEND
  5
27A
330
25B
100
AcDbEntity
  8
\U+838C\U+8343\U+8384\U+815B_1
  0
POLYLINE
  5
27B
330
3C
100
AcDbEntity
  8
\U+838C\U+8343\U+8384\U+815B_1
100
AcDb2dPolyline
 66
     1
 10
0.0
 20
0.0
 30
0.0
  0
VERTEX
  5
27C
330
27B
100
AcDbEntity
  8
\U+838C\U+8343\U+8384\U+815B_1
100
AcDbVertex
100
AcDb2dVertex
 10
128.4004312830041
 20
-189.9859917059757
 30
0.0
  0
VERTEX
  5
27D
330
27B
100
AcDbEntity
  8
\U+838C\U+8343\U+8384\U+815B_1
100
AcDbVertex
100
AcDb2dVertex
 10
128.4283365564346
 20
-189.9859917059757
 30
0.0
  0
SEQEND
  5
27E
330
27B
100
AcDbEntity
  8
\U+838C\U+8343\U+8384\U+815B_1
  0
POLYLINE
  5
27F
330
3C
100
AcDbEntity
  8
\U+838C\U+8343\U+8384\U+815B_1
100
AcDb2dPolyline
 66
     1
 10
0.0
 20
0.0
 30
0.0
  0
VERTEX
  5
280
330
27F
100
AcDbEntity
  8
\U+838C\U+8343\U+8384\U+815B_1
100
AcDbVertex
100
AcDb2dVertex
 10
128.4004312830041
 20
-175.6998697477417
 30
0.0
  0
VERTEX
  5
281
330
27F
100
AcDbEntity
  8
\U+838C\U+8343\U+8384\U+815B_1
100
AcDbVertex
100
AcDb2dVertex
 10
128.247469043459
 20
-175.6998697477417
 30
0.0
  0
VERTEX
  5
282
330
27F
100
AcDbEntity
  8
\U+838C\U+8343\U+8384\U+815B_1
100
AcDbVertex
100
AcDb2dVertex
 10
127.7599880322961
 20
-175.6998697477417
 30
0.0
  0
VERTEX
  5
283
330
27F
100
AcDbEntity
  8
\U+838C\U+8343\U+8384\U+815B_1
100
AcDbVertex
100
AcDb2dVertex
 10
127.0358289612966
 20
-175.6998697477417
 30
0.0
  0
VERTEX
  5
284
330
27F
100
AcDbEntity
  8
\U+838C\U+8343\U+8384\U+815B_1
100
AcDbVertex
100
AcDb2dVertex
 10
126.0753363400089
 20
-175.6998697477417
 30
0.0
  0
VERTEX
  5
285
330
27F
100
AcDbEntity
  8
\U+838C\U+8343\U+8384\U+815B_1
100
AcDbVertex
100
AcDb2dVertex
 10
124.8778211493361
 20
-175.6998697477417
 30
0.0
  0
VERTEX
  5
286
330
27F
100
AcDbEntity
  8
\U+838C\U+8343\U+8384\U+815B_1
100
AcDbVertex
100
AcDb2dVertex
 10
123.4295030073371
 20
-175.6998697477417
 30
0.0
  0
VERTEX
  5
287
330
27F
100
AcDbEntity
  8
\U+838C\U+8343\U+8384\U+815B_1
100
AcDbVertex
100
AcDb2dVertex
 10
121.8282226257929
 20
-175.6998697477417
 30
0.0
  0
VERTEX
  5
288
330
27F
100
AcDbEntity
  8
\U+838C\U+8343\U+8384\U+815B_1
100
AcDbVertex
100
AcDb2dVertex
 10
119.9764838024712
 20
-175.6998697477417
 30
0.0
  0
VERTEX
  5
289
330
27F
100
AcDbEntity
  8
\U+838C\U+8343\U+8384\U+815B_1
100
AcDbVertex
100
AcDb2dVertex
 10
117.9714382300558
 20
-175.6998697477417
 30
0.0
  0
SEQEND
  5
28A
330
27F
100
AcDbEntity
  8
\U+838C\U+8343\U+8384\U+815B_1
  0
POLYLINE
  5
28B
330
3C
100
AcDbEntity
  8
\U+838C\U+8343\U+8384\U+815B_1
100
AcDb2dPolyline
 66
     1
 10
0.0
 20
0.0
 30
0.0
  0
VERTEX
  5
28C
330
28B
100
AcDbEntity
  8
\U+838C\U+8343\U+8384\U+815B_1
100
AcDbVertex
100
AcDb2dVertex
 10
128.4004312830041
 20
-175.6998697477417
 30
0.0
  0
VERTEX
  5
28D
330
28B
100
AcDbEntity
  8
\U+838C\U+8343\U+8384\U+815B_1
100
AcDbVertex
100
AcDb2dVertex
 10
128.4283365564346
 20
-175.6998697477417
 30
0.0
  0
SEQEND
  5
28E
330
28B
100
AcDbEntity
  8
\U+838C\U+8343\U+8384\U+815B_1
  0
POLYLINE
  5
28F
330
3C
100
AcDbEntity
  8
\U+838C\U+8343\U+8384\U+815B_1
100
AcDb2dPolyline
 66
     1
 10
0.0
 20
0.0
 30
0.0
  0
VERTEX
  5
290
330
28F
100
AcDbEntity
  8
\U+838C\U+8343\U+8384\U+815B_1
100
AcDbVertex
100
AcDb2dVertex
 10
117.9714382300558
 20
-175.6998697477417
 30
0.0
  0
VERTEX
  5
291
330
28F
100
AcDbEntity
  8
\U+838C\U+8343\U+8384\U+815B_1
100
AcDbVertex
100
AcDb2dVertex
 10
115.8964572192898
 20
-175.6998697477417
 30
0.0
  0
SEQEND
  5
292
330
28F
100
AcDbEntity
  8
\U+838C\U+8343\U+8384\U+815B_1
  0
POLYLINE
  5
293
330
3C
100
AcDbEntity
  8
\U+838C\U+8343\U+8384\U+815B_1
100
AcDb2dPolyline
 66
     1
 10
0.0
 20
0.0
 30
0.0
  0
VERTEX
  5
294
330
293
100
AcDbEntity
  8
\U+838C\U+8343\U+8384\U+815B_1
100
AcDbVertex
100
AcDb2dVertex
 10
115.8964572192898
 20
-175.6998697477417
 30
0.0
  0
VERTEX
  5
295
330
293
100
AcDbEntity
  8
\U+838C\U+8343\U+8384\U+815B_1
100
AcDbVertex
100
AcDb2dVertex
 10
113.6409532050967
 20
-175.6998697477417
 30
0.0
  0
VERTEX
  5
296
330
293
100
AcDbEntity
  8
\U+838C\U+8343\U+8384\U+815B_1
100
AcDbVertex
100
AcDb2dVertex
 10
111.245922823751
 20
-175.6998697477417
 30
0.0
  0
VERTEX
  5
297
330
293
100
AcDbEntity
  8
\U+838C\U+8343\U+8384\U+815B_1
100
AcDbVertex
100
AcDb2dVertex
 10
108.8371120604643
 20
-175.6998697477417
 30
0.0
  0
VERTEX
  5
298
330
293
100
AcDbEntity
  8
\U+838C\U+8343\U+8384\U+815B_1
100
AcDbVertex
100
AcDb2dVertex
 10
106.3445854768861
 20
-175.6998697477417
 30
0.0
  0
VERTEX
  5
299
330
293
100
AcDbEntity
  8
\U+838C\U+8343\U+8384\U+815B_1
100
AcDbVertex
100
AcDb2dVertex
 10
103.8660115300231
 20
-175.6998697477417
 30
0.0
  0
VERTEX
  5
29A
330
293
100
AcDbEntity
  8
\U+838C\U+8343\U+8384\U+815B_1
100
AcDbVertex
100
AcDb2dVertex
 10
101.4572007667364
 20
-175.6998697477417
 30
0.0
  0
VERTEX
  5
29B
330
293
100
AcDbEntity
  8
\U+838C\U+8343\U+8384\U+815B_1
100
AcDbVertex
100
AcDb2dVertex
 10
98.96467418315814
 20
-175.6998697477417
 30
0.0
  0
VERTEX
  5
29C
330
293
100
AcDbEntity
  8
\U+838C\U+8343\U+8384\U+815B_1
100
AcDbVertex
100
AcDb2dVertex
 10
96.63940698538876
 20
-175.6998697477417
 30
0.0
  0
VERTEX
  5
29D
330
293
100
AcDbEntity
  8
\U+838C\U+8343\U+8384\U+815B_1
100
AcDbVertex
100
AcDb2dVertex
 10
94.39751109836243
 20
-175.6998697477417
 30
0.0
  0
VERTEX
  5
29E
330
293
100
AcDbEntity
  8
\U+838C\U+8343\U+8384\U+815B_1
100
AcDbVertex
100
AcDb2dVertex
 10
92.23933103162767
 20
-175.6998697477417
 30
0.0
  0
VERTEX
  5
29F
330
293
100
AcDbEntity
  8
\U+838C\U+8343\U+8384\U+815B_1
100
AcDbVertex
100
AcDb2dVertex
 10
90.23428545921226
 20
-175.6998697477417
 30
0.0
  0
VERTEX
  5
2A0
330
293
100
AcDbEntity
  8
\U+838C\U+8343\U+8384\U+815B_1
100
AcDbVertex
100
AcDb2dVertex
 10
88.46591794663352
 20
-175.6998697477417
 30
0.0
  0
VERTEX
  5
2A1
330
293
100
AcDbEntity
  8
\U+838C\U+8343\U+8384\U+815B_1
100
AcDbVertex
100
AcDb2dVertex
 10
86.7810939995721
 20
-175.6998697477417
 30
0.0
  0
VERTEX
  5
2A2
330
293
100
AcDbEntity
  8
\U+838C\U+8343\U+8384\U+815B_1
100
AcDbVertex
100
AcDb2dVertex
 10
85.41649167786463
 20
-175.6998697477417
 30
0.0
  0
VERTEX
  5
2A3
330
293
100
AcDbEntity
  8
\U+838C\U+8343\U+8384\U+815B_1
100
AcDbVertex
100
AcDb2dVertex
 10
84.21897648719178
 20
-175.6998697477417
 30
0.0
  0
VERTEX
  5
2A4
330
293
100
AcDbEntity
  8
\U+838C\U+8343\U+8384\U+815B_1
100
AcDbVertex
100
AcDb2dVertex
 10
83.25813935635561
 20
-175.6998697477417
 30
0.0
  0
VERTEX
  5
2A5
330
293
100
AcDbEntity
  8
\U+838C\U+8343\U+8384\U+815B_1
100
AcDbVertex
100
AcDb2dVertex
 10
82.53415254013035
 20
-175.6998697477417
 30
0.0
  0
VERTEX
  5
2A6
330
293
100
AcDbEntity
  8
\U+838C\U+8343\U+8384\U+815B_1
100
AcDbVertex
100
AcDb2dVertex
 10
82.04684378374176
 20
-175.6998697477417
 30
0.0
  0
VERTEX
  5
2A7
330
293
100
AcDbEntity
  8
\U+838C\U+8343\U+8384\U+815B_1
100
AcDbVertex
100
AcDb2dVertex
 10
81.80999346913084
 20
-175.6998697477417
 30
0.0
  0
SEQEND
  5
2A8
330
293
100
AcDbEntity
  8
\U+838C\U+8343\U+8384\U+815B_1
  0
POLYLINE
  5
2A9
330
3C
100
AcDbEntity
  8
\U+838C\U+8343\U+8384\U+815B_1
100
AcDb2dPolyline
 66
     1
 10
0.0
 20
0.0
 30
0.0
  0
VERTEX
  5
2AA
330
2A9
100
AcDbEntity
  8
\U+838C\U+8343\U+8384\U+815B_1
100
AcDbVertex
100
AcDb2dVertex
 10
138.189325594793
 20
-154.785384075887
 30
0.0
  0
VERTEX
  5
2AB
330
2A9
100
AcDbEntity
  8
\U+838C\U+8343\U+8384\U+815B_1
100
AcDbVertex
100
AcDb2dVertex
 10
137.9526475349563
 20
-154.785384075887
 30
0.0
  0
VERTEX
  5
2AC
330
2A9
100
AcDbEntity
  8
\U+838C\U+8343\U+8384\U+815B_1
100
AcDbVertex
100
AcDb2dVertex
 10
137.3817952130504
 20
-154.785384075887
 30
0.0
  0
VERTEX
  5
2AD
330
2A9
100
AcDbEntity
  8
\U+838C\U+8343\U+8384\U+815B_1
100
AcDbVertex
100
AcDb2dVertex
 10
136.5880452132488
 20
-154.785384075887
 30
0.0
  0
VERTEX
  5
2AE
330
2A9
100
AcDbEntity
  8
\U+838C\U+8343\U+8384\U+815B_1
100
AcDbVertex
100
AcDb2dVertex
 10
135.5438367716696
 20
-154.785384075887
 30
0.0
  0
VERTEX
  5
2AF
330
2A9
100
AcDbEntity
  8
\U+838C\U+8343\U+8384\U+815B_1
100
AcDbVertex
100
AcDb2dVertex
 10
134.2626057607052
 20
-154.785384075887
 30
0.0
  0
VERTEX
  5
2B0
330
2A9
100
AcDbEntity
  8
\U+838C\U+8343\U+8384\U+815B_1
100
AcDbVertex
100
AcDb2dVertex
 10
132.7309163079631
 20
-154.785384075887
 30
0.0
  0
VERTEX
  5
2B1
330
2A9
100
AcDbEntity
  8
\U+838C\U+8343\U+8384\U+815B_1
100
AcDbVertex
100
AcDb2dVertex
 10
130.9625487953844
 20
-154.785384075887
 30
0.0
  0
VERTEX
  5
2B2
330
2A9
100
AcDbEntity
  8
\U+838C\U+8343\U+8384\U+815B_1
100
AcDbVertex
100
AcDb2dVertex
 10
129.0412190432605
 20
-154.785384075887
 30
0.0
  0
VERTEX
  5
2B3
330
2A9
100
AcDbEntity
  8
\U+838C\U+8343\U+8384\U+815B_1
100
AcDbVertex
100
AcDb2dVertex
 10
126.8828667217515
 20
-154.785384075887
 30
0.0
  0
VERTEX
  5
2B4
330
2A9
100
AcDbEntity
  8
\U+838C\U+8343\U+8384\U+815B_1
100
AcDbVertex
100
AcDb2dVertex
 10
124.5574272692079
 20
-154.785384075887
 30
0.0
  0
VERTEX
  5
2B5
330
2A9
100
AcDbEntity
  8
\U+838C\U+8343\U+8384\U+815B_1
100
AcDbVertex
100
AcDb2dVertex
 10
122.0649006856296
 20
-154.785384075887
 30
0.0
  0
VERTEX
  5
2B6
330
2A9
100
AcDbEntity
  8
\U+838C\U+8343\U+8384\U+815B_1
100
AcDbVertex
100
AcDb2dVertex
 10
119.5031276827978
 20
-154.785384075887
 30
0.0
  0
VERTEX
  5
2B7
330
2A9
100
AcDbEntity
  8
\U+838C\U+8343\U+8384\U+815B_1
100
AcDbVertex
100
AcDb2dVertex
 10
116.7739230393829
 20
-154.785384075887
 30
0.0
  0
VERTEX
  5
2B8
330
2A9
100
AcDbEntity
  8
\U+838C\U+8343\U+8384\U+815B_1
100
AcDbVertex
100
AcDb2dVertex
 10
113.9610025756764
 20
-154.785384075887
 30
0.0
  0
VERTEX
  5
2B9
330
2A9
100
AcDbEntity
  8
\U+838C\U+8343\U+8384\U+815B_1
100
AcDbVertex
100
AcDb2dVertex
 10
111.0788356927164
 20
-154.785384075887
 30
0.0
  0
VERTEX
  5
2BA
330
2A9
100
AcDbEntity
  8
\U+838C\U+8343\U+8384\U+815B_1
100
AcDbVertex
100
AcDb2dVertex
 10
108.1129529894648
 20
-154.785384075887
 30
0.0
  0
VERTEX
  5
2BB
330
2A9
100
AcDbEntity
  8
\U+838C\U+8343\U+8384\U+815B_1
100
AcDbVertex
100
AcDb2dVertex
 10
105.1470702862132
 20
-154.785384075887
 30
0.0
  0
VERTEX
  5
2BC
330
2A9
100
AcDbEntity
  8
\U+838C\U+8343\U+8384\U+815B_1
100
AcDbVertex
100
AcDb2dVertex
 10
102.1811875829617
 20
-154.785384075887
 30
0.0
  0
VERTEX
  5
2BD
330
2A9
100
AcDbEntity
  8
\U+838C\U+8343\U+8384\U+815B_1
100
AcDbVertex
100
AcDb2dVertex
 10
99.21530487971006
 20
-154.785384075887
 30
0.0
  0
VERTEX
  5
2BE
330
2A9
100
AcDbEntity
  8
\U+838C\U+8343\U+8384\U+815B_1
100
AcDbVertex
100
AcDb2dVertex
 10
96.3191853600348
 20
-154.785384075887
 30
0.0
  0
VERTEX
  5
2BF
330
2A9
100
AcDbEntity
  8
\U+838C\U+8343\U+8384\U+815B_1
100
AcDbVertex
100
AcDb2dVertex
 10
93.52038978781782
 20
-154.785384075887
 30
0.0
  0
VERTEX
  5
2C0
330
2A9
100
AcDbEntity
  8
\U+838C\U+8343\U+8384\U+815B_1
100
AcDbVertex
100
AcDb2dVertex
 10
90.7911851444029
 20
-154.785384075887
 30
0.0
  0
VERTEX
  5
2C1
330
2A9
100
AcDbEntity
  8
\U+838C\U+8343\U+8384\U+815B_1
100
AcDbVertex
100
AcDb2dVertex
 10
88.14552406650529
 20
-154.785384075887
 30
0.0
  0
VERTEX
  5
2C2
330
2A9
100
AcDbEntity
  8
\U+838C\U+8343\U+8384\U+815B_1
100
AcDbVertex
100
AcDb2dVertex
 10
85.65316973770129
 20
-154.785384075887
 30
0.0
  0
VERTEX
  5
2C3
330
2A9
100
AcDbEntity
  8
\U+838C\U+8343\U+8384\U+815B_1
100
AcDbVertex
100
AcDb2dVertex
 10
83.32790253993191
 20
-154.785384075887
 30
0.0
  0
VERTEX
  5
2C4
330
2A9
100
AcDbEntity
  8
\U+838C\U+8343\U+8384\U+815B_1
100
AcDbVertex
100
AcDb2dVertex
 10
81.2530937839402
 20
-154.785384075887
 30
0.0
  0
VERTEX
  5
2C5
330
2A9
100
AcDbEntity
  8
\U+838C\U+8343\U+8384\U+815B_1
100
AcDbVertex
100
AcDb2dVertex
 10
79.2480482115248
 20
-154.785384075887
 30
0.0
  0
VERTEX
  5
2C6
330
2A9
100
AcDbEntity
  8
\U+838C\U+8343\U+8384\U+815B_1
100
AcDbVertex
100
AcDb2dVertex
 10
77.47968069894605
 20
-154.785384075887
 30
0.0
  0
VERTEX
  5
2C7
330
2A9
100
AcDbEntity
  8
\U+838C\U+8343\U+8384\U+815B_1
100
AcDbVertex
100
AcDb2dVertex
 10
75.94799124620398
 20
-154.785384075887
 30
0.0
  0
VERTEX
  5
2C8
330
2A9
100
AcDbEntity
  8
\U+838C\U+8343\U+8384\U+815B_1
100
AcDbVertex
100
AcDb2dVertex
 10
74.66693249001382
 20
-154.785384075887
 30
0.0
  0
VERTEX
  5
2C9
330
2A9
100
AcDbEntity
  8
\U+838C\U+8343\U+8384\U+815B_1
100
AcDbVertex
100
AcDb2dVertex
 10
73.62255179366034
 20
-154.785384075887
 30
0.0
  0
VERTEX
  5
2CA
330
2A9
100
AcDbEntity
  8
\U+838C\U+8343\U+8384\U+815B_1
100
AcDbVertex
100
AcDb2dVertex
 10
72.91251761415035
 20
-154.785384075887
 30
0.0
  0
VERTEX
  5
2CB
330
2A9
100
AcDbEntity
  8
\U+838C\U+8343\U+8384\U+815B_1
100
AcDbVertex
100
AcDb2dVertex
 10
72.34166529224444
 20
-154.785384075887
 30
0.0
  0
VERTEX
  5
2CC
330
2A9
100
AcDbEntity
  8
\U+838C\U+8343\U+8384\U+815B_1
100
AcDbVertex
100
AcDb2dVertex
 10
72.10481497763352
 20
-154.785384075887
 30
0.0
  0
VERTEX
  5
2CD
330
2A9
100
AcDbEntity
  8
\U+838C\U+8343\U+8384\U+815B_1
100
AcDbVertex
100
AcDb2dVertex
 10
72.0212714121162
 20
-154.785384075887
 30
0.0
  0
SEQEND
  5
2CE
330
2A9
100
AcDbEntity
  8
\U+838C\U+8343\U+8384\U+815B_1
  0
POLYLINE
  5
2CF
330
3C
100
AcDbEntity
  8
\U+838C\U+8343\U+8384\U+815B_1
100
AcDb2dPolyline
 66
     1
 10
0.0
 20
0.0
 30
0.0
  0
VERTEX
  5
2D0
330
2CF
100
AcDbEntity
  8
\U+838C\U+8343\U+8384\U+815B_1
100
AcDbVertex
100
AcDb2dVertex
 10
138.189325594793
 20
-154.785384075887
 30
0.0
  0
VERTEX
  5
2D1
330
2CF
100
AcDbEntity
  8
\U+838C\U+8343\U+8384\U+815B_1
100
AcDbVertex
100
AcDb2dVertex
 10
138.2172308682235
 20
-154.785384075887
 30
0.0
  0
SEQEND
  5
2D2
330
2CF
100
AcDbEntity
  8
\U+838C\U+8343\U+8384\U+815B_1
  0
POLYLINE
  5
2D3
330
3C
100
AcDbEntity
  8
\U+838C\U+8343\U+8384\U+815B_1
100
AcDb2dPolyline
 66
     1
 10
0.0
 20
0.0
 30
0.0
  0
VERTEX
  5
2D4
330
2D3
100
AcDbEntity
  8
\U+838C\U+8343\U+8384\U+815B_1
100
AcDbVertex
100
AcDb2dVertex
 10
164.57565642587
 20
-124.9451727660727
 30
0.0
  0
VERTEX
  5
2D5
330
2D3
100
AcDbEntity
  8
\U+838C\U+8343\U+8384\U+815B_1
100
AcDbVertex
100
AcDb2dVertex
 10
164.2556070552903
 20
-124.9451727660727
 30
0.0
  0
VERTEX
  5
2D6
330
2D3
100
AcDbEntity
  8
\U+838C\U+8343\U+8384\U+815B_1
100
AcDbVertex
100
AcDb2dVertex
 10
163.7681260441274
 20
-124.9451727660727
 30
0.0
  0
VERTEX
  5
2D7
330
2D3
100
AcDbEntity
  8
\U+838C\U+8343\U+8384\U+815B_1
100
AcDbVertex
100
AcDb2dVertex
 10
162.9743760443259
 20
-124.9451727660727
 30
0.0
  0
VERTEX
  5
2D8
330
2D3
100
AcDbEntity
  8
\U+838C\U+8343\U+8384\U+815B_1
100
AcDbVertex
100
AcDb2dVertex
 10
161.9301676027466
 20
-124.9451727660727
 30
0.0
  0
VERTEX
  5
2D9
330
2D3
100
AcDbEntity
  8
\U+838C\U+8343\U+8384\U+815B_1
100
AcDbVertex
100
AcDb2dVertex
 10
160.5655652810392
 20
-124.9451727660727
 30
0.0
  0
VERTEX
  5
2DA
330
2D3
100
AcDbEntity
  8
\U+838C\U+8343\U+8384\U+815B_1
100
AcDbVertex
100
AcDb2dVertex
 10
159.0338758282971
 20
-124.9451727660727
 30
0.0
  0
VERTEX
  5
2DB
330
2D3
100
AcDbEntity
  8
\U+838C\U+8343\U+8384\U+815B_1
100
AcDbVertex
100
AcDb2dVertex
 10
157.2792886976594
 20
-124.9451727660727
 30
0.0
  0
VERTEX
  5
2DC
330
2D3
100
AcDbEntity
  8
\U+838C\U+8343\U+8384\U+815B_1
100
AcDbVertex
100
AcDb2dVertex
 10
155.1908718145009
 20
-124.9451727660727
 30
0.0
  0
VERTEX
  5
2DD
330
2D3
100
AcDbEntity
  8
\U+838C\U+8343\U+8384\U+815B_1
100
AcDbVertex
100
AcDb2dVertex
 10
152.9491481822488
 20
-124.9451727660727
 30
0.0
  0
VERTEX
  5
2DE
330
2D3
100
AcDbEntity
  8
\U+838C\U+8343\U+8384\U+815B_1
100
AcDbVertex
100
AcDb2dVertex
 10
150.5399929094136
 20
-124.9451727660727
 30
0.0
  0
VERTEX
  5
2DF
330
2D3
100
AcDbEntity
  8
\U+838C\U+8343\U+8384\U+815B_1
100
AcDbVertex
100
AcDb2dVertex
 10
147.8945040862903
 20
-124.9451727660727
 30
0.0
  0
VERTEX
  5
2E0
330
2D3
100
AcDbEntity
  8
\U+838C\U+8343\U+8384\U+815B_1
100
AcDbVertex
100
AcDb2dVertex
 10
144.9982123118407
 20
-124.9451727660727
 30
0.0
  0
VERTEX
  5
2E1
330
2D3
100
AcDbEntity
  8
\U+838C\U+8343\U+8384\U+815B_1
100
AcDbVertex
100
AcDb2dVertex
 10
141.9627386797871
 20
-124.9451727660727
 30
0.0
  0
VERTEX
  5
2E2
330
2D3
100
AcDbEntity
  8
\U+838C\U+8343\U+8384\U+815B_1
100
AcDbVertex
100
AcDb2dVertex
 10
138.7463975347578
 20
-124.9451727660727
 30
0.0
  0
VERTEX
  5
2E3
330
2D3
100
AcDbEntity
  8
\U+838C\U+8343\U+8384\U+815B_1
100
AcDbVertex
100
AcDb2dVertex
 10
135.460120951378
 20
-124.9451727660727
 30
0.0
  0
VERTEX
  5
2E4
330
2D3
100
AcDbEntity
  8
\U+838C\U+8343\U+8384\U+815B_1
100
AcDbVertex
100
AcDb2dVertex
 10
131.9375108177101
 20
-124.9451727660727
 30
0.0
  0
VERTEX
  5
2E5
330
2D3
100
AcDbEntity
  8
\U+838C\U+8343\U+8384\U+815B_1
100
AcDbVertex
100
AcDb2dVertex
 10
128.317059972261
 20
-124.9451727660727
 30
0.0
  0
VERTEX
  5
2E6
330
2D3
100
AcDbEntity
  8
\U+838C\U+8343\U+8384\U+815B_1
100
AcDbVertex
100
AcDb2dVertex
 10
124.6270181980099
 20
-124.9451727660727
 30
0.0
  0
VERTEX
  5
2E7
330
2D3
100
AcDbEntity
  8
\U+838C\U+8343\U+8384\U+815B_1
100
AcDbVertex
100
AcDb2dVertex
 10
120.8677300045053
 20
-124.9451727660727
 30
0.0
  0
VERTEX
  5
2E8
330
2D3
100
AcDbEntity
  8
\U+838C\U+8343\U+8384\U+815B_1
100
AcDbVertex
100
AcDb2dVertex
 10
116.9410101704175
 20
-124.9451727660727
 30
0.0
  0
VERTEX
  5
2E9
330
2D3
100
AcDbEntity
  8
\U+838C\U+8343\U+8384\U+815B_1
100
AcDbVertex
100
AcDb2dVertex
 10
113.0838812651318
 20
-124.9451727660727
 30
0.0
  0
VERTEX
  5
2EA
330
2D3
100
AcDbEntity
  8
\U+838C\U+8343\U+8384\U+815B_1
100
AcDbVertex
100
AcDb2dVertex
 10
109.073790120301
 20
-124.9451727660727
 30
0.0
  0
VERTEX
  5
2EB
330
2D3
100
AcDbEntity
  8
\U+838C\U+8343\U+8384\U+815B_1
100
AcDbVertex
100
AcDb2dVertex
 10
105.1470702862132
 20
-124.9451727660727
 30
0.0
  0
SEQEND
  5
2EC
330
2D3
100
AcDbEntity
  8
\U+838C\U+8343\U+8384\U+815B_1
  0
POLYLINE
  5
2ED
330
3C
100
AcDbEntity
  8
\U+838C\U+8343\U+8384\U+815B_1
100
AcDb2dPolyline
 66
     1
 10
0.0
 20
0.0
 30
0.0
  0
VERTEX
  5
2EE
330
2ED
100
AcDbEntity
  8
\U+838C\U+8343\U+8384\U+815B_1
100
AcDbVertex
100
AcDb2dVertex
 10
164.57565642587
 20
-124.9451727660727
 30
0.0
  0
VERTEX
  5
2EF
330
2ED
100
AcDbEntity
  8
\U+838C\U+8343\U+8384\U+815B_1
100
AcDbVertex
100
AcDb2dVertex
 10
164.6035616993005
 20
-124.9451727660727
 30
0.0
  0
SEQEND
  5
2F0
330
2ED
100
AcDbEntity
  8
\U+838C\U+8343\U+8384\U+815B_1
  0
POLYLINE
  5
2F1
330
3C
100
AcDbEntity
  8
\U+838C\U+8343\U+8384\U+815B_1
100
AcDb2dPolyline
 66
     1
 10
0.0
 20
0.0
 30
0.0
  0
VERTEX
  5
2F2
330
2F1
100
AcDbEntity
  8
\U+838C\U+8343\U+8384\U+815B_1
100
AcDbVertex
100
AcDb2dVertex
 10
105.1470702862132
 20
-124.9451727660727
 30
0.0
  0
VERTEX
  5
2F3
330
2F1
100
AcDbEntity
  8
\U+838C\U+8343\U+8384\U+815B_1
100
AcDbVertex
100
AcDb2dVertex
 10
101.1369791413824
 20
-124.9451727660727
 30
0.0
  0
VERTEX
  5
2F4
330
2F1
100
AcDbEntity
  8
\U+838C\U+8343\U+8384\U+815B_1
100
AcDbVertex
100
AcDb2dVertex
 10
97.21025930729466
 20
-124.9451727660727
 30
0.0
  0
VERTEX
  5
2F5
330
2F1
100
AcDbEntity
  8
\U+838C\U+8343\U+8384\U+815B_1
100
AcDbVertex
100
AcDb2dVertex
 10
93.2697590912659
 20
-124.9451727660727
 30
0.0
  0
VERTEX
  5
2F6
330
2F1
100
AcDbEntity
  8
\U+838C\U+8343\U+8384\U+815B_1
100
AcDbVertex
100
AcDb2dVertex
 10
89.42658282269544
 20
-124.9451727660727
 30
0.0
  0
VERTEX
  5
2F7
330
2F1
100
AcDbEntity
  8
\U+838C\U+8343\U+8384\U+815B_1
100
AcDbVertex
100
AcDb2dVertex
 10
85.65316973770129
 20
-124.9451727660727
 30
0.0
  0
VERTEX
  5
2F8
330
2F1
100
AcDbEntity
  8
\U+838C\U+8343\U+8384\U+815B_1
100
AcDbVertex
100
AcDb2dVertex
 10
81.96330021822446
 20
-124.9451727660727
 30
0.0
  0
VERTEX
  5
2F9
330
2F1
100
AcDbEntity
  8
\U+838C\U+8343\U+8384\U+815B_1
100
AcDbVertex
100
AcDb2dVertex
 10
78.35680200949066
 20
-124.9451727660727
 30
0.0
  0
VERTEX
  5
2FA
330
2F1
100
AcDbEntity
  8
\U+838C\U+8343\U+8384\U+815B_1
100
AcDbVertex
100
AcDb2dVertex
 10
74.83401962104844
 20
-124.9451727660727
 30
0.0
  0
VERTEX
  5
2FB
330
2F1
100
AcDbEntity
  8
\U+838C\U+8343\U+8384\U+815B_1
100
AcDbVertex
100
AcDb2dVertex
 10
71.46437172692558
 20
-124.9451727660727
 30
0.0
  0
VERTEX
  5
2FC
330
2F1
100
AcDbEntity
  8
\U+838C\U+8343\U+8384\U+815B_1
100
AcDbVertex
100
AcDb2dVertex
 10
68.33140189263938
 20
-124.9451727660727
 30
0.0
  0
VERTEX
  5
2FD
330
2F1
100
AcDbEntity
  8
\U+838C\U+8343\U+8384\U+815B_1
100
AcDbVertex
100
AcDb2dVertex
 10
65.28197562387048
 20
-124.9451727660727
 30
0.0
  0
VERTEX
  5
2FE
330
2F1
100
AcDbEntity
  8
\U+838C\U+8343\U+8384\U+815B_1
100
AcDbVertex
100
AcDb2dVertex
 10
62.3996364861362
 20
-124.9451727660727
 30
0.0
  0
VERTEX
  5
2FF
330
2F1
100
AcDbEntity
  8
\U+838C\U+8343\U+8384\U+815B_1
100
AcDbVertex
100
AcDb2dVertex
 10
59.75414766301285
 20
-124.9451727660727
 30
0.0
  0
VERTEX
  5
300
330
2F1
100
AcDbEntity
  8
\U+838C\U+8343\U+8384\U+815B_1
100
AcDbVertex
100
AcDb2dVertex
 10
57.2616210794346
 20
-124.9451727660727
 30
0.0
  0
VERTEX
  5
301
330
2F1
100
AcDbEntity
  8
\U+838C\U+8343\U+8384\U+815B_1
100
AcDbVertex
100
AcDb2dVertex
 10
55.01989744718253
 20
-124.9451727660727
 30
0.0
  0
VERTEX
  5
302
330
2F1
100
AcDbEntity
  8
\U+838C\U+8343\U+8384\U+815B_1
100
AcDbVertex
100
AcDb2dVertex
 10
53.01467961999286
 20
-124.9451727660727
 30
0.0
  0
VERTEX
  5
303
330
2F1
100
AcDbEntity
  8
\U+838C\U+8343\U+8384\U+815B_1
100
AcDbVertex
100
AcDb2dVertex
 10
51.24631210741412
 20
-124.9451727660727
 30
0.0
  0
VERTEX
  5
304
330
2F1
100
AcDbEntity
  8
\U+838C\U+8343\U+8384\U+815B_1
100
AcDbVertex
100
AcDb2dVertex
 10
49.64503172586999
 20
-124.9451727660727
 30
0.0
  0
VERTEX
  5
305
330
2F1
100
AcDbEntity
  8
\U+838C\U+8343\U+8384\U+815B_1
100
AcDbVertex
100
AcDb2dVertex
 10
48.36397296967984
 20
-124.9451727660727
 30
0.0
  0
VERTEX
  5
306
330
2F1
100
AcDbEntity
  8
\U+838C\U+8343\U+8384\U+815B_1
100
AcDbVertex
100
AcDb2dVertex
 10
47.31976452810061
 20
-124.9451727660727
 30
0.0
  0
VERTEX
  5
307
330
2F1
100
AcDbEntity
  8
\U+838C\U+8343\U+8384\U+815B_1
100
AcDbVertex
100
AcDb2dVertex
 10
46.52601452829905
 20
-124.9451727660727
 30
0.0
  0
VERTEX
  5
308
330
2F1
100
AcDbEntity
  8
\U+838C\U+8343\U+8384\U+815B_1
100
AcDbVertex
100
AcDb2dVertex
 10
45.95516220639315
 20
-124.9451727660727
 30
0.0
  0
VERTEX
  5
309
330
2F1
100
AcDbEntity
  8
\U+838C\U+8343\U+8384\U+815B_1
100
AcDbVertex
100
AcDb2dVertex
 10
45.71848414655649
 20
-124.9451727660727
 30
0.0
  0
SEQEND
  5
30A
330
2F1
100
AcDbEntity
  8
\U+838C\U+8343\U+8384\U+815B_1
  0
POLYLINE
  5
30B
330
3C
100
AcDbEntity
  8
\U+838C\U+8343\U+8384\U+815B_1
100
AcDb2dPolyline
 66
     1
 10
0.0
 20
0.0
 30
0.0
  0
VERTEX
  5
30C
330
30B
100
AcDbEntity
  8
\U+838C\U+8343\U+8384\U+815B_1
100
AcDbVertex
100
AcDb2dVertex
 10
110.9951198724248
 20
-235.6858723369119
 30
0.0
  0
VERTEX
  5
30D
330
30B
100
AcDbEntity
  8
\U+838C\U+8343\U+8384\U+815B_1
100
AcDbVertex
100
AcDb2dVertex
 10
110.6750705018451
 20
-235.6858723369119
 30
0.0
  0
VERTEX
  5
30E
330
30B
100
AcDbEntity
  8
\U+838C\U+8343\U+8384\U+815B_1
100
AcDbVertex
100
AcDb2dVertex
 10
110.1179985618802
 20
-235.6858723369119
 30
0.0
  0
VERTEX
  5
30F
330
30B
100
AcDbEntity
  8
\U+838C\U+8343\U+8384\U+815B_1
100
AcDbVertex
100
AcDb2dVertex
 10
109.3938394908807
 20
-235.6858723369119
 30
0.0
  0
VERTEX
  5
310
330
30B
100
AcDbEntity
  8
\U+838C\U+8343\U+8384\U+815B_1
100
AcDbVertex
100
AcDb2dVertex
 10
108.4333468695931
 20
-235.6858723369119
 30
0.0
  0
SEQEND
  5
311
330
30B
100
AcDbEntity
  8
\U+838C\U+8343\U+8384\U+815B_1
  0
POLYLINE
  5
312
330
3C
100
AcDbEntity
  8
\U+838C\U+8343\U+8384\U+815B_1
100
AcDb2dPolyline
 66
     1
 10
0.0
 20
0.0
 30
0.0
  0
VERTEX
  5
313
330
312
100
AcDbEntity
  8
\U+838C\U+8343\U+8384\U+815B_1
100
AcDbVertex
100
AcDb2dVertex
 10
110.9951198724248
 20
-235.6858723369119
 30
0.0
  0
VERTEX
  5
314
330
312
100
AcDbEntity
  8
\U+838C\U+8343\U+8384\U+815B_1
100
AcDbVertex
100
AcDb2dVertex
 10
111.0230251458554
 20
-235.6858723369119
 30
0.0
  0
SEQEND
  5
315
330
312
100
AcDbEntity
  8
\U+838C\U+8343\U+8384\U+815B_1
  0
POLYLINE
  5
316
330
3C
100
AcDbEntity
  8
\U+838C\U+8343\U+8384\U+815B_1
100
AcDb2dPolyline
 66
     1
 10
0.0
 20
0.0
 30
0.0
  0
VERTEX
  5
317
330
316
100
AcDbEntity
  8
\U+838C\U+8343\U+8384\U+815B_1
100
AcDbVertex
100
AcDb2dVertex
 10
108.4333468695931
 20
-235.6858723369119
 30
0.0
  0
VERTEX
  5
318
330
316
100
AcDbEntity
  8
\U+838C\U+8343\U+8384\U+815B_1
100
AcDbVertex
100
AcDb2dVertex
 10
107.3054226077223
 20
-235.6858723369119
 30
0.0
  0
SEQEND
  5
319
330
316
100
AcDbEntity
  8
\U+838C\U+8343\U+8384\U+815B_1
  0
POLYLINE
  5
31A
330
3C
100
AcDbEntity
  8
\U+838C\U+8343\U+8384\U+815B_1
100
AcDb2dPolyline
 66
     1
 10
0.0
 20
0.0
 30
0.0
  0
VERTEX
  5
31B
330
31A
100
AcDbEntity
  8
\U+838C\U+8343\U+8384\U+815B_1
100
AcDbVertex
100
AcDb2dVertex
 10
107.3054226077223
 20
-235.6858723369119
 30
0.0
  0
VERTEX
  5
31C
330
31A
100
AcDbEntity
  8
\U+838C\U+8343\U+8384\U+815B_1
100
AcDbVertex
100
AcDb2dVertex
 10
106.0241915967578
 20
-235.6858723369119
 30
0.0
  0
VERTEX
  5
31D
330
31A
100
AcDbEntity
  8
\U+838C\U+8343\U+8384\U+815B_1
100
AcDbVertex
100
AcDb2dVertex
 10
104.743305095342
 20
-235.6858723369119
 30
0.0
  0
VERTEX
  5
31E
330
31A
100
AcDbEntity
  8
\U+838C\U+8343\U+8384\U+815B_1
100
AcDbVertex
100
AcDb2dVertex
 10
103.5457899046691
 20
-235.6858723369119
 30
0.0
  0
VERTEX
  5
31F
330
31A
100
AcDbEntity
  8
\U+838C\U+8343\U+8384\U+815B_1
100
AcDbVertex
100
AcDb2dVertex
 10
102.3344943320553
 20
-235.6858723369119
 30
0.0
  0
VERTEX
  5
320
330
31A
100
AcDbEntity
  8
\U+838C\U+8343\U+8384\U+815B_1
100
AcDbVertex
100
AcDb2dVertex
 10
101.2901136357018
 20
-235.6858723369119
 30
0.0
  0
VERTEX
  5
321
330
31A
100
AcDbEntity
  8
\U+838C\U+8343\U+8384\U+815B_1
100
AcDbVertex
100
AcDb2dVertex
 10
100.4128200703829
 20
-235.6858723369119
 30
0.0
  0
VERTEX
  5
322
330
31A
100
AcDbEntity
  8
\U+838C\U+8343\U+8384\U+815B_1
100
AcDbVertex
100
AcDb2dVertex
 10
99.77237681967496
 20
-235.6858723369119
 30
0.0
  0
VERTEX
  5
323
330
31A
100
AcDbEntity
  8
\U+838C\U+8343\U+8384\U+815B_1
100
AcDbVertex
100
AcDb2dVertex
 10
99.36861162880369
 20
-235.6858723369119
 30
0.0
  0
VERTEX
  5
324
330
31A
100
AcDbEntity
  8
\U+838C\U+8343\U+8384\U+815B_1
100
AcDbVertex
100
AcDb2dVertex
 10
99.21530487971006
 20
-235.6858723369119
 30
0.0
  0
SEQEND
  5
325
330
31A
100
AcDbEntity
  8
\U+838C\U+8343\U+8384\U+815B_1
  0
POLYLINE
  5
326
330
3C
100
AcDbEntity
  8
\U+838C\U+8343\U+8384\U+815B_1
100
AcDb2dPolyline
 66
     1
 10
0.0
 20
0.0
 30
0.0
  0
VERTEX
  5
327
330
326
100
AcDbEntity
  8
\U+838C\U+8343\U+8384\U+815B_1
100
AcDbVertex
100
AcDb2dVertex
 10
99.28506806328637
 20
-235.6858723369119
 30
0.0
  0
VERTEX
  5
328
330
326
100
AcDbEntity
  8
\U+838C\U+8343\U+8384\U+815B_1
100
AcDbVertex
100
AcDb2dVertex
 10
99.36861162880369
 20
-235.6858723369119
 30
0.0
  0
VERTEX
  5
329
330
326
100
AcDbEntity
  8
\U+838C\U+8343\U+8384\U+815B_1
100
AcDbVertex
100
AcDb2dVertex
 10
100.0925984450289
 20
-235.6858723369119
 30
0.0
  0
VERTEX
  5
32A
330
326
100
AcDbEntity
  8
\U+838C\U+8343\U+8384\U+815B_1
100
AcDbVertex
100
AcDb2dVertex
 10
101.4572007667364
 20
-235.6858723369119
 30
0.0
  0
VERTEX
  5
32B
330
326
100
AcDbEntity
  8
\U+838C\U+8343\U+8384\U+815B_1
100
AcDbVertex
100
AcDb2dVertex
 10
103.1420247137978
 20
-235.6858723369119
 30
0.0
  0
VERTEX
  5
32C
330
326
100
AcDbEntity
  8
\U+838C\U+8343\U+8384\U+815B_1
100
AcDbVertex
100
AcDb2dVertex
 10
105.1470702862132
 20
-235.6858723369119
 30
0.0
  0
VERTEX
  5
32D
330
326
100
AcDbEntity
  8
\U+838C\U+8343\U+8384\U+815B_1
100
AcDbVertex
100
AcDb2dVertex
 10
107.0687445478856
 20
-235.6858723369119
 30
0.0
  0
VERTEX
  5
32E
330
326
100
AcDbEntity
  8
\U+838C\U+8343\U+8384\U+815B_1
100
AcDbVertex
100
AcDb2dVertex
 10
108.7533962401728
 20
-235.6858723369119
 30
0.0
  0
VERTEX
  5
32F
330
326
100
AcDbEntity
  8
\U+838C\U+8343\U+8384\U+815B_1
100
AcDbVertex
100
AcDb2dVertex
 10
110.1179985618802
 20
-235.6858723369119
 30
0.0
  0
VERTEX
  5
330
330
326
100
AcDbEntity
  8
\U+838C\U+8343\U+8384\U+815B_1
100
AcDbVertex
100
AcDb2dVertex
 10
110.8421576328797
 20
-235.6858723369119
 30
0.0
  0
VERTEX
  5
331
330
326
100
AcDbEntity
  8
\U+838C\U+8343\U+8384\U+815B_1
100
AcDbVertex
100
AcDb2dVertex
 10
110.9255289436228
 20
-235.6858723369119
 30
0.0
  0
SEQEND
  5
332
330
326
100
AcDbEntity
  8
\U+838C\U+8343\U+8384\U+815B_1
  0
POLYLINE
  5
333
330
3C
100
AcDbEntity
  8
\U+838C\U+8343\U+8384\U+815B_1
100
AcDb2dPolyline
 66
     1
 10
0.0
 20
0.0
 30
0.0
  0
VERTEX
  5
334
330
333
100
AcDbEntity
  8
\U+838C\U+8343\U+8384\U+815B_1
100
AcDbVertex
100
AcDb2dVertex
 10
110.9951198724248
 20
-234.8783419551693
 30
0.0
  0
VERTEX
  5
335
330
333
100
AcDbEntity
  8
\U+838C\U+8343\U+8384\U+815B_1
100
AcDbVertex
100
AcDb2dVertex
 10
110.8421576328797
 20
-234.8783419551693
 30
0.0
  0
VERTEX
  5
336
330
333
100
AcDbEntity
  8
\U+838C\U+8343\U+8384\U+815B_1
100
AcDbVertex
100
AcDb2dVertex
 10
110.4383924420085
 20
-234.8783419551693
 30
0.0
  0
VERTEX
  5
337
330
333
100
AcDbEntity
  8
\U+838C\U+8343\U+8384\U+815B_1
100
AcDbVertex
100
AcDb2dVertex
 10
109.7979491913005
 20
-234.8783419551693
 30
0.0
  0
VERTEX
  5
338
330
333
100
AcDbEntity
  8
\U+838C\U+8343\U+8384\U+815B_1
100
AcDbVertex
100
AcDb2dVertex
 10
108.9204833712074
 20
-234.8783419551693
 30
0.0
  0
VERTEX
  5
339
330
333
100
AcDbEntity
  8
\U+838C\U+8343\U+8384\U+815B_1
100
AcDbVertex
100
AcDb2dVertex
 10
107.8762749296282
 20
-234.8783419551693
 30
0.0
  0
VERTEX
  5
33A
330
333
100
AcDbEntity
  8
\U+838C\U+8343\U+8384\U+815B_1
100
AcDbVertex
100
AcDb2dVertex
 10
106.6649793570143
 20
-234.8783419551693
 30
0.0
  0
SEQEND
  5
33B
330
333
100
AcDbEntity
  8
\U+838C\U+8343\U+8384\U+815B_1
  0
POLYLINE
  5
33C
330
3C
100
AcDbEntity
  8
\U+838C\U+8343\U+8384\U+815B_1
100
AcDb2dPolyline
 66
     1
 10
0.0
 20
0.0
 30
0.0
  0
VERTEX
  5
33D
330
33C
100
AcDbEntity
  8
\U+838C\U+8343\U+8384\U+815B_1
100
AcDbVertex
100
AcDb2dVertex
 10
110.9951198724248
 20
-234.8783419551693
 30
0.0
  0
VERTEX
  5
33E
330
33C
100
AcDbEntity
  8
\U+838C\U+8343\U+8384\U+815B_1
100
AcDbVertex
100
AcDb2dVertex
 10
111.0230251458554
 20
-234.8783419551693
 30
0.0
  0
SEQEND
  5
33F
330
33C
100
AcDbEntity
  8
\U+838C\U+8343\U+8384\U+815B_1
  0
POLYLINE
  5
340
330
3C
100
AcDbEntity
  8
\U+838C\U+8343\U+8384\U+815B_1
100
AcDb2dPolyline
 66
     1
 10
0.0
 20
0.0
 30
0.0
  0
VERTEX
  5
341
330
340
100
AcDbEntity
  8
\U+838C\U+8343\U+8384\U+815B_1
100
AcDbVertex
100
AcDb2dVertex
 10
106.6649793570143
 20
-234.8783419551693
 30
0.0
  0
VERTEX
  5
342
330
340
100
AcDbEntity
  8
\U+838C\U+8343\U+8384\U+815B_1
100
AcDbVertex
100
AcDb2dVertex
 10
105.3837483460499
 20
-234.8783419551693
 30
0.0
  0
VERTEX
  5
343
330
340
100
AcDbEntity
  8
\U+838C\U+8343\U+8384\U+815B_1
100
AcDbVertex
100
AcDb2dVertex
 10
104.1864054101513
 20
-234.8783419551693
 30
0.0
  0
VERTEX
  5
344
330
340
100
AcDbEntity
  8
\U+838C\U+8343\U+8384\U+815B_1
100
AcDbVertex
100
AcDb2dVertex
 10
102.9053466539612
 20
-234.8783419551693
 30
0.0
  0
VERTEX
  5
345
330
340
100
AcDbEntity
  8
\U+838C\U+8343\U+8384\U+815B_1
100
AcDbVertex
100
AcDb2dVertex
 10
101.7774223920904
 20
-234.8783419551693
 30
0.0
  0
VERTEX
  5
346
330
340
100
AcDbEntity
  8
\U+838C\U+8343\U+8384\U+815B_1
100
AcDbVertex
100
AcDb2dVertex
 10
100.8165852612542
 20
-234.8783419551693
 30
0.0
  0
VERTEX
  5
347
330
340
100
AcDbEntity
  8
\U+838C\U+8343\U+8384\U+815B_1
100
AcDbVertex
100
AcDb2dVertex
 10
100.0925984450289
 20
-234.8783419551693
 30
0.0
  0
VERTEX
  5
348
330
340
100
AcDbEntity
  8
\U+838C\U+8343\U+8384\U+815B_1
100
AcDbVertex
100
AcDb2dVertex
 10
99.5356987598383
 20
-234.8783419551693
 30
0.0
  0
VERTEX
  5
349
330
340
100
AcDbEntity
  8
\U+838C\U+8343\U+8384\U+815B_1
100
AcDbVertex
100
AcDb2dVertex
 10
99.28506806328637
 20
-234.8783419551693
 30
0.0
  0
VERTEX
  5
34A
330
340
100
AcDbEntity
  8
\U+838C\U+8343\U+8384\U+815B_1
100
AcDbVertex
100
AcDb2dVertex
 10
99.21530487971006
 20
-234.8783419551693
 30
0.0
  0
SEQEND
  5
34B
330
340
100
AcDbEntity
  8
\U+838C\U+8343\U+8384\U+815B_1
  0
POLYLINE
  5
34C
330
3C
100
AcDbEntity
  8
\U+838C\U+8343\U+8384\U+815B_1
100
AcDb2dPolyline
 66
     1
 10
0.0
 20
0.0
 30
0.0
  0
VERTEX
  5
34D
330
34C
100
AcDbEntity
  8
\U+838C\U+8343\U+8384\U+815B_1
100
AcDbVertex
100
AcDb2dVertex
 10
119.5864989935409
 20
-214.0334472121166
 30
0.0
  0
VERTEX
  5
34E
330
34C
100
AcDbEntity
  8
\U+838C\U+8343\U+8384\U+815B_1
100
AcDbVertex
100
AcDb2dVertex
 10
119.3360405517632
 20
-214.0334472121166
 30
0.0
  0
VERTEX
  5
34F
330
34C
100
AcDbEntity
  8
\U+838C\U+8343\U+8384\U+815B_1
100
AcDbVertex
100
AcDb2dVertex
 10
118.8623399225414
 20
-214.0334472121166
 30
0.0
  0
VERTEX
  5
350
330
34C
100
AcDbEntity
  8
\U+838C\U+8343\U+8384\U+815B_1
100
AcDbVertex
100
AcDb2dVertex
 10
118.0548095407988
 20
-214.0334472121166
 30
0.0
  0
VERTEX
  5
351
330
34C
100
AcDbEntity
  8
\U+838C\U+8343\U+8384\U+815B_1
100
AcDbVertex
100
AcDb2dVertex
 10
117.0106010992196
 20
-214.0334472121166
 30
0.0
  0
VERTEX
  5
352
330
34C
100
AcDbEntity
  8
\U+838C\U+8343\U+8384\U+815B_1
100
AcDbVertex
100
AcDb2dVertex
 10
115.7293700882552
 20
-214.0334472121166
 30
0.0
  0
VERTEX
  5
353
330
34C
100
AcDbEntity
  8
\U+838C\U+8343\U+8384\U+815B_1
100
AcDbVertex
100
AcDb2dVertex
 10
114.2118055270026
 20
-214.0334472121166
 30
0.0
  0
VERTEX
  5
354
330
34C
100
AcDbEntity
  8
\U+838C\U+8343\U+8384\U+815B_1
100
AcDbVertex
100
AcDb2dVertex
 10
112.5967447635175
 20
-214.0334472121166
 30
0.0
  0
VERTEX
  5
355
330
34C
100
AcDbEntity
  8
\U+838C\U+8343\U+8384\U+815B_1
100
AcDbVertex
100
AcDb2dVertex
 10
110.7584418125882
 20
-214.0334472121166
 30
0.0
  0
VERTEX
  5
356
330
34C
100
AcDbEntity
  8
\U+838C\U+8343\U+8384\U+815B_1
100
AcDbVertex
100
AcDb2dVertex
 10
108.8371120604643
 20
-214.0334472121166
 30
0.0
  0
VERTEX
  5
357
330
34C
100
AcDbEntity
  8
\U+838C\U+8343\U+8384\U+815B_1
100
AcDbVertex
100
AcDb2dVertex
 10
106.8320664880489
 20
-214.0334472121166
 30
0.0
  0
VERTEX
  5
358
330
34C
100
AcDbEntity
  8
\U+838C\U+8343\U+8384\U+815B_1
100
AcDbVertex
100
AcDb2dVertex
 10
104.8268486608593
 20
-214.0334472121166
 30
0.0
  0
VERTEX
  5
359
330
34C
100
AcDbEntity
  8
\U+838C\U+8343\U+8384\U+815B_1
100
AcDbVertex
100
AcDb2dVertex
 10
102.7382595229266
 20
-214.0334472121166
 30
0.0
  0
SEQEND
  5
35A
330
34C
100
AcDbEntity
  8
\U+838C\U+8343\U+8384\U+815B_1
  0
POLYLINE
  5
35B
330
3C
100
AcDbEntity
  8
\U+838C\U+8343\U+8384\U+815B_1
100
AcDb2dPolyline
 66
     1
 10
0.0
 20
0.0
 30
0.0
  0
VERTEX
  5
35C
330
35B
100
AcDbEntity
  8
\U+838C\U+8343\U+8384\U+815B_1
100
AcDbVertex
100
AcDb2dVertex
 10
119.5864989935409
 20
-214.0334472121166
 30
0.0
  0
VERTEX
  5
35D
330
35B
100
AcDbEntity
  8
\U+838C\U+8343\U+8384\U+815B_1
100
AcDbVertex
100
AcDb2dVertex
 10
119.6144042669714
 20
-214.0334472121166
 30
0.0
  0
SEQEND
  5
35E
330
35B
100
AcDbEntity
  8
\U+838C\U+8343\U+8384\U+815B_1
  0
POLYLINE
  5
35F
330
3C
100
AcDbEntity
  8
\U+838C\U+8343\U+8384\U+815B_1
100
AcDb2dPolyline
 66
     1
 10
0.0
 20
0.0
 30
0.0
  0
VERTEX
  5
360
330
35F
100
AcDbEntity
  8
\U+838C\U+8343\U+8384\U+815B_1
100
AcDbVertex
100
AcDb2dVertex
 10
114.8522487777106
 20
-232.5529025026257
 30
0.0
  0
VERTEX
  5
361
330
35F
100
AcDbEntity
  8
\U+838C\U+8343\U+8384\U+815B_1
100
AcDbVertex
100
AcDb2dVertex
 10
114.7688774669675
 20
-232.5529025026257
 30
0.0
  0
VERTEX
  5
362
330
35F
100
AcDbEntity
  8
\U+838C\U+8343\U+8384\U+815B_1
100
AcDbVertex
100
AcDb2dVertex
 10
114.3651122760962
 20
-232.5529025026257
 30
0.0
  0
VERTEX
  5
363
330
35F
100
AcDbEntity
  8
\U+838C\U+8343\U+8384\U+815B_1
100
AcDbVertex
100
AcDb2dVertex
 10
113.8080403361313
 20
-232.5529025026257
 30
0.0
  0
VERTEX
  5
364
330
35F
100
AcDbEntity
  8
\U+838C\U+8343\U+8384\U+815B_1
100
AcDbVertex
100
AcDb2dVertex
 10
112.9309190255867
 20
-232.5529025026257
 30
0.0
  0
VERTEX
  5
365
330
35F
100
AcDbEntity
  8
\U+838C\U+8343\U+8384\U+815B_1
100
AcDbVertex
100
AcDb2dVertex
 10
111.886366074459
 20
-232.5529025026257
 30
0.0
  0
VERTEX
  5
366
330
35F
100
AcDbEntity
  8
\U+838C\U+8343\U+8384\U+815B_1
100
AcDbVertex
100
AcDb2dVertex
 10
110.6054795730431
 20
-232.5529025026257
 30
0.0
  0
VERTEX
  5
367
330
35F
100
AcDbEntity
  8
\U+838C\U+8343\U+8384\U+815B_1
100
AcDbVertex
100
AcDb2dVertex
 10
109.157161431044
 20
-232.5529025026257
 30
0.0
  0
VERTEX
  5
368
330
35F
100
AcDbEntity
  8
\U+838C\U+8343\U+8384\U+815B_1
100
AcDbVertex
100
AcDb2dVertex
 10
107.7091877985935
 20
-232.5529025026257
 30
0.0
  0
SEQEND
  5
369
330
35F
100
AcDbEntity
  8
\U+838C\U+8343\U+8384\U+815B_1
  0
POLYLINE
  5
36A
330
3C
100
AcDbEntity
  8
\U+838C\U+8343\U+8384\U+815B_1
100
AcDb2dPolyline
 66
     1
 10
0.0
 20
0.0
 30
0.0
  0
VERTEX
  5
36B
330
36A
100
AcDbEntity
  8
\U+838C\U+8343\U+8384\U+815B_1
100
AcDbVertex
100
AcDb2dVertex
 10
107.7091877985935
 20
-232.5529025026257
 30
0.0
  0
VERTEX
  5
36C
330
36A
100
AcDbEntity
  8
\U+838C\U+8343\U+8384\U+815B_1
100
AcDbVertex
100
AcDb2dVertex
 10
106.1079074170494
 20
-232.5529025026257
 30
0.0
  0
VERTEX
  5
36D
330
36A
100
AcDbEntity
  8
\U+838C\U+8343\U+8384\U+815B_1
100
AcDbVertex
100
AcDb2dVertex
 10
104.5066270355053
 20
-232.5529025026257
 30
0.0
  0
VERTEX
  5
36E
330
36A
100
AcDbEntity
  8
\U+838C\U+8343\U+8384\U+815B_1
100
AcDbVertex
100
AcDb2dVertex
 10
102.9053466539612
 20
-232.5529025026257
 30
0.0
  0
VERTEX
  5
36F
330
36A
100
AcDbEntity
  8
\U+838C\U+8343\U+8384\U+815B_1
100
AcDbVertex
100
AcDb2dVertex
 10
101.3736572012191
 20
-232.5529025026257
 30
0.0
  0
VERTEX
  5
370
330
36A
100
AcDbEntity
  8
\U+838C\U+8343\U+8384\U+815B_1
100
AcDbVertex
100
AcDb2dVertex
 10
99.92551131399432
 20
-232.5529025026257
 30
0.0
  0
VERTEX
  5
371
330
36A
100
AcDbEntity
  8
\U+838C\U+8343\U+8384\U+815B_1
100
AcDbVertex
100
AcDb2dVertex
 10
98.64445255780417
 20
-232.5529025026257
 30
0.0
  0
VERTEX
  5
372
330
36A
100
AcDbEntity
  8
\U+838C\U+8343\U+8384\U+815B_1
100
AcDbVertex
100
AcDb2dVertex
 10
97.53048093264863
 20
-232.5529025026257
 30
0.0
  0
VERTEX
  5
373
330
36A
100
AcDbEntity
  8
\U+838C\U+8343\U+8384\U+815B_1
100
AcDbVertex
100
AcDb2dVertex
 10
96.63940698538876
 20
-232.5529025026257
 30
0.0
  0
VERTEX
  5
374
330
36A
100
AcDbEntity
  8
\U+838C\U+8343\U+8384\U+815B_1
100
AcDbVertex
100
AcDb2dVertex
 10
95.99896373468081
 20
-232.5529025026257
 30
0.0
  0
VERTEX
  5
375
330
36A
100
AcDbEntity
  8
\U+838C\U+8343\U+8384\U+815B_1
100
AcDbVertex
100
AcDb2dVertex
 10
95.52543536023323
 20
-232.5529025026257
 30
0.0
  0
VERTEX
  5
376
330
36A
100
AcDbEntity
  8
\U+838C\U+8343\U+8384\U+815B_1
100
AcDbVertex
100
AcDb2dVertex
 10
95.35834822919861
 20
-232.5529025026257
 30
0.0
  0
SEQEND
  5
377
330
36A
100
AcDbEntity
  8
\U+838C\U+8343\U+8384\U+815B_1
  0
POLYLINE
  5
378
330
3C
100
AcDbEntity
  8
\U+838C\U+8343\U+8384\U+815B_1
100
AcDb2dPolyline
 66
     1
 10
0.0
 20
0.0
 30
0.0
  0
VERTEX
  5
379
330
378
100
AcDbEntity
  8
\U+838C\U+8343\U+8384\U+815B_1
100
AcDbVertex
100
AcDb2dVertex
 10
102.7382595229266
 20
-214.0334472121166
 30
0.0
  0
VERTEX
  5
37A
330
378
100
AcDbEntity
  8
\U+838C\U+8343\U+8384\U+815B_1
100
AcDbVertex
100
AcDb2dVertex
 10
101.3736572012191
 20
-214.0334472121166
 30
0.0
  0
VERTEX
  5
37B
330
378
100
AcDbEntity
  8
\U+838C\U+8343\U+8384\U+815B_1
100
AcDbVertex
100
AcDb2dVertex
 10
99.68883325415766
 20
-214.0334472121166
 30
0.0
  0
SEQEND
  5
37C
330
378
100
AcDbEntity
  8
\U+838C\U+8343\U+8384\U+815B_1
  0
POLYLINE
  5
37D
330
3C
100
AcDbEntity
  8
\U+838C\U+8343\U+8384\U+815B_1
100
AcDb2dPolyline
 66
     1
 10
0.0
 20
0.0
 30
0.0
  0
VERTEX
  5
37E
330
37D
100
AcDbEntity
  8
\U+838C\U+8343\U+8384\U+815B_1
100
AcDbVertex
100
AcDb2dVertex
 10
118.9460557428329
 20
-229.7541069304087
 30
0.0
  0
VERTEX
  5
37F
330
37D
100
AcDbEntity
  8
\U+838C\U+8343\U+8384\U+815B_1
100
AcDbVertex
100
AcDb2dVertex
 10
118.6118814807637
 20
-229.7541069304087
 30
0.0
  0
VERTEX
  5
380
330
37D
100
AcDbEntity
  8
\U+838C\U+8343\U+8384\U+815B_1
100
AcDbVertex
100
AcDb2dVertex
 10
117.8181314809621
 20
-229.7541069304087
 30
0.0
  0
VERTEX
  5
381
330
37D
100
AcDbEntity
  8
\U+838C\U+8343\U+8384\U+815B_1
100
AcDbVertex
100
AcDb2dVertex
 10
116.7739230393829
 20
-229.7541069304087
 30
0.0
  0
VERTEX
  5
382
330
37D
100
AcDbEntity
  8
\U+838C\U+8343\U+8384\U+815B_1
100
AcDbVertex
100
AcDb2dVertex
 10
116.3701578485116
 20
-229.7541069304087
 30
0.0
  0
SEQEND
  5
383
330
37D
100
AcDbEntity
  8
\U+838C\U+8343\U+8384\U+815B_1
  0
POLYLINE
  5
384
330
3C
100
AcDbEntity
  8
\U+838C\U+8343\U+8384\U+815B_1
100
AcDb2dPolyline
 66
     1
 10
0.0
 20
0.0
 30
0.0
  0
VERTEX
  5
385
330
384
100
AcDbEntity
  8
\U+838C\U+8343\U+8384\U+815B_1
100
AcDbVertex
100
AcDb2dVertex
 10
118.9460557428329
 20
-229.7541069304087
 30
0.0
  0
VERTEX
  5
386
330
384
100
AcDbEntity
  8
\U+838C\U+8343\U+8384\U+815B_1
100
AcDbVertex
100
AcDb2dVertex
 10
118.9739610162635
 20
-229.7541069304087
 30
0.0
  0
SEQEND
  5
387
330
384
100
AcDbEntity
  8
\U+838C\U+8343\U+8384\U+815B_1
  0
POLYLINE
  5
388
330
3C
100
AcDbEntity
  8
\U+838C\U+8343\U+8384\U+815B_1
100
AcDb2dPolyline
 66
     1
 10
0.0
 20
0.0
 30
0.0
  0
VERTEX
  5
389
330
388
100
AcDbEntity
  8
\U+838C\U+8343\U+8384\U+815B_1
100
AcDbVertex
100
AcDb2dVertex
 10
119.099017982378
 20
-214.9939398334043
 30
0.0
  0
VERTEX
  5
38A
330
388
100
AcDbEntity
  8
\U+838C\U+8343\U+8384\U+815B_1
100
AcDbVertex
100
AcDb2dVertex
 10
119.1269232558085
 20
-214.9939398334043
 30
0.0
  0
SEQEND
  5
38B
330
388
100
AcDbEntity
  8
\U+838C\U+8343\U+8384\U+815B_1
  0
POLYLINE
  5
38C
330
3C
100
AcDbEntity
  8
\U+838C\U+8343\U+8384\U+815B_1
100
AcDb2dPolyline
 66
     1
 10
0.0
 20
0.0
 30
0.0
  0
VERTEX
  5
38D
330
38C
100
AcDbEntity
  8
\U+838C\U+8343\U+8384\U+815B_1
100
AcDbVertex
100
AcDb2dVertex
 10
106.1079074170494
 20
-229.7541069304087
 30
0.0
  0
VERTEX
  5
38E
330
38C
100
AcDbEntity
  8
\U+838C\U+8343\U+8384\U+815B_1
100
AcDbVertex
100
AcDb2dVertex
 10
104.743305095342
 20
-229.7541069304087
 30
0.0
  0
VERTEX
  5
38F
330
38C
100
AcDbEntity
  8
\U+838C\U+8343\U+8384\U+815B_1
100
AcDbVertex
100
AcDb2dVertex
 10
103.3787027736345
 20
-229.7541069304087
 30
0.0
  0
VERTEX
  5
390
330
38C
100
AcDbEntity
  8
\U+838C\U+8343\U+8384\U+815B_1
100
AcDbVertex
100
AcDb2dVertex
 10
102.0976440174443
 20
-229.7541069304087
 30
0.0
  0
VERTEX
  5
391
330
38C
100
AcDbEntity
  8
\U+838C\U+8343\U+8384\U+815B_1
100
AcDbVertex
100
AcDb2dVertex
 10
100.7330416957369
 20
-229.7541069304087
 30
0.0
  0
VERTEX
  5
392
330
38C
100
AcDbEntity
  8
\U+838C\U+8343\U+8384\U+815B_1
100
AcDbVertex
100
AcDb2dVertex
 10
99.452155194321
 20
-229.7541069304087
 30
0.0
  0
VERTEX
  5
393
330
38C
100
AcDbEntity
  8
\U+838C\U+8343\U+8384\U+815B_1
100
AcDbVertex
100
AcDb2dVertex
 10
98.25464000364815
 20
-229.7541069304087
 30
0.0
  0
VERTEX
  5
394
330
38C
100
AcDbEntity
  8
\U+838C\U+8343\U+8384\U+815B_1
100
AcDbVertex
100
AcDb2dVertex
 10
97.04317217626004
 20
-229.7541069304087
 30
0.0
  0
VERTEX
  5
395
330
38C
100
AcDbEntity
  8
\U+838C\U+8343\U+8384\U+815B_1
100
AcDbVertex
100
AcDb2dVertex
 10
95.92920055110451
 20
-229.7541069304087
 30
0.0
  0
SEQEND
  5
396
330
38C
100
AcDbEntity
  8
\U+838C\U+8343\U+8384\U+815B_1
  0
POLYLINE
  5
397
330
3C
100
AcDbEntity
  8
\U+838C\U+8343\U+8384\U+815B_1
100
AcDb2dPolyline
 66
     1
 10
0.0
 20
0.0
 30
0.0
  0
VERTEX
  5
398
330
397
100
AcDbEntity
  8
\U+838C\U+8343\U+8384\U+815B_1
100
AcDbVertex
100
AcDb2dVertex
 10
95.92920055110451
 20
-229.7541069304087
 30
0.0
  0
VERTEX
  5
399
330
397
100
AcDbEntity
  8
\U+838C\U+8343\U+8384\U+815B_1
100
AcDbVertex
100
AcDb2dVertex
 10
95.03812660384465
 20
-229.7541069304087
 30
0.0
  0
VERTEX
  5
39A
330
397
100
AcDbEntity
  8
\U+838C\U+8343\U+8384\U+815B_1
100
AcDbVertex
100
AcDb2dVertex
 10
93.52038978781782
 20
-229.7541069304087
 30
0.0
  0
VERTEX
  5
39B
330
397
100
AcDbEntity
  8
\U+838C\U+8343\U+8384\U+815B_1
100
AcDbVertex
100
AcDb2dVertex
 10
92.23933103162767
 20
-229.7541069304087
 30
0.0
  0
SEQEND
  5
39C
330
397
100
AcDbEntity
  8
\U+838C\U+8343\U+8384\U+815B_1
  0
POLYLINE
  5
39D
330
3C
100
AcDbEntity
  8
\U+838C\U+8343\U+8384\U+815B_1
100
AcDb2dPolyline
 66
     1
 10
0.0
 20
0.0
 30
0.0
  0
VERTEX
  5
39E
330
39D
100
AcDbEntity
  8
\U+838C\U+8343\U+8384\U+815B_1
100
AcDbVertex
100
AcDb2dVertex
 10
92.23933103162767
 20
-229.7541069304087
 30
0.0
  0
VERTEX
  5
39F
330
39D
100
AcDbEntity
  8
\U+838C\U+8343\U+8384\U+815B_1
100
AcDbVertex
100
AcDb2dVertex
 10
91.3482570843678
 20
-229.7541069304087
 30
0.0
  0
SEQEND
  5
3A0
330
39D
100
AcDbEntity
  8
\U+838C\U+8343\U+8384\U+815B_1
  0
POLYLINE
  5
3A1
330
3C
100
AcDbEntity
  8
\U+838C\U+8343\U+8384\U+815B_1
100
AcDb2dPolyline
 66
     1
 10
0.0
 20
0.0
 30
0.0
  0
VERTEX
  5
3A2
330
3A1
100
AcDbEntity
  8
\U+838C\U+8343\U+8384\U+815B_1
100
AcDbVertex
100
AcDb2dVertex
 10
91.3482570843678
 20
-229.7541069304087
 30
0.0
  0
VERTEX
  5
3A3
330
3A1
100
AcDbEntity
  8
\U+838C\U+8343\U+8384\U+815B_1
100
AcDbVertex
100
AcDb2dVertex
 10
90.7911851444029
 20
-229.7541069304087
 30
0.0
  0
VERTEX
  5
3A4
330
3A1
100
AcDbEntity
  8
\U+838C\U+8343\U+8384\U+815B_1
100
AcDbVertex
100
AcDb2dVertex
 10
90.7076415788856
 20
-229.7541069304087
 30
0.0
  0
SEQEND
  5
3A5
330
3A1
100
AcDbEntity
  8
\U+838C\U+8343\U+8384\U+815B_1
  0
POLYLINE
  5
3A6
330
3C
100
AcDbEntity
  8
\U+838C\U+8343\U+8384\U+815B_1
100
AcDb2dPolyline
 66
     1
 10
0.0
 20
0.0
 30
0.0
  0
VERTEX
  5
3A7
330
3A6
100
AcDbEntity
  8
\U+838C\U+8343\U+8384\U+815B_1
100
AcDbVertex
100
AcDb2dVertex
 10
119.5031276827978
 20
-215.2309624027895
 30
0.0
  0
VERTEX
  5
3A8
330
3A6
100
AcDbEntity
  8
\U+838C\U+8343\U+8384\U+815B_1
100
AcDbVertex
100
AcDb2dVertex
 10
119.4194118625063
 20
-215.2309624027895
 30
0.0
  0
SEQEND
  5
3A9
330
3A6
100
AcDbEntity
  8
\U+838C\U+8343\U+8384\U+815B_1
  0
POLYLINE
  5
3AA
330
3C
100
AcDbEntity
  8
\U+838C\U+8343\U+8384\U+815B_1
100
AcDb2dPolyline
 66
     1
 10
0.0
 20
0.0
 30
0.0
  0
VERTEX
  5
3AB
330
3AA
100
AcDbEntity
  8
\U+838C\U+8343\U+8384\U+815B_1
100
AcDbVertex
100
AcDb2dVertex
 10
90.7076415788856
 20
-217.3193792859479
 30
0.0
  0
VERTEX
  5
3AC
330
3AA
100
AcDbEntity
  8
\U+838C\U+8343\U+8384\U+815B_1
100
AcDbVertex
100
AcDb2dVertex
 10
90.7911851444029
 20
-217.3193792859479
 30
0.0
  0
VERTEX
  5
3AD
330
3AA
100
AcDbEntity
  8
\U+838C\U+8343\U+8384\U+815B_1
100
AcDbVertex
100
AcDb2dVertex
 10
91.3482570843678
 20
-217.1664170464028
 30
0.0
  0
VERTEX
  5
3AE
330
3AA
100
AcDbEntity
  8
\U+838C\U+8343\U+8384\U+815B_1
100
AcDbVertex
100
AcDb2dVertex
 10
92.30892196042971
 20
-217.0830457356598
 30
0.0
  0
VERTEX
  5
3AF
330
3AA
100
AcDbEntity
  8
\U+838C\U+8343\U+8384\U+815B_1
100
AcDbVertex
100
AcDb2dVertex
 10
93.60393335333514
 20
-216.9996744249167
 30
0.0
  0
VERTEX
  5
3B0
330
3AA
100
AcDbEntity
  8
\U+838C\U+8343\U+8384\U+815B_1
100
AcDbVertex
100
AcDb2dVertex
 10
95.28875730039657
 20
-216.8460231662746
 30
0.0
  0
VERTEX
  5
3B1
330
3AA
100
AcDbEntity
  8
\U+838C\U+8343\U+8384\U+815B_1
100
AcDbVertex
100
AcDb2dVertex
 10
97.12671574177736
 20
-216.7626518555316
 30
0.0
  0
VERTEX
  5
3B2
330
3AA
100
AcDbEntity
  8
\U+838C\U+8343\U+8384\U+815B_1
100
AcDbVertex
100
AcDb2dVertex
 10
99.28506806328637
 20
-216.5959092340455
 30
0.0
  0
VERTEX
  5
3B3
330
3AA
100
AcDbEntity
  8
\U+838C\U+8343\U+8384\U+815B_1
100
AcDbVertex
100
AcDb2dVertex
 10
101.6103352610558
 20
-216.5256292861464
 30
0.0
  0
VERTEX
  5
3B4
330
3AA
100
AcDbEntity
  8
\U+838C\U+8343\U+8384\U+815B_1
100
AcDbVertex
100
AcDb2dVertex
 10
104.0193182791167
 20
-216.4422579754033
 30
0.0
  0
VERTEX
  5
3B5
330
3AA
100
AcDbEntity
  8
\U+838C\U+8343\U+8384\U+815B_1
100
AcDbVertex
100
AcDb2dVertex
 10
106.4279567876291
 20
-216.2755153539172
 30
0.0
  0
VERTEX
  5
3B6
330
3AA
100
AcDbEntity
  8
\U+838C\U+8343\U+8384\U+815B_1
100
AcDbVertex
100
AcDb2dVertex
 10
108.9204833712074
 20
-216.2059244251152
 30
0.0
  0
VERTEX
  5
3B7
330
3AA
100
AcDbEntity
  8
\U+838C\U+8343\U+8384\U+815B_1
100
AcDbVertex
100
AcDb2dVertex
 10
111.1622070034595
 20
-216.1218640952751
 30
0.0
  0
VERTEX
  5
3B8
330
3AA
100
AcDbEntity
  8
\U+838C\U+8343\U+8384\U+815B_1
100
AcDbVertex
100
AcDb2dVertex
 10
113.3205593249685
 20
-215.955121473789
 30
0.0
  0
VERTEX
  5
3B9
330
3AA
100
AcDbEntity
  8
\U+838C\U+8343\U+8384\U+815B_1
100
AcDbVertex
100
AcDb2dVertex
 10
115.1726426578388
 20
-215.871750163046
 30
0.0
  0
VERTEX
  5
3BA
330
3AA
100
AcDbEntity
  8
\U+838C\U+8343\U+8384\U+815B_1
100
AcDbVertex
100
AcDb2dVertex
 10
116.857294350126
 20
-215.7180989044038
 30
0.0
  0
VERTEX
  5
3BB
330
3AA
100
AcDbEntity
  8
\U+838C\U+8343\U+8384\U+815B_1
100
AcDbVertex
100
AcDb2dVertex
 10
118.0548095407988
 20
-215.6347275936608
 30
0.0
  0
VERTEX
  5
3BC
330
3AA
100
AcDbEntity
  8
\U+838C\U+8343\U+8384\U+815B_1
100
AcDbVertex
100
AcDb2dVertex
 10
119.015646671635
 20
-215.5513562829177
 30
0.0
  0
VERTEX
  5
3BD
330
3AA
100
AcDbEntity
  8
\U+838C\U+8343\U+8384\U+815B_1
100
AcDbVertex
100
AcDb2dVertex
 10
119.2664496229612
 20
-215.4817653541157
 30
0.0
  0
SEQEND
  5
3BE
330
3AA
100
AcDbEntity
  8
\U+838C\U+8343\U+8384\U+815B_1
  0
POLYLINE
  5
3BF
330
3C
100
AcDbEntity
  8
\U+838C\U+8343\U+8384\U+815B_1
100
AcDb2dPolyline
 66
     1
 10
0.0
 20
0.0
 30
0.0
  0
VERTEX
  5
3C0
330
3BF
100
AcDbEntity
  8
\U+838C\U+8343\U+8384\U+815B_1
100
AcDbVertex
100
AcDb2dVertex
 10
119.5864989935409
 20
-219.4084851882035
 30
0.0
  0
VERTEX
  5
3C1
330
3BF
100
AcDbEntity
  8
\U+838C\U+8343\U+8384\U+815B_1
100
AcDbVertex
100
AcDb2dVertex
 10
119.5031276827978
 20
-219.4084851882035
 30
0.0
  0
SEQEND
  5
3C2
330
3BF
100
AcDbEntity
  8
\U+838C\U+8343\U+8384\U+815B_1
  0
POLYLINE
  5
3C3
330
3C
100
AcDbEntity
  8
\U+838C\U+8343\U+8384\U+815B_1
100
AcDb2dPolyline
 66
     1
 10
0.0
 20
0.0
 30
0.0
  0
VERTEX
  5
3C4
330
3C3
100
AcDbEntity
  8
\U+838C\U+8343\U+8384\U+815B_1
100
AcDbVertex
100
AcDb2dVertex
 10
119.5864989935409
 20
-219.4084851882035
 30
0.0
  0
VERTEX
  5
3C5
330
3C3
100
AcDbEntity
  8
\U+838C\U+8343\U+8384\U+815B_1
100
AcDbVertex
100
AcDb2dVertex
 10
119.6144042669714
 20
-219.4084851882035
 30
0.0
  0
SEQEND
  5
3C6
330
3C3
100
AcDbEntity
  8
\U+838C\U+8343\U+8384\U+815B_1
  0
POLYLINE
  5
3C7
330
3C
100
AcDbEntity
  8
\U+838C\U+8343\U+8384\U+815B_1
100
AcDb2dPolyline
 66
     1
 10
0.0
 20
0.0
 30
0.0
  0
VERTEX
  5
3C8
330
3C7
100
AcDbEntity
  8
\U+838C\U+8343\U+8384\U+815B_1
100
AcDbVertex
100
AcDb2dVertex
 10
90.7911851444029
 20
-221.4135307606188
 30
0.0
  0
VERTEX
  5
3C9
330
3C7
100
AcDbEntity
  8
\U+838C\U+8343\U+8384\U+815B_1
100
AcDbVertex
100
AcDb2dVertex
 10
90.8747287099202
 20
-221.4135307606188
 30
0.0
  0
VERTEX
  5
3CA
330
3C7
100
AcDbEntity
  8
\U+838C\U+8343\U+8384\U+815B_1
100
AcDbVertex
100
AcDb2dVertex
 10
91.51534421540242
 20
-221.3301594498758
 30
0.0
  0
VERTEX
  5
3CB
330
3C7
100
AcDbEntity
  8
\U+838C\U+8343\U+8384\U+815B_1
100
AcDbVertex
100
AcDb2dVertex
 10
92.55955265698164
 20
-221.1627278092926
 30
0.0
  0
VERTEX
  5
3CC
330
3C7
100
AcDbEntity
  8
\U+838C\U+8343\U+8384\U+815B_1
100
AcDbVertex
100
AcDb2dVertex
 10
93.9241549786891
 20
-221.0931368804906
 30
0.0
  0
VERTEX
  5
3CD
330
3C7
100
AcDbEntity
  8
\U+838C\U+8343\U+8384\U+815B_1
100
AcDbVertex
100
AcDb2dVertex
 10
95.60897892575053
 20
-220.9263942590045
 30
0.0
  0
VERTEX
  5
3CE
330
3C7
100
AcDbEntity
  8
\U+838C\U+8343\U+8384\U+815B_1
100
AcDbVertex
100
AcDb2dVertex
 10
97.61402449816595
 20
-220.8561143111054
 30
0.0
  0
VERTEX
  5
3CF
330
3C7
100
AcDbEntity
  8
\U+838C\U+8343\U+8384\U+815B_1
100
AcDbVertex
100
AcDb2dVertex
 10
99.77237681967496
 20
-220.7727430003624
 30
0.0
  0
VERTEX
  5
3D0
330
3C7
100
AcDbEntity
  8
\U+838C\U+8343\U+8384\U+815B_1
100
AcDbVertex
100
AcDb2dVertex
 10
102.1811875829617
 20
-220.6060003788763
 30
0.0
  0
VERTEX
  5
3D1
330
3C7
100
AcDbEntity
  8
\U+838C\U+8343\U+8384\U+815B_1
100
AcDbVertex
100
AcDb2dVertex
 10
104.5066270355053
 20
-220.5219400490362
 30
0.0
  0
VERTEX
  5
3D2
330
3C7
100
AcDbEntity
  8
\U+838C\U+8343\U+8384\U+815B_1
100
AcDbVertex
100
AcDb2dVertex
 10
106.985028727594
 20
-220.3689778094911
 30
0.0
  0
VERTEX
  5
3D3
330
3C7
100
AcDbEntity
  8
\U+838C\U+8343\U+8384\U+815B_1
100
AcDbVertex
100
AcDb2dVertex
 10
109.3938394908807
 20
-220.2856064987481
 30
0.0
  0
VERTEX
  5
3D4
330
3C7
100
AcDbEntity
  8
\U+838C\U+8343\U+8384\U+815B_1
100
AcDbVertex
100
AcDb2dVertex
 10
111.6359076326813
 20
-220.202235188005
 30
0.0
  0
VERTEX
  5
3D5
330
3C7
100
AcDbEntity
  8
\U+838C\U+8343\U+8384\U+815B_1
100
AcDbVertex
100
AcDb2dVertex
 10
113.7243245158398
 20
-220.0485839293629
 30
0.0
  0
VERTEX
  5
3D6
330
3C7
100
AcDbEntity
  8
\U+838C\U+8343\U+8384\U+815B_1
100
AcDbVertex
100
AcDb2dVertex
 10
115.5764078487101
 20
-219.9652126186198
 30
0.0
  0
VERTEX
  5
3D7
330
3C7
100
AcDbEntity
  8
\U+838C\U+8343\U+8384\U+815B_1
100
AcDbVertex
100
AcDb2dVertex
 10
117.0939724099626
 20
-219.8818413078768
 30
0.0
  0
VERTEX
  5
3D8
330
3C7
100
AcDbEntity
  8
\U+838C\U+8343\U+8384\U+815B_1
100
AcDbVertex
100
AcDb2dVertex
 10
118.2914876006355
 20
-219.7288790683317
 30
0.0
  0
VERTEX
  5
3D9
330
3C7
100
AcDbEntity
  8
\U+838C\U+8343\U+8384\U+815B_1
100
AcDbVertex
100
AcDb2dVertex
 10
119.1827338026696
 20
-219.6448187384916
 30
0.0
  0
VERTEX
  5
3DA
330
3C7
100
AcDbEntity
  8
\U+838C\U+8343\U+8384\U+815B_1
100
AcDbVertex
100
AcDb2dVertex
 10
119.2664496229612
 20
-219.6448187384916
 30
0.0
  0
SEQEND
  5
3DB
330
3C7
100
AcDbEntity
  8
\U+838C\U+8343\U+8384\U+815B_1
  0
POLYLINE
  5
3DC
330
3C
100
AcDbEntity
  8
\U+838C\U+8343\U+8384\U+815B_1
100
AcDb2dPolyline
 66
     1
 10
0.0
 20
0.0
 30
0.0
  0
VERTEX
  5
3DD
330
3DC
100
AcDbEntity
  8
\U+838C\U+8343\U+8384\U+815B_1
100
AcDbVertex
100
AcDb2dVertex
 10
119.5864989935409
 20
-223.5715385725794
 30
0.0
  0
VERTEX
  5
3DE
330
3DC
100
AcDbEntity
  8
\U+838C\U+8343\U+8384\U+815B_1
100
AcDbVertex
100
AcDb2dVertex
 10
119.5031276827978
 20
-223.4881672618363
 30
0.0
  0
SEQEND
  5
3DF
330
3DC
100
AcDbEntity
  8
\U+838C\U+8343\U+8384\U+815B_1
  0
POLYLINE
  5
3E0
330
3C
100
AcDbEntity
  8
\U+838C\U+8343\U+8384\U+815B_1
100
AcDb2dPolyline
 66
     1
 10
0.0
 20
0.0
 30
0.0
  0
VERTEX
  5
3E1
330
3E0
100
AcDbEntity
  8
\U+838C\U+8343\U+8384\U+815B_1
100
AcDbVertex
100
AcDb2dVertex
 10
90.7076415788856
 20
-225.5765841449947
 30
0.0
  0
VERTEX
  5
3E2
330
3E0
100
AcDbEntity
  8
\U+838C\U+8343\U+8384\U+815B_1
100
AcDbVertex
100
AcDb2dVertex
 10
91.19495033527419
 20
-225.4236219054497
 30
0.0
  0
VERTEX
  5
3E3
330
3E0
100
AcDbEntity
  8
\U+838C\U+8343\U+8384\U+815B_1
100
AcDbVertex
100
AcDb2dVertex
 10
92.07224390059305
 20
-225.3402505947066
 30
0.0
  0
VERTEX
  5
3E4
330
3E0
100
AcDbEntity
  8
\U+838C\U+8343\U+8384\U+815B_1
100
AcDbVertex
100
AcDb2dVertex
 10
93.3533026567832
 20
-225.2568792839636
 30
0.0
  0
VERTEX
  5
3E5
330
3E0
100
AcDbEntity
  8
\U+838C\U+8343\U+8384\U+815B_1
100
AcDbVertex
100
AcDb2dVertex
 10
94.88499210952529
 20
-225.1032280253214
 30
0.0
  0
VERTEX
  5
3E6
330
3E0
100
AcDbEntity
  8
\U+838C\U+8343\U+8384\U+815B_1
100
AcDbVertex
100
AcDb2dVertex
 10
96.80649411642338
 20
-225.0198567145784
 30
0.0
  0
VERTEX
  5
3E7
330
3E0
100
AcDbEntity
  8
\U+838C\U+8343\U+8384\U+815B_1
100
AcDbVertex
100
AcDb2dVertex
 10
98.8950832543561
 20
-224.9364854038353
 30
0.0
  0
VERTEX
  5
3E8
330
3E0
100
AcDbEntity
  8
\U+838C\U+8343\U+8384\U+815B_1
100
AcDbVertex
100
AcDb2dVertex
 10
101.2205227068997
 20
-224.7828341451932
 30
0.0
  0
VERTEX
  5
3E9
330
3E0
100
AcDbEntity
  8
\U+838C\U+8343\U+8384\U+815B_1
100
AcDbVertex
100
AcDb2dVertex
 10
103.5457899046691
 20
-224.6994628344501
 30
0.0
  0
VERTEX
  5
3EA
330
3E0
100
AcDbEntity
  8
\U+838C\U+8343\U+8384\U+815B_1
100
AcDbVertex
100
AcDb2dVertex
 10
106.0241915967578
 20
-224.5327202129641
 30
0.0
  0
VERTEX
  5
3EB
330
3E0
100
AcDbEntity
  8
\U+838C\U+8343\U+8384\U+815B_1
100
AcDbVertex
100
AcDb2dVertex
 10
108.4333468695931
 20
-224.463129284162
 30
0.0
  0
VERTEX
  5
3EC
330
3E0
100
AcDbEntity
  8
\U+838C\U+8343\U+8384\U+815B_1
100
AcDbVertex
100
AcDb2dVertex
 10
110.7584418125882
 20
-224.3790689543219
 30
0.0
  0
VERTEX
  5
3ED
330
3E0
100
AcDbEntity
  8
\U+838C\U+8343\U+8384\U+815B_1
100
AcDbVertex
100
AcDb2dVertex
 10
112.9309190255867
 20
-224.2123263328358
 30
0.0
  0
VERTEX
  5
3EE
330
3E0
100
AcDbEntity
  8
\U+838C\U+8343\U+8384\U+815B_1
100
AcDbVertex
100
AcDb2dVertex
 10
114.9359645980021
 20
-224.1427354040338
 30
0.0
  0
VERTEX
  5
3EF
330
3E0
100
AcDbEntity
  8
\U+838C\U+8343\U+8384\U+815B_1
100
AcDbVertex
100
AcDb2dVertex
 10
116.5372449795462
 20
-224.0593640932907
 30
0.0
  0
VERTEX
  5
3F0
330
3E0
100
AcDbEntity
  8
\U+838C\U+8343\U+8384\U+815B_1
100
AcDbVertex
100
AcDb2dVertex
 10
117.9018473012537
 20
-223.8919324527076
 30
0.0
  0
VERTEX
  5
3F1
330
3E0
100
AcDbEntity
  8
\U+838C\U+8343\U+8384\U+815B_1
100
AcDbVertex
100
AcDb2dVertex
 10
118.8623399225414
 20
-223.8223415239055
 30
0.0
  0
VERTEX
  5
3F2
330
3E0
100
AcDbEntity
  8
\U+838C\U+8343\U+8384\U+815B_1
100
AcDbVertex
100
AcDb2dVertex
 10
119.2664496229612
 20
-223.7389702131625
 30
0.0
  0
SEQEND
  5
3F3
330
3E0
100
AcDbEntity
  8
\U+838C\U+8343\U+8384\U+815B_1
  0
POLYLINE
  5
3F4
330
3C
100
AcDbEntity
  8
\U+838C\U+8343\U+8384\U+815B_1
100
AcDb2dPolyline
 66
     1
 10
0.0
 20
0.0
 30
0.0
  0
VERTEX
  5
3F5
330
3F4
100
AcDbEntity
  8
\U+838C\U+8343\U+8384\U+815B_1
100
AcDbVertex
100
AcDb2dVertex
 10
90.7076415788856
 20
-225.5765841449947
 30
0.0
  0
VERTEX
  5
3F6
330
3F4
100
AcDbEntity
  8
\U+838C\U+8343\U+8384\U+815B_1
100
AcDbVertex
100
AcDb2dVertex
 10
90.73554685231612
 20
-225.5765841449947
 30
0.0
  0
SEQEND
  5
3F7
330
3F4
100
AcDbEntity
  8
\U+838C\U+8343\U+8384\U+815B_1
  0
POLYLINE
  5
3F8
330
3C
100
AcDbEntity
  8
\U+838C\U+8343\U+8384\U+815B_1
100
AcDb2dPolyline
 66
     1
 10
0.0
 20
0.0
 30
0.0
  0
VERTEX
  5
3F9
330
3F8
100
AcDbEntity
  8
\U+838C\U+8343\U+8384\U+815B_1
100
AcDbVertex
100
AcDb2dVertex
 10
119.5864989935409
 20
-227.6656900472503
 30
0.0
  0
VERTEX
  5
3FA
330
3F8
100
AcDbEntity
  8
\U+838C\U+8343\U+8384\U+815B_1
100
AcDbVertex
100
AcDb2dVertex
 10
119.5031276827978
 20
-227.5816297174102
 30
0.0
  0
SEQEND
  5
3FB
330
3F8
100
AcDbEntity
  8
\U+838C\U+8343\U+8384\U+815B_1
  0
POLYLINE
  5
3FC
330
3C
100
AcDbEntity
  8
\U+838C\U+8343\U+8384\U+815B_1
100
AcDb2dPolyline
 66
     1
 10
0.0
 20
0.0
 30
0.0
  0
VERTEX
  5
3FD
330
3FC
100
AcDbEntity
  8
\U+838C\U+8343\U+8384\U+815B_1
100
AcDbVertex
100
AcDb2dVertex
 10
119.5864989935409
 20
-227.6656900472503
 30
0.0
  0
VERTEX
  5
3FE
330
3FC
100
AcDbEntity
  8
\U+838C\U+8343\U+8384\U+815B_1
100
AcDbVertex
100
AcDb2dVertex
 10
119.6144042669714
 20
-227.6656900472503
 30
0.0
  0
SEQEND
  5
3FF
330
3FC
100
AcDbEntity
  8
\U+838C\U+8343\U+8384\U+815B_1
  0
POLYLINE
  5
400
330
3C
100
AcDbEntity
  8
\U+838C\U+8343\U+8384\U+815B_1
100
AcDb2dPolyline
 66
     1
 10
0.0
 20
0.0
 30
0.0
  0
VERTEX
  5
401
330
400
100
AcDbEntity
  8
\U+838C\U+8343\U+8384\U+815B_1
100
AcDbVertex
100
AcDb2dVertex
 10
90.7076415788856
 20
-229.7541069304087
 30
0.0
  0
VERTEX
  5
402
330
400
100
AcDbEntity
  8
\U+838C\U+8343\U+8384\U+815B_1
100
AcDbVertex
100
AcDb2dVertex
 10
90.7911851444029
 20
-229.6707356196657
 30
0.0
  0
VERTEX
  5
403
330
400
100
AcDbEntity
  8
\U+838C\U+8343\U+8384\U+815B_1
100
AcDbVertex
100
AcDb2dVertex
 10
91.3482570843678
 20
-229.5873643089226
 30
0.0
  0
VERTEX
  5
404
330
400
100
AcDbEntity
  8
\U+838C\U+8343\U+8384\U+815B_1
100
AcDbVertex
100
AcDb2dVertex
 10
92.30892196042971
 20
-229.4337130502805
 30
0.0
  0
VERTEX
  5
405
330
400
100
AcDbEntity
  8
\U+838C\U+8343\U+8384\U+815B_1
100
AcDbVertex
100
AcDb2dVertex
 10
93.60393335333514
 20
-229.3503417395374
 30
0.0
  0
VERTEX
  5
406
330
400
100
AcDbEntity
  8
\U+838C\U+8343\U+8384\U+815B_1
100
AcDbVertex
100
AcDb2dVertex
 10
95.28875730039657
 20
-229.1829100989543
 30
0.0
  0
VERTEX
  5
407
330
400
100
AcDbEntity
  8
\U+838C\U+8343\U+8384\U+815B_1
100
AcDbVertex
100
AcDb2dVertex
 10
97.21025930729466
 20
-229.1133191701522
 30
0.0
  0
VERTEX
  5
408
330
400
100
AcDbEntity
  8
\U+838C\U+8343\U+8384\U+815B_1
100
AcDbVertex
100
AcDb2dVertex
 10
99.36861162880369
 20
-229.0299478594092
 30
0.0
  0
VERTEX
  5
409
330
400
100
AcDbEntity
  8
\U+838C\U+8343\U+8384\U+815B_1
100
AcDbVertex
100
AcDb2dVertex
 10
101.6938788265731
 20
-228.8632052379231
 30
0.0
  0
VERTEX
  5
40A
330
400
100
AcDbEntity
  8
\U+838C\U+8343\U+8384\U+815B_1
100
AcDbVertex
100
AcDb2dVertex
 10
104.102861844634
 20
-228.793614309121
 30
0.0
  0
VERTEX
  5
40B
330
400
100
AcDbEntity
  8
\U+838C\U+8343\U+8384\U+815B_1
100
AcDbVertex
100
AcDb2dVertex
 10
106.5116726079207
 20
-228.709553979281
 30
0.0
  0
VERTEX
  5
40C
330
400
100
AcDbEntity
  8
\U+838C\U+8343\U+8384\U+815B_1
100
AcDbVertex
100
AcDb2dVertex
 10
108.9900743000094
 20
-228.5428113577949
 30
0.0
  0
VERTEX
  5
40D
330
400
100
AcDbEntity
  8
\U+838C\U+8343\U+8384\U+815B_1
100
AcDbVertex
100
AcDb2dVertex
 10
111.245922823751
 20
-228.4732204289928
 30
0.0
  0
VERTEX
  5
40E
330
400
100
AcDbEntity
  8
\U+838C\U+8343\U+8384\U+815B_1
100
AcDbVertex
100
AcDb2dVertex
 10
113.40427514526
 20
-228.3057887884097
 30
0.0
  0
VERTEX
  5
40F
330
400
100
AcDbEntity
  8
\U+838C\U+8343\U+8384\U+815B_1
100
AcDbVertex
100
AcDb2dVertex
 10
115.2560139685818
 20
-228.2224174776666
 30
0.0
  0
VERTEX
  5
410
330
400
100
AcDbEntity
  8
\U+838C\U+8343\U+8384\U+815B_1
100
AcDbVertex
100
AcDb2dVertex
 10
116.857294350126
 20
-228.1390461669236
 30
0.0
  0
VERTEX
  5
411
330
400
100
AcDbEntity
  8
\U+838C\U+8343\U+8384\U+815B_1
100
AcDbVertex
100
AcDb2dVertex
 10
118.1385253610904
 20
-227.9860839273785
 30
0.0
  0
VERTEX
  5
412
330
400
100
AcDbEntity
  8
\U+838C\U+8343\U+8384\U+815B_1
100
AcDbVertex
100
AcDb2dVertex
 10
119.015646671635
 20
-227.9020235975384
 30
0.0
  0
VERTEX
  5
413
330
400
100
AcDbEntity
  8
\U+838C\U+8343\U+8384\U+815B_1
100
AcDbVertex
100
AcDb2dVertex
 10
119.2664496229612
 20
-227.8186522867954
 30
0.0
  0
SEQEND
  5
414
330
400
100
AcDbEntity
  8
\U+838C\U+8343\U+8384\U+815B_1
  0
POLYLINE
  5
415
330
3C
100
AcDbEntity
  8
\U+838C\U+8343\U+8384\U+815B_1
100
AcDb2dPolyline
 66
     1
 10
0.0
 20
0.0
 30
0.0
  0
VERTEX
  5
416
330
415
100
AcDbEntity
  8
\U+838C\U+8343\U+8384\U+815B_1
100
AcDbVertex
100
AcDb2dVertex
 10
119.4194118625063
 20
-229.3503417395374
 30
0.0
  0
VERTEX
  5
417
330
415
100
AcDbEntity
  8
\U+838C\U+8343\U+8384\U+815B_1
100
AcDbVertex
100
AcDb2dVertex
 10
119.4473171359368
 20
-229.3503417395374
 30
0.0
  0
SEQEND
  5
418
330
415
100
AcDbEntity
  8
\U+838C\U+8343\U+8384\U+815B_1
  0
POLYLINE
  5
419
330
3C
100
AcDbEntity
  8
\U+838C\U+8343\U+8384\U+815B_1
100
AcDb2dPolyline
 66
     1
 10
0.0
 20
0.0
 30
0.0
  0
VERTEX
  5
41A
330
419
100
AcDbEntity
  8
\U+838C\U+8343\U+8384\U+815B_1
100
AcDbVertex
100
AcDb2dVertex
 10
90.7076415788856
 20
-227.261924856379
 30
0.0
  0
VERTEX
  5
41B
330
419
100
AcDbEntity
  8
\U+838C\U+8343\U+8384\U+815B_1
100
AcDbVertex
100
AcDb2dVertex
 10
90.7911851444029
 20
-227.261924856379
 30
0.0
  0
SEQEND
  5
41C
330
419
100
AcDbEntity
  8
\U+838C\U+8343\U+8384\U+815B_1
  0
POLYLINE
  5
41D
330
3C
100
AcDbEntity
  8
\U+838C\U+8343\U+8384\U+815B_1
100
AcDb2dPolyline
 66
     1
 10
0.0
 20
0.0
 30
0.0
  0
VERTEX
  5
41E
330
41D
100
AcDbEntity
  8
\U+838C\U+8343\U+8384\U+815B_1
100
AcDbVertex
100
AcDb2dVertex
 10
90.7076415788856
 20
-227.261924856379
 30
0.0
  0
VERTEX
  5
41F
330
41D
100
AcDbEntity
  8
\U+838C\U+8343\U+8384\U+815B_1
100
AcDbVertex
100
AcDb2dVertex
 10
90.73554685231612
 20
-227.261924856379
 30
0.0
  0
SEQEND
  5
420
330
41D
100
AcDbEntity
  8
\U+838C\U+8343\U+8384\U+815B_1
  0
POLYLINE
  5
421
330
3C
100
AcDbEntity
  8
\U+838C\U+8343\U+8384\U+815B_1
100
AcDb2dPolyline
 66
     1
 10
0.0
 20
0.0
 30
0.0
  0
VERTEX
  5
422
330
421
100
AcDbEntity
  8
\U+838C\U+8343\U+8384\U+815B_1
100
AcDbVertex
100
AcDb2dVertex
 10
119.4194118625063
 20
-225.2568792839636
 30
0.0
  0
VERTEX
  5
423
330
421
100
AcDbEntity
  8
\U+838C\U+8343\U+8384\U+815B_1
100
AcDbVertex
100
AcDb2dVertex
 10
119.2664496229612
 20
-225.2568792839636
 30
0.0
  0
VERTEX
  5
424
330
421
100
AcDbEntity
  8
\U+838C\U+8343\U+8384\U+815B_1
100
AcDbVertex
100
AcDb2dVertex
 10
118.4585747316701
 20
-225.4236219054497
 30
0.0
  0
VERTEX
  5
425
330
421
100
AcDbEntity
  8
\U+838C\U+8343\U+8384\U+815B_1
100
AcDbVertex
100
AcDb2dVertex
 10
117.3306504697993
 20
-225.4932128342517
 30
0.0
  0
SEQEND
  5
426
330
421
100
AcDbEntity
  8
\U+838C\U+8343\U+8384\U+815B_1
  0
POLYLINE
  5
427
330
3C
100
AcDbEntity
  8
\U+838C\U+8343\U+8384\U+815B_1
100
AcDb2dPolyline
 66
     1
 10
0.0
 20
0.0
 30
0.0
  0
VERTEX
  5
428
330
427
100
AcDbEntity
  8
\U+838C\U+8343\U+8384\U+815B_1
100
AcDbVertex
100
AcDb2dVertex
 10
117.3306504697993
 20
-225.4932128342517
 30
0.0
  0
VERTEX
  5
429
330
427
100
AcDbEntity
  8
\U+838C\U+8343\U+8384\U+815B_1
100
AcDbVertex
100
AcDb2dVertex
 10
115.8964572192898
 20
-225.6606444748348
 30
0.0
  0
SEQEND
  5
42A
330
427
100
AcDbEntity
  8
\U+838C\U+8343\U+8384\U+815B_1
  0
POLYLINE
  5
42B
330
3C
100
AcDbEntity
  8
\U+838C\U+8343\U+8384\U+815B_1
100
AcDb2dPolyline
 66
     1
 10
0.0
 20
0.0
 30
0.0
  0
VERTEX
  5
42C
330
42B
100
AcDbEntity
  8
\U+838C\U+8343\U+8384\U+815B_1
100
AcDbVertex
100
AcDb2dVertex
 10
115.8964572192898
 20
-225.6606444748348
 30
0.0
  0
VERTEX
  5
42D
330
42B
100
AcDbEntity
  8
\U+838C\U+8343\U+8384\U+815B_1
100
AcDbVertex
100
AcDb2dVertex
 10
114.128089706711
 20
-225.7440157855779
 30
0.0
  0
VERTEX
  5
42E
330
42B
100
AcDbEntity
  8
\U+838C\U+8343\U+8384\U+815B_1
100
AcDbVertex
100
AcDb2dVertex
 10
112.0396728235526
 20
-225.8136067143799
 30
0.0
  0
VERTEX
  5
42F
330
42B
100
AcDbEntity
  8
\U+838C\U+8343\U+8384\U+815B_1
100
AcDbVertex
100
AcDb2dVertex
 10
109.7979491913005
 20
-225.980349335866
 30
0.0
  0
VERTEX
  5
430
330
42B
100
AcDbEntity
  8
\U+838C\U+8343\U+8384\U+815B_1
100
AcDbVertex
100
AcDb2dVertex
 10
107.4725097387569
 20
-226.0644096657061
 30
0.0
  0
VERTEX
  5
431
330
42B
100
AcDbEntity
  8
\U+838C\U+8343\U+8384\U+815B_1
100
AcDbVertex
100
AcDb2dVertex
 10
104.9799831551786
 20
-226.1477809764492
 30
0.0
  0
VERTEX
  5
432
330
42B
100
AcDbEntity
  8
\U+838C\U+8343\U+8384\U+815B_1
100
AcDbVertex
100
AcDb2dVertex
 10
102.5849527738329
 20
-226.3007432159943
 30
0.0
  0
VERTEX
  5
433
330
42B
100
AcDbEntity
  8
\U+838C\U+8343\U+8384\U+815B_1
100
AcDbVertex
100
AcDb2dVertex
 10
100.1761420105462
 20
-226.3841145267373
 30
0.0
  0
VERTEX
  5
434
330
42B
100
AcDbEntity
  8
\U+838C\U+8343\U+8384\U+815B_1
100
AcDbVertex
100
AcDb2dVertex
 10
98.00400930709623
 20
-226.5377657853795
 30
0.0
  0
VERTEX
  5
435
330
42B
100
AcDbEntity
  8
\U+838C\U+8343\U+8384\U+815B_1
100
AcDbVertex
100
AcDb2dVertex
 10
95.92920055110451
 20
-226.6211370961225
 30
0.0
  0
VERTEX
  5
436
330
42B
100
AcDbEntity
  8
\U+838C\U+8343\U+8384\U+815B_1
100
AcDbVertex
100
AcDb2dVertex
 10
94.24437660404308
 20
-226.7045084068656
 30
0.0
  0
VERTEX
  5
437
330
42B
100
AcDbEntity
  8
\U+838C\U+8343\U+8384\U+815B_1
100
AcDbVertex
100
AcDb2dVertex
 10
92.712687151301
 20
-226.8581596655077
 30
0.0
  0
VERTEX
  5
438
330
42B
100
AcDbEntity
  8
\U+838C\U+8343\U+8384\U+815B_1
100
AcDbVertex
100
AcDb2dVertex
 10
91.66847870972177
 20
-226.9415309762507
 30
0.0
  0
VERTEX
  5
439
330
42B
100
AcDbEntity
  8
\U+838C\U+8343\U+8384\U+815B_1
100
AcDbVertex
100
AcDb2dVertex
 10
91.11140676975687
 20
-227.0249022869938
 30
0.0
  0
SEQEND
  5
43A
330
42B
100
AcDbEntity
  8
\U+838C\U+8343\U+8384\U+815B_1
  0
POLYLINE
  5
43B
330
3C
100
AcDbEntity
  8
\U+838C\U+8343\U+8384\U+815B_1
100
AcDb2dPolyline
 66
     1
 10
0.0
 20
0.0
 30
0.0
  0
VERTEX
  5
43C
330
43B
100
AcDbEntity
  8
\U+838C\U+8343\U+8384\U+815B_1
100
AcDbVertex
100
AcDb2dVertex
 10
90.7076415788856
 20
-223.098182452906
 30
0.0
  0
VERTEX
  5
43D
330
43B
100
AcDbEntity
  8
\U+838C\U+8343\U+8384\U+815B_1
100
AcDbVertex
100
AcDb2dVertex
 10
90.7911851444029
 20
-223.1677733817081
 30
0.0
  0
SEQEND
  5
43E
330
43B
100
AcDbEntity
  8
\U+838C\U+8343\U+8384\U+815B_1
  0
POLYLINE
  5
43F
330
3C
100
AcDbEntity
  8
\U+838C\U+8343\U+8384\U+815B_1
100
AcDb2dPolyline
 66
     1
 10
0.0
 20
0.0
 30
0.0
  0
VERTEX
  5
440
330
43F
100
AcDbEntity
  8
\U+838C\U+8343\U+8384\U+815B_1
100
AcDbVertex
100
AcDb2dVertex
 10
119.5031276827978
 20
-221.0931368804906
 30
0.0
  0
VERTEX
  5
441
330
43F
100
AcDbEntity
  8
\U+838C\U+8343\U+8384\U+815B_1
100
AcDbVertex
100
AcDb2dVertex
 10
119.3360405517632
 20
-221.1627278092926
 30
0.0
  0
VERTEX
  5
442
330
43F
100
AcDbEntity
  8
\U+838C\U+8343\U+8384\U+815B_1
100
AcDbVertex
100
AcDb2dVertex
 10
118.6952527915067
 20
-221.2460991200357
 30
0.0
  0
VERTEX
  5
443
330
43F
100
AcDbEntity
  8
\U+838C\U+8343\U+8384\U+815B_1
100
AcDbVertex
100
AcDb2dVertex
 10
117.6510443499275
 20
-221.3301594498758
 30
0.0
  0
VERTEX
  5
444
330
43F
100
AcDbEntity
  8
\U+838C\U+8343\U+8384\U+815B_1
100
AcDbVertex
100
AcDb2dVertex
 10
116.2864420282201
 20
-221.4969020713619
 30
0.0
  0
VERTEX
  5
445
330
43F
100
AcDbEntity
  8
\U+838C\U+8343\U+8384\U+815B_1
100
AcDbVertex
100
AcDb2dVertex
 10
114.5321994071308
 20
-221.5664930001639
 30
0.0
  0
VERTEX
  5
446
330
43F
100
AcDbEntity
  8
\U+838C\U+8343\U+8384\U+815B_1
100
AcDbVertex
100
AcDb2dVertex
 10
112.5268093251669
 20
-221.7339246407471
 30
0.0
  0
VERTEX
  5
447
330
43F
100
AcDbEntity
  8
\U+838C\U+8343\U+8384\U+815B_1
100
AcDbVertex
100
AcDb2dVertex
 10
110.7584418125882
 20
-221.8172959514901
 30
0.0
  0
VERTEX
  5
448
330
43F
100
AcDbEntity
  8
\U+838C\U+8343\U+8384\U+815B_1
100
AcDbVertex
100
AcDb2dVertex
 10
108.9204833712074
 20
-221.8868868802922
 30
0.0
  0
VERTEX
  5
449
330
43F
100
AcDbEntity
  8
\U+838C\U+8343\U+8384\U+815B_1
100
AcDbVertex
100
AcDb2dVertex
 10
106.915437798792
 20
-221.9702581910352
 30
0.0
  0
VERTEX
  5
44A
330
43F
100
AcDbEntity
  8
\U+838C\U+8343\U+8384\U+815B_1
100
AcDbVertex
100
AcDb2dVertex
 10
104.5066270355053
 20
-222.0536295017783
 30
0.0
  0
VERTEX
  5
44B
330
43F
100
AcDbEntity
  8
\U+838C\U+8343\U+8384\U+815B_1
100
AcDbVertex
100
AcDb2dVertex
 10
102.014100451927
 20
-222.2072807604204
 30
0.0
  0
VERTEX
  5
44C
330
43F
100
AcDbEntity
  8
\U+838C\U+8343\U+8384\U+815B_1
100
AcDbVertex
100
AcDb2dVertex
 10
99.68883325415766
 20
-222.2906520711635
 30
0.0
  0
VERTEX
  5
44D
330
43F
100
AcDbEntity
  8
\U+838C\U+8343\U+8384\U+815B_1
100
AcDbVertex
100
AcDb2dVertex
 10
97.53048093264863
 20
-222.3740233819065
 30
0.0
  0
VERTEX
  5
44E
330
43F
100
AcDbEntity
  8
\U+838C\U+8343\U+8384\U+815B_1
100
AcDbVertex
100
AcDb2dVertex
 10
95.60897892575053
 20
-222.5276746405486
 30
0.0
  0
VERTEX
  5
44F
330
43F
100
AcDbEntity
  8
\U+838C\U+8343\U+8384\U+815B_1
100
AcDbVertex
100
AcDb2dVertex
 10
93.8406114131718
 20
-222.6110459512917
 30
0.0
  0
VERTEX
  5
450
330
43F
100
AcDbEntity
  8
\U+838C\U+8343\U+8384\U+815B_1
100
AcDbVertex
100
AcDb2dVertex
 10
92.47600909146433
 20
-222.7777885727778
 30
0.0
  0
VERTEX
  5
451
330
43F
100
AcDbEntity
  8
\U+838C\U+8343\U+8384\U+815B_1
100
AcDbVertex
100
AcDb2dVertex
 10
91.51534421540242
 20
-222.8473795015798
 30
0.0
  0
VERTEX
  5
452
330
43F
100
AcDbEntity
  8
\U+838C\U+8343\U+8384\U+815B_1
100
AcDbVertex
100
AcDb2dVertex
 10
91.02786320423957
 20
-222.9314398314199
 30
0.0
  0
SEQEND
  5
453
330
43F
100
AcDbEntity
  8
\U+838C\U+8343\U+8384\U+815B_1
  0
POLYLINE
  5
454
330
3C
100
AcDbEntity
  8
\U+838C\U+8343\U+8384\U+815B_1
100
AcDb2dPolyline
 66
     1
 10
0.0
 20
0.0
 30
0.0
  0
VERTEX
  5
455
330
454
100
AcDbEntity
  8
\U+838C\U+8343\U+8384\U+815B_1
100
AcDbVertex
100
AcDb2dVertex
 10
90.7076415788856
 20
-219.0047199973322
 30
0.0
  0
VERTEX
  5
456
330
454
100
AcDbEntity
  8
\U+838C\U+8343\U+8384\U+815B_1
100
AcDbVertex
100
AcDb2dVertex
 10
90.7911851444029
 20
-219.0880913080752
 30
0.0
  0
SEQEND
  5
457
330
454
100
AcDbEntity
  8
\U+838C\U+8343\U+8384\U+815B_1
  0
POLYLINE
  5
458
330
3C
100
AcDbEntity
  8
\U+838C\U+8343\U+8384\U+815B_1
100
AcDb2dPolyline
 66
     1
 10
0.0
 20
0.0
 30
0.0
  0
VERTEX
  5
459
330
458
100
AcDbEntity
  8
\U+838C\U+8343\U+8384\U+815B_1
100
AcDbVertex
100
AcDb2dVertex
 10
90.7076415788856
 20
-219.0047199973322
 30
0.0
  0
VERTEX
  5
45A
330
458
100
AcDbEntity
  8
\U+838C\U+8343\U+8384\U+815B_1
100
AcDbVertex
100
AcDb2dVertex
 10
90.73554685231612
 20
-219.0047199973322
 30
0.0
  0
SEQEND
  5
45B
330
458
100
AcDbEntity
  8
\U+838C\U+8343\U+8384\U+815B_1
  0
POLYLINE
  5
45C
330
3C
100
AcDbEntity
  8
\U+838C\U+8343\U+8384\U+815B_1
100
AcDb2dPolyline
 66
     1
 10
0.0
 20
0.0
 30
0.0
  0
VERTEX
  5
45D
330
45C
100
AcDbEntity
  8
\U+838C\U+8343\U+8384\U+815B_1
100
AcDbVertex
100
AcDb2dVertex
 10
119.5031276827978
 20
-216.9996744249167
 30
0.0
  0
VERTEX
  5
45E
330
45C
100
AcDbEntity
  8
\U+838C\U+8343\U+8384\U+815B_1
100
AcDbVertex
100
AcDb2dVertex
 10
119.2664496229612
 20
-217.0830457356598
 30
0.0
  0
VERTEX
  5
45F
330
45C
100
AcDbEntity
  8
\U+838C\U+8343\U+8384\U+815B_1
100
AcDbVertex
100
AcDb2dVertex
 10
118.5422905519617
 20
-217.1664170464028
 30
0.0
  0
VERTEX
  5
460
330
45C
100
AcDbEntity
  8
\U+838C\U+8343\U+8384\U+815B_1
100
AcDbVertex
100
AcDb2dVertex
 10
117.4143662900909
 20
-217.2360079752049
 30
0.0
  0
VERTEX
  5
461
330
45C
100
AcDbEntity
  8
\U+838C\U+8343\U+8384\U+815B_1
100
AcDbVertex
100
AcDb2dVertex
 10
115.8964572192898
 20
-217.403439615788
 30
0.0
  0
VERTEX
  5
462
330
45C
100
AcDbEntity
  8
\U+838C\U+8343\U+8384\U+815B_1
100
AcDbVertex
100
AcDb2dVertex
 10
114.128089706711
 20
-217.4868109265311
 30
0.0
  0
VERTEX
  5
463
330
45C
100
AcDbEntity
  8
\U+838C\U+8343\U+8384\U+815B_1
100
AcDbVertex
100
AcDb2dVertex
 10
112.1230441342956
 20
-217.5564018553331
 30
0.0
  0
VERTEX
  5
464
330
45C
100
AcDbEntity
  8
\U+838C\U+8343\U+8384\U+815B_1
100
AcDbVertex
100
AcDb2dVertex
 10
109.8813205020436
 20
-217.7231444768192
 30
0.0
  0
VERTEX
  5
465
330
45C
100
AcDbEntity
  8
\U+838C\U+8343\U+8384\U+815B_1
100
AcDbVertex
100
AcDb2dVertex
 10
107.4725097387569
 20
-217.8072048066593
 30
0.0
  0
VERTEX
  5
466
330
45C
100
AcDbEntity
  8
\U+838C\U+8343\U+8384\U+815B_1
100
AcDbVertex
100
AcDb2dVertex
 10
105.0635267206959
 20
-217.9601670462044
 30
0.0
  0
VERTEX
  5
467
330
45C
100
AcDbEntity
  8
\U+838C\U+8343\U+8384\U+815B_1
100
AcDbVertex
100
AcDb2dVertex
 10
102.5849527738329
 20
-218.0435383569475
 30
0.0
  0
VERTEX
  5
468
330
45C
100
AcDbEntity
  8
\U+838C\U+8343\U+8384\U+815B_1
100
AcDbVertex
100
AcDb2dVertex
 10
100.2596855760636
 20
-218.1275986867876
 30
0.0
  0
VERTEX
  5
469
330
45C
100
AcDbEntity
  8
\U+838C\U+8343\U+8384\U+815B_1
100
AcDbVertex
100
AcDb2dVertex
 10
98.00400930709623
 20
-218.2805609263326
 30
0.0
  0
VERTEX
  5
46A
330
45C
100
AcDbEntity
  8
\U+838C\U+8343\U+8384\U+815B_1
100
AcDbVertex
100
AcDb2dVertex
 10
95.99896373468081
 20
-218.3639322370757
 30
0.0
  0
VERTEX
  5
46B
330
45C
100
AcDbEntity
  8
\U+838C\U+8343\U+8384\U+815B_1
100
AcDbVertex
100
AcDb2dVertex
 10
94.24437660404308
 20
-218.4473035478187
 30
0.0
  0
VERTEX
  5
46C
330
45C
100
AcDbEntity
  8
\U+838C\U+8343\U+8384\U+815B_1
100
AcDbVertex
100
AcDb2dVertex
 10
92.79623071681831
 20
-218.6009548064609
 30
0.0
  0
VERTEX
  5
46D
330
45C
100
AcDbEntity
  8
\U+838C\U+8343\U+8384\U+815B_1
100
AcDbVertex
100
AcDb2dVertex
 10
91.66847870972177
 20
-218.6843261172039
 30
0.0
  0
VERTEX
  5
46E
330
45C
100
AcDbEntity
  8
\U+838C\U+8343\U+8384\U+815B_1
100
AcDbVertex
100
AcDb2dVertex
 10
91.11140676975687
 20
-218.767697427947
 30
0.0
  0
SEQEND
  5
46F
330
45C
100
AcDbEntity
  8
\U+838C\U+8343\U+8384\U+815B_1
  0
POLYLINE
  5
470
330
3C
100
AcDbEntity
  8
\U+838C\U+8343\U+8384\U+815B_1
100
AcDb2dPolyline
 66
     1
 10
0.0
 20
0.0
 30
0.0
  0
VERTEX
  5
471
330
470
100
AcDbEntity
  8
\U+838C\U+8343\U+8384\U+815B_1
100
AcDbVertex
100
AcDb2dVertex
 10
90.7076415788856
 20
-214.8409775938592
 30
0.0
  0
VERTEX
  5
472
330
470
100
AcDbEntity
  8
\U+838C\U+8343\U+8384\U+815B_1
100
AcDbVertex
100
AcDb2dVertex
 10
90.7911851444029
 20
-214.9105685226613
 30
0.0
  0
SEQEND
  5
473
330
470
100
AcDbEntity
  8
\U+838C\U+8343\U+8384\U+815B_1
  0
POLYLINE
  5
474
330
3C
100
AcDbEntity
  8
\U+838C\U+8343\U+8384\U+815B_1
100
AcDb2dPolyline
 66
     1
 10
0.0
 20
0.0
 30
0.0
  0
VERTEX
  5
475
330
474
100
AcDbEntity
  8
\U+838C\U+8343\U+8384\U+815B_1
100
AcDbVertex
100
AcDb2dVertex
 10
99.77237681967496
 20
-214.0334472121166
 30
0.0
  0
VERTEX
  5
476
330
474
100
AcDbEntity
  8
\U+838C\U+8343\U+8384\U+815B_1
100
AcDbVertex
100
AcDb2dVertex
 10
97.61402449816595
 20
-214.2008788526998
 30
0.0
  0
VERTEX
  5
477
330
474
100
AcDbEntity
  8
\U+838C\U+8343\U+8384\U+815B_1
100
AcDbVertex
100
AcDb2dVertex
 10
95.60897892575053
 20
-214.2704697815018
 30
0.0
  0
VERTEX
  5
478
330
474
100
AcDbEntity
  8
\U+838C\U+8343\U+8384\U+815B_1
100
AcDbVertex
100
AcDb2dVertex
 10
93.9241549786891
 20
-214.3538410922449
 30
0.0
  0
VERTEX
  5
479
330
474
100
AcDbEntity
  8
\U+838C\U+8343\U+8384\U+815B_1
100
AcDbVertex
100
AcDb2dVertex
 10
92.55955265698164
 20
-214.520583713731
 30
0.0
  0
VERTEX
  5
47A
330
474
100
AcDbEntity
  8
\U+838C\U+8343\U+8384\U+815B_1
100
AcDbVertex
100
AcDb2dVertex
 10
91.51534421540242
 20
-214.590174642533
 30
0.0
  0
VERTEX
  5
47B
330
474
100
AcDbEntity
  8
\U+838C\U+8343\U+8384\U+815B_1
100
AcDbVertex
100
AcDb2dVertex
 10
91.02786320423957
 20
-214.6742349723731
 30
0.0
  0
SEQEND
  5
47C
330
474
100
AcDbEntity
  8
\U+838C\U+8343\U+8384\U+815B_1
  0
POLYLINE
  5
47D
330
3C
100
AcDbEntity
  8
\U+838C\U+8343\U+8384\U+815B_1
100
AcDb2dPolyline
 66
     1
 10
0.0
 20
0.0
 30
0.0
  0
VERTEX
  5
47E
330
47D
100
AcDbEntity
  8
\U+838C\U+8343\U+8384\U+815B_1
100
AcDbVertex
100
AcDb2dVertex
 10
90.30387638801432
 20
-214.4372124029879
 30
0.0
  0
VERTEX
  5
47F
330
47D
100
AcDbEntity
  8
\U+838C\U+8343\U+8384\U+815B_1
100
AcDbVertex
100
AcDb2dVertex
 10
90.33178166144484
 20
-214.4372124029879
 30
0.0
  0
SEQEND
  5
480
330
47D
100
AcDbEntity
  8
\U+838C\U+8343\U+8384\U+815B_1
  0
POLYLINE
  5
481
330
3C
100
AcDbEntity
  8
\U+838C\U+8343\U+8384\U+815B_1
100
AcDb2dPolyline
 66
     1
 10
0.0
 20
0.0
 30
0.0
  0
VERTEX
  5
482
330
481
100
AcDbEntity
  8
\U+838C\U+8343\U+8384\U+815B_1
100
AcDbVertex
100
AcDb2dVertex
 10
116.3701578485116
 20
-229.7541069304087
 30
0.0
  0
VERTEX
  5
483
330
481
100
AcDbEntity
  8
\U+838C\U+8343\U+8384\U+815B_1
100
AcDbVertex
100
AcDb2dVertex
 10
115.7293700882552
 20
-229.7541069304087
 30
0.0
  0
VERTEX
  5
484
330
481
100
AcDbEntity
  8
\U+838C\U+8343\U+8384\U+815B_1
100
AcDbVertex
100
AcDb2dVertex
 10
114.2813964558047
 20
-229.7541069304087
 30
0.0
  0
VERTEX
  5
485
330
481
100
AcDbEntity
  8
\U+838C\U+8343\U+8384\U+815B_1
100
AcDbVertex
100
AcDb2dVertex
 10
112.6801160742605
 20
-229.7541069304087
 30
0.0
  0
VERTEX
  5
486
330
481
100
AcDbEntity
  8
\U+838C\U+8343\U+8384\U+815B_1
100
AcDbVertex
100
AcDb2dVertex
 10
110.8421576328797
 20
-229.7541069304087
 30
0.0
  0
VERTEX
  5
487
330
481
100
AcDbEntity
  8
\U+838C\U+8343\U+8384\U+815B_1
100
AcDbVertex
100
AcDb2dVertex
 10
108.9204833712074
 20
-229.7541069304087
 30
0.0
  0
VERTEX
  5
488
330
481
100
AcDbEntity
  8
\U+838C\U+8343\U+8384\U+815B_1
100
AcDbVertex
100
AcDb2dVertex
 10
106.1079074170494
 20
-229.7541069304087
 30
0.0
  0
SEQEND
  5
489
330
481
100
AcDbEntity
  8
\U+838C\U+8343\U+8384\U+815B_1
  0
POLYLINE
  5
48A
330
3C
100
AcDbEntity
  8
\U+838C\U+8343\U+8384\U+815B_1
100
AcDb2dPolyline
 66
     1
 10
0.0
 20
0.0
 30
0.0
  0
VERTEX
  5
48B
330
48A
100
AcDbEntity
  8
\U+838C\U+8343\U+8384\U+815B_1
100
AcDbVertex
100
AcDb2dVertex
 10
104.0193182791167
 20
-207.6979166147422
 30
0.0
  0
VERTEX
  5
48C
330
48A
100
AcDbEntity
  8
\U+838C\U+8343\U+8384\U+815B_1
100
AcDbVertex
100
AcDb2dVertex
 10
105.1470702862132
 20
-207.6979166147422
 30
0.0
  0
VERTEX
  5
48D
330
48A
100
AcDbEntity
  8
\U+838C\U+8343\U+8384\U+815B_1
100
AcDbVertex
100
AcDb2dVertex
 10
106.274994548084
 20
-207.6979166147422
 30
0.0
  0
SEQEND
  5
48E
330
48A
100
AcDbEntity
  8
\U+838C\U+8343\U+8384\U+815B_1
  0
POLYLINE
  5
48F
330
3C
100
AcDbEntity
  8
\U+838C\U+8343\U+8384\U+815B_1
100
AcDb2dPolyline
 66
     1
 10
0.0
 20
0.0
 30
0.0
  0
VERTEX
  5
490
330
48F
100
AcDbEntity
  8
\U+838C\U+8343\U+8384\U+815B_1
100
AcDbVertex
100
AcDb2dVertex
 10
89.51012638821275
 20
-208.1016818056135
 30
0.0
  0
VERTEX
  5
491
330
48F
100
AcDbEntity
  8
\U+838C\U+8343\U+8384\U+815B_1
100
AcDbVertex
100
AcDb2dVertex
 10
89.66343313730637
 20
-208.1016818056135
 30
0.0
  0
VERTEX
  5
492
330
48F
100
AcDbEntity
  8
\U+838C\U+8343\U+8384\U+815B_1
100
AcDbVertex
100
AcDb2dVertex
 10
90.06719832817765
 20
-208.1016818056135
 30
0.0
  0
VERTEX
  5
493
330
48F
100
AcDbEntity
  8
\U+838C\U+8343\U+8384\U+815B_1
100
AcDbVertex
100
AcDb2dVertex
 10
90.7076415788856
 20
-208.1016818056135
 30
0.0
  0
VERTEX
  5
494
330
48F
100
AcDbEntity
  8
\U+838C\U+8343\U+8384\U+815B_1
100
AcDbVertex
100
AcDb2dVertex
 10
91.59888778091972
 20
-208.1016818056135
 30
0.0
  0
VERTEX
  5
495
330
48F
100
AcDbEntity
  8
\U+838C\U+8343\U+8384\U+815B_1
100
AcDbVertex
100
AcDb2dVertex
 10
92.79623071681831
 20
-208.1016818056135
 30
0.0
  0
VERTEX
  5
496
330
48F
100
AcDbEntity
  8
\U+838C\U+8343\U+8384\U+815B_1
100
AcDbVertex
100
AcDb2dVertex
 10
94.07728947300846
 20
-208.1016818056135
 30
0.0
  0
VERTEX
  5
497
330
48F
100
AcDbEntity
  8
\U+838C\U+8343\U+8384\U+815B_1
100
AcDbVertex
100
AcDb2dVertex
 10
95.67856985455258
 20
-208.1016818056135
 30
0.0
  0
VERTEX
  5
498
330
48F
100
AcDbEntity
  8
\U+838C\U+8343\U+8384\U+815B_1
100
AcDbVertex
100
AcDb2dVertex
 10
97.36339380161402
 20
-208.1016818056135
 30
0.0
  0
VERTEX
  5
499
330
48F
100
AcDbEntity
  8
\U+838C\U+8343\U+8384\U+815B_1
100
AcDbVertex
100
AcDb2dVertex
 10
99.21530487971006
 20
-208.1016818056135
 30
0.0
  0
VERTEX
  5
49A
330
48F
100
AcDbEntity
  8
\U+838C\U+8343\U+8384\U+815B_1
100
AcDbVertex
100
AcDb2dVertex
 10
101.1369791413824
 20
-208.1016818056135
 30
0.0
  0
VERTEX
  5
49B
330
48F
100
AcDbEntity
  8
\U+838C\U+8343\U+8384\U+815B_1
100
AcDbVertex
100
AcDb2dVertex
 10
103.1420247137978
 20
-208.1016818056135
 30
0.0
  0
VERTEX
  5
49C
330
48F
100
AcDbEntity
  8
\U+838C\U+8343\U+8384\U+815B_1
100
AcDbVertex
100
AcDb2dVertex
 10
105.1470702862132
 20
-208.1016818056135
 30
0.0
  0
VERTEX
  5
49D
330
48F
100
AcDbEntity
  8
\U+838C\U+8343\U+8384\U+815B_1
100
AcDbVertex
100
AcDb2dVertex
 10
107.2358316789202
 20
-208.1016818056135
 30
0.0
  0
VERTEX
  5
49E
330
48F
100
AcDbEntity
  8
\U+838C\U+8343\U+8384\U+815B_1
100
AcDbVertex
100
AcDb2dVertex
 10
109.2408772513356
 20
-208.1016818056135
 30
0.0
  0
VERTEX
  5
49F
330
48F
100
AcDbEntity
  8
\U+838C\U+8343\U+8384\U+815B_1
100
AcDbVertex
100
AcDb2dVertex
 10
111.1622070034595
 20
-208.1016818056135
 30
0.0
  0
VERTEX
  5
4A0
330
48F
100
AcDbEntity
  8
\U+838C\U+8343\U+8384\U+815B_1
100
AcDbVertex
100
AcDb2dVertex
 10
113.0005099543888
 20
-208.1016818056135
 30
0.0
  0
VERTEX
  5
4A1
330
48F
100
AcDbEntity
  8
\U+838C\U+8343\U+8384\U+815B_1
100
AcDbVertex
100
AcDb2dVertex
 10
114.6851616466759
 20
-208.1016818056135
 30
0.0
  0
VERTEX
  5
4A2
330
48F
100
AcDbEntity
  8
\U+838C\U+8343\U+8384\U+815B_1
100
AcDbVertex
100
AcDb2dVertex
 10
116.216851099418
 20
-208.1016818056135
 30
0.0
  0
VERTEX
  5
4A3
330
48F
100
AcDbEntity
  8
\U+838C\U+8343\U+8384\U+815B_1
100
AcDbVertex
100
AcDb2dVertex
 10
117.5814534211255
 20
-208.1016818056135
 30
0.0
  0
VERTEX
  5
4A4
330
48F
100
AcDbEntity
  8
\U+838C\U+8343\U+8384\U+815B_1
100
AcDbVertex
100
AcDb2dVertex
 10
118.6952527915067
 20
-208.1016818056135
 30
0.0
  0
VERTEX
  5
4A5
330
48F
100
AcDbEntity
  8
\U+838C\U+8343\U+8384\U+815B_1
100
AcDbVertex
100
AcDb2dVertex
 10
119.5864989935409
 20
-208.1016818056135
 30
0.0
  0
VERTEX
  5
4A6
330
48F
100
AcDbEntity
  8
\U+838C\U+8343\U+8384\U+815B_1
100
AcDbVertex
100
AcDb2dVertex
 10
120.2269422442488
 20
-208.1016818056135
 30
0.0
  0
VERTEX
  5
4A7
330
48F
100
AcDbEntity
  8
\U+838C\U+8343\U+8384\U+815B_1
100
AcDbVertex
100
AcDb2dVertex
 10
120.6169270531791
 20
-208.1016818056135
 30
0.0
  0
VERTEX
  5
4A8
330
48F
100
AcDbEntity
  8
\U+838C\U+8343\U+8384\U+815B_1
100
AcDbVertex
100
AcDb2dVertex
 10
120.7840141842137
 20
-208.1016818056135
 30
0.0
  0
SEQEND
  5
4A9
330
48F
100
AcDbEntity
  8
\U+838C\U+8343\U+8384\U+815B_1
  0
POLYLINE
  5
4AA
330
3C
100
AcDbEntity
  8
\U+838C\U+8343\U+8384\U+815B_1
100
AcDb2dPolyline
 66
     1
 10
0.0
 20
0.0
 30
0.0
  0
VERTEX
  5
4AB
330
4AA
100
AcDbEntity
  8
\U+838C\U+8343\U+8384\U+815B_1
100
AcDbVertex
100
AcDb2dVertex
 10
89.51012638821275
 20
-208.1016818056135
 30
0.0
  0
VERTEX
  5
4AC
330
4AA
100
AcDbEntity
  8
\U+838C\U+8343\U+8384\U+815B_1
100
AcDbVertex
100
AcDb2dVertex
 10
89.53803166164327
 20
-208.1016818056135
 30
0.0
  0
SEQEND
  5
4AD
330
4AA
100
AcDbEntity
  8
\U+838C\U+8343\U+8384\U+815B_1
  0
POLYLINE
  5
4AE
330
3C
100
AcDbEntity
  8
\U+838C\U+8343\U+8384\U+815B_1
100
AcDb2dPolyline
 66
     1
 10
0.0
 20
0.0
 30
0.0
  0
VERTEX
  5
4AF
330
4AE
100
AcDbEntity
  8
\U+838C\U+8343\U+8384\U+815B_1
100
AcDbVertex
100
AcDb2dVertex
 10
164.1718912349987
 20
-124.0678792007539
 30
0.0
  0
VERTEX
  5
4B0
330
4AE
100
AcDbEntity
  8
\U+838C\U+8343\U+8384\U+815B_1
100
AcDbVertex
100
AcDb2dVertex
 10
163.851841864419
 20
-124.0678792007539
 30
0.0
  0
VERTEX
  5
4B1
330
4AE
100
AcDbEntity
  8
\U+838C\U+8343\U+8384\U+815B_1
100
AcDbVertex
100
AcDb2dVertex
 10
163.3643608532561
 20
-124.0678792007539
 30
0.0
  0
VERTEX
  5
4B2
330
4AE
100
AcDbEntity
  8
\U+838C\U+8343\U+8384\U+815B_1
100
AcDbVertex
100
AcDb2dVertex
 10
162.5706108534546
 20
-124.0678792007539
 30
0.0
  0
VERTEX
  5
4B3
330
4AE
100
AcDbEntity
  8
\U+838C\U+8343\U+8384\U+815B_1
100
AcDbVertex
100
AcDb2dVertex
 10
161.5264024118754
 20
-124.0678792007539
 30
0.0
  0
VERTEX
  5
4B4
330
4AE
100
AcDbEntity
  8
\U+838C\U+8343\U+8384\U+815B_1
100
AcDbVertex
100
AcDb2dVertex
 10
160.2451714009109
 20
-124.0678792007539
 30
0.0
  0
VERTEX
  5
4B5
330
4AE
100
AcDbEntity
  8
\U+838C\U+8343\U+8384\U+815B_1
100
AcDbVertex
100
AcDb2dVertex
 10
158.7134819481689
 20
-124.0678792007539
 30
0.0
  0
VERTEX
  5
4B6
330
4AE
100
AcDbEntity
  8
\U+838C\U+8343\U+8384\U+815B_1
100
AcDbVertex
100
AcDb2dVertex
 10
156.9592393270796
 20
-124.0678792007539
 30
0.0
  0
VERTEX
  5
4B7
330
4AE
100
AcDbEntity
  8
\U+838C\U+8343\U+8384\U+815B_1
100
AcDbVertex
100
AcDb2dVertex
 10
154.8704779343727
 20
-124.0678792007539
 30
0.0
  0
VERTEX
  5
4B8
330
4AE
100
AcDbEntity
  8
\U+838C\U+8343\U+8384\U+815B_1
100
AcDbVertex
100
AcDb2dVertex
 10
152.6983452309227
 20
-124.0678792007539
 30
0.0
  0
VERTEX
  5
4B9
330
4AE
100
AcDbEntity
  8
\U+838C\U+8343\U+8384\U+815B_1
100
AcDbVertex
100
AcDb2dVertex
 10
150.2199435388339
 20
-124.0678792007539
 30
0.0
  0
VERTEX
  5
4BA
330
4AE
100
AcDbEntity
  8
\U+838C\U+8343\U+8384\U+815B_1
100
AcDbVertex
100
AcDb2dVertex
 10
147.574110206162
 20
-124.0678792007539
 30
0.0
  0
VERTEX
  5
4BB
330
4AE
100
AcDbEntity
  8
\U+838C\U+8343\U+8384\U+815B_1
100
AcDbVertex
100
AcDb2dVertex
 10
144.7615342520041
 20
-124.0678792007539
 30
0.0
  0
VERTEX
  5
4BC
330
4AE
100
AcDbEntity
  8
\U+838C\U+8343\U+8384\U+815B_1
100
AcDbVertex
100
AcDb2dVertex
 10
141.7122802380094
 20
-124.0678792007539
 30
0.0
  0
VERTEX
  5
4BD
330
4AE
100
AcDbEntity
  8
\U+838C\U+8343\U+8384\U+815B_1
100
AcDbVertex
100
AcDb2dVertex
 10
138.5930907856642
 20
-124.0678792007539
 30
0.0
  0
VERTEX
  5
4BE
330
4AE
100
AcDbEntity
  8
\U+838C\U+8343\U+8384\U+815B_1
100
AcDbVertex
100
AcDb2dVertex
 10
135.2234428915414
 20
-124.0678792007539
 30
0.0
  0
VERTEX
  5
4BF
330
4AE
100
AcDbEntity
  8
\U+838C\U+8343\U+8384\U+815B_1
100
AcDbVertex
100
AcDb2dVertex
 10
131.7700791771269
 20
-124.0678792007539
 30
0.0
  0
VERTEX
  5
4C0
330
4AE
100
AcDbEntity
  8
\U+838C\U+8343\U+8384\U+815B_1
100
AcDbVertex
100
AcDb2dVertex
 10
128.1637532231674
 20
-124.0678792007539
 30
0.0
  0
VERTEX
  5
4C1
330
4AE
100
AcDbEntity
  8
\U+838C\U+8343\U+8384\U+815B_1
100
AcDbVertex
100
AcDb2dVertex
 10
124.4740559584648
 20
-124.0678792007539
 30
0.0
  0
VERTEX
  5
4C2
330
4AE
100
AcDbEntity
  8
\U+838C\U+8343\U+8384\U+815B_1
100
AcDbVertex
100
AcDb2dVertex
 10
120.7006428734707
 20
-124.0678792007539
 30
0.0
  0
VERTEX
  5
4C3
330
4AE
100
AcDbEntity
  8
\U+838C\U+8343\U+8384\U+815B_1
100
AcDbVertex
100
AcDb2dVertex
 10
116.857294350126
 20
-124.0678792007539
 30
0.0
  0
VERTEX
  5
4C4
330
4AE
100
AcDbEntity
  8
\U+838C\U+8343\U+8384\U+815B_1
100
AcDbVertex
100
AcDb2dVertex
 10
113.0005099543888
 20
-124.0678792007539
 30
0.0
  0
VERTEX
  5
4C5
330
4AE
100
AcDbEntity
  8
\U+838C\U+8343\U+8384\U+815B_1
100
AcDbVertex
100
AcDb2dVertex
 10
109.073790120301
 20
-124.0678792007539
 30
0.0
  0
VERTEX
  5
4C6
330
4AE
100
AcDbEntity
  8
\U+838C\U+8343\U+8384\U+815B_1
100
AcDbVertex
100
AcDb2dVertex
 10
105.1470702862132
 20
-124.0678792007539
 30
0.0
  0
SEQEND
  5
4C7
330
4AE
100
AcDbEntity
  8
\U+838C\U+8343\U+8384\U+815B_1
  0
POLYLINE
  5
4C8
330
3C
100
AcDbEntity
  8
\U+838C\U+8343\U+8384\U+815B_1
100
AcDb2dPolyline
 66
     1
 10
0.0
 20
0.0
 30
0.0
  0
VERTEX
  5
4C9
330
4C8
100
AcDbEntity
  8
\U+838C\U+8343\U+8384\U+815B_1
100
AcDbVertex
100
AcDb2dVertex
 10
164.1718912349987
 20
-124.0678792007539
 30
0.0
  0
VERTEX
  5
4CA
330
4C8
100
AcDbEntity
  8
\U+838C\U+8343\U+8384\U+815B_1
100
AcDbVertex
100
AcDb2dVertex
 10
164.1997965084292
 20
-124.0678792007539
 30
0.0
  0
SEQEND
  5
4CB
330
4C8
100
AcDbEntity
  8
\U+838C\U+8343\U+8384\U+815B_1
  0
POLYLINE
  5
4CC
330
3C
100
AcDbEntity
  8
\U+838C\U+8343\U+8384\U+815B_1
100
AcDb2dPolyline
 66
     1
 10
0.0
 20
0.0
 30
0.0
  0
VERTEX
  5
4CD
330
4CC
100
AcDbEntity
  8
\U+838C\U+8343\U+8384\U+815B_1
100
AcDbVertex
100
AcDb2dVertex
 10
105.1470702862132
 20
-124.0678792007539
 30
0.0
  0
VERTEX
  5
4CE
330
4CC
100
AcDbEntity
  8
\U+838C\U+8343\U+8384\U+815B_1
100
AcDbVertex
100
AcDb2dVertex
 10
101.2205227068997
 20
-124.0678792007539
 30
0.0
  0
VERTEX
  5
4CF
330
4CC
100
AcDbEntity
  8
\U+838C\U+8343\U+8384\U+815B_1
100
AcDbVertex
100
AcDb2dVertex
 10
97.2798502360967
 20
-124.0678792007539
 30
0.0
  0
VERTEX
  5
4D0
330
4CC
100
AcDbEntity
  8
\U+838C\U+8343\U+8384\U+815B_1
100
AcDbVertex
100
AcDb2dVertex
 10
93.3533026567832
 20
-124.0678792007539
 30
0.0
  0
VERTEX
  5
4D1
330
4CC
100
AcDbEntity
  8
\U+838C\U+8343\U+8384\U+815B_1
100
AcDbVertex
100
AcDb2dVertex
 10
89.51012638821275
 20
-124.0678792007539
 30
0.0
  0
VERTEX
  5
4D2
330
4CC
100
AcDbEntity
  8
\U+838C\U+8343\U+8384\U+815B_1
100
AcDbVertex
100
AcDb2dVertex
 10
85.73671330321861
 20
-124.0678792007539
 30
0.0
  0
VERTEX
  5
4D3
330
4CC
100
AcDbEntity
  8
\U+838C\U+8343\U+8384\U+815B_1
100
AcDbVertex
100
AcDb2dVertex
 10
82.04684378374176
 20
-124.0678792007539
 30
0.0
  0
VERTEX
  5
4D4
330
4CC
100
AcDbEntity
  8
\U+838C\U+8343\U+8384\U+815B_1
100
AcDbVertex
100
AcDb2dVertex
 10
78.52388914052528
 20
-124.0678792007539
 30
0.0
  0
VERTEX
  5
4D5
330
4CC
100
AcDbEntity
  8
\U+838C\U+8343\U+8384\U+815B_1
100
AcDbVertex
100
AcDb2dVertex
 10
75.0706976808851
 20
-124.0678792007539
 30
0.0
  0
VERTEX
  5
4D6
330
4CC
100
AcDbEntity
  8
\U+838C\U+8343\U+8384\U+815B_1
100
AcDbVertex
100
AcDb2dVertex
 10
71.70104978676224
 20
-124.0678792007539
 30
0.0
  0
VERTEX
  5
4D7
330
4CC
100
AcDbEntity
  8
\U+838C\U+8343\U+8384\U+815B_1
100
AcDbVertex
100
AcDb2dVertex
 10
68.5820325891913
 20
-124.0678792007539
 30
0.0
  0
VERTEX
  5
4D8
330
4CC
100
AcDbEntity
  8
\U+838C\U+8343\U+8384\U+815B_1
100
AcDbVertex
100
AcDb2dVertex
 10
65.5326063204224
 20
-124.0678792007539
 30
0.0
  0
VERTEX
  5
4D9
330
4CC
100
AcDbEntity
  8
\U+838C\U+8343\U+8384\U+815B_1
100
AcDbVertex
100
AcDb2dVertex
 10
62.72003036626444
 20
-124.0678792007539
 30
0.0
  0
VERTEX
  5
4DA
330
4CC
100
AcDbEntity
  8
\U+838C\U+8343\U+8384\U+815B_1
100
AcDbVertex
100
AcDb2dVertex
 10
60.07436928836682
 20
-124.0678792007539
 30
0.0
  0
VERTEX
  5
4DB
330
4CC
100
AcDbEntity
  8
\U+838C\U+8343\U+8384\U+815B_1
100
AcDbVertex
100
AcDb2dVertex
 10
57.59579534150383
 20
-124.0678792007539
 30
0.0
  0
VERTEX
  5
4DC
330
4CC
100
AcDbEntity
  8
\U+838C\U+8343\U+8384\U+815B_1
100
AcDbVertex
100
AcDb2dVertex
 10
55.3401190725365
 20
-124.0678792007539
 30
0.0
  0
VERTEX
  5
4DD
330
4CC
100
AcDbEntity
  8
\U+838C\U+8343\U+8384\U+815B_1
100
AcDbVertex
100
AcDb2dVertex
 10
53.3350735001211
 20
-124.0678792007539
 30
0.0
  0
VERTEX
  5
4DE
330
4CC
100
AcDbEntity
  8
\U+838C\U+8343\U+8384\U+815B_1
100
AcDbVertex
100
AcDb2dVertex
 10
51.58048636948335
 20
-124.0678792007539
 30
0.0
  0
VERTEX
  5
4DF
330
4CC
100
AcDbEntity
  8
\U+838C\U+8343\U+8384\U+815B_1
100
AcDbVertex
100
AcDb2dVertex
 10
50.04896917151554
 20
-124.0678792007539
 30
0.0
  0
VERTEX
  5
4E0
330
4CC
100
AcDbEntity
  8
\U+838C\U+8343\U+8384\U+815B_1
100
AcDbVertex
100
AcDb2dVertex
 10
48.76791041532539
 20
-124.0678792007539
 30
0.0
  0
VERTEX
  5
4E1
330
4CC
100
AcDbEntity
  8
\U+838C\U+8343\U+8384\U+815B_1
100
AcDbVertex
100
AcDb2dVertex
 10
47.7235297189719
 20
-124.0678792007539
 30
0.0
  0
VERTEX
  5
4E2
330
4CC
100
AcDbEntity
  8
\U+838C\U+8343\U+8384\U+815B_1
100
AcDbVertex
100
AcDb2dVertex
 10
46.91599933722934
 20
-124.0678792007539
 30
0.0
  0
VERTEX
  5
4E3
330
4CC
100
AcDbEntity
  8
\U+838C\U+8343\U+8384\U+815B_1
100
AcDbVertex
100
AcDb2dVertex
 10
46.35892739726444
 20
-124.0678792007539
 30
0.0
  0
VERTEX
  5
4E4
330
4CC
100
AcDbEntity
  8
\U+838C\U+8343\U+8384\U+815B_1
100
AcDbVertex
100
AcDb2dVertex
 10
46.12224933742777
 20
-124.0678792007539
 30
0.0
  0
SEQEND
  5
4E5
330
4CC
100
AcDbEntity
  8
\U+838C\U+8343\U+8384\U+815B_1
  0
POLYLINE
  5
4E6
330
3C
100
AcDbEntity
  8
\U+838C\U+8343\U+8384\U+815B_1
100
AcDb2dPolyline
 66
     1
 10
0.0
 20
0.0
 30
0.0
  0
VERTEX
  5
4E7
330
4E6
100
AcDbEntity
  8
\U+838C\U+8343\U+8384\U+815B_1
100
AcDbVertex
100
AcDb2dVertex
 10
173.3062174045901
 20
-101.3710733796051
 30
0.0
  0
VERTEX
  5
4E8
330
4E6
100
AcDbEntity
  8
\U+838C\U+8343\U+8384\U+815B_1
100
AcDbVertex
100
AcDb2dVertex
 10
173.2366264757881
 20
-101.3710733796051
 30
0.0
  0
VERTEX
  5
4E9
330
4E6
100
AcDbEntity
  8
\U+838C\U+8343\U+8384\U+815B_1
100
AcDbVertex
100
AcDb2dVertex
 10
172.9162325956598
 20
-101.3710733796051
 30
0.0
  0
VERTEX
  5
4EA
330
4E6
100
AcDbEntity
  8
\U+838C\U+8343\U+8384\U+815B_1
100
AcDbVertex
100
AcDb2dVertex
 10
172.3453802737539
 20
-101.3710733796051
 30
0.0
  0
VERTEX
  5
4EB
330
4E6
100
AcDbEntity
  8
\U+838C\U+8343\U+8384\U+815B_1
100
AcDbVertex
100
AcDb2dVertex
 10
171.4682589632093
 20
-101.3710733796051
 30
0.0
  0
VERTEX
  5
4EC
330
4E6
100
AcDbEntity
  8
\U+838C\U+8343\U+8384\U+815B_1
100
AcDbVertex
100
AcDb2dVertex
 10
170.3403347013385
 20
-101.3710733796051
 30
0.0
  0
VERTEX
  5
4ED
330
4E6
100
AcDbEntity
  8
\U+838C\U+8343\U+8384\U+815B_1
100
AcDbVertex
100
AcDb2dVertex
 10
168.9757323796311
 20
-101.3710733796051
 30
0.0
  0
VERTEX
  5
4EE
330
4E6
100
AcDbEntity
  8
\U+838C\U+8343\U+8384\U+815B_1
100
AcDbVertex
100
AcDb2dVertex
 10
167.374451998087
 20
-101.3710733796051
 30
0.0
  0
VERTEX
  5
4EF
330
4E6
100
AcDbEntity
  8
\U+838C\U+8343\U+8384\U+815B_1
100
AcDbVertex
100
AcDb2dVertex
 10
165.5364935567061
 20
-101.3710733796051
 30
0.0
  0
VERTEX
  5
4F0
330
4E6
100
AcDbEntity
  8
\U+838C\U+8343\U+8384\U+815B_1
100
AcDbVertex
100
AcDb2dVertex
 10
163.4477321639992
 20
-101.3710733796051
 30
0.0
  0
VERTEX
  5
4F1
330
4E6
100
AcDbEntity
  8
\U+838C\U+8343\U+8384\U+815B_1
100
AcDbVertex
100
AcDb2dVertex
 10
161.2060085317471
 20
-101.3710733796051
 30
0.0
  0
VERTEX
  5
4F2
330
4E6
100
AcDbEntity
  8
\U+838C\U+8343\U+8384\U+815B_1
100
AcDbVertex
100
AcDb2dVertex
 10
158.6301106374258
 20
-101.3710733796051
 30
0.0
  0
VERTEX
  5
4F3
330
4E6
100
AcDbEntity
  8
\U+838C\U+8343\U+8384\U+815B_1
100
AcDbVertex
100
AcDb2dVertex
 10
155.9150308855004
 20
-101.3710733796051
 30
0.0
  0
VERTEX
  5
4F4
330
4E6
100
AcDbEntity
  8
\U+838C\U+8343\U+8384\U+815B_1
100
AcDbVertex
100
AcDb2dVertex
 10
152.9491481822488
 20
-101.3710733796051
 30
0.0
  0
VERTEX
  5
4F5
330
4E6
100
AcDbEntity
  8
\U+838C\U+8343\U+8384\U+815B_1
100
AcDbVertex
100
AcDb2dVertex
 10
149.8995496587057
 20
-101.3710733796051
 30
0.0
  0
VERTEX
  5
4F6
330
4E6
100
AcDbEntity
  8
\U+838C\U+8343\U+8384\U+815B_1
100
AcDbVertex
100
AcDb2dVertex
 10
146.6136175848744
 20
-101.3710733796051
 30
0.0
  0
VERTEX
  5
4F7
330
4E6
100
AcDbEntity
  8
\U+838C\U+8343\U+8384\U+815B_1
100
AcDbVertex
100
AcDb2dVertex
 10
143.1602538704599
 20
-101.3710733796051
 30
0.0
  0
VERTEX
  5
4F8
330
4E6
100
AcDbEntity
  8
\U+838C\U+8343\U+8384\U+815B_1
100
AcDbVertex
100
AcDb2dVertex
 10
139.5539279165004
 20
-101.3710733796051
 30
0.0
  0
VERTEX
  5
4F9
330
4E6
100
AcDbEntity
  8
\U+838C\U+8343\U+8384\U+815B_1
100
AcDbVertex
100
AcDb2dVertex
 10
135.7805148315063
 20
-101.3710733796051
 30
0.0
  0
VERTEX
  5
4FA
330
4E6
100
AcDbEntity
  8
\U+838C\U+8343\U+8384\U+815B_1
100
AcDbVertex
100
AcDb2dVertex
 10
131.9375108177101
 20
-101.3710733796051
 30
0.0
  0
VERTEX
  5
4FB
330
4E6
100
AcDbEntity
  8
\U+838C\U+8343\U+8384\U+815B_1
100
AcDbVertex
100
AcDb2dVertex
 10
127.9966660921328
 20
-101.3710733796051
 30
0.0
  0
VERTEX
  5
4FC
330
4E6
100
AcDbEntity
  8
\U+838C\U+8343\U+8384\U+815B_1
100
AcDbVertex
100
AcDb2dVertex
 10
123.986574947302
 20
-101.3710733796051
 30
0.0
  0
VERTEX
  5
4FD
330
4E6
100
AcDbEntity
  8
\U+838C\U+8343\U+8384\U+815B_1
100
AcDbVertex
100
AcDb2dVertex
 10
119.9068928736691
 20
-101.3710733796051
 30
0.0
  0
VERTEX
  5
4FE
330
4E6
100
AcDbEntity
  8
\U+838C\U+8343\U+8384\U+815B_1
100
AcDbVertex
100
AcDb2dVertex
 10
115.7293700882552
 20
-101.3710733796051
 30
0.0
  0
VERTEX
  5
4FF
330
4E6
100
AcDbEntity
  8
\U+838C\U+8343\U+8384\U+815B_1
100
AcDbVertex
100
AcDb2dVertex
 10
111.4826008835877
 20
-101.3710733796051
 30
0.0
  0
VERTEX
  5
500
330
4E6
100
AcDbEntity
  8
\U+838C\U+8343\U+8384\U+815B_1
100
AcDbVertex
100
AcDb2dVertex
 10
107.2358316789202
 20
-101.3710733796051
 30
0.0
  0
VERTEX
  5
501
330
4E6
100
AcDbEntity
  8
\U+838C\U+8343\U+8384\U+815B_1
100
AcDbVertex
100
AcDb2dVertex
 10
102.9749375827632
 20
-101.3710733796051
 30
0.0
  0
VERTEX
  5
502
330
4E6
100
AcDbEntity
  8
\U+838C\U+8343\U+8384\U+815B_1
100
AcDbVertex
100
AcDb2dVertex
 10
98.81153968883879
 20
-101.3710733796051
 30
0.0
  0
VERTEX
  5
503
330
4E6
100
AcDbEntity
  8
\U+838C\U+8343\U+8384\U+815B_1
100
AcDbVertex
100
AcDb2dVertex
 10
94.5647704841713
 20
-101.3710733796051
 30
0.0
  0
VERTEX
  5
504
330
4E6
100
AcDbEntity
  8
\U+838C\U+8343\U+8384\U+815B_1
100
AcDbVertex
100
AcDb2dVertex
 10
90.38741995353162
 20
-101.3710733796051
 30
0.0
  0
VERTEX
  5
505
330
4E6
100
AcDbEntity
  8
\U+838C\U+8343\U+8384\U+815B_1
100
AcDbVertex
100
AcDb2dVertex
 10
86.29361298840924
 20
-101.3710733796051
 30
0.0
  0
VERTEX
  5
506
330
4E6
100
AcDbEntity
  8
\U+838C\U+8343\U+8384\U+815B_1
100
AcDbVertex
100
AcDb2dVertex
 10
82.28352184357843
 20
-101.3710733796051
 30
0.0
  0
VERTEX
  5
507
330
4E6
100
AcDbEntity
  8
\U+838C\U+8343\U+8384\U+815B_1
100
AcDbVertex
100
AcDb2dVertex
 10
78.27325844397336
 20
-101.3710733796051
 30
0.0
  0
VERTEX
  5
508
330
4E6
100
AcDbEntity
  8
\U+838C\U+8343\U+8384\U+815B_1
100
AcDbVertex
100
AcDb2dVertex
 10
74.43025443017716
 20
-101.3710733796051
 30
0.0
  0
VERTEX
  5
509
330
4E6
100
AcDbEntity
  8
\U+838C\U+8343\U+8384\U+815B_1
100
AcDbVertex
100
AcDb2dVertex
 10
70.74038491070033
 20
-101.3710733796051
 30
0.0
  0
VERTEX
  5
50A
330
4E6
100
AcDbEntity
  8
\U+838C\U+8343\U+8384\U+815B_1
100
AcDbVertex
100
AcDb2dVertex
 10
67.13388670196653
 20
-101.3710733796051
 30
0.0
  0
VERTEX
  5
50B
330
4E6
100
AcDbEntity
  8
\U+838C\U+8343\U+8384\U+815B_1
100
AcDbVertex
100
AcDb2dVertex
 10
63.68069524232636
 20
-101.3710733796051
 30
0.0
  0
VERTEX
  5
50C
330
4E6
100
AcDbEntity
  8
\U+838C\U+8343\U+8384\U+815B_1
100
AcDbVertex
100
AcDb2dVertex
 10
60.3945909137208
 20
-101.3710733796051
 30
0.0
  0
VERTEX
  5
50D
330
4E6
100
AcDbEntity
  8
\U+838C\U+8343\U+8384\U+815B_1
100
AcDbVertex
100
AcDb2dVertex
 10
57.2616210794346
 20
-101.3710733796051
 30
0.0
  0
VERTEX
  5
50E
330
4E6
100
AcDbEntity
  8
\U+838C\U+8343\U+8384\U+815B_1
100
AcDbVertex
100
AcDb2dVertex
 10
54.37928194170032
 20
-101.3710733796051
 30
0.0
  0
VERTEX
  5
50F
330
4E6
100
AcDbEntity
  8
\U+838C\U+8343\U+8384\U+815B_1
100
AcDbVertex
100
AcDb2dVertex
 10
51.65024955305966
 20
-101.3710733796051
 30
0.0
  0
VERTEX
  5
510
330
4E6
100
AcDbEntity
  8
\U+838C\U+8343\U+8384\U+815B_1
100
AcDbVertex
100
AcDb2dVertex
 10
49.08813204067935
 20
-101.3710733796051
 30
0.0
  0
VERTEX
  5
511
330
4E6
100
AcDbEntity
  8
\U+838C\U+8343\U+8384\U+815B_1
100
AcDbVertex
100
AcDb2dVertex
 10
46.76269258813572
 20
-101.3710733796051
 30
0.0
  0
VERTEX
  5
512
330
4E6
100
AcDbEntity
  8
\U+838C\U+8343\U+8384\U+815B_1
100
AcDbVertex
100
AcDb2dVertex
 10
44.67410345020301
 20
-101.3710733796051
 30
0.0
  0
VERTEX
  5
513
330
4E6
100
AcDbEntity
  8
\U+838C\U+8343\U+8384\U+815B_1
100
AcDbVertex
100
AcDb2dVertex
 10
42.83614500882221
 20
-101.3710733796051
 30
0.0
  0
VERTEX
  5
514
330
4E6
100
AcDbEntity
  8
\U+838C\U+8343\U+8384\U+815B_1
100
AcDbVertex
100
AcDb2dVertex
 10
41.23486462727809
 20
-101.3710733796051
 30
0.0
  0
VERTEX
  5
515
330
4E6
100
AcDbEntity
  8
\U+838C\U+8343\U+8384\U+815B_1
100
AcDbVertex
100
AcDb2dVertex
 10
39.87026230557063
 20
-101.3710733796051
 30
0.0
  0
VERTEX
  5
516
330
4E6
100
AcDbEntity
  8
\U+838C\U+8343\U+8384\U+815B_1
100
AcDbVertex
100
AcDb2dVertex
 10
38.74233804369983
 20
-101.3710733796051
 30
0.0
  0
VERTEX
  5
517
330
4E6
100
AcDbEntity
  8
\U+838C\U+8343\U+8384\U+815B_1
100
AcDbVertex
100
AcDb2dVertex
 10
37.93480766195727
 20
-101.3710733796051
 30
0.0
  0
VERTEX
  5
518
330
4E6
100
AcDbEntity
  8
\U+838C\U+8343\U+8384\U+815B_1
100
AcDbVertex
100
AcDb2dVertex
 10
37.29436441124933
 20
-101.3710733796051
 30
0.0
  0
VERTEX
  5
519
330
4E6
100
AcDbEntity
  8
\U+838C\U+8343\U+8384\U+815B_1
100
AcDbVertex
100
AcDb2dVertex
 10
36.97397053112109
 20
-101.3710733796051
 30
0.0
  0
VERTEX
  5
51A
330
4E6
100
AcDbEntity
  8
\U+838C\U+8343\U+8384\U+815B_1
100
AcDbVertex
100
AcDb2dVertex
 10
36.90437960231905
 20
-101.3710733796051
 30
0.0
  0
SEQEND
  5
51B
330
4E6
100
AcDbEntity
  8
\U+838C\U+8343\U+8384\U+815B_1
  0
POLYLINE
  5
51C
330
3C
100
AcDbEntity
  8
\U+838C\U+8343\U+8384\U+815B_1
100
AcDb2dPolyline
 66
     1
 10
0.0
 20
0.0
 30
0.0
  0
VERTEX
  5
51D
330
51C
100
AcDbEntity
  8
\U+838C\U+8343\U+8384\U+815B_1
100
AcDbVertex
100
AcDb2dVertex
 10
172.5961832250801
 20
-108.3472194824618
 30
0.0
  0
VERTEX
  5
51E
330
51C
100
AcDbEntity
  8
\U+838C\U+8343\U+8384\U+815B_1
100
AcDbVertex
100
AcDb2dVertex
 10
172.5961832250801
 20
-108.2776285536598
 30
0.0
  0
VERTEX
  5
51F
330
51C
100
AcDbEntity
  8
\U+838C\U+8343\U+8384\U+815B_1
100
AcDbVertex
100
AcDb2dVertex
 10
172.5961832250801
 20
-108.0269978571078
 30
0.0
  0
VERTEX
  5
520
330
51C
100
AcDbEntity
  8
\U+838C\U+8343\U+8384\U+815B_1
100
AcDbVertex
100
AcDb2dVertex
 10
172.6657741538822
 20
-107.7903197972712
 30
0.0
  0
VERTEX
  5
521
330
51C
100
AcDbEntity
  8
\U+838C\U+8343\U+8384\U+815B_1
100
AcDbVertex
100
AcDb2dVertex
 10
172.7491454646252
 20
-107.4699259171429
 30
0.0
  0
VERTEX
  5
522
330
51C
100
AcDbEntity
  8
\U+838C\U+8343\U+8384\U+815B_1
100
AcDbVertex
100
AcDb2dVertex
 10
172.8328612849168
 20
-107.149704291789
 30
0.0
  0
VERTEX
  5
523
330
51C
100
AcDbEntity
  8
\U+838C\U+8343\U+8384\U+815B_1
100
AcDbVertex
100
AcDb2dVertex
 10
172.8328612849168
 20
-106.9130262319523
 30
0.0
  0
VERTEX
  5
524
330
51C
100
AcDbEntity
  8
\U+838C\U+8343\U+8384\U+815B_1
100
AcDbVertex
100
AcDb2dVertex
 10
172.9162325956598
 20
-106.6623955354004
 30
0.0
  0
VERTEX
  5
525
330
51C
100
AcDbEntity
  8
\U+838C\U+8343\U+8384\U+815B_1
100
AcDbVertex
100
AcDb2dVertex
 10
172.9162325956598
 20
-106.5928046065983
 30
0.0
  0
VERTEX
  5
526
330
51C
100
AcDbEntity
  8
\U+838C\U+8343\U+8384\U+815B_1
100
AcDbVertex
100
AcDb2dVertex
 10
172.9162325956598
 20
-106.509261041081
 30
0.0
  0
SEQEND
  5
527
330
51C
100
AcDbEntity
  8
\U+838C\U+8343\U+8384\U+815B_1
  0
POLYLINE
  5
528
330
3C
100
AcDbEntity
  8
\U+838C\U+8343\U+8384\U+815B_1
100
AcDb2dPolyline
 66
     1
 10
0.0
 20
0.0
 30
0.0
  0
VERTEX
  5
529
330
528
100
AcDbEntity
  8
\U+838C\U+8343\U+8384\U+815B_1
100
AcDbVertex
100
AcDb2dVertex
 10
172.5961832250801
 20
-108.3472194824618
 30
0.0
  0
VERTEX
  5
52A
330
528
100
AcDbEntity
  8
\U+838C\U+8343\U+8384\U+815B_1
100
AcDbVertex
100
AcDb2dVertex
 10
172.6240884985106
 20
-108.3472194824618
 30
0.0
  0
SEQEND
  5
52B
330
528
100
AcDbEntity
  8
\U+838C\U+8343\U+8384\U+815B_1
  0
POLYLINE
  5
52C
330
3C
100
AcDbEntity
  8
\U+838C\U+8343\U+8384\U+815B_1
100
AcDb2dPolyline
 66
     1
 10
0.0
 20
0.0
 30
0.0
  0
VERTEX
  5
52D
330
52C
100
AcDbEntity
  8
\U+838C\U+8343\U+8384\U+815B_1
100
AcDbVertex
100
AcDb2dVertex
 10
37.37790797676664
 20
-106.509261041081
 30
0.0
  0
VERTEX
  5
52E
330
52C
100
AcDbEntity
  8
\U+838C\U+8343\U+8384\U+815B_1
100
AcDbVertex
100
AcDb2dVertex
 10
37.37790797676664
 20
-106.6623955354004
 30
0.0
  0
VERTEX
  5
52F
330
52C
100
AcDbEntity
  8
\U+838C\U+8343\U+8384\U+815B_1
100
AcDbVertex
100
AcDb2dVertex
 10
37.37790797676664
 20
-106.829482666435
 30
0.0
  0
VERTEX
  5
530
330
52C
100
AcDbEntity
  8
\U+838C\U+8343\U+8384\U+815B_1
100
AcDbVertex
100
AcDb2dVertex
 10
37.46145154228395
 20
-106.9965697974696
 30
0.0
  0
VERTEX
  5
531
330
52C
100
AcDbEntity
  8
\U+838C\U+8343\U+8384\U+815B_1
100
AcDbVertex
100
AcDb2dVertex
 10
37.46145154228395
 20
-107.3167914228236
 30
0.0
  0
VERTEX
  5
532
330
52C
100
AcDbEntity
  8
\U+838C\U+8343\U+8384\U+815B_1
100
AcDbVertex
100
AcDb2dVertex
 10
37.54499510780126
 20
-107.6371853029518
 30
0.0
  0
VERTEX
  5
533
330
52C
100
AcDbEntity
  8
\U+838C\U+8343\U+8384\U+815B_1
100
AcDbVertex
100
AcDb2dVertex
 10
37.6145860366033
 20
-107.8738633627885
 30
0.0
  0
VERTEX
  5
534
330
52C
100
AcDbEntity
  8
\U+838C\U+8343\U+8384\U+815B_1
100
AcDbVertex
100
AcDb2dVertex
 10
37.6145860366033
 20
-108.1105414226251
 30
0.0
  0
VERTEX
  5
535
330
52C
100
AcDbEntity
  8
\U+838C\U+8343\U+8384\U+815B_1
100
AcDbVertex
100
AcDb2dVertex
 10
37.69812960212061
 20
-108.2776285536598
 30
0.0
  0
VERTEX
  5
536
330
52C
100
AcDbEntity
  8
\U+838C\U+8343\U+8384\U+815B_1
100
AcDbVertex
100
AcDb2dVertex
 10
37.69812960212061
 20
-108.3472194824618
 30
0.0
  0
SEQEND
  5
537
330
52C
100
AcDbEntity
  8
\U+838C\U+8343\U+8384\U+815B_1
  0
POLYLINE
  5
538
330
3C
100
AcDbEntity
  8
\U+838C\U+8343\U+8384\U+815B_1
100
AcDb2dPolyline
 66
     1
 10
0.0
 20
0.0
 30
0.0
  0
VERTEX
  5
539
330
538
100
AcDbEntity
  8
\U+838C\U+8343\U+8384\U+815B_1
100
AcDbVertex
100
AcDb2dVertex
 10
37.37790797676664
 20
-106.509261041081
 30
0.0
  0
VERTEX
  5
53A
330
538
100
AcDbEntity
  8
\U+838C\U+8343\U+8384\U+815B_1
100
AcDbVertex
100
AcDb2dVertex
 10
37.4056409954229
 20
-106.509261041081
 30
0.0
  0
SEQEND
  5
53B
330
538
100
AcDbEntity
  8
\U+838C\U+8343\U+8384\U+815B_1
  0
POLYLINE
  5
53C
330
3C
100
AcDbEntity
  8
\U+838C\U+8343\U+8384\U+815B_1
100
AcDb2dPolyline
 66
     1
 10
0.0
 20
0.0
 30
0.0
  0
VERTEX
  5
53D
330
53C
100
AcDbEntity
  8
\U+838C\U+8343\U+8384\U+815B_1
100
AcDbVertex
100
AcDb2dVertex
 10
106.274994548084
 20
-214.1168185228597
 30
0.0
  0
VERTEX
  5
53E
330
53C
100
AcDbEntity
  8
\U+838C\U+8343\U+8384\U+815B_1
100
AcDbVertex
100
AcDb2dVertex
 10
106.3445854768861
 20
-214.1168185228597
 30
0.0
  0
VERTEX
  5
53F
330
53C
100
AcDbEntity
  8
\U+838C\U+8343\U+8384\U+815B_1
100
AcDbVertex
100
AcDb2dVertex
 10
108.6700249294297
 20
-214.0334472121166
 30
0.0
  0
SEQEND
  5
540
330
53C
100
AcDbEntity
  8
\U+838C\U+8343\U+8384\U+815B_1
  0
POLYLINE
  5
541
330
3C
100
AcDbEntity
  8
\U+838C\U+8343\U+8384\U+815B_1
100
AcDb2dPolyline
 66
     1
 10
0.0
 20
0.0
 30
0.0
  0
VERTEX
  5
542
330
541
100
AcDbEntity
  8
\U+838C\U+8343\U+8384\U+815B_1
100
AcDbVertex
100
AcDb2dVertex
 10
104.0193182791167
 20
-207.5449543751971
 30
0.0
  0
VERTEX
  5
543
330
541
100
AcDbEntity
  8
\U+838C\U+8343\U+8384\U+815B_1
100
AcDbVertex
100
AcDb2dVertex
 10
104.0193182791167
 20
-207.6145453039992
 30
0.0
  0
VERTEX
  5
544
330
541
100
AcDbEntity
  8
\U+838C\U+8343\U+8384\U+815B_1
100
AcDbVertex
100
AcDb2dVertex
 10
104.0193182791167
 20
-207.6979166147422
 30
0.0
  0
SEQEND
  5
545
330
541
100
AcDbEntity
  8
\U+838C\U+8343\U+8384\U+815B_1
  0
POLYLINE
  5
546
330
3C
100
AcDbEntity
  8
\U+838C\U+8343\U+8384\U+815B_1
100
AcDb2dPolyline
 66
     1
 10
0.0
 20
0.0
 30
0.0
  0
VERTEX
  5
547
330
546
100
AcDbEntity
  8
\U+838C\U+8343\U+8384\U+815B_1
100
AcDbVertex
100
AcDb2dVertex
 10
106.274994548084
 20
-207.6979166147422
 30
0.0
  0
VERTEX
  5
548
330
546
100
AcDbEntity
  8
\U+838C\U+8343\U+8384\U+815B_1
100
AcDbVertex
100
AcDb2dVertex
 10
106.274994548084
 20
-207.5449543751971
 30
0.0
  0
SEQEND
  5
549
330
546
100
AcDbEntity
  8
\U+838C\U+8343\U+8384\U+815B_1
  0
POLYLINE
  5
54A
330
3C
100
AcDbEntity
  8
\U+838C\U+8343\U+8384\U+815B_1
100
AcDb2dPolyline
 66
     1
 10
0.0
 20
0.0
 30
0.0
  0
VERTEX
  5
54B
330
54A
100
AcDbEntity
  8
\U+838C\U+8343\U+8384\U+815B_1
100
AcDbVertex
100
AcDb2dVertex
 10
106.274994548084
 20
-207.6979166147422
 30
0.0
  0
VERTEX
  5
54C
330
54A
100
AcDbEntity
  8
\U+838C\U+8343\U+8384\U+815B_1
100
AcDbVertex
100
AcDb2dVertex
 10
106.3028998215146
 20
-207.6979166147422
 30
0.0
  0
SEQEND
  5
54D
330
54A
100
AcDbEntity
  8
\U+838C\U+8343\U+8384\U+815B_1
  0
POLYLINE
  5
54E
330
3C
100
AcDbEntity
  8
\U+838C\U+8343\U+8384\U+815B_1
100
AcDb2dPolyline
 66
     1
 10
0.0
 20
0.0
 30
0.0
  0
VERTEX
  5
54F
330
54E
100
AcDbEntity
  8
\U+838C\U+8343\U+8384\U+815B_1
100
AcDbVertex
100
AcDb2dVertex
 10
121.2714951953766
 20
-207.6979166147422
 30
0.0
  0
VERTEX
  5
550
330
54E
100
AcDbEntity
  8
\U+838C\U+8343\U+8384\U+815B_1
100
AcDbVertex
100
AcDb2dVertex
 10
121.187779375085
 20
-207.6979166147422
 30
0.0
  0
VERTEX
  5
551
330
54E
100
AcDbEntity
  8
\U+838C\U+8343\U+8384\U+815B_1
100
AcDbVertex
100
AcDb2dVertex
 10
120.8677300045053
 20
-207.6979166147422
 30
0.0
  0
VERTEX
  5
552
330
54E
100
AcDbEntity
  8
\U+838C\U+8343\U+8384\U+815B_1
100
AcDbVertex
100
AcDb2dVertex
 10
120.2965331730509
 20
-207.6979166147422
 30
0.0
  0
VERTEX
  5
553
330
54E
100
AcDbEntity
  8
\U+838C\U+8343\U+8384\U+815B_1
100
AcDbVertex
100
AcDb2dVertex
 10
119.4194118625063
 20
-207.6979166147422
 30
0.0
  0
VERTEX
  5
554
330
54E
100
AcDbEntity
  8
\U+838C\U+8343\U+8384\U+815B_1
100
AcDbVertex
100
AcDb2dVertex
 10
118.375203420927
 20
-207.6979166147422
 30
0.0
  0
VERTEX
  5
555
330
54E
100
AcDbEntity
  8
\U+838C\U+8343\U+8384\U+815B_1
100
AcDbVertex
100
AcDb2dVertex
 10
117.0939724099626
 20
-207.6979166147422
 30
0.0
  0
VERTEX
  5
556
330
54E
100
AcDbEntity
  8
\U+838C\U+8343\U+8384\U+815B_1
100
AcDbVertex
100
AcDb2dVertex
 10
115.6459987775121
 20
-207.6979166147422
 30
0.0
  0
VERTEX
  5
557
330
54E
100
AcDbEntity
  8
\U+838C\U+8343\U+8384\U+815B_1
100
AcDbVertex
100
AcDb2dVertex
 10
113.9610025756764
 20
-207.6979166147422
 30
0.0
  0
VERTEX
  5
558
330
54E
100
AcDbEntity
  8
\U+838C\U+8343\U+8384\U+815B_1
100
AcDbVertex
100
AcDb2dVertex
 10
112.2067599545872
 20
-207.6979166147422
 30
0.0
  0
VERTEX
  5
559
330
54E
100
AcDbEntity
  8
\U+838C\U+8343\U+8384\U+815B_1
100
AcDbVertex
100
AcDb2dVertex
 10
110.2713053109738
 20
-207.6979166147422
 30
0.0
  0
VERTEX
  5
55A
330
54E
100
AcDbEntity
  8
\U+838C\U+8343\U+8384\U+815B_1
100
AcDbVertex
100
AcDb2dVertex
 10
108.2800401204994
 20
-207.6979166147422
 30
0.0
  0
VERTEX
  5
55B
330
54E
100
AcDbEntity
  8
\U+838C\U+8343\U+8384\U+815B_1
100
AcDbVertex
100
AcDb2dVertex
 10
106.274994548084
 20
-207.6979166147422
 30
0.0
  0
SEQEND
  5
55C
330
54E
100
AcDbEntity
  8
\U+838C\U+8343\U+8384\U+815B_1
  0
POLYLINE
  5
55D
330
3C
100
AcDbEntity
  8
\U+838C\U+8343\U+8384\U+815B_1
100
AcDb2dPolyline
 66
     1
 10
0.0
 20
0.0
 30
0.0
  0
VERTEX
  5
55E
330
55D
100
AcDbEntity
  8
\U+838C\U+8343\U+8384\U+815B_1
100
AcDbVertex
100
AcDb2dVertex
 10
104.0193182791167
 20
-207.6979166147422
 30
0.0
  0
VERTEX
  5
55F
330
55D
100
AcDbEntity
  8
\U+838C\U+8343\U+8384\U+815B_1
100
AcDbVertex
100
AcDb2dVertex
 10
101.9305568864097
 20
-207.6979166147422
 30
0.0
  0
VERTEX
  5
560
330
55D
100
AcDbEntity
  8
\U+838C\U+8343\U+8384\U+815B_1
100
AcDbVertex
100
AcDb2dVertex
 10
99.92551131399432
 20
-207.6979166147422
 30
0.0
  0
VERTEX
  5
561
330
55D
100
AcDbEntity
  8
\U+838C\U+8343\U+8384\U+815B_1
100
AcDbVertex
100
AcDb2dVertex
 10
98.08755287261353
 20
-207.6979166147422
 30
0.0
  0
VERTEX
  5
562
330
55D
100
AcDbEntity
  8
\U+838C\U+8343\U+8384\U+815B_1
100
AcDbVertex
100
AcDb2dVertex
 10
96.24959443123275
 20
-207.6979166147422
 30
0.0
  0
VERTEX
  5
563
330
55D
100
AcDbEntity
  8
\U+838C\U+8343\U+8384\U+815B_1
100
AcDbVertex
100
AcDb2dVertex
 10
94.63436141297336
 20
-207.6979166147422
 30
0.0
  0
VERTEX
  5
564
330
55D
100
AcDbEntity
  8
\U+838C\U+8343\U+8384\U+815B_1
100
AcDbVertex
100
AcDb2dVertex
 10
93.11662459694654
 20
-207.6979166147422
 30
0.0
  0
VERTEX
  5
565
330
55D
100
AcDbEntity
  8
\U+838C\U+8343\U+8384\U+815B_1
100
AcDbVertex
100
AcDb2dVertex
 10
91.83556584075639
 20
-207.6979166147422
 30
0.0
  0
VERTEX
  5
566
330
55D
100
AcDbEntity
  8
\U+838C\U+8343\U+8384\U+815B_1
100
AcDbVertex
100
AcDb2dVertex
 10
90.7911851444029
 20
-207.6979166147422
 30
0.0
  0
VERTEX
  5
567
330
55D
100
AcDbEntity
  8
\U+838C\U+8343\U+8384\U+815B_1
100
AcDbVertex
100
AcDb2dVertex
 10
89.98365476266034
 20
-207.6979166147422
 30
0.0
  0
VERTEX
  5
568
330
55D
100
AcDbEntity
  8
\U+838C\U+8343\U+8384\U+815B_1
100
AcDbVertex
100
AcDb2dVertex
 10
89.42658282269544
 20
-207.6979166147422
 30
0.0
  0
VERTEX
  5
569
330
55D
100
AcDbEntity
  8
\U+838C\U+8343\U+8384\U+815B_1
100
AcDbVertex
100
AcDb2dVertex
 10
89.10636119734147
 20
-207.6979166147422
 30
0.0
  0
VERTEX
  5
56A
330
55D
100
AcDbEntity
  8
\U+838C\U+8343\U+8384\U+815B_1
100
AcDbVertex
100
AcDb2dVertex
 10
89.02281763182415
 20
-207.6979166147422
 30
0.0
  0
SEQEND
  5
56B
330
55D
100
AcDbEntity
  8
\U+838C\U+8343\U+8384\U+815B_1
  0
POLYLINE
  5
56C
330
3C
100
AcDbEntity
  8
\U+838C\U+8343\U+8384\U+815B_1
100
AcDb2dPolyline
 66
     1
 10
0.0
 20
0.0
 30
0.0
  0
VERTEX
  5
56D
330
56C
100
AcDbEntity
  8
\U+838C\U+8343\U+8384\U+815B_1
100
AcDbVertex
100
AcDb2dVertex
 10
104.0193182791167
 20
-206.5699923528714
 30
0.0
  0
VERTEX
  5
56E
330
56C
100
AcDbEntity
  8
\U+838C\U+8343\U+8384\U+815B_1
100
AcDbVertex
100
AcDb2dVertex
 10
104.2699489756686
 20
-206.5699923528714
 30
0.0
  0
VERTEX
  5
56F
330
56C
100
AcDbEntity
  8
\U+838C\U+8343\U+8384\U+815B_1
100
AcDbVertex
100
AcDb2dVertex
 10
104.5901706010226
 20
-206.5699923528714
 30
0.0
  0
VERTEX
  5
570
330
56C
100
AcDbEntity
  8
\U+838C\U+8343\U+8384\U+815B_1
100
AcDbVertex
100
AcDb2dVertex
 10
104.8268486608593
 20
-206.5699923528714
 30
0.0
  0
VERTEX
  5
571
330
56C
100
AcDbEntity
  8
\U+838C\U+8343\U+8384\U+815B_1
100
AcDbVertex
100
AcDb2dVertex
 10
105.1470702862132
 20
-206.5699923528714
 30
0.0
  0
VERTEX
  5
572
330
56C
100
AcDbEntity
  8
\U+838C\U+8343\U+8384\U+815B_1
100
AcDbVertex
100
AcDb2dVertex
 10
105.3837483460499
 20
-206.5699923528714
 30
0.0
  0
VERTEX
  5
573
330
56C
100
AcDbEntity
  8
\U+838C\U+8343\U+8384\U+815B_1
100
AcDbVertex
100
AcDb2dVertex
 10
105.7041422261781
 20
-206.5699923528714
 30
0.0
  0
VERTEX
  5
574
330
56C
100
AcDbEntity
  8
\U+838C\U+8343\U+8384\U+815B_1
100
AcDbVertex
100
AcDb2dVertex
 10
105.9408202860148
 20
-206.5699923528714
 30
0.0
  0
VERTEX
  5
575
330
56C
100
AcDbEntity
  8
\U+838C\U+8343\U+8384\U+815B_1
100
AcDbVertex
100
AcDb2dVertex
 10
106.274994548084
 20
-206.5699923528714
 30
0.0
  0
SEQEND
  5
576
330
56C
100
AcDbEntity
  8
\U+838C\U+8343\U+8384\U+815B_1
  0
POLYLINE
  5
577
330
3C
100
AcDbEntity
  8
\U+838C\U+8343\U+8384\U+815B_1
100
AcDb2dPolyline
 66
     1
 10
0.0
 20
0.0
 30
0.0
  0
VERTEX
  5
578
330
577
100
AcDbEntity
  8
\U+838C\U+8343\U+8384\U+815B_1
100
AcDbVertex
100
AcDb2dVertex
 10
106.274994548084
 20
-206.5699923528714
 30
0.0
  0
VERTEX
  5
579
330
577
100
AcDbEntity
  8
\U+838C\U+8343\U+8384\U+815B_1
100
AcDbVertex
100
AcDb2dVertex
 10
106.274994548084
 20
-207.5449543751971
 30
0.0
  0
SEQEND
  5
57A
330
577
100
AcDbEntity
  8
\U+838C\U+8343\U+8384\U+815B_1
  0
POLYLINE
  5
57B
330
3C
100
AcDbEntity
  8
\U+838C\U+8343\U+8384\U+815B_1
100
AcDb2dPolyline
 66
     1
 10
0.0
 20
0.0
 30
0.0
  0
VERTEX
  5
57C
330
57B
100
AcDbEntity
  8
\U+838C\U+8343\U+8384\U+815B_1
100
AcDbVertex
100
AcDb2dVertex
 10
104.0193182791167
 20
-207.5449543751971
 30
0.0
  0
VERTEX
  5
57D
330
57B
100
AcDbEntity
  8
\U+838C\U+8343\U+8384\U+815B_1
100
AcDbVertex
100
AcDb2dVertex
 10
104.0193182791167
 20
-206.5699923528714
 30
0.0
  0
SEQEND
  5
57E
330
57B
100
AcDbEntity
  8
\U+838C\U+8343\U+8384\U+815B_1
  0
POLYLINE
  5
57F
330
3C
100
AcDbEntity
  8
\U+838C\U+8343\U+8384\U+815B_1
100
AcDb2dPolyline
 66
     1
 10
0.0
 20
0.0
 30
0.0
  0
VERTEX
  5
580
330
57F
100
AcDbEntity
  8
\U+838C\U+8343\U+8384\U+815B_1
100
AcDbVertex
100
AcDb2dVertex
 10
99.21530487971006
 20
-234.8783419551693
 30
0.0
  0
VERTEX
  5
581
330
57F
100
AcDbEntity
  8
\U+838C\U+8343\U+8384\U+815B_1
100
AcDbVertex
100
AcDb2dVertex
 10
99.21530487971006
 20
-235.6858723369119
 30
0.0
  0
SEQEND
  5
582
330
57F
100
AcDbEntity
  8
\U+838C\U+8343\U+8384\U+815B_1
  0
POLYLINE
  5
583
330
3C
100
AcDbEntity
  8
\U+838C\U+8343\U+8384\U+815B_1
100
AcDb2dPolyline
 66
     1
 10
0.0
 20
0.0
 30
0.0
  0
VERTEX
  5
584
330
583
100
AcDbEntity
  8
\U+838C\U+8343\U+8384\U+815B_1
100
AcDbVertex
100
AcDb2dVertex
 10
110.9951198724248
 20
-235.6858723369119
 30
0.0
  0
VERTEX
  5
585
330
583
100
AcDbEntity
  8
\U+838C\U+8343\U+8384\U+815B_1
100
AcDbVertex
100
AcDb2dVertex
 10
110.9951198724248
 20
-234.8783419551693
 30
0.0
  0
SEQEND
  5
586
330
583
100
AcDbEntity
  8
\U+838C\U+8343\U+8384\U+815B_1
  0
POLYLINE
  5
587
330
3C
100
AcDbEntity
  8
\U+838C\U+8343\U+8384\U+815B_1
100
AcDb2dPolyline
 66
     1
 10
0.0
 20
0.0
 30
0.0
  0
VERTEX
  5
588
330
587
100
AcDbEntity
  8
\U+838C\U+8343\U+8384\U+815B_1
100
AcDbVertex
100
AcDb2dVertex
 10
110.9951198724248
 20
-235.6858723369119
 30
0.0
  0
VERTEX
  5
589
330
587
100
AcDbEntity
  8
\U+838C\U+8343\U+8384\U+815B_1
100
AcDbVertex
100
AcDb2dVertex
 10
110.8421576328797
 20
-235.838834576457
 30
0.0
  0
VERTEX
  5
58A
330
587
100
AcDbEntity
  8
\U+838C\U+8343\U+8384\U+815B_1
100
AcDbVertex
100
AcDb2dVertex
 10
109.9509114308456
 20
-236.4100314079114
 30
0.0
  0
VERTEX
  5
58B
330
587
100
AcDbEntity
  8
\U+838C\U+8343\U+8384\U+815B_1
100
AcDbVertex
100
AcDb2dVertex
 10
108.9900743000094
 20
-236.8833875275847
 30
0.0
  0
VERTEX
  5
58C
330
587
100
AcDbEntity
  8
\U+838C\U+8343\U+8384\U+815B_1
100
AcDbVertex
100
AcDb2dVertex
 10
108.1129529894648
 20
-237.203781407713
 30
0.0
  0
VERTEX
  5
58D
330
587
100
AcDbEntity
  8
\U+838C\U+8343\U+8384\U+815B_1
100
AcDbVertex
100
AcDb2dVertex
 10
107.3054226077223
 20
-237.4401149580011
 30
0.0
  0
VERTEX
  5
58E
330
587
100
AcDbEntity
  8
\U+838C\U+8343\U+8384\U+815B_1
100
AcDbVertex
100
AcDb2dVertex
 10
106.5953884282123
 20
-237.6075465985842
 30
0.0
  0
VERTEX
  5
58F
330
587
100
AcDbEntity
  8
\U+838C\U+8343\U+8384\U+815B_1
100
AcDbVertex
100
AcDb2dVertex
 10
106.0241915967578
 20
-237.6909179093273
 30
0.0
  0
VERTEX
  5
590
330
587
100
AcDbEntity
  8
\U+838C\U+8343\U+8384\U+815B_1
100
AcDbVertex
100
AcDb2dVertex
 10
105.5508354770845
 20
-237.6909179093273
 30
0.0
  0
VERTEX
  5
591
330
587
100
AcDbEntity
  8
\U+838C\U+8343\U+8384\U+815B_1
100
AcDbVertex
100
AcDb2dVertex
 10
105.3003770353069
 20
-237.6909179093273
 30
0.0
  0
VERTEX
  5
592
330
587
100
AcDbEntity
  8
\U+838C\U+8343\U+8384\U+815B_1
100
AcDbVertex
100
AcDb2dVertex
 10
105.1470702862132
 20
-237.6909179093273
 30
0.0
  0
SEQEND
  5
593
330
587
100
AcDbEntity
  8
\U+838C\U+8343\U+8384\U+815B_1
  0
POLYLINE
  5
594
330
3C
100
AcDbEntity
  8
\U+838C\U+8343\U+8384\U+815B_1
100
AcDb2dPolyline
 66
     1
 10
0.0
 20
0.0
 30
0.0
  0
VERTEX
  5
595
330
594
100
AcDbEntity
  8
\U+838C\U+8343\U+8384\U+815B_1
100
AcDbVertex
100
AcDb2dVertex
 10
105.1470702862132
 20
-237.6909179093273
 30
0.0
  0
VERTEX
  5
596
330
594
100
AcDbEntity
  8
\U+838C\U+8343\U+8384\U+815B_1
100
AcDbVertex
100
AcDb2dVertex
 10
105.0635267206959
 20
-237.6909179093273
 30
0.0
  0
VERTEX
  5
597
330
594
100
AcDbEntity
  8
\U+838C\U+8343\U+8384\U+815B_1
100
AcDbVertex
100
AcDb2dVertex
 10
104.9799831551786
 20
-237.6909179093273
 30
0.0
  0
VERTEX
  5
598
330
594
100
AcDbEntity
  8
\U+838C\U+8343\U+8384\U+815B_1
100
AcDbVertex
100
AcDb2dVertex
 10
104.8268486608593
 20
-237.6909179093273
 30
0.0
  0
VERTEX
  5
599
330
594
100
AcDbEntity
  8
\U+838C\U+8343\U+8384\U+815B_1
100
AcDbVertex
100
AcDb2dVertex
 10
103.7824679645058
 20
-237.6075465985842
 30
0.0
  0
VERTEX
  5
59A
330
594
100
AcDbEntity
  8
\U+838C\U+8343\U+8384\U+815B_1
100
AcDbVertex
100
AcDb2dVertex
 10
102.9053466539612
 20
-237.4401149580011
 30
0.0
  0
VERTEX
  5
59B
330
594
100
AcDbEntity
  8
\U+838C\U+8343\U+8384\U+815B_1
100
AcDbVertex
100
AcDb2dVertex
 10
101.9305568864097
 20
-237.203781407713
 30
0.0
  0
VERTEX
  5
59C
330
594
100
AcDbEntity
  8
\U+838C\U+8343\U+8384\U+815B_1
100
AcDbVertex
100
AcDb2dVertex
 10
100.5799072014175
 20
-236.5629936474565
 30
0.0
  0
VERTEX
  5
59D
330
594
100
AcDbEntity
  8
\U+838C\U+8343\U+8384\U+815B_1
100
AcDbVertex
100
AcDb2dVertex
 10
99.452155194321
 20
-235.838834576457
 30
0.0
  0
VERTEX
  5
59E
330
594
100
AcDbEntity
  8
\U+838C\U+8343\U+8384\U+815B_1
100
AcDbVertex
100
AcDb2dVertex
 10
99.28506806328637
 20
-235.6858723369119
 30
0.0
  0
SEQEND
  5
59F
330
594
100
AcDbEntity
  8
\U+838C\U+8343\U+8384\U+815B_1
  0
POLYLINE
  5
5A0
330
3C
100
AcDbEntity
  8
\U+838C\U+8343\U+8384\U+815B_1
100
AcDb2dPolyline
 66
     1
 10
0.0
 20
0.0
 30
0.0
  0
VERTEX
  5
5A1
330
5A0
100
AcDbEntity
  8
\U+838C\U+8343\U+8384\U+815B_1
100
AcDbVertex
100
AcDb2dVertex
 10
105.1470702862132
 20
-237.6909179093273
 30
0.0
  0
VERTEX
  5
5A2
330
5A0
100
AcDbEntity
  8
\U+838C\U+8343\U+8384\U+815B_1
100
AcDbVertex
100
AcDb2dVertex
 10
105.1749755596438
 20
-237.6909179093273
 30
0.0
  0
SEQEND
  5
5A3
330
5A0
100
AcDbEntity
  8
\U+838C\U+8343\U+8384\U+815B_1
  0
POLYLINE
  5
5A4
330
3C
100
AcDbEntity
  8
\U+838C\U+8343\U+8384\U+815B_1
100
AcDb2dPolyline
 66
     1
 10
0.0
 20
0.0
 30
0.0
  0
VERTEX
  5
5A5
330
5A4
100
AcDbEntity
  8
\U+838C\U+8343\U+8384\U+815B_1
100
AcDbVertex
100
AcDb2dVertex
 10
99.28506806328637
 20
-235.6858723369119
 30
0.0
  0
VERTEX
  5
5A6
330
5A4
100
AcDbEntity
  8
\U+838C\U+8343\U+8384\U+815B_1
100
AcDbVertex
100
AcDb2dVertex
 10
100.0090548795116
 20
-236.2425997673282
 30
0.0
  0
VERTEX
  5
5A7
330
5A4
100
AcDbEntity
  8
\U+838C\U+8343\U+8384\U+815B_1
100
AcDbVertex
100
AcDb2dVertex
 10
100.9003010815458
 20
-236.7304252880396
 30
0.0
  0
VERTEX
  5
5A8
330
5A4
100
AcDbEntity
  8
\U+838C\U+8343\U+8384\U+815B_1
100
AcDbVertex
100
AcDb2dVertex
 10
101.7774223920904
 20
-237.1204100969699
 30
0.0
  0
VERTEX
  5
5A9
330
5A4
100
AcDbEntity
  8
\U+838C\U+8343\U+8384\U+815B_1
100
AcDbVertex
100
AcDb2dVertex
 10
102.6547159574092
 20
-237.3705240291991
 30
0.0
  0
VERTEX
  5
5AA
330
5A4
100
AcDbEntity
  8
\U+838C\U+8343\U+8384\U+815B_1
100
AcDbVertex
100
AcDb2dVertex
 10
103.3787027736345
 20
-237.6075465985842
 30
0.0
  0
VERTEX
  5
5AB
330
5A4
100
AcDbEntity
  8
\U+838C\U+8343\U+8384\U+815B_1
100
AcDbVertex
100
AcDb2dVertex
 10
104.0193182791167
 20
-237.6909179093273
 30
0.0
  0
SEQEND
  5
5AC
330
5A4
100
AcDbEntity
  8
\U+838C\U+8343\U+8384\U+815B_1
  0
POLYLINE
  5
5AD
330
3C
100
AcDbEntity
  8
\U+838C\U+8343\U+8384\U+815B_1
100
AcDb2dPolyline
 66
     1
 10
0.0
 20
0.0
 30
0.0
  0
VERTEX
  5
5AE
330
5AD
100
AcDbEntity
  8
\U+838C\U+8343\U+8384\U+815B_1
100
AcDbVertex
100
AcDb2dVertex
 10
104.0193182791167
 20
-237.6909179093273
 30
0.0
  0
VERTEX
  5
5AF
330
5AD
100
AcDbEntity
  8
\U+838C\U+8343\U+8384\U+815B_1
100
AcDbVertex
100
AcDb2dVertex
 10
104.5901706010226
 20
-237.6909179093273
 30
0.0
  0
SEQEND
  5
5B0
330
5AD
100
AcDbEntity
  8
\U+838C\U+8343\U+8384\U+815B_1
  0
POLYLINE
  5
5B1
330
3C
100
AcDbEntity
  8
\U+838C\U+8343\U+8384\U+815B_1
100
AcDb2dPolyline
 66
     1
 10
0.0
 20
0.0
 30
0.0
  0
VERTEX
  5
5B2
330
5B1
100
AcDbEntity
  8
\U+838C\U+8343\U+8384\U+815B_1
100
AcDbVertex
100
AcDb2dVertex
 10
104.5901706010226
 20
-237.6909179093273
 30
0.0
  0
VERTEX
  5
5B3
330
5B1
100
AcDbEntity
  8
\U+838C\U+8343\U+8384\U+815B_1
100
AcDbVertex
100
AcDb2dVertex
 10
104.9103922263766
 20
-237.6909179093273
 30
0.0
  0
VERTEX
  5
5B4
330
5B1
100
AcDbEntity
  8
\U+838C\U+8343\U+8384\U+815B_1
100
AcDbVertex
100
AcDb2dVertex
 10
105.0635267206959
 20
-237.6909179093273
 30
0.0
  0
VERTEX
  5
5B5
330
5B1
100
AcDbEntity
  8
\U+838C\U+8343\U+8384\U+815B_1
100
AcDbVertex
100
AcDb2dVertex
 10
105.1470702862132
 20
-237.6909179093273
 30
0.0
  0
SEQEND
  5
5B6
330
5B1
100
AcDbEntity
  8
\U+838C\U+8343\U+8384\U+815B_1
  0
POLYLINE
  5
5B7
330
3C
100
AcDbEntity
  8
\U+838C\U+8343\U+8384\U+815B_1
100
AcDb2dPolyline
 66
     1
 10
0.0
 20
0.0
 30
0.0
  0
VERTEX
  5
5B8
330
5B7
100
AcDbEntity
  8
\U+838C\U+8343\U+8384\U+815B_1
100
AcDbVertex
100
AcDb2dVertex
 10
105.1470702862132
 20
-237.6909179093273
 30
0.0
  0
VERTEX
  5
5B9
330
5B7
100
AcDbEntity
  8
\U+838C\U+8343\U+8384\U+815B_1
100
AcDbVertex
100
AcDb2dVertex
 10
105.2307861065048
 20
-237.6909179093273
 30
0.0
  0
VERTEX
  5
5BA
330
5B7
100
AcDbEntity
  8
\U+838C\U+8343\U+8384\U+815B_1
100
AcDbVertex
100
AcDb2dVertex
 10
105.3003770353069
 20
-237.6909179093273
 30
0.0
  0
VERTEX
  5
5BB
330
5B7
100
AcDbEntity
  8
\U+838C\U+8343\U+8384\U+815B_1
100
AcDbVertex
100
AcDb2dVertex
 10
105.7041422261781
 20
-237.6909179093273
 30
0.0
  0
VERTEX
  5
5BC
330
5B7
100
AcDbEntity
  8
\U+838C\U+8343\U+8384\U+815B_1
100
AcDbVertex
100
AcDb2dVertex
 10
106.1912787277925
 20
-237.6909179093273
 30
0.0
  0
VERTEX
  5
5BD
330
5B7
100
AcDbEntity
  8
\U+838C\U+8343\U+8384\U+815B_1
100
AcDbVertex
100
AcDb2dVertex
 10
106.985028727594
 20
-237.5241752878412
 30
0.0
  0
VERTEX
  5
5BE
330
5B7
100
AcDbEntity
  8
\U+838C\U+8343\U+8384\U+815B_1
100
AcDbVertex
100
AcDb2dVertex
 10
107.9458658584302
 20
-237.287152718456
 30
0.0
  0
VERTEX
  5
5BF
330
5B7
100
AcDbEntity
  8
\U+838C\U+8343\U+8384\U+815B_1
100
AcDbVertex
100
AcDb2dVertex
 10
109.157161431044
 20
-236.8000162168417
 30
0.0
  0
VERTEX
  5
5C0
330
5B7
100
AcDbEntity
  8
\U+838C\U+8343\U+8384\U+815B_1
100
AcDbVertex
100
AcDb2dVertex
 10
110.3546766217169
 20
-236.1592284565852
 30
0.0
  0
VERTEX
  5
5C1
330
5B7
100
AcDbEntity
  8
\U+838C\U+8343\U+8384\U+815B_1
100
AcDbVertex
100
AcDb2dVertex
 10
110.9255289436228
 20
-235.6858723369119
 30
0.0
  0
SEQEND
  5
5C2
330
5B7
100
AcDbEntity
  8
\U+838C\U+8343\U+8384\U+815B_1
  0
POLYLINE
  5
5C3
330
3C
100
AcDbEntity
  8
\U+838C\U+8343\U+8384\U+815B_1
100
AcDb2dPolyline
 66
     1
 10
0.0
 20
0.0
 30
0.0
  0
VERTEX
  5
5C4
330
5C3
100
AcDbEntity
  8
\U+838C\U+8343\U+8384\U+815B_1
100
AcDbVertex
100
AcDb2dVertex
 10
105.1470702862132
 20
-237.6909179093273
 30
0.0
  0
VERTEX
  5
5C5
330
5C3
100
AcDbEntity
  8
\U+838C\U+8343\U+8384\U+815B_1
100
AcDbVertex
100
AcDb2dVertex
 10
105.1749755596438
 20
-237.6909179093273
 30
0.0
  0
SEQEND
  5
5C6
330
5C3
100
AcDbEntity
  8
\U+838C\U+8343\U+8384\U+815B_1
  0
POLYLINE
  5
5C7
330
3C
100
AcDbEntity
  8
\U+838C\U+8343\U+8384\U+815B_1
100
AcDb2dPolyline
 66
     1
 10
0.0
 20
0.0
 30
0.0
  0
VERTEX
  5
5C8
330
5C7
100
AcDbEntity
  8
\U+838C\U+8343\U+8384\U+815B_1
100
AcDbVertex
100
AcDb2dVertex
 10
95.99896373468081
 20
-232.5529025026257
 30
0.0
  0
VERTEX
  5
5C9
330
5C7
100
AcDbEntity
  8
\U+838C\U+8343\U+8384\U+815B_1
100
AcDbVertex
100
AcDb2dVertex
 10
96.24959443123275
 20
-232.956667693497
 30
0.0
  0
VERTEX
  5
5CA
330
5C7
100
AcDbEntity
  8
\U+838C\U+8343\U+8384\U+815B_1
100
AcDbVertex
100
AcDb2dVertex
 10
96.56981605658672
 20
-233.3604328843682
 30
0.0
  0
VERTEX
  5
5CB
330
5C7
100
AcDbEntity
  8
\U+838C\U+8343\U+8384\U+815B_1
100
AcDbVertex
100
AcDb2dVertex
 10
96.95962861074274
 20
-233.7641980752395
 30
0.0
  0
VERTEX
  5
5CC
330
5C7
100
AcDbEntity
  8
\U+838C\U+8343\U+8384\U+815B_1
100
AcDbVertex
100
AcDb2dVertex
 10
97.36339380161402
 20
-234.0845919553678
 30
0.0
  0
VERTEX
  5
5CD
330
5C7
100
AcDbEntity
  8
\U+838C\U+8343\U+8384\U+815B_1
100
AcDbVertex
100
AcDb2dVertex
 10
97.85087481277687
 20
-234.3216145247529
 30
0.0
  0
VERTEX
  5
5CE
330
5C7
100
AcDbEntity
  8
\U+838C\U+8343\U+8384\U+815B_1
100
AcDbVertex
100
AcDb2dVertex
 10
98.25464000364815
 20
-234.5579480750411
 30
0.0
  0
VERTEX
  5
5CF
330
5C7
100
AcDbEntity
  8
\U+838C\U+8343\U+8384\U+815B_1
100
AcDbVertex
100
AcDb2dVertex
 10
98.72799612332147
 20
-234.7253797156242
 30
0.0
  0
VERTEX
  5
5D0
330
5C7
100
AcDbEntity
  8
\U+838C\U+8343\U+8384\U+815B_1
100
AcDbVertex
100
AcDb2dVertex
 10
99.21530487971006
 20
-234.8783419551693
 30
0.0
  0
SEQEND
  5
5D1
330
5C7
100
AcDbEntity
  8
\U+838C\U+8343\U+8384\U+815B_1
  0
POLYLINE
  5
5D2
330
3C
100
AcDbEntity
  8
\U+838C\U+8343\U+8384\U+815B_1
100
AcDb2dPolyline
 66
     1
 10
0.0
 20
0.0
 30
0.0
  0
VERTEX
  5
5D3
330
5D2
100
AcDbEntity
  8
\U+838C\U+8343\U+8384\U+815B_1
100
AcDbVertex
100
AcDb2dVertex
 10
110.9951198724248
 20
-234.8783419551693
 30
0.0
  0
VERTEX
  5
5D4
330
5D2
100
AcDbEntity
  8
\U+838C\U+8343\U+8384\U+815B_1
100
AcDbVertex
100
AcDb2dVertex
 10
111.4826008835877
 20
-234.7253797156242
 30
0.0
  0
VERTEX
  5
5D5
330
5D2
100
AcDbEntity
  8
\U+838C\U+8343\U+8384\U+815B_1
100
AcDbVertex
100
AcDb2dVertex
 10
111.955957003261
 20
-234.5579480750411
 30
0.0
  0
VERTEX
  5
5D6
330
5D2
100
AcDbEntity
  8
\U+838C\U+8343\U+8384\U+815B_1
100
AcDbVertex
100
AcDb2dVertex
 10
112.4434380144239
 20
-234.3216145247529
 30
0.0
  0
VERTEX
  5
5D7
330
5D2
100
AcDbEntity
  8
\U+838C\U+8343\U+8384\U+815B_1
100
AcDbVertex
100
AcDb2dVertex
 10
112.8472032052951
 20
-234.0845919553678
 30
0.0
  0
VERTEX
  5
5D8
330
5D2
100
AcDbEntity
  8
\U+838C\U+8343\U+8384\U+815B_1
100
AcDbVertex
100
AcDb2dVertex
 10
113.3205593249685
 20
-233.7641980752395
 30
0.0
  0
VERTEX
  5
5D9
330
5D2
100
AcDbEntity
  8
\U+838C\U+8343\U+8384\U+815B_1
100
AcDbVertex
100
AcDb2dVertex
 10
113.6409532050967
 20
-233.3604328843682
 30
0.0
  0
VERTEX
  5
5DA
330
5D2
100
AcDbEntity
  8
\U+838C\U+8343\U+8384\U+815B_1
100
AcDbVertex
100
AcDb2dVertex
 10
113.9610025756764
 20
-232.956667693497
 30
0.0
  0
VERTEX
  5
5DB
330
5D2
100
AcDbEntity
  8
\U+838C\U+8343\U+8384\U+815B_1
100
AcDbVertex
100
AcDb2dVertex
 10
114.2813964558047
 20
-232.5529025026257
 30
0.0
  0
SEQEND
  5
5DC
330
5D2
100
AcDbEntity
  8
\U+838C\U+8343\U+8384\U+815B_1
  0
POLYLINE
  5
5DD
330
3C
100
AcDbEntity
  8
\U+838C\U+8343\U+8384\U+815B_1
100
AcDb2dPolyline
 66
     1
 10
0.0
 20
0.0
 30
0.0
  0
VERTEX
  5
5DE
330
5DD
100
AcDbEntity
  8
\U+838C\U+8343\U+8384\U+815B_1
100
AcDbVertex
100
AcDb2dVertex
 10
90.23428545921226
 20
-214.2704697815018
 30
0.0
  0
VERTEX
  5
5DF
330
5DD
100
AcDbEntity
  8
\U+838C\U+8343\U+8384\U+815B_1
100
AcDbVertex
100
AcDb2dVertex
 10
90.30387638801432
 20
-214.4372124029879
 30
0.0
  0
SEQEND
  5
5E0
330
5DD
100
AcDbEntity
  8
\U+838C\U+8343\U+8384\U+815B_1
  0
POLYLINE
  5
5E1
330
3C
100
AcDbEntity
  8
\U+838C\U+8343\U+8384\U+815B_1
100
AcDb2dPolyline
 66
     1
 10
0.0
 20
0.0
 30
0.0
  0
VERTEX
  5
5E2
330
5E1
100
AcDbEntity
  8
\U+838C\U+8343\U+8384\U+815B_1
100
AcDbVertex
100
AcDb2dVertex
 10
119.5864989935409
 20
-214.0334472121166
 30
0.0
  0
VERTEX
  5
5E3
330
5E1
100
AcDbEntity
  8
\U+838C\U+8343\U+8384\U+815B_1
100
AcDbVertex
100
AcDb2dVertex
 10
119.6560899223429
 20
-214.0334472121166
 30
0.0
  0
VERTEX
  5
5E4
330
5E1
100
AcDbEntity
  8
\U+838C\U+8343\U+8384\U+815B_1
100
AcDbVertex
100
AcDb2dVertex
 10
119.7398057426345
 20
-213.9500759013736
 30
0.0
  0
VERTEX
  5
5E5
330
5E1
100
AcDbEntity
  8
\U+838C\U+8343\U+8384\U+815B_1
100
AcDbVertex
100
AcDb2dVertex
 10
119.8231770533775
 20
-213.9500759013736
 30
0.0
  0
VERTEX
  5
5E6
330
5E1
100
AcDbEntity
  8
\U+838C\U+8343\U+8384\U+815B_1
100
AcDbVertex
100
AcDb2dVertex
 10
119.9068928736691
 20
-213.8667045906305
 30
0.0
  0
VERTEX
  5
5E7
330
5E1
100
AcDbEntity
  8
\U+838C\U+8343\U+8384\U+815B_1
100
AcDbVertex
100
AcDb2dVertex
 10
119.9764838024712
 20
-213.7971136618285
 30
0.0
  0
VERTEX
  5
5E8
330
5E1
100
AcDbEntity
  8
\U+838C\U+8343\U+8384\U+815B_1
100
AcDbVertex
100
AcDb2dVertex
 10
119.9764838024712
 20
-213.7130533319884
 30
0.0
  0
VERTEX
  5
5E9
330
5E1
100
AcDbEntity
  8
\U+838C\U+8343\U+8384\U+815B_1
100
AcDbVertex
100
AcDb2dVertex
 10
119.9764838024712
 20
-213.6296820212454
 30
0.0
  0
VERTEX
  5
5EA
330
5E1
100
AcDbEntity
  8
\U+838C\U+8343\U+8384\U+815B_1
100
AcDbVertex
100
AcDb2dVertex
 10
119.9764838024712
 20
-213.5463107105023
 30
0.0
  0
SEQEND
  5
5EB
330
5E1
100
AcDbEntity
  8
\U+838C\U+8343\U+8384\U+815B_1
  0
POLYLINE
  5
5EC
330
3C
100
AcDbEntity
  8
\U+838C\U+8343\U+8384\U+815B_1
100
AcDb2dPolyline
 66
     1
 10
0.0
 20
0.0
 30
0.0
  0
VERTEX
  5
5ED
330
5EC
100
AcDbEntity
  8
\U+838C\U+8343\U+8384\U+815B_1
100
AcDbVertex
100
AcDb2dVertex
 10
91.51534421540242
 20
-229.7541069304087
 30
0.0
  0
VERTEX
  5
5EE
330
5EC
100
AcDbEntity
  8
\U+838C\U+8343\U+8384\U+815B_1
100
AcDbVertex
100
AcDb2dVertex
 10
91.83556584075639
 20
-230.227463050082
 30
0.0
  0
VERTEX
  5
5EF
330
5EC
100
AcDbEntity
  8
\U+838C\U+8343\U+8384\U+815B_1
100
AcDbVertex
100
AcDb2dVertex
 10
92.23933103162767
 20
-230.7145995516964
 30
0.0
  0
VERTEX
  5
5F0
330
5EC
100
AcDbEntity
  8
\U+838C\U+8343\U+8384\U+815B_1
100
AcDbVertex
100
AcDb2dVertex
 10
92.6291435857837
 20
-231.1886446904667
 30
0.0
  0
VERTEX
  5
5F1
330
5EC
100
AcDbEntity
  8
\U+838C\U+8343\U+8384\U+815B_1
100
AcDbVertex
100
AcDb2dVertex
 10
93.11662459694654
 20
-231.5083495514979
 30
0.0
  0
VERTEX
  5
5F2
330
5EC
100
AcDbEntity
  8
\U+838C\U+8343\U+8384\U+815B_1
100
AcDbVertex
100
AcDb2dVertex
 10
93.67352428213718
 20
-231.9121147423692
 30
0.0
  0
VERTEX
  5
5F3
330
5EC
100
AcDbEntity
  8
\U+838C\U+8343\U+8384\U+815B_1
100
AcDbVertex
100
AcDb2dVertex
 10
94.24437660404308
 20
-232.1491373117544
 30
0.0
  0
VERTEX
  5
5F4
330
5EC
100
AcDbEntity
  8
\U+838C\U+8343\U+8384\U+815B_1
100
AcDbVertex
100
AcDb2dVertex
 10
94.80144854400798
 20
-232.3999402630806
 30
0.0
  0
VERTEX
  5
5F5
330
5EC
100
AcDbEntity
  8
\U+838C\U+8343\U+8384\U+815B_1
100
AcDbVertex
100
AcDb2dVertex
 10
95.35834822919861
 20
-232.5529025026257
 30
0.0
  0
SEQEND
  5
5F6
330
5EC
100
AcDbEntity
  8
\U+838C\U+8343\U+8384\U+815B_1
  0
POLYLINE
  5
5F7
330
3C
100
AcDbEntity
  8
\U+838C\U+8343\U+8384\U+815B_1
100
AcDb2dPolyline
 66
     1
 10
0.0
 20
0.0
 30
0.0
  0
VERTEX
  5
5F8
330
5F7
100
AcDbEntity
  8
\U+838C\U+8343\U+8384\U+815B_1
100
AcDbVertex
100
AcDb2dVertex
 10
114.8522487777106
 20
-232.5529025026257
 30
0.0
  0
VERTEX
  5
5F9
330
5F7
100
AcDbEntity
  8
\U+838C\U+8343\U+8384\U+815B_1
100
AcDbVertex
100
AcDb2dVertex
 10
115.4926920284185
 20
-232.3999402630806
 30
0.0
  0
VERTEX
  5
5FA
330
5F7
100
AcDbEntity
  8
\U+838C\U+8343\U+8384\U+815B_1
100
AcDbVertex
100
AcDb2dVertex
 10
116.0497639683834
 20
-232.1491373117544
 30
0.0
  0
VERTEX
  5
5FB
330
5F7
100
AcDbEntity
  8
\U+838C\U+8343\U+8384\U+815B_1
100
AcDbVertex
100
AcDb2dVertex
 10
116.6068359083483
 20
-231.9121147423692
 30
0.0
  0
VERTEX
  5
5FC
330
5F7
100
AcDbEntity
  8
\U+838C\U+8343\U+8384\U+815B_1
100
AcDbVertex
100
AcDb2dVertex
 10
117.0939724099626
 20
-231.5083495514979
 30
0.0
  0
VERTEX
  5
5FD
330
5F7
100
AcDbEntity
  8
\U+838C\U+8343\U+8384\U+815B_1
100
AcDbVertex
100
AcDb2dVertex
 10
117.5814534211255
 20
-231.1886446904667
 30
0.0
  0
VERTEX
  5
5FE
330
5F7
100
AcDbEntity
  8
\U+838C\U+8343\U+8384\U+815B_1
100
AcDbVertex
100
AcDb2dVertex
 10
118.0548095407988
 20
-230.7145995516964
 30
0.0
  0
VERTEX
  5
5FF
330
5F7
100
AcDbEntity
  8
\U+838C\U+8343\U+8384\U+815B_1
100
AcDbVertex
100
AcDb2dVertex
 10
118.4585747316701
 20
-230.227463050082
 30
0.0
  0
VERTEX
  5
600
330
5F7
100
AcDbEntity
  8
\U+838C\U+8343\U+8384\U+815B_1
100
AcDbVertex
100
AcDb2dVertex
 10
118.7789686117983
 20
-229.7541069304087
 30
0.0
  0
SEQEND
  5
601
330
5F7
100
AcDbEntity
  8
\U+838C\U+8343\U+8384\U+815B_1
  0
POLYLINE
  5
602
330
3C
100
AcDbEntity
  8
\U+838C\U+8343\U+8384\U+815B_1
100
AcDb2dPolyline
 66
     1
 10
0.0
 20
0.0
 30
0.0
  0
VERTEX
  5
603
330
602
100
AcDbEntity
  8
\U+838C\U+8343\U+8384\U+815B_1
100
AcDbVertex
100
AcDb2dVertex
 10
119.5031276827978
 20
-214.0334472121166
 30
0.0
  0
VERTEX
  5
604
330
602
100
AcDbEntity
  8
\U+838C\U+8343\U+8384\U+815B_1
100
AcDbVertex
100
AcDb2dVertex
 10
119.3360405517632
 20
-214.0334472121166
 30
0.0
  0
VERTEX
  5
605
330
602
100
AcDbEntity
  8
\U+838C\U+8343\U+8384\U+815B_1
100
AcDbVertex
100
AcDb2dVertex
 10
119.1827338026696
 20
-214.1168185228597
 30
0.0
  0
VERTEX
  5
606
330
602
100
AcDbEntity
  8
\U+838C\U+8343\U+8384\U+815B_1
100
AcDbVertex
100
AcDb2dVertex
 10
119.099017982378
 20
-214.2008788526998
 30
0.0
  0
VERTEX
  5
607
330
602
100
AcDbEntity
  8
\U+838C\U+8343\U+8384\U+815B_1
100
AcDbVertex
100
AcDb2dVertex
 10
119.015646671635
 20
-214.3538410922449
 30
0.0
  0
VERTEX
  5
608
330
602
100
AcDbEntity
  8
\U+838C\U+8343\U+8384\U+815B_1
100
AcDbVertex
100
AcDb2dVertex
 10
118.9460557428329
 20
-214.520583713731
 30
0.0
  0
VERTEX
  5
609
330
602
100
AcDbEntity
  8
\U+838C\U+8343\U+8384\U+815B_1
100
AcDbVertex
100
AcDb2dVertex
 10
118.9460557428329
 20
-214.6742349723731
 30
0.0
  0
VERTEX
  5
60A
330
602
100
AcDbEntity
  8
\U+838C\U+8343\U+8384\U+815B_1
100
AcDbVertex
100
AcDb2dVertex
 10
119.015646671635
 20
-214.8409775938592
 30
0.0
  0
VERTEX
  5
60B
330
602
100
AcDbEntity
  8
\U+838C\U+8343\U+8384\U+815B_1
100
AcDbVertex
100
AcDb2dVertex
 10
119.099017982378
 20
-214.9939398334043
 30
0.0
  0
SEQEND
  5
60C
330
602
100
AcDbEntity
  8
\U+838C\U+8343\U+8384\U+815B_1
  0
POLYLINE
  5
60D
330
3C
100
AcDbEntity
  8
\U+838C\U+8343\U+8384\U+815B_1
100
AcDb2dPolyline
 66
     1
 10
0.0
 20
0.0
 30
0.0
  0
VERTEX
  5
60E
330
60D
100
AcDbEntity
  8
\U+838C\U+8343\U+8384\U+815B_1
100
AcDbVertex
100
AcDb2dVertex
 10
90.7076415788856
 20
-227.261924856379
 30
0.0
  0
VERTEX
  5
60F
330
60D
100
AcDbEntity
  8
\U+838C\U+8343\U+8384\U+815B_1
100
AcDbVertex
100
AcDb2dVertex
 10
91.02786320423957
 20
-227.4286674778651
 30
0.0
  0
VERTEX
  5
610
330
60D
100
AcDbEntity
  8
\U+838C\U+8343\U+8384\U+815B_1
100
AcDbVertex
100
AcDb2dVertex
 10
91.3482570843678
 20
-227.7490613579933
 30
0.0
  0
VERTEX
  5
611
330
60D
100
AcDbEntity
  8
\U+838C\U+8343\U+8384\U+815B_1
100
AcDbVertex
100
AcDb2dVertex
 10
91.4318006498851
 20
-227.9860839273785
 30
0.0
  0
VERTEX
  5
612
330
60D
100
AcDbEntity
  8
\U+838C\U+8343\U+8384\U+815B_1
100
AcDbVertex
100
AcDb2dVertex
 10
91.51534421540242
 20
-228.3898491182498
 30
0.0
  0
VERTEX
  5
613
330
60D
100
AcDbEntity
  8
\U+838C\U+8343\U+8384\U+815B_1
100
AcDbVertex
100
AcDb2dVertex
 10
91.51534421540242
 20
-228.709553979281
 30
0.0
  0
VERTEX
  5
614
330
60D
100
AcDbEntity
  8
\U+838C\U+8343\U+8384\U+815B_1
100
AcDbVertex
100
AcDb2dVertex
 10
91.4318006498851
 20
-229.0299478594092
 30
0.0
  0
VERTEX
  5
615
330
60D
100
AcDbEntity
  8
\U+838C\U+8343\U+8384\U+815B_1
100
AcDbVertex
100
AcDb2dVertex
 10
91.11140676975687
 20
-229.4337130502805
 30
0.0
  0
VERTEX
  5
616
330
60D
100
AcDbEntity
  8
\U+838C\U+8343\U+8384\U+815B_1
100
AcDbVertex
100
AcDb2dVertex
 10
90.7911851444029
 20
-229.6707356196657
 30
0.0
  0
SEQEND
  5
617
330
60D
100
AcDbEntity
  8
\U+838C\U+8343\U+8384\U+815B_1
  0
POLYLINE
  5
618
330
3C
100
AcDbEntity
  8
\U+838C\U+8343\U+8384\U+815B_1
100
AcDb2dPolyline
 66
     1
 10
0.0
 20
0.0
 30
0.0
  0
VERTEX
  5
619
330
618
100
AcDbEntity
  8
\U+838C\U+8343\U+8384\U+815B_1
100
AcDbVertex
100
AcDb2dVertex
 10
90.7911851444029
 20
-223.1677733817081
 30
0.0
  0
VERTEX
  5
61A
330
618
100
AcDbEntity
  8
\U+838C\U+8343\U+8384\U+815B_1
100
AcDbVertex
100
AcDb2dVertex
 10
91.02786320423957
 20
-223.3352050222912
 30
0.0
  0
VERTEX
  5
61B
330
618
100
AcDbEntity
  8
\U+838C\U+8343\U+8384\U+815B_1
100
AcDbVertex
100
AcDb2dVertex
 10
91.3482570843678
 20
-223.6555989024195
 30
0.0
  0
VERTEX
  5
61C
330
618
100
AcDbEntity
  8
\U+838C\U+8343\U+8384\U+815B_1
100
AcDbVertex
100
AcDb2dVertex
 10
91.4318006498851
 20
-223.8919324527076
 30
0.0
  0
VERTEX
  5
61D
330
618
100
AcDbEntity
  8
\U+838C\U+8343\U+8384\U+815B_1
100
AcDbVertex
100
AcDb2dVertex
 10
91.51534421540242
 20
-224.2956976435789
 30
0.0
  0
VERTEX
  5
61E
330
618
100
AcDbEntity
  8
\U+838C\U+8343\U+8384\U+815B_1
100
AcDbVertex
100
AcDb2dVertex
 10
91.51534421540242
 20
-224.5327202129641
 30
0.0
  0
VERTEX
  5
61F
330
618
100
AcDbEntity
  8
\U+838C\U+8343\U+8384\U+815B_1
100
AcDbVertex
100
AcDb2dVertex
 10
91.4318006498851
 20
-224.9364854038353
 30
0.0
  0
VERTEX
  5
620
330
618
100
AcDbEntity
  8
\U+838C\U+8343\U+8384\U+815B_1
100
AcDbVertex
100
AcDb2dVertex
 10
91.11140676975687
 20
-225.3402505947066
 30
0.0
  0
VERTEX
  5
621
330
618
100
AcDbEntity
  8
\U+838C\U+8343\U+8384\U+815B_1
100
AcDbVertex
100
AcDb2dVertex
 10
90.7911851444029
 20
-225.5765841449947
 30
0.0
  0
SEQEND
  5
622
330
618
100
AcDbEntity
  8
\U+838C\U+8343\U+8384\U+815B_1
  0
POLYLINE
  5
623
330
3C
100
AcDbEntity
  8
\U+838C\U+8343\U+8384\U+815B_1
100
AcDb2dPolyline
 66
     1
 10
0.0
 20
0.0
 30
0.0
  0
VERTEX
  5
624
330
623
100
AcDbEntity
  8
\U+838C\U+8343\U+8384\U+815B_1
100
AcDbVertex
100
AcDb2dVertex
 10
90.7911851444029
 20
-219.0880913080752
 30
0.0
  0
VERTEX
  5
625
330
623
100
AcDbEntity
  8
\U+838C\U+8343\U+8384\U+815B_1
100
AcDbVertex
100
AcDb2dVertex
 10
91.02786320423957
 20
-219.2410535476203
 30
0.0
  0
VERTEX
  5
626
330
623
100
AcDbEntity
  8
\U+838C\U+8343\U+8384\U+815B_1
100
AcDbVertex
100
AcDb2dVertex
 10
91.3482570843678
 20
-219.4918564989465
 30
0.0
  0
VERTEX
  5
627
330
623
100
AcDbEntity
  8
\U+838C\U+8343\U+8384\U+815B_1
100
AcDbVertex
100
AcDb2dVertex
 10
91.51534421540242
 20
-219.8122503790747
 30
0.0
  0
VERTEX
  5
628
330
623
100
AcDbEntity
  8
\U+838C\U+8343\U+8384\U+815B_1
100
AcDbVertex
100
AcDb2dVertex
 10
91.51534421540242
 20
-220.0485839293629
 30
0.0
  0
VERTEX
  5
629
330
623
100
AcDbEntity
  8
\U+838C\U+8343\U+8384\U+815B_1
100
AcDbVertex
100
AcDb2dVertex
 10
91.51534421540242
 20
-220.3689778094911
 30
0.0
  0
VERTEX
  5
62A
330
623
100
AcDbEntity
  8
\U+838C\U+8343\U+8384\U+815B_1
100
AcDbVertex
100
AcDb2dVertex
 10
91.4318006498851
 20
-220.8561143111054
 30
0.0
  0
VERTEX
  5
62B
330
623
100
AcDbEntity
  8
\U+838C\U+8343\U+8384\U+815B_1
100
AcDbVertex
100
AcDb2dVertex
 10
91.11140676975687
 20
-221.1627278092926
 30
0.0
  0
VERTEX
  5
62C
330
623
100
AcDbEntity
  8
\U+838C\U+8343\U+8384\U+815B_1
100
AcDbVertex
100
AcDb2dVertex
 10
90.7911851444029
 20
-221.4135307606188
 30
0.0
  0
SEQEND
  5
62D
330
623
100
AcDbEntity
  8
\U+838C\U+8343\U+8384\U+815B_1
  0
POLYLINE
  5
62E
330
3C
100
AcDbEntity
  8
\U+838C\U+8343\U+8384\U+815B_1
100
AcDb2dPolyline
 66
     1
 10
0.0
 20
0.0
 30
0.0
  0
VERTEX
  5
62F
330
62E
100
AcDbEntity
  8
\U+838C\U+8343\U+8384\U+815B_1
100
AcDbVertex
100
AcDb2dVertex
 10
90.7911851444029
 20
-214.9105685226613
 30
0.0
  0
VERTEX
  5
630
330
62E
100
AcDbEntity
  8
\U+838C\U+8343\U+8384\U+815B_1
100
AcDbVertex
100
AcDb2dVertex
 10
91.11140676975687
 20
-215.1613714739875
 30
0.0
  0
VERTEX
  5
631
330
62E
100
AcDbEntity
  8
\U+838C\U+8343\U+8384\U+815B_1
100
AcDbVertex
100
AcDb2dVertex
 10
91.4318006498851
 20
-215.5513562829177
 30
0.0
  0
VERTEX
  5
632
330
62E
100
AcDbEntity
  8
\U+838C\U+8343\U+8384\U+815B_1
100
AcDbVertex
100
AcDb2dVertex
 10
91.51534421540242
 20
-215.955121473789
 30
0.0
  0
VERTEX
  5
633
330
62E
100
AcDbEntity
  8
\U+838C\U+8343\U+8384\U+815B_1
100
AcDbVertex
100
AcDb2dVertex
 10
91.51534421540242
 20
-216.2059244251152
 30
0.0
  0
VERTEX
  5
634
330
62E
100
AcDbEntity
  8
\U+838C\U+8343\U+8384\U+815B_1
100
AcDbVertex
100
AcDb2dVertex
 10
91.4318006498851
 20
-216.5959092340455
 30
0.0
  0
VERTEX
  5
635
330
62E
100
AcDbEntity
  8
\U+838C\U+8343\U+8384\U+815B_1
100
AcDbVertex
100
AcDb2dVertex
 10
91.3482570843678
 20
-216.8460231662746
 30
0.0
  0
VERTEX
  5
636
330
62E
100
AcDbEntity
  8
\U+838C\U+8343\U+8384\U+815B_1
100
AcDbVertex
100
AcDb2dVertex
 10
91.02786320423957
 20
-217.1664170464028
 30
0.0
  0
VERTEX
  5
637
330
62E
100
AcDbEntity
  8
\U+838C\U+8343\U+8384\U+815B_1
100
AcDbVertex
100
AcDb2dVertex
 10
90.7076415788856
 20
-217.3193792859479
 30
0.0
  0
SEQEND
  5
638
330
62E
100
AcDbEntity
  8
\U+838C\U+8343\U+8384\U+815B_1
  0
POLYLINE
  5
639
330
3C
100
AcDbEntity
  8
\U+838C\U+8343\U+8384\U+815B_1
100
AcDb2dPolyline
 66
     1
 10
0.0
 20
0.0
 30
0.0
  0
VERTEX
  5
63A
330
639
100
AcDbEntity
  8
\U+838C\U+8343\U+8384\U+815B_1
100
AcDbVertex
100
AcDb2dVertex
 10
119.5864989935409
 20
-215.2309624027895
 30
0.0
  0
VERTEX
  5
63B
330
639
100
AcDbEntity
  8
\U+838C\U+8343\U+8384\U+815B_1
100
AcDbVertex
100
AcDb2dVertex
 10
119.1827338026696
 20
-215.0780001632444
 30
0.0
  0
VERTEX
  5
63C
330
639
100
AcDbEntity
  8
\U+838C\U+8343\U+8384\U+815B_1
100
AcDbVertex
100
AcDb2dVertex
 10
119.099017982378
 20
-214.9939398334043
 30
0.0
  0
SEQEND
  5
63D
330
639
100
AcDbEntity
  8
\U+838C\U+8343\U+8384\U+815B_1
  0
POLYLINE
  5
63E
330
3C
100
AcDbEntity
  8
\U+838C\U+8343\U+8384\U+815B_1
100
AcDb2dPolyline
 66
     1
 10
0.0
 20
0.0
 30
0.0
  0
VERTEX
  5
63F
330
63E
100
AcDbEntity
  8
\U+838C\U+8343\U+8384\U+815B_1
100
AcDbVertex
100
AcDb2dVertex
 10
119.5031276827978
 20
-219.4084851882035
 30
0.0
  0
VERTEX
  5
640
330
63E
100
AcDbEntity
  8
\U+838C\U+8343\U+8384\U+815B_1
100
AcDbVertex
100
AcDb2dVertex
 10
119.099017982378
 20
-219.1714626188183
 30
0.0
  0
VERTEX
  5
641
330
63E
100
AcDbEntity
  8
\U+838C\U+8343\U+8384\U+815B_1
100
AcDbVertex
100
AcDb2dVertex
 10
118.8623399225414
 20
-218.767697427947
 30
0.0
  0
VERTEX
  5
642
330
63E
100
AcDbEntity
  8
\U+838C\U+8343\U+8384\U+815B_1
100
AcDbVertex
100
AcDb2dVertex
 10
118.6952527915067
 20
-218.3639322370757
 30
0.0
  0
VERTEX
  5
643
330
63E
100
AcDbEntity
  8
\U+838C\U+8343\U+8384\U+815B_1
100
AcDbVertex
100
AcDb2dVertex
 10
118.6952527915067
 20
-218.0435383569475
 30
0.0
  0
VERTEX
  5
644
330
63E
100
AcDbEntity
  8
\U+838C\U+8343\U+8384\U+815B_1
100
AcDbVertex
100
AcDb2dVertex
 10
118.7789686117983
 20
-217.7231444768192
 30
0.0
  0
VERTEX
  5
645
330
63E
100
AcDbEntity
  8
\U+838C\U+8343\U+8384\U+815B_1
100
AcDbVertex
100
AcDb2dVertex
 10
118.9460557428329
 20
-217.4868109265311
 30
0.0
  0
VERTEX
  5
646
330
63E
100
AcDbEntity
  8
\U+838C\U+8343\U+8384\U+815B_1
100
AcDbVertex
100
AcDb2dVertex
 10
119.2664496229612
 20
-217.1664170464028
 30
0.0
  0
VERTEX
  5
647
330
63E
100
AcDbEntity
  8
\U+838C\U+8343\U+8384\U+815B_1
100
AcDbVertex
100
AcDb2dVertex
 10
119.5031276827978
 20
-216.9996744249167
 30
0.0
  0
SEQEND
  5
648
330
63E
100
AcDbEntity
  8
\U+838C\U+8343\U+8384\U+815B_1
  0
POLYLINE
  5
649
330
3C
100
AcDbEntity
  8
\U+838C\U+8343\U+8384\U+815B_1
100
AcDb2dPolyline
 66
     1
 10
0.0
 20
0.0
 30
0.0
  0
VERTEX
  5
64A
330
649
100
AcDbEntity
  8
\U+838C\U+8343\U+8384\U+815B_1
100
AcDbVertex
100
AcDb2dVertex
 10
119.5031276827978
 20
-223.4881672618363
 30
0.0
  0
VERTEX
  5
64B
330
649
100
AcDbEntity
  8
\U+838C\U+8343\U+8384\U+815B_1
100
AcDbVertex
100
AcDb2dVertex
 10
119.1827338026696
 20
-223.3352050222912
 30
0.0
  0
VERTEX
  5
64C
330
649
100
AcDbEntity
  8
\U+838C\U+8343\U+8384\U+815B_1
100
AcDbVertex
100
AcDb2dVertex
 10
118.9460557428329
 20
-223.098182452906
 30
0.0
  0
VERTEX
  5
64D
330
649
100
AcDbEntity
  8
\U+838C\U+8343\U+8384\U+815B_1
100
AcDbVertex
100
AcDb2dVertex
 10
118.8623399225414
 20
-222.8473795015798
 30
0.0
  0
VERTEX
  5
64E
330
649
100
AcDbEntity
  8
\U+838C\U+8343\U+8384\U+815B_1
100
AcDbVertex
100
AcDb2dVertex
 10
118.7789686117983
 20
-222.6944172620347
 30
0.0
  0
VERTEX
  5
64F
330
649
100
AcDbEntity
  8
\U+838C\U+8343\U+8384\U+815B_1
100
AcDbVertex
100
AcDb2dVertex
 10
118.6952527915067
 20
-222.2072807604204
 30
0.0
  0
VERTEX
  5
650
330
649
100
AcDbEntity
  8
\U+838C\U+8343\U+8384\U+815B_1
100
AcDbVertex
100
AcDb2dVertex
 10
118.7789686117983
 20
-221.8172959514901
 30
0.0
  0
VERTEX
  5
651
330
649
100
AcDbEntity
  8
\U+838C\U+8343\U+8384\U+815B_1
100
AcDbVertex
100
AcDb2dVertex
 10
118.8623399225414
 20
-221.649864310907
 30
0.0
  0
VERTEX
  5
652
330
649
100
AcDbEntity
  8
\U+838C\U+8343\U+8384\U+815B_1
100
AcDbVertex
100
AcDb2dVertex
 10
119.015646671635
 20
-221.4969020713619
 30
0.0
  0
VERTEX
  5
653
330
649
100
AcDbEntity
  8
\U+838C\U+8343\U+8384\U+815B_1
100
AcDbVertex
100
AcDb2dVertex
 10
119.5031276827978
 20
-221.0931368804906
 30
0.0
  0
SEQEND
  5
654
330
649
100
AcDbEntity
  8
\U+838C\U+8343\U+8384\U+815B_1
  0
POLYLINE
  5
655
330
3C
100
AcDbEntity
  8
\U+838C\U+8343\U+8384\U+815B_1
100
AcDb2dPolyline
 66
     1
 10
0.0
 20
0.0
 30
0.0
  0
VERTEX
  5
656
330
655
100
AcDbEntity
  8
\U+838C\U+8343\U+8384\U+815B_1
100
AcDbVertex
100
AcDb2dVertex
 10
119.5031276827978
 20
-227.5816297174102
 30
0.0
  0
VERTEX
  5
657
330
655
100
AcDbEntity
  8
\U+838C\U+8343\U+8384\U+815B_1
100
AcDbVertex
100
AcDb2dVertex
 10
119.2664496229612
 20
-227.4982584066671
 30
0.0
  0
VERTEX
  5
658
330
655
100
AcDbEntity
  8
\U+838C\U+8343\U+8384\U+815B_1
100
AcDbVertex
100
AcDb2dVertex
 10
118.9460557428329
 20
-227.1082735977368
 30
0.0
  0
VERTEX
  5
659
330
655
100
AcDbEntity
  8
\U+838C\U+8343\U+8384\U+815B_1
100
AcDbVertex
100
AcDb2dVertex
 10
118.7789686117983
 20
-226.8581596655077
 30
0.0
  0
VERTEX
  5
65A
330
655
100
AcDbEntity
  8
\U+838C\U+8343\U+8384\U+815B_1
100
AcDbVertex
100
AcDb2dVertex
 10
118.6952527915067
 20
-226.5377657853795
 30
0.0
  0
VERTEX
  5
65B
330
655
100
AcDbEntity
  8
\U+838C\U+8343\U+8384\U+815B_1
100
AcDbVertex
100
AcDb2dVertex
 10
118.6952527915067
 20
-226.2173719052512
 30
0.0
  0
VERTEX
  5
65C
330
655
100
AcDbEntity
  8
\U+838C\U+8343\U+8384\U+815B_1
100
AcDbVertex
100
AcDb2dVertex
 10
118.8623399225414
 20
-225.896978025123
 30
0.0
  0
VERTEX
  5
65D
330
655
100
AcDbEntity
  8
\U+838C\U+8343\U+8384\U+815B_1
100
AcDbVertex
100
AcDb2dVertex
 10
119.099017982378
 20
-225.4932128342517
 30
0.0
  0
VERTEX
  5
65E
330
655
100
AcDbEntity
  8
\U+838C\U+8343\U+8384\U+815B_1
100
AcDbVertex
100
AcDb2dVertex
 10
119.5031276827978
 20
-225.2568792839636
 30
0.0
  0
SEQEND
  5
65F
330
655
100
AcDbEntity
  8
\U+838C\U+8343\U+8384\U+815B_1
  0
POLYLINE
  5
660
330
3C
100
AcDbEntity
  8
\U+838C\U+8343\U+8384\U+815B_1
100
AcDb2dPolyline
 66
     1
 10
0.0
 20
0.0
 30
0.0
  0
VERTEX
  5
661
330
660
100
AcDbEntity
  8
\U+838C\U+8343\U+8384\U+815B_1
100
AcDbVertex
100
AcDb2dVertex
 10
119.015646671635
 20
-229.7541069304087
 30
0.0
  0
VERTEX
  5
662
330
660
100
AcDbEntity
  8
\U+838C\U+8343\U+8384\U+815B_1
100
AcDbVertex
100
AcDb2dVertex
 10
119.099017982378
 20
-229.5873643089226
 30
0.0
  0
VERTEX
  5
663
330
660
100
AcDbEntity
  8
\U+838C\U+8343\U+8384\U+815B_1
100
AcDbVertex
100
AcDb2dVertex
 10
119.5031276827978
 20
-229.3503417395374
 30
0.0
  0
SEQEND
  5
664
330
660
100
AcDbEntity
  8
\U+838C\U+8343\U+8384\U+815B_1
  0
POLYLINE
  5
665
330
3C
100
AcDbEntity
  8
\U+838C\U+8343\U+8384\U+815B_1
100
AcDb2dPolyline
 66
     1
 10
0.0
 20
0.0
 30
0.0
  0
VERTEX
  5
666
330
665
100
AcDbEntity
  8
\U+838C\U+8343\U+8384\U+815B_1
100
AcDbVertex
100
AcDb2dVertex
 10
90.23428545921226
 20
-208.1016818056135
 30
0.0
  0
VERTEX
  5
667
330
665
100
AcDbEntity
  8
\U+838C\U+8343\U+8384\U+815B_1
100
AcDbVertex
100
AcDb2dVertex
 10
90.23428545921226
 20
-214.2704697815018
 30
0.0
  0
SEQEND
  5
668
330
665
100
AcDbEntity
  8
\U+838C\U+8343\U+8384\U+815B_1
  0
POLYLINE
  5
669
330
3C
100
AcDbEntity
  8
\U+838C\U+8343\U+8384\U+815B_1
100
AcDb2dPolyline
 66
     1
 10
0.0
 20
0.0
 30
0.0
  0
VERTEX
  5
66A
330
669
100
AcDbEntity
  8
\U+838C\U+8343\U+8384\U+815B_1
100
AcDbVertex
100
AcDb2dVertex
 10
90.23428545921226
 20
-217.9601670462044
 30
0.0
  0
VERTEX
  5
66B
330
669
100
AcDbEntity
  8
\U+838C\U+8343\U+8384\U+815B_1
100
AcDbVertex
100
AcDb2dVertex
 10
90.23428545921226
 20
-218.4473035478187
 30
0.0
  0
SEQEND
  5
66C
330
669
100
AcDbEntity
  8
\U+838C\U+8343\U+8384\U+815B_1
  0
POLYLINE
  5
66D
330
3C
100
AcDbEntity
  8
\U+838C\U+8343\U+8384\U+815B_1
100
AcDb2dPolyline
 66
     1
 10
0.0
 20
0.0
 30
0.0
  0
VERTEX
  5
66E
330
66D
100
AcDbEntity
  8
\U+838C\U+8343\U+8384\U+815B_1
100
AcDbVertex
100
AcDb2dVertex
 10
90.23428545921226
 20
-222.0536295017783
 30
0.0
  0
VERTEX
  5
66F
330
66D
100
AcDbEntity
  8
\U+838C\U+8343\U+8384\U+815B_1
100
AcDbVertex
100
AcDb2dVertex
 10
90.23428545921226
 20
-222.5276746405486
 30
0.0
  0
SEQEND
  5
670
330
66D
100
AcDbEntity
  8
\U+838C\U+8343\U+8384\U+815B_1
  0
POLYLINE
  5
671
330
3C
100
AcDbEntity
  8
\U+838C\U+8343\U+8384\U+815B_1
100
AcDb2dPolyline
 66
     1
 10
0.0
 20
0.0
 30
0.0
  0
VERTEX
  5
672
330
671
100
AcDbEntity
  8
\U+838C\U+8343\U+8384\U+815B_1
100
AcDbVertex
100
AcDb2dVertex
 10
90.23428545921226
 20
-226.2173719052512
 30
0.0
  0
VERTEX
  5
673
330
671
100
AcDbEntity
  8
\U+838C\U+8343\U+8384\U+815B_1
100
AcDbVertex
100
AcDb2dVertex
 10
90.23428545921226
 20
-226.7045084068656
 30
0.0
  0
SEQEND
  5
674
330
671
100
AcDbEntity
  8
\U+838C\U+8343\U+8384\U+815B_1
  0
POLYLINE
  5
675
330
3C
100
AcDbEntity
  8
\U+838C\U+8343\U+8384\U+815B_1
100
AcDb2dPolyline
 66
     1
 10
0.0
 20
0.0
 30
0.0
  0
VERTEX
  5
676
330
675
100
AcDbEntity
  8
\U+838C\U+8343\U+8384\U+815B_1
100
AcDbVertex
100
AcDb2dVertex
 10
119.9764838024712
 20
-228.709553979281
 30
0.0
  0
VERTEX
  5
677
330
675
100
AcDbEntity
  8
\U+838C\U+8343\U+8384\U+815B_1
100
AcDbVertex
100
AcDb2dVertex
 10
119.9764838024712
 20
-228.2224174776666
 30
0.0
  0
SEQEND
  5
678
330
675
100
AcDbEntity
  8
\U+838C\U+8343\U+8384\U+815B_1
  0
POLYLINE
  5
679
330
3C
100
AcDbEntity
  8
\U+838C\U+8343\U+8384\U+815B_1
100
AcDb2dPolyline
 66
     1
 10
0.0
 20
0.0
 30
0.0
  0
VERTEX
  5
67A
330
679
100
AcDbEntity
  8
\U+838C\U+8343\U+8384\U+815B_1
100
AcDbVertex
100
AcDb2dVertex
 10
119.9764838024712
 20
-224.6160915237071
 30
0.0
  0
VERTEX
  5
67B
330
679
100
AcDbEntity
  8
\U+838C\U+8343\U+8384\U+815B_1
100
AcDbVertex
100
AcDb2dVertex
 10
119.9764838024712
 20
-224.1427354040338
 30
0.0
  0
SEQEND
  5
67C
330
679
100
AcDbEntity
  8
\U+838C\U+8343\U+8384\U+815B_1
  0
POLYLINE
  5
67D
330
3C
100
AcDbEntity
  8
\U+838C\U+8343\U+8384\U+815B_1
100
AcDb2dPolyline
 66
     1
 10
0.0
 20
0.0
 30
0.0
  0
VERTEX
  5
67E
330
67D
100
AcDbEntity
  8
\U+838C\U+8343\U+8384\U+815B_1
100
AcDbVertex
100
AcDb2dVertex
 10
119.9764838024712
 20
-220.4523491202341
 30
0.0
  0
VERTEX
  5
67F
330
67D
100
AcDbEntity
  8
\U+838C\U+8343\U+8384\U+815B_1
100
AcDbVertex
100
AcDb2dVertex
 10
119.9764838024712
 20
-219.9652126186198
 30
0.0
  0
SEQEND
  5
680
330
67D
100
AcDbEntity
  8
\U+838C\U+8343\U+8384\U+815B_1
  0
POLYLINE
  5
681
330
3C
100
AcDbEntity
  8
\U+838C\U+8343\U+8384\U+815B_1
100
AcDb2dPolyline
 66
     1
 10
0.0
 20
0.0
 30
0.0
  0
VERTEX
  5
682
330
681
100
AcDbEntity
  8
\U+838C\U+8343\U+8384\U+815B_1
100
AcDbVertex
100
AcDb2dVertex
 10
119.9764838024712
 20
-216.3588866646603
 30
0.0
  0
VERTEX
  5
683
330
681
100
AcDbEntity
  8
\U+838C\U+8343\U+8384\U+815B_1
100
AcDbVertex
100
AcDb2dVertex
 10
119.9764838024712
 20
-215.871750163046
 30
0.0
  0
SEQEND
  5
684
330
681
100
AcDbEntity
  8
\U+838C\U+8343\U+8384\U+815B_1
  0
POLYLINE
  5
685
330
3C
100
AcDbEntity
  8
\U+838C\U+8343\U+8384\U+815B_1
100
AcDb2dPolyline
 66
     1
 10
0.0
 20
0.0
 30
0.0
  0
VERTEX
  5
686
330
685
100
AcDbEntity
  8
\U+838C\U+8343\U+8384\U+815B_1
100
AcDbVertex
100
AcDb2dVertex
 10
119.9764838024712
 20
-213.5463107105023
 30
0.0
  0
VERTEX
  5
687
330
685
100
AcDbEntity
  8
\U+838C\U+8343\U+8384\U+815B_1
100
AcDbVertex
100
AcDb2dVertex
 10
119.9764838024712
 20
-208.1016818056135
 30
0.0
  0
SEQEND
  5
688
330
685
100
AcDbEntity
  8
\U+838C\U+8343\U+8384\U+815B_1
  0
POLYLINE
  5
689
330
3C
100
AcDbEntity
  8
\U+838C\U+8343\U+8384\U+815B_1
100
AcDb2dPolyline
 66
     1
 10
0.0
 20
0.0
 30
0.0
  0
VERTEX
  5
68A
330
689
100
AcDbEntity
  8
\U+838C\U+8343\U+8384\U+815B_1
100
AcDbVertex
100
AcDb2dVertex
 10
90.47096351904894
 20
-217.4868109265311
 30
0.0
  0
VERTEX
  5
68B
330
689
100
AcDbEntity
  8
\U+838C\U+8343\U+8384\U+815B_1
100
AcDbVertex
100
AcDb2dVertex
 10
90.30387638801432
 20
-217.6397731660762
 30
0.0
  0
VERTEX
  5
68C
330
689
100
AcDbEntity
  8
\U+838C\U+8343\U+8384\U+815B_1
100
AcDbVertex
100
AcDb2dVertex
 10
90.23428545921226
 20
-217.9601670462044
 30
0.0
  0
SEQEND
  5
68D
330
689
100
AcDbEntity
  8
\U+838C\U+8343\U+8384\U+815B_1
  0
POLYLINE
  5
68E
330
3C
100
AcDbEntity
  8
\U+838C\U+8343\U+8384\U+815B_1
100
AcDb2dPolyline
 66
     1
 10
0.0
 20
0.0
 30
0.0
  0
VERTEX
  5
68F
330
68E
100
AcDbEntity
  8
\U+838C\U+8343\U+8384\U+815B_1
100
AcDbVertex
100
AcDb2dVertex
 10
90.47096351904894
 20
-221.649864310907
 30
0.0
  0
VERTEX
  5
690
330
68E
100
AcDbEntity
  8
\U+838C\U+8343\U+8384\U+815B_1
100
AcDbVertex
100
AcDb2dVertex
 10
90.38741995353162
 20
-221.7339246407471
 30
0.0
  0
VERTEX
  5
691
330
68E
100
AcDbEntity
  8
\U+838C\U+8343\U+8384\U+815B_1
100
AcDbVertex
100
AcDb2dVertex
 10
90.23428545921226
 20
-222.0536295017783
 30
0.0
  0
SEQEND
  5
692
330
68E
100
AcDbEntity
  8
\U+838C\U+8343\U+8384\U+815B_1
  0
POLYLINE
  5
693
330
3C
100
AcDbEntity
  8
\U+838C\U+8343\U+8384\U+815B_1
100
AcDb2dPolyline
 66
     1
 10
0.0
 20
0.0
 30
0.0
  0
VERTEX
  5
694
330
693
100
AcDbEntity
  8
\U+838C\U+8343\U+8384\U+815B_1
100
AcDbVertex
100
AcDb2dVertex
 10
90.47096351904894
 20
-225.7440157855779
 30
0.0
  0
VERTEX
  5
695
330
693
100
AcDbEntity
  8
\U+838C\U+8343\U+8384\U+815B_1
100
AcDbVertex
100
AcDb2dVertex
 10
90.30387638801432
 20
-225.8136067143799
 30
0.0
  0
VERTEX
  5
696
330
693
100
AcDbEntity
  8
\U+838C\U+8343\U+8384\U+815B_1
100
AcDbVertex
100
AcDb2dVertex
 10
90.23428545921226
 20
-226.1477809764492
 30
0.0
  0
SEQEND
  5
697
330
693
100
AcDbEntity
  8
\U+838C\U+8343\U+8384\U+815B_1
  0
POLYLINE
  5
698
330
3C
100
AcDbEntity
  8
\U+838C\U+8343\U+8384\U+815B_1
100
AcDb2dPolyline
 66
     1
 10
0.0
 20
0.0
 30
0.0
  0
VERTEX
  5
699
330
698
100
AcDbEntity
  8
\U+838C\U+8343\U+8384\U+815B_1
100
AcDbVertex
100
AcDb2dVertex
 10
119.9764838024712
 20
-228.2224174776666
 30
0.0
  0
VERTEX
  5
69A
330
698
100
AcDbEntity
  8
\U+838C\U+8343\U+8384\U+815B_1
100
AcDbVertex
100
AcDb2dVertex
 10
119.9764838024712
 20
-227.9860839273785
 30
0.0
  0
VERTEX
  5
69B
330
698
100
AcDbEntity
  8
\U+838C\U+8343\U+8384\U+815B_1
100
AcDbVertex
100
AcDb2dVertex
 10
119.8231770533775
 20
-227.8186522867954
 30
0.0
  0
SEQEND
  5
69C
330
698
100
AcDbEntity
  8
\U+838C\U+8343\U+8384\U+815B_1
  0
POLYLINE
  5
69D
330
3C
100
AcDbEntity
  8
\U+838C\U+8343\U+8384\U+815B_1
100
AcDb2dPolyline
 66
     1
 10
0.0
 20
0.0
 30
0.0
  0
VERTEX
  5
69E
330
69D
100
AcDbEntity
  8
\U+838C\U+8343\U+8384\U+815B_1
100
AcDbVertex
100
AcDb2dVertex
 10
119.9764838024712
 20
-224.1427354040338
 30
0.0
  0
VERTEX
  5
69F
330
69D
100
AcDbEntity
  8
\U+838C\U+8343\U+8384\U+815B_1
100
AcDbVertex
100
AcDb2dVertex
 10
119.9764838024712
 20
-223.9753037634506
 30
0.0
  0
VERTEX
  5
6A0
330
69D
100
AcDbEntity
  8
\U+838C\U+8343\U+8384\U+815B_1
100
AcDbVertex
100
AcDb2dVertex
 10
119.9068928736691
 20
-223.7389702131625
 30
0.0
  0
VERTEX
  5
6A1
330
69D
100
AcDbEntity
  8
\U+838C\U+8343\U+8384\U+815B_1
100
AcDbVertex
100
AcDb2dVertex
 10
119.8231770533775
 20
-223.6555989024195
 30
0.0
  0
SEQEND
  5
6A2
330
69D
100
AcDbEntity
  8
\U+838C\U+8343\U+8384\U+815B_1
  0
POLYLINE
  5
6A3
330
3C
100
AcDbEntity
  8
\U+838C\U+8343\U+8384\U+815B_1
100
AcDb2dPolyline
 66
     1
 10
0.0
 20
0.0
 30
0.0
  0
VERTEX
  5
6A4
330
6A3
100
AcDbEntity
  8
\U+838C\U+8343\U+8384\U+815B_1
100
AcDbVertex
100
AcDb2dVertex
 10
119.9764838024712
 20
-220.0485839293629
 30
0.0
  0
VERTEX
  5
6A5
330
6A3
100
AcDbEntity
  8
\U+838C\U+8343\U+8384\U+815B_1
100
AcDbVertex
100
AcDb2dVertex
 10
119.9764838024712
 20
-219.9652126186198
 30
0.0
  0
VERTEX
  5
6A6
330
6A3
100
AcDbEntity
  8
\U+838C\U+8343\U+8384\U+815B_1
100
AcDbVertex
100
AcDb2dVertex
 10
119.9068928736691
 20
-219.6448187384916
 30
0.0
  0
VERTEX
  5
6A7
330
6A3
100
AcDbEntity
  8
\U+838C\U+8343\U+8384\U+815B_1
100
AcDbVertex
100
AcDb2dVertex
 10
119.8231770533775
 20
-219.5614474277485
 30
0.0
  0
SEQEND
  5
6A8
330
6A3
100
AcDbEntity
  8
\U+838C\U+8343\U+8384\U+815B_1
  0
POLYLINE
  5
6A9
330
3C
100
AcDbEntity
  8
\U+838C\U+8343\U+8384\U+815B_1
100
AcDb2dPolyline
 66
     1
 10
0.0
 20
0.0
 30
0.0
  0
VERTEX
  5
6AA
330
6A9
100
AcDbEntity
  8
\U+838C\U+8343\U+8384\U+815B_1
100
AcDbVertex
100
AcDb2dVertex
 10
119.9764838024712
 20
-215.871750163046
 30
0.0
  0
VERTEX
  5
6AB
330
6A9
100
AcDbEntity
  8
\U+838C\U+8343\U+8384\U+815B_1
100
AcDbVertex
100
AcDb2dVertex
 10
119.9764838024712
 20
-215.8021592342439
 30
0.0
  0
VERTEX
  5
6AC
330
6A9
100
AcDbEntity
  8
\U+838C\U+8343\U+8384\U+815B_1
100
AcDbVertex
100
AcDb2dVertex
 10
119.9068928736691
 20
-215.4817653541157
 30
0.0
  0
VERTEX
  5
6AD
330
6A9
100
AcDbEntity
  8
\U+838C\U+8343\U+8384\U+815B_1
100
AcDbVertex
100
AcDb2dVertex
 10
119.7398057426345
 20
-215.3983940433726
 30
0.0
  0
VERTEX
  5
6AE
330
6A9
100
AcDbEntity
  8
\U+838C\U+8343\U+8384\U+815B_1
100
AcDbVertex
100
AcDb2dVertex
 10
119.5864989935409
 20
-215.2309624027895
 30
0.0
  0
VERTEX
  5
6AF
330
6A9
100
AcDbEntity
  8
\U+838C\U+8343\U+8384\U+815B_1
100
AcDbVertex
100
AcDb2dVertex
 10
119.5031276827978
 20
-215.2309624027895
 30
0.0
  0
SEQEND
  5
6B0
330
6A9
100
AcDbEntity
  8
\U+838C\U+8343\U+8384\U+815B_1
  0
POLYLINE
  5
6B1
330
3C
100
AcDbEntity
  8
\U+838C\U+8343\U+8384\U+815B_1
100
AcDb2dPolyline
 66
     1
 10
0.0
 20
0.0
 30
0.0
  0
VERTEX
  5
6B2
330
6B1
100
AcDbEntity
  8
\U+838C\U+8343\U+8384\U+815B_1
100
AcDbVertex
100
AcDb2dVertex
 10
90.30387638801432
 20
-214.4372124029879
 30
0.0
  0
VERTEX
  5
6B3
330
6B1
100
AcDbEntity
  8
\U+838C\U+8343\U+8384\U+815B_1
100
AcDbVertex
100
AcDb2dVertex
 10
90.38741995353162
 20
-214.6742349723731
 30
0.0
  0
VERTEX
  5
6B4
330
6B1
100
AcDbEntity
  8
\U+838C\U+8343\U+8384\U+815B_1
100
AcDbVertex
100
AcDb2dVertex
 10
90.47096351904894
 20
-214.7576062831162
 30
0.0
  0
SEQEND
  5
6B5
330
6B1
100
AcDbEntity
  8
\U+838C\U+8343\U+8384\U+815B_1
  0
POLYLINE
  5
6B6
330
3C
100
AcDbEntity
  8
\U+838C\U+8343\U+8384\U+815B_1
100
AcDb2dPolyline
 66
     1
 10
0.0
 20
0.0
 30
0.0
  0
VERTEX
  5
6B7
330
6B6
100
AcDbEntity
  8
\U+838C\U+8343\U+8384\U+815B_1
100
AcDbVertex
100
AcDb2dVertex
 10
90.23428545921226
 20
-218.4473035478187
 30
0.0
  0
VERTEX
  5
6B8
330
6B6
100
AcDbEntity
  8
\U+838C\U+8343\U+8384\U+815B_1
100
AcDbVertex
100
AcDb2dVertex
 10
90.23428545921226
 20
-218.6009548064609
 30
0.0
  0
VERTEX
  5
6B9
330
6B6
100
AcDbEntity
  8
\U+838C\U+8343\U+8384\U+815B_1
100
AcDbVertex
100
AcDb2dVertex
 10
90.38741995353162
 20
-218.85106873869
 30
0.0
  0
VERTEX
  5
6BA
330
6B6
100
AcDbEntity
  8
\U+838C\U+8343\U+8384\U+815B_1
100
AcDbVertex
100
AcDb2dVertex
 10
90.47096351904894
 20
-218.85106873869
 30
0.0
  0
SEQEND
  5
6BB
330
6B6
100
AcDbEntity
  8
\U+838C\U+8343\U+8384\U+815B_1
  0
POLYLINE
  5
6BC
330
3C
100
AcDbEntity
  8
\U+838C\U+8343\U+8384\U+815B_1
100
AcDb2dPolyline
 66
     1
 10
0.0
 20
0.0
 30
0.0
  0
VERTEX
  5
6BD
330
6BC
100
AcDbEntity
  8
\U+838C\U+8343\U+8384\U+815B_1
100
AcDbVertex
100
AcDb2dVertex
 10
90.23428545921226
 20
-222.5276746405486
 30
0.0
  0
VERTEX
  5
6BE
330
6BC
100
AcDbEntity
  8
\U+838C\U+8343\U+8384\U+815B_1
100
AcDbVertex
100
AcDb2dVertex
 10
90.30387638801432
 20
-222.8473795015798
 30
0.0
  0
VERTEX
  5
6BF
330
6BC
100
AcDbEntity
  8
\U+838C\U+8343\U+8384\U+815B_1
100
AcDbVertex
100
AcDb2dVertex
 10
90.47096351904894
 20
-223.014811142163
 30
0.0
  0
SEQEND
  5
6C0
330
6BC
100
AcDbEntity
  8
\U+838C\U+8343\U+8384\U+815B_1
  0
POLYLINE
  5
6C1
330
3C
100
AcDbEntity
  8
\U+838C\U+8343\U+8384\U+815B_1
100
AcDb2dPolyline
 66
     1
 10
0.0
 20
0.0
 30
0.0
  0
VERTEX
  5
6C2
330
6C1
100
AcDbEntity
  8
\U+838C\U+8343\U+8384\U+815B_1
100
AcDbVertex
100
AcDb2dVertex
 10
90.23428545921226
 20
-226.7045084068656
 30
0.0
  0
VERTEX
  5
6C3
330
6C1
100
AcDbEntity
  8
\U+838C\U+8343\U+8384\U+815B_1
100
AcDbVertex
100
AcDb2dVertex
 10
90.30387638801432
 20
-227.0249022869938
 30
0.0
  0
VERTEX
  5
6C4
330
6C1
100
AcDbEntity
  8
\U+838C\U+8343\U+8384\U+815B_1
100
AcDbVertex
100
AcDb2dVertex
 10
90.47096351904894
 20
-227.1082735977368
 30
0.0
  0
SEQEND
  5
6C5
330
6C1
100
AcDbEntity
  8
\U+838C\U+8343\U+8384\U+815B_1
  0
POLYLINE
  5
6C6
330
3C
100
AcDbEntity
  8
\U+838C\U+8343\U+8384\U+815B_1
100
AcDb2dPolyline
 66
     1
 10
0.0
 20
0.0
 30
0.0
  0
VERTEX
  5
6C7
330
6C6
100
AcDbEntity
  8
\U+838C\U+8343\U+8384\U+815B_1
100
AcDbVertex
100
AcDb2dVertex
 10
119.4194118625063
 20
-229.3503417395374
 30
0.0
  0
VERTEX
  5
6C8
330
6C6
100
AcDbEntity
  8
\U+838C\U+8343\U+8384\U+815B_1
100
AcDbVertex
100
AcDb2dVertex
 10
119.5864989935409
 20
-229.3503417395374
 30
0.0
  0
VERTEX
  5
6C9
330
6C6
100
AcDbEntity
  8
\U+838C\U+8343\U+8384\U+815B_1
100
AcDbVertex
100
AcDb2dVertex
 10
119.7398057426345
 20
-229.2669704287944
 30
0.0
  0
VERTEX
  5
6CA
330
6C6
100
AcDbEntity
  8
\U+838C\U+8343\U+8384\U+815B_1
100
AcDbVertex
100
AcDb2dVertex
 10
119.9068928736691
 20
-229.1133191701522
 30
0.0
  0
VERTEX
  5
6CB
330
6C6
100
AcDbEntity
  8
\U+838C\U+8343\U+8384\U+815B_1
100
AcDbVertex
100
AcDb2dVertex
 10
119.9764838024712
 20
-228.793614309121
 30
0.0
  0
VERTEX
  5
6CC
330
6C6
100
AcDbEntity
  8
\U+838C\U+8343\U+8384\U+815B_1
100
AcDbVertex
100
AcDb2dVertex
 10
119.9764838024712
 20
-228.709553979281
 30
0.0
  0
SEQEND
  5
6CD
330
6C6
100
AcDbEntity
  8
\U+838C\U+8343\U+8384\U+815B_1
  0
POLYLINE
  5
6CE
330
3C
100
AcDbEntity
  8
\U+838C\U+8343\U+8384\U+815B_1
100
AcDb2dPolyline
 66
     1
 10
0.0
 20
0.0
 30
0.0
  0
VERTEX
  5
6CF
330
6CE
100
AcDbEntity
  8
\U+838C\U+8343\U+8384\U+815B_1
100
AcDbVertex
100
AcDb2dVertex
 10
119.8231770533775
 20
-225.0198567145784
 30
0.0
  0
VERTEX
  5
6D0
330
6CE
100
AcDbEntity
  8
\U+838C\U+8343\U+8384\U+815B_1
100
AcDbVertex
100
AcDb2dVertex
 10
119.9068928736691
 20
-224.9364854038353
 30
0.0
  0
VERTEX
  5
6D1
330
6CE
100
AcDbEntity
  8
\U+838C\U+8343\U+8384\U+815B_1
100
AcDbVertex
100
AcDb2dVertex
 10
119.9764838024712
 20
-224.6160915237071
 30
0.0
  0
SEQEND
  5
6D2
330
6CE
100
AcDbEntity
  8
\U+838C\U+8343\U+8384\U+815B_1
  0
POLYLINE
  5
6D3
330
3C
100
AcDbEntity
  8
\U+838C\U+8343\U+8384\U+815B_1
100
AcDb2dPolyline
 66
     1
 10
0.0
 20
0.0
 30
0.0
  0
VERTEX
  5
6D4
330
6D3
100
AcDbEntity
  8
\U+838C\U+8343\U+8384\U+815B_1
100
AcDbVertex
100
AcDb2dVertex
 10
119.8231770533775
 20
-220.9263942590045
 30
0.0
  0
VERTEX
  5
6D5
330
6D3
100
AcDbEntity
  8
\U+838C\U+8343\U+8384\U+815B_1
100
AcDbVertex
100
AcDb2dVertex
 10
119.9764838024712
 20
-220.7727430003624
 30
0.0
  0
VERTEX
  5
6D6
330
6D3
100
AcDbEntity
  8
\U+838C\U+8343\U+8384\U+815B_1
100
AcDbVertex
100
AcDb2dVertex
 10
119.9764838024712
 20
-220.4523491202341
 30
0.0
  0
SEQEND
  5
6D7
330
6D3
100
AcDbEntity
  8
\U+838C\U+8343\U+8384\U+815B_1
  0
POLYLINE
  5
6D8
330
3C
100
AcDbEntity
  8
\U+838C\U+8343\U+8384\U+815B_1
100
AcDb2dPolyline
 66
     1
 10
0.0
 20
0.0
 30
0.0
  0
VERTEX
  5
6D9
330
6D8
100
AcDbEntity
  8
\U+838C\U+8343\U+8384\U+815B_1
100
AcDbVertex
100
AcDb2dVertex
 10
119.8231770533775
 20
-216.7626518555316
 30
0.0
  0
VERTEX
  5
6DA
330
6D8
100
AcDbEntity
  8
\U+838C\U+8343\U+8384\U+815B_1
100
AcDbVertex
100
AcDb2dVertex
 10
119.9068928736691
 20
-216.6792805447885
 30
0.0
  0
VERTEX
  5
6DB
330
6D8
100
AcDbEntity
  8
\U+838C\U+8343\U+8384\U+815B_1
100
AcDbVertex
100
AcDb2dVertex
 10
119.9764838024712
 20
-216.3588866646603
 30
0.0
  0
SEQEND
  5
6DC
330
6D8
100
AcDbEntity
  8
\U+838C\U+8343\U+8384\U+815B_1
  0
POLYLINE
  5
6DD
330
3C
100
AcDbEntity
  8
\U+838C\U+8343\U+8384\U+815B_1
100
AcDb2dPolyline
 66
     1
 10
0.0
 20
0.0
 30
0.0
  0
VERTEX
  5
6DE
330
6DD
100
AcDbEntity
  8
\U+838C\U+8343\U+8384\U+815B_1
100
AcDbVertex
100
AcDb2dVertex
 10
120.7840141842137
 20
-208.1016818056135
 30
0.0
  0
VERTEX
  5
6DF
330
6DD
100
AcDbEntity
  8
\U+838C\U+8343\U+8384\U+815B_1
100
AcDbVertex
100
AcDb2dVertex
 10
120.7840141842137
 20
-207.6979166147422
 30
0.0
  0
SEQEND
  5
6E0
330
6DD
100
AcDbEntity
  8
\U+838C\U+8343\U+8384\U+815B_1
  0
POLYLINE
  5
6E1
330
3C
100
AcDbEntity
  8
\U+838C\U+8343\U+8384\U+815B_1
100
AcDb2dPolyline
 66
     1
 10
0.0
 20
0.0
 30
0.0
  0
VERTEX
  5
6E2
330
6E1
100
AcDbEntity
  8
\U+838C\U+8343\U+8384\U+815B_1
100
AcDbVertex
100
AcDb2dVertex
 10
89.51012638821275
 20
-207.6979166147422
 30
0.0
  0
VERTEX
  5
6E3
330
6E1
100
AcDbEntity
  8
\U+838C\U+8343\U+8384\U+815B_1
100
AcDbVertex
100
AcDb2dVertex
 10
89.51012638821275
 20
-208.1016818056135
 30
0.0
  0
SEQEND
  5
6E4
330
6E1
100
AcDbEntity
  8
\U+838C\U+8343\U+8384\U+815B_1
  0
POLYLINE
  5
6E5
330
3C
100
AcDbEntity
  8
\U+838C\U+8343\U+8384\U+815B_1
100
AcDb2dPolyline
 66
     1
 10
0.0
 20
0.0
 30
0.0
  0
VERTEX
  5
6E6
330
6E5
100
AcDbEntity
  8
\U+838C\U+8343\U+8384\U+815B_1
100
AcDbVertex
100
AcDb2dVertex
 10
105.1470702862132
 20
-59.2776909574028
 30
0.0
  0
VERTEX
  5
6E7
330
6E5
100
AcDbEntity
  8
\U+838C\U+8343\U+8384\U+815B_1
100
AcDbVertex
100
AcDb2dVertex
 10
100.9003010815458
 20
-59.36123452292011
 30
0.0
  0
VERTEX
  5
6E8
330
6E5
100
AcDbEntity
  8
\U+838C\U+8343\U+8384\U+815B_1
100
AcDbVertex
100
AcDb2dVertex
 10
96.63940698538876
 20
-59.59791258275678
 30
0.0
  0
VERTEX
  5
6E9
330
6E5
100
AcDbEntity
  8
\U+838C\U+8343\U+8384\U+815B_1
100
AcDbVertex
100
AcDb2dVertex
 10
92.47600909146433
 20
-60.00167777362805
 30
0.0
  0
VERTEX
  5
6EA
330
6E5
100
AcDbEntity
  8
\U+838C\U+8343\U+8384\U+815B_1
100
AcDbVertex
100
AcDb2dVertex
 10
88.2988308155989
 20
-60.55874971359295
 30
0.0
  0
VERTEX
  5
6EB
330
6E5
100
AcDbEntity
  8
\U+838C\U+8343\U+8384\U+815B_1
100
AcDbVertex
100
AcDb2dVertex
 10
84.21897648719178
 20
-61.36628009533552
 30
0.0
  0
VERTEX
  5
6EC
330
6E5
100
AcDbEntity
  8
\U+838C\U+8343\U+8384\U+815B_1
100
AcDbVertex
100
AcDb2dVertex
 10
80.20871308758672
 20
-62.17398273185234
 30
0.0
  0
VERTEX
  5
6ED
330
6E5
100
AcDbEntity
  8
\U+838C\U+8343\U+8384\U+815B_1
100
AcDbVertex
100
AcDb2dVertex
 10
76.35175643707525
 20
-63.2042385367163
 30
0.0
  0
VERTEX
  5
6EE
330
6E5
100
AcDbEntity
  8
\U+838C\U+8343\U+8384\U+815B_1
100
AcDbVertex
100
AcDb2dVertex
 10
72.50875242327906
 20
-64.41570636410441
 30
0.0
  0
VERTEX
  5
6EF
330
6E5
100
AcDbEntity
  8
\U+838C\U+8343\U+8384\U+815B_1
100
AcDbVertex
100
AcDb2dVertex
 10
68.90225421454527
 20
-65.78030868581187
 30
0.0
  0
VERTEX
  5
6F0
330
6E5
100
AcDbEntity
  8
\U+838C\U+8343\U+8384\U+815B_1
100
AcDbVertex
100
AcDb2dVertex
 10
65.3655191893878
 20
-67.21450193632138
 30
0.0
  0
VERTEX
  5
6F1
330
6E5
100
AcDbEntity
  8
\U+838C\U+8343\U+8384\U+815B_1
100
AcDbVertex
100
AcDb2dVertex
 10
61.99587129526493
 20
-68.81595457263977
 30
0.0
  0
VERTEX
  5
6F2
330
6E5
100
AcDbEntity
  8
\U+838C\U+8343\U+8384\U+815B_1
100
AcDbVertex
100
AcDb2dVertex
 10
58.79331053217668
 20
-70.5007785197012
 30
0.0
  0
VERTEX
  5
6F3
330
6E5
100
AcDbEntity
  8
\U+838C\U+8343\U+8384\U+815B_1
100
AcDbVertex
100
AcDb2dVertex
 10
55.74388426340778
 20
-72.35268959779725
 30
0.0
  0
VERTEX
  5
6F4
330
6E5
100
AcDbEntity
  8
\U+838C\U+8343\U+8384\U+815B_1
100
AcDbVertex
100
AcDb2dVertex
 10
52.93113605447555
 20
-74.27419160469535
 30
0.0
  0
VERTEX
  5
6F5
330
6E5
100
AcDbEntity
  8
\U+838C\U+8343\U+8384\U+815B_1
100
AcDbVertex
100
AcDb2dVertex
 10
50.2856472313522
 20
-76.36295299740232
 30
0.0
  0
VERTEX
  5
6F6
330
6E5
100
AcDbEntity
  8
\U+838C\U+8343\U+8384\U+815B_1
100
AcDbVertex
100
AcDb2dVertex
 10
47.89061685000652
 20
-78.52113306413708
 30
0.0
  0
VERTEX
  5
6F7
330
6E5
100
AcDbEntity
  8
\U+838C\U+8343\U+8384\U+815B_1
100
AcDbVertex
100
AcDb2dVertex
 10
45.71848414655649
 20
-80.7630289511634
 30
0.0
  0
VERTEX
  5
6F8
330
6E5
100
AcDbEntity
  8
\U+838C\U+8343\U+8384\U+815B_1
100
AcDbVertex
100
AcDb2dVertex
 10
43.71343857414109
 20
-83.10224878564806
 30
0.0
  0
VERTEX
  5
6F9
330
6E5
100
AcDbEntity
  8
\U+838C\U+8343\U+8384\U+815B_1
100
AcDbVertex
100
AcDb2dVertex
 10
41.94507106156234
 20
-85.49727916699374
 30
0.0
  0
VERTEX
  5
6FA
330
6E5
100
AcDbEntity
  8
\U+838C\U+8343\U+8384\U+815B_1
100
AcDbVertex
100
AcDb2dVertex
 10
40.51070555627857
 20
-87.90626218505469
 30
0.0
  0
VERTEX
  5
6FB
330
6E5
100
AcDbEntity
  8
\U+838C\U+8343\U+8384\U+815B_1
100
AcDbVertex
100
AcDb2dVertex
 10
39.29940998366473
 20
-90.38483613191768
 30
0.0
  0
VERTEX
  5
6FC
330
6E5
100
AcDbEntity
  8
\U+838C\U+8343\U+8384\U+815B_1
100
AcDbVertex
100
AcDb2dVertex
 10
38.25502928731125
 20
-92.96073402623898
 30
0.0
  0
VERTEX
  5
6FD
330
6E5
100
AcDbEntity
  8
\U+838C\U+8343\U+8384\U+815B_1
100
AcDbVertex
100
AcDb2dVertex
 10
37.6145860366033
 20
-95.52285153861929
 30
0.0
  0
VERTEX
  5
6FE
330
6E5
100
AcDbEntity
  8
\U+838C\U+8343\U+8384\U+815B_1
100
AcDbVertex
100
AcDb2dVertex
 10
37.14105766215571
 20
-98.1685126165169
 30
0.0
  0
VERTEX
  5
6FF
330
6E5
100
AcDbEntity
  8
\U+838C\U+8343\U+8384\U+815B_1
100
AcDbVertex
100
AcDb2dVertex
 10
36.97397053112109
 20
-100.7306301288972
 30
0.0
  0
SEQEND
  5
700
330
6E5
100
AcDbEntity
  8
\U+838C\U+8343\U+8384\U+815B_1
  0
POLYLINE
  5
701
330
3C
100
AcDbEntity
  8
\U+838C\U+8343\U+8384\U+815B_1
100
AcDb2dPolyline
 66
     1
 10
0.0
 20
0.0
 30
0.0
  0
VERTEX
  5
702
330
701
100
AcDbEntity
  8
\U+838C\U+8343\U+8384\U+815B_1
100
AcDbVertex
100
AcDb2dVertex
 10
173.3062174045901
 20
-100.7306301288972
 30
0.0
  0
VERTEX
  5
703
330
701
100
AcDbEntity
  8
\U+838C\U+8343\U+8384\U+815B_1
100
AcDbVertex
100
AcDb2dVertex
 10
173.153255165045
 20
-98.1685126165169
 30
0.0
  0
VERTEX
  5
704
330
701
100
AcDbEntity
  8
\U+838C\U+8343\U+8384\U+815B_1
100
AcDbVertex
100
AcDb2dVertex
 10
172.6657741538822
 20
-95.52285153861929
 30
0.0
  0
VERTEX
  5
705
330
701
100
AcDbEntity
  8
\U+838C\U+8343\U+8384\U+815B_1
100
AcDbVertex
100
AcDb2dVertex
 10
171.9557399743722
 20
-92.96073402623898
 30
0.0
  0
VERTEX
  5
706
330
701
100
AcDbEntity
  8
\U+838C\U+8343\U+8384\U+815B_1
100
AcDbVertex
100
AcDb2dVertex
 10
170.9807779520465
 20
-90.38483613191768
 30
0.0
  0
VERTEX
  5
707
330
701
100
AcDbEntity
  8
\U+838C\U+8343\U+8384\U+815B_1
100
AcDbVertex
100
AcDb2dVertex
 10
169.7832627613736
 20
-87.90626218505469
 30
0.0
  0
VERTEX
  5
708
330
701
100
AcDbEntity
  8
\U+838C\U+8343\U+8384\U+815B_1
100
AcDbVertex
100
AcDb2dVertex
 10
168.2656982001211
 20
-85.49727916699374
 30
0.0
  0
VERTEX
  5
709
330
701
100
AcDbEntity
  8
\U+838C\U+8343\U+8384\U+815B_1
100
AcDbVertex
100
AcDb2dVertex
 10
166.5807019982854
 20
-83.10224878564806
 30
0.0
  0
VERTEX
  5
70A
330
701
100
AcDbEntity
  8
\U+838C\U+8343\U+8384\U+815B_1
100
AcDbVertex
100
AcDb2dVertex
 10
164.57565642587
 20
-80.7630289511634
 30
0.0
  0
VERTEX
  5
70B
330
701
100
AcDbEntity
  8
\U+838C\U+8343\U+8384\U+815B_1
100
AcDbVertex
100
AcDb2dVertex
 10
162.4035237224199
 20
-78.52113306413708
 30
0.0
  0
VERTEX
  5
70C
330
701
100
AcDbEntity
  8
\U+838C\U+8343\U+8384\U+815B_1
100
AcDbVertex
100
AcDb2dVertex
 10
159.9947129591333
 20
-76.36295299740232
 30
0.0
  0
VERTEX
  5
70D
330
701
100
AcDbEntity
  8
\U+838C\U+8343\U+8384\U+815B_1
100
AcDbVertex
100
AcDb2dVertex
 10
157.3492241360099
 20
-74.27419160469535
 30
0.0
  0
VERTEX
  5
70E
330
701
100
AcDbEntity
  8
\U+838C\U+8343\U+8384\U+815B_1
100
AcDbVertex
100
AcDb2dVertex
 10
154.550428563793
 20
-72.35268959779725
 30
0.0
  0
VERTEX
  5
70F
330
701
100
AcDbEntity
  8
\U+838C\U+8343\U+8384\U+815B_1
100
AcDbVertex
100
AcDb2dVertex
 10
151.5008300402498
 20
-70.5007785197012
 30
0.0
  0
VERTEX
  5
710
330
701
100
AcDbEntity
  8
\U+838C\U+8343\U+8384\U+815B_1
100
AcDbVertex
100
AcDb2dVertex
 10
148.2844888952206
 20
-68.81595457263977
 30
0.0
  0
VERTEX
  5
711
330
701
100
AcDbEntity
  8
\U+838C\U+8343\U+8384\U+815B_1
100
AcDbVertex
100
AcDb2dVertex
 10
144.9286213830387
 20
-67.21450193632138
 30
0.0
  0
VERTEX
  5
712
330
701
100
AcDbEntity
  8
\U+838C\U+8343\U+8384\U+815B_1
100
AcDbVertex
100
AcDb2dVertex
 10
141.3918863578812
 20
-65.78030868581187
 30
0.0
  0
VERTEX
  5
713
330
701
100
AcDbEntity
  8
\U+838C\U+8343\U+8384\U+815B_1
100
AcDbVertex
100
AcDb2dVertex
 10
137.7018445836301
 20
-64.41570636410441
 30
0.0
  0
VERTEX
  5
714
330
701
100
AcDbEntity
  8
\U+838C\U+8343\U+8384\U+815B_1
100
AcDbVertex
100
AcDb2dVertex
 10
133.9425563901255
 20
-63.2042385367163
 30
0.0
  0
VERTEX
  5
715
330
701
100
AcDbEntity
  8
\U+838C\U+8343\U+8384\U+815B_1
100
AcDbVertex
100
AcDb2dVertex
 10
130.0017116645482
 20
-62.17398273185234
 30
0.0
  0
VERTEX
  5
716
330
701
100
AcDbEntity
  8
\U+838C\U+8343\U+8384\U+815B_1
100
AcDbVertex
100
AcDb2dVertex
 10
125.9916205197174
 20
-61.36628009533552
 30
0.0
  0
VERTEX
  5
717
330
701
100
AcDbEntity
  8
\U+838C\U+8343\U+8384\U+815B_1
100
AcDbVertex
100
AcDb2dVertex
 10
121.9119384460845
 20
-60.55874971359295
 30
0.0
  0
VERTEX
  5
718
330
701
100
AcDbEntity
  8
\U+838C\U+8343\U+8384\U+815B_1
100
AcDbVertex
100
AcDb2dVertex
 10
117.8181314809621
 20
-60.00167777362805
 30
0.0
  0
VERTEX
  5
719
330
701
100
AcDbEntity
  8
\U+838C\U+8343\U+8384\U+815B_1
100
AcDbVertex
100
AcDb2dVertex
 10
113.5713622762947
 20
-59.59791258275678
 30
0.0
  0
VERTEX
  5
71A
330
701
100
AcDbEntity
  8
\U+838C\U+8343\U+8384\U+815B_1
100
AcDbVertex
100
AcDb2dVertex
 10
109.3938394908807
 20
-59.36123452292011
 30
0.0
  0
VERTEX
  5
71B
330
701
100
AcDbEntity
  8
\U+838C\U+8343\U+8384\U+815B_1
100
AcDbVertex
100
AcDb2dVertex
 10
105.1470702862132
 20
-59.2776909574028
 30
0.0
  0
SEQEND
  5
71C
330
701
100
AcDbEntity
  8
\U+838C\U+8343\U+8384\U+815B_1
  0
POLYLINE
  5
71D
330
3C
100
AcDbEntity
  8
\U+838C\U+8343\U+8384\U+815B_1
100
AcDb2dPolyline
 66
     1
 10
0.0
 20
0.0
 30
0.0
  0
VERTEX
  5
71E
330
71D
100
AcDbEntity
  8
\U+838C\U+8343\U+8384\U+815B_1
100
AcDbVertex
100
AcDb2dVertex
 10
36.97397053112109
 20
-100.7306301288972
 30
0.0
  0
VERTEX
  5
71F
330
71D
100
AcDbEntity
  8
\U+838C\U+8343\U+8384\U+815B_1
100
AcDbVertex
100
AcDb2dVertex
 10
36.97397053112109
 20
-100.8977172599318
 30
0.0
  0
VERTEX
  5
720
330
71D
100
AcDbEntity
  8
\U+838C\U+8343\U+8384\U+815B_1
100
AcDbVertex
100
AcDb2dVertex
 10
36.97397053112109
 20
-100.9812608254491
 30
0.0
  0
VERTEX
  5
721
330
71D
100
AcDbEntity
  8
\U+838C\U+8343\U+8384\U+815B_1
100
AcDbVertex
100
AcDb2dVertex
 10
37.0575140966384
 20
-101.0508517542512
 30
0.0
  0
VERTEX
  5
722
330
71D
100
AcDbEntity
  8
\U+838C\U+8343\U+8384\U+815B_1
100
AcDbVertex
100
AcDb2dVertex
 10
37.14105766215571
 20
-101.2179388852858
 30
0.0
  0
VERTEX
  5
723
330
71D
100
AcDbEntity
  8
\U+838C\U+8343\U+8384\U+815B_1
100
AcDbVertex
100
AcDb2dVertex
 10
37.22460122767302
 20
-101.2179388852858
 30
0.0
  0
VERTEX
  5
724
330
71D
100
AcDbEntity
  8
\U+838C\U+8343\U+8384\U+815B_1
100
AcDbVertex
100
AcDb2dVertex
 10
37.29436441124933
 20
-101.3014824508031
 30
0.0
  0
VERTEX
  5
725
330
71D
100
AcDbEntity
  8
\U+838C\U+8343\U+8384\U+815B_1
100
AcDbVertex
100
AcDb2dVertex
 10
37.37790797676664
 20
-101.3710733796051
 30
0.0
  0
VERTEX
  5
726
330
71D
100
AcDbEntity
  8
\U+838C\U+8343\U+8384\U+815B_1
100
AcDbVertex
100
AcDb2dVertex
 10
37.54499510780126
 20
-101.3710733796051
 30
0.0
  0
SEQEND
  5
727
330
71D
100
AcDbEntity
  8
\U+838C\U+8343\U+8384\U+815B_1
  0
POLYLINE
  5
728
330
3C
100
AcDbEntity
  8
\U+838C\U+8343\U+8384\U+815B_1
100
AcDb2dPolyline
 66
     1
 10
0.0
 20
0.0
 30
0.0
  0
VERTEX
  5
729
330
728
100
AcDbEntity
  8
\U+838C\U+8343\U+8384\U+815B_1
100
AcDbVertex
100
AcDb2dVertex
 10
172.7491454646252
 20
-101.3710733796051
 30
0.0
  0
VERTEX
  5
72A
330
728
100
AcDbEntity
  8
\U+838C\U+8343\U+8384\U+815B_1
100
AcDbVertex
100
AcDb2dVertex
 10
172.8328612849168
 20
-101.3710733796051
 30
0.0
  0
VERTEX
  5
72B
330
728
100
AcDbEntity
  8
\U+838C\U+8343\U+8384\U+815B_1
100
AcDbVertex
100
AcDb2dVertex
 10
172.9858235244619
 20
-101.3014824508031
 30
0.0
  0
VERTEX
  5
72C
330
728
100
AcDbEntity
  8
\U+838C\U+8343\U+8384\U+815B_1
100
AcDbVertex
100
AcDb2dVertex
 10
173.0695393447535
 20
-101.2179388852858
 30
0.0
  0
VERTEX
  5
72D
330
728
100
AcDbEntity
  8
\U+838C\U+8343\U+8384\U+815B_1
100
AcDbVertex
100
AcDb2dVertex
 10
173.153255165045
 20
-101.2179388852858
 30
0.0
  0
VERTEX
  5
72E
330
728
100
AcDbEntity
  8
\U+838C\U+8343\U+8384\U+815B_1
100
AcDbVertex
100
AcDb2dVertex
 10
173.2366264757881
 20
-101.0508517542512
 30
0.0
  0
VERTEX
  5
72F
330
728
100
AcDbEntity
  8
\U+838C\U+8343\U+8384\U+815B_1
100
AcDbVertex
100
AcDb2dVertex
 10
173.3062174045901
 20
-100.9812608254491
 30
0.0
  0
VERTEX
  5
730
330
728
100
AcDbEntity
  8
\U+838C\U+8343\U+8384\U+815B_1
100
AcDbVertex
100
AcDb2dVertex
 10
173.3062174045901
 20
-100.8977172599318
 30
0.0
  0
VERTEX
  5
731
330
728
100
AcDbEntity
  8
\U+838C\U+8343\U+8384\U+815B_1
100
AcDbVertex
100
AcDb2dVertex
 10
173.3062174045901
 20
-100.7306301288972
 30
0.0
  0
SEQEND
  5
732
330
728
100
AcDbEntity
  8
\U+838C\U+8343\U+8384\U+815B_1
  0
POLYLINE
  5
733
330
3C
100
AcDbEntity
  8
\U+838C\U+8343\U+8384\U+815B_1
100
AcDb2dPolyline
 66
     1
 10
0.0
 20
0.0
 30
0.0
  0
VERTEX
  5
734
330
733
100
AcDbEntity
  8
\U+838C\U+8343\U+8384\U+815B_1
100
AcDbVertex
100
AcDb2dVertex
 10
37.69812960212061
 20
-108.3472194824618
 30
0.0
  0
VERTEX
  5
735
330
733
100
AcDbEntity
  8
\U+838C\U+8343\U+8384\U+815B_1
100
AcDbVertex
100
AcDb2dVertex
 10
37.72586262077687
 20
-108.3472194824618
 30
0.0
  0
SEQEND
  5
736
330
733
100
AcDbEntity
  8
\U+838C\U+8343\U+8384\U+815B_1
  0
POLYLINE
  5
737
330
3C
100
AcDbEntity
  8
\U+838C\U+8343\U+8384\U+815B_1
100
AcDb2dPolyline
 66
     1
 10
0.0
 20
0.0
 30
0.0
  0
VERTEX
  5
738
330
737
100
AcDbEntity
  8
\U+838C\U+8343\U+8384\U+815B_1
100
AcDbVertex
100
AcDb2dVertex
 10
37.37790797676664
 20
-106.509261041081
 30
0.0
  0
VERTEX
  5
739
330
737
100
AcDbEntity
  8
\U+838C\U+8343\U+8384\U+815B_1
100
AcDbVertex
100
AcDb2dVertex
 10
37.37790797676664
 20
-106.5928046065983
 30
0.0
  0
SEQEND
  5
73A
330
737
100
AcDbEntity
  8
\U+838C\U+8343\U+8384\U+815B_1
  0
POLYLINE
  5
73B
330
3C
100
AcDbEntity
  8
\U+838C\U+8343\U+8384\U+815B_1
100
AcDb2dPolyline
 66
     1
 10
0.0
 20
0.0
 30
0.0
  0
VERTEX
  5
73C
330
73B
100
AcDbEntity
  8
\U+838C\U+8343\U+8384\U+815B_1
100
AcDbVertex
100
AcDb2dVertex
 10
37.37790797676664
 20
-106.509261041081
 30
0.0
  0
VERTEX
  5
73D
330
73B
100
AcDbEntity
  8
\U+838C\U+8343\U+8384\U+815B_1
100
AcDbVertex
100
AcDb2dVertex
 10
37.4056409954229
 20
-106.509261041081
 30
0.0
  0
SEQEND
  5
73E
330
73B
100
AcDbEntity
  8
\U+838C\U+8343\U+8384\U+815B_1
  0
POLYLINE
  5
73F
330
3C
100
AcDbEntity
  8
\U+838C\U+8343\U+8384\U+815B_1
100
AcDb2dPolyline
 66
     1
 10
0.0
 20
0.0
 30
0.0
  0
VERTEX
  5
740
330
73F
100
AcDbEntity
  8
\U+838C\U+8343\U+8384\U+815B_1
100
AcDbVertex
100
AcDb2dVertex
 10
172.5961832250801
 20
-108.3472194824618
 30
0.0
  0
VERTEX
  5
741
330
73F
100
AcDbEntity
  8
\U+838C\U+8343\U+8384\U+815B_1
100
AcDbVertex
100
AcDb2dVertex
 10
172.5961832250801
 20
-108.2776285536598
 30
0.0
  0
VERTEX
  5
742
330
73F
100
AcDbEntity
  8
\U+838C\U+8343\U+8384\U+815B_1
100
AcDbVertex
100
AcDb2dVertex
 10
172.5961832250801
 20
-108.1940849881424
 30
0.0
  0
SEQEND
  5
743
330
73F
100
AcDbEntity
  8
\U+838C\U+8343\U+8384\U+815B_1
  0
POLYLINE
  5
744
330
3C
100
AcDbEntity
  8
\U+838C\U+8343\U+8384\U+815B_1
100
AcDb2dPolyline
 66
     1
 10
0.0
 20
0.0
 30
0.0
  0
VERTEX
  5
745
330
744
100
AcDbEntity
  8
\U+838C\U+8343\U+8384\U+815B_1
100
AcDbVertex
100
AcDb2dVertex
 10
172.9162325956598
 20
-106.5928046065983
 30
0.0
  0
VERTEX
  5
746
330
744
100
AcDbEntity
  8
\U+838C\U+8343\U+8384\U+815B_1
100
AcDbVertex
100
AcDb2dVertex
 10
172.9162325956598
 20
-106.509261041081
 30
0.0
  0
SEQEND
  5
747
330
744
100
AcDbEntity
  8
\U+838C\U+8343\U+8384\U+815B_1
  0
POLYLINE
  5
748
330
3C
100
AcDbEntity
  8
\U+838C\U+8343\U+8384\U+815B_1
100
AcDb2dPolyline
 66
     1
 10
0.0
 20
0.0
 30
0.0
  0
VERTEX
  5
749
330
748
100
AcDbEntity
  8
\U+838C\U+8343\U+8384\U+815B_1
100
AcDbVertex
100
AcDb2dVertex
 10
164.1718912349987
 20
-124.0678792007539
 30
0.0
  0
VERTEX
  5
74A
330
748
100
AcDbEntity
  8
\U+838C\U+8343\U+8384\U+815B_1
100
AcDbVertex
100
AcDb2dVertex
 10
164.4085692948354
 20
-124.0678792007539
 30
0.0
  0
VERTEX
  5
74B
330
748
100
AcDbEntity
  8
\U+838C\U+8343\U+8384\U+815B_1
100
AcDbVertex
100
AcDb2dVertex
 10
164.57565642587
 20
-123.9843356352366
 30
0.0
  0
VERTEX
  5
74C
330
748
100
AcDbEntity
  8
\U+838C\U+8343\U+8384\U+815B_1
100
AcDbVertex
100
AcDb2dVertex
 10
164.8123344857067
 20
-123.9843356352366
 30
0.0
  0
VERTEX
  5
74D
330
748
100
AcDbEntity
  8
\U+838C\U+8343\U+8384\U+815B_1
100
AcDbVertex
100
AcDb2dVertex
 10
164.9656412348003
 20
-123.8312011409172
 30
0.0
  0
VERTEX
  5
74E
330
748
100
AcDbEntity
  8
\U+838C\U+8343\U+8384\U+815B_1
100
AcDbVertex
100
AcDb2dVertex
 10
165.2160996765779
 20
-123.7476575753999
 30
0.0
  0
VERTEX
  5
74F
330
748
100
AcDbEntity
  8
\U+838C\U+8343\U+8384\U+815B_1
100
AcDbVertex
100
AcDb2dVertex
 10
165.3694064256715
 20
-123.5945230810805
 30
0.0
  0
VERTEX
  5
750
330
748
100
AcDbEntity
  8
\U+838C\U+8343\U+8384\U+815B_1
100
AcDbVertex
100
AcDb2dVertex
 10
165.5364935567061
 20
-123.4274359500459
 30
0.0
  0
VERTEX
  5
751
330
748
100
AcDbEntity
  8
\U+838C\U+8343\U+8384\U+815B_1
100
AcDbVertex
100
AcDb2dVertex
 10
165.6202093769977
 20
-123.2603488190113
 30
0.0
  0
SEQEND
  5
752
330
748
100
AcDbEntity
  8
\U+838C\U+8343\U+8384\U+815B_1
  0
POLYLINE
  5
753
330
3C
100
AcDbEntity
  8
\U+838C\U+8343\U+8384\U+815B_1
100
AcDb2dPolyline
 66
     1
 10
0.0
 20
0.0
 30
0.0
  0
VERTEX
  5
754
330
753
100
AcDbEntity
  8
\U+838C\U+8343\U+8384\U+815B_1
100
AcDbVertex
100
AcDb2dVertex
 10
44.5905598846857
 20
-123.2603488190113
 30
0.0
  0
VERTEX
  5
755
330
753
100
AcDbEntity
  8
\U+838C\U+8343\U+8384\U+815B_1
100
AcDbVertex
100
AcDb2dVertex
 10
44.75764701572031
 20
-123.4274359500459
 30
0.0
  0
VERTEX
  5
756
330
753
100
AcDbEntity
  8
\U+838C\U+8343\U+8384\U+815B_1
100
AcDbVertex
100
AcDb2dVertex
 10
44.91078151003967
 20
-123.5945230810805
 30
0.0
  0
VERTEX
  5
757
330
753
100
AcDbEntity
  8
\U+838C\U+8343\U+8384\U+815B_1
100
AcDbVertex
100
AcDb2dVertex
 10
45.07786864107428
 20
-123.7476575753999
 30
0.0
  0
VERTEX
  5
758
330
753
100
AcDbEntity
  8
\U+838C\U+8343\U+8384\U+815B_1
100
AcDbVertex
100
AcDb2dVertex
 10
45.23117539016791
 20
-123.8312011409172
 30
0.0
  0
VERTEX
  5
759
330
753
100
AcDbEntity
  8
\U+838C\U+8343\U+8384\U+815B_1
100
AcDbVertex
100
AcDb2dVertex
 10
45.48180608671983
 20
-123.9843356352366
 30
0.0
  0
VERTEX
  5
75A
330
753
100
AcDbEntity
  8
\U+838C\U+8343\U+8384\U+815B_1
100
AcDbVertex
100
AcDb2dVertex
 10
45.63494058103918
 20
-123.9843356352366
 30
0.0
  0
VERTEX
  5
75B
330
753
100
AcDbEntity
  8
\U+838C\U+8343\U+8384\U+815B_1
100
AcDbVertex
100
AcDb2dVertex
 10
45.88557127759111
 20
-124.0678792007539
 30
0.0
  0
VERTEX
  5
75C
330
753
100
AcDbEntity
  8
\U+838C\U+8343\U+8384\U+815B_1
100
AcDbVertex
100
AcDb2dVertex
 10
46.12224933742777
 20
-124.0678792007539
 30
0.0
  0
SEQEND
  5
75D
330
753
100
AcDbEntity
  8
\U+838C\U+8343\U+8384\U+815B_1
  0
POLYLINE
  5
75E
330
3C
100
AcDbEntity
  8
\U+838C\U+8343\U+8384\U+815B_1
100
AcDb2dPolyline
 66
     1
 10
0.0
 20
0.0
 30
0.0
  0
VERTEX
  5
75F
330
75E
100
AcDbEntity
  8
\U+838C\U+8343\U+8384\U+815B_1
100
AcDbVertex
100
AcDb2dVertex
 10
165.6202093769977
 20
-123.2603488190113
 30
0.0
  0
VERTEX
  5
760
330
75E
100
AcDbEntity
  8
\U+838C\U+8343\U+8384\U+815B_1
100
AcDbVertex
100
AcDb2dVertex
 10
166.0935654966711
 20
-122.4665988192098
 30
0.0
  0
VERTEX
  5
761
330
75E
100
AcDbEntity
  8
\U+838C\U+8343\U+8384\U+815B_1
100
AcDbVertex
100
AcDb2dVertex
 10
166.5807019982854
 20
-121.6588961826929
 30
0.0
  0
VERTEX
  5
762
330
75E
100
AcDbEntity
  8
\U+838C\U+8343\U+8384\U+815B_1
100
AcDbVertex
100
AcDb2dVertex
 10
167.0544026275072
 20
-120.9349093664677
 30
0.0
  0
VERTEX
  5
763
330
75E
100
AcDbEntity
  8
\U+838C\U+8343\U+8384\U+815B_1
100
AcDbVertex
100
AcDb2dVertex
 10
167.5415391291216
 20
-120.1411593666661
 30
0.0
  0
VERTEX
  5
764
330
75E
100
AcDbEntity
  8
\U+838C\U+8343\U+8384\U+815B_1
100
AcDbVertex
100
AcDb2dVertex
 10
168.0148952487949
 20
-119.3336289849235
 30
0.0
  0
VERTEX
  5
765
330
75E
100
AcDbEntity
  8
\U+838C\U+8343\U+8384\U+815B_1
100
AcDbVertex
100
AcDb2dVertex
 10
168.4190049492147
 20
-118.539878985122
 30
0.0
  0
VERTEX
  5
766
330
75E
100
AcDbEntity
  8
\U+838C\U+8343\U+8384\U+815B_1
100
AcDbVertex
100
AcDb2dVertex
 10
168.906141450829
 20
-117.7323486033794
 30
0.0
  0
VERTEX
  5
767
330
75E
100
AcDbEntity
  8
\U+838C\U+8343\U+8384\U+815B_1
100
AcDbVertex
100
AcDb2dVertex
 10
169.3794975705024
 20
-116.9385986035779
 30
0.0
  0
SEQEND
  5
768
330
75E
100
AcDbEntity
  8
\U+838C\U+8343\U+8384\U+815B_1
  0
POLYLINE
  5
769
330
3C
100
AcDbEntity
  8
\U+838C\U+8343\U+8384\U+815B_1
100
AcDb2dPolyline
 66
     1
 10
0.0
 20
0.0
 30
0.0
  0
VERTEX
  5
76A
330
769
100
AcDbEntity
  8
\U+838C\U+8343\U+8384\U+815B_1
100
AcDbVertex
100
AcDb2dVertex
 10
40.91464300192412
 20
-116.9385986035779
 30
0.0
  0
VERTEX
  5
76B
330
769
100
AcDbEntity
  8
\U+838C\U+8343\U+8384\U+815B_1
100
AcDbVertex
100
AcDb2dVertex
 10
41.38799912159745
 20
-117.7323486033794
 30
0.0
  0
VERTEX
  5
76C
330
769
100
AcDbEntity
  8
\U+838C\U+8343\U+8384\U+815B_1
100
AcDbVertex
100
AcDb2dVertex
 10
41.79176431246873
 20
-118.539878985122
 30
0.0
  0
VERTEX
  5
76D
330
769
100
AcDbEntity
  8
\U+838C\U+8343\U+8384\U+815B_1
100
AcDbVertex
100
AcDb2dVertex
 10
42.26529268691632
 20
-119.3336289849235
 30
0.0
  0
VERTEX
  5
76E
330
769
100
AcDbEntity
  8
\U+838C\U+8343\U+8384\U+815B_1
100
AcDbVertex
100
AcDb2dVertex
 10
42.7526014433049
 20
-120.1411593666661
 30
0.0
  0
VERTEX
  5
76F
330
769
100
AcDbEntity
  8
\U+838C\U+8343\U+8384\U+815B_1
100
AcDbVertex
100
AcDb2dVertex
 10
43.2399101996935
 20
-120.9349093664677
 30
0.0
  0
VERTEX
  5
770
330
769
100
AcDbEntity
  8
\U+838C\U+8343\U+8384\U+815B_1
100
AcDbVertex
100
AcDb2dVertex
 10
43.62989500862378
 20
-121.6588961826929
 30
0.0
  0
VERTEX
  5
771
330
769
100
AcDbEntity
  8
\U+838C\U+8343\U+8384\U+815B_1
100
AcDbVertex
100
AcDb2dVertex
 10
44.11720376501237
 20
-122.4665988192098
 30
0.0
  0
VERTEX
  5
772
330
769
100
AcDbEntity
  8
\U+838C\U+8343\U+8384\U+815B_1
100
AcDbVertex
100
AcDb2dVertex
 10
44.5905598846857
 20
-123.2603488190113
 30
0.0
  0
SEQEND
  5
773
330
769
100
AcDbEntity
  8
\U+838C\U+8343\U+8384\U+815B_1
  0
POLYLINE
  5
774
330
3C
100
AcDbEntity
  8
\U+838C\U+8343\U+8384\U+815B_1
100
AcDb2dPolyline
 66
     1
 10
0.0
 20
0.0
 30
0.0
  0
VERTEX
  5
775
330
774
100
AcDbEntity
  8
\U+838C\U+8343\U+8384\U+815B_1
100
AcDbVertex
100
AcDb2dVertex
 10
36.90437960231905
 20
-101.3710733796051
 30
0.0
  0
VERTEX
  5
776
330
774
100
AcDbEntity
  8
\U+838C\U+8343\U+8384\U+815B_1
100
AcDbVertex
100
AcDb2dVertex
 10
36.97397053112109
 20
-102.0116888850874
 30
0.0
  0
VERTEX
  5
777
330
774
100
AcDbEntity
  8
\U+838C\U+8343\U+8384\U+815B_1
100
AcDbVertex
100
AcDb2dVertex
 10
36.97397053112109
 20
-102.6660847725106
 30
0.0
  0
VERTEX
  5
778
330
774
100
AcDbEntity
  8
\U+838C\U+8343\U+8384\U+815B_1
100
AcDbVertex
100
AcDb2dVertex
 10
36.97397053112109
 20
-103.3065280232185
 30
0.0
  0
VERTEX
  5
779
330
774
100
AcDbEntity
  8
\U+838C\U+8343\U+8384\U+815B_1
100
AcDbVertex
100
AcDb2dVertex
 10
37.0575140966384
 20
-103.9471435287007
 30
0.0
  0
VERTEX
  5
77A
330
774
100
AcDbEntity
  8
\U+838C\U+8343\U+8384\U+815B_1
100
AcDbVertex
100
AcDb2dVertex
 10
37.0575140966384
 20
-104.5877590341829
 30
0.0
  0
VERTEX
  5
77B
330
774
100
AcDbEntity
  8
\U+838C\U+8343\U+8384\U+815B_1
100
AcDbVertex
100
AcDb2dVertex
 10
37.14105766215571
 20
-105.2282022848909
 30
0.0
  0
VERTEX
  5
77C
330
774
100
AcDbEntity
  8
\U+838C\U+8343\U+8384\U+815B_1
100
AcDbVertex
100
AcDb2dVertex
 10
37.22460122767302
 20
-105.8686455355988
 30
0.0
  0
VERTEX
  5
77D
330
774
100
AcDbEntity
  8
\U+838C\U+8343\U+8384\U+815B_1
100
AcDbVertex
100
AcDb2dVertex
 10
37.37790797676664
 20
-106.509261041081
 30
0.0
  0
SEQEND
  5
77E
330
774
100
AcDbEntity
  8
\U+838C\U+8343\U+8384\U+815B_1
  0
POLYLINE
  5
77F
330
3C
100
AcDbEntity
  8
\U+838C\U+8343\U+8384\U+815B_1
100
AcDb2dPolyline
 66
     1
 10
0.0
 20
0.0
 30
0.0
  0
VERTEX
  5
780
330
77F
100
AcDbEntity
  8
\U+838C\U+8343\U+8384\U+815B_1
100
AcDbVertex
100
AcDb2dVertex
 10
37.69812960212061
 20
-108.3472194824618
 30
0.0
  0
VERTEX
  5
781
330
77F
100
AcDbEntity
  8
\U+838C\U+8343\U+8384\U+815B_1
100
AcDbVertex
100
AcDb2dVertex
 10
37.93480766195727
 20
-109.4751437443326
 30
0.0
  0
VERTEX
  5
782
330
77F
100
AcDbEntity
  8
\U+838C\U+8343\U+8384\U+815B_1
100
AcDbVertex
100
AcDb2dVertex
 10
38.25502928731125
 20
-110.5195244406861
 30
0.0
  0
VERTEX
  5
783
330
77F
100
AcDbEntity
  8
\U+838C\U+8343\U+8384\U+815B_1
100
AcDbVertex
100
AcDb2dVertex
 10
38.57525091266522
 20
-111.6333238110674
 30
0.0
  0
VERTEX
  5
784
330
77F
100
AcDbEntity
  8
\U+838C\U+8343\U+8384\U+815B_1
100
AcDbVertex
100
AcDb2dVertex
 10
38.97918835831076
 20
-112.7612480729382
 30
0.0
  0
VERTEX
  5
785
330
77F
100
AcDbEntity
  8
\U+838C\U+8343\U+8384\U+815B_1
100
AcDbVertex
100
AcDb2dVertex
 10
39.38295354918204
 20
-113.8056287692917
 30
0.0
  0
VERTEX
  5
786
330
77F
100
AcDbEntity
  8
\U+838C\U+8343\U+8384\U+815B_1
100
AcDbVertex
100
AcDb2dVertex
 10
39.87026230557063
 20
-114.8500094656451
 30
0.0
  0
VERTEX
  5
787
330
77F
100
AcDbEntity
  8
\U+838C\U+8343\U+8384\U+815B_1
100
AcDbVertex
100
AcDb2dVertex
 10
40.34361842524396
 20
-115.8942179072244
 30
0.0
  0
VERTEX
  5
788
330
77F
100
AcDbEntity
  8
\U+838C\U+8343\U+8384\U+815B_1
100
AcDbVertex
100
AcDb2dVertex
 10
40.91464300192412
 20
-116.9385986035779
 30
0.0
  0
SEQEND
  5
789
330
77F
100
AcDbEntity
  8
\U+838C\U+8343\U+8384\U+815B_1
  0
POLYLINE
  5
78A
330
3C
100
AcDbEntity
  8
\U+838C\U+8343\U+8384\U+815B_1
100
AcDb2dPolyline
 66
     1
 10
0.0
 20
0.0
 30
0.0
  0
VERTEX
  5
78B
330
78A
100
AcDbEntity
  8
\U+838C\U+8343\U+8384\U+815B_1
100
AcDbVertex
100
AcDb2dVertex
 10
169.3794975705024
 20
-116.9385986035779
 30
0.0
  0
VERTEX
  5
78C
330
78A
100
AcDbEntity
  8
\U+838C\U+8343\U+8384\U+815B_1
100
AcDbVertex
100
AcDb2dVertex
 10
169.8669785816652
 20
-115.8942179072244
 30
0.0
  0
VERTEX
  5
78D
330
78A
100
AcDbEntity
  8
\U+838C\U+8343\U+8384\U+815B_1
100
AcDbVertex
100
AcDb2dVertex
 10
170.3403347013385
 20
-114.8500094656451
 30
0.0
  0
VERTEX
  5
78E
330
78A
100
AcDbEntity
  8
\U+838C\U+8343\U+8384\U+815B_1
100
AcDbVertex
100
AcDb2dVertex
 10
170.8278157125014
 20
-113.8056287692917
 30
0.0
  0
VERTEX
  5
78F
330
78A
100
AcDbEntity
  8
\U+838C\U+8343\U+8384\U+815B_1
100
AcDbVertex
100
AcDb2dVertex
 10
171.3011718321747
 20
-112.7612480729382
 30
0.0
  0
VERTEX
  5
790
330
78A
100
AcDbEntity
  8
\U+838C\U+8343\U+8384\U+815B_1
100
AcDbVertex
100
AcDb2dVertex
 10
171.6353460942439
 20
-111.6333238110674
 30
0.0
  0
VERTEX
  5
791
330
78A
100
AcDbEntity
  8
\U+838C\U+8343\U+8384\U+815B_1
100
AcDbVertex
100
AcDb2dVertex
 10
172.0253309031742
 20
-110.5195244406861
 30
0.0
  0
VERTEX
  5
792
330
78A
100
AcDbEntity
  8
\U+838C\U+8343\U+8384\U+815B_1
100
AcDbVertex
100
AcDb2dVertex
 10
172.2757893449519
 20
-109.4751437443326
 30
0.0
  0
VERTEX
  5
793
330
78A
100
AcDbEntity
  8
\U+838C\U+8343\U+8384\U+815B_1
100
AcDbVertex
100
AcDb2dVertex
 10
172.5961832250801
 20
-108.3472194824618
 30
0.0
  0
SEQEND
  5
794
330
78A
100
AcDbEntity
  8
\U+838C\U+8343\U+8384\U+815B_1
  0
POLYLINE
  5
795
330
3C
100
AcDbEntity
  8
\U+838C\U+8343\U+8384\U+815B_1
100
AcDb2dPolyline
 66
     1
 10
0.0
 20
0.0
 30
0.0
  0
VERTEX
  5
796
330
795
100
AcDbEntity
  8
\U+838C\U+8343\U+8384\U+815B_1
100
AcDbVertex
100
AcDb2dVertex
 10
172.9162325956598
 20
-106.509261041081
 30
0.0
  0
VERTEX
  5
797
330
795
100
AcDbEntity
  8
\U+838C\U+8343\U+8384\U+815B_1
100
AcDbVertex
100
AcDb2dVertex
 10
172.9858235244619
 20
-105.8686455355988
 30
0.0
  0
VERTEX
  5
798
330
795
100
AcDbEntity
  8
\U+838C\U+8343\U+8384\U+815B_1
100
AcDbVertex
100
AcDb2dVertex
 10
173.0695393447535
 20
-105.2282022848909
 30
0.0
  0
SEQEND
  5
799
330
795
100
AcDbEntity
  8
\U+838C\U+8343\U+8384\U+815B_1
  0
POLYLINE
  5
79A
330
3C
100
AcDbEntity
  8
\U+838C\U+8343\U+8384\U+815B_1
100
AcDb2dPolyline
 66
     1
 10
0.0
 20
0.0
 30
0.0
  0
VERTEX
  5
79B
330
79A
100
AcDbEntity
  8
\U+838C\U+8343\U+8384\U+815B_1
100
AcDbVertex
100
AcDb2dVertex
 10
173.0695393447535
 20
-105.2282022848909
 30
0.0
  0
VERTEX
  5
79C
330
79A
100
AcDbEntity
  8
\U+838C\U+8343\U+8384\U+815B_1
100
AcDbVertex
100
AcDb2dVertex
 10
173.153255165045
 20
-104.5877590341829
 30
0.0
  0
SEQEND
  5
79D
330
79A
100
AcDbEntity
  8
\U+838C\U+8343\U+8384\U+815B_1
  0
POLYLINE
  5
79E
330
3C
100
AcDbEntity
  8
\U+838C\U+8343\U+8384\U+815B_1
100
AcDb2dPolyline
 66
     1
 10
0.0
 20
0.0
 30
0.0
  0
VERTEX
  5
79F
330
79E
100
AcDbEntity
  8
\U+838C\U+8343\U+8384\U+815B_1
100
AcDbVertex
100
AcDb2dVertex
 10
173.153255165045
 20
-104.5877590341829
 30
0.0
  0
VERTEX
  5
7A0
330
79E
100
AcDbEntity
  8
\U+838C\U+8343\U+8384\U+815B_1
100
AcDbVertex
100
AcDb2dVertex
 10
173.2366264757881
 20
-103.9471435287007
 30
0.0
  0
VERTEX
  5
7A1
330
79E
100
AcDbEntity
  8
\U+838C\U+8343\U+8384\U+815B_1
100
AcDbVertex
100
AcDb2dVertex
 10
173.2366264757881
 20
-103.3065280232185
 30
0.0
  0
VERTEX
  5
7A2
330
79E
100
AcDbEntity
  8
\U+838C\U+8343\U+8384\U+815B_1
100
AcDbVertex
100
AcDb2dVertex
 10
173.3062174045901
 20
-102.6660847725106
 30
0.0
  0
VERTEX
  5
7A3
330
79E
100
AcDbEntity
  8
\U+838C\U+8343\U+8384\U+815B_1
100
AcDbVertex
100
AcDb2dVertex
 10
173.3062174045901
 20
-102.0116888850874
 30
0.0
  0
VERTEX
  5
7A4
330
79E
100
AcDbEntity
  8
\U+838C\U+8343\U+8384\U+815B_1
100
AcDbVertex
100
AcDb2dVertex
 10
173.3062174045901
 20
-101.3710733796051
 30
0.0
  0
SEQEND
  5
7A5
330
79E
100
AcDbEntity
  8
\U+838C\U+8343\U+8384\U+815B_1
  0
POLYLINE
  5
7A6
330
3C
100
AcDbEntity
  8
\U+838C\U+8343\U+8384\U+815B_1
100
AcDb2dPolyline
 66
     1
 10
0.0
 20
0.0
 30
0.0
  0
VERTEX
  5
7A7
330
7A6
100
AcDbEntity
  8
\U+838C\U+8343\U+8384\U+815B_1
100
AcDbVertex
100
AcDb2dVertex
 10
121.2714951953766
 20
-207.6979166147422
 30
0.0
  0
VERTEX
  5
7A8
330
7A6
100
AcDbEntity
  8
\U+838C\U+8343\U+8384\U+815B_1
100
AcDbVertex
100
AcDb2dVertex
 10
121.3410861241786
 20
-207.6979166147422
 30
0.0
  0
VERTEX
  5
7A9
330
7A6
100
AcDbEntity
  8
\U+838C\U+8343\U+8384\U+815B_1
100
AcDbVertex
100
AcDb2dVertex
 10
121.4244574349217
 20
-207.6979166147422
 30
0.0
  0
VERTEX
  5
7AA
330
7A6
100
AcDbEntity
  8
\U+838C\U+8343\U+8384\U+815B_1
100
AcDbVertex
100
AcDb2dVertex
 10
121.5081732552132
 20
-207.6979166147422
 30
0.0
  0
VERTEX
  5
7AB
330
7A6
100
AcDbEntity
  8
\U+838C\U+8343\U+8384\U+815B_1
100
AcDbVertex
100
AcDb2dVertex
 10
121.5081732552132
 20
-207.6145453039992
 30
0.0
  0
VERTEX
  5
7AC
330
7A6
100
AcDbEntity
  8
\U+838C\U+8343\U+8384\U+815B_1
100
AcDbVertex
100
AcDb2dVertex
 10
121.5915445659563
 20
-207.6145453039992
 30
0.0
  0
VERTEX
  5
7AD
330
7A6
100
AcDbEntity
  8
\U+838C\U+8343\U+8384\U+815B_1
100
AcDbVertex
100
AcDb2dVertex
 10
121.6611354947583
 20
-207.5449543751971
 30
0.0
  0
SEQEND
  5
7AE
330
7A6
100
AcDbEntity
  8
\U+838C\U+8343\U+8384\U+815B_1
  0
POLYLINE
  5
7AF
330
3C
100
AcDbEntity
  8
\U+838C\U+8343\U+8384\U+815B_1
100
AcDb2dPolyline
 66
     1
 10
0.0
 20
0.0
 30
0.0
  0
VERTEX
  5
7B0
330
7AF
100
AcDbEntity
  8
\U+838C\U+8343\U+8384\U+815B_1
100
AcDbVertex
100
AcDb2dVertex
 10
88.61905244095288
 20
-207.5449543751971
 30
0.0
  0
VERTEX
  5
7B1
330
7AF
100
AcDbEntity
  8
\U+838C\U+8343\U+8384\U+815B_1
100
AcDbVertex
100
AcDb2dVertex
 10
88.70259600647019
 20
-207.6145453039992
 30
0.0
  0
VERTEX
  5
7B2
330
7AF
100
AcDbEntity
  8
\U+838C\U+8343\U+8384\U+815B_1
100
AcDbVertex
100
AcDb2dVertex
 10
88.78613957198749
 20
-207.6979166147422
 30
0.0
  0
VERTEX
  5
7B3
330
7AF
100
AcDbEntity
  8
\U+838C\U+8343\U+8384\U+815B_1
100
AcDbVertex
100
AcDb2dVertex
 10
88.86968313750481
 20
-207.6979166147422
 30
0.0
  0
VERTEX
  5
7B4
330
7AF
100
AcDbEntity
  8
\U+838C\U+8343\U+8384\U+815B_1
100
AcDbVertex
100
AcDb2dVertex
 10
88.93927406630685
 20
-207.6979166147422
 30
0.0
  0
VERTEX
  5
7B5
330
7AF
100
AcDbEntity
  8
\U+838C\U+8343\U+8384\U+815B_1
100
AcDbVertex
100
AcDb2dVertex
 10
89.02281763182415
 20
-207.6979166147422
 30
0.0
  0
SEQEND
  5
7B6
330
7AF
100
AcDbEntity
  8
\U+838C\U+8343\U+8384\U+815B_1
  0
POLYLINE
  5
7B7
330
3C
100
AcDbEntity
  8
\U+838C\U+8343\U+8384\U+815B_1
100
AcDb2dPolyline
 66
     1
 10
0.0
 20
0.0
 30
0.0
  0
VERTEX
  5
7B8
330
7B7
100
AcDbEntity
  8
\U+838C\U+8343\U+8384\U+815B_1
100
AcDbVertex
100
AcDb2dVertex
 10
88.61905244095288
 20
-207.5449543751971
 30
0.0
  0
VERTEX
  5
7B9
330
7B7
100
AcDbEntity
  8
\U+838C\U+8343\U+8384\U+815B_1
100
AcDbVertex
100
AcDb2dVertex
 10
88.6469577143834
 20
-207.5449543751971
 30
0.0
  0
SEQEND
  5
7BA
330
7B7
100
AcDbEntity
  8
\U+838C\U+8343\U+8384\U+815B_1
  0
POLYLINE
  5
7BB
330
3C
100
AcDbEntity
  8
\U+838C\U+8343\U+8384\U+815B_1
100
AcDb2dPolyline
 66
     1
 10
0.0
 20
0.0
 30
0.0
  0
VERTEX
  5
7BC
330
7BB
100
AcDbEntity
  8
\U+838C\U+8343\U+8384\U+815B_1
100
AcDbVertex
100
AcDb2dVertex
 10
81.80999346913084
 20
-175.6998697477417
 30
0.0
  0
VERTEX
  5
7BD
330
7BB
100
AcDbEntity
  8
\U+838C\U+8343\U+8384\U+815B_1
100
AcDbVertex
100
AcDb2dVertex
 10
81.80999346913084
 20
-189.9859917059757
 30
0.0
  0
SEQEND
  5
7BE
330
7BB
100
AcDbEntity
  8
\U+838C\U+8343\U+8384\U+815B_1
  0
POLYLINE
  5
7BF
330
3C
100
AcDbEntity
  8
\U+838C\U+8343\U+8384\U+815B_1
100
AcDb2dPolyline
 66
     1
 10
0.0
 20
0.0
 30
0.0
  0
VERTEX
  5
7C0
330
7BF
100
AcDbEntity
  8
\U+838C\U+8343\U+8384\U+815B_1
100
AcDbVertex
100
AcDb2dVertex
 10
128.4004312830041
 20
-189.9859917059757
 30
0.0
  0
VERTEX
  5
7C1
330
7BF
100
AcDbEntity
  8
\U+838C\U+8343\U+8384\U+815B_1
100
AcDbVertex
100
AcDb2dVertex
 10
128.4004312830041
 20
-175.6998697477417
 30
0.0
  0
SEQEND
  5
7C2
330
7BF
100
AcDbEntity
  8
\U+838C\U+8343\U+8384\U+815B_1
  0
POLYLINE
  5
7C3
330
3C
100
AcDbEntity
  8
\U+838C\U+8343\U+8384\U+815B_1
100
AcDb2dPolyline
 66
     1
 10
0.0
 20
0.0
 30
0.0
  0
VERTEX
  5
7C4
330
7C3
100
AcDbEntity
  8
\U+838C\U+8343\U+8384\U+815B_1
100
AcDbVertex
100
AcDb2dVertex
 10
121.6611354947583
 20
-207.5449543751971
 30
0.0
  0
VERTEX
  5
7C5
330
7C3
100
AcDbEntity
  8
\U+838C\U+8343\U+8384\U+815B_1
100
AcDbVertex
100
AcDb2dVertex
 10
123.1928249475004
 20
-205.6928710423268
 30
0.0
  0
VERTEX
  5
7C6
330
7C3
100
AcDbEntity
  8
\U+838C\U+8343\U+8384\U+815B_1
100
AcDbVertex
100
AcDb2dVertex
 10
124.5574272692079
 20
-203.6878254699114
 30
0.0
  0
VERTEX
  5
7C7
330
7C3
100
AcDbEntity
  8
\U+838C\U+8343\U+8384\U+815B_1
100
AcDbVertex
100
AcDb2dVertex
 10
125.7549424598807
 20
-201.5987195676559
 30
0.0
  0
VERTEX
  5
7C8
330
7C3
100
AcDbEntity
  8
\U+838C\U+8343\U+8384\U+815B_1
100
AcDbVertex
100
AcDb2dVertex
 10
126.7157795907169
 20
-199.3573404449523
 30
0.0
  0
VERTEX
  5
7C9
330
7C3
100
AcDbEntity
  8
\U+838C\U+8343\U+8384\U+815B_1
100
AcDbVertex
100
AcDb2dVertex
 10
127.4399386617164
 20
-197.1152723031518
 30
0.0
  0
VERTEX
  5
7CA
330
7C3
100
AcDbEntity
  8
\U+838C\U+8343\U+8384\U+815B_1
100
AcDbVertex
100
AcDb2dVertex
 10
127.9966660921328
 20
-194.7898328506081
 30
0.0
  0
VERTEX
  5
7CB
330
7C3
100
AcDbEntity
  8
\U+838C\U+8343\U+8384\U+815B_1
100
AcDbVertex
100
AcDb2dVertex
 10
128.317059972261
 20
-192.3810220873214
 30
0.0
  0
VERTEX
  5
7CC
330
7C3
100
AcDbEntity
  8
\U+838C\U+8343\U+8384\U+815B_1
100
AcDbVertex
100
AcDb2dVertex
 10
128.4004312830041
 20
-189.9859917059757
 30
0.0
  0
SEQEND
  5
7CD
330
7C3
100
AcDbEntity
  8
\U+838C\U+8343\U+8384\U+815B_1
  0
POLYLINE
  5
7CE
330
3C
100
AcDbEntity
  8
\U+838C\U+8343\U+8384\U+815B_1
100
AcDb2dPolyline
 66
     1
 10
0.0
 20
0.0
 30
0.0
  0
VERTEX
  5
7CF
330
7CE
100
AcDbEntity
  8
\U+838C\U+8343\U+8384\U+815B_1
100
AcDbVertex
100
AcDb2dVertex
 10
81.80999346913084
 20
-189.9859917059757
 30
0.0
  0
VERTEX
  5
7D0
330
7CE
100
AcDbEntity
  8
\U+838C\U+8343\U+8384\U+815B_1
100
AcDbVertex
100
AcDb2dVertex
 10
81.96330021822446
 20
-192.3810220873214
 30
0.0
  0
VERTEX
  5
7D1
330
7CE
100
AcDbEntity
  8
\U+838C\U+8343\U+8384\U+815B_1
100
AcDbVertex
100
AcDb2dVertex
 10
82.28352184357843
 20
-194.7898328506081
 30
0.0
  0
VERTEX
  5
7D2
330
7CE
100
AcDbEntity
  8
\U+838C\U+8343\U+8384\U+815B_1
100
AcDbVertex
100
AcDb2dVertex
 10
82.85437416548433
 20
-197.1152723031518
 30
0.0
  0
VERTEX
  5
7D3
330
7CE
100
AcDbEntity
  8
\U+838C\U+8343\U+8384\U+815B_1
100
AcDbVertex
100
AcDb2dVertex
 10
83.57853323648385
 20
-199.3573404449523
 30
0.0
  0
VERTEX
  5
7D4
330
7CE
100
AcDbEntity
  8
\U+838C\U+8343\U+8384\U+815B_1
100
AcDbVertex
100
AcDb2dVertex
 10
84.53919811254576
 20
-201.5987195676559
 30
0.0
  0
VERTEX
  5
7D5
330
7CE
100
AcDbEntity
  8
\U+838C\U+8343\U+8384\U+815B_1
100
AcDbVertex
100
AcDb2dVertex
 10
85.73671330321861
 20
-203.6878254699114
 30
0.0
  0
VERTEX
  5
7D6
330
7CE
100
AcDbEntity
  8
\U+838C\U+8343\U+8384\U+815B_1
100
AcDbVertex
100
AcDb2dVertex
 10
87.10131562492606
 20
-205.6928710423268
 30
0.0
  0
VERTEX
  5
7D7
330
7CE
100
AcDbEntity
  8
\U+838C\U+8343\U+8384\U+815B_1
100
AcDbVertex
100
AcDb2dVertex
 10
88.61905244095288
 20
-207.5449543751971
 30
0.0
  0
SEQEND
  5
7D8
330
7CE
100
AcDbEntity
  8
\U+838C\U+8343\U+8384\U+815B_1
  0
POLYLINE
  5
7D9
330
3C
100
AcDbEntity
  8
\U+838C\U+8343\U+8384\U+815B_1
100
AcDb2dPolyline
 66
     1
 10
0.0
 20
0.0
 30
0.0
  0
VERTEX
  5
7DA
330
7D9
100
AcDbEntity
  8
\U+838C\U+8343\U+8384\U+815B_1
100
AcDbVertex
100
AcDb2dVertex
 10
72.0212714121162
 20
-154.785384075887
 30
0.0
  0
VERTEX
  5
7DB
330
7D9
100
AcDbEntity
  8
\U+838C\U+8343\U+8384\U+815B_1
100
AcDbVertex
100
AcDb2dVertex
 10
74.1935763703405
 20
-156.7766492663614
 30
0.0
  0
VERTEX
  5
7DC
330
7D9
100
AcDbEntity
  8
\U+838C\U+8343\U+8384\U+815B_1
100
AcDbVertex
100
AcDb2dVertex
 10
76.1986219427559
 20
-159.115869100846
 30
0.0
  0
VERTEX
  5
7DD
330
7D9
100
AcDbEntity
  8
\U+838C\U+8343\U+8384\U+815B_1
100
AcDbVertex
100
AcDb2dVertex
 10
77.88344588981734
 20
-161.5108994821917
 30
0.0
  0
VERTEX
  5
7DE
330
7D9
100
AcDbEntity
  8
\U+838C\U+8343\U+8384\U+815B_1
100
AcDbVertex
100
AcDb2dVertex
 10
79.2480482115248
 20
-164.1560437957665
 30
0.0
  0
VERTEX
  5
7DF
330
7D9
100
AcDbEntity
  8
\U+838C\U+8343\U+8384\U+815B_1
100
AcDbVertex
100
AcDb2dVertex
 10
80.36201983668033
 20
-166.9693087690216
 30
0.0
  0
VERTEX
  5
7E0
330
7D9
100
AcDbEntity
  8
\U+838C\U+8343\U+8384\U+815B_1
100
AcDbVertex
100
AcDb2dVertex
 10
81.1695502184229
 20
-169.7681043412385
 30
0.0
  0
VERTEX
  5
7E1
330
7D9
100
AcDbEntity
  8
\U+838C\U+8343\U+8384\U+815B_1
100
AcDbVertex
100
AcDb2dVertex
 10
81.64290633809622
 20
-172.7336425349416
 30
0.0
  0
VERTEX
  5
7E2
330
7D9
100
AcDbEntity
  8
\U+838C\U+8343\U+8384\U+815B_1
100
AcDbVertex
100
AcDb2dVertex
 10
81.80999346913084
 20
-175.6998697477417
 30
0.0
  0
SEQEND
  5
7E3
330
7D9
100
AcDbEntity
  8
\U+838C\U+8343\U+8384\U+815B_1
  0
POLYLINE
  5
7E4
330
3C
100
AcDbEntity
  8
\U+838C\U+8343\U+8384\U+815B_1
100
AcDb2dPolyline
 66
     1
 10
0.0
 20
0.0
 30
0.0
  0
VERTEX
  5
7E5
330
7E4
100
AcDbEntity
  8
\U+838C\U+8343\U+8384\U+815B_1
100
AcDbVertex
100
AcDb2dVertex
 10
128.4004312830041
 20
-175.6998697477417
 30
0.0
  0
VERTEX
  5
7E6
330
7E4
100
AcDbEntity
  8
\U+838C\U+8343\U+8384\U+815B_1
100
AcDbVertex
100
AcDb2dVertex
 10
128.5675184140387
 20
-172.7336425349416
 30
0.0
  0
VERTEX
  5
7E7
330
7E4
100
AcDbEntity
  8
\U+838C\U+8343\U+8384\U+815B_1
100
AcDbVertex
100
AcDb2dVertex
 10
129.0412190432605
 20
-169.7681043412385
 30
0.0
  0
VERTEX
  5
7E8
330
7E4
100
AcDbEntity
  8
\U+838C\U+8343\U+8384\U+815B_1
100
AcDbVertex
100
AcDb2dVertex
 10
129.9321207357461
 20
-166.9693087690216
 30
0.0
  0
VERTEX
  5
7E9
330
7E4
100
AcDbEntity
  8
\U+838C\U+8343\U+8384\U+815B_1
100
AcDbVertex
100
AcDb2dVertex
 10
130.9625487953844
 20
-164.1560437957665
 30
0.0
  0
VERTEX
  5
7EA
330
7E4
100
AcDbEntity
  8
\U+838C\U+8343\U+8384\U+815B_1
100
AcDbVertex
100
AcDb2dVertex
 10
132.4108669373834
 20
-161.5108994821917
 30
0.0
  0
VERTEX
  5
7EB
330
7E4
100
AcDbEntity
  8
\U+838C\U+8343\U+8384\U+815B_1
100
AcDbVertex
100
AcDb2dVertex
 10
134.0955186296706
 20
-159.115869100846
 30
0.0
  0
VERTEX
  5
7EC
330
7E4
100
AcDbEntity
  8
\U+838C\U+8343\U+8384\U+815B_1
100
AcDbVertex
100
AcDb2dVertex
 10
136.0171928913429
 20
-156.7766492663614
 30
0.0
  0
VERTEX
  5
7ED
330
7E4
100
AcDbEntity
  8
\U+838C\U+8343\U+8384\U+815B_1
100
AcDbVertex
100
AcDb2dVertex
 10
138.189325594793
 20
-154.785384075887
 30
0.0
  0
SEQEND
  5
7EE
330
7E4
100
AcDbEntity
  8
\U+838C\U+8343\U+8384\U+815B_1
  0
POLYLINE
  5
7EF
330
3C
100
AcDbEntity
  8
\U+838C\U+8343\U+8384\U+815B_1
100
AcDb2dPolyline
 66
     1
 10
0.0
 20
0.0
 30
0.0
  0
VERTEX
  5
7F0
330
7EF
100
AcDbEntity
  8
\U+838C\U+8343\U+8384\U+815B_1
100
AcDbVertex
100
AcDb2dVertex
 10
138.189325594793
 20
-154.785384075887
 30
0.0
  0
VERTEX
  5
7F1
330
7EF
100
AcDbEntity
  8
\U+838C\U+8343\U+8384\U+815B_1
100
AcDbVertex
100
AcDb2dVertex
 10
141.9627386797871
 20
-151.4849826010177
 30
0.0
  0
VERTEX
  5
7F2
330
7EF
100
AcDbEntity
  8
\U+838C\U+8343\U+8384\U+815B_1
100
AcDbVertex
100
AcDb2dVertex
 10
145.6386555625487
 20
-148.1292873436101
 30
0.0
  0
VERTEX
  5
7F3
330
7EF
100
AcDbEntity
  8
\U+838C\U+8343\U+8384\U+815B_1
100
AcDbVertex
100
AcDb2dVertex
 10
149.1753905877061
 20
-144.5090087529352
 30
0.0
  0
VERTEX
  5
7F4
330
7EF
100
AcDbEntity
  8
\U+838C\U+8343\U+8384\U+815B_1
100
AcDbVertex
100
AcDb2dVertex
 10
152.5453829913776
 20
-140.9025105442015
 30
0.0
  0
VERTEX
  5
7F5
330
7EF
100
AcDbEntity
  8
\U+838C\U+8343\U+8384\U+815B_1
100
AcDbVertex
100
AcDb2dVertex
 10
155.7479437544658
 20
-137.059334275631
 30
0.0
  0
VERTEX
  5
7F6
330
7EF
100
AcDbEntity
  8
\U+838C\U+8343\U+8384\U+815B_1
100
AcDbVertex
100
AcDb2dVertex
 10
158.880913588752
 20
-133.1327866963175
 30
0.0
  0
VERTEX
  5
7F7
330
7EF
100
AcDbEntity
  8
\U+838C\U+8343\U+8384\U+815B_1
100
AcDbVertex
100
AcDb2dVertex
 10
161.763080471712
 20
-129.1225232967124
 30
0.0
  0
VERTEX
  5
7F8
330
7EF
100
AcDbEntity
  8
\U+838C\U+8343\U+8384\U+815B_1
100
AcDbVertex
100
AcDb2dVertex
 10
164.57565642587
 20
-124.9451727660727
 30
0.0
  0
SEQEND
  5
7F9
330
7EF
100
AcDbEntity
  8
\U+838C\U+8343\U+8384\U+815B_1
  0
POLYLINE
  5
7FA
330
3C
100
AcDbEntity
  8
\U+838C\U+8343\U+8384\U+815B_1
100
AcDb2dPolyline
 66
     1
 10
0.0
 20
0.0
 30
0.0
  0
VERTEX
  5
7FB
330
7FA
100
AcDbEntity
  8
\U+838C\U+8343\U+8384\U+815B_1
100
AcDbVertex
100
AcDb2dVertex
 10
45.71848414655649
 20
-124.9451727660727
 30
0.0
  0
VERTEX
  5
7FC
330
7FA
100
AcDbEntity
  8
\U+838C\U+8343\U+8384\U+815B_1
100
AcDbVertex
100
AcDb2dVertex
 10
48.44768878997142
 20
-129.1225232967124
 30
0.0
  0
VERTEX
  5
7FD
330
7FA
100
AcDbEntity
  8
\U+838C\U+8343\U+8384\U+815B_1
100
AcDbVertex
100
AcDb2dVertex
 10
51.41339923844873
 20
-133.1327866963175
 30
0.0
  0
VERTEX
  5
7FE
330
7FA
100
AcDbEntity
  8
\U+838C\U+8343\U+8384\U+815B_1
100
AcDbVertex
100
AcDb2dVertex
 10
54.54636907273494
 20
-137.059334275631
 30
0.0
  0
VERTEX
  5
7FF
330
7FA
100
AcDbEntity
  8
\U+838C\U+8343\U+8384\U+815B_1
100
AcDbVertex
100
AcDb2dVertex
 10
57.74892983582318
 20
-140.9025105442015
 30
0.0
  0
VERTEX
  5
800
330
7FA
100
AcDbEntity
  8
\U+838C\U+8343\U+8384\U+815B_1
100
AcDbVertex
100
AcDb2dVertex
 10
61.11874998472032
 20
-144.5090087529352
 30
0.0
  0
VERTEX
  5
801
330
7FA
100
AcDbEntity
  8
\U+838C\U+8343\U+8384\U+815B_1
100
AcDbVertex
100
AcDb2dVertex
 10
64.64153237316253
 20
-148.1292873436101
 30
0.0
  0
VERTEX
  5
802
330
7FA
100
AcDbEntity
  8
\U+838C\U+8343\U+8384\U+815B_1
100
AcDbVertex
100
AcDb2dVertex
 10
68.24785832712206
 20
-151.4849826010177
 30
0.0
  0
VERTEX
  5
803
330
7FA
100
AcDbEntity
  8
\U+838C\U+8343\U+8384\U+815B_1
100
AcDbVertex
100
AcDb2dVertex
 10
72.0212714121162
 20
-154.785384075887
 30
0.0
  0
SEQEND
  5
804
330
7FA
100
AcDbEntity
  8
\U+838C\U+8343\U+8384\U+815B_1
  0
POLYLINE
  5
805
330
3C
100
AcDbEntity
  8
\U+838C\U+8343\U+8384\U+815B_1
100
AcDb2dPolyline
 66
     1
 10
0.0
 20
0.0
 30
0.0
  0
VERTEX
  5
806
330
805
100
AcDbEntity
  8
\U+838C\U+8343\U+8384\U+815B_1
100
AcDbVertex
100
AcDb2dVertex
 10
46.20579290294508
 20
-124.0678792007539
 30
0.0
  0
VERTEX
  5
807
330
805
100
AcDbEntity
  8
\U+838C\U+8343\U+8384\U+815B_1
100
AcDbVertex
100
AcDb2dVertex
 10
46.03870577191046
 20
-124.0678792007539
 30
0.0
  0
VERTEX
  5
808
330
805
100
AcDbEntity
  8
\U+838C\U+8343\U+8384\U+815B_1
100
AcDbVertex
100
AcDb2dVertex
 10
45.88557127759111
 20
-124.1514227662712
 30
0.0
  0
VERTEX
  5
809
330
805
100
AcDbEntity
  8
\U+838C\U+8343\U+8384\U+815B_1
100
AcDbVertex
100
AcDb2dVertex
 10
45.8020277120738
 20
-124.2349663317885
 30
0.0
  0
VERTEX
  5
80A
330
805
100
AcDbEntity
  8
\U+838C\U+8343\U+8384\U+815B_1
100
AcDbVertex
100
AcDb2dVertex
 10
45.63494058103918
 20
-124.3881008261078
 30
0.0
  0
VERTEX
  5
80B
330
805
100
AcDbEntity
  8
\U+838C\U+8343\U+8384\U+815B_1
100
AcDbVertex
100
AcDb2dVertex
 10
45.63494058103918
 20
-124.5551879571425
 30
0.0
  0
VERTEX
  5
80C
330
805
100
AcDbEntity
  8
\U+838C\U+8343\U+8384\U+815B_1
100
AcDbVertex
100
AcDb2dVertex
 10
45.63494058103918
 20
-124.6249511407188
 30
0.0
  0
VERTEX
  5
80D
330
805
100
AcDbEntity
  8
\U+838C\U+8343\U+8384\U+815B_1
100
AcDbVertex
100
AcDb2dVertex
 10
45.63494058103918
 20
-124.7920382717534
 30
0.0
  0
VERTEX
  5
80E
330
805
100
AcDbEntity
  8
\U+838C\U+8343\U+8384\U+815B_1
100
AcDbVertex
100
AcDb2dVertex
 10
45.71848414655649
 20
-124.9451727660727
 30
0.0
  0
SEQEND
  5
80F
330
805
100
AcDbEntity
  8
\U+838C\U+8343\U+8384\U+815B_1
  0
POLYLINE
  5
810
330
3C
100
AcDbEntity
  8
\U+838C\U+8343\U+8384\U+815B_1
100
AcDb2dPolyline
 66
     1
 10
0.0
 20
0.0
 30
0.0
  0
VERTEX
  5
811
330
810
100
AcDbEntity
  8
\U+838C\U+8343\U+8384\U+815B_1
100
AcDbVertex
100
AcDb2dVertex
 10
164.57565642587
 20
-124.9451727660727
 30
0.0
  0
VERTEX
  5
812
330
810
100
AcDbEntity
  8
\U+838C\U+8343\U+8384\U+815B_1
100
AcDbVertex
100
AcDb2dVertex
 10
164.645247354672
 20
-124.7920382717534
 30
0.0
  0
VERTEX
  5
813
330
810
100
AcDbEntity
  8
\U+838C\U+8343\U+8384\U+815B_1
100
AcDbVertex
100
AcDb2dVertex
 10
164.645247354672
 20
-124.6249511407188
 30
0.0
  0
VERTEX
  5
814
330
810
100
AcDbEntity
  8
\U+838C\U+8343\U+8384\U+815B_1
100
AcDbVertex
100
AcDb2dVertex
 10
164.645247354672
 20
-124.5551879571425
 30
0.0
  0
VERTEX
  5
815
330
810
100
AcDbEntity
  8
\U+838C\U+8343\U+8384\U+815B_1
100
AcDbVertex
100
AcDb2dVertex
 10
164.57565642587
 20
-124.3881008261078
 30
0.0
  0
VERTEX
  5
816
330
810
100
AcDbEntity
  8
\U+838C\U+8343\U+8384\U+815B_1
100
AcDbVertex
100
AcDb2dVertex
 10
164.4922851151269
 20
-124.2349663317885
 30
0.0
  0
VERTEX
  5
817
330
810
100
AcDbEntity
  8
\U+838C\U+8343\U+8384\U+815B_1
100
AcDbVertex
100
AcDb2dVertex
 10
164.4085692948354
 20
-124.1514227662712
 30
0.0
  0
VERTEX
  5
818
330
810
100
AcDbEntity
  8
\U+838C\U+8343\U+8384\U+815B_1
100
AcDbVertex
100
AcDb2dVertex
 10
164.2556070552903
 20
-124.0678792007539
 30
0.0
  0
SEQEND
  5
819
330
810
100
AcDbEntity
  8
\U+838C\U+8343\U+8384\U+815B_1
  0
POLYLINE
  5
81A
330
3C
100
AcDbEntity
  8
\U+838C\U+8343\U+8384\U+815B_1
100
AcDb2dPolyline
 66
     1
 10
0.0
 20
0.0
 30
0.0
  0
VERTEX
  5
81B
330
81A
100
AcDbEntity
  8
\U+838C\U+8343\U+8384\U+815B_1
100
AcDbVertex
100
AcDb2dVertex
 10
164.2556070552903
 20
-124.0678792007539
 30
0.0
  0
VERTEX
  5
81C
330
81A
100
AcDbEntity
  8
\U+838C\U+8343\U+8384\U+815B_1
100
AcDbVertex
100
AcDb2dVertex
 10
164.0885199242556
 20
-124.0678792007539
 30
0.0
  0
SEQEND
  5
81D
330
81A
100
AcDbEntity
  8
\U+838C\U+8343\U+8384\U+815B_1
  0
ENDBLK
  5
3F
330
3C
100
AcDbEntity
  8
0
100
AcDbBlockEnd
  0
ENDSEC
  0
SECTION
  2
ENTITIES
  0
INSERT
  5
3D
330
1F
100
AcDbEntity
  8
\U+838C\U+8343\U+8384\U+815B_1
100
AcDbBlockReference
  2
BLOCK_2
 10
0.0
 20
0.0
 30
0.0
  0
ENDSEC
  0
SECTION
  2
OBJECTS
  0
DICTIONARY
  5
C
330
0
100
AcDbDictionary
  3
ACAD_GROUP
350
D
  3
ACAD_LAYOUT
350
1A
  3
ACAD_MLINESTYLE
350
17
  3
ACAD_PLOTSETTINGS
350
19
  3
ACAD_TABLESTYLE
350
81E
  3
ACAD_VISUALSTYLE
350
2A
1001
ACAD
1000
TREAT_AS_HARD
1070
     0
  0
DICTIONARY
  5
D
102
{ACAD_REACTORS
330
C
102
}
330
C
100
AcDbDictionary
1001
ACAD
1000
TREAT_AS_HARD
1070
     0
  0
DICTIONARY
  5
1A
102
{ACAD_REACTORS
330
C
102
}
330
C
100
AcDbDictionary
1001
ACAD
1000
TREAT_AS_HARD
1070
     0
  0
DICTIONARY
  5
17
102
{ACAD_REACTORS
330
C
102
}
330
C
100
AcDbDictionary
  3
STANDARD
350
18
1001
ACAD
1000
TREAT_AS_HARD
1070
     0
  0
DICTIONARY
  5
19
102
{ACAD_REACTORS
330
C
102
}
330
C
100
AcDbDictionary
1001
ACAD
1000
TREAT_AS_HARD
1070
     0
  0
DICTIONARY
  5
81E
102
{ACAD_REACTORS
330
C
102
}
330
C
100
AcDbDictionary
1001
ACAD
1000
TREAT_AS_HARD
1070
     0
  0
DICTIONARY
  5
2A
102
{ACAD_REACTORS
330
C
102
}
330
C
100
AcDbDictionary
  3
2DWIREFRAME
350
2F
  3
3D_HIDDEN
350
31
  3
3DWIREFRAME
350
30
  3
BASIC
350
32
  3
BRIGHTEN
350
36
  3
COLORCHANGE
350
3A
  3
CONCEPTUAL
350
34
  3
DIM
350
35
  3
FACEPATTERN
350
39
  3
FLAT
350
2B
  3
FLATWITHEDGES
350
2C
  3
GOURAUD
350
2D
  3
GOURAUDWITHEDGES
350
2E
  3
LINEPATTERN
350
38
  3
REALISTIC
350
33
  3
THICKEN
350
37
1001
ACAD
1000
TREAT_AS_HARD
1070
     0
  0
MLINESTYLE
  5
18
102
{ACAD_REACTORS
330
17
102
}
330
17
100
AcDbMlineStyle
  2
Standard
 70
     0
  3

 62
   256
 51
90.0
 52
90.0
 71
     2
 49
0.5
 62
   256
  6
BYLAYER
 49
-0.5
 62
   256
  6
BYLAYER
  0
VISUALSTYLE
  5
2F
102
{ACAD_REACTORS
330
2A
102
}
330
2A
100
AcDbVisualStyle
  2
2dWireframe
 70
     4
 71
     0
 72
     2
 73
     0
 90
        0
 40
-0.6
 41
-30.0
 62
     5
 63
     7
 74
     1
 91
        4
 64
     7
 65
   257
 75
     1
175
     1
 42
1.0
 92
        0
 66
   257
 43
1.0
 76
     1
 77
     6
 78
     2
 67
     7
 79
     5
170
     0
171
     0
290
     0
174
     0
 93
        1
 44
0.0
173
     0
291
     0
 45
0.0
1001
ACAD
1000
AcDbSavedByObjectVersion
1070
     0
  0
VISUALSTYLE
  5
31
102
{ACAD_REACTORS
330
2A
102
}
330
2A
100
AcDbVisualStyle
  2
3D Hidden
 70
     6
 71
     1
 72
     2
 73
     2
 90
        0
 40
-0.6
 41
-30.0
 62
     5
 63
     7
 74
     2
 91
        2
 64
     7
 65
   257
 75
     2
175
     1
 42
40.0
 92
        0
 66
   257
 43
1.0
 76
     1
 77
     6
 78
     2
 67
     7
 79
     3
170
     0
171
     0
290
     0
174
     0
 93
        1
 44
0.0
173
     0
291
     0
 45
0.0
1001
ACAD
1000
AcDbSavedByObjectVersion
1070
     0
  0
VISUALSTYLE
  5
30
102
{ACAD_REACTORS
330
2A
102
}
330
2A
100
AcDbVisualStyle
  2
3dWireframe
 70
     5
 71
     0
 72
     2
 73
     0
 90
        0
 40
-0.6
 41
-30.0
 62
     5
 63
     7
 74
     1
 91
        4
 64
     7
 65
   257
 75
     1
175
     1
 42
1.0
 92
        0
 66
   257
 43
1.0
 76
     1
 77
     6
 78
     2
 67
     7
 79
     5
170
     0
171
     0
290
     0
174
     0
 93
        1
 44
0.0
173
     0
291
     0
 45
0.0
1001
ACAD
1000
AcDbSavedByObjectVersion
1070
     0
  0
VISUALSTYLE
  5
32
102
{ACAD_REACTORS
330
2A
102
}
330
2A
100
AcDbVisualStyle
  2
Basic
 70
     7
 71
     1
 72
     0
 73
     1
 90
        0
 40
-0.6
 41
-30.0
 62
     5
 63
     7
 74
     0
 91
        4
 64
     7
 65
   257
 75
     1
175
     1
 42
1.0
 92
        8
 66
     7
 43
1.0
 76
     1
 77
     6
 78
     2
 67
     7
 79
     5
170
     0
171
     0
290
     0
174
     0
 93
        1
 44
0.0
173
     0
291
     1
 45
0.0
1001
ACAD
1000
AcDbSavedByObjectVersion
1070
     0
  0
VISUALSTYLE
  5
36
102
{ACAD_REACTORS
330
2A
102
}
330
2A
100
AcDbVisualStyle
  2
Brighten
 70
    12
 71
     2
 72
     2
 73
     0
 90
        0
 40
-0.6
 41
-30.0
 62
     5
 63
     7
 74
     1
 91
        4
 64
     7
 65
   257
 75
     1
175
     1
 42
1.0
 92
        8
 66
     7
 43
1.0
 76
     1
 77
     6
 78
     2
 67
     7
 79
     5
170
     0
171
     0
290
     0
174
     0
 93
        1
 44
50.0
173
     0
291
     1
 45
0.0
1001
ACAD
1000
AcDbSavedByObjectVersion
1070
     0
  0
VISUALSTYLE
  5
3A
102
{ACAD_REACTORS
330
2A
102
}
330
2A
100
AcDbVisualStyle
  2
ColorChange
 70
    16
 71
     2
 72
     2
 73
     3
 90
        0
 40
-0.6
 41
-30.0
 62
     5
 63
     8
 74
     1
 91
        4
 64
     7
 65
   257
 75
     1
175
     1
 42
1.0
 92
        8
 66
     8
 43
1.0
 76
     1
 77
     6
 78
     2
 67
     7
 79
     5
170
     0
171
     0
290
     0
174
     0
 93
        1
 44
0.0
173
     0
291
     1
 45
0.0
1001
ACAD
1000
AcDbSavedByObjectVersion
1070
     0
  0
VISUALSTYLE
  5
34
102
{ACAD_REACTORS
330
2A
102
}
330
2A
100
AcDbVisualStyle
  2
Conceptual
 70
     9
 71
     3
 72
     2
 73
     0
 90
        0
 40
-0.6
 41
-30.0
 62
     5
 63
     7
 74
     2
 91
        2
 64
     7
 65
   257
 75
     1
175
     1
 42
40.0
 92
        8
 66
     7
 43
1.0
 76
     1
 77
     6
 78
     2
 67
     7
 79
     3
170
     0
171
     0
290
     0
174
     0
 93
        1
 44
0.0
173
     0
291
     0
 45
0.0
1001
ACAD
1000
AcDbSavedByObjectVersion
1070
     0
  0
VISUALSTYLE
  5
35
102
{ACAD_REACTORS
330
2A
102
}
330
2A
100
AcDbVisualStyle
  2
Dim
 70
    11
 71
     2
 72
     2
 73
     0
 90
        0
 40
-0.6
 41
-30.0
 62
     5
 63
     7
 74
     1
 91
        4
 64
     7
 65
   257
 75
     1
175
     1
 42
1.0
 92
        8
 66
     7
 43
1.0
 76
     1
 77
     6
 78
     2
 67
     7
 79
     5
170
     0
171
     0
290
     0
174
     0
 93
        1
 44
-50.0
173
     0
291
     1
 45
0.0
1001
ACAD
1000
AcDbSavedByObjectVersion
1070
     0
  0
VISUALSTYLE
  5
39
102
{ACAD_REACTORS
330
2A
102
}
330
2A
100
AcDbVisualStyle
  2
Facepattern
 70
    15
 71
     2
 72
     2
 73
     0
 90
        0
 40
-0.6
 41
-30.0
 62
     5
 63
     7
 74
     1
 91
        4
 64
     7
 65
   257
 75
     1
175
     1
 42
1.0
 92
        8
 66
     7
 43
1.0
 76
     1
 77
     6
 78
     2
 67
     7
 79
     5
170
     0
171
     0
290
     0
174
     0
 93
        1
 44
0.0
173
     0
291
     1
 45
0.0
1001
ACAD
1000
AcDbSavedByObjectVersion
1070
     0
  0
VISUALSTYLE
  5
2B
102
{ACAD_REACTORS
330
2A
102
}
330
2A
100
AcDbVisualStyle
  2
Flat
 70
     0
 71
     2
 72
     1
 73
     1
 90
        2
 40
-0.6
 41
30.0
 62
     5
 63
     7
 74
     0
 91
        4
 64
     7
 65
   257
 75
     1
175
     1
 42
1.0
 92
        8
 66
     7
 43
1.0
 76
     1
 77
     6
 78
     2
 67
     7
 79
     5
170
     0
171
     0
290
     0
174
     0
 93
       13
 44
0.0
173
     0
291
     1
 45
0.0
1001
ACAD
1000
AcDbSavedByObjectVersion
1070
     0
  0
VISUALSTYLE
  5
2C
102
{ACAD_REACTORS
330
2A
102
}
330
2A
100
AcDbVisualStyle
  2
FlatWithEdges
 70
     1
 71
     2
 72
     1
 73
     1
 90
        2
 40
-0.6
 41
30.0
 62
     5
 63
     7
 74
     1
 91
        4
 64
     7
 65
   257
 75
     1
175
     1
 42
1.0
 92
        0
 66
   257
 43
1.0
 76
     1
 77
     6
 78
     2
 67
     7
 79
     5
170
     0
171
     0
290
     0
174
     0
 93
       13
 44
0.0
173
     0
291
     1
 45
0.0
1001
ACAD
1000
AcDbSavedByObjectVersion
1070
     0
  0
VISUALSTYLE
  5
2D
102
{ACAD_REACTORS
330
2A
102
}
330
2A
100
AcDbVisualStyle
  2
Gouraud
 70
     2
 71
     2
 72
     2
 73
     1
 90
        2
 40
-0.6
 41
30.0
 62
     5
 63
     7
 74
     0
 91
        4
 64
     7
 65
   257
 75
     1
175
     1
 42
1.0
 92
        0
 66
     7
 43
1.0
 76
     1
 77
     6
 78
     2
 67
     7
 79
     5
170
     0
171
     0
290
     0
174
     0
 93
       13
 44
0.0
173
     0
291
     1
 45
0.0
1001
ACAD
1000
AcDbSavedByObjectVersion
1070
     0
  0
VISUALSTYLE
  5
2E
102
{ACAD_REACTORS
330
2A
102
}
330
2A
100
AcDbVisualStyle
  2
GouraudWithEdges
 70
     3
 71
     2
 72
     2
 73
     1
 90
        2
 40
-0.6
 41
30.0
 62
     5
 63
     7
 74
     1
 91
        4
 64
     7
 65
   257
 75
     1
175
     1
 42
1.0
 92
        0
 66
   257
 43
1.0
 76
     1
 77
     6
 78
     2
 67
     7
 79
     5
170
     0
171
     0
290
     0
174
     0
 93
       13
 44
0.0
173
     0
291
     1
 45
0.0
1001
ACAD
1000
AcDbSavedByObjectVersion
1070
     0
  0
VISUALSTYLE
  5
38
102
{ACAD_REACTORS
330
2A
102
}
330
2A
100
AcDbVisualStyle
  2
Linepattern
 70
    14
 71
     2
 72
     2
 73
     0
 90
        0
 40
-0.6
 41
-30.0
 62
     5
 63
     7
 74
     1
 91
        4
 64
     7
 65
   257
 75
     7
175
     7
 42
1.0
 92
        8
 66
     7
 43
1.0
 76
     1
 77
     6
 78
     2
 67
     7
 79
     5
170
     0
171
     0
290
     0
174
     0
 93
        1
 44
0.0
173
     0
291
     1
 45
0.0
1001
ACAD
1000
AcDbSavedByObjectVersion
1070
     0
  0
VISUALSTYLE
  5
33
102
{ACAD_REACTORS
330
2A
102
}
330
2A
100
AcDbVisualStyle
  2
Realistic
 70
     8
 71
     2
 72
     2
 73
     0
 90
        0
 40
-0.6
 41
-30.0
 62
     5
 63
     7
 74
     1
 91
        0
 64
     7
 65
   257
 75
     1
175
     1
 42
1.0
 92
        8
 66
     8
 43
1.0
 76
     1
 77
     6
 78
     2
 67
     7
 79
     5
170
     0
171
     0
290
     0
174
     0
 93
       13
 44
0.0
173
     0
291
     0
 45
0.0
1001
ACAD
1000
AcDbSavedByObjectVersion
1070
     0
  0
VISUALSTYLE
  5
37
102
{ACAD_REACTORS
330
2A
102
}
330
2A
100
AcDbVisualStyle
  2
Thicken
 70
    13
 71
     2
 72
     2
 73
     0
 90
        0
 40
-0.6
 41
-30.0
 62
     5
 63
     7
 74
     1
 91
        4
 64
     7
 65
   257
 75
     1
175
     1
 42
1.0
 92
       12
 66
     7
 43
1.0
 76
     1
 77
     6
 78
     2
 67
     7
 79
     5
170
     0
171
     0
290
     0
174
     0
 93
        1
 44
0.0
173
     0
291
     1
 45
0.0
1001
ACAD
1000
AcDbSavedByObjectVersion
1070
     0
  0
ENDSEC
  0
EOF
