  0
SECTION
  2
HEADER
  9
$ACADVER
  1
AC1015
  9
$ACADMAINTVER
 70
    18
  9
$DWGCODEPAGE
  3
ANSI_932
  9
$INSBASE
 10
0.0
 20
0.0
 30
0.0
  9
$EXTMIN
 10
437.4039377385123
 20
20.77815865410445
 30
0.0
  9
$EXTMAX
 10
986.3874626421685
 20
396.3530768302943
 30
0.0
  9
$LIMMIN
 10
0.0
 20
0.0
  9
$LIMMAX
 10
420.0
 20
297.0
  9
$ORTHOMODE
 70
     0
  9
$REGENMODE
 70
     1
  9
$FILLMODE
 70
     1
  9
$QTEXTMODE
 70
     0
  9
$MIRRTEXT
 70
     1
  9
$LTSCALE
 40
1.0
  9
$ATTMODE
 70
     1
  9
$TEXTSIZE
 40
2.5
  9
$TRACEWID
 40
1.0
  9
$TEXTSTYLE
  7
Standard
  9
$CLAYER
  8
0
  9
$CELTYPE
  6
ByLayer
  9
$CECOLOR
 62
   256
  9
$CELTSCALE
 40
1.0
  9
$DISPSILH
 70
     0
  9
$DIMSCALE
 40
1.0
  9
$DIMASZ
 40
2.5
  9
$DIMEXO
 40
0.625
  9
$DIMDLI
 40
3.75
  9
$DIMRND
 40
0.0
  9
$DIMDLE
 40
0.0
  9
$DIMEXE
 40
1.25
  9
$DIMTP
 40
0.0
  9
$DIMTM
 40
0.0
  9
$DIMTXT
 40
2.5
  9
$DIMCEN
 40
2.5
  9
$DIMTSZ
 40
0.0
  9
$DIMTOL
 70
     0
  9
$DIMLIM
 70
     0
  9
$DIMTIH
 70
     0
  9
$DIMTOH
 70
     0
  9
$DIMSE1
 70
     0
  9
$DIMSE2
 70
     0
  9
$DIMTAD
 70
     1
  9
$DIMZIN
 70
     8
  9
$DIMBLK
  1

  9
$DIMASO
 70
     1
  9
$DIMSHO
 70
     1
  9
$DIMPOST
  1

  9
$DIMAPOST
  1

  9
$DIMALT
 70
     0
  9
$DIMALTD
 70
     3
  9
$DIMALTF
 40
0.0393700787
  9
$DIMLFAC
 40
1.0
  9
$DIMTOFL
 70
     1
  9
$DIMTVP
 40
0.0
  9
$DIMTIX
 70
     0
  9
$DIMSOXD
 70
     0
  9
$DIMSAH
 70
     0
  9
$DIMBLK1
  1

  9
$DIMBLK2
  1

  9
$DIMSTYLE
  2
ISO-25
  9
$DIMCLRD
 70
     0
  9
$DIMCLRE
 70
     0
  9
$DIMCLRT
 70
     0
  9
$DIMTFAC
 40
1.0
  9
$DIMGAP
 40
0.625
  9
$DIMJUST
 70
     0
  9
$DIMSD1
 70
     0
  9
$DIMSD2
 70
     0
  9
$DIMTOLJ
 70
     0
  9
$DIMTZIN
 70
     8
  9
$DIMALTZ
 70
     0
  9
$DIMALTTZ
 70
     0
  9
$DIMUPT
 70
     0
  9
$DIMDEC
 70
     2
  9
$DIMTDEC
 70
     2
  9
$DIMALTU
 70
     2
  9
$DIMALTTD
 70
     3
  9
$DIMTXSTY
  7
Standard
  9
$DIMAUNIT
 70
     0
  9
$DIMADEC
 70
     0
  9
$DIMALTRND
 40
0.0
  9
$DIMAZIN
 70
     0
  9
$DIMDSEP
 70
    44
  9
$DIMATFIT
 70
     3
  9
$DIMFRAC
 70
     0
  9
$DIMLDRBLK
  1

  9
$DIMLUNIT
 70
     2
  9
$DIMLWD
 70
    -2
  9
$DIMLWE
 70
    -2
  9
$DIMTMOVE
 70
     0
  9
$LUNITS
 70
     2
  9
$LUPREC
 70
     2
  9
$SKETCHINC
 40
1.0
  9
$FILLETRAD
 40
10.0
  9
$AUNITS
 70
     0
  9
$AUPREC
 70
     2
  9
$MENU
  1
.
  9
$ELEVATION
 40
0.0
  9
$PELEVATION
 40
0.0
  9
$THICKNESS
 40
0.0
  9
$LIMCHECK
 70
     0
  9
$CHAMFERA
 40
10.0
  9
$CHAMFERB
 40
10.0
  9
$CHAMFERC
 40
20.0
  9
$CHAMFERD
 40
0.0
  9
$SKPOLY
 70
     0
  9
$TDCREATE
 40
2456330.493731111
  9
$TDUCREATE
 40
2456330.118731111
  9
$TDUPDATE
 40
2458006.454425347
  9
$TDUUPDATE
 40
2458006.079425347
  9
$TDINDWG
 40
0.1274007870
  9
$TDUSRTIMER
 40
0.1273740278
  9
$USRTIMER
 70
     1
  9
$ANGBASE
 50
0.0
  9
$ANGDIR
 70
     0
  9
$PDMODE
 70
     0
  9
$PDSIZE
 40
-1.0
  9
$PLINEWID
 40
0.0
  9
$SPLFRAME
 70
     0
  9
$SPLINETYPE
 70
     6
  9
$SPLINESEGS
 70
     8
  9
$HANDSEED
  5
395
  9
$SURFTAB1
 70
     6
  9
$SURFTAB2
 70
     6
  9
$SURFTYPE
 70
     6
  9
$SURFU
 70
     6
  9
$SURFV
 70
     6
  9
$UCSBASE
  2

  9
$UCSNAME
  2

  9
$UCSORG
 10
0.0
 20
0.0
 30
0.0
  9
$UCSXDIR
 10
1.0
 20
0.0
 30
0.0
  9
$UCSYDIR
 10
0.0
 20
1.0
 30
0.0
  9
$UCSORTHOREF
  2

  9
$UCSORTHOVIEW
 70
     0
  9
$UCSORGTOP
 10
0.0
 20
0.0
 30
0.0
  9
$UCSORGBOTTOM
 10
0.0
 20
0.0
 30
0.0
  9
$UCSORGLEFT
 10
0.0
 20
0.0
 30
0.0
  9
$UCSORGRIGHT
 10
0.0
 20
0.0
 30
0.0
  9
$UCSORGFRONT
 10
0.0
 20
0.0
 30
0.0
  9
$UCSORGBACK
 10
0.0
 20
0.0
 30
0.0
  9
$PUCSBASE
  2

  9
$PUCSNAME
  2

  9
$PUCSORG
 10
0.0
 20
0.0
 30
0.0
  9
$PUCSXDIR
 10
1.0
 20
0.0
 30
0.0
  9
$PUCSYDIR
 10
0.0
 20
1.0
 30
0.0
  9
$PUCSORTHOREF
  2

  9
$PUCSORTHOVIEW
 70
     0
  9
$PUCSORGTOP
 10
0.0
 20
0.0
 30
0.0
  9
$PUCSORGBOTTOM
 10
0.0
 20
0.0
 30
0.0
  9
$PUCSORGLEFT
 10
0.0
 20
0.0
 30
0.0
  9
$PUCSORGRIGHT
 10
0.0
 20
0.0
 30
0.0
  9
$PUCSORGFRONT
 10
0.0
 20
0.0
 30
0.0
  9
$PUCSORGBACK
 10
0.0
 20
0.0
 30
0.0
  9
$USERI1
 70
     0
  9
$USERI2
 70
     0
  9
$USERI3
 70
     0
  9
$USERI4
 70
     0
  9
$USERI5
 70
     0
  9
$USERR1
 40
0.0
  9
$USERR2
 40
0.0
  9
$USERR3
 40
0.0
  9
$USERR4
 40
0.0
  9
$USERR5
 40
0.0
  9
$WORLDVIEW
 70
     1
  9
$SHADEDGE
 70
     3
  9
$SHADEDIF
 70
    70
  9
$TILEMODE
 70
     1
  9
$MAXACTVP
 70
    64
  9
$PINSBASE
 10
0.0
 20
0.0
 30
0.0
  9
$PLIMCHECK
 70
     0
  9
$PEXTMIN
 10
1.000000000000000E+20
 20
1.000000000000000E+20
 30
1.000000000000000E+20
  9
$PEXTMAX
 10
-1.000000000000000E+20
 20
-1.000000000000000E+20
 30
-1.000000000000000E+20
  9
$PLIMMIN
 10
0.0
 20
0.0
  9
$PLIMMAX
 10
420.0
 20
297.0
  9
$UNITMODE
 70
     0
  9
$VISRETAIN
 70
     1
  9
$PLINEGEN
 70
     0
  9
$PSLTSCALE
 70
     1
  9
$TREEDEPTH
 70
  3020
  9
$CMLSTYLE
  2
Standard
  9
$CMLJUST
 70
     0
  9
$CMLSCALE
 40
20.0
  9
$PROXYGRAPHICS
 70
     1
  9
$MEASUREMENT
 70
     1
  9
$CELWEIGHT
370
    -1
  9
$ENDCAPS
280
     0
  9
$JOINSTYLE
280
     0
  9
$LWDISPLAY
290
     0
  9
$INSUNITS
 70
     4
  9
$HYPERLINKBASE
  1

  9
$STYLESHEET
  1

  9
$XEDIT
290
     1
  9
$CEPSNTYPE
380
     0
  9
$PSTYLEMODE
290
     1
  9
$FINGERPRINTGUID
  2
{B7235CE9-54A7-4097-8830-34EBFDC45DC8}
  9
$VERSIONGUID
  2
{60CD459C-6CA2-445F-B35B-D3152DFAF83C}
  9
$EXTNAMES
290
     1
  9
$PSVPSCALE
 40
0.0
  9
$OLESTARTUP
290
     0
  0
ENDSEC
  0
SECTION
  2
CLASSES
  0
CLASS
  1
ACDBDICTIONARYWDFLT
  2
AcDbDictionaryWithDefault
  3
ObjectDBX Classes
 90
        0
280
     0
281
     0
  0
CLASS
  1
VISUALSTYLE
  2
AcDbVisualStyle
  3
ObjectDBX Classes
 90
     4095
280
     0
281
     0
  0
CLASS
  1
SCALE
  2
AcDbScale
  3
ObjectDBX Classes
 90
     1153
280
     0
281
     0
  0
CLASS
  1
DICTIONARYVAR
  2
AcDbDictionaryVar
  3
ObjectDBX Classes
 90
        0
280
     0
281
     0
  0
CLASS
  1
ACDBPLACEHOLDER
  2
AcDbPlaceHolder
  3
ObjectDBX Classes
 90
        0
280
     0
281
     0
  0
CLASS
  1
LAYOUT
  2
AcDbLayout
  3
ObjectDBX Classes
 90
        0
280
     0
281
     0
  0
CLASS
  1
MATERIAL
  2
AcDbMaterial
  3
ObjectDBX Classes
 90
     1153
280
     0
281
     0
  0
CLASS
  1
TABLESTYLE
  2
AcDbTableStyle
  3
ObjectDBX Classes
 90
     4095
280
     0
281
     0
  0
CLASS
  1
MLEADERSTYLE
  2
AcDbMLeaderStyle
  3
ACDB_MLEADERSTYLE_CLASS
 90
    36863
280
     0
281
     0
  0
CLASS
  1
ACDBSECTIONVIEWSTYLE
  2
AcDbSectionViewStyle
  3
ObjectDBX Classes
 90
    33793
280
     0
281
     0
  0
CLASS
  1
ACDBDETAILVIEWSTYLE
  2
AcDbDetailViewStyle
  3
ObjectDBX Classes
 90
    33793
280
     0
281
     0
  0
CLASS
  1
SORTENTSTABLE
  2
AcDbSortentsTable
  3
ObjectDBX Classes
 90
        0
280
     0
281
     0
  0
CLASS
  1
EXACXREFPANELOBJECT
  2
ExAcXREFPanelObject
  3
EXAC_ESW
 90
    33793
280
     1
281
     0
  0
CLASS
  1
NPOCOLLECTION
  2
AcDbImpNonPersistentObjectsCollection
  3
ObjectDBX Classes
 90
    33921
280
     0
281
     0
  0
CLASS
  1
DIMASSOC
  2
AcDbDimAssoc
  3
"AcDbDimAssoc|Product Desc:     AcDim ARX App For Dimension|Company:          Autodesk, Inc.|WEB Address:      www.autodesk.com"
 90
    32768
280
     0
281
     0
  0
CLASS
  1
CELLSTYLEMAP
  2
AcDbCellStyleMap
  3
ObjectDBX Classes
 90
     1152
280
     0
281
     0
  0
ENDSEC
  0
SECTION
  2
TABLES
  0
TABLE
  2
VPORT
  5
32F
330
0
100
AcDbSymbolTable
 70
     1
  0
VPORT
  5
330
330
32F
100
AcDbSymbolTableRecord
100
AcDbViewportTableRecord
  2
*Active
 70
     0
 10
0.0
 20
0.0
 11
1.0
 21
1.0
 12
739.2303254621648
 22
228.1586384285294
 13
0.0
 23
0.0
 14
10.0
 24
10.0
 15
10.0
 25
10.0
 16
0.0
 26
0.0
 36
1.0
 17
0.0
 27
0.0
 37
0.0
 40
632.0720770887547
 41
2.071702944942381
 42
50.0
 43
0.0
 44
0.0
 50
0.0
 51
0.0
 71
     0
 72
  2000
 73
     1
 74
     3
 75
     0
 76
     0
 77
     0
 78
     0
281
     0
 65
     1
110
0.0
120
0.0
130
0.0
111
1.0
121
0.0
131
0.0
112
0.0
122
1.0
132
0.0
 79
     0
146
0.0
1001
ACAD_NAV_VCDISPLAY
1070
     3
  0
ENDTAB
  0
TABLE
  2
LTYPE
  5
32A
330
0
100
AcDbSymbolTable
 70
     1
  0
LTYPE
  5
32B
330
32A
100
AcDbSymbolTableRecord
100
AcDbLinetypeTableRecord
  2
ByBlock
 70
     0
  3

 72
    65
 73
     0
 40
0.0
  0
LTYPE
  5
32C
330
32A
100
AcDbSymbolTableRecord
100
AcDbLinetypeTableRecord
  2
ByLayer
 70
     0
  3

 72
    65
 73
     0
 40
0.0
  0
LTYPE
  5
16
330
32A
100
AcDbSymbolTableRecord
100
AcDbLinetypeTableRecord
  2
Continuous
 70
     0
  3
Solid line
 72
    65
 73
     0
 40
0.0
  0
ENDTAB
  0
TABLE
  2
LAYER
  5
324
102
{ACAD_XDICTIONARY
360
325
102
}
330
0
100
AcDbSymbolTable
 70
     1
  0
LAYER
  5
6
102
{ACAD_XDICTIONARY
360
7
102
}
330
324
100
AcDbSymbolTableRecord
100
AcDbLayerTableRecord
  2
0
 70
     0
 62
     7
  6
Continuous
370
    -3
390
9
  0
ENDTAB
  0
TABLE
  2
STYLE
  5
327
330
0
100
AcDbSymbolTable
 70
     1
  0
STYLE
  5
328
330
327
100
AcDbSymbolTableRecord
100
AcDbTextStyleTableRecord
  2
Standard
 70
     0
 40
0.0
 41
1.0
 50
0.0
 71
     0
 42
2.5
  3
txt
  4
bigfont
  0
ENDTAB
  0
TABLE
  2
VIEW
  5
32D
330
0
100
AcDbSymbolTable
 70
     0
  0
ENDTAB
  0
TABLE
  2
UCS
  5
32E
330
0
100
AcDbSymbolTable
 70
     0
  0
ENDTAB
  0
TABLE
  2
APPID
  5
335
330
0
100
AcDbSymbolTable
 70
     3
  0
APPID
  5
333
330
335
100
AcDbSymbolTableRecord
100
AcDbRegAppTableRecord
  2
ACAD
 70
     0
  0
APPID
  5
334
330
335
100
AcDbSymbolTableRecord
100
AcDbRegAppTableRecord
  2
ACAD_NAV_VCDISPLAY
 70
     0
  0
APPID
  5
31B
330
335
100
AcDbSymbolTableRecord
100
AcDbRegAppTableRecord
  2
ACAD_PSEXT
 70
     0
  0
ENDTAB
  0
TABLE
  2
DIMSTYLE
  5
336
330
0
100
AcDbSymbolTable
 70
     1
100
AcDbDimStyleTable
 71
     1
340
337
  0
DIMSTYLE
105
337
330
336
100
AcDbSymbolTableRecord
100
AcDbDimStyleTableRecord
  2
ISO-25
 70
     0
 41
2.5
 42
0.625
 43
3.75
 44
1.25
 73
     0
 74
     0
 77
     1
 78
     8
140
2.5
141
2.5
143
0.0393700787
147
0.625
171
     3
172
     1
271
     2
272
     2
274
     3
278
    44
283
     0
284
     8
340
328
  0
ENDTAB
  0
TABLE
  2
BLOCK_RECORD
  5
1
330
0
100
AcDbSymbolTable
 70
     1
  0
BLOCK_RECORD
  5
2
102
{ACAD_XDICTIONARY
360
3
102
}
330
1
100
AcDbSymbolTableRecord
100
AcDbBlockTableRecord
  2
*Model_Space
340
319
  0
BLOCK_RECORD
  5
31C
330
1
100
AcDbSymbolTableRecord
100
AcDbBlockTableRecord
  2
*Paper_Space
340
31F
  0
BLOCK_RECORD
  5
320
330
1
100
AcDbSymbolTableRecord
100
AcDbBlockTableRecord
  2
*Paper_Space0
340
323
  0
ENDTAB
  0
ENDSEC
  0
SECTION
  2
BLOCKS
  0
BLOCK
  5
5
330
2
100
AcDbEntity
  8
0
100
AcDbBlockBegin
  2
*Model_Space
 70
     0
 10
0.0
 20
0.0
 30
0.0
  3
*Model_Space
  1

  0
ENDBLK
  5
318
330
2
100
AcDbEntity
  8
0
100
AcDbBlockEnd
  0
BLOCK
  5
31D
330
31C
100
AcDbEntity
 67
     1
  8
0
100
AcDbBlockBegin
  2
*Paper_Space
 70
     0
 10
0.0
 20
0.0
 30
0.0
  3
*Paper_Space
  1

  0
ENDBLK
  5
31E
330
31C
100
AcDbEntity
 67
     1
  8
0
100
AcDbBlockEnd
  0
BLOCK
  5
321
330
320
100
AcDbEntity
 67
     1
  8
0
100
AcDbBlockBegin
  2
*Paper_Space0
 70
     0
 10
0.0
 20
0.0
 30
0.0
  3
*Paper_Space0
  1

  0
ENDBLK
  5
322
330
320
100
AcDbEntity
 67
     1
  8
0
100
AcDbBlockEnd
  0
ENDSEC
  0
SECTION
  2
ENTITIES
  0
LINE
  5
17
330
2
100
AcDbEntity
  8
0
370
    -3
100
AcDbLine
 10
652.1111185258765
 20
194.8584773062498
 30
0.0
 11
651.6111100404153
 21
194.5698285516106
 31
0.0
  0
LINE
  5
18
330
2
100
AcDbEntity
  8
0
370
    -3
100
AcDbLine
 10
707.6716929907957
 20
200.891180317494
 30
0.0
 11
666.2561597573496
 21
224.7998587423181
 31
0.0
  0
LINE
  5
19
330
2
100
AcDbEntity
  8
0
370
    -3
100
AcDbLine
 10
650.4646407256422
 20
232.9306512058456
 30
0.0
 11
472.4646299640166
 21
130.1734322416807
 31
0.0
  0
LINE
  5
1A
330
2
100
AcDbEntity
  8
0
370
    -3
100
AcDbLine
 10
472.6111121095918
 20
87.0533466629338
 30
0.0
 11
473.1111112817488
 21
86.76470328442768
 31
0.0
  0
LINE
  5
1B
330
2
100
AcDbEntity
  8
0
370
    -3
100
AcDbLine
 10
651.4646446582213
 20
176.2772451611331
 30
0.0
 11
706.4646467278394
 21
144.5264198016005
 31
0.0
  0
LINE
  5
1C
330
2
100
AcDbEntity
  8
0
370
    -3
100
AcDbLine
 10
651.3181681002038
 20
208.8352562354085
 30
0.0
 11
651.0252168459819
 21
209.0043733946968
 31
0.0
  0
LINE
  5
1D
330
2
100
AcDbEntity
  8
0
370
    -3
100
AcDbLine
 10
716.2323769371864
 20
150.3342990322319
 30
0.0
 11
716.2323769371864
 21
150.9116817726299
 31
0.0
  0
LINE
  5
1E
330
2
100
AcDbEntity
  8
0
370
    -3
100
AcDbLine
 10
502.3181428504563
 20
37.81461211862097
 30
0.0
 11
696.8165411825347
 21
150.0961474959579
 31
0.0
  0
LINE
  5
1F
330
2
100
AcDbEntity
  8
0
370
    -3
100
AcDbLine
 10
437.4039377385123
 20
52.77276546086135
 30
0.0
 11
437.4039377385123
 21
52.19538272117052
 31
0.0
  0
LINE
  5
20
330
2
100
AcDbEntity
  8
0
370
    -3
100
AcDbLine
 10
839.9976403257841
 20
247.6341391947858
 30
0.0
 11
840.9950572182916
 21
247.0983964019187
 31
0.0
  0
LINE
  5
21
330
2
100
AcDbEntity
  8
0
370
    -3
100
AcDbLine
 10
921.215147054958
 20
247.0222609606389
 30
0.0
 11
921.215147054958
 21
247.8930197609896
 31
0.0
  0
LINE
  5
22
330
2
100
AcDbEntity
  8
0
370
    -3
100
AcDbLine
 10
901.0613834146665
 20
273.632354810167
 30
0.0
 11
900.0396424127075
 21
297.5160735417028
 31
0.0
  0
LINE
  5
23
330
2
100
AcDbEntity
  8
0
370
    -3
100
AcDbLine
 10
823.5967045494588
 20
297.5160735417028
 30
0.0
 11
823.1415653252048
 21
286.8769974841514
 31
0.0
  0
LINE
  5
24
330
2
100
AcDbEntity
  8
0
370
    -3
100
AcDbLine
 10
812.3627167794179
 20
271.5169273376939
 30
0.0
 11
812.2076482382857
 21
266.682335593574
 31
0.0
  0
LINE
  5
25
330
2
100
AcDbEntity
  8
0
370
    -3
100
AcDbLine
 10
837.8756798977223
 20
314.195511939155
 30
0.0
 11
836.9188919986703
 21
313.7204529315692
 31
0.0
  0
LINE
  5
26
330
2
100
AcDbEntity
  8
0
370
    -3
100
AcDbLine
 10
832.0591674875979
 20
362.5450406530392
 30
0.0
 11
830.3581942763671
 21
309.5136054773591
 31
0.0
  0
LINE
  5
27
330
2
100
AcDbEntity
  8
0
370
    -3
100
AcDbLine
 10
891.9809984168532
 20
349.955137837072
 30
0.0
 11
891.9157832309997
 21
351.9883516529424
 31
0.0
  0
LINE
  5
28
330
2
100
AcDbEntity
  8
0
370
    -3
100
AcDbLine
 10
862.0401709904188
 20
319.3213837600274
 30
0.0
 11
860.1815127530134
 21
377.2689250368437
 31
0.0
  0
LINE
  5
29
330
2
100
AcDbEntity
  8
0
370
    -3
100
AcDbLine
 10
852.3830372036307
 20
377.2689244994424
 30
0.0
 11
851.3172008695779
 21
344.0392544352089
 31
0.0
  0
LINE
  5
2A
330
2
100
AcDbEntity
  8
0
370
    -3
100
AcDbLine
 10
880.232819729691
 20
345.4110872722954
 30
0.0
 11
879.3058689760632
 21
374.3106966791154
 31
0.0
  0
LINE
  5
2B
330
2
100
AcDbEntity
  8
0
370
    -3
100
AcDbLine
 10
871.507393660026
 20
374.3106970821657
 30
0.0
 11
869.7276713003239
 21
318.8241323519076
 31
0.0
  0
LINE
  5
2C
330
2
100
AcDbEntity
  8
0
370
    -3
100
AcDbLine
 10
887.9607420027165
 20
358.7905171030982
 30
0.0
 11
887.4461764790289
 21
373.7269464475355
 31
0.0
  0
LINE
  5
2D
330
2
100
AcDbEntity
  8
0
370
    -3
100
AcDbLine
 10
867.5397777130161
 20
319.0628401797166
 30
0.0
 11
865.7614416277333
 21
363.7472022596178
 31
0.0
  0
SPLINE
  5
2E
330
2
100
AcDbEntity
  8
0
370
    -3
100
AcDbSpline
210
0.0
220
0.0
230
1.0
 70
     8
 71
     3
 72
     9
 73
     5
 74
     0
 42
0.00000001
 43
0.0000000001
 40
0.0
 40
0.0
 40
0.0
 40
0.0
 40
0.5609601627753353
 40
0.9716742666429729
 40
0.9716742666429729
 40
0.9716742666429729
 40
0.9716742666429729
 10
848.6217357590776
 20
381.5481396645726
 30
0.0
 10
848.3070061741614
 20
381.4580440752654
 30
0.0
 10
847.7618433285472
 20
381.3019838565964
 30
0.0
 10
847.2481373939796
 20
381.110017859698
 30
0.0
 10
847.0313631641786
 20
381.0284624390636
 30
0.0
  0
SPLINE
  5
2F
330
2
100
AcDbEntity
  8
0
370
    -3
100
AcDbSpline
210
0.0
220
0.0
230
1.0
 70
     8
 71
     3
 72
    11
 73
     7
 74
     0
 42
0.00000001
 43
0.0000000001
 40
0.0
 40
0.0
 40
0.0
 40
0.0
 40
0.164733256517046
 40
0.5535874364093616
 40
0.7745382990019848
 40
1.0
 40
1.0
 40
1.0
 40
1.0
 10
849.5109369802284
 20
380.5458411875495
 30
0.0
 10
849.5026173025847
 20
380.6508426302992
 30
0.0
 10
849.4746589587974
 20
381.0037008250563
 30
0.0
 10
849.3497822657046
 20
381.3166394501511
 30
0.0
 10
848.9730427108479
 20
381.6069747689678
 30
0.0
 10
848.7386626681191
 20
381.5715630512175
 30
0.0
 10
848.6202884837343
 20
381.5536782810061
 30
0.0
  0
SPLINE
  5
30
330
2
100
AcDbEntity
  8
0
370
    -3
100
AcDbSpline
210
0.0
220
0.0
230
1.0
 70
     8
 71
     3
 72
    11
 73
     7
 74
     0
 42
0.00000001
 43
0.0000000001
 40
0.0
 40
0.0
 40
0.0
 40
0.0
 40
0.0260245255212389
 40
0.2086440179625687
 40
0.5462773590258572
 40
1.0
 40
1.0
 40
1.0
 40
1.0
 10
846.9894890343308
 20
381.0216591231462
 30
0.0
 10
846.9761718799528
 20
381.019004610537
 30
0.0
 10
846.8694054916451
 20
380.9977228324649
 30
0.0
 10
846.7029565899784
 20
380.834280363292
 30
0.0
 10
846.4590222734662
 20
380.5631401955827
 30
0.0
 10
846.2862914900391
 20
380.178793332135
 30
0.0
 10
846.1872565815861
 20
379.9584286948637
 30
0.0
  0
LINE
  5
31
330
2
100
AcDbEntity
  8
0
370
    -3
100
AcDbLine
 10
846.1849615695445
 20
379.9960028061684
 30
0.0
 11
842.7236389065715
 21
372.538695592041
 31
0.0
  0
LINE
  5
32
330
2
100
AcDbEntity
  8
0
370
    -3
100
AcDbLine
 10
887.1438058288067
 20
374.7576419036747
 30
0.0
 11
886.1986533858409
 21
375.6314377735952
 31
0.0
  0
SPLINE
  5
33
330
2
100
AcDbEntity
  8
0
370
    -3
100
AcDbSpline
210
0.0
220
0.0
230
1.0
 70
     8
 71
     3
 72
    11
 73
     7
 74
     0
 42
0.00000001
 43
0.0000000001
 40
0.0
 40
0.0
 40
0.0
 40
0.0
 40
0.1790619611189852
 40
0.369752323830695
 40
0.6307814621802735
 40
1.0
 40
1.0
 40
1.0
 40
1.0
 10
863.3629217477356
 20
365.3987593690589
 30
0.0
 10
863.2849153470846
 20
365.398751035488
 30
0.0
 10
863.1238367587897
 20
365.3987338271597
 30
0.0
 10
862.925924764956
 20
365.2623834094858
 30
0.0
 10
862.7564034178963
 20
365.0738637817956
 30
0.0
 10
862.6524694547446
 20
364.8693396159745
 30
0.0
 10
862.5915817317821
 20
364.7495230481262
 30
0.0
  0
LINE
  5
34
330
2
100
AcDbEntity
  8
0
370
    -3
100
AcDbLine
 10
865.1003744006041
 20
365.1413276260626
 30
0.0
 11
863.3970428474437
 21
365.404805234363
 31
0.0
  0
SPLINE
  5
35
330
2
100
AcDbEntity
  8
0
370
    -3
100
AcDbSpline
210
0.0
220
0.0
230
1.0
 70
     8
 71
     3
 72
    11
 73
     7
 74
     0
 42
0.00000001
 43
0.0000000001
 40
0.0
 40
0.0
 40
0.0
 40
0.0
 40
0.2250347896712034
 40
0.6698663834092043
 40
0.8749878192089701
 40
1.0
 40
1.0
 40
1.0
 40
1.0
 10
865.76144162775
 20
363.747202259691
 30
0.0
 10
865.7513958047571
 20
363.8958358325124
 30
0.0
 10
865.7214921657415
 20
364.3382769058446
 30
0.0
 10
865.6219851576501
 20
364.7298272402612
 30
0.0
 10
865.3686137294654
 20
365.0693411856717
 30
0.0
 10
865.1722986374451
 20
365.1098201538032
 30
0.0
 10
865.0979597136201
 20
365.1251483840354
 30
0.0
  0
SPLINE
  5
36
330
2
100
AcDbEntity
  8
0
370
    -3
100
AcDbSpline
210
0.0
220
0.0
230
1.0
 70
     8
 71
     3
 72
    10
 73
     6
 74
     0
 42
0.00000001
 43
0.0000000001
 40
0.0
 40
0.0
 40
0.0
 40
0.0
 40
0.2773339545872395
 40
0.897011652648624
 40
1.0
 40
1.0
 40
1.0
 40
1.0
 10
887.427863882614
 20
373.8643725814256
 30
0.0
 10
887.4211533665492
 20
373.9699277681254
 30
0.0
 10
887.3994488078206
 20
374.3113364954063
 30
0.0
 10
887.3464700758336
 20
374.5855940239164
 30
0.0
 10
887.1733020285729
 20
374.7160377589728
 30
0.0
 10
887.1486235603997
 20
374.7346275139232
 30
0.0
  0
LINE
  5
37
330
2
100
AcDbEntity
  8
0
370
    -3
100
AcDbLine
 10
852.1763052365752
 20
370.8236423872465
 30
0.0
 11
851.5165264938222
 21
369.4021698529525
 31
0.0
  0
LINE
  5
38
330
2
100
AcDbEntity
  8
0
370
    -3
100
AcDbLine
 10
862.5915817315668
 20
364.7495230481712
 30
0.0
 11
862.0706352512639
 21
363.6271609583425
 31
0.0
  0
SPLINE
  5
39
330
2
100
AcDbEntity
  8
0
370
    -3
100
AcDbSpline
210
0.0
220
0.0
230
1.0
 70
     8
 71
     3
 72
    15
 73
    11
 74
     0
 42
0.00000001
 43
0.0000000001
 40
0.0
 40
0.0
 40
0.0
 40
0.0
 40
0.0327358870093901
 40
0.1548842941357615
 40
0.271542821081714
 40
0.3983359403409815
 40
0.5454259947535493
 40
0.7086690958174488
 40
0.8890760073188911
 40
1.0
 40
1.0
 40
1.0
 40
1.0
 10
836.598236005971
 20
374.5249862506778
 30
0.0
 10
836.5979852191408
 20
374.5422572109853
 30
0.0
 10
836.5967986638091
 20
374.6239718288197
 30
0.0
 10
836.5249918117875
 20
374.7557157445797
 30
0.0
 10
836.3960615587988
 20
374.896801838225
 30
0.0
 10
836.213867492346
 20
374.9981328785309
 30
0.0
 10
835.9810400338901
 20
375.0517211841704
 30
0.0
 10
835.7102817790265
 20
375.034001261414
 30
0.0
 10
835.4759016664534
 20
374.9482188904442
 30
0.0
 10
835.3708968864662
 20
374.8373762747294
 30
0.0
 10
835.3309164062642
 20
374.7951730435655
 30
0.0
  0
LINE
  5
3A
330
2
100
AcDbEntity
  8
0
370
    -3
100
AcDbLine
 10
884.8002330517815
 20
374.8692848195664
 30
0.0
 11
880.9723522846388
 21
366.6222399513856
 31
0.0
  0
SPLINE
  5
3B
330
2
100
AcDbEntity
  8
0
370
    -3
100
AcDbSpline
210
0.0
220
0.0
230
1.0
 70
     8
 71
     3
 72
     9
 73
     5
 74
     0
 42
0.00000001
 43
0.0000000001
 40
0.0
 40
0.0
 40
0.0
 40
0.0
 40
0.7876720508798462
 40
1.0
 40
1.0
 40
1.0
 40
1.0
 10
861.6545559302126
 20
363.5100279102346
 30
0.0
 10
861.3768760818212
 20
363.5067070066668
 30
0.0
 10
861.0243437708408
 20
363.5024909073838
 30
0.0
 10
860.6956021678708
 20
363.4322298636524
 30
0.0
 10
860.6258011375221
 20
363.4173114803336
 30
0.0
  0
SPLINE
  5
3C
330
2
100
AcDbEntity
  8
0
370
    -3
100
AcDbSpline
210
0.0
220
0.0
230
1.0
 70
     8
 71
     3
 72
    13
 73
     9
 74
     0
 42
0.00000001
 43
0.0000000001
 40
0.0
 40
0.0
 40
0.0
 40
0.0
 40
0.1402738935778441
 40
0.3288833836879547
 40
0.5107213513420859
 40
0.7018848878276712
 40
0.9038903186785042
 40
1.0
 40
1.0
 40
1.0
 40
1.0
 10
862.0684370971735
 20
363.6140525638918
 30
0.0
 10
862.0716383635727
 20
363.6233731565952
 30
0.0
 10
862.0791439891663
 20
363.6452260330508
 30
0.0
 10
862.0633656390436
 20
363.6190251543965
 30
0.0
 10
861.9937173703586
 20
363.5770180129281
 30
0.0
 10
861.8784855005028
 20
363.5362242590975
 30
0.0
 10
861.7576158707914
 20
363.5123756006103
 30
0.0
 10
861.6795547435213
 20
363.5128432977415
 30
0.0
 10
861.6543885249729
 20
363.5129940791692
 30
0.0
  0
LINE
  5
3D
330
2
100
AcDbEntity
  8
0
370
    -3
100
AcDbLine
 10
839.9221101198516
 20
371.7427533472449
 30
0.0
 11
839.5390012487887
 21
371.4175063102768
 31
0.0
  0
SPLINE
  5
3E
330
2
100
AcDbEntity
  8
0
370
    -3
100
AcDbSpline
210
0.0
220
0.0
230
1.0
 70
     8
 71
     3
 72
    11
 73
     7
 74
     0
 42
0.00000001
 43
0.0000000001
 40
0.0
 40
0.0
 40
0.0
 40
0.0
 40
0.0974398471992884
 40
0.5397791940747472
 40
0.9872949306528662
 40
1.0
 40
1.0
 40
1.0
 40
1.0
 10
842.5986894048687
 20
372.4439104756597
 30
0.0
 10
842.5017795534085
 20
372.4445041037864
 30
0.0
 10
841.9649363314306
 20
372.4477925747872
 30
0.0
 10
841.02584882661
 20
372.2500665939003
 30
0.0
 10
840.2032260507326
 20
371.9835653967477
 30
0.0
 10
839.9296622490988
 20
371.7492227199944
 30
0.0
 10
839.9221101197172
 20
371.7427533472048
 30
0.0
  0
LINE
  5
3F
330
2
100
AcDbEntity
  8
0
370
    -3
100
AcDbLine
 10
871.3006619256079
 20
367.8654145669181
 30
0.0
 11
867.8259207660794
 21
360.3791994651512
 31
0.0
  0
SPLINE
  5
40
330
2
100
AcDbEntity
  8
0
370
    -3
100
AcDbSpline
210
0.0
220
0.0
230
1.0
 70
     8
 71
     3
 72
    10
 73
     6
 74
     0
 42
0.00000001
 43
0.0000000001
 40
0.0
 40
0.0
 40
0.0
 40
0.0
 40
0.1825535633508167
 40
0.7009451398345166
 40
1.0
 40
1.0
 40
1.0
 40
1.0
 10
842.7236389065715
 20
372.538695592041
 30
0.0
 10
842.7201578040532
 20
372.5324310425256
 30
0.0
 10
842.7102834598818
 20
372.5099647130749
 30
0.0
 10
842.6282319449843
 20
372.4532424887291
 30
0.0
 10
842.6156668001947
 20
372.4484916051815
 30
0.0
 10
842.5986894048687
 20
372.4439104756597
 30
0.0
  0
LINE
  5
41
330
2
100
AcDbEntity
  8
0
370
    -3
100
AcDbLine
 10
839.251701260795
 20
371.3714498796674
 30
0.0
 11
836.8844216665427
 21
371.7376302445503
 31
0.0
  0
SPLINE
  5
42
330
2
100
AcDbEntity
  8
0
370
    -3
100
AcDbSpline
210
0.0
220
0.0
230
1.0
 70
     8
 71
     3
 72
    10
 73
     6
 74
     0
 42
0.00000001
 43
0.0000000001
 40
0.0
 40
0.0
 40
0.0
 40
0.0
 40
0.2103705934037843
 40
0.7329835874963453
 40
1.0
 40
1.0
 40
1.0
 40
1.0
 10
839.513372181897
 20
371.4541041586779
 30
0.0
 10
839.4995629071901
 20
371.4407313779172
 30
0.0
 10
839.4514479518061
 20
371.3941372762499
 30
0.0
 10
839.3396890854551
 20
371.3609781472339
 30
0.0
 10
839.2759187863338
 20
371.3728088196092
 30
0.0
 10
839.2543545989388
 20
371.3768094098475
 30
0.0
  0
SPLINE
  5
43
330
2
100
AcDbEntity
  8
0
370
    -3
100
AcDbSpline
210
0.0
220
0.0
230
1.0
 70
     8
 71
     3
 72
    10
 73
     6
 74
     0
 42
0.00000001
 43
0.0000000001
 40
0.0
 40
0.0
 40
0.0
 40
0.0
 40
0.2318702926279252
 40
0.8375492381816549
 40
1.0
 40
1.0
 40
1.0
 40
1.0
 10
867.3732996049848
 20
360.2263190047213
 30
0.0
 10
867.3754334758331
 20
360.2253388265115
 30
0.0
 10
867.3831413278525
 20
360.2217982801851
 30
0.0
 10
867.3496832002483
 20
360.2607906599161
 30
0.0
 10
867.3514689274174
 20
360.2541118338929
 30
0.0
 10
867.351846588555
 20
360.2526993375848
 30
0.0
  0
LINE
  5
44
330
2
100
AcDbEntity
  8
0
370
    -3
100
AcDbLine
 10
870.0277613748076
 20
359.8151125637344
 30
0.0
 11
867.3628317718726
 21
360.2273339591495
 31
0.0
  0
LINE
  5
45
330
2
100
AcDbEntity
  8
0
370
    -3
100
AcDbLine
 10
851.5477535086631
 20
369.4694503957419
 30
0.0
 11
850.0471457427504
 21
369.7015698180587
 31
0.0
  0
SPLINE
  5
46
330
2
100
AcDbEntity
  8
0
370
    -3
100
AcDbSpline
210
0.0
220
0.0
230
1.0
 70
     8
 71
     3
 72
     9
 73
     5
 74
     0
 42
0.00000001
 43
0.0000000001
 40
0.0
 40
0.0
 40
0.0
 40
0.0
 40
0.2190918024052807
 40
1.0
 40
1.0
 40
1.0
 40
1.0
 10
880.8474032483722
 20
366.5274551038967
 30
0.0
 10
880.7503687496309
 20
366.5284752730948
 30
0.0
 10
880.3074745031299
 20
366.5331316280437
 30
0.0
 10
879.8882698942318
 20
366.4355099670992
 30
0.0
 10
879.5609095786749
 20
366.3592764118041
 30
0.0
  0
SPLINE
  5
47
330
2
100
AcDbEntity
  8
0
370
    -3
100
AcDbSpline
210
0.0
220
0.0
230
1.0
 70
     8
 71
     3
 72
    10
 73
     6
 74
     0
 42
0.00000001
 43
0.0000000001
 40
0.0
 40
0.0
 40
0.0
 40
0.0
 40
0.1825515550223444
 40
0.7009463803182598
 40
1.0
 40
1.0
 40
1.0
 40
1.0
 10
880.9714423821338
 20
366.62182624509
 30
0.0
 10
880.9688704933224
 20
366.6159754385633
 30
0.0
 10
880.9589951671277
 20
366.5935099950023
 30
0.0
 10
880.8769449318123
 20
366.536786193891
 30
0.0
 10
880.8530139597188
 20
366.5388694408596
 30
0.0
 10
880.8442591032259
 20
366.5396315715486
 30
0.0
  0
SPLINE
  5
48
330
2
100
AcDbEntity
  8
0
370
    -3
100
AcDbSpline
210
0.0
220
0.0
230
1.0
 70
     8
 71
     3
 72
    16
 73
    12
 74
     0
 42
0.00000001
 43
0.0000000001
 40
0.0
 40
0.0
 40
0.0
 40
0.0
 40
0.0132163430960587
 40
0.126064081622706
 40
0.2304775161922616
 40
0.3400519314307939
 40
0.466366542232278
 40
0.6099284573050247
 40
0.7644864366744205
 40
0.8962289790858083
 40
1.0
 40
1.0
 40
1.0
 40
1.0
 10
891.3610874820001
 20
366.0146820629019
 30
0.0
 10
891.3618538600557
 20
366.0224459239637
 30
0.0
 10
891.3691639567382
 20
366.0965015085873
 30
0.0
 10
891.3127115121614
 20
366.2297456316012
 30
0.0
 10
891.2000838295922
 20
366.3843274811695
 30
0.0
 10
891.0326808487047
 20
366.4998591877322
 30
0.0
 10
890.814746990919
 20
366.5715795356616
 30
0.0
 10
890.5491561922085
 20
366.5802178288688
 30
0.0
 10
890.2974738315615
 20
366.5074926125669
 30
0.0
 10
890.1026526200631
 20
366.375488938437
 30
0.0
 10
890.0344075092217
 20
366.2539133889798
 30
0.0
 10
890.0043376282173
 20
366.2003452687088
 30
0.0
  0
LINE
  5
49
330
2
100
AcDbEntity
  8
0
370
    -3
100
AcDbLine
 10
890.0010128062072
 20
366.2017314904121
 30
0.0
 11
888.9121374140732
 21
363.8557834694827
 31
0.0
  0
LINE
  5
4A
330
2
100
AcDbEntity
  8
0
370
    -3
100
AcDbLine
 10
888.6715060018845
 20
363.7270079431512
 30
0.0
 11
887.7859588248304
 21
363.8639876055543
 31
0.0
  0
SPLINE
  5
4B
330
2
100
AcDbEntity
  8
0
370
    -3
100
AcDbSpline
210
0.0
220
0.0
230
1.0
 70
     8
 71
     3
 72
    12
 73
     8
 74
     0
 42
0.00000001
 43
0.0000000001
 40
0.0
 40
0.0
 40
0.0
 40
0.0
 40
0.0942624722713409
 40
0.278642319240951
 40
0.5688010379945953
 40
0.9302194255881671
 40
1.0
 40
1.0
 40
1.0
 40
1.0
 10
888.9166450151773
 20
363.8667089804223
 30
0.0
 10
888.9166559040482
 20
363.8664387644424
 30
0.0
 10
888.9166880918319
 20
363.865639998982
 30
0.0
 10
888.8906546088296
 20
363.8118785667123
 30
0.0
 10
888.8074520049171
 20
363.737834637466
 30
0.0
 10
888.6987176363122
 20
363.7226955061449
 30
0.0
 10
888.684417673166
 20
363.7259727116441
 30
0.0
 10
888.6821035218577
 20
363.7265030591227
 30
0.0
  0
LINE
  5
4C
330
2
100
AcDbEntity
  8
0
370
    -3
100
AcDbLine
 10
470.7806478018564
 20
69.42691973327804
 30
0.0
 11
471.3829415878375
 21
69.79902688219478
 31
0.0
  0
SPLINE
  5
4D
330
2
100
AcDbEntity
  8
0
370
    -3
100
AcDbSpline
210
0.0
220
0.0
230
1.0
 70
     8
 71
     3
 72
    10
 73
     6
 74
     0
 42
0.00000001
 43
0.0000000001
 40
0.0
 40
0.0
 40
0.0
 40
0.0
 40
0.3438063987042004
 40
0.7483115288724333
 40
1.0
 40
1.0
 40
1.0
 40
1.0
 10
472.0393843326402
 20
70.69406021285137
 30
0.0
 10
472.0364555033246
 20
70.89440608862628
 30
0.0
 10
472.0300807623338
 20
71.33046873658532
 30
0.0
 10
472.3125301246536
 20
71.77338314315466
 30
0.0
 10
472.339042219422
 20
71.79708825149828
 30
0.0
 10
472.3492111521649
 20
71.80618054143474
 30
0.0
  0
LINE
  5
4E
330
2
100
AcDbEntity
  8
0
370
    -3
100
AcDbLine
 10
480.7806489403477
 20
63.65404195536076
 30
0.0
 11
481.3829427256218
 21
64.02614910427747
 31
0.0
  0
SPLINE
  5
4F
330
2
100
AcDbEntity
  8
0
370
    -3
100
AcDbSpline
210
0.0
220
0.0
230
1.0
 70
     8
 71
     3
 72
    10
 73
     6
 74
     0
 42
0.00000001
 43
0.0000000001
 40
0.0
 40
0.0
 40
0.0
 40
0.0
 40
0.3438063987042004
 40
0.7483115288724333
 40
1.0
 40
1.0
 40
1.0
 40
1.0
 10
482.0393854709317
 20
64.92118243487403
 30
0.0
 10
482.0364566416168
 20
65.1215283106485
 30
0.0
 10
482.0300819006256
 20
65.55759095860799
 30
0.0
 10
482.3125312629453
 20
66.00050536517709
 30
0.0
 10
482.3390433577133
 20
66.02421047352141
 30
0.0
 10
482.3492122904577
 20
66.03330276345719
 30
0.0
  0
LINE
  5
50
330
2
100
AcDbEntity
  8
0
370
    -3
100
AcDbLine
 10
487.5670949705035
 20
56.89655386398634
 30
0.0
 11
488.0670949862388
 21
56.60790999899086
 31
0.0
  0
ARC
  5
51
330
2
100
AcDbEntity
  8
0
370
    -3
100
AcDbCircle
 10
500.7181579361477
 20
53.83628539078153
 30
0.0
 40
2.121320434879784
100
AcDbArc
 50
180.0
 51
0.0
  0
LINE
  5
52
330
2
100
AcDbEntity
  8
0
370
    -3
100
AcDbLine
 10
498.5968310022493
 20
57.33521394985382
 30
0.0
 11
498.5968310022493
 21
53.83628134118065
 31
0.0
  0
LINE
  5
53
330
2
100
AcDbEntity
  8
0
370
    -3
100
AcDbLine
 10
502.8394804866912
 20
53.83628671802103
 30
0.0
 11
502.8394804866912
 21
57.33521932598704
 31
0.0
  0
ARC
  5
54
330
2
100
AcDbEntity
  8
0
370
    -3
100
AcDbCircle
 10
510.7181583668248
 20
48.06340802157182
 30
0.0
 40
2.121320434879784
100
AcDbArc
 50
180.0
 51
0.0
  0
LINE
  5
55
330
2
100
AcDbEntity
  8
0
370
    -3
100
AcDbLine
 10
512.8394825564419
 20
50.85233706859049
 30
0.0
 11
512.8985805638584
 21
50.88645362238458
 31
0.0
  0
LINE
  5
56
330
2
100
AcDbEntity
  8
0
370
    -3
100
AcDbLine
 10
508.5968312087739
 20
51.56233670933784
 30
0.0
 11
508.5968312087739
 21
48.0634041006649
 31
0.0
  0
LINE
  5
57
330
2
100
AcDbEntity
  8
0
370
    -3
100
AcDbLine
 10
512.8394806932154
 20
48.06340947750459
 30
0.0
 11
512.8394806932154
 21
51.56234208617798
 31
0.0
  0
SPLINE
  5
58
330
2
100
AcDbEntity
  8
0
370
    -3
100
AcDbSpline
210
0.0
220
0.0
230
1.0
 70
     8
 71
     3
 72
     9
 73
     5
 74
     0
 42
0.00000001
 43
0.0000000001
 40
0.0
 40
0.0
 40
0.0
 40
0.0
 40
0.1780093738335262
 40
1.0
 40
1.0
 40
1.0
 40
1.0
 10
861.5475346217586
 20
369.9776322933133
 30
0.0
 10
861.4787599405309
 20
369.9812810735514
 30
0.0
 10
861.0924056730791
 20
370.0017787594851
 30
0.0
 10
860.7234801368509
 20
369.9055871713101
 30
0.0
 10
860.4202268043177
 20
369.8265185875141
 30
0.0
  0
SPLINE
  5
59
330
2
100
AcDbEntity
  8
0
370
    -3
100
AcDbSpline
210
0.0
220
0.0
230
1.0
 70
     8
 71
     3
 72
    12
 73
     8
 74
     0
 42
0.00000001
 43
0.0000000001
 40
0.0
 40
0.0
 40
0.0
 40
0.0
 40
0.1853980580659041
 40
0.3755030416334879
 40
0.583889843446555
 40
0.8069766625948407
 40
1.0
 40
1.0
 40
1.0
 40
1.0
 10
866.5051256694132
 20
367.3945126963757
 30
0.0
 10
866.3675668525716
 20
367.708057165996
 30
0.0
 10
866.0889568462613
 20
368.3431064392082
 30
0.0
 10
865.257027667125
 20
369.0837435289102
 30
0.0
 10
864.1666610007332
 20
369.6442486084753
 30
0.0
 10
862.8764761832117
 20
369.9831764263224
 30
0.0
 10
861.968652058168
 20
369.9793891283368
 30
0.0
 10
861.5475346217586
 20
369.9776322933133
 30
0.0
  0
LINE
  5
5A
330
2
100
AcDbEntity
  8
0
370
    -3
100
AcDbLine
 10
867.8285813219252
 20
360.4824260938365
 30
0.0
 11
867.8285813219252
 21
365.3324359493206
 31
0.0
  0
LINE
  5
5B
330
2
100
AcDbEntity
  8
0
370
    -3
100
AcDbLine
 10
917.0858562966428
 20
356.9015890033591
 30
0.0
 11
889.7653472064602
 21
361.1276308589142
 31
0.0
  0
LINE
  5
5C
330
2
100
AcDbEntity
  8
0
370
    -3
100
AcDbLine
 10
917.1932862227743
 20
351.7894261705426
 30
0.0
 11
917.3762352377051
 21
352.1987003886072
 31
0.0
  0
LINE
  5
5D
330
2
100
AcDbEntity
  8
0
370
    -3
100
AcDbLine
 10
864.1525671426585
 20
292.3531183681788
 30
0.0
 11
864.1586673057473
 21
291.6314448062152
 31
0.0
  0
LINE
  5
5E
330
2
100
AcDbEntity
  8
0
370
    -3
100
AcDbLine
 10
859.7759562133573
 20
309.1052954904645
 30
0.0
 11
859.5930053359065
 21
308.7240085799872
 31
0.0
  0
LINE
  5
5F
330
2
100
AcDbEntity
  8
0
370
    -3
100
AcDbLine
 10
708.8837646703487
 20
231.745179886112
 30
0.0
 11
709.5665508062329
 21
231.8356839322582
 31
0.0
  0
LINE
  5
60
330
2
100
AcDbEntity
  8
0
370
    -3
100
AcDbLine
 10
917.5350685841291
 20
221.0424953557915
 30
0.0
 11
937.535068997885
 21
232.5882498368237
 31
0.0
  0
LINE
  5
61
330
2
100
AcDbEntity
  8
0
370
    -3
100
AcDbLine
 10
938.4712419410798
 20
234.0214454086804
 30
0.0
 11
936.6663023917793
 21
232.9794759857864
 31
0.0
  0
LINE
  5
62
330
2
100
AcDbEntity
  8
0
370
    -3
100
AcDbLine
 10
966.0482717380851
 20
192.1758801439434
 30
0.0
 11
966.5481014089612
 21
191.9024490887379
 31
0.0
  0
SPLINE
  5
63
330
2
100
AcDbEntity
  8
0
370
    -3
100
AcDbSpline
210
0.0
220
0.0
230
1.0
 70
     8
 71
     3
 72
     9
 73
     5
 74
     0
 42
0.00000001
 43
0.0000000001
 40
0.0
 40
0.0
 40
0.0
 40
0.0
 40
0.4633478513120762
 40
1.0
 40
1.0
 40
1.0
 40
1.0
 10
613.1875031231725
 20
179.3177211754653
 30
0.0
 10
612.9356566136729
 20
179.2115570708893
 30
0.0
 10
612.3921200270988
 20
178.9824330892511
 30
0.0
 10
611.9568084876028
 20
178.5701011156727
 30
0.0
 10
611.7231976145834
 20
178.3488222760795
 30
0.0
  0
SPLINE
  5
64
330
2
100
AcDbEntity
  8
0
370
    -3
100
AcDbSpline
210
0.0
220
0.0
230
1.0
 70
     8
 71
     3
 72
    11
 73
     7
 74
     0
 42
0.00000001
 43
0.0000000001
 40
0.0
 40
0.0
 40
0.0
 40
0.0
 40
0.1987474677965497
 40
0.5165068740215253
 40
0.820324665881345
 40
1.0
 40
1.0
 40
1.0
 40
1.0
 10
611.7231976145834
 20
178.3488222760795
 30
0.0
 10
611.5372768671609
 20
178.1360958327652
 30
0.0
 10
611.0541042001996
 20
177.5832602596824
 30
0.0
 10
610.5422679512103
 20
176.5095113967318
 30
0.0
 10
610.278734339196
 20
175.3904767722185
 30
0.0
 10
610.3833950154844
 20
174.7254949147345
 30
0.0
 10
610.422288933455
 20
174.4783748813638
 30
0.0
  0
SPLINE
  5
65
330
2
100
AcDbEntity
  8
0
370
    -3
100
AcDbSpline
210
0.0
220
0.0
230
1.0
 70
     8
 71
     3
 72
    10
 73
     6
 74
     0
 42
0.00000001
 43
0.0000000001
 40
0.0
 40
0.0
 40
0.0
 40
0.0
 40
0.4079781536108217
 40
0.8546045983034332
 40
1.0
 40
1.0
 40
1.0
 40
1.0
 10
615.1076165458507
 20
179.3407385933783
 30
0.0
 10
614.8479597341747
 20
179.4261840006279
 30
0.0
 10
614.3040484897263
 20
179.6051691675879
 30
0.0
 10
613.6139158467626
 20
179.5314323001573
 30
0.0
 10
613.2546668808359
 20
179.3456204373869
 30
0.0
 10
613.1875031231725
 20
179.3177211754653
 30
0.0
  0
SPLINE
  5
66
330
2
100
AcDbEntity
  8
0
370
    -3
100
AcDbSpline
210
0.0
220
0.0
230
1.0
 70
     8
 71
     3
 72
    10
 73
     6
 74
     0
 42
0.00000001
 43
0.0000000001
 40
0.0
 40
0.0
 40
0.0
 40
0.0
 40
0.0910139301050758
 40
0.5811645822158554
 40
1.0
 40
1.0
 40
1.0
 40
1.0
 10
610.4005649021446
 20
174.5314531309827
 30
0.0
 10
610.4007160126484
 20
174.4683649389915
 30
0.0
 10
610.4016809206918
 20
174.0655186637138
 30
0.0
 10
610.684909765419
 20
173.4195719777935
 30
0.0
 10
611.134024601934
 20
173.0042983015128
 30
0.0
 10
611.3409641870553
 20
172.8129517787656
 30
0.0
  0
LINE
  5
67
330
2
100
AcDbEntity
  8
0
370
    -3
100
AcDbLine
 10
615.7084854074333
 20
179.0977105355548
 30
0.0
 11
615.1076165458507
 21
179.35058391756
 31
0.0
  0
LINE
  5
68
330
2
100
AcDbEntity
  8
0
370
    -3
100
AcDbLine
 10
611.3492324689691
 20
172.7892622626589
 30
0.0
 11
611.8540167771702
 21
172.4208464283806
 31
0.0
  0
SPLINE
  5
69
330
2
100
AcDbEntity
  8
0
370
    -3
100
AcDbSpline
210
0.0
220
0.0
230
1.0
 70
     8
 71
     3
 72
    10
 73
     6
 74
     0
 42
0.00000001
 43
0.0000000001
 40
0.0
 40
0.0
 40
0.0
 40
0.0
 40
0.1095065138728865
 40
0.5454786818791403
 40
1.0
 40
1.0
 40
1.0
 40
1.0
 10
514.2358052391728
 20
122.1801524577545
 30
0.0
 10
514.150235922415
 20
122.156419511047
 30
0.0
 10
513.7239942636906
 20
122.0381999090405
 30
0.0
 10
513.0416352311298
 20
121.5526617068567
 30
0.0
 10
512.5585116607611
 20
120.9968694464433
 30
0.0
 10
512.3119180972598
 20
120.7131846865434
 30
0.0
  0
SPLINE
  5
6A
330
2
100
AcDbEntity
  8
0
370
    -3
100
AcDbSpline
210
0.0
220
0.0
230
1.0
 70
     8
 71
     3
 72
    11
 73
     7
 74
     0
 42
0.00000001
 43
0.0000000001
 40
0.0
 40
0.0
 40
0.0
 40
0.0
 40
0.227881957079873
 40
0.6137767532582819
 40
0.9528901335292403
 40
1.0
 40
1.0
 40
1.0
 40
1.0
 10
512.3119180972598
 20
120.7131846865434
 30
0.0
 10
512.155769399149
 20
120.4813722121123
 30
0.0
 10
511.7351988450776
 20
119.8570090122161
 30
0.0
 10
511.3864230045573
 20
118.7443060707892
 30
0.0
 10
511.262492387615
 20
117.8003367448007
 30
0.0
 10
511.3916769544757
 20
117.3600135572502
 30
0.0
 10
511.4074343376628
 20
117.3063048104452
 30
0.0
  0
SPLINE
  5
6B
330
2
100
AcDbEntity
  8
0
370
    -3
100
AcDbSpline
210
0.0
220
0.0
230
1.0
 70
     8
 71
     3
 72
    10
 73
     6
 74
     0
 42
0.00000001
 43
0.0000000001
 40
0.0
 40
0.0
 40
0.0
 40
0.0
 40
0.2585915085396641
 40
0.7111360448474166
 40
1.0
 40
1.0
 40
1.0
 40
1.0
 10
516.103436769868
 20
122.1523869855307
 30
0.0
 10
515.9509046400635
 20
122.2295358561962
 30
0.0
 10
515.5314357405845
 20
122.4416980538615
 30
0.0
 10
514.8403795931226
 20
122.4189071205171
 30
0.0
 10
514.3853455532608
 20
122.2331057002786
 30
0.0
 10
514.2358052391728
 20
122.1801524577545
 30
0.0
  0
SPLINE
  5
6C
330
2
100
AcDbEntity
  8
0
370
    -3
100
AcDbSpline
210
0.0
220
0.0
230
1.0
 70
     8
 71
     3
 72
    10
 73
     6
 74
     0
 42
0.00000001
 43
0.0000000001
 40
0.0
 40
0.0
 40
0.0
 40
0.0
 40
0.3486581573244829
 40
0.8340886717827423
 40
1.0
 40
1.0
 40
1.0
 40
1.0
 10
511.4074343376628
 20
117.3063048104452
 30
0.0
 10
511.4596522259521
 20
117.0891405180596
 30
0.0
 10
511.5460547164807
 20
116.5447204495292
 30
0.0
 10
511.9086657945321
 20
115.9457842048134
 30
0.0
 10
512.278826977848
 20
115.7284696559407
 30
0.0
 10
512.3731153062727
 20
115.6731147822283
 30
0.0
  0
LINE
  5
6D
330
2
100
AcDbEntity
  8
0
370
    -3
100
AcDbLine
 10
517.0625500513391
 20
121.7814353568608
 30
0.0
 11
516.103436769868
 21
122.1523869855307
 31
0.0
  0
LINE
  5
6E
330
2
100
AcDbEntity
  8
0
370
    -3
100
AcDbLine
 10
512.3731153062727
 20
115.6731147822283
 30
0.0
 11
512.8540205020763
 21
115.2693650822684
 31
0.0
  0
LINE
  5
6F
330
2
100
AcDbEntity
  8
0
370
    -3
100
AcDbLine
 10
611.8540167771702
 20
172.4208464283806
 30
0.0
 11
612.8737759241992
 21
171.7925355495342
 31
0.0
  0
LINE
  5
70
330
2
100
AcDbEntity
  8
0
370
    -3
100
AcDbLine
 10
616.7625470299721
 20
178.5288148984032
 30
0.0
 11
616.0625463264327
 21
178.9329167029727
 31
0.0
  0
LINE
  5
71
330
2
100
AcDbEntity
  8
0
370
    -3
100
AcDbLine
 10
512.8540205020763
 20
115.2693650822684
 30
0.0
 11
513.8737647482435
 21
114.6410456014675
 31
0.0
  0
LINE
  5
72
330
2
100
AcDbEntity
  8
0
370
    -3
100
AcDbLine
 10
517.7625507548781
 20
121.3773335522914
 30
0.0
 11
517.0625500513391
 21
121.7814353568608
 31
0.0
  0
LINE
  5
73
330
2
100
AcDbEntity
  8
0
370
    -3
100
AcDbLine
 10
513.6886029118426
 20
113.5723754583778
 30
0.0
 11
513.8434911757213
 21
113.4338267401022
 31
0.0
  0
LINE
  5
74
330
2
100
AcDbEntity
  8
0
370
    -3
100
AcDbLine
 10
518.7928226724225
 20
122.0072656573518
 30
0.0
 11
518.375852774046
 21
122.2446567950019
 31
0.0
  0
LINE
  5
75
330
2
100
AcDbEntity
  8
0
370
    -3
100
AcDbLine
 10
612.1534984647317
 20
171.0019344226038
 30
0.0
 11
612.8434874501076
 21
170.5853080862139
 31
0.0
  0
LINE
  5
76
330
2
100
AcDbEntity
  8
0
370
    -3
100
AcDbLine
 10
617.792833848378
 20
179.1587556054173
 30
0.0
 11
617.0729829341238
 21
179.5535467832778
 31
0.0
  0
LWPOLYLINE
  5
77
330
2
100
AcDbEntity
  8
0
370
    -3
100
AcDbPolyline
 90
        3
 70
   128
 43
0.0
 10
660.082923457803
 20
181.6607763210056
 10
659.5009846599264
 20
182.1921711501506
 10
658.8181687209038
 20
182.6640122252752
  0
LINE
  5
78
330
2
100
AcDbEntity
  8
0
370
    -3
100
AcDbLine
 10
658.8181687209038
 20
182.6640122252752
 30
0.0
 11
652.8181674791944
 21
186.1277392147487
 31
0.0
  0
ARC
  5
79
330
2
100
AcDbEntity
  8
0
370
    -3
100
AcDbCircle
 10
653.9892923477183
 20
187.9585892810692
 30
0.0
 40
2.173371901592918
100
AcDbArc
 50
182.6055101817999
 51
237.3945053685982
  0
LINE
  5
7A
330
2
100
AcDbEntity
  8
0
370
    -3
100
AcDbLine
 10
651.8181672723612
 20
194.2109872087267
 30
0.0
 11
651.8181672723612
 21
187.8597898382327
 31
0.0
  0
ARC
  5
7B
330
2
100
AcDbEntity
  8
0
370
    -3
100
AcDbCircle
 10
652.4277989574571
 20
194.3098785146379
 30
0.0
 40
0.6176004229717003
100
AcDbArc
 50
50.79677283030028
 51
189.2139673720994
  0
LINE
  5
7C
330
2
100
AcDbEntity
  8
0
370
    -3
100
AcDbLine
 10
652.8181674791944
 20
194.7884625723391
 30
0.0
 11
654.8181678928626
 21
193.6338869094168
 31
0.0
  0
LWPOLYLINE
  5
7D
330
2
100
AcDbEntity
  8
0
370
    -3
100
AcDbPolyline
 90
       12
 70
   128
 43
0.0
 10
654.8181678928626
 20
193.6338869094168
 10
656.2268306003647
 20
193.0545633375973
 10
657.5213727604191
 20
192.9899328211274
 10
658.5969162702173
 20
193.4452324709475
 10
659.3663284479762
 20
194.38357568334
 10
659.7672758723937
 20
195.7289435786338
 10
659.7672758723937
 20
197.372342938452
 10
659.3663284479762
 20
199.1806351448975
 10
658.5969162702173
 20
201.0073228835401
 10
657.5213727604191
 20
202.7044189057928
 10
656.2268306003647
 20
204.1344347505469
 10
655.6938407405878
 20
204.5306153117311
  0
LINE
  5
7E
330
2
100
AcDbEntity
  8
0
370
    -3
100
AcDbLine
 10
654.4551024450181
 20
205.391111273769
 30
0.0
 11
652.8181674791944
 21
206.3360937155567
 31
0.0
  0
ARC
  5
7F
330
2
100
AcDbEntity
  8
0
370
    -3
100
AcDbCircle
 10
653.9892947907722
 20
208.1669451614425
 30
0.0
 40
2.173374380947409
100
AcDbArc
 50
182.6055294383008
 51
237.3944707072989
  0
LINE
  5
80
330
2
100
AcDbEntity
  8
0
370
    -3
100
AcDbLine
 10
651.8181672723612
 20
232.8955510806184
 30
0.0
 11
651.8181672723612
 21
208.0681448764412
 31
0.0
  0
LINE
  5
81
330
2
100
AcDbEntity
  8
0
370
    -3
100
AcDbLine
 10
707.8181714113325
 20
200.567436814468
 30
0.0
 11
707.8181714113325
 21
156.1072746666605
 31
0.0
  0
ARC
  5
82
330
2
100
AcDbEntity
  8
0
370
    -3
100
AcDbCircle
 10
653.4892838622572
 20
187.6699405264301
 30
0.0
 40
2.173371901593422
100
AcDbArc
 50
182.6055101817999
 51
237.3945053685982
  0
LINE
  5
83
330
2
100
AcDbEntity
  8
0
370
    -3
100
AcDbLine
 10
651.3181587869001
 20
208.3568777859834
 30
0.0
 11
651.3181587869001
 21
187.5711410835931
 31
0.0
  0
LINE
  5
84
330
2
100
AcDbEntity
  8
0
370
    -3
100
AcDbLine
 10
652.3181589937344
 20
185.8390904601092
 30
0.0
 11
658.318160235443
 21
182.3753634713428
 31
0.0
  0
ARC
  5
85
330
2
100
AcDbEntity
  8
0
370
    -3
100
AcDbCircle
 10
472.9277847842103
 20
87.60194097855947
 30
0.0
 40
0.617598417093433
100
AcDbArc
 50
170.7859228586005
 51
309.2020777258984
  0
LINE
  5
86
330
2
100
AcDbEntity
  8
0
370
    -3
100
AcDbLine
 10
472.3181552685185
 20
87.7008331308775
 30
0.0
 11
472.3181552685185
 21
129.8496865883428
 31
0.0
  0
LINE
  5
87
330
2
100
AcDbEntity
  8
0
370
    -3
100
AcDbLine
 10
650.3181660301443
 20
207.7794993476232
 30
0.0
 11
650.3181660301443
 21
232.6069055518008
 31
0.0
  0
ARC
  5
88
330
2
100
AcDbEntity
  8
0
370
    -3
100
AcDbCircle
 10
648.1470411414634
 20
207.8782982375031
 30
0.0
 40
2.173371690224599
100
AcDbArc
 50
302.6054340711984
 51
357.3945041640989
  0
LINE
  5
89
330
2
100
AcDbEntity
  8
0
370
    -3
100
AcDbLine
 10
649.318163960791
 20
206.0474471112293
 30
0.0
 11
642.318164374768
 21
202.0064333654498
 31
0.0
  0
ARC
  5
8A
330
2
100
AcDbEntity
  8
0
370
    -3
100
AcDbCircle
 10
643.4892821008053
 20
200.1755851800335
 30
0.0
 40
2.173366468465081
100
AcDbArc
 50
122.6053627319026
 51
177.3945755034002
  0
LINE
  5
8B
330
2
100
AcDbEntity
  8
0
370
    -3
100
AcDbLine
 10
641.3181623054147
 20
200.2743811290557
 30
0.0
 11
641.3181623054147
 21
185.2624605360286
 31
0.0
  0
ARC
  5
8C
330
2
100
AcDbEntity
  8
0
370
    -3
100
AcDbCircle
 10
639.1470559761663
 20
185.3612492782183
 30
0.0
 40
2.173352688090758
100
AcDbArc
 50
302.6051736747996
 51
357.3947491556999
  0
LINE
  5
8D
330
2
100
AcDbEntity
  8
0
370
    -3
100
AcDbLine
 10
640.3181602353542
 20
183.530408837036
 30
0.0
 11
473.31814243701
 21
87.12335064387138
 31
0.0
  0
LINE
  5
8E
330
2
100
AcDbEntity
  8
0
370
    -3
100
AcDbLine
 10
619.3181614772847
 20
191.6157226386138
 30
0.0
 11
611.3181598212012
 21
186.9974199862179
 31
0.0
  0
LINE
  5
8F
330
2
100
AcDbEntity
  8
0
370
    -3
100
AcDbLine
 10
619.3181614772847
 20
195.0800115510219
 30
0.0
 11
619.3181614772847
 21
191.6157226386138
 31
0.0
  0
LINE
  5
90
330
2
100
AcDbEntity
  8
0
370
    -3
100
AcDbLine
 10
619.3181614772847
 20
195.0800115510219
 30
0.0
 11
611.3181598212012
 21
190.4617088986256
 31
0.0
  0
LINE
  5
91
330
2
100
AcDbEntity
  8
0
370
    -3
100
AcDbLine
 10
611.3181598212012
 20
190.4617088986256
 30
0.0
 11
611.3181598212012
 21
186.9974199862179
 31
0.0
  0
LINE
  5
92
330
2
100
AcDbEntity
  8
0
370
    -3
100
AcDbLine
 10
520.3181652021908
 20
134.464241292502
 30
0.0
 11
512.3181486452454
 21
129.8459300374445
 31
0.0
  0
LINE
  5
93
330
2
100
AcDbEntity
  8
0
370
    -3
100
AcDbLine
 10
520.3181652021908
 20
137.9285302049102
 30
0.0
 11
520.3181652021908
 21
134.464241292502
 31
0.0
  0
LINE
  5
94
330
2
100
AcDbEntity
  8
0
370
    -3
100
AcDbLine
 10
520.3181652021908
 20
137.9285302049102
 30
0.0
 11
512.3181486452454
 21
133.3102189505593
 31
0.0
  0
LINE
  5
95
330
2
100
AcDbEntity
  8
0
370
    -3
100
AcDbLine
 10
512.3181486452454
 20
133.3102189505593
 30
0.0
 11
512.3181486452454
 21
129.8459300374445
 31
0.0
  0
LWPOLYLINE
  5
96
330
2
100
AcDbEntity
  8
0
370
    -3
100
AcDbPolyline
 90
        3
 70
   128
 43
0.0
 10
658.318160235443
 20
182.3753634713428
 10
659.0009761744654
 20
181.9035223962185
 10
659.5829149730489
 20
181.3721275663663
  0
ARC
  5
97
330
2
100
AcDbEntity
  8
0
370
    -3
100
AcDbCircle
 10
652.009767630238
 20
193.9994427278654
 30
0.0
 40
0.6958935706989001
100
AcDbArc
 50
124.9507075290021
 51
186.3613733227001
  0
ARC
  5
98
330
2
100
AcDbEntity
  8
0
370
    -3
100
AcDbCircle
 10
639.6470551483239
 20
185.0726059004191
 30
0.0
 40
2.173352688089134
100
AcDbArc
 50
302.6051736747996
 51
357.3947491556999
  0
LINE
  5
99
330
2
100
AcDbEntity
  8
0
370
    -3
100
AcDbLine
 10
641.818161477572
 20
199.9857377512567
 30
0.0
 11
641.818161477572
 21
184.9738171575225
 31
0.0
  0
LINE
  5
9A
330
2
100
AcDbEntity
  8
0
370
    -3
100
AcDbLine
 10
640.8181594075117
 20
183.2417654592366
 30
0.0
 11
473.8181416091673
 21
86.83470726607245
 31
0.0
  0
ARC
  5
9B
330
2
100
AcDbEntity
  8
0
370
    -3
100
AcDbCircle
 10
653.4892863053113
 20
207.878296406803
 30
0.0
 40
2.173374380946627
100
AcDbArc
 50
182.6055294383008
 51
237.3944707072989
  0
ARC
  5
9C
330
2
100
AcDbEntity
  8
0
370
    -3
100
AcDbCircle
 10
648.6470403136203
 20
207.5896548589965
 30
0.0
 40
2.173371690227063
100
AcDbArc
 50
302.6054340712996
 51
357.3945041639994
  0
LINE
  5
9D
330
2
100
AcDbEntity
  8
0
370
    -3
100
AcDbLine
 10
654.2143581988018
 20
204.9527924595461
 30
0.0
 11
652.3181589937344
 21
206.0474449609176
 31
0.0
  0
LINE
  5
9E
330
2
100
AcDbEntity
  8
0
370
    -3
100
AcDbLine
 10
650.8181652023012
 20
207.4908559691171
 30
0.0
 11
650.8181652023012
 21
232.8956449143993
 31
0.0
  0
LINE
  5
9F
330
2
100
AcDbEntity
  8
0
370
    -3
100
AcDbLine
 10
649.8181631329485
 20
205.7588037334304
 30
0.0
 11
642.8181635469253
 21
201.7177899876508
 31
0.0
  0
ARC
  5
A0
330
2
100
AcDbEntity
  8
0
370
    -3
100
AcDbCircle
 10
643.9892812729627
 20
199.8869418022343
 30
0.0
 40
2.173366468465316
100
AcDbArc
 50
122.6053627319026
 51
177.3945755034002
  0
ARC
  5
A1
330
2
100
AcDbEntity
  8
0
370
    -3
100
AcDbCircle
 10
651.5133498098321
 20
232.9449965320484
 30
0.0
 40
0.3088017778841253
100
AcDbArc
 50
350.7861176505014
 51
129.204609279999
  0
ARC
  5
A2
330
2
100
AcDbEntity
  8
0
370
    -3
100
AcDbCircle
 10
707.4874733183601
 20
200.6128207589238
 30
0.0
 40
0.3337977402402657
100
AcDbArc
 50
352.1857250017996
 51
56.50322052340085
  0
ARC
  5
A3
330
2
100
AcDbEntity
  8
0
370
    -3
100
AcDbCircle
 10
472.6457701671961
 20
129.89646945453
 30
0.0
 40
0.3309383001123115
100
AcDbArc
 50
123.1856338065992
 51
188.1268010839013
  0
ARC
  5
A4
330
2
100
AcDbEntity
  8
0
370
    -3
100
AcDbCircle
 10
650.6229814668126
 20
232.6563526720031
 30
0.0
 40
0.3088000450714302
100
AcDbArc
 50
50.79687329059884
 51
189.2142481387998
  0
LINE
  5
A5
330
2
100
AcDbEntity
  8
0
370
    -3
100
AcDbLine
 10
650.8181652023012
 20
232.8956449143993
 30
0.0
 11
651.3181587869001
 21
233.1842850663772
 31
0.0
  0
LINE
  5
A6
330
2
100
AcDbEntity
  8
0
370
    -3
100
AcDbLine
 10
611.3181598212012
 20
190.4617088986256
 30
0.0
 11
612.3181674788193
 21
190.4617142747588
 31
0.0
  0
ARC
  5
A7
330
2
100
AcDbEntity
  8
0
370
    -3
100
AcDbCircle
 10
618.6104150981535
 20
193.1796012139955
 30
0.0
 40
0.7112563061076395
100
AcDbArc
 50
294.3745207108015
 51
354.3055421926993
  0
LINE
  5
A8
330
2
100
AcDbEntity
  8
0
370
    -3
100
AcDbLine
 10
615.732371970505
 20
190.7008280045056
 30
0.0
 11
618.9039501567299
 21
192.5317411192975
 31
0.0
  0
LINE
  5
A9
330
2
100
AcDbEntity
  8
0
370
    -3
100
AcDbLine
 10
612.3181674788193
 20
190.4617142747588
 30
0.0
 11
614.7323736261904
 21
190.4617088986256
 31
0.0
  0
ARC
  5
AA
330
2
100
AcDbEntity
  8
0
370
    -3
100
AcDbCircle
 10
614.7731001253641
 20
192.5019510784334
 30
0.0
 40
2.040648622445321
100
AcDbArc
 50
268.8564364050998
 51
298.0396086148988
  0
LINE
  5
AB
330
2
100
AcDbEntity
  8
0
370
    -3
100
AcDbLine
 10
512.3181486452454
 20
133.3102189505593
 30
0.0
 11
513.3181712044325
 21
133.310232929354
 31
0.0
  0
ARC
  5
AC
330
2
100
AcDbEntity
  8
0
370
    -3
100
AcDbCircle
 10
519.6103722494695
 20
136.0281512089784
 30
0.0
 40
0.7113057606910071
100
AcDbArc
 50
294.3755167385991
 51
354.3034023672983
  0
LINE
  5
AD
330
2
100
AcDbEntity
  8
0
370
    -3
100
AcDbLine
 10
516.7323756954109
 20
133.5493466583934
 30
0.0
 11
519.9039389800669
 21
135.3802511712313
 31
0.0
  0
LINE
  5
AE
330
2
100
AcDbEntity
  8
0
370
    -3
100
AcDbLine
 10
513.3181712044325
 20
133.310232929354
 30
0.0
 11
515.7323624502351
 21
133.3102189505593
 31
0.0
  0
ARC
  5
AF
330
2
100
AcDbEntity
  8
0
370
    -3
100
AcDbCircle
 10
515.773082617974
 20
135.3504825924733
 30
0.0
 40
2.04066995385153
100
AcDbArc
 50
268.8566261620975
 51
298.0399650572014
  0
ARC
  5
B0
330
2
100
AcDbEntity
  8
0
370
    -3
100
AcDbCircle
 10
473.4039074221918
 20
87.41295883921635
 30
0.0
 40
0.711312057685404
100
AcDbArc
 50
245.6928397496993
 51
305.6161589642013
  0
ARC
  5
B1
330
2
100
AcDbEntity
  8
0
370
    -3
100
AcDbCircle
 10
473.9902611878183
 20
107.7220482883535
 30
0.0
 40
2.174459533918383
100
AcDbArc
 50
182.6728441688006
 51
219.7385665619997
  0
LINE
  5
B2
330
2
100
AcDbEntity
  8
0
370
    -3
100
AcDbLine
 10
471.8181672721848
 20
128.9837629051742
 30
0.0
 11
471.8181672721848
 21
107.6206466889143
 31
0.0
  0
ARC
  5
B3
330
2
100
AcDbEntity
  8
0
370
    -3
100
AcDbCircle
 10
472.9036996407976
 20
128.9343824524167
 30
0.0
 40
1.086654937007289
100
AcDbArc
 50
122.6050603698999
 51
177.395432440299
  0
ARC
  5
B4
330
2
100
AcDbEntity
  8
0
370
    -3
100
AcDbCircle
 10
661.8181657224322
 20
179.5778639369209
 30
0.0
 40
2.173661157880228
100
AcDbArc
 50
62.60944977100086
 51
117.3906118381016
  0
ARC
  5
B5
330
2
100
AcDbEntity
  8
0
370
    -3
100
AcDbCircle
 10
661.8181657224322
 20
180.1552466773191
 30
0.0
 40
2.173661157880089
100
AcDbArc
 50
62.60944977100086
 51
117.3906118381016
  0
LINE
  5
B6
330
2
100
AcDbEntity
  8
0
370
    -3
100
AcDbLine
 10
662.8181658232001
 20
181.5078387109693
 30
0.0
 11
715.8181674791507
 21
150.9115890143582
 31
0.0
  0
ARC
  5
B7
330
2
100
AcDbEntity
  8
0
370
    -3
100
AcDbCircle
 10
715.5990718506103
 20
150.3343009986954
 30
0.0
 40
0.6174660699339169
100
AcDbArc
 50
290.7828551452996
 51
69.21695998749874
  0
LINE
  5
B8
330
2
100
AcDbEntity
  8
0
370
    -3
100
AcDbLine
 10
706.8181618911952
 20
144.5614207169135
 30
0.0
 11
715.8181656166316
 21
149.7570122766336
 31
0.0
  0
LINE
  5
B9
330
2
100
AcDbEntity
  8
0
370
    -3
100
AcDbLine
 10
660.8181635470132
 20
181.5078376354595
 30
0.0
 11
651.8181598215768
 21
176.3122460764464
 31
0.0
  0
LWPOLYLINE
  5
BA
330
2
100
AcDbEntity
  8
0
370
    -3
100
AcDbPolyline
 90
        9
 70
   128
 43
0.0
 10
681.8181625377214
 20
164.1892047047579
 10
681.2050351421166
 20
163.6594801000867
 10
680.9897394306281
 20
163.0346314615558
 10
681.20503682998
 20
162.4097775473008
 10
681.8181585800448
 20
161.8800513629521
 10
682.7357706701782
 20
161.5261037104433
 10
683.8181666771347
 20
161.4018151671546
 10
684.9005535454424
 20
161.52610273605
 10
685.8181628997795
 20
161.8800536476146
  0
LINE
  5
BB
330
2
100
AcDbEntity
  8
0
370
    -3
100
AcDbLine
 10
685.8181628997795
 20
161.8800536476146
 30
0.0
 11
687.8181670391927
 21
163.0346314615558
 31
0.0
  0
LWPOLYLINE
  5
BC
330
2
100
AcDbEntity
  8
0
370
    -3
100
AcDbPolyline
 90
        9
 70
   128
 43
0.0
 10
687.8181670391927
 20
163.0346314615558
 10
688.431294435505
 20
163.5643560662272
 10
688.6465901469932
 20
164.1892047047579
 10
688.431292746934
 20
164.8140586190134
 10
687.8181709975771
 20
165.3437848040689
 10
686.900558906736
 20
165.6977324558706
 10
685.8181628997795
 20
165.8220209991595
 10
684.7357760321787
 20
165.6977334302637
 10
683.8181666771347
 20
165.3437825186995
  0
LINE
  5
BD
330
2
100
AcDbEntity
  8
0
370
    -3
100
AcDbLine
 10
683.8181666771347
 20
165.3437825186995
 30
0.0
 11
681.8181625377214
 21
164.1892047047579
 31
0.0
  0
LINE
  5
BE
330
2
100
AcDbEntity
  8
0
370
    -3
100
AcDbLine
 10
651.8181598215768
 20
186.282442626765
 30
0.0
 11
651.8181598215768
 21
176.8896288168444
 31
0.0
  0
ARC
  5
BF
330
2
100
AcDbEntity
  8
0
370
    -3
100
AcDbCircle
 10
651.622981640412
 20
176.5515425904755
 30
0.0
 40
0.3087998446783215
100
AcDbArc
 50
170.7859424835997
 51
309.2018270543979
  0
LINE
  5
C0
330
2
100
AcDbEntity
  8
0
370
    -3
100
AcDbLine
 10
651.3181662369778
 20
176.6009886641598
 30
0.0
 11
651.3181662369778
 21
187.5711445781153
 31
0.0
  0
LINE
  5
C1
330
2
100
AcDbEntity
  8
0
370
    -3
100
AcDbLine
 10
660.8181635470132
 20
182.0852203758574
 30
0.0
 11
651.8181598215768
 21
176.8896288168444
 31
0.0
  0
LINE
  5
C2
330
2
100
AcDbEntity
  8
0
370
    -3
100
AcDbLine
 10
715.8181674791507
 20
151.4889717547562
 30
0.0
 11
662.8181658232001
 21
182.0852214513672
 31
0.0
  0
ARC
  5
C3
330
2
100
AcDbEntity
  8
0
370
    -3
100
AcDbCircle
 10
706.6110490559047
 20
144.8505134561412
 30
0.0
 40
0.3556266837977125
100
AcDbArc
 50
245.6899515483001
 51
305.6187019415022
  0
LWPOLYLINE
  5
C4
330
2
100
AcDbEntity
  8
0
370
    -3
100
AcDbPolyline
 90
        7
 70
   128
 43
0.0
 10
658.7768515244987
 20
180.9067952602436
 10
658.318160235443
 20
181.220599604164
 10
657.3614516291598
 20
181.5531432996554
 10
656.5503925664447
 20
181.3955546910299
 10
656.0084615247806
 20
180.7718248277037
 10
655.8181606496185
 20
179.7769113973668
 10
655.8605246526049
 20
179.2232367795147
  0
ARC
  5
C5
330
2
100
AcDbEntity
  8
0
370
    -3
100
AcDbCircle
 10
656.6812011592101
 20
178.9153327158496
 30
0.0
 40
2.333607649198208
100
AcDbArc
 50
46.86085095599865
 51
98.94629438479906
  0
LINE
  5
C6
330
2
100
AcDbEntity
  8
0
370
    -3
100
AcDbLine
 10
446.8181676860726
 20
69.51590185717032
 30
0.0
 11
447.318161269965
 21
69.80454200985537
 31
0.0
  0
ARC
  5
C7
330
2
100
AcDbEntity
  8
0
370
    -3
100
AcDbCircle
 10
447.403732802037
 20
70.43132956071961
 30
0.0
 40
1.086689645411684
100
AcDbArc
 50
182.6055996740992
 51
237.3944620905987
  0
LINE
  5
C8
330
2
100
AcDbEntity
  8
0
370
    -3
100
AcDbLine
 10
651.3181662369778
 20
187.5712381424887
 30
0.0
 11
447.318161269965
 21
69.80454200985537
 31
0.0
  0
LINE
  5
C9
330
2
100
AcDbEntity
  8
0
370
    -3
100
AcDbLine
 10
651.8181598215768
 20
206.4907971275725
 30
0.0
 11
651.8181598215768
 21
194.6893553223713
 31
0.0
  0
LINE
  5
CA
330
2
100
AcDbEntity
  8
0
370
    -3
100
AcDbLine
 10
648.8181610635956
 20
202.2946070404783
 30
0.0
 11
648.8181610635956
 21
205.181514826106
 31
0.0
  0
ARC
  5
CB
330
2
100
AcDbEntity
  8
0
370
    -3
100
AcDbCircle
 10
650.7063801614759
 20
208.4583188334975
 30
0.0
 40
0.6201317379559758
100
AcDbArc
 50
350.5852558721007
 51
79.6150867425981
  0
LINE
  5
CC
330
2
100
AcDbEntity
  8
0
370
    -3
100
AcDbLine
 10
446.3181666513965
 20
90.01290134868758
 30
0.0
 11
446.3181666513965
 21
70.38192797536749
 31
0.0
  0
ARC
  5
CD
330
2
100
AcDbEntity
  8
0
370
    -3
100
AcDbCircle
 10
448.4892175540771
 20
89.91414615659483
 30
0.0
 40
2.173295794947439
100
AcDbArc
 50
122.6048648572996
 51
177.3955663337995
  0
LINE
  5
CE
330
2
100
AcDbEntity
  8
0
370
    -3
100
AcDbLine
 10
447.3181538191806
 20
91.74494498242053
 30
0.0
 11
472.3181608560766
 21
106.1771418469332
 31
0.0
  0
LINE
  5
CF
330
2
100
AcDbEntity
  8
0
370
    -3
100
AcDbLine
 10
645.3181612702301
 20
203.1610079535699
 30
0.0
 11
645.3181612702301
 21
200.2741001679421
 31
0.0
  0
LINE
  5
D0
330
2
100
AcDbEntity
  8
0
370
    -3
100
AcDbLine
 10
645.3181612702301
 20
200.2741001679421
 30
0.0
 11
648.8181610635956
 21
202.2946070404783
 31
0.0
  0
LINE
  5
D1
330
2
100
AcDbEntity
  8
0
370
    -3
100
AcDbLine
 10
648.8181610635956
 20
194.2112652806013
 30
0.0
 11
648.8181610635956
 21
196.5207914692232
 31
0.0
  0
LINE
  5
D2
330
2
100
AcDbEntity
  8
0
370
    -3
100
AcDbLine
 10
648.8181610635956
 20
196.5207914692232
 30
0.0
 11
645.3181612702301
 21
194.5002845959798
 31
0.0
  0
LINE
  5
D3
330
2
100
AcDbEntity
  8
0
370
    -3
100
AcDbLine
 10
645.3181612702301
 20
194.5002845959798
 30
0.0
 11
645.3181612702301
 21
192.1907584080656
 31
0.0
  0
LINE
  5
D4
330
2
100
AcDbEntity
  8
0
370
    -3
100
AcDbLine
 10
645.3181612702301
 20
192.1907584080656
 30
0.0
 11
648.8181610635956
 21
194.2112652806013
 31
0.0
  0
LINE
  5
D5
330
2
100
AcDbEntity
  8
0
370
    -3
100
AcDbLine
 10
447.318161269965
 20
69.80454200985537
 30
0.0
 11
502.3181633395829
 21
38.05371665032226
 31
0.0
  0
LINE
  5
D6
330
2
100
AcDbEntity
  8
0
370
    -3
100
AcDbLine
 10
493.0181648512967
 20
64.37803838794957
 30
0.0
 11
492.9181482534841
 21
64.32030003450177
 31
0.0
  0
LINE
  5
D7
330
2
100
AcDbEntity
  8
0
370
    -3
100
AcDbLine
 10
491.9181648425582
 20
65.01305487594937
 30
0.0
 11
492.2181648118358
 21
64.83986858000367
 31
0.0
  0
LINE
  5
D8
330
2
100
AcDbEntity
  8
0
370
    -3
100
AcDbLine
 10
492.918164849988
 20
64.43576716010011
 30
0.0
 11
493.0181648512967
 21
64.37803838794957
 31
0.0
  0
LINE
  5
D9
330
2
100
AcDbEntity
  8
0
370
    -3
100
AcDbLine
 10
486.4181460096252
 20
61.83796158751785
 30
0.0
 11
491.9181648425582
 21
65.01305487594937
 31
0.0
  0
LINE
  5
DA
330
2
100
AcDbEntity
  8
0
370
    -3
100
AcDbLine
 10
486.7181459781958
 20
61.66477529157191
 30
0.0
 11
486.4181460096252
 21
61.83796158751785
 31
0.0
  0
LWPOLYLINE
  5
DB
330
2
100
AcDbEntity
  8
0
370
    -3
100
AcDbPolyline
 90
        5
 70
   128
 43
0.0
 10
481.4681475690721
 20
69.89112642081659
 10
482.004656450651
 20
69.42763247926655
 10
482.1930443890481
 20
68.88088588747972
 10
482.0046322364856
 20
68.3341274686245
 10
481.9526504643395
 20
68.26665512311297
  0
ARC
  5
DC
330
2
100
AcDbEntity
  8
0
370
    -3
100
AcDbCircle
 10
479.7264830336962
 20
66.50488344976293
 30
0.0
 40
3.807891386799017
100
AcDbArc
 50
62.7816384604019
 51
96.17327409329753
  0
LWPOLYLINE
  5
DD
330
2
100
AcDbEntity
  8
0
370
    -3
100
AcDbPolyline
 90
        5
 70
   128
 43
0.0
 10
471.468146431288
 20
75.66400419873365
 10
472.0046571746792
 20
75.20050918167453
 10
472.1930432505573
 20
74.65376366610439
 10
472.0046310979945
 20
74.10700524654203
 10
471.9526502578155
 20
74.03953236362919
  0
ARC
  5
DE
330
2
100
AcDbEntity
  8
0
370
    -3
100
AcDbCircle
 10
469.7264812786084
 20
72.27775790922783
 30
0.0
 40
3.807894619602988
100
AcDbArc
 50
62.78165304999984
 51
96.17325950370036
  0
LWPOLYLINE
  5
DF
330
2
100
AcDbEntity
  8
0
370
    -3
100
AcDbPolyline
 90
        5
 70
   128
 43
0.0
 10
502.4681481903685
 20
57.76808410867626
 10
503.0046580025
 20
57.3045896290182
 10
503.1930450103449
 20
56.75784357533984
 10
503.0046328570747
 20
56.21108515648484
 10
502.8394758296853
 20
56.02193441459326
  0
LWPOLYLINE
  5
E0
330
2
100
AcDbEntity
  8
0
370
    -3
100
AcDbPolyline
 90
        9
 70
   128
 43
0.0
 10
498.5968263452441
 20
56.02192903846049
 10
498.4316842194239
 20
56.21109698426061
 10
498.2432962810267
 20
56.75784357533984
 10
498.4316786311588
 20
57.30458479028629
 10
498.9681558477878
 20
57.76808841000707
 10
499.7710546617226
 20
58.07779011455
 10
500.7181706456854
 20
58.18655813496389
 10
501.6652661398143
 20
58.07780409334464
 10
502.4681481903685
 20
57.76808410867626
  0
LWPOLYLINE
  5
E1
330
2
100
AcDbEntity
  8
0
370
    -3
100
AcDbPolyline
 90
        5
 70
   128
 43
0.0
 10
512.4681493288599
 20
51.99520633075895
 10
513.0046582097316
 20
51.53171238850199
 10
513.1930461481288
 20
50.98496579742254
 10
513.0046339955656
 20
50.43820737856754
 10
512.8394769681768
 20
50.24905663667619
  0
LWPOLYLINE
  5
E2
330
2
100
AcDbEntity
  8
0
370
    -3
100
AcDbPolyline
 90
        9
 70
   128
 43
0.0
 10
508.5968274837349
 20
50.24905125983583
 10
508.4316834946888
 20
50.43822028185264
 10
508.2432974188108
 20
50.98496579742254
 10
508.4316797696501
 20
51.53170701236923
 10
508.9681569862785
 20
51.99521063138264
 10
509.771055800214
 20
52.30491233663268
 10
510.7181717834696
 20
52.41368035704635
 10
511.6652654157859
 20
52.30492739022952
 10
512.4681493288599
 20
51.99520633075895
  0
LWPOLYLINE
  5
E3
330
2
100
AcDbEntity
  8
0
370
    -3
100
AcDbPolyline
 90
        3
 70
   128
 43
0.0
 10
688.5693144150407
 20
164.4134807228342
 10
688.431294435505
 20
164.1417388066256
 10
687.8181670391927
 20
163.6120142012464
  0
LINE
  5
E4
330
2
100
AcDbEntity
  8
0
370
    -3
100
AcDbLine
 10
645.8181623049061
 20
194.2116401426713
 30
0.0
 11
645.3181612702301
 21
194.5002845959798
 31
0.0
  0
LINE
  5
E5
330
2
100
AcDbEntity
  8
0
370
    -3
100
AcDbLine
 10
645.8181623049061
 20
194.2116401426713
 30
0.0
 11
648.8181685136724
 21
195.9435068632294
 31
0.0
  0
LWPOLYLINE
  5
E6
330
2
100
AcDbEntity
  8
0
370
    -3
100
AcDbPolyline
 90
        7
 70
   128
 43
0.0
 10
685.8181628997795
 20
162.4574363880121
 10
684.9005535454424
 20
162.103485476448
 10
683.8181666771347
 20
161.9791979075526
 10
682.7357706701782
 20
162.1034864508415
 10
681.8181585800448
 20
162.4574341026432
 10
681.20503682998
 20
162.9871602869916
 10
681.0670140631213
 20
163.2589041540891
  0
LINE
  5
E7
330
2
100
AcDbEntity
  8
0
370
    -3
100
AcDbLine
 10
645.8181623049061
 20
192.4794017179824
 30
0.0
 11
645.8181623049061
 21
194.2116401426713
 31
0.0
  0
LINE
  5
E8
330
2
100
AcDbEntity
  8
0
370
    -3
100
AcDbLine
 10
687.8181670391927
 20
163.6120142012464
 30
0.0
 11
685.8181628997795
 21
162.4574363880121
 31
0.0
  0
LINE
  5
E9
330
2
100
AcDbEntity
  8
0
370
    -3
100
AcDbLine
 10
645.8181623049061
 20
200.5627432763333
 30
0.0
 11
645.8181623049061
 21
203.4496516000695
 31
0.0
  0
ARC
  5
EA
330
2
100
AcDbEntity
  8
0
370
    -3
100
AcDbCircle
 10
715.5246264313801
 20
150.8411100400769
 30
0.0
 40
0.7112602536552561
100
AcDbArc
 50
5.694296087900264
 51
65.62509363199804
  0
LWPOLYLINE
  5
EB
330
2
100
AcDbEntity
  8
0
370
    -3
100
AcDbPolyline
 90
        3
 70
   128
 43
0.0
 10
472.1504464170971
 20
74.96725064776024
 10
472.0046310979945
 20
74.68438691143092
 10
471.8431602459918
 20
74.4987856760283
  0
LINE
  5
EC
330
2
100
AcDbEntity
  8
0
370
    -3
100
AcDbLine
 10
437.8181639606368
 20
53.35006081982829
 30
0.0
 11
437.8181639606368
 21
52.77267807942985
 31
0.0
  0
LINE
  5
ED
330
2
100
AcDbEntity
  8
0
370
    -3
100
AcDbLine
 10
437.8181639606368
 20
53.35006081982829
 30
0.0
 11
446.8181676860726
 21
58.54565237884163
 31
0.0
  0
LINE
  5
EE
330
2
100
AcDbEntity
  8
0
370
    -3
100
AcDbLine
 10
446.8181676860726
 20
58.54565237884163
 30
0.0
 11
446.8181676860726
 21
69.51590185717032
 31
0.0
  0
LINE
  5
EF
330
2
100
AcDbEntity
  8
0
370
    -3
100
AcDbLine
 10
447.318161269965
 20
58.83429253152621
 30
0.0
 11
447.318161269965
 21
69.80454200985537
 31
0.0
  0
ARC
  5
F0
330
2
100
AcDbEntity
  8
0
370
    -3
100
AcDbCircle
 10
446.2325938005696
 20
58.88369324925839
 30
0.0
 40
1.08669092318375
100
AcDbArc
 50
302.6060436670986
 51
357.3944491430999
  0
LINE
  5
F1
330
2
100
AcDbEntity
  8
0
370
    -3
100
AcDbLine
 10
437.8181639606368
 20
52.77267807942985
 30
0.0
 11
446.8181676860726
 21
57.96826963915054
 31
0.0
  0
LINE
  5
F2
330
2
100
AcDbEntity
  8
0
370
    -3
100
AcDbLine
 10
447.318161269965
 20
58.83429253152621
 30
0.0
 11
502.3181633395829
 21
27.08346717199311
 31
0.0
  0
ARC
  5
F3
330
2
100
AcDbEntity
  8
0
370
    -3
100
AcDbCircle
 10
501.2325958701882
 20
27.13286789043218
 30
0.0
 40
1.08669092318517
100
AcDbArc
 50
302.6060436671988
 51
357.3944491430999
  0
LINE
  5
F4
330
2
100
AcDbEntity
  8
0
370
    -3
100
AcDbLine
 10
501.8181697556911
 20
26.21744427961721
 30
0.0
 11
446.8181676860726
 21
57.96826963915054
 31
0.0
  0
LINE
  5
F5
330
2
100
AcDbEntity
  8
0
370
    -3
100
AcDbLine
 10
502.3181633395829
 20
27.08346717199311
 30
0.0
 11
502.3181633395829
 21
38.05371665032226
 31
0.0
  0
ARC
  5
F6
330
2
100
AcDbEntity
  8
0
370
    -3
100
AcDbCircle
 10
491.8181481026172
 20
22.95183212690904
 30
0.0
 40
2.17367347280459
100
AcDbArc
 50
242.6096432116018
 51
297.3909112658017
  0
LINE
  5
F7
330
2
100
AcDbEntity
  8
0
370
    -3
100
AcDbLine
 10
490.8181488524991
 20
21.02184304243315
 30
0.0
 11
437.8181471965482
 21
51.61809273904395
 31
0.0
  0
ARC
  5
F8
330
2
100
AcDbEntity
  8
0
370
    -3
100
AcDbCircle
 10
438.0372510975312
 20
52.19538222831693
 30
0.0
 40
0.6174703828850671
100
AcDbArc
 50
110.7820453687994
 51
249.2162908384
  0
LINE
  5
F9
330
2
100
AcDbEntity
  8
0
370
    -3
100
AcDbLine
 10
501.8181697556911
 20
26.21744427961721
 30
0.0
 11
492.8181660302542
 21
21.02185271989674
 31
0.0
  0
LINE
  5
FA
330
2
100
AcDbEntity
  8
0
370
    -3
100
AcDbLine
 10
471.8181670388398
 20
38.34048565059811
 30
0.0
 11
469.8181629001331
 21
37.18590783736386
 31
0.0
  0
LWPOLYLINE
  5
FB
330
2
100
AcDbEntity
  8
0
370
    -3
100
AcDbPolyline
 90
        9
 70
   128
 43
0.0
 10
467.8181666767808
 20
40.64963670844917
 10
468.7357611309635
 20
41.00357901735196
 10
469.8181629001331
 20
41.12787518820186
 10
470.9005440055212
 20
41.00357804295891
 10
471.8181709972232
 20
40.64963899311123
 10
472.4312778457187
 20
40.11990420680854
 10
472.6465901466398
 20
39.49505889450802
 10
472.4312795335825
 20
38.87020165331546
 10
471.8181670388398
 20
38.34048565059811
  0
LINE
  5
FC
330
2
100
AcDbEntity
  8
0
370
    -3
100
AcDbLine
 10
465.8181625380747
 20
39.49505889450802
 30
0.0
 11
467.8181666767808
 21
40.64963670844917
 31
0.0
  0
LWPOLYLINE
  5
FD
330
2
100
AcDbEntity
  8
0
370
    -3
100
AcDbPolyline
 90
        9
 70
   128
 43
0.0
 10
469.8181629001331
 20
37.18590783736386
 10
468.9005386442271
 20
36.83194832313848
 10
467.8181666767808
 20
36.70766935690404
 10
466.7357557689628
 20
36.83194929753154
 10
465.8181585796909
 20
37.18590555199468
 10
465.2050219287647
 20
37.71562313438881
 10
464.9897394302747
 20
38.34048565059811
 10
465.2050202409014
 20
38.96532568717453
 10
465.8181625380747
 20
39.49505889450802
  0
LWPOLYLINE
  5
FE
330
2
100
AcDbEntity
  8
0
370
    -3
100
AcDbPolyline
 90
        3
 70
   128
 43
0.0
 10
482.1419771761248
 20
69.16956772199
 10
482.0046322364856
 20
68.91150913351315
 10
481.8431604525158
 20
68.72590843551211
  0
ARC
  5
FF
330
2
100
AcDbEntity
  8
0
370
    -3
100
AcDbCircle
 10
438.1117306919408
 20
52.70216078137377
 30
0.0
 40
0.7113057606905473
100
AcDbArc
 50
114.3755167385991
 51
174.3034023674001
  0
LWPOLYLINE
  5
100
330
2
100
AcDbEntity
  8
0
370
    -3
100
AcDbPolyline
 90
        3
 70
   128
 43
0.0
 10
472.5693063371511
 20
39.71933974548232
 10
472.4312795335825
 20
39.44758439371367
 10
471.8181670388398
 20
38.91786839099633
  0
LWPOLYLINE
  5
101
330
2
100
AcDbEntity
  8
0
370
    -3
100
AcDbPolyline
 90
        3
 70
   128
 43
0.0
 10
503.1419777974214
 20
57.04652540985012
 10
503.0046328570747
 20
56.78846682066637
 10
502.8394758296853
 20
56.59931607948192
  0
LWPOLYLINE
  5
102
330
2
100
AcDbEntity
  8
0
370
    -3
100
AcDbPolyline
 90
        3
 70
   128
 43
0.0
 10
498.5968263452441
 20
56.59931070264201
 10
498.4316842194239
 20
56.78847864914883
 10
498.2943318289998
 20
57.04652540985012
  0
LWPOLYLINE
  5
103
330
2
100
AcDbEntity
  8
0
370
    -3
100
AcDbPolyline
 90
        7
 70
   128
 43
0.0
 10
469.8181629001331
 20
37.76329057705493
 10
468.9005386442271
 20
37.40933106353622
 10
467.8181666767808
 20
37.28505209730201
 10
466.7357557689628
 20
37.40933203792929
 10
465.8181585796909
 20
37.76328829239287
 10
465.2050219287647
 20
38.29300587407988
 10
465.0342806328112
 20
38.62916708205739
  0
LINE
  5
104
330
2
100
AcDbEntity
  8
0
370
    -3
100
AcDbLine
 10
471.8181670388398
 20
38.91786839099633
 30
0.0
 11
469.8181629001331
 21
37.76329057705493
 31
0.0
  0
LWPOLYLINE
  5
105
330
2
100
AcDbEntity
  8
0
370
    -3
100
AcDbPolyline
 90
        3
 70
   128
 43
0.0
 10
513.138479956448
 20
51.26403729729394
 10
513.0046339955656
 20
51.01558904274861
 10
512.8394769681768
 20
50.82643830156461
  0
LWPOLYLINE
  5
106
330
2
100
AcDbEntity
  8
0
370
    -3
100
AcDbPolyline
 90
        3
 70
   128
 43
0.0
 10
508.5968274837349
 20
50.82643292472447
 10
508.4316834946888
 20
51.01560194674107
 10
508.2943320355239
 20
51.2736481693339
  0
LWPOLYLINE
  5
107
330
2
100
AcDbEntity
  8
0
370
    -3
100
AcDbPolyline
 90
        9
 70
   128
 43
0.0
 10
882.9838372450044
 20
247.2852544072489
 10
885.6416206348757
 20
248.9602220655972
 10
887.9046973362511
 20
250.8183957347251
 10
889.7355709598357
 20
252.8289893127089
 10
891.1039083296577
 20
254.9586916305134
 10
891.9870405870433
 20
257.1722159602519
 10
892.3703319970245
 20
259.4328914138698
 10
892.2474346651743
 20
261.7032605367851
 10
892.1196376445621
 20
262.3475250089021
  0
LWPOLYLINE
  5
108
330
2
100
AcDbEntity
  8
0
370
    -3
100
AcDbPolyline
 90
        8
 70
   128
 43
0.0
 10
893.8489398273082
 20
260.9444134568591
 10
893.8461793869667
 20
260.8394143001949
 10
893.5207668834697
 20
258.5226365353522
 10
892.6944872151123
 20
256.2477248826178
 10
891.3803910061329
 20
254.0506222628794
 10
889.5992420930861
 20
251.9660403989048
 10
887.3791803897539
 20
250.0269124962906
 10
884.7552802331771
 20
248.26387591492
  0
LINE
  5
109
330
2
100
AcDbEntity
  8
0
370
    -3
100
AcDbLine
 10
882.9833016469503
 20
247.284932591625
 30
0.0
 11
884.7552802331771
 21
248.26387591492
 31
0.0
  0
LINE
  5
10A
330
2
100
AcDbEntity
  8
0
370
    -3
100
AcDbLine
 10
882.9836700722262
 20
247.2853923121693
 30
0.0
 11
882.6918692638168
 21
247.5259680389886
 31
0.0
  0
LWPOLYLINE
  5
10B
330
2
100
AcDbEntity
  8
0
370
    -3
100
AcDbPolyline
 90
       10
 70
   128
 43
0.0
 10
882.6918692638168
 20
247.5259680389886
 10
881.5408625457484
 20
248.1904300738993
 10
880.0656036065598
 20
248.5875602019933
 10
878.4440286162352
 20
248.6694597100077
 10
876.871724375997
 20
248.4262498271739
 10
875.5383348877698
 20
247.8872646228924
 10
874.6046839661753
 20
247.1175152555936
 10
874.183386212073
 20
246.2098432042058
 10
874.3252559826476
 20
245.2737280563854
 10
875.0131797600497
 20
244.4220790134875
  0
LINE
  5
10C
330
2
100
AcDbEntity
  8
0
370
    -3
100
AcDbLine
 10
875.0131797600497
 20
244.4220790134875
 30
0.0
 11
875.3079452304396
 21
244.1790598592813
 31
0.0
  0
LWPOLYLINE
  5
10D
330
2
100
AcDbEntity
  8
0
370
    -3
100
AcDbPolyline
 90
       18
 70
   128
 43
0.0
 10
831.5167093176039
 20
262.3475250089021
 10
831.2660149651419
 20
260.603175874634
 10
831.3889122969918
 20
258.3328067517182
 10
832.0159615693006
 20
256.0903589440486
 10
833.1367748081266
 20
253.9129834517703
 10
834.7327823731912
 20
251.8367576054607
 10
836.7775402891265
 20
249.896078608193
 10
839.2371746069484
 20
248.1231016316947
 10
842.0709299499494
 20
246.5471994870416
 10
845.2318569487948
 20
245.1944819079918
 10
848.6675889622921
 20
244.087362211887
 10
852.3211983137411
 20
243.2441812857105
 10
856.132155552029
 20
242.678911883208
 10
860.0373170040798
 20
242.4009154119644
 10
863.9719855503242
 20
242.4148005311349
 10
867.8709676765583
 20
242.7203376678851
 10
871.6696687095554
 20
243.3124611677069
 10
875.3051480028673
 20
244.1813655330682
  0
LWPOLYLINE
  5
10E
330
2
100
AcDbEntity
  8
0
370
    -3
100
AcDbPolyline
 90
       12
 70
   128
 43
0.0
 10
875.6078872247369
 20
248.6490726277398
 10
878.3283683882514
 20
249.9293048452146
 10
880.6969625152797
 20
251.4245613455717
 10
882.6631899116836
 20
253.1029717556644
 10
884.1851414958878
 20
254.9287649136807
 10
885.2303797682132
 20
256.8630277022285
 10
885.7766265585205
 20
258.8645332634551
 10
885.8122421978473
 20
260.8906240764586
 10
885.3364648641639
 20
262.8981168093464
 10
884.3594357299197
 20
264.844225443647
 10
882.9019787018086
 20
266.6874723142564
 10
882.7379280858622
 20
266.8574658284929
  0
LWPOLYLINE
  5
10F
330
2
100
AcDbEntity
  8
0
370
    -3
100
AcDbPolyline
 90
       20
 70
   128
 43
0.0
 10
840.9476248412641
 20
266.9073839228438
 10
840.154388965057
 20
266.0362534551323
 10
838.8673602504541
 20
264.1511974616874
 10
838.0694887156341
 20
262.1780492432226
 10
837.7777789146994
 20
260.1588644299074
 10
837.998450220461
 20
258.1366779658547
 10
838.7267957276371
 20
256.1545893137234
 10
839.9472944798953
 20
254.2548438904448
 10
841.6339330068803
 20
252.4779302381942
 10
843.7507627202439
 20
250.8617206025299
 10
846.2526681420659
 20
249.4406618501719
 10
849.0863262783866
 20
248.2450420606456
 10
852.1913402761763
 20
247.30034253148
 10
855.5015355890187
 20
246.6266991996956
 10
858.9463573106726
 20
246.238468022847
 10
862.4523874177008
 20
246.1439254478689
 10
865.9449003082837
 20
246.3450844035003
 10
869.3494590916047
 20
246.8376588148353
 10
872.5935016277256
 20
247.6111501645112
 10
875.6078872247369
 20
248.6490726277398
  0
LWPOLYLINE
  5
110
330
2
100
AcDbEntity
  8
0
370
    -3
100
AcDbPolyline
 90
        8
 70
   128
 43
0.0
 10
839.9976403257841
 20
247.6341391947858
 10
838.0902650099983
 20
248.7493598317931
 10
835.578108054737
 20
250.5658296889174
 10
833.4805166720585
 20
252.5498756240168
 10
831.830633956657
 20
254.6701536307207
 10
830.6545234371041
 20
256.8931635621643
 10
829.9707677941409
 20
259.1837840127398
 10
829.7874071348585
 20
260.9444134568591
  0
LINE
  5
111
330
2
100
AcDbEntity
  8
0
370
    -3
100
AcDbLine
 10
875.3079452304396
 20
244.1790598592813
 30
0.0
 11
875.4231167761991
 21
247.7380104630522
 31
0.0
  0
LWPOLYLINE
  5
112
330
2
100
AcDbEntity
  8
0
370
    -3
100
AcDbPolyline
 90
       65
 70
   128
 43
0.0
 10
875.3611130413258
 20
274.761312237963
 10
870.341826177988
 20
275.387127555852
 10
865.240450676775
 20
275.7259188695357
 10
860.1061175302358
 20
275.7744205490401
 10
854.9882725200173
 20
275.5321680704446
 10
849.9362031001897
 20
275.0014937230367
 10
844.9985652904613
 20
274.1875072458995
 10
840.2229068351653
 20
273.0980485224654
 10
835.6552229641081
 20
271.7436096184542
 10
831.33950144147
 20
270.1372355889307
 10
827.3173092915618
 20
268.294393428077
 10
823.6273763793873
 20
266.2328349017853
 10
820.3052437225856
 20
263.9724107277657
 10
817.3829023691501
 20
261.5348922120956
 10
814.8884963065038
 20
258.9437524293598
 10
812.8460508646025
 20
256.2239449158983
 10
811.2752318513098
 20
253.40166569654
 10
810.1911704649765
 20
250.5040930664713
 10
809.6043031071676
 20
247.5591316751372
 10
809.5202866316672
 20
244.595144240019
 10
809.9399257005725
 20
241.6406752029264
 10
810.8591802364877
 20
238.7241776064561
 10
812.2691989499957
 20
235.8737399718671
 10
814.1564012940417
 20
233.1168110287594
 10
816.5026125079057
 20
230.479943257335
 10
819.2852354462697
 20
227.9885302533721
 10
822.4774775852639
 20
225.6665681496772
 10
826.0485886329727
 20
223.5364152209861
 10
829.964182411531
 20
221.6185888601599
 10
834.1865458274478
 20
219.9315571061277
 10
838.6750179162088
 20
218.4915671372507
 10
843.3863732016485
 20
217.3124884809945
 10
848.2752339208397
 20
216.4056739670288
 10
853.2945207841786
 20
215.7798586491397
 10
858.3958962853913
 20
215.441067335456
 10
863.5302294319304
 20
215.3925656559516
 10
868.6480744421492
 20
215.6348181338401
 10
873.7001438619763
 20
216.165492481955
 10
878.6377816717045
 20
216.9794789590921
 10
883.4134401270008
 20
218.068937682526
 10
887.9811239980577
 20
219.4233765865374
 10
892.2968455206964
 20
221.029750616061
 10
896.3190376706048
 20
222.8725927769147
 10
900.0089705827789
 20
224.9341513032064
 10
903.3311032402879
 20
227.1945754772259
 10
906.2534445930165
 20
229.6320939928962
 10
908.7478506556619
 20
232.2232337756318
 10
910.7902960975639
 20
234.9430412890933
 10
912.3611151115627
 20
237.7653205084516
 10
913.445176497189
 20
240.6628931385208
 10
914.0320438549988
 20
243.6078545298544
 10
914.1160603312057
 20
246.5718419649727
 10
913.6964212615932
 20
249.5263110020653
 10
912.7771667256784
 20
252.4428085985355
 10
911.3671480121707
 20
255.2932462331246
 10
909.4799456681244
 20
258.0501751762326
 10
907.1337344542607
 20
260.687042947657
 10
904.3511115166039
 20
263.1784559516195
 10
901.1588693769024
 20
265.5004180553149
 10
897.5877583291936
 20
267.630570984006
 10
893.6721645506352
 20
269.5483973448322
 10
889.4498011347181
 20
271.235429098864
 10
884.9613290466646
 20
272.6754190677411
 10
880.2499737612251
 20
273.8544977239972
 10
875.3611130413258
 20
274.761312237963
  0
LWPOLYLINE
  5
113
330
2
100
AcDbEntity
  8
0
370
    -3
100
AcDbPolyline
 90
       59
 70
   128
 43
0.0
 10
902.7989361847437
 20
239.2444340827401
 10
901.3714765926328
 20
236.7237473277087
 10
899.4802900503058
 20
234.3069333704164
 10
897.1475499523526
 20
232.0223261674805
 10
894.4006050526612
 20
229.8967118031526
 10
891.2716601385248
 20
227.9550108173389
 10
887.7974015199974
 20
226.2199867319307
 10
884.0185595457429
 20
224.7119827447332
 10
879.9794375800923
 20
223.4486777712523
 10
875.7273910498815
 20
222.4448846300461
 10
871.3122717935553
 20
221.7123690594438
 10
866.7858445827818
 20
221.2597214893815
 10
862.201174318247
 20
221.0922462865569
 10
857.6120150794555
 20
221.2119101412868
 10
853.0721693728334
 20
221.6173076611058
 10
848.6348613543666
 20
222.3036877112008
 10
844.3521165689388
 20
223.2630018038522
 10
840.274144014646
 20
224.484002756097
 10
836.4487573291926
 20
225.9523766804073
 10
832.9208012103094
 20
227.6509063595993
 10
829.731643261924
 20
229.5596807258105
 10
826.9186680549976
 20
231.6563181160414
 10
824.5148591934571
 20
233.9162397973339
 10
822.5483975700432
 20
236.3129492032488
 10
821.0423380742511
 20
238.8183475955416
 10
820.0143367219338
 20
241.403061492093
 10
819.4764476201848
 20
244.0367856759365
 10
819.4349776865871
 20
246.688644494312
 10
819.8904130719229
 20
249.3275461623132
 10
820.8374107774229
 20
251.9225521222515
 10
822.2648703695329
 20
254.4432388772829
 10
824.1560569118606
 20
256.8600528338686
 10
826.4887970098136
 20
259.1446600375116
 10
829.2357419095047
 20
261.270274401839
 10
832.3646868236414
 20
263.2119753876527
 10
835.8389454421685
 20
264.9469994730609
 10
839.6177874171304
 20
266.4550034602587
 10
843.6569093827806
 20
267.7183084337394
 10
847.9089559122844
 20
268.7221015749456
 10
852.3240751693181
 20
269.4546171455483
 10
856.8505023793836
 20
269.9072647156106
 10
861.4351726439194
 20
270.0747399184352
 10
866.0243318827111
 20
269.9550760637048
 10
870.5641775900398
 20
269.5496785438861
 10
875.0014856077998
 20
268.8632984937908
 10
879.2842303939337
 20
267.9039844011395
 10
883.3622029475204
 20
266.6829834488951
 10
887.1875896329735
 20
265.2146095245844
 10
890.7155457518575
 20
263.5160798453924
 10
893.9047037002419
 20
261.6073054791814
 10
896.7176789071682
 20
259.5106680882429
 10
899.1214877687101
 20
257.2507464076582
 10
901.0879493928303
 20
254.8540370017438
 10
902.5940088879156
 20
252.3486386087431
 10
903.6220102409398
 20
249.7639247128986
 10
904.159899341981
 20
247.1302005290552
 10
904.2013692755782
 20
244.4783417106796
 10
903.7459338902433
 20
241.8394400426785
 10
902.7989361847437
 20
239.2444340827401
  0
LWPOLYLINE
  5
114
330
2
100
AcDbEntity
  8
0
370
    -3
100
AcDbPolyline
 90
       41
 70
   128
 43
0.0
 10
833.6924613683036
 20
263.920395597856
 10
832.4606047878356
 20
263.0670560096498
 10
829.9642499324534
 20
261.0089311954496
 10
827.8986653146311
 20
258.7974195257487
 10
826.2917836269652
 20
256.4624270175359
 10
825.1653349547396
 20
254.0355328276723
 10
824.5345538731999
 20
251.5495534933718
 10
824.4079685034444
 20
249.0381093265257
 10
824.7872943417517
 20
246.5351631148944
 10
825.6673988688872
 20
244.0745642043862
 10
827.0363788517224
 20
241.689584514658
 10
828.8757233200467
 20
239.412480361289
 10
831.1605580459126
 20
237.2740437950938
 10
833.8599866328761
 20
235.303194932417
 10
836.9374998382056
 20
233.5265843758445
 10
840.3514801133919
 20
231.9682374228041
 10
844.0557622620703
 20
230.6492304114652
 10
848.0002497429987
 20
229.5873994514193
 10
852.1316033807856
 20
228.7971041290932
 10
856.3939475449702
 20
228.2890306004206
 10
860.7296473346591
 20
228.0700504551505
 10
865.0800676089001
 20
228.1431266334582
 10
869.3863767196326
 20
228.507268801141
 10
873.5903362686848
 20
229.1575537779349
 10
877.6351001865522
 20
230.0851868309462
 10
881.4659658431736
 20
231.2776234490523
 10
885.03112888233
 20
232.718738431937
 10
888.2823779929818
 20
234.3890420208268
 10
891.175742174331
 20
236.265948181175
 10
893.6720970297132
 20
238.3240729953752
 10
895.7376816475347
 20
240.5355846650762
 10
897.3445633352008
 20
242.8705771732889
 10
898.4710120074268
 20
245.297471363152
 10
899.1017930889666
 20
247.7834506967456
 10
899.228378458722
 20
250.2948948642991
 10
898.8490526204143
 20
252.7978410759303
 10
897.9689480932792
 20
255.2584399864386
 10
896.5999681111503
 20
257.6434196761663
 10
894.7606236421192
 20
259.9205238288282
 10
892.4757889162533
 20
262.0589603957305
 10
889.9438855938631
 20
263.920395597856
  0
LINE
  5
115
330
2
100
AcDbEntity
  8
0
370
    -3
100
AcDbLine
 10
862.6007582865819
 20
282.102287066756
 30
0.0
 11
861.8603493568876
 21
299.5431945039716
 31
0.0
  0
LINE
  5
116
330
2
100
AcDbEntity
  8
0
370
    -3
100
AcDbLine
 10
856.2858172641893
 20
281.9238430689203
 30
0.0
 11
856.7352865963153
 21
299.3920410092728
 31
0.0
  0
ARC
  5
117
330
2
100
AcDbEntity
  8
0
370
    -3
100
AcDbCircle
 10
861.8147802345925
 20
214.1266233154852
 30
0.0
 40
85.41658334413616
100
AcDbArc
 50
89.96943311920128
 51
93.40923674189967
  0
LINE
  5
118
330
2
100
AcDbEntity
  8
0
370
    -3
100
AcDbLine
 10
854.139621551311
 20
304.5214000504231
 30
0.0
 11
856.7167681774401
 21
310.0737734704972
 31
0.0
  0
LINE
  5
119
330
2
100
AcDbEntity
  8
0
370
    -3
100
AcDbLine
 10
856.4549063350741
 20
298.7879732747353
 30
0.0
 11
856.7167681774401
 21
310.0737734704972
 31
0.0
  0
LINE
  5
11A
330
2
100
AcDbEntity
  8
0
370
    -3
100
AcDbLine
 10
856.4549063350741
 20
298.7879732747353
 30
0.0
 11
856.7352865963153
 21
299.3920410092728
 31
0.0
  0
LINE
  5
11B
330
2
100
AcDbEntity
  8
0
370
    -3
100
AcDbLine
 10
854.139621551311
 20
304.5214000504231
 30
0.0
 11
853.6116398595705
 21
281.8482760503
 31
0.0
  0
LINE
  5
11C
330
2
100
AcDbEntity
  8
0
370
    -3
100
AcDbLine
 10
823.2173619470632
 20
273.878236823479
 30
0.0
 11
823.7340690469654
 21
286.968648210059
 31
0.0
  0
ARC
  5
11D
330
2
100
AcDbEntity
  8
0
370
    -3
100
AcDbCircle
 10
885.1286879311265
 20
296.5601804919095
 30
0.0
 40
14.94156267172665
100
AcDbArc
 50
3.668027745299822
 51
39.74145939800209
  0
LINE
  5
11E
330
2
100
AcDbEntity
  8
0
370
    -3
100
AcDbLine
 10
891.4363653578952
 20
277.4626493352023
 30
0.0
 11
890.9719957946677
 21
290.0348369102959
 31
0.0
  0
LINE
  5
11F
330
2
100
AcDbEntity
  8
0
370
    -3
100
AcDbLine
 10
859.5575070430772
 20
308.587871101596
 30
0.0
 11
859.477374182741
 21
308.6002658800239
 31
0.0
  0
LINE
  5
120
330
2
100
AcDbEntity
  8
0
370
    -3
100
AcDbLine
 10
859.4685191675784
 20
309.6481219345981
 30
0.0
 11
856.7167681774401
 21
310.0737734704972
 31
0.0
  0
LINE
  5
121
330
2
100
AcDbEntity
  8
0
370
    -3
100
AcDbLine
 10
859.4685191675784
 20
309.6481219345981
 30
0.0
 11
859.5541710453687
 21
299.5132776095591
 31
0.0
  0
LINE
  5
122
330
2
100
AcDbEntity
  8
0
370
    -3
100
AcDbLine
 10
812.4043680513974
 20
266.8537207005367
 30
0.0
 11
812.6160905469728
 21
273.9225712630343
 31
0.0
  0
LINE
  5
123
330
2
100
AcDbEntity
  8
0
370
    -3
100
AcDbLine
 10
812.6160905469728
 20
273.9225712630343
 30
0.0
 11
813.6624799333258
 21
274.0844313426885
 31
0.0
  0
LINE
  5
124
330
2
100
AcDbEntity
  8
0
370
    -3
100
AcDbLine
 10
813.6624799333258
 20
274.0844313426885
 30
0.0
 11
813.7583260689037
 21
285.4255623346262
 31
0.0
  0
LINE
  5
125
330
2
100
AcDbEntity
  8
0
370
    -3
100
AcDbLine
 10
823.7340690469654
 20
286.968648210059
 30
0.0
 11
813.7583260689037
 21
285.4255623346262
 31
0.0
  0
ARC
  5
126
330
2
100
AcDbEntity
  8
0
370
    -3
100
AcDbCircle
 10
829.0457080201973
 20
270.9759612139851
 30
0.0
 40
16.69175967616364
100
AcDbArc
 50
169.8322452167989
 51
178.1427659575003
  0
ARC
  5
127
330
2
100
AcDbEntity
  8
0
370
    -3
100
AcDbCircle
 10
861.8119511624652
 20
261.7303232893044
 30
0.0
 40
57.66750473296937
100
AcDbArc
 50
79.8057534254994
 51
114.523965132001
  0
LINE
  5
128
330
2
100
AcDbEntity
  8
0
370
    -3
100
AcDbLine
 10
832.2720194089534
 20
368.183857639711
 30
0.0
 11
832.0729026336556
 21
362.5444965124273
 31
0.0
  0
ARC
  5
129
330
2
100
AcDbEntity
  8
0
370
    -3
100
AcDbCircle
 10
844.2376327602156
 20
366.5538062482012
 30
0.0
 40
12.0761322621073
100
AcDbArc
 50
137.9605964884
 51
172.2424645049995
  0
SPLINE
  5
12A
330
2
100
AcDbEntity
  8
0
370
    -3
100
AcDbSpline
210
0.0
220
0.0
230
1.0
 70
     8
 71
     3
 72
    12
 73
     8
 74
     0
 42
0.000000001
 43
0.0000000001
 40
-0.0042473846038654
 40
-0.0042473846038654
 40
-0.0042473846038654
 40
-0.0042473846038654
 40
0.0
 40
0.0
 40
0.0
 40
0.7287079563059044
 40
1.0
 40
1.0
 40
1.0
 40
1.0
 10
849.5092371347174
 20
380.5672695134395
 30
0.0
 10
849.5136085132099
 20
380.479971076412
 30
0.0
 10
849.5179798917025
 20
380.3926726393844
 30
0.0
 10
849.5223512701951
 20
380.3053742023569
 30
0.0
 10
850.2723323961202
 20
365.3279065209197
 30
0.0
 10
851.3015253937206
 20
344.7744494715932
 30
0.0
 10
852.2864928856815
 20
324.1180107394776
 30
0.0
 10
852.5537067295486
 20
318.5140832603997
 30
0.0
  0
LINE
  5
12B
330
2
100
AcDbEntity
  8
0
370
    -3
100
AcDbLine
 10
891.364327553213
 20
365.963429998704
 30
0.0
 11
891.5842668393757
 21
360.8462690103813
 31
0.0
  0
LWPOLYLINE
  5
12C
330
2
100
AcDbEntity
  8
0
370
    -3
100
AcDbPolyline
 90
       10
 70
   128
 43
0.0
 10
860.1815127530134
 20
377.2689250368437
 10
859.9046668612247
 20
378.0613300625471
 10
859.1322977338991
 20
378.7640275194383
 10
857.9704960545445
 20
379.2567352663693
 10
856.5780132151999
 20
379.4721298830079
 10
855.1451193552125
 20
379.3807792836367
 10
853.8676096891736
 20
378.9951650744499
 10
852.9200434111087
 20
378.3679790413196
 10
852.4318995104366
 20
377.5849206375994
 10
852.3830372036307
 20
377.2689244994424
  0
SPLINE
  5
12D
330
2
100
AcDbEntity
  8
0
370
    -3
100
AcDbSpline
210
0.0
220
0.0
230
1.0
 70
     8
 71
     3
 72
     9
 73
     5
 74
     0
 42
0.00000001
 43
0.0000000001
 40
0.0
 40
0.0
 40
0.0
 40
0.0
 40
0.7102941781500524
 40
1.0
 40
1.0
 40
1.0
 40
1.0
 10
836.5854820084237
 20
374.3542231616647
 30
0.0
 10
836.5992294771801
 20
374.3952032320983
 30
0.0
 10
836.6185840899301
 20
374.4528977362845
 30
0.0
 10
836.6019189367225
 20
374.5088057841483
 30
0.0
 10
836.5970909448156
 20
374.525002671103
 30
0.0
  0
SPLINE
  5
12E
330
2
100
AcDbEntity
  8
0
370
    -3
100
AcDbSpline
210
0.0
220
0.0
230
1.0
 70
     8
 71
     3
 72
    11
 73
     7
 74
     0
 42
0.00000001
 43
0.0000000001
 40
0.0
 40
0.0
 40
0.0
 40
0.0
 40
0.1709807795956303
 40
0.3545617377512003
 40
0.538309713644528
 40
1.0
 40
1.0
 40
1.0
 40
1.0
 10
836.5854820084237
 20
374.3542231616647
 30
0.0
 10
836.9556469702146
 20
371.2774145745532
 30
0.0
 10
837.7232556594327
 20
364.8970564901304
 30
0.0
 10
838.6120753650669
 20
354.4345987126401
 30
0.0
 10
839.8943327410584
 20
338.1087509068909
 30
0.0
 10
840.7373839082456
 20
325.001148282879
 30
0.0
 10
841.3404292458972
 20
315.6251116224105
 30
0.0
  0
LWPOLYLINE
  5
12F
330
2
100
AcDbEntity
  8
0
370
    -3
100
AcDbPolyline
 90
       10
 70
   128
 43
0.0
 10
879.3058689760632
 20
374.3106966791154
 10
879.0290232009475
 20
375.1031027124449
 10
878.2566545968812
 20
375.8057998674015
 10
877.094853733528
 20
376.2985082189086
 10
875.702369904233
 20
376.5139023313807
 10
874.2694765102296
 20
376.4225514633092
 10
872.991965912931
 20
376.0369372541215
 10
872.0444003327791
 20
375.4097513553428
 10
871.5562557334875
 20
374.6266928172711
 10
871.507393660026
 20
374.3106970821657
  0
LINE
  5
130
330
2
100
AcDbEntity
  8
0
370
    -3
100
AcDbLine
 10
890.5083381857899
 20
350.2373159564089
 30
0.0
 11
890.4750345966172
 21
351.8375558963078
 31
0.0
  0
LINE
  5
131
330
2
100
AcDbEntity
  8
0
370
    -3
100
AcDbLine
 10
890.1880493956053
 20
361.1307010360795
 30
0.0
 11
889.9761762953392
 21
366.0955499231734
 31
0.0
  0
ARC
  5
132
330
2
100
AcDbEntity
  8
0
370
    -3
100
AcDbCircle
 10
865.1032788064776
 20
360.0516907428044
 30
0.0
 40
2.256723327179776
100
AcDbArc
 50
4.854835717799335
 51
41.55196972370053
  0
LINE
  5
133
330
2
100
AcDbEntity
  8
0
370
    -3
100
AcDbLine
 10
851.4983452135746
 20
369.3103255607982
 30
0.0
 11
851.0413275119912
 21
349.6134534912051
 31
0.0
  0
LWPOLYLINE
  5
134
330
2
100
AcDbEntity
  8
0
370
    -3
100
AcDbPolyline
 90
        3
 70
   128
 43
0.0
 10
846.1601259899353
 20
379.8898207008203
 10
846.1697973097093
 20
379.9546067411908
 10
846.1849615695445
 20
379.9960028061684
  0
LWPOLYLINE
  5
135
330
2
100
AcDbEntity
  8
0
370
    -3
100
AcDbPolyline
 90
        3
 70
   128
 43
0.0
 10
862.5915817315668
 20
364.7495230481712
 10
862.5764160744884
 20
364.7081277900027
 10
862.5667456859744
 20
364.6433412115241
  0
ELLIPSE
  5
136
330
2
100
AcDbEntity
  8
0
370
    -3
100
AcDbEllipse
 10
851.7982422846683
 20
369.001393604952
 30
0.0
 11
-0.2397397378160177
 21
0.4479712617629089
 31
0.0
210
0.0
220
0.0
230
1.0
 40
0.4025850126
 41
0.2940138013589842
 42
0.6187657376912225
  0
ARC
  5
137
330
2
100
AcDbEntity
  8
0
370
    -3
100
AcDbCircle
 10
835.5190948223551
 20
374.6387385204
 30
0.0
 40
0.2502241075988111
100
AcDbArc
 50
140.2373684177989
 51
179.5998935482006
  0
SPLINE
  5
138
330
2
100
AcDbEntity
  8
0
370
    -3
100
AcDbSpline
210
0.0
220
0.0
230
1.0
 70
     8
 71
     3
 72
     9
 73
     5
 74
     0
 42
0.00000001
 43
0.0000000001
 40
0.0
 40
0.0
 40
0.0
 40
0.0
 40
0.9434997317008074
 40
1.0
 40
1.0
 40
1.0
 40
1.0
 10
839.5192744389673
 20
371.4460307926249
 30
0.0
 10
839.5184606060457
 20
371.4487406259702
 30
0.0
 10
839.5175980377867
 20
371.4516127342019
 30
0.0
 10
839.5169593983277
 20
371.4503182421565
 30
0.0
 10
839.5169233150264
 20
371.4502451030086
 30
0.0
  0
LINE
  5
139
330
2
100
AcDbEntity
  8
0
370
    -3
100
AcDbLine
 10
470.2785680555876
 20
76.04535116539089
 30
0.0
 11
469.4219300637131
 21
75.55082457851995
 31
0.0
  0
LINE
  5
13A
330
2
100
AcDbEntity
  8
0
370
    -3
100
AcDbLine
 10
480.2785691933713
 20
70.27247338676625
 30
0.0
 11
479.4219312022041
 21
69.77794680060265
 31
0.0
  0
SPLINE
  5
13B
330
2
100
AcDbEntity
  8
0
370
    -3
100
AcDbSpline
210
0.0
220
0.0
230
1.0
 70
     8
 71
     3
 72
     9
 73
     5
 74
     0
 42
0.00000001
 43
0.0000000001
 40
0.0
 40
0.0
 40
0.0
 40
0.0
 40
0.3637854971176164
 40
1.0
 40
1.0
 40
1.0
 40
1.0
 10
466.8638848643182
 20
72.20566826096295
 30
0.0
 10
466.7968007326249
 20
72.31465553986776
 30
0.0
 10
466.6123949984093
 20
72.61424768899906
 30
0.0
 10
466.4172158107244
 20
72.90547777190181
 30
0.0
 10
466.2930399808582
 20
73.09076257432071
 30
0.0
  0
LWPOLYLINE
  5
13C
330
2
100
AcDbEntity
  8
0
370
    -3
100
AcDbPolyline
 90
        9
 70
   128
 43
0.0
 10
466.2930399807605
 20
73.09076257421406
 10
466.3624738073336
 20
73.47267162926802
 10
466.5585079045239
 20
73.8396471654596
 10
466.8736954165438
 20
74.17782019272569
 10
467.2961563931708
 20
74.47443571333588
 10
467.8099950195401
 20
74.7183344483119
 10
468.3957913558962
 20
74.90028832637108
 10
469.031450705811
 20
75.01343919703595
 10
469.6930380771751
 20
75.05353969596353
  0
LINE
  5
13D
330
2
100
AcDbEntity
  8
0
370
    -3
100
AcDbLine
 10
469.6930380771751
 20
75.05353969596353
 30
0.0
 11
470.2638829603182
 21
74.16844538263763
 31
0.0
  0
SPLINE
  5
13E
330
2
100
AcDbEntity
  8
0
370
    -3
100
AcDbSpline
210
0.0
220
0.0
230
1.0
 70
     8
 71
     3
 72
     9
 73
     5
 74
     0
 42
0.00000001
 43
0.0000000001
 40
0.0
 40
0.0
 40
0.0
 40
0.0
 40
0.4931100423133448
 40
1.0
 40
1.0
 40
1.0
 40
1.0
 10
470.2638829602829
 20
74.16844538287887
 30
0.0
 10
470.2321547006103
 20
73.94488217971479
 30
0.0
 10
470.1678115379281
 20
73.49150831996553
 30
0.0
 10
470.2041004819748
 20
73.05599119165027
 30
0.0
 10
470.2224949832852
 20
72.83523193290648
 30
0.0
  0
SPLINE
  5
13F
330
2
100
AcDbEntity
  8
0
370
    -3
100
AcDbSpline
210
0.0
220
0.0
230
1.0
 70
     8
 71
     3
 72
     9
 73
     5
 74
     0
 42
0.00000001
 43
0.0000000001
 40
0.0
 40
0.0
 40
0.0
 40
0.0
 40
0.3964102834949721
 40
1.0
 40
1.0
 40
1.0
 40
1.0
 10
470.2224949832852
 20
72.83523193290648
 30
0.0
 10
470.1719352121831
 20
72.71862222179994
 30
0.0
 10
470.0443911670162
 20
72.42445802888664
 30
0.0
 10
469.8794523331415
 20
72.1671821899099
 30
0.0
 10
469.7798969491619
 20
72.01189313919847
 30
0.0
  0
LWPOLYLINE
  5
140
330
2
100
AcDbEntity
  8
0
370
    -3
100
AcDbPolyline
 90
        9
 70
   128
 43
0.0
 10
467.4405337504681
 20
70.66140751051739
 10
467.4748883786401
 20
70.92737641238612
 10
467.6015035508267
 20
71.18388713273839
 10
467.8151377826325
 20
71.42037394795193
 10
468.1070385045273
 20
71.62712813442476
 10
468.4651860667345
 20
71.79563883436367
 10
468.8748376323491
 20
71.91896725105334
 10
469.3191753772066
 20
71.99206063397673
 10
469.7798969488162
 20
72.01189313944381
  0
LINE
  5
141
330
2
100
AcDbEntity
  8
0
370
    -3
100
AcDbLine
 10
467.4405337504681
 20
70.66140751051739
 30
0.0
 11
467.3845091071474
 21
71.19689755936815
 31
0.0
  0
SPLINE
  5
142
330
2
100
AcDbEntity
  8
0
370
    -3
100
AcDbSpline
210
0.0
220
0.0
230
1.0
 70
     8
 71
     3
 72
     9
 73
     5
 74
     0
 42
0.00000001
 43
0.0000000001
 40
0.0
 40
0.0
 40
0.0
 40
0.0
 40
0.3822999439767221
 40
1.0
 40
1.0
 40
1.0
 40
1.0
 10
467.3845091071006
 20
71.19689755951322
 30
0.0
 10
467.3360521316253
 20
71.34335071975897
 30
0.0
 10
467.2093009347221
 20
71.72643516053199
 30
0.0
 10
466.9957779957093
 20
72.02267864438886
 30
0.0
 10
466.8638848643182
 20
72.20566826096295
 30
0.0
  0
ELLIPSE
  5
143
330
2
100
AcDbEntity
  8
0
370
    -3
100
AcDbEllipse
 10
470.3999332114277
 20
72.24719139295962
 30
0.0
 11
-0.0222750325631778
 21
0.2959601469720317
 31
0.0
210
0.0
220
0.0
230
0.9999999999999998
 40
0.7151865598000002
 41
1.378679441509752
 42
4.258472707296971
  0
LINE
  5
144
330
2
100
AcDbEntity
  8
0
370
    -3
100
AcDbLine
 10
470.5999265113796
 20
72.13172983158482
 30
0.0
 11
470.9931681721423
 21
73.60631867746859
 31
0.0
  0
LINE
  5
145
330
2
100
AcDbEntity
  8
0
370
    -3
100
AcDbLine
 10
470.9931681721423
 20
73.60631867746859
 30
0.0
 11
471.8431676960685
 21
73.11562439667773
 31
0.0
  0
LINE
  5
146
330
2
100
AcDbEntity
  8
0
370
    -3
100
AcDbLine
 10
471.8431676960685
 20
73.11562439667773
 30
0.0
 11
471.4499260353058
 21
71.64103555150086
 31
0.0
  0
ELLIPSE
  5
147
330
2
100
AcDbEntity
  8
0
370
    -3
100
AcDbEllipse
 10
471.6499332652618
 20
71.52558172233876
 30
0.0
 11
-0.0222750325627758
 21
0.2959601469720316
 31
0.0
210
0.0
220
0.0
230
1.0
 40
0.7151865598000002
 41
1.116880053711565
 42
3.996673319501616
  0
LINE
  5
148
330
2
100
AcDbEntity
  8
0
370
    -3
100
AcDbLine
 10
471.8242767485762
 20
71.34340600295286
 30
0.0
 11
472.0518305278751
 21
71.77917900140688
 31
0.0
  0
LINE
  5
149
330
2
100
AcDbEntity
  8
0
370
    -3
100
AcDbLine
 10
471.9957760828309
 20
70.73269334387531
 30
0.0
 11
472.0518305278751
 21
71.77917900140688
 31
0.0
  0
LINE
  5
14A
330
2
100
AcDbEntity
  8
0
370
    -3
100
AcDbLine
 10
471.1003447786729
 20
70.3300583319774
 30
0.0
 11
471.9957760828309
 21
70.73269334387531
 31
0.0
  0
LINE
  5
14B
330
2
100
AcDbEntity
  8
0
370
    -3
100
AcDbLine
 10
471.0931624190151
 20
70.30314139336815
 30
0.0
 11
471.1003447786729
 21
70.3300583319774
 31
0.0
  0
LINE
  5
14C
330
2
100
AcDbEntity
  8
0
370
    -3
100
AcDbLine
 10
470.2431628950883
 20
70.79383567415901
 30
0.0
 11
471.0931624190151
 21
70.30314139336815
 31
0.0
  0
LINE
  5
14D
330
2
100
AcDbEntity
  8
0
370
    -3
100
AcDbLine
 10
470.2431628950883
 20
70.79383567415901
 30
0.0
 11
470.250345254746
 21
70.82075261276827
 31
0.0
  0
LINE
  5
14E
330
2
100
AcDbEntity
  8
0
370
    -3
100
AcDbLine
 10
469.7798969488162
 20
72.01189313944381
 30
0.0
 11
470.250345254746
 21
70.82075261276827
 31
0.0
  0
LINE
  5
14F
330
2
100
AcDbEntity
  8
0
370
    -3
100
AcDbLine
 10
470.2224949832284
 20
72.83523193289375
 30
0.0
 11
470.1879056613561
 21
72.28806292398303
 31
0.0
  0
LINE
  5
150
330
2
100
AcDbEntity
  8
0
370
    -3
100
AcDbLine
 10
470.250345254746
 20
70.82075261276827
 30
0.0
 11
470.2294538257156
 21
70.78592159683762
 31
0.0
  0
LWPOLYLINE
  5
151
330
2
100
AcDbEntity
  8
0
370
    -3
100
AcDbPolyline
 90
        9
 70
   128
 43
0.0
 10
468.3568546204301
 20
69.70489308566425
 10
468.2678779200473
 20
69.93872933008653
 10
468.296862542918
 20
70.17755273308967
 10
468.4414820439938
 20
70.40195767736782
 10
468.6899086257148
 20
70.59365361204412
 10
469.0219717042419
 20
70.73706722518362
 10
469.4106945876105
 20
70.82055428627814
 10
469.8243936806983
 20
70.83728675275165
 10
470.2294538257156
 20
70.78592159683762
  0
LINE
  5
152
330
2
100
AcDbEntity
  8
0
370
    -3
100
AcDbLine
 10
468.3568546204301
 20
69.70489308566425
 30
0.0
 11
468.3359929938306
 21
69.71562057552637
 31
0.0
  0
LINE
  5
153
330
2
100
AcDbEntity
  8
0
370
    -3
100
AcDbLine
 10
468.3359929938306
 20
69.71562057552637
 30
0.0
 11
467.4405337504681
 21
70.66140751051739
 31
0.0
  0
LWPOLYLINE
  5
154
330
2
100
AcDbEntity
  8
0
370
    -3
100
AcDbPolyline
 90
        9
 70
   128
 43
0.0
 10
471.0794533496428
 20
70.29522731675363
 10
471.1684300500254
 20
70.06139107233162
 10
471.1394472903811
 20
69.82256659381867
 10
470.9948277893054
 20
69.59816164954054
 10
470.746399344358
 20
69.40646679037422
 10
470.4143381283501
 20
69.26305210172518
 10
470.0256152449809
 20
69.17956504063045
 10
469.6119142893744
 20
69.16283364966648
 10
469.2068541443568
 20
69.21419880558073
  0
LINE
  5
155
330
2
100
AcDbEntity
  8
0
370
    -3
100
AcDbLine
 10
469.193145075691
 20
69.2062847282591
 30
0.0
 11
469.2068541443568
 21
69.21419880558073
 31
0.0
  0
LINE
  5
156
330
2
100
AcDbEntity
  8
0
370
    -3
100
AcDbLine
 10
468.3431455517642
 20
69.69697900904998
 30
0.0
 11
469.193145075691
 21
69.2062847282591
 31
0.0
  0
LINE
  5
157
330
2
100
AcDbEntity
  8
0
370
    -3
100
AcDbLine
 10
468.3431455517642
 20
69.69697900904998
 30
0.0
 11
468.3568546204301
 21
69.70489308566425
 31
0.0
  0
LINE
  5
158
330
2
100
AcDbEntity
  8
0
370
    -3
100
AcDbLine
 10
470.2294538257156
 20
70.78592159683762
 30
0.0
 11
470.2431628950883
 21
70.79383567415901
 31
0.0
  0
LINE
  5
159
330
2
100
AcDbEntity
  8
0
370
    -3
100
AcDbLine
 10
471.0794533496428
 20
70.29522731675363
 30
0.0
 11
471.0931624190151
 21
70.30314139336815
 31
0.0
  0
LINE
  5
15A
330
2
100
AcDbEntity
  8
0
370
    -3
100
AcDbLine
 10
466.2930399807605
 20
73.09076257421406
 30
0.0
 11
466.1856249554907
 21
73.48739662374578
 31
0.0
  0
LWPOLYLINE
  5
15B
330
2
100
AcDbEntity
  8
0
370
    -3
100
AcDbPolyline
 90
        9
 70
   128
 43
0.0
 10
466.1856249554907
 20
73.48739662374578
 10
466.2718225889251
 20
73.86513358385537
 10
466.4781403504879
 20
74.22703271327236
 10
466.7974275454716
 20
74.56049922982197
 10
467.2185101644477
 20
74.85388460237118
 10
467.7267236019811
 20
75.09697042402172
 10
468.304367140342
 20
75.28129099847887
 10
468.9312627441976
 20
75.40039570708358
 10
469.5856230519048
 20
75.45017374549548
  0
LINE
  5
15C
330
2
100
AcDbEntity
  8
0
370
    -3
100
AcDbLine
 10
469.5856230519048
 20
75.45017374549548
 30
0.0
 11
469.6930380771751
 21
75.05353969596353
 31
0.0
  0
LINE
  5
15D
330
2
100
AcDbEntity
  8
0
370
    -3
100
AcDbLine
 10
470.0352022804509
 20
75.28598773556495
 30
0.0
 11
469.5856230519048
 21
75.45017374549548
 31
0.0
  0
LINE
  5
15E
330
2
100
AcDbEntity
  8
0
370
    -3
100
AcDbLine
 10
470.0352022804509
 20
75.28598773556495
 30
0.0
 11
470.2638829603182
 21
74.16844538263763
 31
0.0
  0
LINE
  5
15F
330
2
100
AcDbEntity
  8
0
370
    -3
100
AcDbLine
 10
470.9931681721423
 20
73.60631867746859
 30
0.0
 11
470.9931681721423
 21
75.88049936702123
 31
0.0
  0
ARC
  5
160
330
2
100
AcDbEntity
  8
0
370
    -3
100
AcDbCircle
 10
470.8920438207983
 20
70.78919704852523
 30
0.0
 40
1.105177621418215
100
AcDbArc
 50
296.3708856719994
 51
357.0693979301997
  0
SPLINE
  5
161
330
2
100
AcDbEntity
  8
0
370
    -3
100
AcDbSpline
210
0.0
220
0.0
230
1.0
 70
     8
 71
     3
 72
     9
 73
     5
 74
     0
 42
0.00000001
 43
0.0000000001
 40
0.0
 40
0.0
 40
0.0
 40
0.0
 40
0.3637866812321417
 40
1.0
 40
1.0
 40
1.0
 40
1.0
 10
472.5724529082013
 20
72.83573631945569
 30
0.0
 10
472.6395377068611
 20
72.8672694641225
 30
0.0
 10
472.8239446742427
 20
72.95394978062041
 30
0.0
 10
473.019123980266
 20
73.01983135132923
 30
0.0
 10
473.1432996543057
 20
73.06174608407514
 30
0.0
  0
ARC
  5
162
330
2
100
AcDbEntity
  8
0
370
    -3
100
AcDbCircle
 10
471.4723276182117
 20
73.23564169450469
 30
0.0
 40
1.679996199081686
100
AcDbArc
 50
298.2828750951986
 51
354.0586992225995
  0
SPLINE
  5
163
330
2
100
AcDbEntity
  8
0
370
    -3
100
AcDbSpline
210
0.0
220
0.0
230
1.0
 70
     8
 71
     3
 72
     9
 73
     5
 74
     0
 42
0.00000001
 43
0.0000000001
 40
0.0
 40
0.0
 40
0.0
 40
0.0
 40
0.3822926472304648
 40
1.0
 40
1.0
 40
1.0
 40
1.0
 10
472.0518305280639
 20
71.77917900162538
 30
0.0
 10
472.1002750912876
 20
71.90786030127765
 30
0.0
 10
472.2269962395362
 20
72.24446447241485
 30
0.0
 10
472.4405433116152
 20
72.6099643547193
 30
0.0
 10
472.5724529082013
 20
72.83573631945569
 30
0.0
  0
LINE
  5
164
330
2
100
AcDbEntity
  8
0
370
    -3
100
AcDbLine
 10
468.9940208496087
 20
76.4572678373679
 30
0.0
 11
468.978881269215
 21
75.40647181510485
 31
0.0
  0
LINE
  5
165
330
2
100
AcDbEntity
  8
0
370
    -3
100
AcDbLine
 10
469.4434864566964
 20
75.44542598216755
 30
0.0
 11
469.2689081700804
 21
76.29857876477513
 31
0.0
  0
LINE
  5
166
330
2
100
AcDbEntity
  8
0
370
    -3
100
AcDbLine
 10
471.8431676960685
 20
73.11562439667773
 30
0.0
 11
471.8431676960685
 21
75.38980508623012
 31
0.0
  0
LINE
  5
167
330
2
100
AcDbEntity
  8
0
370
    -3
100
AcDbLine
 10
466.5940397248236
 20
75.07178822418973
 30
0.0
 11
466.5837039063739
 21
74.35445583489422
 31
0.0
  0
LINE
  5
168
330
2
100
AcDbEntity
  8
0
370
    -3
100
AcDbLine
 10
472.5673827880041
 20
74.39440989977947
 30
0.0
 11
472.3256561409038
 21
73.4922014131166
 31
0.0
  0
LINE
  5
169
330
2
100
AcDbEntity
  8
0
370
    -3
100
AcDbLine
 10
472.8011335884676
 20
73.68924957854982
 30
0.0
 11
472.3256561409038
 21
73.4922014131166
 31
0.0
  0
LINE
  5
16A
330
2
100
AcDbEntity
  8
0
370
    -3
100
AcDbLine
 10
472.5724529078925
 20
72.83573631925356
 30
0.0
 11
472.8011335884676
 21
73.68924957854982
 31
0.0
  0
LINE
  5
16B
330
2
100
AcDbEntity
  8
0
370
    -3
100
AcDbLine
 10
468.3359929938306
 20
69.71562057552637
 30
0.0
 11
468.3431455517642
 21
69.69697900904998
 31
0.0
  0
SPLINE
  5
16C
330
2
100
AcDbEntity
  8
0
370
    -3
100
AcDbSpline
210
0.0
220
0.0
230
1.0
 70
     8
 71
     3
 72
     9
 73
     5
 74
     0
 42
0.00000001
 43
0.0000000001
 40
0.0
 40
0.0
 40
0.0
 40
0.0
 40
0.690264988967167
 40
1.0
 40
1.0
 40
1.0
 40
1.0
 10
473.2507128167504
 20
73.33436246073119
 30
0.0
 10
473.1474359412
 20
73.41698140073049
 30
0.0
 10
472.9978167700095
 20
73.53667302832285
 30
0.0
 10
472.84764655997
 20
73.65316724199987
 30
0.0
 10
472.801133588307
 20
73.68924957855894
 30
0.0
  0
LINE
  5
16D
330
2
100
AcDbEntity
  8
0
370
    -3
100
AcDbLine
 10
473.1432996542626
 20
73.06174608416019
 30
0.0
 11
473.2507128170131
 21
73.33436246039514
 31
0.0
  0
LINE
  5
16E
330
2
100
AcDbEntity
  8
0
370
    -3
100
AcDbLine
 10
473.2507128170131
 20
73.33436246039514
 30
0.0
 11
473.1891784688346
 21
73.02428118162288
 31
0.0
  0
LINE
  5
16F
330
2
100
AcDbEntity
  8
0
370
    -3
100
AcDbLine
 10
472.8505588795751
 20
73.65075312879685
 30
0.0
 11
472.8422682452491
 21
74.23572190269601
 31
0.0
  0
SPLINE
  5
170
330
2
100
AcDbEntity
  8
0
370
    -3
100
AcDbSpline
210
0.0
220
0.0
230
1.0
 70
     8
 71
     3
 72
     9
 73
     5
 74
     0
 42
0.00000001
 43
0.0000000001
 40
0.0
 40
0.0
 40
0.0
 40
0.0
 40
0.3637854971176164
 40
1.0
 40
1.0
 40
1.0
 40
1.0
 10
476.8638850712878
 20
66.43279102062706
 30
0.0
 10
476.7968009395939
 20
66.54177829953119
 30
0.0
 10
476.6123952053789
 20
66.84137044866247
 30
0.0
 10
476.4172160176939
 20
67.13260053156614
 30
0.0
 10
476.2930401878278
 20
67.31788533398456
 30
0.0
  0
LWPOLYLINE
  5
171
330
2
100
AcDbEntity
  8
0
370
    -3
100
AcDbPolyline
 90
        9
 70
   128
 43
0.0
 10
476.2930401879916
 20
67.31788533369763
 10
476.3624740138578
 20
67.69979438945893
 10
476.5585081110485
 20
68.06676992565076
 10
476.8736965550346
 20
68.40494241480815
 10
477.2961566004022
 20
68.70155847282013
 10
477.809996158031
 20
68.9454566703946
 10
478.3957915631272
 20
69.12741108585464
 10
479.0314509130426
 20
69.24056195651951
 10
479.6930382836993
 20
69.28066245615422
  0
LINE
  5
172
330
2
100
AcDbEntity
  8
0
370
    -3
100
AcDbLine
 10
479.6930382836993
 20
69.28066245615422
 30
0.0
 11
480.2638831675502
 21
68.39556814282878
 31
0.0
  0
SPLINE
  5
173
330
2
100
AcDbEntity
  8
0
370
    -3
100
AcDbSpline
210
0.0
220
0.0
230
1.0
 70
     8
 71
     3
 72
     9
 73
     5
 74
     0
 42
0.00000001
 43
0.0000000001
 40
0.0
 40
0.0
 40
0.0
 40
0.0
 40
0.4931102781145579
 40
1.0
 40
1.0
 40
1.0
 40
1.0
 10
480.2638831672529
 20
68.39556814254206
 30
0.0
 10
480.2321553629098
 20
68.17200472259878
 30
0.0
 10
480.1678131543781
 20
67.71863064003468
 30
0.0
 10
480.2041011687451
 20
67.28311373529186
 30
0.0
 10
480.2224951902553
 20
67.06235469256967
 30
0.0
  0
SPLINE
  5
174
330
2
100
AcDbEntity
  8
0
370
    -3
100
AcDbSpline
210
0.0
220
0.0
230
1.0
 70
     8
 71
     3
 72
     9
 73
     5
 74
     0
 42
0.00000001
 43
0.0000000001
 40
0.0
 40
0.0
 40
0.0
 40
0.0
 40
0.3964102834949721
 40
1.0
 40
1.0
 40
1.0
 40
1.0
 10
480.2224951902553
 20
67.06235469256967
 30
0.0
 10
480.1719354191527
 20
66.94574498146335
 30
0.0
 10
480.0443913739862
 20
66.65158078855006
 30
0.0
 10
479.8794525401107
 20
66.39430494957401
 30
0.0
 10
479.7798971561318
 20
66.23901589886258
 30
0.0
  0
LWPOLYLINE
  5
175
330
2
100
AcDbEntity
  8
0
370
    -3
100
AcDbPolyline
 90
        9
 70
   128
 43
0.0
 10
477.4405339569924
 20
64.88853027000097
 10
477.4748885858721
 20
65.15449917257706
 10
477.6015028267988
 20
65.41101043033041
 10
477.8151389211234
 20
65.64749617003464
 10
478.1070396430187
 20
65.85425035650725
 10
478.4651872052253
 20
66.02276105644659
 10
478.8748369076138
 20
66.14609054864513
 10
479.3191755837312
 20
66.21918339416765
 10
479.7798971560478
 20
66.23901589892762
  0
LINE
  5
176
330
2
100
AcDbEntity
  8
0
370
    -3
100
AcDbLine
 10
477.4405339569924
 20
64.88853027000097
 30
0.0
 11
477.3845093143795
 21
65.42402031885217
 31
0.0
  0
SPLINE
  5
177
330
2
100
AcDbEntity
  8
0
370
    -3
100
AcDbSpline
210
0.0
220
0.0
230
1.0
 70
     8
 71
     3
 72
     9
 73
     5
 74
     0
 42
0.00000001
 43
0.0000000001
 40
0.0
 40
0.0
 40
0.0
 40
0.0
 40
0.3822999439767221
 40
1.0
 40
1.0
 40
1.0
 40
1.0
 10
477.3845093140702
 20
65.42402031917665
 30
0.0
 10
477.3360523385958
 20
65.57047347942239
 30
0.0
 10
477.2093011416922
 20
65.95355792019541
 30
0.0
 10
476.9957782026777
 20
66.24980140405249
 30
0.0
 10
476.8638850712878
 20
66.43279102062706
 30
0.0
  0
ELLIPSE
  5
178
330
2
100
AcDbEntity
  8
0
370
    -3
100
AcDbEllipse
 10
480.3999336421047
 20
66.4743140237499
 30
0.0
 11
-0.0222750325631778
 21
0.2959601469720317
 31
0.0
210
0.0
220
0.0
230
0.9999999999999998
 40
0.7151865598000002
 41
1.378679441509752
 42
4.25847270729761
  0
LINE
  5
179
330
2
100
AcDbEntity
  8
0
370
    -3
100
AcDbLine
 10
480.5999276498705
 20
66.35885205366729
 30
0.0
 11
480.9931693106332
 21
67.83344089955129
 31
0.0
  0
LINE
  5
17A
330
2
100
AcDbEntity
  8
0
370
    -3
100
AcDbLine
 10
480.9931693106332
 20
67.83344089955129
 30
0.0
 11
481.8431688345598
 21
67.34274661876042
 31
0.0
  0
LINE
  5
17B
330
2
100
AcDbEntity
  8
0
370
    -3
100
AcDbLine
 10
481.8431688345598
 20
67.34274661876042
 30
0.0
 11
481.4499271737973
 21
65.86815777358332
 31
0.0
  0
ELLIPSE
  5
17C
330
2
100
AcDbEntity
  8
0
370
    -3
100
AcDbEllipse
 10
481.6499336959391
 20
65.75270435242214
 30
0.0
 11
-0.0222750325627758
 21
0.2959601469720316
 31
0.0
210
0.0
220
0.0
230
1.0
 40
0.7151865598000002
 41
1.116880053711565
 42
3.996673319502171
  0
LINE
  5
17D
330
2
100
AcDbEntity
  8
0
370
    -3
100
AcDbLine
 10
481.8242769551006
 20
65.57052876243665
 30
0.0
 11
482.0518307351061
 21
66.00630176159802
 31
0.0
  0
LINE
  5
17E
330
2
100
AcDbEntity
  8
0
370
    -3
100
AcDbLine
 10
481.9957762893555
 20
64.95981610335912
 30
0.0
 11
482.0518307351061
 21
66.00630176159802
 31
0.0
  0
LINE
  5
17F
330
2
100
AcDbEntity
  8
0
370
    -3
100
AcDbLine
 10
481.1003459171638
 20
64.55718055406009
 30
0.0
 11
481.9957762893555
 21
64.95981610335912
 31
0.0
  0
LINE
  5
180
330
2
100
AcDbEntity
  8
0
370
    -3
100
AcDbLine
 10
481.0931635567993
 20
64.53026361545084
 30
0.0
 11
481.1003459171638
 21
64.55718055406009
 31
0.0
  0
LINE
  5
181
330
2
100
AcDbEntity
  8
0
370
    -3
100
AcDbLine
 10
480.2431640328727
 20
65.02095789624195
 30
0.0
 11
481.0931635567993
 21
64.53026361545084
 31
0.0
  0
LINE
  5
182
330
2
100
AcDbEntity
  8
0
370
    -3
100
AcDbLine
 10
480.2431640328727
 20
65.02095789624195
 30
0.0
 11
480.2503463932372
 21
65.04787483485097
 31
0.0
  0
LINE
  5
183
330
2
100
AcDbEntity
  8
0
370
    -3
100
AcDbLine
 10
479.7798971560478
 20
66.23901589892762
 30
0.0
 11
480.2503463932372
 21
65.04787483485097
 31
0.0
  0
LINE
  5
184
330
2
100
AcDbEntity
  8
0
370
    -3
100
AcDbLine
 10
480.2224951904603
 20
67.06235469237778
 30
0.0
 11
480.187906799847
 21
66.51518514606573
 31
0.0
  0
LINE
  5
185
330
2
100
AcDbEntity
  8
0
370
    -3
100
AcDbLine
 10
480.2503463932372
 20
65.04787483485097
 30
0.0
 11
480.2294549642068
 21
65.01304381892009
 31
0.0
  0
LWPOLYLINE
  5
186
330
2
100
AcDbEntity
  8
0
370
    -3
100
AcDbPolyline
 90
        9
 70
   128
 43
0.0
 10
478.356855758921
 20
63.93201530774717
 10
478.2678781272784
 20
64.16585208957008
 10
478.2968627494423
 20
64.40467549257369
 10
478.4414822505182
 20
64.62908043685185
 10
478.6899097642061
 20
64.8207758341266
 10
479.0219719114733
 20
64.96418998466743
 10
479.4106947948425
 20
65.04767704576216
 10
479.8243938879298
 20
65.06440951223544
 10
480.2294549642068
 20
65.01304381892009
  0
LINE
  5
187
330
2
100
AcDbEntity
  8
0
370
    -3
100
AcDbLine
 10
478.356855758921
 20
63.93201530774717
 30
0.0
 11
478.3359941323213
 21
63.94274279760907
 31
0.0
  0
LINE
  5
188
330
2
100
AcDbEntity
  8
0
370
    -3
100
AcDbLine
 10
478.3359941323213
 20
63.94274279760907
 30
0.0
 11
477.4405339569924
 21
64.88853027000097
 31
0.0
  0
LWPOLYLINE
  5
189
330
2
100
AcDbEntity
  8
0
370
    -3
100
AcDbPolyline
 90
        9
 70
   128
 43
0.0
 10
481.0794544881336
 20
64.52234953812922
 10
481.1684311878098
 20
64.28851329441454
 10
481.1394474969051
 20
64.04968935330249
 10
480.9948279958298
 20
63.82528440902456
 10
480.7464004828493
 20
63.63358901245693
 10
480.4143383355818
 20
63.49017486120897
 10
480.0256154522125
 20
63.40668780082137
 10
479.6119154271582
 20
63.38995587174918
 10
479.2068552828482
 20
63.44132102766297
  0
LINE
  5
18A
330
2
100
AcDbEntity
  8
0
370
    -3
100
AcDbLine
 10
479.1931462134753
 20
63.43340695034157
 30
0.0
 11
479.2068552828482
 21
63.44132102766297
 31
0.0
  0
LINE
  5
18B
330
2
100
AcDbEntity
  8
0
370
    -3
100
AcDbLine
 10
478.3431466895481
 20
63.92410123113268
 30
0.0
 11
479.1931462134753
 21
63.43340695034157
 31
0.0
  0
LINE
  5
18C
330
2
100
AcDbEntity
  8
0
370
    -3
100
AcDbLine
 10
478.3431466895481
 20
63.92410123113268
 30
0.0
 11
478.356855758921
 21
63.93201530774717
 31
0.0
  0
LINE
  5
18D
330
2
100
AcDbEntity
  8
0
370
    -3
100
AcDbLine
 10
480.2294549642068
 20
65.01304381892009
 30
0.0
 11
480.2431640328727
 21
65.02095789624195
 31
0.0
  0
LINE
  5
18E
330
2
100
AcDbEntity
  8
0
370
    -3
100
AcDbLine
 10
481.0794544881336
 20
64.52234953812922
 30
0.0
 11
481.0931635567993
 21
64.53026361545084
 31
0.0
  0
LINE
  5
18F
330
2
100
AcDbEntity
  8
0
370
    -3
100
AcDbLine
 10
476.2930401879916
 20
67.31788533369763
 30
0.0
 11
476.1856260939817
 21
67.71451884582848
 31
0.0
  0
LWPOLYLINE
  5
190
330
2
100
AcDbEntity
  8
0
370
    -3
100
AcDbPolyline
 90
        9
 70
   128
 43
0.0
 10
476.1856260939817
 20
67.71451884582848
 10
476.2718218648965
 20
68.09225688144739
 10
476.4781405577195
 20
68.45415547275639
 10
476.7974277519961
 20
68.78762198930553
 10
477.2185103709721
 20
69.08100736185497
 10
477.7267238085054
 20
69.32409318350574
 10
478.3043673475734
 20
69.50841375796267
 10
478.9312620194627
 20
69.62751900396847
 10
479.5856241896886
 20
69.67729596757817
  0
LINE
  5
191
330
2
100
AcDbEntity
  8
0
370
    -3
100
AcDbLine
 10
479.5856241896886
 20
69.67729596757817
 30
0.0
 11
479.6930382836993
 21
69.28066245615422
 31
0.0
  0
LINE
  5
192
330
2
100
AcDbEntity
  8
0
370
    -3
100
AcDbLine
 10
480.0352034182346
 20
69.51310995694075
 30
0.0
 11
479.5856241896886
 21
69.67729596757817
 31
0.0
  0
LINE
  5
193
330
2
100
AcDbEntity
  8
0
370
    -3
100
AcDbLine
 10
480.0352034182346
 20
69.51310995694075
 30
0.0
 11
480.2638831675502
 21
68.39556814282878
 31
0.0
  0
LINE
  5
194
330
2
100
AcDbEntity
  8
0
370
    -3
100
AcDbLine
 10
480.9931693106332
 20
67.83344089955129
 30
0.0
 11
480.9931693106332
 21
70.1076215891037
 31
0.0
  0
ARC
  5
195
330
2
100
AcDbEntity
  8
0
370
    -3
100
AcDbCircle
 10
480.8920433435504
 20
65.0163191970687
 30
0.0
 40
1.105178273543412
100
AcDbArc
 50
296.3709623950034
 51
357.0694313641989
  0
SPLINE
  5
196
330
2
100
AcDbEntity
  8
0
370
    -3
100
AcDbSpline
210
0.0
220
0.0
230
1.0
 70
     8
 71
     3
 72
     9
 73
     5
 74
     0
 42
0.00000001
 43
0.0000000001
 40
0.0
 40
0.0
 40
0.0
 40
0.0
 40
0.363786089174827
 40
1.0
 40
1.0
 40
1.0
 40
1.0
 10
482.5724540464939
 20
67.06285854147814
 30
0.0
 10
482.6395385116701
 20
67.09439190836177
 30
0.0
 10
482.8239448624694
 20
67.18107297677443
 30
0.0
 10
483.0191241093224
 20
67.24695425687582
 30
0.0
 10
483.1432998612743
 20
67.28886884373856
 30
0.0
  0
ARC
  5
197
330
2
100
AcDbEntity
  8
0
370
    -3
100
AcDbCircle
 10
481.4723291894523
 20
67.4627635396996
 30
0.0
 40
1.679994747150301
100
AcDbArc
 50
298.2828488903005
 51
354.0587254275002
  0
SPLINE
  5
198
330
2
100
AcDbEntity
  8
0
370
    -3
100
AcDbSpline
210
0.0
220
0.0
230
1.0
 70
     8
 71
     3
 72
     9
 73
     5
 74
     0
 42
0.00000001
 43
0.0000000001
 40
0.0
 40
0.0
 40
0.0
 40
0.0
 40
0.382292319618325
 40
1.0
 40
1.0
 40
1.0
 40
1.0
 10
482.051830735033
 20
66.00630176128902
 30
0.0
 10
482.1002748784884
 20
66.13498335446911
 30
0.0
 10
482.2269950373038
 20
66.47158858187528
 30
0.0
 10
482.4405435129515
 20
66.83708722342408
 30
0.0
 10
482.5724540464939
 20
67.06285854147814
 30
0.0
  0
LINE
  5
199
330
2
100
AcDbEntity
  8
0
370
    -3
100
AcDbLine
 10
478.9940219881
 20
70.68439005945061
 30
0.0
 11
478.9788814764465
 21
69.63359457529555
 31
0.0
  0
LINE
  5
19A
330
2
100
AcDbEntity
  8
0
370
    -3
100
AcDbLine
 10
479.4434866639276
 20
69.67254874165154
 30
0.0
 11
479.2689083773116
 21
70.52570152496605
 31
0.0
  0
LINE
  5
19B
330
2
100
AcDbEntity
  8
0
370
    -3
100
AcDbLine
 10
481.8431688345598
 20
67.34274661876042
 30
0.0
 11
481.8431688345598
 21
69.61692730831281
 31
0.0
  0
LINE
  5
19C
330
2
100
AcDbEntity
  8
0
370
    -3
100
AcDbLine
 10
476.5940408626073
 20
69.29891044627243
 30
0.0
 11
476.5837050448653
 21
68.58157805697692
 31
0.0
  0
LINE
  5
19D
330
2
100
AcDbEntity
  8
0
370
    -3
100
AcDbLine
 10
482.5673829945285
 20
68.62153265926328
 30
0.0
 11
482.3256563474282
 21
67.71932417260064
 31
0.0
  0
LINE
  5
19E
330
2
100
AcDbEntity
  8
0
370
    -3
100
AcDbLine
 10
482.8011347262518
 20
67.91637180063253
 30
0.0
 11
482.3256563474282
 21
67.71932417260064
 31
0.0
  0
LINE
  5
19F
330
2
100
AcDbEntity
  8
0
370
    -3
100
AcDbLine
 10
482.5724540463833
 20
67.06285854133625
 30
0.0
 11
482.8011347262518
 21
67.91637180063253
 31
0.0
  0
LINE
  5
1A0
330
2
100
AcDbEntity
  8
0
370
    -3
100
AcDbLine
 10
478.3359941323213
 20
63.94274279760907
 30
0.0
 11
478.3431466895481
 21
63.92410123113268
 31
0.0
  0
SPLINE
  5
1A1
330
2
100
AcDbEntity
  8
0
370
    -3
100
AcDbSpline
210
0.0
220
0.0
230
1.0
 70
     8
 71
     3
 72
     9
 73
     5
 74
     0
 42
0.00000001
 43
0.0000000001
 40
0.0
 40
0.0
 40
0.0
 40
0.0
 40
0.690264988967167
 40
1.0
 40
1.0
 40
1.0
 40
1.0
 10
483.2507139550421
 20
67.56148468275319
 30
0.0
 10
483.1474370794916
 20
67.64410362275318
 30
0.0
 10
482.9978179083021
 20
67.76379525034553
 30
0.0
 10
482.8476476982627
 20
67.88028946402232
 30
0.0
 10
482.8011347265992
 20
67.9163718005816
 30
0.0
  0
LINE
  5
1A2
330
2
100
AcDbEntity
  8
0
370
    -3
100
AcDbLine
 10
483.1432998614936
 20
67.28886884364396
 30
0.0
 11
483.250713954797
 21
67.56148468247784
 31
0.0
  0
LINE
  5
1A3
330
2
100
AcDbEntity
  8
0
370
    -3
100
AcDbLine
 10
483.250713954797
 20
67.56148468247784
 30
0.0
 11
483.1891796073255
 21
67.25140340299867
 31
0.0
  0
LINE
  5
1A4
330
2
100
AcDbEntity
  8
0
370
    -3
100
AcDbLine
 10
482.8505600180664
 20
67.87787535087955
 30
0.0
 11
482.8422693837401
 21
68.46284412477894
 31
0.0
  0
ARC
  5
1A5
330
2
100
AcDbEntity
  8
0
370
    -3
100
AcDbCircle
 10
487.7153170853247
 20
57.2135932024787
 30
0.0
 40
0.3488413701341531
100
AcDbArc
 50
242.9479568158979
 51
306.0506158969997
  0
ARC
  5
1A6
330
2
100
AcDbEntity
  8
0
370
    -3
100
AcDbCircle
 10
489.0692991247959
 20
58.96977530820596
 30
0.0
 40
2.561243212316973
100
AcDbArc
 50
185.0866141883001
 51
233.801380247501
  0
LINE
  5
1A7
330
2
100
AcDbEntity
  8
0
370
    -3
100
AcDbLine
 10
486.5181425842946
 20
61.54931578999935
 30
0.0
 11
486.5181425842946
 21
58.742691404919
 31
0.0
  0
LINE
  5
1A8
330
2
100
AcDbEntity
  8
0
370
    -3
100
AcDbLine
 10
492.4181682057374
 20
62.14870369791061
 30
0.0
 11
492.4181682057374
 21
64.95532808228358
 31
0.0
  0
ARC
  5
1A9
330
2
100
AcDbEntity
  8
0
370
    -3
100
AcDbCircle
 10
483.8561484631623
 20
63.37791144777635
 30
0.0
 40
8.649805417960699
100
AcDbArc
 50
330.4340293848995
 51
351.8301464230994
  0
ARC
  5
1AA
330
2
100
AcDbEntity
  8
0
370
    -3
100
AcDbCircle
 10
490.4695194387086
 20
59.59089060449764
 30
0.0
 40
1.029419537508104
100
AcDbArc
 50
302.0441129877989
 51
332.1430399453003
  0
LINE
  5
1AB
330
2
100
AcDbEntity
  8
0
370
    -3
100
AcDbLine
 10
487.920610133859
 20
56.93155585480872
 30
0.0
 11
491.015700656173
 21
58.71831358080431
 31
0.0
  0
LWPOLYLINE
  5
1AC
330
2
100
AcDbEntity
  8
0
370
    -3
100
AcDbPolyline
 90
        9
 70
   128
 43
0.0
 10
490.5285816757132
 20
64.14249163659383
 10
490.8749740835659
 20
63.85406028760075
 10
491.1358040209197
 20
63.44984681601636
 10
491.3018625684816
 20
62.94425084182671
 10
491.3672190637367
 20
62.35522122280463
 10
491.329548926983
 20
61.70368925819889
 10
491.1901932612422
 20
61.01280941157824
 10
490.9541290554861
 20
60.30714680480333
 10
490.6297009599292
 20
59.61175234847701
  0
ARC
  5
1AD
330
2
100
AcDbEntity
  8
0
370
    -3
100
AcDbCircle
 10
490.4695386713068
 20
64.0154858409271
 30
0.0
 40
0.140059088971769
100
AcDbArc
 50
65.06702148979858
 51
124.1598693458985
  0
ARC
  5
1AE
330
2
100
AcDbEntity
  8
0
370
    -3
100
AcDbCircle
 10
488.7685951840184
 20
62.72014705646075
 30
0.0
 40
0.41161789712383
100
AcDbArc
 50
122.8335466634975
 51
151.2470038274001
  0
ARC
  5
1AF
330
2
100
AcDbEntity
  8
0
370
    -3
100
AcDbCircle
 10
491.3027932299406
 20
60.530342142471
 30
0.0
 40
3.752735039214513
100
AcDbArc
 50
140.4846767269012
 51
217.023178052001
  0
ARC
  5
1B0
330
2
100
AcDbEntity
  8
0
370
    -3
100
AcDbCircle
 10
488.374179489068
 20
58.39016124912996
 30
0.0
 40
0.1372515107265811
100
AcDbArc
 50
240.5220706080011
 51
306.4434366354995
  0
LINE
  5
1B1
330
2
100
AcDbEntity
  8
0
370
    -3
100
AcDbLine
 10
488.8181667161282
 20
58.48899145182032
 30
0.0
 11
488.4557108553563
 21
58.27975013734612
 31
0.0
  0
LINE
  5
1B2
330
2
100
AcDbEntity
  8
0
370
    -3
100
AcDbLine
 10
490.1181440746103
 20
59.23945240688818
 30
0.0
 11
488.8181667161282
 21
58.48899145182032
 31
0.0
  0
LINE
  5
1B3
330
2
100
AcDbEntity
  8
0
370
    -3
100
AcDbLine
 10
490.4806297371065
 20
59.4487109259785
 30
0.0
 11
490.1181440746103
 21
59.23945240688818
 31
0.0
  0
ARC
  5
1B4
330
2
100
AcDbEntity
  8
0
370
    -3
100
AcDbCircle
 10
490.2599546172108
 20
59.80014724551256
 30
0.0
 40
0.4149758972516996
100
AcDbArc
 50
302.1256769370991
 51
333.0000337038
  0
ARC
  5
1B5
330
2
100
AcDbEntity
  8
0
370
    -3
100
AcDbCircle
 10
484.356148479605
 20
63.08926758207348
 30
0.0
 40
8.649805417952624
100
AcDbArc
 50
330.4340293848995
 51
351.8301464230994
  0
ARC
  5
1B6
330
2
100
AcDbEntity
  8
0
370
    -3
100
AcDbCircle
 10
490.9695194551512
 20
59.30224673950238
 30
0.0
 40
1.029419537500618
100
AcDbArc
 50
302.0441129875985
 51
332.1430399453991
  0
LINE
  5
1B7
330
2
100
AcDbEntity
  8
0
370
    -3
100
AcDbLine
 10
488.4206101503012
 20
56.64291198910586
 30
0.0
 11
491.5157006726158
 21
58.42966971580858
 31
0.0
  0
LINE
  5
1B8
330
2
100
AcDbEntity
  8
0
370
    -3
100
AcDbLine
 10
492.9181682221801
 20
61.86005983220774
 30
0.0
 11
492.9181682221801
 21
64.66668421658096
 31
0.0
  0
ARC
  5
1B9
330
2
100
AcDbEntity
  8
0
370
    -3
100
AcDbCircle
 10
488.2137575699156
 20
56.92936622785601
 30
0.0
 40
0.3533327338860952
100
AcDbArc
 50
245.4754258181009
 51
305.8335728961
  0
ARC
  5
1BA
330
2
100
AcDbEntity
  8
0
370
    -3
100
AcDbCircle
 10
492.183843171611
 20
60.12421775503344
 30
0.0
 40
4.1242442507059
100
AcDbArc
 50
142.5943761491011
 51
206.2921759969002
  0
LINE
  5
1BB
330
2
100
AcDbEntity
  8
0
370
    -3
100
AcDbLine
 10
489.0498266095282
 20
62.77996702912446
 30
0.0
 11
490.8864842126818
 21
63.84024689451734
 31
0.0
  0
ARC
  5
1BC
330
2
100
AcDbEntity
  8
0
370
    -3
100
AcDbCircle
 10
489.2662527719688
 20
62.43324169558582
 30
0.0
 40
0.4087281988548134
100
AcDbArc
 50
121.9724350464005
 51
151.302706042499
  0
LINE
  5
1BD
330
2
100
AcDbEntity
  8
0
370
    -3
100
AcDbLine
 10
498.6199408417223
 20
57.51549253843382
 30
0.0
 11
498.5968310022493
 21
57.33521394985382
 31
0.0
  0
LWPOLYLINE
  5
1BE
330
2
100
AcDbEntity
  8
0
370
    -3
100
AcDbPolyline
 90
        3
 70
   128
 43
0.0
 10
502.8394804866912
 20
57.33521932598704
 10
502.8364229547163
 20
57.40077874463372
 10
502.8163510893508
 20
57.51548985001409
  0
LINE
  5
1BF
330
2
100
AcDbEntity
  8
0
370
    -3
100
AcDbLine
 10
512.8394806932154
 20
51.56234208617798
 30
0.0
 11
512.8163522278423
 21
51.74261207209656
 31
0.0
  0
LINE
  5
1C0
330
2
100
AcDbEntity
  8
0
370
    -3
100
AcDbLine
 10
508.6199410482469
 20
51.74261529791806
 30
0.0
 11
508.5968312087739
 21
51.56233670933784
 31
0.0
  0
LWPOLYLINE
  5
1C1
330
2
100
AcDbEntity
  8
0
370
    -3
100
AcDbPolyline
 90
       18
 70
   128
 43
0.0
 10
855.5957416653004
 20
246.6120081562444
 10
859.0432651544006
 20
246.2318528865965
 10
862.5499304236571
 20
246.1455254679492
 10
866.0410006954283
 20
246.3548667835901
 10
869.4420674840872
 20
246.8554146812396
 10
872.6806459499014
 20
247.6365002109942
 10
875.6877090231297
 20
248.6814773325114
 10
878.3991655252437
 20
249.9680740614201
 10
880.7572277036051
 20
251.4688679456244
 10
882.7116377796526
 20
253.1518715575169
 10
884.2207389745897
 20
254.9812163730405
 10
885.2523692259337
 20
256.9179117193292
 10
885.7845400065171
 20
258.9206807368855
 10
885.8059092042859
 20
260.946838754734
 10
885.316021401441
 20
262.9531997525642
 10
884.3253176572599
 20
264.897003520593
 10
882.8549124505471
 20
266.7368197026994
 10
882.688722120902
 20
266.9073839228438
  0
LWPOLYLINE
  5
1C2
330
2
100
AcDbEntity
  8
0
370
    -3
100
AcDbPolyline
 90
       14
 70
   128
 43
0.0
 10
840.9476248412641
 20
266.9073839228438
 10
840.1122531355394
 20
265.9854426073189
 10
838.8384892490426
 20
264.0973860393531
 10
838.0544972154279
 20
262.1223845717163
 10
837.7769882222056
 20
260.1025330832499
 10
838.0118733733157
 20
258.0808799594597
 10
838.7541496045159
 20
256.1005149841267
 10
839.9879951413867
 20
254.2036443283396
 10
841.687112226228
 20
252.4306969888091
 10
843.8152894079781
 20
250.8194614740907
 10
846.327165801641
 20
249.4042768545924
 10
849.1692065407205
 20
248.2153062067907
 10
852.2808375853646
 20
247.2778901019378
 10
855.5957416653004
 20
246.6120081562444
  0
LWPOLYLINE
  5
1C3
330
2
100
AcDbEntity
  8
0
370
    -3
100
AcDbPolyline
 90
        3
 70
   128
 43
0.0
 10
860.6109139455197
 20
363.8814463640613
 10
862.0429097770275
 20
363.9497344449608
 10
862.2179194992076
 20
363.9444780625324
  0
ARC
  5
1C4
330
2
100
AcDbEntity
  8
0
370
    -3
100
AcDbCircle
 10
864.8421898544839
 20
360.279962441992
 30
0.0
 40
2.962733083121158
100
AcDbArc
 50
357.6663819183999
 51
71.38971553250001
  0
LWPOLYLINE
  5
1C5
330
2
100
AcDbEntity
  8
0
370
    -3
100
AcDbPolyline
 90
        4
 70
   128
 43
0.0
 10
867.8285813219252
 20
365.3324359493206
 10
867.6654219815887
 20
366.1354032034176
 10
866.9708429728586
 20
367.1187659824679
 10
866.4754104101909
 20
367.4621766460669
  0
LINE
  5
1C6
330
2
100
AcDbEntity
  8
0
370
    -3
100
AcDbLine
 10
867.8937757673921
 20
307.6994838675093
 30
0.0
 11
870.8684127479882
 21
314.5179794219779
 31
0.0
  0
ARC
  5
1C7
330
2
100
AcDbEntity
  8
0
370
    -3
100
AcDbCircle
 10
850.8236123822221
 20
322.5127146030968
 30
0.0
 40
21.5803107562756
100
AcDbArc
 50
338.2557439654008
 51
350.6320275882008
  0
LINE
  5
1C8
330
2
100
AcDbEntity
  8
0
370
    -3
100
AcDbLine
 10
872.1161131059171
 20
318.9999912626997
 30
0.0
 11
872.5412171756806
 21
321.3291606876286
 31
0.0
  0
ARC
  5
1C9
330
2
100
AcDbEntity
  8
0
370
    -3
100
AcDbCircle
 10
882.8780593388815
 20
319.5003252810443
 30
0.0
 40
10.49737799869288
100
AcDbArc
 50
162.5402794608997
 51
169.9668284667008
  0
LINE
  5
1CA
330
2
100
AcDbEntity
  8
0
370
    -3
100
AcDbLine
 10
872.8643153426251
 20
322.6499087500877
 30
0.0
 11
881.5714851610433
 21
349.5461971173268
 31
0.0
  0
ARC
  5
1CB
330
2
100
AcDbEntity
  8
0
370
    -3
100
AcDbCircle
 10
884.7420214508369
 20
348.637313985718
 30
0.0
 40
3.298237243259645
100
AcDbArc
 50
147.8255775187002
 51
164.0042334547014
  0
LINE
  5
1CC
330
2
100
AcDbEntity
  8
0
370
    -3
100
AcDbLine
 10
881.9502913210991
 20
350.3936202792004
 30
0.0
 11
889.5038690692409
 21
360.9463455298394
 31
0.0
  0
LWPOLYLINE
  5
1CD
330
2
100
AcDbEntity
  8
0
370
    -3
100
AcDbPolyline
 90
        9
 70
   128
 43
0.0
 10
889.5038690692409
 20
360.9463455298394
 10
889.6175351322723
 20
361.07342366324
 10
889.7236090523993
 20
361.1272830458013
 10
889.8192372583643
 20
361.1064792555887
 10
889.9018865527436
 20
361.011575650258
 10
889.9693292110837
 20
360.8451003282851
 10
890.0197845453908
 20
360.6115084620982
 10
890.0518816473859
 20
360.3170274211795
 10
890.0647786031711
 20
359.9695416784109
  0
LINE
  5
1CE
330
2
100
AcDbEntity
  8
0
370
    -3
100
AcDbLine
 10
890.0647786031711
 20
359.9695416784109
 30
0.0
 11
890.0931876679676
 21
356.6076532075538
 31
0.0
  0
LINE
  5
1CF
330
2
100
AcDbEntity
  8
0
370
    -3
100
AcDbLine
 10
889.8818295889473
 20
359.5602674603467
 30
0.0
 11
889.9102386537441
 21
356.1983789894891
 31
0.0
  0
LWPOLYLINE
  5
1D0
330
2
100
AcDbEntity
  8
0
370
    -3
100
AcDbPolyline
 90
        9
 70
   128
 43
0.0
 10
889.4611474384999
 20
360.2928730371611
 10
889.5464044360274
 20
360.3881792181994
 10
889.6259468381341
 20
360.4285734860662
 10
889.6976735801663
 20
360.4129692990198
 10
889.759662413469
 20
360.3417921331295
 10
889.810244407578
 20
360.2169407490827
 10
889.8480784573475
 20
360.0417441611987
 10
889.8721512843733
 20
359.8208852621216
 10
889.8818295889473
 20
359.5602674603467
  0
LINE
  5
1D1
330
2
100
AcDbEntity
  8
0
370
    -3
100
AcDbLine
 10
881.9075659646127
 20
349.7401413348798
 30
0.0
 11
889.4611474384999
 21
360.2928730371611
 31
0.0
  0
ARC
  5
1D2
330
2
100
AcDbEntity
  8
0
370
    -3
100
AcDbCircle
 10
884.0012641911338
 20
348.4229493790443
 30
0.0
 40
2.473573712402016
100
AcDbArc
 50
147.8250922458984
 51
164.0043801410982
  0
LINE
  5
1D3
330
2
100
AcDbEntity
  8
0
370
    -3
100
AcDbLine
 10
872.9162943202849
 20
322.2082896279819
 30
0.0
 11
881.6234604136644
 21
349.1045769204181
 31
0.0
  0
ARC
  5
1D4
330
2
100
AcDbEntity
  8
0
370
    -3
100
AcDbCircle
 10
880.4260797655434
 20
319.8462349152576
 30
0.0
 40
7.872495150911272
100
AcDbArc
 50
162.5400609903995
 51
169.9671055194994
  0
LINE
  5
1D5
330
2
100
AcDbEntity
  8
0
370
    -3
100
AcDbLine
 10
872.24886383118
 20
318.8885596946696
 30
0.0
 11
872.6739716266893
 21
321.2177301951083
 31
0.0
  0
ARC
  5
1D6
330
2
100
AcDbEntity
  8
0
370
    -3
100
AcDbCircle
 10
848.8279366514925
 20
322.7523121275456
 30
0.0
 40
23.73748960647204
100
AcDbArc
 50
338.2555522704993
 51
350.6322832843994
  0
LINE
  5
1D7
330
2
100
AcDbEntity
  8
0
370
    -3
100
AcDbLine
 10
867.9017590648138
 20
307.1398498248668
 30
0.0
 11
870.8763960454097
 21
313.9583453793359
 31
0.0
  0
ARC
  5
1D8
330
2
100
AcDbEntity
  8
0
370
    -3
100
AcDbCircle
 10
926.9238982148612
 20
282.4734531788361
 30
0.0
 40
63.96908654482874
100
AcDbArc
 50
157.3190866490002
 51
165.9976003138002
  0
ARC
  5
1D9
330
2
100
AcDbEntity
  8
0
370
    -3
100
AcDbCircle
 10
927.6334114693607
 20
282.6887773315743
 30
0.0
 40
64.76387507860696
100
AcDbArc
 50
157.282798988599
 51
165.7931390672989
  0
ARC
  5
1DA
330
2
100
AcDbEntity
  8
0
370
    -3
100
AcDbCircle
 10
890.6753161048204
 20
356.2928763746852
 30
0.0
 40
0.7708912130024964
100
AcDbArc
 50
187.0411405637991
 51
264.246789572202
  0
ARC
  5
1DB
330
2
100
AcDbEntity
  8
0
370
    -3
100
AcDbCircle
 10
890.8582651197512
 20
356.7021505927499
 30
0.0
 40
0.7708912130028494
100
AcDbArc
 50
187.0411405636991
 51
264.2467895720022
  0
LINE
  5
1DC
330
2
100
AcDbEntity
  8
0
370
    -3
100
AcDbLine
 10
917.3852876933535
 20
355.7434998228566
 30
0.0
 11
917.4137004831893
 21
352.381617803642
 31
0.0
  0
ARC
  5
1DD
330
2
100
AcDbEntity
  8
0
370
    -3
100
AcDbCircle
 10
916.8868938148801
 20
352.4270215923427
 30
0.0
 40
0.5287596526862132
100
AcDbArc
 50
253.3602196789968
 51
355.0740321805998
  0
LINE
  5
1DE
330
2
100
AcDbEntity
  8
0
370
    -3
100
AcDbLine
 10
890.7809880460394
 20
355.9351424339009
 30
0.0
 11
916.7354815530291
 21
351.9204042836812
 31
0.0
  0
LINE
  5
1DF
330
2
100
AcDbEntity
  8
0
370
    -3
100
AcDbLine
 10
890.598039031108
 20
355.5258682158358
 30
0.0
 11
916.5525213629829
 21
351.5111279153046
 31
0.0
  0
LWPOLYLINE
  5
1E0
330
2
100
AcDbEntity
  8
0
370
    -3
100
AcDbPolyline
 90
        7
 70
   128
 43
0.0
 10
917.0858562966428
 20
356.9015890033591
 10
917.1397537993319
 20
356.880441701366
 10
917.2223956429268
 20
356.7855337947033
 10
917.2898457513428
 20
356.6190627740609
 10
917.3402899098276
 20
356.3854687568548
 10
917.3723944626074
 20
356.0909920172679
 10
917.3852876933535
 20
355.7434998228566
  0
ARC
  5
1E1
330
2
100
AcDbEntity
  8
0
370
    -3
100
AcDbCircle
 10
916.6879095917035
 20
352.0762149754667
 30
0.0
 40
0.5810794761463037
100
AcDbArc
 50
256.5265745785997
 51
330.4261557446001
  0
LWPOLYLINE
  5
1E2
330
2
100
AcDbEntity
  8
0
370
    -3
100
AcDbPolyline
 90
       17
 70
   128
 43
0.0
 10
891.5225518147989
 20
349.3946539890978
 10
890.2833935482794
 20
349.6914310673515
 10
889.3683467278147
 20
350.1322698023387
 10
888.9167185893994
 20
350.6500622213948
 10
888.9972630947941
 20
351.1659729677069
 10
889.5977277623314
 20
351.6014665840173
 10
890.6266827896052
 20
351.8902303460438
 10
891.9274908875737
 20
351.988316427002
 10
893.3021081663291
 20
351.8807841712016
 10
894.5412627071036
 20
351.5840081684566
 10
895.4563132533142
 20
351.1431672824508
 10
895.9079413917288
 20
350.6253748633948
 10
895.8273968863341
 20
350.1094651925914
 10
895.2269284930526
 20
349.6739726510841
 10
894.1979771915235
 20
349.3852067387456
 10
892.897169092847
 20
349.2871206577868
 10
891.5225518147989
 20
349.3946539890978
  0
LWPOLYLINE
  5
1E3
330
2
100
AcDbEntity
  8
0
370
    -3
100
AcDbPolyline
 90
        9
 70
   128
 43
0.0
 10
903.2202022746023
 20
350.8989001815953
 10
901.9810440080826
 20
351.1956772598491
 10
901.0659934618717
 20
351.6365181458557
 10
900.6143690492026
 20
352.1543084145998
 10
900.6949135538903
 20
352.670218085402
 10
901.2953782221346
 20
353.105712776515
 10
902.3243369744474
 20
353.3944829901845
 10
903.6251376216318
 20
353.4925647705188
 10
903.751495749179
 20
353.4912428788823
  0
LWPOLYLINE
  5
1E4
330
2
100
AcDbEntity
  8
0
370
    -3
100
AcDbPolyline
 90
        9
 70
   128
 43
0.0
 10
906.1360504464998
 20
353.1223888243502
 10
906.2389206169838
 20
353.0882586622854
 10
907.1539637124104
 20
352.6474134749485
 10
907.6055881257859
 20
352.1296232062043
 10
907.5250436203919
 20
351.613712459892
 10
906.9245864029317
 20
351.1782231449122
 10
905.8956276506192
 20
350.8894529319507
 10
904.5948195526502
 20
350.7913668502852
 10
903.2202022746023
 20
350.8989001815953
  0
LINE
  5
1E5
330
2
100
AcDbEntity
  8
0
370
    -3
100
AcDbLine
 10
909.2280787798332
 20
345.5141059309678
 30
0.0
 11
913.8229414389298
 21
351.9333546677501
 31
0.0
  0
ARC
  5
1E6
330
2
100
AcDbEntity
  8
0
370
    -3
100
AcDbCircle
 10
903.3760416926023
 20
355.2312904625054
 30
0.0
 40
3.680654390657812
100
AcDbArc
 50
223.7453931958989
 51
268.2387898011971
  0
ARC
  5
1E7
330
2
100
AcDbEntity
  8
0
370
    -3
100
AcDbCircle
 10
904.6320000370288
 20
356.6973408585817
 30
0.0
 40
5.324007432709795
100
AcDbArc
 50
255.0988534651984
 51
302.8722764065762
  0
ARC
  5
1E8
330
2
100
AcDbEntity
  8
0
370
    -3
100
AcDbCircle
 10
891.6783904578105
 20
353.7270296477457
 30
0.0
 40
3.680641787346913
100
AcDbArc
 50
223.7452280575705
 51
268.2388538709972
  0
ARC
  5
1E9
330
2
100
AcDbEntity
  8
0
370
    -3
100
AcDbCircle
 10
892.9343493339802
 20
355.1930768971964
 30
0.0
 40
5.323991319373337
100
AcDbArc
 50
255.0988515207984
 51
302.8723926872345
  0
LINE
  5
1EA
330
2
100
AcDbEntity
  8
0
370
    -3
100
AcDbLine
 10
872.9162943202849
 20
322.2082896279819
 30
0.0
 11
900.2368015479477
 21
317.9822488479365
 31
0.0
  0
LINE
  5
1EB
330
2
100
AcDbEntity
  8
0
370
    -3
100
AcDbLine
 10
881.6234604136644
 20
349.1045769204181
 30
0.0
 11
908.9439695031392
 21
344.8785350648639
 31
0.0
  0
LINE
  5
1EC
330
2
100
AcDbEntity
  8
0
370
    -3
100
AcDbLine
 10
900.2368015479477
 20
317.9822488479365
 30
0.0
 11
908.9439695031392
 21
344.8785350648639
 31
0.0
  0
ARC
  5
1ED
330
2
100
AcDbEntity
  8
0
370
    -3
100
AcDbCircle
 10
911.3220012094195
 20
344.1968067353132
 30
0.0
 40
2.47382058978396
100
AcDbArc
 50
147.8257550793005
 51
164.0035908857012
  0
ARC
  5
1EE
330
2
100
AcDbEntity
  8
0
370
    -3
100
AcDbCircle
 10
876.1481842267063
 20
318.5263570644031
 30
0.0
 40
23.73776307358416
100
AcDbArc
 50
338.2556011740007
 51
350.6321877445994
  0
LINE
  5
1EF
330
2
100
AcDbEntity
  8
0
370
    -3
100
AcDbLine
 10
899.5693747838823
 20
314.662521064937
 30
0.0
 11
899.9944825793917
 21
316.9916915653755
 31
0.0
  0
ARC
  5
1F0
330
2
100
AcDbEntity
  8
0
370
    -3
100
AcDbCircle
 10
907.7461600414057
 20
315.620324756225
 30
0.0
 40
7.872048678976839
100
AcDbArc
 50
162.5400355238006
 51
169.9674801838998
  0
LINE
  5
1F1
330
2
100
AcDbEntity
  8
0
370
    -3
100
AcDbLine
 10
867.9017590648138
 20
307.1398498248668
 30
0.0
 11
895.2222662924771
 21
302.9138090448223
 31
0.0
  0
LINE
  5
1F2
330
2
100
AcDbEntity
  8
0
370
    -3
100
AcDbLine
 10
895.2222662924771
 20
302.9138090448223
 30
0.0
 11
898.1969051355921
 21
309.7323078251113
 31
0.0
  0
SPLINE
  5
1F3
330
2
100
AcDbEntity
  8
0
370
    -3
100
AcDbSpline
210
0.0
220
0.0
230
1.0
 70
     8
 71
     3
 72
     9
 73
     5
 74
     0
 42
0.00000001
 43
0.0000000001
 40
0.0
 40
0.0
 40
0.0
 40
0.0
 40
0.4938781240862875
 40
1.0
 40
1.0
 40
1.0
 40
1.0
 10
864.8556151337732
 20
297.9515754391568
 30
0.0
 10
864.6477819104438
 20
296.9901192316072
 30
0.0
 10
864.2269630622431
 20
295.0433713181858
 30
0.0
 10
864.1808397294862
 20
292.9466006442601
 30
0.0
 10
864.1574957017882
 20
291.8853791374118
 30
0.0
  0
SPLINE
  5
1F4
330
2
100
AcDbEntity
  8
0
370
    -3
100
AcDbSpline
210
0.0
220
0.0
230
1.0
 70
     8
 71
     3
 72
     9
 73
     5
 74
     0
 42
0.00000001
 43
0.0000000001
 40
0.0
 40
0.0
 40
0.0
 40
0.0
 40
0.4943379314783147
 40
1.0
 40
1.0
 40
1.0
 40
1.0
 10
890.1303018058237
 20
287.8678070814262
 30
0.0
 10
890.5287848774582
 20
288.8461814494401
 30
0.0
 10
891.3348793449486
 20
290.8253424761669
 30
0.0
 10
891.8936027276
 20
292.7515338299591
 30
0.0
 10
892.1761279490038
 20
293.7255357342861
 30
0.0
  0
ARC
  5
1F5
330
2
100
AcDbEntity
  8
0
370
    -3
100
AcDbCircle
 10
954.24489908369
 20
278.2472846804515
 30
0.0
 40
63.96959125889616
100
AcDbArc
 50
157.3191515906998
 51
165.9975941552997
  0
ELLIPSE
  5
1F6
330
2
100
AcDbEntity
  8
0
370
    -3
100
AcDbEllipse
 10
885.3393209286796
 20
295.5723674307813
 30
0.0
 11
7.074067824707205
 21
26.18670086257356
 31
0.0
210
0.0
220
0.0
230
1.0
 40
0.7624352216000001
 41
1.912262372529026
 42
1.925953931917046
  0
LINE
  5
1F7
330
2
100
AcDbEntity
  8
0
370
    -3
100
AcDbLine
 10
864.15975881562
 20
291.5231714784338
 30
0.0
 11
864.1883522825587
 21
290.4053378816456
 31
0.0
  0
ELLIPSE
  5
1F8
330
2
100
AcDbEntity
  8
0
370
    -3
100
AcDbEllipse
 10
885.3247408253379
 20
297.2975612798173
 30
0.0
 11
5.497712439718476
 21
32.51580275187072
 31
0.0
210
0.0
220
0.0
230
1.0
 40
0.6287002661
 41
1.889068738483659
 42
1.928681056167716
  0
SPLINE
  5
1F9
330
2
100
AcDbEntity
  8
0
370
    -3
100
AcDbSpline
210
0.0
220
0.0
230
1.0
 70
     8
 71
     3
 72
     9
 73
     5
 74
     0
 42
0.00000001
 43
0.0000000001
 40
0.0
 40
0.0
 40
0.0
 40
0.0
 40
0.4686620645669267
 40
1.0
 40
1.0
 40
1.0
 40
1.0
 10
864.1686268696799
 20
292.3527377299831
 30
0.0
 10
864.1752544831032
 20
293.3646673458311
 30
0.0
 10
864.1893960446363
 20
295.5238555804983
 30
0.0
 10
864.6209668511955
 20
297.5217795592941
 30
0.0
 10
864.8502767925448
 20
298.583352361339
 30
0.0
  0
ELLIPSE
  5
1FA
330
2
100
AcDbEntity
  8
0
370
    -3
100
AcDbEllipse
 10
905.0372223442646
 20
267.5073527458712
 30
0.0
 11
5.497712439718076
 21
32.51580275187112
 31
0.0
210
0.0
220
0.0
230
1.0
 40
0.6287002661
 41
1.230549355369982
 42
1.316098087052981
  0
ELLIPSE
  5
1FB
330
2
100
AcDbEntity
  8
0
370
    -3
100
AcDbEllipse
 10
843.4294739816483
 20
277.0370719090465
 30
0.0
 11
5.497712439718881
 21
32.51580275187112
 31
0.0
210
0.0
220
0.0
230
0.9999999999999998
 40
0.6287002661
 41
4.975130587323334
 42
5.070273709757491
  0
LINE
  5
1FC
330
2
100
AcDbEntity
  8
0
370
    -3
100
AcDbLine
 10
864.2514847798143
 20
289.1448926545866
 30
0.0
 11
864.5027295442176
 21
285.1897400902144
 31
0.0
  0
LINE
  5
1FD
330
2
100
AcDbEntity
  8
0
370
    -3
100
AcDbLine
 10
864.1883522825587
 20
290.4053378816456
 30
0.0
 11
889.5622816235782
 21
286.4804030007814
 31
0.0
  0
ELLIPSE
  5
1FE
330
2
100
AcDbEntity
  8
0
370
    -3
100
AcDbEllipse
 10
871.6644861992822
 20
299.4105810500605
 30
0.0
 11
5.497712439718479
 21
32.51580275187112
 31
0.0
210
0.0
220
0.0
230
0.9999999999999998
 40
0.6287002661000001
 41
4.37214200895977
 42
4.41175432664382
  0
LINE
  5
1FF
330
2
100
AcDbEntity
  8
0
370
    -3
100
AcDbLine
 10
887.6011555474432
 20
281.6167875475711
 30
0.0
 11
889.1005514291551
 21
285.3011453432639
 31
0.0
  0
ELLIPSE
  5
200
330
2
100
AcDbEntity
  8
0
370
    -3
100
AcDbEllipse
 10
843.4220209528167
 20
277.9189530639667
 30
0.0
 11
5.497712439718476
 21
32.51580275187072
 31
0.0
210
0.0
220
0.0
230
1.0
 40
0.6287002661
 41
4.947893828738436
 42
4.974291423374176
  0
LINE
  5
201
330
2
100
AcDbEntity
  8
0
370
    -3
100
AcDbLine
 10
889.5622816235782
 20
286.4804030007814
 30
0.0
 11
889.9861433095024
 21
287.5282464780464
 31
0.0
  0
ELLIPSE
  5
202
330
2
100
AcDbEntity
  8
0
370
    -3
100
AcDbEllipse
 10
871.679066303332
 20
297.6853872010245
 30
0.0
 11
7.074067824706809
 21
26.18670086257355
 31
0.0
210
0.0
220
0.0
230
1.0
 40
0.7624352216000001
 41
4.525824632648545
 42
4.539516192036576
  0
LINE
  5
203
330
2
100
AcDbEntity
  8
0
370
    -3
100
AcDbLine
 10
863.1207622684582
 20
282.1739170185939
 30
0.0
 11
863.0805142302806
 21
286.9361277540233
 31
0.0
  0
LINE
  5
204
330
2
100
AcDbEntity
  8
0
370
    -3
100
AcDbLine
 10
863.3071925667991
 20
282.1713857098514
 30
0.0
 11
863.2634651070233
 21
287.3454030475977
 31
0.0
  0
ARC
  5
205
330
2
100
AcDbEntity
  8
0
370
    -3
100
AcDbCircle
 10
862.4984000981985
 20
287.2509193993658
 30
0.0
 40
0.7708771806451727
100
AcDbArc
 50
7.040240602900144
 51
84.24775309959947
  0
LINE
  5
206
330
2
100
AcDbEntity
  8
0
370
    -3
100
AcDbLine
 10
862.3481314394879
 20
288.0531099581478
 30
0.0
 11
862.5756628671409
 21
288.0179148960531
 31
0.0
  0
LINE
  5
207
330
2
100
AcDbEntity
  8
0
370
    -3
100
AcDbLine
 10
859.7384891046472
 20
308.9503680707305
 30
0.0
 11
859.818189830797
 21
299.5198533606676
 31
0.0
  0
ARC
  5
208
330
2
100
AcDbEntity
  8
0
370
    -3
100
AcDbCircle
 10
860.265296902914
 20
308.9049608695318
 30
0.0
 40
0.5287610715626141
100
AcDbArc
 50
73.3601827709998
 51
175.0736742693005
  0
LINE
  5
209
330
2
100
AcDbEntity
  8
0
370
    -3
100
AcDbLine
 10
860.4167098973261
 20
309.4115794396726
 30
0.0
 11
868.1208042815876
 21
308.2198807341933
 31
0.0
  0
LINE
  5
20A
330
2
100
AcDbEntity
  8
0
370
    -3
100
AcDbLine
 10
862.3927119903978
 20
287.6086396031862
 30
0.0
 11
862.3668286722409
 21
287.6126439540103
 31
0.0
  0
ARC
  5
20B
330
2
100
AcDbEntity
  8
0
370
    -3
100
AcDbCircle
 10
862.3154545770828
 20
286.8416495837485
 30
0.0
 40
0.7708711939094223
100
AcDbArc
 50
7.039885339200417
 51
84.24810836330285
  0
LINE
  5
20C
330
2
100
AcDbEntity
  8
0
370
    -3
100
AcDbLine
 10
859.5555382271967
 20
308.5410933152646
 30
0.0
 11
859.6318191373184
 21
299.5152963118254
 31
0.0
  0
LWPOLYLINE
  5
20D
330
2
100
AcDbEntity
  8
0
370
    -3
100
AcDbPolyline
 90
        3
 70
   128
 43
0.0
 10
859.5555382271967
 20
308.5410933152646
 10
859.5677273775486
 20
308.649653019891
 10
859.5930053359065
 20
308.7240085799872
  0
ELLIPSE
  5
20E
330
2
100
AcDbEntity
  8
0
370
    -3
100
AcDbEllipse
 10
801.4109790929591
 20
248.8551777566267
 30
0.0
 11
-20.31726238361161
 21
21.31925218895409
 31
0.0
210
0.0
220
0.0
230
1.0
 40
0.1565755895
 41
4.796088797033041
 42
4.835701114717119
  0
LINE
  5
20F
330
2
100
AcDbEntity
  8
0
370
    -3
100
AcDbLine
 10
803.2478735245694
 20
253.5938721290993
 30
0.0
 11
803.0388009109305
 21
253.8075624330609
 31
0.0
  0
LINE
  5
210
330
2
100
AcDbEntity
  8
0
370
    -3
100
AcDbLine
 10
803.4673583256067
 20
254.3002064512834
 30
0.0
 11
803.0666176549789
 21
254.7098034621933
 31
0.0
  0
ELLIPSE
  5
211
330
2
100
AcDbEntity
  8
0
370
    -3
100
AcDbEllipse
 10
801.3799050288575
 20
247.847224730797
 30
0.0
 11
20.36495507156651
 21
-15.9306902431092
 31
0.0
210
0.0
220
0.0
230
1.0
 40
0.2568707204
 41
1.743421168470093
 42
1.75719906269941
  0
LINE
  5
212
330
2
100
AcDbEntity
  8
0
370
    -3
100
AcDbLine
 10
801.9131503819831
 20
255.7370306768016
 30
0.0
 11
802.8061304445172
 21
254.9755122329009
 31
0.0
  0
LINE
  5
213
330
2
100
AcDbEntity
  8
0
370
    -3
100
AcDbLine
 10
802.2246871100206
 20
254.6344753820363
 30
0.0
 11
801.4264858873557
 21
255.3080238773621
 31
0.0
  0
ELLIPSE
  5
214
330
2
100
AcDbEntity
  8
0
370
    -3
100
AcDbEllipse
 10
801.3565654051268
 20
247.0901546399866
 30
0.0
 11
20.36495507156691
 21
-15.930690243109
 31
0.0
210
0.0
220
0.0
230
1.0
 40
0.2568707204
 41
1.765729104701929
 42
1.779420664089955
  0
SPLINE
  5
215
330
2
100
AcDbEntity
  8
0
370
    -3
100
AcDbSpline
210
0.0
220
0.0
230
1.0
 70
     8
 71
     3
 72
     9
 73
     5
 74
     0
 42
0.00000001
 43
0.0000000001
 40
0.0
 40
0.0
 40
0.0
 40
0.0
 40
0.4943384148702868
 40
1.0
 40
1.0
 40
1.0
 40
1.0
 10
801.1420916256847
 20
255.5073606921726
 30
0.0
 10
800.3066818674
 20
256.0488568059907
 30
0.0
 10
798.6167267007481
 20
257.1442523842622
 30
0.0
 10
796.7733708592767
 20
257.7859516468488
 30
0.0
 10
795.8412566225206
 20
258.1104343131444
 30
0.0
  0
SPLINE
  5
216
330
2
100
AcDbEntity
  8
0
370
    -3
100
AcDbSpline
210
0.0
220
0.0
230
1.0
 70
     8
 71
     3
 72
     9
 73
     5
 74
     0
 42
0.00000001
 43
0.0000000001
 40
0.0
 40
0.0
 40
0.0
 40
0.0
 40
0.4930002373652659
 40
1.0
 40
1.0
 40
1.0
 40
1.0
 10
795.8611832011846
 20
258.756796363127
 30
0.0
 10
796.8513829581042
 20
258.4234899430148
 30
0.0
 10
798.8599007677747
 20
257.7474123372665
 30
0.0
 10
800.6960685860876
 20
256.5481501643747
 30
0.0
 10
801.6270052341301
 20
255.9401245273818
 30
0.0
  0
ELLIPSE
  5
217
330
2
100
AcDbEntity
  8
0
370
    -3
100
AcDbEllipse
 10
801.4387941731847
 20
249.7574187574751
 30
0.0
 11
-20.31726238361121
 21
21.3192521889541
 31
0.0
210
0.0
220
0.0
230
0.9999999999999998
 40
0.1565755895
 41
4.796088797033039
 42
4.80877375341038
  0
SPLINE
  5
218
330
2
100
AcDbEntity
  8
0
370
    -3
100
AcDbSpline
210
0.0
220
0.0
230
1.0
 70
     8
 71
     3
 72
     8
 73
     4
 74
     0
 42
0.00000001
 43
0.0000000001
 40
0.0
 40
0.0
 40
0.0
 40
0.0
 40
0.0159027685766897
 40
0.0159027685766897
 40
0.0159027685766897
 40
0.0159027685766897
 10
803.1617652985207
 20
242.3386379770363
 30
0.0
 10
803.1905013827019
 20
242.3297207737761
 30
0.0
 10
803.2192374668827
 20
242.320803570516
 30
0.0
 10
803.2479709491116
 20
242.3118855948399
 30
0.0
  0
ARC
  5
219
330
2
100
AcDbEntity
  8
0
370
    -3
100
AcDbCircle
 10
795.3584912246401
 20
214.9847904753362
 30
0.0
 40
28.44510607108741
100
AcDbArc
 50
74.0780600244027
 51
97.19991949989784
  0
LINE
  5
21A
330
2
100
AcDbEntity
  8
0
370
    -3
100
AcDbLine
 10
791.7934137517717
 20
243.2056033984663
 30
0.0
 11
784.4729032135318
 21
258.9773965085251
 31
0.0
  0
ARC
  5
21B
330
2
100
AcDbEntity
  8
0
370
    -3
100
AcDbCircle
 10
788.0379936250415
 20
230.7566347021466
 30
0.0
 40
28.44505697951668
100
AcDbArc
 50
74.07805501559955
 51
97.19995826030057
  0
LINE
  5
21C
330
2
100
AcDbEntity
  8
0
370
    -3
100
AcDbLine
 10
784.4729032135318
 20
258.9773965085251
 30
0.0
 11
773.371410985927
 21
257.6699156373215
 31
0.0
  0
ARC
  5
21D
330
2
100
AcDbEntity
  8
0
370
    -3
100
AcDbCircle
 10
772.3183199304193
 20
264.8008026853895
 30
0.0
 40
7.208227997576297
100
AcDbArc
 50
235.6325583164016
 51
278.4007334163992
  0
LINE
  5
21E
330
2
100
AcDbEntity
  8
0
370
    -3
100
AcDbLine
 10
768.2492893420925
 20
258.8508832799275
 30
0.0
 11
766.6627626418231
 21
260.0187619045171
 31
0.0
  0
ARC
  5
21F
330
2
100
AcDbEntity
  8
0
370
    -3
100
AcDbCircle
 10
765.6146323740557
 20
258.5428796337028
 30
0.0
 40
1.810194888348864
100
AcDbArc
 50
54.61869658159983
 51
85.44459322009792
  0
LINE
  5
220
330
2
100
AcDbEntity
  8
0
370
    -3
100
AcDbLine
 10
765.7584036792977
 20
260.347356107945
 30
0.0
 11
733.2628142159798
 21
263.4577989133318
 31
0.0
  0
ARC
  5
221
330
2
100
AcDbEntity
  8
0
370
    -3
100
AcDbCircle
 10
733.0494732086407
 20
260.997417603631
 30
0.0
 40
2.469613446777835
100
AcDbArc
 50
85.04424715999885
 51
110.0566378981972
  0
LINE
  5
222
330
2
100
AcDbEntity
  8
0
370
    -3
100
AcDbLine
 10
732.2025220455137
 20
263.3172590430859
 30
0.0
 11
704.012165083916
 21
253.2354543057195
 31
0.0
  0
ARC
  5
223
330
2
100
AcDbEntity
  8
0
370
    -3
100
AcDbCircle
 10
704.656943872294
 20
251.10168603536
 30
0.0
 40
2.22905960362701
100
AcDbArc
 50
106.8136855377991
 51
173.5094896046001
  0
LINE
  5
224
330
2
100
AcDbEntity
  8
0
370
    -3
100
AcDbLine
 10
702.4421712225538
 20
251.3536559279
 30
0.0
 11
702.3361420057193
 21
247.9141578889801
 31
0.0
  0
LINE
  5
225
330
2
100
AcDbEntity
  8
0
370
    -3
100
AcDbLine
 10
701.7593925367468
 20
251.2631561823775
 30
0.0
 11
701.6533633199124
 21
247.8236581434571
 31
0.0
  0
ARC
  5
226
330
2
100
AcDbEntity
  8
0
370
    -3
100
AcDbCircle
 10
704.7124265380416
 20
250.9271906386327
 30
0.0
 40
2.972083891999671
100
AcDbArc
 50
106.8136363240993
 51
173.5093889598989
  0
LINE
  5
227
330
2
100
AcDbEntity
  8
0
370
    -3
100
AcDbLine
 10
732.04306843843
 20
263.8540225559489
 30
0.0
 11
703.8527226526552
 21
253.7722199688944
 31
0.0
  0
ARC
  5
228
330
2
100
AcDbEntity
  8
0
370
    -3
100
AcDbCircle
 10
733.1723409494854
 20
260.7608588417136
 30
0.0
 40
3.292858661366565
100
AcDbArc
 50
85.04427516770016
 51
110.0564586774019
  0
LINE
  5
229
330
2
100
AcDbEntity
  8
0
370
    -3
100
AcDbLine
 10
765.9523907291386
 20
260.9309683950066
 30
0.0
 11
733.4567975407817
 21
264.0414079745724
 31
0.0
  0
ARC
  5
22A
330
2
100
AcDbEntity
  8
0
370
    -3
100
AcDbCircle
 10
765.7606802931162
 20
258.5249567423057
 30
0.0
 40
2.413637289057787
100
AcDbArc
 50
54.6189566741009
 51
85.44431080529887
  0
LINE
  5
22B
330
2
100
AcDbEntity
  8
0
370
    -3
100
AcDbLine
 10
768.7447268960831
 20
259.3249602225476
 30
0.0
 11
767.1582039208518
 21
260.4928420729582
 31
0.0
  0
ARC
  5
22C
330
2
100
AcDbEntity
  8
0
370
    -3
100
AcDbCircle
 10
772.4438586611786
 20
264.7340524415963
 30
0.0
 40
6.553003468055417
100
AcDbArc
 50
235.6328322339998
 51
278.4005380730006
  0
LINE
  5
22D
330
2
100
AcDbEntity
  8
0
370
    -3
100
AcDbLine
 10
784.5026943610182
 20
259.5588372741038
 30
0.0
 11
773.40120213412
 21
258.2513564028998
 31
0.0
  0
ARC
  5
22E
330
2
100
AcDbEntity
  8
0
370
    -3
100
AcDbCircle
 10
788.1582736809314
 20
230.4987083560784
 30
0.0
 40
29.28915077136137
100
AcDbArc
 50
74.75213177139806
 51
97.16978446909942
  0
LINE
  5
22F
330
2
100
AcDbEntity
  8
0
370
    -3
100
AcDbLine
 10
791.7934137517717
 20
243.2056033984663
 30
0.0
 11
780.6919159366075
 21
241.8981214517535
 31
0.0
  0
ARC
  5
230
330
2
100
AcDbEntity
  8
0
370
    -3
100
AcDbCircle
 10
779.6388306708908
 20
249.0290326114566
 30
0.0
 40
7.208251004277758
100
AcDbArc
 50
235.6326455619993
 51
278.400659889801
  0
LINE
  5
231
330
2
100
AcDbEntity
  8
0
370
    -3
100
AcDbLine
 10
775.5697961552928
 20
243.0790880188502
 30
0.0
 11
773.9832694550236
 21
244.2469666434397
 31
0.0
  0
ARC
  5
232
330
2
100
AcDbEntity
  8
0
370
    -3
100
AcDbCircle
 10
772.9351485938983
 20
242.771123701199
 30
0.0
 40
1.810157377122335
100
AcDbArc
 50
54.61821855930161
 51
85.44467901369939
  0
LINE
  5
233
330
2
100
AcDbEntity
  8
0
370
    -3
100
AcDbLine
 10
773.0789142175368
 20
244.5755629978862
 30
0.0
 11
765.7584036792977
 21
260.347356107945
 31
0.0
  0
LINE
  5
234
330
2
100
AcDbEntity
  8
0
370
    -3
100
AcDbLine
 10
773.0789142175368
 20
244.5755629978862
 30
0.0
 11
740.5833266174453
 21
247.6860047284708
 31
0.0
  0
LINE
  5
235
330
2
100
AcDbEntity
  8
0
370
    -3
100
AcDbLine
 10
739.5230232711565
 20
247.545462707206
 30
0.0
 11
732.2025220455137
 21
263.3172590430859
 31
0.0
  0
LINE
  5
236
330
2
100
AcDbEntity
  8
0
370
    -3
100
AcDbLine
 10
739.5230232711565
 20
247.545462707206
 30
0.0
 11
711.332677485382
 21
237.4636601201516
 31
0.0
  0
LWPOLYLINE
  5
237
330
2
100
AcDbEntity
  8
0
370
    -3
100
AcDbPolyline
 90
       17
 70
   128
 43
0.0
 10
718.4583720968112
 20
245.9887453242397
 10
718.5557809921829
 20
245.1438952872836
 10
718.1328077880883
 20
244.246864680759
 10
717.253851581202
 20
243.4342190322855
 10
716.0527322557207
 20
242.8296760456031
 10
714.7123019677909
 20
242.5252744290542
 10
713.4366246792523
 20
242.5673544749149
 10
712.4199146814462
 20
242.9495043076165
 10
711.8169615197777
 20
243.6135547752499
 10
711.7195600751903
 20
244.4584091128295
 10
712.1425258292077
 20
245.3554364949473
 10
713.0214783103483
 20
246.1680832182226
 10
714.2226013615753
 20
246.7726240538866
 10
715.563039099582
 20
247.0770299717663
 10
716.8387163881211
 20
247.0349510007077
 10
717.8554189351425
 20
246.6527957918729
 10
718.4583720968112
 20
245.9887453242397
  0
LWPOLYLINE
  5
238
330
2
100
AcDbEntity
  8
0
370
    -3
100
AcDbPolyline
 90
       17
 70
   128
 43
0.0
 10
734.3977537567958
 20
251.6891989873454
 10
734.4951626514598
 20
250.8443489503898
 10
734.0721894473654
 20
249.947317267648
 10
733.1932444170092
 20
249.134673770194
 10
731.9921139149977
 20
248.5301297087087
 10
730.6516836277755
 20
248.2257280921595
 10
729.3760063385292
 20
248.2678070625111
 10
728.3593037922151
 20
248.6499611965435
 10
727.7563506298393
 20
249.3140127389791
 10
727.6589417351742
 20
250.1588617004259
 10
728.0819149392691
 20
251.0558933831674
 10
728.9608636953707
 20
251.8685347303099
 10
730.1619904716368
 20
252.4730820183231
 10
731.5024207588585
 20
252.7774825586557
 10
732.7780980481053
 20
252.7354035883043
 10
733.7948005944189
 20
252.353249454979
 10
734.3977537567958
 20
251.6891989873454
  0
LWPOLYLINE
  5
239
330
2
100
AcDbEntity
  8
0
370
    -3
100
AcDbPolyline
 90
       17
 70
   128
 43
0.0
 10
723.8658845176205
 20
254.3591005510159
 10
723.9632934122854
 20
253.51425051406
 10
723.5403202088982
 20
252.6172188313187
 10
722.6613677270503
 20
251.8045710332408
 10
721.4602446765296
 20
251.2000301968694
 10
720.1198143886003
 20
250.8956296558301
 10
718.8441371000617
 20
250.9377086261813
 10
717.8274345530399
 20
251.319862760214
 10
717.2244813913713
 20
251.9839132271402
 10
717.1270724960001
 20
252.8287632640963
 10
717.5500457000938
 20
253.7257949468376
 10
718.4289944561964
 20
254.5384362939797
 10
719.6301212324623
 20
255.1429825064843
 10
720.9705515203917
 20
255.4473841223262
 10
722.2462288089303
 20
255.405305151975
 10
723.2629313559523
 20
255.0231510186495
 10
723.8658845176205
 20
254.3591005510159
  0
ARC
  5
23A
330
2
100
AcDbEntity
  8
0
370
    -3
100
AcDbCircle
 10
704.8518972528896
 20
247.8394444600042
 30
0.0
 40
2.516864430028403
100
AcDbArc
 50
178.2989178698001
 51
200.9406746322996
  0
ARC
  5
23B
330
2
100
AcDbEntity
  8
0
370
    -3
100
AcDbCircle
 10
704.1691185663752
 20
247.7489447144817
 30
0.0
 40
2.516864430013627
100
AcDbArc
 50
178.2989178697006
 51
200.9406746322996
  0
LWPOLYLINE
  5
23C
330
2
100
AcDbEntity
  8
0
370
    -3
100
AcDbPolyline
 90
        9
 70
   128
 43
0.0
 10
709.4557569431881
 20
231.9567106031389
 10
709.4918065785127
 20
231.8909287909146
 10
709.5271558598961
 20
231.8499658769429
 10
709.560445055587
 20
231.8353872663026
 10
709.5904038411275
 20
231.84776467748
 10
709.6158699266672
 20
231.8866094826963
 10
709.6358710113478
 20
231.9504372462584
 10
709.6496396848752
 20
232.0367957026519
 10
709.6566432313619
 20
232.1423615531001
  0
LINE
  5
23D
330
2
100
AcDbEntity
  8
0
370
    -3
100
AcDbLine
 10
709.4557569431881
 20
231.9567106031389
 30
0.0
 11
702.5012692306772
 21
246.9399143270668
 31
0.0
  0
LINE
  5
23E
330
2
100
AcDbEntity
  8
0
370
    -3
100
AcDbLine
 10
709.7626836240193
 20
235.5818617423324
 30
0.0
 11
709.6566432313619
 21
232.1423615531001
 31
0.0
  0
LINE
  5
23F
330
2
100
AcDbEntity
  8
0
370
    -3
100
AcDbLine
 10
708.7729745316351
 20
231.8662044059736
 30
0.0
 11
701.8184905448703
 21
246.8494145815443
 31
0.0
  0
ARC
  5
240
330
2
100
AcDbEntity
  8
0
370
    -3
100
AcDbCircle
 10
740.3699970539231
 20
245.2255052315233
 30
0.0
 40
2.469730203174309
100
AcDbArc
 50
85.04474850740272
 51
110.0562076277984
  0
ARC
  5
241
330
2
100
AcDbEntity
  8
0
370
    -3
100
AcDbCircle
 10
711.9774495817003
 20
235.3298974331074
 30
0.0
 40
2.229052323357358
100
AcDbArc
 50
106.8135623903994
 51
173.5096127519998
  0
LWPOLYLINE
  5
242
330
2
100
AcDbEntity
  8
0
370
    -3
100
AcDbPolyline
 90
        9
 70
   128
 43
0.0
 10
723.8260127338056
 20
254.4381428355662
 10
723.8038509810247
 20
254.0510161772354
 10
723.3808777769298
 20
253.1539844944937
 10
722.5019215700434
 20
252.3413388467277
 10
721.3008022445624
 20
251.7367969355539
 10
719.9603645065551
 20
251.4323910183815
 10
718.6846872173092
 20
251.4744699887333
 10
717.6679846709949
 20
251.8566241220583
 10
717.1049070181802
 20
252.4416339109812
  0
LWPOLYLINE
  5
243
330
2
100
AcDbEntity
  8
0
370
    -3
100
AcDbPolyline
 90
        9
 70
   128
 43
0.0
 10
734.35788197298
 20
251.7682412718961
 10
734.3357202201993
 20
251.3811146135647
 10
733.9127470161042
 20
250.484082930823
 10
733.0337908092176
 20
249.6714372830572
 10
731.8326714837366
 20
249.0668953718842
 10
730.4922337457301
 20
248.7624894547114
 10
729.2165639072687
 20
248.8045727256863
 10
728.1998539101696
 20
249.1867236338972
 10
727.6367762573544
 20
249.7717323473103
  0
LWPOLYLINE
  5
244
330
2
100
AcDbEntity
  8
0
370
    -3
100
AcDbPolyline
 90
        9
 70
   128
 43
0.0
 10
718.4185003129963
 20
246.06778760879
 10
718.3963311094307
 20
245.6806566498351
 10
717.9733653561205
 20
244.7836303439337
 10
717.0944091492343
 20
243.9709846954609
 10
715.8932860987142
 20
243.3664438590897
 10
714.5528483607075
 20
243.0620390174263
 10
713.277174797207
 20
243.104115837466
 10
712.2604685251473
 20
243.4862721218103
 10
711.6973908723321
 20
244.0712808352234
  0
LWPOLYLINE
  5
245
330
2
100
AcDbEntity
  8
0
370
    -3
100
AcDbPolyline
 90
        5
 70
   128
 43
0.0
 10
708.8837646703487
 20
231.745179886112
 10
708.87766636978
 20
231.7448875207799
 10
708.844377174089
 20
231.7594661314197
 10
708.8090278927056
 20
231.8004290453921
 10
708.7729745316351
 20
231.8662044059736
  0
ARC
  5
246
330
2
100
AcDbEntity
  8
0
370
    -3
100
AcDbCircle
 10
917.4924973811696
 20
222.5299991526224
 30
0.0
 40
16.77161388603038
100
AcDbArc
 50
60.46815288319741
 51
82.8079534346693
  0
LINE
  5
247
330
2
100
AcDbEntity
  8
0
370
    -3
100
AcDbLine
 10
925.7375397758927
 20
237.7120975715186
 30
0.0
 11
933.8643987479397
 21
233.4303022558845
 31
0.0
  0
ARC
  5
248
330
2
100
AcDbEntity
  8
0
370
    -3
100
AcDbCircle
 10
935.7174288181759
 20
236.2560344871076
 30
0.0
 40
3.379124603339302
100
AcDbArc
 50
236.7443445061006
 51
297.4128423749008
  0
LINE
  5
249
330
2
100
AcDbEntity
  8
0
370
    -3
100
AcDbLine
 10
937.2731736280494
 20
233.2563443077099
 30
0.0
 11
938.4345850827315
 21
233.9991649531719
 31
0.0
  0
ARC
  5
24A
330
2
100
AcDbEntity
  8
0
370
    -3
100
AcDbCircle
 10
939.010176559648
 20
233.0269210836657
 30
0.0
 40
1.129851180157518
100
AcDbArc
 50
74.22662122710093
 51
120.6265410071992
  0
LINE
  5
24B
330
2
100
AcDbEntity
  8
0
370
    -3
100
AcDbLine
 10
939.3173075582847
 20
234.1142270380895
 30
0.0
 11
963.1057309282235
 21
228.5184442594318
 31
0.0
  0
ARC
  5
24C
330
2
100
AcDbEntity
  8
0
370
    -3
100
AcDbCircle
 10
962.436293136122
 20
226.0657277620016
 30
0.0
 40
2.542432924278881
100
AcDbArc
 50
47.90467645439871
 51
74.73368188780018
  0
LINE
  5
24D
330
2
100
AcDbEntity
  8
0
370
    -3
100
AcDbLine
 10
964.1406538705201
 20
227.9522906849147
 30
0.0
 11
984.7774144573683
 21
210.3177274102254
 31
0.0
  0
ARC
  5
24E
330
2
100
AcDbEntity
  8
0
370
    -3
100
AcDbCircle
 10
981.8603648770576
 20
206.944172403882
 30
0.0
 40
4.459826412899792
100
AcDbArc
 50
3.903980762599909
 51
49.1506445739995
  0
LINE
  5
24F
330
2
100
AcDbEntity
  8
0
370
    -3
100
AcDbLine
 10
986.3098424901304
 20
207.2478179323304
 30
0.0
 11
986.3874626421685
 21
203.779910937508
 31
0.0
  0
LINE
  5
250
330
2
100
AcDbEntity
  8
0
370
    -3
100
AcDbLine
 10
985.8100128185473
 20
207.5212489875364
 30
0.0
 11
985.8876329705852
 21
204.0533419927144
 31
0.0
  0
ARC
  5
251
330
2
100
AcDbEntity
  8
0
370
    -3
100
AcDbCircle
 10
982.4728977902877
 20
207.2935126162886
 30
0.0
 40
3.344876763778403
100
AcDbArc
 50
3.904010825600527
 51
49.15055099040125
  0
LINE
  5
252
330
2
100
AcDbEntity
  8
0
370
    -3
100
AcDbLine
 10
964.0239256192153
 20
227.4582481338703
 30
0.0
 11
984.6606936568477
 21
209.8236805578492
 31
0.0
  0
ARC
  5
253
330
2
100
AcDbEntity
  8
0
370
    -3
100
AcDbCircle
 10
962.7456678589192
 20
226.0433431192544
 30
0.0
 40
1.906803372716629
100
AcDbArc
 50
47.90461562369745
 51
74.73373136769848
  0
LINE
  5
254
330
2
100
AcDbEntity
  8
0
370
    -3
100
AcDbLine
 10
939.4593156304667
 20
233.4786420616686
 30
0.0
 11
963.2477390004053
 21
227.8828603578133
 31
0.0
  0
ARC
  5
255
330
2
100
AcDbEntity
  8
0
370
    -3
100
AcDbCircle
 10
939.2289677016313
 20
232.6632062609342
 30
0.0
 40
0.8473462771867911
100
AcDbArc
 50
74.22583946770041
 51
120.6278127268986
  0
LINE
  5
256
330
2
100
AcDbEntity
  8
0
370
    -3
100
AcDbLine
 10
937.6358604567762
 20
232.6495280786939
 30
0.0
 11
938.7972793615352
 21
233.3923433473153
 31
0.0
  0
ARC
  5
257
330
2
100
AcDbEntity
  8
0
370
    -3
100
AcDbCircle
 10
935.9245387380642
 20
235.9491730538498
 30
0.0
 40
3.71702555643269
100
AcDbArc
 50
236.7442454649011
 51
297.4129765194983
  0
LINE
  5
258
330
2
100
AcDbEntity
  8
0
370
    -3
100
AcDbLine
 10
925.7593476266652
 20
237.1226760618811
 30
0.0
 11
933.8862065980055
 21
232.8408807455394
 31
0.0
  0
ARC
  5
259
330
2
100
AcDbEntity
  8
0
370
    -3
100
AcDbCircle
 10
917.19752806037
 20
222.5727168815481
 30
0.0
 40
17.38196328941957
100
AcDbArc
 50
60.57297927039864
 51
81.34353263656214
  0
LINE
  5
25A
330
2
100
AcDbEntity
  8
0
370
    -3
100
AcDbLine
 10
906.5777051764372
 20
225.1457536095965
 30
0.0
 11
913.88620618425
 21
221.2951262645072
 31
0.0
  0
ARC
  5
25B
330
2
100
AcDbEntity
  8
0
370
    -3
100
AcDbCircle
 10
915.9374447659333
 20
224.4446923387225
 30
0.0
 40
3.758636211630781
100
AcDbArc
 50
236.9247445559
 51
295.1540892616994
  0
ARC
  5
25C
330
2
100
AcDbEntity
  8
0
370
    -3
100
AcDbCircle
 10
919.2173152417156
 20
220.9550946854758
 30
0.0
 40
1.007294859414807
100
AcDbArc
 50
76.09885723439659
 51
95.51757269559791
  0
LINE
  5
25D
330
2
100
AcDbEntity
  8
0
370
    -3
100
AcDbLine
 10
963.2477390004053
 20
227.8828603578133
 30
0.0
 11
943.2477385866496
 21
216.3371058774883
 31
0.0
  0
LINE
  5
25E
330
2
100
AcDbEntity
  8
0
370
    -3
100
AcDbLine
 10
919.4593152167115
 20
221.9328875806364
 30
0.0
 11
943.2477385866496
 21
216.3371058774883
 31
0.0
  0
LWPOLYLINE
  5
25F
330
2
100
AcDbEntity
  8
0
370
    -3
100
AcDbPolyline
 90
       17
 70
   128
 43
0.0
 10
971.2026557941733
 20
212.0171054910188
 10
972.3444070285477
 20
212.4112784050883
 10
973.682422396102
 20
212.4291962845125
 10
975.0130058101431
 20
212.068127763062
 10
976.1335792336939
 20
211.3830474834738
 10
976.8735499756616
 20
210.4782499527976
 10
977.120269443148
 20
209.4914811689284
 10
976.8361685484979
 20
208.5729701869382
 10
976.0645025695998
 20
207.8625508556706
 10
974.9227511025868
 20
207.4683778072508
 10
973.5847356183599
 20
207.4504609361609
 10
972.2541522043187
 20
207.8115283821026
 10
971.1335790141138
 20
208.4966087960404
 10
970.3936080388002
 20
209.4014061930738
 10
970.1468885713143
 20
210.3881760517452
 10
970.4309895826368
 20
211.306686025401
 10
971.2026557941733
 20
212.0171054910188
  0
LWPOLYLINE
  5
260
330
2
100
AcDbEntity
  8
0
370
    -3
100
AcDbPolyline
 90
       17
 70
   128
 43
0.0
 10
959.5342116118914
 20
221.9880445734932
 10
960.6759628462667
 20
222.3822174875627
 10
962.0139856646051
 20
222.4001299901472
 10
963.3445616278619
 20
222.0390657700268
 10
964.4651425021979
 20
221.3539822646173
 10
965.2051132441652
 20
220.4491847339411
 10
965.4518327116512
 20
219.4624148752694
 10
965.1677318170007
 20
218.5439038925721
 10
964.3960658381043
 20
217.8334856368144
 10
963.2543143710899
 20
217.4393115128853
 10
961.9162988868643
 20
217.4213946417951
 10
960.5857154728225
 20
217.7824631632461
 10
959.4651422819092
 20
218.4675435771844
 10
958.7251638565204
 20
219.3723442000382
 10
958.4784518398182
 20
220.3591097573799
 10
958.7625454003559
 20
221.2776251078758
 10
959.5342116118914
 20
221.9880445734932
  0
LWPOLYLINE
  5
261
330
2
100
AcDbEntity
  8
0
370
    -3
100
AcDbPolyline
 90
       17
 70
   128
 43
0.0
 10
958.3684331857494
 20
212.9615612868304
 10
959.5101846527628
 20
213.3557343352499
 10
960.8482001369893
 20
213.3736512063401
 10
962.1787835510303
 20
213.0125826848892
 10
963.2993567419433
 20
212.3275022709508
 10
964.0393351673337
 20
211.4227016488035
 10
964.2860471840352
 20
210.4359360907556
 10
964.0019461727126
 20
209.5174250415908
 10
963.2302799611771
 20
208.8070055759729
 10
962.0885287268022
 20
208.4128326619034
 10
960.7505133592477
 20
208.3949158579885
 10
959.4199373959908
 20
208.7559800781085
 10
958.2993565216556
 20
209.4410635835179
 10
957.5593857796873
 20
210.3458611149013
 10
957.3126663122017
 20
211.3326309735728
 10
957.5967672068518
 20
212.2511419555631
 10
958.3684331857494
 20
212.9615612868304
  0
LINE
  5
262
330
2
100
AcDbEntity
  8
0
370
    -3
100
AcDbLine
 10
944.0239252054604
 20
215.9124936535445
 30
0.0
 11
964.6606932430929
 21
198.2779260775239
 31
0.0
  0
ARC
  5
263
330
2
100
AcDbEntity
  8
0
370
    -3
100
AcDbCircle
 10
942.7456674451635
 20
214.4975886389286
 30
0.0
 40
1.906803372731024
100
AcDbArc
 50
47.90461562380057
 51
74.73373136769848
  0
LWPOLYLINE
  5
264
330
2
100
AcDbEntity
  8
0
370
    -3
100
AcDbPolyline
 90
       10
 70
   128
 43
0.0
 10
965.4459574629767
 20
219.3492026086417
 10
965.2844526175208
 20
219.0379518197503
 10
964.5127866386232
 20
218.3275324891904
 10
963.37103517161
 20
217.9333594407704
 10
962.0330196873831
 20
217.9154414941711
 10
960.7024362733422
 20
218.2765100149145
 10
959.5818630831368
 20
218.9615904295601
 10
958.8418846577464
 20
219.8663910517071
 10
958.5951726403379
 20
220.8531566090483
 10
958.601035781929
 20
220.9663762592854
  0
ARC
  5
265
330
2
100
AcDbEntity
  8
0
370
    -3
100
AcDbCircle
 10
966.2041229407266
 20
192.4634136440627
 30
0.0
 40
0.3195582790350569
100
AcDbArc
 50
172.0543228775007
 51
307.9683046774
  0
LINE
  5
266
330
2
100
AcDbEntity
  8
0
370
    -3
100
AcDbLine
 10
985.8100128185473
 20
207.5212489875364
 30
0.0
 11
965.8100124047919
 21
195.9754945072116
 31
0.0
  0
ARC
  5
267
330
2
100
AcDbEntity
  8
0
370
    -3
100
AcDbCircle
 10
984.8250279909176
 20
204.0733223528014
 30
0.0
 40
1.062792810102954
100
AcDbArc
 50
302.7982013629991
 51
358.9227836820999
  0
LINE
  5
268
330
2
100
AcDbEntity
  8
0
370
    -3
100
AcDbLine
 10
985.4007235376943
 20
203.179956137823
 30
0.0
 11
966.4007233307716
 21
192.2114894886051
 31
0.0
  0
LINE
  5
269
330
2
100
AcDbEntity
  8
0
370
    -3
100
AcDbLine
 10
965.8100124047919
 20
195.9754945072116
 30
0.0
 11
965.8876325568297
 21
192.5075875123886
 31
0.0
  0
ARC
  5
26A
330
2
100
AcDbEntity
  8
0
370
    -3
100
AcDbCircle
 10
985.3248576625006
 20
203.7998912975954
 30
0.0
 40
1.062792810100547
100
AcDbArc
 50
302.7982013628979
 51
358.9227836821994
  0
LINE
  5
26B
330
2
100
AcDbEntity
  8
0
370
    -3
100
AcDbLine
 10
985.9005532092773
 20
202.906525082617
 30
0.0
 11
966.9005530023547
 21
191.9380584333996
 31
0.0
  0
LWPOLYLINE
  5
26C
330
2
100
AcDbEntity
  8
0
370
    -3
100
AcDbPolyline
 90
       10
 70
   128
 43
0.0
 10
977.1144016452575
 20
209.3782646016766
 10
976.9528893490182
 20
209.0670170386068
 10
976.1812233701196
 20
208.3565977073395
 10
975.0394719031072
 20
207.9624246589199
 10
973.7014564188799
 20
207.9445077878297
 10
972.3708804556233
 20
208.3055720079496
 10
971.2502998146323
 20
208.9906556477092
 10
970.5103288393207
 20
209.8954530447425
 10
970.2636093718338
 20
210.8822229034144
 10
970.2694798475377
 20
210.9954371103433
  0
ARC
  5
26D
330
2
100
AcDbEntity
  8
0
370
    -3
100
AcDbCircle
 10
962.4728973765316
 20
195.7477581359635
 30
0.0
 40
3.344876763780102
100
AcDbArc
 50
3.904010825600527
 51
49.15055099040125
  0
LWPOLYLINE
  5
26E
330
2
100
AcDbEntity
  8
0
370
    -3
100
AcDbPolyline
 90
       10
 70
   128
 43
0.0
 10
964.2801792694726
 20
210.322719456329
 10
964.1186744240167
 20
210.0114675919289
 10
963.3470082124807
 20
209.3010481263109
 10
962.2052569781056
 20
208.9068752129483
 10
960.8672341597673
 20
208.8889627096569
 10
959.5366581965103
 20
209.250026929777
 10
958.4160773221752
 20
209.9351115106961
 10
957.6761065802074
 20
210.8399079665701
 10
957.429387112722
 20
211.8266778252421
 10
957.4352577043905
 20
211.9398931741484
  0
ARC
  5
26F
330
2
100
AcDbEntity
  8
0
370
    -3
100
AcDbCircle
 10
966.6928152720263
 20
192.2321502982847
 30
0.0
 40
0.3600624801270568
100
AcDbArc
 50
246.3021636921989
 51
305.2362446760987
  0
ARC
  5
270
330
2
100
AcDbEntity
  8
0
370
    -3
100
AcDbCircle
 10
613.1747478690654
 20
176.0717173411167
 30
0.0
 40
2.05705594175522
100
AcDbArc
 50
146.9986250202016
 51
178.5900346470992
  0
LINE
  5
271
330
2
100
AcDbEntity
  8
0
370
    -3
100
AcDbLine
 10
611.1183147520504
 20
176.1223333711039
 30
0.0
 11
610.6733735106212
 21
175.535934842788
 31
0.0
  0
SPLINE
  5
272
330
2
100
AcDbEntity
  8
0
370
    -3
100
AcDbSpline
210
0.0
220
0.0
230
1.0
 70
     8
 71
     3
 72
     9
 73
     5
 74
     0
 42
0.00000001
 43
0.0000000001
 40
0.0
 40
0.0
 40
0.0
 40
0.0
 40
0.5000000096624074
 40
1.0
 40
1.0
 40
1.0
 40
1.0
 10
610.6733735103808
 20
175.5359348426252
 30
0.0
 10
610.7102824459953
 20
175.4385569772644
 30
0.0
 10
610.7841003158005
 20
175.2438012503066
 30
0.0
 10
610.8810894972092
 20
175.0356690178701
 30
0.0
 10
610.9295840869767
 20
174.9316029036631
 30
0.0
  0
SPLINE
  5
273
330
2
100
AcDbEntity
  8
0
370
    -3
100
AcDbSpline
210
0.0
220
0.0
230
1.0
 70
     8
 71
     3
 72
     9
 73
     5
 74
     0
 42
0.00000001
 43
0.0000000001
 40
0.0
 40
0.0
 40
0.0
 40
0.0
 40
0.0735043016868401
 40
1.0
 40
1.0
 40
1.0
 40
1.0
 10
610.9295840869767
 20
174.9316029036631
 30
0.0
 10
610.9382326856533
 20
174.9466929116227
 30
0.0
 10
611.0558938085869
 20
175.151987127251
 30
0.0
 10
611.2212881671057
 20
175.3419767819405
 30
0.0
 10
611.3745253287987
 20
175.5180013797355
 30
0.0
  0
ARC
  5
274
330
2
100
AcDbEntity
  8
0
370
    -3
100
AcDbCircle
 10
611.7116029876059
 20
176.1279837428419
 30
0.0
 40
0.6969216825186689
100
AcDbArc
 50
241.0748591182995
 51
307.4452969539989
  0
LINE
  5
275
330
2
100
AcDbEntity
  8
0
370
    -3
100
AcDbLine
 10
612.1353339485725
 20
175.5746737898725
 30
0.0
 11
612.420713549725
 21
175.0426678592223
 31
0.0
  0
SPLINE
  5
276
330
2
100
AcDbEntity
  8
0
370
    -3
100
AcDbSpline
210
0.0
220
0.0
230
1.0
 70
     8
 71
     3
 72
     9
 73
     5
 74
     0
 42
0.00000001
 43
0.0000000001
 40
0.0
 40
0.0
 40
0.0
 40
0.0
 40
0.4999999695964564
 40
1.0
 40
1.0
 40
1.0
 40
1.0
 10
612.4207135495138
 20
175.0426678595743
 30
0.0
 10
612.523490591519
 20
175.158000061059
 30
0.0
 10
612.729044688027
 20
175.3886644780527
 30
0.0
 10
612.9577700515774
 20
175.605952478016
 30
0.0
 10
613.0721327403074
 20
175.7145964846043
 30
0.0
  0
SPLINE
  5
277
330
2
100
AcDbEntity
  8
0
370
    -3
100
AcDbSpline
210
0.0
220
0.0
230
1.0
 70
     8
 71
     3
 72
     9
 73
     5
 74
     0
 42
0.00000001
 43
0.0000000001
 40
0.0
 40
0.0
 40
0.0
 40
0.0
 40
0.0734977447673248
 40
1.0
 40
1.0
 40
1.0
 40
1.0
 10
613.0721327403074
 20
175.7145964846043
 30
0.0
 10
613.0633910110868
 20
175.7283925560316
 30
0.0
 10
612.9444522702024
 20
175.9160999676112
 30
0.0
 10
612.8625945249776
 20
176.0876555999637
 30
0.0
 10
612.7867531394184
 20
176.2466022802368
 30
0.0
  0
ARC
  5
278
330
2
100
AcDbEntity
  8
0
370
    -3
100
AcDbCircle
 10
611.0612206803883
 20
177.3671103111783
 30
0.0
 40
2.057425700641601
100
AcDbArc
 50
327.0015379656003
 51
358.5871217016997
  0
LINE
  5
279
330
2
100
AcDbEntity
  8
0
370
    -3
100
AcDbLine
 10
613.1180208678625
 20
177.316380614478
 30
0.0
 11
613.7214061637169
 21
177.8113113376407
 31
0.0
  0
SPLINE
  5
27A
330
2
100
AcDbEntity
  8
0
370
    -3
100
AcDbSpline
210
0.0
220
0.0
230
1.0
 70
     8
 71
     3
 72
     9
 73
     5
 74
     0
 42
0.00000001
 43
0.0000000001
 40
0.0
 40
0.0
 40
0.0
 40
0.0
 40
0.5000039013484039
 40
1.0
 40
1.0
 40
1.0
 40
1.0
 10
613.721406163796
 20
177.8113113375618
 30
0.0
 10
613.6729055020026
 20
177.9153734993999
 30
0.0
 10
613.5759049352827
 20
178.1234961991561
 30
0.0
 10
613.5020885771305
 20
178.3182556891136
 30
0.0
 10
613.4651806860379
 20
178.4156346742668
 30
0.0
  0
SPLINE
  5
27B
330
2
100
AcDbEntity
  8
0
370
    -3
100
AcDbSpline
210
0.0
220
0.0
230
1.0
 70
     8
 71
     3
 72
     9
 73
     5
 74
     0
 42
0.00000001
 43
0.0000000001
 40
0.0
 40
0.0
 40
0.0
 40
0.0
 40
0.0735043016868401
 40
1.0
 40
1.0
 40
1.0
 40
1.0
 10
613.4651806860379
 20
178.4156346742668
 30
0.0
 10
613.4488624912108
 20
178.4049722299203
 30
0.0
 10
613.2268592281111
 20
178.259913449664
 30
0.0
 10
613.0373629120748
 20
178.0838375588857
 30
0.0
 10
612.8617953904209
 20
177.9207040035039
 30
0.0
  0
ARC
  5
27C
330
2
100
AcDbEntity
  8
0
370
    -3
100
AcDbCircle
 10
612.5247156702283
 20
177.3107767449126
 30
0.0
 40
0.6968744499030714
100
AcDbArc
 50
61.0725194978979
 51
127.4465143062987
  0
LINE
  5
27D
330
2
100
AcDbEntity
  8
0
370
    -3
100
AcDbLine
 10
612.101001672047
 20
177.86404019571
 30
0.0
 11
611.9740512237512
 21
178.3045697185453
 31
0.0
  0
SPLINE
  5
27E
330
2
100
AcDbEntity
  8
0
370
    -3
100
AcDbSpline
210
0.0
220
0.0
230
1.0
 70
     8
 71
     3
 72
     9
 73
     5
 74
     0
 42
0.00000001
 43
0.0000000001
 40
0.0
 40
0.0
 40
0.0
 40
0.0
 40
0.4999999695964564
 40
1.0
 40
1.0
 40
1.0
 40
1.0
 10
611.9740512234997
 20
178.3045697183554
 30
0.0
 10
611.8596885286382
 20
178.1959257719029
 30
0.0
 10
611.6309631250068
 20
177.9786378657838
 30
0.0
 10
611.4254090676398
 20
177.7479733554867
 30
0.0
 10
611.3226320327071
 20
177.6326410933257
 30
0.0
  0
SPLINE
  5
27F
330
2
100
AcDbEntity
  8
0
370
    -3
100
AcDbSpline
210
0.0
220
0.0
230
1.0
 70
     8
 71
     3
 72
     9
 73
     5
 74
     0
 42
0.00000001
 43
0.0000000001
 40
0.0
 40
0.0
 40
0.0
 40
0.0
 40
0.0735062930326644
 40
1.0
 40
1.0
 40
1.0
 40
1.0
 10
611.3226320327071
 20
177.6326410933257
 30
0.0
 10
611.3237092914577
 20
177.6232756148324
 30
0.0
 10
611.3383646183159
 20
177.4958650475655
 30
0.0
 10
611.3960953351329
 20
177.3381934490512
 30
0.0
 10
611.4495824809632
 20
177.1921117052604
 30
0.0
  0
LWPOLYLINE
  5
280
330
2
100
AcDbEntity
  8
0
370
    -3
100
AcDbPolyline
 90
        3
 70
   128
 43
0.0
 10
616.0625463264327
 20
178.9329167029727
 10
615.8900486139287
 20
179.020347740395
 10
615.7084854074333
 20
179.0977105355548
  0
LINE
  5
281
330
2
100
AcDbEntity
  8
0
370
    -3
100
AcDbLine
 10
611.9205635028947
 20
176.0812267525214
 30
0.0
 11
612.1353339485725
 21
175.5746737898725
 31
0.0
  0
LINE
  5
282
330
2
100
AcDbEntity
  8
0
370
    -3
100
AcDbLine
 10
612.8779797260437
 20
175.5285221319107
 30
0.0
 11
611.9205635028947
 21
176.0812267525214
 31
0.0
  0
LINE
  5
283
330
2
100
AcDbEntity
  8
0
370
    -3
100
AcDbLine
 10
612.4287508637435
 20
177.292261020114
 30
0.0
 11
612.2434102127572
 21
177.1010871643175
 31
0.0
  0
LINE
  5
284
330
2
100
AcDbEntity
  8
0
370
    -3
100
AcDbLine
 10
612.6643382320207
 20
176.1082622743574
 30
0.0
 11
612.3806350121206
 21
175.815627089102
 31
0.0
  0
LINE
  5
285
330
2
100
AcDbEntity
  8
0
370
    -3
100
AcDbLine
 10
612.2434102127572
 20
177.1010871643175
 30
0.0
 11
612.6643382320207
 21
176.1082622743574
 31
0.0
  0
LINE
  5
286
330
2
100
AcDbEntity
  8
0
370
    -3
100
AcDbLine
 10
612.5719826938635
 20
176.7531552767485
 30
0.0
 11
613.1180208678625
 21
177.316380614478
 31
0.0
  0
LINE
  5
287
330
2
100
AcDbEntity
  8
0
370
    -3
100
AcDbLine
 10
612.7867531395422
 20
176.2466022801584
 30
0.0
 11
612.5719826938635
 21
176.7531552767485
 31
0.0
  0
LINE
  5
288
330
2
100
AcDbEntity
  8
0
370
    -3
100
AcDbLine
 10
611.3745253288957
 20
175.5180013794368
 30
0.0
 11
611.9205635028947
 21
176.0812267525214
 31
0.0
  0
LINE
  5
289
330
2
100
AcDbEntity
  8
0
370
    -3
100
AcDbLine
 10
612.8556803262057
 20
177.0457876533758
 30
0.0
 11
612.3157572161566
 21
177.3574786303989
 31
0.0
  0
LINE
  5
28A
330
2
100
AcDbEntity
  8
0
370
    -3
100
AcDbLine
 10
612.8617953901557
 20
177.9207040034839
 30
0.0
 11
612.3157572161566
 21
177.3574786303989
 31
0.0
  0
LINE
  5
28B
330
2
100
AcDbEntity
  8
0
370
    -3
100
AcDbLine
 10
612.3157572161566
 20
177.3574786303989
 30
0.0
 11
612.101001672047
 21
177.86404019571
 31
0.0
  0
LINE
  5
28C
330
2
100
AcDbEntity
  8
0
370
    -3
100
AcDbLine
 10
611.1676413232689
 20
175.2506001075633
 30
0.0
 11
610.6733735106212
 21
175.535934842788
 31
0.0
  0
LINE
  5
28D
330
2
100
AcDbEntity
  8
0
370
    -3
100
AcDbLine
 10
611.6643380251876
 20
176.6855501061723
 30
0.0
 11
611.1183147520504
 21
176.1223333711039
 31
0.0
  0
LINE
  5
28E
330
2
100
AcDbEntity
  8
0
370
    -3
100
AcDbLine
 10
612.6643382320207
 20
176.1082622743574
 30
0.0
 11
611.6643380251876
 21
176.6855501061723
 31
0.0
  0
LINE
  5
28F
330
2
100
AcDbEntity
  8
0
370
    -3
100
AcDbLine
 10
612.2434102127572
 20
177.1010871643175
 30
0.0
 11
611.322632032783
 21
177.6326410932016
 31
0.0
  0
LINE
  5
290
330
2
100
AcDbEntity
  8
0
370
    -3
100
AcDbLine
 10
611.4495824810777
 20
177.1921117054244
 30
0.0
 11
611.6643380251876
 21
176.6855501061723
 31
0.0
  0
ARC
  5
291
330
2
100
AcDbEntity
  8
0
370
    -3
100
AcDbCircle
 10
513.8108879309128
 20
119.0092804227854
 30
0.0
 40
1.687727223104982
100
AcDbArc
 50
152.8973501851998
 51
189.0406769595003
  0
LINE
  5
292
330
2
100
AcDbEntity
  8
0
370
    -3
100
AcDbLine
 10
512.1441272893893
 20
118.7440783393633
 30
0.0
 11
511.7540819281921
 21
118.0677380088614
 31
0.0
  0
SPLINE
  5
293
330
2
100
AcDbEntity
  8
0
370
    -3
100
AcDbSpline
210
0.0
220
0.0
230
1.0
 70
     8
 71
     3
 72
     9
 73
     5
 74
     0
 42
0.00000001
 43
0.0000000001
 40
0.0
 40
0.0
 40
0.0
 40
0.0
 40
0.5
 40
1.0
 40
1.0
 40
1.0
 40
1.0
 10
511.7540819280833
 20
118.0677380088605
 30
0.0
 10
511.8128111321666
 20
117.9960847134016
 30
0.0
 10
511.9302695403338
 20
117.8527781224848
 30
0.0
 10
512.0708992551554
 20
117.6960950209627
 30
0.0
 10
512.1412141125651
 20
117.6177534702021
 30
0.0
  0
SPLINE
  5
294
330
2
100
AcDbEntity
  8
0
370
    -3
100
AcDbSpline
210
0.0
220
0.0
230
1.0
 70
     8
 71
     3
 72
     9
 73
     5
 74
     0
 42
0.00000001
 43
0.0000000001
 40
0.0
 40
0.0
 40
0.0
 40
0.0
 40
0.0734935378400409
 40
1.0
 40
1.0
 40
1.0
 40
1.0
 10
512.1412141125651
 20
117.6177534702021
 30
0.0
 10
512.1485528157027
 20
117.6349840391701
 30
0.0
 10
512.2484078962111
 20
117.8694341619209
 30
0.0
 10
512.3952288820369
 20
118.0898640680464
 30
0.0
 10
512.5312594741854
 20
118.2940938005233
 30
0.0
  0
ARC
  5
295
330
2
100
AcDbEntity
  8
0
370
    -3
100
AcDbCircle
 10
512.6582143584442
 20
119.2472511546764
 30
0.0
 40
0.9615750022593767
100
AcDbArc
 50
262.4131979847013
 51
315.5456296342003
  0
LINE
  5
296
330
2
100
AcDbEntity
  8
0
370
    -3
100
AcDbLine
 10
513.3445946892601
 20
118.5738207384099
 30
0.0
 11
513.7353106033827
 21
118.1660044098348
 31
0.0
  0
SPLINE
  5
297
330
2
100
AcDbEntity
  8
0
370
    -3
100
AcDbSpline
210
0.0
220
0.0
230
1.0
 70
     8
 71
     3
 72
     9
 73
     5
 74
     0
 42
0.00000001
 43
0.0000000001
 40
0.0
 40
0.0
 40
0.0
 40
0.0
 40
0.5
 40
1.0
 40
1.0
 40
1.0
 40
1.0
 10
513.7353106033838
 20
118.1660044100076
 30
0.0
 10
513.826723022426
 20
118.299969843561
 30
0.0
 10
514.0095478605111
 20
118.5679007106685
 30
0.0
 10
514.2155440052497
 20
118.8224550671721
 30
0.0
 10
514.3185420776185
 20
118.949732245424
 30
0.0
  0
SPLINE
  5
298
330
2
100
AcDbEntity
  8
0
370
    -3
100
AcDbSpline
210
0.0
220
0.0
230
1.0
 70
     8
 71
     3
 72
     9
 73
     5
 74
     0
 42
0.00000001
 43
0.0000000001
 40
0.0
 40
0.0
 40
0.0
 40
0.0
 40
0.0735147299485269
 40
1.0
 40
1.0
 40
1.0
 40
1.0
 10
514.3185420776185
 20
118.949732245424
 30
0.0
 10
514.3072845973907
 20
118.9605664719024
 30
0.0
 10
514.1541522899546
 20
119.1079413787565
 30
0.0
 10
514.0366709212893
 20
119.2375075199379
 30
0.0
 10
513.9278261637155
 20
119.3575486412399
 30
0.0
  0
ARC
  5
299
330
2
100
AcDbEntity
  8
0
370
    -3
100
AcDbCircle
 10
512.4254253377958
 20
120.1264536666645
 30
0.0
 40
1.68772722309892
100
AcDbArc
 50
332.8973501851999
 51
9.040676959599606
  0
LINE
  5
29A
330
2
100
AcDbEntity
  8
0
370
    -3
100
AcDbLine
 10
514.0921859786121
 20
120.3916557500863
 30
0.0
 11
514.6406753942356
 21
120.9765282747278
 31
0.0
  0
SPLINE
  5
29B
330
2
100
AcDbEntity
  8
0
370
    -3
100
AcDbSpline
210
0.0
220
0.0
230
1.0
 70
     8
 71
     3
 72
     9
 73
     5
 74
     0
 42
0.00000001
 43
0.0000000001
 40
0.0
 40
0.0
 40
0.0
 40
0.0
 40
0.5
 40
1.0
 40
1.0
 40
1.0
 40
1.0
 10
514.640675394174
 20
120.9765282749013
 30
0.0
 10
514.5703605367644
 20
121.0548698256618
 30
0.0
 10
514.4297308219432
 20
121.2115529271839
 30
0.0
 10
514.3122724137761
 20
121.3548595181007
 30
0.0
 10
514.2535432096932
 20
121.4265128135605
 30
0.0
  0
SPLINE
  5
29C
330
2
100
AcDbEntity
  8
0
370
    -3
100
AcDbSpline
210
0.0
220
0.0
230
1.0
 70
     8
 71
     3
 72
     9
 73
     5
 74
     0
 42
0.00000001
 43
0.0000000001
 40
0.0
 40
0.0
 40
0.0
 40
0.0
 40
0.0734935378400409
 40
1.0
 40
1.0
 40
1.0
 40
1.0
 10
514.2535432096932
 20
121.4265128135605
 30
0.0
 10
514.2385349106988
 20
121.4137098080359
 30
0.0
 10
514.0343224120856
 20
121.2395039404223
 30
0.0
 10
513.8634075336381
 20
121.0329831424437
 30
0.0
 10
513.7050537942777
 20
120.8416402885473
 30
0.0
  0
ARC
  5
29D
330
2
100
AcDbEntity
  8
0
370
    -3
100
AcDbCircle
 10
513.578098910265
 20
119.8884829340663
 30
0.0
 40
0.9615750022600803
100
AcDbArc
 50
82.41319798470122
 51
135.5456296340999
  0
LINE
  5
29E
330
2
100
AcDbEntity
  8
0
370
    -3
100
AcDbLine
 10
512.8917185787408
 20
120.5619133503326
 30
0.0
 11
512.6594467190443
 21
120.8782618737543
 31
0.0
  0
SPLINE
  5
29F
330
2
100
AcDbEntity
  8
0
370
    -3
100
AcDbSpline
210
0.0
220
0.0
230
1.0
 70
     8
 71
     3
 72
     9
 73
     5
 74
     0
 42
0.00000001
 43
0.0000000001
 40
0.0
 40
0.0
 40
0.0
 40
0.0
 40
0.5
 40
1.0
 40
1.0
 40
1.0
 40
1.0
 10
512.6594467188738
 20
120.878261873755
 30
0.0
 10
512.5564486465053
 20
120.7509846955029
 30
0.0
 10
512.3504525017665
 20
120.4964303389997
 30
0.0
 10
512.1676276636812
 20
120.2284994718914
 30
0.0
 10
512.0762152446391
 20
120.0945340383375
 30
0.0
  0
SPLINE
  5
2A0
330
2
100
AcDbEntity
  8
0
370
    -3
100
AcDbSpline
210
0.0
220
0.0
230
1.0
 70
     8
 71
     3
 72
     9
 73
     5
 74
     0
 42
0.00000001
 43
0.0000000001
 40
0.0
 40
0.0
 40
0.0
 40
0.0
 40
0.0735147299485269
 40
1.0
 40
1.0
 40
1.0
 40
1.0
 10
512.0762152446391
 20
120.0945340383375
 30
0.0
 10
512.0798031284403
 20
120.0881273756333
 30
0.0
 10
512.1286080931436
 20
120.0009793617737
 30
0.0
 10
512.2219796929166
 20
119.8853314939154
 30
0.0
 10
512.3084871047479
 20
119.7781854478307
 30
0.0
  0
LINE
  5
2A1
330
2
100
AcDbEntity
  8
0
370
    -3
100
AcDbLine
 10
513.0201069895491
 20
118.9510108574668
 30
0.0
 11
513.3445946892601
 21
118.5738207384099
 31
0.0
  0
LINE
  5
2A2
330
2
100
AcDbEntity
  8
0
370
    -3
100
AcDbLine
 10
513.9191748394256
 20
118.4319900351079
 30
0.0
 11
513.0201069895491
 21
118.9510108574668
 31
0.0
  0
LINE
  5
2A3
330
2
100
AcDbEntity
  8
0
370
    -3
100
AcDbLine
 10
513.6033384635307
 20
119.7347387265829
 30
0.0
 11
514.0921859786121
 21
120.3916557500863
 31
0.0
  0
LINE
  5
2A4
330
2
100
AcDbEntity
  8
0
370
    -3
100
AcDbLine
 10
513.9278261639486
 20
119.3575486414665
 30
0.0
 11
513.6033384635307
 21
119.7347387265829
 31
0.0
  0
LINE
  5
2A5
330
2
100
AcDbEntity
  8
0
370
    -3
100
AcDbLine
 10
513.3865097953867
 20
120.0864034246462
 30
0.0
 11
512.9969934250375
 21
119.5629801096952
 31
0.0
  0
LINE
  5
2A6
330
2
100
AcDbEntity
  8
0
370
    -3
100
AcDbLine
 10
513.6330048144428
 20
118.8237247356685
 30
0.0
 11
513.5150770193654
 21
118.6652702584886
 31
0.0
  0
LINE
  5
2A7
330
2
100
AcDbEntity
  8
0
370
    -3
100
AcDbLine
 10
512.9969934250375
 20
119.5629801096952
 30
0.0
 11
513.6330048144428
 21
118.8237247356685
 31
0.0
  0
LINE
  5
2A8
330
2
100
AcDbEntity
  8
0
370
    -3
100
AcDbLine
 10
512.5312594744673
 20
118.2940938007282
 30
0.0
 11
513.0201069895491
 21
118.9510108574668
 31
0.0
  0
LINE
  5
2A9
330
2
100
AcDbEntity
  8
0
370
    -3
100
AcDbLine
 10
512.2346741996434
 20
117.7902979960304
 30
0.0
 11
511.7540819281921
 21
118.0677380088614
 31
0.0
  0
LINE
  5
2AA
330
2
100
AcDbEntity
  8
0
370
    -3
100
AcDbLine
 10
513.7212364561774
 20
119.8931755161925
 30
0.0
 11
513.2162062791593
 21
120.1847232312761
 31
0.0
  0
LINE
  5
2AB
330
2
100
AcDbEntity
  8
0
370
    -3
100
AcDbLine
 10
513.7050537942412
 20
120.841640288721
 30
0.0
 11
513.2162062791593
 21
120.1847232312761
 31
0.0
  0
LINE
  5
2AC
330
2
100
AcDbEntity
  8
0
370
    -3
100
AcDbLine
 10
513.2162062791593
 20
120.1847232312761
 30
0.0
 11
512.8917185787408
 21
120.5619133503326
 31
0.0
  0
LINE
  5
2AD
330
2
100
AcDbEntity
  8
0
370
    -3
100
AcDbLine
 10
512.6330046069019
 20
119.401012566776
 30
0.0
 11
512.1441272893893
 21
118.7440783393633
 31
0.0
  0
LINE
  5
2AE
330
2
100
AcDbEntity
  8
0
370
    -3
100
AcDbLine
 10
513.6330048144428
 20
118.8237247356685
 30
0.0
 11
512.6330046069019
 21
119.401012566776
 31
0.0
  0
LINE
  5
2AF
330
2
100
AcDbEntity
  8
0
370
    -3
100
AcDbLine
 10
512.9969934250375
 20
119.5629801096952
 30
0.0
 11
512.0762152443561
 21
120.0945340385795
 31
0.0
  0
LINE
  5
2B0
330
2
100
AcDbEntity
  8
0
370
    -3
100
AcDbLine
 10
512.3084871047593
 20
119.7781854479826
 30
0.0
 11
512.6330046069019
 21
119.401012566776
 31
0.0
  0
LWPOLYLINE
  5
2B1
330
2
100
AcDbEntity
  8
0
370
    -3
100
AcDbPolyline
 90
       10
 70
   128
 43
0.0
 10
612.8737759241992
 20
171.7925355495342
 10
613.6050504417371
 20
171.6104477199887
 10
614.5784986407164
 20
171.8588052230315
 10
615.5843121635671
 20
172.5530971202331
 10
616.4866669195165
 20
173.5995649105898
 10
617.163671405041
 20
174.8568639832706
 10
617.5239069928514
 20
176.1551975333757
 10
617.5187064874172
 20
177.3192093394166
 10
617.1488000458171
 20
178.1917093316011
 10
616.7625470299721
 20
178.5288148984032
  0
LWPOLYLINE
  5
2B2
330
2
100
AcDbEntity
  8
0
370
    -3
100
AcDbPolyline
 90
       11
 70
   128
 43
0.0
 10
513.8737647482435
 20
114.6410456014675
 10
514.2310946093052
 20
114.4996136763805
 10
515.1495426206056
 20
114.5429004070865
 10
516.1582916719289
 20
115.0543293895116
 10
517.1211153428688
 20
115.9648351919529
 10
517.9079562921493
 20
117.151435918242
 10
518.4125692365496
 20
118.4538872893081
 10
518.5667962615142
 20
119.6962819921909
 10
518.3497757404433
 20
120.7108088875184
 10
517.7908927647357
 20
121.3604940758086
 10
517.7625507548781
 20
121.3773335522914
  0
LWPOLYLINE
  5
2B3
330
2
100
AcDbEntity
  8
0
370
    -3
100
AcDbPolyline
 90
       12
 70
   128
 43
0.0
 10
513.8434911757213
 20
113.4338267401022
 10
514.1886020839997
 20
113.2837320805788
 10
515.2058447976923
 20
113.2462800933476
 10
516.3436677129038
 20
113.6937094251507
 10
517.4786892102279
 20
114.5774879449293
 10
518.4879747031835
 20
115.8018803278132
 10
519.2621198629097
 20
117.2341857179549
 10
519.7172311479603
 20
118.7191903390985
 10
519.8040155145853
 20
120.0959853144993
 10
519.5130256261664
 20
121.2153487828359
 10
518.8758519462035
 20
121.9560134164958
 10
518.7928226724225
 20
122.0072656573518
  0
LWPOLYLINE
  5
2B4
330
2
100
AcDbEntity
  8
0
370
    -3
100
AcDbPolyline
 90
       14
 70
   128
 43
0.0
 10
512.9020897878863
 20
114.0906017440313
 10
513.6886029118426
 20
113.5723754583778
 10
514.7058456255352
 20
113.5349234718539
 10
515.8436685407464
 20
113.9823528036568
 10
516.9786900380703
 20
114.8661313227278
 10
517.9879755310265
 20
116.0905237063198
 10
518.7621206907529
 20
117.5228290957543
 10
519.2172319758028
 20
119.0078337176041
 10
519.3040163424283
 20
120.3846286930054
 10
519.0130264540098
 20
121.5039921606351
 10
518.375852774046
 20
122.2446567950019
 10
517.4615174833457
 20
122.5263453537513
 10
516.3690835068855
 20
122.3185211584023
 10
516.0828023862682
 20
122.1920654076889
  0
LWPOLYLINE
  5
2B5
330
2
100
AcDbEntity
  8
0
370
    -3
100
AcDbPolyline
 90
        3
 70
   128
 43
0.0
 10
512.3381347579505
 20
115.6936820920365
 10
512.4316005037029
 20
115.0334808783293
 10
512.9020897878863
 20
114.0906017440313
  0
LWPOLYLINE
  5
2B6
330
2
100
AcDbEntity
  8
0
370
    -3
100
AcDbPolyline
 90
       15
 70
   128
 43
0.0
 10
611.3362144416477
 20
172.7406774408284
 10
611.5610431713016
 20
171.801019598786
 10
612.1534984647317
 20
171.0019344226038
 10
613.0347084720503
 20
170.653511488245
 10
614.10918654866
 20
170.7935117921531
 10
615.2604801145047
 20
171.4067543549518
 10
616.3638515434667
 20
172.4267981259079
 10
617.2997190129848
 20
173.7430976167807
 10
617.9666801153953
 20
175.2130187028155
 10
618.2924493153882
 20
176.677266840606
 10
618.2417108597554
 20
177.9771603220777
 10
617.8199930785503
 20
178.9718528840672
 10
617.0729829341238
 20
179.5535467832778
 10
616.0816086377256
 20
179.6591934899754
 10
615.1511689165678
 20
179.3443159030147
  0
LWPOLYLINE
  5
2B7
330
2
100
AcDbEntity
  8
0
370
    -3
100
AcDbPolyline
 90
       11
 70
   128
 43
0.0
 10
612.8434874501076
 20
170.5853080862139
 10
613.5347076442071
 20
170.3648681104462
 10
614.6091857208171
 20
170.504868413647
 10
615.7604792866617
 20
171.1181109764457
 10
616.8638507156242
 20
172.1381547474018
 10
617.7997181851419
 20
173.4544542382741
 10
618.4666792875527
 20
174.924375324309
 10
618.7924484875452
 20
176.3886234621
 10
618.741710031913
 20
177.6885169442785
 10
618.3199922507074
 20
178.683209506268
 10
617.792833848378
 20
179.1587556054173
  0
LINE
  5
2B8
330
2
100
AcDbEntity
  8
0
370
    -3
100
AcDbLine
 10
614.7323736261904
 20
188.9684035414286
 30
0.0
 11
614.7323736261904
 21
190.4617088986256
 31
0.0
  0
LINE
  5
2B9
330
2
100
AcDbEntity
  8
0
370
    -3
100
AcDbLine
 10
515.7323624502351
 20
131.8169135933622
 30
0.0
 11
515.7323624502351
 21
133.3102189505593
 31
0.0
  0
LINE
  5
2BA
330
2
100
AcDbEntity
  8
0
370
    -3
100
AcDbLine
 10
472.3181608560766
 20
129.8496911576672
 30
0.0
 11
472.3181608560766
 21
129.8497857975501
 31
0.0
  0
SPLINE
  5
2BB
330
2
100
AcDbEntity
  8
0
370
    -3
100
AcDbSpline
210
0.0
220
0.0
230
1.0
 70
     8
 71
     3
 72
    12
 73
     8
 74
     0
 42
0.00000001
 43
0.0000000001
 40
0.0
 40
0.0
 40
0.0
 40
0.0
 40
0.0108388271715229
 40
0.0541942644467828
 40
0.2276155811848951
 40
0.9213010229597715
 40
1.0
 40
1.0
 40
1.0
 40
1.0
 10
847.1968801451252
 20
380.0658661132995
 30
0.0
 10
847.1904927238126
 20
379.8378302879789
 30
0.0
 10
847.1585555414709
 20
378.6976484560089
 30
0.0
 10
847.0244022950668
 20
373.90884750386
 30
0.0
 10
846.4875263592798
 20
354.7529918219359
 30
0.0
 10
845.9288460851173
 20
334.8510431813179
 30
0.0
 10
845.4717789112104
 20
318.5962311176224
 30
0.0
 10
845.4252079056995
 20
316.9400129829313
 30
0.0
  0
LINE
  5
2BC
330
2
100
AcDbEntity
  8
0
370
    -3
100
AcDbLine
 10
886.3429256563259
 20
374.801853540697
 30
0.0
 11
886.0586689973592
 21
356.1332284037383
 31
0.0
  0
SPLINE
  5
2BD
330
2
100
AcDbEntity
  8
0
370
    -3
100
AcDbSpline
210
0.0
220
0.0
230
1.0
 70
     8
 71
     3
 72
    12
 73
     8
 74
     0
 42
0.000000001
 43
0.0000000001
 40
-0.0011516796860433
 40
-0.0011516796860433
 40
-0.0011516796860433
 40
-0.0011516796860433
 40
0.0
 40
0.0
 40
0.0
 40
0.296634585173401
 40
1.0
 40
1.0
 40
1.0
 40
1.0
 10
842.7105571089429
 20
372.5181092513393
 30
0.0
 10
842.7100088618427
 20
372.4968377247551
 30
0.0
 10
842.7094606147429
 20
372.4755661981709
 30
0.0
 10
842.7089123676427
 20
372.4542946715867
 30
0.0
 10
842.5677020527713
 20
366.9754531666301
 30
0.0
 10
842.0916607483228
 20
348.5054507501724
 30
0.0
 10
841.5970521055223
 20
329.9945505634227
 30
0.0
 10
841.2491614923009
 20
316.9746235747552
 30
0.0
  0
SPLINE
  5
2BE
330
2
100
AcDbEntity
  8
0
370
    -3
100
AcDbSpline
210
0.0
220
0.0
230
1.0
 70
     8
 71
     3
 72
    10
 73
     6
 74
     0
 42
0.00000001
 43
0.0000000001
 40
0.0
 40
0.0
 40
0.0
 40
0.0
 40
0.4172697290314308
 40
0.8956287883530517
 40
1.0
 40
1.0
 40
1.0
 40
1.0
 10
880.9576252798233
 20
366.5378398374648
 30
0.0
 10
880.8842173257017
 20
363.6834151075338
 30
0.0
 10
880.7266543096693
 20
357.5566707394535
 30
0.0
 10
880.5487348328606
 20
350.7115558718854
 30
0.0
 10
880.4440458059671
 20
346.72047028004
 30
0.0
 10
880.4252952430948
 20
346.0056379472092
 30
0.0
  0
SPLINE
  5
2BF
330
2
100
AcDbEntity
  8
0
370
    -3
100
AcDbSpline
210
0.0
220
0.0
230
1.0
 70
     8
 71
     3
 72
     9
 73
     5
 74
     0
 42
0.00000001
 43
0.0000000001
 40
0.0
 40
0.0
 40
0.0
 40
0.0
 40
0.6701215768760429
 40
1.0
 40
1.0
 40
1.0
 40
1.0
 10
839.5084249961673
 20
371.3307747714068
 30
0.0
 10
839.4277464189002
 20
365.8701157057228
 30
0.0
 10
839.3073524783797
 20
357.7213569519147
 30
0.0
 10
839.2200259720944
 20
349.5712941411956
 30
0.0
 10
839.1912188419032
 20
346.8827642728347
 30
0.0
  0
LINE
  5
2C0
330
2
100
AcDbEntity
  8
0
370
    -3
100
AcDbLine
 10
871.2988472434576
 20
367.808831196787
 30
0.0
 11
867.821799430798
 21
360.3176478890225
 31
0.0
  0
LINE
  5
2C1
330
2
100
AcDbEntity
  8
0
370
    -3
100
AcDbLine
 10
863.6489944853131
 20
364.254056466739
 30
0.0
 11
862.6063383054347
 21
319.3168884776721
 31
0.0
  0
ARC
  5
2C2
330
2
100
AcDbEntity
  8
0
370
    -3
100
AcDbCircle
 10
863.8240320830592
 20
358.9542035512589
 30
0.0
 40
3.942109438672633
100
AcDbArc
 50
41.15643235469892
 51
59.63446608779879
  0
SPLINE
  5
2C3
330
2
100
AcDbEntity
  8
0
370
    -3
100
AcDbSpline
210
0.0
220
0.0
230
1.0
 70
     8
 71
     3
 72
     9
 73
     5
 74
     0
 42
0.00000001
 43
0.0000000001
 40
0.0
 40
0.0
 40
0.0
 40
0.0
 40
0.1892479767163271
 40
1.0
 40
1.0
 40
1.0
 40
1.0
 10
868.598851713728
 20
318.8648469035982
 30
0.0
 10
868.5239683018377
 20
321.4741430297138
 30
0.0
 10
868.128278936018
 20
335.2618525280689
 30
0.0
 10
867.6995216028807
 20
349.057683100632
 30
0.0
 10
867.3519057275408
 20
360.242680650216
 30
0.0
  0
LINE
  5
2C4
330
2
100
AcDbEntity
  8
0
370
    -3
100
AcDbLine
 10
869.110543874317
 20
318.8995168068621
 30
0.0
 11
870.0559185172467
 21
359.6439898642659
 31
0.0
  0
SPLINE
  5
2C5
330
2
100
AcDbEntity
  8
0
370
    -3
100
AcDbSpline
210
0.0
220
0.0
230
1.0
 70
  1288
 71
     3
 72
    11
 73
     7
 74
     0
 42
0.00000001
 43
0.0000000001
 40
0.0
 40
0.0
 40
0.0
 40
0.0
 40
0.1789277226130485
 40
0.5227621179739586
 40
0.8048354958022112
 40
1.0
 40
1.0
 40
1.0
 40
1.0
 10
846.9894890343308
 20
381.0216591231462
 30
0.0
 10
847.0220758262714
 20
381.0285732562837
 30
0.0
 10
847.0903071134731
 20
381.0404851144987
 30
0.0
 10
847.1592426455796
 20
380.8753586606747
 30
0.0
 10
847.2016293031261
 20
380.5161193403393
 30
0.0
 10
847.1982585861978
 20
380.1965519193279
 30
0.0
 10
847.1968801451252
 20
380.0658661132995
 30
0.0
  0
SPLINE
  5
2C6
330
2
100
AcDbEntity
  8
0
370
    -3
100
AcDbSpline
210
0.0
220
0.0
230
1.0
 70
     8
 71
     3
 72
    10
 73
     6
 74
     0
 42
0.00000001
 43
0.0000000001
 40
0.0
 40
0.0
 40
0.0
 40
0.0
 40
0.3519059512896583
 40
0.7720436431231607
 40
1.0
 40
1.0
 40
1.0
 40
1.0
 10
886.11480051004
 20
375.701528568193
 30
0.0
 10
886.1628418795907
 20
375.6590344902277
 30
0.0
 10
886.2682394548022
 20
375.5658070735183
 30
0.0
 10
886.3353730721128
 20
375.2122801144262
 30
0.0
 10
886.3409604044997
 20
374.9086503026931
 30
0.0
 10
886.3429256562062
 20
374.801853540928
 30
0.0
  0
ELLIPSE
  5
2C7
330
2
100
AcDbEntity
  8
0
370
    -3
100
AcDbEllipse
 10
862.9156026594644
 20
362.6172107015448
 30
0.0
 11
0.4834487075977006
 21
2.787264722070665
 31
0.0
210
0.0
220
0.0
230
1.0
 40
0.198423365
 41
5.374031951513706
 42
6.301306447253593
  0
SPLINE
  5
2C8
330
2
100
AcDbEntity
  8
0
370
    -3
100
AcDbSpline
210
0.0
220
0.0
230
1.0
 70
     8
 71
     3
 72
    10
 73
     6
 74
     0
 42
0.00000001
 43
0.0000000001
 40
0.0
 40
0.0
 40
0.0
 40
0.0
 40
0.1685068735240951
 40
0.3805671428748226
 40
1.0
 40
1.0
 40
1.0
 40
1.0
 10
880.9743853615973
 20
366.6211252911282
 30
0.0
 10
880.9725110885715
 20
366.6191039904171
 30
0.0
 10
880.9682781055776
 20
366.6145389503088
 30
0.0
 10
880.9615672340219
 20
366.5881609973105
 30
0.0
 10
880.9593081885166
 20
366.5593230696688
 30
0.0
 10
880.9576252798233
 20
366.5378398374648
 30
0.0
  0
SPLINE
  5
2C9
330
2
100
AcDbEntity
  8
0
370
    -3
100
AcDbSpline
210
0.0
220
0.0
230
1.0
 70
     8
 71
     3
 72
    11
 73
     7
 74
     0
 42
0.00000001
 43
0.0000000001
 40
0.0
 40
0.0
 40
0.0
 40
0.0
 40
0.1265851873088907
 40
0.5943550316939975
 40
0.630964065888361
 40
1.0
 40
1.0
 40
1.0
 40
1.0
 10
839.5169233150264
 20
371.4502451030086
 30
0.0
 10
839.5163314884841
 20
371.4493781216545
 30
0.0
 10
839.5135526871827
 20
371.4453073868337
 30
0.0
 10
839.5112436862204
 20
371.4273560331879
 30
0.0
 10
839.5090817779692
 20
371.3860855048058
 30
0.0
 10
839.5087378683252
 20
371.3571232306279
 30
0.0
 10
839.5084249961673
 20
371.3307747714068
 30
0.0
  0
ELLIPSE
  5
2CA
330
2
100
AcDbEntity
  8
0
370
    -3
100
AcDbEllipse
 10
869.9455869889197
 20
359.3985102442268
 30
0.0
 11
0.08275815288018
 21
0.4164956443860597
 31
0.0
210
0.0
220
0.0
230
1.0
 40
0.180783791
 41
5.378125946932157
 42
6.290905485978162
  0
LWPOLYLINE
  5
2CB
330
2
100
AcDbEntity
  8
0
370
    -3
100
AcDbPolyline
 90
        3
 70
   128
 43
0.0
 10
889.9761762953392
 20
366.0955499231734
 10
889.9858462178682
 20
366.1603362322436
 10
890.0008842838865
 20
366.2014583216162
  0
LINE
  5
2CC
330
2
100
AcDbEntity
  8
0
370
    -3
100
AcDbLine
 10
470.5999265113796
 20
72.13172983158482
 30
0.0
 11
470.3271160406884
 21
71.97423969889633
 31
0.0
  0
LINE
  5
2CD
330
2
100
AcDbEntity
  8
0
370
    -3
100
AcDbLine
 10
471.8242767485762
 20
71.34340600295286
 30
0.0
 11
471.6313365046088
 21
71.23202397129102
 31
0.0
  0
LINE
  5
2CE
330
2
100
AcDbEntity
  8
0
370
    -3
100
AcDbLine
 10
480.5999276498705
 20
66.35885205366729
 30
0.0
 11
480.3271171784722
 21
66.2013619209788
 31
0.0
  0
LINE
  5
2CF
330
2
100
AcDbEntity
  8
0
370
    -3
100
AcDbLine
 10
481.8242769551006
 20
65.57052876243665
 30
0.0
 11
481.63133671184
 21
65.45914673077459
 31
0.0
  0
LINE
  5
2D0
330
2
100
AcDbEntity
  8
0
370
    -3
100
AcDbLine
 10
488.3066396325331
 20
58.2706775892575
 30
0.0
 11
488.3224017433999
 21
58.26157831606678
 31
0.0
  0
LINE
  5
2D1
330
2
100
AcDbEntity
  8
0
370
    -3
100
AcDbLine
 10
490.386532974588
 20
64.12886260110552
 30
0.0
 11
490.8864842126818
 21
63.84024689451734
 31
0.0
  0
LINE
  5
2D2
330
2
100
AcDbEntity
  8
0
370
    -3
100
AcDbLine
 10
488.549875371435
 20
63.06858273571243
 30
0.0
 11
489.0498266095282
 21
62.77996702912446
 31
0.0
  0
LINE
  5
2D3
330
2
100
AcDbEntity
  8
0
370
    -3
100
AcDbLine
 10
512.8394732431379
 20
51.0914243956761
 30
0.0
 11
513.138479956448
 21
51.26403729729394
 31
0.0
  0
LWPOLYLINE
  5
2D4
330
2
100
AcDbEntity
  8
0
370
    -3
100
AcDbPolyline
 90
        7
 70
   128
 43
0.0
 10
499.2181554338666
 20
54.70221577661572
 10
499.9063590742448
 20
54.96767660809837
 10
500.7181604011225
 20
55.06089873676614
 10
501.5299384450935
 20
54.96767176936646
 10
502.2181662989309
 20
54.70222169085719
 10
502.6779891448541
 20
54.30491620734528
 10
502.8394804866912
 20
53.83628671802103
  0
LWPOLYLINE
  5
2D5
330
2
100
AcDbEntity
  8
0
370
    -3
100
AcDbPolyline
 90
        3
 70
   128
 43
0.0
 10
498.5968310022493
 20
53.83628134118065
 10
498.7583139613348
 20
54.30492427189824
 10
499.2181554338666
 20
54.70221577661572
  0
LWPOLYLINE
  5
2D6
330
2
100
AcDbEntity
  8
0
370
    -3
100
AcDbPolyline
 90
        7
 70
   128
 43
0.0
 10
509.2181556410974
 20
48.92933853680688
 10
509.9063602120286
 20
49.19479883018062
 10
510.7181606076465
 20
49.28802149624993
 10
511.5299386516181
 20
49.19479452955715
 10
512.2181674374219
 20
48.92934391293965
 10
512.6779893520856
 20
48.53203896682908
 10
512.8394806932154
 20
48.06340947750459
  0
LWPOLYLINE
  5
2D7
330
2
100
AcDbEntity
  8
0
370
    -3
100
AcDbPolyline
 90
        3
 70
   128
 43
0.0
 10
508.5968312087739
 20
48.0634041006649
 10
508.7583150998262
 20
48.53204649398117
 10
509.2181556410974
 20
48.92933853680688
  0
LINE
  5
2D8
330
2
100
AcDbEntity
  8
0
370
    -3
100
AcDbLine
 10
937.2731736280494
 20
233.2563443077099
 30
0.0
 11
937.0874855938712
 21
233.1491488871882
 31
0.0
  0
LINE
  5
2D9
330
2
100
AcDbEntity
  8
0
370
    -3
100
AcDbLine
 10
938.4345850827315
 20
233.9991649531719
 30
0.0
 11
936.6703387441367
 21
232.980687220864
 31
0.0
  0
LWPOLYLINE
  5
2DA
330
2
100
AcDbEntity
  8
0
370
    -3
100
AcDbPolyline
 90
       13
 70
   128
 43
0.0
 10
613.1875031231725
 20
179.3177211754653
 10
613.8062124011582
 20
179.4939799944507
 10
614.5968531465754
 20
179.3163509506503
 10
615.1171719161416
 20
178.681545101284
 10
615.2879839340902
 20
177.6862225870288
 10
615.0832568715253
 20
176.481896225272
 10
614.5341788601927
 20
175.2519255509976
 10
613.7243305170735
 20
174.1835558681985
 10
612.777018955145
 20
173.4394451961614
 10
611.8364427192403
 20
173.1328658200331
 10
611.0458168746845
 20
173.3105034664951
 10
610.5254832042573
 20
173.9453007131994
 10
610.3862616491015
 20
174.4504212704887
  0
LWPOLYLINE
  5
2DB
330
2
100
AcDbEntity
  8
0
370
    -3
100
AcDbPolyline
 90
       14
 70
   128
 43
0.0
 10
514.2358052391728
 20
122.1801524577545
 10
514.3802790797492
 20
122.2143032542766
 10
515.1981911881147
 20
122.3206895106325
 10
515.8767602959524
 20
121.9240283576966
 10
516.2424348072295
 20
121.1068795426272
 10
516.2394843771876
 20
119.9936120230218
 10
515.8684156457369
 20
118.7537438177266
 10
515.1856742124382
 20
117.5760070536228
 10
514.2952403856711
 20
116.6397238208565
 10
513.3326551334703
 20
116.0874236786394
 10
512.4444564812343
 20
116.0031850096729
 10
511.7658873733967
 20
116.3998461626092
 10
511.4646468399375
 20
117.1411776293015
 10
511.4074343376628
 20
117.3063048104452
  0
LWPOLYLINE
  5
2DC
330
2
100
AcDbEntity
  8
0
370
    -3
100
AcDbPolyline
 90
        9
 70
   128
 43
0.0
 10
836.9188919986696
 20
313.720452931569
 10
833.7736340504179
 20
311.9725924162681
 10
830.9942475752855
 20
310.0293147972247
 10
828.6166982869708
 20
307.9158035410787
 10
826.6719821142732
 20
305.6596125517892
 10
825.1854477976522
 20
303.2901540227465
 10
824.1764780229367
 20
300.8383186624282
 10
823.6582258585881
 20
298.3360676209386
 10
823.5967045494588
 20
297.5160735417028
  0
ARC
  5
2DD
330
2
100
AcDbEntity
  8
0
370
    -3
100
AcDbCircle
 10
885.882617075611
 20
374.5473027963202
 30
0.0
 40
1.129259756803159
100
AcDbArc
 50
73.74806224229981
 51
163.4335822801196
  0
LWPOLYLINE
  5
2DE
330
2
100
AcDbEntity
  8
0
370
    -3
100
AcDbPolyline
 90
        3
 70
   128
 43
0.0
 10
921.221804148805
 20
245.403017147323
 10
921.2376440838479
 20
246.8761430125482
 10
921.208102530924
 20
247.5502911896044
  0
POLYLINE
  5
2DF
330
2
100
AcDbEntity
  8
0
370
    -3
100
AcDb2dPolyline
 66
     1
 10
0.0
 20
0.0
 30
0.0
 70
     2
  0
VERTEX
  5
2E0
330
2DF
100
AcDbEntity
  8
0
370
    -3
100
AcDbVertex
100
AcDb2dVertex
 10
802.9593802955776
 20
252.2191964904839
 30
0.0
 42
0.3104959835272634
 70
     2
 50
261.4360159025713
  0
VERTEX
  5
2E1
330
2DF
100
AcDbEntity
  8
0
370
    -3
100
AcDbVertex
100
AcDb2dVertex
 10
816.6532474972481
 20
224.061245232546
 30
0.0
 42
0.1616261703680311
 70
     1
 50
261.4360159025713
  0
VERTEX
  5
2E2
330
2DF
100
AcDbEntity
  8
0
370
    -3
100
AcDbVertex
100
AcDb2dVertex
 10
871.8755093379202
 20
213.1225886850801
 30
0.0
 42
0.1166940143814098
  0
VERTEX
  5
2E3
330
2DF
100
AcDbEntity
  8
0
370
    -3
100
AcDbVertex
100
AcDb2dVertex
 10
910.1315329167123
 20
227.4029483258355
 30
0.0
 42
0.2270008594082707
 70
     1
  0
VERTEX
  5
2E4
330
2DF
100
AcDbEntity
  8
0
370
    -3
100
AcDbVertex
100
AcDb2dVertex
 10
921.2297241163264
 20
246.1395800799356
 30
0.0
 70
     2
 50
84.93955157275191
  0
SEQEND
  5
2E5
330
2DF
100
AcDbEntity
  8
0
370
    -3
  0
LWPOLYLINE
  5
2E6
330
2
100
AcDbEntity
  8
0
370
    -3
100
AcDbPolyline
 90
       35
 70
   128
 43
0.0
 10
802.9593802955776
 20
252.2191964904839
 10
803.2714005966585
 20
253.6738465628616
 10
804.4451036473278
 20
256.767703356323
 10
806.1082949628666
 20
259.7858430788572
 10
808.2467830495712
 20
262.7025202472235
 10
810.8423242285553
 20
265.4928458429233
 10
813.8727730451419
 20
268.1330160746863
 10
817.312272025928
 20
270.6005079472472
 10
821.1314839258966
 20
272.874264949005
 10
825.2978179248152
 20
274.93489214633
 10
829.7757339377199
 20
276.7648060548506
 10
834.5270196798697
 20
278.3483988869334
 10
839.5111472522319
 20
279.6721540752583
 10
844.6855906006192
 20
280.7247822324839
 10
850.0062031708266
 20
281.4973015266687
 10
855.4275885733172
 20
281.9831226281324
 10
860.9034991892348
 20
282.1780960233859
 10
866.387212426885
 20
282.0805636261532
 10
871.8319442243606
 20
281.6913523299668
 10
877.1912420729522
 20
281.0137879813106
 10
882.4193798959854
 20
280.053648071342
 10
887.4717603770486
 20
278.8191251770566
 10
892.3052697996237
 20
277.3207511481264
 10
896.8786743196428
 20
275.5713102840791
 10
901.1529587375319
 20
273.5857297864841
 10
905.0916481533233
 20
271.3809456872598
 10
908.6611459170416
 20
268.9757722651361
 10
911.8309932401421
 20
266.3907263748654
 10
914.5741537105402
 20
263.6478674989567
 10
916.8672134116228
 20
260.770591896154
 10
918.6906164312359
 20
257.7834493342
 10
920.028804094557
 20
254.7119250767844
 10
920.8703621101912
 20
251.5822259017116
 10
921.208102530924
 20
248.4210499906624
 10
921.215147054958
 20
247.8930197609896
  0
LWPOLYLINE
  5
2E7
330
2
100
AcDbEntity
  8
0
370
    -3
100
AcDbPolyline
 90
        9
 70
   128
 43
0.0
 10
658.1935935666516
 20
193.2744976898576
 10
658.8663199625147
 20
194.0949269287005
 10
659.2672673869324
 20
195.4402948239946
 10
659.2672673869324
 20
197.0836941838129
 10
658.8663199625147
 20
198.8919863902586
 10
658.0969077847558
 20
200.718674128901
 10
657.0213642749576
 20
202.4157701518606
 10
655.7268221156108
 20
203.8457859966147
 10
655.4363080667313
 20
204.061730102624
  0
POLYLINE
  5
2E8
330
2
100
AcDbEntity
  8
0
370
    -3
100
AcDb2dPolyline
 66
     1
 10
0.0
 20
0.0
 30
0.0
 70
     4
 75
     6
  0
VERTEX
  5
2E9
330
2E8
100
AcDbEntity
  8
0
370
    -3
100
AcDbVertex
100
AcDb2dVertex
 10
651.8181598215768
 20
200.5900762249719
 30
0.0
 70
    16
  0
VERTEX
  5
2EA
330
2E8
100
AcDbEntity
  8
0
370
    -3
100
AcDbVertex
100
AcDb2dVertex
 10
651.8181598215768
 20
200.5900762249719
 30
0.0
 70
     8
  0
VERTEX
  5
2EB
330
2E8
100
AcDbEntity
  8
0
370
    -3
100
AcDbVertex
100
AcDb2dVertex
 10
665.4017178647891
 20
225.3214214097696
 30
0.0
 70
     8
  0
VERTEX
  5
2EC
330
2E8
100
AcDbEntity
  8
0
370
    -3
100
AcDbVertex
100
AcDb2dVertex
 10
675.9161199190518
 20
243.7014598178974
 30
0.0
 70
     8
  0
VERTEX
  5
2ED
330
2E8
100
AcDbEntity
  8
0
370
    -3
100
AcDbVertex
100
AcDb2dVertex
 10
684.1363238248804
 20
256.4124927583879
 30
0.0
 70
     8
  0
VERTEX
  5
2EE
330
2E8
100
AcDbEntity
  8
0
370
    -3
100
AcDbVertex
100
AcDb2dVertex
 10
690.83728742279
 20
264.1368215402736
 30
0.0
 70
     8
  0
VERTEX
  5
2EF
330
2E8
100
AcDbEntity
  8
0
370
    -3
100
AcDbVertex
100
AcDb2dVertex
 10
696.7939685532956
 20
267.5567474725872
 30
0.0
 70
     8
  0
VERTEX
  5
2F0
330
2E8
100
AcDbEntity
  8
0
370
    -3
100
AcDbVertex
100
AcDb2dVertex
 10
702.781325056913
 20
267.3545718643615
 30
0.0
 70
     8
  0
VERTEX
  5
2F1
330
2E8
100
AcDbEntity
  8
0
370
    -3
100
AcDbVertex
100
AcDb2dVertex
 10
709.5743147741568
 20
264.2125960246286
 30
0.0
 70
     8
  0
VERTEX
  5
2F2
330
2E8
100
AcDbEntity
  8
0
370
    -3
100
AcDbVertex
100
AcDb2dVertex
 10
717.9478955455428
 20
258.8131212624217
 30
0.0
 70
     8
  0
VERTEX
  5
2F3
330
2E8
100
AcDbEntity
  8
0
370
    -3
100
AcDbVertex
100
AcDb2dVertex
 10
692.8220406691999
 20
275.6152291391326
 30
0.0
 70
    16
  0
VERTEX
  5
2F4
330
2E8
100
AcDbEntity
  8
0
370
    -3
100
AcDbVertex
100
AcDb2dVertex
 10
717.9478955455428
 20
258.8131212624217
 30
0.0
 70
    18
 50
285.1969311669516
  0
SEQEND
  5
2F5
330
2E8
100
AcDbEntity
  8
0
370
    -3
  0
POLYLINE
  5
2F6
330
2
100
AcDbEntity
  8
0
370
    -3
100
AcDb2dPolyline
 66
     1
 10
0.0
 20
0.0
 30
0.0
  0
VERTEX
  5
2F7
330
2F6
100
AcDbEntity
  8
0
370
    -3
100
AcDbVertex
100
AcDb2dVertex
 10
717.9478955455428
 20
258.8131212624217
 30
0.0
  0
VERTEX
  5
2F8
330
2F6
100
AcDbEntity
  8
0
370
    -3
100
AcDbVertex
100
AcDb2dVertex
 10
737.4105226791423
 20
309.8566779591311
 30
0.0
  0
VERTEX
  5
2F9
330
2F6
100
AcDbEntity
  8
0
370
    -3
100
AcDbVertex
100
AcDb2dVertex
 10
752.8652483772116
 20
347.7571518280559
 30
0.0
  0
VERTEX
  5
2FA
330
2F6
100
AcDbEntity
  8
0
370
    -3
100
AcDbVertex
100
AcDb2dVertex
 10
765.7943377604538
 20
373.8898429054132
 30
0.0
  0
VERTEX
  5
2FB
330
2F6
100
AcDbEntity
  8
0
370
    -3
100
AcDbVertex
100
AcDb2dVertex
 10
777.680055949571
 20
389.6300512274203
 30
0.0
  0
VERTEX
  5
2FC
330
2F6
100
AcDbEntity
  8
0
370
    -3
100
AcDbVertex
100
AcDb2dVertex
 10
790.0046680652672
 20
396.3530768302943
 30
0.0
  0
VERTEX
  5
2FD
330
2F6
100
AcDbEntity
  8
0
370
    -3
100
AcDbVertex
100
AcDb2dVertex
 10
804.2504392282443
 20
395.4342197502525
 30
0.0
  0
VERTEX
  5
2FE
330
2F6
100
AcDbEntity
  8
0
370
    -3
100
AcDbVertex
100
AcDb2dVertex
 10
821.8996345592056
 20
388.2487800235121
 30
0.0
  0
VERTEX
  5
2FF
330
2F6
100
AcDbEntity
  8
0
370
    -3
100
AcDbVertex
100
AcDb2dVertex
 10
844.414940581483
 20
376.1825500978645
 30
0.0
  0
SEQEND
  5
300
330
2F6
100
AcDbEntity
  8
0
370
    -3
  0
LINE
  5
301
330
2
100
AcDbEntity
  8
0
370
    -3
100
AcDbLine
 10
665.3899146058828
 20
225.2999314239069
 30
0.0
 11
651.6716888511178
 21
233.2192945836441
 31
0.0
  0
POLYLINE
  5
302
330
2
100
AcDbEntity
  8
0
370
    -3
100
AcDb2dPolyline
 66
     1
 10
0.0
 20
0.0
 30
0.0
  0
VERTEX
  5
303
330
302
100
AcDbEntity
  8
0
370
    -3
100
AcDbVertex
100
AcDb2dVertex
 10
651.8181598215769
 20
197.474231238481
 30
0.0
  0
VERTEX
  5
304
330
302
100
AcDbEntity
  8
0
370
    -3
100
AcDbVertex
100
AcDb2dVertex
 10
666.7101943731823
 20
224.5878965850743
 30
0.0
  0
VERTEX
  5
305
330
302
100
AcDbEntity
  8
0
370
    -3
100
AcDbVertex
100
AcDb2dVertex
 10
677.1978566997053
 20
242.9211917528028
 30
0.0
  0
VERTEX
  5
306
330
302
100
AcDbEntity
  8
0
370
    -3
100
AcDbVertex
100
AcDb2dVertex
 10
685.3385594725887
 20
255.5092908182644
 30
0.0
  0
VERTEX
  5
307
330
302
100
AcDbEntity
  8
0
370
    -3
100
AcDbVertex
100
AcDb2dVertex
 10
691.8041253467447
 20
262.9622721459798
 30
0.0
  0
VERTEX
  5
308
330
302
100
AcDbEntity
  8
0
370
    -3
100
AcDbVertex
100
AcDb2dVertex
 10
697.1703262979842
 20
266.043184047939
 30
0.0
  0
VERTEX
  5
309
330
302
100
AcDbEntity
  8
0
370
    -3
100
AcDbVertex
100
AcDb2dVertex
 10
702.4272231627632
 20
265.8656739363605
 30
0.0
  0
VERTEX
  5
30A
330
302
100
AcDbEntity
  8
0
370
    -3
100
AcDbVertex
100
AcDb2dVertex
 10
708.8494986252677
 20
262.8951653415846
 30
0.0
  0
VERTEX
  5
30B
330
302
100
AcDbEntity
  8
0
370
    -3
100
AcDbVertex
100
AcDb2dVertex
 10
716.1674594420125
 20
258.1763782635574
 30
0.0
  0
SEQEND
  5
30C
330
302
100
AcDbEntity
  8
0
370
    -3
  0
POLYLINE
  5
30D
330
2
100
AcDbEntity
  8
0
370
    -3
100
AcDb2dPolyline
 66
     1
 10
0.0
 20
0.0
 30
0.0
  0
VERTEX
  5
30E
330
30D
100
AcDbEntity
  8
0
370
    -3
100
AcDbVertex
100
AcDb2dVertex
 10
719.8067104139842
 20
259.4778951070534
 30
0.0
  0
VERTEX
  5
30F
330
30D
100
AcDbEntity
  8
0
370
    -3
100
AcDbVertex
100
AcDb2dVertex
 10
738.8059727242032
 20
309.3062104865905
 30
0.0
  0
VERTEX
  5
310
330
30D
100
AcDbEntity
  8
0
370
    -3
100
AcDbVertex
100
AcDb2dVertex
 10
754.2337411328367
 20
347.1405755119284
 30
0.0
  0
VERTEX
  5
311
330
30D
100
AcDbEntity
  8
0
370
    -3
100
AcDbVertex
100
AcDb2dVertex
 10
767.0763050920942
 20
373.0983786208991
 30
0.0
  0
VERTEX
  5
312
330
30D
100
AcDbEntity
  8
0
370
    -3
100
AcDbVertex
100
AcDb2dVertex
 10
778.6822480533341
 20
388.468081744982
 30
0.0
  0
VERTEX
  5
313
330
30D
100
AcDbEntity
  8
0
370
    -3
100
AcDbVertex
100
AcDb2dVertex
 10
790.3416278413109
 20
394.8282258284109
 30
0.0
  0
VERTEX
  5
314
330
30D
100
AcDbEntity
  8
0
370
    -3
100
AcDbVertex
100
AcDb2dVertex
 10
803.910614768953
 20
393.953021561487
 30
0.0
  0
VERTEX
  5
315
330
30D
100
AcDbEntity
  8
0
370
    -3
100
AcDbVertex
100
AcDb2dVertex
 10
821.2607917729869
 20
386.8893198587776
 30
0.0
  0
VERTEX
  5
316
330
30D
100
AcDbEntity
  8
0
370
    -3
100
AcDbVertex
100
AcDb2dVertex
 10
843.782381614776
 20
374.8197223568258
 30
0.0
  0
SEQEND
  5
317
330
30D
100
AcDbEntity
  8
0
370
    -3
  0
ENDSEC
  0
SECTION
  2
OBJECTS
  0
DICTIONARY
  5
B
330
0
100
AcDbDictionary
281
     1
  3
ACAD_COLOR
350
34E
  3
ACAD_GROUP
350
339
  3
ACAD_LAYOUT
350
31A
  3
ACAD_MATERIAL
350
D
  3
ACAD_MLEADERSTYLE
350
351
  3
ACAD_MLINESTYLE
350
33A
  3
ACAD_PLOTSETTINGS
350
33B
  3
ACAD_PLOTSTYLENAME
350
A
  3
ACAD_SCALELIST
350
34F
  3
ACAD_TABLESTYLE
350
350
  3
ACAD_VISUALSTYLE
350
332
  3
ACDB_RECOMPOSE_DATA
350
387
  3
AcDbVariableDictionary
350
379
  0
DICTIONARY
  5
325
330
324
100
AcDbDictionary
280
     1
281
     1
  3
ACAD_LAYERSTATES
360
326
  0
DICTIONARY
  5
7
330
6
100
AcDbDictionary
280
     1
281
     1
  3
ADSK_XREC_LAYER_RECONCILED
360
8
  0
DICTIONARY
  5
3
330
2
100
AcDbDictionary
280
     1
281
     1
  3
ACAD_SORTENTS
360
378
  0
DICTIONARY
  5
34E
102
{ACAD_REACTORS
330
B
102
}
330
B
100
AcDbDictionary
281
     1
  0
DICTIONARY
  5
339
102
{ACAD_REACTORS
330
B
102
}
330
B
100
AcDbDictionary
281
     1
  0
DICTIONARY
  5
31A
102
{ACAD_REACTORS
330
B
102
}
330
B
100
AcDbDictionary
281
     1
  3
Layout1
350
31F
  3
Layout2
350
323
  3
Model
350
319
  0
DICTIONARY
  5
D
102
{ACAD_REACTORS
330
B
102
}
330
B
100
AcDbDictionary
281
     1
  3
ByBlock
350
345
  3
ByLayer
350
33C
  3
Global
350
C
  0
DICTIONARY
  5
351
102
{ACAD_REACTORS
330
B
102
}
330
B
100
AcDbDictionary
281
     1
  0
DICTIONARY
  5
33A
102
{ACAD_REACTORS
330
B
102
}
330
B
100
AcDbDictionary
281
     1
  3
Standard
350
352
  0
DICTIONARY
  5
33B
102
{ACAD_REACTORS
330
B
102
}
330
B
100
AcDbDictionary
281
     1
  0
ACDBDICTIONARYWDFLT
  5
A
102
{ACAD_REACTORS
330
B
102
}
330
B
100
AcDbDictionary
281
     1
  3
Normal
350
9
100
AcDbDictionaryWithDefault
340
9
  0
DICTIONARY
  5
34F
102
{ACAD_REACTORS
330
B
102
}
330
B
100
AcDbDictionary
281
     1
  3
A0
350
357
  3
A1
350
358
  3
A2
350
359
  3
A3
350
35A
  3
A4
350
35B
  3
A5
350
35C
  3
A6
350
35D
  3
A7
350
35E
  3
A8
350
35F
  3
A9
350
360
  3
B0
350
361
  3
B1
350
362
  3
B2
350
363
  3
B3
350
364
  3
B4
350
365
  3
B5
350
366
  3
B6
350
367
  3
B7
350
368
  3
B8
350
369
  3
B9
350
36A
  3
C0
350
36B
  3
C1
350
36C
  3
C2
350
36D
  3
C3
350
36E
  3
C4
350
36F
  3
C5
350
370
  3
C6
350
371
  3
C7
350
372
  3
C8
350
373
  3
C9
350
374
  3
D0
350
375
  3
D1
350
376
  3
D2
350
377
  0
DICTIONARY
  5
350
102
{ACAD_REACTORS
330
B
102
}
330
B
100
AcDbDictionary
281
     1
  3
Standard
350
353
  0
DICTIONARY
  5
332
102
{ACAD_REACTORS
330
B
102
}
330
B
100
AcDbDictionary
281
     1
  3
2dWireframe
350
331
  3
Realistic
350
355
  3
Wireframe
350
356
  0
XRECORD
  5
387
102
{ACAD_REACTORS
330
B
102
}
330
B
100
AcDbXrecord
280
     1
 90
        1
330
353
  0
DICTIONARY
  5
379
102
{ACAD_REACTORS
330
B
102
}
330
B
100
AcDbDictionary
281
     1
  3
CANNOSCALE
350
37E
  3
CMLEADERSTYLE
350
37B
  3
CTABLESTYLE
350
37A
  3
CVIEWDETAILSTYLE
350
37C
  3
CVIEWSECTIONSTYLE
350
37D
  3
DIMASSOC
350
382
  3
HIDETEXT
350
381
  3
INDEXCTL
350
380
  3
PSOLHEIGHT
350
384
  3
PSOLWIDTH
350
383
  3
SORTENTS
350
37F
  3
XCLIPFRAME
350
385
  0
DICTIONARY
  5
326
102
{ACAD_REACTORS
330
325
102
}
330
325
100
AcDbDictionary
281
     1
  0
XRECORD
  5
8
102
{ACAD_REACTORS
330
7
102
}
330
7
100
AcDbXrecord
280
     1
290
     1
  0
SORTENTSTABLE
  5
378
102
{ACAD_REACTORS
330
3
102
}
330
3
100
AcDbSortentsTable
330
2
331
3F
  5
40
331
3B
  5
3C
331
37
  5
38
331
76
  5
77
331
33
  5
34
331
72
  5
73
331
12F
  5
133
331
B5
  5
B7
331
B1
  5
B3
331
12B
  5
12F
331
166
  5
16A
331
AD
  5
AF
331
EC
  5
EE
331
294
  5
298
331
127
  5
12B
331
162
  5
166
331
A9
  5
AB
331
E8
  5
EA
331
290
  5
294
331
2CF
  5
2D3
331
123
  5
127
331
28C
  5
290
331
2CB
  5
2CF
331
302
  5
301
331
288
  5
28C
331
1A5
  5
1A9
331
21F
  5
223
331
1A1
  5
1A5
331
21B
  5
21F
331
1DC
  5
1E0
331
217
  5
21B
331
256
  5
25A
331
19D
  5
1A1
331
1D8
  5
1DC
331
213
  5
217
331
252
  5
256
331
199
  5
19D
331
6E
  5
6F
331
2F
  5
30
331
2B
  5
2C
331
6A
  5
6B
331
27
  5
28
331
66
  5
67
331
23
  5
24
331
62
  5
63
331
E4
  5
E6
331
11F
  5
123
331
15E
  5
162
331
A5
  5
A7
331
A1
  5
A3
331
E0
  5
E2
331
2C7
  5
2CB
331
11B
  5
11E
331
15A
  5
15E
331
9D
  5
9F
331
DC
  5
DE
331
284
  5
288
331
2C3
  5
2C7
331
117
  5
11A
331
156
  5
15A
331
152
  5
156
331
99
  5
9B
331
D8
  5
DA
331
280
  5
284
331
2BF
  5
2C3
331
113
  5
116
331
27C
  5
280
331
2BB
  5
2BF
331
2F6
  5
302
331
278
  5
27C
331
195
  5
199
331
1D4
  5
1D8
331
20F
  5
213
331
24E
  5
252
331
24A
  5
24E
331
191
  5
195
331
1D0
  5
1D4
331
20B
  5
20F
331
207
  5
20B
331
246
  5
24A
331
18D
  5
191
331
1CC
  5
1D0
331
1C8
  5
1CC
331
203
  5
207
331
242
  5
246
331
189
  5
18D
331
5E
  5
5F
331
1F
  5
20
331
1B
  5
1C
331
5A
  5
5B
331
56
  5
57
331
52
  5
53
331
D4
  5
D6
331
10F
  5
111
331
14E
  5
152
331
95
  5
96
331
D0
  5
D2
331
2B7
  5
2BB
331
10B
  5
10D
331
14A
  5
14E
331
91
  5
92
331
8D
  5
8E
331
CC
  5
CE
331
2B3
  5
2B7
331
107
  5
109
331
146
  5
14A
331
274
  5
278
331
142
  5
146
331
89
  5
8A
331
C8
  5
CA
331
270
  5
274
331
2AF
  5
2B3
331
103
  5
105
331
26C
  5
270
331
2AB
  5
2AF
331
2E6
  5
115
331
268
  5
26C
331
185
  5
189
331
1C4
  5
1C8
331
1FF
  5
203
331
23E
  5
242
331
23A
  5
23E
331
181
  5
185
331
1C0
  5
1C4
331
1FB
  5
1FF
331
1F7
  5
1FB
331
236
  5
23A
331
17D
  5
181
331
1BC
  5
1C0
331
1B8
  5
1BC
331
1F3
  5
1F7
331
232
  5
236
331
179
  5
17D
331
4E
  5
4F
331
4A
  5
4B
331
46
  5
47
331
42
  5
43
331
FF
  5
101
331
13E
  5
142
331
85
  5
86
331
C4
  5
C6
331
C0
  5
C2
331
FB
  5
FD
331
13A
  5
13E
331
81
  5
82
331
2A7
  5
2AB
331
7D
  5
7E
331
BC
  5
BE
331
2A3
  5
2A7
331
F7
  5
F9
331
136
  5
13A
331
2DE
  5
2E7
331
264
  5
268
331
132
  5
136
331
79
  5
7A
331
B8
  5
BA
331
260
  5
264
331
29F
  5
2A3
331
2DA
  5
2DE
331
F3
  5
F5
331
25C
  5
260
331
29B
  5
29F
331
2D6
  5
2DA
331
2D2
  5
2D6
331
258
  5
25C
331
175
  5
179
331
1B4
  5
1B8
331
1EF
  5
1F3
331
22E
  5
232
331
22A
  5
22E
331
171
  5
175
331
1B0
  5
1B4
331
1EB
  5
1EF
331
226
  5
22A
331
16D
  5
171
331
1AC
  5
1B0
331
1E7
  5
1EB
331
1A8
  5
1AC
331
1E3
  5
1E7
331
222
  5
226
331
169
  5
16D
331
3E
  5
3F
331
3A
  5
3B
331
36
  5
37
331
75
  5
76
331
71
  5
72
331
32
  5
33
331
12E
  5
132
331
B4
  5
B6
331
B0
  5
B2
331
EF
  5
F1
331
12A
  5
12E
331
297
  5
29B
331
165
  5
169
331
AC
  5
AE
331
EB
  5
ED
331
293
  5
297
331
126
  5
12A
331
122
  5
126
331
161
  5
165
331
A8
  5
AA
331
28F
  5
293
331
2CE
  5
2D2
331
28B
  5
28F
331
2CA
  5
2CE
331
301
  5
19
331
1A4
  5
1A8
331
21E
  5
222
331
1A0
  5
1A4
331
1DF
  5
1E3
331
21A
  5
21E
331
1DB
  5
1DF
331
216
  5
21A
331
255
  5
259
331
19C
  5
1A0
331
198
  5
19C
331
212
  5
216
331
251
  5
255
331
6D
  5
6E
331
2E
  5
2F
331
2A
  5
2B
331
69
  5
6A
331
26
  5
27
331
65
  5
66
331
22
  5
23
331
61
  5
62
331
E7
  5
E9
331
E3
  5
E5
331
11E
  5
122
331
15D
  5
161
331
A4
  5
A6
331
A0
  5
A2
331
DF
  5
E1
331
2C6
  5
2CA
331
11A
  5
11D
331
159
  5
15D
331
287
  5
28B
331
155
  5
159
331
9C
  5
9E
331
DB
  5
DD
331
283
  5
287
331
2C2
  5
2C6
331
116
  5
119
331
151
  5
155
331
98
  5
9A
331
27F
  5
283
331
2BE
  5
2C2
331
112
  5
114
331
27B
  5
27F
331
2BA
  5
2BE
331
1D7
  5
1DB
331
194
  5
198
331
1D3
  5
1D7
331
20E
  5
212
331
24D
  5
251
331
249
  5
24D
331
190
  5
194
331
1CF
  5
1D3
331
20A
  5
20E
331
1CB
  5
1CF
331
206
  5
20A
331
245
  5
249
331
18C
  5
190
331
202
  5
206
331
241
  5
245
331
188
  5
18C
331
5D
  5
5E
331
1E
  5
1F
331
1A
  5
1B
331
59
  5
5A
331
55
  5
56
331
51
  5
52
331
D7
  5
D9
331
D3
  5
D5
331
10E
  5
110
331
14D
  5
151
331
94
  5
95
331
90
  5
91
331
CF
  5
D1
331
2B6
  5
2BA
331
10A
  5
10C
331
149
  5
14D
331
277
  5
27B
331
8C
  5
8D
331
CB
  5
CD
331
273
  5
277
331
2B2
  5
2B6
331
106
  5
108
331
145
  5
149
331
141
  5
145
331
88
  5
89
331
26F
  5
273
331
2AE
  5
2B2
331
102
  5
104
331
26B
  5
26F
331
2AA
  5
2AE
331
1C7
  5
1CB
331
184
  5
188
331
1C3
  5
1C7
331
1FE
  5
202
331
23D
  5
241
331
239
  5
23D
331
180
  5
184
331
1BF
  5
1C3
331
1FA
  5
1FE
331
1F6
  5
1FA
331
235
  5
239
331
17C
  5
180
331
1BB
  5
1BF
331
1F2
  5
1F6
331
231
  5
235
331
178
  5
17C
331
4D
  5
4E
331
49
  5
4A
331
45
  5
46
331
41
  5
42
331
C7
  5
C9
331
C3
  5
C5
331
FE
  5
100
331
13D
  5
141
331
84
  5
85
331
BF
  5
C1
331
2A6
  5
2AA
331
FA
  5
FC
331
139
  5
13D
331
267
  5
26B
331
80
  5
81
331
7C
  5
7D
331
BB
  5
BD
331
2A2
  5
2A6
331
F6
  5
F8
331
135
  5
139
331
2DD
  5
2E6
331
263
  5
267
331
131
  5
135
331
78
  5
79
331
25F
  5
263
331
29E
  5
2A2
331
2D9
  5
2DD
331
F2
  5
F4
331
25B
  5
25F
331
29A
  5
29E
331
2D5
  5
2D9
331
2D1
  5
2D5
331
1B7
  5
1BB
331
174
  5
178
331
1B3
  5
1B7
331
1EE
  5
1F2
331
22D
  5
231
331
229
  5
22D
331
170
  5
174
331
1AF
  5
1B3
331
1EA
  5
1EE
331
1E6
  5
1EA
331
225
  5
229
331
16C
  5
170
331
1AB
  5
1AF
331
1E2
  5
1E6
331
221
  5
225
331
168
  5
16C
331
3D
  5
3E
331
39
  5
3A
331
35
  5
36
331
74
  5
75
331
70
  5
71
331
31
  5
32
331
B7
  5
B9
331
12D
  5
131
331
B3
  5
B5
331
AF
  5
B1
331
EE
  5
F0
331
129
  5
12D
331
296
  5
29A
331
164
  5
168
331
AB
  5
AD
331
EA
  5
EC
331
292
  5
296
331
125
  5
129
331
121
  5
125
331
160
  5
164
331
28E
  5
292
331
2CD
  5
2D1
331
28A
  5
28E
331
2C9
  5
2CD
331
1A7
  5
1AB
331
1A3
  5
1A7
331
21D
  5
221
331
219
  5
21D
331
19F
  5
1A3
331
1DE
  5
1E2
331
1DA
  5
1DE
331
215
  5
219
331
254
  5
258
331
19B
  5
19F
331
211
  5
215
331
250
  5
254
331
2D
  5
2E
331
6C
  5
6D
331
29
  5
2A
331
68
  5
69
331
25
  5
26
331
64
  5
65
331
60
  5
61
331
21
  5
22
331
A7
  5
A9
331
E6
  5
E8
331
E2
  5
E4
331
11D
  5
120
331
15C
  5
160
331
A3
  5
A5
331
9F
  5
A1
331
DE
  5
E0
331
2C5
  5
2C9
331
119
  5
11C
331
158
  5
15C
331
286
  5
28A
331
154
  5
158
331
9B
  5
9D
331
DA
  5
DC
331
282
  5
286
331
2C1
  5
2C5
331
115
  5
118
331
111
  5
113
331
150
  5
154
331
27E
  5
282
331
2BD
  5
2C1
331
27A
  5
27E
331
2B9
  5
2BD
331
197
  5
19B
331
1D6
  5
1DA
331
24C
  5
250
331
193
  5
197
331
1D2
  5
1D6
331
20D
  5
211
331
248
  5
24C
331
18F
  5
193
331
1CE
  5
1D2
331
209
  5
20D
331
1CA
  5
1CE
331
205
  5
209
331
244
  5
248
331
18B
  5
18F
331
201
  5
205
331
240
  5
244
331
5C
  5
5D
331
1D
  5
1E
331
19
  5
1A
331
58
  5
59
331
54
  5
55
331
50
  5
51
331
97
  5
98
331
D6
  5
D8
331
D2
  5
D4
331
10D
  5
10F
331
14C
  5
150
331
93
  5
94
331
8F
  5
90
331
CE
  5
D0
331
2B5
  5
2B9
331
109
  5
10B
331
148
  5
14C
331
276
  5
27A
331
144
  5
148
331
8B
  5
8C
331
CA
  5
CC
331
272
  5
276
331
2B1
  5
2B5
331
105
  5
107
331
140
  5
144
331
26E
  5
272
331
2AD
  5
2B1
331
2E8
  5
2F6
331
101
  5
103
331
26A
  5
26E
331
2A9
  5
2AD
331
187
  5
18B
331
1C6
  5
1CA
331
183
  5
187
331
1C2
  5
1C6
331
1FD
  5
201
331
23C
  5
240
331
238
  5
23C
331
17F
  5
183
331
1BE
  5
1C2
331
1F9
  5
1FD
331
1BA
  5
1BE
331
1F5
  5
1F9
331
234
  5
238
331
17B
  5
17F
331
1F1
  5
1F5
331
230
  5
234
331
4C
  5
4D
331
48
  5
49
331
44
  5
45
331
40
  5
41
331
87
  5
88
331
C6
  5
C8
331
C2
  5
C4
331
FD
  5
FF
331
13C
  5
140
331
83
  5
84
331
7F
  5
80
331
BE
  5
C0
331
2A5
  5
2A9
331
F9
  5
FB
331
138
  5
13C
331
266
  5
26A
331
7B
  5
7C
331
BA
  5
BC
331
262
  5
266
331
2A1
  5
2A5
331
2DC
  5
121
331
F5
  5
F7
331
134
  5
138
331
130
  5
134
331
25E
  5
262
331
29D
  5
2A1
331
2D8
  5
2DC
331
F1
  5
F3
331
25A
  5
25E
331
299
  5
29D
331
2D4
  5
2D8
331
2D0
  5
2D4
331
1B6
  5
1BA
331
177
  5
17B
331
173
  5
177
331
1B2
  5
1B6
331
1ED
  5
1F1
331
22C
  5
230
331
228
  5
22C
331
16F
  5
173
331
1AE
  5
1B2
331
1E9
  5
1ED
331
1E5
  5
1E9
331
224
  5
228
331
16B
  5
16F
331
1AA
  5
1AE
331
1E1
  5
1E5
331
220
  5
224
331
3C
  5
3D
331
38
  5
39
331
77
  5
78
331
34
  5
35
331
73
  5
74
331
30
  5
31
331
B6
  5
B8
331
B2
  5
B4
331
12C
  5
130
331
AE
  5
B0
331
ED
  5
EF
331
295
  5
299
331
128
  5
12C
331
167
  5
16B
331
163
  5
167
331
AA
  5
AC
331
E9
  5
EB
331
291
  5
295
331
124
  5
128
331
120
  5
124
331
28D
  5
291
331
2CC
  5
2D0
331
2C8
  5
2CC
331
289
  5
28D
331
1A6
  5
1AA
331
1A2
  5
1A6
331
21C
  5
220
331
218
  5
21C
331
257
  5
25B
331
19E
  5
1A2
331
1DD
  5
1E1
331
1D9
  5
1DD
331
214
  5
218
331
253
  5
257
331
19A
  5
19E
331
210
  5
214
331
6F
  5
70
331
2C
  5
2D
331
6B
  5
6C
331
28
  5
29
331
67
  5
68
331
24
  5
25
331
63
  5
64
331
20
  5
21
331
E5
  5
E7
331
15F
  5
163
331
A6
  5
A8
331
E1
  5
E3
331
11C
  5
11F
331
15B
  5
15F
331
A2
  5
A4
331
9E
  5
A0
331
DD
  5
DF
331
2C4
  5
2C8
331
118
  5
11B
331
157
  5
15B
331
285
  5
289
331
153
  5
157
331
9A
  5
9C
331
D9
  5
DB
331
281
  5
285
331
2C0
  5
2C4
331
114
  5
117
331
110
  5
112
331
27D
  5
281
331
2BC
  5
2C0
331
279
  5
27D
331
2B8
  5
2BC
331
196
  5
19A
331
1D5
  5
1D9
331
24F
  5
253
331
24B
  5
24F
331
192
  5
196
331
1D1
  5
1D5
331
20C
  5
210
331
208
  5
20C
331
247
  5
24B
331
18E
  5
192
331
1CD
  5
1D1
331
1C9
  5
1CD
331
204
  5
208
331
243
  5
247
331
18A
  5
18E
331
200
  5
204
331
5F
  5
60
331
1C
  5
1D
331
5B
  5
5C
331
57
  5
58
331
53
  5
54
331
14F
  5
153
331
96
  5
97
331
D5
  5
D7
331
D1
  5
D3
331
10C
  5
10E
331
14B
  5
14F
331
92
  5
93
331
8E
  5
8F
331
CD
  5
CF
331
2B4
  5
2B8
331
108
  5
10A
331
147
  5
14B
331
275
  5
279
331
143
  5
147
331
8A
  5
8B
331
C9
  5
CB
331
271
  5
275
331
2B0
  5
2B4
331
104
  5
106
331
100
  5
102
331
26D
  5
271
331
2AC
  5
2B0
331
2E7
  5
99
331
269
  5
26D
331
2A8
  5
2AC
331
186
  5
18A
331
1C5
  5
1C9
331
23F
  5
243
331
23B
  5
23F
331
182
  5
186
331
1C1
  5
1C5
331
1FC
  5
200
331
237
  5
23B
331
17E
  5
182
331
1BD
  5
1C1
331
1F8
  5
1FC
331
1B9
  5
1BD
331
1F4
  5
1F8
331
233
  5
237
331
17A
  5
17E
331
1F0
  5
1F4
331
4F
  5
50
331
4B
  5
4C
331
47
  5
48
331
43
  5
44
331
13F
  5
143
331
86
  5
87
331
C5
  5
C7
331
C1
  5
C3
331
FC
  5
FE
331
13B
  5
13F
331
82
  5
83
331
7E
  5
7F
331
BD
  5
BF
331
2A4
  5
2A8
331
F8
  5
FA
331
137
  5
13B
331
2DF
  5
2E8
331
265
  5
269
331
133
  5
137
331
7A
  5
7B
331
B9
  5
BB
331
261
  5
265
331
2A0
  5
2A4
331
2DB
  5
2DF
331
F4
  5
F6
331
25D
  5
261
331
29C
  5
2A0
331
2D7
  5
2DB
331
F0
  5
F2
331
259
  5
25D
331
298
  5
29C
331
2D3
  5
2D7
331
176
  5
17A
331
1B5
  5
1B9
331
22F
  5
233
331
172
  5
176
331
1B1
  5
1B5
331
1EC
  5
1F0
331
22B
  5
22F
331
227
  5
22B
331
16E
  5
172
331
1AD
  5
1B1
331
1E8
  5
1EC
331
1A9
  5
1AD
331
1E4
  5
1E8
331
223
  5
227
331
16A
  5
16E
331
1E0
  5
1E4
  0
LAYOUT
  5
31F
102
{ACAD_XDICTIONARY
360
38A
102
}
102
{ACAD_REACTORS
330
31A
102
}
330
31A
100
AcDbPlotSettings
  1

  2
none_device
  4

  6

 40
0.0
 41
0.0
 42
0.0
 43
0.0
 44
0.0
 45
0.0
 46
0.0
 47
0.0
 48
0.0
 49
0.0
140
0.0
141
0.0
142
1.0
143
1.0
 70
   688
 72
     0
 73
     0
 74
     5
  7

 75
    16
147
1.0
148
0.0
149
0.0
100
AcDbLayout
  1
Layout1
 70
     1
 71
     1
 10
0.0
 20
0.0
 11
420.0
 21
297.0
 12
0.0
 22
0.0
 32
0.0
 14
1.000000000000000E+20
 24
1.000000000000000E+20
 34
1.000000000000000E+20
 15
-1.000000000000000E+20
 25
-1.000000000000000E+20
 35
-1.000000000000000E+20
146
0.0
 13
0.0
 23
0.0
 33
0.0
 16
1.0
 26
0.0
 36
0.0
 17
0.0
 27
1.0
 37
0.0
 76
     0
330
31C
  0
LAYOUT
  5
323
102
{ACAD_XDICTIONARY
360
38C
102
}
102
{ACAD_REACTORS
330
31A
102
}
330
31A
100
AcDbPlotSettings
  1

  2
none_device
  4

  6

 40
0.0
 41
0.0
 42
0.0
 43
0.0
 44
0.0
 45
0.0
 46
0.0
 47
0.0
 48
0.0
 49
0.0
140
0.0
141
0.0
142
1.0
143
1.0
 70
   688
 72
     0
 73
     0
 74
     5
  7

 75
    16
147
1.0
148
0.0
149
0.0
100
AcDbLayout
  1
Layout2
 70
     1
 71
     2
 10
0.0
 20
0.0
 11
0.0
 21
0.0
 12
0.0
 22
0.0
 32
0.0
 14
0.0
 24
0.0
 34
0.0
 15
0.0
 25
0.0
 35
0.0
146
0.0
 13
0.0
 23
0.0
 33
0.0
 16
1.0
 26
0.0
 36
0.0
 17
0.0
 27
1.0
 37
0.0
 76
     0
330
320
  0
LAYOUT
  5
319
102
{ACAD_XDICTIONARY
360
388
102
}
102
{ACAD_REACTORS
330
31A
102
}
330
31A
100
AcDbPlotSettings
  1

  2
none_device
  4
ISO_A4_(210.00_x_297.00_MM)
  6

 40
7.5
 41
20.0
 42
7.5
 43
20.0
 44
210.0
 45
297.0
 46
0.0
 47
0.0
 48
0.0
 49
0.0
140
0.0
141
0.0
142
1.0
143
0.4504876587751813
 70
 11952
 72
     1
 73
     1
 74
     0
  7

 75
     0
147
2.219816637638582
148
-296.3719805479058
149
-216.9777954446121
100
AcDbLayout
  1
Model
 70
     1
 71
     0
 10
0.0
 20
0.0
 11
420.0
 21
297.0
 12
0.0
 22
0.0
 32
0.0
 14
0.0
 24
0.0
 34
0.0
 15
420.0
 25
297.0
 35
0.0
146
0.0
 13
0.0
 23
0.0
 33
0.0
 16
1.0
 26
0.0
 36
0.0
 17
0.0
 27
1.0
 37
0.0
 76
     0
330
2
331
330
1001
ACAD_PSEXT
1000
なし
1000
なし
1000
適切ではありません
1000
新しいプロッタ環境設定名を選択しない限り、レイアウトは印刷されません。
1070
     0
  0
MATERIAL
  5
345
102
{ACAD_XDICTIONARY
360
346
102
}
102
{ACAD_REACTORS
330
D
102
}
330
D
100
AcDbMaterial
  1
ByBlock
 72
     0
 43
0.0008202099737533
 43
0.0
 43
0.0
 43
0.0
 43
0.0
 43
0.0008202099737533
 43
0.0
 43
0.0
 43
0.0
 43
0.0
 43
1.0
 43
0.0
 43
0.0
 43
0.0
 43
0.0
 43
1.0
 77
     0
 47
0.0008202099737533
 47
0.0
 47
0.0
 47
0.0
 47
0.0
 47
0.0008202099737533
 47
0.0
 47
0.0
 47
0.0
 47
0.0
 47
1.0
 47
0.0
 47
0.0
 47
0.0
 47
0.0
 47
1.0
171
     0
 49
0.0008202099737533
 49
0.0
 49
0.0
 49
0.0
 49
0.0
 49
0.0008202099737533
 49
0.0
 49
0.0
 49
0.0
 49
0.0
 49
1.0
 49
0.0
 49
0.0
 49
0.0
 49
0.0
 49
1.0
175
     0
142
0.0008202099737533
142
0.0
142
0.0
142
0.0
142
0.0
142
0.0008202099737533
142
0.0
142
0.0
142
0.0
142
0.0
142
1.0
142
0.0
142
0.0
142
0.0
142
0.0
142
1.0
179
     0
144
0.0008202099737533
144
0.0
144
0.0
144
0.0
144
0.0
144
0.0008202099737533
144
0.0
144
0.0
144
0.0
144
0.0
144
1.0
144
0.0
144
0.0
144
0.0
144
0.0
144
1.0
147
0.0008202099737533
147
0.0
147
0.0
147
0.0
147
0.0
147
0.0008202099737533
147
0.0
147
0.0
147
0.0
147
0.0
147
1.0
147
0.0
147
0.0
147
0.0
147
0.0
147
1.0
  0
MATERIAL
  5
33C
102
{ACAD_XDICTIONARY
360
33D
102
}
102
{ACAD_REACTORS
330
D
102
}
330
D
100
AcDbMaterial
  1
ByLayer
 72
     0
 43
0.0008202099737533
 43
0.0
 43
0.0
 43
0.0
 43
0.0
 43
0.0008202099737533
 43
0.0
 43
0.0
 43
0.0
 43
0.0
 43
1.0
 43
0.0
 43
0.0
 43
0.0
 43
0.0
 43
1.0
 77
     0
 47
0.0008202099737533
 47
0.0
 47
0.0
 47
0.0
 47
0.0
 47
0.0008202099737533
 47
0.0
 47
0.0
 47
0.0
 47
0.0
 47
1.0
 47
0.0
 47
0.0
 47
0.0
 47
0.0
 47
1.0
171
     0
 49
0.0008202099737533
 49
0.0
 49
0.0
 49
0.0
 49
0.0
 49
0.0008202099737533
 49
0.0
 49
0.0
 49
0.0
 49
0.0
 49
1.0
 49
0.0
 49
0.0
 49
0.0
 49
0.0
 49
1.0
175
     0
142
0.0008202099737533
142
0.0
142
0.0
142
0.0
142
0.0
142
0.0008202099737533
142
0.0
142
0.0
142
0.0
142
0.0
142
1.0
142
0.0
142
0.0
142
0.0
142
0.0
142
1.0
179
     0
144
0.0008202099737533
144
0.0
144
0.0
144
0.0
144
0.0
144
0.0008202099737533
144
0.0
144
0.0
144
0.0
144
0.0
144
1.0
144
0.0
144
0.0
144
0.0
144
0.0
144
1.0
147
0.0008202099737533
147
0.0
147
0.0
147
0.0
147
0.0
147
0.0008202099737533
147
0.0
147
0.0
147
0.0
147
0.0
147
1.0
147
0.0
147
0.0
147
0.0
147
0.0
147
1.0
  0
MATERIAL
  5
C
102
{ACAD_XDICTIONARY
360
E
102
}
102
{ACAD_REACTORS
330
D
102
}
330
D
100
AcDbMaterial
  1
Global
 72
     0
 43
0.0008202099737533
 43
0.0
 43
0.0
 43
0.0
 43
0.0
 43
0.0008202099737533
 43
0.0
 43
0.0
 43
0.0
 43
0.0
 43
1.0
 43
0.0
 43
0.0
 43
0.0
 43
0.0
 43
1.0
 77
     0
 47
0.0008202099737533
 47
0.0
 47
0.0
 47
0.0
 47
0.0
 47
0.0008202099737533
 47
0.0
 47
0.0
 47
0.0
 47
0.0
 47
1.0
 47
0.0
 47
0.0
 47
0.0
 47
0.0
 47
1.0
171
     0
 49
0.0008202099737533
 49
0.0
 49
0.0
 49
0.0
 49
0.0
 49
0.0008202099737533
 49
0.0
 49
0.0
 49
0.0
 49
0.0
 49
1.0
 49
0.0
 49
0.0
 49
0.0
 49
0.0
 49
1.0
175
     0
142
0.0008202099737533
142
0.0
142
0.0
142
0.0
142
0.0
142
0.0008202099737533
142
0.0
142
0.0
142
0.0
142
0.0
142
1.0
142
0.0
142
0.0
142
0.0
142
0.0
142
1.0
179
     0
144
0.0008202099737533
144
0.0
144
0.0
144
0.0
144
0.0
144
0.0008202099737533
144
0.0
144
0.0
144
0.0
144
0.0
144
1.0
144
0.0
144
0.0
144
0.0
144
0.0
144
1.0
147
0.0008202099737533
147
0.0
147
0.0
147
0.0
147
0.0
147
0.0008202099737533
147
0.0
147
0.0
147
0.0
147
0.0
147
1.0
147
0.0
147
0.0
147
0.0
147
0.0
147
1.0
  0
MLINESTYLE
  5
352
102
{ACAD_REACTORS
330
33A
102
}
330
33A
100
AcDbMlineStyle
  2
STANDARD
 70
     0
  3

 62
   256
 51
90.0
 52
90.0
 71
     2
 49
0.5
 62
   256
  6
BYLAYER
 49
-0.5
 62
   256
  6
BYLAYER
  0
ACDBPLACEHOLDER
  5
9
102
{ACAD_REACTORS
330
A
102
}
330
A
  0
SCALE
  5
357
102
{ACAD_REACTORS
330
34F
102
}
330
34F
100
AcDbScale
 70
     0
300
1:1
140
1.0
141
1.0
290
     1
  0
SCALE
  5
358
102
{ACAD_REACTORS
330
34F
102
}
330
34F
100
AcDbScale
 70
     0
300
1:2
140
1.0
141
2.0
290
     0
  0
SCALE
  5
359
102
{ACAD_REACTORS
330
34F
102
}
330
34F
100
AcDbScale
 70
     0
300
1:4
140
1.0
141
4.0
290
     0
  0
SCALE
  5
35A
102
{ACAD_REACTORS
330
34F
102
}
330
34F
100
AcDbScale
 70
     0
300
1:5
140
1.0
141
5.0
290
     0
  0
SCALE
  5
35B
102
{ACAD_REACTORS
330
34F
102
}
330
34F
100
AcDbScale
 70
     0
300
1:8
140
1.0
141
8.0
290
     0
  0
SCALE
  5
35C
102
{ACAD_REACTORS
330
34F
102
}
330
34F
100
AcDbScale
 70
     0
300
1:10
140
1.0
141
10.0
290
     0
  0
SCALE
  5
35D
102
{ACAD_REACTORS
330
34F
102
}
330
34F
100
AcDbScale
 70
     0
300
1:16
140
1.0
141
16.0
290
     0
  0
SCALE
  5
35E
102
{ACAD_REACTORS
330
34F
102
}
330
34F
100
AcDbScale
 70
     0
300
1:20
140
1.0
141
20.0
290
     0
  0
SCALE
  5
35F
102
{ACAD_REACTORS
330
34F
102
}
330
34F
100
AcDbScale
 70
     0
300
1:30
140
1.0
141
30.0
290
     0
  0
SCALE
  5
360
102
{ACAD_REACTORS
330
34F
102
}
330
34F
100
AcDbScale
 70
     0
300
1:40
140
1.0
141
40.0
290
     0
  0
SCALE
  5
361
102
{ACAD_REACTORS
330
34F
102
}
330
34F
100
AcDbScale
 70
     0
300
1:50
140
1.0
141
50.0
290
     0
  0
SCALE
  5
362
102
{ACAD_REACTORS
330
34F
102
}
330
34F
100
AcDbScale
 70
     0
300
1:100
140
1.0
141
100.0
290
     0
  0
SCALE
  5
363
102
{ACAD_REACTORS
330
34F
102
}
330
34F
100
AcDbScale
 70
     0
300
2:1
140
2.0
141
1.0
290
     0
  0
SCALE
  5
364
102
{ACAD_REACTORS
330
34F
102
}
330
34F
100
AcDbScale
 70
     0
300
4:1
140
4.0
141
1.0
290
     0
  0
SCALE
  5
365
102
{ACAD_REACTORS
330
34F
102
}
330
34F
100
AcDbScale
 70
     0
300
8:1
140
8.0
141
1.0
290
     0
  0
SCALE
  5
366
102
{ACAD_REACTORS
330
34F
102
}
330
34F
100
AcDbScale
 70
     0
300
10:1
140
10.0
141
1.0
290
     0
  0
SCALE
  5
367
102
{ACAD_REACTORS
330
34F
102
}
330
34F
100
AcDbScale
 70
     0
300
100:1
140
100.0
141
1.0
290
     0
  0
SCALE
  5
368
102
{ACAD_REACTORS
330
34F
102
}
330
34F
100
AcDbScale
 70
     0
300
1/128" = 1'-0"
140
0.0078125
141
12.0
290
     0
  0
SCALE
  5
369
102
{ACAD_REACTORS
330
34F
102
}
330
34F
100
AcDbScale
 70
     0
300
1/64" = 1'-0"
140
0.015625
141
12.0
290
     0
  0
SCALE
  5
36A
102
{ACAD_REACTORS
330
34F
102
}
330
34F
100
AcDbScale
 70
     0
300
1/32" = 1'-0"
140
0.03125
141
12.0
290
     0
  0
SCALE
  5
36B
102
{ACAD_REACTORS
330
34F
102
}
330
34F
100
AcDbScale
 70
     0
300
1/16" = 1'-0"
140
0.0625
141
12.0
290
     0
  0
SCALE
  5
36C
102
{ACAD_REACTORS
330
34F
102
}
330
34F
100
AcDbScale
 70
     0
300
3/32" = 1'-0"
140
0.09375
141
12.0
290
     0
  0
SCALE
  5
36D
102
{ACAD_REACTORS
330
34F
102
}
330
34F
100
AcDbScale
 70
     0
300
1/8" = 1'-0"
140
0.125
141
12.0
290
     0
  0
SCALE
  5
36E
102
{ACAD_REACTORS
330
34F
102
}
330
34F
100
AcDbScale
 70
     0
300
3/16" = 1'-0"
140
0.1875
141
12.0
290
     0
  0
SCALE
  5
36F
102
{ACAD_REACTORS
330
34F
102
}
330
34F
100
AcDbScale
 70
     0
300
1/4" = 1'-0"
140
0.25
141
12.0
290
     0
  0
SCALE
  5
370
102
{ACAD_REACTORS
330
34F
102
}
330
34F
100
AcDbScale
 70
     0
300
3/8" = 1'-0"
140
0.375
141
12.0
290
     0
  0
SCALE
  5
371
102
{ACAD_REACTORS
330
34F
102
}
330
34F
100
AcDbScale
 70
     0
300
1/2" = 1'-0"
140
0.5
141
12.0
290
     0
  0
SCALE
  5
372
102
{ACAD_REACTORS
330
34F
102
}
330
34F
100
AcDbScale
 70
     0
300
3/4" = 1'-0"
140
0.75
141
12.0
290
     0
  0
SCALE
  5
373
102
{ACAD_REACTORS
330
34F
102
}
330
34F
100
AcDbScale
 70
     0
300
1" = 1'-0"
140
1.0
141
12.0
290
     0
  0
SCALE
  5
374
102
{ACAD_REACTORS
330
34F
102
}
330
34F
100
AcDbScale
 70
     0
300
1-1/2" = 1'-0"
140
1.5
141
12.0
290
     0
  0
SCALE
  5
375
102
{ACAD_REACTORS
330
34F
102
}
330
34F
100
AcDbScale
 70
     0
300
3" = 1'-0"
140
3.0
141
12.0
290
     0
  0
SCALE
  5
376
102
{ACAD_REACTORS
330
34F
102
}
330
34F
100
AcDbScale
 70
     0
300
6" = 1'-0"
140
6.0
141
12.0
290
     0
  0
SCALE
  5
377
102
{ACAD_REACTORS
330
34F
102
}
330
34F
100
AcDbScale
 70
     0
300
1'-0" = 1'-0"
140
12.0
141
12.0
290
     0
  0
TABLESTYLE
  5
353
102
{ACAD_XDICTIONARY
360
354
102
}
102
{ACAD_REACTORS
330
350
102
}
330
350
100
AcDbTableStyle
  3
Standard
 70
     0
 71
     0
 40
1.5
 41
1.5
280
     0
281
     0
  7
Standard
140
4.5
170
     2
 62
     0
 63
     7
283
     0
274
    -2
284
     1
 64
     0
275
    -2
285
     1
 65
     0
276
    -2
286
     1
 66
     0
277
    -2
287
     1
 67
     0
278
    -2
288
     1
 68
     0
279
    -2
289
     1
 69
     0
  7
Standard
140
6.0
170
     5
 62
     0
 63
     7
283
     0
274
    -2
284
     1
 64
     0
275
    -2
285
     1
 65
     0
276
    -2
286
     1
 66
     0
277
    -2
287
     1
 67
     0
278
    -2
288
     1
 68
     0
279
    -2
289
     1
 69
     0
  7
Standard
140
4.5
170
     5
 62
     0
 63
     7
283
     0
274
    -2
284
     1
 64
     0
275
    -2
285
     1
 65
     0
276
    -2
286
     1
 66
     0
277
    -2
287
     1
 67
     0
278
    -2
288
     1
 68
     0
279
    -2
289
     1
 69
     0
  0
VISUALSTYLE
  5
331
102
{ACAD_XDICTIONARY
360
38E
102
}
102
{ACAD_REACTORS
330
332
102
}
330
332
100
AcDbVisualStyle
  2

 70
     4
 71
     0
 72
     2
 73
     0
 90
        0
 40
-0.6
 41
-30.0
 62
     5
 63
     7
 74
     1
 91
        4
 64
     7
 65
   257
 75
     1
175
     1
 42
1.0
 92
        0
 66
   257
 43
1.0
 76
     1
 77
     6
 78
     2
 67
     7
 79
     5
170
     0
171
     0
290
     0
174
     0
 93
        1
 44
0.0
173
     0
291
     0
 45
0.0
1001
ACAD
1000
AcDbSavedByObjectVersion
1070
     0
  0
VISUALSTYLE
  5
355
102
{ACAD_XDICTIONARY
360
391
102
}
102
{ACAD_REACTORS
330
332
102
}
330
332
100
AcDbVisualStyle
  2

 70
     8
 71
     2
 72
     2
 73
     0
 90
        0
 40
-0.6
 41
-30.0
 62
     5
 63
     7
 74
     1
 91
        0
 64
     7
 65
   257
 75
     1
175
     1
 42
1.0
 92
        8
 66
     8
 43
1.0
 76
     1
 77
     6
 78
     2
 67
     7
 79
     5
170
     0
171
     0
290
     0
174
     0
 93
       13
 44
0.0
173
     0
291
     0
 45
0.0
1001
ACAD
1000
AcDbSavedByObjectVersion
1070
     0
  0
VISUALSTYLE
  5
356
102
{ACAD_XDICTIONARY
360
393
102
}
102
{ACAD_REACTORS
330
332
102
}
330
332
100
AcDbVisualStyle
  2

 70
     5
 71
     0
 72
     2
 73
     0
 90
        0
 40
-0.6
 41
-30.0
 62
     5
 63
     7
 74
     1
 91
        4
 64
     7
 65
   257
 75
     1
175
     1
 42
1.0
 92
        0
 66
   257
 43
1.0
 76
     1
 77
     6
 78
     2
 67
     7
 79
     3
170
     0
171
     0
290
     0
174
     0
 93
        1
 44
0.0
173
     0
291
     0
 45
0.0
1001
ACAD
1000
AcDbSavedByObjectVersion
1070
     0
  0
DICTIONARYVAR
  5
37E
102
{ACAD_REACTORS
330
379
102
}
330
379
100
DictionaryVariables
280
     0
  1
1:1
  0
DICTIONARYVAR
  5
37B
102
{ACAD_REACTORS
330
379
102
}
330
379
100
DictionaryVariables
280
     0
  1
STANDARD
  0
DICTIONARYVAR
  5
37A
102
{ACAD_REACTORS
330
379
102
}
330
379
100
DictionaryVariables
280
     0
  1
STANDARD
  0
DICTIONARYVAR
  5
37C
102
{ACAD_REACTORS
330
379
102
}
330
379
100
DictionaryVariables
280
     0
  1

  0
DICTIONARYVAR
  5
37D
102
{ACAD_REACTORS
330
379
102
}
330
379
100
DictionaryVariables
280
     0
  1

  0
DICTIONARYVAR
  5
382
102
{ACAD_REACTORS
330
379
102
}
330
379
100
DictionaryVariables
280
     0
  1
2
  0
DICTIONARYVAR
  5
381
102
{ACAD_REACTORS
330
379
102
}
330
379
100
DictionaryVariables
280
     0
  1
1
  0
DICTIONARYVAR
  5
380
102
{ACAD_REACTORS
330
379
102
}
330
379
100
DictionaryVariables
280
     0
  1
0
  0
DICTIONARYVAR
  5
384
102
{ACAD_REACTORS
330
379
102
}
330
379
100
DictionaryVariables
280
     0
  1
80.000000
  0
DICTIONARYVAR
  5
383
102
{ACAD_REACTORS
330
379
102
}
330
379
100
DictionaryVariables
280
     0
  1
5.000000
  0
DICTIONARYVAR
  5
37F
102
{ACAD_REACTORS
330
379
102
}
330
379
100
DictionaryVariables
280
     0
  1
127
  0
DICTIONARYVAR
  5
385
102
{ACAD_REACTORS
330
379
102
}
330
379
100
DictionaryVariables
280
     0
  1
2
  0
DICTIONARY
  5
38A
330
31F
100
AcDbDictionary
280
     1
281
     1
  3
ACAD_XREC_ROUNDTRIP
360
38B
  0
DICTIONARY
  5
38C
330
323
100
AcDbDictionary
280
     1
281
     1
  3
ACAD_XREC_ROUNDTRIP
360
38D
  0
DICTIONARY
  5
388
330
319
100
AcDbDictionary
280
     1
281
     1
  3
ACAD_XREC_ROUNDTRIP
360
389
  0
DICTIONARY
  5
346
330
345
100
AcDbDictionary
280
     1
281
     1
  3
ACAD_XREC_ROUNDTRIP
360
347
  3
BUMPTILE
360
348
  3
DIFFUSETILE
360
349
  3
OPACITYTILE
360
34A
  3
REFLECTIONTILE
360
34B
  3
REFRACTIONTILE
360
34C
  3
SPECULARTILE
360
34D
  0
DICTIONARY
  5
33D
330
33C
100
AcDbDictionary
280
     1
281
     1
  3
ACAD_XREC_ROUNDTRIP
360
33E
  3
BUMPTILE
360
33F
  3
DIFFUSETILE
360
340
  3
OPACITYTILE
360
341
  3
REFLECTIONTILE
360
342
  3
REFRACTIONTILE
360
343
  3
SPECULARTILE
360
344
  0
DICTIONARY
  5
E
330
C
100
AcDbDictionary
280
     1
281
     1
  3
ACAD_XREC_ROUNDTRIP
360
F
  3
BUMPTILE
360
10
  3
DIFFUSETILE
360
11
  3
OPACITYTILE
360
12
  3
REFLECTIONTILE
360
13
  3
REFRACTIONTILE
360
14
  3
SPECULARTILE
360
15
  0
DICTIONARY
  5
354
330
353
100
AcDbDictionary
280
     1
281
     1
  3
ACAD_ROUNDTRIP_2008_TABLESTYLE_CELLSTYLEMAP
360
386
  3
ACAD_XREC_ROUNDTRIP
360
390
  0
DICTIONARY
  5
38E
330
331
100
AcDbDictionary
280
     1
281
     1
  3
ACAD_XREC_ROUNDTRIP
360
38F
  0
DICTIONARY
  5
391
330
355
100
AcDbDictionary
280
     1
281
     1
  3
ACAD_XREC_ROUNDTRIP
360
392
  0
DICTIONARY
  5
393
330
356
100
AcDbDictionary
280
     1
281
     1
  3
ACAD_XREC_ROUNDTRIP
360
394
  0
XRECORD
  5
38B
102
{ACAD_REACTORS
330
38A
102
}
330
38A
100
AcDbXrecord
280
     1
102
SHADEPLOT
 70
     0
102
SHADEPLOTRESLEVEL
 70
     2
102
SHADEPLOTCUSTOMDPI
 70
   300
  0
XRECORD
  5
38D
102
{ACAD_REACTORS
330
38C
102
}
330
38C
100
AcDbXrecord
280
     1
102
SHADEPLOT
 70
     0
102
SHADEPLOTRESLEVEL
 70
     2
102
SHADEPLOTCUSTOMDPI
 70
   300
  0
XRECORD
  5
389
102
{ACAD_REACTORS
330
388
102
}
330
388
100
AcDbXrecord
280
     1
102
SHADEPLOT
 70
     0
102
SHADEPLOTRESLEVEL
 70
     2
102
SHADEPLOTCUSTOMDPI
 70
   300
  0
XRECORD
  5
347
102
{ACAD_REACTORS
330
346
102
}
330
346
100
AcDbXrecord
280
     1
102
MATERIAL
148
0.0
149
0.0
149
0.0
 93
        0
 94
      127
282
     0
 72
     0
 77
     0
171
     0
175
     0
179
     0
273
     0
  0
XRECORD
  5
348
102
{ACAD_REACTORS
330
346
102
}
330
346
100
AcDbXrecord
280
     1
270
     1
271
     1
  0
XRECORD
  5
349
102
{ACAD_REACTORS
330
346
102
}
330
346
100
AcDbXrecord
280
     1
270
     1
271
     1
  0
XRECORD
  5
34A
102
{ACAD_REACTORS
330
346
102
}
330
346
100
AcDbXrecord
280
     1
270
     1
271
     1
  0
XRECORD
  5
34B
102
{ACAD_REACTORS
330
346
102
}
330
346
100
AcDbXrecord
280
     1
270
     1
271
     1
  0
XRECORD
  5
34C
102
{ACAD_REACTORS
330
346
102
}
330
346
100
AcDbXrecord
280
     1
270
     1
271
     1
  0
XRECORD
  5
34D
102
{ACAD_REACTORS
330
346
102
}
330
346
100
AcDbXrecord
280
     1
270
     1
271
     1
  0
XRECORD
  5
33E
102
{ACAD_REACTORS
330
33D
102
}
330
33D
100
AcDbXrecord
280
     1
102
MATERIAL
148
0.0
149
0.0
149
0.0
 93
        0
 94
      127
282
     0
 72
     0
 77
     0
171
     0
175
     0
179
     0
273
     0
  0
XRECORD
  5
33F
102
{ACAD_REACTORS
330
33D
102
}
330
33D
100
AcDbXrecord
280
     1
270
     1
271
     1
  0
XRECORD
  5
340
102
{ACAD_REACTORS
330
33D
102
}
330
33D
100
AcDbXrecord
280
     1
270
     1
271
     1
  0
XRECORD
  5
341
102
{ACAD_REACTORS
330
33D
102
}
330
33D
100
AcDbXrecord
280
     1
270
     1
271
     1
  0
XRECORD
  5
342
102
{ACAD_REACTORS
330
33D
102
}
330
33D
100
AcDbXrecord
280
     1
270
     1
271
     1
  0
XRECORD
  5
343
102
{ACAD_REACTORS
330
33D
102
}
330
33D
100
AcDbXrecord
280
     1
270
     1
271
     1
  0
XRECORD
  5
344
102
{ACAD_REACTORS
330
33D
102
}
330
33D
100
AcDbXrecord
280
     1
270
     1
271
     1
  0
XRECORD
  5
F
102
{ACAD_REACTORS
330
E
102
}
330
E
100
AcDbXrecord
280
     1
102
MATERIAL
148
0.0
149
0.0
149
0.0
 93
        0
 94
      127
282
     0
 72
     0
 77
     0
171
     0
175
     0
179
     0
273
     0
  0
XRECORD
  5
10
102
{ACAD_REACTORS
330
E
102
}
330
E
100
AcDbXrecord
280
     1
270
     1
271
     1
  0
XRECORD
  5
11
102
{ACAD_REACTORS
330
E
102
}
330
E
100
AcDbXrecord
280
     1
270
     1
271
     1
  0
XRECORD
  5
12
102
{ACAD_REACTORS
330
E
102
}
330
E
100
AcDbXrecord
280
     1
270
     1
271
     1
  0
XRECORD
  5
13
102
{ACAD_REACTORS
330
E
102
}
330
E
100
AcDbXrecord
280
     1
270
     1
271
     1
  0
XRECORD
  5
14
102
{ACAD_REACTORS
330
E
102
}
330
E
100
AcDbXrecord
280
     1
270
     1
271
     1
  0
XRECORD
  5
15
102
{ACAD_REACTORS
330
E
102
}
330
E
100
AcDbXrecord
280
     1
270
     1
271
     1
  0
CELLSTYLEMAP
  5
386
102
{ACAD_REACTORS
330
354
102
}
330
354
100
AcDbCellStyleMap
 90
        3
300
CELLSTYLE
  1
TABLEFORMAT_BEGIN
 90
        5
170
     1
 91
        0
 92
    32768
 62
   257
 93
        1
300
CONTENTFORMAT
  1
CONTENTFORMAT_BEGIN
 90
        0
 91
        0
 92
      512
 93
        0
300

 40
0.0
140
1.0
 94
        5
 62
     0
340
328
144
6.0
309
CONTENTFORMAT_END
171
     1
301
MARGIN
  1
CELLMARGIN_BEGIN
 40
1.5
 40
1.5
 40
1.5
 40
1.5
 40
0.18
 40
0.18
309
CELLMARGIN_END
 94
        6
 95
        1
302
GRIDFORMAT
  1
GRIDFORMAT_BEGIN
 90
        0
 91
        1
 62
     0
 92
       -2
340
0
 93
        0
 40
1.125
309
GRIDFORMAT_END
 95
        2
302
GRIDFORMAT
  1
GRIDFORMAT_BEGIN
 90
        0
 91
        1
 62
     0
 92
       -2
340
0
 93
        0
 40
1.125
309
GRIDFORMAT_END
 95
        4
302
GRIDFORMAT
  1
GRIDFORMAT_BEGIN
 90
        0
 91
        1
 62
     0
 92
       -2
340
0
 93
        0
 40
1.125
309
GRIDFORMAT_END
 95
        8
302
GRIDFORMAT
  1
GRIDFORMAT_BEGIN
 90
        0
 91
        1
 62
     0
 92
       -2
340
0
 93
        0
 40
1.125
309
GRIDFORMAT_END
 95
       16
302
GRIDFORMAT
  1
GRIDFORMAT_BEGIN
 90
        0
 91
        1
 62
     0
 92
       -2
340
0
 93
        0
 40
1.125
309
GRIDFORMAT_END
 95
       32
302
GRIDFORMAT
  1
GRIDFORMAT_BEGIN
 90
        0
 91
        1
 62
     0
 92
       -2
340
0
 93
        0
 40
1.125
309
GRIDFORMAT_END
309
TABLEFORMAT_END
  1
CELLSTYLE_BEGIN
 90
        1
 91
        1
300
_TITLE
309
CELLSTYLE_END
300
CELLSTYLE
  1
TABLEFORMAT_BEGIN
 90
        5
170
     1
 91
        0
 92
        0
 62
   257
 93
        1
300
CONTENTFORMAT
  1
CONTENTFORMAT_BEGIN
 90
        0
 91
        0
 92
      512
 93
        0
300

 40
0.0
140
1.0
 94
        5
 62
     0
340
328
144
4.5
309
CONTENTFORMAT_END
171
     1
301
MARGIN
  1
CELLMARGIN_BEGIN
 40
1.5
 40
1.5
 40
1.5
 40
1.5
 40
0.18
 40
0.18
309
CELLMARGIN_END
 94
        6
 95
        1
302
GRIDFORMAT
  1
GRIDFORMAT_BEGIN
 90
        0
 91
        1
 62
     0
 92
       -2
340
0
 93
        0
 40
1.125
309
GRIDFORMAT_END
 95
        2
302
GRIDFORMAT
  1
GRIDFORMAT_BEGIN
 90
        0
 91
        1
 62
     0
 92
       -2
340
0
 93
        0
 40
1.125
309
GRIDFORMAT_END
 95
        4
302
GRIDFORMAT
  1
GRIDFORMAT_BEGIN
 90
        0
 91
        1
 62
     0
 92
       -2
340
0
 93
        0
 40
1.125
309
GRIDFORMAT_END
 95
        8
302
GRIDFORMAT
  1
GRIDFORMAT_BEGIN
 90
        0
 91
        1
 62
     0
 92
       -2
340
0
 93
        0
 40
1.125
309
GRIDFORMAT_END
 95
       16
302
GRIDFORMAT
  1
GRIDFORMAT_BEGIN
 90
        0
 91
        1
 62
     0
 92
       -2
340
0
 93
        0
 40
1.125
309
GRIDFORMAT_END
 95
       32
302
GRIDFORMAT
  1
GRIDFORMAT_BEGIN
 90
        0
 91
        1
 62
     0
 92
       -2
340
0
 93
        0
 40
1.125
309
GRIDFORMAT_END
309
TABLEFORMAT_END
  1
CELLSTYLE_BEGIN
 90
        2
 91
        1
300
_HEADER
309
CELLSTYLE_END
300
CELLSTYLE
  1
TABLEFORMAT_BEGIN
 90
        5
170
     1
 91
        0
 92
        0
 62
   257
 93
        1
300
CONTENTFORMAT
  1
CONTENTFORMAT_BEGIN
 90
        0
 91
        0
 92
      512
 93
        0
300

 40
0.0
140
1.0
 94
        2
 62
     0
340
328
144
4.5
309
CONTENTFORMAT_END
171
     1
301
MARGIN
  1
CELLMARGIN_BEGIN
 40
1.5
 40
1.5
 40
1.5
 40
1.5
 40
0.18
 40
0.18
309
CELLMARGIN_END
 94
        6
 95
        1
302
GRIDFORMAT
  1
GRIDFORMAT_BEGIN
 90
        0
 91
        1
 62
     0
 92
       -2
340
0
 93
        0
 40
1.125
309
GRIDFORMAT_END
 95
        2
302
GRIDFORMAT
  1
GRIDFORMAT_BEGIN
 90
        0
 91
        1
 62
     0
 92
       -2
340
0
 93
        0
 40
1.125
309
GRIDFORMAT_END
 95
        4
302
GRIDFORMAT
  1
GRIDFORMAT_BEGIN
 90
        0
 91
        1
 62
     0
 92
       -2
340
0
 93
        0
 40
1.125
309
GRIDFORMAT_END
 95
        8
302
GRIDFORMAT
  1
GRIDFORMAT_BEGIN
 90
        0
 91
        1
 62
     0
 92
       -2
340
0
 93
        0
 40
1.125
309
GRIDFORMAT_END
 95
       16
302
GRIDFORMAT
  1
GRIDFORMAT_BEGIN
 90
        0
 91
        1
 62
     0
 92
       -2
340
0
 93
        0
 40
1.125
309
GRIDFORMAT_END
 95
       32
302
GRIDFORMAT
  1
GRIDFORMAT_BEGIN
 90
        0
 91
        1
 62
     0
 92
       -2
340
0
 93
        0
 40
1.125
309
GRIDFORMAT_END
309
TABLEFORMAT_END
  1
CELLSTYLE_BEGIN
 90
        3
 91
        2
300
_DATA
309
CELLSTYLE_END
  0
XRECORD
  5
390
102
{ACAD_REACTORS
330
354
102
}
330
354
100
AcDbXrecord
280
     1
102
ACAD_ROUNDTRIP_PRE2007_TABLESTYLE
 90
      512
 91
        0
  1

 92
      512
 93
        0
  2

 94
      512
 95
        0
  3

  0
XRECORD
  5
38F
102
{ACAD_REACTORS
330
38E
102
}
330
38E
100
AcDbXrecord
280
     1
102
RTVSPost2010Prop28
280
     1
102
RTVSPost2010PropOp28
 70
     1
102
RTVSPost2010Prop29
280
     1
102
RTVSPost2010PropOp29
 70
     1
102
RTVSPost2010Prop30
280
     0
102
RTVSPost2010PropOp30
 70
     1
102
RTVSPost2010Prop31
280
     0
102
RTVSPost2010PropOp31
 70
     1
102
RTVSPost2010Prop32
280
     0
102
RTVSPost2010PropOp32
 70
     1
102
RTVSPost2010Prop33
280
     0
102
RTVSPost2010PropOp33
 70
     1
102
RTVSPost2010Prop34
280
     0
102
RTVSPost2010PropOp34
 70
     1
102
RTVSPost2010Prop35
280
     0
102
RTVSPost2010PropOp35
 70
     1
102
RTVSPost2010Prop36
280
     0
102
RTVSPost2010PropOp36
 70
     1
102
RTVSPost2010Prop37
 90
       50
102
RTVSPost2010PropOp37
 70
     1
102
RTVSPost2010Prop38
140
0.0
102
RTVSPost2010PropOp38
 70
     1
102
RTVSPost2010Prop39
140
1.0
102
RTVSPost2010PropOp39
 70
     1
102
RTVSPost2010Prop40
 90
        0
102
RTVSPost2010PropOp40
 70
     1
102
RTVSPost2010Prop41ColorIndex
 90
       18
102
RTVSPost2010Prop41ColorRGB
 90
        0
102
RTVSPost2010PropOp41
 70
     1
102
RTVSPost2010Prop42
 90
       50
102
RTVSPost2010PropOp42
 70
     1
102
RTVSPost2010Prop43
 90
        3
102
RTVSPost2010PropOp43
 70
     1
102
RTVSPost2010Prop44ColorIndex
 90
        5
102
RTVSPost2010Prop44ColorRGB
 90
      255
102
RTVSPost2010PropOp44
 70
     1
102
RTVSPost2010Prop45
280
     0
102
RTVSPost2010PropOp45
 70
     1
102
RTVSPost2010Prop46
 90
       50
102
RTVSPost2010PropOp46
 70
     1
102
RTVSPost2010Prop47
 90
       50
102
RTVSPost2010PropOp47
 70
     1
102
RTVSPost2010Prop48
 90
       50
102
RTVSPost2010PropOp48
 70
     1
102
RTVSPost2010Prop49
280
     0
102
RTVSPost2010PropOp49
 70
     1
102
RTVSPost2010Prop50
 90
       50
102
RTVSPost2010PropOp50
 70
     1
102
RTVSPost2010Prop51ColorIndex
 90
      256
102
RTVSPost2010Prop51ColorRGB
 90
-16777216
102
RTVSPost2010PropOp51
 70
     0
102
RTVSPost2010Prop52
140
1.0
102
RTVSPost2010PropOp52
 70
     0
102
RTVSPost2010Prop53
 90
        2
102
RTVSPost2010PropOp53
 70
     1
102
RTVSPost2010Prop54
  1
strokes_ogs.tif
102
RTVSPost2010PropOp54
 70
     1
102
RTVSPost2010Prop55
280
     0
102
RTVSPost2010PropOp55
 70
     1
102
RTVSPost2010Prop56
140
1.0
102
RTVSPost2010PropOp56
 70
     1
102
RTVSPost2010Prop57
140
1.0
102
RTVSPost2010PropOp57
 70
     1
102
RTVSPropertyOp0
 70
     1
102
RTVSPropertyOp1
 70
     1
102
RTVSPropertyOp2
 70
     1
102
RTVSPropertyOp3
 70
     1
102
RTVSPropertyOp4
 70
     1
102
RTVSPropertyOp5
 70
     1
102
RTVSPropertyOp6
 70
     1
102
RTVSPropertyOp7
 70
     1
102
RTVSPropertyOp8
 70
     1
102
RTVSPropertyOp9
 70
     1
102
RTVSPropertyOp10
 70
     1
102
RTVSPropertyOp11
 70
     1
102
RTVSPropertyOp12
 70
     1
102
RTVSPropertyOp13
 70
     1
102
RTVSPropertyOp14
 70
     1
102
RTVSPropertyOp15
 70
     1
102
RTVSPropertyOp16
 70
     1
102
RTVSPropertyOp17
 70
     1
102
RTVSPropertyOp18
 70
     1
102
RTVSPropertyOp19
 70
     1
102
RTVSPropertyOp20
 70
     1
102
RTVSPropertyOp21
 70
     1
102
RTVSPropertyOp22
 70
     1
102
RTVSPropertyOp23
 70
     1
102
RTVSPropertyOp24
 70
     1
102
RTVSPropertyOp25
 70
     1
102
RTVSPropertyOp26
 70
     1
102
RTVSPropertyOp27
 70
     1
102
RTVSPropertyOp28
 70
     1
102
RTVSPropertyOp29
 70
     1
102
RTVSPropertyOp30
 70
     1
102
RTVSPropertyOp31
 70
     1
102
RTVSPropertyOp32
 70
     1
102
RTVSPropertyOp33
 70
     1
102
RTVSPropertyOp34
 70
     1
102
RTVSPropertyOp35
 70
     1
102
RTVSPropertyOp36
 70
     1
102
RTVSPropertyOp37
 70
     1
102
RTVSPropertyOp38
 70
     1
102
RTVSPropertyOp39
 70
     1
102
RTVSPropertyOp40
 70
     1
102
RTVSPropertyOp41
 70
     1
102
RTVSPropertyOp42
 70
     1
102
RTVSPropertyOp43
 70
     1
102
RTVSPropertyOp44
 70
     1
102
RTVSPropertyOp45
 70
     1
102
RTVSPropertyOp46
 70
     1
102
RTVSPropertyOp47
 70
     1
102
RTVSPropertyOp48
 70
     1
102
RTVSPropertyOp49
 70
     1
102
RTVSPropertyOp50
 70
     1
102
RTVSPropertyOp51
 70
     0
102
RTVSPropertyOp52
 70
     0
102
RTVSPropertyOp53
 70
     1
102
RTVSPropertyOp54
 70
     1
102
RTVSPropertyOp55
 70
     1
102
RTVSPropertyOp56
 70
     1
102
RTVSPropertyOp57
 70
     1
102
RTVSPropertyOp58
 70
     1
102
RTVSPropertyOp59
 70
     1
102
RTVSPropertyOp60
 70
     1
102
RTVSPropertyOp61
 70
     1
102
RTVSPropertyOp62
 70
     1
  0
XRECORD
  5
392
102
{ACAD_REACTORS
330
391
102
}
330
391
100
AcDbXrecord
280
     1
102
RTVSPost2010Prop28
280
     0
102
RTVSPost2010PropOp28
 70
     1
102
RTVSPost2010Prop29
280
     1
102
RTVSPost2010PropOp29
 70
     1
102
RTVSPost2010Prop30
280
     1
102
RTVSPost2010PropOp30
 70
     1
102
RTVSPost2010Prop31
280
     0
102
RTVSPost2010PropOp31
 70
     1
102
RTVSPost2010Prop32
280
     0
102
RTVSPost2010PropOp32
 70
     1
102
RTVSPost2010Prop33
280
     0
102
RTVSPost2010PropOp33
 70
     1
102
RTVSPost2010Prop34
280
     0
102
RTVSPost2010PropOp34
 70
     1
102
RTVSPost2010Prop35
280
     0
102
RTVSPost2010PropOp35
 70
     1
102
RTVSPost2010Prop36
280
     0
102
RTVSPost2010PropOp36
 70
     1
102
RTVSPost2010Prop37
 90
       50
102
RTVSPost2010PropOp37
 70
     1
102
RTVSPost2010Prop38
140
0.0
102
RTVSPost2010PropOp38
 70
     1
102
RTVSPost2010Prop39
140
1.0
102
RTVSPost2010PropOp39
 70
     1
102
RTVSPost2010Prop40
 90
        0
102
RTVSPost2010PropOp40
 70
     1
102
RTVSPost2010Prop41ColorIndex
 90
       18
102
RTVSPost2010Prop41ColorRGB
 90
        0
102
RTVSPost2010PropOp41
 70
     1
102
RTVSPost2010Prop42
 90
       50
102
RTVSPost2010PropOp42
 70
     1
102
RTVSPost2010Prop43
 90
        3
102
RTVSPost2010PropOp43
 70
     1
102
RTVSPost2010Prop44ColorIndex
 90
        5
102
RTVSPost2010Prop44ColorRGB
 90
      255
102
RTVSPost2010PropOp44
 70
     1
102
RTVSPost2010Prop45
280
     0
102
RTVSPost2010PropOp45
 70
     1
102
RTVSPost2010Prop46
 90
       50
102
RTVSPost2010PropOp46
 70
     1
102
RTVSPost2010Prop47
 90
       50
102
RTVSPost2010PropOp47
 70
     1
102
RTVSPost2010Prop48
 90
       50
102
RTVSPost2010PropOp48
 70
     1
102
RTVSPost2010Prop49
280
     0
102
RTVSPost2010PropOp49
 70
     1
102
RTVSPost2010Prop50
 90
       50
102
RTVSPost2010PropOp50
 70
     1
102
RTVSPost2010Prop51ColorIndex
 90
      256
102
RTVSPost2010Prop51ColorRGB
 90
-16777216
102
RTVSPost2010PropOp51
 70
     0
102
RTVSPost2010Prop52
140
1.0
102
RTVSPost2010PropOp52
 70
     0
102
RTVSPost2010Prop53
 90
        2
102
RTVSPost2010PropOp53
 70
     1
102
RTVSPost2010Prop54
  1
strokes_ogs.tif
102
RTVSPost2010PropOp54
 70
     1
102
RTVSPost2010Prop55
280
     0
102
RTVSPost2010PropOp55
 70
     1
102
RTVSPost2010Prop56
140
1.0
102
RTVSPost2010PropOp56
 70
     1
102
RTVSPost2010Prop57
140
1.0
102
RTVSPost2010PropOp57
 70
     1
102
RTVSPropertyOp0
 70
     1
102
RTVSPropertyOp1
 70
     1
102
RTVSPropertyOp2
 70
     1
102
RTVSPropertyOp3
 70
     1
102
RTVSPropertyOp4
 70
     1
102
RTVSPropertyOp5
 70
     1
102
RTVSPropertyOp6
 70
     1
102
RTVSPropertyOp7
 70
     1
102
RTVSPropertyOp8
 70
     1
102
RTVSPropertyOp9
 70
     1
102
RTVSPropertyOp10
 70
     1
102
RTVSPropertyOp11
 70
     1
102
RTVSPropertyOp12
 70
     1
102
RTVSPropertyOp13
 70
     1
102
RTVSPropertyOp14
 70
     1
102
RTVSPropertyOp15
 70
     1
102
RTVSPropertyOp16
 70
     1
102
RTVSPropertyOp17
 70
     1
102
RTVSPropertyOp18
 70
     1
102
RTVSPropertyOp19
 70
     1
102
RTVSPropertyOp20
 70
     1
102
RTVSPropertyOp21
 70
     1
102
RTVSPropertyOp22
 70
     1
102
RTVSPropertyOp23
 70
     1
102
RTVSPropertyOp24
 70
     1
102
RTVSPropertyOp25
 70
     1
102
RTVSPropertyOp26
 70
     1
102
RTVSPropertyOp27
 70
     1
102
RTVSPropertyOp28
 70
     1
102
RTVSPropertyOp29
 70
     1
102
RTVSPropertyOp30
 70
     1
102
RTVSPropertyOp31
 70
     1
102
RTVSPropertyOp32
 70
     1
102
RTVSPropertyOp33
 70
     1
102
RTVSPropertyOp34
 70
     1
102
RTVSPropertyOp35
 70
     1
102
RTVSPropertyOp36
 70
     1
102
RTVSPropertyOp37
 70
     1
102
RTVSPropertyOp38
 70
     1
102
RTVSPropertyOp39
 70
     1
102
RTVSPropertyOp40
 70
     1
102
RTVSPropertyOp41
 70
     1
102
RTVSPropertyOp42
 70
     1
102
RTVSPropertyOp43
 70
     1
102
RTVSPropertyOp44
 70
     1
102
RTVSPropertyOp45
 70
     1
102
RTVSPropertyOp46
 70
     1
102
RTVSPropertyOp47
 70
     1
102
RTVSPropertyOp48
 70
     1
102
RTVSPropertyOp49
 70
     1
102
RTVSPropertyOp50
 70
     1
102
RTVSPropertyOp51
 70
     0
102
RTVSPropertyOp52
 70
     0
102
RTVSPropertyOp53
 70
     1
102
RTVSPropertyOp54
 70
     1
102
RTVSPropertyOp55
 70
     1
102
RTVSPropertyOp56
 70
     1
102
RTVSPropertyOp57
 70
     1
102
RTVSPropertyOp58
 70
     1
102
RTVSPropertyOp59
 70
     1
102
RTVSPropertyOp60
 70
     1
102
RTVSPropertyOp61
 70
     1
102
RTVSPropertyOp62
 70
     1
  0
XRECORD
  5
394
102
{ACAD_REACTORS
330
393
102
}
330
393
100
AcDbXrecord
280
     1
102
RTVSPost2010Prop28
280
     0
102
RTVSPost2010PropOp28
 70
     1
102
RTVSPost2010Prop29
280
     1
102
RTVSPost2010PropOp29
 70
     1
102
RTVSPost2010Prop30
280
     1
102
RTVSPost2010PropOp30
 70
     1
102
RTVSPost2010Prop31
280
     0
102
RTVSPost2010PropOp31
 70
     1
102
RTVSPost2010Prop32
280
     0
102
RTVSPost2010PropOp32
 70
     1
102
RTVSPost2010Prop33
280
     0
102
RTVSPost2010PropOp33
 70
     1
102
RTVSPost2010Prop34
280
     0
102
RTVSPost2010PropOp34
 70
     1
102
RTVSPost2010Prop35
280
     0
102
RTVSPost2010PropOp35
 70
     1
102
RTVSPost2010Prop36
280
     0
102
RTVSPost2010PropOp36
 70
     1
102
RTVSPost2010Prop37
 90
       50
102
RTVSPost2010PropOp37
 70
     1
102
RTVSPost2010Prop38
140
0.0
102
RTVSPost2010PropOp38
 70
     1
102
RTVSPost2010Prop39
140
1.0
102
RTVSPost2010PropOp39
 70
     1
102
RTVSPost2010Prop40
 90
        0
102
RTVSPost2010PropOp40
 70
     1
102
RTVSPost2010Prop41ColorIndex
 90
       18
102
RTVSPost2010Prop41ColorRGB
 90
        0
102
RTVSPost2010PropOp41
 70
     1
102
RTVSPost2010Prop42
 90
       50
102
RTVSPost2010PropOp42
 70
     1
102
RTVSPost2010Prop43
 90
        3
102
RTVSPost2010PropOp43
 70
     1
102
RTVSPost2010Prop44ColorIndex
 90
        5
102
RTVSPost2010Prop44ColorRGB
 90
      255
102
RTVSPost2010PropOp44
 70
     1
102
RTVSPost2010Prop45
280
     0
102
RTVSPost2010PropOp45
 70
     1
102
RTVSPost2010Prop46
 90
       50
102
RTVSPost2010PropOp46
 70
     1
102
RTVSPost2010Prop47
 90
       50
102
RTVSPost2010PropOp47
 70
     1
102
RTVSPost2010Prop48
 90
       50
102
RTVSPost2010PropOp48
 70
     1
102
RTVSPost2010Prop49
280
     0
102
RTVSPost2010PropOp49
 70
     1
102
RTVSPost2010Prop50
 90
       50
102
RTVSPost2010PropOp50
 70
     1
102
RTVSPost2010Prop51ColorIndex
 90
      256
102
RTVSPost2010Prop51ColorRGB
 90
-16777216
102
RTVSPost2010PropOp51
 70
     0
102
RTVSPost2010Prop52
140
1.0
102
RTVSPost2010PropOp52
 70
     0
102
RTVSPost2010Prop53
 90
        2
102
RTVSPost2010PropOp53
 70
     1
102
RTVSPost2010Prop54
  1
strokes_ogs.tif
102
RTVSPost2010PropOp54
 70
     1
102
RTVSPost2010Prop55
280
     0
102
RTVSPost2010PropOp55
 70
     1
102
RTVSPost2010Prop56
140
1.0
102
RTVSPost2010PropOp56
 70
     1
102
RTVSPost2010Prop57
140
1.0
102
RTVSPost2010PropOp57
 70
     1
102
RTVSPropertyOp0
 70
     1
102
RTVSPropertyOp1
 70
     1
102
RTVSPropertyOp2
 70
     1
102
RTVSPropertyOp3
 70
     1
102
RTVSPropertyOp4
 70
     1
102
RTVSPropertyOp5
 70
     1
102
RTVSPropertyOp6
 70
     1
102
RTVSPropertyOp7
 70
     1
102
RTVSPropertyOp8
 70
     1
102
RTVSPropertyOp9
 70
     1
102
RTVSPropertyOp10
 70
     1
102
RTVSPropertyOp11
 70
     1
102
RTVSPropertyOp12
 70
     1
102
RTVSPropertyOp13
 70
     1
102
RTVSPropertyOp14
 70
     1
102
RTVSPropertyOp15
 70
     1
102
RTVSPropertyOp16
 70
     1
102
RTVSPropertyOp17
 70
     1
102
RTVSPropertyOp18
 70
     1
102
RTVSPropertyOp19
 70
     1
102
RTVSPropertyOp20
 70
     1
102
RTVSPropertyOp21
 70
     1
102
RTVSPropertyOp22
 70
     1
102
RTVSPropertyOp23
 70
     1
102
RTVSPropertyOp24
 70
     1
102
RTVSPropertyOp25
 70
     1
102
RTVSPropertyOp26
 70
     1
102
RTVSPropertyOp27
 70
     1
102
RTVSPropertyOp28
 70
     1
102
RTVSPropertyOp29
 70
     1
102
RTVSPropertyOp30
 70
     1
102
RTVSPropertyOp31
 70
     1
102
RTVSPropertyOp32
 70
     1
102
RTVSPropertyOp33
 70
     1
102
RTVSPropertyOp34
 70
     1
102
RTVSPropertyOp35
 70
     1
102
RTVSPropertyOp36
 70
     1
102
RTVSPropertyOp37
 70
     1
102
RTVSPropertyOp38
 70
     1
102
RTVSPropertyOp39
 70
     1
102
RTVSPropertyOp40
 70
     1
102
RTVSPropertyOp41
 70
     1
102
RTVSPropertyOp42
 70
     1
102
RTVSPropertyOp43
 70
     1
102
RTVSPropertyOp44
 70
     1
102
RTVSPropertyOp45
 70
     1
102
RTVSPropertyOp46
 70
     1
102
RTVSPropertyOp47
 70
     1
102
RTVSPropertyOp48
 70
     1
102
RTVSPropertyOp49
 70
     1
102
RTVSPropertyOp50
 70
     1
102
RTVSPropertyOp51
 70
     0
102
RTVSPropertyOp52
 70
     0
102
RTVSPropertyOp53
 70
     1
102
RTVSPropertyOp54
 70
     1
102
RTVSPropertyOp55
 70
     1
102
RTVSPropertyOp56
 70
     1
102
RTVSPropertyOp57
 70
     1
102
RTVSPropertyOp58
 70
     1
102
RTVSPropertyOp59
 70
     1
102
RTVSPropertyOp60
 70
     1
102
RTVSPropertyOp61
 70
     1
102
RTVSPropertyOp62
 70
     1
  0
ENDSEC
  0
EOF
