  0
SECTION
  2
HEADER
  9
$ACADVER
  1
AC1032
  9
$ACADMAINTVER
 90
       10
  9
$DWGCODEPAGE
  3
ANSI_932
  9
$REQUIREDVERSIONS
160
                 0
  9
$INSBASE
 10
0.0
 20
0.0
 30
0.0
  9
$EXTMIN
 10
0.0
 20
0.0
 30
0.0
  9
$EXTMAX
 10
50.00345720137383
 20
25.30053237755215
 30
0.0
  9
$LIMMIN
 10
-11.3400469730409
 20
-16.2822332126841
  9
$LIMMAX
 10
60.16288015829968
 20
42.34538674536179
  9
$ORTHOMODE
 70
     1
  9
$REGENMODE
 70
     1
  9
$FILLMODE
 70
     1
  9
$QTEXTMODE
 70
     0
  9
$MIRRTEXT
 70
     1
  9
$LTSCALE
 40
1.0
  9
$ATTMODE
 70
     1
  9
$TEXTSIZE
 40
3.5
  9
$TRACEWID
 40
1.0
  9
$TEXTSTYLE
  7
Standard
  9
$CLAYER
  8
0
  9
$CELTYPE
  6
ByLayer
  9
$CECOLOR
 62
   256
  9
$CELTSCALE
 40
1.0
  9
$DISPSILH
 70
     0
  9
$DIMSCALE
 40
1.0
  9
$DIMASZ
 40
3.302
  9
$DIMEXO
 40
1.0
  9
$DIMDLI
 40
3.75
  9
$DIMRND
 40
0.0
  9
$DIMDLE
 40
0.0
  9
$DIMEXE
 40
1.0
  9
$DIMTP
 40
0.0
  9
$DIMTM
 40
0.0
  9
$DIMTXT
 40
3.5
  9
$DIMCEN
 40
2.5
  9
$DIMTSZ
 40
0.0
  9
$DIMTOL
 70
     0
  9
$DIMLIM
 70
     0
  9
$DIMTIH
 70
     1
  9
$DIMTOH
 70
     1
  9
$DIMSE1
 70
     0
  9
$DIMSE2
 70
     0
  9
$DIMTAD
 70
     1
  9
$DIMZIN
 70
     1
  9
$DIMBLK
  1

  9
$DIMASO
 70
     1
  9
$DIMSHO
 70
     1
  9
$DIMPOST
  1

  9
$DIMAPOST
  1

  9
$DIMALT
 70
     0
  9
$DIMALTD
 70
     3
  9
$DIMALTF
 40
0.0393700787
  9
$DIMLFAC
 40
4.0
  9
$DIMTOFL
 70
     1
  9
$DIMTVP
 40
0.0
  9
$DIMTIX
 70
     0
  9
$DIMSOXD
 70
     0
  9
$DIMSAH
 70
     0
  9
$DIMBLK1
  1

  9
$DIMBLK2
  1

  9
$DIMSTYLE
  2
ISO-25
  9
$DIMCLRD
 70
     0
  9
$DIMCLRE
 70
     0
  9
$DIMCLRT
 70
     0
  9
$DIMTFAC
 40
1.0
  9
$DIMGAP
 40
1.524
  9
$DIMJUST
 70
     0
  9
$DIMSD1
 70
     0
  9
$DIMSD2
 70
     0
  9
$DIMTOLJ
 70
     0
  9
$DIMTZIN
 70
     1
  9
$DIMALTZ
 70
     0
  9
$DIMALTTZ
 70
     0
  9
$DIMUPT
 70
     0
  9
$DIMDEC
 70
     2
  9
$DIMTDEC
 70
     2
  9
$DIMALTU
 70
     2
  9
$DIMALTTD
 70
     3
  9
$DIMTXSTY
  7
Standard
  9
$DIMAUNIT
 70
     0
  9
$DIMADEC
 70
     2
  9
$DIMALTRND
 40
0.0
  9
$DIMAZIN
 70
     0
  9
$DIMDSEP
 70
    44
  9
$DIMATFIT
 70
     3
  9
$DIMFRAC
 70
     0
  9
$DIMLDRBLK
  1

  9
$DIMLUNIT
 70
     2
  9
$DIMLWD
 70
    -2
  9
$DIMLWE
 70
    -2
  9
$DIMTMOVE
 70
     0
  9
$DIMFXL
 40
1.0
  9
$DIMFXLON
 70
     0
  9
$DIMJOGANG
 40
0.7853981633974483
  9
$DIMTFILL
 70
     0
  9
$DIMTFILLCLR
 70
     0
  9
$DIMARCSYM
 70
     0
  9
$DIMLTYPE
  6

  9
$DIMLTEX1
  6

  9
$DIMLTEX2
  6

  9
$DIMTXTDIRECTION
 70
     0
  9
$LUNITS
 70
     2
  9
$LUPREC
 70
     2
  9
$SKETCHINC
 40
1.0
  9
$FILLETRAD
 40
10.0
  9
$AUNITS
 70
     0
  9
$AUPREC
 70
     2
  9
$MENU
  1
.
  9
$ELEVATION
 40
0.0
  9
$PELEVATION
 40
0.0
  9
$THICKNESS
 40
0.0
  9
$LIMCHECK
 70
     0
  9
$CHAMFERA
 40
0.0
  9
$CHAMFERB
 40
0.0
  9
$CHAMFERC
 40
0.0
  9
$CHAMFERD
 40
0.0
  9
$SKPOLY
 70
     0
  9
$TDCREATE
 40
2459266.621365741
  9
$TDUCREATE
 40
2459266.288041111
  9
$TDUPDATE
 40
2459266.642789352
  9
$TDUUPDATE
 40
2459266.309456019
  9
$TDINDWG
 40
0.0028125116
  9
$TDUSRTIMER
 40
0.0028125116
  9
$USRTIMER
 70
     1
  9
$ANGBASE
 50
0.0
  9
$ANGDIR
 70
     0
  9
$PDMODE
 70
     0
  9
$PDSIZE
 40
-1.0
  9
$PLINEWID
 40
0.0
  9
$SPLFRAME
 70
     0
  9
$SPLINETYPE
 70
     6
  9
$SPLINESEGS
 70
     8
  9
$HANDSEED
  5
13E
  9
$SURFTAB1
 70
     6
  9
$SURFTAB2
 70
     6
  9
$SURFTYPE
 70
     6
  9
$SURFU
 70
     6
  9
$SURFV
 70
     6
  9
$UCSBASE
  2

  9
$UCSNAME
  2

  9
$UCSORG
 10
0.0
 20
0.0
 30
0.0
  9
$UCSXDIR
 10
1.0
 20
0.0
 30
0.0
  9
$UCSYDIR
 10
0.0
 20
1.0
 30
0.0
  9
$UCSORTHOREF
  2

  9
$UCSORTHOVIEW
 70
     0
  9
$UCSORGTOP
 10
0.0
 20
0.0
 30
0.0
  9
$UCSORGBOTTOM
 10
0.0
 20
0.0
 30
0.0
  9
$UCSORGLEFT
 10
0.0
 20
0.0
 30
0.0
  9
$UCSORGRIGHT
 10
0.0
 20
0.0
 30
0.0
  9
$UCSORGFRONT
 10
0.0
 20
0.0
 30
0.0
  9
$UCSORGBACK
 10
0.0
 20
0.0
 30
0.0
  9
$PUCSBASE
  2

  9
$PUCSNAME
  2

  9
$PUCSORG
 10
0.0
 20
0.0
 30
0.0
  9
$PUCSXDIR
 10
1.0
 20
0.0
 30
0.0
  9
$PUCSYDIR
 10
0.0
 20
1.0
 30
0.0
  9
$PUCSORTHOREF
  2

  9
$PUCSORTHOVIEW
 70
     0
  9
$PUCSORGTOP
 10
0.0
 20
0.0
 30
0.0
  9
$PUCSORGBOTTOM
 10
0.0
 20
0.0
 30
0.0
  9
$PUCSORGLEFT
 10
0.0
 20
0.0
 30
0.0
  9
$PUCSORGRIGHT
 10
0.0
 20
0.0
 30
0.0
  9
$PUCSORGFRONT
 10
0.0
 20
0.0
 30
0.0
  9
$PUCSORGBACK
 10
0.0
 20
0.0
 30
0.0
  9
$USERI1
 70
     0
  9
$USERI2
 70
     0
  9
$USERI3
 70
     0
  9
$USERI4
 70
     0
  9
$USERI5
 70
     0
  9
$USERR1
 40
0.0
  9
$USERR2
 40
0.0
  9
$USERR3
 40
0.0
  9
$USERR4
 40
0.0
  9
$USERR5
 40
0.0
  9
$WORLDVIEW
 70
     1
  9
$SHADEDGE
 70
     3
  9
$SHADEDIF
 70
    70
  9
$TILEMODE
 70
     1
  9
$MAXACTVP
 70
    64
  9
$PINSBASE
 10
0.0
 20
0.0
 30
0.0
  9
$PLIMCHECK
 70
     0
  9
$PEXTMIN
 10
1.000000000000000E+20
 20
1.000000000000000E+20
 30
1.000000000000000E+20
  9
$PEXTMAX
 10
-1.000000000000000E+20
 20
-1.000000000000000E+20
 30
-1.000000000000000E+20
  9
$PLIMMIN
 10
0.0
 20
0.0
  9
$PLIMMAX
 10
420.0
 20
297.0
  9
$UNITMODE
 70
     0
  9
$VISRETAIN
 70
     1
  9
$PLINEGEN
 70
     0
  9
$PSLTSCALE
 70
     1
  9
$TREEDEPTH
 70
  3020
  9
$CMLSTYLE
  2
Standard
  9
$CMLJUST
 70
     0
  9
$CMLSCALE
 40
20.0
  9
$PROXYGRAPHICS
 70
     1
  9
$MEASUREMENT
 70
     1
  9
$CELWEIGHT
370
    -1
  9
$ENDCAPS
280
     0
  9
$JOINSTYLE
280
     0
  9
$LWDISPLAY
290
     0
  9
$INSUNITS
 70
     4
  9
$HYPERLINKBASE
  1

  9
$STYLESHEET
  1

  9
$XEDIT
290
     1
  9
$CEPSNTYPE
380
     0
  9
$PSTYLEMODE
290
     1
  9
$FINGERPRINTGUID
  2
{6B841D7C-BEC3-4446-A404-945543FD44F3}
  9
$VERSIONGUID
  2
{E462C4BF-B2AB-BC44-B4BD-096438380B41}
  9
$EXTNAMES
290
     1
  9
$PSVPSCALE
 40
0.0
  9
$OLESTARTUP
290
     0
  9
$SORTENTS
280
   127
  9
$INDEXCTL
280
     0
  9
$HIDETEXT
280
     1
  9
$XCLIPFRAME
280
     2
  9
$HALOGAP
280
     0
  9
$OBSCOLOR
 70
   257
  9
$OBSLTYPE
280
     0
  9
$INTERSECTIONDISPLAY
280
     0
  9
$INTERSECTIONCOLOR
 70
   257
  9
$DIMASSOC
280
     1
  9
$PROJECTNAME
  1

  9
$CAMERADISPLAY
290
     0
  9
$LENSLENGTH
 40
50.0
  9
$CAMERAHEIGHT
 40
0.0
  9
$STEPSPERSEC
 40
2.0
  9
$STEPSIZE
 40
6.0
  9
$3DDWFPREC
 40
2.0
  9
$PSOLWIDTH
 40
0.25
  9
$PSOLHEIGHT
 40
4.0
  9
$LOFTANG1
 40
1.570796326794896
  9
$LOFTANG2
 40
1.570796326794896
  9
$LOFTMAG1
 40
0.0
  9
$LOFTMAG2
 40
0.0
  9
$LOFTPARAM
 70
     7
  9
$LOFTNORMALS
280
     1
  9
$LATITUDE
 40
37.795
  9
$LONGITUDE
 40
-122.394
  9
$NORTHDIRECTION
 40
0.0
  9
$TIMEZONE
 70
 -8000
  9
$LIGHTGLYPHDISPLAY
280
     1
  9
$TILEMODELIGHTSYNCH
280
     1
  9
$CMATERIAL
347
33
  9
$SOLIDHIST
280
     0
  9
$SHOWHIST
280
     1
  9
$DWFFRAME
280
     2
  9
$DGNFRAME
280
     0
  9
$REALWORLDSCALE
290
     1
  9
$INTERFERECOLOR
 62
     1
  9
$INTERFEREOBJVS
345
49
  9
$INTERFEREVPVS
346
4A
  9
$CSHADOW
280
     0
  9
$SHADOWPLANELOCATION
 40
0.0
  0
ENDSEC
  0
SECTION
  2
CLASSES
  0
CLASS
  1
ACDBDICTIONARYWDFLT
  2
AcDbDictionaryWithDefault
  3
ObjectDBX Classes
 90
        0
 91
        1
280
     0
281
     0
  0
CLASS
  1
VISUALSTYLE
  2
AcDbVisualStyle
  3
ObjectDBX Classes
 90
     4095
 91
        3
280
     0
281
     0
  0
CLASS
  1
MATERIAL
  2
AcDbMaterial
  3
ObjectDBX Classes
 90
     1153
 91
        3
280
     0
281
     0
  0
CLASS
  1
SCALE
  2
AcDbScale
  3
ObjectDBX Classes
 90
     1153
 91
       33
280
     0
281
     0
  0
CLASS
  1
TABLESTYLE
  2
AcDbTableStyle
  3
ObjectDBX Classes
 90
     4095
 91
        1
280
     0
281
     0
  0
CLASS
  1
MLEADERSTYLE
  2
AcDbMLeaderStyle
  3
ACDB_MLEADERSTYLE_CLASS
 90
     4095
 91
        0
280
     0
281
     0
  0
CLASS
  1
SUN
  2
AcDbSun
  3
SCENEOE
 90
     1153
 91
        0
280
     0
281
     0
  0
CLASS
  1
ACDBSECTIONVIEWSTYLE
  2
AcDbSectionViewStyle
  3
ObjectDBX Classes
 90
     1025
 91
        0
280
     0
281
     0
  0
CLASS
  1
ACDBDETAILVIEWSTYLE
  2
AcDbDetailViewStyle
  3
ObjectDBX Classes
 90
     1025
 91
        0
280
     0
281
     0
  0
CLASS
  1
DICTIONARYVAR
  2
AcDbDictionaryVar
  3
ObjectDBX Classes
 90
        0
 91
        9
280
     0
281
     0
  0
CLASS
  1
CELLSTYLEMAP
  2
AcDbCellStyleMap
  3
ObjectDBX Classes
 90
     1152
 91
        1
280
     0
281
     0
  0
ENDSEC
  0
SECTION
  2
TABLES
  0
TABLE
  2
VPORT
  5
26
330
0
100
AcDbSymbolTable
 70
     1
  0
VPORT
  5
27
330
26
100
AcDbSymbolTableRecord
100
AcDbViewportTableRecord
  2
*Active
 70
     0
 10
0.0
 20
0.0
 11
1.0
 21
1.0
 12
24.41141659262939
 22
13.03157676633884
 13
0.0
 23
0.0
 14
10.0
 24
10.0
 15
10.0
 25
10.0
 16
0.0
 26
0.0
 36
1.0
 17
0.0
 27
0.0
 37
0.0
 40
56.67347594502452
 41
2.361635220125786
 42
50.0
 43
0.0
 44
0.0
 50
0.0
 51
0.0
 71
     0
 72
  2000
 73
     1
 74
     3
 75
     0
 76
     0
 77
     0
 78
     0
281
     0
 65
     1
110
0.0
120
0.0
130
0.0
111
1.0
121
0.0
131
0.0
112
0.0
122
1.0
132
0.0
 79
     0
146
0.0
348
28
 60
     3
 61
     5
292
     1
282
     1
141
0.0
142
0.0
 63
   250
421
  3355443
1001
ACAD_NAV_VCDISPLAY
1070
     3
  0
ENDTAB
  0
TABLE
  2
LTYPE
  5
21
330
0
100
AcDbSymbolTable
 70
     1
  0
LTYPE
  5
22
330
21
100
AcDbSymbolTableRecord
100
AcDbLinetypeTableRecord
  2
ByBlock
 70
     0
  3

 72
    65
 73
     0
 40
0.0
  0
LTYPE
  5
23
330
21
100
AcDbSymbolTableRecord
100
AcDbLinetypeTableRecord
  2
ByLayer
 70
     0
  3

 72
    65
 73
     0
 40
0.0
  0
LTYPE
  5
13
330
21
100
AcDbSymbolTableRecord
100
AcDbLinetypeTableRecord
  2
Continuous
 70
     0
  3
Solid line
 72
    65
 73
     0
 40
0.0
  0
ENDTAB
  0
TABLE
  2
LAYER
  5
1B
102
{ACAD_XDICTIONARY
360
1C
102
}
330
0
100
AcDbSymbolTable
 70
     1
  0
LAYER
  5
4
102
{ACAD_XDICTIONARY
360
5
102
}
330
1B
100
AcDbSymbolTableRecord
100
AcDbLayerTableRecord
  2
0
 70
     0
 62
     7
  6
Continuous
370
    -3
390
7
347
A
348
0
  0
ENDTAB
  0
TABLE
  2
STYLE
  5
1E
330
0
100
AcDbSymbolTable
 70
     1
  0
STYLE
  5
1F
330
1E
100
AcDbSymbolTableRecord
100
AcDbTextStyleTableRecord
  2
Standard
 70
     0
 40
0.0
 41
1.0
 50
0.0
 71
     0
 42
3.5
  3
txt
  4
bigfont
  0
ENDTAB
  0
TABLE
  2
VIEW
  5
24
330
0
100
AcDbSymbolTable
 70
     0
  0
ENDTAB
  0
TABLE
  2
UCS
  5
25
330
0
100
AcDbSymbolTable
 70
     0
  0
ENDTAB
  0
TABLE
  2
APPID
  5
2B
330
0
100
AcDbSymbolTable
 70
     2
  0
APPID
  5
2C
330
2B
100
AcDbSymbolTableRecord
100
AcDbRegAppTableRecord
  2
ACAD
 70
     0
  0
APPID
  5
2A
330
2B
100
AcDbSymbolTableRecord
100
AcDbRegAppTableRecord
  2
ACAD_NAV_VCDISPLAY
 70
     0
  0
ENDTAB
  0
TABLE
  2
DIMSTYLE
  5
2D
330
0
100
AcDbSymbolTable
 70
     1
100
AcDbDimStyleTable
 71
     1
340
2E
  0
DIMSTYLE
105
2E
330
2D
100
AcDbSymbolTableRecord
100
AcDbDimStyleTableRecord
  2
ISO-25
 70
     0
 41
2.5
 42
0.625
 43
3.75
 44
1.25
 73
     0
 74
     0
 77
     1
 78
     8
140
2.5
141
2.5
143
0.0393700787
147
0.625
171
     3
172
     1
271
     2
272
     2
274
     3
278
    44
283
     0
284
     8
340
1F
  0
ENDTAB
  0
TABLE
  2
BLOCK_RECORD
  5
1
330
0
100
AcDbSymbolTable
 70
     0
  0
BLOCK_RECORD
  5
2
330
1
100
AcDbSymbolTableRecord
100
AcDbBlockTableRecord
  2
*Model_Space
340
15
 70
     0
280
     1
281
     0
  0
BLOCK_RECORD
  5
17
330
1
100
AcDbSymbolTableRecord
100
AcDbBlockTableRecord
  2
*Paper_Space
340
1A
 70
     0
280
     1
281
     0
  0
ENDTAB
  0
ENDSEC
  0
SECTION
  2
BLOCKS
  0
BLOCK
  5
3
330
2
100
AcDbEntity
  8
0
100
AcDbBlockBegin
  2
*Model_Space
 70
     0
 10
0.0
 20
0.0
 30
0.0
  3
*Model_Space
  1

  0
ENDBLK
  5
14
330
2
100
AcDbEntity
  8
0
100
AcDbBlockEnd
  0
BLOCK
  5
18
330
17
100
AcDbEntity
 67
     1
  8
0
100
AcDbBlockBegin
  2
*Paper_Space
 70
     0
 10
0.0
 20
0.0
 30
0.0
  3
*Paper_Space
  1

  0
ENDBLK
  5
19
330
17
100
AcDbEntity
 67
     1
  8
0
100
AcDbBlockEnd
  0
ENDSEC
  0
SECTION
  2
ENTITIES
  0
LINE
  5
6C
330
2
100
AcDbEntity
  8
0
100
AcDbLine
 10
0.566117274077584
 20
0.2274958872628865
 30
0.0
 11
0.8497529136220194
 21
0.3693137070351007
 31
0.0
  0
LINE
  5
6D
330
2
100
AcDbEntity
  8
0
100
AcDbLine
 10
0.5991811940025294
 20
0.6439402375182653
 30
0.0
 11
0.3796249098679922
 21
0.5341620954437474
 31
0.0
  0
ARC
  5
6E
330
2
100
AcDbEntity
  8
0
100
AcDbCircle
 10
0.8389464628069376
 20
0.6043777771051744
 30
0.0
 40
0.0241639409332862
100
AcDbArc
 50
0.0
 51
63.4349488228999
  0
LINE
  5
6F
330
2
100
AcDbEntity
  8
0
100
AcDbLine
 10
0.8631103751542781
 20
0.3909265779577318
 30
0.0
 11
0.8631103751542781
 21
0.6043777602870684
 31
0.0
  0
LINE
  5
70
330
2
100
AcDbEntity
  8
0
100
AcDbLine
 10
0.8497528181502893
 20
0.6259906177262167
 30
0.0
 11
0.6754706496204826
 21
0.7131317019911201
 31
0.0
  0
SPLINE
  5
71
330
2
100
AcDbEntity
  8
0
100
AcDbSpline
210
0.0
220
0.0
230
1.0
 70
     8
 71
     3
 72
     9
 73
     5
 74
     0
 42
0.000000001
 43
0.0000000001
 40
0.0
 40
0.0
 40
0.0
 40
0.0
 40
0.5731806376392546
 40
1.0
 40
1.0
 40
1.0
 40
1.0
 10
0.8649940085428973
 20
0.4697261002032107
 30
0.0
 10
0.8697382301883287
 20
0.4761824614881896
 30
0.0
 10
0.8780152397973175
 20
0.4874465567157813
 30
0.0
 10
0.8853784686517336
 20
0.4915474307250669
 30
0.0
 10
0.8885212372962882
 20
0.4932977631548355
 30
0.0
  0
SPLINE
  5
72
330
2
100
AcDbEntity
  8
0
100
AcDbSpline
210
0.0
220
0.0
230
1.0
 70
     8
 71
     3
 72
    13
 73
     9
 74
     0
 42
0.000000001
 43
0.0000000001
 40
0.0
 40
0.0
 40
0.0
 40
0.0
 40
0.1785113398323524
 40
0.3515769621323163
 40
0.5354198410209851
 40
0.7220100141788644
 40
0.8819593194104998
 40
1.0
 40
1.0
 40
1.0
 40
1.0
 10
0.6199965201012212
 20
0.681266938245738
 30
0.0
 10
0.619847672948044
 20
0.6789178970703809
 30
0.0
 10
0.6195545194151464
 20
0.6742914752355916
 30
0.0
 10
0.6168425237894475
 20
0.6655325006466378
 30
0.0
 10
0.6125105012071082
 20
0.6570107652000879
 30
0.0
 10
0.6071561630543876
 20
0.6500022154944674
 30
0.0
 10
0.6022572306480641
 20
0.6456679194359829
 30
0.0
 10
0.6000980357755772
 20
0.6444551894292801
 30
0.0
 10
0.5991811939997156
 20
0.6439402375149506
 30
0.0
  0
ARC
  5
73
330
2
100
AcDbEntity
  8
0
100
AcDbCircle
 10
0.6441605167528941
 20
0.6812669663156648
 30
0.0
 40
0.0241639409332862
100
AcDbArc
 50
116.5650511771001
 51
180.0
  0
ARC
  5
74
330
2
100
AcDbEntity
  8
0
100
AcDbCircle
 10
0.8389464628069376
 20
0.3909265927315637
 30
0.0
 40
0.0241639409332862
100
AcDbArc
 50
296.5650511771
 51
0.0
  0
LINE
  5
75
330
2
100
AcDbEntity
  8
0
100
AcDbLine
 10
0.8885515794719296
 20
0.4933398647398733
 30
0.0
 11
1.84773445008583
 21
0.9729313000468238
 31
0.0
  0
LINE
  5
76
330
2
100
AcDbEntity
  8
0
100
AcDbLine
 10
0.6538578579024197
 20
0.7131317497342345
 30
0.0
 11
0.6333539816298242
 21
0.7028798116051825
 31
0.0
  0
ARC
  5
77
330
2
100
AcDbEntity
  8
0
100
AcDbCircle
 10
0.6646643005694238
 20
0.6915188582239296
 30
0.0
 40
0.024163940933288
100
AcDbArc
 50
63.4349488228999
 51
116.5650511771001
  0
LINE
  5
78
330
2
100
AcDbEntity
  8
0
100
AcDbLine
 10
1.740741008805354
 20
1.109779898228136
 30
0.0
 11
0.8114578315455034
 21
0.6451383095982095
 31
0.0
  0
SPLINE
  5
79
330
2
100
AcDbEntity
  8
0
100
AcDbSpline
210
0.0
220
0.0
230
1.0
 70
     8
 71
     3
 72
    10
 73
     6
 74
     0
 42
0.000000001
 43
0.0000000001
 40
0.0
 40
0.0
 40
0.0
 40
0.0
 40
0.3375058152042088
 40
0.7296500470244088
 40
1.0
 40
1.0
 40
1.0
 40
1.0
 10
3.73997391512016
 20
1.629094632346784
 30
0.0
 10
3.735748643460951
 20
1.626475109431371
 30
0.0
 10
3.726614075918856
 20
1.62081199213885
 30
0.0
 10
3.719449770220268
 20
1.606864260959007
 30
0.0
 10
3.718457778527092
 20
1.596118779221288
 30
0.0
 10
3.718052967566094
 20
1.591733773965149
 30
0.0
  0
SPLINE
  5
7A
330
2
100
AcDbEntity
  8
0
100
AcDbSpline
210
0.0
220
0.0
230
1.0
 70
     8
 71
     3
 72
    21
 73
    17
 74
     0
 42
0.000000001
 43
0.0000000001
 40
0.0
 40
0.0
 40
0.0
 40
0.0
 40
0.0694234947511488
 40
0.1557072428906313
 40
0.2338096605338296
 40
0.3018385608978352
 40
0.3669034423680853
 40
0.4332574919127938
 40
0.5052702254424803
 40
0.5871130242882759
 40
0.6720968302902137
 40
0.757018553731966
 40
0.843838468693656
 40
0.9199884587096375
 40
0.9868409034228628
 40
1.0
 40
1.0
 40
1.0
 40
1.0
 10
3.730246016953756
 20
1.539571769389414
 30
0.0
 10
3.734093528251232
 20
1.533053862290881
 30
0.0
 10
3.742722960956534
 20
1.518435103218497
 30
0.0
 10
3.761317335089227
 20
1.503222541717207
 30
0.0
 10
3.781286147814665
 20
1.495563062151926
 30
0.0
 10
3.799979241233213
 20
1.496799686833963
 30
0.0
 10
3.815083175178028
 20
1.505825725442694
 30
0.0
 10
3.82502101178543
 20
1.520921661711145
 30
0.0
 10
3.829283889340981
 20
1.54108758198846
 30
0.0
 10
3.826781719685079
 20
1.565582764342316
 30
0.0
 10
3.81671691716367
 20
1.591472067773519
 30
0.0
 10
3.800342178903992
 20
1.614096136896201
 30
0.0
 10
3.780484917189379
 20
1.629396248346214
 30
0.0
 10
3.760765913407922
 20
1.634743314385428
 30
0.0
 10
3.746225081641696
 20
1.634106680306228
 30
0.0
 10
3.740856808120138
 20
1.629802516554264
 30
0.0
 10
3.73997391512016
 20
1.629094632346784
 30
0.0
  0
SPLINE
  5
7B
330
2
100
AcDbEntity
  8
0
100
AcDbSpline
210
0.0
220
0.0
230
1.0
 70
     8
 71
     3
 72
    10
 73
     6
 74
     0
 42
0.000000001
 43
0.0000000001
 40
0.0
 40
0.0
 40
0.0
 40
0.0
 40
0.352841227384197
 40
0.899857079511093
 40
1.0
 40
1.0
 40
1.0
 40
1.0
 10
3.717190266482049
 20
1.585682161140244
 30
0.0
 10
3.717570740158897
 20
1.58028828733185
 30
0.0
 10
3.718541068751786
 20
1.566532197748838
 30
0.0
 10
3.723286437693772
 20
1.549751415826253
 30
0.0
 10
3.729313391484151
 20
1.54093590322336
 30
0.0
 10
3.730246016953756
 20
1.539571769389414
 30
0.0
  0
LINE
  5
7C
330
2
100
AcDbEntity
  8
0
100
AcDbLine
 10
3.805115536932703
 20
1.50033971433422
 30
0.0
 11
3.825619317719073
 21
1.510591604734653
 31
0.0
  0
LINE
  5
7D
330
2
100
AcDbEntity
  8
0
100
AcDbLine
 10
3.760780640230493
 20
1.640268933672761
 30
0.0
 11
3.740276859444119
 21
1.630017043272324
 31
0.0
  0
SPLINE
  5
7E
330
2
100
AcDbEntity
  8
0
100
AcDbSpline
210
0.0
220
0.0
230
1.0
 70
     8
 71
     3
 72
    10
 73
     6
 74
     0
 42
0.000000001
 43
0.0000000001
 40
0.0
 40
0.0
 40
0.0
 40
0.0
 40
0.0656989174461639
 40
0.618731306607161
 40
1.0
 40
1.0
 40
1.0
 40
1.0
 10
3.21717370849619
 20
1.877785590420298
 30
0.0
 10
3.216619591596362
 20
1.877390410181593
 30
0.0
 10
3.211401096577393
 20
1.873668729597778
 30
0.0
 10
3.20699470025173
 20
1.863000349723872
 30
0.0
 10
3.205903627944838
 20
1.852369352742446
 30
0.0
 10
3.204900393436872
 20
1.84991167485111
 30
0.0
  0
LINE
  5
7F
330
2
100
AcDbEntity
  8
0
100
AcDbLine
 10
3.419733555166153
 20
2.268973460375956
 30
0.0
 11
3.327592214778093
 21
2.220331170851434
 31
0.0
  0
SPLINE
  5
80
330
2
100
AcDbEntity
  8
0
100
AcDbSpline
210
0.0
220
0.0
230
1.0
 70
     8
 71
     3
 72
    11
 73
     7
 74
     0
 42
0.000000001
 43
0.0000000001
 40
0.0
 40
0.0
 40
0.0
 40
0.0
 40
0.0602429759581563
 40
0.5143056837289985
 40
0.91885032195438
 40
1.0
 40
1.0
 40
1.0
 40
1.0
 10
3.847838260647584
 20
1.487330155688116
 30
0.0
 10
3.848098864024276
 20
1.487148565910622
 30
0.0
 10
3.850323684357231
 20
1.485598299623287
 30
0.0
 10
3.855035790265386
 20
1.485025529536503
 30
0.0
 10
3.860087547419066
 20
1.48513613791
 30
0.0
 10
3.862114812916281
 20
1.486557100427425
 30
0.0
 10
3.862453527899965
 20
1.48679451446943
 30
0.0
  0
LINE
  5
81
330
2
100
AcDbEntity
  8
0
100
AcDbLine
 10
3.862477986229961
 20
1.486604433772587
 30
0.0
 11
3.95562286683349
 21
1.530083223954559
 31
0.0
  0
LINE
  5
82
330
2
100
AcDbEntity
  8
0
100
AcDbLine
 10
3.419369831026351
 20
1.701408473910777
 30
0.0
 11
3.726039295931347
 21
1.548073741458274
 31
0.0
  0
LINE
  5
83
330
2
100
AcDbEntity
  8
0
100
AcDbLine
 10
3.813311416038189
 20
1.504437681397607
 30
0.0
 11
3.847805678715548
 21
1.487190550066177
 31
0.0
  0
LINE
  5
84
330
2
100
AcDbEntity
  8
0
100
AcDbLine
 10
1.860111863871136
 20
0.9866146550347529
 30
0.0
 11
3.295329639281639
 21
1.704223542732755
 31
0.0
  0
LINE
  5
85
330
2
100
AcDbEntity
  8
0
100
AcDbLine
 10
3.18774497322332
 20
1.826100661560747
 30
0.0
 11
1.758681721512637
 21
1.111569035705404
 31
0.0
  0
SPLINE
  5
86
330
2
100
AcDbEntity
  8
0
100
AcDbSpline
210
0.0
220
0.0
230
1.0
 70
     8
 71
     3
 72
     9
 73
     5
 74
     0
 42
0.000000001
 43
0.0000000001
 40
0.0
 40
0.0
 40
0.0
 40
0.0
 40
0.6518073574078337
 40
1.0
 40
1.0
 40
1.0
 40
1.0
 10
3.295253240815497
 20
1.703969728351712
 30
0.0
 10
3.302587517503653
 20
1.706006533199026
 30
0.0
 10
3.313839732755287
 20
1.70913139029702
 30
0.0
 10
3.316074706756538
 20
1.708187428785677
 30
0.0
 10
3.316852908260159
 20
1.707858748332544
 30
0.0
  0
LINE
  5
87
330
2
100
AcDbEntity
  8
0
100
AcDbLine
 10
3.339932022096469
 20
1.69875023891468
 30
0.0
 11
3.38146840948676
 21
1.692997785180182
 31
0.0
  0
LINE
  5
88
330
2
100
AcDbEntity
  8
0
100
AcDbLine
 10
3.411591255245344
 20
1.697519187955808
 30
0.0
 11
3.445158679362165
 21
1.714302900014217
 31
0.0
  0
LINE
  5
89
330
2
100
AcDbEntity
  8
0
100
AcDbLine
 10
3.230447626616339
 20
1.901747131601059
 30
0.0
 11
3.21717370849619
 21
1.877785590420298
 31
0.0
  0
LINE
  5
8A
330
2
100
AcDbEntity
  8
0
100
AcDbLine
 10
3.480542735060375
 20
1.731994927856074
 30
0.0
 11
3.513504604723259
 21
1.748475862694764
 31
0.0
  0
LINE
  5
8B
330
2
100
AcDbEntity
  8
0
100
AcDbLine
 10
3.285705879956463
 20
1.939916282564812
 30
0.0
 11
3.252138455839634
 21
1.923132570506403
 31
0.0
  0
LINE
  5
8C
330
2
100
AcDbEntity
  8
0
100
AcDbLine
 10
3.54888869224538
 20
1.766167906455823
 30
0.0
 11
3.617668669369201
 21
1.800557895024986
 31
0.0
  0
LINE
  5
8D
330
2
100
AcDbEntity
  8
0
100
AcDbLine
 10
3.354051805317553
 20
1.974089245245362
 30
0.0
 11
3.321089935654669
 21
1.957608310421168
 31
0.0
  0
LINE
  5
8E
330
2
100
AcDbEntity
  8
0
100
AcDbLine
 10
3.458215869963495
 20
2.026171277575581
 30
0.0
 11
3.389435892839671
 21
1.991781289006421
 31
0.0
  0
LINE
  5
8F
330
2
100
AcDbEntity
  8
0
100
AcDbLine
 10
49.45221266739354
 20
25.2825691710092
 30
0.0
 11
49.35536855702537
 21
25.23679096568165
 31
0.0
  0
LINE
  5
90
330
2
100
AcDbEntity
  8
0
100
AcDbLine
 10
49.88454924445187
 20
24.49453956039928
 30
0.0
 11
49.97918963876843
 21
24.54509685769318
 31
0.0
  0
LINE
  5
91
330
2
100
AcDbEntity
  8
0
100
AcDbLine
 10
49.35176985699232
 20
25.23504100314788
 30
0.0
 11
3.440379230460582
 21
2.279345689869938
 31
0.0
  0
LINE
  5
92
330
2
100
AcDbEntity
  8
0
100
AcDbLine
 10
3.994311204797572
 20
1.681016565100559
 30
0.0
 11
49.90570183131483
 21
24.636711878393
 31
0.0
  0
LINE
  5
93
330
2
100
AcDbEntity
  8
0
100
AcDbLine
 10
3.962542580694567
 20
1.540756309968418
 30
0.0
 11
49.87710780212864
 21
24.49803892069752
 31
0.0
  0
LINE
  5
94
330
2
100
AcDbEntity
  8
0
100
AcDbLine
 10
0.5723973118157133
 20
0.4121635354870215
 30
0.0
 11
0.5723973118157133
 21
0.2405655334237053
 31
0.0
  0
ARC
  5
95
330
2
100
AcDbEntity
  8
0
100
AcDbCircle
 10
0.5374210879213877
 20
0.4115727207374249
 30
0.0
 40
0.0349812135254918
100
AcDbArc
 50
0.9677423357000581
 51
59.24220487530001
  0
LWPOLYLINE
  5
96
330
2
100
AcDbEntity
  8
0
100
AcDbPolyline
 90
        9
 70
   128
 43
0.0
 10
0.5553108304826893
 20
0.2281821864001792
 10
0.5586442364398643
 20
0.2269175826881167
 10
0.5618495424884209
 20
0.2265057723445203
 10
0.5648035738431894
 20
0.226962580464793
 10
0.5673927989582204
 20
0.2282704584894404
 10
0.5695177216323515
 20
0.2303791397766268
 10
0.5710966841332166
 20
0.2332075883998392
 10
0.5720690021205997
 20
0.2366471139910438
 10
0.5723973118157133
 20
0.2405655334237053
  0
LINE
  5
97
330
2
100
AcDbEntity
  8
0
100
AcDbLine
 10
0.5553108304826893
 20
0.2281821864001792
 30
0.0
 11
0.5495894674181124
 21
0.2310428679324694
 31
0.0
  0
LINE
  5
98
330
2
100
AcDbEntity
  8
0
100
AcDbLine
 10
0.546767585829123
 20
0.4459049886205797
 30
0.0
 11
0.5553108304826893
 21
0.4416333662937966
 31
0.0
  0
LINE
  5
99
330
2
100
AcDbEntity
  8
0
100
AcDbLine
 10
0.5553108304826893
 20
0.4416333662937966
 30
0.0
 11
0.7842698061272309
 21
0.5561128541160692
 31
0.0
  0
ARC
  5
9A
330
2
100
AcDbEntity
  8
0
100
AcDbCircle
 10
0.7663802797365449
 20
0.5861731215260911
 30
0.0
 40
0.0349807780296011
100
AcDbArc
 50
300.7578076224
 51
359.0326891079
  0
ARC
  5
9B
330
2
100
AcDbEntity
  8
0
100
AcDbCircle
 10
0.8363330574209832
 20
0.5849913177275603
 30
0.0
 40
0.0349819818308603
100
AcDbArc
 50
120.7584206516001
 51
179.0315499266
  0
LINE
  5
9C
330
2
100
AcDbEntity
  8
0
100
AcDbLine
 10
0.8013560726379864
 20
0.5855825775044572
 30
0.0
 11
0.6270739041081832
 21
0.6727236617693571
 31
0.0
  0
LINE
  5
9D
330
2
100
AcDbEntity
  8
0
100
AcDbLine
 10
0.8184425937545221
 20
0.6150524282029828
 30
0.0
 11
0.8389464700271176
 21
0.6253043663320348
 31
0.0
  0
SPLINE
  5
9E
330
2
100
AcDbEntity
  8
0
100
AcDbSpline
210
0.0
220
0.0
230
1.0
 70
     8
 71
     3
 72
     9
 73
     5
 74
     0
 42
0.000000001
 43
0.0000000001
 40
0.0
 40
0.0
 40
0.0
 40
0.0
 40
0.5603157005041021
 40
1.0
 40
1.0
 40
1.0
 40
1.0
 10
0.893233638632644
 20
0.4972402258446956
 30
0.0
 10
0.8929032516792254
 20
0.4965800538838927
 30
0.0
 10
0.892313607389191
 20
0.4954018396018221
 30
0.0
 10
0.889687560835096
 20
0.4939939381901901
 30
0.0
 10
0.8885329293955201
 20
0.4933749060442559
 30
0.0
  0
LWPOLYLINE
  5
9F
330
2
100
AcDbEntity
  8
0
100
AcDbPolyline
 90
        8
 70
   128
 43
0.0
 10
1.819950491618307
 20
1.082302612995352
 10
1.836761886375565
 20
1.069801373564292
 10
1.851013902902007
 20
1.051012263639151
 10
1.860536793494858
 20
1.028795729327772
 10
1.863880789579443
 20
1.006534064202728
 10
1.860536793494858
 20
0.9876163951477785
 10
1.851013902902007
 20
0.9749227514292435
 10
1.84773445008583
 20
0.9729313000468238
  0
LINE
  5
A0
330
2
100
AcDbEntity
  8
0
100
AcDbLine
 10
1.768524965286605
 20
1.108015376161208
 30
0.0
 11
1.819950491618307
 21
1.082302612995352
 31
0.0
  0
LWPOLYLINE
  5
A1
330
2
100
AcDbEntity
  8
0
100
AcDbPolyline
 90
        3
 70
   128
 43
0.0
 10
1.740741008805354
 20
1.109779898228136
 10
1.751713568528572
 20
1.112325532502286
 10
1.768524965286605
 20
1.108015376161208
  0
LINE
  5
A2
330
2
100
AcDbEntity
  8
0
100
AcDbLine
 10
0.0
 20
0.4505907041744415
 30
0.0
 11
0.2733838287255246
 21
0.5872826185299545
 31
0.0
  0
LINE
  5
A3
330
2
100
AcDbEntity
  8
0
100
AcDbLine
 10
0.5467676256126346
 20
0.4505907200791484
 30
0.0
 11
0.2733838287255246
 21
0.5872826185299545
 31
0.0
  0
LINE
  5
A4
330
2
100
AcDbEntity
  8
0
100
AcDbLine
 10
0.5467676256126346
 20
0.4505907200791484
 30
0.0
 11
0.2733837969016122
 21
0.3138988057236354
 31
0.0
  0
LINE
  5
A5
330
2
100
AcDbEntity
  8
0
100
AcDbLine
 10
0.0
 20
0.4505907041744415
 30
0.0
 11
0.2733837969016122
 21
0.3138988057236354
 31
0.0
  0
LINE
  5
A6
330
2
100
AcDbEntity
  8
0
100
AcDbLine
 10
0.0410075774919427
 20
0.3798630952062858
 30
0.0
 11
0.2323762194096659
 21
0.284178774247426
 31
0.0
  0
LINE
  5
A7
330
2
100
AcDbEntity
  8
0
100
AcDbLine
 10
0.0410075774919427
 20
0.3798630952062858
 30
0.0
 11
0.0410075774919427
 21
0.3599828521233057
 31
0.0
  0
LINE
  5
A8
330
2
100
AcDbEntity
  8
0
100
AcDbLine
 10
0.0
 20
0.3804866408692788
 30
0.0
 11
0.0410075774919427
 21
0.3599828521233057
 31
0.0
  0
LINE
  5
A9
330
2
100
AcDbEntity
  8
0
100
AcDbLine
 10
0.0
 20
0.3804866408692788
 30
0.0
 11
0.0
 21
0.4505907041744415
 31
0.0
  0
LINE
  5
AA
330
2
100
AcDbEntity
  8
0
100
AcDbLine
 10
0.2733837969016122
 20
0.3138988057236354
 30
0.0
 11
0.2733837969016122
 21
0.2437947424184763
 31
0.0
  0
LINE
  5
AB
330
2
100
AcDbEntity
  8
0
100
AcDbLine
 10
0.2733837969016122
 20
0.2437947424184763
 30
0.0
 11
0.2323762194096659
 21
0.2642985311644459
 31
0.0
  0
LINE
  5
AC
330
2
100
AcDbEntity
  8
0
100
AcDbLine
 10
0.2323762194096659
 20
0.284178774247426
 30
0.0
 11
0.2323762194096659
 21
0.2642985311644459
 31
0.0
  0
LINE
  5
AD
330
2
100
AcDbEntity
  8
0
100
AcDbLine
 10
0.5467676256126346
 20
0.136691914355513
 30
0.0
 11
0.5467676256126346
 21
0.4505907200791484
 31
0.0
  0
LINE
  5
AE
330
2
100
AcDbEntity
  8
0
100
AcDbLine
 10
0.5467676256126346
 20
0.136691914355513
 30
0.0
 11
0.2733837969016122
 21
0.0
 31
0.0
  0
LINE
  5
AF
330
2
100
AcDbEntity
  8
0
100
AcDbLine
 10
0.2733837969016122
 20
0.0701040657408889
 30
0.0
 11
0.2733837969016122
 21
0.0
 31
0.0
  0
LINE
  5
B0
330
2
100
AcDbEntity
  8
0
100
AcDbLine
 10
0.3759026690095517
 20
0.1213635018093591
 30
0.0
 11
0.2733837969016122
 21
0.0701040657408889
 31
0.0
  0
LINE
  5
B1
330
2
100
AcDbEntity
  8
0
100
AcDbLine
 10
0.3759026690095517
 20
0.2950541784724443
 30
0.0
 11
0.3759026690095517
 21
0.1213635018093591
 31
0.0
  0
LINE
  5
B2
330
2
100
AcDbEntity
  8
0
100
AcDbLine
 10
0.2733837969016122
 20
0.2437947424184763
 30
0.0
 11
0.3759026690095517
 21
0.2950541784724443
 31
0.0
  0
LINE
  5
B3
330
2
100
AcDbEntity
  8
0
100
AcDbLine
 10
0.3348950915176054
 20
0.1418672905553286
 30
0.0
 11
0.3759026690095517
 21
0.1213635018093591
 31
0.0
  0
LINE
  5
B4
330
2
100
AcDbEntity
  8
0
100
AcDbLine
 10
0.3348950915176054
 20
0.2745503931480862
 30
0.0
 11
0.3348950915176054
 21
0.1418672905553286
 31
0.0
  0
LINE
  5
B5
330
2
100
AcDbEntity
  8
0
100
AcDbLine
 10
0.2323762194096659
 20
0.0906078544868621
 30
0.0
 11
0.2733837969016122
 21
0.0701040657408889
 31
0.0
  0
LINE
  5
B6
330
2
100
AcDbEntity
  8
0
100
AcDbLine
 10
0.3348950915176054
 20
0.1418672905553286
 30
0.0
 11
0.2323762194096659
 21
0.0906078544868621
 31
0.0
  0
LINE
  5
B7
330
2
100
AcDbEntity
  8
0
100
AcDbLine
 10
0.1930773035837987
 20
0.0903770547024685
 30
0.0
 11
0.2323762194096659
 21
0.0707275967895349
 31
0.0
  0
LINE
  5
B8
330
2
100
AcDbEntity
  8
0
100
AcDbLine
 10
0.1930773035837987
 20
0.0401532466589068
 30
0.0
 11
0.2733837969016122
 21
0.0
 31
0.0
  0
LINE
  5
B9
330
2
100
AcDbEntity
  8
0
100
AcDbLine
 10
0.1930773035837987
 20
0.0903770547024685
 30
0.0
 11
0.1930773035837987
 21
0.0401532466589068
 31
0.0
  0
LINE
  5
BA
330
2
100
AcDbEntity
  8
0
100
AcDbLine
 10
0.2323762194096659
 20
0.0707275967895349
 30
0.0
 11
0.2323762194096659
 21
0.0906078544868621
 31
0.0
  0
LINE
  5
BB
330
2
100
AcDbEntity
  8
0
100
AcDbLine
 10
0.1930773035837987
 20
0.0903770547024685
 30
0.0
 11
0.3348949960458789
 21
0.1612859009407579
 31
0.0
  0
LINE
  5
BC
330
2
100
AcDbEntity
  8
0
100
AcDbLine
 10
0.1435264496143809
 20
0.2375516114996934
 30
0.0
 11
0.1435264496143809
 21
0.3286036155847292
 31
0.0
  0
LINE
  5
BD
330
2
100
AcDbEntity
  8
0
100
AcDbLine
 10
0.0608879175689801
 20
0.3699230221618244
 30
0.0
 11
0.0410075774919427
 21
0.3599828521233057
 31
0.0
  0
LINE
  5
BE
330
2
100
AcDbEntity
  8
0
100
AcDbLine
 10
0.2345785191885277
 20
0.2631973885821921
 30
0.0
 11
0.0410075774919427
 21
0.1664119177483947
 31
0.0
  0
LINE
  5
BF
330
2
100
AcDbEntity
  8
0
100
AcDbLine
 10
0.0410075774919427
 20
0.1862921754457254
 30
0.0
 11
0.0410075774919427
 21
0.1664119177483947
 31
0.0
  0
LINE
  5
C0
330
2
100
AcDbEntity
  8
0
100
AcDbLine
 10
0.0410075774919427
 20
0.1862921754457254
 30
0.0
 11
0.1435264496143809
 21
0.2375516114996934
 31
0.0
  0
LINE
  5
C1
330
2
100
AcDbEntity
  8
0
100
AcDbLine
 10
0.3195172797957646
 20
0.2663678530599363
 30
0.0
 11
0.3348951153964137
 21
0.258678935266861
 31
0.0
  0
LINE
  5
C2
330
2
100
AcDbEntity
  8
0
100
AcDbLine
 10
0.3190236496425776
 20
0.2666146681437773
 30
0.0
 11
0.3195172797957646
 21
0.2663678530599363
 31
0.0
  0
LINE
  5
C3
330
2
100
AcDbEntity
  8
0
100
AcDbLine
 10
0.5467675778695238
 20
0.2296319217735814
 30
0.0
 11
0.5495894674181124
 21
0.2310428679324694
 31
0.0
  0
LINE
  5
C4
330
2
100
AcDbEntity
  8
0
100
AcDbLine
 10
0.0
 20
0.1366918984508061
 30
0.0
 11
0.0803064933323086
 21
0.0965386517918994
 31
0.0
  0
LINE
  5
C5
330
2
100
AcDbEntity
  8
0
100
AcDbLine
 10
0.0
 20
0.206795964191695
 30
0.0
 11
0.0410075774919427
 21
0.1862921754457254
 31
0.0
  0
LINE
  5
C6
330
2
100
AcDbEntity
  8
0
100
AcDbLine
 10
0.0410075774919427
 20
0.1664119177483947
 30
0.0
 11
0.0803064933323086
 21
0.1467624598209589
 31
0.0
  0
LINE
  5
C7
330
2
100
AcDbEntity
  8
0
100
AcDbLine
 10
0.0803064933323086
 20
0.0965386517918994
 30
0.0
 11
0.0803064933323086
 21
0.1467624598209589
 31
0.0
  0
LINE
  5
C8
330
2
100
AcDbEntity
  8
0
100
AcDbLine
 10
0.0
 20
0.1366918984508061
 30
0.0
 11
0.0
 21
0.206795964191695
 31
0.0
  0
LINE
  5
C9
330
2
100
AcDbEntity
  8
0
100
AcDbLine
 10
0.0803064933323086
 20
0.0965386517918994
 30
0.0
 11
0.2800140088399985
 21
0.1963924095457443
 31
0.0
  0
LINE
  5
CA
330
2
100
AcDbEntity
  8
0
100
AcDbLine
 10
0.3161775802435187
 20
0.214474195254752
 30
0.0
 11
0.3348951233560164
 21
0.223832966796504
 31
0.0
  0
LINE
  5
CB
330
2
100
AcDbEntity
  8
0
100
AcDbLine
 10
0.3195172797957646
 20
0.2663678530599363
 30
0.0
 11
0.0803064933323086
 21
0.1467624598209589
 31
0.0
  0
LINE
  5
CC
330
2
100
AcDbEntity
  8
0
100
AcDbLine
 10
0.1435264496143809
 20
0.2375516114996934
 30
0.0
 11
0.1025188721224417
 21
0.2580554002456665
 31
0.0
  0
LINE
  5
CD
330
2
100
AcDbEntity
  8
0
100
AcDbLine
 10
0.1025188721224417
 20
0.2580554002456665
 30
0.0
 11
0.1025188721224417
 21
0.3491074043306988
 31
0.0
  0
LINE
  5
CE
330
2
100
AcDbEntity
  8
0
100
AcDbLine
 10
0.0
 20
0.206795964191695
 30
0.0
 11
0.1025188721224417
 21
0.2580554002456665
 31
0.0
  0
LINE
  5
CF
330
2
100
AcDbEntity
  8
0
100
AcDbLine
 10
0.702254563631211
 20
0.2110355283291945
 30
0.0
 11
0.702254563631211
 21
0.2947418766826111
 31
0.0
  0
LINE
  5
D0
330
2
100
AcDbEntity
  8
0
100
AcDbLine
 10
0.6749162316667637
 20
0.1973663623542201
 30
0.0
 11
0.702254563631211
 21
0.2110355283291945
 31
0.0
  0
LINE
  5
D1
330
2
100
AcDbEntity
  8
0
100
AcDbLine
 10
0.6749162316667637
 20
0.2308489026785772
 30
0.0
 11
0.6749162316667637
 21
0.1973663623542201
 31
0.0
  0
LINE
  5
D2
330
2
100
AcDbEntity
  8
0
100
AcDbLine
 10
0.5467674505738814
 20
0.1667745121176374
 30
0.0
 11
0.6749162316667637
 21
0.2308489026785772
 31
0.0
  0
LINE
  5
D3
330
2
100
AcDbEntity
  8
0
100
AcDbLine
 10
0.702254563631211
 20
0.2947418766826111
 30
0.0
 11
0.5467674505738814
 21
0.2169983201611991
 31
0.0
  0
LINE
  5
D4
330
2
100
AcDbEntity
  8
0
100
AcDbLine
 10
0.2238328633651676
 20
0.1180780287647707
 30
0.0
 11
0.2238328633651676
 21
0.1473752491182942
 31
0.0
  0
LINE
  5
D5
330
2
100
AcDbEntity
  8
0
100
AcDbLine
 10
0.2528798907913767
 20
0.1328517354051861
 30
0.0
 11
0.2238328633651676
 21
0.1473752491182942
 31
0.0
  0
LINE
  5
D6
330
2
100
AcDbEntity
  8
0
100
AcDbLine
 10
0.2528798907913767
 20
0.1328517354051861
 30
0.0
 11
0.2528798907913767
 21
0.1495930055601171
 31
0.0
  0
LINE
  5
D7
330
2
100
AcDbEntity
  8
0
100
AcDbLine
 10
0.2528798907913767
 20
0.1495930055601171
 30
0.0
 11
0.28219454854543
 21
0.1349356766830922
 31
0.0
  0
LINE
  5
D8
330
2
100
AcDbEntity
  8
0
100
AcDbLine
 10
0.2361560574715469
 20
0.1119164317188321
 30
0.0
 11
0.2238328633651676
 21
0.1180780287647707
 31
0.0
  0
LINE
  5
D9
330
2
100
AcDbEntity
  8
0
100
AcDbLine
 10
0.2870529330389537
 20
0.2085326996355015
 30
0.0
 11
0.2528798907913767
 21
0.1495930055601171
 31
0.0
  0
LINE
  5
DA
330
2
100
AcDbEntity
  8
0
100
AcDbLine
 10
0.2870529330389537
 20
0.2085326996355015
 30
0.0
 11
0.3348950955046561
 21
0.184611618409896
 31
0.0
  0
LINE
  5
DB
330
2
100
AcDbEntity
  8
0
100
AcDbLine
 10
0.3348952327461774
 20
0.1694064602304373
 30
0.0
 11
0.3282647184733953
 21
0.1579707622994952
 31
0.0
  0
LINE
  5
DC
330
2
100
AcDbEntity
  8
0
100
AcDbLine
 10
0.2238328633651676
 20
0.1473752491182942
 30
0.0
 11
0.2629274877089642
 21
0.1669225612829415
 31
0.0
  0
LINE
  5
DD
330
2
100
AcDbEntity
  8
0
100
AcDbLine
 10
0.3075568092970506
 20
0.2187846377645535
 30
0.0
 11
0.2870529330389537
 21
0.2085326996355015
 31
0.0
  0
LINE
  5
DE
330
2
100
AcDbEntity
  8
0
100
AcDbLine
 10
0.3348951870328314
 20
0.2051154489111617
 30
0.0
 11
0.3075568092970506
 21
0.2187846377645535
 31
0.0
  0
LINE
  5
DF
330
2
100
AcDbEntity
  8
0
100
AcDbLine
 10
0.6612470418274832
 20
0.2167569074579596
 30
0.0
 11
0.6612470418274832
 21
0.2240143127318745
 31
0.0
  0
LINE
  5
E0
330
2
100
AcDbEntity
  8
0
100
AcDbLine
 10
0.6612470418274832
 20
0.2167569074579596
 30
0.0
 11
0.5467674266950766
 21
0.1595170998990021
 31
0.0
  0
LINE
  5
E1
330
2
100
AcDbEntity
  8
0
100
AcDbLine
 10
0.7014319037071389
 20
0.2951532066519
 30
0.0
 11
0.702254563631211
 21
0.2947418766826111
 31
0.0
  0
LINE
  5
E2
330
2
100
AcDbEntity
  8
0
100
AcDbLine
 10
0.6749162316667637
 20
0.1973663623542201
 30
0.0
 11
0.6486910898165946
 21
0.2104789332865558
 31
0.0
  0
LWPOLYLINE
  5
E3
330
2
100
AcDbEntity
  8
0
100
AcDbPolyline
 90
       17
 70
   128
 43
0.0
 10
3.721436738255636
 20
1.580556215940756
 10
3.724558254253853
 20
1.55977564249806
 10
3.733447575492892
 20
1.539037207899536
 10
3.746751394192656
 20
1.521498147952645
 10
3.762444299842872
 20
1.509828634417999
 10
3.778137237302502
 20
1.505805226397722
 10
3.791441040097559
 20
1.510040475589956
 10
3.800330345417396
 20
1.521889596923539
 10
3.803451877334815
 20
1.539548646408409
 10
3.800330345417396
 20
1.560329237553599
 10
3.791441040097559
 20
1.581067664207022
 10
3.778137237302502
 20
1.598606718630033
 10
3.762444299842872
 20
1.610276248069393
 10
3.746751394192656
 20
1.61429964018496
 10
3.733447575492892
 20
1.610064396502107
 10
3.724558254253853
 20
1.598215283142621
 10
3.721436738255636
 20
1.580556215940756
  0
LWPOLYLINE
  5
E4
330
2
100
AcDbEntity
  8
0
100
AcDbPolyline
 90
       10
 70
   128
 43
0.0
 10
3.825619317719073
 20
1.510591604734653
 10
3.829445892360986
 20
1.512915323285774
 10
3.840557547885961
 20
1.527726710566756
 10
3.84445942298835
 20
1.549800544753946
 10
3.840557547885961
 20
1.575776258929483
 10
3.829445892360986
 20
1.601699309042611
 10
3.812816107046877
 20
1.623623142381649
 10
3.793199971015177
 20
1.638210033839644
 10
3.773583834997975
 20
1.64323927841335
 10
3.760780640230493
 20
1.640268933672761
  0
LINE
  5
E5
330
2
100
AcDbEntity
  8
0
100
AcDbLine
 10
3.767570252988196
 20
1.588879343784864
 30
0.0
 11
3.757318362602259
 21
1.594005288970581
 31
0.0
  0
LINE
  5
E6
330
2
100
AcDbEntity
  8
0
100
AcDbLine
 10
3.757318362602259
 20
1.594005288970581
 30
0.0
 11
3.757318362602259
 21
1.568893383745436
 31
0.0
  0
LINE
  5
E7
330
2
100
AcDbEntity
  8
0
100
AcDbLine
 10
3.757318362602259
 20
1.568893383745436
 30
0.0
 11
3.736814581815888
 21
1.57914527413137
 31
0.0
  0
LINE
  5
E8
330
2
100
AcDbEntity
  8
0
100
AcDbLine
 10
3.736814581815888
 20
1.57914527413137
 30
0.0
 11
3.736814581815888
 21
1.566589319075827
 31
0.0
  0
LINE
  5
E9
330
2
100
AcDbEntity
  8
0
100
AcDbLine
 10
3.736814581815888
 20
1.566589319075827
 30
0.0
 11
3.757318362602259
 21
1.556337428689889
 31
0.0
  0
LINE
  5
EA
330
2
100
AcDbEntity
  8
0
100
AcDbLine
 10
3.757318362602259
 20
1.556337428689889
 30
0.0
 11
3.757318362602259
 21
1.531225528321698
 31
0.0
  0
LINE
  5
EB
330
2
100
AcDbEntity
  8
0
100
AcDbLine
 10
3.757318362602259
 20
1.531225528321698
 30
0.0
 11
3.767570252988196
 21
1.526099583121482
 31
0.0
  0
LINE
  5
EC
330
2
100
AcDbEntity
  8
0
100
AcDbLine
 10
3.767570252988196
 20
1.526099583121482
 30
0.0
 11
3.767570252988196
 21
1.551211483489677
 31
0.0
  0
LINE
  5
ED
330
2
100
AcDbEntity
  8
0
100
AcDbLine
 10
3.767570252988196
 20
1.551211483489677
 30
0.0
 11
3.788074033774563
 21
1.540959593089237
 31
0.0
  0
LINE
  5
EE
330
2
100
AcDbEntity
  8
0
100
AcDbLine
 10
3.788074033774563
 20
1.540959593089237
 30
0.0
 11
3.788074033774563
 21
1.553515548144783
 31
0.0
  0
LINE
  5
EF
330
2
100
AcDbEntity
  8
0
100
AcDbLine
 10
3.788074033774563
 20
1.553515548144783
 30
0.0
 11
3.767570252988196
 21
1.56376743854522
 31
0.0
  0
LINE
  5
F0
330
2
100
AcDbEntity
  8
0
100
AcDbLine
 10
3.767570252988196
 20
1.56376743854522
 30
0.0
 11
3.767570252988196
 21
1.588879343784864
 31
0.0
  0
LWPOLYLINE
  5
F1
330
2
100
AcDbEntity
  8
0
100
AcDbPolyline
 90
       15
 70
   128
 43
0.0
 10
3.961180372571448
 20
1.536684001197233
 10
3.977204507930892
 20
1.606227214450729
 10
3.980887387918809
 20
1.684258389238319
 10
3.97209442007044
 20
1.767926600397675
 10
3.951146920345316
 20
1.854174894235345
 10
3.918810209998902
 20
1.939852125851803
 10
3.876265720192769
 20
2.021827993558861
 10
3.825067883470786
 20
2.097107406575329
 10
3.767087252731439
 20
2.162939981910056
 10
3.70444222231076
 20
2.216920408855653
 10
3.639421599190949
 20
2.257076452031608
 10
3.574400976085641
 20
2.281941031960965
 10
3.51175594565046
 20
2.290605635450543
 10
3.453775314911109
 20
2.282753690855166
 10
3.419733555166153
 20
2.268973460375956
  0
SPLINE
  5
F2
330
2
100
AcDbEntity
  8
0
100
AcDbSpline
210
0.0
220
0.0
230
1.0
 70
     8
 71
     3
 72
    42
 73
    38
 74
     0
 42
0.000000001
 43
0.0000000001
 40
0.0
 40
0.0
 40
0.0
 40
0.0
 40
0.0625
 40
0.0625
 40
0.125
 40
0.125
 40
0.1874999999999999
 40
0.1874999999999999
 40
0.2187499999999999
 40
0.2187499999999999
 40
0.2499999999999998
 40
0.2499999999999998
 40
0.3124999999999998
 40
0.3124999999999998
 40
0.3749999999999998
 40
0.3749999999999998
 40
0.4375
 40
0.4375
 40
0.46875
 40
0.46875
 40
0.5
 40
0.5
 40
0.5625
 40
0.5625
 40
0.59375
 40
0.59375
 40
0.625
 40
0.625
 40
0.6875
 40
0.6875
 40
0.75
 40
0.75
 40
0.875
 40
0.875
 40
0.9375
 40
0.9375
 40
1.0
 40
1.0
 40
1.0
 40
1.0
 10
3.220055321845741
 20
2.080559721027807
 30
0.0
 10
3.225875095352208
 20
2.098898341061325
 30
0.0
 10
3.233026648478272
 20
2.115962440162366
 30
0.0
 10
3.249844094824148
 20
2.147253117883334
 30
0.0
 10
3.25952037940803
 20
2.161464627605457
 30
0.0
 10
3.28089997359563
 20
2.186460585596257
 30
0.0
 10
3.292653852396313
 20
2.197348133371921
 30
0.0
 10
3.311902945223653
 20
2.211230282025244
 30
0.0
 10
3.31862097255826
 20
2.215463125267678
 30
0.0
 10
3.332449179406641
 20
2.222992421084445
 30
0.0
 10
3.339548089510437
 20
2.226288940876184
 30
0.0
 10
3.361385432118623
 20
2.234809091793049
 30
0.0
 10
3.376661238667235
 20
2.23867151717717
 30
0.0
 10
3.408655608660101
 20
2.242741764252965
 30
0.0
 10
3.425499378733981
 20
2.242914015386158
 30
0.0
 10
3.459553257672478
 20
2.239518138959933
 30
0.0
 10
3.476865762034112
 20
2.235988193700624
 30
0.0
 10
3.503260476674917
 20
2.227960592805146
 30
0.0
 10
3.512130028438242
 20
2.224827222331338
 30
0.0
 10
3.530015378758747
 20
2.217622252623819
 30
0.0
 10
3.539022679153514
 20
2.213549105994911
 30
0.0
 10
3.565786026256162
 20
2.200138444303593
 30
0.0
 10
3.583444332974337
 20
2.189556831665957
 30
0.0
 10
3.609660415663164
 20
2.17126289508284
 30
0.0
 10
3.618353672403674
 20
2.164759474625842
 30
0.0
 10
3.635647520879892
 20
2.150925777942727
 30
0.0
 10
3.644284061233577
 20
2.1435608626354
 30
0.0
 10
3.66966121262001
 20
2.120541735870528
 30
0.0
 10
3.685939188905113
 20
2.103932542940729
 30
0.0
 10
3.717249500513023
 20
2.068256230010316
 30
0.0
 10
3.732322716494504
 20
2.049131363437687
 30
0.0
 10
3.775328481139357
 20
1.988258120678668
 30
0.0
 10
3.799942471168389
 20
1.944785680162315
 30
0.0
 10
3.830793783739714
 20
1.875252365040058
 30
0.0
 10
3.839863474331419
 20
1.851729273388027
 30
0.0
 10
3.855420281701274
 20
1.804579552834983
 30
0.0
 10
3.861948301345012
 20
1.780861730081685
 30
0.0
 10
3.86718274976274
 20
1.756996007069304
 30
0.0
  0
SPLINE
  5
F3
330
2
100
AcDbEntity
  8
0
100
AcDbSpline
210
0.0
220
0.0
230
1.0
 70
     8
 71
     3
 72
    10
 73
     6
 74
     0
 42
0.000000001
 43
0.0000000001
 40
0.0
 40
0.0
 40
0.0
 40
0.0
 40
0.5
 40
0.5
 40
1.0
 40
1.0
 40
1.0
 40
1.0
 10
3.85399934743636
 20
1.754310479195179
 30
0.0
 10
3.855702164777778
 20
1.754139174867997
 30
0.0
 10
3.858081428213594
 20
1.754330985426378
 30
0.0
 10
3.862933986600488
 20
1.755319453046421
 30
0.0
 10
3.865398170474566
 20
1.756121330876677
 30
0.0
 10
3.867182749762747
 20
1.756996007069304
 30
0.0
  0
LINE
  5
F4
330
2
100
AcDbEntity
  8
0
100
AcDbLine
 10
3.219879687526731
 20
2.071356284593417
 30
0.0
 11
3.384764224881717
 21
1.988914015923175
 31
0.0
  0
SPLINE
  5
F5
330
2
100
AcDbEntity
  8
0
100
AcDbSpline
210
0.0
220
0.0
230
1.0
 70
     8
 71
     3
 72
     8
 73
     4
 74
     0
 42
0.000000001
 43
0.0000000001
 40
0.0
 40
0.0
 40
0.0
 40
0.0
 40
0.0000021758760713
 40
0.0000021758760713
 40
0.0000021758760713
 40
0.0000021758760713
 10
3.219806407165702
 20
2.071406949330508
 30
0.0
 10
3.219829856947814
 20
2.071385752288644
 30
0.0
 10
3.219854918443317
 20
2.071368668939417
 30
0.0
 10
3.219879703828059
 20
2.071356276247048
 30
0.0
  0
SPLINE
  5
F6
330
2
100
AcDbEntity
  8
0
100
AcDbSpline
210
0.0
220
0.0
230
1.0
 70
     8
 71
     3
 72
     8
 73
     4
 74
     0
 42
0.000000001
 43
0.0000000001
 40
0.0
 40
0.0
 40
0.0
 40
0.0
 40
0.0000021758760706
 40
0.0000021758760706
 40
0.0000021758760706
 40
0.0000021758760706
 10
3.853925656629783
 20
1.754333299846191
 30
0.0
 10
3.853950442014514
 20
1.754320907153822
 30
0.0
 10
3.853975631453938
 20
1.754312865035384
 30
0.0
 10
3.853999347436356
 20
1.754310479194966
 30
0.0
  0
LINE
  5
F7
330
2
100
AcDbEntity
  8
0
100
AcDbLine
 10
3.644889181243954
 20
1.858851537742051
 30
0.0
 11
3.853925671153056
 21
1.754333292780248
 31
0.0
  0
ELLIPSE
  5
F8
330
2
100
AcDbEntity
  8
0
100
AcDbEllipse
 10
3.567998003611755
 20
1.89714895659247
 30
0.0
 11
-0.0469339538629812
 21
0.0980984094525908
 31
0.0
210
0.0
220
0.0
230
0.9999999999999998
 40
0.6209844713999999
 41
4.040025879466091
 42
5.609270880622119
  0
LINE
  5
F9
330
2
100
AcDbEntity
  8
0
100
AcDbLine
 10
3.507145302178837
 20
2.023087049167259
 30
0.0
 11
3.569340113188527
 21
1.991989643669665
 31
0.0
  0
ELLIPSE
  5
FA
330
2
100
AcDbEntity
  8
0
100
AcDbEllipse
 10
3.538696008975779
 20
1.78791148883398
 30
0.0
 11
-0.217846067204932
 21
0.417972565399346
 31
0.0
210
0.0
220
0.0
230
0.9999999999999998
 40
0.6035364204999997
 41
0.5625324954975724
 42
1.068989721424646
  0
SPLINE
  5
FB
330
2
100
AcDbEntity
  8
0
100
AcDbSpline
210
0.0
220
0.0
230
1.0
 70
     8
 71
     3
 72
     9
 73
     5
 74
     0
 42
0.000000001
 43
0.0000000001
 40
0.0
 40
0.0
 40
0.0
 40
0.0
 40
0.6007435942599928
 40
1.0
 40
1.0
 40
1.0
 40
1.0
 10
3.961180372565525
 20
1.536684001194057
 30
0.0
 10
3.960393025514818
 20
1.534887700605775
 30
0.0
 10
3.959082404713807
 20
1.531897572029382
 30
0.0
 10
3.956526160107429
 20
1.53076627160166
 30
0.0
 10
3.955505563073696
 20
1.530314592659077
 30
0.0
  0
ARC
  5
FC
330
2
100
AcDbEntity
  8
0
100
AcDbCircle
 10
3.235063759937197
 20
1.730430580663583
 30
0.0
 40
0.0734652668451726
100
AcDbArc
 50
0.9678288704000211
 51
59.2421328256
  0
LINE
  5
FD
330
2
100
AcDbEntity
  8
0
100
AcDbLine
 10
3.272634711757326
 20
1.793561943804604
 30
0.0
 11
3.241537306245231
 21
1.809110646560657
 31
0.0
  0
LINE
  5
FE
330
2
100
AcDbEntity
  8
0
100
AcDbLine
 10
3.241537306245231
 20
1.809110646560657
 30
0.0
 11
3.210439900747633
 21
1.824659349302205
 31
0.0
  0
ARC
  5
FF
330
2
100
AcDbEntity
  8
0
100
AcDbCircle
 10
3.280157064610708
 20
1.752531173568844
 30
0.0
 40
0.1559385385810317
100
AcDbArc
 50
0.967811170099825
 51
59.24215156099996
  0
SPLINE
  5
100
330
2
100
AcDbEntity
  8
0
100
AcDbSpline
210
0.0
220
0.0
230
1.0
 70
     8
 71
     3
 72
    18
 73
    14
 74
     0
 42
0.000000001
 43
0.0000000001
 40
0.0
 40
0.0
 40
0.0
 40
0.0
 40
0.2500000000000001
 40
0.2500000000000001
 40
0.5000000000000002
 40
0.5000000000000002
 40
0.6250000000000001
 40
0.6250000000000001
 40
0.7500000000000001
 40
0.7500000000000001
 40
0.875
 40
0.875
 40
1.0
 40
1.0
 40
1.0
 40
1.0
 10
3.473419073428882
 20
1.773116390003774
 30
0.0
 10
3.4734190734262
 20
1.785509379375131
 30
0.0
 10
3.471409425219608
 20
1.798824234258241
 30
0.0
 10
3.46366046380556
 20
1.825544249033054
 30
0.0
 10
3.457935249312427
 20
1.838870840233131
 30
0.0
 10
3.447180888933242
 20
1.857355077951837
 30
0.0
 10
3.443306933205917
 20
1.863159171818711
 30
0.0
 10
3.435005003415145
 20
1.874082303059061
 30
0.0
 10
3.430525817166547
 20
1.879250166928908
 30
0.0
 10
3.421242050058253
 20
1.888588796126331
 30
0.0
 10
3.416466861679115
 20
1.892746600430978
 30
0.0
 10
3.406652545203851
 20
1.900050257423465
 30
0.0
 10
3.401589300921717
 20
1.903200916422992
 30
0.0
 10
3.39652988420536
 20
1.905730624782513
 30
0.0
  0
LINE
  5
101
330
2
100
AcDbEntity
  8
0
100
AcDbLine
 10
3.359905717954816
 20
1.886534830628324
 30
0.0
 11
3.328808312442721
 21
1.902083533384367
 31
0.0
  0
SPLINE
  5
102
330
2
100
AcDbEntity
  8
0
100
AcDbSpline
210
0.0
220
0.0
230
1.0
 70
     8
 71
     3
 72
    18
 73
    14
 74
     0
 42
0.000000001
 43
0.0000000001
 40
0.0
 40
0.0
 40
0.0
 40
0.0
 40
0.125
 40
0.125
 40
0.25
 40
0.25
 40
0.375
 40
0.375
 40
0.5
 40
0.5
 40
0.75
 40
0.75
 40
1.0
 40
1.0
 40
1.0
 40
1.0
 10
3.425098783527538
 20
1.912281908756558
 30
0.0
 10
3.429692305986083
 20
1.909985147505736
 30
0.0
 10
3.434356240519953
 20
1.907087374711714
 30
0.0
 10
3.443375997092989
 20
1.900373456557108
 30
0.0
 10
3.447763749387096
 20
1.896552071216454
 30
0.0
 10
3.456295014950161
 20
1.887972146206319
 30
0.0
 10
3.460411834969697
 20
1.883225197627229
 30
0.0
 10
3.468043215340774
 20
1.873190033047389
 30
0.0
 10
3.471604974879877
 20
1.867856611685422
 30
0.0
 10
3.481486843620011
 20
1.850863535579872
 30
0.0
 10
3.486734756833474
 20
1.83861330629697
 30
0.0
 10
3.493840672818357
 20
1.81405880739776
 30
0.0
 10
3.495673869372691
 20
1.801792471235035
 30
0.0
 10
3.495673869407841
 20
1.790557891336479
 30
0.0
  0
SPLINE
  5
103
330
2
100
AcDbEntity
  8
0
100
AcDbSpline
210
0.0
220
0.0
230
1.0
 70
     8
 71
     3
 72
    11
 73
     7
 74
     0
 42
0.000000001
 43
0.0000000001
 40
0.0
 40
0.0
 40
0.0
 40
0.0
 40
0.1139955430681809
 40
0.4997586753972163
 40
0.8779632442191246
 40
1.0
 40
1.0
 40
1.0
 40
1.0
 10
3.445092528897585
 20
1.714427945739412
 30
0.0
 10
3.447064939260492
 20
1.715481399820014
 30
0.0
 10
3.455712024609411
 20
1.720099762974751
 30
0.0
 10
3.467154471231278
 20
1.734974590262442
 30
0.0
 10
3.47295380034717
 20
1.756100595915786
 30
0.0
 10
3.473327823016845
 20
1.769779369858522
 30
0.0
 10
3.47341906800392
 20
1.77311638564057
 30
0.0
  0
SPLINE
  5
104
330
2
100
AcDbEntity
  8
0
100
AcDbSpline
210
0.0
220
0.0
230
1.0
 70
     8
 71
     3
 72
    18
 73
    14
 74
     0
 42
0.000000001
 43
0.0000000001
 40
0.0
 40
0.0
 40
0.0
 40
0.0
 40
0.2499999999999999
 40
0.2499999999999999
 40
0.5000000000000001
 40
0.5000000000000001
 40
0.625
 40
0.625
 40
0.75
 40
0.75
 40
0.8749999999999998
 40
0.8749999999999998
 40
1.0
 40
1.0
 40
1.0
 40
1.0
 10
3.541765019405353
 20
1.807289362992012
 30
0.0
 10
3.541765019402671
 20
1.819682352363368
 30
0.0
 10
3.539755371196076
 20
1.832997207246474
 30
0.0
 10
3.532006409782031
 20
1.859717222021291
 30
0.0
 10
3.526281195288898
 20
1.873043813221368
 30
0.0
 10
3.515526834909714
 20
1.891528050940078
 30
0.0
 10
3.511652879182385
 20
1.897332144806945
 30
0.0
 10
3.503350949391617
 20
1.908255276047299
 30
0.0
 10
3.498871763143018
 20
1.913423139917146
 30
0.0
 10
3.489587996034721
 20
1.922761769114565
 30
0.0
 10
3.484812807655583
 20
1.926919573419215
 30
0.0
 10
3.474998491180315
 20
1.934223230411703
 30
0.0
 10
3.469935246898188
 20
1.937373889411226
 30
0.0
 10
3.464875830181828
 20
1.939903597770747
 30
0.0
  0
LINE
  5
105
330
2
100
AcDbEntity
  8
0
100
AcDbLine
 10
3.328808312442721
 20
1.902083533384367
 30
0.0
 11
3.297710906945123
 21
1.917632236125921
 31
0.0
  0
LINE
  5
106
330
2
100
AcDbEntity
  8
0
100
AcDbLine
 10
3.396529876129367
 20
1.905730617693098
 30
0.0
 11
3.365432470617271
 21
1.921279320449141
 31
0.0
  0
ARC
  5
107
330
2
100
AcDbEntity
  8
0
100
AcDbCircle
 10
3.271658580787047
 20
1.877596125915328
 30
0.0
 40
0.0477662414243065
100
AcDbArc
 50
56.94711299540016
 51
149.6282623784997
  0
LINE
  5
108
330
2
100
AcDbEntity
  8
0
100
AcDbLine
 10
3.365432470617271
 20
1.921279320449141
 30
0.0
 11
3.334335065119677
 21
1.93682802320519
 31
0.0
  0
SPLINE
  5
109
330
2
100
AcDbEntity
  8
0
100
AcDbSpline
210
0.0
220
0.0
230
1.0
 70
     8
 71
     3
 72
    10
 73
     6
 74
     0
 42
0.000000001
 43
0.0000000001
 40
0.0
 40
0.0
 40
0.0
 40
0.0
 40
0.4189930263422898
 40
0.8377717813217969
 40
1.0
 40
1.0
 40
1.0
 40
1.0
 10
3.495665063077385
 20
1.790552758717279
 30
0.0
 10
3.494517939289313
 20
1.779951310811458
 30
0.0
 10
3.492224278347695
 20
1.758753836537994
 30
0.0
 10
3.480138730995374
 20
1.740280270476258
 30
0.0
 10
3.469182019472683
 20
1.7376833388541
 30
0.0
 10
3.466122696825127
 20
1.736958226058224
 30
0.0
  0
LINE
  5
10A
330
2
100
AcDbEntity
  8
0
100
AcDbLine
 10
3.425083072484056
 20
1.91192788402148
 30
0.0
 11
3.393985666971957
 21
1.927476586777526
 31
0.0
  0
SPLINE
  5
10B
330
2
100
AcDbEntity
  8
0
100
AcDbSpline
210
0.0
220
0.0
230
1.0
 70
     8
 71
     3
 72
    11
 73
     7
 74
     0
 42
0.000000001
 43
0.0000000001
 40
0.0
 40
0.0
 40
0.0
 40
0.0
 40
0.1139955430794009
 40
0.499758675403979
 40
0.8779632442149043
 40
1.0
 40
1.0
 40
1.0
 40
1.0
 10
3.513438454250771
 20
1.748600908416005
 30
0.0
 10
3.515410876432923
 20
1.749654368406208
 30
0.0
 10
3.524058013596889
 20
1.754272757468388
 30
0.0
 10
3.535500428624978
 20
1.769147568958853
 30
0.0
 10
3.541299726119031
 20
1.790273558802464
 30
0.0
 10
3.541673774036695
 20
1.803952345368468
 30
0.0
 10
3.54176502518316
 20
1.807289364230189
 30
0.0
  0
SPLINE
  5
10C
330
2
100
AcDbEntity
  8
0
100
AcDbSpline
210
0.0
220
0.0
230
1.0
 70
     8
 71
     3
 72
    18
 73
    14
 74
     0
 42
0.000000001
 43
0.0000000001
 40
0.0
 40
0.0
 40
0.0
 40
0.0
 40
0.1250000000000001
 40
0.1250000000000001
 40
0.2500000000000002
 40
0.2500000000000002
 40
0.3750000000000003
 40
0.3750000000000003
 40
0.5000000000000005
 40
0.5000000000000005
 40
0.7500000000000005
 40
0.7500000000000005
 40
1.0
 40
1.0
 40
1.0
 40
1.0
 10
3.500259476173436
 20
1.957595420766548
 30
0.0
 10
3.505318892892478
 20
1.955065712408373
 30
0.0
 10
3.51038271096505
 20
1.951915340304072
 30
0.0
 10
3.520197980041718
 20
1.94461215961228
 30
0.0
 10
3.524973534716934
 20
1.940454538455664
 30
0.0
 10
3.534257312668941
 20
1.931115914680109
 30
0.0
 10
3.538736135238611
 20
1.925947868970798
 30
0.0
 10
3.54703711560522
 20
1.915024263018363
 30
0.0
 10
3.55091049568859
 20
1.909219881329512
 30
0.0
 10
3.561664812517257
 20
1.890735621835549
 30
0.0
 10
3.567391951540496
 20
1.877409992900531
 30
0.0
 10
3.575140917775318
 20
1.850689980536092
 30
0.0
 10
3.577148665399644
 20
1.837374175361851
 30
0.0
 10
3.577148665396958
 20
1.824981185987812
 30
0.0
  0
SPLINE
  5
10D
330
2
100
AcDbEntity
  8
0
100
AcDbSpline
210
0.0
220
0.0
230
1.0
 70
     8
 71
     3
 72
    12
 73
     8
 74
     0
 42
0.000000001
 43
0.0000000001
 40
0.0
 40
0.0
 40
0.0
 40
0.0
 40
0.291626226534773
 40
0.5344683936064964
 40
0.7773103984591203
 40
0.962225889284409
 40
1.0
 40
1.0
 40
1.0
 40
1.0
 10
3.334335065115009
 20
1.936828023198199
 30
0.0
 10
3.329215950087821
 20
1.939026291770314
 30
0.0
 10
3.319834060064486
 20
1.943055096334351
 30
0.0
 10
3.306670671903734
 20
1.944817061142682
 30
0.0
 10
3.296105907846651
 20
1.943752740124555
 30
0.0
 10
3.289170491707459
 20
1.94182835917714
 30
0.0
 10
3.286264896982931
 20
1.940086673331439
 30
0.0
 10
3.285772030427605
 20
1.939791236842658
 30
0.0
  0
LINE
  5
10E
330
2
100
AcDbEntity
  8
0
100
AcDbLine
 10
3.464875833299874
 20
1.939903596278352
 30
0.0
 11
3.43377842780228
 21
1.955452299034394
 31
0.0
  0
LINE
  5
10F
330
2
100
AcDbEntity
  8
0
100
AcDbLine
 10
3.393985666971957
 20
1.927476586777526
 30
0.0
 11
3.362888261474363
 21
1.943025289519074
 31
0.0
  0
LINE
  5
110
330
2
100
AcDbEntity
  8
0
100
AcDbLine
 10
3.43377842780228
 20
1.955452299034394
 30
0.0
 11
3.402681022290185
 21
1.971001001790444
 31
0.0
  0
SPLINE
  5
111
330
2
100
AcDbEntity
  8
0
100
AcDbSpline
210
0.0
220
0.0
230
1.0
 70
     8
 71
     3
 72
     9
 73
     5
 74
     0
 42
0.000000001
 43
0.0000000001
 40
0.0
 40
0.0
 40
0.0
 40
0.0
 40
0.4889922400490601
 40
1.0
 40
1.0
 40
1.0
 40
1.0
 10
3.313965186511506
 20
1.943319749506144
 30
0.0
 10
3.320954310368122
 20
1.946737559314378
 30
0.0
 10
3.335247224006
 20
1.953727056341737
 30
0.0
 10
3.353544424361452
 20
1.946876256047897
 30
0.0
 10
3.362894435728463
 20
1.943375443935867
 30
0.0
  0
SPLINE
  5
112
330
2
100
AcDbEntity
  8
0
100
AcDbSpline
210
0.0
220
0.0
230
1.0
 70
     8
 71
     3
 72
    14
 73
    10
 74
     0
 42
0.000000001
 43
0.0000000001
 40
0.0
 40
0.0
 40
0.0
 40
0.0
 40
0.089120928224482
 40
0.3653159320520594
 40
0.6470307990720565
 40
0.7516509176471567
 40
0.8562710772051378
 40
0.9936644082061366
 40
1.0
 40
1.0
 40
1.0
 40
1.0
 10
3.577148667140281
 20
1.824981185208748
 30
0.0
 10
3.577056747281542
 20
1.821645851079306
 30
0.0
 10
3.57667995824288
 20
1.807973970405733
 30
0.0
 10
3.570947821504894
 20
1.78671595508592
 30
0.0
 10
3.558895585757575
 20
1.77180725567435
 30
0.0
 10
3.547465410952522
 20
1.765135924313984
 30
0.0
 10
3.538511676694007
 20
1.762376164558855
 30
0.0
 10
3.531684554208712
 20
1.761153190604556
 30
0.0
 10
3.527403820065039
 20
1.761788439553527
 30
0.0
 10
3.5272151246822
 20
1.761816441419469
 30
0.0
  0
SPLINE
  5
113
330
2
100
AcDbEntity
  8
0
100
AcDbSpline
210
0.0
220
0.0
230
1.0
 70
     8
 71
     3
 72
    12
 73
     8
 74
     0
 42
0.000000001
 43
0.0000000001
 40
0.0
 40
0.0
 40
0.0
 40
0.0
 40
0.2916262265345531
 40
0.5344683936153329
 40
0.7773103984677736
 40
0.9622258892929229
 40
1.0
 40
1.0
 40
1.0
 40
1.0
 10
3.402681022294256
 20
1.971001001787822
 30
0.0
 10
3.397561909203076
 20
1.973199271327981
 30
0.0
 10
3.388180022727748
 20
1.977228077666236
 30
0.0
 10
3.375016611354958
 20
1.978990030868128
 30
0.0
 10
3.364451837297309
 20
1.977925704849877
 30
0.0
 10
3.357516457031099
 20
1.976001341838991
 30
0.0
 10
3.354610828132805
 20
1.974259638906374
 30
0.0
 10
3.354117955780782
 20
1.973964199519247
 30
0.0
  0
LINE
  5
114
330
2
100
AcDbEntity
  8
0
100
AcDbLine
 10
3.469162069760656
 20
1.973144120013586
 30
0.0
 11
3.500259475258253
 21
1.95759541725754
 31
0.0
  0
LINE
  5
115
330
2
100
AcDbEntity
  8
0
100
AcDbLine
 10
3.43806466424856
 20
1.988692822769632
 30
0.0
 11
3.469162069760656
 21
1.973144120013586
 31
0.0
  0
SPLINE
  5
116
330
2
100
AcDbEntity
  8
0
100
AcDbSpline
210
0.0
220
0.0
230
1.0
 70
     8
 71
     3
 72
    13
 73
     9
 74
     0
 42
0.000000001
 43
0.0000000001
 40
0.0
 40
0.0
 40
0.0
 40
0.0
 40
0.1865022260289283
 40
0.3176354762287985
 40
0.448768687503692
 40
0.6209806086717521
 40
0.7931926448843822
 40
1.0
 40
1.0
 40
1.0
 40
1.0
 10
3.375725376849597
 20
1.978440709684448
 30
0.0
 10
3.378157111546702
 20
1.98207597413533
 30
0.0
 10
3.382298645001952
 20
1.988267261926697
 30
0.0
 10
3.390917098588097
 20
1.992707932400325
 30
0.0
 10
3.39976147712937
 20
1.995755107339704
 30
0.0
 10
3.410424701923002
 20
1.996642627259987
 30
0.0
 10
3.423557736600905
 20
1.994932850647163
 30
0.0
 10
3.432943458440174
 20
1.990895664595829
 30
0.0
 10
3.438064664251378
 20
1.988692822766378
 30
0.0
  0
ARC
  5
117
330
2
100
AcDbEntity
  8
0
100
AcDbCircle
 10
3.479834921828899
 20
1.977572715089575
 30
0.0
 40
0.0532065756321051
100
AcDbArc
 50
59.11419839259999
 51
113.6180233403
  0
SPLINE
  5
118
330
2
100
AcDbEntity
  8
0
100
AcDbSpline
210
0.0
220
0.0
230
1.0
 70
     8
 71
     3
 72
    11
 73
     7
 74
     0
 42
0.000000001
 43
0.0000000001
 40
0.0
 40
0.0
 40
0.0
 40
0.0
 40
0.2747700357609789
 40
0.5495428479298821
 40
0.8242921249007958
 40
1.0
 40
1.0
 40
1.0
 40
1.0
 10
49.87357202220337
 20
24.49508988799636
 30
0.0
 10
49.87549457064648
 20
24.49435941702228
 30
0.0
 10
49.87933968695902
 20
24.49289846769311
 30
0.0
 10
49.88443104600351
 20
24.49396719950032
 30
0.0
 10
49.88792462478828
 20
24.49686800410513
 30
0.0
 10
49.88917122891137
 20
24.4997848116224
 30
0.0
 10
49.88965748639571
 20
24.50092255812854
 30
0.0
  0
LINE
  5
119
330
2
100
AcDbEntity
  8
0
100
AcDbLine
 10
49.87239089341592
 20
24.49568045239373
 30
0.0
 11
49.8735720221996
 21
24.49508988800189
 31
0.0
  0
LWPOLYLINE
  5
11A
330
2
100
AcDbEntity
  8
0
100
AcDbPolyline
 90
       15
 70
   128
 43
0.0
 10
49.88965748639505
 20
24.50092255812834
 10
49.90568162176898
 20
24.57046577138184
 10
49.9093645017424
 20
24.64849694616944
 10
49.90057153390853
 20
24.73216515732878
 10
49.87962403416891
 20
24.81841345116646
 10
49.847287323837
 20
24.90409068278291
 10
49.80474283403086
 20
24.98606655050446
 10
49.75354499730889
 20
25.06134596350645
 10
49.69556436655503
 20
25.12717853884117
 10
49.63291933613435
 20
25.18115896578677
 10
49.56789871302905
 20
25.22131500896272
 10
49.50287808990923
 20
25.24617958889208
 10
49.44023305948856
 20
25.25484419238166
 10
49.3822524287347
 20
25.24699224778629
 10
49.35536855702537
 20
25.23679096568165
  0
LWPOLYLINE
  5
11B
330
2
100
AcDbEntity
  8
0
100
AcDbPolyline
 90
       15
 70
   128
 43
0.0
 10
49.9843023681874
 20
24.55152413993739
 10
50.0
 20
24.62077162954151
 10
50.00345720137383
 20
24.6983874381746
 10
49.99454822754366
 20
24.78154648514005
 10
49.97359725878034
 20
24.8672220341343
 10
49.94136694295694
 20
24.95229568774288
 10
49.899030325062
 20
25.03367095156407
 10
49.84812835932178
 20
25.10838601850923
 10
49.79051376806755
 20
25.1737214049367
 10
49.72828357046452
 20
25.22729909267247
 10
49.66370279545211
 20
25.26716898681752
 10
49.5991220204397
 20
25.29187986768488
 10
49.53689182282217
 20
25.30053237755215
 10
49.47927723156796
 20
25.29281158239339
 10
49.45221266739354
 20
25.2825691710092
  0
LINE
  5
11C
330
2
100
AcDbEntity
  8
0
100
AcDbLine
 10
3.980866444378776
 20
1.684908792019786
 30
0.0
 11
3.987827345005417
 21
1.68142834170646
 31
0.0
  0
ARC
  5
11D
330
2
100
AcDbEntity
  8
0
100
AcDbCircle
 10
49.90128854113291
 20
24.64370557153659
 30
0.0
 40
0.0082697565839021
100
AcDbArc
 50
302.2535064990998
 51
8.61569775340034
  0
ARC
  5
11E
330
2
100
AcDbEntity
  8
0
100
AcDbCircle
 10
49.89557986158562
 20
24.63095692464751
 30
0.0
 40
0.0071979611322826
100
AcDbArc
 50
1.26749797740018
 51
31.51192962279992
  0
ARC
  5
11F
330
2
100
AcDbEntity
  8
0
100
AcDbCircle
 10
49.50978421762835
 20
24.62950565723193
 30
0.0
 40
0.3929951437765073
100
AcDbArc
 50
341.4420640519998
 51
0.2347978456997617
  0
ARC
  5
120
330
2
100
AcDbEntity
  8
0
100
AcDbCircle
 10
49.87201375199662
 20
24.50755401372194
 30
0.0
 40
0.0107928838614151
100
AcDbArc
 50
298.1630489469999
 51
343.1731266890998
  0
ARC
  5
121
330
2
100
AcDbEntity
  8
0
100
AcDbCircle
 10
0.8450157647864138
 20
0.6151581404619649
 30
0.0
 40
0.0118229538734837
100
AcDbArc
 50
66.38019206770021
 51
120.8871252113999
  0
ARC
  5
122
330
2
100
AcDbEntity
  8
0
100
AcDbCircle
 10
0.9300534657420094
 20
0.431073030567017
 30
0.0
 40
0.075721842286659
100
AcDbArc
 50
119.0944719074
 51
142.6847035083001
  0
ARC
  5
123
330
2
100
AcDbEntity
  8
0
100
AcDbCircle
 10
0.6299517507617161
 20
0.682300269295844
 30
0.0
 40
0.0099996706515391
100
AcDbArc
 50
185.4389432204997
 51
253.2740593649003
  0
SPLINE
  5
124
330
2
100
AcDbEntity
  8
0
100
AcDbSpline
210
0.0
220
0.0
230
1.0
 70
     8
 71
     3
 72
     9
 73
     5
 74
     0
 42
0.000000001
 43
0.0000000001
 40
0.0
 40
0.0
 40
0.0
 40
0.0
 40
0.601149471764802
 40
1.0
 40
1.0
 40
1.0
 40
1.0
 10
3.867993752935557
 20
1.493242030853004
 30
0.0
 10
3.867223115532805
 20
1.491443981797583
 30
0.0
 10
3.865941175784129
 20
1.488452963523645
 30
0.0
 10
3.863413568332319
 20
1.487316976856778
 30
0.0
 10
3.862405430765001
 20
1.486863887974632
 30
0.0
  0
ARC
  5
125
330
2
100
AcDbEntity
  8
0
100
AcDbCircle
 10
3.279650323745936
 20
1.728650197864268
 30
0.0
 40
0.0290258921690386
100
AcDbArc
 50
302.6961489736
 51
5.974698999999993
  0
ARC
  5
126
330
2
100
AcDbEntity
  8
0
100
AcDbCircle
 10
3.197693312481337
 20
1.803349366874243
 30
0.0
 40
0.0248312477331659
100
AcDbArc
 50
59.11420209810001
 51
113.6180635336001
  0
LWPOLYLINE
  5
127
330
2
100
AcDbEntity
  8
0
100
AcDbPolyline
 90
        8
 70
   128
 43
0.0
 10
3.38146840948676
 20
1.692997785180182
 10
3.389053813016424
 20
1.692489893116263
 10
3.402222195910574
 20
1.694526246919618
 10
3.413764370526767
 20
1.700356460385183
 10
3.423236800895608
 20
1.709756474105248
 10
3.430275444638201
 20
1.722365056788806
 10
3.434609819989834
 20
1.737697666814476
 10
3.436073357327849
 20
1.755165082802928
  0
SPLINE
  5
128
330
2
100
AcDbEntity
  8
0
100
AcDbSpline
210
0.0
220
0.0
230
1.0
 70
     8
 71
     3
 72
     9
 73
     5
 74
     0
 42
0.000000001
 43
0.0000000001
 40
0.0
 40
0.0
 40
0.0
 40
0.0
 40
0.5880829423475131
 40
1.0
 40
1.0
 40
1.0
 40
1.0
 10
49.97916761513312
 20
24.54513189020439
 30
0.0
 10
49.98046612583782
 20
24.54600599520089
 30
0.0
 10
49.98267416591382
 20
24.54749235866011
 30
0.0
 10
49.98382735141436
 20
24.55034789557059
 30
0.0
 10
49.98430236819267
 20
24.55152413993276
 30
0.0
  0
LINE
  5
129
330
2
100
AcDbEntity
  8
0
100
AcDbLine
 10
3.220055321845741
 20
2.080559721027807
 30
0.0
 11
3.219879703828059
 21
2.071356276247048
 31
0.0
  0
ARC
  5
12A
330
2
100
AcDbEntity
  8
0
100
AcDbCircle
 10
3.584011517849713
 20
1.851776565736518
 30
0.0
 40
0.0612874871230808
100
AcDbArc
 50
303.309980732496
 51
6.62890704135148
  0
ARC
  5
12B
330
2
100
AcDbEntity
  8
0
100
AcDbCircle
 10
3.461789132297795
 20
1.771136306346253
 30
0.0
 40
0.0434021327435424
100
AcDbArc
 50
268.8245602902908
 51
295.6002338246027
  0
ARC
  5
12C
330
2
100
AcDbEntity
  8
0
100
AcDbCircle
 10
3.328857552301862
 20
1.945431385006887
 30
0.0
 40
0.0144434546048615
100
AcDbArc
 50
122.5336559133249
 51
187.2988016362416
  0
ARC
  5
12D
330
2
100
AcDbEntity
  8
0
100
AcDbCircle
 10
3.175762983649267
 20
1.85281907361184
 30
0.0
 40
0.0292821040344568
100
AcDbArc
 50
294.1540594287241
 51
354.3017549823911
  0
ARC
  5
12E
330
2
100
AcDbEntity
  8
0
100
AcDbCircle
 10
3.348971480725325
 20
1.755447541477014
 30
0.0
 40
0.057413377623579
100
AcDbArc
 50
235.9838452177263
 51
260.9413646398574
  0
ARC
  5
12F
330
2
100
AcDbEntity
  8
0
100
AcDbCircle
 10
3.99150526543012
 20
1.688087587113866
 30
0.0
 40
0.0076074074458037
100
AcDbArc
 50
241.0880031473713
 51
291.6442828866023
  0
ARC
  5
130
330
2
100
AcDbEntity
  8
0
100
AcDbCircle
 10
3.110626226993549
 20
1.622791476407066
 30
0.0
 40
0.7683675085497095
100
AcDbArc
 50
350.2933669088969
 51
10.05898351400562
  0
ENDSEC
  0
SECTION
  2
OBJECTS
  0
DICTIONARY
  5
9
330
0
100
AcDbDictionary
281
     1
  3
ACAD_COLOR
350
43
  3
ACAD_GROUP
350
30
  3
ACAD_LAYOUT
350
16
  3
ACAD_MATERIAL
350
B
  3
ACAD_MLEADERSTYLE
350
46
  3
ACAD_MLINESTYLE
350
31
  3
ACAD_PLOTSETTINGS
350
32
  3
ACAD_PLOTSTYLENAME
350
8
  3
ACAD_SCALELIST
350
44
  3
ACAD_TABLESTYLE
350
45
  3
ACAD_VISUALSTYLE
350
29
  3
ACDB_RECOMPOSE_DATA
350
13D
  3
AcDbVariableDictionary
350
131
  0
DICTIONARY
  5
1C
330
1B
100
AcDbDictionary
280
     1
281
     1
  3
ACAD_LAYERSTATES
360
1D
  0
DICTIONARY
  5
5
330
4
100
AcDbDictionary
280
     1
281
     1
  3
ADSK_XREC_LAYER_RECONCILED
360
6
  0
DICTIONARY
  5
43
102
{ACAD_REACTORS
330
9
102
}
330
9
100
AcDbDictionary
281
     1
  0
DICTIONARY
  5
30
102
{ACAD_REACTORS
330
9
102
}
330
9
100
AcDbDictionary
281
     1
  0
DICTIONARY
  5
16
102
{ACAD_REACTORS
330
9
102
}
330
9
100
AcDbDictionary
281
     1
  3
Layout1
350
1A
  3
Model
350
15
  0
DICTIONARY
  5
B
102
{ACAD_REACTORS
330
9
102
}
330
9
100
AcDbDictionary
281
     1
  3
ByBlock
350
3B
  3
ByLayer
350
33
  3
Global
350
A
  0
DICTIONARY
  5
46
102
{ACAD_REACTORS
330
9
102
}
330
9
100
AcDbDictionary
281
     1
  0
DICTIONARY
  5
31
102
{ACAD_REACTORS
330
9
102
}
330
9
100
AcDbDictionary
281
     1
  3
Standard
350
47
  0
DICTIONARY
  5
32
102
{ACAD_REACTORS
330
9
102
}
330
9
100
AcDbDictionary
281
     1
  0
ACDBDICTIONARYWDFLT
  5
8
102
{ACAD_REACTORS
330
9
102
}
330
9
100
AcDbDictionary
281
     1
  3
Normal
350
7
100
AcDbDictionaryWithDefault
340
7
  0
DICTIONARY
  5
44
102
{ACAD_REACTORS
330
9
102
}
330
9
100
AcDbDictionary
281
     1
  3
A0
350
4B
  3
A1
350
4C
  3
A2
350
4D
  3
A3
350
4E
  3
A4
350
4F
  3
A5
350
50
  3
A6
350
51
  3
A7
350
52
  3
A8
350
53
  3
A9
350
54
  3
B0
350
55
  3
B1
350
56
  3
B2
350
57
  3
B3
350
58
  3
B4
350
59
  3
B5
350
5A
  3
B6
350
5B
  3
B7
350
5C
  3
B8
350
5D
  3
B9
350
5E
  3
C0
350
5F
  3
C1
350
60
  3
C2
350
61
  3
C3
350
62
  3
C4
350
63
  3
C5
350
64
  3
C6
350
65
  3
C7
350
66
  3
C8
350
67
  3
C9
350
68
  3
D0
350
69
  3
D1
350
6A
  3
D2
350
6B
  0
DICTIONARY
  5
45
102
{ACAD_REACTORS
330
9
102
}
330
9
100
AcDbDictionary
281
     1
  3
Standard
350
48
  0
DICTIONARY
  5
29
102
{ACAD_REACTORS
330
9
102
}
330
9
100
AcDbDictionary
281
     1
  3
2dWireframe
350
28
  3
Realistic
350
49
  3
Wireframe
350
4A
  0
XRECORD
  5
13D
102
{ACAD_REACTORS
330
9
102
}
330
9
100
AcDbXrecord
280
     1
 90
        1
330
48
  0
DICTIONARY
  5
131
102
{ACAD_REACTORS
330
9
102
}
330
9
100
AcDbDictionary
281
     1
  3
CANNOSCALE
350
137
  3
CMLEADERSTYLE
350
133
  3
CTABLESTYLE
350
132
  3
CVIEWDETAILSTYLE
350
134
  3
CVIEWSECTIONSTYLE
350
135
  3
LAYEREVAL
350
139
  3
LAYERNOTIFY
350
13A
  3
LIGHTINGUNITS
350
138
  3
MSLTSCALE
350
136
  0
DICTIONARY
  5
1D
102
{ACAD_REACTORS
330
1C
102
}
330
1C
100
AcDbDictionary
281
     1
  0
XRECORD
  5
6
102
{ACAD_REACTORS
330
5
102
}
330
5
100
AcDbXrecord
280
     1
290
     1
  0
LAYOUT
  5
1A
102
{ACAD_REACTORS
330
16
102
}
330
16
100
AcDbPlotSettings
  1

  2
none_device
  4

  6

 40
0.0
 41
0.0
 42
0.0
 43
0.0
 44
0.0
 45
0.0
 46
0.0
 47
0.0
 48
0.0
 49
0.0
140
0.0
141
0.0
142
1.0
143
1.0
 70
   688
 72
     1
 73
     0
 74
     5
  7

 75
    16
147
1.0
 76
     0
 77
     2
 78
   300
148
0.0
149
0.0
100
AcDbLayout
  1
Layout1
 70
     1
 71
     1
 10
0.0
 20
0.0
 11
420.0
 21
297.0
 12
0.0
 22
0.0
 32
0.0
 14
1.000000000000000E+20
 24
1.000000000000000E+20
 34
1.000000000000000E+20
 15
-1.000000000000000E+20
 25
-1.000000000000000E+20
 35
-1.000000000000000E+20
146
0.0
 13
0.0
 23
0.0
 33
0.0
 16
1.0
 26
0.0
 36
0.0
 17
0.0
 27
1.0
 37
0.0
 76
     0
330
17
  0
LAYOUT
  5
15
102
{ACAD_REACTORS
330
16
102
}
330
16
100
AcDbPlotSettings
  1

  2
none_device
  4
Letter_(8.50_x_11.00_Inches)
  6

 40
6.349999999999999
 41
6.349999999999999
 42
6.350005079999999
 43
6.350005079999999
 44
215.9
 45
279.4
 46
0.0
 47
0.0
 48
0.0
 49
0.0
140
0.0
141
0.0
142
1.0
143
1.0
 70
  1712
 72
     1
 73
     0
 74
     0
  7

 75
     0
147
1.0
 76
     0
 77
     2
 78
   300
148
0.0
149
0.0
100
AcDbLayout
  1
Model
 70
     1
 71
     0
 10
0.0
 20
0.0
 11
297.0
 21
210.0
 12
0.0
 22
0.0
 32
0.0
 14
0.0
 24
0.0
 34
0.0
 15
297.0
 25
210.0
 35
0.0
146
0.0
 13
0.0
 23
0.0
 33
0.0
 16
1.0
 26
0.0
 36
0.0
 17
0.0
 27
1.0
 37
0.0
 76
     0
330
2
331
27
  0
MATERIAL
  5
3B
102
{ACAD_XDICTIONARY
360
3C
102
}
102
{ACAD_REACTORS
330
B
102
}
330
B
100
AcDbMaterial
  1
ByBlock
 72
     0
 43
0.0008202099737533
 43
0.0
 43
0.0
 43
0.0
 43
0.0
 43
0.0008202099737533
 43
0.0
 43
0.0
 43
0.0
 43
0.0
 43
1.0
 43
0.0
 43
0.0
 43
0.0
 43
0.0
 43
1.0
 77
     0
 47
0.0008202099737533
 47
0.0
 47
0.0
 47
0.0
 47
0.0
 47
0.0008202099737533
 47
0.0
 47
0.0
 47
0.0
 47
0.0
 47
1.0
 47
0.0
 47
0.0
 47
0.0
 47
0.0
 47
1.0
171
     0
 49
0.0008202099737533
 49
0.0
 49
0.0
 49
0.0
 49
0.0
 49
0.0008202099737533
 49
0.0
 49
0.0
 49
0.0
 49
0.0
 49
1.0
 49
0.0
 49
0.0
 49
0.0
 49
0.0
 49
1.0
175
     0
142
0.0008202099737533
142
0.0
142
0.0
142
0.0
142
0.0
142
0.0008202099737533
142
0.0
142
0.0
142
0.0
142
0.0
142
1.0
142
0.0
142
0.0
142
0.0
142
0.0
142
1.0
179
     0
144
0.0008202099737533
144
0.0
144
0.0
144
0.0
144
0.0
144
0.0008202099737533
144
0.0
144
0.0
144
0.0
144
0.0
144
1.0
144
0.0
144
0.0
144
0.0
144
0.0
144
1.0
147
0.0008202099737533
147
0.0
147
0.0
147
0.0
147
0.0
147
0.0008202099737533
147
0.0
147
0.0
147
0.0
147
0.0
147
1.0
147
0.0
147
0.0
147
0.0
147
0.0
147
1.0
  0
MATERIAL
  5
33
102
{ACAD_XDICTIONARY
360
34
102
}
102
{ACAD_REACTORS
330
B
102
}
330
B
100
AcDbMaterial
  1
ByLayer
 72
     0
 43
0.0008202099737533
 43
0.0
 43
0.0
 43
0.0
 43
0.0
 43
0.0008202099737533
 43
0.0
 43
0.0
 43
0.0
 43
0.0
 43
1.0
 43
0.0
 43
0.0
 43
0.0
 43
0.0
 43
1.0
 77
     0
 47
0.0008202099737533
 47
0.0
 47
0.0
 47
0.0
 47
0.0
 47
0.0008202099737533
 47
0.0
 47
0.0
 47
0.0
 47
0.0
 47
1.0
 47
0.0
 47
0.0
 47
0.0
 47
0.0
 47
1.0
171
     0
 49
0.0008202099737533
 49
0.0
 49
0.0
 49
0.0
 49
0.0
 49
0.0008202099737533
 49
0.0
 49
0.0
 49
0.0
 49
0.0
 49
1.0
 49
0.0
 49
0.0
 49
0.0
 49
0.0
 49
1.0
175
     0
142
0.0008202099737533
142
0.0
142
0.0
142
0.0
142
0.0
142
0.0008202099737533
142
0.0
142
0.0
142
0.0
142
0.0
142
1.0
142
0.0
142
0.0
142
0.0
142
0.0
142
1.0
179
     0
144
0.0008202099737533
144
0.0
144
0.0
144
0.0
144
0.0
144
0.0008202099737533
144
0.0
144
0.0
144
0.0
144
0.0
144
1.0
144
0.0
144
0.0
144
0.0
144
0.0
144
1.0
147
0.0008202099737533
147
0.0
147
0.0
147
0.0
147
0.0
147
0.0008202099737533
147
0.0
147
0.0
147
0.0
147
0.0
147
1.0
147
0.0
147
0.0
147
0.0
147
0.0
147
1.0
  0
MATERIAL
  5
A
102
{ACAD_XDICTIONARY
360
C
102
}
102
{ACAD_REACTORS
330
B
102
}
330
B
100
AcDbMaterial
  1
Global
 72
     0
 43
0.0008202099737533
 43
0.0
 43
0.0
 43
0.0
 43
0.0
 43
0.0008202099737533
 43
0.0
 43
0.0
 43
0.0
 43
0.0
 43
1.0
 43
0.0
 43
0.0
 43
0.0
 43
0.0
 43
1.0
 77
     0
 47
0.0008202099737533
 47
0.0
 47
0.0
 47
0.0
 47
0.0
 47
0.0008202099737533
 47
0.0
 47
0.0
 47
0.0
 47
0.0
 47
1.0
 47
0.0
 47
0.0
 47
0.0
 47
0.0
 47
1.0
171
     0
 49
0.0008202099737533
 49
0.0
 49
0.0
 49
0.0
 49
0.0
 49
0.0008202099737533
 49
0.0
 49
0.0
 49
0.0
 49
0.0
 49
1.0
 49
0.0
 49
0.0
 49
0.0
 49
0.0
 49
1.0
175
     0
142
0.0008202099737533
142
0.0
142
0.0
142
0.0
142
0.0
142
0.0008202099737533
142
0.0
142
0.0
142
0.0
142
0.0
142
1.0
142
0.0
142
0.0
142
0.0
142
0.0
142
1.0
179
     0
144
0.0008202099737533
144
0.0
144
0.0
144
0.0
144
0.0
144
0.0008202099737533
144
0.0
144
0.0
144
0.0
144
0.0
144
1.0
144
0.0
144
0.0
144
0.0
144
0.0
144
1.0
147
0.0008202099737533
147
0.0
147
0.0
147
0.0
147
0.0
147
0.0008202099737533
147
0.0
147
0.0
147
0.0
147
0.0
147
1.0
147
0.0
147
0.0
147
0.0
147
0.0
147
1.0
  0
MLINESTYLE
  5
47
102
{ACAD_REACTORS
330
31
102
}
330
31
100
AcDbMlineStyle
  2
STANDARD
 70
     0
  3

 62
   256
 51
90.0
 52
90.0
 71
     2
 49
0.5
 62
   256
  6
BYLAYER
 49
-0.5
 62
   256
  6
BYLAYER
  0
ACDBPLACEHOLDER
  5
7
102
{ACAD_REACTORS
330
8
102
}
330
8
  0
SCALE
  5
4B
102
{ACAD_REACTORS
330
44
102
}
330
44
100
AcDbScale
 70
     0
300
1:1
140
1.0
141
1.0
290
     1
  0
SCALE
  5
4C
102
{ACAD_REACTORS
330
44
102
}
330
44
100
AcDbScale
 70
     0
300
1:2
140
1.0
141
2.0
290
     0
  0
SCALE
  5
4D
102
{ACAD_REACTORS
330
44
102
}
330
44
100
AcDbScale
 70
     0
300
1:4
140
1.0
141
4.0
290
     0
  0
SCALE
  5
4E
102
{ACAD_REACTORS
330
44
102
}
330
44
100
AcDbScale
 70
     0
300
1:5
140
1.0
141
5.0
290
     0
  0
SCALE
  5
4F
102
{ACAD_REACTORS
330
44
102
}
330
44
100
AcDbScale
 70
     0
300
1:8
140
1.0
141
8.0
290
     0
  0
SCALE
  5
50
102
{ACAD_REACTORS
330
44
102
}
330
44
100
AcDbScale
 70
     0
300
1:10
140
1.0
141
10.0
290
     0
  0
SCALE
  5
51
102
{ACAD_REACTORS
330
44
102
}
330
44
100
AcDbScale
 70
     0
300
1:16
140
1.0
141
16.0
290
     0
  0
SCALE
  5
52
102
{ACAD_REACTORS
330
44
102
}
330
44
100
AcDbScale
 70
     0
300
1:20
140
1.0
141
20.0
290
     0
  0
SCALE
  5
53
102
{ACAD_REACTORS
330
44
102
}
330
44
100
AcDbScale
 70
     0
300
1:30
140
1.0
141
30.0
290
     0
  0
SCALE
  5
54
102
{ACAD_REACTORS
330
44
102
}
330
44
100
AcDbScale
 70
     0
300
1:40
140
1.0
141
40.0
290
     0
  0
SCALE
  5
55
102
{ACAD_REACTORS
330
44
102
}
330
44
100
AcDbScale
 70
     0
300
1:50
140
1.0
141
50.0
290
     0
  0
SCALE
  5
56
102
{ACAD_REACTORS
330
44
102
}
330
44
100
AcDbScale
 70
     0
300
1:100
140
1.0
141
100.0
290
     0
  0
SCALE
  5
57
102
{ACAD_REACTORS
330
44
102
}
330
44
100
AcDbScale
 70
     0
300
2:1
140
2.0
141
1.0
290
     0
  0
SCALE
  5
58
102
{ACAD_REACTORS
330
44
102
}
330
44
100
AcDbScale
 70
     0
300
4:1
140
4.0
141
1.0
290
     0
  0
SCALE
  5
59
102
{ACAD_REACTORS
330
44
102
}
330
44
100
AcDbScale
 70
     0
300
8:1
140
8.0
141
1.0
290
     0
  0
SCALE
  5
5A
102
{ACAD_REACTORS
330
44
102
}
330
44
100
AcDbScale
 70
     0
300
10:1
140
10.0
141
1.0
290
     0
  0
SCALE
  5
5B
102
{ACAD_REACTORS
330
44
102
}
330
44
100
AcDbScale
 70
     0
300
100:1
140
100.0
141
1.0
290
     0
  0
SCALE
  5
5C
102
{ACAD_REACTORS
330
44
102
}
330
44
100
AcDbScale
 70
     0
300
1/128" = 1'-0"
140
0.0078125
141
12.0
290
     0
  0
SCALE
  5
5D
102
{ACAD_REACTORS
330
44
102
}
330
44
100
AcDbScale
 70
     0
300
1/64" = 1'-0"
140
0.015625
141
12.0
290
     0
  0
SCALE
  5
5E
102
{ACAD_REACTORS
330
44
102
}
330
44
100
AcDbScale
 70
     0
300
1/32" = 1'-0"
140
0.03125
141
12.0
290
     0
  0
SCALE
  5
5F
102
{ACAD_REACTORS
330
44
102
}
330
44
100
AcDbScale
 70
     0
300
1/16" = 1'-0"
140
0.0625
141
12.0
290
     0
  0
SCALE
  5
60
102
{ACAD_REACTORS
330
44
102
}
330
44
100
AcDbScale
 70
     0
300
3/32" = 1'-0"
140
0.09375
141
12.0
290
     0
  0
SCALE
  5
61
102
{ACAD_REACTORS
330
44
102
}
330
44
100
AcDbScale
 70
     0
300
1/8" = 1'-0"
140
0.125
141
12.0
290
     0
  0
SCALE
  5
62
102
{ACAD_REACTORS
330
44
102
}
330
44
100
AcDbScale
 70
     0
300
3/16" = 1'-0"
140
0.1875
141
12.0
290
     0
  0
SCALE
  5
63
102
{ACAD_REACTORS
330
44
102
}
330
44
100
AcDbScale
 70
     0
300
1/4" = 1'-0"
140
0.25
141
12.0
290
     0
  0
SCALE
  5
64
102
{ACAD_REACTORS
330
44
102
}
330
44
100
AcDbScale
 70
     0
300
3/8" = 1'-0"
140
0.375
141
12.0
290
     0
  0
SCALE
  5
65
102
{ACAD_REACTORS
330
44
102
}
330
44
100
AcDbScale
 70
     0
300
1/2" = 1'-0"
140
0.5
141
12.0
290
     0
  0
SCALE
  5
66
102
{ACAD_REACTORS
330
44
102
}
330
44
100
AcDbScale
 70
     0
300
3/4" = 1'-0"
140
0.75
141
12.0
290
     0
  0
SCALE
  5
67
102
{ACAD_REACTORS
330
44
102
}
330
44
100
AcDbScale
 70
     0
300
1" = 1'-0"
140
1.0
141
12.0
290
     0
  0
SCALE
  5
68
102
{ACAD_REACTORS
330
44
102
}
330
44
100
AcDbScale
 70
     0
300
1-1/2" = 1'-0"
140
1.5
141
12.0
290
     0
  0
SCALE
  5
69
102
{ACAD_REACTORS
330
44
102
}
330
44
100
AcDbScale
 70
     0
300
3" = 1'-0"
140
3.0
141
12.0
290
     0
  0
SCALE
  5
6A
102
{ACAD_REACTORS
330
44
102
}
330
44
100
AcDbScale
 70
     0
300
6" = 1'-0"
140
6.0
141
12.0
290
     0
  0
SCALE
  5
6B
102
{ACAD_REACTORS
330
44
102
}
330
44
100
AcDbScale
 70
     0
300
1'-0" = 1'-0"
140
12.0
141
12.0
290
     0
  0
TABLESTYLE
  5
48
102
{ACAD_XDICTIONARY
360
13B
102
}
102
{ACAD_REACTORS
330
45
102
}
330
45
100
AcDbTableStyle
280
     0
  3
Standard
 70
     0
 71
     0
 40
1.5
 41
1.5
280
     0
281
     0
  7
Standard
140
4.5
170
     2
 62
     0
 63
     7
283
     0
 90
      512
 91
        0
  1

274
    -2
284
     1
 64
     0
275
    -2
285
     1
 65
     0
276
    -2
286
     1
 66
     0
277
    -2
287
     1
 67
     0
278
    -2
288
     1
 68
     0
279
    -2
289
     1
 69
     0
  7
Standard
140
6.0
170
     5
 62
     0
 63
     7
283
     0
 90
      512
 91
        0
  1

274
    -2
284
     1
 64
     0
275
    -2
285
     1
 65
     0
276
    -2
286
     1
 66
     0
277
    -2
287
     1
 67
     0
278
    -2
288
     1
 68
     0
279
    -2
289
     1
 69
     0
  7
Standard
140
4.5
170
     5
 62
     0
 63
     7
283
     0
 90
      512
 91
        0
  1

274
    -2
284
     1
 64
     0
275
    -2
285
     1
 65
     0
276
    -2
286
     1
 66
     0
277
    -2
287
     1
 67
     0
278
    -2
288
     1
 68
     0
279
    -2
289
     1
 69
     0
  0
VISUALSTYLE
  5
28
102
{ACAD_REACTORS
330
29
102
}
330
29
100
AcDbVisualStyle
  2
2dWireframe
 70
     4
177
     3
291
     0
 70
    58
 90
        0
176
     1
 90
        2
176
     1
 90
        0
176
     1
 90
        0
176
     1
 40
0.6
176
     1
 40
30.0
176
     1
 62
     7
420
 16777215
176
     1
 90
        1
176
     1
 90
        4
176
     1
 62
     7
176
     1
 62
   257
176
     1
 90
        1
176
     1
 90
        1
176
     1
 40
1.0
176
     1
 90
        0
176
     1
 62
   257
176
     1
 40
1.0
176
     1
 90
        1
176
     1
 90
        6
176
     1
 90
        2
176
     1
 62
     7
176
     1
 90
        5
176
     1
 90
        0
176
     1
 90
        0
176
     1
290
     0
176
     1
 90
        1
176
     1
 40
0.0
176
     1
 90
        0
176
     1
290
     1
176
     1
290
     1
176
     1
290
     0
176
     1
290
     0
176
     1
290
     0
176
     1
290
     0
176
     1
290
     0
176
     1
290
     0
176
     1
290
     0
176
     1
 90
       50
176
     1
 40
0.0
176
     1
 40
1.0
176
     1
 90
        0
176
     1
 62
    18
420
        0
176
     1
 90
       50
176
     1
 90
        3
176
     1
 62
     5
420
      255
176
     1
290
     0
176
     1
 90
       50
176
     1
 90
       50
176
     1
 90
       50
176
     1
290
     0
176
     1
 90
       50
176
     1
 62
   256
176
     0
 40
1.0
176
     0
 90
        2
176
     1
  1
strokes_ogs.tif
176
     1
290
     0
176
     1
 40
1.0
176
     1
 40
1.0
176
     1
  0
VISUALSTYLE
  5
49
102
{ACAD_REACTORS
330
29
102
}
330
29
100
AcDbVisualStyle
  2
Realistic
 70
     8
177
     3
291
     0
 70
    58
 90
        2
176
     1
 90
        3
176
     1
 90
        0
176
     1
 90
        2
176
     1
 40
0.6
176
     1
 40
30.0
176
     1
 62
     7
420
 16777215
176
     1
 90
        0
176
     1
 90
        0
176
     1
 62
     7
176
     1
 62
   257
176
     1
 90
        1
176
     1
 90
        1
176
     1
 40
1.0
176
     1
 90
        8
176
     1
 62
   257
176
     1
 40
1.0
176
     1
 90
        1
176
     1
 90
        6
176
     1
 90
        2
176
     1
 62
     7
176
     1
 90
        3
176
     1
 90
        0
176
     1
 90
        0
176
     1
290
     0
176
     1
 90
       13
176
     1
 40
0.0
176
     1
 90
        0
176
     1
290
     0
176
     1
290
     1
176
     1
290
     1
176
     1
290
     0
176
     1
290
     0
176
     1
290
     0
176
     1
290
     0
176
     1
290
     0
176
     1
290
     0
176
     1
 90
       50
176
     1
 40
0.0
176
     1
 40
1.0
176
     1
 90
        0
176
     1
 62
    18
420
        0
176
     1
 90
       50
176
     1
 90
        3
176
     1
 62
     5
420
      255
176
     1
290
     0
176
     1
 90
       50
176
     1
 90
       50
176
     1
 90
       50
176
     1
290
     0
176
     1
 90
       50
176
     1
 62
   256
176
     0
 40
1.0
176
     0
 90
        2
176
     1
  1
strokes_ogs.tif
176
     1
290
     0
176
     1
 40
1.0
176
     1
 40
1.0
176
     1
  0
VISUALSTYLE
  5
4A
102
{ACAD_REACTORS
330
29
102
}
330
29
100
AcDbVisualStyle
  2
Wireframe
 70
     5
177
     3
291
     0
 70
    58
 90
        0
176
     1
 90
        2
176
     1
 90
        0
176
     1
 90
        0
176
     1
 40
0.6
176
     1
 40
30.0
176
     1
 62
     7
420
 16777215
176
     1
 90
        1
176
     1
 90
        4
176
     1
 62
     7
176
     1
 62
   257
176
     1
 90
        1
176
     1
 90
        1
176
     1
 40
1.0
176
     1
 90
        0
176
     1
 62
   257
176
     1
 40
1.0
176
     1
 90
        1
176
     1
 90
        6
176
     1
 90
        2
176
     1
 62
     7
176
     1
 90
        3
176
     1
 90
        0
176
     1
 90
        0
176
     1
290
     0
176
     1
 90
        1
176
     1
 40
0.0
176
     1
 90
        0
176
     1
290
     0
176
     1
290
     1
176
     1
290
     1
176
     1
290
     0
176
     1
290
     0
176
     1
290
     0
176
     1
290
     0
176
     1
290
     0
176
     1
290
     0
176
     1
 90
       50
176
     1
 40
0.0
176
     1
 40
1.0
176
     1
 90
        0
176
     1
 62
    18
420
        0
176
     1
 90
       50
176
     1
 90
        3
176
     1
 62
     5
420
      255
176
     1
290
     0
176
     1
 90
       50
176
     1
 90
       50
176
     1
 90
       50
176
     1
290
     0
176
     1
 90
       50
176
     1
 62
   256
176
     0
 40
1.0
176
     0
 90
        2
176
     1
  1
strokes_ogs.tif
176
     1
290
     0
176
     1
 40
1.0
176
     1
 40
1.0
176
     1
  0
DICTIONARYVAR
  5
137
102
{ACAD_REACTORS
330
131
102
}
330
131
100
DictionaryVariables
280
     0
  1
1:1
  0
DICTIONARYVAR
  5
133
102
{ACAD_REACTORS
330
131
102
}
330
131
100
DictionaryVariables
280
     0
  1
STANDARD
  0
DICTIONARYVAR
  5
132
102
{ACAD_REACTORS
330
131
102
}
330
131
100
DictionaryVariables
280
     0
  1
STANDARD
  0
DICTIONARYVAR
  5
134
102
{ACAD_REACTORS
330
131
102
}
330
131
100
DictionaryVariables
280
     0
  1

  0
DICTIONARYVAR
  5
135
102
{ACAD_REACTORS
330
131
102
}
330
131
100
DictionaryVariables
280
     0
  1

  0
DICTIONARYVAR
  5
139
102
{ACAD_REACTORS
330
131
102
}
330
131
100
DictionaryVariables
280
     0
  1
1
  0
DICTIONARYVAR
  5
13A
102
{ACAD_REACTORS
330
131
102
}
330
131
100
DictionaryVariables
280
     0
  1
15
  0
DICTIONARYVAR
  5
138
102
{ACAD_REACTORS
330
131
102
}
330
131
100
DictionaryVariables
280
     0
  1
0
  0
DICTIONARYVAR
  5
136
102
{ACAD_REACTORS
330
131
102
}
330
131
100
DictionaryVariables
280
     0
  1
0
  0
DICTIONARY
  5
3C
330
3B
100
AcDbDictionary
280
     1
281
     1
  3
BUMPTILE
360
3D
  3
DIFFUSETILE
360
3E
  3
OPACITYTILE
360
3F
  3
REFLECTIONTILE
360
40
  3
REFRACTIONTILE
360
41
  3
SPECULARTILE
360
42
  0
DICTIONARY
  5
34
330
33
100
AcDbDictionary
280
     1
281
     1
  3
BUMPTILE
360
35
  3
DIFFUSETILE
360
36
  3
OPACITYTILE
360
37
  3
REFLECTIONTILE
360
38
  3
REFRACTIONTILE
360
39
  3
SPECULARTILE
360
3A
  0
DICTIONARY
  5
C
330
A
100
AcDbDictionary
280
     1
281
     1
  3
BUMPTILE
360
D
  3
DIFFUSETILE
360
E
  3
OPACITYTILE
360
F
  3
REFLECTIONTILE
360
10
  3
REFRACTIONTILE
360
11
  3
SPECULARTILE
360
12
  0
DICTIONARY
  5
13B
330
48
100
AcDbDictionary
280
     1
281
     1
  3
ACAD_ROUNDTRIP_2008_TABLESTYLE_CELLSTYLEMAP
360
13C
  0
XRECORD
  5
3D
102
{ACAD_REACTORS
330
3C
102
}
330
3C
100
AcDbXrecord
280
     1
270
     1
271
     1
  0
XRECORD
  5
3E
102
{ACAD_REACTORS
330
3C
102
}
330
3C
100
AcDbXrecord
280
     1
270
     1
271
     1
  0
XRECORD
  5
3F
102
{ACAD_REACTORS
330
3C
102
}
330
3C
100
AcDbXrecord
280
     1
270
     1
271
     1
  0
XRECORD
  5
40
102
{ACAD_REACTORS
330
3C
102
}
330
3C
100
AcDbXrecord
280
     1
270
     1
271
     1
  0
XRECORD
  5
41
102
{ACAD_REACTORS
330
3C
102
}
330
3C
100
AcDbXrecord
280
     1
270
     1
271
     1
  0
XRECORD
  5
42
102
{ACAD_REACTORS
330
3C
102
}
330
3C
100
AcDbXrecord
280
     1
270
     1
271
     1
  0
XRECORD
  5
35
102
{ACAD_REACTORS
330
34
102
}
330
34
100
AcDbXrecord
280
     1
270
     1
271
     1
  0
XRECORD
  5
36
102
{ACAD_REACTORS
330
34
102
}
330
34
100
AcDbXrecord
280
     1
270
     1
271
     1
  0
XRECORD
  5
37
102
{ACAD_REACTORS
330
34
102
}
330
34
100
AcDbXrecord
280
     1
270
     1
271
     1
  0
XRECORD
  5
38
102
{ACAD_REACTORS
330
34
102
}
330
34
100
AcDbXrecord
280
     1
270
     1
271
     1
  0
XRECORD
  5
39
102
{ACAD_REACTORS
330
34
102
}
330
34
100
AcDbXrecord
280
     1
270
     1
271
     1
  0
XRECORD
  5
3A
102
{ACAD_REACTORS
330
34
102
}
330
34
100
AcDbXrecord
280
     1
270
     1
271
     1
  0
XRECORD
  5
D
102
{ACAD_REACTORS
330
C
102
}
330
C
100
AcDbXrecord
280
     1
270
     1
271
     1
  0
XRECORD
  5
E
102
{ACAD_REACTORS
330
C
102
}
330
C
100
AcDbXrecord
280
     1
270
     1
271
     1
  0
XRECORD
  5
F
102
{ACAD_REACTORS
330
C
102
}
330
C
100
AcDbXrecord
280
     1
270
     1
271
     1
  0
XRECORD
  5
10
102
{ACAD_REACTORS
330
C
102
}
330
C
100
AcDbXrecord
280
     1
270
     1
271
     1
  0
XRECORD
  5
11
102
{ACAD_REACTORS
330
C
102
}
330
C
100
AcDbXrecord
280
     1
270
     1
271
     1
  0
XRECORD
  5
12
102
{ACAD_REACTORS
330
C
102
}
330
C
100
AcDbXrecord
280
     1
270
     1
271
     1
  0
CELLSTYLEMAP
  5
13C
102
{ACAD_REACTORS
330
13B
102
}
330
13B
100
AcDbCellStyleMap
 90
        3
300
CELLSTYLE
  1
TABLEFORMAT_BEGIN
 90
        5
170
     1
 91
        0
 92
    32768
 62
   257
 93
        1
300
CONTENTFORMAT
  1
CONTENTFORMAT_BEGIN
 90
        0
 91
        0
 92
      512
 93
        0
300

 40
0.0
140
1.0
 94
        5
 62
     0
340
1F
144
6.0
309
CONTENTFORMAT_END
171
     1
301
MARGIN
  1
CELLMARGIN_BEGIN
 40
1.5
 40
1.5
 40
1.5
 40
1.5
 40
4.5
 40
4.5
309
CELLMARGIN_END
 94
        6
 95
        1
302
GRIDFORMAT
  1
GRIDFORMAT_BEGIN
 90
        0
 91
        1
 62
     0
 92
       -2
340
0
 93
        0
 40
1.125
309
GRIDFORMAT_END
 95
        2
302
GRIDFORMAT
  1
GRIDFORMAT_BEGIN
 90
        0
 91
        1
 62
     0
 92
       -2
340
0
 93
        0
 40
1.125
309
GRIDFORMAT_END
 95
        4
302
GRIDFORMAT
  1
GRIDFORMAT_BEGIN
 90
        0
 91
        1
 62
     0
 92
       -2
340
0
 93
        0
 40
1.125
309
GRIDFORMAT_END
 95
        8
302
GRIDFORMAT
  1
GRIDFORMAT_BEGIN
 90
        0
 91
        1
 62
     0
 92
       -2
340
0
 93
        0
 40
1.125
309
GRIDFORMAT_END
 95
       16
302
GRIDFORMAT
  1
GRIDFORMAT_BEGIN
 90
        0
 91
        1
 62
     0
 92
       -2
340
0
 93
        0
 40
1.125
309
GRIDFORMAT_END
 95
       32
302
GRIDFORMAT
  1
GRIDFORMAT_BEGIN
 90
        0
 91
        1
 62
     0
 92
       -2
340
0
 93
        0
 40
1.125
309
GRIDFORMAT_END
309
TABLEFORMAT_END
  1
CELLSTYLE_BEGIN
 90
        1
 91
        1
300
_TITLE
309
CELLSTYLE_END
300
CELLSTYLE
  1
TABLEFORMAT_BEGIN
 90
        5
170
     1
 91
        0
 92
        0
 62
   257
 93
        1
300
CONTENTFORMAT
  1
CONTENTFORMAT_BEGIN
 90
        0
 91
        0
 92
      512
 93
        0
300

 40
0.0
140
1.0
 94
        5
 62
     0
340
1F
144
4.5
309
CONTENTFORMAT_END
171
     1
301
MARGIN
  1
CELLMARGIN_BEGIN
 40
1.5
 40
1.5
 40
1.5
 40
1.5
 40
4.5
 40
4.5
309
CELLMARGIN_END
 94
        6
 95
        1
302
GRIDFORMAT
  1
GRIDFORMAT_BEGIN
 90
        0
 91
        1
 62
     0
 92
       -2
340
0
 93
        0
 40
1.125
309
GRIDFORMAT_END
 95
        2
302
GRIDFORMAT
  1
GRIDFORMAT_BEGIN
 90
        0
 91
        1
 62
     0
 92
       -2
340
0
 93
        0
 40
1.125
309
GRIDFORMAT_END
 95
        4
302
GRIDFORMAT
  1
GRIDFORMAT_BEGIN
 90
        0
 91
        1
 62
     0
 92
       -2
340
0
 93
        0
 40
1.125
309
GRIDFORMAT_END
 95
        8
302
GRIDFORMAT
  1
GRIDFORMAT_BEGIN
 90
        0
 91
        1
 62
     0
 92
       -2
340
0
 93
        0
 40
1.125
309
GRIDFORMAT_END
 95
       16
302
GRIDFORMAT
  1
GRIDFORMAT_BEGIN
 90
        0
 91
        1
 62
     0
 92
       -2
340
0
 93
        0
 40
1.125
309
GRIDFORMAT_END
 95
       32
302
GRIDFORMAT
  1
GRIDFORMAT_BEGIN
 90
        0
 91
        1
 62
     0
 92
       -2
340
0
 93
        0
 40
1.125
309
GRIDFORMAT_END
309
TABLEFORMAT_END
  1
CELLSTYLE_BEGIN
 90
        2
 91
        1
300
_HEADER
309
CELLSTYLE_END
300
CELLSTYLE
  1
TABLEFORMAT_BEGIN
 90
        5
170
     1
 91
        0
 92
        0
 62
   257
 93
        1
300
CONTENTFORMAT
  1
CONTENTFORMAT_BEGIN
 90
        0
 91
        0
 92
      512
 93
        0
300

 40
0.0
140
1.0
 94
        2
 62
     0
340
1F
144
4.5
309
CONTENTFORMAT_END
171
     1
301
MARGIN
  1
CELLMARGIN_BEGIN
 40
1.5
 40
1.5
 40
1.5
 40
1.5
 40
4.5
 40
4.5
309
CELLMARGIN_END
 94
        6
 95
        1
302
GRIDFORMAT
  1
GRIDFORMAT_BEGIN
 90
        0
 91
        1
 62
     0
 92
       -2
340
0
 93
        0
 40
1.125
309
GRIDFORMAT_END
 95
        2
302
GRIDFORMAT
  1
GRIDFORMAT_BEGIN
 90
        0
 91
        1
 62
     0
 92
       -2
340
0
 93
        0
 40
1.125
309
GRIDFORMAT_END
 95
        4
302
GRIDFORMAT
  1
GRIDFORMAT_BEGIN
 90
        0
 91
        1
 62
     0
 92
       -2
340
0
 93
        0
 40
1.125
309
GRIDFORMAT_END
 95
        8
302
GRIDFORMAT
  1
GRIDFORMAT_BEGIN
 90
        0
 91
        1
 62
     0
 92
       -2
340
0
 93
        0
 40
1.125
309
GRIDFORMAT_END
 95
       16
302
GRIDFORMAT
  1
GRIDFORMAT_BEGIN
 90
        0
 91
        1
 62
     0
 92
       -2
340
0
 93
        0
 40
1.125
309
GRIDFORMAT_END
 95
       32
302
GRIDFORMAT
  1
GRIDFORMAT_BEGIN
 90
        0
 91
        1
 62
     0
 92
       -2
340
0
 93
        0
 40
1.125
309
GRIDFORMAT_END
309
TABLEFORMAT_END
  1
CELLSTYLE_BEGIN
 90
        3
 91
        2
300
_DATA
309
CELLSTYLE_END
  0
ENDSEC
  0
SECTION
  2
ACDSDATA
 70
     2
 71
     8
  0
ACDSSCHEMA
 90
        0
  1
AcDb_Thumbnail_Schema
  2
AcDbDs::ID
280
    10
 91
        8
  2
Thumbnail_Data
280
    15
 91
        0
101
ACDSRECORD
 95
        0
 90
        1
  2
AcDbDs::TreatedAsObjectData
280
     1
291
     1
101
ACDSRECORD
 95
        0
 90
        2
  2
AcDbDs::Legacy
280
     1
291
     1
101
ACDSRECORD
  1
AcDbDs::ID
 90
        3
  2
AcDs:Indexable
280
     1
291
     1
101
ACDSRECORD
  1
AcDbDs::ID
 90
        4
  2
AcDbDs::HandleAttribute
280
     7
282
     1
  0
ACDSSCHEMA
 90
        1
  1
AcDbDs::TreatedAsObjectDataSchema
  2
AcDbDs::TreatedAsObjectData
280
     1
 91
        0
  0
ACDSSCHEMA
 90
        2
  1
AcDbDs::LegacySchema
  2
AcDbDs::Legacy
280
     1
 91
        0
  0
ACDSSCHEMA
 90
        3
  1
AcDbDs::IndexedPropertySchema
  2
AcDs:Indexable
280
     1
 91
        0
  0
ACDSSCHEMA
 90
        4
  1
AcDbDs::HandleAttributeSchema
  2
AcDbDs::HandleAttribute
280
     7
 91
        1
284
     1
  0
ACDSRECORD
 90
        0
  2
AcDbDs::ID
280
    10
320
15
  2
Thumbnail_Data
280
    15
 94
     1022
310
89504E470D0A1A0A0000000D49484452000001000000006A080300000064B47FDC00000300504C5445212830FFFFFF2128300000000000000000000000000000000000000000000000000000330000660000990000CC0000FF0033000033330033660033990033CC0033FF0066000066330066660066990066CC0066FF0099
310
000099330099660099990099CC0099FF00CC0000CC3300CC6600CC9900CCCC00CCFF00FF0000FF3300FF6600FF9900FFCC00FFFF3300003300333300663300993300CC3300FF3333003333333333663333993333CC3333FF3366003366333366663366993366CC3366FF3399003399333399663399993399CC3399FF33CC00
310
33CC3333CC6633CC9933CCCC33CCFF33FF0033FF3333FF6633FF9933FFCC33FFFF6600006600336600666600996600CC6600FF6633006633336633666633996633CC6633FF6666006666336666666666996666CC6666FF6699006699336699666699996699CC6699FF66CC0066CC3366CC6666CC9966CCCC66CCFF66FF0066
310
FF3366FF6666FF9966FFCC66FFFF9900009900339900669900999900CC9900FF9933009933339933669933999933CC9933FF9966009966339966669966999966CC9966FF9999009999339999669999999999CC9999FF99CC0099CC3399CC6699CC9999CCCC99CCFF99FF0099FF3399FF6699FF9999FFCC99FFFFCC0000CC00
310
33CC0066CC0099CC00CCCC00FFCC3300CC3333CC3366CC3399CC33CCCC33FFCC6600CC6633CC6666CC6699CC66CCCC66FFCC9900CC9933CC9966CC9999CC99CCCC99FFCCCC00CCCC33CCCC66CCCC99CCCCCCCCCCFFCCFF00CCFF33CCFF66CCFF99CCFFCCCCFFFFFF0000FF0033FF0066FF0099FF00CCFF00FFFF3300FF3333
310
FF3366FF3399FF33CCFF33FFFF6600FF6633FF6666FF6699FF66CCFF66FFFF9900FF9933FF9966FF9999FF99CCFF99FFFFCC00FFCC33FFCC66FFCC99FFCCCCFFCCFFFFFF00FFFF33FFFF66FFFF99FFFFCCFFFFFF0000000D0D0D1A1A1A2828283535354343435050505D5D5D6B6B6B787878868686939393A1A1A1AEAEAEBB
310
BBBBC9C9C9D6D6D6E4E4E4F1F1F1FFFFFF0000000000000000000000000000000000000000000000000000000000002E4550F10000006F4944415478DAEDDAC10D00300C0231F6DF977FA54E11097B830BDF2400000000000000C0216DB7F3A72FF0F3D3EDFCC8972F5FBE7CF9F2E5CB972F5FBE7CF9F2E5CB972F5FBE7CF9
310
F2E5CB972F5FBE7CF9F2E5CB972F5FFEA9FAF5F5B71F1BB7F3AD9F6DEBFD00000000000000E73CEC20AF247AEF5B520000000049454E44AE426082922449BB7B00DDFD42951119EAEF0000000049454E44AE426082E39F7DE62BDFEDDB775D7E7DF287CBDFE98DBFB7D9DE1B4992DED507C721D791E18398BD000000004945
310
4E44AE426082
  0
ENDSEC
  0
EOF
