  0
SECTION
  2
HEADER
  9
$ACADVER
  1
AC1015
  9
$ACADMAINTVER
 70
    20
  9
$DWGCODEPAGE
  3
ANSI_932
  9
$INSBASE
 10
0.0
 20
0.0
 30
0.0
  9
$EXTMIN
 10
11.5773635153
 20
7.852197070599999
 30
0.0
  9
$EXTMAX
 10
906.7682758344853
 20
285.5863953379392
 30
248.0951326348
  9
$LIMMIN
 10
0.0
 20
0.0
  9
$LIMMAX
 10
420.0
 20
297.0
  9
$ORTHOMODE
 70
     0
  9
$REGENMODE
 70
     1
  9
$FILLMODE
 70
     1
  9
$QTEXTMODE
 70
     0
  9
$MIRRTEXT
 70
     1
  9
$LTSCALE
 40
1.0
  9
$ATTMODE
 70
     1
  9
$TEXTSIZE
 40
3.5
  9
$TRACEWID
 40
1.0
  9
$TEXTSTYLE
  7
Standard
  9
$CLAYER
  8
0
  9
$CELTYPE
  6
ByLayer
  9
$CECOLOR
 62
   256
  9
$CELTSCALE
 40
1.0
  9
$DISPSILH
 70
     0
  9
$DIMSCALE
 40
1.0
  9
$DIMASZ
 40
2.0
  9
$DIMEXO
 40
1.0
  9
$DIMDLI
 40
3.75
  9
$DIMRND
 40
0.0
  9
$DIMDLE
 40
0.0
  9
$DIMEXE
 40
1.0
  9
$DIMTP
 40
0.0
  9
$DIMTM
 40
0.0
  9
$DIMTXT
 40
3.5
  9
$DIMCEN
 40
2.5
  9
$DIMTSZ
 40
0.0
  9
$DIMTOL
 70
     0
  9
$DIMLIM
 70
     0
  9
$DIMTIH
 70
     1
  9
$DIMTOH
 70
     1
  9
$DIMSE1
 70
     0
  9
$DIMSE2
 70
     0
  9
$DIMTAD
 70
     1
  9
$DIMZIN
 70
     0
  9
$DIMBLK
  1

  9
$DIMASO
 70
     1
  9
$DIMSHO
 70
     1
  9
$DIMPOST
  1

  9
$DIMAPOST
  1

  9
$DIMALT
 70
     0
  9
$DIMALTD
 70
     3
  9
$DIMALTF
 40
0.0393700787
  9
$DIMLFAC
 40
5.0
  9
$DIMTOFL
 70
     1
  9
$DIMTVP
 40
0.0
  9
$DIMTIX
 70
     0
  9
$DIMSOXD
 70
     0
  9
$DIMSAH
 70
     0
  9
$DIMBLK1
  1

  9
$DIMBLK2
  1

  9
$DIMSTYLE
  2
ISO-25
  9
$DIMCLRD
 70
     0
  9
$DIMCLRE
 70
     0
  9
$DIMCLRT
 70
     0
  9
$DIMTFAC
 40
1.0
  9
$DIMGAP
 40
1.524
  9
$DIMJUST
 70
     0
  9
$DIMSD1
 70
     0
  9
$DIMSD2
 70
     0
  9
$DIMTOLJ
 70
     0
  9
$DIMTZIN
 70
     0
  9
$DIMALTZ
 70
     0
  9
$DIMALTTZ
 70
     0
  9
$DIMUPT
 70
     0
  9
$DIMDEC
 70
     1
  9
$DIMTDEC
 70
     1
  9
$DIMALTU
 70
     2
  9
$DIMALTTD
 70
     3
  9
$DIMTXSTY
  7
Standard
  9
$DIMAUNIT
 70
     0
  9
$DIMADEC
 70
     1
  9
$DIMALTRND
 40
0.0
  9
$DIMAZIN
 70
     0
  9
$DIMDSEP
 70
    44
  9
$DIMATFIT
 70
     3
  9
$DIMFRAC
 70
     0
  9
$DIMLDRBLK
  1

  9
$DIMLUNIT
 70
     2
  9
$DIMLWD
 70
    -2
  9
$DIMLWE
 70
    -2
  9
$DIMTMOVE
 70
     0
  9
$LUNITS
 70
     2
  9
$LUPREC
 70
     1
  9
$SKETCHINC
 40
1.0
  9
$FILLETRAD
 40
10.0
  9
$AUNITS
 70
     0
  9
$AUPREC
 70
     1
  9
$MENU
  1
.
  9
$ELEVATION
 40
0.0
  9
$PELEVATION
 40
0.0
  9
$THICKNESS
 40
0.0
  9
$LIMCHECK
 70
     0
  9
$CHAMFERA
 40
0.0
  9
$CHAMFERB
 40
0.0
  9
$CHAMFERC
 40
0.0
  9
$CHAMFERD
 40
0.0
  9
$SKPOLY
 70
     0
  9
$TDCREATE
 40
2457214.394616690
  9
$TDUCREATE
 40
2457214.019616690
  9
$TDUPDATE
 40
2457214.418313622
  9
$TDUUPDATE
 40
2457214.043313623
  9
$TDINDWG
 40
0.0008582755
  9
$TDUSRTIMER
 40
0.0008582523
  9
$USRTIMER
 70
     1
  9
$ANGBASE
 50
0.0
  9
$ANGDIR
 70
     0
  9
$PDMODE
 70
     0
  9
$PDSIZE
 40
-1.0
  9
$PLINEWID
 40
0.0
  9
$SPLFRAME
 70
     0
  9
$SPLINETYPE
 70
     6
  9
$SPLINESEGS
 70
     8
  9
$HANDSEED
  5
71A
  9
$SURFTAB1
 70
     6
  9
$SURFTAB2
 70
     6
  9
$SURFTYPE
 70
     6
  9
$SURFU
 70
     6
  9
$SURFV
 70
     6
  9
$UCSBASE
  2

  9
$UCSNAME
  2

  9
$UCSORG
 10
0.0
 20
0.0
 30
0.0
  9
$UCSXDIR
 10
1.0
 20
0.0
 30
0.0
  9
$UCSYDIR
 10
0.0
 20
1.0
 30
0.0
  9
$UCSORTHOREF
  2

  9
$UCSORTHOVIEW
 70
     0
  9
$UCSORGTOP
 10
0.0
 20
0.0
 30
0.0
  9
$UCSORGBOTTOM
 10
0.0
 20
0.0
 30
0.0
  9
$UCSORGLEFT
 10
0.0
 20
0.0
 30
0.0
  9
$UCSORGRIGHT
 10
0.0
 20
0.0
 30
0.0
  9
$UCSORGFRONT
 10
0.0
 20
0.0
 30
0.0
  9
$UCSORGBACK
 10
0.0
 20
0.0
 30
0.0
  9
$PUCSBASE
  2

  9
$PUCSNAME
  2

  9
$PUCSORG
 10
0.0
 20
0.0
 30
0.0
  9
$PUCSXDIR
 10
1.0
 20
0.0
 30
0.0
  9
$PUCSYDIR
 10
0.0
 20
1.0
 30
0.0
  9
$PUCSORTHOREF
  2

  9
$PUCSORTHOVIEW
 70
     0
  9
$PUCSORGTOP
 10
0.0
 20
0.0
 30
0.0
  9
$PUCSORGBOTTOM
 10
0.0
 20
0.0
 30
0.0
  9
$PUCSORGLEFT
 10
0.0
 20
0.0
 30
0.0
  9
$PUCSORGRIGHT
 10
0.0
 20
0.0
 30
0.0
  9
$PUCSORGFRONT
 10
0.0
 20
0.0
 30
0.0
  9
$PUCSORGBACK
 10
0.0
 20
0.0
 30
0.0
  9
$USERI1
 70
     0
  9
$USERI2
 70
     0
  9
$USERI3
 70
     0
  9
$USERI4
 70
     0
  9
$USERI5
 70
     0
  9
$USERR1
 40
0.0
  9
$USERR2
 40
0.0
  9
$USERR3
 40
0.0
  9
$USERR4
 40
0.0
  9
$USERR5
 40
0.0
  9
$WORLDVIEW
 70
     1
  9
$SHADEDGE
 70
     3
  9
$SHADEDIF
 70
    70
  9
$TILEMODE
 70
     1
  9
$MAXACTVP
 70
    64
  9
$PINSBASE
 10
0.0
 20
0.0
 30
0.0
  9
$PLIMCHECK
 70
     0
  9
$PEXTMIN
 10
1.000000000000000E+20
 20
1.000000000000000E+20
 30
1.000000000000000E+20
  9
$PEXTMAX
 10
-1.000000000000000E+20
 20
-1.000000000000000E+20
 30
-1.000000000000000E+20
  9
$PLIMMIN
 10
0.0
 20
0.0
  9
$PLIMMAX
 10
420.0
 20
297.0
  9
$UNITMODE
 70
     0
  9
$VISRETAIN
 70
     1
  9
$PLINEGEN
 70
     0
  9
$PSLTSCALE
 70
     1
  9
$TREEDEPTH
 70
  3020
  9
$CMLSTYLE
  2
Standard
  9
$CMLJUST
 70
     0
  9
$CMLSCALE
 40
20.0
  9
$PROXYGRAPHICS
 70
     1
  9
$MEASUREMENT
 70
     1
  9
$CELWEIGHT
370
    -1
  9
$ENDCAPS
280
     0
  9
$JOINSTYLE
280
     0
  9
$LWDISPLAY
290
     1
  9
$INSUNITS
 70
     4
  9
$HYPERLINKBASE
  1

  9
$STYLESHEET
  1

  9
$XEDIT
290
     1
  9
$CEPSNTYPE
380
     0
  9
$PSTYLEMODE
290
     1
  9
$FINGERPRINTGUID
  2
{4623AF0E-F311-4ADE-92F3-FAA46D2C2E84}
  9
$VERSIONGUID
  2
{464C2F51-FF73-40A3-AA62-7371955F08AC}
  9
$EXTNAMES
290
     1
  9
$PSVPSCALE
 40
0.0
  9
$OLESTARTUP
290
     0
  0
ENDSEC
  0
SECTION
  2
CLASSES
  0
CLASS
  1
ACDBDICTIONARYWDFLT
  2
AcDbDictionaryWithDefault
  3
ObjectDBX Classes
 90
        0
280
     0
281
     0
  0
CLASS
  1
VISUALSTYLE
  2
AcDbVisualStyle
  3
ObjectDBX Classes
 90
     4095
280
     0
281
     0
  0
CLASS
  1
MATERIAL
  2
AcDbMaterial
  3
ObjectDBX Classes
 90
     1153
280
     0
281
     0
  0
CLASS
  1
SCALE
  2
AcDbScale
  3
ObjectDBX Classes
 90
     1153
280
     0
281
     0
  0
CLASS
  1
SUN
  2
AcDbSun
  3
SCENEOE
 90
    33921
280
     0
281
     0
  0
CLASS
  1
ACDBPLACEHOLDER
  2
AcDbPlaceHolder
  3
ObjectDBX Classes
 90
        0
280
     0
281
     0
  0
CLASS
  1
LAYOUT
  2
AcDbLayout
  3
ObjectDBX Classes
 90
        0
280
     0
281
     0
  0
CLASS
  1
TABLESTYLE
  2
AcDbTableStyle
  3
ObjectDBX Classes
 90
     4095
280
     0
281
     0
  0
CLASS
  1
MLEADERSTYLE
  2
AcDbMLeaderStyle
  3
ACDB_MLEADERSTYLE_CLASS
 90
     4095
280
     0
281
     0
  0
CLASS
  1
ACDBSECTIONVIEWSTYLE
  2
AcDbSectionViewStyle
  3
ObjectDBX Classes
 90
     1025
280
     0
281
     0
  0
CLASS
  1
ACDBDETAILVIEWSTYLE
  2
AcDbDetailViewStyle
  3
ObjectDBX Classes
 90
     1025
280
     0
281
     0
  0
CLASS
  1
DICTIONARYVAR
  2
AcDbDictionaryVar
  3
ObjectDBX Classes
 90
        0
280
     0
281
     0
  0
CLASS
  1
CELLSTYLEMAP
  2
AcDbCellStyleMap
  3
ObjectDBX Classes
 90
     1152
280
     0
281
     0
  0
ENDSEC
  0
SECTION
  2
TABLES
  0
TABLE
  2
VPORT
  5
8
330
0
100
AcDbSymbolTable
 70
     1
  0
VPORT
  5
29
330
8
100
AcDbSymbolTableRecord
100
AcDbViewportTableRecord
  2
*Active
 70
     0
 10
0.0
 20
0.0
 11
1.0
 21
1.0
 12
875.8114527700993
 22
148.9045001386285
 13
0.0
 23
0.0
 14
10.0
 24
10.0
 15
10.0
 25
10.0
 16
0.0
 26
0.0
 36
1.0
 17
0.0
 27
0.0
 37
0.0
 40
478.4652167875351
 41
1.921548117154811
 42
50.0
 43
0.0
 44
0.0
 50
0.0
 51
0.0
 71
     0
 72
  2000
 73
     1
 74
     3
 75
     0
 76
     0
 77
     0
 78
     0
281
     0
 65
     1
110
0.0
120
0.0
130
0.0
111
1.0
121
0.0
131
0.0
112
0.0
122
1.0
132
0.0
 79
     0
146
0.0
1001
ACAD_NAV_VCDISPLAY
1070
     3
  0
ENDTAB
  0
TABLE
  2
LTYPE
  5
5
330
0
100
AcDbSymbolTable
 70
     6
  0
LTYPE
  5
14
330
5
100
AcDbSymbolTableRecord
100
AcDbLinetypeTableRecord
  2
ByBlock
 70
     0
  3

 72
    65
 73
     0
 40
0.0
  0
LTYPE
  5
15
330
5
100
AcDbSymbolTableRecord
100
AcDbLinetypeTableRecord
  2
ByLayer
 70
     0
  3

 72
    65
 73
     0
 40
0.0
  0
LTYPE
  5
16
330
5
100
AcDbSymbolTableRecord
100
AcDbLinetypeTableRecord
  2
Continuous
 70
     0
  3
Solid line
 72
    65
 73
     0
 40
0.0
  0
LTYPE
  5
6A
330
5
100
AcDbSymbolTableRecord
100
AcDbLinetypeTableRecord
  2
HIDDEN
 70
     0
  3
Hidden __ __ __ __ __ __ __ __ __ __ __ __ __ __
 72
    65
 73
     2
 40
1.905
 49
1.27
 74
     0
 49
-0.635
 74
     0
  0
LTYPE
  5
6B
330
5
100
AcDbSymbolTableRecord
100
AcDbLinetypeTableRecord
  2
PHANTOM
 70
     0
  3
Phantom ______  __  __  ______  __  __  ______
 72
    65
 73
     6
 40
12.7
 49
6.349999999999999
 74
     0
 49
-1.27
 74
     0
 49
1.27
 74
     0
 49
-1.27
 74
     0
 49
1.27
 74
     0
 49
-1.27
 74
     0
  0
LTYPE
  5
6C
330
5
100
AcDbSymbolTableRecord
100
AcDbLinetypeTableRecord
  2
CENTER
 70
     0
  3
Center ____ _ ____ _ ____ _ ____ _ ____ _ ____
 72
    65
 73
     4
 40
10.16
 49
6.349999999999999
 74
     0
 49
-1.27
 74
     0
 49
1.27
 74
     0
 49
-1.27
 74
     0
  0
LTYPE
  5
6D
330
5
100
AcDbSymbolTableRecord
100
AcDbLinetypeTableRecord
  2
CENTERX2
 70
     0
  3
Center (2x) ________  __  ________  __  _____
 72
    65
 73
     4
 40
20.32
 49
12.7
 74
     0
 49
-2.54
 74
     0
 49
2.54
 74
     0
 49
-2.54
 74
     0
  0
LTYPE
  5
6E
330
5
100
AcDbSymbolTableRecord
100
AcDbLinetypeTableRecord
  2
DOT2
 70
     0
  3
Dot (.5x) ........................................
 72
    65
 73
     2
 40
0.635
 49
0.0
 74
     0
 49
-0.635
 74
     0
  0
ENDTAB
  0
TABLE
  2
LAYER
  5
2
330
0
100
AcDbSymbolTable
 70
     4
  0
LAYER
  5
10
102
{ACAD_XDICTIONARY
360
6BE
102
}
330
2
100
AcDbSymbolTableRecord
100
AcDbLayerTableRecord
  2
0
 70
     0
 62
     7
  6
Continuous
370
    -3
390
F
  0
LAYER
  5
6F
102
{ACAD_XDICTIONARY
360
6C0
102
}
330
2
100
AcDbSymbolTableRecord
100
AcDbLayerTableRecord
  2
FORMAT
 70
     0
 62
     7
  6
Continuous
370
    -3
390
F
  0
LAYER
  5
70
102
{ACAD_XDICTIONARY
360
6C2
102
}
330
2
100
AcDbSymbolTableRecord
100
AcDbLayerTableRecord
  2
図枠
 70
     0
 62
     7
  6
Continuous
370
    15
390
F
  0
LAYER
  5
71
102
{ACAD_XDICTIONARY
360
6C4
102
}
330
2
100
AcDbSymbolTableRecord
100
AcDbLayerTableRecord
  2
ﾚｲﾔｰ2
 70
     0
 62
     7
  6
Continuous
370
    -3
390
F
  0
ENDTAB
  0
TABLE
  2
STYLE
  5
3
330
0
100
AcDbSymbolTable
 70
     2
  0
STYLE
  5
11
330
3
100
AcDbSymbolTableRecord
100
AcDbTextStyleTableRecord
  2
Standard
 70
     0
 40
0.0
 41
1.0
 50
0.0
 71
     0
 42
3.5
  3
txt
  4
bigfont
  0
STYLE
  5
78
330
3
100
AcDbSymbolTableRecord
100
AcDbTextStyleTableRecord
  2
SLDTEXTSTYLE0
 70
     0
 40
0.0
 41
0.7
 50
0.0
 71
     0
 42
3.5
  3
TXT
  4
bigfont
  0
ENDTAB
  0
TABLE
  2
VIEW
  5
6
330
0
100
AcDbSymbolTable
 70
     0
  0
ENDTAB
  0
TABLE
  2
UCS
  5
7
330
0
100
AcDbSymbolTable
 70
     0
  0
ENDTAB
  0
TABLE
  2
APPID
  5
9
330
0
100
AcDbSymbolTable
 70
     3
  0
APPID
  5
12
330
9
100
AcDbSymbolTableRecord
100
AcDbRegAppTableRecord
  2
ACAD
 70
     0
  0
APPID
  5
6C6
330
9
100
AcDbSymbolTableRecord
100
AcDbRegAppTableRecord
  2
ACAD_NAV_VCDISPLAY
 70
     0
  0
APPID
  5
719
330
9
100
AcDbSymbolTableRecord
100
AcDbRegAppTableRecord
  2
ACAD_MLEADERVER
 70
     0
  0
ENDTAB
  0
TABLE
  2
DIMSTYLE
  5
A
330
0
100
AcDbSymbolTable
 70
     4
100
AcDbDimStyleTable
 71
     0
  0
DIMSTYLE
105
27
330
A
100
AcDbSymbolTableRecord
100
AcDbDimStyleTableRecord
  2
ISO-25
 70
     0
 41
2.5
 42
0.625
 43
3.75
 44
1.25
 73
     0
 74
     0
 77
     1
 78
     8
140
2.5
141
2.5
143
0.0393700787
147
0.625
171
     3
172
     1
271
     2
272
     2
274
     3
278
    44
283
     0
284
     8
340
11
  0
DIMSTYLE
105
30D
330
A
100
AcDbSymbolTableRecord
100
AcDbDimStyleTableRecord
  2
SLDDIMSTYLE0
 70
     0
 41
2.0
 44
0.0
 45
0.000000001
 73
     0
 74
     0
 77
     3
 78
    12
 79
     3
140
3.5
147
0.875
173
     1
271
     1
272
     1
276
     2
284
    12
340
78
341
30E
343
30E
344
30E
  0
DIMSTYLE
105
328
330
A
100
AcDbSymbolTableRecord
100
AcDbDimStyleTableRecord
  2
SLDDIMSTYLE1
 70
     0
 41
2.0
 44
0.0
 45
0.000000001
 73
     0
 74
     0
 77
     3
 78
    12
 79
     3
140
3.5
147
0.875
172
     1
173
     1
271
     1
272
     1
276
     2
284
    12
289
     0
340
78
341
30E
343
30E
344
30E
  0
DIMSTYLE
105
5B5
330
A
100
AcDbSymbolTableRecord
100
AcDbDimStyleTableRecord
  2
SLDDIMSTYLE2
 70
     0
 41
2.0
 44
0.0
 45
0.000000001
 73
     0
 74
     0
 77
     3
 78
    12
 79
     3
140
3.5
141
0.0
147
0.875
172
     1
173
     1
271
     1
272
     1
276
     2
284
    12
340
78
341
30E
343
30E
344
30E
  0
ENDTAB
  0
TABLE
  2
BLOCK_RECORD
  5
1
330
0
100
AcDbSymbolTable
 70
    25
  0
BLOCK_RECORD
  5
1F
330
1
100
AcDbSymbolTableRecord
100
AcDbBlockTableRecord
  2
*Model_Space
340
22
  0
BLOCK_RECORD
  5
1B
330
1
100
AcDbSymbolTableRecord
100
AcDbBlockTableRecord
  2
*Paper_Space
340
1E
  0
BLOCK_RECORD
  5
23
330
1
100
AcDbSymbolTableRecord
100
AcDbBlockTableRecord
  2
*Paper_Space0
340
26
  0
BLOCK_RECORD
  5
72
330
1
100
AcDbSymbolTableRecord
100
AcDbBlockTableRecord
  2
三角３
340
0
  0
BLOCK_RECORD
  5
7A
330
1
100
AcDbSymbolTableRecord
100
AcDbBlockTableRecord
  2
三角２
340
0
  0
BLOCK_RECORD
  5
81
330
1
100
AcDbSymbolTableRecord
100
AcDbBlockTableRecord
  2
三角６
340
0
  0
BLOCK_RECORD
  5
88
330
1
100
AcDbSymbolTableRecord
100
AcDbBlockTableRecord
  2
三角５
340
0
  0
BLOCK_RECORD
  5
8F
330
1
100
AcDbSymbolTableRecord
100
AcDbBlockTableRecord
  2
三角４
340
0
  0
BLOCK_RECORD
  5
96
330
1
100
AcDbSymbolTableRecord
100
AcDbBlockTableRecord
  2
三角１
340
0
  0
BLOCK_RECORD
  5
23B
330
1
100
AcDbSymbolTableRecord
100
AcDbBlockTableRecord
  2
SW_BROKEN_VIEW_0
340
0
102
{BLKREFS
331
23E
102
}
  0
BLOCK_RECORD
  5
30E
330
1
100
AcDbSymbolTableRecord
100
AcDbBlockTableRecord
  2
_OPEN30
340
0
102
{BLKREFS
331
596
331
597
331
321
331
322
331
5AC
331
5AD
331
32C
331
32D
331
318
331
338
331
339
331
34C
331
34D
331
356
331
357
331
440
331
441
331
58C
331
58D
331
317
331
342
331
343
331
44A
331
44B
331
582
331
583
331
5A0
331
5A1
331
5B9
331
5BA
102
}
  0
BLOCK_RECORD
  5
314
330
1
100
AcDbSymbolTableRecord
100
AcDbBlockTableRecord
  2
_D
340
0
  0
BLOCK_RECORD
  5
31E
330
1
100
AcDbSymbolTableRecord
100
AcDbBlockTableRecord
  2
_D_1
340
0
  0
BLOCK_RECORD
  5
329
330
1
100
AcDbSymbolTableRecord
100
AcDbBlockTableRecord
  2
_D_2
340
0
  0
BLOCK_RECORD
  5
335
330
1
100
AcDbSymbolTableRecord
100
AcDbBlockTableRecord
  2
_D_3
340
0
  0
BLOCK_RECORD
  5
33F
330
1
100
AcDbSymbolTableRecord
100
AcDbBlockTableRecord
  2
_D_4
340
0
  0
BLOCK_RECORD
  5
349
330
1
100
AcDbSymbolTableRecord
100
AcDbBlockTableRecord
  2
_D_5
340
0
  0
BLOCK_RECORD
  5
353
330
1
100
AcDbSymbolTableRecord
100
AcDbBlockTableRecord
  2
_D_6
340
0
  0
BLOCK_RECORD
  5
366
330
1
100
AcDbSymbolTableRecord
100
AcDbBlockTableRecord
  2
SW_BROKEN_VIEW_1
340
0
102
{BLKREFS
331
369
102
}
  0
BLOCK_RECORD
  5
43D
330
1
100
AcDbSymbolTableRecord
100
AcDbBlockTableRecord
  2
_D_7
340
0
  0
BLOCK_RECORD
  5
447
330
1
100
AcDbSymbolTableRecord
100
AcDbBlockTableRecord
  2
_D_8
340
0
  0
BLOCK_RECORD
  5
57F
330
1
100
AcDbSymbolTableRecord
100
AcDbBlockTableRecord
  2
_D_9
340
0
  0
BLOCK_RECORD
  5
589
330
1
100
AcDbSymbolTableRecord
100
AcDbBlockTableRecord
  2
_D_10
340
0
  0
BLOCK_RECORD
  5
593
330
1
100
AcDbSymbolTableRecord
100
AcDbBlockTableRecord
  2
_D_11
340
0
  0
BLOCK_RECORD
  5
59D
330
1
100
AcDbSymbolTableRecord
100
AcDbBlockTableRecord
  2
_D_12
340
0
  0
BLOCK_RECORD
  5
5A9
330
1
100
AcDbSymbolTableRecord
100
AcDbBlockTableRecord
  2
_D_13
340
0
  0
BLOCK_RECORD
  5
5B6
330
1
100
AcDbSymbolTableRecord
100
AcDbBlockTableRecord
  2
_D_14
340
0
  0
ENDTAB
  0
ENDSEC
  0
SECTION
  2
BLOCKS
  0
BLOCK
  5
20
330
1F
100
AcDbEntity
  8
0
100
AcDbBlockBegin
  2
*Model_Space
 70
     0
 10
0.0
 20
0.0
 30
0.0
  3
*Model_Space
  1
*Model_Space
  0
ENDBLK
  5
21
330
1F
100
AcDbEntity
  8
0
100
AcDbBlockEnd
  0
BLOCK
  5
1C
330
1B
100
AcDbEntity
 67
     1
  8
0
100
AcDbBlockBegin
  2
*Paper_Space
 70
     0
 10
0.0
 20
0.0
 30
0.0
  3
*Paper_Space
  1
*Paper_Space
  0
ENDBLK
  5
1D
330
1B
100
AcDbEntity
 67
     1
  8
0
100
AcDbBlockEnd
  0
BLOCK
  5
24
330
23
100
AcDbEntity
 67
     1
  8
0
100
AcDbBlockBegin
  2
*Paper_Space0
 70
     0
 10
0.0
 20
0.0
 30
0.0
  3
*Paper_Space0
  1
*Paper_Space0
  0
ENDBLK
  5
25
330
23
100
AcDbEntity
 67
     1
  8
0
100
AcDbBlockEnd
  0
BLOCK
  5
73
330
72
100
AcDbEntity
  8
0
100
AcDbBlockBegin
  2
三角３
 70
     0
 10
0.0
 20
0.0
 30
0.0
  3
三角３
  1
三角３
  0
LINE
  5
75
330
72
100
AcDbEntity
  8
FORMAT
370
     0
100
AcDbLine
 10
0.0
 20
0.0
 30
0.0
 11
-1.75
 21
-3.5
 31
0.0
  0
LINE
  5
76
330
72
100
AcDbEntity
  8
FORMAT
370
     0
100
AcDbLine
 10
-1.75
 20
-3.5
 30
0.0
 11
1.75
 21
-3.5
 31
0.0
  0
LINE
  5
77
330
72
100
AcDbEntity
  8
FORMAT
370
     0
100
AcDbLine
 10
1.75
 20
-3.5
 30
0.0
 11
0.0
 21
0.0
 31
0.0
  0
MTEXT
  5
79
330
72
100
AcDbEntity
  8
FORMAT
 62
     7
100
AcDbMText
 10
-0.6943926639
 20
-0.9380245362
 30
0.0
 40
2.1166666667
 41
0.0
 71
     1
 72
     1
  1
3
  7
SLDTEXTSTYLE0
 73
     1
 44
1.0
1001
ACAD
1000
MTEXTBEGIN
1070
    73
1070
     1
1070
    44
1040
1.0
1070
    74
1070
     0
1000
MTEXTEND
  0
ENDBLK
  5
74
330
72
100
AcDbEntity
  8
0
100
AcDbBlockEnd
  0
BLOCK
  5
7B
330
7A
100
AcDbEntity
  8
0
100
AcDbBlockBegin
  2
三角２
 70
     0
 10
0.0
 20
0.0
 30
0.0
  3
三角２
  1
三角２
  0
LINE
  5
7D
330
7A
100
AcDbEntity
  8
FORMAT
370
     0
100
AcDbLine
 10
0.0
 20
0.0
 30
0.0
 11
-1.75
 21
-3.5
 31
0.0
  0
LINE
  5
7E
330
7A
100
AcDbEntity
  8
FORMAT
370
     0
100
AcDbLine
 10
-1.75
 20
-3.5
 30
0.0
 11
1.75
 21
-3.5
 31
0.0
  0
LINE
  5
7F
330
7A
100
AcDbEntity
  8
FORMAT
370
     0
100
AcDbLine
 10
1.75
 20
-3.5
 30
0.0
 11
0.0
 21
0.0
 31
0.0
  0
MTEXT
  5
80
330
7A
100
AcDbEntity
  8
FORMAT
 62
     7
100
AcDbMText
 10
-0.6943926639
 20
-0.9380245362
 30
0.0
 40
2.1166666667
 41
0.0
 71
     1
 72
     1
  1
2
  7
SLDTEXTSTYLE0
 73
     1
 44
1.0
1001
ACAD
1000
MTEXTBEGIN
1070
    73
1070
     1
1070
    44
1040
1.0
1070
    74
1070
     0
1000
MTEXTEND
  0
ENDBLK
  5
7C
330
7A
100
AcDbEntity
  8
0
100
AcDbBlockEnd
  0
BLOCK
  5
82
330
81
100
AcDbEntity
  8
0
100
AcDbBlockBegin
  2
三角６
 70
     0
 10
0.0
 20
0.0
 30
0.0
  3
三角６
  1
三角６
  0
LINE
  5
84
330
81
100
AcDbEntity
  8
FORMAT
370
     0
100
AcDbLine
 10
0.0
 20
0.0
 30
0.0
 11
-1.75
 21
-3.5
 31
0.0
  0
LINE
  5
85
330
81
100
AcDbEntity
  8
FORMAT
370
     0
100
AcDbLine
 10
-1.75
 20
-3.5
 30
0.0
 11
1.75
 21
-3.5
 31
0.0
  0
LINE
  5
86
330
81
100
AcDbEntity
  8
FORMAT
370
     0
100
AcDbLine
 10
1.75
 20
-3.5
 30
0.0
 11
0.0
 21
0.0
 31
0.0
  0
MTEXT
  5
87
330
81
100
AcDbEntity
  8
FORMAT
 62
     7
100
AcDbMText
 10
-0.6943926639
 20
-0.9380245362
 30
0.0
 40
2.1166666667
 41
0.0
 71
     1
 72
     1
  1
6
  7
SLDTEXTSTYLE0
 73
     1
 44
1.0
1001
ACAD
1000
MTEXTBEGIN
1070
    73
1070
     1
1070
    44
1040
1.0
1070
    74
1070
     0
1000
MTEXTEND
  0
ENDBLK
  5
83
330
81
100
AcDbEntity
  8
0
100
AcDbBlockEnd
  0
BLOCK
  5
89
330
88
100
AcDbEntity
  8
0
100
AcDbBlockBegin
  2
三角５
 70
     0
 10
0.0
 20
0.0
 30
0.0
  3
三角５
  1
三角５
  0
LINE
  5
8B
330
88
100
AcDbEntity
  8
FORMAT
370
     0
100
AcDbLine
 10
0.0
 20
0.0
 30
0.0
 11
-1.75
 21
-3.5
 31
0.0
  0
LINE
  5
8C
330
88
100
AcDbEntity
  8
FORMAT
370
     0
100
AcDbLine
 10
-1.75
 20
-3.5
 30
0.0
 11
1.75
 21
-3.5
 31
0.0
  0
LINE
  5
8D
330
88
100
AcDbEntity
  8
FORMAT
370
     0
100
AcDbLine
 10
1.75
 20
-3.5
 30
0.0
 11
0.0
 21
0.0
 31
0.0
  0
MTEXT
  5
8E
330
88
100
AcDbEntity
  8
FORMAT
 62
     7
100
AcDbMText
 10
-0.6943926639
 20
-0.9380245362
 30
0.0
 40
2.1166666667
 41
0.0
 71
     1
 72
     1
  1
5
  7
SLDTEXTSTYLE0
 73
     1
 44
1.0
1001
ACAD
1000
MTEXTBEGIN
1070
    73
1070
     1
1070
    44
1040
1.0
1070
    74
1070
     0
1000
MTEXTEND
  0
ENDBLK
  5
8A
330
88
100
AcDbEntity
  8
0
100
AcDbBlockEnd
  0
BLOCK
  5
90
330
8F
100
AcDbEntity
  8
0
100
AcDbBlockBegin
  2
三角４
 70
     0
 10
0.0
 20
0.0
 30
0.0
  3
三角４
  1
三角４
  0
LINE
  5
92
330
8F
100
AcDbEntity
  8
FORMAT
370
     0
100
AcDbLine
 10
0.0
 20
0.0
 30
0.0
 11
-1.75
 21
-3.5
 31
0.0
  0
LINE
  5
93
330
8F
100
AcDbEntity
  8
FORMAT
370
     0
100
AcDbLine
 10
-1.75
 20
-3.5
 30
0.0
 11
1.75
 21
-3.5
 31
0.0
  0
LINE
  5
94
330
8F
100
AcDbEntity
  8
FORMAT
370
     0
100
AcDbLine
 10
1.75
 20
-3.5
 30
0.0
 11
0.0
 21
0.0
 31
0.0
  0
MTEXT
  5
95
330
8F
100
AcDbEntity
  8
FORMAT
 62
     7
100
AcDbMText
 10
-0.6943926639
 20
-0.9380245362
 30
0.0
 40
2.1166666667
 41
0.0
 71
     1
 72
     1
  1
4
  7
SLDTEXTSTYLE0
 73
     1
 44
1.0
1001
ACAD
1000
MTEXTBEGIN
1070
    73
1070
     1
1070
    44
1040
1.0
1070
    74
1070
     0
1000
MTEXTEND
  0
ENDBLK
  5
91
330
8F
100
AcDbEntity
  8
0
100
AcDbBlockEnd
  0
BLOCK
  5
97
330
96
100
AcDbEntity
  8
0
100
AcDbBlockBegin
  2
三角１
 70
     0
 10
0.0
 20
0.0
 30
0.0
  3
三角１
  1
三角１
  0
LINE
  5
99
330
96
100
AcDbEntity
  8
FORMAT
370
     0
100
AcDbLine
 10
0.0
 20
0.0
 30
0.0
 11
-1.75
 21
-3.5
 31
0.0
  0
LINE
  5
9A
330
96
100
AcDbEntity
  8
FORMAT
370
     0
100
AcDbLine
 10
-1.75
 20
-3.5
 30
0.0
 11
1.75
 21
-3.5
 31
0.0
  0
LINE
  5
9B
330
96
100
AcDbEntity
  8
FORMAT
370
     0
100
AcDbLine
 10
1.75
 20
-3.5
 30
0.0
 11
0.0
 21
0.0
 31
0.0
  0
MTEXT
  5
9C
330
96
100
AcDbEntity
  8
FORMAT
 62
     7
100
AcDbMText
 10
-0.6943926639
 20
-0.9380245362
 30
0.0
 40
2.1166666667
 41
0.0
 71
     1
 72
     1
  1
1
  7
SLDTEXTSTYLE0
 73
     1
 44
1.0
1001
ACAD
1000
MTEXTBEGIN
1070
    73
1070
     1
1070
    44
1040
1.0
1070
    74
1070
     0
1000
MTEXTEND
  0
ENDBLK
  5
98
330
96
100
AcDbEntity
  8
0
100
AcDbBlockEnd
  0
BLOCK
  5
23C
330
23B
100
AcDbEntity
  8
0
100
AcDbBlockBegin
  2
SW_BROKEN_VIEW_0
 70
     0
 10
0.0
 20
0.0
 30
0.0
  3
SW_BROKEN_VIEW_0
  1
SW_BROKEN_VIEW_0
  0
ENDBLK
  5
23D
330
23B
100
AcDbEntity
  8
0
100
AcDbBlockEnd
  0
BLOCK
  5
30F
330
30E
100
AcDbEntity
  8
0
100
AcDbBlockBegin
  2
_OPEN30
 70
     0
 10
0.0
 20
0.0
 30
0.0
  3
_OPEN30
  1
_OPEN30
  0
LINE
  5
311
330
30E
100
AcDbEntity
  8
0
  6
ByBlock
 62
     0
370
    -2
100
AcDbLine
 10
-1.0
 20
0.267949
 30
0.0
 11
0.0
 21
0.0
 31
0.0
  0
LINE
  5
312
330
30E
100
AcDbEntity
  8
0
  6
ByBlock
 62
     0
370
    -2
100
AcDbLine
 10
0.0
 20
0.0
 30
0.0
 11
-1.0
 21
-0.267949
 31
0.0
  0
LINE
  5
313
330
30E
100
AcDbEntity
  8
0
  6
ByBlock
 62
     0
370
    -2
100
AcDbLine
 10
0.0
 20
0.0
 30
0.0
 11
-1.0
 21
0.0
 31
0.0
  0
ENDBLK
  5
310
330
30E
100
AcDbEntity
  8
0
100
AcDbBlockEnd
  0
BLOCK
  5
315
330
314
100
AcDbEntity
  8
0
100
AcDbBlockBegin
  2
_D
 70
     0
 10
0.0
 20
0.0
 30
0.0
  3
_D
  1
_D
  0
INSERT
  5
317
330
314
100
AcDbEntity
  8
FORMAT
100
AcDbBlockReference
  2
_OPEN30
 10
133.7443590578
 20
81.13586959459999
 30
0.0642432817
 41
2.0
 42
2.0
 50
180.0
  0
INSERT
  5
318
330
314
100
AcDbEntity
  8
FORMAT
100
AcDbBlockReference
  2
_OPEN30
 10
324.75227028
 20
81.13586959459999
 30
0.0642432817
 41
2.0
 42
2.0
  0
LINE
  5
319
330
314
100
AcDbEntity
  8
FORMAT
100
AcDbLine
 10
133.7443590578
 20
106.754098143
 30
0.0
 11
133.7443590578
 21
80.13586959459999
 31
0.0
  0
LINE
  5
31A
330
314
100
AcDbEntity
  8
FORMAT
100
AcDbLine
 10
324.75227028
 20
110.8927507962
 30
0.0
 11
324.75227028
 21
80.13586959459999
 31
0.0
  0
LINE
  5
31B
330
314
100
AcDbEntity
  8
FORMAT
100
AcDbLine
 10
133.7443590578
 20
81.13586959459999
 30
0.0
 11
324.75227028
 21
81.13586959459999
 31
0.0
  0
MTEXT
  5
31C
330
314
100
AcDbEntity
  8
FORMAT
100
AcDbMText
 10
224.1563010416
 20
85.64760645099999
 30
0.0
 40
3.5
 41
0.0
 71
     1
 72
     1
  1
559.1
  7
SLDTEXTSTYLE0
 73
     1
 44
1.0
1001
ACAD
1000
MTEXTBEGIN
1070
    73
1070
     1
1070
    44
1040
1.0
1070
    74
1070
     0
1000
MTEXTEND
  0
ENDBLK
  5
316
330
314
100
AcDbEntity
  8
0
100
AcDbBlockEnd
  0
BLOCK
  5
31F
330
31E
100
AcDbEntity
  8
0
100
AcDbBlockBegin
  2
_D_1
 70
     0
 10
0.0
 20
0.0
 30
0.0
  3
_D_1
  1
_D_1
  0
INSERT
  5
321
330
31E
100
AcDbEntity
  8
FORMAT
100
AcDbBlockReference
  2
_OPEN30
 10
116.2971462123
 20
129.4094749965
 30
0.0642432817
 41
2.0
 42
2.0
 50
90.0
  0
INSERT
  5
322
330
31E
100
AcDbEntity
  8
FORMAT
100
AcDbBlockReference
  2
_OPEN30
 10
116.2971462123
 20
97.7463890557
 30
0.0642432817
 41
2.0
 42
2.0
 50
270.0
  0
LINE
  5
323
330
31E
100
AcDbEntity
  8
FORMAT
100
AcDbLine
 10
158.7443590577
 20
129.4094749965
 30
0.0
 11
115.2971462123
 21
129.4094749965
 31
0.0
  0
LINE
  5
324
330
31E
100
AcDbEntity
  8
FORMAT
100
AcDbLine
 10
158.7443590577
 20
97.7463890557
 30
0.0
 11
115.2971462123
 21
97.7463890557
 31
0.0
  0
LINE
  5
325
330
31E
100
AcDbEntity
  8
FORMAT
100
AcDbLine
 10
116.2971462123
 20
129.4094749965
 30
0.0
 11
116.2971462123
 21
97.7463890557
 31
0.0
  0
MTEXT
  5
326
330
31E
100
AcDbEntity
  8
FORMAT
100
AcDbMText
 10
111.7854093559
 20
109.5043210311
 30
0.0
 40
3.5
 41
0.0
 71
     1
 72
     1
  1
31.7
  7
SLDTEXTSTYLE0
 11
-0.0000000000000044
 21
1.0
 31
0.0
 73
     1
 44
1.0
1001
ACAD
1000
MTEXTBEGIN
1070
    73
1070
     1
1070
    44
1040
1.0
1070
    74
1070
     0
1000
MTEXTEND
  0
ENDBLK
  5
320
330
31E
100
AcDbEntity
  8
0
100
AcDbBlockEnd
  0
BLOCK
  5
32A
330
329
100
AcDbEntity
  8
0
100
AcDbBlockBegin
  2
_D_2
 70
     0
 10
0.0
 20
0.0
 30
0.0
  3
_D_2
  1
_D_2
  0
INSERT
  5
32C
330
329
100
AcDbEntity
  8
FORMAT
100
AcDbBlockReference
  2
_OPEN30
 10
126.7443590578
 20
88.2628485915
 30
0.0642432817
 41
2.0
 42
2.0
  0
INSERT
  5
32D
330
329
100
AcDbEntity
  8
FORMAT
100
AcDbBlockReference
  2
_OPEN30
 10
133.7443590578
 20
88.2628485915
 30
0.0642432817
 41
2.0
 42
2.0
 50
180.0
  0
LINE
  5
32E
330
329
100
AcDbEntity
  8
FORMAT
100
AcDbLine
 10
126.7443590578
 20
105.3963890557
 30
0.0
 11
126.7443590578
 21
87.2628485915
 31
0.0
  0
LINE
  5
32F
330
329
100
AcDbEntity
  8
FORMAT
100
AcDbLine
 10
133.7443590578
 20
98.8379040953
 30
0.0
 11
133.7443590578
 21
87.2628485915
 31
0.0
  0
LINE
  5
330
330
329
100
AcDbEntity
  8
FORMAT
100
AcDbLine
 10
126.7443590578
 20
88.2628485915
 30
0.0
 11
123.7443590578
 21
88.2628485915
 31
0.0
  0
LINE
  5
331
330
329
100
AcDbEntity
  8
FORMAT
100
AcDbLine
 10
126.7443590578
 20
88.2628485915
 30
0.0
 11
133.7443590578
 21
88.2628485915
 31
0.0
  0
LINE
  5
332
330
329
100
AcDbEntity
  8
FORMAT
100
AcDbLine
 10
133.7443590578
 20
88.2628485915
 30
0.0
 11
136.7443590578
 21
88.2628485915
 31
0.0
  0
MTEXT
  5
333
330
329
100
AcDbEntity
  8
FORMAT
100
AcDbMText
 10
129.225956309
 20
92.7745854479
 30
0.0
 40
3.5
 41
0.0
 71
     1
 72
     1
  1
7
  7
SLDTEXTSTYLE0
 73
     1
 44
1.0
1001
ACAD
1000
MTEXTBEGIN
1070
    73
1070
     1
1070
    44
1040
1.0
1070
    74
1070
     0
1000
MTEXTEND
  0
ENDBLK
  5
32B
330
329
100
AcDbEntity
  8
0
100
AcDbBlockEnd
  0
BLOCK
  5
336
330
335
100
AcDbEntity
  8
0
100
AcDbBlockBegin
  2
_D_3
 70
     0
 10
0.0
 20
0.0
 30
0.0
  3
_D_3
  1
_D_3
  0
INSERT
  5
338
330
335
100
AcDbEntity
  8
FORMAT
100
AcDbBlockReference
  2
_OPEN30
 10
302.310440653
 20
127.3473049254
 30
0.0642432817
 41
2.0
 42
2.0
 50
270.0
  0
INSERT
  5
339
330
335
100
AcDbEntity
  8
FORMAT
100
AcDbBlockReference
  2
_OPEN30
 10
302.310440653
 20
99.9147646603
 30
0.0642432817
 41
2.0
 42
2.0
 50
90.0
  0
LINE
  5
33A
330
335
100
AcDbEntity
  8
FORMAT
100
AcDbLine
 10
302.310440653
 20
127.3473049254
 30
0.0
 11
302.310440653
 21
142.033466177
 31
0.0
  0
LINE
  5
33B
330
335
100
AcDbEntity
  8
FORMAT
100
AcDbLine
 10
302.310440653
 20
127.3473049254
 30
0.0
 11
302.310440653
 21
99.9147646603
 31
0.0
  0
LINE
  5
33C
330
335
100
AcDbEntity
  8
FORMAT
100
AcDbLine
 10
302.310440653
 20
99.9147646603
 30
0.0
 11
302.310440653
 21
96.91476466030001
 31
0.0
  0
MTEXT
  5
33D
330
335
100
AcDbEntity
  8
FORMAT
100
AcDbMText
 10
297.7987037966
 20
133.8862441871
 30
0.0
 40
3.5
 41
0.0
 71
     1
 72
     1
  1
27.4
  7
SLDTEXTSTYLE0
 11
-0.0000000000000035
 21
1.0
 31
0.0
 73
     1
 44
1.0
1001
ACAD
1000
MTEXTBEGIN
1070
    73
1070
     1
1070
    44
1040
1.0
1070
    74
1070
     0
1000
MTEXTEND
  0
ENDBLK
  5
337
330
335
100
AcDbEntity
  8
0
100
AcDbBlockEnd
  0
BLOCK
  5
340
330
33F
100
AcDbEntity
  8
0
100
AcDbBlockBegin
  2
_D_4
 70
     0
 10
0.0
 20
0.0
 30
0.0
  3
_D_4
  1
_D_4
  0
INSERT
  5
342
330
33F
100
AcDbEntity
  8
FORMAT
100
AcDbBlockReference
  2
_OPEN30
 10
133.7443590578
 20
88.2628485915
 30
0.0642432817
 41
2.0
 42
2.0
 50
180.0
  0
INSERT
  5
343
330
33F
100
AcDbEntity
  8
FORMAT
100
AcDbBlockReference
  2
_OPEN30
 10
167.7443590577
 20
88.2628485915
 30
0.0642432817
 41
2.0
 42
2.0
  0
LINE
  5
344
330
33F
100
AcDbEntity
  8
FORMAT
100
AcDbLine
 10
133.7443590578
 20
100.7171766795
 30
0.0
 11
133.7443590578
 21
87.2628485915
 31
0.0
  0
LINE
  5
345
330
33F
100
AcDbEntity
  8
FORMAT
100
AcDbLine
 10
167.7443590577
 20
97.60204161430001
 30
0.0
 11
167.7443590577
 21
87.2628485915
 31
0.0
  0
LINE
  5
346
330
33F
100
AcDbEntity
  8
FORMAT
100
AcDbLine
 10
133.7443590578
 20
88.2628485915
 30
0.0
 11
167.7443590577
 21
88.2628485915
 31
0.0
  0
MTEXT
  5
347
330
33F
100
AcDbEntity
  8
FORMAT
100
AcDbMText
 10
148.7075535603
 20
92.7745854479
 30
0.0
 40
3.5
 41
0.0
 71
     1
 72
     1
  1
34
  7
SLDTEXTSTYLE0
 73
     1
 44
1.0
1001
ACAD
1000
MTEXTBEGIN
1070
    73
1070
     1
1070
    44
1040
1.0
1070
    74
1070
     0
1000
MTEXTEND
  0
ENDBLK
  5
341
330
33F
100
AcDbEntity
  8
0
100
AcDbBlockEnd
  0
BLOCK
  5
34A
330
349
100
AcDbEntity
  8
0
100
AcDbBlockBegin
  2
_D_5
 70
     0
 10
0.0
 20
0.0
 30
0.0
  3
_D_5
  1
_D_5
  0
INSERT
  5
34C
330
349
100
AcDbEntity
  8
FORMAT
100
AcDbBlockReference
  2
_OPEN30
 10
312.75227028
 20
88.3278760311
 30
0.0642432817
 41
2.0
 42
2.0
 50
180.0
  0
INSERT
  5
34D
330
349
100
AcDbEntity
  8
FORMAT
100
AcDbBlockReference
  2
_OPEN30
 10
324.75227028
 20
88.3278760311
 30
0.0642432817
 41
2.0
 42
2.0
  0
LINE
  5
34E
330
349
100
AcDbEntity
  8
FORMAT
100
AcDbLine
 10
312.75227028
 20
98.0106468435
 30
0.0
 11
312.75227028
 21
87.32787603110001
 31
0.0
  0
LINE
  5
34F
330
349
100
AcDbEntity
  8
FORMAT
100
AcDbLine
 10
324.75227028
 20
98.71642713399999
 30
0.0
 11
324.75227028
 21
87.32787603110001
 31
0.0
  0
LINE
  5
350
330
349
100
AcDbEntity
  8
FORMAT
100
AcDbLine
 10
312.75227028
 20
88.3278760311
 30
0.0
 11
324.75227028
 21
88.3278760311
 31
0.0
  0
MTEXT
  5
351
330
349
100
AcDbEntity
  8
FORMAT
100
AcDbMText
 10
316.7154647825
 20
92.8396128874
 30
0.0
 40
3.5
 41
0.0
 71
     1
 72
     1
  1
12
  7
SLDTEXTSTYLE0
 73
     1
 44
1.0
1001
ACAD
1000
MTEXTBEGIN
1070
    73
1070
     1
1070
    44
1040
1.0
1070
    74
1070
     0
1000
MTEXTEND
  0
ENDBLK
  5
34B
330
349
100
AcDbEntity
  8
0
100
AcDbBlockEnd
  0
BLOCK
  5
354
330
353
100
AcDbEntity
  8
0
100
AcDbBlockBegin
  2
_D_6
 70
     0
 10
0.0
 20
0.0
 30
0.0
  3
_D_6
  1
_D_6
  0
INSERT
  5
356
330
353
100
AcDbEntity
  8
FORMAT
100
AcDbBlockReference
  2
_OPEN30
 10
167.7443590577
 20
88.2628485915
 30
0.0642432817
 41
2.0
 42
2.0
 50
180.0
  0
INSERT
  5
357
330
353
100
AcDbEntity
  8
FORMAT
100
AcDbBlockReference
  2
_OPEN30
 10
312.75227028
 20
88.2628485915
 30
0.0642432817
 41
2.0
 42
2.0
  0
LINE
  5
358
330
353
100
AcDbEntity
  8
FORMAT
100
AcDbLine
 10
167.7443590577
 20
97.60204161430001
 30
0.0
 11
167.7443590577
 21
87.2628485915
 31
0.0
  0
LINE
  5
359
330
353
100
AcDbEntity
  8
FORMAT
100
AcDbLine
 10
312.75227028
 20
98.0106468435
 30
0.0
 11
312.75227028
 21
87.2628485915
 31
0.0
  0
LINE
  5
35A
330
353
100
AcDbEntity
  8
FORMAT
100
AcDbLine
 10
167.7443590577
 20
88.2628485915
 30
0.0
 11
312.75227028
 21
88.2628485915
 31
0.0
  0
MTEXT
  5
35B
330
353
100
AcDbEntity
  8
FORMAT
100
AcDbMText
 10
235.1563010416
 20
92.7745854479
 30
0.0
 40
3.5
 41
0.0
 71
     1
 72
     1
  1
513.1
  7
SLDTEXTSTYLE0
 73
     1
 44
1.0
1001
ACAD
1000
MTEXTBEGIN
1070
    73
1070
     1
1070
    44
1040
1.0
1070
    74
1070
     0
1000
MTEXTEND
  0
ENDBLK
  5
355
330
353
100
AcDbEntity
  8
0
100
AcDbBlockEnd
  0
BLOCK
  5
367
330
366
100
AcDbEntity
  8
0
100
AcDbBlockBegin
  2
SW_BROKEN_VIEW_1
 70
     0
 10
0.0
 20
0.0
 30
0.0
  3
SW_BROKEN_VIEW_1
  1
SW_BROKEN_VIEW_1
  0
ENDBLK
  5
368
330
366
100
AcDbEntity
  8
0
100
AcDbBlockEnd
  0
BLOCK
  5
43E
330
43D
100
AcDbEntity
  8
0
100
AcDbBlockBegin
  2
_D_7
 70
     0
 10
0.0
 20
0.0
 30
0.0
  3
_D_7
  1
_D_7
  0
INSERT
  5
440
330
43D
100
AcDbEntity
  8
FORMAT
100
AcDbBlockReference
  2
_OPEN30
 10
283.3970470181
 20
219.8968023151
 30
3.3420798647
 41
2.0
 42
2.0
 50
270.0
  0
INSERT
  5
441
330
43D
100
AcDbEntity
  8
FORMAT
100
AcDbBlockReference
  2
_OPEN30
 10
283.3970470181
 20
186.4606063191
 30
3.3420798647
 41
2.0
 42
2.0
 50
90.0
  0
LINE
  5
442
330
43D
100
AcDbEntity
  8
FORMAT
100
AcDbLine
 10
283.3970470181
 20
219.8968023151
 30
0.0
 11
283.3970470181
 21
237.0253460234
 31
0.0
  0
LINE
  5
443
330
43D
100
AcDbEntity
  8
FORMAT
100
AcDbLine
 10
283.3970470181
 20
219.8968023151
 30
0.0
 11
283.3970470181
 21
186.4606063191
 31
0.0
  0
LINE
  5
444
330
43D
100
AcDbEntity
  8
FORMAT
100
AcDbLine
 10
283.3970470181
 20
186.4606063191
 30
0.0
 11
283.3970470181
 21
183.4606063191
 31
0.0
  0
MTEXT
  5
445
330
43D
100
AcDbEntity
  8
FORMAT
100
AcDbMText
 10
278.8853101618
 20
228.8781240335
 30
0.0
 40
3.5
 41
0.0
 71
     1
 72
     1
  1
33.4
  7
SLDTEXTSTYLE0
 11
0.0000000000000036
 21
1.0
 31
0.0
 73
     1
 44
1.0
1001
ACAD
1000
MTEXTBEGIN
1070
    73
1070
     1
1070
    44
1040
1.0
1070
    74
1070
     0
1000
MTEXTEND
  0
ENDBLK
  5
43F
330
43D
100
AcDbEntity
  8
0
100
AcDbBlockEnd
  0
BLOCK
  5
448
330
447
100
AcDbEntity
  8
0
100
AcDbBlockBegin
  2
_D_8
 70
     0
 10
0.0
 20
0.0
 30
0.0
  3
_D_8
  1
_D_8
  0
INSERT
  5
44A
330
447
100
AcDbEntity
  8
FORMAT
100
AcDbBlockReference
  2
_OPEN30
 10
336.5119584003
 20
221.0428714435
 30
3.3420798647
 41
2.0
 42
2.0
 50
90.0
  0
INSERT
  5
44B
330
447
100
AcDbEntity
  8
FORMAT
100
AcDbBlockReference
  2
_OPEN30
 10
336.5119584003
 20
185.3030237541
 30
3.3420798647
 41
2.0
 42
2.0
 50
270.0
  0
LINE
  5
44C
330
447
100
AcDbEntity
  8
FORMAT
100
AcDbLine
 10
324.7435437445
 20
221.0428714435
 30
0.0
 11
337.5119584003
 21
221.0428714435
 31
0.0
  0
LINE
  5
44D
330
447
100
AcDbEntity
  8
FORMAT
100
AcDbLine
 10
324.7435437445
 20
185.3030237541
 30
0.0
 11
337.5119584003
 21
185.3030237541
 31
0.0
  0
LINE
  5
44E
330
447
100
AcDbEntity
  8
FORMAT
100
AcDbLine
 10
336.5119584003
 20
221.0428714435
 30
0.0
 11
336.5119584003
 21
185.3030237541
 31
0.0
  0
MTEXT
  5
44F
330
447
100
AcDbEntity
  8
FORMAT
100
AcDbMText
 10
332.000221544
 20
199.0993366038
 30
0.0
 40
3.5
 41
0.0
 71
     1
 72
     1
  1
35.7
  7
SLDTEXTSTYLE0
 11
0.0000000000000018
 21
1.0
 31
0.0
 73
     1
 44
1.0
1001
ACAD
1000
MTEXTBEGIN
1070
    73
1070
     1
1070
    44
1040
1.0
1070
    74
1070
     0
1000
MTEXTEND
  0
ENDBLK
  5
449
330
447
100
AcDbEntity
  8
0
100
AcDbBlockEnd
  0
BLOCK
  5
580
330
57F
100
AcDbEntity
  8
0
100
AcDbBlockBegin
  2
_D_9
 70
     0
 10
0.0
 20
0.0
 30
0.0
  3
_D_9
  1
_D_9
  0
INSERT
  5
582
330
57F
100
AcDbEntity
  8
FORMAT
100
AcDbBlockReference
  2
_OPEN30
 10
46.83343245999999
 20
230.1352385114
 30
248.0951326348
 41
2.0
 42
2.0
 50
90.0
  0
INSERT
  5
583
330
57F
100
AcDbEntity
  8
FORMAT
100
AcDbBlockReference
  2
_OPEN30
 10
46.83343245999999
 20
176.1506566862
 30
248.0951326348
 41
2.0
 42
2.0
 50
270.0
  0
LINE
  5
584
330
57F
100
AcDbEntity
  8
FORMAT
100
AcDbLine
 10
66.4516610084
 20
230.1352385114
 30
0.0
 11
45.83343246
 21
230.1352385114
 31
0.0
  0
LINE
  5
585
330
57F
100
AcDbEntity
  8
FORMAT
100
AcDbLine
 10
66.4516610084
 20
176.1506566862
 30
0.0
 11
45.83343246
 21
176.1506566862
 31
0.0
  0
LINE
  5
586
330
57F
100
AcDbEntity
  8
FORMAT
100
AcDbLine
 10
46.83343245999999
 20
230.1352385114
 30
0.0
 11
46.83343245999999
 21
176.1506566862
 31
0.0
  0
MTEXT
  5
587
330
57F
100
AcDbEntity
  8
FORMAT
100
AcDbMText
 10
42.3216956036
 20
201.1061421013
 30
0.0
 40
3.5
 41
0.0
 71
     1
 72
     1
  1
54
  7
SLDTEXTSTYLE0
 11
-0.0000000000000026
 21
1.0
 31
0.0
 73
     1
 44
1.0
1001
ACAD
1000
MTEXTBEGIN
1070
    73
1070
     1
1070
    44
1040
1.0
1070
    74
1070
     0
1000
MTEXTEND
  0
ENDBLK
  5
581
330
57F
100
AcDbEntity
  8
0
100
AcDbBlockEnd
  0
BLOCK
  5
58A
330
589
100
AcDbEntity
  8
0
100
AcDbBlockBegin
  2
_D_10
 70
     0
 10
0.0
 20
0.0
 30
0.0
  3
_D_10
  1
_D_10
  0
INSERT
  5
58C
330
589
100
AcDbEntity
  8
FORMAT
100
AcDbBlockReference
  2
_OPEN30
 10
57.44395192109999
 20
156.9161721876
 30
248.0951326348
 41
2.0
 42
2.0
 50
180.0
  0
INSERT
  5
58D
330
589
100
AcDbEntity
  8
FORMAT
100
AcDbBlockReference
  2
_OPEN30
 10
89.10703786190001
 20
156.9161721876
 30
248.0951326348
 41
2.0
 42
2.0
  0
LINE
  5
58E
330
589
100
AcDbEntity
  8
FORMAT
100
AcDbLine
 10
57.44395192109999
 20
190.9429475988
 30
0.0
 11
57.44395192109999
 21
155.9161721876
 31
0.0
  0
LINE
  5
58F
330
589
100
AcDbEntity
  8
FORMAT
100
AcDbLine
 10
89.10703786190001
 20
189.6374207808
 30
0.0
 11
89.10703786190001
 21
155.9161721876
 31
0.0
  0
LINE
  5
590
330
589
100
AcDbEntity
  8
FORMAT
100
AcDbLine
 10
57.44395192109999
 20
156.9161721876
 30
0.0
 11
89.10703786190001
 21
156.9161721876
 31
0.0
  0
MTEXT
  5
591
330
589
100
AcDbEntity
  8
FORMAT
100
AcDbMText
 10
69.20188389649999
 20
161.427909044
 30
0.0
 40
3.5
 41
0.0
 71
     1
 72
     1
  1
31.7
  7
SLDTEXTSTYLE0
 73
     1
 44
1.0
1001
ACAD
1000
MTEXTBEGIN
1070
    73
1070
     1
1070
    44
1040
1.0
1070
    74
1070
     0
1000
MTEXTEND
  0
ENDBLK
  5
58B
330
589
100
AcDbEntity
  8
0
100
AcDbBlockEnd
  0
BLOCK
  5
594
330
593
100
AcDbEntity
  8
0
100
AcDbBlockBegin
  2
_D_11
 70
     0
 10
0.0
 20
0.0
 30
0.0
  3
_D_11
  1
_D_11
  0
INSERT
  5
596
330
593
100
AcDbEntity
  8
FORMAT
100
AcDbBlockReference
  2
_OPEN30
 10
57.44395192109999
 20
163.9349953978
 30
248.0951326348
 41
2.0
 42
2.0
 50
180.0
  0
INSERT
  5
597
330
593
100
AcDbEntity
  8
FORMAT
100
AcDbBlockReference
  2
_OPEN30
 10
82.44395192109999
 20
163.9349953978
 30
248.0951326348
 41
2.0
 42
2.0
  0
LINE
  5
598
330
593
100
AcDbEntity
  8
FORMAT
100
AcDbLine
 10
57.44395192109999
 20
190.9429475988
 30
0.0
 11
57.44395192109999
 21
162.9349953978
 31
0.0
  0
LINE
  5
599
330
593
100
AcDbEntity
  8
FORMAT
100
AcDbLine
 10
82.44395192109999
 20
190.9429475988
 30
0.0
 11
82.44395192109999
 21
162.9349953978
 31
0.0
  0
LINE
  5
59A
330
593
100
AcDbEntity
  8
FORMAT
100
AcDbLine
 10
57.44395192109999
 20
163.9349953978
 30
0.0
 11
82.44395192109999
 21
163.9349953978
 31
0.0
  0
MTEXT
  5
59B
330
593
100
AcDbEntity
  8
FORMAT
100
AcDbMText
 10
67.9071464236
 20
168.4467322542
 30
0.0
 40
3.5
 41
0.0
 71
     1
 72
     1
  1
25
  7
SLDTEXTSTYLE0
 73
     1
 44
1.0
1001
ACAD
1000
MTEXTBEGIN
1070
    73
1070
     1
1070
    44
1040
1.0
1070
    74
1070
     0
1000
MTEXTEND
  0
ENDBLK
  5
595
330
593
100
AcDbEntity
  8
0
100
AcDbBlockEnd
  0
BLOCK
  5
59E
330
59D
100
AcDbEntity
  8
0
100
AcDbBlockBegin
  2
_D_12
 70
     0
 10
0.0
 20
0.0
 30
0.0
  3
_D_12
  1
_D_12
  0
INSERT
  5
5A0
330
59D
100
AcDbEntity
  8
FORMAT
100
AcDbBlockReference
  2
_OPEN30
 10
53.40248020909999
 20
207.0929475988
 30
248.0951326348
 41
2.0
 42
2.0
 50
270.0
  0
INSERT
  5
5A1
330
59D
100
AcDbEntity
  8
FORMAT
100
AcDbBlockReference
  2
_OPEN30
 10
53.40248020909999
 20
199.1929475988
 30
248.0951326348
 41
2.0
 42
2.0
 50
90.0
  0
LINE
  5
5A2
330
59D
100
AcDbEntity
  8
FORMAT
100
AcDbLine
 10
65.74395192109999
 20
207.0929475988
 30
0.0
 11
52.4024802091
 21
207.0929475988
 31
0.0
  0
LINE
  5
5A3
330
59D
100
AcDbEntity
  8
FORMAT
100
AcDbLine
 10
65.74395192109999
 20
199.1929475988
 30
0.0
 11
52.4024802091
 21
199.1929475988
 31
0.0
  0
LINE
  5
5A4
330
59D
100
AcDbEntity
  8
FORMAT
100
AcDbLine
 10
53.40248020909999
 20
207.0929475988
 30
0.0
 11
53.40248020909999
 21
216.0838675777
 31
0.0
  0
LINE
  5
5A5
330
59D
100
AcDbEntity
  8
FORMAT
100
AcDbLine
 10
53.40248020909999
 20
207.0929475988
 30
0.0
 11
53.40248020909999
 21
199.1929475988
 31
0.0
  0
LINE
  5
5A6
330
59D
100
AcDbEntity
  8
FORMAT
100
AcDbLine
 10
53.40248020909999
 20
199.1929475988
 30
0.0
 11
53.40248020909999
 21
196.1929475988
 31
0.0
  0
MTEXT
  5
5A7
330
59D
100
AcDbEntity
  8
FORMAT
100
AcDbMText
 10
48.89074335270001
 20
209.9734508524
 30
0.0
 40
3.5
 41
0.0
 71
     1
 72
     1
  1
7.9
  7
SLDTEXTSTYLE0
 11
-0.0000000000000035
 21
1.0
 31
0.0
 73
     1
 44
1.0
1001
ACAD
1000
MTEXTBEGIN
1070
    73
1070
     1
1070
    44
1040
1.0
1070
    74
1070
     0
1000
MTEXTEND
  0
ENDBLK
  5
59F
330
59D
100
AcDbEntity
  8
0
100
AcDbBlockEnd
  0
BLOCK
  5
5AA
330
5A9
100
AcDbEntity
  8
0
100
AcDbBlockBegin
  2
_D_13
 70
     0
 10
0.0
 20
0.0
 30
0.0
  3
_D_13
  1
_D_13
  0
INSERT
  5
5AC
330
5A9
100
AcDbEntity
  8
FORMAT
100
AcDbBlockReference
  2
_OPEN30
 10
66.74395192109999
 20
235.3947164269
 30
248.0951326348
 41
2.0
 42
2.0
  0
INSERT
  5
5AD
330
5A9
100
AcDbEntity
  8
FORMAT
100
AcDbBlockReference
  2
_OPEN30
 10
73.1439519211
 20
235.3947164269
 30
248.0951326348
 41
2.0
 42
2.0
 50
180.0
  0
LINE
  5
5AE
330
5A9
100
AcDbEntity
  8
FORMAT
100
AcDbLine
 10
66.74395192109999
 20
208.0929475988
 30
0.0
 11
66.74395192109999
 21
236.3947164269
 31
0.0
  0
LINE
  5
5AF
330
5A9
100
AcDbEntity
  8
FORMAT
100
AcDbLine
 10
73.1439519211
 20
208.0929475988
 30
0.0
 11
73.1439519211
 21
236.3947164269
 31
0.0
  0
LINE
  5
5B0
330
5A9
100
AcDbEntity
  8
FORMAT
100
AcDbLine
 10
66.74395192109999
 20
235.3947164269
 30
0.0
 11
63.7439519211
 21
235.3947164269
 31
0.0
  0
LINE
  5
5B1
330
5A9
100
AcDbEntity
  8
FORMAT
100
AcDbLine
 10
66.74395192109999
 20
235.3947164269
 30
0.0
 11
73.1439519211
 21
235.3947164269
 31
0.0
  0
LINE
  5
5B2
330
5A9
100
AcDbEntity
  8
FORMAT
100
AcDbLine
 10
73.1439519211
 20
235.3947164269
 30
0.0
 11
82.75284831449999
 21
235.3947164269
 31
0.0
  0
MTEXT
  5
5B3
330
5A9
100
AcDbEntity
  8
FORMAT
100
AcDbMText
 10
76.6424315893
 20
239.9064532832
 30
0.0
 40
3.5
 41
0.0
 71
     1
 72
     1
  1
6.4
  7
SLDTEXTSTYLE0
 73
     1
 44
1.0
1001
ACAD
1000
MTEXTBEGIN
1070
    73
1070
     1
1070
    44
1040
1.0
1070
    74
1070
     0
1000
MTEXTEND
  0
ENDBLK
  5
5AB
330
5A9
100
AcDbEntity
  8
0
100
AcDbBlockEnd
  0
BLOCK
  5
5B7
330
5B6
100
AcDbEntity
  8
0
100
AcDbBlockBegin
  2
_D_14
 70
     0
 10
0.0
 20
0.0
 30
0.0
  3
_D_14
  1
_D_14
  0
INSERT
  5
5B9
330
5B6
100
AcDbEntity
  8
FORMAT
100
AcDbBlockReference
  2
_OPEN30
 10
72.7105112247
 20
206.6085622536
 30
248.0951326348
 41
2.0
 42
2.0
 50
48.1769868651
  0
INSERT
  5
5BA
330
5B6
100
AcDbEntity
  8
FORMAT
100
AcDbBlockReference
  2
_OPEN30
 10
73.57739261749999
 20
207.5773329441
 30
248.0951326348
 41
2.0
 42
2.0
 50
228.1769868651
  0
LINE
  5
5BB
330
5B6
100
AcDbEntity
  8
FORMAT
100
AcDbLine
 10
73.57739261749999
 20
207.5773329441
 30
0.0
 11
94.39643991430001
 21
230.8433564082
 31
0.0
  0
LINE
  5
5BC
330
5B6
100
AcDbEntity
  8
FORMAT
100
AcDbLine
 10
72.7105112247
 20
206.6085622536
 30
0.0
 11
70.71001570279999
 21
204.3729375831
 31
0.0
  0
LINE
  5
5BD
330
5B6
100
AcDbEntity
  8
FORMAT
100
AcDbLine
 10
73.57739261749999
 20
207.5773329441
 30
0.0
 11
72.7105112247
 21
206.6085622536
 31
0.0
  0
MTEXT
  5
5BE
330
5B6
100
AcDbEntity
  8
FORMAT
100
AcDbMText
 10
84.3873328705
 20
226.4070718499
 30
0.0
 40
3.5
 41
0.0
 71
     1
 72
     1
  1
%%c
  7
SLDTEXTSTYLE0
 11
0.6668318406206044
 21
0.7452082234748466
 31
0.0
 73
     1
 44
1.0
1001
ACAD
1000
MTEXTBEGIN
1070
    73
1070
     1
1070
    44
1040
1.0
1070
    74
1070
     0
1000
MTEXTEND
  0
MTEXT
  5
5BF
330
5B6
100
AcDbEntity
  8
FORMAT
100
AcDbMText
 10
86.96792575889999
 20
229.290975894
 30
0.0
 40
3.5
 41
0.0
 71
     1
 72
     1
  1
1.3
  7
SLDTEXTSTYLE0
 11
0.6668318406206044
 21
0.7452082234748466
 31
0.0
 73
     1
 44
1.0
1001
ACAD
1000
MTEXTBEGIN
1070
    73
1070
     1
1070
    44
1040
1.0
1070
    74
1070
     0
1000
MTEXTEND
  0
ENDBLK
  5
5B8
330
5B6
100
AcDbEntity
  8
0
100
AcDbBlockEnd
  0
ENDSEC
  0
SECTION
  2
ENTITIES
  0
SPLINE
  5
DD
330
1F
100
AcDbEntity
  8
0
370
    15
100
AcDbSpline
210
0.0
220
0.0
230
1.0
 70
     8
 71
     3
 72
    12
 73
     8
 74
     0
 42
0.000000001
 43
0.0000000001
 40
0.0
 40
0.0
 40
0.0
 40
0.0
 40
0.0863306225039131
 40
0.3089667634978276
 40
0.526390042246559
 40
0.7733100648361932
 40
1.0
 40
1.0
 40
1.0
 40
1.0
 10
492.3563962728083
 20
269.9886246466755
 30
0.0
 10
492.3262618845766
 20
270.0100516546163
 30
0.0
 10
492.2184145862261
 20
270.0867363014183
 30
0.0
 10
491.983981373669
 20
270.1118739182073
 30
0.0
 10
491.6980803294766
 20
270.0613556021503
 30
0.0
 10
491.430784078662
 20
269.9198187788553
 30
0.0
 10
491.2801212499946
 20
269.7672370388113
 30
0.0
 10
491.2080075912696
 20
269.6942049072196
 30
0.0
  0
SPLINE
  5
DE
330
1F
100
AcDbEntity
  8
0
370
    15
100
AcDbSpline
210
0.0
220
0.0
230
1.0
 70
     8
 71
     3
 72
    13
 73
     9
 74
     0
 42
0.000000001
 43
0.0000000001
 40
0.0
 40
0.0
 40
0.0
 40
0.0
 40
0.1598504871654945
 40
0.3784219902315669
 40
0.616325217546648
 40
0.7901821753581967
 40
0.9474285586190504
 40
1.0
 40
1.0
 40
1.0
 40
1.0
 10
491.2080075912696
 20
269.6942049072196
 30
0.0
 10
491.1427486564921
 20
269.6096853770694
 30
0.0
 10
490.9882579419701
 20
269.4095980993887
 30
0.0
 10
490.8365280800133
 20
269.0178500229762
 30
0.0
 10
490.8078008483368
 20
268.6133089819476
 30
0.0
 10
490.9226467391623
 20
268.28375563242
 30
0.0
 10
491.071415510716
 20
268.084186411271
 30
0.0
 10
491.1901795646469
 20
268.0319856729234
 30
0.0
 10
491.2199367957595
 20
268.0189063834933
 30
0.0
  0
LINE
  5
DF
330
1F
100
AcDbEntity
  8
0
370
    15
100
AcDbLine
 10
496.9576994336
 20
267.3477443187
 30
0.0
 11
492.3615052610999
 21
270.0010707369
 31
0.0
  0
LINE
  5
E0
330
1F
100
AcDbEntity
  8
0
370
    15
100
AcDbLine
 10
491.2115986344999
 20
268.0091582601
 30
0.0
 11
495.8077928069999
 21
265.3558318419
 31
0.0
  0
SPLINE
  5
E1
330
1F
100
AcDbEntity
  8
0
370
    15
100
AcDbSpline
210
0.0
220
0.0
230
1.0
 70
     8
 71
     3
 72
    11
 73
     7
 74
     0
 42
0.000000001
 43
0.0000000001
 40
0.0
 40
0.0
 40
0.0
 40
0.0
 40
0.2367350726924007
 40
0.490397352699049
 40
0.7597447481137471
 40
1.0
 40
1.0
 40
1.0
 40
1.0
 10
497.9382010832236
 20
278.4472830991347
 30
0.0
 10
497.8598557179398
 20
278.4850187346872
 30
0.0
 10
497.6975630787692
 20
278.5631882072834
 30
0.0
 10
497.4153631652532
 20
278.546207432939
 30
0.0
 10
497.1531442507131
 20
278.4537365316707
 30
0.0
 10
497.0013760869975
 20
278.3361845232591
 30
0.0
 10
496.9298240678019
 20
278.2807639175376
 30
0.0
  0
SPLINE
  5
E2
330
1F
100
AcDbEntity
  8
0
370
    15
100
AcDbSpline
210
0.0
220
0.0
230
1.0
 70
     8
 71
     3
 72
    13
 73
     9
 74
     0
 42
0.000000001
 43
0.0000000001
 40
0.0
 40
0.0
 40
0.0
 40
0.0
 40
0.1485046122647569
 40
0.3479711743780273
 40
0.5561097307883906
 40
0.7335549825918899
 40
0.8832865637998237
 40
1.0
 40
1.0
 40
1.0
 40
1.0
 10
496.9298240678019
 20
278.2807639175376
 30
0.0
 10
496.8546727969975
 20
278.205642301134
 30
0.0
 10
496.6785807850453
 20
278.0296197744091
 30
0.0
 10
496.4817825780242
 20
277.6587882026229
 30
0.0
 10
496.3911032597613
 20
277.2482739025574
 30
0.0
 10
496.4388047144294
 20
276.8882572091966
 30
0.0
 10
496.5803392613481
 20
276.614357439579
 30
0.0
 10
496.7309371191125
 20
276.5136559164223
 30
0.0
 10
496.7969049260358
 20
276.4695446738381
 30
0.0
  0
LINE
  5
E3
330
1F
100
AcDbEntity
  8
0
370
    15
100
AcDbLine
 10
502.5438430646
 20
275.7984172687
 30
0.0
 11
497.9476488919999
 21
278.4517436869
 31
0.0
  0
LINE
  5
E4
330
1F
100
AcDbEntity
  8
0
370
    15
100
AcDbLine
 10
496.7977422654
 20
276.4598314002
 30
0.0
 11
501.3939364378999
 21
273.806504982
 31
0.0
  0
ARC
  5
E5
330
1F
100
AcDbEntity
  8
0
370
    15
100
AcDbCircle
 10
518.2622503815
 20
282.8141362723
 30
0.0
 40
0.9999999999999861
100
AcDbArc
 50
59.2405947579
 51
119.9973117337
  0
ARC
  5
E6
330
1F
100
AcDbEntity
  8
0
370
    15
100
AcDbCircle
 10
508.6335100493
 20
267.3746992799
 30
0.0
 40
0.2000000000000221
100
AcDbArc
 50
216.7947357463
 51
239.3082139204
  0
LINE
  5
E7
330
1F
100
AcDbEntity
  8
0
370
    15
100
AcDbLine
 10
508.5307432971999
 20
267.2014664756
 30
0.0
 11
513.5062340816999
 21
264.2477905434
 31
0.0
  0
LINE
  5
E8
330
1F
100
AcDbEntity
  8
0
370
    15
100
AcDbLine
 10
517.7622906744
 20
283.6801851502
 30
0.0
 11
514.7269800118
 21
281.9279376023
 31
0.0
  0
LINE
  5
E9
330
1F
100
AcDbEntity
  8
0
370
    15
100
AcDbLine
 10
523.0069457214
 20
281.1539912314
 30
0.0
 11
518.7736846469
 21
283.6734576994
 31
0.0
  0
SPLINE
  5
EA
330
1F
100
AcDbEntity
  8
0
370
    15
100
AcDbSpline
210
0.0
220
0.0
230
1.0
 70
     8
 71
     3
 72
    13
 73
     9
 74
     0
 42
0.000000001
 43
0.0000000001
 40
0.0
 40
0.0
 40
0.0
 40
0.0
 40
0.1327974593024083
 40
0.3203034640982101
 40
0.5088687404682081
 40
0.7095874375393595
 40
0.9008675238172479
 40
1.0
 40
1.0
 40
1.0
 40
1.0
 10
514.5287581148729
 20
284.8719222912024
 30
0.0
 10
514.2544208728483
 20
285.0184447255625
 30
0.0
 10
513.5927277244007
 20
285.3718524152892
 30
0.0
 10
512.3984042055605
 20
285.5936427276475
 30
0.0
 10
511.0364602293419
 20
285.6039966824699
 30
0.0
 10
509.622564034857
 20
285.3126697708834
 30
0.0
 10
508.4623091217022
 20
284.8666419269537
 30
0.0
 10
507.8151061083623
 20
284.5135253990098
 30
0.0
 10
507.5941830299606
 20
284.3929888922571
 30
0.0
  0
LINE
  5
EB
330
1F
100
AcDbEntity
  8
0
370
    15
100
AcDbLine
 10
524.6477488757
 20
278.3109301823
 30
0.0
 11
523.0455627713999
 21
281.1146851864
 31
0.0
  0
SPLINE
  5
EC
330
1F
100
AcDbEntity
  8
0
370
    15
100
AcDbSpline
210
0.0
220
0.0
230
1.0
 70
     8
 71
     3
 72
    11
 73
     7
 74
     0
 42
0.000000001
 43
0.0000000001
 40
0.0
 40
0.0
 40
0.0
 40
0.0
 40
0.2684234357612819
 40
0.5294333281650485
 40
0.7821835088412766
 40
1.0
 40
1.0
 40
1.0
 40
1.0
 10
524.577889157242
 20
276.7319720736807
 30
0.0
 10
524.6385948305864
 20
276.8398644052883
 30
0.0
 10
524.7583295571241
 20
277.0526692076874
 30
0.0
 10
524.8104618607218
 20
277.4711650474529
 30
0.0
 10
524.7780709495511
 20
277.8990915785215
 30
0.0
 10
524.6866846966467
 20
278.173923898914
 30
0.0
 10
524.6443837133021
 20
278.3011386280224
 30
0.0
  0
ARC
  5
ED
330
1F
100
AcDbEntity
  8
0
370
    15
100
AcDbCircle
 10
513.8747262037999
 20
263.3830421685
 30
0.0
 40
0.2000000000000612
100
AcDbArc
 50
184.5299980979
 51
239.1863767483
  0
LINE
  5
EE
330
1F
100
AcDbEntity
  8
0
370
    15
100
AcDbLine
 10
513.7722254768
 20
263.2120337702
 30
0.0
 11
518.5720771726001
 21
260.3508521983
 31
0.0
  0
LINE
  5
EF
330
1F
100
AcDbEntity
  8
0
370
    15
100
AcDbLine
 10
513.6444019877999
 20
263.7578793572
 30
0.0
 11
513.6753509454999
 21
263.3672460578
 31
0.0
  0
LINE
  5
F0
330
1F
100
AcDbEntity
  8
0
370
    15
100
AcDbLine
 10
531.674962569
 20
275.2266600018
 30
0.0
 11
523.9013130421
 21
279.6171611714
 31
0.0
  0
LINE
  5
F1
330
1F
100
AcDbEntity
  8
0
370
    15
100
AcDbLine
 10
517.2407168386
 20
283.3790872352
 30
0.0
 11
514.7753869844
 21
284.7715162052
 31
0.0
  0
SPLINE
  5
F2
330
1F
100
AcDbEntity
  8
0
370
    15
100
AcDbSpline
210
0.0
220
0.0
230
1.0
 70
     8
 71
     3
 72
     9
 73
     5
 74
     0
 42
0.000000001
 43
0.0000000001
 40
0.0
 40
0.0
 40
0.0
 40
0.0
 40
0.4505504477685525
 40
1.0
 40
1.0
 40
1.0
 40
1.0
 10
513.4797875927985
 20
264.2879298626999
 30
0.0
 10
513.5168525852013
 20
264.2241763560014
 30
0.0
 10
513.5991186057687
 20
264.0826749835932
 30
0.0
 10
513.6285455284378
 20
263.8704816988445
 30
0.0
 10
513.6447141379222
 20
263.7538921935529
 30
0.0
  0
SPLINE
  5
F3
330
1F
100
AcDbEntity
  8
0
370
    15
100
AcDbSpline
210
0.0
220
0.0
230
1.0
 70
     8
 71
     3
 72
    11
 73
     7
 74
     0
 42
0.000000001
 43
0.0000000001
 40
0.0
 40
0.0
 40
0.0
 40
0.0
 40
0.1324249981562119
 40
0.4623477039548158
 40
0.7864205495144111
 40
1.0
 40
1.0
 40
1.0
 40
1.0
 10
497.9362580476529
 20
273.2168826262648
 30
0.0
 10
497.9048543046185
 20
273.238562556127
 30
0.0
 10
497.795211497825
 20
273.3142557102389
 30
0.0
 10
497.5602274702663
 20
273.3355940391987
 30
0.0
 10
497.3162058478555
 20
273.2933118946536
 30
0.0
 10
497.1777271118995
 20
273.2220215221158
 30
0.0
 10
497.1227171871823
 20
273.1937018093506
 30
0.0
  0
SPLINE
  5
F4
330
1F
100
AcDbEntity
  8
0
370
    15
100
AcDbSpline
210
0.0
220
0.0
230
1.0
 70
     8
 71
     3
 72
    14
 73
    10
 74
     0
 42
0.000000001
 43
0.0000000001
 40
0.0
 40
0.0
 40
0.0
 40
0.0
 40
0.1380863756072591
 40
0.3150666962972244
 40
0.4963481827446837
 40
0.6918549617578661
 40
0.8334602884176177
 40
0.9619799050310595
 40
1.0
 40
1.0
 40
1.0
 40
1.0
 10
497.1227171871823
 20
273.1937018093506
 30
0.0
 10
497.0348221058268
 20
273.1328826960137
 30
0.0
 10
496.8342750729883
 20
272.994113921567
 30
0.0
 10
496.58804931158
 20
272.6588676064439
 30
0.0
 10
496.419176495663
 20
272.2353469186781
 30
0.0
 10
496.3951519219966
 20
271.8271886784966
 30
0.0
 10
496.5139902256391
 20
271.5000391957965
 30
0.0
 10
496.6618422175416
 20
271.304989292517
 30
0.0
 10
496.7773334495491
 20
271.2554711407628
 30
0.0
 10
496.803699458997
 20
271.2441664206183
 30
0.0
  0
LINE
  5
F5
330
1F
100
AcDbEntity
  8
0
370
    15
100
AcDbLine
 10
502.5438430646
 20
270.5725563948
 30
0.0
 11
497.9476488919999
 21
273.2258828129
 31
0.0
  0
LINE
  5
F6
330
1F
100
AcDbEntity
  8
0
370
    15
100
AcDbLine
 10
496.7977422654
 20
271.2339703362
 30
0.0
 11
501.3939364378999
 21
268.580643918
 31
0.0
  0
LINE
  5
F7
330
1F
100
AcDbEntity
  8
0
370
    15
100
AcDbLine
 10
508.2120349202999
 20
239.4678636392
 30
0.0
 11
513.8994384951001
 21
236.2555340523
 31
0.0
  0
SPLINE
  5
F8
330
1F
100
AcDbEntity
  8
0
370
    15
100
AcDbSpline
210
0.0
220
0.0
230
1.0
 70
     8
 71
     3
 72
    12
 73
     8
 74
     0
 42
0.000000001
 43
0.0000000001
 40
0.0
 40
0.0
 40
0.0
 40
0.0
 40
0.0852282498185415
 40
0.3689754351546759
 40
0.640216549642333
 40
0.9286015496213963
 40
1.0
 40
1.0
 40
1.0
 40
1.0
 10
484.0648487408937
 20
258.180395643074
 30
0.0
 10
484.0985911709807
 20
258.0413986941756
 30
0.0
 10
484.2446709960511
 20
257.4396444658049
 30
0.0
 10
484.7321803366835
 20
256.5185786247433
 30
0.0
 10
485.5576653893049
 20
255.448592387853
 30
0.0
 10
486.3059554706808
 20
254.7655022007209
 30
0.0
 10
486.8247476137049
 20
254.5293415275277
 30
0.0
 10
486.9277010848654
 20
254.482475819587
 30
0.0
  0
SPLINE
  5
F9
330
1F
100
AcDbEntity
  8
0
370
    15
100
AcDbSpline
210
0.0
220
0.0
230
1.0
 70
     8
 71
     3
 72
    11
 73
     7
 74
     0
 42
0.000000001
 43
0.0000000001
 40
0.0
 40
0.0
 40
0.0
 40
0.0
 40
0.1324250236836786
 40
0.4623479954603459
 40
0.7864209283169692
 40
1.0
 40
1.0
 40
1.0
 40
1.0
 10
492.3501145813829
 20
275.2179318994084
 30
0.0
 10
492.3187107699766
 20
275.2396117098816
 30
0.0
 10
492.2090676764768
 20
275.3153044802918
 30
0.0
 10
491.9740839930766
 20
275.336643573163
 30
0.0
 10
491.7300623253803
 20
275.2943614133645
 30
0.0
 10
491.5915836989982
 20
275.2230707720735
 30
0.0
 10
491.5365738855483
 20
275.1947509874208
 30
0.0
  0
SPLINE
  5
FA
330
1F
100
AcDbEntity
  8
0
370
    15
100
AcDbSpline
210
0.0
220
0.0
230
1.0
 70
     8
 71
     3
 72
    14
 73
    10
 74
     0
 42
0.000000001
 43
0.0000000001
 40
0.0
 40
0.0
 40
0.0
 40
0.0
 40
0.1380865474026265
 40
0.3150667480042643
 40
0.4963484610387108
 40
0.6918549334971229
 40
0.8334603310094598
 40
0.961980126472134
 40
1.0
 40
1.0
 40
1.0
 40
1.0
 10
491.5365738855483
 20
275.1947509874208
 30
0.0
 10
491.4486787025479
 20
275.1339318136439
 30
0.0
 10
491.2481316543803
 20
274.9951630511638
 30
0.0
 10
491.0019054210058
 20
274.6599168019891
 30
0.0
 10
490.8330330057573
 20
274.2363960931506
 30
0.0
 10
490.8090085670288
 20
273.828237887422
 30
0.0
 10
490.9278467328051
 20
273.5010883778486
 30
0.0
 10
491.0756982070096
 20
273.306038087245
 30
0.0
 10
491.1911898676175
 20
273.2565203511389
 30
0.0
 10
491.2175558280908
 20
273.2452157888351
 30
0.0
  0
LINE
  5
FB
330
1F
100
AcDbEntity
  8
0
370
    15
100
AcDbLine
 10
496.6714090626
 20
272.7388771059
 30
0.0
 11
492.3615052610999
 21
275.2269316108
 31
0.0
  0
LINE
  5
FC
330
1F
100
AcDbEntity
  8
0
370
    15
100
AcDbLine
 10
491.2115986344999
 20
273.2350193241
 30
0.0
 11
495.8077928069999
 21
270.581692906
 31
0.0
  0
LINE
  5
FD
330
1F
100
AcDbEntity
  8
0
370
    15
100
AcDbLine
 10
507.5565235037
 20
284.3966029309
 30
0.0
 11
497.3631583725
 21
278.5120984959
 31
0.0
  0
LINE
  5
FE
330
1F
100
AcDbEntity
  8
0
370
    15
100
AcDbLine
 10
496.8932210116
 20
278.240809432
 30
0.0
 11
494.4764993152999
 21
276.8456656932
 31
0.0
  0
LWPOLYLINE
  5
FF
330
1F
100
AcDbEntity
  8
0
370
    15
100
AcDbPolyline
 90
        3
 70
   128
 43
0.0
 10
486.6587607273999
 20
254.6068721854
 10
495.0155482880999
 20
249.677097887
 10
503.4720689572
 20
244.6884497518
  0
LINE
  5
100
330
1F
100
AcDbEntity
  8
0
370
    15
100
AcDbLine
 10
489.8245968872
 20
273.710569132
 30
0.0
 11
488.9430066471
 21
272.0617131709
 31
0.0
  0
ARC
  5
101
330
1F
100
AcDbEntity
  8
0
370
    15
100
AcDbCircle
 10
481.5036000556999
 20
257.5237046359
 30
0.0
 40
1.0
100
AcDbArc
 50
180.0
 51
240.7647808236
  0
LINE
  5
102
330
1F
100
AcDbEntity
  8
0
370
    15
100
AcDbLine
 10
486.9882423985999
 20
270.5194264541
 30
0.0
 11
485.8043532289999
 21
267.2648202466
 31
0.0
  0
ARC
  5
103
330
1F
100
AcDbEntity
  8
0
370
    15
100
AcDbCircle
 10
490.000969538
 20
273.6162681177999
 30
0.0
 40
0.1999999999999874
100
AcDbArc
 50
60.70531590609999
 51
151.8680081468
  0
LINE
  5
104
330
1F
100
AcDbEntity
  8
0
370
    15
100
AcDbLine
 10
481.0152041984999
 20
256.6510820595
 30
0.0
 11
485.3889604755
 21
254.2031430389
 31
0.0
  0
LINE
  5
105
330
1F
100
AcDbEntity
  8
0
370
    15
100
AcDbLine
 10
480.5035994095
 20
261.5938190567
 30
0.0
 11
480.5035994095
 21
257.5237045517
 31
0.0
  0
LINE
  5
106
330
1F
100
AcDbEntity
  8
0
370
    15
100
AcDbLine
 10
490.6127554667
 20
273.5032874496
 30
0.0
 11
490.0992725087
 21
273.7915384574
 31
0.0
  0
LINE
  5
107
330
1F
100
AcDbEntity
  8
0
370
    15
100
AcDbLine
 10
483.1023477469
 20
263.6714259965
 30
0.0
 11
481.0036401569
 21
262.4598678936
 31
0.0
  0
ARC
  5
108
330
1F
100
AcDbEntity
  8
0
370
    15
100
AcDbCircle
 10
487.1761938348
 20
270.4510570533
 30
0.0
 40
0.2000000000000006
100
AcDbArc
 50
87.47237620620001
 51
160.01074365
  0
ARC
  5
109
330
1F
100
AcDbEntity
  8
0
370
    15
100
AcDbCircle
 10
483.7060366184999
 20
265.4591023208
 30
0.0
 40
0.1999999999999954
100
AcDbArc
 50
72.63133053279999
 51
162.7644550063
  0
ARC
  5
10A
330
1F
100
AcDbEntity
  8
0
370
    15
100
AcDbCircle
 10
481.5036000556999
 20
261.5938191264
 30
0.0
 40
1.000000000000007
100
AcDbArc
 50
119.9973117336
 51
180.0
  0
SPLINE
  5
10B
330
1F
100
AcDbEntity
  8
0
370
    15
100
AcDbSpline
210
0.0
220
0.0
230
1.0
 70
     8
 71
     3
 72
    12
 73
     8
 74
     0
 42
0.000000001
 43
0.0000000001
 40
0.0
 40
0.0
 40
0.0
 40
0.0
 40
0.1185932927381946
 40
0.3432549223942113
 40
0.5682685857632491
 40
0.7936651068719714
 40
1.0
 40
1.0
 40
1.0
 40
1.0
 10
903.9718444789777
 20
34.73824312423874
 30
0.0
 10
904.1550161147103
 20
35.1126488132868
 30
0.0
 10
904.685185774027
 20
36.1963238911166
 30
0.0
 10
905.4234062091316
 20
38.0310108204138
 30
0.0
 10
906.1024833377659
 20
40.21414797977138
 30
0.0
 10
906.5670098880195
 20
42.31832432478582
 30
0.0
 10
906.6991143984427
 20
43.64646407458739
 30
0.0
 10
906.7622503416265
 20
44.28121420927211
 30
0.0
  0
SPLINE
  5
10C
330
1F
100
AcDbEntity
  8
0
370
    15
100
AcDbSpline
210
0.0
220
0.0
230
1.0
 70
     8
 71
     3
 72
    11
 73
     7
 74
     0
 42
0.000000001
 43
0.0000000001
 40
0.0
 40
0.0
 40
0.0
 40
0.0
 40
0.1689735750779171
 40
0.478951501121917
 40
0.7878273621154375
 40
1.0
 40
1.0
 40
1.0
 40
1.0
 10
901.3953193845427
 20
31.87165928133663
 30
0.0
 10
901.5670273286731
 20
31.97947261026709
 30
0.0
 10
902.0537293325691
 20
32.28506687675761
 30
0.0
 10
902.7990964046972
 20
32.97935704502553
 30
0.0
 10
903.4942796540017
 20
33.86360401601507
 30
0.0
 10
903.8336512605944
 20
34.48514828356333
 30
0.0
 10
903.9718444789777
 20
34.73824312423877
 30
0.0
  0
LINE
  5
10D
330
1F
100
AcDbEntity
  8
0
370
    15
100
AcDbLine
 10
887.2712683675999
 20
23.7180181844
 30
0.0
 11
901.3953193844999
 21
31.8716592813
 31
0.0
  0
LINE
  5
10E
330
1F
100
AcDbEntity
  8
0
370
    15
100
AcDbLine
 10
906.7622002922
 20
44.20729976119999
 30
0.0
 11
906.7622002922
 21
54.47409763279999
 31
0.0
  0
LINE
  5
10F
330
1F
100
AcDbEntity
  8
0
370
    15
100
AcDbLine
 10
876.6655420925999
 20
28.0197418198
 30
0.0
 11
884.2499866786999
 21
23.5325796044
 31
0.0
  0
LINE
  5
110
330
1F
100
AcDbEntity
  8
0
370
    15
100
AcDbLine
 10
896.3606899862
 20
62.4522908437
 30
0.0
 11
894.4261601761999
 21
61.33551055569999
 31
0.0
  0
LINE
  5
111
330
1F
100
AcDbEntity
  8
0
370
    15
100
AcDbLine
 10
906.6650030741
 20
54.77472453409999
 30
0.0
 11
904.3723363458999
 21
57.94952203979999
 31
0.0
  0
SPLINE
  5
112
330
1F
100
AcDbEntity
  8
0
370
    15
100
AcDbSpline
210
0.0
220
0.0
230
1.0
 70
     8
 71
     3
 72
    12
 73
     8
 74
     0
 42
0.000000001
 43
0.0000000001
 40
0.0
 40
0.0
 40
0.0
 40
0.0
 40
0.0911352730869933
 40
0.3637881098314433
 40
0.6346064083141201
 40
0.9198434346480389
 40
1.0
 40
1.0
 40
1.0
 40
1.0
 10
884.2084647888944
 20
23.57965609426285
 30
0.0
 10
884.2870461033724
 20
23.52626553559003
 30
0.0
 10
884.6007221027278
 20
23.31314442710453
 30
0.0
 10
885.2685901928884
 20
23.16841957315868
 30
0.0
 10
886.1477775817638
 20
23.22716458428636
 30
0.0
 10
886.8187965489118
 20
23.46797078253754
 30
0.0
 10
887.1898665628545
 20
23.67303348270699
 30
0.0
 10
887.2712683676468
 20
23.7180181844133
 30
0.0
  0
LINE
  5
113
330
1F
100
AcDbEntity
  8
0
370
    15
100
AcDbLine
 10
898.4023781584999
 20
49.9157343316
 30
0.0
 11
536.4236165452999
 21
258.8816254469
 31
0.0
  0
LINE
  5
114
330
1F
100
AcDbEntity
  8
0
370
    15
100
AcDbLine
 10
516.5343718775
 20
237.2428522249
 30
0.0
 11
878.1221068841
 21
28.5026959648
 31
0.0
  0
LINE
  5
115
330
1F
100
AcDbEntity
  8
0
370
    15
100
AcDbLine
 10
898.4023781584999
 20
51.4337828055
 30
0.0
 11
536.4670791656999
 21
260.374583484
 31
0.0
  0
LINE
  5
116
330
1F
100
AcDbEntity
  8
0
370
    15
100
AcDbLine
 10
898.4023952805999
 20
57.1751337671
 30
0.0
 11
536.4251871738999
 21
266.1401280622
 31
0.0
  0
LINE
  5
117
330
1F
100
AcDbEntity
  8
0
370
    15
100
AcDbLine
 10
898.4023742072
 20
58.4422092979
 30
0.0
 11
536.4251878324999
 21
267.4071910474
 31
0.0
  0
LINE
  5
118
330
1F
100
AcDbEntity
  8
0
370
    15
100
AcDbLine
 10
897.9325962141
 20
59.31128798859999
 30
0.0
 11
536.4251878324999
 21
268.0050726752
 31
0.0
  0
LWPOLYLINE
  5
119
330
1F
100
AcDbEntity
  8
0
370
    15
100
AcDbPolyline
 90
       17
 70
   128
 43
0.0
 10
491.2307714993
 20
269.5690915185
 10
491.0882163695999
 20
269.3611502336
 10
490.9981508592999
 20
269.130078537
 10
490.9742868526999
 20
268.9110547258
 10
491.0202575399
 20
268.7374236162
 10
491.1290642391
 20
268.6356187945
 10
491.2841419218
 20
268.6211390982
 10
491.4618817675
 20
268.6961888529999
 10
491.6352241821
 20
268.8493425518
 10
491.7777794763999
 20
269.0572839317
 10
491.8678448220999
 20
269.2883555332
 10
491.8917088287
 20
269.5073791543
 10
491.8457381415
 20
269.6810102639
 10
491.7369316069
 20
269.7828151807
 10
491.5818537596
 20
269.7972949721
 10
491.4041139138999
 20
269.7222452173
 10
491.2307714993
 20
269.5690915185
  0
LWPOLYLINE
  5
11A
330
1F
100
AcDbEntity
  8
0
370
    15
100
AcDbPolyline
 90
        6
 70
   128
 43
0.0
 10
496.7405310466
 20
265.7150870859
 10
496.9927443735
 20
266.0829833516
 10
497.1520909064
 20
266.4918024705
 10
497.1943116765
 20
266.8793057782
 10
497.1129789603
 20
267.186499448
 10
496.9576994336
 20
267.3477443187
  0
LWPOLYLINE
  5
11B
330
1F
100
AcDbEntity
  8
0
370
    15
100
AcDbPolyline
 90
        5
 70
   128
 43
0.0
 10
495.8077928069999
 20
265.3558318419
 10
495.8450173645999
 20
265.3369605042
 10
496.1193857750999
 20
265.3113425215
 10
496.4338483509999
 20
265.4441229154
 10
496.7405310466
 20
265.7150870859
  0
LWPOLYLINE
  5
11C
330
1F
100
AcDbEntity
  8
0
370
    15
100
AcDbPolyline
 90
       17
 70
   128
 43
0.0
 10
496.9051044472
 20
278.1082139974
 10
496.7433960444999
 20
277.9253293855
 10
496.6236673845999
 20
277.7020352548
 10
496.5641461563
 20
277.4723243922
 10
496.5738937674999
 20
277.2711687804
 10
496.6514263526999
 20
277.1291919239
 10
496.7849401600999
 20
277.068009567
 10
496.9541090489999
 20
277.0969357703
 10
497.1331784959999
 20
277.2115667333
 10
497.2948867341
 20
277.3944504897
 10
497.414615394
 20
277.6177453809
 10
497.4741369515
 20
277.8474564335
 10
497.4643891757
 20
278.0486119503
 10
497.3868567551999
 20
278.1905881414
 10
497.2533427831
 20
278.2517704033001
 10
497.0841738942
 20
278.2228442
 10
496.9051044472
 20
278.1082139974
  0
LWPOLYLINE
  5
11D
330
1F
100
AcDbEntity
  8
0
370
    15
100
AcDbPolyline
 90
        7
 70
   128
 43
0.0
 10
502.1706475382
 20
274.0092734096
 10
502.4567469314
 20
274.332837973
 10
502.6685746871
 20
274.7278977703
 10
502.7738815515
 20
275.1343091062
 10
502.756635588
 20
275.4901997529
 10
502.6194627426
 20
275.7413885742
 10
502.5438430646
 20
275.7984172687
  0
ARC
  5
11E
330
1F
100
AcDbEntity
  8
0
370
    15
100
AcDbCircle
 10
501.6429015753
 20
274.4418287354
 30
0.0
 40
0.6823634744213615
100
AcDbArc
 50
248.601213236
 51
320.6609970245001
  0
LWPOLYLINE
  5
11F
330
1F
100
AcDbEntity
  8
0
370
    15
100
AcDbPolyline
 90
        5
 70
   128
 43
0.0
 10
495.8077928069999
 20
270.581692906
 10
496.0715583216999
 20
270.5304616268
 10
496.382746285
 20
270.6386276651
 10
496.693933919
 20
270.8897514114
 10
496.9213120507999
 20
271.1850070749
  0
LINE
  5
120
330
1F
100
AcDbEntity
  8
0
370
    15
100
AcDbLine
 10
482.5588088176
 20
262.6174114614
 30
0.0
 11
481.1445950233999
 21
261.8010032157
 31
0.0
  0
LINE
  5
121
330
1F
100
AcDbEntity
  8
0
370
    15
100
AcDbLine
 10
481.1445950233999
 20
261.8010032157
 30
0.0
 11
481.1445950233999
 21
258.534839813
 31
0.0
  0
LINE
  5
122
330
1F
100
AcDbEntity
  8
0
370
    15
100
AcDbLine
 10
481.1445950233999
 20
258.534839813
 30
0.0
 11
482.5588088176
 21
259.3512480587
 31
0.0
  0
LINE
  5
123
330
1F
100
AcDbEntity
  8
0
370
    15
100
AcDbLine
 10
482.5588088176
 20
259.3512480587
 30
0.0
 11
482.5588088176
 21
262.6174114614
 31
0.0
  0
LINE
  5
124
330
1F
100
AcDbEntity
  8
0
370
    15
100
AcDbLine
 10
515.7928277124999
 20
278.5368387899
 30
0.0
 11
517.2070415067
 21
279.3532470356
 31
0.0
  0
LINE
  5
125
330
1F
100
AcDbEntity
  8
0
370
    15
100
AcDbLine
 10
517.2070415067
 20
279.3532470356
 30
0.0
 11
517.2070415067
 21
282.6194104382
 31
0.0
  0
LINE
  5
126
330
1F
100
AcDbEntity
  8
0
370
    15
100
AcDbLine
 10
517.2070415067
 20
282.6194104382
 30
0.0
 11
515.7928277124999
 21
281.8030021926
 31
0.0
  0
LINE
  5
127
330
1F
100
AcDbEntity
  8
0
370
    15
100
AcDbLine
 10
515.7928277124999
 20
281.8030021926
 30
0.0
 11
515.7928277124999
 21
278.5368387899
 31
0.0
  0
LWPOLYLINE
  5
128
330
1F
100
AcDbEntity
  8
0
370
    15
100
AcDbPolyline
 90
       17
 70
   128
 43
0.0
 10
488.6399266837999
 20
265.262432694
 10
488.0716706034999
 20
264.8038588304
 10
487.5899268566
 20
264.1540462877
 10
487.2680355694999
 20
263.4119221249
 10
487.1550029902
 20
262.6904686583
 10
487.2680355694999
 20
262.0995202102
 10
487.5899268566
 20
261.7290436267
 10
488.0716706034999
 20
261.6354403847
 10
488.6399266837999
 20
261.8329612162
 10
489.2081827641
 20
262.2915348897
 10
489.6899271695
 20
262.9413480027
 10
490.0118177980999
 20
263.6834719754
 10
490.124851036
 20
264.4049254419
 10
490.0118177980999
 20
264.9958738901
 10
489.6899271695
 20
265.3663506637
 10
489.2081827641
 20
265.4599533353
 10
488.6399266837999
 20
265.262432694
  0
LWPOLYLINE
  5
129
330
1F
100
AcDbEntity
  8
0
370
    15
100
AcDbPolyline
 90
       17
 70
   128
 43
0.0
 10
509.7117091878
 20
277.4269138053
 10
509.1434531075
 20
276.9683399417
 10
508.6617087020999
 20
276.3185270188
 10
508.3398180735
 20
275.5764032362
 10
508.2267848355999
 20
274.8549493894
 10
508.3398180735
 20
274.2640013215
 10
508.6617087020999
 20
273.8935243578
 10
509.1434531075
 20
273.799921496
 10
509.7117091878
 20
273.9974423275
 10
510.2799646094999
 20
274.4560156208
 10
510.7617083564
 20
275.1058283536
 10
511.0835996435
 20
275.8479527066
 10
511.19663354
 20
276.5694065532
 10
511.0835996435
 20
277.1603546212
 10
510.7617083564
 20
277.5308310146
 10
510.2799646094999
 20
277.6244340665
 10
509.7117091878
 20
277.4269138053
  0
LWPOLYLINE
  5
12A
330
1F
100
AcDbEntity
  8
0
370
    15
100
AcDbPolyline
 90
       13
 70
   128
 43
0.0
 10
500.9123632541
 20
274.0845111435
 10
500.9889674562
 20
273.7680493006
 10
501.2188897101
 20
273.5034235226
 10
501.5629927156999
 20
273.4365642269
 10
501.9688895866
 20
273.577649992
 10
502.3747867868
 20
273.905202969
 10
502.7188897923999
 20
274.3693551382
 10
502.9488120462999
 20
274.8994435
 10
503.0295499322
 20
275.4147675948
 10
502.9488120462999
 20
275.8368737106
 10
502.7188897923999
 20
276.1014994887
 10
502.3747867868
 20
276.1683587843
 10
502.0622698807
 20
276.0764241906
  0
LWPOLYLINE
  5
12B
330
1F
100
AcDbEntity
  8
0
370
    15
100
AcDbPolyline
 90
       13
 70
   128
 43
0.0
 10
495.3262196232
 20
265.6338381935
 10
495.4028238253
 20
265.3173761604
 10
495.6327460792
 20
265.0527500022
 10
495.9768490846999
 20
264.9858908016
 10
496.382746285
 20
265.1269770419
 10
496.7886431559
 20
265.4545295437
 10
497.1327461615
 20
265.9186816179
 10
497.3626684154
 20
266.4487703599
 10
497.4434063012999
 20
266.9640942646
 10
497.3626684154
 20
267.3862001903
 10
497.1327461615
 20
267.6508263485
 10
496.7886431559
 20
267.7176856442
 10
496.4761262498
 20
267.6257506702
  0
LWPOLYLINE
  5
12C
330
1F
100
AcDbEntity
  8
0
370
    15
100
AcDbPolyline
 90
       10
 70
   128
 43
0.0
 10
501.3939364378999
 20
268.580643918
 10
501.6577019526
 20
268.5294122586
 10
501.9688895866
 20
268.6375782019
 10
502.2800775499
 20
268.8887020432
 10
502.5438898212
 20
269.2445518685
 10
502.7201634174999
 20
269.6509531233
 10
502.78206265
 20
270.0460349737
 10
502.7201634174999
 20
270.3696494914
 10
502.5438898212
 20
270.572529394
 10
502.5438430646
 20
270.5725563948
  0
ARC
  5
12D
330
1F
100
AcDbEntity
  8
0
370
    15
100
AcDbCircle
 10
514.7917565542
 20
273.2349702297
 30
0.0
 40
2.378540502415373
100
AcDbArc
 50
90.1140771382
 51
164.2044541953
  0
LINE
  5
12E
330
1F
100
AcDbEntity
  8
0
370
    15
100
AcDbLine
 10
511.3168640108
 20
270.6215514991
 30
0.0
 11
512.5030317443999
 21
273.8824219009
 31
0.0
  0
ARC
  5
12F
330
1F
100
AcDbEntity
  8
0
370
    15
100
AcDbCircle
 10
511.6875182898
 20
268.1433054461
 30
0.0
 40
2.505810865592673
100
AcDbArc
 50
98.5062849956
 51
157.4267779405
  0
LINE
  5
130
330
1F
100
AcDbEntity
  8
0
370
    15
100
AcDbLine
 10
508.4920880517
 20
267.4563403419
 30
0.0
 11
509.3736782917999
 21
269.1051955425
 31
0.0
  0
LWPOLYLINE
  5
131
330
1F
100
AcDbEntity
  8
0
370
    15
100
AcDbPolyline
 90
        9
 70
   128
 43
0.0
 10
506.1597644316999
 20
266.6798554742
 10
506.4511367907
 20
267.0355996707
 10
506.7694541568
 20
267.3345282971
 10
507.1014047112999
 20
267.564140022
 10
507.4331043604
 20
267.7148309315
 10
507.7506808638999
 20
267.7802990407
 10
508.0408520377999
 20
267.7578064084
 10
508.2914815651
 20
267.6482933452
 10
508.4920880517
 20
267.4563403419
  0
LINE
  5
132
330
1F
100
AcDbEntity
  8
0
370
    15
100
AcDbLine
 10
505.7995037073999
 20
266.1805839831
 30
0.0
 11
506.1597644316999
 21
266.6798554742
 31
0.0
  0
LINE
  5
133
330
1F
100
AcDbEntity
  8
0
370
    15
100
AcDbLine
 10
491.270831091
 20
257.7933598087
 30
0.0
 11
505.7995037073999
 21
266.1805839831
 31
0.0
  0
SPLINE
  5
134
330
1F
100
AcDbEntity
  8
0
370
    15
100
AcDbSpline
210
0.0
220
0.0
230
1.0
 70
     8
 71
     3
 72
    12
 73
     8
 74
     0
 42
0.000000001
 43
0.0000000001
 40
0.0
 40
0.0
 40
0.0
 40
0.0
 40
0.0807664483416753
 40
0.2363327388367874
 40
0.4846198189638537
 40
0.7604275687002832
 40
1.0
 40
1.0
 40
1.0
 40
1.0
 10
484.5042612467562
 20
260.0723580991854
 30
0.0
 10
484.5730970214555
 20
259.8359267403267
 30
0.0
 10
484.7745191156378
 20
259.1440989859403
 30
0.0
 10
485.4447063526412
 20
257.9735002128168
 30
0.0
 10
486.8428300154207
 20
256.9396334725351
 30
0.0
 10
488.9420509175251
 20
256.7442327123777
 30
0.0
 10
490.5318290410418
 20
257.4604356952168
 30
0.0
 10
491.2708310909699
 20
257.7933598087477
 30
0.0
  0
LINE
  5
135
330
1F
100
AcDbEntity
  8
0
370
    15
100
AcDbLine
 10
480.7964923477999
 20
257.9319086746
 30
0.0
 11
484.5042612468
 21
260.0723580992
 31
0.0
  0
LINE
  5
136
330
1F
100
AcDbEntity
  8
0
370
    15
100
AcDbLine
 10
480.7964923477999
 20
262.0020231796
 30
0.0
 11
480.7964923477999
 21
257.9319086746
 31
0.0
  0
LINE
  5
137
330
1F
100
AcDbEntity
  8
0
370
    15
100
AcDbLine
 10
483.0274238211
 20
263.2899125056
 30
0.0
 11
480.7964923477999
 21
262.0020231796
 31
0.0
  0
SPLINE
  5
138
330
1F
100
AcDbEntity
  8
0
370
    15
100
AcDbSpline
210
0.0
220
0.0
230
1.0
 70
     8
 71
     3
 72
    10
 73
     6
 74
     0
 42
0.000000001
 43
0.0000000001
 40
0.0
 40
0.0
 40
0.0
 40
0.0
 40
0.2512572454408472
 40
0.5837655413669602
 40
1.0
 40
1.0
 40
1.0
 40
1.0
 10
483.564614381363
 20
265.5407432831771
 30
0.0
 10
483.5076249450713
 20
265.350111295539
 30
0.0
 10
483.375216945968
 20
264.9072011407686
 30
0.0
 10
483.1859933119038
 20
264.1527588647841
 30
0.0
 10
483.0840790804801
 20
263.5981986962289
 30
0.0
 10
483.0274238211333
 20
263.2899125056347
 30
0.0
  0
ARC
  5
139
330
1F
100
AcDbEntity
  8
0
370
    15
100
AcDbCircle
 10
483.5598769417
 20
267.9192829715
 30
0.0
 40
2.378544406186752
100
AcDbArc
 50
270.1141183147
 51
344.2043902917
  0
LINE
  5
13A
330
1F
100
AcDbEntity
  8
0
370
    15
100
AcDbLine
 10
487.0347725193
 20
270.5326983719
 30
0.0
 11
485.8486047857
 21
267.2718276849
 31
0.0
  0
ARC
  5
13B
330
1F
100
AcDbEntity
  8
0
370
    15
100
AcDbCircle
 10
486.664119135
 20
273.0109422735
 30
0.0
 40
2.505808605444281
100
AcDbArc
 50
278.5062720397
 51
337.4268097339
  0
LINE
  5
13C
330
1F
100
AcDbEntity
  8
0
370
    15
100
AcDbLine
 10
489.8595478198
 20
273.6979087687
 30
0.0
 11
488.9779575797
 21
272.0490543286
 31
0.0
  0
SPLINE
  5
13D
330
1F
100
AcDbEntity
  8
0
370
    15
100
AcDbSpline
210
0.0
220
0.0
230
1.0
 70
     8
 71
     3
 72
    12
 73
     8
 74
     0
 42
0.000000001
 43
0.0000000001
 40
0.0
 40
0.0
 40
0.0
 40
0.0
 40
0.0807664380824991
 40
0.2363327776240717
 40
0.4846198684815893
 40
0.760427548641852
 40
1.0
 40
1.0
 40
1.0
 40
1.0
 10
513.8473739662644
 20
281.0818910115079
 30
0.0
 10
513.778538180346
 20
281.3183222952371
 30
0.0
 10
513.5771159946926
 20
282.0101500312063
 30
0.0
 10
512.9069290528279
 20
283.1807491689266
 30
0.0
 10
511.5088053485731
 20
284.2146156342258
 30
0.0
 10
509.4095846649665
 20
284.4100160654596
 30
0.0
 10
507.8198068295008
 20
283.6938132208878
 30
0.0
 10
507.080804780595
 20
283.3608891117681
 30
0.0
  0
LINE
  5
13E
330
1F
100
AcDbEntity
  8
0
370
    15
100
AcDbLine
 10
517.5551428651999
 20
283.2223404361
 30
0.0
 11
513.8473739662999
 21
281.0818910115001
 31
0.0
  0
LINE
  5
13F
330
1F
100
AcDbEntity
  8
0
370
    15
100
AcDbLine
 10
517.5551428651999
 20
279.1522259311
 30
0.0
 11
517.5551428651999
 21
283.2223404361
 31
0.0
  0
LINE
  5
140
330
1F
100
AcDbEntity
  8
0
370
    15
100
AcDbLine
 10
515.324212709
 20
277.8643373654
 30
0.0
 11
517.5551428651999
 21
279.1522259311
 31
0.0
  0
SPLINE
  5
141
330
1F
100
AcDbEntity
  8
0
370
    15
100
AcDbSpline
210
0.0
220
0.0
230
1.0
 70
     8
 71
     3
 72
    10
 73
     6
 74
     0
 42
0.000000001
 43
0.0000000001
 40
0.0
 40
0.0
 40
0.0
 40
0.0
 40
0.2512572207108061
 40
0.5837653073671591
 40
1.0
 40
1.0
 40
1.0
 40
1.0
 10
514.7870208316574
 20
275.6135060176321
 30
0.0
 10
514.8440102738619
 20
275.8041380075335
 30
0.0
 10
514.9764182466598
 20
276.2470480336178
 30
0.0
 10
515.1656417702242
 20
277.0014903313688
 30
0.0
 10
515.2675569130122
 20
277.5560508288303
 30
0.0
 10
515.3242127089762
 20
277.8643373653981
 30
0.0
  0
ARC
  5
142
330
1F
100
AcDbEntity
  8
0
370
    15
100
AcDbCircle
 10
517.4591882515
 20
279.207625698
 30
0.0
 40
1.516708103469985
100
AcDbArc
 50
302.2122375297
 51
357.7877623247
  0
ARC
  5
143
330
1F
100
AcDbEntity
  8
0
370
    15
100
AcDbCircle
 10
519.0885806260999
 20
279.221421494
 30
0.0
 40
1.534998173355428
100
AcDbArc
 50
182.583688857
 51
237.6703807169
  0
ARC
  5
144
330
1F
100
AcDbEntity
  8
0
370
    15
100
AcDbCircle
 10
518.2619367303
 20
277.7893877941
 30
0.0
 40
1.535215084400418
100
AcDbArc
 50
62.3338556439
 51
117.4121162716
  0
LINE
  5
145
330
1F
100
AcDbEntity
  8
0
370
    15
100
AcDbLine
 10
518.974765944
 20
283.2191933918
 30
0.0
 11
518.974765944
 21
279.1490788868
 31
0.0
  0
ARC
  5
146
330
1F
100
AcDbEntity
  8
0
370
    15
100
AcDbCircle
 10
518.2619367303
 20
281.8595022991
 30
0.0
 40
1.535215084399706
100
AcDbArc
 50
62.3338556439
 51
117.4121162716
  0
SPLINE
  5
147
330
1F
100
AcDbEntity
  8
0
370
    15
100
AcDbSpline
210
0.0
220
0.0
230
1.0
 70
     8
 71
     3
 72
    11
 73
     7
 74
     0
 42
0.000000001
 43
0.0000000001
 40
0.0
 40
0.0
 40
0.0
 40
0.0
 40
0.3006794390990472
 40
0.7378742474802042
 40
0.9900468068679307
 40
1.0
 40
1.0
 40
1.0
 40
1.0
 10
515.5102462641252
 20
277.3214622434269
 30
0.0
 10
515.4898976086594
 20
277.3831699986351
 30
0.0
 10
515.4399615409188
 20
277.5346022467942
 30
0.0
 10
515.3674590274495
 20
277.7126910548345
 30
0.0
 10
515.3341840993049
 20
277.8234450281439
 30
0.0
 10
515.3245774824191
 20
277.862841441745
 30
0.0
 10
515.3242127089762
 20
277.8643373653981
 30
0.0
  0
LINE
  5
148
330
1F
100
AcDbEntity
  8
0
370
    15
100
AcDbLine
 10
518.2676801203
 20
277.9243703184
 30
0.0
 11
516.0082705483
 21
276.6200409359
 31
0.0
  0
SPLINE
  5
149
330
1F
100
AcDbEntity
  8
0
370
    15
100
AcDbSpline
210
0.0
220
0.0
230
1.0
 70
     8
 71
     3
 72
    10
 73
     6
 74
     0
 42
0.000000001
 43
0.0000000001
 40
0.0
 40
0.0
 40
0.0
 40
0.0
 40
0.3460804487034533
 40
0.6919288298817527
 40
1.0
 40
1.0
 40
1.0
 40
1.0
 10
516.0082705482871
 20
276.6200409359249
 30
0.0
 10
515.9326945103194
 20
276.673319175468
 30
0.0
 10
515.7815931126129
 20
276.7798399283256
 30
0.0
 10
515.6092830250312
 20
277.0357593057942
 30
0.0
 10
515.5419621322078
 20
277.2299677660444
 30
0.0
 10
515.5102462641252
 20
277.3214622434269
 30
0.0
  0
LINE
  5
14A
330
1F
100
AcDbEntity
  8
0
370
    15
100
AcDbLine
 10
522.5866981778
 20
275.4310603482
 30
0.0
 11
518.2676801203
 21
277.9243703184
 31
0.0
  0
LINE
  5
14B
330
1F
100
AcDbEntity
  8
0
370
    15
100
AcDbLine
 10
518.974765944
 20
279.1490788868
 30
0.0
 11
523.0063082503
 21
276.8217247177
 31
0.0
  0
ELLIPSE
  5
14C
330
1F
100
AcDbEntity
  8
0
370
    15
100
AcDbEllipse
 10
522.2937923524
 20
276.4166679965
 30
0.0
 11
-0.0000898620291991
 21
1.065617178204718
 31
0.0
210
0.0
220
0.0
230
0.9999999999999998
 40
0.7229199662000001
 41
3.531511487386044
 42
5.102248839678087
  0
LINE
  5
14D
330
1F
100
AcDbEntity
  8
0
370
    15
100
AcDbLine
 10
536.4251884909999
 20
261.3727387857
 30
0.0
 11
532.8224465338999
 21
263.4860458524
 31
0.0
  0
ARC
  5
14E
330
1F
100
AcDbEntity
  8
0
370
    15
100
AcDbCircle
 10
509.9373082786
 20
260.7991434424
 30
0.0
 40
26.49409009125867
100
AcDbArc
 50
326.5520666245
 51
1.240546858899999
  0
LINE
  5
14F
330
1F
100
AcDbEntity
  8
0
370
    15
100
AcDbLine
 10
526.4033378194999
 20
249.4211840042
 30
0.0
 11
532.0436337298999
 21
246.1961579667
 31
0.0
  0
ARC
  5
150
330
1F
100
AcDbEntity
  8
0
370
    15
100
AcDbCircle
 10
500.5981160064
 20
265.6768849175
 30
0.0
 40
30.49848004417833
100
AcDbArc
 50
327.7915977273
 51
347.2080552014
  0
LINE
  5
151
330
1F
100
AcDbEntity
  8
0
370
    15
100
AcDbLine
 10
523.0063082503
 20
280.8197809911
 30
0.0
 11
518.974765944
 21
283.2191933918
 31
0.0
  0
LINE
  5
152
330
1F
100
AcDbEntity
  8
0
370
    15
100
AcDbLine
 10
524.4501288885
 20
278.293158936
 30
0.0
 11
523.0063082503
 21
280.8197809911
 31
0.0
  0
ARC
  5
153
330
1F
100
AcDbEntity
  8
0
370
    15
100
AcDbCircle
 10
523.6792891189
 20
277.97435312
 30
0.0
 40
0.8341649110218927
100
AcDbArc
 50
337.5308704536
 51
22.4691295464
  0
LINE
  5
154
330
1F
100
AcDbEntity
  8
0
370
    15
100
AcDbLine
 10
523.0063082503
 20
276.8217247177
 30
0.0
 11
524.4501288885
 21
277.6555473039
 31
0.0
  0
LINE
  5
155
330
1F
100
AcDbEntity
  8
0
370
    15
100
AcDbLine
 10
522.586656031
 20
275.431037538
 30
0.0
 11
520.3883080227999
 21
274.1813006834
 31
0.0
  0
LINE
  5
156
330
1F
100
AcDbEntity
  8
0
370
    15
100
AcDbLine
 10
520.3883080227999
 20
274.1813006834
 30
0.0
 11
516.0082705483
 21
276.6200409359
 31
0.0
  0
LINE
  5
157
330
1F
100
AcDbEntity
  8
0
370
    15
100
AcDbLine
 10
522.5866981778
 20
275.4310603482
 30
0.0
 11
522.586656031
 21
275.431037538
 31
0.0
  0
LINE
  5
158
330
1F
100
AcDbEntity
  8
0
370
    15
100
AcDbLine
 10
520.0641184152999
 20
272.5669062
 30
0.0
 11
519.9373867931
 21
272.1806571734
 31
0.0
  0
LINE
  5
159
330
1F
100
AcDbEntity
  8
0
370
    15
100
AcDbLine
 10
519.9373867931
 20
272.1806571734
 30
0.0
 11
519.9569297598999
 21
272.1671984428
 31
0.0
  0
SPLINE
  5
15A
330
1F
100
AcDbEntity
  8
0
370
    15
100
AcDbSpline
210
0.0
220
0.0
230
1.0
 70
     8
 71
     3
 72
    13
 73
     9
 74
     0
 42
0.000000001
 43
0.0000000001
 40
0.0
 40
0.0
 40
0.0
 40
0.0
 40
0.150263831244925
 40
0.3367203443746107
 40
0.5231598738568917
 40
0.7936262073116744
 40
0.8847253606127758
 40
1.0
 40
1.0
 40
1.0
 40
1.0
 10
519.9569297599318
 20
272.1671984427841
 30
0.0
 10
519.7674682550048
 20
271.6542379762085
 30
0.0
 10
519.3429113762388
 20
270.5047649225475
 30
0.0
 10
518.4596308015569
 20
268.7533603874558
 30
0.0
 10
517.1878061939544
 20
266.7070420893549
 30
0.0
 10
515.9103858426286
 20
265.1412349225049
 30
0.0
 10
514.7287959856974
 20
263.9503929928991
 30
0.0
 10
514.1986076449357
 20
263.4949122201095
 30
0.0
 10
513.9024592387236
 20
263.2404933758019
 30
0.0
  0
ARC
  5
15B
330
1F
100
AcDbEntity
  8
0
370
    15
100
AcDbCircle
 10
514.1024983452999
 20
263.567335606
 30
0.0
 40
0.3831990183013688
100
AcDbArc
 50
195.5384114443
 51
238.5318805036
  0
SPLINE
  5
15C
330
1F
100
AcDbEntity
  8
0
370
    15
100
AcDbSpline
210
0.0
220
0.0
230
1.0
 70
     8
 71
     3
 72
    13
 73
     9
 74
     0
 42
0.000000001
 43
0.0000000001
 40
0.0
 40
0.0
 40
0.0
 40
0.0
 40
0.2017032140164234
 40
0.4662873646847289
 40
0.648703652005136
 40
0.8311368821422966
 40
0.9992680656433192
 40
1.0
 40
1.0
 40
1.0
 40
1.0
 10
513.7333048378586
 20
263.4646825900251
 30
0.0
 10
514.2518623137048
 20
263.9257260478756
 30
0.0
 10
515.4506374548396
 20
264.991543169405
 30
0.0
 10
516.9632591596736
 20
266.879003347863
 30
0.0
 10
518.2193477065728
 20
268.8876523833414
 30
0.0
 10
519.112355876961
 20
270.6823348280129
 30
0.0
 10
519.5752667196036
 20
271.8911588075394
 30
0.0
 10
519.7640181383564
 20
272.4700182852313
 30
0.0
 10
519.7648362782204
 20
272.4725273419441
 30
0.0
  0
SPLINE
  5
15D
330
1F
100
AcDbEntity
  8
0
370
    15
100
AcDbSpline
210
0.0
220
0.0
230
1.0
 70
     8
 71
     3
 72
    12
 73
     8
 74
     0
 42
0.000000001
 43
0.0000000001
 40
0.0
 40
0.0
 40
0.0
 40
0.0
 40
0.1593007915835097
 40
0.4638784557124946
 40
0.6855317599025448
 40
0.842383501160498
 40
1.0
 40
1.0
 40
1.0
 40
1.0
 10
520.0641184153181
 20
272.5669061999696
 30
0.0
 10
520.0498225437788
 20
272.5604165004749
 30
0.0
 10
520.0081934548909
 20
272.5415187175463
 30
0.0
 10
519.9365294678948
 20
272.5140204317896
 30
0.0
 10
519.861557512
 20
272.4907788443588
 30
0.0
 10
519.8039851254438
 20
272.476917735208
 30
0.0
 10
519.7779070337945
 20
272.4739931771167
 30
0.0
 10
519.7648362782204
 20
272.4725273419441
 30
0.0
  0
ARC
  5
15E
330
1F
100
AcDbEntity
  8
0
370
    15
100
AcDbCircle
 10
514.7854028937
 20
275.062094707
 30
0.0
 40
0.5514136842560911
100
AcDbArc
 50
60.4956090546
 51
89.83188456509999
  0
SPLINE
  5
15F
330
1F
100
AcDbEntity
  8
0
370
    15
100
AcDbSpline
210
0.0
220
0.0
230
1.0
 70
     8
 71
     3
 72
    10
 73
     6
 74
     0
 42
0.000000001
 43
0.0000000001
 40
0.0
 40
0.0
 40
0.0
 40
0.0
 40
0.215274040042935
 40
0.6756711902140305
 40
1.0
 40
1.0
 40
1.0
 40
1.0
 10
515.5102462641252
 20
277.3214622434269
 30
0.0
 10
515.4841466005511
 20
277.1950939022334
 30
0.0
 10
515.4022287309008
 20
276.7984671306889
 30
0.0
 10
515.2552099178956
 20
276.2047050132948
 30
0.0
 10
515.1149418396575
 20
275.7357995174112
 30
0.0
 10
515.0569687621919
 20
275.5419999375039
 30
0.0
  0
SPLINE
  5
160
330
1F
100
AcDbEntity
  8
0
370
    15
100
AcDbSpline
210
0.0
220
0.0
230
1.0
 70
     8
 71
     3
 72
     9
 73
     5
 74
     0
 42
0.000000001
 43
0.0000000001
 40
0.0
 40
0.0
 40
0.0
 40
0.0
 40
0.5136805784963735
 40
1.0
 40
1.0
 40
1.0
 40
1.0
 10
520.0731286212763
 20
272.5918160275569
 30
0.0
 10
520.1591398323094
 20
272.8777625247229
 30
0.0
 10
520.3265808737532
 20
273.4344246006046
 30
0.0
 10
520.4494127694004
 20
273.9837062689825
 30
0.0
 10
520.5091483058337
 20
274.2508326121905
 30
0.0
  0
LWPOLYLINE
  5
161
330
1F
100
AcDbEntity
  8
0
370
    15
100
AcDbPolyline
 90
        3
 70
   128
 43
0.0
 10
515.0569687622
 20
275.5419999375
 10
518.2589148929
 20
273.6591199456
 10
520.0731286212999
 20
272.5918160276
  0
SPLINE
  5
162
330
1F
100
AcDbEntity
  8
0
370
    15
100
AcDbSpline
210
0.0
220
0.0
230
1.0
 70
     8
 71
     3
 72
    13
 73
     9
 74
     0
 42
0.000000001
 43
0.0000000001
 40
0.0
 40
0.0
 40
0.0
 40
0.0
 40
0.0267895646940695
 40
0.1382824337554422
 40
0.3540803888897871
 40
0.5695066332347327
 40
0.7847495362193924
 40
1.0
 40
1.0
 40
1.0
 40
1.0
 10
512.5030317443804
 20
273.8824219009101
 30
0.0
 10
512.504739047741
 20
273.8821967341943
 30
0.0
 10
512.5135518099697
 20
273.8810344681476
 30
0.0
 10
512.5390996924303
 20
273.8762901859656
 30
0.0
 10
512.5865099803771
 20
273.8634723119564
 30
0.0
 10
512.6492476450662
 20
273.8411106357375
 30
0.0
 10
512.7123983642795
 20
273.8141035396665
 30
0.0
 10
512.7470107057644
 20
273.7954101114447
 30
0.0
 10
512.7643171804568
 20
273.7860632331765
 30
0.0
  0
LINE
  5
163
330
1F
100
AcDbEntity
  8
0
370
    15
100
AcDbLine
 10
512.7643171805
 20
273.7860632332
 30
0.0
 11
511.5820638354
 21
270.5359535368
 31
0.0
  0
ARC
  5
164
330
1F
100
AcDbEntity
  8
0
370
    15
100
AcDbCircle
 10
511.2452018615
 20
269.9459072791
 30
0.0
 40
0.6794340112863325
100
AcDbArc
 50
60.2776197262
 51
83.9455637614
  0
SPLINE
  5
165
330
1F
100
AcDbEntity
  8
0
370
    15
100
AcDbSpline
210
0.0
220
0.0
230
1.0
 70
     8
 71
     3
 72
     9
 73
     5
 74
     0
 42
0.000000001
 43
0.0000000001
 40
0.0
 40
0.0
 40
0.0
 40
0.0
 40
0.4906981719694084
 40
1.0
 40
1.0
 40
1.0
 40
1.0
 10
532.2759155488033
 20
262.1356438072487
 30
0.0
 10
530.2916368146604
 20
263.7916635036299
 30
0.0
 10
526.2478501297032
 20
267.166486951076
 30
0.0
 10
522.0797505137503
 20
270.4797483536897
 30
0.0
 10
519.9569297599318
 20
272.1671984427841
 30
0.0
  0
SPLINE
  5
166
330
1F
100
AcDbEntity
  8
0
370
    15
100
AcDbSpline
210
0.0
220
0.0
230
1.0
 70
     8
 71
     3
 72
     9
 73
     5
 74
     0
 42
0.000000001
 43
0.0000000001
 40
0.0
 40
0.0
 40
0.0
 40
0.0
 40
0.0962090735755986
 40
1.0
 40
1.0
 40
1.0
 40
1.0
 10
532.2770740932289
 20
262.1356103222612
 30
0.0
 10
532.2237915283432
 20
262.0280615745378
 30
0.0
 10
531.6699709487921
 20
260.9101966609046
 30
0.0
 10
530.9712083372618
 20
259.8670851460667
 30
0.0
 10
530.3396730292361
 20
258.9243304237074
 30
0.0
  0
SPLINE
  5
167
330
1F
100
AcDbEntity
  8
0
370
    15
100
AcDbSpline
210
0.0
220
0.0
230
1.0
 70
     8
 71
     3
 72
     9
 73
     5
 74
     0
 42
0.000000001
 43
0.0000000001
 40
0.0
 40
0.0
 40
0.0
 40
0.0
 40
0.5000052559279543
 40
1.0
 40
1.0
 40
1.0
 40
1.0
 10
525.4801907867683
 20
254.3289445105584
 30
0.0
 10
526.3472162573803
 20
254.9210456055143
 30
0.0
 10
528.0812489707026
 20
256.1052353473941
 30
0.0
 10
529.5868211138542
 20
257.9845712269432
 30
0.0
 10
530.3395992722512
 20
258.9242292890638
 30
0.0
  0
LINE
  5
168
330
1F
100
AcDbEntity
  8
0
370
    15
100
AcDbLine
 10
517.2054405849999
 20
259.1787617963
 30
0.0
 11
525.4801907867999
 21
254.3289445106
 31
0.0
  0
SPLINE
  5
169
330
1F
100
AcDbEntity
  8
0
370
    15
100
AcDbSpline
210
0.0
220
0.0
230
1.0
 70
     8
 71
     3
 72
    10
 73
     6
 74
     0
 42
0.000000001
 43
0.0000000001
 40
0.0
 40
0.0
 40
0.0
 40
0.0
 40
0.5481980628638636
 40
0.9999740151917425
 40
1.0
 40
1.0
 40
1.0
 40
1.0
 10
518.8172934641764
 20
260.308621523995
 30
0.0
 10
518.5245804431434
 20
260.084005921993
 30
0.0
 10
517.9906394558071
 20
259.6742821731799
 30
0.0
 10
517.4497259204652
 20
259.3263960608962
 30
0.0
 10
517.2054546339317
 20
259.1787702867871
 30
0.0
 10
517.2054405849825
 20
259.1787617962804
 30
0.0
  0
SPLINE
  5
16A
330
1F
100
AcDbEntity
  8
0
370
    15
100
AcDbSpline
210
0.0
220
0.0
230
1.0
 70
     8
 71
     3
 72
    10
 73
     6
 74
     0
 42
0.000000001
 43
0.0000000001
 40
0.0
 40
0.0
 40
0.0
 40
0.0
 40
0.0571384014589372
 40
0.2856919338186104
 40
1.0
 40
1.0
 40
1.0
 40
1.0
 10
513.9024592387236
 20
263.2404933758019
 30
0.0
 10
513.9960687606349
 20
263.1846370969176
 30
0.0
 10
514.4641162498157
 20
262.9053557743233
 30
0.0
 10
516.1023963789073
 20
261.9278443175369
 30
0.0
 10
517.6470615150026
 20
261.0065729329507
 30
0.0
 10
518.8172934641764
 20
260.308621523995
 30
0.0
  0
ARC
  5
16B
330
1F
100
AcDbEntity
  8
0
370
    15
100
AcDbCircle
 10
514.9614268530999
 20
275.5140027375
 30
0.0
 40
0.2007943302490753
100
AcDbArc
 50
150.2940905582
 51
233.1564425504
  0
ARC
  5
16C
330
1F
100
AcDbEntity
  8
0
370
    15
100
AcDbCircle
 10
514.8430426894
 20
273.1911266083
 30
0.0
 40
2.162186238322358
100
AcDbArc
 50
90.05349020430001
 51
164.0287411851
  0
LWPOLYLINE
  5
16D
330
1F
100
AcDbEntity
  8
0
370
    15
100
AcDbPolyline
 90
        3
 70
   128
 43
0.0
 10
517.6764612516
 20
270.9646741988
 10
514.8512565801
 20
272.587392697
 10
512.7643171805
 20
273.7860632332
  0
LINE
  5
16E
330
1F
100
AcDbEntity
  8
0
370
    15
100
AcDbLine
 10
517.6764612516
 20
270.9646741988
 30
0.0
 11
516.4773807773
 21
267.6683037016
 31
0.0
  0
LWPOLYLINE
  5
16F
330
1F
100
AcDbEntity
  8
0
370
    15
100
AcDbPolyline
 90
        3
 70
   128
 43
0.0
 10
511.5820638354
 20
270.5359535368
 10
514.7781528712999
 20
268.6638664504
 10
516.4773807773
 20
267.6683037016
  0
ARC
  5
170
330
1F
100
AcDbEntity
  8
0
370
    15
100
AcDbCircle
 10
516.5538215420999
 20
265.3186813326
 30
0.0
 40
2.188783702252329
100
AcDbArc
 50
97.1205509862
 51
157.7808607347
  0
SPLINE
  5
171
330
1F
100
AcDbEntity
  8
0
370
    15
100
AcDbSpline
210
0.0
220
0.0
230
1.0
 70
     8
 71
     3
 72
    12
 73
     8
 74
     0
 42
0.000000001
 43
0.0000000001
 40
0.0
 40
0.0
 40
0.0
 40
0.0
 40
0.2107879972682379
 40
0.4215761524055756
 40
0.6323518578797455
 40
0.8431302786547664
 40
1.0
 40
1.0
 40
1.0
 40
1.0
 10
516.4773807772816
 20
267.6683037015956
 30
0.0
 10
516.4685363964463
 20
267.6478350681013
 30
0.0
 10
516.4508476281516
 20
267.6068977857828
 30
0.0
 10
516.4094213038863
 20
267.5529879079672
 30
0.0
 10
516.3627317365512
 20
267.5128933073328
 30
0.0
 10
516.3182387994704
 20
267.4915807885231
 30
0.0
 10
516.2931924778855
 20
267.4908822040076
 30
0.0
 10
516.2825056035683
 20
267.4905841289034
 30
0.0
  0
ARC
  5
172
330
1F
100
AcDbEntity
  8
0
370
    15
100
AcDbCircle
 10
519.6640006832
 20
270.4162134928
 30
0.0
 40
2.061824953334106
100
AcDbArc
 50
88.09630251580001
 51
164.5731784274
  0
LINE
  5
173
330
1F
100
AcDbEntity
  8
0
370
    15
100
AcDbLine
 10
519.7648362782
 20
272.4725273419
 30
0.0
 11
519.7324938402999
 21
272.4769004718
 31
0.0
  0
LINE
  5
174
330
1F
100
AcDbEntity
  8
0
370
    15
100
AcDbLine
 10
513.7023552216
 20
263.8553242546
 30
0.0
 11
513.7333048379
 21
263.46468259
 31
0.0
  0
ARC
  5
175
330
1F
100
AcDbEntity
  8
0
370
    15
100
AcDbCircle
 10
512.3076668498
 20
263.7688796318
 30
0.0
 40
1.3973647796046
100
AcDbArc
 50
3.546730740899999
 51
25.516237485
  0
LINE
  5
176
330
1F
100
AcDbEntity
  8
0
370
    15
100
AcDbLine
 10
513.6115893492
 20
264.4331982562
 30
0.0
 11
513.5687371995
 21
264.3708180841
 31
0.0
  0
LINE
  5
177
330
1F
100
AcDbEntity
  8
0
370
    15
100
AcDbLine
 10
514.5275674664
 20
266.1463699914
 30
0.0
 11
513.6115893492
 21
264.4331982562
 31
0.0
  0
ARC
  5
178
330
1F
100
AcDbEntity
  8
0
370
    15
100
AcDbCircle
 10
514.8307851811999
 20
275.5829431877
 30
0.0
 40
0.229859439716484
100
AcDbArc
 50
272.553046756
 51
349.7395518001
  0
LWPOLYLINE
  5
179
330
1F
100
AcDbEntity
  8
0
370
    15
100
AcDbPolyline
 90
        3
 70
   128
 43
0.0
 10
519.7324938402999
 20
272.4769004718
 10
516.919410339
 20
274.1313999276
 10
514.8410241155
 20
275.3533119043999
  0
LINE
  5
17A
330
1F
100
AcDbEntity
  8
0
370
    15
100
AcDbLine
 10
520.0731286212999
 20
272.5918160276
 30
0.0
 11
520.0641184152999
 21
272.5669062
 31
0.0
  0
ARC
  5
17B
330
1F
100
AcDbEntity
  8
0
370
    15
100
AcDbCircle
 10
511.7279344983999
 20
268.0997928545
 30
0.0
 40
2.283371919966301
100
AcDbArc
 50
98.5062646655
 51
157.426807567
  0
ARC
  5
17C
330
1F
100
AcDbEntity
  8
0
370
    15
100
AcDbCircle
 10
507.9017288309999
 20
265.999337346
 30
0.0
 40
3.43700310626385
100
AcDbArc
 50
60.0142145131
 51
64.6424725679
  0
ARC
  5
17D
330
1F
100
AcDbEntity
  8
0
370
    15
100
AcDbCircle
 10
511.5213609337
 20
270.5364996417
 30
0.0
 40
0.2214786895535801
100
AcDbArc
 50
157.4171948401
 51
233.6810885400999
  0
ARC
  5
17E
330
1F
100
AcDbEntity
  8
0
370
    15
100
AcDbCircle
 10
511.3435911103
 20
270.6007280769
 30
0.0
 40
0.2471132972350419
100
AcDbArc
 50
280.8680342007
 51
344.803818359
  0
LINE
  5
17F
330
1F
100
AcDbEntity
  8
0
370
    15
100
AcDbLine
 10
514.5275674664
 20
266.1463699914
 30
0.0
 11
509.6194918832
 21
268.9762956004
 31
0.0
  0
LWPOLYLINE
  5
180
330
1F
100
AcDbEntity
  8
0
370
    15
100
AcDbPolyline
 90
        4
 70
   128
 43
0.0
 10
516.2825056036
 20
267.4905841289
 10
515.9989850706999
 20
267.6567973148
 10
514.8648897684999
 20
268.3216131778
 10
511.3901837221
 20
270.3580469895
  0
LINE
  5
181
330
1F
100
AcDbEntity
  8
0
370
    15
100
AcDbLine
 10
517.2070415067
 20
280.9865908905
 30
0.0
 11
515.7928277124999
 21
281.8030021926
 31
0.0
  0
LINE
  5
182
330
1F
100
AcDbEntity
  8
0
370
    15
100
AcDbLine
 10
509.6194918832
 20
268.9762956004
 30
0.0
 11
508.7379016430999
 21
267.3274402097
 31
0.0
  0
ARC
  5
183
330
1F
100
AcDbEntity
  8
0
370
    15
100
AcDbCircle
 10
507.0201478054
 20
264.3505041082
 30
0.0
 40
3.436979313206531
100
AcDbArc
 50
60.01416299169999
 51
64.6424545768
  0
LWPOLYLINE
  5
184
330
1F
100
AcDbEntity
  8
0
370
    15
100
AcDbPolyline
 90
        3
 70
   128
 43
0.0
 10
508.7379016430999
 20
267.3274402097
 10
511.9957884956999
 20
265.3930602733
 10
513.6115893492
 20
264.4331982562
  0
LWPOLYLINE
  5
185
330
1F
100
AcDbEntity
  8
0
370
    15
100
AcDbPolyline
 90
        3
 70
   128
 43
0.0
 10
516.8321347525
 20
261.3973424561
 10
516.5818325216999
 20
261.1767288517
 10
516.2543897043
 20
260.7908316937
  0
LINE
  5
186
330
1F
100
AcDbEntity
  8
0
370
    15
100
AcDbLine
 10
516.2543897043
 20
260.7908316937
 30
0.0
 11
506.381221096
 21
266.5119065272
 31
0.0
  0
LWPOLYLINE
  5
187
330
1F
100
AcDbEntity
  8
0
370
    15
100
AcDbPolyline
 90
        9
 70
   128
 43
0.0
 10
508.5113333564
 20
267.2210704294
 10
508.3281190303
 20
267.3963809715
 10
508.0992188375
 20
267.4963993277
 10
507.834205381
 20
267.5169418637
 10
507.5441626233
 20
267.4571497375
 10
507.2412209544
 20
267.3195235436
 10
506.9380507705
 20
267.1098195576
 10
506.6473310291
 20
266.8368075786
 10
506.381221096
 20
266.5119065272
  0
SPLINE
  5
188
330
1F
100
AcDbEntity
  8
0
370
    15
100
AcDbSpline
210
0.0
220
0.0
230
1.0
 70
     8
 71
     3
 72
    10
 73
     6
 74
     0
 42
0.000000001
 43
0.0000000001
 40
0.0
 40
0.0
 40
0.0
 40
0.0
 40
0.0034598394709457
 40
0.5016836607404393
 40
1.0
 40
1.0
 40
1.0
 40
1.0
 10
524.1739847127056
 20
279.1399970938381
 30
0.0
 10
524.1835427589542
 20
279.1350781245449
 30
0.0
 10
525.5694786301948
 20
278.4218177138115
 30
0.0
 10
528.2854913848945
 20
276.9763770623222
 30
0.0
 10
530.9469665204131
 20
275.5140306354158
 30
0.0
 10
532.2778276327822
 20
274.7827895404274
 30
0.0
  0
SPLINE
  5
189
330
1F
100
AcDbEntity
  8
0
370
    15
100
AcDbSpline
210
0.0
220
0.0
230
1.0
 70
     8
 71
     3
 72
    13
 73
     9
 74
     0
 42
0.000000001
 43
0.0000000001
 40
0.0
 40
0.0
 40
0.0
 40
0.0
 40
0.0025060200554233
 40
0.2063136161441299
 40
0.410121185798969
 40
0.6139287831264968
 40
0.817736346405336
 40
1.0
 40
1.0
 40
1.0
 40
1.0
 10
532.277247948979
 20
274.7830755905266
 30
0.0
 10
532.2833332220575
 20
274.777663598688
 30
0.0
 10
532.7843167203077
 20
274.3321094602298
 30
0.0
 10
533.607481617302
 20
273.1786989954684
 30
0.0
 10
534.2245760249455
 20
270.8201398174365
 30
0.0
 10
534.1782046739906
 20
267.9942538434219
 30
0.0
 10
533.5375871349745
 20
265.0044547990685
 30
0.0
 10
532.6814608074004
 20
263.0559333897692
 30
0.0
 10
532.2772848274714
 20
262.1360392986159
 30
0.0
  0
SPLINE
  5
18A
330
1F
100
AcDbEntity
  8
0
370
    15
100
AcDbSpline
210
0.0
220
0.0
230
1.0
 70
     8
 71
     3
 72
    11
 73
     7
 74
     0
 42
0.000000001
 43
0.0000000001
 40
0.0
 40
0.0
 40
0.0
 40
0.0
 40
0.0149929965070885
 40
0.343326666745079
 40
0.6716620718094225
 40
1.0
 40
1.0
 40
1.0
 40
1.0
 10
520.1652168510947
 20
272.3121806662874
 30
0.0
 10
520.2270440025098
 20
272.2619506177267
 30
0.0
 10
521.6428323540676
 20
271.1117259021665
 30
0.0
 10
524.3939200871146
 20
268.8522382265984
 30
0.0
 10
528.3789198646751
 20
265.5144969694559
 30
0.0
 10
530.978222735064
 20
263.2625389675204
 30
0.0
 10
532.2778791638897
 20
262.1365556402204
 30
0.0
  0
LINE
  5
18B
330
1F
100
AcDbEntity
  8
0
370
    15
100
AcDbLine
 10
520.7238404008998
 20
274.3728679017
 30
0.0
 11
520.1652168510999
 21
272.3121806663
 31
0.0
  0
SPLINE
  5
18C
330
1F
100
AcDbEntity
  8
0
370
    15
100
AcDbSpline
210
0.0
220
0.0
230
1.0
 70
     8
 71
     3
 72
    12
 73
     8
 74
     0
 42
0.000000001
 43
0.0000000001
 40
0.0
 40
0.0
 40
0.0
 40
0.0
 40
0.180516938548006
 40
0.3602361790487631
 40
0.6139778756086594
 40
0.9746776321652172
 40
1.0
 40
1.0
 40
1.0
 40
1.0
 10
513.5687371994917
 20
264.3708180841472
 30
0.0
 10
513.5580243526391
 20
264.3580711766062
 30
0.0
 10
513.5366459986303
 20
264.3326336896635
 30
0.0
 10
513.512663849738
 20
264.2971917150536
 30
0.0
 10
513.498572007357
 20
264.2656121095247
 30
0.0
 10
513.4984532774709
 20
264.2496836521569
 30
0.0
 10
513.506388549989
 20
264.2488308432853
 30
0.0
 10
513.5069090898151
 20
264.2487749005334
 30
0.0
  0
ARC
  5
18D
330
1F
100
AcDbEntity
  8
0
370
    15
100
AcDbCircle
 10
506.9446305569
 20
267.484795814
 30
0.0
 40
1.1242525450756
100
AcDbArc
 50
225.7234255751
 51
239.9244587798
  0
LINE
  5
18E
330
1F
100
AcDbEntity
  8
0
370
    15
100
AcDbLine
 10
524.3021974015
 20
276.4217816775
 30
0.0
 11
522.586656031
 21
275.431037538
 31
0.0
  0
SPLINE
  5
18F
330
1F
100
AcDbEntity
  8
0
370
    15
100
AcDbSpline
210
0.0
220
0.0
230
1.0
 70
     8
 71
     3
 72
    13
 73
     9
 74
     0
 42
0.000000001
 43
0.0000000001
 40
0.0
 40
0.0
 40
0.0
 40
0.0
 40
0.2124571796832374
 40
0.4248954237880847
 40
0.6378463295763641
 40
0.852104143784842
 40
0.9929999654068833
 40
1.0
 40
1.0
 40
1.0
 40
1.0
 10
524.3021974015091
 20
276.4217816775109
 30
0.0
 10
524.3758370214966
 20
276.4762253539241
 30
0.0
 10
524.5231096982252
 20
276.5851078543727
 30
0.0
 10
524.6407186431851
 20
276.847978633415
 30
0.0
 10
524.6624340438948
 20
277.1489150117205
 30
0.0
 10
524.5879764383807
 20
277.4262738329073
 30
0.0
 10
524.4963560916093
 20
277.5898432911246
 30
0.0
 10
524.4522179821582
 20
277.6525780168916
 30
0.0
 10
524.4501288885153
 20
277.6555473039413
 30
0.0
  0
SPLINE
  5
190
330
1F
100
AcDbEntity
  8
0
370
    15
100
AcDbSpline
210
0.0
220
0.0
230
1.0
 70
     8
 71
     3
 72
    11
 73
     7
 74
     0
 42
0.000000001
 43
0.0000000001
 40
0.0
 40
0.0
 40
0.0
 40
0.0
 40
0.0078879457382903
 40
0.300240766665161
 40
0.9430669474085307
 40
1.0
 40
1.0
 40
1.0
 40
1.0
 10
513.8473739662644
 20
281.0818910115079
 30
0.0
 10
513.8491846823547
 20
281.0845487151826
 30
0.0
 10
513.9181064023001
 20
281.1857095262905
 30
0.0
 10
514.1564137491854
 20
281.4854035445015
 30
0.0
 10
514.4471700483315
 20
281.8026338477478
 30
0.0
 10
514.7096153657458
 20
281.9103272004107
 30
0.0
 10
514.7309681573159
 20
281.9190892302902
 30
0.0
  0
ELLIPSE
  5
191
330
1F
100
AcDbEntity
  8
0
370
    15
100
AcDbEllipse
 10
522.2937923524
 20
280.4147247304
 30
0.0
 11
0.7350444047821157
 21
0.7221506328804708
 31
0.0
210
0.0
220
0.0
230
1.0
 40
0.3192688202
 41
5.589259861015285
 42
6.367030172690731
  0
LINE
  5
192
330
1F
100
AcDbEntity
  8
0
370
    15
100
AcDbLine
 10
520.1652168510999
 20
272.3121806663
 30
0.0
 11
519.9373867931
 21
272.1806571734
 31
0.0
  0
LINE
  5
193
330
1F
100
AcDbEntity
  8
0
370
    15
100
AcDbLine
 10
506.381221096
 20
266.5119065272
 30
0.0
 11
506.0209531276
 21
266.012625531
 31
0.0
  0
LINE
  5
194
330
1F
100
AcDbEntity
  8
0
370
    15
100
AcDbLine
 10
516.2543897043
 20
260.7908316937
 30
0.0
 11
513.9840091101
 21
257.6443983375
 31
0.0
  0
ELLIPSE
  5
195
330
1F
100
AcDbEntity
  8
0
370
    15
100
AcDbEllipse
 10
514.1273243051999
 20
257.5638506441
 30
0.0
 11
0.2113757227090218
 21
0.2736801755661986
 31
0.0
210
0.0
220
0.0
230
1.0
 40
0.4715029552
 41
1.63983364488168
 42
2.59209120244677
  0
LINE
  5
196
330
1F
100
AcDbEntity
  8
0
370
    15
100
AcDbLine
 10
505.4084938935999
 20
262.3244373857
 30
0.0
 11
513.8796729401999
 21
257.382511106
 31
0.0
  0
ELLIPSE
  5
197
330
1F
100
AcDbEntity
  8
0
370
    15
100
AcDbEllipse
 10
507.4899304735
 20
265.1870113619
 30
0.0
 11
2.166601157767217
 21
2.805221799553634
 31
0.0
210
0.0
220
0.0
230
1.0
 40
0.4715029552
 41
1.63983364488168
 42
3.202937815700872
  0
ELLIPSE
  5
198
330
1F
100
AcDbEntity
  8
0
370
    15
100
AcDbEllipse
 10
507.4099029351999
 20
265.2733288174
 30
0.0
 11
2.159544226930848
 21
2.975007931658752
 31
0.0
210
0.0
220
0.0
230
0.9999999999999998
 40
0.5003171231
 41
1.628443946574506
 42
3.191548117393822
  0
ARC
  5
199
330
1F
100
AcDbEntity
  8
0
370
    15
100
AcDbCircle
 10
506.5841920237
 20
266.9852105281
 30
0.0
 40
1.1239037461539
100
AcDbArc
 50
225.7187477194
 51
239.9242094297
  0
ARC
  5
19A
330
1F
100
AcDbEntity
  8
0
370
    15
100
AcDbCircle
 10
505.1845150039
 20
262.4811110608
 30
0.0
 40
0.2733371243213786
100
AcDbArc
 50
301.5109197159
 51
325.0271352007
  0
SPLINE
  5
19B
330
1F
100
AcDbEntity
  8
0
370
    15
100
AcDbSpline
210
0.0
220
0.0
230
1.0
 70
     8
 71
     3
 72
    13
 73
     9
 74
     0
 42
0.000000001
 43
0.0000000001
 40
0.0
 40
0.0
 40
0.0
 40
0.0
 40
0.2157183396481377
 40
0.4314362085381093
 40
0.6471574957979786
 40
0.8628855069425998
 40
0.979855102209855
 40
1.0
 40
1.0
 40
1.0
 40
1.0
 10
492.8360168721502
 20
255.0369709754527
 30
0.0
 10
492.6574079427723
 20
255.1621522075025
 30
0.0
 10
492.3001904737916
 20
255.4125143984213
 30
0.0
 10
491.8284241443016
 20
256.0084416042019
 30
0.0
 10
491.4727740530199
 20
256.686983361108
 30
0.0
 10
491.3048324707776
 20
257.2839978818207
 30
0.0
 10
491.2709618643148
 20
257.6420365258613
 30
0.0
 10
491.2708478430103
 20
257.7739753252483
 30
0.0
 10
491.2708310909699
 20
257.7933598087477
 30
0.0
  0
LINE
  5
19C
330
1F
100
AcDbEntity
  8
0
370
    15
100
AcDbLine
 10
505.3273776738
 20
262.2480800735
 30
0.0
 11
492.8360168722
 21
255.0369709755
 31
0.0
  0
LINE
  5
19D
330
1F
100
AcDbEntity
  8
0
370
    15
100
AcDbLine
 10
525.4801907867999
 20
254.3289445106
 30
0.0
 11
509.6409987944
 21
245.185173604
 31
0.0
  0
LINE
  5
19E
330
1F
100
AcDbEntity
  8
0
370
    15
100
AcDbLine
 10
492.8360168722
 20
255.0369709755
 30
0.0
 11
509.6409987944
 21
245.185173604
 31
0.0
  0
LINE
  5
19F
330
1F
100
AcDbEntity
  8
0
370
    15
100
AcDbLine
 10
513.8796686596999
 20
257.2588345306
 30
0.0
 11
505.3273776738
 21
262.2480800735
 31
0.0
  0
LINE
  5
1A0
330
1F
100
AcDbEntity
  8
0
370
    15
100
AcDbLine
 10
517.2054405849999
 20
259.1787617963
 30
0.0
 11
513.8796686596999
 21
257.2588345306
 31
0.0
  0
LINE
  5
1A1
330
1F
100
AcDbEntity
  8
0
370
    15
100
AcDbLine
 10
514.5140646698
 20
284.7891927359
 30
0.0
 11
514.7004946687999
 21
284.650901035
 31
0.0
  0
SPLINE
  5
1A2
330
1F
100
AcDbEntity
  8
0
370
    15
100
AcDbSpline
210
0.0
220
0.0
230
1.0
 70
     8
 71
     3
 72
    11
 73
     7
 74
     0
 42
0.000000001
 43
0.0000000001
 40
0.0
 40
0.0
 40
0.0
 40
0.0
 40
0.3182698482641148
 40
0.7350792879982829
 40
0.9610776155938179
 40
1.0
 40
1.0
 40
1.0
 40
1.0
 10
507.5950391378209
 20
284.3915410589058
 30
0.0
 10
507.4976075990892
 20
284.3345993072779
 30
0.0
 10
507.2725787234033
 20
284.2030860568952
 30
0.0
 10
507.1237417300069
 20
283.8242835676515
 30
0.0
 10
507.0832484932278
 20
283.5107630800309
 30
0.0
 10
507.0811178208568
 20
283.3800880084163
 30
0.0
 10
507.080804780595
 20
283.3608891117681
 30
0.0
  0
LINE
  5
1A3
330
1F
100
AcDbEntity
  8
0
370
    15
100
AcDbLine
 10
536.4251884909999
 20
269.1607793698
 30
0.0
 11
534.1109588752999
 21
270.5229761312
 31
0.0
  0
LINE
  5
1A4
330
1F
100
AcDbEntity
  8
0
370
    15
100
AcDbLine
 10
536.4251884909999
 20
269.1607793698
 30
0.0
 11
536.4251884909999
 21
261.3727387857
 31
0.0
  0
SPLINE
  5
1A5
330
1F
100
AcDbEntity
  8
0
370
    15
100
AcDbSpline
210
0.0
220
0.0
230
1.0
 70
     8
 71
     3
 72
    11
 73
     7
 74
     0
 42
0.000000001
 43
0.0000000001
 40
0.0
 40
0.0
 40
0.0
 40
0.0
 40
0.1909405308794885
 40
0.6695973224139012
 40
0.984361381561542
 40
1.0
 40
1.0
 40
1.0
 40
1.0
 10
524.6367617191667
 20
278.2951152307142
 30
0.0
 10
524.6412076128568
 20
278.3021631261314
 30
0.0
 10
524.6567986374386
 20
278.3268789466972
 30
0.0
 10
524.5852432334997
 20
278.321728593965
 30
0.0
 10
524.4963738585068
 20
278.304196049057
 30
0.0
 10
524.4522188339893
 20
278.293657735423
 30
0.0
 10
524.4501288885153
 20
278.293158935997
 30
0.0
  0
SPLINE
  5
1A6
330
1F
100
AcDbEntity
  8
0
370
    15
100
AcDbSpline
210
0.0
220
0.0
230
1.0
 70
     8
 71
     3
 72
    11
 73
     7
 74
     0
 42
0.000000001
 43
0.0000000001
 40
0.0
 40
0.0
 40
0.0
 40
0.0
 40
0.2420196975879875
 40
0.642615088035146
 40
0.9889892199684016
 40
1.0
 40
1.0
 40
1.0
 40
1.0
 10
518.5721087827759
 20
260.350912652286
 30
0.0
 10
518.5889831890062
 20
260.3418336119109
 30
0.0
 10
518.6337884183045
 20
260.3177267793348
 30
0.0
 10
518.7200189040647
 20
260.3045699962159
 30
0.0
 10
518.785723332189
 20
260.305334813354
 30
0.0
 10
518.8163498815385
 20
260.3085232892743
 30
0.0
 10
518.8172934641764
 20
260.308621523995
 30
0.0
  0
ARC
  5
1A7
330
1F
100
AcDbEntity
  8
0
370
    15
100
AcDbCircle
 10
513.7560025033
 20
263.7574630389
 30
0.0
 40
0.1116012919655383
100
AcDbArc
 50
118.7314466131
 51
179.7862628964
  0
ELLIPSE
  5
1A8
330
1F
100
AcDbEntity
  8
0
370
    15
100
AcDbEllipse
 10
513.8807564244
 20
257.4215100362
 30
0.0
 11
0.0005270229347616
 21
0.2312373557244882
 31
0.0
210
0.0
220
0.0
230
1.0
 40
0.0043633316
 41
1.740269153604549
 42
2.351115766803644
  0
LWPOLYLINE
  5
1A9
330
1F
100
AcDbEntity
  8
0
370
    15
100
AcDbPolyline
 90
       17
 70
   128
 43
0.0
 10
497.019141307
 20
272.9647805928
 10
496.8432527945999
 20
272.8228412039
 10
496.6941415251
 20
272.6217085782
 10
496.5945085154999
 20
272.3920034757
 10
496.5595220213999
 20
272.1686964504
 10
496.5945085154999
 20
271.9857839713
 10
496.6941415251
 20
271.8711126931
 10
496.8432527945999
 20
271.8421402746
 10
497.019141307
 20
271.9032774394
 10
497.1950303132
 20
272.0452171135
 10
497.3441415826999
 20
272.2463497391999
 10
497.4437744277
 20
272.4760547467
 10
497.4787609218
 20
272.699361772
 10
497.4437744277
 20
272.8822742511
 10
497.3441415826999
 20
272.9969456244
 10
497.1950303132
 20
273.0259180428
 10
497.019141307
 20
272.9647805928
  0
SPLINE
  5
1AA
330
1F
100
AcDbEntity
  8
0
370
    15
100
AcDbSpline
210
0.0
220
0.0
230
1.0
 70
     8
 71
     3
 72
    10
 73
     6
 74
     0
 42
0.000000001
 43
0.0000000001
 40
0.0
 40
0.0
 40
0.0
 40
0.0
 40
0.4951279523589382
 40
0.9994085052467244
 40
1.0
 40
1.0
 40
1.0
 40
1.0
 10
517.0639562487094
 20
259.422413974481
 30
0.0
 10
517.3039408464202
 20
259.5741842932229
 30
0.0
 10
517.7883462348411
 20
259.8805304541938
 30
0.0
 10
518.2700502221727
 20
260.2334708220166
 30
0.0
 10
518.5110039755113
 20
260.4233131347598
 30
0.0
 10
518.5112862705632
 20
260.4235355489982
 30
0.0
  0
SPLINE
  5
1AB
330
1F
100
AcDbEntity
  8
0
370
    15
100
AcDbSpline
210
0.0
220
0.0
230
1.0
 70
     8
 71
     3
 72
    13
 73
     9
 74
     0
 42
0.000000001
 43
0.0000000001
 40
0.0
 40
0.0
 40
0.0
 40
0.0
 40
0.0710595824424758
 40
0.1371958087101187
 40
0.3529036575857754
 40
0.5686026270454568
 40
0.7843019932758076
 40
1.0
 40
1.0
 40
1.0
 40
1.0
 10
517.0639562487094
 20
259.422413974481
 30
0.0
 10
517.0641666470461
 20
259.4163167697716
 30
0.0
 10
517.0645728662915
 20
259.4045448045807
 30
0.0
 10
517.0690940748801
 20
259.3726371021747
 30
0.0
 10
517.0831746047481
 20
259.3248032186524
 30
0.0
 10
517.1153977240808
 20
259.2648380874177
 30
0.0
 10
517.1577282353773
 20
259.2120957162469
 30
0.0
 10
517.1895365018611
 20
259.1898730795917
 30
0.0
 10
517.2054405849825
 20
259.1787617962804
 30
0.0
  0
LINE
  5
1AC
330
1F
100
AcDbEntity
  8
0
370
    15
100
AcDbLine
 10
513.9840091101
 20
257.6443983375
 30
0.0
 11
517.0639562487
 21
259.4224139745
 31
0.0
  0
LINE
  5
1AD
330
1F
100
AcDbEntity
  8
0
370
    15
100
AcDbLine
 10
526.4033378194999
 20
249.4211840042
 30
0.0
 11
508.7178517616999
 21
239.2115702208
 31
0.0
  0
ARC
  5
1AE
330
1F
100
AcDbEntity
  8
0
370
    15
100
AcDbCircle
 10
512.0289540249999
 20
245.8818415118
 30
0.0
 40
7.446872987598728
100
AcDbArc
 50
193.291285656
 51
243.6003387957
  0
SPLINE
  5
1AF
330
1F
100
AcDbEntity
  8
0
370
    15
100
AcDbSpline
210
0.0
220
0.0
230
1.0
 70
     8
 71
     3
 72
     9
 73
     5
 74
     0
 42
0.000000001
 43
0.0000000001
 40
0.0
 40
0.0
 40
0.0
 40
0.0
 40
0.4999999370955899
 40
1.0
 40
1.0
 40
1.0
 40
1.0
 10
504.7816028212753
 20
244.1699024866033
 30
0.0
 10
505.5343876285077
 20
244.0993854190251
 30
0.0
 10
507.039957432386
 20
243.9583512661255
 30
0.0
 10
508.7739849343519
 20
244.7762327904149
 30
0.0
 10
509.6409987944128
 20
245.1851736040079
 30
0.0
  0
LINE
  5
1B0
330
1F
100
AcDbEntity
  8
0
370
    15
100
AcDbLine
 10
534.0902359612999
 20
272.4829977154
 30
0.0
 11
533.5811033484
 21
272.7837071852
 31
0.0
  0
LINE
  5
1B1
330
1F
100
AcDbEntity
  8
0
370
    15
100
AcDbLine
 10
534.0902359612999
 20
272.4829977154
 30
0.0
 11
536.4251884909999
 21
269.1607793698
 31
0.0
  0
LINE
  5
1B2
330
1F
100
AcDbEntity
  8
0
370
    15
100
AcDbLine
 10
508.7178517616999
 20
239.2115702208
 30
0.0
 11
514.3912645582999
 21
236.0056621547
 31
0.0
  0
LINE
  5
1B3
330
1F
100
AcDbEntity
  8
0
370
    15
100
AcDbLine
 10
532.0436337298999
 20
246.1961579667
 30
0.0
 11
514.3912645582999
 21
236.0056621547
 31
0.0
  0
LINE
  5
1B4
330
1F
100
AcDbEntity
  8
0
370
    15
100
AcDbLine
 10
514.3912645582999
 20
236.0056621547
 30
0.0
 11
513.8994384951001
 21
236.2555340523
 31
0.0
  0
LINE
  5
1B5
330
1F
100
AcDbEntity
  8
0
370
    15
100
AcDbLine
 10
486.9449246579
 20
254.5794747155
 30
0.0
 11
486.7388581787999
 21
254.7323326432
 31
0.0
  0
SPLINE
  5
1B6
330
1F
100
AcDbEntity
  8
0
370
    15
100
AcDbSpline
210
0.0
220
0.0
230
1.0
 70
     8
 71
     3
 72
    12
 73
     8
 74
     0
 42
0.000000001
 43
0.0000000001
 40
0.0
 40
0.0
 40
0.0
 40
0.0
 40
0.0042232317603778
 40
0.1607539021105283
 40
0.5049352961347159
 40
0.7789243423869936
 40
1.0
 40
1.0
 40
1.0
 40
1.0
 10
484.5042612467562
 20
260.0723580991854
 30
0.0
 10
484.5024563118027
 20
260.0696976237058
 30
0.0
 10
484.4337529222447
 20
259.9684287757966
 30
0.0
 10
484.2370811712584
 20
259.6387631487994
 30
0.0
 10
484.0342786703368
 20
259.0980556179066
 30
0.0
 10
483.9634074509919
 20
258.5216225214929
 30
0.0
 10
484.0146578399866
 20
258.2742153698862
 30
0.0
 10
484.0375441685038
 20
258.1637334504268
 30
0.0
  0
LWPOLYLINE
  5
1B7
330
1F
100
AcDbEntity
  8
0
370
    15
100
AcDbPolyline
 90
       17
 70
   128
 43
0.0
 10
491.4329980053
 20
274.9658297709
 10
491.2571089991
 20
274.8238900969
 10
491.1079977296
 20
274.6227572811
 10
491.0083648846
 20
274.3930526538
 10
490.9733783905
 20
274.1697456285
 10
491.0083648846
 20
273.9868331494
 10
491.1079977296
 20
273.8721613959
 10
491.2571089991
 20
273.8431895478
 10
491.4329980053
 20
273.9043269977
 10
491.6088866823
 20
274.0462664817
 10
491.7579979517999
 20
274.247398537
 10
491.8576307968
 20
274.4771039248
 10
491.8926172908999
 20
274.7004109501
 10
491.8576307968
 20
274.8833234292
 10
491.7579979517999
 20
274.9979944222
 10
491.6088866823
 20
275.0269670308
 10
491.4329980053
 20
274.9658297709
  0
ELLIPSE
  5
1B8
330
1F
100
AcDbEntity
  8
0
370
    15
100
AcDbEllipse
 10
494.1237144548999
 20
274.044001951
 30
0.0
 11
2.135418453934449
 21
2.989854161038693
 31
0.0
210
0.0
220
0.0
230
0.9999999999999998
 40
0.4955925816
 41
0.8280306362761773
 42
1.613510063735723
  0
LINE
  5
1B9
330
1F
100
AcDbEntity
  8
0
370
    15
100
AcDbLine
 10
504.7815172105
 20
244.169921126
 30
0.0
 11
503.4096478281999
 21
244.8175834343
 31
0.0
  0
LINE
  5
1BA
330
1F
100
AcDbEntity
  8
0
370
    15
100
AcDbLine
 10
484.0375441685
 20
258.1637334504
 30
0.0
 11
481.5090296029
 21
256.7040530619
 31
0.0
  0
ARC
  5
1BB
330
1F
100
AcDbEntity
  8
0
370
    15
100
AcDbCircle
 10
482.3299301086
 20
258.0011042374
 30
0.0
 40
1.534998173354924
100
AcDbArc
 50
182.583688857
 51
237.6703807169
  0
ARC
  5
1BC
330
1F
100
AcDbEntity
  8
0
370
    15
100
AcDbCircle
 10
490.0352949458
 20
273.5737878068
 30
0.0
 40
0.215158233561471
100
AcDbArc
 50
66.5333624
 51
144.7684471542
  0
ARC
  5
1BD
330
1F
100
AcDbEntity
  8
0
370
    15
100
AcDbCircle
 10
490.7400686077999
 20
274.2561130007
 30
0.0
 40
0.7864262738461714
100
AcDbArc
 50
218.0730655937
 51
284.0951381876
  0
LINE
  5
1BE
330
1F
100
AcDbEntity
  8
0
370
    15
100
AcDbLine
 10
486.6557854233
 20
254.6131058126
 30
0.0
 11
485.966741085
 21
254.2091723333
 31
0.0
  0
LINE
  5
1BF
330
1F
100
AcDbEntity
  8
0
370
    15
100
AcDbLine
 10
485.966741085
 20
254.2091723333
 30
0.0
 11
485.9667015723
 21
254.2091480025
 31
0.0
  0
LINE
  5
1C0
330
1F
100
AcDbEntity
  8
0
370
    15
100
AcDbLine
 10
481.5090296029
 20
256.7040530619
 30
0.0
 11
485.9667015723
 21
254.2091480025
 31
0.0
  0
ARC
  5
1C1
330
1F
100
AcDbEntity
  8
0
370
    15
100
AcDbCircle
 10
489.1355369129
 20
272.2791410306
 30
0.0
 40
0.290418280067104
100
AcDbArc
 50
228.4754209497
 51
245.0032245819
  0
SPLINE
  5
1C2
330
1F
100
AcDbEntity
  8
0
370
    15
100
AcDbSpline
210
0.0
220
0.0
230
1.0
 70
     8
 71
     3
 72
    11
 73
     7
 74
     0
 42
0.000000001
 43
0.0000000001
 40
0.0
 40
0.0
 40
0.0
 40
0.0
 40
0.0657229953552943
 40
0.3391922990900005
 40
0.8685054269223485
 40
1.0
 40
1.0
 40
1.0
 40
1.0
 10
485.8486047857289
 20
267.2718276849491
 30
0.0
 10
485.8469465882247
 20
267.2720234824621
 30
0.0
 10
485.8383887338423
 20
267.2730339812723
 30
0.0
 10
485.820245329077
 20
267.2736102670412
 30
0.0
 10
485.8049809390263
 20
267.2716123676931
 30
0.0
 10
485.8061260256258
 20
267.2653792314948
 30
0.0
 10
485.8063538871858
 20
267.2641388954905
 30
0.0
  0
LWPOLYLINE
  5
1C3
330
1F
100
AcDbEntity
  8
0
370
    15
100
AcDbPolyline
 90
        3
 70
   128
 43
0.0
 10
487.2421231601999
 20
270.6341738154
 10
487.2133131551
 20
270.6462672929
 10
487.1850141805
 20
270.6508623033
  0
LINE
  5
1C4
330
1F
100
AcDbEntity
  8
0
370
    15
100
AcDbLine
 10
483.7657404594999
 20
265.6499821451
 30
0.0
 11
483.7912827668
 21
265.6389089005
 31
0.0
  0
LINE
  5
1C5
330
1F
100
AcDbEntity
  8
0
370
    15
100
AcDbLine
 10
482.5588088176
 20
260.9845919136
 30
0.0
 11
481.1445950233999
 21
261.8010032157
 31
0.0
  0
ELLIPSE
  5
1C6
330
1F
100
AcDbEntity
  8
0
370
    15
100
AcDbEllipse
 10
485.6693455029
 20
255.1921865858
 30
0.0
 11
-0.0071747410523244
 21
1.065589213650242
 31
0.0
210
0.0
220
0.0
230
1.0
 40
0.7151405127000001
 41
2.755407021779022
 42
3.533014824499648
  0
LWPOLYLINE
  5
1C7
330
1F
100
AcDbEntity
  8
0
370
    15
100
AcDbPolyline
 90
        5
 70
   128
 43
0.0
 10
483.5150180773999
 20
265.5183622738
 10
483.5165235100999
 20
265.5218554839
 10
483.5259051351999
 20
265.5309670821
 10
483.5421408915
 20
265.5373443464
 10
483.5646143814
 20
265.5407432832
  0
SPLINE
  5
1C8
330
1F
100
AcDbEntity
  8
0
370
    15
100
AcDbSpline
210
0.0
220
0.0
230
1.0
 70
     8
 71
     3
 72
    11
 73
     7
 74
     0
 42
0.000000001
 43
0.0000000001
 40
0.0
 40
0.0
 40
0.0
 40
0.0
 40
0.2244033571191772
 40
0.7092833871526479
 40
0.9889608377520897
 40
1.0
 40
1.0
 40
1.0
 40
1.0
 10
483.0957925948631
 20
263.6380466859164
 30
0.0
 10
483.0759239563718
 20
263.6160608610767
 30
0.0
 10
483.0131241151039
 20
263.5465691185652
 30
0.0
 10
483.0031457048754
 20
263.4308226963515
 30
0.0
 10
483.017614185812
 20
263.3306934493257
 30
0.0
 10
483.0270649542454
 20
263.2914043990504
 30
0.0
 10
483.0274238211333
 20
263.2899125056347
 30
0.0
  0
LINE
  5
1C9
330
1F
100
AcDbEntity
  8
0
370
    15
100
AcDbLine
 10
485.966741085
 20
254.2091723333
 30
0.0
 11
486.6614607598999
 21
254.6103784211
 31
0.0
  0
LINE
  5
1CA
330
1F
100
AcDbEntity
  8
0
370
    15
100
AcDbLine
 10
896.2194907997
 20
62.21712354890001
 30
0.0
 11
898.4085974527999
 21
59.1857339666
 31
0.0
  0
LINE
  5
1CB
330
1F
100
AcDbEntity
  8
0
370
    15
100
AcDbLine
 10
894.5592428016999
 20
61.2586827806
 30
0.0
 11
896.2194907997
 21
62.21712354890001
 31
0.0
  0
ARC
  5
1CC
330
1F
100
AcDbEntity
  8
0
370
    15
100
AcDbCircle
 10
880.8950858697999
 20
33.7088147445
 30
0.0
 40
6.828464701713039
100
AcDbArc
 50
209.6937753003
 51
226.3522629285
  0
ARC
  5
1CD
330
1F
100
AcDbEntity
  8
0
370
    15
100
AcDbCircle
 10
877.7495571716999
 20
30.8418093583
 30
0.0
 40
2.59983860381383
100
AcDbArc
 50
232.9168815499
 51
307.5833114092
  0
LINE
  5
1CE
330
1F
100
AcDbEntity
  8
0
370
    15
100
AcDbLine
 10
892.7750580444
 20
36.5401662765
 30
0.0
 11
879.3352360883998
 21
28.7815222087
 31
0.0
  0
ARC
  5
1CF
330
1F
100
AcDbEntity
  8
0
370
    15
100
AcDbCircle
 10
888.2887566539999
 20
43.6248252221
 30
0.0
 40
8.385659934705802
100
AcDbArc
 50
302.3436956866
 51
335.6485040877
  0
ARC
  5
1D0
330
1F
100
AcDbEntity
  8
0
370
    15
100
AcDbCircle
 10
873.3614656866
 20
51.2607604392
 30
0.0
 40
25.14624480144896
100
AcDbArc
 50
333.8218162542
 51
354.9112724624
  0
LINE
  5
1D1
330
1F
100
AcDbEntity
  8
0
370
    15
100
AcDbLine
 10
898.4085974527999
 20
59.1857339666
 30
0.0
 11
898.4085974527999
 21
49.03033045789999
 31
0.0
  0
LINE
  5
1D2
330
1F
100
AcDbEntity
  8
0
370
    15
100
AcDbLine
 10
898.4830735683001
 20
59.2521579746
 30
0.0
 11
896.2620755802999
 21
62.3277110097
 31
0.0
  0
LINE
  5
1D3
330
1F
100
AcDbEntity
  8
0
370
    15
100
AcDbLine
 10
898.4830735683001
 20
49.06962846939999
 30
0.0
 11
898.4830735683001
 21
59.2521579746
 31
0.0
  0
ARC
  5
1D4
330
1F
100
AcDbEntity
  8
0
370
    15
100
AcDbCircle
 10
872.9460147091
 20
51.3832909059
 30
0.0
 40
25.64165378923185
100
AcDbArc
 50
332.4802727827
 51
354.8231251122
  0
ARC
  5
1D5
330
1F
100
AcDbEntity
  8
0
370
    15
100
AcDbCircle
 10
889.3942314707
 20
42.5547943526
 30
0.0
 40
6.979059023639788
100
AcDbArc
 50
302.2384870048
 51
334.3655854421
  0
LINE
  5
1D6
330
1F
100
AcDbEntity
  8
0
370
    15
100
AcDbLine
 10
878.9931215578999
 20
28.4980206644
 30
0.0
 11
893.1171725747999
 21
36.6516617613
 31
0.0
  0
ARC
  5
1D7
330
1F
100
AcDbEntity
  8
0
370
    15
100
AcDbCircle
 10
877.6500015035001
 20
30.2788863958
 30
0.0
 40
2.230572624655299
100
AcDbArc
 50
236.6559512068
 51
307.0234163567
  0
ARC
  5
1D8
330
1F
100
AcDbEntity
  8
0
370
    15
100
AcDbCircle
 10
880.8393196873
 20
33.649402385
 30
0.0
 40
6.847581843543842
100
AcDbArc
 50
208.1405691038
 51
229.8485999907
  0
ARC
  5
1D9
330
1F
100
AcDbEntity
  8
0
370
    15
100
AcDbCircle
 10
880.5072486767999
 20
47.0314060193
 30
0.0
 40
26.06099215336279
100
AcDbArc
 50
332.477865694
 51
354.8515132459
  0
LINE
  5
1DA
330
1F
100
AcDbEntity
  8
0
370
    15
100
AcDbLine
 10
895.9357312152
 20
39.4137966815
 30
0.0
 11
903.6189805264999
 21
34.98884969080001
 31
0.0
  0
ARC
  5
1DB
330
1F
100
AcDbEntity
  8
0
370
    15
100
AcDbCircle
 10
872.9429287499
 20
51.3939993678
 30
0.0
 40
25.92670865364639
100
AcDbArc
 50
332.4786192786
 51
354.8425130143
  0
LINE
  5
1DC
330
1F
100
AcDbEntity
  8
0
370
    15
100
AcDbLine
 10
906.4630972792999
 20
44.69276638359999
 30
0.0
 11
898.7646698341
 21
49.0633537504
 31
0.0
  0
ARC
  5
1DD
330
1F
100
AcDbEntity
  8
0
370
    15
100
AcDbCircle
 10
894.9318885649999
 20
37.6726829177
 30
0.0
 40
2.00977043583276
100
AcDbArc
 50
60.03431427239999
 51
67.9508058002
  0
SPLINE
  5
1DE
330
1F
100
AcDbEntity
  8
0
370
    15
100
AcDbSpline
210
0.0
220
0.0
230
1.0
 70
     8
 71
     3
 72
    13
 73
     9
 74
     0
 42
0.000000001
 43
0.0000000001
 40
0.0
 40
0.0
 40
0.0
 40
0.0
 40
0.0310563759375538
 40
0.137166861829618
 40
0.3530611501519078
 40
0.5688013638454692
 40
0.7844221485492713
 40
1.0
 40
1.0
 40
1.0
 40
1.0
 10
898.483073568294
 20
49.06962846937897
 30
0.0
 10
898.4853858356345
 20
49.07080896180204
 30
0.0
 10
898.4955984391723
 20
49.07602284900591
 30
0.0
 10
898.5248103786013
 20
49.08762424081175
 30
0.0
 10
898.5771396041576
 20
49.09874628271152
 30
0.0
 10
898.6451382784904
 20
49.09939775894217
 30
0.0
 10
898.7119414605556
 20
49.08815510061629
 30
0.0
 10
898.7470948762849
 20
49.0716203183479
 30
0.0
 10
898.7646698340856
 20
49.063353750375
 30
0.0
  0
ARC
  5
1DF
330
1F
100
AcDbEntity
  8
0
370
    15
100
AcDbCircle
 10
889.3761914487999
 20
42.5614457251
 30
0.0
 40
7.275661925080496
100
AcDbArc
 50
302.2384798763
 51
334.3655970125
  0
ARC
  5
1E0
330
1F
100
AcDbEntity
  8
0
370
    15
100
AcDbCircle
 10
893.4246884911999
 20
36.6658257115
 30
0.0
 40
0.3078419339778554
100
AcDbArc
 50
182.6371364041
 51
237.0725914569
  0
ARC
  5
1E1
330
1F
100
AcDbEntity
  8
0
370
    15
100
AcDbCircle
 10
896.9334948972001
 20
38.196937445
 30
0.0
 40
7.415358732969602
100
AcDbArc
 50
302.2384885658
 51
334.3655792237
  0
LINE
  5
1E2
330
1F
100
AcDbEntity
  8
0
370
    15
100
AcDbLine
 10
900.8891778808001
 20
31.9247673841
 30
0.0
 11
893.2573529929999
 21
36.4074355272
 31
0.0
  0
LINE
  5
1E3
330
1F
100
AcDbEntity
  8
0
370
    15
100
AcDbLine
 10
893.2573529929999
 20
36.4074355272
 30
0.0
 11
879.1333019760999
 21
28.2537944302
 31
0.0
  0
ARC
  5
1E4
330
1F
100
AcDbEntity
  8
0
370
    15
100
AcDbCircle
 10
879.3006374742999
 20
28.5121846145
 30
0.0
 40
0.3078419339791508
100
AcDbArc
 50
182.6371364042
 51
237.0725914568
  0
LINE
  5
1E5
330
1F
100
AcDbEntity
  8
0
370
    15
100
AcDbLine
 10
886.7651268639001
 20
23.7711262872
 30
0.0
 11
900.8891778808001
 21
31.9247673841
 31
0.0
  0
LINE
  5
1E6
330
1F
100
AcDbEntity
  8
0
370
    15
100
AcDbLine
 10
879.1333019760999
 20
28.2537944302
 30
0.0
 11
886.7651268639001
 21
23.7711262872
 31
0.0
  0
LINE
  5
1E7
330
1F
100
AcDbEntity
  8
0
370
    15
100
AcDbLine
 10
879.6887638536999
 20
28.9928781327
 30
0.0
 11
892.9980214584
 21
36.6761490049
 31
0.0
  0
LINE
  5
1E8
330
1F
100
AcDbEntity
  8
0
370
    15
100
AcDbLine
 10
879.6887638536999
 20
28.9928781327
 30
0.0
 11
879.3352360883998
 21
28.7815222087
 31
0.0
  0
LINE
  5
1E9
330
1F
100
AcDbEntity
  8
0
370
    15
100
AcDbLine
 10
906.4630972792999
 20
44.69276638359999
 30
0.0
 11
906.4630972792999
 21
54.9510029164
 31
0.0
  0
LINE
  5
1EA
330
1F
100
AcDbEntity
  8
0
370
    15
100
AcDbLine
 10
898.7646698341
 20
59.2973597729
 30
0.0
 11
898.7646698341
 21
49.0633537504
 31
0.0
  0
LINE
  5
1EB
330
1F
100
AcDbEntity
  8
0
370
    15
100
AcDbLine
 10
906.4630972792999
 20
54.9510029164
 30
0.0
 11
898.7646698341
 21
59.2973597729
 31
0.0
  0
ELLIPSE
  5
1EC
330
1F
100
AcDbEntity
  8
0
370
    15
100
AcDbEllipse
 10
898.6244994867998
 20
59.17051468869999
 30
0.0
 11
0.1950794064398451
 21
0.0630743339927591
 31
0.0
210
0.0
220
0.0
230
0.9999999999999996
 40
0.6990339518000001
 41
0.5718433695856902
 42
2.133913050121573
  0
LINE
  5
1ED
330
1F
100
AcDbEntity
  8
0
370
    15
100
AcDbLine
 10
898.4023597192001
 20
48.9460605923
 30
0.0
 11
898.4023597192001
 21
58.66077731699999
 31
0.0
  0
LINE
  5
1EE
330
1F
100
AcDbEntity
  8
0
370
    15
100
AcDbLine
 10
898.4085974527999
 20
59.1857339666
 30
0.0
 11
898.4023597192001
 21
58.66077731699999
 31
0.0
  0
SPLINE
  5
1EF
330
1F
100
AcDbEntity
  8
0
370
    15
100
AcDbSpline
210
0.0
220
0.0
230
1.0
 70
     8
 71
     3
 72
    10
 73
     6
 74
     0
 42
0.000000001
 43
0.0000000001
 40
0.0
 40
0.0
 40
0.0
 40
0.0
 40
0.0516652720153197
 40
0.525849862492358
 40
1.0
 40
1.0
 40
1.0
 40
1.0
 10
906.754787715262
 20
44.28235925692306
 30
0.0
 10
906.7577393024704
 20
44.28956612056262
 30
0.0
 10
906.7877805984332
 20
44.36291767966704
 30
0.0
 10
906.7040254051359
 20
44.51845842382742
 30
0.0
 10
906.5434047094315
 20
44.63466513758688
 30
0.0
 10
906.4630972792519
 20
44.6927663835735
 30
0.0
  0
ELLIPSE
  5
1F0
330
1F
100
AcDbEntity
  8
0
370
    15
100
AcDbEllipse
 10
905.7621906940999
 20
54.3168054195
 30
0.0
 11
0.9753970321989982
 21
0.3153716699638309
 31
0.0
210
0.0
220
0.0
230
0.9999999999999998
 40
0.6990339518000001
 41
6.060903867109042
 42
6.855028676766294
  0
ELLIPSE
  5
1F1
330
1F
100
AcDbEntity
  8
0
370
    15
100
AcDbEllipse
 10
896.4035013198
 20
62.24606720579999
 30
0.0
 11
0.0477032139244784
 21
0.2228201000621226
 31
0.0
210
0.0
220
0.0
230
0.9999999999999998
 40
0.6990699354000001
 41
6.069671145400151
 42
7.631740825934976
  0
LINE
  5
1F2
330
1F
100
AcDbEntity
  8
0
370
    15
100
AcDbLine
 10
896.4831167028998
 20
62.4567682692
 30
0.0
 11
898.7646698341
 21
59.2973597729
 31
0.0
  0
LINE
  5
1F3
330
1F
100
AcDbEntity
  8
0
370
    15
100
AcDbLine
 10
898.4023597192001
 20
58.66077731699999
 30
0.0
 11
896.5723784596999
 21
61.194864996
 31
0.0
  0
ELLIPSE
  5
1F4
330
1F
100
AcDbEntity
  8
0
370
    15
100
AcDbEllipse
 10
896.6604035057001
 20
60.0151330622
 30
0.0
 11
-0.2321710372185635
 21
1.278946423119152
 31
0.0
210
0.0
220
0.0
230
0.9999999999999998
 40
0.2245573488
 41
5.843965017872777
 42
6.363362661868726
  0
LINE
  5
1F5
330
1F
100
AcDbEntity
  8
0
370
    15
100
AcDbLine
 10
896.2194907997
 20
62.21712354890001
 30
0.0
 11
896.4059925799999
 21
61.2857850647
 31
0.0
  0
LINE
  5
1F6
330
1F
100
AcDbEntity
  8
0
370
    15
100
AcDbLine
 10
906.4630972792999
 20
54.9510029164
 30
0.0
 11
904.1530239025998
 21
58.14990264529999
 31
0.0
  0
LINE
  5
1F7
330
1F
100
AcDbEntity
  8
0
370
    15
100
AcDbLine
 10
904.1530239025998
 20
58.14990264529999
 30
0.0
 11
896.4831167028998
 21
62.4567682692
 31
0.0
  0
ARC
  5
1F8
330
1F
100
AcDbEntity
  8
0
370
    15
100
AcDbCircle
 10
878.2471402402
 20
30.8659941058
 30
0.0
 40
2.363650162682173
100
AcDbArc
 50
232.9168896005
 51
307.5832936793
  0
LINE
  5
1F9
330
1F
100
AcDbEntity
  8
0
370
    15
100
AcDbLine
 10
876.8219233642
 20
28.9803645166
 30
0.0
 11
876.1819247866
 21
28.7677578953
 31
0.0
  0
ARC
  5
1FA
330
1F
100
AcDbEntity
  8
0
370
    15
100
AcDbCircle
 10
877.7330994530998
 20
30.1103478741
 30
0.0
 40
2.325372614326418
100
AcDbArc
 50
236.6559734388999
 51
307.0234000932
  0
ARC
  5
1FB
330
1F
100
AcDbEntity
  8
0
370
    15
100
AcDbCircle
 10
876.5580514778999
 20
28.3064719115
 30
0.0
 40
0.1728429391220087
100
AcDbArc
 50
140.8916057523
 51
233.3692469259
  0
ELLIPSE
  5
1FC
330
1F
100
AcDbEntity
  8
0
370
    15
100
AcDbEllipse
 10
896.6604035057001
 20
60.0151330622
 30
0.0
 11
-0.692544264856565
 21
1.233052666514225
 31
0.0
210
0.0
220
0.0
230
0.9999999999999998
 40
0.5773097240000001
 41
5.770604853489651
 42
6.290002497485552
  0
LINE
  5
1FD
330
1F
100
AcDbEntity
  8
0
370
    15
100
AcDbLine
 10
895.9630061530999
 20
61.24544124609999
 30
0.0
 11
895.2725940178
 21
60.8468748041
 31
0.0
  0
ARC
  5
1FE
330
1F
100
AcDbEntity
  8
0
370
    15
100
AcDbCircle
 10
881.0020056105999
 20
33.537309278
 30
0.0
 40
7.036188553805133
100
AcDbArc
 50
205.0038824393
 51
229.741125844
  0
LWPOLYLINE
  5
1FF
330
1F
100
AcDbEntity
  8
0
370
    15
100
AcDbPolyline
 90
        3
 70
   128
 43
0.0
 10
876.2737575012
 20
29.5697260237
 10
876.3340314458
 20
29.4970680248
 10
876.8219233642
 20
28.9803645166
  0
ELLIPSE
  5
200
330
1F
100
AcDbEntity
  8
0
370
    15
100
AcDbEllipse
 10
903.7548952942998
 20
57.0964305948
 30
0.0
 11
0.2385160696226195
 21
1.114100500310605
 31
0.0
210
0.0
220
0.0
230
1.0
 40
0.6990699354000001
 41
5.720109215883701
 42
6.069671145400026
  0
LINE
  5
201
330
1F
100
AcDbEntity
  8
0
370
    15
100
AcDbLine
 10
898.4023755242999
 20
52.29680695979999
 30
0.0
 11
536.4331963921999
 21
261.2571662264
 31
0.0
  0
LINE
  5
202
330
1F
100
AcDbEntity
  8
0
370
    15
100
AcDbLine
 10
898.4023663046999
 20
52.94993918279999
 30
0.0
 11
536.4251884909999
 21
261.91491599
 31
0.0
  0
LINE
  5
203
330
1F
100
AcDbEntity
  8
0
370
    15
100
AcDbLine
 10
536.4251871738999
 20
264.8037588086
 30
0.0
 11
898.4023821097
 21
55.83877211699999
 31
0.0
  0
LWPOLYLINE
  5
204
330
1F
100
AcDbEntity
  8
0
370
    15
100
AcDbPolyline
 90
       10
 70
   128
 43
0.0
 10
492.3632923862999
 20
270.0000326324
 10
492.5167847876999
 20
269.8398258662
 10
492.598117504
 20
269.5326321964
 10
492.5558967338999
 20
269.1451288887
 10
492.3965502009999
 20
268.7363097698
 10
492.1443368741
 20
268.3684135041
 10
491.8376541784
 20
268.0974493336
 10
491.5231916026
 20
267.9646689396
 10
491.2488231921
 20
267.9902869224
 10
491.2137668923
 20
268.0079160306
  0
LWPOLYLINE
  5
205
330
1F
100
AcDbEntity
  8
0
370
    15
100
AcDbPolyline
 90
        8
 70
   128
 43
0.0
 10
496.8494222041999
 20
265.5213085472
 10
497.1783959729
 20
266.0011730142
 10
497.386239205
 20
266.5344155665
 10
497.4413098249
 20
267.0398546262
 10
497.3352237375999
 20
267.4405419266
 10
497.0841315827
 20
267.6754762767
 10
496.7262597286
 20
267.7088909459
 10
496.4761262498
 20
267.6257506702
  0
LWPOLYLINE
  5
206
330
1F
100
AcDbEntity
  8
0
370
    15
100
AcDbPolyline
 90
        6
 70
   128
 43
0.0
 10
495.3262196232
 20
265.6338381935
 10
495.4302686676999
 20
265.2630343291
 10
495.6813608226
 20
265.028100074
 10
496.0392326766999
 20
264.9946853097
 10
496.4494011966
 20
265.167877037
 10
496.8494222041999
 20
265.5213085472
  0
LWPOLYLINE
  5
207
330
1F
100
AcDbEntity
  8
0
370
    15
100
AcDbPolyline
 90
       10
 70
   128
 43
0.0
 10
497.9446271605
 20
278.4534700311
 10
498.02326857
 20
278.3947149924
 10
498.1604414153999
 20
278.1435261711
 10
498.177687379
 20
277.7876355244
 10
498.0723805144999
 20
277.3812241884
 10
497.8605527587999
 20
276.9861643912
 10
497.5744533657
 20
276.6625998278
 10
497.2576381396
 20
276.4597920491
 10
496.9583393743
 20
276.4086146496
 10
496.7949559635999
 20
276.4614556302
  0
LWPOLYLINE
  5
208
330
1F
100
AcDbEntity
  8
0
370
    15
100
AcDbPolyline
 90
        9
 70
   128
 43
0.0
 10
502.2320522038
 20
273.7678689693
 10
502.6052253396
 20
274.1899089189
 10
502.8815222977
 20
274.7052042074
 10
503.0188792062999
 20
275.235306388
 10
502.996384643
 20
275.6995117777
 10
502.8174633685
 20
276.0271496683
 10
502.5093544300999
 20
276.1683396935
 10
502.1189646359999
 20
276.1015867704
 10
502.0622698807
 20
276.0764241906
  0
LWPOLYLINE
  5
209
330
1F
100
AcDbEntity
  8
0
370
    15
100
AcDbPolyline
 90
        6
 70
   128
 43
0.0
 10
500.9123632541
 20
274.0845111435
 10
500.9413950241
 20
273.9054113285
 10
501.1203162985999
 20
273.5777734379
 10
501.4284252369999
 20
273.4365834127999
 10
501.8188148665
 20
273.5033362409
 10
502.2320522038
 20
273.7678689693
  0
ARC
  5
20A
330
1F
100
AcDbEntity
  8
0
370
    15
100
AcDbCircle
 10
490.5728397743
 20
274.3061112759999
 30
0.0
 40
0.9373877010721763
100
AcDbArc
 50
220.453225584
 51
295.4331860896
  0
LINE
  5
20B
330
1F
100
AcDbEntity
  8
0
370
    15
100
AcDbLine
 10
507.0808047805999
 20
283.3608891118
 30
0.0
 11
498.2623211319
 21
278.2700868622
 31
0.0
  0
LINE
  5
20C
330
1F
100
AcDbEntity
  8
0
370
    15
100
AcDbLine
 10
496.4172717979
 20
277.2049625534
 30
0.0
 11
492.6761775833999
 21
275.0452748336
 31
0.0
  0
ARC
  5
20D
330
1F
100
AcDbEntity
  8
0
370
    15
100
AcDbCircle
 10
518.05535454
 20
283.2718075268
 30
0.0
 40
0.5026516812084826
100
AcDbArc
 50
125.6643408062
 51
185.6477489806
  0
ARC
  5
20E
330
1F
100
AcDbEntity
  8
0
370
    15
100
AcDbCircle
 10
518.4783333867
 20
283.2710829452
 30
0.0
 40
0.4991370650673377
100
AcDbArc
 50
354.0328338995
 51
53.72057301359999
  0
LWPOLYLINE
  5
20F
330
1F
100
AcDbEntity
  8
0
370
    15
100
AcDbPolyline
 90
        8
 70
   128
 43
0.0
 10
508.7379016430999
 20
267.3274402097
 10
508.7129052692
 20
267.2881204817
 10
508.6835914775
 20
267.2535095789
 10
508.6515552628999
 20
267.2254875988
 10
508.6185371583
 20
267.2055794877
 10
508.5863336733
 20
267.1948672165
 10
508.5566945606999
 20
267.193933515
 10
508.5314262078999
 20
267.2027143331
  0
ARC
  5
210
330
1F
100
AcDbEntity
  8
0
370
    15
100
AcDbCircle
 10
508.6090917195999
 20
267.343870703
 30
0.0
 40
0.1622938013933202
100
AcDbArc
 50
136.1319265296
 51
213.2402118013
  0
SPLINE
  5
211
330
1F
100
AcDbEntity
  8
0
370
    15
100
AcDbSpline
210
0.0
220
0.0
230
1.0
 70
     8
 71
     3
 72
     9
 73
     5
 74
     0
 42
0.000000001
 43
0.0000000001
 40
0.0
 40
0.0
 40
0.0
 40
0.0
 40
0.6345446300030196
 40
1.0
 40
1.0
 40
1.0
 40
1.0
 10
514.7004946687537
 20
284.6509010350466
 30
0.0
 10
515.1569299101459
 20
284.4133774020609
 30
0.0
 10
515.8762413971725
 20
284.0390560040772
 30
0.0
 10
516.2299264668202
 20
283.1830277974713
 30
0.0
 10
516.3591825748108
 20
282.8701876924983
 30
0.0
  0
ARC
  5
212
330
1F
100
AcDbEntity
  8
0
370
    15
100
AcDbCircle
 10
513.7869510462
 20
263.3668212223
 30
0.0
 40
0.111600909321858
100
AcDbArc
 50
118.730925916
 51
179.7818894351
  0
ARC
  5
213
330
1F
100
AcDbEntity
  8
0
370
    15
100
AcDbCircle
 10
513.8155456773001
 20
263.3231115351
 30
0.0
 40
0.1199155010811514
100
AcDbArc
 50
248.8489635951
 51
316.4513848246
  0
LWPOLYLINE
  5
214
330
1F
100
AcDbEntity
  8
0
370
    15
100
AcDbPolyline
 90
       10
 70
   128
 43
0.0
 10
497.9441019712999
 20
273.2279054066999
 10
497.9476956486999
 20
273.2258558121
 10
498.1239692448999
 20
273.0229759096
 10
498.1858684774
 20
272.6993613918
 10
498.1239692448999
 20
272.3042795415
 10
497.9476956486999
 20
271.8978782867
 10
497.6838833773
 20
271.5420284613
 10
497.3726954141
 20
271.2909046201
 10
497.0615077801
 20
271.1827386767
 10
496.7983375895999
 20
271.2336275016
  0
SPLINE
  5
215
330
1F
100
AcDbEntity
  8
0
370
    15
100
AcDbSpline
210
0.0
220
0.0
230
1.0
 70
     8
 71
     3
 72
    12
 73
     8
 74
     0
 42
0.000000001
 43
0.0000000001
 40
0.0
 40
0.0
 40
0.0
 40
0.0
 40
0.0000063922854683
 40
0.4130159155117533
 40
0.6465316874507599
 40
0.8877715807220068
 40
1.0
 40
1.0
 40
1.0
 40
1.0
 10
492.8360168721502
 20
255.0369709754527
 30
0.0
 10
492.8360028232015
 20
255.0369631186418
 30
0.0
 10
491.9282774970704
 20
254.5293218447718
 30
0.0
 10
490.4917090272355
 20
253.9815437256562
 30
0.0
 10
488.7231811363912
 20
253.9057178623732
 30
0.0
 10
487.5928539452756
 20
254.0319720687561
 30
0.0
 10
487.1010693648864
 20
254.4475318600231
 30
0.0
 10
486.9449246579273
 20
254.5794747155312
 30
0.0
  0
LWPOLYLINE
  5
216
330
1F
100
AcDbEntity
  8
0
370
    15
100
AcDbPolyline
 90
       10
 70
   128
 43
0.0
 10
492.3579581757
 20
275.2289546799
 10
492.3615520178
 20
275.2269053705
 10
492.537825614
 20
275.0240252778
 10
492.5997248465
 20
274.7004105699001
 10
492.537825614
 20
274.3053285295
 10
492.3615520178
 20
273.8989272747
 10
492.0977397464
 20
273.5430778296
 10
491.7865521123999
 20
273.2919540833
 10
491.4753641492
 20
273.183788045
 10
491.2121939587
 20
273.2346762995
  0
LINE
  5
217
330
1F
100
AcDbEntity
  8
0
370
    15
100
AcDbLine
 10
490.5994818436
 20
273.5025977237
 30
0.0
 11
490.1209741845
 21
273.7711507556
 31
0.0
  0
ARC
  5
218
330
1F
100
AcDbEntity
  8
0
370
    15
100
AcDbCircle
 10
489.817866048
 20
273.6374136205
 30
0.0
 40
0.0734645020705605
100
AcDbArc
 50
55.4327634326
 51
84.74317178159999
  0
ARC
  5
219
330
1F
100
AcDbEntity
  8
0
370
    15
100
AcDbCircle
 10
488.9362780383999
 20
271.9885565495
 30
0.0
 40
0.0734654029868629
100
AcDbArc
 50
55.4353600614
 51
84.7449833783
  0
ARC
  5
21A
330
1F
100
AcDbEntity
  8
0
370
    15
100
AcDbCircle
 10
481.003678227
 20
257.4740697894
 30
0.0
 40
0.5025360019954089
100
AcDbArc
 50
114.3481836128
 51
174.3317363133
  0
ARC
  5
21B
330
1F
100
AcDbEntity
  8
0
370
    15
100
AcDbCircle
 10
481.2159469964
 20
257.1079893127
 30
0.0
 40
0.4990610272529886
100
AcDbArc
 50
246.2816519357
 51
305.963380911
  0
LWPOLYLINE
  5
21C
330
1F
100
AcDbEntity
  8
0
370
    15
100
AcDbPolyline
 90
        5
 70
   128
 43
0.0
 10
486.9882423985999
 20
270.5194264541
 10
486.9893079236
 20
270.5216050708
 10
486.9978703192999
 20
270.5282893483
 10
487.0132196746999
 20
270.5320347338
 10
487.0347725193
 20
270.5326983719
  0
ARC
  5
21D
330
1F
100
AcDbEntity
  8
0
370
    15
100
AcDbCircle
 10
487.1910976488999
 20
270.4885316675
 30
0.0
 40
0.1624445872245508
100
AcDbArc
 50
92.14620010899999
 51
164.2233660182
  0
ARC
  5
21E
330
1F
100
AcDbEntity
  8
0
370
    15
100
AcDbCircle
 10
483.7275458666
 20
265.4805325085
 30
0.0
 40
0.1737009104186676
100
AcDbArc
 50
77.2975969048
 51
159.7183799572
  0
LWPOLYLINE
  5
21F
330
1F
100
AcDbEntity
  8
0
370
    15
100
AcDbPolyline
 90
        3
 70
   128
 43
0.0
 10
490.0988293083
 20
273.7906909643
 10
490.1004519619
 20
273.7897508836
 10
490.1209741845
 20
273.7711507556
  0
ARC
  5
220
330
1F
100
AcDbEntity
  8
0
370
    15
100
AcDbCircle
 10
481.003678227
 20
261.5441842944
 30
0.0
 40
0.5025360019953382
100
AcDbArc
 50
114.3481836128
 51
174.3317363133
  0
ARC
  5
221
330
1F
100
AcDbEntity
  8
0
370
    15
100
AcDbCircle
 10
481.2967040225
 20
262.0514902702
 30
0.0
 40
0.5026516812089128
100
AcDbArc
 50
125.6643408063
 51
185.6477489806
  0
LINE
  5
222
330
1F
100
AcDbEntity
  8
0
370
    15
100
AcDbLine
 10
896.2620755802999
 20
62.3277110097
 30
0.0
 11
894.4847541738001
 21
61.3016852013
 31
0.0
  0
LINE
  5
223
330
1F
100
AcDbEntity
  8
0
370
    15
100
AcDbLine
 10
892.9157442246999
 20
36.62428135
 30
0.0
 11
892.7750580444
 21
36.5401662765
 31
0.0
  0
ARC
  5
224
330
1F
100
AcDbEntity
  8
0
370
    15
100
AcDbCircle
 10
903.2717845788999
 20
34.126166387
 30
0.0
 40
0.9299287653816685
100
AcDbArc
 50
41.1631961506
 51
68.07716281090001
  0
ARC
  5
225
330
1F
100
AcDbEntity
  8
0
370
    15
100
AcDbCircle
 10
901.1849831719001
 20
32.3056344043
 30
0.0
 40
0.4822452252765065
100
AcDbArc
 50
232.1648380035
 51
295.8647121364
  0
ARC
  5
226
330
1F
100
AcDbEntity
  8
0
370
    15
100
AcDbCircle
 10
887.0610742642
 20
24.1532038789
 30
0.0
 40
0.483288888550467
100
AcDbArc
 50
232.2395649023
 51
295.7804799536
  0
ARC
  5
227
330
1F
100
AcDbEntity
  8
0
370
    15
100
AcDbCircle
 10
885.3084136873
 20
25.7515374486
 30
0.0
 40
2.458463269381139
100
AcDbArc
 50
244.4991920600001
 51
306.3367491141
  0
LINE
  5
228
330
1F
100
AcDbEntity
  8
0
370
    15
100
AcDbLine
 10
876.8219233642
 20
28.9803645166
 30
0.0
 11
877.5464540317999
 21
28.572260711
 31
0.0
  0
LINE
  5
229
330
1F
100
AcDbEntity
  8
0
370
    15
100
AcDbLine
 10
896.9651633803
 20
60.650954625
 30
0.0
 11
895.9630061530999
 21
61.24544124609999
 31
0.0
  0
LINE
  5
22A
330
1F
100
AcDbEntity
  8
0
370
    15
100
AcDbLine
 10
533.7745267607999
 20
249.3607519191
 30
0.0
 11
895.9755718408001
 21
40.2665392899
 31
0.0
  0
LINE
  5
22B
330
1F
100
AcDbEntity
  8
0
370
    15
100
AcDbLine
 10
898.4023886952
 20
49.8849689706
 30
0.0
 11
536.4215678133
 21
258.8520488763
 31
0.0
  0
LINE
  5
22C
330
1F
100
AcDbEntity
  8
0
370
    15
100
AcDbLine
 10
893.2425719614998
 20
36.8420255761
 30
0.0
 11
531.3174586766
 21
245.7769461706
 31
0.0
  0
LINE
  5
22D
330
1F
100
AcDbEntity
  8
0
370
    15
100
AcDbLine
 10
517.9986706156999
 20
238.0881734831
 30
0.0
 11
879.9451944996
 21
29.1408928129
 31
0.0
  0
LINE
  5
22E
330
1F
100
AcDbEntity
  8
0
370
    15
100
AcDbLine
 10
536.4413122947
 20
259.1711091217
 30
0.0
 11
898.4023979148
 21
50.21542214
 31
0.0
  0
LINE
  5
22F
330
1F
100
AcDbEntity
  8
0
370
    15
100
AcDbLine
 10
898.4023979148
 20
51.3322930756
 30
0.0
 11
536.4680103476
 21
260.2725675994
 31
0.0
  0
LINE
  5
230
330
1F
100
AcDbEntity
  8
0
370
    15
100
AcDbLine
 10
898.4023663046999
 20
55.47420297369999
 30
0.0
 11
536.4251884909999
 21
264.4391797809
 31
0.0
  0
LINE
  5
231
330
1F
100
AcDbEntity
  8
0
370
    15
100
AcDbLine
 10
536.4251884909999
 20
264.5288482521
 30
0.0
 11
898.4023952805999
 21
55.5638547174
 31
0.0
  0
LINE
  5
232
330
1F
100
AcDbEntity
  8
0
370
    15
100
AcDbLine
 10
898.4023676217999
 20
56.6194908602
 30
0.0
 11
536.4251878324999
 21
265.584468808
 31
0.0
  0
LINE
  5
233
330
1F
100
AcDbEntity
  8
0
370
    15
100
AcDbLine
 10
536.4251871738999
 20
266.0087411986
 30
0.0
 11
898.4023781584999
 21
57.043756788
 31
0.0
  0
LINE
  5
234
330
1F
100
AcDbEntity
  8
0
370
    15
100
AcDbLine
 10
898.4023597192001
 20
57.1633440624
 30
0.0
 11
536.4251871738999
 21
266.1283178283
 31
0.0
  0
LINE
  5
235
330
1F
100
AcDbEntity
  8
0
370
    15
100
AcDbLine
 10
898.4023873781
 20
57.88654129979999
 30
0.0
 11
536.4251871738999
 21
266.8515310328
 31
0.0
  0
LINE
  5
236
330
1F
100
AcDbEntity
  8
0
370
    15
100
AcDbLine
 10
536.4251878324999
 20
267.2758041838
 30
0.0
 11
898.4023570849998
 21
58.3108323188
 31
0.0
  0
LINE
  5
237
330
1F
100
AcDbEntity
  8
0
370
    15
100
AcDbLine
 10
898.4023807926
 20
58.4303952624
 30
0.0
 11
536.4251884909999
 21
267.3953804333
 31
0.0
  0
LINE
  5
238
330
1F
100
AcDbEntity
  8
0
370
    15
100
AcDbLine
 10
898.402378817
 20
58.48442939069999
 30
0.0
 11
536.4251878324999
 21
267.4494138013
 31
0.0
  0
LINE
  5
239
330
1F
100
AcDbEntity
  8
0
370
    15
100
AcDbLine
 10
536.4251878324999
 20
267.8736858116
 30
0.0
 11
898.0953080739999
 21
59.08596956770001
 31
0.0
  0
LINE
  5
23A
330
1F
100
AcDbEntity
  8
0
370
    15
100
AcDbLine
 10
897.9472270974
 20
59.2910307652
 30
0.0
 11
536.4251871738999
 21
267.9932620611999
 31
0.0
  0
INSERT
  5
23E
330
1F
100
AcDbEntity
  8
0
  6
Continuous
 62
     7
100
AcDbBlockReference
  2
SW_BROKEN_VIEW_0
 10
0.0
 20
0.0
 30
0.0
  0
INSERT
  5
369
330
1F
100
AcDbEntity
  8
0
  6
Continuous
 62
     7
100
AcDbBlockReference
  2
SW_BROKEN_VIEW_1
 10
0.0
 20
0.0
 30
0.0
  0
ENDSEC
  0
SECTION
  2
OBJECTS
  0
DICTIONARY
  5
C
330
0
100
AcDbDictionary
281
     1
  3
ACAD_CIP_PREVIOUS_PRODUCT_INFO
350
6BD
  3
ACAD_COLOR
350
6B1
  3
ACAD_DETAILVIEWSTYLE
350
6B8
  3
ACAD_GROUP
350
D
  3
ACAD_LAYOUT
350
1A
  3
ACAD_MATERIAL
350
67F
  3
ACAD_MLEADERSTYLE
350
6B4
  3
ACAD_MLINESTYLE
350
17
  3
ACAD_PLOTSETTINGS
350
19
  3
ACAD_PLOTSTYLENAME
350
E
  3
ACAD_SCALELIST
350
47
  3
ACAD_SECTIONVIEWSTYLE
350
6B6
  3
ACAD_TABLESTYLE
350
6B2
  3
ACAD_VISUALSTYLE
350
698
  3
ACDB_RECOMPOSE_DATA
350
6DD
  3
AcDbVariableDictionary
350
6D1
  3
DWGPROPS
350
6DE
  0
DICTIONARY
  5
6BE
330
10
100
AcDbDictionary
280
     1
281
     1
  3
ADSK_XREC_LAYER_RECONCILED
360
6BF
  0
DICTIONARY
  5
6C0
330
6F
100
AcDbDictionary
280
     1
281
     1
  3
ADSK_XREC_LAYER_RECONCILED
360
6C1
  0
DICTIONARY
  5
6C2
330
70
100
AcDbDictionary
280
     1
281
     1
  3
ADSK_XREC_LAYER_RECONCILED
360
6C3
  0
DICTIONARY
  5
6C4
330
71
100
AcDbDictionary
280
     1
281
     1
  3
ADSK_XREC_LAYER_RECONCILED
360
6C5
  0
XRECORD
  5
6BD
102
{ACAD_REACTORS
330
C
102
}
330
C
100
AcDbXrecord
280
     1
300
ACDLT
300
2013
300
ACDLT_F_S
  0
DICTIONARY
  5
6B1
102
{ACAD_REACTORS
330
C
102
}
330
C
100
AcDbDictionary
281
     1
  0
DICTIONARY
  5
6B8
102
{ACAD_REACTORS
330
C
102
}
330
C
100
AcDbDictionary
281
     1
  3
Metric50
350
6B9
  0
DICTIONARY
  5
D
102
{ACAD_REACTORS
330
C
102
}
330
C
100
AcDbDictionary
281
     1
  0
DICTIONARY
  5
1A
102
{ACAD_REACTORS
330
C
102
}
330
C
100
AcDbDictionary
281
     1
  3
Layout1
350
1E
  3
Layout2
350
26
  3
Model
350
22
  0
DICTIONARY
  5
67F
102
{ACAD_REACTORS
330
C
102
}
330
C
100
AcDbDictionary
281
     1
  3
ByBlock
350
688
  3
ByLayer
350
680
  3
Global
350
690
  0
DICTIONARY
  5
6B4
102
{ACAD_REACTORS
330
C
102
}
330
C
100
AcDbDictionary
281
     1
  3
Standard
350
6B5
  0
DICTIONARY
  5
17
102
{ACAD_REACTORS
330
C
102
}
330
C
100
AcDbDictionary
281
     1
  3
Standard
350
18
  0
DICTIONARY
  5
19
102
{ACAD_REACTORS
330
C
102
}
330
C
100
AcDbDictionary
281
     1
  0
ACDBDICTIONARYWDFLT
  5
E
102
{ACAD_REACTORS
330
C
102
}
330
C
100
AcDbDictionary
281
     1
  3
Normal
350
F
100
AcDbDictionaryWithDefault
340
F
  0
DICTIONARY
  5
47
102
{ACAD_REACTORS
330
C
102
}
330
C
100
AcDbDictionary
281
     1
  3
A0
350
48
  3
A1
350
49
  3
A2
350
4A
  3
A3
350
4B
  3
A4
350
4C
  3
A5
350
4D
  3
A6
350
4E
  3
A7
350
4F
  3
A8
350
50
  3
A9
350
51
  3
B0
350
52
  3
B1
350
53
  3
B2
350
54
  3
B3
350
55
  3
B4
350
56
  3
B5
350
57
  3
B6
350
58
  3
B7
350
59
  3
B8
350
5A
  3
B9
350
5B
  3
C0
350
5C
  3
C1
350
5D
  3
C2
350
5E
  3
C3
350
5F
  3
C4
350
60
  3
C5
350
61
  3
C6
350
62
  3
C7
350
63
  3
C8
350
64
  3
C9
350
65
  3
D0
350
66
  3
D1
350
67
  3
D2
350
68
  0
DICTIONARY
  5
6B6
102
{ACAD_REACTORS
330
C
102
}
330
C
100
AcDbDictionary
281
     1
  3
Metric50
350
6B7
  0
DICTIONARY
  5
6B2
102
{ACAD_REACTORS
330
C
102
}
330
C
100
AcDbDictionary
281
     1
  3
Standard
350
6B3
  0
DICTIONARY
  5
698
102
{ACAD_REACTORS
330
C
102
}
330
C
100
AcDbDictionary
281
     1
  3
2dWireframe
350
69E
  3
Basic
350
69D
  3
Brighten
350
6A4
  3
ColorChange
350
6A8
  3
Conceptual
350
6A1
  3
Dim
350
6A3
  3
EdgeColorOff
350
6B0
  3
Facepattern
350
6A7
  3
Flat
350
699
  3
FlatWithEdges
350
69A
  3
Gouraud
350
69B
  3
GouraudWithEdges
350
69C
  3
Hidden
350
6A0
  3
JitterOff
350
6AE
  3
Linepattern
350
6A6
  3
OverhangOff
350
6AF
  3
Realistic
350
6A2
  3
Shaded
350
6AD
  3
Shaded with edges
350
6AC
  3
Shades of Gray
350
6A9
  3
Sketchy
350
6AA
  3
Thicken
350
6A5
  3
Wireframe
350
69F
  3
X-Ray
350
6AB
  0
XRECORD
  5
6DD
102
{ACAD_REACTORS
330
C
102
}
330
C
100
AcDbXrecord
280
     1
 90
        1
330
6B3
  0
DICTIONARY
  5
6D1
102
{ACAD_REACTORS
330
C
102
}
330
C
100
AcDbDictionary
281
     1
  3
CANNOSCALE
350
6D6
  3
CMLEADERSTYLE
350
6D3
  3
CTABLESTYLE
350
6D2
  3
CVIEWDETAILSTYLE
350
6D4
  3
CVIEWSECTIONSTYLE
350
6D5
  3
DIMASSOC
350
6D9
  3
INDEXCTL
350
6D8
  3
SORTENTS
350
6D7
  3
XCLIPFRAME
350
6DA
  0
XRECORD
  5
6DE
102
{ACAD_REACTORS
330
C
102
}
330
C
100
AcDbXrecord
280
     1
  1
DWGPROPS COOKIE
  2

  3

  4

  6

  7

  8
j00675
  9

300
=
301
=
302
=
303
=
304
=
305
=
306
=
307
=
308
=
309
=
 40
0.0008575578703704
 41
2457214.39461669
 42
2457214.418313622
  1

 90
        0
  0
XRECORD
  5
6BF
102
{ACAD_REACTORS
330
6BE
102
}
330
6BE
100
AcDbXrecord
280
     1
290
     1
  0
XRECORD
  5
6C1
102
{ACAD_REACTORS
330
6C0
102
}
330
6C0
100
AcDbXrecord
280
     1
290
     1
  0
XRECORD
  5
6C3
102
{ACAD_REACTORS
330
6C2
102
}
330
6C2
100
AcDbXrecord
280
     1
290
     1
  0
XRECORD
  5
6C5
102
{ACAD_REACTORS
330
6C4
102
}
330
6C4
100
AcDbXrecord
280
     1
290
     1
  0
ACDBDETAILVIEWSTYLE
  5
6B9
102
{ACAD_REACTORS
330
6B8
102
}
330
6B8
100
AcDbModelDocViewStyle
 70
     0
  3
Metric50
290
     0
100
AcDbDetailViewStyle
 70
     0
 71
     0
 90
        3
 71
     1
340
11
 40
5.0
340
0
 40
5.0
300

 40
0.0
280
     1
 71
     2
340
16
 90
       25
 71
     3
340
11
 40
5.0
 90
        0
 40
15.0
 90
        1
300
%<\AcVar ViewDetailId>% (%<\AcVar ViewScale \f "%sn">%)
 71
     4
340
16
 90
       25
340
16
 90
       25
280
     0
  0
LAYOUT
  5
1E
102
{ACAD_XDICTIONARY
360
6DF
102
}
102
{ACAD_REACTORS
330
1A
102
}
330
1A
100
AcDbPlotSettings
  1

  2
none_device
  4

  6

 40
0.0
 41
0.0
 42
0.0
 43
0.0
 44
0.0
 45
0.0
 46
0.0
 47
0.0
 48
0.0
 49
0.0
140
0.0
141
0.0
142
1.0
143
1.0
 70
   688
 72
     1
 73
     0
 74
     5
  7

 75
    16
147
1.0
148
0.0
149
0.0
100
AcDbLayout
  1
Layout1
 70
     1
 71
     1
 10
0.0
 20
0.0
 11
420.0
 21
297.0
 12
0.0
 22
0.0
 32
0.0
 14
1.000000000000000E+20
 24
1.000000000000000E+20
 34
1.000000000000000E+20
 15
-1.000000000000000E+20
 25
-1.000000000000000E+20
 35
-1.000000000000000E+20
146
0.0
 13
0.0
 23
0.0
 33
0.0
 16
1.0
 26
0.0
 36
0.0
 17
0.0
 27
1.0
 37
0.0
 76
     0
330
1B
  0
LAYOUT
  5
26
102
{ACAD_XDICTIONARY
360
6E3
102
}
102
{ACAD_REACTORS
330
1A
102
}
330
1A
100
AcDbPlotSettings
  1

  2
none_device
  4

  6

 40
0.0
 41
0.0
 42
0.0
 43
0.0
 44
0.0
 45
0.0
 46
0.0
 47
0.0
 48
0.0
 49
0.0
140
0.0
141
0.0
142
1.0
143
1.0
 70
   688
 72
     1
 73
     0
 74
     5
  7

 75
    16
147
1.0
148
0.0
149
0.0
100
AcDbLayout
  1
Layout2
 70
     1
 71
     2
 10
0.0
 20
0.0
 11
0.0
 21
0.0
 12
0.0
 22
0.0
 32
0.0
 14
0.0
 24
0.0
 34
0.0
 15
0.0
 25
0.0
 35
0.0
146
0.0
 13
0.0
 23
0.0
 33
0.0
 16
1.0
 26
0.0
 36
0.0
 17
0.0
 27
1.0
 37
0.0
 76
     0
330
23
  0
LAYOUT
  5
22
102
{ACAD_XDICTIONARY
360
6E1
102
}
102
{ACAD_REACTORS
330
1A
102
}
330
1A
100
AcDbPlotSettings
  1

  2
none_device
  4
Letter_(8.50_x_11.00_Inches)
  6

 40
6.349999999999999
 41
6.349999999999999
 42
6.350005079999999
 43
6.350005079999999
 44
215.9
 45
279.4
 46
0.0
 47
0.0
 48
0.0
 49
0.0
140
0.0
141
0.0
142
1.0
143
1.0
 70
  1712
 72
     1
 73
     0
 74
     0
  7

 75
     0
147
1.0
148
0.0
149
0.0
100
AcDbLayout
  1
Model
 70
     1
 71
     0
 10
0.0
 20
0.0
 11
420.0
 21
297.0
 12
0.0
 22
0.0
 32
0.0
 14
0.0
 24
0.0
 34
0.0
 15
420.0
 25
297.0
 35
0.0
146
0.0
 13
0.0
 23
0.0
 33
0.0
 16
1.0
 26
0.0
 36
0.0
 17
0.0
 27
1.0
 37
0.0
 76
     0
330
1F
331
29
  0
MATERIAL
  5
688
102
{ACAD_XDICTIONARY
360
689
102
}
102
{ACAD_REACTORS
330
67F
102
}
330
67F
100
AcDbMaterial
  1
ByBlock
 72
     0
 43
0.0008202099737533
 43
0.0
 43
0.0
 43
0.0
 43
0.0
 43
0.0008202099737533
 43
0.0
 43
0.0
 43
0.0
 43
0.0
 43
1.0
 43
0.0
 43
0.0
 43
0.0
 43
0.0
 43
1.0
 77
     0
 47
0.0008202099737533
 47
0.0
 47
0.0
 47
0.0
 47
0.0
 47
0.0008202099737533
 47
0.0
 47
0.0
 47
0.0
 47
0.0
 47
1.0
 47
0.0
 47
0.0
 47
0.0
 47
0.0
 47
1.0
171
     0
 49
0.0008202099737533
 49
0.0
 49
0.0
 49
0.0
 49
0.0
 49
0.0008202099737533
 49
0.0
 49
0.0
 49
0.0
 49
0.0
 49
1.0
 49
0.0
 49
0.0
 49
0.0
 49
0.0
 49
1.0
175
     0
142
0.0008202099737533
142
0.0
142
0.0
142
0.0
142
0.0
142
0.0008202099737533
142
0.0
142
0.0
142
0.0
142
0.0
142
1.0
142
0.0
142
0.0
142
0.0
142
0.0
142
1.0
179
     0
144
0.0008202099737533
144
0.0
144
0.0
144
0.0
144
0.0
144
0.0008202099737533
144
0.0
144
0.0
144
0.0
144
0.0
144
1.0
144
0.0
144
0.0
144
0.0
144
0.0
144
1.0
147
0.0008202099737533
147
0.0
147
0.0
147
0.0
147
0.0
147
0.0008202099737533
147
0.0
147
0.0
147
0.0
147
0.0
147
1.0
147
0.0
147
0.0
147
0.0
147
0.0
147
1.0
  0
MATERIAL
  5
680
102
{ACAD_XDICTIONARY
360
681
102
}
102
{ACAD_REACTORS
330
67F
102
}
330
67F
100
AcDbMaterial
  1
ByLayer
 72
     0
 43
0.0008202099737533
 43
0.0
 43
0.0
 43
0.0
 43
0.0
 43
0.0008202099737533
 43
0.0
 43
0.0
 43
0.0
 43
0.0
 43
1.0
 43
0.0
 43
0.0
 43
0.0
 43
0.0
 43
1.0
 77
     0
 47
0.0008202099737533
 47
0.0
 47
0.0
 47
0.0
 47
0.0
 47
0.0008202099737533
 47
0.0
 47
0.0
 47
0.0
 47
0.0
 47
1.0
 47
0.0
 47
0.0
 47
0.0
 47
0.0
 47
1.0
171
     0
 49
0.0008202099737533
 49
0.0
 49
0.0
 49
0.0
 49
0.0
 49
0.0008202099737533
 49
0.0
 49
0.0
 49
0.0
 49
0.0
 49
1.0
 49
0.0
 49
0.0
 49
0.0
 49
0.0
 49
1.0
175
     0
142
0.0008202099737533
142
0.0
142
0.0
142
0.0
142
0.0
142
0.0008202099737533
142
0.0
142
0.0
142
0.0
142
0.0
142
1.0
142
0.0
142
0.0
142
0.0
142
0.0
142
1.0
179
     0
144
0.0008202099737533
144
0.0
144
0.0
144
0.0
144
0.0
144
0.0008202099737533
144
0.0
144
0.0
144
0.0
144
0.0
144
1.0
144
0.0
144
0.0
144
0.0
144
0.0
144
1.0
147
0.0008202099737533
147
0.0
147
0.0
147
0.0
147
0.0
147
0.0008202099737533
147
0.0
147
0.0
147
0.0
147
0.0
147
1.0
147
0.0
147
0.0
147
0.0
147
0.0
147
1.0
  0
MATERIAL
  5
690
102
{ACAD_XDICTIONARY
360
691
102
}
102
{ACAD_REACTORS
330
67F
102
}
330
67F
100
AcDbMaterial
  1
Global
 72
     0
 43
0.0008202099737533
 43
0.0
 43
0.0
 43
0.0
 43
0.0
 43
0.0008202099737533
 43
0.0
 43
0.0
 43
0.0
 43
0.0
 43
1.0
 43
0.0
 43
0.0
 43
0.0
 43
0.0
 43
1.0
 77
     0
 47
0.0008202099737533
 47
0.0
 47
0.0
 47
0.0
 47
0.0
 47
0.0008202099737533
 47
0.0
 47
0.0
 47
0.0
 47
0.0
 47
1.0
 47
0.0
 47
0.0
 47
0.0
 47
0.0
 47
1.0
171
     0
 49
0.0008202099737533
 49
0.0
 49
0.0
 49
0.0
 49
0.0
 49
0.0008202099737533
 49
0.0
 49
0.0
 49
0.0
 49
0.0
 49
1.0
 49
0.0
 49
0.0
 49
0.0
 49
0.0
 49
1.0
175
     0
142
0.0008202099737533
142
0.0
142
0.0
142
0.0
142
0.0
142
0.0008202099737533
142
0.0
142
0.0
142
0.0
142
0.0
142
1.0
142
0.0
142
0.0
142
0.0
142
0.0
142
1.0
179
     0
144
0.0008202099737533
144
0.0
144
0.0
144
0.0
144
0.0
144
0.0008202099737533
144
0.0
144
0.0
144
0.0
144
0.0
144
1.0
144
0.0
144
0.0
144
0.0
144
0.0
144
1.0
147
0.0008202099737533
147
0.0
147
0.0
147
0.0
147
0.0
147
0.0008202099737533
147
0.0
147
0.0
147
0.0
147
0.0
147
1.0
147
0.0
147
0.0
147
0.0
147
0.0
147
1.0
  0
MLEADERSTYLE
  5
6B5
102
{ACAD_REACTORS
330
6B4
102
}
330
6B4
100
AcDbMLeaderStyle
170
     2
171
     1
172
     0
 90
        2
 40
0.0
 41
0.0
173
     1
 91
-1056964608
340
14
 92
       -2
290
     1
 42
2.0
291
     1
 43
0.36
  3
Standard
 44
4.0
300

342
11
174
     1
178
     6
175
     1
176
     0
 93
-1056964608
 45
4.0
292
     0
297
     0
 46
4.0
 94
-1056964608
 47
1.0
 49
1.0
140
1.0
293
     1
141
0.0
294
     1
177
     0
142
1.0
295
     0
296
     0
143
0.125
1001
ACAD_MLEADERVER
1070
     2
  0
MLINESTYLE
  5
18
102
{ACAD_REACTORS
330
17
102
}
330
17
100
AcDbMlineStyle
  2
STANDARD
 70
     0
  3

 62
   256
 51
90.0
 52
90.0
 71
     2
 49
0.5
 62
   256
  6
BYLAYER
 49
-0.5
 62
   256
  6
BYLAYER
  0
ACDBPLACEHOLDER
  5
F
102
{ACAD_REACTORS
330
E
102
}
330
E
  0
SCALE
  5
48
102
{ACAD_REACTORS
330
47
102
}
330
47
100
AcDbScale
 70
     0
300
1:1
140
1.0
141
1.0
290
     1
  0
SCALE
  5
49
102
{ACAD_REACTORS
330
47
102
}
330
47
100
AcDbScale
 70
     0
300
1:2
140
1.0
141
2.0
290
     0
  0
SCALE
  5
4A
102
{ACAD_REACTORS
330
47
102
}
330
47
100
AcDbScale
 70
     0
300
1:4
140
1.0
141
4.0
290
     0
  0
SCALE
  5
4B
102
{ACAD_REACTORS
330
47
102
}
330
47
100
AcDbScale
 70
     0
300
1:5
140
1.0
141
5.0
290
     0
  0
SCALE
  5
4C
102
{ACAD_REACTORS
330
47
102
}
330
47
100
AcDbScale
 70
     0
300
1:8
140
1.0
141
8.0
290
     0
  0
SCALE
  5
4D
102
{ACAD_REACTORS
330
47
102
}
330
47
100
AcDbScale
 70
     0
300
1:10
140
1.0
141
10.0
290
     0
  0
SCALE
  5
4E
102
{ACAD_REACTORS
330
47
102
}
330
47
100
AcDbScale
 70
     0
300
1:16
140
1.0
141
16.0
290
     0
  0
SCALE
  5
4F
102
{ACAD_REACTORS
330
47
102
}
330
47
100
AcDbScale
 70
     0
300
1:20
140
1.0
141
20.0
290
     0
  0
SCALE
  5
50
102
{ACAD_REACTORS
330
47
102
}
330
47
100
AcDbScale
 70
     0
300
1:30
140
1.0
141
30.0
290
     0
  0
SCALE
  5
51
102
{ACAD_REACTORS
330
47
102
}
330
47
100
AcDbScale
 70
     0
300
1:40
140
1.0
141
40.0
290
     0
  0
SCALE
  5
52
102
{ACAD_REACTORS
330
47
102
}
330
47
100
AcDbScale
 70
     0
300
1:50
140
1.0
141
50.0
290
     0
  0
SCALE
  5
53
102
{ACAD_REACTORS
330
47
102
}
330
47
100
AcDbScale
 70
     0
300
1:100
140
1.0
141
100.0
290
     0
  0
SCALE
  5
54
102
{ACAD_REACTORS
330
47
102
}
330
47
100
AcDbScale
 70
     0
300
2:1
140
2.0
141
1.0
290
     0
  0
SCALE
  5
55
102
{ACAD_REACTORS
330
47
102
}
330
47
100
AcDbScale
 70
     0
300
4:1
140
4.0
141
1.0
290
     0
  0
SCALE
  5
56
102
{ACAD_REACTORS
330
47
102
}
330
47
100
AcDbScale
 70
     0
300
8:1
140
8.0
141
1.0
290
     0
  0
SCALE
  5
57
102
{ACAD_REACTORS
330
47
102
}
330
47
100
AcDbScale
 70
     0
300
10:1
140
10.0
141
1.0
290
     0
  0
SCALE
  5
58
102
{ACAD_REACTORS
330
47
102
}
330
47
100
AcDbScale
 70
     0
300
100:1
140
100.0
141
1.0
290
     0
  0
SCALE
  5
59
102
{ACAD_REACTORS
330
47
102
}
330
47
100
AcDbScale
 70
     0
300
1/128" = 1'-0"
140
0.0078125
141
12.0
290
     0
  0
SCALE
  5
5A
102
{ACAD_REACTORS
330
47
102
}
330
47
100
AcDbScale
 70
     0
300
1/64" = 1'-0"
140
0.015625
141
12.0
290
     0
  0
SCALE
  5
5B
102
{ACAD_REACTORS
330
47
102
}
330
47
100
AcDbScale
 70
     0
300
1/32" = 1'-0"
140
0.03125
141
12.0
290
     0
  0
SCALE
  5
5C
102
{ACAD_REACTORS
330
47
102
}
330
47
100
AcDbScale
 70
     0
300
1/16" = 1'-0"
140
0.0625
141
12.0
290
     0
  0
SCALE
  5
5D
102
{ACAD_REACTORS
330
47
102
}
330
47
100
AcDbScale
 70
     0
300
3/32" = 1'-0"
140
0.09375
141
12.0
290
     0
  0
SCALE
  5
5E
102
{ACAD_REACTORS
330
47
102
}
330
47
100
AcDbScale
 70
     0
300
1/8" = 1'-0"
140
0.125
141
12.0
290
     0
  0
SCALE
  5
5F
102
{ACAD_REACTORS
330
47
102
}
330
47
100
AcDbScale
 70
     0
300
3/16" = 1'-0"
140
0.1875
141
12.0
290
     0
  0
SCALE
  5
60
102
{ACAD_REACTORS
330
47
102
}
330
47
100
AcDbScale
 70
     0
300
1/4" = 1'-0"
140
0.25
141
12.0
290
     0
  0
SCALE
  5
61
102
{ACAD_REACTORS
330
47
102
}
330
47
100
AcDbScale
 70
     0
300
3/8" = 1'-0"
140
0.375
141
12.0
290
     0
  0
SCALE
  5
62
102
{ACAD_REACTORS
330
47
102
}
330
47
100
AcDbScale
 70
     0
300
1/2" = 1'-0"
140
0.5
141
12.0
290
     0
  0
SCALE
  5
63
102
{ACAD_REACTORS
330
47
102
}
330
47
100
AcDbScale
 70
     0
300
3/4" = 1'-0"
140
0.75
141
12.0
290
     0
  0
SCALE
  5
64
102
{ACAD_REACTORS
330
47
102
}
330
47
100
AcDbScale
 70
     0
300
1" = 1'-0"
140
1.0
141
12.0
290
     0
  0
SCALE
  5
65
102
{ACAD_REACTORS
330
47
102
}
330
47
100
AcDbScale
 70
     0
300
1-1/2" = 1'-0"
140
1.5
141
12.0
290
     0
  0
SCALE
  5
66
102
{ACAD_REACTORS
330
47
102
}
330
47
100
AcDbScale
 70
     0
300
3" = 1'-0"
140
3.0
141
12.0
290
     0
  0
SCALE
  5
67
102
{ACAD_REACTORS
330
47
102
}
330
47
100
AcDbScale
 70
     0
300
6" = 1'-0"
140
6.0
141
12.0
290
     0
  0
SCALE
  5
68
102
{ACAD_REACTORS
330
47
102
}
330
47
100
AcDbScale
 70
     0
300
1'-0" = 1'-0"
140
12.0
141
12.0
290
     0
  0
ACDBSECTIONVIEWSTYLE
  5
6B7
102
{ACAD_REACTORS
330
6B6
102
}
330
6B6
100
AcDbModelDocViewStyle
 70
     0
  3
Metric50
290
     0
100
AcDbSectionViewStyle
 70
     0
 71
     0
 90
      102
 71
     1
340
11
 40
5.0
340
0
340
0
 40
5.0
300
I, O, Q, S, X, Z
 40
10.0
 90
        0
 40
2.5
 90
        0
 71
     2
340
16
 90
       25
340
16
 90
       50
 40
5.0
 40
2.5
 40
5.0
 71
     3
340
11
 40
5.0
 90
        0
 40
15.0
 90
        1
300
%<\AcVar ViewSectionStartId>%-%<\AcVar ViewSectionEndId>% (%<\AcVar ViewScale \f "%sn">%)
 71
     4
300
ANSI31
 40
1.0
 90
        0
290
     0
290
     0
 90
        6
 40
0.0
 40
1.570796326794896
 40
0.2617993877991494
 40
1.308996938995747
 40
-0.2617993877991494
 40
1.832595714594046
  0
TABLESTYLE
  5
6B3
102
{ACAD_XDICTIONARY
360
6DB
102
}
102
{ACAD_REACTORS
330
6B2
102
}
330
6B2
100
AcDbTableStyle
  3
Standard
 70
     0
 71
     0
 40
1.5
 41
1.5
280
     0
281
     0
  7
Standard
140
4.5
170
     2
 62
     0
 63
     7
283
     0
274
    -2
284
     1
 64
     0
275
    -2
285
     1
 65
     0
276
    -2
286
     1
 66
     0
277
    -2
287
     1
 67
     0
278
    -2
288
     1
 68
     0
279
    -2
289
     1
 69
     0
  7
Standard
140
6.0
170
     5
 62
     0
 63
     7
283
     0
274
    -2
284
     1
 64
     0
275
    -2
285
     1
 65
     0
276
    -2
286
     1
 66
     0
277
    -2
287
     1
 67
     0
278
    -2
288
     1
 68
     0
279
    -2
289
     1
 69
     0
  7
Standard
140
4.5
170
     5
 62
     0
 63
     7
283
     0
274
    -2
284
     1
 64
     0
275
    -2
285
     1
 65
     0
276
    -2
286
     1
 66
     0
277
    -2
287
     1
 67
     0
278
    -2
288
     1
 68
     0
279
    -2
289
     1
 69
     0
  0
VISUALSTYLE
  5
69E
102
{ACAD_XDICTIONARY
360
6F2
102
}
102
{ACAD_REACTORS
330
698
102
}
330
698
100
AcDbVisualStyle
  2
2dWireframe
 70
     4
 71
     0
 72
     2
 73
     0
 90
        0
 40
-0.6
 41
-30.0
 62
     5
 63
     7
 74
     1
 91
        4
 64
     7
 65
   257
 75
     1
175
     1
 42
1.0
 92
        0
 66
   257
 43
1.0
 76
     1
 77
     6
 78
     2
 67
     7
 79
     5
170
     0
171
     0
290
     0
174
     0
 93
        1
 44
0.0
173
     0
291
     0
 45
0.0
1001
ACAD
1000
AcDbSavedByObjectVersion
1070
     0
  0
VISUALSTYLE
  5
69D
102
{ACAD_XDICTIONARY
360
6F0
102
}
102
{ACAD_REACTORS
330
698
102
}
330
698
100
AcDbVisualStyle
  2
Basic
 70
     7
 71
     1
 72
     0
 73
     1
 90
        0
 40
-0.6
 41
-30.0
 62
     5
 63
     7
 74
     0
 91
        4
 64
     7
 65
   257
 75
     1
175
     1
 42
1.0
 92
        8
 66
     7
 43
1.0
 76
     1
 77
     6
 78
     2
 67
     7
 79
     5
170
     0
171
     0
290
     0
174
     0
 93
        1
 44
0.0
173
     0
291
     1
 45
0.0
1001
ACAD
1000
AcDbSavedByObjectVersion
1070
     0
  0
VISUALSTYLE
  5
6A4
102
{ACAD_XDICTIONARY
360
6FE
102
}
102
{ACAD_REACTORS
330
698
102
}
330
698
100
AcDbVisualStyle
  2
Brighten
 70
    12
 71
     2
 72
     2
 73
     0
 90
        0
 40
-0.6
 41
-30.0
 62
     5
 63
     7
 74
     1
 91
        4
 64
     7
 65
   257
 75
     1
175
     1
 42
1.0
 92
        8
 66
     7
 43
1.0
 76
     1
 77
     6
 78
     2
 67
     7
 79
     5
170
     0
171
     0
290
     0
174
     0
 93
        1
 44
50.0
173
     0
291
     1
 45
0.0
1001
ACAD
1000
AcDbSavedByObjectVersion
1070
     0
  0
VISUALSTYLE
  5
6A8
102
{ACAD_XDICTIONARY
360
706
102
}
102
{ACAD_REACTORS
330
698
102
}
330
698
100
AcDbVisualStyle
  2
ColorChange
 70
    16
 71
     2
 72
     2
 73
     3
 90
        0
 40
-0.6
 41
-30.0
 62
     5
 63
     8
 74
     1
 91
        4
 64
     7
 65
   257
 75
     1
175
     1
 42
1.0
 92
        8
 66
     8
 43
1.0
 76
     1
 77
     6
 78
     2
 67
     7
 79
     5
170
     0
171
     0
290
     0
174
     0
 93
        1
 44
0.0
173
     0
291
     1
 45
0.0
1001
ACAD
1000
AcDbSavedByObjectVersion
1070
     0
  0
VISUALSTYLE
  5
6A1
102
{ACAD_XDICTIONARY
360
6F8
102
}
102
{ACAD_REACTORS
330
698
102
}
330
698
100
AcDbVisualStyle
  2
Conceptual
 70
     9
 71
     3
 72
     2
 73
     0
 90
        0
 40
-0.6
 41
-30.0
 62
     5
 63
     7
 74
     2
 91
        2
 64
     7
 65
   257
 75
     1
175
     1
 42
179.0
 92
        8
 66
     7
 43
1.0
 76
     1
 77
     6
 78
     2
 67
     7
 79
     3
170
     0
171
     0
290
     0
174
     0
 93
        1
 44
0.0
173
     0
291
     0
 45
0.0
1001
ACAD
1000
AcDbSavedByObjectVersion
1070
     0
  0
VISUALSTYLE
  5
6A3
102
{ACAD_XDICTIONARY
360
6FC
102
}
102
{ACAD_REACTORS
330
698
102
}
330
698
100
AcDbVisualStyle
  2
Dim
 70
    11
 71
     2
 72
     2
 73
     0
 90
        0
 40
-0.6
 41
-30.0
 62
     5
 63
     7
 74
     1
 91
        4
 64
     7
 65
   257
 75
     1
175
     1
 42
1.0
 92
        8
 66
     7
 43
1.0
 76
     1
 77
     6
 78
     2
 67
     7
 79
     5
170
     0
171
     0
290
     0
174
     0
 93
        1
 44
-50.0
173
     0
291
     1
 45
0.0
1001
ACAD
1000
AcDbSavedByObjectVersion
1070
     0
  0
VISUALSTYLE
  5
6B0
102
{ACAD_XDICTIONARY
360
716
102
}
102
{ACAD_REACTORS
330
698
102
}
330
698
100
AcDbVisualStyle
  2
EdgeColorOff
 70
    22
 71
     2
 72
     2
 73
     0
 90
        0
 40
-0.6
 41
-30.0
 62
     5
 63
     7
 74
     1
 91
        4
 64
     7
 65
   257
 75
     1
175
     1
 42
1.0
 92
        8
 66
     7
 43
1.0
 76
     1
 77
     6
 78
     2
 67
     7
 79
     5
170
     0
171
     0
290
     0
174
     0
 93
        1
 44
0.0
173
     0
291
     1
 45
0.0
1001
ACAD
1000
AcDbSavedByObjectVersion
1070
     0
  0
VISUALSTYLE
  5
6A7
102
{ACAD_XDICTIONARY
360
704
102
}
102
{ACAD_REACTORS
330
698
102
}
330
698
100
AcDbVisualStyle
  2
Facepattern
 70
    15
 71
     2
 72
     2
 73
     0
 90
        0
 40
-0.6
 41
-30.0
 62
     5
 63
     7
 74
     1
 91
        4
 64
     7
 65
   257
 75
     1
175
     1
 42
1.0
 92
        8
 66
     7
 43
1.0
 76
     1
 77
     6
 78
     2
 67
     7
 79
     5
170
     0
171
     0
290
     0
174
     0
 93
        1
 44
0.0
173
     0
291
     1
 45
0.0
1001
ACAD
1000
AcDbSavedByObjectVersion
1070
     0
  0
VISUALSTYLE
  5
699
102
{ACAD_XDICTIONARY
360
6E8
102
}
102
{ACAD_REACTORS
330
698
102
}
330
698
100
AcDbVisualStyle
  2
Flat
 70
     0
 71
     2
 72
     1
 73
     1
 90
        2
 40
-0.6
 41
30.0
 62
     5
 63
     7
 74
     0
 91
        0
 64
     7
 65
   257
 75
     1
175
     1
 42
1.0
 92
        8
 66
     7
 43
1.0
 76
     1
 77
     6
 78
     2
 67
     7
 79
     5
170
     0
171
     0
290
     0
174
     0
 93
       13
 44
0.0
173
     0
291
     1
 45
0.0
1001
ACAD
1000
AcDbSavedByObjectVersion
1070
     0
  0
VISUALSTYLE
  5
69A
102
{ACAD_XDICTIONARY
360
6EA
102
}
102
{ACAD_REACTORS
330
698
102
}
330
698
100
AcDbVisualStyle
  2
FlatWithEdges
 70
     1
 71
     2
 72
     1
 73
     1
 90
        2
 40
-0.6
 41
30.0
 62
     5
 63
     7
 74
     1
 91
        0
 64
     7
 65
   257
 75
     1
175
     1
 42
1.0
 92
        0
 66
   257
 43
1.0
 76
     1
 77
     6
 78
     2
 67
     7
 79
     5
170
     0
171
     0
290
     0
174
     0
 93
       13
 44
0.0
173
     0
291
     1
 45
0.0
1001
ACAD
1000
AcDbSavedByObjectVersion
1070
     0
  0
VISUALSTYLE
  5
69B
102
{ACAD_XDICTIONARY
360
6EC
102
}
102
{ACAD_REACTORS
330
698
102
}
330
698
100
AcDbVisualStyle
  2
Gouraud
 70
     2
 71
     2
 72
     2
 73
     1
 90
        2
 40
-0.6
 41
30.0
 62
     5
 63
     7
 74
     0
 91
        0
 64
     7
 65
   257
 75
     1
175
     1
 42
1.0
 92
        0
 66
     7
 43
1.0
 76
     1
 77
     6
 78
     2
 67
     7
 79
     5
170
     0
171
     0
290
     0
174
     0
 93
       13
 44
0.0
173
     0
291
     1
 45
0.0
1001
ACAD
1000
AcDbSavedByObjectVersion
1070
     0
  0
VISUALSTYLE
  5
69C
102
{ACAD_XDICTIONARY
360
6EE
102
}
102
{ACAD_REACTORS
330
698
102
}
330
698
100
AcDbVisualStyle
  2
GouraudWithEdges
 70
     3
 71
     2
 72
     2
 73
     1
 90
        2
 40
-0.6
 41
30.0
 62
     5
 63
     7
 74
     1
 91
        0
 64
     7
 65
   257
 75
     1
175
     1
 42
1.0
 92
        0
 66
   257
 43
1.0
 76
     1
 77
     6
 78
     2
 67
     7
 79
     5
170
     0
171
     0
290
     0
174
     0
 93
       13
 44
0.0
173
     0
291
     1
 45
0.0
1001
ACAD
1000
AcDbSavedByObjectVersion
1070
     0
  0
VISUALSTYLE
  5
6A0
102
{ACAD_XDICTIONARY
360
6F6
102
}
102
{ACAD_REACTORS
330
698
102
}
330
698
100
AcDbVisualStyle
  2
Hidden
 70
     6
 71
     1
 72
     2
 73
     2
 90
        0
 40
-0.6
 41
-30.0
 62
     5
 63
     7
 74
     2
 91
        2
 64
     7
 65
   257
 75
     2
175
     1
 42
40.0
 92
        0
 66
   257
 43
1.0
 76
     1
 77
     6
 78
     2
 67
     7
 79
     3
170
     0
171
     0
290
     0
174
     0
 93
        1
 44
0.0
173
     0
291
     0
 45
0.0
1001
ACAD
1000
AcDbSavedByObjectVersion
1070
     0
  0
VISUALSTYLE
  5
6AE
102
{ACAD_XDICTIONARY
360
712
102
}
102
{ACAD_REACTORS
330
698
102
}
330
698
100
AcDbVisualStyle
  2
JitterOff
 70
    20
 71
     2
 72
     2
 73
     0
 90
        0
 40
-0.6
 41
-30.0
 62
     5
 63
     7
 74
     1
 91
        4
 64
     7
 65
   257
 75
     1
175
     1
 42
1.0
 92
       10
 66
     7
 43
1.0
 76
     1
 77
     6
 78
     2
 67
     7
 79
     5
170
     0
171
     0
290
     0
174
     0
 93
        1
 44
0.0
173
     0
291
     1
 45
0.0
1001
ACAD
1000
AcDbSavedByObjectVersion
1070
     0
  0
VISUALSTYLE
  5
6A6
102
{ACAD_XDICTIONARY
360
702
102
}
102
{ACAD_REACTORS
330
698
102
}
330
698
100
AcDbVisualStyle
  2
Linepattern
 70
    14
 71
     2
 72
     2
 73
     0
 90
        0
 40
-0.6
 41
-30.0
 62
     5
 63
     7
 74
     1
 91
        4
 64
     7
 65
   257
 75
     7
175
     7
 42
1.0
 92
        8
 66
     7
 43
1.0
 76
     1
 77
     6
 78
     2
 67
     7
 79
     5
170
     0
171
     0
290
     0
174
     0
 93
        1
 44
0.0
173
     0
291
     1
 45
0.0
1001
ACAD
1000
AcDbSavedByObjectVersion
1070
     0
  0
VISUALSTYLE
  5
6AF
102
{ACAD_XDICTIONARY
360
714
102
}
102
{ACAD_REACTORS
330
698
102
}
330
698
100
AcDbVisualStyle
  2
OverhangOff
 70
    21
 71
     2
 72
     2
 73
     0
 90
        0
 40
-0.6
 41
-30.0
 62
     5
 63
     7
 74
     1
 91
        4
 64
     7
 65
   257
 75
     1
175
     1
 42
1.0
 92
        9
 66
     7
 43
1.0
 76
     1
 77
     6
 78
     2
 67
     7
 79
     5
170
     0
171
     0
290
     0
174
     0
 93
        1
 44
0.0
173
     0
291
     1
 45
0.0
1001
ACAD
1000
AcDbSavedByObjectVersion
1070
     0
  0
VISUALSTYLE
  5
6A2
102
{ACAD_XDICTIONARY
360
6FA
102
}
102
{ACAD_REACTORS
330
698
102
}
330
698
100
AcDbVisualStyle
  2
Realistic
 70
     8
 71
     2
 72
     3
 73
     0
 90
        2
 40
-0.6
 41
30.0
 62
     5
 63
     7
 74
     0
 91
        0
 64
     7
 65
   257
 75
     1
175
     1
 42
1.0
 92
        8
 66
   257
 43
1.0
 76
     1
 77
     6
 78
     2
 67
     7
 79
     3
170
     0
171
     0
290
     0
174
     0
 93
       13
 44
0.0
173
     0
291
     0
 45
0.0
1001
ACAD
1000
AcDbSavedByObjectVersion
1070
     0
  0
VISUALSTYLE
  5
6AD
102
{ACAD_XDICTIONARY
360
710
102
}
102
{ACAD_REACTORS
330
698
102
}
330
698
100
AcDbVisualStyle
  2
Shaded
 70
    27
 71
     2
 72
     2
 73
     1
 90
        2
 40
-0.6
 41
30.0
 62
     5
 63
     7
 74
     0
 91
        4
 64
     7
 65
   257
 75
     1
175
     1
 42
1.0
 92
        8
 66
   257
 43
1.0
 76
     1
 77
     6
 78
     2
 67
     8
 79
     3
170
     0
171
     0
290
     0
174
     0
 93
        5
 44
0.0
173
     0
291
     0
 45
0.0
1001
ACAD
1000
AcDbSavedByObjectVersion
1070
     0
  0
VISUALSTYLE
  5
6AC
102
{ACAD_XDICTIONARY
360
70E
102
}
102
{ACAD_REACTORS
330
698
102
}
330
698
100
AcDbVisualStyle
  2
Shaded with edges
 70
    26
 71
     2
 72
     2
 73
     1
 90
        2
 40
-0.6
 41
30.0
 62
     5
 63
     7
 74
     1
 91
       10
 64
     7
 65
   257
 75
     2
175
     1
 42
1.0
 92
        8
 66
   257
 43
1.0
 76
     1
 77
     6
 78
     2
 67
     7
 79
     3
170
     0
171
     0
290
     0
174
     0
 93
        5
 44
0.0
173
     0
291
     0
 45
0.0
1001
ACAD
1000
AcDbSavedByObjectVersion
1070
     0
  0
VISUALSTYLE
  5
6A9
102
{ACAD_XDICTIONARY
360
708
102
}
102
{ACAD_REACTORS
330
698
102
}
330
698
100
AcDbVisualStyle
  2
Shades of Gray
 70
    23
 71
     2
 72
     2
 73
     3
 90
        0
 40
-0.6
 41
-30.0
 62
     5
 63
     7
 74
     2
 91
        2
 64
     7
 65
     7
 75
     1
175
     1
 42
40.0
 92
        8
 66
     7
 43
1.0
 76
     1
 77
     6
 78
     2
 67
     7
 79
     3
170
     0
171
     0
290
     0
174
     0
 93
        1
 44
0.0
173
     0
291
     0
 45
0.0
1001
ACAD
1000
AcDbSavedByObjectVersion
1070
     0
  0
VISUALSTYLE
  5
6AA
102
{ACAD_XDICTIONARY
360
70A
102
}
102
{ACAD_REACTORS
330
698
102
}
330
698
100
AcDbVisualStyle
  2
Sketchy
 70
    24
 71
     1
 72
     2
 73
     2
 90
        0
 40
-0.6
 41
-30.0
 62
     5
 63
     7
 74
     2
 91
        2
 64
     7
 65
     7
 75
     1
175
     1
 42
40.0
 92
       11
 66
     7
 43
1.0
 76
     1
 77
     6
 78
     2
 67
     7
 79
     6
170
     0
171
     0
290
     0
174
     0
 93
        1
 44
0.0
173
     0
291
     0
 45
0.0
1001
ACAD
1000
AcDbSavedByObjectVersion
1070
     0
  0
VISUALSTYLE
  5
6A5
102
{ACAD_XDICTIONARY
360
700
102
}
102
{ACAD_REACTORS
330
698
102
}
330
698
100
AcDbVisualStyle
  2
Thicken
 70
    13
 71
     2
 72
     2
 73
     0
 90
        0
 40
-0.6
 41
-30.0
 62
     5
 63
     7
 74
     1
 91
        4
 64
     7
 65
   257
 75
     1
175
     1
 42
1.0
 92
       12
 66
     7
 43
1.0
 76
     1
 77
     6
 78
     2
 67
     7
 79
     5
170
     0
171
     0
290
     0
174
     0
 93
        1
 44
0.0
173
     0
291
     1
 45
0.0
1001
ACAD
1000
AcDbSavedByObjectVersion
1070
     0
  0
VISUALSTYLE
  5
69F
102
{ACAD_XDICTIONARY
360
6F4
102
}
102
{ACAD_REACTORS
330
698
102
}
330
698
100
AcDbVisualStyle
  2
Wireframe
 70
     5
 71
     0
 72
     2
 73
     0
 90
        0
 40
-0.6
 41
-30.0
 62
     5
 63
     7
 74
     1
 91
        4
 64
     7
 65
   257
 75
     1
175
     1
 42
1.0
 92
        0
 66
   257
 43
1.0
 76
     1
 77
     6
 78
     2
 67
     7
 79
     3
170
     0
171
     0
290
     0
174
     0
 93
        1
 44
0.0
173
     0
291
     0
 45
0.0
1001
ACAD
1000
AcDbSavedByObjectVersion
1070
     0
  0
VISUALSTYLE
  5
6AB
102
{ACAD_XDICTIONARY
360
70C
102
}
102
{ACAD_REACTORS
330
698
102
}
330
698
100
AcDbVisualStyle
  2
X-Ray
 70
    25
 71
     2
 72
     2
 73
     1
 90
        1
 40
0.5
 41
-30.0
 62
     5
 63
     7
 74
     1
 91
        0
 64
     7
 65
   257
 75
     1
175
     1
 42
1.0
 92
        8
 66
     7
 43
1.0
 76
     1
 77
     6
 78
     2
 67
     7
 79
     3
170
     0
171
     0
290
     0
174
     0
 93
       13
 44
0.0
173
     0
291
     0
 45
0.0
1001
ACAD
1000
AcDbSavedByObjectVersion
1070
     0
  0
DICTIONARYVAR
  5
6D6
102
{ACAD_REACTORS
330
6D1
102
}
330
6D1
100
DictionaryVariables
280
     0
  1
1:1
  0
DICTIONARYVAR
  5
6D3
102
{ACAD_REACTORS
330
6D1
102
}
330
6D1
100
DictionaryVariables
280
     0
  1
STANDARD
  0
DICTIONARYVAR
  5
6D2
102
{ACAD_REACTORS
330
6D1
102
}
330
6D1
100
DictionaryVariables
280
     0
  1
STANDARD
  0
DICTIONARYVAR
  5
6D4
102
{ACAD_REACTORS
330
6D1
102
}
330
6D1
100
DictionaryVariables
280
     0
  1
Metric50
  0
DICTIONARYVAR
  5
6D5
102
{ACAD_REACTORS
330
6D1
102
}
330
6D1
100
DictionaryVariables
280
     0
  1
Metric50
  0
DICTIONARYVAR
  5
6D9
102
{ACAD_REACTORS
330
6D1
102
}
330
6D1
100
DictionaryVariables
280
     0
  1
1
  0
DICTIONARYVAR
  5
6D8
102
{ACAD_REACTORS
330
6D1
102
}
330
6D1
100
DictionaryVariables
280
     0
  1
0
  0
DICTIONARYVAR
  5
6D7
102
{ACAD_REACTORS
330
6D1
102
}
330
6D1
100
DictionaryVariables
280
     0
  1
127
  0
DICTIONARYVAR
  5
6DA
102
{ACAD_REACTORS
330
6D1
102
}
330
6D1
100
DictionaryVariables
280
     0
  1
2
  0
DICTIONARY
  5
6DF
330
1E
100
AcDbDictionary
280
     1
281
     1
  3
ACAD_XREC_ROUNDTRIP
360
6E0
  0
DICTIONARY
  5
6E3
330
26
100
AcDbDictionary
280
     1
281
     1
  3
ACAD_XREC_ROUNDTRIP
360
6E4
  0
DICTIONARY
  5
6E1
330
22
100
AcDbDictionary
280
     1
281
     1
  3
ACAD_XREC_ROUNDTRIP
360
6E2
  0
DICTIONARY
  5
689
330
688
100
AcDbDictionary
280
     1
281
     1
  3
ACAD_XREC_ROUNDTRIP
360
6E6
  3
BUMPTILE
360
68B
  3
DIFFUSETILE
360
68A
  3
OPACITYTILE
360
68E
  3
REFLECTIONTILE
360
68D
  3
REFRACTIONTILE
360
68F
  3
SPECULARTILE
360
68C
  0
DICTIONARY
  5
681
330
680
100
AcDbDictionary
280
     1
281
     1
  3
ACAD_XREC_ROUNDTRIP
360
6E5
  3
BUMPTILE
360
683
  3
DIFFUSETILE
360
682
  3
OPACITYTILE
360
686
  3
REFLECTIONTILE
360
685
  3
REFRACTIONTILE
360
687
  3
SPECULARTILE
360
684
  0
DICTIONARY
  5
691
330
690
100
AcDbDictionary
280
     1
281
     1
  3
ACAD_XREC_ROUNDTRIP
360
6E7
  3
BUMPTILE
360
693
  3
DIFFUSETILE
360
692
  3
OPACITYTILE
360
696
  3
REFLECTIONTILE
360
695
  3
REFRACTIONTILE
360
697
  3
SPECULARTILE
360
694
  0
DICTIONARY
  5
6DB
330
6B3
100
AcDbDictionary
280
     1
281
     1
  3
ACAD_ROUNDTRIP_2008_TABLESTYLE_CELLSTYLEMAP
360
6DC
  3
ACAD_XREC_ROUNDTRIP
360
718
  0
DICTIONARY
  5
6F2
330
69E
100
AcDbDictionary
280
     1
281
     1
  3
ACAD_XREC_ROUNDTRIP
360
6F3
  0
DICTIONARY
  5
6F0
330
69D
100
AcDbDictionary
280
     1
281
     1
  3
ACAD_XREC_ROUNDTRIP
360
6F1
  0
DICTIONARY
  5
6FE
330
6A4
100
AcDbDictionary
280
     1
281
     1
  3
ACAD_XREC_ROUNDTRIP
360
6FF
  0
DICTIONARY
  5
706
330
6A8
100
AcDbDictionary
280
     1
281
     1
  3
ACAD_XREC_ROUNDTRIP
360
707
  0
DICTIONARY
  5
6F8
330
6A1
100
AcDbDictionary
280
     1
281
     1
  3
ACAD_XREC_ROUNDTRIP
360
6F9
  0
DICTIONARY
  5
6FC
330
6A3
100
AcDbDictionary
280
     1
281
     1
  3
ACAD_XREC_ROUNDTRIP
360
6FD
  0
DICTIONARY
  5
716
330
6B0
100
AcDbDictionary
280
     1
281
     1
  3
ACAD_XREC_ROUNDTRIP
360
717
  0
DICTIONARY
  5
704
330
6A7
100
AcDbDictionary
280
     1
281
     1
  3
ACAD_XREC_ROUNDTRIP
360
705
  0
DICTIONARY
  5
6E8
330
699
100
AcDbDictionary
280
     1
281
     1
  3
ACAD_XREC_ROUNDTRIP
360
6E9
  0
DICTIONARY
  5
6EA
330
69A
100
AcDbDictionary
280
     1
281
     1
  3
ACAD_XREC_ROUNDTRIP
360
6EB
  0
DICTIONARY
  5
6EC
330
69B
100
AcDbDictionary
280
     1
281
     1
  3
ACAD_XREC_ROUNDTRIP
360
6ED
  0
DICTIONARY
  5
6EE
330
69C
100
AcDbDictionary
280
     1
281
     1
  3
ACAD_XREC_ROUNDTRIP
360
6EF
  0
DICTIONARY
  5
6F6
330
6A0
100
AcDbDictionary
280
     1
281
     1
  3
ACAD_XREC_ROUNDTRIP
360
6F7
  0
DICTIONARY
  5
712
330
6AE
100
AcDbDictionary
280
     1
281
     1
  3
ACAD_XREC_ROUNDTRIP
360
713
  0
DICTIONARY
  5
702
330
6A6
100
AcDbDictionary
280
     1
281
     1
  3
ACAD_XREC_ROUNDTRIP
360
703
  0
DICTIONARY
  5
714
330
6AF
100
AcDbDictionary
280
     1
281
     1
  3
ACAD_XREC_ROUNDTRIP
360
715
  0
DICTIONARY
  5
6FA
330
6A2
100
AcDbDictionary
280
     1
281
     1
  3
ACAD_XREC_ROUNDTRIP
360
6FB
  0
DICTIONARY
  5
710
330
6AD
100
AcDbDictionary
280
     1
281
     1
  3
ACAD_XREC_ROUNDTRIP
360
711
  0
DICTIONARY
  5
70E
330
6AC
100
AcDbDictionary
280
     1
281
     1
  3
ACAD_XREC_ROUNDTRIP
360
70F
  0
DICTIONARY
  5
708
330
6A9
100
AcDbDictionary
280
     1
281
     1
  3
ACAD_XREC_ROUNDTRIP
360
709
  0
DICTIONARY
  5
70A
330
6AA
100
AcDbDictionary
280
     1
281
     1
  3
ACAD_XREC_ROUNDTRIP
360
70B
  0
DICTIONARY
  5
700
330
6A5
100
AcDbDictionary
280
     1
281
     1
  3
ACAD_XREC_ROUNDTRIP
360
701
  0
DICTIONARY
  5
6F4
330
69F
100
AcDbDictionary
280
     1
281
     1
  3
ACAD_XREC_ROUNDTRIP
360
6F5
  0
DICTIONARY
  5
70C
330
6AB
100
AcDbDictionary
280
     1
281
     1
  3
ACAD_XREC_ROUNDTRIP
360
70D
  0
XRECORD
  5
6E0
102
{ACAD_REACTORS
330
6DF
102
}
330
6DF
100
AcDbXrecord
280
     1
102
SHADEPLOT
 70
     0
102
SHADEPLOTRESLEVEL
 70
     2
102
SHADEPLOTCUSTOMDPI
 70
   300
  0
XRECORD
  5
6E4
102
{ACAD_REACTORS
330
6E3
102
}
330
6E3
100
AcDbXrecord
280
     1
102
SHADEPLOT
 70
     0
102
SHADEPLOTRESLEVEL
 70
     2
102
SHADEPLOTCUSTOMDPI
 70
   300
  0
XRECORD
  5
6E2
102
{ACAD_REACTORS
330
6E1
102
}
330
6E1
100
AcDbXrecord
280
     1
102
SHADEPLOT
 70
     0
102
SHADEPLOTRESLEVEL
 70
     2
102
SHADEPLOTCUSTOMDPI
 70
   300
  0
XRECORD
  5
6E6
102
{ACAD_REACTORS
330
689
102
}
330
689
100
AcDbXrecord
280
     1
102
MATERIAL
148
0.0
149
0.0
149
0.0
 93
        0
 94
      127
282
     0
 72
     0
 77
     0
171
     0
175
     0
179
     0
273
     0
  0
XRECORD
  5
68B
102
{ACAD_REACTORS
330
689
102
}
330
689
100
AcDbXrecord
280
     1
270
     1
271
     1
  0
XRECORD
  5
68A
102
{ACAD_REACTORS
330
689
102
}
330
689
100
AcDbXrecord
280
     1
270
     1
271
     1
  0
XRECORD
  5
68E
102
{ACAD_REACTORS
330
689
102
}
330
689
100
AcDbXrecord
280
     1
270
     1
271
     1
  0
XRECORD
  5
68D
102
{ACAD_REACTORS
330
689
102
}
330
689
100
AcDbXrecord
280
     1
270
     1
271
     1
  0
XRECORD
  5
68F
102
{ACAD_REACTORS
330
689
102
}
330
689
100
AcDbXrecord
280
     1
270
     1
271
     1
  0
XRECORD
  5
68C
102
{ACAD_REACTORS
330
689
102
}
330
689
100
AcDbXrecord
280
     1
270
     1
271
     1
  0
XRECORD
  5
6E5
102
{ACAD_REACTORS
330
681
102
}
330
681
100
AcDbXrecord
280
     1
102
MATERIAL
148
0.0
149
0.0
149
0.0
 93
        0
 94
      127
282
     0
 72
     0
 77
     0
171
     0
175
     0
179
     0
273
     0
  0
XRECORD
  5
683
102
{ACAD_REACTORS
330
681
102
}
330
681
100
AcDbXrecord
280
     1
270
     1
271
     1
  0
XRECORD
  5
682
102
{ACAD_REACTORS
330
681
102
}
330
681
100
AcDbXrecord
280
     1
270
     1
271
     1
  0
XRECORD
  5
686
102
{ACAD_REACTORS
330
681
102
}
330
681
100
AcDbXrecord
280
     1
270
     1
271
     1
  0
XRECORD
  5
685
102
{ACAD_REACTORS
330
681
102
}
330
681
100
AcDbXrecord
280
     1
270
     1
271
     1
  0
XRECORD
  5
687
102
{ACAD_REACTORS
330
681
102
}
330
681
100
AcDbXrecord
280
     1
270
     1
271
     1
  0
XRECORD
  5
684
102
{ACAD_REACTORS
330
681
102
}
330
681
100
AcDbXrecord
280
     1
270
     1
271
     1
  0
XRECORD
  5
6E7
102
{ACAD_REACTORS
330
691
102
}
330
691
100
AcDbXrecord
280
     1
102
MATERIAL
148
0.0
149
0.0
149
0.0
 93
        0
 94
      127
282
     0
 72
     0
 77
     0
171
     0
175
     0
179
     0
273
     0
  0
XRECORD
  5
693
102
{ACAD_REACTORS
330
691
102
}
330
691
100
AcDbXrecord
280
     1
270
     1
271
     1
  0
XRECORD
  5
692
102
{ACAD_REACTORS
330
691
102
}
330
691
100
AcDbXrecord
280
     1
270
     1
271
     1
  0
XRECORD
  5
696
102
{ACAD_REACTORS
330
691
102
}
330
691
100
AcDbXrecord
280
     1
270
     1
271
     1
  0
XRECORD
  5
695
102
{ACAD_REACTORS
330
691
102
}
330
691
100
AcDbXrecord
280
     1
270
     1
271
     1
  0
XRECORD
  5
697
102
{ACAD_REACTORS
330
691
102
}
330
691
100
AcDbXrecord
280
     1
270
     1
271
     1
  0
XRECORD
  5
694
102
{ACAD_REACTORS
330
691
102
}
330
691
100
AcDbXrecord
280
     1
270
     1
271
     1
  0
CELLSTYLEMAP
  5
6DC
102
{ACAD_REACTORS
330
6DB
102
}
330
6DB
100
AcDbCellStyleMap
 90
        3
300
CELLSTYLE
  1
TABLEFORMAT_BEGIN
 90
        5
170
     1
 91
        0
 92
    32768
 62
   257
 93
        1
300
CONTENTFORMAT
  1
CONTENTFORMAT_BEGIN
 90
        0
 91
        0
 92
      512
 93
        0
300

 40
0.0
140
1.0
 94
        5
 62
     0
340
11
144
6.0
309
CONTENTFORMAT_END
171
     1
301
MARGIN
  1
CELLMARGIN_BEGIN
 40
1.5
 40
1.5
 40
1.5
 40
1.5
 40
4.5
 40
4.5
309
CELLMARGIN_END
 94
        6
 95
        1
302
GRIDFORMAT
  1
GRIDFORMAT_BEGIN
 90
        0
 91
        1
 62
     0
 92
       -2
340
0
 93
        0
 40
1.125
309
GRIDFORMAT_END
 95
        2
302
GRIDFORMAT
  1
GRIDFORMAT_BEGIN
 90
        0
 91
        1
 62
     0
 92
       -2
340
0
 93
        0
 40
1.125
309
GRIDFORMAT_END
 95
        4
302
GRIDFORMAT
  1
GRIDFORMAT_BEGIN
 90
        0
 91
        1
 62
     0
 92
       -2
340
0
 93
        0
 40
1.125
309
GRIDFORMAT_END
 95
        8
302
GRIDFORMAT
  1
GRIDFORMAT_BEGIN
 90
        0
 91
        1
 62
     0
 92
       -2
340
0
 93
        0
 40
1.125
309
GRIDFORMAT_END
 95
       16
302
GRIDFORMAT
  1
GRIDFORMAT_BEGIN
 90
        0
 91
        1
 62
     0
 92
       -2
340
0
 93
        0
 40
1.125
309
GRIDFORMAT_END
 95
       32
302
GRIDFORMAT
  1
GRIDFORMAT_BEGIN
 90
        0
 91
        1
 62
     0
 92
       -2
340
0
 93
        0
 40
1.125
309
GRIDFORMAT_END
309
TABLEFORMAT_END
  1
CELLSTYLE_BEGIN
 90
        1
 91
        1
300
_TITLE
309
CELLSTYLE_END
300
CELLSTYLE
  1
TABLEFORMAT_BEGIN
 90
        5
170
     1
 91
        0
 92
        0
 62
   257
 93
        1
300
CONTENTFORMAT
  1
CONTENTFORMAT_BEGIN
 90
        0
 91
        0
 92
      512
 93
        0
300

 40
0.0
140
1.0
 94
        5
 62
     0
340
11
144
4.5
309
CONTENTFORMAT_END
171
     1
301
MARGIN
  1
CELLMARGIN_BEGIN
 40
1.5
 40
1.5
 40
1.5
 40
1.5
 40
4.5
 40
4.5
309
CELLMARGIN_END
 94
        6
 95
        1
302
GRIDFORMAT
  1
GRIDFORMAT_BEGIN
 90
        0
 91
        1
 62
     0
 92
       -2
340
0
 93
        0
 40
1.125
309
GRIDFORMAT_END
 95
        2
302
GRIDFORMAT
  1
GRIDFORMAT_BEGIN
 90
        0
 91
        1
 62
     0
 92
       -2
340
0
 93
        0
 40
1.125
309
GRIDFORMAT_END
 95
        4
302
GRIDFORMAT
  1
GRIDFORMAT_BEGIN
 90
        0
 91
        1
 62
     0
 92
       -2
340
0
 93
        0
 40
1.125
309
GRIDFORMAT_END
 95
        8
302
GRIDFORMAT
  1
GRIDFORMAT_BEGIN
 90
        0
 91
        1
 62
     0
 92
       -2
340
0
 93
        0
 40
1.125
309
GRIDFORMAT_END
 95
       16
302
GRIDFORMAT
  1
GRIDFORMAT_BEGIN
 90
        0
 91
        1
 62
     0
 92
       -2
340
0
 93
        0
 40
1.125
309
GRIDFORMAT_END
 95
       32
302
GRIDFORMAT
  1
GRIDFORMAT_BEGIN
 90
        0
 91
        1
 62
     0
 92
       -2
340
0
 93
        0
 40
1.125
309
GRIDFORMAT_END
309
TABLEFORMAT_END
  1
CELLSTYLE_BEGIN
 90
        2
 91
        1
300
_HEADER
309
CELLSTYLE_END
300
CELLSTYLE
  1
TABLEFORMAT_BEGIN
 90
        5
170
     1
 91
        0
 92
        0
 62
   257
 93
        1
300
CONTENTFORMAT
  1
CONTENTFORMAT_BEGIN
 90
        0
 91
        0
 92
      512
 93
        0
300

 40
0.0
140
1.0
 94
        2
 62
     0
340
11
144
4.5
309
CONTENTFORMAT_END
171
     1
301
MARGIN
  1
CELLMARGIN_BEGIN
 40
1.5
 40
1.5
 40
1.5
 40
1.5
 40
4.5
 40
4.5
309
CELLMARGIN_END
 94
        6
 95
        1
302
GRIDFORMAT
  1
GRIDFORMAT_BEGIN
 90
        0
 91
        1
 62
     0
 92
       -2
340
0
 93
        0
 40
1.125
309
GRIDFORMAT_END
 95
        2
302
GRIDFORMAT
  1
GRIDFORMAT_BEGIN
 90
        0
 91
        1
 62
     0
 92
       -2
340
0
 93
        0
 40
1.125
309
GRIDFORMAT_END
 95
        4
302
GRIDFORMAT
  1
GRIDFORMAT_BEGIN
 90
        0
 91
        1
 62
     0
 92
       -2
340
0
 93
        0
 40
1.125
309
GRIDFORMAT_END
 95
        8
302
GRIDFORMAT
  1
GRIDFORMAT_BEGIN
 90
        0
 91
        1
 62
     0
 92
       -2
340
0
 93
        0
 40
1.125
309
GRIDFORMAT_END
 95
       16
302
GRIDFORMAT
  1
GRIDFORMAT_BEGIN
 90
        0
 91
        1
 62
     0
 92
       -2
340
0
 93
        0
 40
1.125
309
GRIDFORMAT_END
 95
       32
302
GRIDFORMAT
  1
GRIDFORMAT_BEGIN
 90
        0
 91
        1
 62
     0
 92
       -2
340
0
 93
        0
 40
1.125
309
GRIDFORMAT_END
309
TABLEFORMAT_END
  1
CELLSTYLE_BEGIN
 90
        3
 91
        2
300
_DATA
309
CELLSTYLE_END
  0
XRECORD
  5
718
102
{ACAD_REACTORS
330
6DB
102
}
330
6DB
100
AcDbXrecord
280
     1
102
ACAD_ROUNDTRIP_PRE2007_TABLESTYLE
 90
      512
 91
        0
  1

 92
      512
 93
        0
  2

 94
      512
 95
        0
  3

  0
XRECORD
  5
6F3
102
{ACAD_REACTORS
330
6F2
102
}
330
6F2
100
AcDbXrecord
280
     1
102
RTVSPost2010Prop28
280
     1
102
RTVSPost2010PropOp28
 70
     1
102
RTVSPost2010Prop29
280
     1
102
RTVSPost2010PropOp29
 70
     1
102
RTVSPost2010Prop30
280
     0
102
RTVSPost2010PropOp30
 70
     1
102
RTVSPost2010Prop31
280
     0
102
RTVSPost2010PropOp31
 70
     1
102
RTVSPost2010Prop32
280
     0
102
RTVSPost2010PropOp32
 70
     1
102
RTVSPost2010Prop33
280
     0
102
RTVSPost2010PropOp33
 70
     1
102
RTVSPost2010Prop34
280
     0
102
RTVSPost2010PropOp34
 70
     1
102
RTVSPost2010Prop35
280
     0
102
RTVSPost2010PropOp35
 70
     1
102
RTVSPost2010Prop36
280
     0
102
RTVSPost2010PropOp36
 70
     1
102
RTVSPost2010Prop37
 90
       50
102
RTVSPost2010PropOp37
 70
     1
102
RTVSPost2010Prop38
140
0.0
102
RTVSPost2010PropOp38
 70
     1
102
RTVSPost2010Prop39
140
1.0
102
RTVSPost2010PropOp39
 70
     1
102
RTVSPost2010Prop40
 90
        0
102
RTVSPost2010PropOp40
 70
     1
102
RTVSPost2010Prop41ColorIndex
 90
       18
102
RTVSPost2010Prop41ColorRGB
 90
        0
102
RTVSPost2010PropOp41
 70
     1
102
RTVSPost2010Prop42
 90
       50
102
RTVSPost2010PropOp42
 70
     1
102
RTVSPost2010Prop43
 90
        3
102
RTVSPost2010PropOp43
 70
     1
102
RTVSPost2010Prop44ColorIndex
 90
        5
102
RTVSPost2010Prop44ColorRGB
 90
      255
102
RTVSPost2010PropOp44
 70
     1
102
RTVSPost2010Prop45
280
     0
102
RTVSPost2010PropOp45
 70
     1
102
RTVSPost2010Prop46
 90
       50
102
RTVSPost2010PropOp46
 70
     1
102
RTVSPost2010Prop47
 90
       50
102
RTVSPost2010PropOp47
 70
     1
102
RTVSPost2010Prop48
 90
       50
102
RTVSPost2010PropOp48
 70
     1
102
RTVSPost2010Prop49
280
     0
102
RTVSPost2010PropOp49
 70
     1
102
RTVSPost2010Prop50
 90
       50
102
RTVSPost2010PropOp50
 70
     1
102
RTVSPost2010Prop51ColorIndex
 90
      256
102
RTVSPost2010Prop51ColorRGB
 90
-16777216
102
RTVSPost2010PropOp51
 70
     0
102
RTVSPost2010Prop52
140
1.0
102
RTVSPost2010PropOp52
 70
     0
102
RTVSPost2010Prop53
 90
        2
102
RTVSPost2010PropOp53
 70
     1
102
RTVSPost2010Prop54
  1
strokes_ogs.tif
102
RTVSPost2010PropOp54
 70
     1
102
RTVSPost2010Prop55
280
     0
102
RTVSPost2010PropOp55
 70
     1
102
RTVSPost2010Prop56
140
1.0
102
RTVSPost2010PropOp56
 70
     1
102
RTVSPost2010Prop57
140
1.0
102
RTVSPost2010PropOp57
 70
     1
102
RTVSPropertyOp0
 70
     1
102
RTVSPropertyOp1
 70
     1
102
RTVSPropertyOp2
 70
     1
102
RTVSPropertyOp3
 70
     1
102
RTVSPropertyOp4
 70
     1
102
RTVSPropertyOp5
 70
     1
102
RTVSPropertyOp6
 70
     1
102
RTVSPropertyOp7
 70
     1
102
RTVSPropertyOp8
 70
     1
102
RTVSPropertyOp9
 70
     1
102
RTVSPropertyOp10
 70
     1
102
RTVSPropertyOp11
 70
     1
102
RTVSPropertyOp12
 70
     1
102
RTVSPropertyOp13
 70
     1
102
RTVSPropertyOp14
 70
     1
102
RTVSPropertyOp15
 70
     1
102
RTVSPropertyOp16
 70
     1
102
RTVSPropertyOp17
 70
     1
102
RTVSPropertyOp18
 70
     1
102
RTVSPropertyOp19
 70
     1
102
RTVSPropertyOp20
 70
     1
102
RTVSPropertyOp21
 70
     1
102
RTVSPropertyOp22
 70
     1
102
RTVSPropertyOp23
 70
     1
102
RTVSPropertyOp24
 70
     1
102
RTVSPropertyOp25
 70
     1
102
RTVSPropertyOp26
 70
     1
102
RTVSPropertyOp27
 70
     1
102
RTVSPropertyOp28
 70
     1
102
RTVSPropertyOp29
 70
     1
102
RTVSPropertyOp30
 70
     1
102
RTVSPropertyOp31
 70
     1
102
RTVSPropertyOp32
 70
     1
102
RTVSPropertyOp33
 70
     1
102
RTVSPropertyOp34
 70
     1
102
RTVSPropertyOp35
 70
     1
102
RTVSPropertyOp36
 70
     1
102
RTVSPropertyOp37
 70
     1
102
RTVSPropertyOp38
 70
     1
102
RTVSPropertyOp39
 70
     1
102
RTVSPropertyOp40
 70
     1
102
RTVSPropertyOp41
 70
     1
102
RTVSPropertyOp42
 70
     1
102
RTVSPropertyOp43
 70
     1
102
RTVSPropertyOp44
 70
     1
102
RTVSPropertyOp45
 70
     1
102
RTVSPropertyOp46
 70
     1
102
RTVSPropertyOp47
 70
     1
102
RTVSPropertyOp48
 70
     1
102
RTVSPropertyOp49
 70
     1
102
RTVSPropertyOp50
 70
     1
102
RTVSPropertyOp51
 70
     0
102
RTVSPropertyOp52
 70
     0
102
RTVSPropertyOp53
 70
     1
102
RTVSPropertyOp54
 70
     1
102
RTVSPropertyOp55
 70
     1
102
RTVSPropertyOp56
 70
     1
102
RTVSPropertyOp57
 70
     1
102
RTVSPropertyOp58
 70
     1
102
RTVSPropertyOp59
 70
     1
102
RTVSPropertyOp60
 70
     1
102
RTVSPropertyOp61
 70
     1
102
RTVSPropertyOp62
 70
     1
  0
XRECORD
  5
6F1
102
{ACAD_REACTORS
330
6F0
102
}
330
6F0
100
AcDbXrecord
280
     1
102
RTVSPost2010Prop28
280
     0
102
RTVSPost2010PropOp28
 70
     1
102
RTVSPost2010Prop29
280
     1
102
RTVSPost2010PropOp29
 70
     1
102
RTVSPost2010Prop30
280
     1
102
RTVSPost2010PropOp30
 70
     1
102
RTVSPost2010Prop31
280
     0
102
RTVSPost2010PropOp31
 70
     1
102
RTVSPost2010Prop32
280
     0
102
RTVSPost2010PropOp32
 70
     1
102
RTVSPost2010Prop33
280
     0
102
RTVSPost2010PropOp33
 70
     1
102
RTVSPost2010Prop34
280
     0
102
RTVSPost2010PropOp34
 70
     1
102
RTVSPost2010Prop35
280
     0
102
RTVSPost2010PropOp35
 70
     1
102
RTVSPost2010Prop36
280
     0
102
RTVSPost2010PropOp36
 70
     1
102
RTVSPost2010Prop37
 90
       50
102
RTVSPost2010PropOp37
 70
     1
102
RTVSPost2010Prop38
140
0.0
102
RTVSPost2010PropOp38
 70
     1
102
RTVSPost2010Prop39
140
1.0
102
RTVSPost2010PropOp39
 70
     1
102
RTVSPost2010Prop40
 90
        0
102
RTVSPost2010PropOp40
 70
     1
102
RTVSPost2010Prop41ColorIndex
 90
       18
102
RTVSPost2010Prop41ColorRGB
 90
        0
102
RTVSPost2010PropOp41
 70
     1
102
RTVSPost2010Prop42
 90
       50
102
RTVSPost2010PropOp42
 70
     1
102
RTVSPost2010Prop43
 90
        3
102
RTVSPost2010PropOp43
 70
     1
102
RTVSPost2010Prop44ColorIndex
 90
        5
102
RTVSPost2010Prop44ColorRGB
 90
      255
102
RTVSPost2010PropOp44
 70
     1
102
RTVSPost2010Prop45
280
     0
102
RTVSPost2010PropOp45
 70
     1
102
RTVSPost2010Prop46
 90
       50
102
RTVSPost2010PropOp46
 70
     1
102
RTVSPost2010Prop47
 90
       50
102
RTVSPost2010PropOp47
 70
     1
102
RTVSPost2010Prop48
 90
       50
102
RTVSPost2010PropOp48
 70
     1
102
RTVSPost2010Prop49
280
     0
102
RTVSPost2010PropOp49
 70
     1
102
RTVSPost2010Prop50
 90
       50
102
RTVSPost2010PropOp50
 70
     1
102
RTVSPost2010Prop51ColorIndex
 90
      256
102
RTVSPost2010Prop51ColorRGB
 90
-16777216
102
RTVSPost2010PropOp51
 70
     0
102
RTVSPost2010Prop52
140
1.0
102
RTVSPost2010PropOp52
 70
     0
102
RTVSPost2010Prop53
 90
        2
102
RTVSPost2010PropOp53
 70
     1
102
RTVSPost2010Prop54
  1
strokes_ogs.tif
102
RTVSPost2010PropOp54
 70
     1
102
RTVSPost2010Prop55
280
     0
102
RTVSPost2010PropOp55
 70
     1
102
RTVSPost2010Prop56
140
1.0
102
RTVSPost2010PropOp56
 70
     1
102
RTVSPost2010Prop57
140
1.0
102
RTVSPost2010PropOp57
 70
     1
102
RTVSPropertyOp0
 70
     1
102
RTVSPropertyOp1
 70
     1
102
RTVSPropertyOp2
 70
     1
102
RTVSPropertyOp3
 70
     1
102
RTVSPropertyOp4
 70
     1
102
RTVSPropertyOp5
 70
     1
102
RTVSPropertyOp6
 70
     1
102
RTVSPropertyOp7
 70
     1
102
RTVSPropertyOp8
 70
     1
102
RTVSPropertyOp9
 70
     1
102
RTVSPropertyOp10
 70
     1
102
RTVSPropertyOp11
 70
     1
102
RTVSPropertyOp12
 70
     1
102
RTVSPropertyOp13
 70
     1
102
RTVSPropertyOp14
 70
     1
102
RTVSPropertyOp15
 70
     1
102
RTVSPropertyOp16
 70
     1
102
RTVSPropertyOp17
 70
     1
102
RTVSPropertyOp18
 70
     1
102
RTVSPropertyOp19
 70
     1
102
RTVSPropertyOp20
 70
     1
102
RTVSPropertyOp21
 70
     1
102
RTVSPropertyOp22
 70
     1
102
RTVSPropertyOp23
 70
     1
102
RTVSPropertyOp24
 70
     1
102
RTVSPropertyOp25
 70
     1
102
RTVSPropertyOp26
 70
     1
102
RTVSPropertyOp27
 70
     1
102
RTVSPropertyOp28
 70
     1
102
RTVSPropertyOp29
 70
     1
102
RTVSPropertyOp30
 70
     1
102
RTVSPropertyOp31
 70
     1
102
RTVSPropertyOp32
 70
     1
102
RTVSPropertyOp33
 70
     1
102
RTVSPropertyOp34
 70
     1
102
RTVSPropertyOp35
 70
     1
102
RTVSPropertyOp36
 70
     1
102
RTVSPropertyOp37
 70
     1
102
RTVSPropertyOp38
 70
     1
102
RTVSPropertyOp39
 70
     1
102
RTVSPropertyOp40
 70
     1
102
RTVSPropertyOp41
 70
     1
102
RTVSPropertyOp42
 70
     1
102
RTVSPropertyOp43
 70
     1
102
RTVSPropertyOp44
 70
     1
102
RTVSPropertyOp45
 70
     1
102
RTVSPropertyOp46
 70
     1
102
RTVSPropertyOp47
 70
     1
102
RTVSPropertyOp48
 70
     1
102
RTVSPropertyOp49
 70
     1
102
RTVSPropertyOp50
 70
     1
102
RTVSPropertyOp51
 70
     0
102
RTVSPropertyOp52
 70
     0
102
RTVSPropertyOp53
 70
     1
102
RTVSPropertyOp54
 70
     1
102
RTVSPropertyOp55
 70
     1
102
RTVSPropertyOp56
 70
     1
102
RTVSPropertyOp57
 70
     1
102
RTVSPropertyOp58
 70
     1
102
RTVSPropertyOp59
 70
     1
102
RTVSPropertyOp60
 70
     1
102
RTVSPropertyOp61
 70
     1
102
RTVSPropertyOp62
 70
     1
  0
XRECORD
  5
6FF
102
{ACAD_REACTORS
330
6FE
102
}
330
6FE
100
AcDbXrecord
280
     1
102
RTVSPost2010Prop28
280
     0
102
RTVSPost2010PropOp28
 70
     1
102
RTVSPost2010Prop29
280
     1
102
RTVSPost2010PropOp29
 70
     1
102
RTVSPost2010Prop30
280
     1
102
RTVSPost2010PropOp30
 70
     1
102
RTVSPost2010Prop31
280
     0
102
RTVSPost2010PropOp31
 70
     1
102
RTVSPost2010Prop32
280
     0
102
RTVSPost2010PropOp32
 70
     1
102
RTVSPost2010Prop33
280
     0
102
RTVSPost2010PropOp33
 70
     1
102
RTVSPost2010Prop34
280
     0
102
RTVSPost2010PropOp34
 70
     1
102
RTVSPost2010Prop35
280
     0
102
RTVSPost2010PropOp35
 70
     1
102
RTVSPost2010Prop36
280
     0
102
RTVSPost2010PropOp36
 70
     1
102
RTVSPost2010Prop37
 90
       50
102
RTVSPost2010PropOp37
 70
     1
102
RTVSPost2010Prop38
140
0.0
102
RTVSPost2010PropOp38
 70
     1
102
RTVSPost2010Prop39
140
1.0
102
RTVSPost2010PropOp39
 70
     1
102
RTVSPost2010Prop40
 90
        0
102
RTVSPost2010PropOp40
 70
     1
102
RTVSPost2010Prop41ColorIndex
 90
       18
102
RTVSPost2010Prop41ColorRGB
 90
        0
102
RTVSPost2010PropOp41
 70
     1
102
RTVSPost2010Prop42
 90
       50
102
RTVSPost2010PropOp42
 70
     1
102
RTVSPost2010Prop43
 90
        3
102
RTVSPost2010PropOp43
 70
     1
102
RTVSPost2010Prop44ColorIndex
 90
        5
102
RTVSPost2010Prop44ColorRGB
 90
      255
102
RTVSPost2010PropOp44
 70
     1
102
RTVSPost2010Prop45
280
     0
102
RTVSPost2010PropOp45
 70
     1
102
RTVSPost2010Prop46
 90
       50
102
RTVSPost2010PropOp46
 70
     1
102
RTVSPost2010Prop47
 90
       50
102
RTVSPost2010PropOp47
 70
     1
102
RTVSPost2010Prop48
 90
       50
102
RTVSPost2010PropOp48
 70
     1
102
RTVSPost2010Prop49
280
     0
102
RTVSPost2010PropOp49
 70
     1
102
RTVSPost2010Prop50
 90
       50
102
RTVSPost2010PropOp50
 70
     1
102
RTVSPost2010Prop51ColorIndex
 90
      256
102
RTVSPost2010Prop51ColorRGB
 90
-16777216
102
RTVSPost2010PropOp51
 70
     0
102
RTVSPost2010Prop52
140
1.0
102
RTVSPost2010PropOp52
 70
     0
102
RTVSPost2010Prop53
 90
        2
102
RTVSPost2010PropOp53
 70
     1
102
RTVSPost2010Prop54
  1
strokes_ogs.tif
102
RTVSPost2010PropOp54
 70
     1
102
RTVSPost2010Prop55
280
     0
102
RTVSPost2010PropOp55
 70
     1
102
RTVSPost2010Prop56
140
1.0
102
RTVSPost2010PropOp56
 70
     1
102
RTVSPost2010Prop57
140
1.0
102
RTVSPost2010PropOp57
 70
     1
102
RTVSPropertyOp0
 70
     1
102
RTVSPropertyOp1
 70
     1
102
RTVSPropertyOp2
 70
     1
102
RTVSPropertyOp3
 70
     1
102
RTVSPropertyOp4
 70
     1
102
RTVSPropertyOp5
 70
     1
102
RTVSPropertyOp6
 70
     1
102
RTVSPropertyOp7
 70
     1
102
RTVSPropertyOp8
 70
     1
102
RTVSPropertyOp9
 70
     1
102
RTVSPropertyOp10
 70
     1
102
RTVSPropertyOp11
 70
     1
102
RTVSPropertyOp12
 70
     1
102
RTVSPropertyOp13
 70
     1
102
RTVSPropertyOp14
 70
     1
102
RTVSPropertyOp15
 70
     1
102
RTVSPropertyOp16
 70
     1
102
RTVSPropertyOp17
 70
     1
102
RTVSPropertyOp18
 70
     1
102
RTVSPropertyOp19
 70
     1
102
RTVSPropertyOp20
 70
     1
102
RTVSPropertyOp21
 70
     1
102
RTVSPropertyOp22
 70
     1
102
RTVSPropertyOp23
 70
     1
102
RTVSPropertyOp24
 70
     1
102
RTVSPropertyOp25
 70
     1
102
RTVSPropertyOp26
 70
     1
102
RTVSPropertyOp27
 70
     1
102
RTVSPropertyOp28
 70
     1
102
RTVSPropertyOp29
 70
     1
102
RTVSPropertyOp30
 70
     1
102
RTVSPropertyOp31
 70
     1
102
RTVSPropertyOp32
 70
     1
102
RTVSPropertyOp33
 70
     1
102
RTVSPropertyOp34
 70
     1
102
RTVSPropertyOp35
 70
     1
102
RTVSPropertyOp36
 70
     1
102
RTVSPropertyOp37
 70
     1
102
RTVSPropertyOp38
 70
     1
102
RTVSPropertyOp39
 70
     1
102
RTVSPropertyOp40
 70
     1
102
RTVSPropertyOp41
 70
     1
102
RTVSPropertyOp42
 70
     1
102
RTVSPropertyOp43
 70
     1
102
RTVSPropertyOp44
 70
     1
102
RTVSPropertyOp45
 70
     1
102
RTVSPropertyOp46
 70
     1
102
RTVSPropertyOp47
 70
     1
102
RTVSPropertyOp48
 70
     1
102
RTVSPropertyOp49
 70
     1
102
RTVSPropertyOp50
 70
     1
102
RTVSPropertyOp51
 70
     0
102
RTVSPropertyOp52
 70
     0
102
RTVSPropertyOp53
 70
     1
102
RTVSPropertyOp54
 70
     1
102
RTVSPropertyOp55
 70
     1
102
RTVSPropertyOp56
 70
     1
102
RTVSPropertyOp57
 70
     1
102
RTVSPropertyOp58
 70
     1
102
RTVSPropertyOp59
 70
     1
102
RTVSPropertyOp60
 70
     1
102
RTVSPropertyOp61
 70
     1
102
RTVSPropertyOp62
 70
     1
  0
XRECORD
  5
707
102
{ACAD_REACTORS
330
706
102
}
330
706
100
AcDbXrecord
280
     1
102
RTVSPost2010Prop28
280
     0
102
RTVSPost2010PropOp28
 70
     1
102
RTVSPost2010Prop29
280
     1
102
RTVSPost2010PropOp29
 70
     1
102
RTVSPost2010Prop30
280
     1
102
RTVSPost2010PropOp30
 70
     1
102
RTVSPost2010Prop31
280
     0
102
RTVSPost2010PropOp31
 70
     1
102
RTVSPost2010Prop32
280
     0
102
RTVSPost2010PropOp32
 70
     1
102
RTVSPost2010Prop33
280
     0
102
RTVSPost2010PropOp33
 70
     1
102
RTVSPost2010Prop34
280
     0
102
RTVSPost2010PropOp34
 70
     1
102
RTVSPost2010Prop35
280
     0
102
RTVSPost2010PropOp35
 70
     1
102
RTVSPost2010Prop36
280
     0
102
RTVSPost2010PropOp36
 70
     1
102
RTVSPost2010Prop37
 90
       50
102
RTVSPost2010PropOp37
 70
     1
102
RTVSPost2010Prop38
140
0.0
102
RTVSPost2010PropOp38
 70
     1
102
RTVSPost2010Prop39
140
1.0
102
RTVSPost2010PropOp39
 70
     1
102
RTVSPost2010Prop40
 90
        0
102
RTVSPost2010PropOp40
 70
     1
102
RTVSPost2010Prop41ColorIndex
 90
       18
102
RTVSPost2010Prop41ColorRGB
 90
        0
102
RTVSPost2010PropOp41
 70
     1
102
RTVSPost2010Prop42
 90
       50
102
RTVSPost2010PropOp42
 70
     1
102
RTVSPost2010Prop43
 90
        3
102
RTVSPost2010PropOp43
 70
     1
102
RTVSPost2010Prop44ColorIndex
 90
        5
102
RTVSPost2010Prop44ColorRGB
 90
      255
102
RTVSPost2010PropOp44
 70
     1
102
RTVSPost2010Prop45
280
     0
102
RTVSPost2010PropOp45
 70
     1
102
RTVSPost2010Prop46
 90
       50
102
RTVSPost2010PropOp46
 70
     1
102
RTVSPost2010Prop47
 90
       50
102
RTVSPost2010PropOp47
 70
     1
102
RTVSPost2010Prop48
 90
       50
102
RTVSPost2010PropOp48
 70
     1
102
RTVSPost2010Prop49
280
     0
102
RTVSPost2010PropOp49
 70
     1
102
RTVSPost2010Prop50
 90
       50
102
RTVSPost2010PropOp50
 70
     1
102
RTVSPost2010Prop51ColorIndex
 90
      256
102
RTVSPost2010Prop51ColorRGB
 90
-16777216
102
RTVSPost2010PropOp51
 70
     0
102
RTVSPost2010Prop52
140
1.0
102
RTVSPost2010PropOp52
 70
     0
102
RTVSPost2010Prop53
 90
        2
102
RTVSPost2010PropOp53
 70
     1
102
RTVSPost2010Prop54
  1
strokes_ogs.tif
102
RTVSPost2010PropOp54
 70
     1
102
RTVSPost2010Prop55
280
     0
102
RTVSPost2010PropOp55
 70
     1
102
RTVSPost2010Prop56
140
1.0
102
RTVSPost2010PropOp56
 70
     1
102
RTVSPost2010Prop57
140
1.0
102
RTVSPost2010PropOp57
 70
     1
102
RTVSPropertyOp0
 70
     1
102
RTVSPropertyOp1
 70
     1
102
RTVSPropertyOp2
 70
     1
102
RTVSPropertyOp3
 70
     1
102
RTVSPropertyOp4
 70
     1
102
RTVSPropertyOp5
 70
     1
102
RTVSPropertyOp6
 70
     1
102
RTVSPropertyOp7
 70
     1
102
RTVSPropertyOp8
 70
     1
102
RTVSPropertyOp9
 70
     1
102
RTVSPropertyOp10
 70
     1
102
RTVSPropertyOp11
 70
     1
102
RTVSPropertyOp12
 70
     1
102
RTVSPropertyOp13
 70
     1
102
RTVSPropertyOp14
 70
     1
102
RTVSPropertyOp15
 70
     1
102
RTVSPropertyOp16
 70
     1
102
RTVSPropertyOp17
 70
     1
102
RTVSPropertyOp18
 70
     1
102
RTVSPropertyOp19
 70
     1
102
RTVSPropertyOp20
 70
     1
102
RTVSPropertyOp21
 70
     1
102
RTVSPropertyOp22
 70
     1
102
RTVSPropertyOp23
 70
     1
102
RTVSPropertyOp24
 70
     1
102
RTVSPropertyOp25
 70
     1
102
RTVSPropertyOp26
 70
     1
102
RTVSPropertyOp27
 70
     1
102
RTVSPropertyOp28
 70
     1
102
RTVSPropertyOp29
 70
     1
102
RTVSPropertyOp30
 70
     1
102
RTVSPropertyOp31
 70
     1
102
RTVSPropertyOp32
 70
     1
102
RTVSPropertyOp33
 70
     1
102
RTVSPropertyOp34
 70
     1
102
RTVSPropertyOp35
 70
     1
102
RTVSPropertyOp36
 70
     1
102
RTVSPropertyOp37
 70
     1
102
RTVSPropertyOp38
 70
     1
102
RTVSPropertyOp39
 70
     1
102
RTVSPropertyOp40
 70
     1
102
RTVSPropertyOp41
 70
     1
102
RTVSPropertyOp42
 70
     1
102
RTVSPropertyOp43
 70
     1
102
RTVSPropertyOp44
 70
     1
102
RTVSPropertyOp45
 70
     1
102
RTVSPropertyOp46
 70
     1
102
RTVSPropertyOp47
 70
     1
102
RTVSPropertyOp48
 70
     1
102
RTVSPropertyOp49
 70
     1
102
RTVSPropertyOp50
 70
     1
102
RTVSPropertyOp51
 70
     0
102
RTVSPropertyOp52
 70
     0
102
RTVSPropertyOp53
 70
     1
102
RTVSPropertyOp54
 70
     1
102
RTVSPropertyOp55
 70
     1
102
RTVSPropertyOp56
 70
     1
102
RTVSPropertyOp57
 70
     1
102
RTVSPropertyOp58
 70
     1
102
RTVSPropertyOp59
 70
     1
102
RTVSPropertyOp60
 70
     1
102
RTVSPropertyOp61
 70
     1
102
RTVSPropertyOp62
 70
     1
  0
XRECORD
  5
6F9
102
{ACAD_REACTORS
330
6F8
102
}
330
6F8
100
AcDbXrecord
280
     1
102
RTVSPost2010Prop28
280
     0
102
RTVSPost2010PropOp28
 70
     1
102
RTVSPost2010Prop29
280
     1
102
RTVSPost2010PropOp29
 70
     1
102
RTVSPost2010Prop30
280
     1
102
RTVSPost2010PropOp30
 70
     1
102
RTVSPost2010Prop31
280
     0
102
RTVSPost2010PropOp31
 70
     1
102
RTVSPost2010Prop32
280
     0
102
RTVSPost2010PropOp32
 70
     1
102
RTVSPost2010Prop33
280
     0
102
RTVSPost2010PropOp33
 70
     1
102
RTVSPost2010Prop34
280
     0
102
RTVSPost2010PropOp34
 70
     1
102
RTVSPost2010Prop35
280
     0
102
RTVSPost2010PropOp35
 70
     1
102
RTVSPost2010Prop36
280
     0
102
RTVSPost2010PropOp36
 70
     1
102
RTVSPost2010Prop37
 90
       50
102
RTVSPost2010PropOp37
 70
     1
102
RTVSPost2010Prop38
140
0.0
102
RTVSPost2010PropOp38
 70
     1
102
RTVSPost2010Prop39
140
1.0
102
RTVSPost2010PropOp39
 70
     1
102
RTVSPost2010Prop40
 90
        0
102
RTVSPost2010PropOp40
 70
     1
102
RTVSPost2010Prop41ColorIndex
 90
       18
102
RTVSPost2010Prop41ColorRGB
 90
        0
102
RTVSPost2010PropOp41
 70
     1
102
RTVSPost2010Prop42
 90
       50
102
RTVSPost2010PropOp42
 70
     1
102
RTVSPost2010Prop43
 90
        3
102
RTVSPost2010PropOp43
 70
     1
102
RTVSPost2010Prop44ColorIndex
 90
        5
102
RTVSPost2010Prop44ColorRGB
 90
      255
102
RTVSPost2010PropOp44
 70
     1
102
RTVSPost2010Prop45
280
     0
102
RTVSPost2010PropOp45
 70
     1
102
RTVSPost2010Prop46
 90
       50
102
RTVSPost2010PropOp46
 70
     1
102
RTVSPost2010Prop47
 90
       50
102
RTVSPost2010PropOp47
 70
     1
102
RTVSPost2010Prop48
 90
       50
102
RTVSPost2010PropOp48
 70
     1
102
RTVSPost2010Prop49
280
     0
102
RTVSPost2010PropOp49
 70
     1
102
RTVSPost2010Prop50
 90
       50
102
RTVSPost2010PropOp50
 70
     1
102
RTVSPost2010Prop51ColorIndex
 90
      256
102
RTVSPost2010Prop51ColorRGB
 90
-16777216
102
RTVSPost2010PropOp51
 70
     0
102
RTVSPost2010Prop52
140
1.0
102
RTVSPost2010PropOp52
 70
     0
102
RTVSPost2010Prop53
 90
        2
102
RTVSPost2010PropOp53
 70
     1
102
RTVSPost2010Prop54
  1
strokes_ogs.tif
102
RTVSPost2010PropOp54
 70
     1
102
RTVSPost2010Prop55
280
     0
102
RTVSPost2010PropOp55
 70
     1
102
RTVSPost2010Prop56
140
1.0
102
RTVSPost2010PropOp56
 70
     1
102
RTVSPost2010Prop57
140
1.0
102
RTVSPost2010PropOp57
 70
     1
102
RTVSPropertyOp0
 70
     1
102
RTVSPropertyOp1
 70
     1
102
RTVSPropertyOp2
 70
     1
102
RTVSPropertyOp3
 70
     1
102
RTVSPropertyOp4
 70
     1
102
RTVSPropertyOp5
 70
     1
102
RTVSPropertyOp6
 70
     1
102
RTVSPropertyOp7
 70
     1
102
RTVSPropertyOp8
 70
     1
102
RTVSPropertyOp9
 70
     1
102
RTVSPropertyOp10
 70
     1
102
RTVSPropertyOp11
 70
     1
102
RTVSPropertyOp12
 70
     1
102
RTVSPropertyOp13
 70
     1
102
RTVSPropertyOp14
 70
     1
102
RTVSPropertyOp15
 70
     1
102
RTVSPropertyOp16
 70
     1
102
RTVSPropertyOp17
 70
     1
102
RTVSPropertyOp18
 70
     1
102
RTVSPropertyOp19
 70
     1
102
RTVSPropertyOp20
 70
     1
102
RTVSPropertyOp21
 70
     1
102
RTVSPropertyOp22
 70
     1
102
RTVSPropertyOp23
 70
     1
102
RTVSPropertyOp24
 70
     1
102
RTVSPropertyOp25
 70
     1
102
RTVSPropertyOp26
 70
     1
102
RTVSPropertyOp27
 70
     1
102
RTVSPropertyOp28
 70
     1
102
RTVSPropertyOp29
 70
     1
102
RTVSPropertyOp30
 70
     1
102
RTVSPropertyOp31
 70
     1
102
RTVSPropertyOp32
 70
     1
102
RTVSPropertyOp33
 70
     1
102
RTVSPropertyOp34
 70
     1
102
RTVSPropertyOp35
 70
     1
102
RTVSPropertyOp36
 70
     1
102
RTVSPropertyOp37
 70
     1
102
RTVSPropertyOp38
 70
     1
102
RTVSPropertyOp39
 70
     1
102
RTVSPropertyOp40
 70
     1
102
RTVSPropertyOp41
 70
     1
102
RTVSPropertyOp42
 70
     1
102
RTVSPropertyOp43
 70
     1
102
RTVSPropertyOp44
 70
     1
102
RTVSPropertyOp45
 70
     1
102
RTVSPropertyOp46
 70
     1
102
RTVSPropertyOp47
 70
     1
102
RTVSPropertyOp48
 70
     1
102
RTVSPropertyOp49
 70
     1
102
RTVSPropertyOp50
 70
     1
102
RTVSPropertyOp51
 70
     0
102
RTVSPropertyOp52
 70
     0
102
RTVSPropertyOp53
 70
     1
102
RTVSPropertyOp54
 70
     1
102
RTVSPropertyOp55
 70
     1
102
RTVSPropertyOp56
 70
     1
102
RTVSPropertyOp57
 70
     1
102
RTVSPropertyOp58
 70
     1
102
RTVSPropertyOp59
 70
     1
102
RTVSPropertyOp60
 70
     1
102
RTVSPropertyOp61
 70
     1
102
RTVSPropertyOp62
 70
     1
  0
XRECORD
  5
6FD
102
{ACAD_REACTORS
330
6FC
102
}
330
6FC
100
AcDbXrecord
280
     1
102
RTVSPost2010Prop28
280
     0
102
RTVSPost2010PropOp28
 70
     1
102
RTVSPost2010Prop29
280
     1
102
RTVSPost2010PropOp29
 70
     1
102
RTVSPost2010Prop30
280
     1
102
RTVSPost2010PropOp30
 70
     1
102
RTVSPost2010Prop31
280
     0
102
RTVSPost2010PropOp31
 70
     1
102
RTVSPost2010Prop32
280
     0
102
RTVSPost2010PropOp32
 70
     1
102
RTVSPost2010Prop33
280
     0
102
RTVSPost2010PropOp33
 70
     1
102
RTVSPost2010Prop34
280
     0
102
RTVSPost2010PropOp34
 70
     1
102
RTVSPost2010Prop35
280
     0
102
RTVSPost2010PropOp35
 70
     1
102
RTVSPost2010Prop36
280
     0
102
RTVSPost2010PropOp36
 70
     1
102
RTVSPost2010Prop37
 90
       50
102
RTVSPost2010PropOp37
 70
     1
102
RTVSPost2010Prop38
140
0.0
102
RTVSPost2010PropOp38
 70
     1
102
RTVSPost2010Prop39
140
1.0
102
RTVSPost2010PropOp39
 70
     1
102
RTVSPost2010Prop40
 90
        0
102
RTVSPost2010PropOp40
 70
     1
102
RTVSPost2010Prop41ColorIndex
 90
       18
102
RTVSPost2010Prop41ColorRGB
 90
        0
102
RTVSPost2010PropOp41
 70
     1
102
RTVSPost2010Prop42
 90
       50
102
RTVSPost2010PropOp42
 70
     1
102
RTVSPost2010Prop43
 90
        3
102
RTVSPost2010PropOp43
 70
     1
102
RTVSPost2010Prop44ColorIndex
 90
        5
102
RTVSPost2010Prop44ColorRGB
 90
      255
102
RTVSPost2010PropOp44
 70
     1
102
RTVSPost2010Prop45
280
     0
102
RTVSPost2010PropOp45
 70
     1
102
RTVSPost2010Prop46
 90
       50
102
RTVSPost2010PropOp46
 70
     1
102
RTVSPost2010Prop47
 90
       50
102
RTVSPost2010PropOp47
 70
     1
102
RTVSPost2010Prop48
 90
       50
102
RTVSPost2010PropOp48
 70
     1
102
RTVSPost2010Prop49
280
     0
102
RTVSPost2010PropOp49
 70
     1
102
RTVSPost2010Prop50
 90
       50
102
RTVSPost2010PropOp50
 70
     1
102
RTVSPost2010Prop51ColorIndex
 90
      256
102
RTVSPost2010Prop51ColorRGB
 90
-16777216
102
RTVSPost2010PropOp51
 70
     0
102
RTVSPost2010Prop52
140
1.0
102
RTVSPost2010PropOp52
 70
     0
102
RTVSPost2010Prop53
 90
        2
102
RTVSPost2010PropOp53
 70
     1
102
RTVSPost2010Prop54
  1
strokes_ogs.tif
102
RTVSPost2010PropOp54
 70
     1
102
RTVSPost2010Prop55
280
     0
102
RTVSPost2010PropOp55
 70
     1
102
RTVSPost2010Prop56
140
1.0
102
RTVSPost2010PropOp56
 70
     1
102
RTVSPost2010Prop57
140
1.0
102
RTVSPost2010PropOp57
 70
     1
102
RTVSPropertyOp0
 70
     1
102
RTVSPropertyOp1
 70
     1
102
RTVSPropertyOp2
 70
     1
102
RTVSPropertyOp3
 70
     1
102
RTVSPropertyOp4
 70
     1
102
RTVSPropertyOp5
 70
     1
102
RTVSPropertyOp6
 70
     1
102
RTVSPropertyOp7
 70
     1
102
RTVSPropertyOp8
 70
     1
102
RTVSPropertyOp9
 70
     1
102
RTVSPropertyOp10
 70
     1
102
RTVSPropertyOp11
 70
     1
102
RTVSPropertyOp12
 70
     1
102
RTVSPropertyOp13
 70
     1
102
RTVSPropertyOp14
 70
     1
102
RTVSPropertyOp15
 70
     1
102
RTVSPropertyOp16
 70
     1
102
RTVSPropertyOp17
 70
     1
102
RTVSPropertyOp18
 70
     1
102
RTVSPropertyOp19
 70
     1
102
RTVSPropertyOp20
 70
     1
102
RTVSPropertyOp21
 70
     1
102
RTVSPropertyOp22
 70
     1
102
RTVSPropertyOp23
 70
     1
102
RTVSPropertyOp24
 70
     1
102
RTVSPropertyOp25
 70
     1
102
RTVSPropertyOp26
 70
     1
102
RTVSPropertyOp27
 70
     1
102
RTVSPropertyOp28
 70
     1
102
RTVSPropertyOp29
 70
     1
102
RTVSPropertyOp30
 70
     1
102
RTVSPropertyOp31
 70
     1
102
RTVSPropertyOp32
 70
     1
102
RTVSPropertyOp33
 70
     1
102
RTVSPropertyOp34
 70
     1
102
RTVSPropertyOp35
 70
     1
102
RTVSPropertyOp36
 70
     1
102
RTVSPropertyOp37
 70
     1
102
RTVSPropertyOp38
 70
     1
102
RTVSPropertyOp39
 70
     1
102
RTVSPropertyOp40
 70
     1
102
RTVSPropertyOp41
 70
     1
102
RTVSPropertyOp42
 70
     1
102
RTVSPropertyOp43
 70
     1
102
RTVSPropertyOp44
 70
     1
102
RTVSPropertyOp45
 70
     1
102
RTVSPropertyOp46
 70
     1
102
RTVSPropertyOp47
 70
     1
102
RTVSPropertyOp48
 70
     1
102
RTVSPropertyOp49
 70
     1
102
RTVSPropertyOp50
 70
     1
102
RTVSPropertyOp51
 70
     0
102
RTVSPropertyOp52
 70
     0
102
RTVSPropertyOp53
 70
     1
102
RTVSPropertyOp54
 70
     1
102
RTVSPropertyOp55
 70
     1
102
RTVSPropertyOp56
 70
     1
102
RTVSPropertyOp57
 70
     1
102
RTVSPropertyOp58
 70
     1
102
RTVSPropertyOp59
 70
     1
102
RTVSPropertyOp60
 70
     1
102
RTVSPropertyOp61
 70
     1
102
RTVSPropertyOp62
 70
     1
  0
XRECORD
  5
717
102
{ACAD_REACTORS
330
716
102
}
330
716
100
AcDbXrecord
280
     1
102
RTVSPost2010Prop28
280
     0
102
RTVSPost2010PropOp28
 70
     1
102
RTVSPost2010Prop29
280
     1
102
RTVSPost2010PropOp29
 70
     1
102
RTVSPost2010Prop30
280
     1
102
RTVSPost2010PropOp30
 70
     1
102
RTVSPost2010Prop31
280
     0
102
RTVSPost2010PropOp31
 70
     1
102
RTVSPost2010Prop32
280
     0
102
RTVSPost2010PropOp32
 70
     1
102
RTVSPost2010Prop33
280
     0
102
RTVSPost2010PropOp33
 70
     1
102
RTVSPost2010Prop34
280
     0
102
RTVSPost2010PropOp34
 70
     1
102
RTVSPost2010Prop35
280
     0
102
RTVSPost2010PropOp35
 70
     1
102
RTVSPost2010Prop36
280
     0
102
RTVSPost2010PropOp36
 70
     1
102
RTVSPost2010Prop37
 90
       50
102
RTVSPost2010PropOp37
 70
     0
102
RTVSPost2010Prop38
140
0.0
102
RTVSPost2010PropOp38
 70
     0
102
RTVSPost2010Prop39
140
1.0
102
RTVSPost2010PropOp39
 70
     0
102
RTVSPost2010Prop40
 90
        0
102
RTVSPost2010PropOp40
 70
     0
102
RTVSPost2010Prop41ColorIndex
 90
       18
102
RTVSPost2010Prop41ColorRGB
 90
        0
102
RTVSPost2010PropOp41
 70
     0
102
RTVSPost2010Prop42
 90
       50
102
RTVSPost2010PropOp42
 70
     0
102
RTVSPost2010Prop43
 90
        3
102
RTVSPost2010PropOp43
 70
     0
102
RTVSPost2010Prop44ColorIndex
 90
        5
102
RTVSPost2010Prop44ColorRGB
 90
      255
102
RTVSPost2010PropOp44
 70
     0
102
RTVSPost2010Prop45
280
     0
102
RTVSPost2010PropOp45
 70
     1
102
RTVSPost2010Prop46
 90
       50
102
RTVSPost2010PropOp46
 70
     0
102
RTVSPost2010Prop47
 90
       50
102
RTVSPost2010PropOp47
 70
     0
102
RTVSPost2010Prop48
 90
       50
102
RTVSPost2010PropOp48
 70
     0
102
RTVSPost2010Prop49
280
     0
102
RTVSPost2010PropOp49
 70
     1
102
RTVSPost2010Prop50
 90
       50
102
RTVSPost2010PropOp50
 70
     0
102
RTVSPost2010Prop51ColorIndex
 90
      256
102
RTVSPost2010Prop51ColorRGB
 90
-16777216
102
RTVSPost2010PropOp51
 70
     0
102
RTVSPost2010Prop52
140
1.0
102
RTVSPost2010PropOp52
 70
     0
102
RTVSPost2010Prop53
 90
        2
102
RTVSPost2010PropOp53
 70
     0
102
RTVSPost2010Prop54
  1
strokes_ogs.tif
102
RTVSPost2010PropOp54
 70
     0
102
RTVSPost2010Prop55
280
     0
102
RTVSPost2010PropOp55
 70
     1
102
RTVSPost2010Prop56
140
1.0
102
RTVSPost2010PropOp56
 70
     0
102
RTVSPost2010Prop57
140
1.0
102
RTVSPost2010PropOp57
 70
     0
102
RTVSPropertyOp0
 70
     0
102
RTVSPropertyOp1
 70
     0
102
RTVSPropertyOp2
 70
     0
102
RTVSPropertyOp3
 70
     0
102
RTVSPropertyOp4
 70
     0
102
RTVSPropertyOp5
 70
     0
102
RTVSPropertyOp6
 70
     0
102
RTVSPropertyOp7
 70
     0
102
RTVSPropertyOp8
 70
     0
102
RTVSPropertyOp9
 70
     0
102
RTVSPropertyOp10
 70
     0
102
RTVSPropertyOp11
 70
     0
102
RTVSPropertyOp12
 70
     0
102
RTVSPropertyOp13
 70
     0
102
RTVSPropertyOp14
 70
     2
102
RTVSPropertyOp15
 70
     0
102
RTVSPropertyOp16
 70
     0
102
RTVSPropertyOp17
 70
     0
102
RTVSPropertyOp18
 70
     0
102
RTVSPropertyOp19
 70
     0
102
RTVSPropertyOp20
 70
     0
102
RTVSPropertyOp21
 70
     0
102
RTVSPropertyOp22
 70
     0
102
RTVSPropertyOp23
 70
     0
102
RTVSPropertyOp24
 70
     0
102
RTVSPropertyOp25
 70
     0
102
RTVSPropertyOp26
 70
     0
102
RTVSPropertyOp27
 70
     0
102
RTVSPropertyOp28
 70
     1
102
RTVSPropertyOp29
 70
     1
102
RTVSPropertyOp30
 70
     1
102
RTVSPropertyOp31
 70
     1
102
RTVSPropertyOp32
 70
     1
102
RTVSPropertyOp33
 70
     1
102
RTVSPropertyOp34
 70
     1
102
RTVSPropertyOp35
 70
     1
102
RTVSPropertyOp36
 70
     1
102
RTVSPropertyOp37
 70
     0
102
RTVSPropertyOp38
 70
     0
102
RTVSPropertyOp39
 70
     0
102
RTVSPropertyOp40
 70
     0
102
RTVSPropertyOp41
 70
     0
102
RTVSPropertyOp42
 70
     0
102
RTVSPropertyOp43
 70
     0
102
RTVSPropertyOp44
 70
     0
102
RTVSPropertyOp45
 70
     1
102
RTVSPropertyOp46
 70
     0
102
RTVSPropertyOp47
 70
     0
102
RTVSPropertyOp48
 70
     0
102
RTVSPropertyOp49
 70
     1
102
RTVSPropertyOp50
 70
     0
102
RTVSPropertyOp51
 70
     0
102
RTVSPropertyOp52
 70
     0
102
RTVSPropertyOp53
 70
     0
102
RTVSPropertyOp54
 70
     0
102
RTVSPropertyOp55
 70
     1
102
RTVSPropertyOp56
 70
     0
102
RTVSPropertyOp57
 70
     0
102
RTVSPropertyOp58
 70
     0
102
RTVSPropertyOp59
 70
     0
102
RTVSPropertyOp60
 70
     0
102
RTVSPropertyOp61
 70
     0
102
RTVSPropertyOp62
 70
     0
  0
XRECORD
  5
705
102
{ACAD_REACTORS
330
704
102
}
330
704
100
AcDbXrecord
280
     1
102
RTVSPost2010Prop28
280
     0
102
RTVSPost2010PropOp28
 70
     1
102
RTVSPost2010Prop29
280
     1
102
RTVSPost2010PropOp29
 70
     1
102
RTVSPost2010Prop30
280
     1
102
RTVSPost2010PropOp30
 70
     1
102
RTVSPost2010Prop31
280
     0
102
RTVSPost2010PropOp31
 70
     1
102
RTVSPost2010Prop32
280
     0
102
RTVSPost2010PropOp32
 70
     1
102
RTVSPost2010Prop33
280
     0
102
RTVSPost2010PropOp33
 70
     1
102
RTVSPost2010Prop34
280
     0
102
RTVSPost2010PropOp34
 70
     1
102
RTVSPost2010Prop35
280
     0
102
RTVSPost2010PropOp35
 70
     1
102
RTVSPost2010Prop36
280
     0
102
RTVSPost2010PropOp36
 70
     1
102
RTVSPost2010Prop37
 90
       50
102
RTVSPost2010PropOp37
 70
     1
102
RTVSPost2010Prop38
140
0.0
102
RTVSPost2010PropOp38
 70
     1
102
RTVSPost2010Prop39
140
1.0
102
RTVSPost2010PropOp39
 70
     1
102
RTVSPost2010Prop40
 90
        0
102
RTVSPost2010PropOp40
 70
     1
102
RTVSPost2010Prop41ColorIndex
 90
       18
102
RTVSPost2010Prop41ColorRGB
 90
        0
102
RTVSPost2010PropOp41
 70
     1
102
RTVSPost2010Prop42
 90
       50
102
RTVSPost2010PropOp42
 70
     1
102
RTVSPost2010Prop43
 90
        3
102
RTVSPost2010PropOp43
 70
     1
102
RTVSPost2010Prop44ColorIndex
 90
        5
102
RTVSPost2010Prop44ColorRGB
 90
      255
102
RTVSPost2010PropOp44
 70
     1
102
RTVSPost2010Prop45
280
     0
102
RTVSPost2010PropOp45
 70
     1
102
RTVSPost2010Prop46
 90
       50
102
RTVSPost2010PropOp46
 70
     1
102
RTVSPost2010Prop47
 90
       50
102
RTVSPost2010PropOp47
 70
     1
102
RTVSPost2010Prop48
 90
       50
102
RTVSPost2010PropOp48
 70
     1
102
RTVSPost2010Prop49
280
     0
102
RTVSPost2010PropOp49
 70
     1
102
RTVSPost2010Prop50
 90
       50
102
RTVSPost2010PropOp50
 70
     1
102
RTVSPost2010Prop51ColorIndex
 90
      256
102
RTVSPost2010Prop51ColorRGB
 90
-16777216
102
RTVSPost2010PropOp51
 70
     0
102
RTVSPost2010Prop52
140
1.0
102
RTVSPost2010PropOp52
 70
     0
102
RTVSPost2010Prop53
 90
        2
102
RTVSPost2010PropOp53
 70
     1
102
RTVSPost2010Prop54
  1
strokes_ogs.tif
102
RTVSPost2010PropOp54
 70
     1
102
RTVSPost2010Prop55
280
     0
102
RTVSPost2010PropOp55
 70
     1
102
RTVSPost2010Prop56
140
1.0
102
RTVSPost2010PropOp56
 70
     1
102
RTVSPost2010Prop57
140
1.0
102
RTVSPost2010PropOp57
 70
     1
102
RTVSPropertyOp0
 70
     1
102
RTVSPropertyOp1
 70
     1
102
RTVSPropertyOp2
 70
     1
102
RTVSPropertyOp3
 70
     1
102
RTVSPropertyOp4
 70
     1
102
RTVSPropertyOp5
 70
     1
102
RTVSPropertyOp6
 70
     1
102
RTVSPropertyOp7
 70
     1
102
RTVSPropertyOp8
 70
     1
102
RTVSPropertyOp9
 70
     1
102
RTVSPropertyOp10
 70
     1
102
RTVSPropertyOp11
 70
     1
102
RTVSPropertyOp12
 70
     1
102
RTVSPropertyOp13
 70
     1
102
RTVSPropertyOp14
 70
     1
102
RTVSPropertyOp15
 70
     1
102
RTVSPropertyOp16
 70
     1
102
RTVSPropertyOp17
 70
     1
102
RTVSPropertyOp18
 70
     1
102
RTVSPropertyOp19
 70
     1
102
RTVSPropertyOp20
 70
     1
102
RTVSPropertyOp21
 70
     1
102
RTVSPropertyOp22
 70
     1
102
RTVSPropertyOp23
 70
     1
102
RTVSPropertyOp24
 70
     1
102
RTVSPropertyOp25
 70
     1
102
RTVSPropertyOp26
 70
     1
102
RTVSPropertyOp27
 70
     1
102
RTVSPropertyOp28
 70
     1
102
RTVSPropertyOp29
 70
     1
102
RTVSPropertyOp30
 70
     1
102
RTVSPropertyOp31
 70
     1
102
RTVSPropertyOp32
 70
     1
102
RTVSPropertyOp33
 70
     1
102
RTVSPropertyOp34
 70
     1
102
RTVSPropertyOp35
 70
     1
102
RTVSPropertyOp36
 70
     1
102
RTVSPropertyOp37
 70
     1
102
RTVSPropertyOp38
 70
     1
102
RTVSPropertyOp39
 70
     1
102
RTVSPropertyOp40
 70
     1
102
RTVSPropertyOp41
 70
     1
102
RTVSPropertyOp42
 70
     1
102
RTVSPropertyOp43
 70
     1
102
RTVSPropertyOp44
 70
     1
102
RTVSPropertyOp45
 70
     1
102
RTVSPropertyOp46
 70
     1
102
RTVSPropertyOp47
 70
     1
102
RTVSPropertyOp48
 70
     1
102
RTVSPropertyOp49
 70
     1
102
RTVSPropertyOp50
 70
     1
102
RTVSPropertyOp51
 70
     0
102
RTVSPropertyOp52
 70
     0
102
RTVSPropertyOp53
 70
     1
102
RTVSPropertyOp54
 70
     1
102
RTVSPropertyOp55
 70
     1
102
RTVSPropertyOp56
 70
     1
102
RTVSPropertyOp57
 70
     1
102
RTVSPropertyOp58
 70
     1
102
RTVSPropertyOp59
 70
     1
102
RTVSPropertyOp60
 70
     1
102
RTVSPropertyOp61
 70
     1
102
RTVSPropertyOp62
 70
     1
  0
XRECORD
  5
6E9
102
{ACAD_REACTORS
330
6E8
102
}
330
6E8
100
AcDbXrecord
280
     1
102
RTVSPost2010Prop28
280
     0
102
RTVSPost2010PropOp28
 70
     1
102
RTVSPost2010Prop29
280
     1
102
RTVSPost2010PropOp29
 70
     1
102
RTVSPost2010Prop30
280
     1
102
RTVSPost2010PropOp30
 70
     1
102
RTVSPost2010Prop31
280
     0
102
RTVSPost2010PropOp31
 70
     1
102
RTVSPost2010Prop32
280
     0
102
RTVSPost2010PropOp32
 70
     1
102
RTVSPost2010Prop33
280
     0
102
RTVSPost2010PropOp33
 70
     1
102
RTVSPost2010Prop34
280
     0
102
RTVSPost2010PropOp34
 70
     1
102
RTVSPost2010Prop35
280
     0
102
RTVSPost2010PropOp35
 70
     1
102
RTVSPost2010Prop36
280
     0
102
RTVSPost2010PropOp36
 70
     1
102
RTVSPost2010Prop37
 90
       50
102
RTVSPost2010PropOp37
 70
     1
102
RTVSPost2010Prop38
140
0.0
102
RTVSPost2010PropOp38
 70
     1
102
RTVSPost2010Prop39
140
1.0
102
RTVSPost2010PropOp39
 70
     1
102
RTVSPost2010Prop40
 90
        0
102
RTVSPost2010PropOp40
 70
     1
102
RTVSPost2010Prop41ColorIndex
 90
       18
102
RTVSPost2010Prop41ColorRGB
 90
        0
102
RTVSPost2010PropOp41
 70
     1
102
RTVSPost2010Prop42
 90
       50
102
RTVSPost2010PropOp42
 70
     1
102
RTVSPost2010Prop43
 90
        3
102
RTVSPost2010PropOp43
 70
     1
102
RTVSPost2010Prop44ColorIndex
 90
        5
102
RTVSPost2010Prop44ColorRGB
 90
      255
102
RTVSPost2010PropOp44
 70
     1
102
RTVSPost2010Prop45
280
     0
102
RTVSPost2010PropOp45
 70
     1
102
RTVSPost2010Prop46
 90
       50
102
RTVSPost2010PropOp46
 70
     1
102
RTVSPost2010Prop47
 90
       50
102
RTVSPost2010PropOp47
 70
     1
102
RTVSPost2010Prop48
 90
       50
102
RTVSPost2010PropOp48
 70
     1
102
RTVSPost2010Prop49
280
     0
102
RTVSPost2010PropOp49
 70
     1
102
RTVSPost2010Prop50
 90
       50
102
RTVSPost2010PropOp50
 70
     1
102
RTVSPost2010Prop51ColorIndex
 90
      256
102
RTVSPost2010Prop51ColorRGB
 90
-16777216
102
RTVSPost2010PropOp51
 70
     0
102
RTVSPost2010Prop52
140
1.0
102
RTVSPost2010PropOp52
 70
     0
102
RTVSPost2010Prop53
 90
        2
102
RTVSPost2010PropOp53
 70
     1
102
RTVSPost2010Prop54
  1
strokes_ogs.tif
102
RTVSPost2010PropOp54
 70
     1
102
RTVSPost2010Prop55
280
     0
102
RTVSPost2010PropOp55
 70
     1
102
RTVSPost2010Prop56
140
1.0
102
RTVSPost2010PropOp56
 70
     1
102
RTVSPost2010Prop57
140
1.0
102
RTVSPost2010PropOp57
 70
     1
102
RTVSPropertyOp0
 70
     1
102
RTVSPropertyOp1
 70
     1
102
RTVSPropertyOp2
 70
     1
102
RTVSPropertyOp3
 70
     1
102
RTVSPropertyOp4
 70
     1
102
RTVSPropertyOp5
 70
     1
102
RTVSPropertyOp6
 70
     1
102
RTVSPropertyOp7
 70
     1
102
RTVSPropertyOp8
 70
     1
102
RTVSPropertyOp9
 70
     1
102
RTVSPropertyOp10
 70
     1
102
RTVSPropertyOp11
 70
     1
102
RTVSPropertyOp12
 70
     1
102
RTVSPropertyOp13
 70
     1
102
RTVSPropertyOp14
 70
     1
102
RTVSPropertyOp15
 70
     1
102
RTVSPropertyOp16
 70
     1
102
RTVSPropertyOp17
 70
     1
102
RTVSPropertyOp18
 70
     1
102
RTVSPropertyOp19
 70
     1
102
RTVSPropertyOp20
 70
     1
102
RTVSPropertyOp21
 70
     1
102
RTVSPropertyOp22
 70
     1
102
RTVSPropertyOp23
 70
     1
102
RTVSPropertyOp24
 70
     1
102
RTVSPropertyOp25
 70
     1
102
RTVSPropertyOp26
 70
     1
102
RTVSPropertyOp27
 70
     1
102
RTVSPropertyOp28
 70
     1
102
RTVSPropertyOp29
 70
     1
102
RTVSPropertyOp30
 70
     1
102
RTVSPropertyOp31
 70
     1
102
RTVSPropertyOp32
 70
     1
102
RTVSPropertyOp33
 70
     1
102
RTVSPropertyOp34
 70
     1
102
RTVSPropertyOp35
 70
     1
102
RTVSPropertyOp36
 70
     1
102
RTVSPropertyOp37
 70
     1
102
RTVSPropertyOp38
 70
     1
102
RTVSPropertyOp39
 70
     1
102
RTVSPropertyOp40
 70
     1
102
RTVSPropertyOp41
 70
     1
102
RTVSPropertyOp42
 70
     1
102
RTVSPropertyOp43
 70
     1
102
RTVSPropertyOp44
 70
     1
102
RTVSPropertyOp45
 70
     1
102
RTVSPropertyOp46
 70
     1
102
RTVSPropertyOp47
 70
     1
102
RTVSPropertyOp48
 70
     1
102
RTVSPropertyOp49
 70
     1
102
RTVSPropertyOp50
 70
     1
102
RTVSPropertyOp51
 70
     0
102
RTVSPropertyOp52
 70
     0
102
RTVSPropertyOp53
 70
     1
102
RTVSPropertyOp54
 70
     1
102
RTVSPropertyOp55
 70
     1
102
RTVSPropertyOp56
 70
     1
102
RTVSPropertyOp57
 70
     1
102
RTVSPropertyOp58
 70
     1
102
RTVSPropertyOp59
 70
     1
102
RTVSPropertyOp60
 70
     1
102
RTVSPropertyOp61
 70
     1
102
RTVSPropertyOp62
 70
     1
  0
XRECORD
  5
6EB
102
{ACAD_REACTORS
330
6EA
102
}
330
6EA
100
AcDbXrecord
280
     1
102
RTVSPost2010Prop28
280
     0
102
RTVSPost2010PropOp28
 70
     1
102
RTVSPost2010Prop29
280
     1
102
RTVSPost2010PropOp29
 70
     1
102
RTVSPost2010Prop30
280
     1
102
RTVSPost2010PropOp30
 70
     1
102
RTVSPost2010Prop31
280
     0
102
RTVSPost2010PropOp31
 70
     1
102
RTVSPost2010Prop32
280
     0
102
RTVSPost2010PropOp32
 70
     1
102
RTVSPost2010Prop33
280
     0
102
RTVSPost2010PropOp33
 70
     1
102
RTVSPost2010Prop34
280
     0
102
RTVSPost2010PropOp34
 70
     1
102
RTVSPost2010Prop35
280
     0
102
RTVSPost2010PropOp35
 70
     1
102
RTVSPost2010Prop36
280
     0
102
RTVSPost2010PropOp36
 70
     1
102
RTVSPost2010Prop37
 90
       50
102
RTVSPost2010PropOp37
 70
     1
102
RTVSPost2010Prop38
140
0.0
102
RTVSPost2010PropOp38
 70
     1
102
RTVSPost2010Prop39
140
1.0
102
RTVSPost2010PropOp39
 70
     1
102
RTVSPost2010Prop40
 90
        0
102
RTVSPost2010PropOp40
 70
     1
102
RTVSPost2010Prop41ColorIndex
 90
       18
102
RTVSPost2010Prop41ColorRGB
 90
        0
102
RTVSPost2010PropOp41
 70
     1
102
RTVSPost2010Prop42
 90
       50
102
RTVSPost2010PropOp42
 70
     1
102
RTVSPost2010Prop43
 90
        3
102
RTVSPost2010PropOp43
 70
     1
102
RTVSPost2010Prop44ColorIndex
 90
        5
102
RTVSPost2010Prop44ColorRGB
 90
      255
102
RTVSPost2010PropOp44
 70
     1
102
RTVSPost2010Prop45
280
     0
102
RTVSPost2010PropOp45
 70
     1
102
RTVSPost2010Prop46
 90
       50
102
RTVSPost2010PropOp46
 70
     1
102
RTVSPost2010Prop47
 90
       50
102
RTVSPost2010PropOp47
 70
     1
102
RTVSPost2010Prop48
 90
       50
102
RTVSPost2010PropOp48
 70
     1
102
RTVSPost2010Prop49
280
     0
102
RTVSPost2010PropOp49
 70
     1
102
RTVSPost2010Prop50
 90
       50
102
RTVSPost2010PropOp50
 70
     1
102
RTVSPost2010Prop51ColorIndex
 90
      256
102
RTVSPost2010Prop51ColorRGB
 90
-16777216
102
RTVSPost2010PropOp51
 70
     0
102
RTVSPost2010Prop52
140
1.0
102
RTVSPost2010PropOp52
 70
     0
102
RTVSPost2010Prop53
 90
        2
102
RTVSPost2010PropOp53
 70
     1
102
RTVSPost2010Prop54
  1
strokes_ogs.tif
102
RTVSPost2010PropOp54
 70
     1
102
RTVSPost2010Prop55
280
     0
102
RTVSPost2010PropOp55
 70
     1
102
RTVSPost2010Prop56
140
1.0
102
RTVSPost2010PropOp56
 70
     1
102
RTVSPost2010Prop57
140
1.0
102
RTVSPost2010PropOp57
 70
     1
102
RTVSPropertyOp0
 70
     1
102
RTVSPropertyOp1
 70
     1
102
RTVSPropertyOp2
 70
     1
102
RTVSPropertyOp3
 70
     1
102
RTVSPropertyOp4
 70
     1
102
RTVSPropertyOp5
 70
     1
102
RTVSPropertyOp6
 70
     1
102
RTVSPropertyOp7
 70
     1
102
RTVSPropertyOp8
 70
     1
102
RTVSPropertyOp9
 70
     1
102
RTVSPropertyOp10
 70
     1
102
RTVSPropertyOp11
 70
     1
102
RTVSPropertyOp12
 70
     1
102
RTVSPropertyOp13
 70
     1
102
RTVSPropertyOp14
 70
     1
102
RTVSPropertyOp15
 70
     1
102
RTVSPropertyOp16
 70
     1
102
RTVSPropertyOp17
 70
     1
102
RTVSPropertyOp18
 70
     1
102
RTVSPropertyOp19
 70
     1
102
RTVSPropertyOp20
 70
     1
102
RTVSPropertyOp21
 70
     1
102
RTVSPropertyOp22
 70
     1
102
RTVSPropertyOp23
 70
     1
102
RTVSPropertyOp24
 70
     1
102
RTVSPropertyOp25
 70
     1
102
RTVSPropertyOp26
 70
     1
102
RTVSPropertyOp27
 70
     1
102
RTVSPropertyOp28
 70
     1
102
RTVSPropertyOp29
 70
     1
102
RTVSPropertyOp30
 70
     1
102
RTVSPropertyOp31
 70
     1
102
RTVSPropertyOp32
 70
     1
102
RTVSPropertyOp33
 70
     1
102
RTVSPropertyOp34
 70
     1
102
RTVSPropertyOp35
 70
     1
102
RTVSPropertyOp36
 70
     1
102
RTVSPropertyOp37
 70
     1
102
RTVSPropertyOp38
 70
     1
102
RTVSPropertyOp39
 70
     1
102
RTVSPropertyOp40
 70
     1
102
RTVSPropertyOp41
 70
     1
102
RTVSPropertyOp42
 70
     1
102
RTVSPropertyOp43
 70
     1
102
RTVSPropertyOp44
 70
     1
102
RTVSPropertyOp45
 70
     1
102
RTVSPropertyOp46
 70
     1
102
RTVSPropertyOp47
 70
     1
102
RTVSPropertyOp48
 70
     1
102
RTVSPropertyOp49
 70
     1
102
RTVSPropertyOp50
 70
     1
102
RTVSPropertyOp51
 70
     0
102
RTVSPropertyOp52
 70
     0
102
RTVSPropertyOp53
 70
     1
102
RTVSPropertyOp54
 70
     1
102
RTVSPropertyOp55
 70
     1
102
RTVSPropertyOp56
 70
     1
102
RTVSPropertyOp57
 70
     1
102
RTVSPropertyOp58
 70
     1
102
RTVSPropertyOp59
 70
     1
102
RTVSPropertyOp60
 70
     1
102
RTVSPropertyOp61
 70
     1
102
RTVSPropertyOp62
 70
     1
  0
XRECORD
  5
6ED
102
{ACAD_REACTORS
330
6EC
102
}
330
6EC
100
AcDbXrecord
280
     1
102
RTVSPost2010Prop28
280
     0
102
RTVSPost2010PropOp28
 70
     1
102
RTVSPost2010Prop29
280
     1
102
RTVSPost2010PropOp29
 70
     1
102
RTVSPost2010Prop30
280
     1
102
RTVSPost2010PropOp30
 70
     1
102
RTVSPost2010Prop31
280
     0
102
RTVSPost2010PropOp31
 70
     1
102
RTVSPost2010Prop32
280
     0
102
RTVSPost2010PropOp32
 70
     1
102
RTVSPost2010Prop33
280
     0
102
RTVSPost2010PropOp33
 70
     1
102
RTVSPost2010Prop34
280
     0
102
RTVSPost2010PropOp34
 70
     1
102
RTVSPost2010Prop35
280
     0
102
RTVSPost2010PropOp35
 70
     1
102
RTVSPost2010Prop36
280
     0
102
RTVSPost2010PropOp36
 70
     1
102
RTVSPost2010Prop37
 90
       50
102
RTVSPost2010PropOp37
 70
     1
102
RTVSPost2010Prop38
140
0.0
102
RTVSPost2010PropOp38
 70
     1
102
RTVSPost2010Prop39
140
1.0
102
RTVSPost2010PropOp39
 70
     1
102
RTVSPost2010Prop40
 90
        0
102
RTVSPost2010PropOp40
 70
     1
102
RTVSPost2010Prop41ColorIndex
 90
       18
102
RTVSPost2010Prop41ColorRGB
 90
        0
102
RTVSPost2010PropOp41
 70
     1
102
RTVSPost2010Prop42
 90
       50
102
RTVSPost2010PropOp42
 70
     1
102
RTVSPost2010Prop43
 90
        3
102
RTVSPost2010PropOp43
 70
     1
102
RTVSPost2010Prop44ColorIndex
 90
        5
102
RTVSPost2010Prop44ColorRGB
 90
      255
102
RTVSPost2010PropOp44
 70
     1
102
RTVSPost2010Prop45
280
     0
102
RTVSPost2010PropOp45
 70
     1
102
RTVSPost2010Prop46
 90
       50
102
RTVSPost2010PropOp46
 70
     1
102
RTVSPost2010Prop47
 90
       50
102
RTVSPost2010PropOp47
 70
     1
102
RTVSPost2010Prop48
 90
       50
102
RTVSPost2010PropOp48
 70
     1
102
RTVSPost2010Prop49
280
     0
102
RTVSPost2010PropOp49
 70
     1
102
RTVSPost2010Prop50
 90
       50
102
RTVSPost2010PropOp50
 70
     1
102
RTVSPost2010Prop51ColorIndex
 90
      256
102
RTVSPost2010Prop51ColorRGB
 90
-16777216
102
RTVSPost2010PropOp51
 70
     0
102
RTVSPost2010Prop52
140
1.0
102
RTVSPost2010PropOp52
 70
     0
102
RTVSPost2010Prop53
 90
        2
102
RTVSPost2010PropOp53
 70
     1
102
RTVSPost2010Prop54
  1
strokes_ogs.tif
102
RTVSPost2010PropOp54
 70
     1
102
RTVSPost2010Prop55
280
     0
102
RTVSPost2010PropOp55
 70
     1
102
RTVSPost2010Prop56
140
1.0
102
RTVSPost2010PropOp56
 70
     1
102
RTVSPost2010Prop57
140
1.0
102
RTVSPost2010PropOp57
 70
     1
102
RTVSPropertyOp0
 70
     1
102
RTVSPropertyOp1
 70
     1
102
RTVSPropertyOp2
 70
     1
102
RTVSPropertyOp3
 70
     1
102
RTVSPropertyOp4
 70
     1
102
RTVSPropertyOp5
 70
     1
102
RTVSPropertyOp6
 70
     1
102
RTVSPropertyOp7
 70
     1
102
RTVSPropertyOp8
 70
     1
102
RTVSPropertyOp9
 70
     1
102
RTVSPropertyOp10
 70
     1
102
RTVSPropertyOp11
 70
     1
102
RTVSPropertyOp12
 70
     1
102
RTVSPropertyOp13
 70
     1
102
RTVSPropertyOp14
 70
     1
102
RTVSPropertyOp15
 70
     1
102
RTVSPropertyOp16
 70
     1
102
RTVSPropertyOp17
 70
     1
102
RTVSPropertyOp18
 70
     1
102
RTVSPropertyOp19
 70
     1
102
RTVSPropertyOp20
 70
     1
102
RTVSPropertyOp21
 70
     1
102
RTVSPropertyOp22
 70
     1
102
RTVSPropertyOp23
 70
     1
102
RTVSPropertyOp24
 70
     1
102
RTVSPropertyOp25
 70
     1
102
RTVSPropertyOp26
 70
     1
102
RTVSPropertyOp27
 70
     1
102
RTVSPropertyOp28
 70
     1
102
RTVSPropertyOp29
 70
     1
102
RTVSPropertyOp30
 70
     1
102
RTVSPropertyOp31
 70
     1
102
RTVSPropertyOp32
 70
     1
102
RTVSPropertyOp33
 70
     1
102
RTVSPropertyOp34
 70
     1
102
RTVSPropertyOp35
 70
     1
102
RTVSPropertyOp36
 70
     1
102
RTVSPropertyOp37
 70
     1
102
RTVSPropertyOp38
 70
     1
102
RTVSPropertyOp39
 70
     1
102
RTVSPropertyOp40
 70
     1
102
RTVSPropertyOp41
 70
     1
102
RTVSPropertyOp42
 70
     1
102
RTVSPropertyOp43
 70
     1
102
RTVSPropertyOp44
 70
     1
102
RTVSPropertyOp45
 70
     1
102
RTVSPropertyOp46
 70
     1
102
RTVSPropertyOp47
 70
     1
102
RTVSPropertyOp48
 70
     1
102
RTVSPropertyOp49
 70
     1
102
RTVSPropertyOp50
 70
     1
102
RTVSPropertyOp51
 70
     0
102
RTVSPropertyOp52
 70
     0
102
RTVSPropertyOp53
 70
     1
102
RTVSPropertyOp54
 70
     1
102
RTVSPropertyOp55
 70
     1
102
RTVSPropertyOp56
 70
     1
102
RTVSPropertyOp57
 70
     1
102
RTVSPropertyOp58
 70
     1
102
RTVSPropertyOp59
 70
     1
102
RTVSPropertyOp60
 70
     1
102
RTVSPropertyOp61
 70
     1
102
RTVSPropertyOp62
 70
     1
  0
XRECORD
  5
6EF
102
{ACAD_REACTORS
330
6EE
102
}
330
6EE
100
AcDbXrecord
280
     1
102
RTVSPost2010Prop28
280
     0
102
RTVSPost2010PropOp28
 70
     1
102
RTVSPost2010Prop29
280
     1
102
RTVSPost2010PropOp29
 70
     1
102
RTVSPost2010Prop30
280
     1
102
RTVSPost2010PropOp30
 70
     1
102
RTVSPost2010Prop31
280
     0
102
RTVSPost2010PropOp31
 70
     1
102
RTVSPost2010Prop32
280
     0
102
RTVSPost2010PropOp32
 70
     1
102
RTVSPost2010Prop33
280
     0
102
RTVSPost2010PropOp33
 70
     1
102
RTVSPost2010Prop34
280
     0
102
RTVSPost2010PropOp34
 70
     1
102
RTVSPost2010Prop35
280
     0
102
RTVSPost2010PropOp35
 70
     1
102
RTVSPost2010Prop36
280
     0
102
RTVSPost2010PropOp36
 70
     1
102
RTVSPost2010Prop37
 90
       50
102
RTVSPost2010PropOp37
 70
     1
102
RTVSPost2010Prop38
140
0.0
102
RTVSPost2010PropOp38
 70
     1
102
RTVSPost2010Prop39
140
1.0
102
RTVSPost2010PropOp39
 70
     1
102
RTVSPost2010Prop40
 90
        0
102
RTVSPost2010PropOp40
 70
     1
102
RTVSPost2010Prop41ColorIndex
 90
       18
102
RTVSPost2010Prop41ColorRGB
 90
        0
102
RTVSPost2010PropOp41
 70
     1
102
RTVSPost2010Prop42
 90
       50
102
RTVSPost2010PropOp42
 70
     1
102
RTVSPost2010Prop43
 90
        3
102
RTVSPost2010PropOp43
 70
     1
102
RTVSPost2010Prop44ColorIndex
 90
        5
102
RTVSPost2010Prop44ColorRGB
 90
      255
102
RTVSPost2010PropOp44
 70
     1
102
RTVSPost2010Prop45
280
     0
102
RTVSPost2010PropOp45
 70
     1
102
RTVSPost2010Prop46
 90
       50
102
RTVSPost2010PropOp46
 70
     1
102
RTVSPost2010Prop47
 90
       50
102
RTVSPost2010PropOp47
 70
     1
102
RTVSPost2010Prop48
 90
       50
102
RTVSPost2010PropOp48
 70
     1
102
RTVSPost2010Prop49
280
     0
102
RTVSPost2010PropOp49
 70
     1
102
RTVSPost2010Prop50
 90
       50
102
RTVSPost2010PropOp50
 70
     1
102
RTVSPost2010Prop51ColorIndex
 90
      256
102
RTVSPost2010Prop51ColorRGB
 90
-16777216
102
RTVSPost2010PropOp51
 70
     0
102
RTVSPost2010Prop52
140
1.0
102
RTVSPost2010PropOp52
 70
     0
102
RTVSPost2010Prop53
 90
        2
102
RTVSPost2010PropOp53
 70
     1
102
RTVSPost2010Prop54
  1
strokes_ogs.tif
102
RTVSPost2010PropOp54
 70
     1
102
RTVSPost2010Prop55
280
     0
102
RTVSPost2010PropOp55
 70
     1
102
RTVSPost2010Prop56
140
1.0
102
RTVSPost2010PropOp56
 70
     1
102
RTVSPost2010Prop57
140
1.0
102
RTVSPost2010PropOp57
 70
     1
102
RTVSPropertyOp0
 70
     1
102
RTVSPropertyOp1
 70
     1
102
RTVSPropertyOp2
 70
     1
102
RTVSPropertyOp3
 70
     1
102
RTVSPropertyOp4
 70
     1
102
RTVSPropertyOp5
 70
     1
102
RTVSPropertyOp6
 70
     1
102
RTVSPropertyOp7
 70
     1
102
RTVSPropertyOp8
 70
     1
102
RTVSPropertyOp9
 70
     1
102
RTVSPropertyOp10
 70
     1
102
RTVSPropertyOp11
 70
     1
102
RTVSPropertyOp12
 70
     1
102
RTVSPropertyOp13
 70
     1
102
RTVSPropertyOp14
 70
     1
102
RTVSPropertyOp15
 70
     1
102
RTVSPropertyOp16
 70
     1
102
RTVSPropertyOp17
 70
     1
102
RTVSPropertyOp18
 70
     1
102
RTVSPropertyOp19
 70
     1
102
RTVSPropertyOp20
 70
     1
102
RTVSPropertyOp21
 70
     1
102
RTVSPropertyOp22
 70
     1
102
RTVSPropertyOp23
 70
     1
102
RTVSPropertyOp24
 70
     1
102
RTVSPropertyOp25
 70
     1
102
RTVSPropertyOp26
 70
     1
102
RTVSPropertyOp27
 70
     1
102
RTVSPropertyOp28
 70
     1
102
RTVSPropertyOp29
 70
     1
102
RTVSPropertyOp30
 70
     1
102
RTVSPropertyOp31
 70
     1
102
RTVSPropertyOp32
 70
     1
102
RTVSPropertyOp33
 70
     1
102
RTVSPropertyOp34
 70
     1
102
RTVSPropertyOp35
 70
     1
102
RTVSPropertyOp36
 70
     1
102
RTVSPropertyOp37
 70
     1
102
RTVSPropertyOp38
 70
     1
102
RTVSPropertyOp39
 70
     1
102
RTVSPropertyOp40
 70
     1
102
RTVSPropertyOp41
 70
     1
102
RTVSPropertyOp42
 70
     1
102
RTVSPropertyOp43
 70
     1
102
RTVSPropertyOp44
 70
     1
102
RTVSPropertyOp45
 70
     1
102
RTVSPropertyOp46
 70
     1
102
RTVSPropertyOp47
 70
     1
102
RTVSPropertyOp48
 70
     1
102
RTVSPropertyOp49
 70
     1
102
RTVSPropertyOp50
 70
     1
102
RTVSPropertyOp51
 70
     0
102
RTVSPropertyOp52
 70
     0
102
RTVSPropertyOp53
 70
     1
102
RTVSPropertyOp54
 70
     1
102
RTVSPropertyOp55
 70
     1
102
RTVSPropertyOp56
 70
     1
102
RTVSPropertyOp57
 70
     1
102
RTVSPropertyOp58
 70
     1
102
RTVSPropertyOp59
 70
     1
102
RTVSPropertyOp60
 70
     1
102
RTVSPropertyOp61
 70
     1
102
RTVSPropertyOp62
 70
     1
  0
XRECORD
  5
6F7
102
{ACAD_REACTORS
330
6F6
102
}
330
6F6
100
AcDbXrecord
280
     1
102
RTVSPost2010Prop28
280
     0
102
RTVSPost2010PropOp28
 70
     1
102
RTVSPost2010Prop29
280
     1
102
RTVSPost2010PropOp29
 70
     1
102
RTVSPost2010Prop30
280
     1
102
RTVSPost2010PropOp30
 70
     1
102
RTVSPost2010Prop31
280
     0
102
RTVSPost2010PropOp31
 70
     1
102
RTVSPost2010Prop32
280
     0
102
RTVSPost2010PropOp32
 70
     1
102
RTVSPost2010Prop33
280
     0
102
RTVSPost2010PropOp33
 70
     1
102
RTVSPost2010Prop34
280
     0
102
RTVSPost2010PropOp34
 70
     1
102
RTVSPost2010Prop35
280
     0
102
RTVSPost2010PropOp35
 70
     1
102
RTVSPost2010Prop36
280
     0
102
RTVSPost2010PropOp36
 70
     1
102
RTVSPost2010Prop37
 90
       50
102
RTVSPost2010PropOp37
 70
     1
102
RTVSPost2010Prop38
140
0.0
102
RTVSPost2010PropOp38
 70
     1
102
RTVSPost2010Prop39
140
1.0
102
RTVSPost2010PropOp39
 70
     1
102
RTVSPost2010Prop40
 90
        0
102
RTVSPost2010PropOp40
 70
     1
102
RTVSPost2010Prop41ColorIndex
 90
       18
102
RTVSPost2010Prop41ColorRGB
 90
        0
102
RTVSPost2010PropOp41
 70
     1
102
RTVSPost2010Prop42
 90
       50
102
RTVSPost2010PropOp42
 70
     1
102
RTVSPost2010Prop43
 90
        3
102
RTVSPost2010PropOp43
 70
     1
102
RTVSPost2010Prop44ColorIndex
 90
        5
102
RTVSPost2010Prop44ColorRGB
 90
      255
102
RTVSPost2010PropOp44
 70
     1
102
RTVSPost2010Prop45
280
     0
102
RTVSPost2010PropOp45
 70
     1
102
RTVSPost2010Prop46
 90
       50
102
RTVSPost2010PropOp46
 70
     1
102
RTVSPost2010Prop47
 90
       50
102
RTVSPost2010PropOp47
 70
     1
102
RTVSPost2010Prop48
 90
       50
102
RTVSPost2010PropOp48
 70
     1
102
RTVSPost2010Prop49
280
     0
102
RTVSPost2010PropOp49
 70
     1
102
RTVSPost2010Prop50
 90
       50
102
RTVSPost2010PropOp50
 70
     1
102
RTVSPost2010Prop51ColorIndex
 90
      256
102
RTVSPost2010Prop51ColorRGB
 90
-16777216
102
RTVSPost2010PropOp51
 70
     0
102
RTVSPost2010Prop52
140
1.0
102
RTVSPost2010PropOp52
 70
     0
102
RTVSPost2010Prop53
 90
        2
102
RTVSPost2010PropOp53
 70
     1
102
RTVSPost2010Prop54
  1
strokes_ogs.tif
102
RTVSPost2010PropOp54
 70
     1
102
RTVSPost2010Prop55
280
     0
102
RTVSPost2010PropOp55
 70
     1
102
RTVSPost2010Prop56
140
1.0
102
RTVSPost2010PropOp56
 70
     1
102
RTVSPost2010Prop57
140
1.0
102
RTVSPost2010PropOp57
 70
     1
102
RTVSPropertyOp0
 70
     1
102
RTVSPropertyOp1
 70
     1
102
RTVSPropertyOp2
 70
     1
102
RTVSPropertyOp3
 70
     1
102
RTVSPropertyOp4
 70
     1
102
RTVSPropertyOp5
 70
     1
102
RTVSPropertyOp6
 70
     1
102
RTVSPropertyOp7
 70
     1
102
RTVSPropertyOp8
 70
     1
102
RTVSPropertyOp9
 70
     1
102
RTVSPropertyOp10
 70
     1
102
RTVSPropertyOp11
 70
     1
102
RTVSPropertyOp12
 70
     1
102
RTVSPropertyOp13
 70
     1
102
RTVSPropertyOp14
 70
     1
102
RTVSPropertyOp15
 70
     1
102
RTVSPropertyOp16
 70
     1
102
RTVSPropertyOp17
 70
     1
102
RTVSPropertyOp18
 70
     1
102
RTVSPropertyOp19
 70
     1
102
RTVSPropertyOp20
 70
     1
102
RTVSPropertyOp21
 70
     1
102
RTVSPropertyOp22
 70
     1
102
RTVSPropertyOp23
 70
     1
102
RTVSPropertyOp24
 70
     1
102
RTVSPropertyOp25
 70
     1
102
RTVSPropertyOp26
 70
     1
102
RTVSPropertyOp27
 70
     1
102
RTVSPropertyOp28
 70
     1
102
RTVSPropertyOp29
 70
     1
102
RTVSPropertyOp30
 70
     1
102
RTVSPropertyOp31
 70
     1
102
RTVSPropertyOp32
 70
     1
102
RTVSPropertyOp33
 70
     1
102
RTVSPropertyOp34
 70
     1
102
RTVSPropertyOp35
 70
     1
102
RTVSPropertyOp36
 70
     1
102
RTVSPropertyOp37
 70
     1
102
RTVSPropertyOp38
 70
     1
102
RTVSPropertyOp39
 70
     1
102
RTVSPropertyOp40
 70
     1
102
RTVSPropertyOp41
 70
     1
102
RTVSPropertyOp42
 70
     1
102
RTVSPropertyOp43
 70
     1
102
RTVSPropertyOp44
 70
     1
102
RTVSPropertyOp45
 70
     1
102
RTVSPropertyOp46
 70
     1
102
RTVSPropertyOp47
 70
     1
102
RTVSPropertyOp48
 70
     1
102
RTVSPropertyOp49
 70
     1
102
RTVSPropertyOp50
 70
     1
102
RTVSPropertyOp51
 70
     0
102
RTVSPropertyOp52
 70
     0
102
RTVSPropertyOp53
 70
     1
102
RTVSPropertyOp54
 70
     1
102
RTVSPropertyOp55
 70
     1
102
RTVSPropertyOp56
 70
     1
102
RTVSPropertyOp57
 70
     1
102
RTVSPropertyOp58
 70
     1
102
RTVSPropertyOp59
 70
     1
102
RTVSPropertyOp60
 70
     1
102
RTVSPropertyOp61
 70
     1
102
RTVSPropertyOp62
 70
     1
  0
XRECORD
  5
713
102
{ACAD_REACTORS
330
712
102
}
330
712
100
AcDbXrecord
280
     1
102
RTVSPost2010Prop28
280
     0
102
RTVSPost2010PropOp28
 70
     1
102
RTVSPost2010Prop29
280
     1
102
RTVSPost2010PropOp29
 70
     1
102
RTVSPost2010Prop30
280
     1
102
RTVSPost2010PropOp30
 70
     1
102
RTVSPost2010Prop31
280
     0
102
RTVSPost2010PropOp31
 70
     1
102
RTVSPost2010Prop32
280
     0
102
RTVSPost2010PropOp32
 70
     1
102
RTVSPost2010Prop33
280
     0
102
RTVSPost2010PropOp33
 70
     1
102
RTVSPost2010Prop34
280
     0
102
RTVSPost2010PropOp34
 70
     1
102
RTVSPost2010Prop35
280
     0
102
RTVSPost2010PropOp35
 70
     1
102
RTVSPost2010Prop36
280
     0
102
RTVSPost2010PropOp36
 70
     1
102
RTVSPost2010Prop37
 90
       50
102
RTVSPost2010PropOp37
 70
     0
102
RTVSPost2010Prop38
140
0.0
102
RTVSPost2010PropOp38
 70
     0
102
RTVSPost2010Prop39
140
1.0
102
RTVSPost2010PropOp39
 70
     0
102
RTVSPost2010Prop40
 90
        0
102
RTVSPost2010PropOp40
 70
     0
102
RTVSPost2010Prop41ColorIndex
 90
       18
102
RTVSPost2010Prop41ColorRGB
 90
        0
102
RTVSPost2010PropOp41
 70
     0
102
RTVSPost2010Prop42
 90
       50
102
RTVSPost2010PropOp42
 70
     0
102
RTVSPost2010Prop43
 90
        3
102
RTVSPost2010PropOp43
 70
     0
102
RTVSPost2010Prop44ColorIndex
 90
        5
102
RTVSPost2010Prop44ColorRGB
 90
      255
102
RTVSPost2010PropOp44
 70
     0
102
RTVSPost2010Prop45
280
     0
102
RTVSPost2010PropOp45
 70
     1
102
RTVSPost2010Prop46
 90
       50
102
RTVSPost2010PropOp46
 70
     0
102
RTVSPost2010Prop47
 90
       50
102
RTVSPost2010PropOp47
 70
     0
102
RTVSPost2010Prop48
 90
       50
102
RTVSPost2010PropOp48
 70
     0
102
RTVSPost2010Prop49
280
     0
102
RTVSPost2010PropOp49
 70
     1
102
RTVSPost2010Prop50
 90
       50
102
RTVSPost2010PropOp50
 70
     0
102
RTVSPost2010Prop51ColorIndex
 90
      256
102
RTVSPost2010Prop51ColorRGB
 90
-16777216
102
RTVSPost2010PropOp51
 70
     0
102
RTVSPost2010Prop52
140
1.0
102
RTVSPost2010PropOp52
 70
     0
102
RTVSPost2010Prop53
 90
        2
102
RTVSPost2010PropOp53
 70
     0
102
RTVSPost2010Prop54
  1
strokes_ogs.tif
102
RTVSPost2010PropOp54
 70
     0
102
RTVSPost2010Prop55
280
     0
102
RTVSPost2010PropOp55
 70
     1
102
RTVSPost2010Prop56
140
1.0
102
RTVSPost2010PropOp56
 70
     0
102
RTVSPost2010Prop57
140
1.0
102
RTVSPost2010PropOp57
 70
     0
102
RTVSPropertyOp0
 70
     0
102
RTVSPropertyOp1
 70
     0
102
RTVSPropertyOp2
 70
     0
102
RTVSPropertyOp3
 70
     0
102
RTVSPropertyOp4
 70
     0
102
RTVSPropertyOp5
 70
     0
102
RTVSPropertyOp6
 70
     0
102
RTVSPropertyOp7
 70
     0
102
RTVSPropertyOp8
 70
     0
102
RTVSPropertyOp9
 70
     0
102
RTVSPropertyOp10
 70
     0
102
RTVSPropertyOp11
 70
     0
102
RTVSPropertyOp12
 70
     0
102
RTVSPropertyOp13
 70
     0
102
RTVSPropertyOp14
 70
     2
102
RTVSPropertyOp15
 70
     0
102
RTVSPropertyOp16
 70
     0
102
RTVSPropertyOp17
 70
     0
102
RTVSPropertyOp18
 70
     0
102
RTVSPropertyOp19
 70
     0
102
RTVSPropertyOp20
 70
     0
102
RTVSPropertyOp21
 70
     0
102
RTVSPropertyOp22
 70
     0
102
RTVSPropertyOp23
 70
     0
102
RTVSPropertyOp24
 70
     0
102
RTVSPropertyOp25
 70
     0
102
RTVSPropertyOp26
 70
     0
102
RTVSPropertyOp27
 70
     0
102
RTVSPropertyOp28
 70
     1
102
RTVSPropertyOp29
 70
     1
102
RTVSPropertyOp30
 70
     1
102
RTVSPropertyOp31
 70
     1
102
RTVSPropertyOp32
 70
     1
102
RTVSPropertyOp33
 70
     1
102
RTVSPropertyOp34
 70
     1
102
RTVSPropertyOp35
 70
     1
102
RTVSPropertyOp36
 70
     1
102
RTVSPropertyOp37
 70
     0
102
RTVSPropertyOp38
 70
     0
102
RTVSPropertyOp39
 70
     0
102
RTVSPropertyOp40
 70
     0
102
RTVSPropertyOp41
 70
     0
102
RTVSPropertyOp42
 70
     0
102
RTVSPropertyOp43
 70
     0
102
RTVSPropertyOp44
 70
     0
102
RTVSPropertyOp45
 70
     1
102
RTVSPropertyOp46
 70
     0
102
RTVSPropertyOp47
 70
     0
102
RTVSPropertyOp48
 70
     0
102
RTVSPropertyOp49
 70
     1
102
RTVSPropertyOp50
 70
     0
102
RTVSPropertyOp51
 70
     0
102
RTVSPropertyOp52
 70
     0
102
RTVSPropertyOp53
 70
     0
102
RTVSPropertyOp54
 70
     0
102
RTVSPropertyOp55
 70
     1
102
RTVSPropertyOp56
 70
     0
102
RTVSPropertyOp57
 70
     0
102
RTVSPropertyOp58
 70
     0
102
RTVSPropertyOp59
 70
     0
102
RTVSPropertyOp60
 70
     0
102
RTVSPropertyOp61
 70
     0
102
RTVSPropertyOp62
 70
     0
  0
XRECORD
  5
703
102
{ACAD_REACTORS
330
702
102
}
330
702
100
AcDbXrecord
280
     1
102
RTVSPost2010Prop28
280
     0
102
RTVSPost2010PropOp28
 70
     1
102
RTVSPost2010Prop29
280
     1
102
RTVSPost2010PropOp29
 70
     1
102
RTVSPost2010Prop30
280
     1
102
RTVSPost2010PropOp30
 70
     1
102
RTVSPost2010Prop31
280
     0
102
RTVSPost2010PropOp31
 70
     1
102
RTVSPost2010Prop32
280
     0
102
RTVSPost2010PropOp32
 70
     1
102
RTVSPost2010Prop33
280
     0
102
RTVSPost2010PropOp33
 70
     1
102
RTVSPost2010Prop34
280
     0
102
RTVSPost2010PropOp34
 70
     1
102
RTVSPost2010Prop35
280
     0
102
RTVSPost2010PropOp35
 70
     1
102
RTVSPost2010Prop36
280
     0
102
RTVSPost2010PropOp36
 70
     1
102
RTVSPost2010Prop37
 90
       50
102
RTVSPost2010PropOp37
 70
     1
102
RTVSPost2010Prop38
140
0.0
102
RTVSPost2010PropOp38
 70
     1
102
RTVSPost2010Prop39
140
1.0
102
RTVSPost2010PropOp39
 70
     1
102
RTVSPost2010Prop40
 90
        0
102
RTVSPost2010PropOp40
 70
     1
102
RTVSPost2010Prop41ColorIndex
 90
       18
102
RTVSPost2010Prop41ColorRGB
 90
        0
102
RTVSPost2010PropOp41
 70
     1
102
RTVSPost2010Prop42
 90
       50
102
RTVSPost2010PropOp42
 70
     1
102
RTVSPost2010Prop43
 90
        3
102
RTVSPost2010PropOp43
 70
     1
102
RTVSPost2010Prop44ColorIndex
 90
        5
102
RTVSPost2010Prop44ColorRGB
 90
      255
102
RTVSPost2010PropOp44
 70
     1
102
RTVSPost2010Prop45
280
     0
102
RTVSPost2010PropOp45
 70
     1
102
RTVSPost2010Prop46
 90
       50
102
RTVSPost2010PropOp46
 70
     1
102
RTVSPost2010Prop47
 90
       50
102
RTVSPost2010PropOp47
 70
     1
102
RTVSPost2010Prop48
 90
       50
102
RTVSPost2010PropOp48
 70
     1
102
RTVSPost2010Prop49
280
     0
102
RTVSPost2010PropOp49
 70
     1
102
RTVSPost2010Prop50
 90
       50
102
RTVSPost2010PropOp50
 70
     1
102
RTVSPost2010Prop51ColorIndex
 90
      256
102
RTVSPost2010Prop51ColorRGB
 90
-16777216
102
RTVSPost2010PropOp51
 70
     0
102
RTVSPost2010Prop52
140
1.0
102
RTVSPost2010PropOp52
 70
     0
102
RTVSPost2010Prop53
 90
        2
102
RTVSPost2010PropOp53
 70
     1
102
RTVSPost2010Prop54
  1
strokes_ogs.tif
102
RTVSPost2010PropOp54
 70
     1
102
RTVSPost2010Prop55
280
     0
102
RTVSPost2010PropOp55
 70
     1
102
RTVSPost2010Prop56
140
1.0
102
RTVSPost2010PropOp56
 70
     1
102
RTVSPost2010Prop57
140
1.0
102
RTVSPost2010PropOp57
 70
     1
102
RTVSPropertyOp0
 70
     1
102
RTVSPropertyOp1
 70
     1
102
RTVSPropertyOp2
 70
     1
102
RTVSPropertyOp3
 70
     1
102
RTVSPropertyOp4
 70
     1
102
RTVSPropertyOp5
 70
     1
102
RTVSPropertyOp6
 70
     1
102
RTVSPropertyOp7
 70
     1
102
RTVSPropertyOp8
 70
     1
102
RTVSPropertyOp9
 70
     1
102
RTVSPropertyOp10
 70
     1
102
RTVSPropertyOp11
 70
     1
102
RTVSPropertyOp12
 70
     1
102
RTVSPropertyOp13
 70
     1
102
RTVSPropertyOp14
 70
     1
102
RTVSPropertyOp15
 70
     1
102
RTVSPropertyOp16
 70
     1
102
RTVSPropertyOp17
 70
     1
102
RTVSPropertyOp18
 70
     1
102
RTVSPropertyOp19
 70
     1
102
RTVSPropertyOp20
 70
     1
102
RTVSPropertyOp21
 70
     1
102
RTVSPropertyOp22
 70
     1
102
RTVSPropertyOp23
 70
     1
102
RTVSPropertyOp24
 70
     1
102
RTVSPropertyOp25
 70
     1
102
RTVSPropertyOp26
 70
     1
102
RTVSPropertyOp27
 70
     1
102
RTVSPropertyOp28
 70
     1
102
RTVSPropertyOp29
 70
     1
102
RTVSPropertyOp30
 70
     1
102
RTVSPropertyOp31
 70
     1
102
RTVSPropertyOp32
 70
     1
102
RTVSPropertyOp33
 70
     1
102
RTVSPropertyOp34
 70
     1
102
RTVSPropertyOp35
 70
     1
102
RTVSPropertyOp36
 70
     1
102
RTVSPropertyOp37
 70
     1
102
RTVSPropertyOp38
 70
     1
102
RTVSPropertyOp39
 70
     1
102
RTVSPropertyOp40
 70
     1
102
RTVSPropertyOp41
 70
     1
102
RTVSPropertyOp42
 70
     1
102
RTVSPropertyOp43
 70
     1
102
RTVSPropertyOp44
 70
     1
102
RTVSPropertyOp45
 70
     1
102
RTVSPropertyOp46
 70
     1
102
RTVSPropertyOp47
 70
     1
102
RTVSPropertyOp48
 70
     1
102
RTVSPropertyOp49
 70
     1
102
RTVSPropertyOp50
 70
     1
102
RTVSPropertyOp51
 70
     0
102
RTVSPropertyOp52
 70
     0
102
RTVSPropertyOp53
 70
     1
102
RTVSPropertyOp54
 70
     1
102
RTVSPropertyOp55
 70
     1
102
RTVSPropertyOp56
 70
     1
102
RTVSPropertyOp57
 70
     1
102
RTVSPropertyOp58
 70
     1
102
RTVSPropertyOp59
 70
     1
102
RTVSPropertyOp60
 70
     1
102
RTVSPropertyOp61
 70
     1
102
RTVSPropertyOp62
 70
     1
  0
XRECORD
  5
715
102
{ACAD_REACTORS
330
714
102
}
330
714
100
AcDbXrecord
280
     1
102
RTVSPost2010Prop28
280
     0
102
RTVSPost2010PropOp28
 70
     1
102
RTVSPost2010Prop29
280
     1
102
RTVSPost2010PropOp29
 70
     1
102
RTVSPost2010Prop30
280
     1
102
RTVSPost2010PropOp30
 70
     1
102
RTVSPost2010Prop31
280
     0
102
RTVSPost2010PropOp31
 70
     1
102
RTVSPost2010Prop32
280
     0
102
RTVSPost2010PropOp32
 70
     1
102
RTVSPost2010Prop33
280
     0
102
RTVSPost2010PropOp33
 70
     1
102
RTVSPost2010Prop34
280
     0
102
RTVSPost2010PropOp34
 70
     1
102
RTVSPost2010Prop35
280
     0
102
RTVSPost2010PropOp35
 70
     1
102
RTVSPost2010Prop36
280
     0
102
RTVSPost2010PropOp36
 70
     1
102
RTVSPost2010Prop37
 90
       50
102
RTVSPost2010PropOp37
 70
     0
102
RTVSPost2010Prop38
140
0.0
102
RTVSPost2010PropOp38
 70
     0
102
RTVSPost2010Prop39
140
1.0
102
RTVSPost2010PropOp39
 70
     0
102
RTVSPost2010Prop40
 90
        0
102
RTVSPost2010PropOp40
 70
     0
102
RTVSPost2010Prop41ColorIndex
 90
       18
102
RTVSPost2010Prop41ColorRGB
 90
        0
102
RTVSPost2010PropOp41
 70
     0
102
RTVSPost2010Prop42
 90
       50
102
RTVSPost2010PropOp42
 70
     0
102
RTVSPost2010Prop43
 90
        3
102
RTVSPost2010PropOp43
 70
     0
102
RTVSPost2010Prop44ColorIndex
 90
        5
102
RTVSPost2010Prop44ColorRGB
 90
      255
102
RTVSPost2010PropOp44
 70
     0
102
RTVSPost2010Prop45
280
     0
102
RTVSPost2010PropOp45
 70
     1
102
RTVSPost2010Prop46
 90
       50
102
RTVSPost2010PropOp46
 70
     0
102
RTVSPost2010Prop47
 90
       50
102
RTVSPost2010PropOp47
 70
     0
102
RTVSPost2010Prop48
 90
       50
102
RTVSPost2010PropOp48
 70
     0
102
RTVSPost2010Prop49
280
     0
102
RTVSPost2010PropOp49
 70
     1
102
RTVSPost2010Prop50
 90
       50
102
RTVSPost2010PropOp50
 70
     0
102
RTVSPost2010Prop51ColorIndex
 90
      256
102
RTVSPost2010Prop51ColorRGB
 90
-16777216
102
RTVSPost2010PropOp51
 70
     0
102
RTVSPost2010Prop52
140
1.0
102
RTVSPost2010PropOp52
 70
     0
102
RTVSPost2010Prop53
 90
        2
102
RTVSPost2010PropOp53
 70
     0
102
RTVSPost2010Prop54
  1
strokes_ogs.tif
102
RTVSPost2010PropOp54
 70
     0
102
RTVSPost2010Prop55
280
     0
102
RTVSPost2010PropOp55
 70
     1
102
RTVSPost2010Prop56
140
1.0
102
RTVSPost2010PropOp56
 70
     0
102
RTVSPost2010Prop57
140
1.0
102
RTVSPost2010PropOp57
 70
     0
102
RTVSPropertyOp0
 70
     0
102
RTVSPropertyOp1
 70
     0
102
RTVSPropertyOp2
 70
     0
102
RTVSPropertyOp3
 70
     0
102
RTVSPropertyOp4
 70
     0
102
RTVSPropertyOp5
 70
     0
102
RTVSPropertyOp6
 70
     0
102
RTVSPropertyOp7
 70
     0
102
RTVSPropertyOp8
 70
     0
102
RTVSPropertyOp9
 70
     0
102
RTVSPropertyOp10
 70
     0
102
RTVSPropertyOp11
 70
     0
102
RTVSPropertyOp12
 70
     0
102
RTVSPropertyOp13
 70
     0
102
RTVSPropertyOp14
 70
     2
102
RTVSPropertyOp15
 70
     0
102
RTVSPropertyOp16
 70
     0
102
RTVSPropertyOp17
 70
     0
102
RTVSPropertyOp18
 70
     0
102
RTVSPropertyOp19
 70
     0
102
RTVSPropertyOp20
 70
     0
102
RTVSPropertyOp21
 70
     0
102
RTVSPropertyOp22
 70
     0
102
RTVSPropertyOp23
 70
     0
102
RTVSPropertyOp24
 70
     0
102
RTVSPropertyOp25
 70
     0
102
RTVSPropertyOp26
 70
     0
102
RTVSPropertyOp27
 70
     0
102
RTVSPropertyOp28
 70
     1
102
RTVSPropertyOp29
 70
     1
102
RTVSPropertyOp30
 70
     1
102
RTVSPropertyOp31
 70
     1
102
RTVSPropertyOp32
 70
     1
102
RTVSPropertyOp33
 70
     1
102
RTVSPropertyOp34
 70
     1
102
RTVSPropertyOp35
 70
     1
102
RTVSPropertyOp36
 70
     1
102
RTVSPropertyOp37
 70
     0
102
RTVSPropertyOp38
 70
     0
102
RTVSPropertyOp39
 70
     0
102
RTVSPropertyOp40
 70
     0
102
RTVSPropertyOp41
 70
     0
102
RTVSPropertyOp42
 70
     0
102
RTVSPropertyOp43
 70
     0
102
RTVSPropertyOp44
 70
     0
102
RTVSPropertyOp45
 70
     1
102
RTVSPropertyOp46
 70
     0
102
RTVSPropertyOp47
 70
     0
102
RTVSPropertyOp48
 70
     0
102
RTVSPropertyOp49
 70
     1
102
RTVSPropertyOp50
 70
     0
102
RTVSPropertyOp51
 70
     0
102
RTVSPropertyOp52
 70
     0
102
RTVSPropertyOp53
 70
     0
102
RTVSPropertyOp54
 70
     0
102
RTVSPropertyOp55
 70
     1
102
RTVSPropertyOp56
 70
     0
102
RTVSPropertyOp57
 70
     0
102
RTVSPropertyOp58
 70
     0
102
RTVSPropertyOp59
 70
     0
102
RTVSPropertyOp60
 70
     0
102
RTVSPropertyOp61
 70
     0
102
RTVSPropertyOp62
 70
     0
  0
XRECORD
  5
6FB
102
{ACAD_REACTORS
330
6FA
102
}
330
6FA
100
AcDbXrecord
280
     1
102
RTVSPost2010Prop28
280
     0
102
RTVSPost2010PropOp28
 70
     1
102
RTVSPost2010Prop29
280
     1
102
RTVSPost2010PropOp29
 70
     1
102
RTVSPost2010Prop30
280
     1
102
RTVSPost2010PropOp30
 70
     1
102
RTVSPost2010Prop31
280
     0
102
RTVSPost2010PropOp31
 70
     1
102
RTVSPost2010Prop32
280
     0
102
RTVSPost2010PropOp32
 70
     1
102
RTVSPost2010Prop33
280
     0
102
RTVSPost2010PropOp33
 70
     1
102
RTVSPost2010Prop34
280
     0
102
RTVSPost2010PropOp34
 70
     1
102
RTVSPost2010Prop35
280
     0
102
RTVSPost2010PropOp35
 70
     1
102
RTVSPost2010Prop36
280
     0
102
RTVSPost2010PropOp36
 70
     1
102
RTVSPost2010Prop37
 90
       50
102
RTVSPost2010PropOp37
 70
     1
102
RTVSPost2010Prop38
140
0.0
102
RTVSPost2010PropOp38
 70
     1
102
RTVSPost2010Prop39
140
1.0
102
RTVSPost2010PropOp39
 70
     1
102
RTVSPost2010Prop40
 90
        0
102
RTVSPost2010PropOp40
 70
     1
102
RTVSPost2010Prop41ColorIndex
 90
       18
102
RTVSPost2010Prop41ColorRGB
 90
        0
102
RTVSPost2010PropOp41
 70
     1
102
RTVSPost2010Prop42
 90
       50
102
RTVSPost2010PropOp42
 70
     1
102
RTVSPost2010Prop43
 90
        3
102
RTVSPost2010PropOp43
 70
     1
102
RTVSPost2010Prop44ColorIndex
 90
        5
102
RTVSPost2010Prop44ColorRGB
 90
      255
102
RTVSPost2010PropOp44
 70
     1
102
RTVSPost2010Prop45
280
     0
102
RTVSPost2010PropOp45
 70
     1
102
RTVSPost2010Prop46
 90
       50
102
RTVSPost2010PropOp46
 70
     1
102
RTVSPost2010Prop47
 90
       50
102
RTVSPost2010PropOp47
 70
     1
102
RTVSPost2010Prop48
 90
       50
102
RTVSPost2010PropOp48
 70
     1
102
RTVSPost2010Prop49
280
     0
102
RTVSPost2010PropOp49
 70
     1
102
RTVSPost2010Prop50
 90
       50
102
RTVSPost2010PropOp50
 70
     1
102
RTVSPost2010Prop51ColorIndex
 90
      256
102
RTVSPost2010Prop51ColorRGB
 90
-16777216
102
RTVSPost2010PropOp51
 70
     0
102
RTVSPost2010Prop52
140
1.0
102
RTVSPost2010PropOp52
 70
     0
102
RTVSPost2010Prop53
 90
        2
102
RTVSPost2010PropOp53
 70
     1
102
RTVSPost2010Prop54
  1
strokes_ogs.tif
102
RTVSPost2010PropOp54
 70
     1
102
RTVSPost2010Prop55
280
     0
102
RTVSPost2010PropOp55
 70
     1
102
RTVSPost2010Prop56
140
1.0
102
RTVSPost2010PropOp56
 70
     1
102
RTVSPost2010Prop57
140
1.0
102
RTVSPost2010PropOp57
 70
     1
102
RTVSPropertyOp0
 70
     1
102
RTVSPropertyOp1
 70
     1
102
RTVSPropertyOp2
 70
     1
102
RTVSPropertyOp3
 70
     1
102
RTVSPropertyOp4
 70
     1
102
RTVSPropertyOp5
 70
     1
102
RTVSPropertyOp6
 70
     1
102
RTVSPropertyOp7
 70
     1
102
RTVSPropertyOp8
 70
     1
102
RTVSPropertyOp9
 70
     1
102
RTVSPropertyOp10
 70
     1
102
RTVSPropertyOp11
 70
     1
102
RTVSPropertyOp12
 70
     1
102
RTVSPropertyOp13
 70
     1
102
RTVSPropertyOp14
 70
     1
102
RTVSPropertyOp15
 70
     1
102
RTVSPropertyOp16
 70
     1
102
RTVSPropertyOp17
 70
     1
102
RTVSPropertyOp18
 70
     1
102
RTVSPropertyOp19
 70
     1
102
RTVSPropertyOp20
 70
     1
102
RTVSPropertyOp21
 70
     1
102
RTVSPropertyOp22
 70
     1
102
RTVSPropertyOp23
 70
     1
102
RTVSPropertyOp24
 70
     1
102
RTVSPropertyOp25
 70
     1
102
RTVSPropertyOp26
 70
     1
102
RTVSPropertyOp27
 70
     1
102
RTVSPropertyOp28
 70
     1
102
RTVSPropertyOp29
 70
     1
102
RTVSPropertyOp30
 70
     1
102
RTVSPropertyOp31
 70
     1
102
RTVSPropertyOp32
 70
     1
102
RTVSPropertyOp33
 70
     1
102
RTVSPropertyOp34
 70
     1
102
RTVSPropertyOp35
 70
     1
102
RTVSPropertyOp36
 70
     1
102
RTVSPropertyOp37
 70
     1
102
RTVSPropertyOp38
 70
     1
102
RTVSPropertyOp39
 70
     1
102
RTVSPropertyOp40
 70
     1
102
RTVSPropertyOp41
 70
     1
102
RTVSPropertyOp42
 70
     1
102
RTVSPropertyOp43
 70
     1
102
RTVSPropertyOp44
 70
     1
102
RTVSPropertyOp45
 70
     1
102
RTVSPropertyOp46
 70
     1
102
RTVSPropertyOp47
 70
     1
102
RTVSPropertyOp48
 70
     1
102
RTVSPropertyOp49
 70
     1
102
RTVSPropertyOp50
 70
     1
102
RTVSPropertyOp51
 70
     0
102
RTVSPropertyOp52
 70
     0
102
RTVSPropertyOp53
 70
     1
102
RTVSPropertyOp54
 70
     1
102
RTVSPropertyOp55
 70
     1
102
RTVSPropertyOp56
 70
     1
102
RTVSPropertyOp57
 70
     1
102
RTVSPropertyOp58
 70
     1
102
RTVSPropertyOp59
 70
     1
102
RTVSPropertyOp60
 70
     1
102
RTVSPropertyOp61
 70
     1
102
RTVSPropertyOp62
 70
     1
  0
XRECORD
  5
711
102
{ACAD_REACTORS
330
710
102
}
330
710
100
AcDbXrecord
280
     1
102
RTVSPost2010Prop28
280
     0
102
RTVSPost2010PropOp28
 70
     1
102
RTVSPost2010Prop29
280
     1
102
RTVSPost2010PropOp29
 70
     1
102
RTVSPost2010Prop30
280
     1
102
RTVSPost2010PropOp30
 70
     1
102
RTVSPost2010Prop31
280
     0
102
RTVSPost2010PropOp31
 70
     1
102
RTVSPost2010Prop32
280
     0
102
RTVSPost2010PropOp32
 70
     1
102
RTVSPost2010Prop33
280
     0
102
RTVSPost2010PropOp33
 70
     1
102
RTVSPost2010Prop34
280
     0
102
RTVSPost2010PropOp34
 70
     1
102
RTVSPost2010Prop35
280
     0
102
RTVSPost2010PropOp35
 70
     1
102
RTVSPost2010Prop36
280
     0
102
RTVSPost2010PropOp36
 70
     1
102
RTVSPost2010Prop37
 90
       50
102
RTVSPost2010PropOp37
 70
     1
102
RTVSPost2010Prop38
140
0.0
102
RTVSPost2010PropOp38
 70
     1
102
RTVSPost2010Prop39
140
1.0
102
RTVSPost2010PropOp39
 70
     1
102
RTVSPost2010Prop40
 90
        0
102
RTVSPost2010PropOp40
 70
     1
102
RTVSPost2010Prop41ColorIndex
 90
       18
102
RTVSPost2010Prop41ColorRGB
 90
        0
102
RTVSPost2010PropOp41
 70
     1
102
RTVSPost2010Prop42
 90
       50
102
RTVSPost2010PropOp42
 70
     1
102
RTVSPost2010Prop43
 90
        3
102
RTVSPost2010PropOp43
 70
     1
102
RTVSPost2010Prop44ColorIndex
 90
        5
102
RTVSPost2010Prop44ColorRGB
 90
      255
102
RTVSPost2010PropOp44
 70
     1
102
RTVSPost2010Prop45
280
     0
102
RTVSPost2010PropOp45
 70
     1
102
RTVSPost2010Prop46
 90
       50
102
RTVSPost2010PropOp46
 70
     1
102
RTVSPost2010Prop47
 90
       50
102
RTVSPost2010PropOp47
 70
     1
102
RTVSPost2010Prop48
 90
       50
102
RTVSPost2010PropOp48
 70
     1
102
RTVSPost2010Prop49
280
     0
102
RTVSPost2010PropOp49
 70
     1
102
RTVSPost2010Prop50
 90
       50
102
RTVSPost2010PropOp50
 70
     1
102
RTVSPost2010Prop51ColorIndex
 90
      256
102
RTVSPost2010Prop51ColorRGB
 90
-16777216
102
RTVSPost2010PropOp51
 70
     0
102
RTVSPost2010Prop52
140
1.0
102
RTVSPost2010PropOp52
 70
     0
102
RTVSPost2010Prop53
 90
        2
102
RTVSPost2010PropOp53
 70
     1
102
RTVSPost2010Prop54
  1
strokes_ogs.tif
102
RTVSPost2010PropOp54
 70
     1
102
RTVSPost2010Prop55
280
     0
102
RTVSPost2010PropOp55
 70
     1
102
RTVSPost2010Prop56
140
1.0
102
RTVSPost2010PropOp56
 70
     1
102
RTVSPost2010Prop57
140
1.0
102
RTVSPost2010PropOp57
 70
     1
102
RTVSPropertyOp0
 70
     1
102
RTVSPropertyOp1
 70
     1
102
RTVSPropertyOp2
 70
     1
102
RTVSPropertyOp3
 70
     1
102
RTVSPropertyOp4
 70
     1
102
RTVSPropertyOp5
 70
     1
102
RTVSPropertyOp6
 70
     1
102
RTVSPropertyOp7
 70
     1
102
RTVSPropertyOp8
 70
     1
102
RTVSPropertyOp9
 70
     1
102
RTVSPropertyOp10
 70
     1
102
RTVSPropertyOp11
 70
     1
102
RTVSPropertyOp12
 70
     1
102
RTVSPropertyOp13
 70
     1
102
RTVSPropertyOp14
 70
     1
102
RTVSPropertyOp15
 70
     1
102
RTVSPropertyOp16
 70
     1
102
RTVSPropertyOp17
 70
     1
102
RTVSPropertyOp18
 70
     1
102
RTVSPropertyOp19
 70
     1
102
RTVSPropertyOp20
 70
     1
102
RTVSPropertyOp21
 70
     1
102
RTVSPropertyOp22
 70
     1
102
RTVSPropertyOp23
 70
     1
102
RTVSPropertyOp24
 70
     1
102
RTVSPropertyOp25
 70
     1
102
RTVSPropertyOp26
 70
     1
102
RTVSPropertyOp27
 70
     1
102
RTVSPropertyOp28
 70
     1
102
RTVSPropertyOp29
 70
     1
102
RTVSPropertyOp30
 70
     1
102
RTVSPropertyOp31
 70
     1
102
RTVSPropertyOp32
 70
     1
102
RTVSPropertyOp33
 70
     1
102
RTVSPropertyOp34
 70
     1
102
RTVSPropertyOp35
 70
     1
102
RTVSPropertyOp36
 70
     1
102
RTVSPropertyOp37
 70
     1
102
RTVSPropertyOp38
 70
     1
102
RTVSPropertyOp39
 70
     1
102
RTVSPropertyOp40
 70
     1
102
RTVSPropertyOp41
 70
     1
102
RTVSPropertyOp42
 70
     1
102
RTVSPropertyOp43
 70
     1
102
RTVSPropertyOp44
 70
     1
102
RTVSPropertyOp45
 70
     1
102
RTVSPropertyOp46
 70
     1
102
RTVSPropertyOp47
 70
     1
102
RTVSPropertyOp48
 70
     1
102
RTVSPropertyOp49
 70
     1
102
RTVSPropertyOp50
 70
     1
102
RTVSPropertyOp51
 70
     0
102
RTVSPropertyOp52
 70
     0
102
RTVSPropertyOp53
 70
     1
102
RTVSPropertyOp54
 70
     1
102
RTVSPropertyOp55
 70
     1
102
RTVSPropertyOp56
 70
     1
102
RTVSPropertyOp57
 70
     1
102
RTVSPropertyOp58
 70
     1
102
RTVSPropertyOp59
 70
     1
102
RTVSPropertyOp60
 70
     1
102
RTVSPropertyOp61
 70
     1
102
RTVSPropertyOp62
 70
     1
  0
XRECORD
  5
70F
102
{ACAD_REACTORS
330
70E
102
}
330
70E
100
AcDbXrecord
280
     1
102
RTVSPost2010Prop28
280
     0
102
RTVSPost2010PropOp28
 70
     1
102
RTVSPost2010Prop29
280
     1
102
RTVSPost2010PropOp29
 70
     1
102
RTVSPost2010Prop30
280
     1
102
RTVSPost2010PropOp30
 70
     1
102
RTVSPost2010Prop31
280
     0
102
RTVSPost2010PropOp31
 70
     1
102
RTVSPost2010Prop32
280
     0
102
RTVSPost2010PropOp32
 70
     1
102
RTVSPost2010Prop33
280
     0
102
RTVSPost2010PropOp33
 70
     1
102
RTVSPost2010Prop34
280
     0
102
RTVSPost2010PropOp34
 70
     1
102
RTVSPost2010Prop35
280
     0
102
RTVSPost2010PropOp35
 70
     1
102
RTVSPost2010Prop36
280
     0
102
RTVSPost2010PropOp36
 70
     1
102
RTVSPost2010Prop37
 90
       50
102
RTVSPost2010PropOp37
 70
     1
102
RTVSPost2010Prop38
140
0.0
102
RTVSPost2010PropOp38
 70
     1
102
RTVSPost2010Prop39
140
1.0
102
RTVSPost2010PropOp39
 70
     1
102
RTVSPost2010Prop40
 90
        0
102
RTVSPost2010PropOp40
 70
     1
102
RTVSPost2010Prop41ColorIndex
 90
       18
102
RTVSPost2010Prop41ColorRGB
 90
        0
102
RTVSPost2010PropOp41
 70
     1
102
RTVSPost2010Prop42
 90
       50
102
RTVSPost2010PropOp42
 70
     1
102
RTVSPost2010Prop43
 90
        3
102
RTVSPost2010PropOp43
 70
     1
102
RTVSPost2010Prop44ColorIndex
 90
        5
102
RTVSPost2010Prop44ColorRGB
 90
      255
102
RTVSPost2010PropOp44
 70
     1
102
RTVSPost2010Prop45
280
     0
102
RTVSPost2010PropOp45
 70
     1
102
RTVSPost2010Prop46
 90
       50
102
RTVSPost2010PropOp46
 70
     1
102
RTVSPost2010Prop47
 90
       50
102
RTVSPost2010PropOp47
 70
     1
102
RTVSPost2010Prop48
 90
       50
102
RTVSPost2010PropOp48
 70
     1
102
RTVSPost2010Prop49
280
     0
102
RTVSPost2010PropOp49
 70
     1
102
RTVSPost2010Prop50
 90
       50
102
RTVSPost2010PropOp50
 70
     1
102
RTVSPost2010Prop51ColorIndex
 90
      256
102
RTVSPost2010Prop51ColorRGB
 90
-16777216
102
RTVSPost2010PropOp51
 70
     0
102
RTVSPost2010Prop52
140
1.0
102
RTVSPost2010PropOp52
 70
     0
102
RTVSPost2010Prop53
 90
        2
102
RTVSPost2010PropOp53
 70
     1
102
RTVSPost2010Prop54
  1
strokes_ogs.tif
102
RTVSPost2010PropOp54
 70
     1
102
RTVSPost2010Prop55
280
     0
102
RTVSPost2010PropOp55
 70
     1
102
RTVSPost2010Prop56
140
1.0
102
RTVSPost2010PropOp56
 70
     1
102
RTVSPost2010Prop57
140
1.0
102
RTVSPost2010PropOp57
 70
     1
102
RTVSPropertyOp0
 70
     1
102
RTVSPropertyOp1
 70
     1
102
RTVSPropertyOp2
 70
     1
102
RTVSPropertyOp3
 70
     1
102
RTVSPropertyOp4
 70
     1
102
RTVSPropertyOp5
 70
     1
102
RTVSPropertyOp6
 70
     1
102
RTVSPropertyOp7
 70
     1
102
RTVSPropertyOp8
 70
     1
102
RTVSPropertyOp9
 70
     1
102
RTVSPropertyOp10
 70
     1
102
RTVSPropertyOp11
 70
     1
102
RTVSPropertyOp12
 70
     1
102
RTVSPropertyOp13
 70
     1
102
RTVSPropertyOp14
 70
     1
102
RTVSPropertyOp15
 70
     1
102
RTVSPropertyOp16
 70
     1
102
RTVSPropertyOp17
 70
     1
102
RTVSPropertyOp18
 70
     1
102
RTVSPropertyOp19
 70
     1
102
RTVSPropertyOp20
 70
     1
102
RTVSPropertyOp21
 70
     1
102
RTVSPropertyOp22
 70
     1
102
RTVSPropertyOp23
 70
     1
102
RTVSPropertyOp24
 70
     1
102
RTVSPropertyOp25
 70
     1
102
RTVSPropertyOp26
 70
     1
102
RTVSPropertyOp27
 70
     1
102
RTVSPropertyOp28
 70
     1
102
RTVSPropertyOp29
 70
     1
102
RTVSPropertyOp30
 70
     1
102
RTVSPropertyOp31
 70
     1
102
RTVSPropertyOp32
 70
     1
102
RTVSPropertyOp33
 70
     1
102
RTVSPropertyOp34
 70
     1
102
RTVSPropertyOp35
 70
     1
102
RTVSPropertyOp36
 70
     1
102
RTVSPropertyOp37
 70
     1
102
RTVSPropertyOp38
 70
     1
102
RTVSPropertyOp39
 70
     1
102
RTVSPropertyOp40
 70
     1
102
RTVSPropertyOp41
 70
     1
102
RTVSPropertyOp42
 70
     1
102
RTVSPropertyOp43
 70
     1
102
RTVSPropertyOp44
 70
     1
102
RTVSPropertyOp45
 70
     1
102
RTVSPropertyOp46
 70
     1
102
RTVSPropertyOp47
 70
     1
102
RTVSPropertyOp48
 70
     1
102
RTVSPropertyOp49
 70
     1
102
RTVSPropertyOp50
 70
     1
102
RTVSPropertyOp51
 70
     0
102
RTVSPropertyOp52
 70
     0
102
RTVSPropertyOp53
 70
     1
102
RTVSPropertyOp54
 70
     1
102
RTVSPropertyOp55
 70
     1
102
RTVSPropertyOp56
 70
     1
102
RTVSPropertyOp57
 70
     1
102
RTVSPropertyOp58
 70
     1
102
RTVSPropertyOp59
 70
     1
102
RTVSPropertyOp60
 70
     1
102
RTVSPropertyOp61
 70
     1
102
RTVSPropertyOp62
 70
     1
  0
XRECORD
  5
709
102
{ACAD_REACTORS
330
708
102
}
330
708
100
AcDbXrecord
280
     1
102
RTVSPost2010Prop28
280
     0
102
RTVSPost2010PropOp28
 70
     1
102
RTVSPost2010Prop29
280
     1
102
RTVSPost2010PropOp29
 70
     1
102
RTVSPost2010Prop30
280
     1
102
RTVSPost2010PropOp30
 70
     1
102
RTVSPost2010Prop31
280
     0
102
RTVSPost2010PropOp31
 70
     1
102
RTVSPost2010Prop32
280
     0
102
RTVSPost2010PropOp32
 70
     1
102
RTVSPost2010Prop33
280
     0
102
RTVSPost2010PropOp33
 70
     1
102
RTVSPost2010Prop34
280
     0
102
RTVSPost2010PropOp34
 70
     1
102
RTVSPost2010Prop35
280
     0
102
RTVSPost2010PropOp35
 70
     1
102
RTVSPost2010Prop36
280
     0
102
RTVSPost2010PropOp36
 70
     1
102
RTVSPost2010Prop37
 90
       50
102
RTVSPost2010PropOp37
 70
     1
102
RTVSPost2010Prop38
140
0.0
102
RTVSPost2010PropOp38
 70
     1
102
RTVSPost2010Prop39
140
1.0
102
RTVSPost2010PropOp39
 70
     1
102
RTVSPost2010Prop40
 90
        0
102
RTVSPost2010PropOp40
 70
     1
102
RTVSPost2010Prop41ColorIndex
 90
       18
102
RTVSPost2010Prop41ColorRGB
 90
        0
102
RTVSPost2010PropOp41
 70
     1
102
RTVSPost2010Prop42
 90
       50
102
RTVSPost2010PropOp42
 70
     1
102
RTVSPost2010Prop43
 90
        3
102
RTVSPost2010PropOp43
 70
     1
102
RTVSPost2010Prop44ColorIndex
 90
        5
102
RTVSPost2010Prop44ColorRGB
 90
      255
102
RTVSPost2010PropOp44
 70
     1
102
RTVSPost2010Prop45
280
     0
102
RTVSPost2010PropOp45
 70
     1
102
RTVSPost2010Prop46
 90
       50
102
RTVSPost2010PropOp46
 70
     1
102
RTVSPost2010Prop47
 90
       50
102
RTVSPost2010PropOp47
 70
     1
102
RTVSPost2010Prop48
 90
       50
102
RTVSPost2010PropOp48
 70
     1
102
RTVSPost2010Prop49
280
     0
102
RTVSPost2010PropOp49
 70
     1
102
RTVSPost2010Prop50
 90
       50
102
RTVSPost2010PropOp50
 70
     1
102
RTVSPost2010Prop51ColorIndex
 90
      256
102
RTVSPost2010Prop51ColorRGB
 90
-16777216
102
RTVSPost2010PropOp51
 70
     0
102
RTVSPost2010Prop52
140
1.0
102
RTVSPost2010PropOp52
 70
     0
102
RTVSPost2010Prop53
 90
        2
102
RTVSPost2010PropOp53
 70
     1
102
RTVSPost2010Prop54
  1
strokes_ogs.tif
102
RTVSPost2010PropOp54
 70
     1
102
RTVSPost2010Prop55
280
     0
102
RTVSPost2010PropOp55
 70
     1
102
RTVSPost2010Prop56
140
1.0
102
RTVSPost2010PropOp56
 70
     1
102
RTVSPost2010Prop57
140
1.0
102
RTVSPost2010PropOp57
 70
     1
102
RTVSPropertyOp0
 70
     1
102
RTVSPropertyOp1
 70
     1
102
RTVSPropertyOp2
 70
     1
102
RTVSPropertyOp3
 70
     1
102
RTVSPropertyOp4
 70
     1
102
RTVSPropertyOp5
 70
     1
102
RTVSPropertyOp6
 70
     1
102
RTVSPropertyOp7
 70
     1
102
RTVSPropertyOp8
 70
     1
102
RTVSPropertyOp9
 70
     1
102
RTVSPropertyOp10
 70
     1
102
RTVSPropertyOp11
 70
     1
102
RTVSPropertyOp12
 70
     1
102
RTVSPropertyOp13
 70
     1
102
RTVSPropertyOp14
 70
     1
102
RTVSPropertyOp15
 70
     1
102
RTVSPropertyOp16
 70
     1
102
RTVSPropertyOp17
 70
     1
102
RTVSPropertyOp18
 70
     1
102
RTVSPropertyOp19
 70
     1
102
RTVSPropertyOp20
 70
     1
102
RTVSPropertyOp21
 70
     1
102
RTVSPropertyOp22
 70
     1
102
RTVSPropertyOp23
 70
     1
102
RTVSPropertyOp24
 70
     1
102
RTVSPropertyOp25
 70
     1
102
RTVSPropertyOp26
 70
     1
102
RTVSPropertyOp27
 70
     1
102
RTVSPropertyOp28
 70
     1
102
RTVSPropertyOp29
 70
     1
102
RTVSPropertyOp30
 70
     1
102
RTVSPropertyOp31
 70
     1
102
RTVSPropertyOp32
 70
     1
102
RTVSPropertyOp33
 70
     1
102
RTVSPropertyOp34
 70
     1
102
RTVSPropertyOp35
 70
     1
102
RTVSPropertyOp36
 70
     1
102
RTVSPropertyOp37
 70
     1
102
RTVSPropertyOp38
 70
     1
102
RTVSPropertyOp39
 70
     1
102
RTVSPropertyOp40
 70
     1
102
RTVSPropertyOp41
 70
     1
102
RTVSPropertyOp42
 70
     1
102
RTVSPropertyOp43
 70
     1
102
RTVSPropertyOp44
 70
     1
102
RTVSPropertyOp45
 70
     1
102
RTVSPropertyOp46
 70
     1
102
RTVSPropertyOp47
 70
     1
102
RTVSPropertyOp48
 70
     1
102
RTVSPropertyOp49
 70
     1
102
RTVSPropertyOp50
 70
     1
102
RTVSPropertyOp51
 70
     0
102
RTVSPropertyOp52
 70
     0
102
RTVSPropertyOp53
 70
     1
102
RTVSPropertyOp54
 70
     1
102
RTVSPropertyOp55
 70
     1
102
RTVSPropertyOp56
 70
     1
102
RTVSPropertyOp57
 70
     1
102
RTVSPropertyOp58
 70
     1
102
RTVSPropertyOp59
 70
     1
102
RTVSPropertyOp60
 70
     1
102
RTVSPropertyOp61
 70
     1
102
RTVSPropertyOp62
 70
     1
  0
XRECORD
  5
70B
102
{ACAD_REACTORS
330
70A
102
}
330
70A
100
AcDbXrecord
280
     1
102
RTVSPost2010Prop28
280
     0
102
RTVSPost2010PropOp28
 70
     1
102
RTVSPost2010Prop29
280
     1
102
RTVSPost2010PropOp29
 70
     1
102
RTVSPost2010Prop30
280
     1
102
RTVSPost2010PropOp30
 70
     1
102
RTVSPost2010Prop31
280
     0
102
RTVSPost2010PropOp31
 70
     1
102
RTVSPost2010Prop32
280
     0
102
RTVSPost2010PropOp32
 70
     1
102
RTVSPost2010Prop33
280
     0
102
RTVSPost2010PropOp33
 70
     1
102
RTVSPost2010Prop34
280
     0
102
RTVSPost2010PropOp34
 70
     1
102
RTVSPost2010Prop35
280
     0
102
RTVSPost2010PropOp35
 70
     1
102
RTVSPost2010Prop36
280
     0
102
RTVSPost2010PropOp36
 70
     1
102
RTVSPost2010Prop37
 90
       50
102
RTVSPost2010PropOp37
 70
     1
102
RTVSPost2010Prop38
140
0.0
102
RTVSPost2010PropOp38
 70
     1
102
RTVSPost2010Prop39
140
1.0
102
RTVSPost2010PropOp39
 70
     1
102
RTVSPost2010Prop40
 90
        0
102
RTVSPost2010PropOp40
 70
     1
102
RTVSPost2010Prop41ColorIndex
 90
       18
102
RTVSPost2010Prop41ColorRGB
 90
        0
102
RTVSPost2010PropOp41
 70
     1
102
RTVSPost2010Prop42
 90
       50
102
RTVSPost2010PropOp42
 70
     1
102
RTVSPost2010Prop43
 90
        3
102
RTVSPost2010PropOp43
 70
     1
102
RTVSPost2010Prop44ColorIndex
 90
        5
102
RTVSPost2010Prop44ColorRGB
 90
      255
102
RTVSPost2010PropOp44
 70
     1
102
RTVSPost2010Prop45
280
     0
102
RTVSPost2010PropOp45
 70
     1
102
RTVSPost2010Prop46
 90
       50
102
RTVSPost2010PropOp46
 70
     1
102
RTVSPost2010Prop47
 90
       50
102
RTVSPost2010PropOp47
 70
     1
102
RTVSPost2010Prop48
 90
       50
102
RTVSPost2010PropOp48
 70
     1
102
RTVSPost2010Prop49
280
     0
102
RTVSPost2010PropOp49
 70
     1
102
RTVSPost2010Prop50
 90
       50
102
RTVSPost2010PropOp50
 70
     1
102
RTVSPost2010Prop51ColorIndex
 90
      256
102
RTVSPost2010Prop51ColorRGB
 90
-16777216
102
RTVSPost2010PropOp51
 70
     0
102
RTVSPost2010Prop52
140
1.0
102
RTVSPost2010PropOp52
 70
     0
102
RTVSPost2010Prop53
 90
        2
102
RTVSPost2010PropOp53
 70
     1
102
RTVSPost2010Prop54
  1
strokes_ogs.tif
102
RTVSPost2010PropOp54
 70
     1
102
RTVSPost2010Prop55
280
     0
102
RTVSPost2010PropOp55
 70
     1
102
RTVSPost2010Prop56
140
1.0
102
RTVSPost2010PropOp56
 70
     1
102
RTVSPost2010Prop57
140
1.0
102
RTVSPost2010PropOp57
 70
     1
102
RTVSPropertyOp0
 70
     1
102
RTVSPropertyOp1
 70
     1
102
RTVSPropertyOp2
 70
     1
102
RTVSPropertyOp3
 70
     1
102
RTVSPropertyOp4
 70
     1
102
RTVSPropertyOp5
 70
     1
102
RTVSPropertyOp6
 70
     1
102
RTVSPropertyOp7
 70
     1
102
RTVSPropertyOp8
 70
     1
102
RTVSPropertyOp9
 70
     1
102
RTVSPropertyOp10
 70
     1
102
RTVSPropertyOp11
 70
     1
102
RTVSPropertyOp12
 70
     1
102
RTVSPropertyOp13
 70
     1
102
RTVSPropertyOp14
 70
     1
102
RTVSPropertyOp15
 70
     1
102
RTVSPropertyOp16
 70
     1
102
RTVSPropertyOp17
 70
     1
102
RTVSPropertyOp18
 70
     1
102
RTVSPropertyOp19
 70
     1
102
RTVSPropertyOp20
 70
     1
102
RTVSPropertyOp21
 70
     1
102
RTVSPropertyOp22
 70
     1
102
RTVSPropertyOp23
 70
     1
102
RTVSPropertyOp24
 70
     1
102
RTVSPropertyOp25
 70
     1
102
RTVSPropertyOp26
 70
     1
102
RTVSPropertyOp27
 70
     1
102
RTVSPropertyOp28
 70
     1
102
RTVSPropertyOp29
 70
     1
102
RTVSPropertyOp30
 70
     1
102
RTVSPropertyOp31
 70
     1
102
RTVSPropertyOp32
 70
     1
102
RTVSPropertyOp33
 70
     1
102
RTVSPropertyOp34
 70
     1
102
RTVSPropertyOp35
 70
     1
102
RTVSPropertyOp36
 70
     1
102
RTVSPropertyOp37
 70
     1
102
RTVSPropertyOp38
 70
     1
102
RTVSPropertyOp39
 70
     1
102
RTVSPropertyOp40
 70
     1
102
RTVSPropertyOp41
 70
     1
102
RTVSPropertyOp42
 70
     1
102
RTVSPropertyOp43
 70
     1
102
RTVSPropertyOp44
 70
     1
102
RTVSPropertyOp45
 70
     1
102
RTVSPropertyOp46
 70
     1
102
RTVSPropertyOp47
 70
     1
102
RTVSPropertyOp48
 70
     1
102
RTVSPropertyOp49
 70
     1
102
RTVSPropertyOp50
 70
     1
102
RTVSPropertyOp51
 70
     0
102
RTVSPropertyOp52
 70
     0
102
RTVSPropertyOp53
 70
     1
102
RTVSPropertyOp54
 70
     1
102
RTVSPropertyOp55
 70
     1
102
RTVSPropertyOp56
 70
     1
102
RTVSPropertyOp57
 70
     1
102
RTVSPropertyOp58
 70
     1
102
RTVSPropertyOp59
 70
     1
102
RTVSPropertyOp60
 70
     1
102
RTVSPropertyOp61
 70
     1
102
RTVSPropertyOp62
 70
     1
  0
XRECORD
  5
701
102
{ACAD_REACTORS
330
700
102
}
330
700
100
AcDbXrecord
280
     1
102
RTVSPost2010Prop28
280
     0
102
RTVSPost2010PropOp28
 70
     1
102
RTVSPost2010Prop29
280
     1
102
RTVSPost2010PropOp29
 70
     1
102
RTVSPost2010Prop30
280
     1
102
RTVSPost2010PropOp30
 70
     1
102
RTVSPost2010Prop31
280
     0
102
RTVSPost2010PropOp31
 70
     1
102
RTVSPost2010Prop32
280
     0
102
RTVSPost2010PropOp32
 70
     1
102
RTVSPost2010Prop33
280
     0
102
RTVSPost2010PropOp33
 70
     1
102
RTVSPost2010Prop34
280
     0
102
RTVSPost2010PropOp34
 70
     1
102
RTVSPost2010Prop35
280
     0
102
RTVSPost2010PropOp35
 70
     1
102
RTVSPost2010Prop36
280
     0
102
RTVSPost2010PropOp36
 70
     1
102
RTVSPost2010Prop37
 90
       50
102
RTVSPost2010PropOp37
 70
     1
102
RTVSPost2010Prop38
140
0.0
102
RTVSPost2010PropOp38
 70
     1
102
RTVSPost2010Prop39
140
1.0
102
RTVSPost2010PropOp39
 70
     1
102
RTVSPost2010Prop40
 90
        0
102
RTVSPost2010PropOp40
 70
     1
102
RTVSPost2010Prop41ColorIndex
 90
       18
102
RTVSPost2010Prop41ColorRGB
 90
        0
102
RTVSPost2010PropOp41
 70
     1
102
RTVSPost2010Prop42
 90
       50
102
RTVSPost2010PropOp42
 70
     1
102
RTVSPost2010Prop43
 90
        3
102
RTVSPost2010PropOp43
 70
     1
102
RTVSPost2010Prop44ColorIndex
 90
        5
102
RTVSPost2010Prop44ColorRGB
 90
      255
102
RTVSPost2010PropOp44
 70
     1
102
RTVSPost2010Prop45
280
     0
102
RTVSPost2010PropOp45
 70
     1
102
RTVSPost2010Prop46
 90
       50
102
RTVSPost2010PropOp46
 70
     1
102
RTVSPost2010Prop47
 90
       50
102
RTVSPost2010PropOp47
 70
     1
102
RTVSPost2010Prop48
 90
       50
102
RTVSPost2010PropOp48
 70
     1
102
RTVSPost2010Prop49
280
     0
102
RTVSPost2010PropOp49
 70
     1
102
RTVSPost2010Prop50
 90
       50
102
RTVSPost2010PropOp50
 70
     1
102
RTVSPost2010Prop51ColorIndex
 90
      256
102
RTVSPost2010Prop51ColorRGB
 90
-16777216
102
RTVSPost2010PropOp51
 70
     0
102
RTVSPost2010Prop52
140
1.0
102
RTVSPost2010PropOp52
 70
     0
102
RTVSPost2010Prop53
 90
        2
102
RTVSPost2010PropOp53
 70
     1
102
RTVSPost2010Prop54
  1
strokes_ogs.tif
102
RTVSPost2010PropOp54
 70
     1
102
RTVSPost2010Prop55
280
     0
102
RTVSPost2010PropOp55
 70
     1
102
RTVSPost2010Prop56
140
1.0
102
RTVSPost2010PropOp56
 70
     1
102
RTVSPost2010Prop57
140
1.0
102
RTVSPost2010PropOp57
 70
     1
102
RTVSPropertyOp0
 70
     1
102
RTVSPropertyOp1
 70
     1
102
RTVSPropertyOp2
 70
     1
102
RTVSPropertyOp3
 70
     1
102
RTVSPropertyOp4
 70
     1
102
RTVSPropertyOp5
 70
     1
102
RTVSPropertyOp6
 70
     1
102
RTVSPropertyOp7
 70
     1
102
RTVSPropertyOp8
 70
     1
102
RTVSPropertyOp9
 70
     1
102
RTVSPropertyOp10
 70
     1
102
RTVSPropertyOp11
 70
     1
102
RTVSPropertyOp12
 70
     1
102
RTVSPropertyOp13
 70
     1
102
RTVSPropertyOp14
 70
     1
102
RTVSPropertyOp15
 70
     1
102
RTVSPropertyOp16
 70
     1
102
RTVSPropertyOp17
 70
     1
102
RTVSPropertyOp18
 70
     1
102
RTVSPropertyOp19
 70
     1
102
RTVSPropertyOp20
 70
     1
102
RTVSPropertyOp21
 70
     1
102
RTVSPropertyOp22
 70
     1
102
RTVSPropertyOp23
 70
     1
102
RTVSPropertyOp24
 70
     1
102
RTVSPropertyOp25
 70
     1
102
RTVSPropertyOp26
 70
     1
102
RTVSPropertyOp27
 70
     1
102
RTVSPropertyOp28
 70
     1
102
RTVSPropertyOp29
 70
     1
102
RTVSPropertyOp30
 70
     1
102
RTVSPropertyOp31
 70
     1
102
RTVSPropertyOp32
 70
     1
102
RTVSPropertyOp33
 70
     1
102
RTVSPropertyOp34
 70
     1
102
RTVSPropertyOp35
 70
     1
102
RTVSPropertyOp36
 70
     1
102
RTVSPropertyOp37
 70
     1
102
RTVSPropertyOp38
 70
     1
102
RTVSPropertyOp39
 70
     1
102
RTVSPropertyOp40
 70
     1
102
RTVSPropertyOp41
 70
     1
102
RTVSPropertyOp42
 70
     1
102
RTVSPropertyOp43
 70
     1
102
RTVSPropertyOp44
 70
     1
102
RTVSPropertyOp45
 70
     1
102
RTVSPropertyOp46
 70
     1
102
RTVSPropertyOp47
 70
     1
102
RTVSPropertyOp48
 70
     1
102
RTVSPropertyOp49
 70
     1
102
RTVSPropertyOp50
 70
     1
102
RTVSPropertyOp51
 70
     0
102
RTVSPropertyOp52
 70
     0
102
RTVSPropertyOp53
 70
     1
102
RTVSPropertyOp54
 70
     1
102
RTVSPropertyOp55
 70
     1
102
RTVSPropertyOp56
 70
     1
102
RTVSPropertyOp57
 70
     1
102
RTVSPropertyOp58
 70
     1
102
RTVSPropertyOp59
 70
     1
102
RTVSPropertyOp60
 70
     1
102
RTVSPropertyOp61
 70
     1
102
RTVSPropertyOp62
 70
     1
  0
XRECORD
  5
6F5
102
{ACAD_REACTORS
330
6F4
102
}
330
6F4
100
AcDbXrecord
280
     1
102
RTVSPost2010Prop28
280
     0
102
RTVSPost2010PropOp28
 70
     1
102
RTVSPost2010Prop29
280
     1
102
RTVSPost2010PropOp29
 70
     1
102
RTVSPost2010Prop30
280
     1
102
RTVSPost2010PropOp30
 70
     1
102
RTVSPost2010Prop31
280
     0
102
RTVSPost2010PropOp31
 70
     1
102
RTVSPost2010Prop32
280
     0
102
RTVSPost2010PropOp32
 70
     1
102
RTVSPost2010Prop33
280
     0
102
RTVSPost2010PropOp33
 70
     1
102
RTVSPost2010Prop34
280
     0
102
RTVSPost2010PropOp34
 70
     1
102
RTVSPost2010Prop35
280
     0
102
RTVSPost2010PropOp35
 70
     1
102
RTVSPost2010Prop36
280
     0
102
RTVSPost2010PropOp36
 70
     1
102
RTVSPost2010Prop37
 90
       50
102
RTVSPost2010PropOp37
 70
     1
102
RTVSPost2010Prop38
140
0.0
102
RTVSPost2010PropOp38
 70
     1
102
RTVSPost2010Prop39
140
1.0
102
RTVSPost2010PropOp39
 70
     1
102
RTVSPost2010Prop40
 90
        0
102
RTVSPost2010PropOp40
 70
     1
102
RTVSPost2010Prop41ColorIndex
 90
       18
102
RTVSPost2010Prop41ColorRGB
 90
        0
102
RTVSPost2010PropOp41
 70
     1
102
RTVSPost2010Prop42
 90
       50
102
RTVSPost2010PropOp42
 70
     1
102
RTVSPost2010Prop43
 90
        3
102
RTVSPost2010PropOp43
 70
     1
102
RTVSPost2010Prop44ColorIndex
 90
        5
102
RTVSPost2010Prop44ColorRGB
 90
      255
102
RTVSPost2010PropOp44
 70
     1
102
RTVSPost2010Prop45
280
     0
102
RTVSPost2010PropOp45
 70
     1
102
RTVSPost2010Prop46
 90
       50
102
RTVSPost2010PropOp46
 70
     1
102
RTVSPost2010Prop47
 90
       50
102
RTVSPost2010PropOp47
 70
     1
102
RTVSPost2010Prop48
 90
       50
102
RTVSPost2010PropOp48
 70
     1
102
RTVSPost2010Prop49
280
     0
102
RTVSPost2010PropOp49
 70
     1
102
RTVSPost2010Prop50
 90
       50
102
RTVSPost2010PropOp50
 70
     1
102
RTVSPost2010Prop51ColorIndex
 90
      256
102
RTVSPost2010Prop51ColorRGB
 90
-16777216
102
RTVSPost2010PropOp51
 70
     0
102
RTVSPost2010Prop52
140
1.0
102
RTVSPost2010PropOp52
 70
     0
102
RTVSPost2010Prop53
 90
        2
102
RTVSPost2010PropOp53
 70
     1
102
RTVSPost2010Prop54
  1
strokes_ogs.tif
102
RTVSPost2010PropOp54
 70
     1
102
RTVSPost2010Prop55
280
     0
102
RTVSPost2010PropOp55
 70
     1
102
RTVSPost2010Prop56
140
1.0
102
RTVSPost2010PropOp56
 70
     1
102
RTVSPost2010Prop57
140
1.0
102
RTVSPost2010PropOp57
 70
     1
102
RTVSPropertyOp0
 70
     1
102
RTVSPropertyOp1
 70
     1
102
RTVSPropertyOp2
 70
     1
102
RTVSPropertyOp3
 70
     1
102
RTVSPropertyOp4
 70
     1
102
RTVSPropertyOp5
 70
     1
102
RTVSPropertyOp6
 70
     1
102
RTVSPropertyOp7
 70
     1
102
RTVSPropertyOp8
 70
     1
102
RTVSPropertyOp9
 70
     1
102
RTVSPropertyOp10
 70
     1
102
RTVSPropertyOp11
 70
     1
102
RTVSPropertyOp12
 70
     1
102
RTVSPropertyOp13
 70
     1
102
RTVSPropertyOp14
 70
     1
102
RTVSPropertyOp15
 70
     1
102
RTVSPropertyOp16
 70
     1
102
RTVSPropertyOp17
 70
     1
102
RTVSPropertyOp18
 70
     1
102
RTVSPropertyOp19
 70
     1
102
RTVSPropertyOp20
 70
     1
102
RTVSPropertyOp21
 70
     1
102
RTVSPropertyOp22
 70
     1
102
RTVSPropertyOp23
 70
     1
102
RTVSPropertyOp24
 70
     1
102
RTVSPropertyOp25
 70
     1
102
RTVSPropertyOp26
 70
     1
102
RTVSPropertyOp27
 70
     1
102
RTVSPropertyOp28
 70
     1
102
RTVSPropertyOp29
 70
     1
102
RTVSPropertyOp30
 70
     1
102
RTVSPropertyOp31
 70
     1
102
RTVSPropertyOp32
 70
     1
102
RTVSPropertyOp33
 70
     1
102
RTVSPropertyOp34
 70
     1
102
RTVSPropertyOp35
 70
     1
102
RTVSPropertyOp36
 70
     1
102
RTVSPropertyOp37
 70
     1
102
RTVSPropertyOp38
 70
     1
102
RTVSPropertyOp39
 70
     1
102
RTVSPropertyOp40
 70
     1
102
RTVSPropertyOp41
 70
     1
102
RTVSPropertyOp42
 70
     1
102
RTVSPropertyOp43
 70
     1
102
RTVSPropertyOp44
 70
     1
102
RTVSPropertyOp45
 70
     1
102
RTVSPropertyOp46
 70
     1
102
RTVSPropertyOp47
 70
     1
102
RTVSPropertyOp48
 70
     1
102
RTVSPropertyOp49
 70
     1
102
RTVSPropertyOp50
 70
     1
102
RTVSPropertyOp51
 70
     0
102
RTVSPropertyOp52
 70
     0
102
RTVSPropertyOp53
 70
     1
102
RTVSPropertyOp54
 70
     1
102
RTVSPropertyOp55
 70
     1
102
RTVSPropertyOp56
 70
     1
102
RTVSPropertyOp57
 70
     1
102
RTVSPropertyOp58
 70
     1
102
RTVSPropertyOp59
 70
     1
102
RTVSPropertyOp60
 70
     1
102
RTVSPropertyOp61
 70
     1
102
RTVSPropertyOp62
 70
     1
  0
XRECORD
  5
70D
102
{ACAD_REACTORS
330
70C
102
}
330
70C
100
AcDbXrecord
280
     1
102
RTVSPost2010Prop28
280
     0
102
RTVSPost2010PropOp28
 70
     1
102
RTVSPost2010Prop29
280
     1
102
RTVSPost2010PropOp29
 70
     1
102
RTVSPost2010Prop30
280
     1
102
RTVSPost2010PropOp30
 70
     1
102
RTVSPost2010Prop31
280
     0
102
RTVSPost2010PropOp31
 70
     1
102
RTVSPost2010Prop32
280
     0
102
RTVSPost2010PropOp32
 70
     1
102
RTVSPost2010Prop33
280
     0
102
RTVSPost2010PropOp33
 70
     1
102
RTVSPost2010Prop34
280
     0
102
RTVSPost2010PropOp34
 70
     1
102
RTVSPost2010Prop35
280
     0
102
RTVSPost2010PropOp35
 70
     1
102
RTVSPost2010Prop36
280
     0
102
RTVSPost2010PropOp36
 70
     1
102
RTVSPost2010Prop37
 90
       50
102
RTVSPost2010PropOp37
 70
     1
102
RTVSPost2010Prop38
140
0.0
102
RTVSPost2010PropOp38
 70
     1
102
RTVSPost2010Prop39
140
1.0
102
RTVSPost2010PropOp39
 70
     1
102
RTVSPost2010Prop40
 90
        0
102
RTVSPost2010PropOp40
 70
     1
102
RTVSPost2010Prop41ColorIndex
 90
       18
102
RTVSPost2010Prop41ColorRGB
 90
        0
102
RTVSPost2010PropOp41
 70
     1
102
RTVSPost2010Prop42
 90
       50
102
RTVSPost2010PropOp42
 70
     1
102
RTVSPost2010Prop43
 90
        3
102
RTVSPost2010PropOp43
 70
     1
102
RTVSPost2010Prop44ColorIndex
 90
        5
102
RTVSPost2010Prop44ColorRGB
 90
      255
102
RTVSPost2010PropOp44
 70
     1
102
RTVSPost2010Prop45
280
     0
102
RTVSPost2010PropOp45
 70
     1
102
RTVSPost2010Prop46
 90
       50
102
RTVSPost2010PropOp46
 70
     1
102
RTVSPost2010Prop47
 90
       50
102
RTVSPost2010PropOp47
 70
     1
102
RTVSPost2010Prop48
 90
       50
102
RTVSPost2010PropOp48
 70
     1
102
RTVSPost2010Prop49
280
     0
102
RTVSPost2010PropOp49
 70
     1
102
RTVSPost2010Prop50
 90
       50
102
RTVSPost2010PropOp50
 70
     1
102
RTVSPost2010Prop51ColorIndex
 90
      256
102
RTVSPost2010Prop51ColorRGB
 90
-16777216
102
RTVSPost2010PropOp51
 70
     0
102
RTVSPost2010Prop52
140
1.0
102
RTVSPost2010PropOp52
 70
     0
102
RTVSPost2010Prop53
 90
        2
102
RTVSPost2010PropOp53
 70
     1
102
RTVSPost2010Prop54
  1
strokes_ogs.tif
102
RTVSPost2010PropOp54
 70
     1
102
RTVSPost2010Prop55
280
     0
102
RTVSPost2010PropOp55
 70
     1
102
RTVSPost2010Prop56
140
1.0
102
RTVSPost2010PropOp56
 70
     1
102
RTVSPost2010Prop57
140
1.0
102
RTVSPost2010PropOp57
 70
     1
102
RTVSPropertyOp0
 70
     1
102
RTVSPropertyOp1
 70
     1
102
RTVSPropertyOp2
 70
     1
102
RTVSPropertyOp3
 70
     1
102
RTVSPropertyOp4
 70
     1
102
RTVSPropertyOp5
 70
     1
102
RTVSPropertyOp6
 70
     1
102
RTVSPropertyOp7
 70
     1
102
RTVSPropertyOp8
 70
     1
102
RTVSPropertyOp9
 70
     1
102
RTVSPropertyOp10
 70
     1
102
RTVSPropertyOp11
 70
     1
102
RTVSPropertyOp12
 70
     1
102
RTVSPropertyOp13
 70
     1
102
RTVSPropertyOp14
 70
     1
102
RTVSPropertyOp15
 70
     1
102
RTVSPropertyOp16
 70
     1
102
RTVSPropertyOp17
 70
     1
102
RTVSPropertyOp18
 70
     1
102
RTVSPropertyOp19
 70
     1
102
RTVSPropertyOp20
 70
     1
102
RTVSPropertyOp21
 70
     1
102
RTVSPropertyOp22
 70
     1
102
RTVSPropertyOp23
 70
     1
102
RTVSPropertyOp24
 70
     1
102
RTVSPropertyOp25
 70
     1
102
RTVSPropertyOp26
 70
     1
102
RTVSPropertyOp27
 70
     1
102
RTVSPropertyOp28
 70
     1
102
RTVSPropertyOp29
 70
     1
102
RTVSPropertyOp30
 70
     1
102
RTVSPropertyOp31
 70
     1
102
RTVSPropertyOp32
 70
     1
102
RTVSPropertyOp33
 70
     1
102
RTVSPropertyOp34
 70
     1
102
RTVSPropertyOp35
 70
     1
102
RTVSPropertyOp36
 70
     1
102
RTVSPropertyOp37
 70
     1
102
RTVSPropertyOp38
 70
     1
102
RTVSPropertyOp39
 70
     1
102
RTVSPropertyOp40
 70
     1
102
RTVSPropertyOp41
 70
     1
102
RTVSPropertyOp42
 70
     1
102
RTVSPropertyOp43
 70
     1
102
RTVSPropertyOp44
 70
     1
102
RTVSPropertyOp45
 70
     1
102
RTVSPropertyOp46
 70
     1
102
RTVSPropertyOp47
 70
     1
102
RTVSPropertyOp48
 70
     1
102
RTVSPropertyOp49
 70
     1
102
RTVSPropertyOp50
 70
     1
102
RTVSPropertyOp51
 70
     0
102
RTVSPropertyOp52
 70
     0
102
RTVSPropertyOp53
 70
     1
102
RTVSPropertyOp54
 70
     1
102
RTVSPropertyOp55
 70
     1
102
RTVSPropertyOp56
 70
     1
102
RTVSPropertyOp57
 70
     1
102
RTVSPropertyOp58
 70
     1
102
RTVSPropertyOp59
 70
     1
102
RTVSPropertyOp60
 70
     1
102
RTVSPropertyOp61
 70
     1
102
RTVSPropertyOp62
 70
     1
  0
ENDSEC
  0
EOF
