  0
SECTION
  2
HEADER
  9
$ACADVER
  1
AC1015
  9
$ACADMAINTVER
 70
    20
  9
$DWGCODEPAGE
  3
ANSI_932
  9
$INSBASE
 10
0.0
 20
0.0
 30
0.0
  9
$EXTMIN
 10
442.2942497518403
 20
27.562801221
 30
0.0
  9
$EXTMAX
 10
878.5846455706
 20
288.3447429607716
 30
0.0
  9
$LIMMIN
 10
0.0
 20
0.0
  9
$LIMMAX
 10
420.0
 20
297.0
  9
$ORTHOMODE
 70
     0
  9
$REGENMODE
 70
     1
  9
$FILLMODE
 70
     1
  9
$QTEXTMODE
 70
     0
  9
$MIRRTEXT
 70
     1
  9
$LTSCALE
 40
1.0
  9
$ATTMODE
 70
     1
  9
$TEXTSIZE
 40
3.5
  9
$TRACEWID
 40
1.0
  9
$TEXTSTYLE
  7
Standard
  9
$CLAYER
  8
0
  9
$CELTYPE
  6
ByLayer
  9
$CECOLOR
 62
   256
  9
$CELTSCALE
 40
1.0
  9
$DISPSILH
 70
     0
  9
$DIMSCALE
 40
1.0
  9
$DIMASZ
 40
2.0
  9
$DIMEXO
 40
1.0
  9
$DIMDLI
 40
3.75
  9
$DIMRND
 40
0.0
  9
$DIMDLE
 40
0.0
  9
$DIMEXE
 40
1.0
  9
$DIMTP
 40
0.0
  9
$DIMTM
 40
0.0
  9
$DIMTXT
 40
3.5
  9
$DIMCEN
 40
2.5
  9
$DIMTSZ
 40
0.0
  9
$DIMTOL
 70
     0
  9
$DIMLIM
 70
     0
  9
$DIMTIH
 70
     1
  9
$DIMTOH
 70
     1
  9
$DIMSE1
 70
     0
  9
$DIMSE2
 70
     0
  9
$DIMTAD
 70
     1
  9
$DIMZIN
 70
     0
  9
$DIMBLK
  1

  9
$DIMASO
 70
     1
  9
$DIMSHO
 70
     1
  9
$DIMPOST
  1

  9
$DIMAPOST
  1

  9
$DIMALT
 70
     0
  9
$DIMALTD
 70
     3
  9
$DIMALTF
 40
0.0393700787
  9
$DIMLFAC
 40
5.0
  9
$DIMTOFL
 70
     1
  9
$DIMTVP
 40
0.0
  9
$DIMTIX
 70
     0
  9
$DIMSOXD
 70
     0
  9
$DIMSAH
 70
     0
  9
$DIMBLK1
  1

  9
$DIMBLK2
  1

  9
$DIMSTYLE
  2
ISO-25
  9
$DIMCLRD
 70
     0
  9
$DIMCLRE
 70
     0
  9
$DIMCLRT
 70
     0
  9
$DIMTFAC
 40
1.0
  9
$DIMGAP
 40
1.524
  9
$DIMJUST
 70
     0
  9
$DIMSD1
 70
     0
  9
$DIMSD2
 70
     0
  9
$DIMTOLJ
 70
     0
  9
$DIMTZIN
 70
     0
  9
$DIMALTZ
 70
     0
  9
$DIMALTTZ
 70
     0
  9
$DIMUPT
 70
     0
  9
$DIMDEC
 70
     1
  9
$DIMTDEC
 70
     1
  9
$DIMALTU
 70
     2
  9
$DIMALTTD
 70
     3
  9
$DIMTXSTY
  7
Standard
  9
$DIMAUNIT
 70
     0
  9
$DIMADEC
 70
     1
  9
$DIMALTRND
 40
0.0
  9
$DIMAZIN
 70
     0
  9
$DIMDSEP
 70
    44
  9
$DIMATFIT
 70
     3
  9
$DIMFRAC
 70
     0
  9
$DIMLDRBLK
  1

  9
$DIMLUNIT
 70
     2
  9
$DIMLWD
 70
    -2
  9
$DIMLWE
 70
    -2
  9
$DIMTMOVE
 70
     0
  9
$LUNITS
 70
     2
  9
$LUPREC
 70
     1
  9
$SKETCHINC
 40
1.0
  9
$FILLETRAD
 40
10.0
  9
$AUNITS
 70
     0
  9
$AUPREC
 70
     1
  9
$MENU
  1
.
  9
$ELEVATION
 40
0.0
  9
$PELEVATION
 40
0.0
  9
$THICKNESS
 40
0.0
  9
$LIMCHECK
 70
     0
  9
$CHAMFERA
 40
0.0
  9
$CHAMFERB
 40
0.0
  9
$CHAMFERC
 40
0.0
  9
$CHAMFERD
 40
0.0
  9
$SKPOLY
 70
     0
  9
$TDCREATE
 40
2457121.368104653
  9
$TDUCREATE
 40
2457120.993104653
  9
$TDUPDATE
 40
2457121.431581019
  9
$TDUUPDATE
 40
2457121.056581018
  9
$TDINDWG
 40
0.0009055556
  9
$TDUSRTIMER
 40
0.0009053819
  9
$USRTIMER
 70
     1
  9
$ANGBASE
 50
0.0
  9
$ANGDIR
 70
     0
  9
$PDMODE
 70
     0
  9
$PDSIZE
 40
-1.0
  9
$PLINEWID
 40
0.0
  9
$SPLFRAME
 70
     0
  9
$SPLINETYPE
 70
     6
  9
$SPLINESEGS
 70
     8
  9
$HANDSEED
  5
30A
  9
$SURFTAB1
 70
     6
  9
$SURFTAB2
 70
     6
  9
$SURFTYPE
 70
     6
  9
$SURFU
 70
     6
  9
$SURFV
 70
     6
  9
$UCSBASE
  2

  9
$UCSNAME
  2

  9
$UCSORG
 10
0.0
 20
0.0
 30
0.0
  9
$UCSXDIR
 10
1.0
 20
0.0
 30
0.0
  9
$UCSYDIR
 10
0.0
 20
1.0
 30
0.0
  9
$UCSORTHOREF
  2

  9
$UCSORTHOVIEW
 70
     0
  9
$UCSORGTOP
 10
0.0
 20
0.0
 30
0.0
  9
$UCSORGBOTTOM
 10
0.0
 20
0.0
 30
0.0
  9
$UCSORGLEFT
 10
0.0
 20
0.0
 30
0.0
  9
$UCSORGRIGHT
 10
0.0
 20
0.0
 30
0.0
  9
$UCSORGFRONT
 10
0.0
 20
0.0
 30
0.0
  9
$UCSORGBACK
 10
0.0
 20
0.0
 30
0.0
  9
$PUCSBASE
  2

  9
$PUCSNAME
  2

  9
$PUCSORG
 10
0.0
 20
0.0
 30
0.0
  9
$PUCSXDIR
 10
1.0
 20
0.0
 30
0.0
  9
$PUCSYDIR
 10
0.0
 20
1.0
 30
0.0
  9
$PUCSORTHOREF
  2

  9
$PUCSORTHOVIEW
 70
     0
  9
$PUCSORGTOP
 10
0.0
 20
0.0
 30
0.0
  9
$PUCSORGBOTTOM
 10
0.0
 20
0.0
 30
0.0
  9
$PUCSORGLEFT
 10
0.0
 20
0.0
 30
0.0
  9
$PUCSORGRIGHT
 10
0.0
 20
0.0
 30
0.0
  9
$PUCSORGFRONT
 10
0.0
 20
0.0
 30
0.0
  9
$PUCSORGBACK
 10
0.0
 20
0.0
 30
0.0
  9
$USERI1
 70
     0
  9
$USERI2
 70
     0
  9
$USERI3
 70
     0
  9
$USERI4
 70
     0
  9
$USERI5
 70
     0
  9
$USERR1
 40
0.0
  9
$USERR2
 40
0.0
  9
$USERR3
 40
0.0
  9
$USERR4
 40
0.0
  9
$USERR5
 40
0.0
  9
$WORLDVIEW
 70
     1
  9
$SHADEDGE
 70
     3
  9
$SHADEDIF
 70
    70
  9
$TILEMODE
 70
     1
  9
$MAXACTVP
 70
    64
  9
$PINSBASE
 10
0.0
 20
0.0
 30
0.0
  9
$PLIMCHECK
 70
     0
  9
$PEXTMIN
 10
29.06818420886992
 20
20.36233246326446
 30
0.0
  9
$PEXTMAX
 10
261.6136578798294
 20
183.2609921693802
 30
0.0
  9
$PLIMMIN
 10
-3.17498779296875
 20
-3.174999952316284
  9
$PLIMMAX
 10
293.8568420410156
 20
206.7983276844024
  9
$UNITMODE
 70
     0
  9
$VISRETAIN
 70
     1
  9
$PLINEGEN
 70
     0
  9
$PSLTSCALE
 70
     1
  9
$TREEDEPTH
 70
  3020
  9
$CMLSTYLE
  2
Standard
  9
$CMLJUST
 70
     0
  9
$CMLSCALE
 40
20.0
  9
$PROXYGRAPHICS
 70
     1
  9
$MEASUREMENT
 70
     1
  9
$CELWEIGHT
370
    -1
  9
$ENDCAPS
280
     0
  9
$JOINSTYLE
280
     0
  9
$LWDISPLAY
290
     1
  9
$INSUNITS
 70
     4
  9
$HYPERLINKBASE
  1

  9
$STYLESHEET
  1

  9
$XEDIT
290
     1
  9
$CEPSNTYPE
380
     0
  9
$PSTYLEMODE
290
     1
  9
$FINGERPRINTGUID
  2
{B85B181C-7FC8-4F57-B2F2-AA9DE722F16E}
  9
$VERSIONGUID
  2
{D3FCA549-4655-4CFC-9872-5478667F34CC}
  9
$EXTNAMES
290
     1
  9
$PSVPSCALE
 40
0.0
  9
$OLESTARTUP
290
     0
  0
ENDSEC
  0
SECTION
  2
CLASSES
  0
CLASS
  1
ACDBDICTIONARYWDFLT
  2
AcDbDictionaryWithDefault
  3
ObjectDBX Classes
 90
        0
280
     0
281
     0
  0
CLASS
  1
VISUALSTYLE
  2
AcDbVisualStyle
  3
ObjectDBX Classes
 90
     4095
280
     0
281
     0
  0
CLASS
  1
MATERIAL
  2
AcDbMaterial
  3
ObjectDBX Classes
 90
     1153
280
     0
281
     0
  0
CLASS
  1
SCALE
  2
AcDbScale
  3
ObjectDBX Classes
 90
     1153
280
     0
281
     0
  0
CLASS
  1
SUN
  2
AcDbSun
  3
SCENEOE
 90
    33921
280
     0
281
     0
  0
CLASS
  1
ACDBPLACEHOLDER
  2
AcDbPlaceHolder
  3
ObjectDBX Classes
 90
        0
280
     0
281
     0
  0
CLASS
  1
LAYOUT
  2
AcDbLayout
  3
ObjectDBX Classes
 90
        0
280
     0
281
     0
  0
CLASS
  1
TABLESTYLE
  2
AcDbTableStyle
  3
ObjectDBX Classes
 90
     4095
280
     0
281
     0
  0
CLASS
  1
MLEADERSTYLE
  2
AcDbMLeaderStyle
  3
ACDB_MLEADERSTYLE_CLASS
 90
     4095
280
     0
281
     0
  0
CLASS
  1
ACDBSECTIONVIEWSTYLE
  2
AcDbSectionViewStyle
  3
ObjectDBX Classes
 90
     1025
280
     0
281
     0
  0
CLASS
  1
ACDBDETAILVIEWSTYLE
  2
AcDbDetailViewStyle
  3
ObjectDBX Classes
 90
     1025
280
     0
281
     0
  0
CLASS
  1
DICTIONARYVAR
  2
AcDbDictionaryVar
  3
ObjectDBX Classes
 90
        0
280
     0
281
     0
  0
CLASS
  1
CELLSTYLEMAP
  2
AcDbCellStyleMap
  3
ObjectDBX Classes
 90
     1152
280
     0
281
     0
  0
ENDSEC
  0
SECTION
  2
TABLES
  0
TABLE
  2
VPORT
  5
8
330
0
100
AcDbSymbolTable
 70
     1
  0
VPORT
  5
29
330
8
100
AcDbSymbolTableRecord
100
AcDbViewportTableRecord
  2
*Active
 70
     0
 10
0.0
 20
0.0
 11
1.0
 21
1.0
 12
715.1840701609595
 22
134.0529289966553
 13
0.0
 23
0.0
 14
10.0
 24
10.0
 15
10.0
 25
10.0
 16
0.0
 26
0.0
 36
1.0
 17
0.0
 27
0.0
 37
0.0
 40
466.1298906089307
 41
1.921548117154811
 42
50.0
 43
0.0
 44
0.0
 50
0.0
 51
0.0
 71
     0
 72
  2000
 73
     1
 74
     3
 75
     0
 76
     0
 77
     0
 78
     0
281
     0
 65
     1
110
0.0
120
0.0
130
0.0
111
1.0
121
0.0
131
0.0
112
0.0
122
1.0
132
0.0
 79
     0
146
0.0
1001
ACAD_NAV_VCDISPLAY
1070
     3
  0
ENDTAB
  0
TABLE
  2
LTYPE
  5
5
330
0
100
AcDbSymbolTable
 70
     6
  0
LTYPE
  5
14
330
5
100
AcDbSymbolTableRecord
100
AcDbLinetypeTableRecord
  2
ByBlock
 70
     0
  3

 72
    65
 73
     0
 40
0.0
  0
LTYPE
  5
15
330
5
100
AcDbSymbolTableRecord
100
AcDbLinetypeTableRecord
  2
ByLayer
 70
     0
  3

 72
    65
 73
     0
 40
0.0
  0
LTYPE
  5
16
330
5
100
AcDbSymbolTableRecord
100
AcDbLinetypeTableRecord
  2
Continuous
 70
     0
  3
Solid line
 72
    65
 73
     0
 40
0.0
  0
LTYPE
  5
6A
330
5
100
AcDbSymbolTableRecord
100
AcDbLinetypeTableRecord
  2
HIDDEN
 70
     0
  3
Hidden __ __ __ __ __ __ __ __ __ __ __ __ __ __
 72
    65
 73
     2
 40
1.905
 49
1.27
 74
     0
 49
-0.635
 74
     0
  0
LTYPE
  5
6B
330
5
100
AcDbSymbolTableRecord
100
AcDbLinetypeTableRecord
  2
PHANTOM
 70
     0
  3
Phantom ______  __  __  ______  __  __  ______
 72
    65
 73
     6
 40
12.7
 49
6.349999999999999
 74
     0
 49
-1.27
 74
     0
 49
1.27
 74
     0
 49
-1.27
 74
     0
 49
1.27
 74
     0
 49
-1.27
 74
     0
  0
LTYPE
  5
6C
330
5
100
AcDbSymbolTableRecord
100
AcDbLinetypeTableRecord
  2
CENTER
 70
     0
  3
Center ____ _ ____ _ ____ _ ____ _ ____ _ ____
 72
    65
 73
     4
 40
10.16
 49
6.349999999999999
 74
     0
 49
-1.27
 74
     0
 49
1.27
 74
     0
 49
-1.27
 74
     0
  0
LTYPE
  5
6D
330
5
100
AcDbSymbolTableRecord
100
AcDbLinetypeTableRecord
  2
CENTERX2
 70
     0
  3
Center (2x) ________  __  ________  __  _____
 72
    65
 73
     4
 40
20.32
 49
12.7
 74
     0
 49
-2.54
 74
     0
 49
2.54
 74
     0
 49
-2.54
 74
     0
  0
LTYPE
  5
6E
330
5
100
AcDbSymbolTableRecord
100
AcDbLinetypeTableRecord
  2
DOT2
 70
     0
  3
Dot (.5x) ........................................
 72
    65
 73
     2
 40
0.635
 49
0.0
 74
     0
 49
-0.635
 74
     0
  0
ENDTAB
  0
TABLE
  2
LAYER
  5
2
102
{ACAD_XDICTIONARY
360
269
102
}
330
0
100
AcDbSymbolTable
 70
     4
  0
LAYER
  5
10
102
{ACAD_XDICTIONARY
360
253
102
}
330
2
100
AcDbSymbolTableRecord
100
AcDbLayerTableRecord
  2
0
 70
     0
 62
     7
  6
Continuous
370
    -3
390
F
  0
LAYER
  5
6F
102
{ACAD_XDICTIONARY
360
255
102
}
330
2
100
AcDbSymbolTableRecord
100
AcDbLayerTableRecord
  2
FORMAT
 70
     0
 62
     7
  6
Continuous
370
    -3
390
F
  0
LAYER
  5
70
102
{ACAD_XDICTIONARY
360
257
102
}
330
2
100
AcDbSymbolTableRecord
100
AcDbLayerTableRecord
  2
図枠
 70
     0
 62
     7
  6
Continuous
370
    15
390
F
  0
LAYER
  5
71
102
{ACAD_XDICTIONARY
360
259
102
}
330
2
100
AcDbSymbolTableRecord
100
AcDbLayerTableRecord
  2
ﾚｲﾔｰ2
 70
     0
 62
     7
  6
Continuous
370
    -3
390
F
  0
ENDTAB
  0
TABLE
  2
STYLE
  5
3
330
0
100
AcDbSymbolTable
 70
     2
  0
STYLE
  5
11
330
3
100
AcDbSymbolTableRecord
100
AcDbTextStyleTableRecord
  2
Standard
 70
     0
 40
0.0
 41
1.0
 50
0.0
 71
     0
 42
3.5
  3
txt
  4
bigfont
  0
STYLE
  5
78
330
3
100
AcDbSymbolTableRecord
100
AcDbTextStyleTableRecord
  2
SLDTEXTSTYLE0
 70
     0
 40
0.0
 41
0.7
 50
0.0
 71
     0
 42
3.5
  3
TXT
  4
bigfont
  0
ENDTAB
  0
TABLE
  2
VIEW
  5
6
330
0
100
AcDbSymbolTable
 70
     5
  0
ENDTAB
  0
TABLE
  2
UCS
  5
7
330
0
100
AcDbSymbolTable
 70
     0
  0
ENDTAB
  0
TABLE
  2
APPID
  5
9
330
0
100
AcDbSymbolTable
 70
     4
  0
APPID
  5
12
330
9
100
AcDbSymbolTableRecord
100
AcDbRegAppTableRecord
  2
ACAD
 70
     0
  0
APPID
  5
25B
330
9
100
AcDbSymbolTableRecord
100
AcDbRegAppTableRecord
  2
ACAD_NAV_VCDISPLAY
 70
     0
  0
APPID
  5
27E
330
9
100
AcDbSymbolTableRecord
100
AcDbRegAppTableRecord
  2
ACAD_PSEXT
 70
     0
  0
APPID
  5
303
330
9
100
AcDbSymbolTableRecord
100
AcDbRegAppTableRecord
  2
ACAD_MLEADERVER
 70
     0
  0
ENDTAB
  0
TABLE
  2
DIMSTYLE
  5
A
330
0
100
AcDbSymbolTable
 70
     1
100
AcDbDimStyleTable
 71
     0
  0
DIMSTYLE
105
27
330
A
100
AcDbSymbolTableRecord
100
AcDbDimStyleTableRecord
  2
ISO-25
 70
     0
 41
2.5
 42
0.625
 43
3.75
 44
1.25
 73
     0
 74
     0
 77
     1
 78
     8
140
2.5
141
2.5
143
0.0393700787
147
0.625
171
     3
172
     1
271
     2
272
     2
274
     3
278
    44
283
     0
284
     8
340
11
  0
ENDTAB
  0
TABLE
  2
BLOCK_RECORD
  5
1
330
0
100
AcDbSymbolTable
 70
     8
  0
BLOCK_RECORD
  5
1F
330
1
100
AcDbSymbolTableRecord
100
AcDbBlockTableRecord
  2
*Model_Space
340
22
  0
BLOCK_RECORD
  5
291
330
1
100
AcDbSymbolTableRecord
100
AcDbBlockTableRecord
  2
*Paper_Space
340
292
  0
BLOCK_RECORD
  5
72
330
1
100
AcDbSymbolTableRecord
100
AcDbBlockTableRecord
  2
三角３
340
0
  0
BLOCK_RECORD
  5
7A
330
1
100
AcDbSymbolTableRecord
100
AcDbBlockTableRecord
  2
三角２
340
0
  0
BLOCK_RECORD
  5
81
330
1
100
AcDbSymbolTableRecord
100
AcDbBlockTableRecord
  2
三角６
340
0
  0
BLOCK_RECORD
  5
88
330
1
100
AcDbSymbolTableRecord
100
AcDbBlockTableRecord
  2
三角５
340
0
  0
BLOCK_RECORD
  5
8F
330
1
100
AcDbSymbolTableRecord
100
AcDbBlockTableRecord
  2
三角４
340
0
  0
BLOCK_RECORD
  5
96
330
1
100
AcDbSymbolTableRecord
100
AcDbBlockTableRecord
  2
三角１
340
0
  0
ENDTAB
  0
ENDSEC
  0
SECTION
  2
BLOCKS
  0
BLOCK
  5
20
330
1F
100
AcDbEntity
  8
0
100
AcDbBlockBegin
  2
*Model_Space
 70
     0
 10
0.0
 20
0.0
 30
0.0
  3
*Model_Space
  1
*Model_Space
  0
ENDBLK
  5
21
330
1F
100
AcDbEntity
  8
0
100
AcDbBlockEnd
  0
BLOCK
  5
293
330
291
100
AcDbEntity
 67
     1
  8
0
100
AcDbBlockBegin
  2
*Paper_Space
 70
     0
 10
0.0
 20
0.0
 30
0.0
  3
*Paper_Space
  1

  0
ENDBLK
  5
294
330
291
100
AcDbEntity
 67
     1
  8
0
100
AcDbBlockEnd
  0
BLOCK
  5
73
330
72
100
AcDbEntity
  8
0
100
AcDbBlockBegin
  2
三角３
 70
     0
 10
0.0
 20
0.0
 30
0.0
  3
三角３
  1
三角３
  0
LINE
  5
75
330
72
100
AcDbEntity
  8
FORMAT
370
     0
100
AcDbLine
 10
0.0
 20
0.0
 30
0.0
 11
-1.75
 21
-3.5
 31
0.0
  0
LINE
  5
76
330
72
100
AcDbEntity
  8
FORMAT
370
     0
100
AcDbLine
 10
-1.75
 20
-3.5
 30
0.0
 11
1.75
 21
-3.5
 31
0.0
  0
LINE
  5
77
330
72
100
AcDbEntity
  8
FORMAT
370
     0
100
AcDbLine
 10
1.75
 20
-3.5
 30
0.0
 11
0.0
 21
0.0
 31
0.0
  0
MTEXT
  5
79
330
72
100
AcDbEntity
  8
FORMAT
 62
     7
100
AcDbMText
 10
-0.6943926639
 20
-0.9380245362
 30
0.0
 40
2.1166666667
 41
0.0
 71
     1
 72
     1
  1
3
  7
SLDTEXTSTYLE0
 73
     1
 44
1.0
1001
ACAD
1000
MTEXTBEGIN
1070
    73
1070
     1
1070
    44
1040
1.0
1070
    74
1070
     0
1000
MTEXTEND
  0
ENDBLK
  5
74
330
72
100
AcDbEntity
  8
0
100
AcDbBlockEnd
  0
BLOCK
  5
7B
330
7A
100
AcDbEntity
  8
0
100
AcDbBlockBegin
  2
三角２
 70
     0
 10
0.0
 20
0.0
 30
0.0
  3
三角２
  1
三角２
  0
LINE
  5
7D
330
7A
100
AcDbEntity
  8
FORMAT
370
     0
100
AcDbLine
 10
0.0
 20
0.0
 30
0.0
 11
-1.75
 21
-3.5
 31
0.0
  0
LINE
  5
7E
330
7A
100
AcDbEntity
  8
FORMAT
370
     0
100
AcDbLine
 10
-1.75
 20
-3.5
 30
0.0
 11
1.75
 21
-3.5
 31
0.0
  0
LINE
  5
7F
330
7A
100
AcDbEntity
  8
FORMAT
370
     0
100
AcDbLine
 10
1.75
 20
-3.5
 30
0.0
 11
0.0
 21
0.0
 31
0.0
  0
MTEXT
  5
80
330
7A
100
AcDbEntity
  8
FORMAT
 62
     7
100
AcDbMText
 10
-0.6943926639
 20
-0.9380245362
 30
0.0
 40
2.1166666667
 41
0.0
 71
     1
 72
     1
  1
2
  7
SLDTEXTSTYLE0
 73
     1
 44
1.0
1001
ACAD
1000
MTEXTBEGIN
1070
    73
1070
     1
1070
    44
1040
1.0
1070
    74
1070
     0
1000
MTEXTEND
  0
ENDBLK
  5
7C
330
7A
100
AcDbEntity
  8
0
100
AcDbBlockEnd
  0
BLOCK
  5
82
330
81
100
AcDbEntity
  8
0
100
AcDbBlockBegin
  2
三角６
 70
     0
 10
0.0
 20
0.0
 30
0.0
  3
三角６
  1
三角６
  0
LINE
  5
84
330
81
100
AcDbEntity
  8
FORMAT
370
     0
100
AcDbLine
 10
0.0
 20
0.0
 30
0.0
 11
-1.75
 21
-3.5
 31
0.0
  0
LINE
  5
85
330
81
100
AcDbEntity
  8
FORMAT
370
     0
100
AcDbLine
 10
-1.75
 20
-3.5
 30
0.0
 11
1.75
 21
-3.5
 31
0.0
  0
LINE
  5
86
330
81
100
AcDbEntity
  8
FORMAT
370
     0
100
AcDbLine
 10
1.75
 20
-3.5
 30
0.0
 11
0.0
 21
0.0
 31
0.0
  0
MTEXT
  5
87
330
81
100
AcDbEntity
  8
FORMAT
 62
     7
100
AcDbMText
 10
-0.6943926639
 20
-0.9380245362
 30
0.0
 40
2.1166666667
 41
0.0
 71
     1
 72
     1
  1
6
  7
SLDTEXTSTYLE0
 73
     1
 44
1.0
1001
ACAD
1000
MTEXTBEGIN
1070
    73
1070
     1
1070
    44
1040
1.0
1070
    74
1070
     0
1000
MTEXTEND
  0
ENDBLK
  5
83
330
81
100
AcDbEntity
  8
0
100
AcDbBlockEnd
  0
BLOCK
  5
89
330
88
100
AcDbEntity
  8
0
100
AcDbBlockBegin
  2
三角５
 70
     0
 10
0.0
 20
0.0
 30
0.0
  3
三角５
  1
三角５
  0
LINE
  5
8B
330
88
100
AcDbEntity
  8
FORMAT
370
     0
100
AcDbLine
 10
0.0
 20
0.0
 30
0.0
 11
-1.75
 21
-3.5
 31
0.0
  0
LINE
  5
8C
330
88
100
AcDbEntity
  8
FORMAT
370
     0
100
AcDbLine
 10
-1.75
 20
-3.5
 30
0.0
 11
1.75
 21
-3.5
 31
0.0
  0
LINE
  5
8D
330
88
100
AcDbEntity
  8
FORMAT
370
     0
100
AcDbLine
 10
1.75
 20
-3.5
 30
0.0
 11
0.0
 21
0.0
 31
0.0
  0
MTEXT
  5
8E
330
88
100
AcDbEntity
  8
FORMAT
 62
     7
100
AcDbMText
 10
-0.6943926639
 20
-0.9380245362
 30
0.0
 40
2.1166666667
 41
0.0
 71
     1
 72
     1
  1
5
  7
SLDTEXTSTYLE0
 73
     1
 44
1.0
1001
ACAD
1000
MTEXTBEGIN
1070
    73
1070
     1
1070
    44
1040
1.0
1070
    74
1070
     0
1000
MTEXTEND
  0
ENDBLK
  5
8A
330
88
100
AcDbEntity
  8
0
100
AcDbBlockEnd
  0
BLOCK
  5
90
330
8F
100
AcDbEntity
  8
0
100
AcDbBlockBegin
  2
三角４
 70
     0
 10
0.0
 20
0.0
 30
0.0
  3
三角４
  1
三角４
  0
LINE
  5
92
330
8F
100
AcDbEntity
  8
FORMAT
370
     0
100
AcDbLine
 10
0.0
 20
0.0
 30
0.0
 11
-1.75
 21
-3.5
 31
0.0
  0
LINE
  5
93
330
8F
100
AcDbEntity
  8
FORMAT
370
     0
100
AcDbLine
 10
-1.75
 20
-3.5
 30
0.0
 11
1.75
 21
-3.5
 31
0.0
  0
LINE
  5
94
330
8F
100
AcDbEntity
  8
FORMAT
370
     0
100
AcDbLine
 10
1.75
 20
-3.5
 30
0.0
 11
0.0
 21
0.0
 31
0.0
  0
MTEXT
  5
95
330
8F
100
AcDbEntity
  8
FORMAT
 62
     7
100
AcDbMText
 10
-0.6943926639
 20
-0.9380245362
 30
0.0
 40
2.1166666667
 41
0.0
 71
     1
 72
     1
  1
4
  7
SLDTEXTSTYLE0
 73
     1
 44
1.0
1001
ACAD
1000
MTEXTBEGIN
1070
    73
1070
     1
1070
    44
1040
1.0
1070
    74
1070
     0
1000
MTEXTEND
  0
ENDBLK
  5
91
330
8F
100
AcDbEntity
  8
0
100
AcDbBlockEnd
  0
BLOCK
  5
97
330
96
100
AcDbEntity
  8
0
100
AcDbBlockBegin
  2
三角１
 70
     0
 10
0.0
 20
0.0
 30
0.0
  3
三角１
  1
三角１
  0
LINE
  5
99
330
96
100
AcDbEntity
  8
FORMAT
370
     0
100
AcDbLine
 10
0.0
 20
0.0
 30
0.0
 11
-1.75
 21
-3.5
 31
0.0
  0
LINE
  5
9A
330
96
100
AcDbEntity
  8
FORMAT
370
     0
100
AcDbLine
 10
-1.75
 20
-3.5
 30
0.0
 11
1.75
 21
-3.5
 31
0.0
  0
LINE
  5
9B
330
96
100
AcDbEntity
  8
FORMAT
370
     0
100
AcDbLine
 10
1.75
 20
-3.5
 30
0.0
 11
0.0
 21
0.0
 31
0.0
  0
MTEXT
  5
9C
330
96
100
AcDbEntity
  8
FORMAT
 62
     7
100
AcDbMText
 10
-0.6943926639
 20
-0.9380245362
 30
0.0
 40
2.1166666667
 41
0.0
 71
     1
 72
     1
  1
1
  7
SLDTEXTSTYLE0
 73
     1
 44
1.0
1001
ACAD
1000
MTEXTBEGIN
1070
    73
1070
     1
1070
    44
1040
1.0
1070
    74
1070
     0
1000
MTEXTEND
  0
ENDBLK
  5
98
330
96
100
AcDbEntity
  8
0
100
AcDbBlockEnd
  0
ENDSEC
  0
SECTION
  2
ENTITIES
  0
LINE
  5
DD
330
1F
100
AcDbEntity
  8
0
370
    15
100
AcDbLine
 10
475.4407178251999
 20
35.8556636757
 30
0.0
 11
858.6926066985
 21
257.1022697559
 31
0.0
  0
LINE
  5
DE
330
1F
100
AcDbEntity
  8
0
370
    15
100
AcDbLine
 10
842.8336030531999
 20
272.5132902983
 30
0.0
 11
459.5817141798999
 21
51.26668421819999
 31
0.0
  0
LINE
  5
DF
330
1F
100
AcDbEntity
  8
0
370
    15
100
AcDbLine
 10
849.3062743616
 20
276.2747767254
 30
0.0
 11
849.1579694799
 21
276.61271868
 31
0.0
  0
LINE
  5
E0
330
1F
100
AcDbEntity
  8
0
370
    15
100
AcDbLine
 10
849.1579694799
 20
276.61271868
 30
0.0
 11
849.1313247691
 21
276.6438456874
 31
0.0
  0
SPLINE
  5
E1
330
1F
100
AcDbEntity
  8
0
370
    15
100
AcDbSpline
210
0.0
220
0.0
230
1.0
 70
     8
 71
     3
 72
    13
 73
     9
 74
     0
 42
0.000000001
 43
0.0000000001
 40
0.0
 40
0.0
 40
0.0
 40
0.0
 40
0.0618747180985075
 40
0.1945690673854831
 40
0.4094589729922645
 40
0.6278377828091131
 40
0.8594521676594641
 40
1.0
 40
1.0
 40
1.0
 40
1.0
 10
848.8374822096449
 20
277.0349697778198
 30
0.0
 10
848.8145368895473
 20
277.0669778053452
 30
0.0
 10
848.7423838411068
 20
277.1676291255591
 30
0.0
 10
848.5518207555173
 20
277.3228691280085
 30
0.0
 10
848.2830736450448
 20
277.5084510718863
 30
0.0
 10
847.9462251003607
 20
277.6244828428224
 30
0.0
 10
847.6304456859072
 20
277.6516779389986
 30
0.0
 10
847.4579266742038
 20
277.5684901650171
 30
0.0
 10
847.3927745120221
 20
277.5370741298306
 30
0.0
  0
SPLINE
  5
E2
330
1F
100
AcDbEntity
  8
0
370
    15
100
AcDbSpline
210
0.0
220
0.0
230
1.0
 70
     8
 71
     3
 72
     9
 73
     5
 74
     0
 42
0.000000001
 43
0.0000000001
 40
0.0
 40
0.0
 40
0.0
 40
0.0
 40
0.2003642716650045
 40
1.0
 40
1.0
 40
1.0
 40
1.0
 10
849.4195973591201
 20
275.9594841695596
 30
0.0
 10
849.4167040956138
 20
275.9773856205522
 30
0.0
 10
849.4022640785271
 20
276.0667301471181
 30
0.0
 10
849.3566775696931
 20
276.155047816333
 30
0.0
 10
849.3202249684992
 20
276.2256697800804
 30
0.0
  0
LINE
  5
E3
330
1F
100
AcDbEntity
  8
0
370
    15
100
AcDbLine
 10
847.3869174172
 20
277.5558197832
 30
0.0
 11
847.0063623267
 21
277.38742217
 31
0.0
  0
LINE
  5
E4
330
1F
100
AcDbEntity
  8
0
370
    15
100
AcDbLine
 10
848.078003902
 20
276.3302466479
 30
0.0
 11
848.1836660511998
 21
276.3912441083
 31
0.0
  0
LINE
  5
E5
330
1F
100
AcDbEntity
  8
0
370
    15
100
AcDbLine
 10
848.8426596866
 20
275.8043002964
 30
0.0
 11
848.5671457379
 21
275.6452494793
 31
0.0
  0
LINE
  5
E6
330
1F
100
AcDbEntity
  8
0
370
    15
100
AcDbLine
 10
848.2565405864999
 20
276.7187289427
 30
0.0
 11
848.5472695474999
 21
276.8865631995
 31
0.0
  0
LINE
  5
E7
330
1F
100
AcDbEntity
  8
0
370
    15
100
AcDbLine
 10
849.1541696780998
 20
276.2695464237
 30
0.0
 11
848.6091266330999
 21
275.9548997713
 31
0.0
  0
LINE
  5
E8
330
1F
100
AcDbEntity
  8
0
370
    15
100
AcDbLine
 10
455.7983338758
 20
51.5371963502
 30
0.0
 11
455.5319134389
 21
51.34274075069999
 31
0.0
  0
SPLINE
  5
E9
330
1F
100
AcDbEntity
  8
0
370
    15
100
AcDbSpline
210
0.0
220
0.0
230
1.0
 70
     8
 71
     3
 72
    12
 73
     8
 74
     0
 42
0.000000001
 43
0.0000000001
 40
0.0
 40
0.0
 40
0.0
 40
0.0
 40
0.2289607093336356
 40
0.4971219084858064
 40
0.6861818535604428
 40
0.8775087330241891
 40
1.0
 40
1.0
 40
1.0
 40
1.0
 10
455.513557498596
 20
51.31362523420774
 30
0.0
 10
455.4244871194454
 20
51.22891393859276
 30
0.0
 10
455.2310965722129
 20
51.04498787953668
 30
0.0
 10
455.1360871386678
 20
50.66568289019624
 30
0.0
 10
455.1384690163307
 20
50.2885932991285
 30
0.0
 10
455.18295336004
 20
49.97769889727052
 30
0.0
 10
455.2705367755041
 20
49.78870703596466
 30
0.0
 10
455.3047228276748
 20
49.71493866787596
 30
0.0
  0
LINE
  5
EA
330
1F
100
AcDbEntity
  8
0
370
    15
100
AcDbLine
 10
455.3184788345999
 20
49.66664195149999
 30
0.0
 11
455.4629523044
 21
49.3374231509
 31
0.0
  0
LINE
  5
EB
330
1F
100
AcDbEntity
  8
0
370
    15
100
AcDbLine
 10
455.4629523044
 20
49.3374231509
 30
0.0
 11
455.7526486677
 21
48.9987946308
 31
0.0
  0
LINE
  5
EC
330
1F
100
AcDbEntity
  8
0
370
    15
100
AcDbLine
 10
869.6043727651
 20
282.9461886993
 30
0.0
 11
869.6043892288001
 21
283.3544023263
 31
0.0
  0
LINE
  5
ED
330
1F
100
AcDbEntity
  8
0
370
    15
100
AcDbLine
 10
869.144844688
 20
284.150443272
 30
0.0
 11
868.7913320691999
 21
284.354569057
 31
0.0
  0
LINE
  5
EE
330
1F
100
AcDbEntity
  8
0
370
    15
100
AcDbLine
 10
864.7699550558998
 20
279.7663384839
 30
0.0
 11
869.3661531797001
 21
282.4196671831
 31
0.0
  0
LINE
  5
EF
330
1F
100
AcDbEntity
  8
0
370
    15
100
AcDbLine
 10
868.2162465531
 20
284.4115796599
 30
0.0
 11
863.6200484292999
 21
281.7582509607
 31
0.0
  0
LINE
  5
F0
330
1F
100
AcDbEntity
  8
0
370
    15
100
AcDbLine
 10
878.5846287776999
 20
277.7619972519
 30
0.0
 11
878.5846455706
 21
278.1702106888
 31
0.0
  0
LINE
  5
F1
330
1F
100
AcDbEntity
  8
0
370
    15
100
AcDbLine
 10
878.1251007006
 20
278.9662518246
 30
0.0
 11
877.771588411
 21
279.1703774195
 31
0.0
  0
LINE
  5
F2
330
1F
100
AcDbEntity
  8
0
370
    15
100
AcDbLine
 10
873.7502113976999
 20
274.5821468464
 30
0.0
 11
878.3464095214998
 21
277.2354755456
 31
0.0
  0
LINE
  5
F3
330
1F
100
AcDbEntity
  8
0
370
    15
100
AcDbLine
 10
877.1965028949001
 20
279.2273880224
 30
0.0
 11
872.6003047710999
 21
276.5740593232
 31
0.0
  0
LINE
  5
F4
330
1F
100
AcDbEntity
  8
0
370
    15
100
AcDbLine
 10
445.0757129871
 20
40.13774914699999
 30
0.0
 11
442.5379708958999
 21
38.6727418212
 31
0.0
  0
LINE
  5
F5
330
1F
100
AcDbEntity
  8
0
370
    15
100
AcDbLine
 10
443.6878775224999
 20
36.6808293444
 30
0.0
 11
445.6670816748
 21
37.82339958130001
 31
0.0
  0
LINE
  5
F6
330
1F
100
AcDbEntity
  8
0
370
    15
100
AcDbLine
 10
442.2997516397
 20
38.146220115
 30
0.0
 11
442.2997519689999
 21
37.7380165624
 31
0.0
  0
LINE
  5
F7
330
1F
100
AcDbEntity
  8
0
370
    15
100
AcDbLine
 10
442.7592968389999
 20
36.94197542659999
 30
0.0
 11
443.1127920064
 21
36.7378399474
 31
0.0
  0
LINE
  5
F8
330
1F
100
AcDbEntity
  8
0
370
    15
100
AcDbLine
 10
867.687191981
 20
263.7391260671
 30
0.0
 11
873.56485318
 21
267.3018661253
 31
0.0
  0
LINE
  5
F9
330
1F
100
AcDbEntity
  8
0
370
    15
100
AcDbLine
 10
859.1274126855001
 20
257.3544437428
 30
0.0
 11
867.4378643961
 21
262.3918184765
 31
0.0
  0
LINE
  5
FA
330
1F
100
AcDbEntity
  8
0
370
    15
100
AcDbLine
 10
854.3976577842
 20
284.9805659728
 30
0.0
 11
847.3109727474
 21
281.0890567204
 31
0.0
  0
SPLINE
  5
FB
330
1F
100
AcDbEntity
  8
0
370
    15
100
AcDbSpline
210
0.0
220
0.0
230
1.0
 70
     8
 71
     3
 72
    10
 73
     6
 74
     0
 42
0.000000001
 43
0.0000000001
 40
0.0
 40
0.0
 40
0.0
 40
0.0
 40
0.1550418105708888
 40
0.9381106892619031
 40
1.0
 40
1.0
 40
1.0
 40
1.0
 10
860.7101783123569
 20
281.1233922390618
 30
0.0
 10
860.6560985473656
 20
281.0938279401616
 30
0.0
 10
860.3288783902709
 20
280.914943388203
 30
0.0
 10
859.9106128580469
 20
280.8053315265383
 30
0.0
 10
859.5576182036147
 20
280.7644248248446
 30
0.0
 10
859.5317629647043
 20
280.761428596624
 30
0.0
  0
SPLINE
  5
FC
330
1F
100
AcDbEntity
  8
0
370
    15
100
AcDbSpline
210
0.0
220
0.0
230
1.0
 70
     8
 71
     3
 72
     9
 73
     5
 74
     0
 42
0.000000001
 43
0.0000000001
 40
0.0
 40
0.0
 40
0.0
 40
0.0
 40
0.3360377556326961
 40
1.0
 40
1.0
 40
1.0
 40
1.0
 10
859.4478709798325
 20
280.7292900920939
 30
0.0
 10
858.7486688880137
 20
280.3424275856485
 30
0.0
 10
856.6679440881989
 20
279.1911804416567
 30
0.0
 10
854.5864124683724
 20
278.0466945944146
 30
0.0
 10
853.2043540623512
 20
277.2867992026332
 30
0.0
  0
SPLINE
  5
FD
330
1F
100
AcDbEntity
  8
0
370
    15
100
AcDbSpline
210
0.0
220
0.0
230
1.0
 70
     8
 71
     3
 72
     9
 73
     5
 74
     0
 42
0.000000001
 43
0.0000000001
 40
0.0
 40
0.0
 40
0.0
 40
0.0
 40
0.1915982577101313
 40
1.0
 40
1.0
 40
1.0
 40
1.0
 10
859.5357583542343
 20
280.7539342765266
 30
0.0
 10
859.5299758989979
 20
280.7545537844592
 30
0.0
 10
859.4997957955568
 20
280.7577871538012
 30
0.0
 10
859.4722523744243
 20
280.737906927887
 30
0.0
 10
859.4499862247921
 20
280.7218357186208
 30
0.0
  0
LINE
  5
FE
330
1F
100
AcDbEntity
  8
0
370
    15
100
AcDbLine
 10
868.9116986734999
 20
286.4446871687
 30
0.0
 11
867.9684705402001
 21
287.0288128356
 31
0.0
  0
LINE
  5
FF
330
1F
100
AcDbEntity
  8
0
370
    15
100
AcDbLine
 10
861.7136460431
 20
287.8309840715001
 30
0.0
 11
855.6890813450999
 21
284.5227149529
 31
0.0
  0
LINE
  5
100
330
1F
100
AcDbEntity
  8
0
370
    15
100
AcDbLine
 10
852.2657845758001
 20
277.5090211197
 30
0.0
 11
847.0260435879
 21
274.6563724633
 31
0.0
  0
LINE
  5
101
330
1F
100
AcDbEntity
  8
0
370
    15
100
AcDbLine
 10
853.2469217207999
 20
277.2881712762
 30
0.0
 11
852.9125516738
 21
277.4946292455
 31
0.0
  0
SPLINE
  5
102
330
1F
100
AcDbEntity
  8
0
370
    15
100
AcDbSpline
210
0.0
220
0.0
230
1.0
 70
     8
 71
     3
 72
    14
 73
    10
 74
     0
 42
0.000000001
 43
0.0000000001
 40
0.0
 40
0.0
 40
0.0
 40
0.0
 40
0.1012216029653741
 40
0.2875916163298127
 40
0.4758393326739073
 40
0.6368525038566996
 40
0.8045133970691539
 40
0.9722001413875132
 40
1.0
 40
1.0
 40
1.0
 40
1.0
 10
875.8545597506751
 20
272.5751144651103
 30
0.0
 10
875.7770332143318
 20
272.6787562696786
 30
0.0
 10
875.5567642080901
 20
272.9732241818824
 30
0.0
 10
875.2660250839406
 20
273.5394420074031
 30
0.0
 10
875.0794054788938
 20
274.1702539165652
 30
0.0
 10
875.0445976754948
 20
274.6847407396434
 30
0.0
 10
875.1168057749202
 20
274.9939785809757
 30
0.0
 10
875.1652875881827
 20
275.0418631263984
 30
0.0
 10
875.1631381678832
 20
275.0398052284536
 30
0.0
 10
875.1628325020242
 20
275.0395125778522
 30
0.0
  0
SPLINE
  5
103
330
1F
100
AcDbEntity
  8
0
370
    15
100
AcDbSpline
210
0.0
220
0.0
230
1.0
 70
     8
 71
     3
 72
    10
 73
     6
 74
     0
 42
0.000000001
 43
0.0000000001
 40
0.0
 40
0.0
 40
0.0
 40
0.0
 40
0.1845375953595647
 40
0.6815509585529976
 40
1.0
 40
1.0
 40
1.0
 40
1.0
 10
875.8370977845014
 20
272.3934683235705
 30
0.0
 10
875.8434945594872
 20
272.4072936211713
 30
0.0
 10
875.8671197081449
 20
272.4583544622632
 30
0.0
 10
875.8573734969864
 20
272.5597453770635
 30
0.0
 10
875.8127450829247
 20
272.6166384999338
 30
0.0
 10
875.795317086737
 20
272.6388560299387
 30
0.0
  0
LINE
  5
104
330
1F
100
AcDbEntity
  8
0
370
    15
100
AcDbLine
 10
875.8021797791
 20
270.7705695902
 30
0.0
 11
875.804302268
 21
270.7801112939
 31
0.0
  0
SPLINE
  5
105
330
1F
100
AcDbEntity
  8
0
370
    15
100
AcDbSpline
210
0.0
220
0.0
230
1.0
 70
     8
 71
     3
 72
     9
 73
     5
 74
     0
 42
0.000000001
 43
0.0000000001
 40
0.0
 40
0.0
 40
0.0
 40
0.0
 40
0.3007975349516118
 40
1.0
 40
1.0
 40
1.0
 40
1.0
 10
875.6478986059025
 20
275.537435110583
 30
0.0
 10
875.6587956386692
 20
275.5525463556083
 30
0.0
 10
875.6950227732046
 20
275.6027836191142
 30
0.0
 10
875.70121597387
 20
275.6664336333637
 30
0.0
 10
875.7055462750422
 20
275.7109378802274
 30
0.0
  0
SPLINE
  5
106
330
1F
100
AcDbEntity
  8
0
370
    15
100
AcDbSpline
210
0.0
220
0.0
230
1.0
 70
     8
 71
     3
 72
     9
 73
     5
 74
     0
 42
0.000000001
 43
0.0000000001
 40
0.0
 40
0.0
 40
0.0
 40
0.0
 40
0.5097924657158553
 40
1.0
 40
1.0
 40
1.0
 40
1.0
 10
875.2196201120364
 20
275.0692189441021
 30
0.0
 10
875.3119011190934
 20
275.1302070005217
 30
0.0
 10
875.4929179313512
 20
275.2498401071701
 30
0.0
 10
875.5969173213596
 20
275.4428300074333
 30
0.0
 10
875.6478986059025
 20
275.537435110583
 30
0.0
  0
LINE
  5
107
330
1F
100
AcDbEntity
  8
0
370
    15
100
AcDbLine
 10
875.0719052861999
 20
274.7055897285
 30
0.0
 11
875.2932427539001
 21
274.838945744
 31
0.0
  0
LINE
  5
108
330
1F
100
AcDbEntity
  8
0
370
    15
100
AcDbLine
 10
459.8857480859999
 20
57.4195348421
 30
0.0
 11
453.4465081187999
 21
53.5163943283
 31
0.0
  0
LINE
  5
109
330
1F
100
AcDbEntity
  8
0
370
    15
100
AcDbLine
 10
466.4867147306
 20
30.927646832
 30
0.0
 11
475.0048766473999
 21
35.605224236
 31
0.0
  0
LINE
  5
10A
330
1F
100
AcDbEntity
  8
0
370
    15
100
AcDbLine
 10
459.3003346567
 20
31.9853816579
 30
0.0
 11
459.9480883262999
 21
31.6113198428
 31
0.0
  0
LINE
  5
10B
330
1F
100
AcDbEntity
  8
0
370
    15
100
AcDbLine
 10
455.9806957161
 20
48.9112090599
 30
0.0
 11
450.956704775
 21
45.8381256962
 31
0.0
  0
LINE
  5
10C
330
1F
100
AcDbEntity
  8
0
370
    15
100
AcDbLine
 10
459.1707580819
 20
28.0772469814
 30
0.0
 11
463.3941363789999
 21
30.3964298469
 31
0.0
  0
LINE
  5
10D
330
1F
100
AcDbEntity
  8
0
370
    15
100
AcDbLine
 10
450.9006132465
 20
45.0290957579
 30
0.0
 11
445.4415808887
 21
41.7330704363
 31
0.0
  0
SPLINE
  5
10E
330
1F
100
AcDbEntity
  8
0
370
    15
100
AcDbSpline
210
0.0
220
0.0
230
1.0
 70
     8
 71
     3
 72
    13
 73
     9
 74
     0
 42
0.000000001
 43
0.0000000001
 40
0.0
 40
0.0
 40
0.0
 40
0.0
 40
0.0241575571002136
 40
0.1853747055129393
 40
0.3352653945258417
 40
0.4915452220922513
 40
0.7122883326564039
 40
1.0
 40
1.0
 40
1.0
 40
1.0
 10
450.9576734939311
 20
45.83907923234424
 30
0.0
 10
450.9549550644253
 20
45.83784451437622
 30
0.0
 10
450.9340950053144
 20
45.82836981961452
 30
0.0
 10
450.9076456898256
 20
45.79724623125138
 30
0.0
 10
450.8815131302797
 20
45.75742340395007
 30
0.0
 10
450.86726957546
 20
45.71914975067595
 30
0.0
 10
450.8587427104118
 20
45.68439400538102
 30
0.0
 10
450.8565214601197
 20
45.66093714523514
 30
0.0
 10
450.8552645545838
 20
45.64766396414522
 30
0.0
  0
LINE
  5
10F
330
1F
100
AcDbEntity
  8
0
370
    15
100
AcDbLine
 10
451.9727094027
 20
29.4635461653
 30
0.0
 11
452.9159269993
 21
28.8794144156
 31
0.0
  0
LINE
  5
110
330
1F
100
AcDbEntity
  8
0
370
    15
100
AcDbLine
 10
451.0704446311
 20
48.8494253529
 30
0.0
 11
451.4048146780999
 21
48.6429674786
 31
0.0
  0
SPLINE
  5
111
330
1F
100
AcDbEntity
  8
0
370
    15
100
AcDbSpline
210
0.0
220
0.0
230
1.0
 70
     8
 71
     3
 72
    10
 73
     6
 74
     0
 42
0.000000001
 43
0.0000000001
 40
0.0
 40
0.0
 40
0.0
 40
0.0
 40
0.5498509220943271
 40
0.9140226727340809
 40
1.0
 40
1.0
 40
1.0
 40
1.0
 10
450.971565490327
 20
49.00210376568278
 30
0.0
 10
450.9766825161333
 20
48.97899335686932
 30
0.0
 10
450.985188599175
 20
48.94057669376503
 30
0.0
 10
451.0289801680023
 20
48.87256937389508
 30
0.0
 10
451.0656258416536
 20
48.85539494427641
 30
0.0
 10
451.0726250719774
 20
48.85211467196572
 30
0.0
  0
LINE
  5
112
330
1F
100
AcDbEntity
  8
0
370
    15
100
AcDbLine
 10
451.4399453934999
 20
51.103939302
 30
0.0
 11
447.3195509449999
 21
48.60636492770001
 31
0.0
  0
SPLINE
  5
113
330
1F
100
AcDbEntity
  8
0
370
    15
100
AcDbSpline
210
0.0
220
0.0
230
1.0
 70
     8
 71
     3
 72
    10
 73
     6
 74
     0
 42
0.000000001
 43
0.0000000001
 40
0.0
 40
0.0
 40
0.0
 40
0.0
 40
0.1046721050122884
 40
0.7769199410074297
 40
1.0
 40
1.0
 40
1.0
 40
1.0
 10
445.0669770649574
 20
41.06848463557692
 30
0.0
 10
445.0674424412077
 20
41.04983094420849
 30
0.0
 10
445.0708966574825
 20
40.91137548087552
 30
0.0
 10
445.0608652556311
 20
40.78823818876623
 30
0.0
 10
445.0624762337885
 20
40.79602186232931
 30
0.0
 10
445.0628776253952
 20
40.79796124383118
 30
0.0
  0
SPLINE
  5
114
330
1F
100
AcDbEntity
  8
0
370
    15
100
AcDbSpline
210
0.0
220
0.0
230
1.0
 70
     8
 71
     3
 72
    11
 73
     7
 74
     0
 42
0.000000001
 43
0.0000000001
 40
0.0
 40
0.0
 40
0.0
 40
0.0
 40
0.173424387314993
 40
0.4931716353794628
 40
0.8133236429762021
 40
1.0
 40
1.0
 40
1.0
 40
1.0
 10
445.1249724455975
 20
43.86169761184257
 30
0.0
 10
445.1992739662958
 20
43.7533664855386
 30
0.0
 10
445.4105672165781
 20
43.44530232253935
 30
0.0
 10
445.6719311498677
 20
42.8783339014978
 30
0.0
 10
445.8205235074902
 20
42.30245794170621
 30
0.0
 10
445.814987618085
 20
42.05020355618199
 30
0.0
 10
445.812948624731
 20
41.95729255707445
 30
0.0
  0
SPLINE
  5
115
330
1F
100
AcDbEntity
  8
0
370
    15
100
AcDbSpline
210
0.0
220
0.0
230
1.0
 70
     8
 71
     3
 72
     9
 73
     5
 74
     0
 42
0.000000001
 43
0.0000000001
 40
0.0
 40
0.0
 40
0.0
 40
0.0
 40
0.6966590136695789
 40
1.0
 40
1.0
 40
1.0
 40
1.0
 10
445.2297817796766
 20
45.71037664180221
 30
0.0
 10
445.229128199373
 20
45.70827452344399
 30
0.0
 10
445.2281900355216
 20
45.70525709552449
 30
0.0
 10
445.2274043665052
 20
45.70224788952822
 30
0.0
 10
445.2271660408908
 20
45.70133507401325
 30
0.0
  0
SPLINE
  5
116
330
1F
100
AcDbEntity
  8
0
370
    15
100
AcDbSpline
210
0.0
220
0.0
230
1.0
 70
     8
 71
     3
 72
    11
 73
     7
 74
     0
 42
0.000000001
 43
0.0000000001
 40
0.0
 40
0.0
 40
0.0
 40
0.0
 40
0.0839196963959297
 40
0.54294927218358
 40
0.9669545619473815
 40
1.0
 40
1.0
 40
1.0
 40
1.0
 10
445.156277017329
 20
44.03790144639291
 30
0.0
 10
445.1527210388645
 20
44.03248202819351
 30
0.0
 10
445.1297143312364
 20
43.99741911336672
 30
0.0
 10
445.1259175531565
 20
43.90661628897921
 30
0.0
 10
445.148337667682
 20
43.81926384689766
 30
0.0
 10
445.1758714013358
 20
43.7921265774365
 30
0.0
 10
445.1778621306671
 20
43.79016451304777
 30
0.0
  0
LINE
  5
117
330
1F
100
AcDbEntity
  8
0
370
    15
100
AcDbLine
 10
847.2114482330001
 20
281.0730746192
 30
0.0
 11
845.7972107311999
 21
280.2566526874
 31
0.0
  0
LINE
  5
118
330
1F
100
AcDbEntity
  8
0
370
    15
100
AcDbLine
 10
461.8382406851999
 20
58.60185733479999
 30
0.0
 11
460.4240270556999
 21
57.78544918419999
 31
0.0
  0
LINE
  5
119
330
1F
100
AcDbEntity
  8
0
370
    15
100
AcDbLine
 10
845.7972107311999
 20
280.2566526874
 30
0.0
 11
461.8382406851999
 21
58.60185733479999
 31
0.0
  0
LINE
  5
11A
330
1F
100
AcDbEntity
  8
0
370
    15
100
AcDbLine
 10
459.5677978584999
 20
50.9382475683
 30
0.0
 11
459.5678572433
 21
50.9382818504
 31
0.0
  0
LINE
  5
11B
330
1F
100
AcDbEntity
  8
0
370
    15
100
AcDbLine
 10
843.1525038897
 20
272.3769849041
 30
0.0
 11
843.173282286
 21
272.3889800169
 31
0.0
  0
LWPOLYLINE
  5
11C
330
1F
100
AcDbEntity
  8
0
370
    15
100
AcDbPolyline
 90
       15
 70
   128
 43
0.0
 10
858.8670248455999
 20
257.2084064371
 10
858.4975491079999
 20
256.9961094647
 10
857.2669826328999
 20
256.5754578279
 10
855.8899153588001
 20
256.4930157298
 10
854.4051526792999
 20
256.7511062234999
 10
852.8545341496
 20
257.3424558427
 10
851.2817555149
 20
258.2504016224
 10
849.7311369850999
 20
259.4493580498
 10
848.2463743055999
 20
260.9055380566
 10
846.8693070315
 20
262.5779081868
 10
845.6387405564999
 20
264.4193416336
 10
844.5893518586
 20
266.3779465223
 10
843.7507112327999
 20
268.3985329421
 10
843.1464518657001
 20
270.4241596492
 10
842.7936017427001
 20
272.3977459007
  0
LWPOLYLINE
  5
11D
330
1F
100
AcDbEntity
  8
0
370
    15
100
AcDbPolyline
 90
        9
 70
   128
 43
0.0
 10
842.7936017427001
 20
272.3977459007
 10
842.7925388518
 20
272.4332403113
 10
842.7979191605
 20
272.4644793009
 10
842.8094963729
 20
272.4900363131
 10
842.8267416778998
 20
272.5087440826
 10
842.8488681149
 20
272.5197476804
 10
842.8748641592999
 20
272.5225448208
 10
842.9035431140999
 20
272.5170075397
 10
842.9335951342
 20
272.503388568
  0
LINE
  5
11E
330
1F
100
AcDbEntity
  8
0
370
    15
100
AcDbLine
 10
842.9335951342
 20
272.503388568
 30
0.0
 11
843.1766902538999
 21
272.3630527426
 31
0.0
  0
LWPOLYLINE
  5
11F
330
1F
100
AcDbEntity
  8
0
370
    15
100
AcDbPolyline
 90
       15
 70
   128
 43
0.0
 10
475.4407178251999
 20
35.8556636757
 10
475.2456602347
 20
35.7495033846
 10
474.0150937595999
 20
35.3288517478
 10
472.6380264854999
 20
35.2464096497
 10
471.1532638059999
 20
35.5045001434
 10
469.6026452763
 20
36.09584976260001
 10
468.0298666415
 20
37.0037955423
 10
466.4792481117999
 20
38.2027519697
 10
464.9944854323
 20
39.6589319765
 10
463.6174181581999
 20
41.3313021067
 10
462.3868516832
 20
43.1727355534
 10
461.3374629852999
 20
45.1313404422
 10
460.4988223594999
 20
47.15192686199999
 10
459.8945629923999
 20
49.17755356909999
 10
459.5417128694
 20
51.1511398205
  0
LINE
  5
120
330
1F
100
AcDbEntity
  8
0
370
    15
100
AcDbLine
 10
842.7936017427001
 20
272.3977459007
 30
0.0
 11
459.5417128694
 21
51.1511398205
 31
0.0
  0
ARC
  5
121
330
1F
100
AcDbEntity
  8
0
370
    15
100
AcDbCircle
 10
459.6459663747999
 20
51.1797437993
 30
0.0
 40
0.1081063411704892
100
AcDbArc
 50
126.4657758412999
 51
195.342658961
  0
ARC
  5
122
330
1F
100
AcDbEntity
  8
0
370
    15
100
AcDbCircle
 10
848.3903054339
 20
276.7740321472
 30
0.0
 40
0.3539081923197665
100
AcDbArc
 50
134.8943922042
 51
154.9044029738
  0
SPLINE
  5
123
330
1F
100
AcDbEntity
  8
0
370
    15
100
AcDbSpline
210
0.0
220
0.0
230
1.0
 70
     8
 71
     3
 72
    14
 73
    10
 74
     0
 42
0.000000001
 43
0.0000000001
 40
0.0
 40
0.0
 40
0.0
 40
0.0
 40
0.1507844078907648
 40
0.3018953432761832
 40
0.4451728700967362
 40
0.5807419472209024
 40
0.7138377269982944
 40
0.8498930788871932
 40
1.0
 40
1.0
 40
1.0
 40
1.0
 10
848.0698056814329
 20
276.3557722802861
 30
0.0
 10
848.106771444953
 20
276.3635073415137
 30
0.0
 10
848.1807830222999
 20
276.378994214442
 30
0.0
 10
848.2581023016404
 20
276.4472510254249
 30
0.0
 10
848.2959631056717
 20
276.5386806041258
 30
0.0
 10
848.2922049192161
 20
276.6426033713005
 30
0.0
 10
848.2510242547339
 20
276.7466604727307
 30
0.0
 10
848.1768692670796
 20
276.8473518496084
 30
0.0
 10
848.1066429952324
 20
276.8977163713044
 30
0.0
 10
848.0698056814329
 20
276.9241351693025
 30
0.0
  0
ARC
  5
124
330
1F
100
AcDbEntity
  8
0
370
    15
100
AcDbCircle
 10
849.4181506749001
 20
276.7740718275
 30
0.0
 40
1.411739612225133
100
AcDbArc
 50
197.2355541893
 51
205.1757546542
  0
SPLINE
  5
125
330
1F
100
AcDbEntity
  8
0
370
    15
100
AcDbSpline
210
0.0
220
0.0
230
1.0
 70
     8
 71
     3
 72
    14
 73
    10
 74
     0
 42
0.000000001
 43
0.0000000001
 40
0.0
 40
0.0
 40
0.0
 40
0.0
 40
0.1507841004143346
 40
0.3018954239466243
 40
0.4451725053554065
 40
0.5807421985516791
 40
0.7138382418115754
 40
0.8498929014347302
 40
1.0
 40
1.0
 40
1.0
 40
1.0
 10
848.5667657576698
 20
275.6432728644031
 30
0.0
 10
848.5775427415237
 20
275.684192648281
 30
0.0
 10
848.5991200968317
 20
275.7661210178352
 30
0.0
 10
848.5822371451204
 20
275.9006228726398
 30
0.0
 10
848.5302774146713
 20
276.0207704924638
 30
0.0
 10
848.4507715462331
 20
276.1141930090125
 30
0.0
 10
848.3545241772025
 20
276.173495610028
 30
0.0
 10
848.2461799804752
 20
276.1994455413471
 30
0.0
 10
848.1768719804993
 20
276.1824421252464
 30
0.0
 10
848.1405162394329
 20
276.1735229269834
 30
0.0
  0
ARC
  5
126
330
1F
100
AcDbEntity
  8
0
370
    15
100
AcDbCircle
 10
849.0471619344001
 20
276.3121257295
 30
0.0
 40
0.8234953805488308
100
AcDbArc
 50
234.3126204221
 51
245.6927561106001
  0
SPLINE
  5
127
330
1F
100
AcDbEntity
  8
0
370
    15
100
AcDbSpline
210
0.0
220
0.0
230
1.0
 70
     8
 71
     3
 72
    13
 73
     9
 74
     0
 42
0.000000001
 43
0.0000000001
 40
0.0
 40
0.0
 40
0.0
 40
0.0
 40
0.0883685722136494
 40
0.2754704161166041
 40
0.4525054872345681
 40
0.6263106314950353
 40
0.8039810019243994
 40
1.0
 40
1.0
 40
1.0
 40
1.0
 10
849.0430099993194
 20
275.7544620173569
 30
0.0
 10
849.0326108817678
 20
275.7671085038527
 30
0.0
 10
849.0001938225415
 20
275.8065312625342
 30
0.0
 10
848.9338474027121
 20
275.8291827248081
 30
0.0
 10
848.8578327486568
 20
275.8197548613768
 30
0.0
 10
848.7912771383692
 20
275.7680492365456
 30
0.0
 10
848.7367419736694
 20
275.6816501593515
 30
0.0
 10
848.7180117988776
 20
275.602926656074
 30
0.0
 10
848.7081868736702
 20
275.5616321919067
 30
0.0
  0
SPLINE
  5
128
330
1F
100
AcDbEntity
  8
0
370
    15
100
AcDbSpline
210
0.0
220
0.0
230
1.0
 70
     8
 71
     3
 72
    14
 73
    10
 74
     0
 42
0.000000001
 43
0.0000000001
 40
0.0
 40
0.0
 40
0.0
 40
0.0
 40
0.1771757867938819
 40
0.3547353020898874
 40
0.5230903322664443
 40
0.6823877603479148
 40
0.8387789047822108
 40
0.9986476956216311
 40
1.0
 40
1.0
 40
1.0
 40
1.0
 10
849.2051469499072
 20
276.2687166059886
 30
0.0
 10
849.1888259256789
 20
276.2729010319223
 30
0.0
 10
849.1561485290386
 20
276.2812789464476
 30
0.0
 10
849.1214722344199
 20
276.2376169825097
 30
0.0
 10
849.1042094155488
 20
276.1581578325632
 30
0.0
 10
849.1060527543265
 20
276.0528530033892
 30
0.0
 10
849.1245731641111
 20
275.9367245824884
 30
0.0
 10
849.1461893950104
 20
275.8541260584157
 30
0.0
 10
849.1589131331089
 20
275.8179233014269
 30
0.0
 10
849.1590198583903
 20
275.817619636781
 30
0.0
  0
ARC
  5
129
330
1F
100
AcDbEntity
  8
0
370
    15
100
AcDbCircle
 10
847.8568869213001
 20
275.8504500828
 30
0.0
 40
1.41164867764587
100
AcDbArc
 50
17.2352958085
 51
25.1760092558
  0
SPLINE
  5
12A
330
1F
100
AcDbEntity
  8
0
370
    15
100
AcDbSpline
210
0.0
220
0.0
230
1.0
 70
     8
 71
     3
 72
    14
 73
    10
 74
     0
 42
0.000000001
 43
0.0000000001
 40
0.0
 40
0.0
 40
0.0
 40
0.0
 40
0.1507841312077155
 40
0.3018954547402873
 40
0.445172536149337
 40
0.5807422101875833
 40
0.7138382527484639
 40
0.8498929118252565
 40
1.0
 40
1.0
 40
1.0
 40
1.0
 10
848.7081868736702
 20
276.9812160515773
 30
0.0
 10
848.7180547109042
 20
276.9522142618207
 30
0.0
 10
848.7378117979741
 20
276.8941477502008
 30
0.0
 10
848.7973365276163
 20
276.7842624626355
 30
0.0
 10
848.8698976978808
 20
276.676007802028
 30
0.0
 10
848.9474772776333
 20
276.5814732872645
 30
0.0
 10
849.0211060669858
 20
276.5091132635058
 30
0.0
 10
849.0886600865758
 20
276.459615666931
 30
0.0
 10
849.1186861311902
 20
276.4539420772771
 30
0.0
 10
849.1344363919072
 20
276.4509659771146
 30
0.0
  0
ARC
  5
12B
330
1F
100
AcDbEntity
  8
0
370
    15
100
AcDbCircle
 10
848.2277913946999
 20
276.3123643953
 30
0.0
 40
0.8234939916843392
100
AcDbArc
 50
54.3126107938
 51
65.6927657389
  0
SPLINE
  5
12C
330
1F
100
AcDbEntity
  8
0
370
    15
100
AcDbSpline
210
0.0
220
0.0
230
1.0
 70
     8
 71
     3
 72
    14
 73
    10
 74
     0
 42
0.000000001
 43
0.0000000001
 40
0.0
 40
0.0
 40
0.0
 40
0.0
 40
0.1507844923437648
 40
0.3018954904615044
 40
0.4451734041918744
 40
0.5807424163183461
 40
0.7138380030123833
 40
0.8498935638439572
 40
1.0
 40
1.0
 40
1.0
 40
1.0
 10
848.1405162394329
 20
277.0247438679321
 30
0.0
 10
848.1770274158163
 20
276.9975182244236
 30
0.0
 10
848.2501288291661
 20
276.9430079835339
 30
0.0
 10
848.3656520946537
 20
276.8890704036587
 30
0.0
 10
848.4657737658656
 20
276.8662992608695
 30
0.0
 10
848.5405578990093
 20
276.8762433164572
 30
0.0
 10
848.584314562777
 20
276.9144697550755
 30
0.0
 10
848.5981092776722
 20
276.9774366107893
 30
0.0
 10
848.5775500907244
 20
277.0334663125585
 30
0.0
 10
848.5667657576698
 20
277.0628567240736
 30
0.0
  0
LINE
  5
12D
330
1F
100
AcDbEntity
  8
0
370
    15
100
AcDbLine
 10
849.3216098875999
 20
276.2748304062
 30
0.0
 11
849.3402427458999
 21
276.226861395
 31
0.0
  0
LWPOLYLINE
  5
12E
330
1F
100
AcDbEntity
  8
0
370
    15
100
AcDbPolyline
 90
        4
 70
   128
 43
0.0
 10
846.5880383915999
 20
276.5578431656
 10
846.6822326467999
 20
277.0503001344
 10
846.9504749469999
 20
277.3590307474
 10
847.0063623267
 20
277.38742217
  0
ARC
  5
12F
330
1F
100
AcDbEntity
  8
0
370
    15
100
AcDbCircle
 10
849.3196192182001
 20
276.6967402328
 30
0.0
 40
2.735109907776375
100
AcDbArc
 50
182.9109032449
 51
223.5306116458
  0
SPLINE
  5
130
330
1F
100
AcDbEntity
  8
0
370
    15
100
AcDbSpline
210
0.0
220
0.0
230
1.0
 70
     8
 71
     3
 72
    14
 73
    10
 74
     0
 42
0.000000001
 43
0.0000000001
 40
0.0
 40
0.0
 40
0.0
 40
0.0
 40
0.0092212955485281
 40
0.1714674619049884
 40
0.3345103771562549
 40
0.4821430371922921
 40
0.6906198685808287
 40
0.9030076007659165
 40
1.0
 40
1.0
 40
1.0
 40
1.0
 10
848.2008534043432
 20
276.408529758077
 30
0.0
 10
848.2008922451722
 20
276.4065828264506
 30
0.0
 10
848.2016144797347
 20
276.3703801667795
 30
0.0
 10
848.2314800892066
 20
276.3034744072984
 30
0.0
 10
848.2922777936975
 20
276.2260833445105
 30
0.0
 10
848.3858882190983
 20
276.1723964301199
 30
0.0
 10
848.4994564030372
 20
276.1501193723885
 30
0.0
 10
848.6022036446964
 20
276.1601798987883
 30
0.0
 10
848.6583902926817
 20
276.1800803384098
 30
0.0
 10
848.6760051206539
 20
276.1863192373845
 30
0.0
  0
ARC
  5
131
330
1F
100
AcDbEntity
  8
0
370
    15
100
AcDbCircle
 10
847.3907840892
 20
275.5825223083
 30
0.0
 40
1.419987264450185
100
AcDbArc
 50
18.3521588559
 51
25.1641412077
  0
LINE
  5
132
330
1F
100
AcDbEntity
  8
0
370
    15
100
AcDbLine
 10
848.6760051207001
 20
276.1863192374
 30
0.0
 11
849.1344363919001
 21
276.4509659771
 31
0.0
  0
LINE
  5
133
330
1F
100
AcDbEntity
  8
0
370
    15
100
AcDbLine
 10
848.5655619382999
 20
276.898880429
 30
0.0
 11
848.7081868736998
 21
276.9812160516
 31
0.0
  0
ARC
  5
134
330
1F
100
AcDbEntity
  8
0
370
    15
100
AcDbCircle
 10
457.0097718289999
 20
50.6933552737
 30
0.0
 40
1.471626142494634
100
AcDbArc
 50
145.4624535458
 51
212.4337163495
  0
LWPOLYLINE
  5
135
330
1F
100
AcDbEntity
  8
0
370
    15
100
AcDbPolyline
 90
        6
 70
   128
 43
0.0
 10
455.5137534155999
 20
51.3289277097
 10
455.3851416487999
 20
51.1892654721
 10
455.2385074944999
 20
50.7576056089
 10
455.2741373865
 20
50.19522967930001
 10
455.486608211
 20
49.5877535473
 10
455.827104039
 20
49.0480844129
  0
ARC
  5
136
330
1F
100
AcDbEntity
  8
0
370
    15
100
AcDbCircle
 10
457.7147293807
 20
50.63759142399999
 30
0.0
 40
2.600109911756298
100
AcDbArc
 50
200.8269272284
 51
222.3006662421
  0
LWPOLYLINE
  5
137
330
1F
100
AcDbEntity
  8
0
370
    15
100
AcDbPolyline
 90
       17
 70
   128
 43
0.0
 10
869.6043892288001
 20
283.3544023263
 10
869.5694027347
 20
283.577709423
 10
869.4697698897
 20
283.8074144305
 10
869.3206586202
 20
284.0085469849
 10
869.1447699432002
 20
284.1504864213
 10
868.9688812661998
 20
284.2116237287
 10
868.8197699967
 20
284.1826513816
 10
868.7201368225
 20
284.0679801984
 10
868.6851503284
 20
283.885067648
 10
868.7201368225
 20
283.6617605514
 10
868.8197699967
 20
283.4320553538
 10
868.9688812661998
 20
283.2309227994
 10
869.1447699432002
 20
283.088983363
 10
869.3206586202
 20
283.0278460555
 10
869.4697698897
 20
283.0568184027
 10
869.5694027347
 20
283.1714897759
 10
869.6043892288001
 20
283.3544023263
  0
LWPOLYLINE
  5
138
330
1F
100
AcDbEntity
  8
0
370
    15
100
AcDbPolyline
 90
       14
 70
   128
 43
0.0
 10
869.6043727651
 20
282.9461886993
 10
869.5424735327
 20
282.6225742291
 10
869.3661999364
 20
282.4196941839
 10
869.102387665
 20
282.3684354287
 10
868.7912000310999
 20
282.476601372
 10
868.4800120678
 20
282.7277252132
 10
868.2162001257001
 20
283.0835749436
 10
868.0399262002
 20
283.489976341
 10
867.9780272969999
 20
283.8850579537
 10
868.0399262002
 20
284.208672614
 10
868.2162001257001
 20
284.411552469
 10
868.4800120678
 20
284.4628114144
 10
868.7912000310999
 20
284.354645281
 10
868.7913320691999
 20
284.354569057
  0
LWPOLYLINE
  5
139
330
1F
100
AcDbEntity
  8
0
370
    15
100
AcDbPolyline
 90
       10
 70
   128
 43
0.0
 10
863.6200484292999
 20
281.7582509607
 10
863.6200020019
 20
281.7582237698
 10
863.4437280764
 20
281.5553439148
 10
863.3818291732001
 20
281.2317292545
 10
863.4437280764
 20
280.8366476418001
 10
863.6200020019
 20
280.4302462444
 10
863.8838139439998
 20
280.0743965141
 10
864.1950019072
 20
279.8232726728
 10
864.5061895412
 20
279.7151067295
 10
864.7699550558998
 20
279.7663384839
  0
LINE
  5
13A
330
1F
100
AcDbEntity
  8
0
370
    15
100
AcDbLine
 10
865.6092153721999
 20
279.9458865717
 30
0.0
 11
865.5881748750999
 21
280.2386868364
 31
0.0
  0
LWPOLYLINE
  5
13B
330
1F
100
AcDbEntity
  8
0
370
    15
100
AcDbPolyline
 90
       15
 70
   128
 43
0.0
 10
864.4382685777999
 20
282.2305990518
 10
864.1950019072
 20
282.3953763286
 10
863.6538057499999
 20
282.5834912523
 10
863.1950017425999
 20
282.4943455248
 10
862.8884387374
 20
282.1415107898
 10
862.7807884422999
 20
281.5787026828
 10
862.8884387374
 20
280.8916041908
 10
863.1950017425999
 20
280.184819344
 10
863.6538057499999
 20
279.565949785
 10
864.1950019072
 20
279.129212926
 10
864.7361980643999
 20
278.9410980022
 10
865.1950017425999
 20
279.0302439198
 10
865.5015647478
 20
279.3830786549
 10
865.6092153721999
 20
279.9458865717
 10
865.6092153721999
 20
279.9458865717
  0
LWPOLYLINE
  5
13C
330
1F
100
AcDbEntity
  8
0
370
    15
100
AcDbPolyline
 90
       17
 70
   128
 43
0.0
 10
878.5846455706
 20
278.1702106888
 10
878.5496590764999
 20
278.3935177855
 10
878.4500259021999
 20
278.6232229831
 10
878.3009146328
 20
278.8243555375
 10
878.1250259557999
 20
278.9662949739
 10
877.9491372786999
 20
279.0274322813
 10
877.8000260093
 20
278.9984599341
 10
877.7003931642999
 20
278.8837885609
 10
877.6654066702
 20
278.7008760105
 10
877.7003931642999
 20
278.4775689139
 10
877.8000260093
 20
278.2478639064
 10
877.9491372786999
 20
278.046731352
 10
878.1250259557999
 20
277.9047919155
 10
878.3009146328
 20
277.8436546081
 10
878.4500259021999
 20
277.8726269553
 10
878.5496590764999
 20
277.9872981384
 10
878.5846455706
 20
278.1702106888
  0
LWPOLYLINE
  5
13D
330
1F
100
AcDbEntity
  8
0
370
    15
100
AcDbPolyline
 90
       14
 70
   128
 43
0.0
 10
878.5846287776999
 20
277.7619972519
 10
878.5227298744999
 20
277.4383825916
 10
878.3464559489001
 20
277.2355027365
 10
878.0826440069001
 20
277.1842437911
 10
877.7714560435999
 20
277.2924099245
 10
877.4602684096
 20
277.5435335757
 10
877.1964561383001
 20
277.8993834961
 10
877.0201825419999
 20
278.3057847034
 10
876.9582833094998
 20
278.7008665062
 10
877.0201825419999
 20
279.0244809764
 10
877.1964561383001
 20
279.2273610216
 10
877.4602684096
 20
279.2786197769
 10
877.7714560435999
 20
279.1704538336
 10
877.771588411
 20
279.1703774195
  0
LWPOLYLINE
  5
13E
330
1F
100
AcDbEntity
  8
0
370
    15
100
AcDbPolyline
 90
       10
 70
   128
 43
0.0
 10
872.6003047710999
 20
276.5740593232
 10
872.6002580143999
 20
276.5740323224
 10
872.4239844182001
 20
276.3711522773
 10
872.3620851857001
 20
276.0475378071
 10
872.4239844182001
 20
275.6524560043
 10
872.6002580143999
 20
275.2460547969
 10
872.8640702857999
 20
274.8902048766
 10
873.1752579197999
 20
274.6390812254
 10
873.4864458829999
 20
274.530915092
 10
873.7502113976999
 20
274.5821468464
  0
LINE
  5
13F
330
1F
100
AcDbEntity
  8
0
370
    15
100
AcDbLine
 10
874.5894713847
 20
274.7616951243
 30
0.0
 11
874.5684308877001
 21
275.054495389
 31
0.0
  0
LWPOLYLINE
  5
140
330
1F
100
AcDbEntity
  8
0
370
    15
100
AcDbPolyline
 90
       15
 70
   128
 43
0.0
 10
873.4185245902999
 20
277.0464076044
 10
873.1752579197999
 20
277.2111848812
 10
872.6340617625998
 20
277.3992998049
 10
872.1752580844
 20
277.3101538873
 10
871.8686950791999
 20
276.9573191523
 10
871.7610444549
 20
276.3945112354
 10
871.8686950791999
 20
275.7074125533
 10
872.1752580844
 20
275.0006277065001
 10
872.6340617625998
 20
274.3817583376
 10
873.1752579197999
 20
273.9450214785
 10
873.7164540769999
 20
273.7569065548
 10
874.1752580844
 20
273.8460522823
 10
874.4818210896001
 20
274.1988870174
 10
874.5894713847
 20
274.7616951243
 10
874.5894713847
 20
274.7616951243
  0
LWPOLYLINE
  5
141
330
1F
100
AcDbEntity
  8
0
370
    15
100
AcDbPolyline
 90
        7
 70
   128
 43
0.0
 10
442.2997516397
 20
38.146220115
 10
442.3616505428999
 20
37.7511385023
 10
442.5379244684999
 20
37.3447371049
 10
442.8017364106
 20
36.9888873746
 10
443.1129243737999
 20
36.7377635333
 10
443.4241120078
 20
36.62959759
 10
443.6878775224999
 20
36.6808293444
  0
ARC
  5
142
330
1F
100
AcDbEntity
  8
0
370
    15
100
AcDbCircle
 10
442.8312629758
 20
38.2228941153
 30
0.0
 40
0.5370132239597078
100
AcDbArc
 50
123.1035796102
 51
188.2086643486
  0
ARC
  5
143
330
1F
100
AcDbEntity
  8
0
370
    15
100
AcDbCircle
 10
443.2976640665
 20
37.7834336832
 30
0.0
 40
0.9989450782165823
100
AcDbArc
 50
182.6058556429
 51
237.3887790548
  0
SPLINE
  5
144
330
1F
100
AcDbEntity
  8
0
370
    15
100
AcDbSpline
210
0.0
220
0.0
230
1.0
 70
     8
 71
     3
 72
     9
 73
     5
 74
     0
 42
0.000000001
 43
0.0000000001
 40
0.0
 40
0.0
 40
0.0
 40
0.0
 40
0.7478488097581017
 40
1.0
 40
1.0
 40
1.0
 40
1.0
 10
875.8501731857077
 20
272.4301867264063
 30
0.0
 10
875.8419126433883
 20
272.401138665932
 30
0.0
 10
875.8308669049837
 20
272.3622965094759
 30
0.0
 10
875.8182785438192
 20
272.3006665150372
 30
0.0
 10
875.8151043735683
 20
272.2851264385849
 30
0.0
  0
SPLINE
  5
145
330
1F
100
AcDbEntity
  8
0
370
    15
100
AcDbSpline
210
0.0
220
0.0
230
1.0
 70
     8
 71
     3
 72
     9
 73
     5
 74
     0
 42
0.000000001
 43
0.0000000001
 40
0.0
 40
0.0
 40
0.0
 40
0.0
 40
0.6389679790727111
 40
1.0
 40
1.0
 40
1.0
 40
1.0
 10
875.8045623930845
 20
270.7917131187295
 30
0.0
 10
875.8069206627231
 20
271.1091229056874
 30
0.0
 10
875.8106114104855
 20
271.6058767295934
 30
0.0
 10
875.8396788935526
 20
272.211527430046
 30
0.0
 10
875.8501731857077
 20
272.4301867264063
 30
0.0
  0
LWPOLYLINE
  5
146
330
1F
100
AcDbEntity
  8
0
370
    15
100
AcDbPolyline
 90
       16
 70
   128
 43
0.0
 10
859.5261271408
 20
280.1890537619
 10
859.9826334864999
 20
278.2744069321
 10
860.6880782172
 20
276.3373072198
 10
861.6196012775999
 20
274.4405226079
 10
862.7470212433999
 20
272.6455118258
 10
864.0338056875
 20
271.0104386818
 10
865.4382603460001
 20
269.5882825192
 10
866.9148776531001
 20
268.425124355
 10
868.4158118807999
 20
267.5586534687
 10
869.8924291878999
 20
267.0169455792
 10
871.2968838464
 20
266.8175529087
 10
872.5836682904999
 20
266.9669363574
 10
873.7110882562999
 20
267.4602557542
 10
874.6426113167
 20
268.2815267336
 10
875.3480560474001
 20
269.4041372966999
 10
875.8045623931
 20
270.7917131187
  0
SPLINE
  5
147
330
1F
100
AcDbEntity
  8
0
370
    15
100
AcDbSpline
210
0.0
220
0.0
230
1.0
 70
     8
 71
     3
 72
    10
 73
     6
 74
     0
 42
0.000000001
 43
0.0000000001
 40
0.0
 40
0.0
 40
0.0
 40
0.0
 40
0.2091548210872958
 40
0.3226538009906545
 40
1.0
 40
1.0
 40
1.0
 40
1.0
 10
861.3836994395402
 20
280.7815042572767
 30
0.0
 10
861.2646379277729
 20
280.719606414684
 30
0.0
 10
861.0809670512249
 20
280.6241193774651
 30
0.0
 10
860.4822808450739
 20
280.3740802865526
 30
0.0
 10
859.967246116842
 20
280.2744152583879
 30
0.0
 10
859.526127140805
 20
280.1890537618504
 30
0.0
  0
SPLINE
  5
148
330
1F
100
AcDbEntity
  8
0
370
    15
100
AcDbSpline
210
0.0
220
0.0
230
1.0
 70
     8
 71
     3
 72
     9
 73
     5
 74
     0
 42
0.000000001
 43
0.0000000001
 40
0.0
 40
0.0
 40
0.0
 40
0.0
 40
0.7485313470094845
 40
1.0
 40
1.0
 40
1.0
 40
1.0
 10
861.4758350845631
 20
280.5630103994131
 30
0.0
 10
861.4613747445321
 20
280.6209167972442
 30
0.0
 10
861.4420564620198
 20
280.6982768143797
 30
0.0
 10
861.395425631643
 20
280.764780631873
 30
0.0
 10
861.3836994395402
 20
280.7815042572767
 30
0.0
  0
LWPOLYLINE
  5
149
330
1F
100
AcDbEntity
  8
0
370
    15
100
AcDbPolyline
 90
       15
 70
   128
 43
0.0
 10
875.8151043735999
 20
272.2851264386
 10
875.3898288427
 20
270.9584019852
 10
874.7086916482
 20
269.9044034255
 10
873.7975334182999
 20
269.1631171823
 10
872.6909208247001
 20
268.7626651848
 10
871.4308347628
 20
268.7182397174
 10
870.0650802954999
 20
269.0315258886
 10
868.6454697290999
 20
269.6906391032
 10
867.2258591625999
 20
270.6705733605
 10
865.8601046954
 20
271.9341537326
 10
864.6000186335001
 20
273.4334435995
 10
863.4934060399
 20
275.1115633016
 10
862.5822478099001
 20
276.9048504447
 10
861.9011106154999
 20
278.7452732696
 10
861.4758350846001
 20
280.5630103994
  0
LWPOLYLINE
  5
14A
330
1F
100
AcDbEntity
  8
0
370
    15
100
AcDbPolyline
 90
       13
 70
   128
 43
0.0
 10
853.3194762034
 20
276.8109125727
 10
853.7773668096001
 20
274.8550240691
 10
854.491631427
 20
272.8740479965
 10
855.4389035791999
 20
270.9327910913
 10
856.5881931497001
 20
269.0947610744
 10
857.9019021859
 20
267.4200874506
 10
859.3370530857001
 20
265.9635565878
 10
860.8466954944001
 20
264.7728192958
 10
862.3814421958998
 20
263.8868288838001
 10
863.8910846046
 20
263.3345701515001
 10
865.3262355042999
 20
263.1341110554
 10
866.6399445406
 20
263.2920085115
 10
867.687191981
 20
263.7391260671
  0
SPLINE
  5
14B
330
1F
100
AcDbEntity
  8
0
370
    15
100
AcDbSpline
210
0.0
220
0.0
230
1.0
 70
     8
 71
     3
 72
    10
 73
     6
 74
     0
 42
0.000000001
 43
0.0000000001
 40
0.0
 40
0.0
 40
0.0
 40
0.0
 40
0.6789730796711146
 40
0.707850250049459
 40
1.0
 40
1.0
 40
1.0
 40
1.0
 10
859.3831623964783
 20
280.1538309266057
 30
0.0
 10
858.0108652722929
 20
279.3967559747126
 30
0.0
 10
856.5802034514039
 20
278.607482128593
 30
0.0
 10
854.5589181044681
 20
277.4936013851598
 30
0.0
 10
853.9100117847983
 20
277.1361815783722
 30
0.0
 10
853.319476203425
 20
276.8109125726658
 30
0.0
  0
LINE
  5
14C
330
1F
100
AcDbEntity
  8
0
370
    15
100
AcDbLine
 10
859.3847409277
 20
280.1452518968
 30
0.0
 11
859.3831623965
 21
280.1538309266
 31
0.0
  0
LWPOLYLINE
  5
14D
330
1F
100
AcDbEntity
  8
0
370
    15
100
AcDbPolyline
 90
       13
 70
   128
 43
0.0
 10
873.56485318
 20
267.3018661253
 10
872.5098708051
 20
266.8546944213
 10
871.2164255125999
 20
266.7045379074
 10
869.8047011813001
 20
266.9049622242
 10
868.3204406419999
 20
267.4494740787
 10
866.8117372354
 20
268.3204300165
 10
865.3274766961001
 20
269.4896089037
 10
863.9157523647998
 20
270.9191268056
 10
862.6223070722998
 20
272.5626634667
 10
861.4890520728
 20
274.366965227
 10
860.5527064910999
 20
276.273568103
 10
859.8436107896
 20
278.220694176
 10
859.3847409277
 20
280.1452518968
  0
ARC
  5
14E
330
1F
100
AcDbEntity
  8
0
370
    15
100
AcDbCircle
 10
859.5711092081
 20
279.7937697607
 30
0.0
 40
0.3978351768888743
100
AcDbArc
 50
96.4921505072
 51
117.9341195318
  0
LWPOLYLINE
  5
14F
330
1F
100
AcDbEntity
  8
0
370
    15
100
AcDbPolyline
 90
        3
 70
   128
 43
0.0
 10
875.8023878791
 20
270.7705638825999
 10
875.8037187975999
 20
270.7781391543
 10
875.8045623931
 20
270.7917131187
  0
ARC
  5
150
330
1F
100
AcDbEntity
  8
0
370
    15
100
AcDbCircle
 10
861.5216534562
 20
280.2425951106
 30
0.0
 40
0.3236746522003158
100
AcDbArc
 50
73.85199184300001
 51
98.13794579979999
  0
LWPOLYLINE
  5
151
330
1F
100
AcDbEntity
  8
0
370
    15
100
AcDbPolyline
 90
       15
 70
   128
 43
0.0
 10
861.6116737188001
 20
280.5534996503
 10
862.0312442786
 20
278.760146608
 10
862.703244168
 20
276.9444128744
 10
863.6021791533
 20
275.1751822082
 10
864.6939474952
 20
273.5195738566
 10
865.9371295427
 20
272.0403969323
 10
867.2845629724999
 20
270.7937665094
 10
868.6851299135
 20
269.8269780131
 10
870.0856968544998
 20
269.1767063395
 10
871.4331302843
 20
268.8676232385
 10
872.6763123319001
 20
268.911452723
 10
873.7680806736999
 20
269.3065321782
 10
874.6670156590999
 20
270.0378746024
 10
875.3390155484
 20
271.0777337787
 10
875.6719223096
 20
272.0118953884
  0
ARC
  5
152
330
1F
100
AcDbEntity
  8
0
370
    15
100
AcDbCircle
 10
875.6777945966
 20
272.275191657
 30
0.0
 40
0.137668713739167
100
AcDbArc
 50
4.1383133242
 51
54.0658858787
  0
LWPOLYLINE
  5
153
330
1F
100
AcDbEntity
  8
0
370
    15
100
AcDbPolyline
 90
       13
 70
   128
 43
0.0
 10
875.1835358242999
 20
278.065327143
 10
875.1131565141999
 20
278.2686648941
 10
874.3324019505999
 20
280.1141825985
 10
873.3278693533
 20
281.882668749
 10
872.1393654331
 20
283.5040456726
 10
870.8139846832001
 20
284.914065518
 10
869.4042466867999
 20
286.0568540199
 10
867.9660131402
 20
286.8871285735
 10
866.5562751438001
 20
287.3719889167
 10
865.2308943939001
 20
287.4922211128
 10
864.0423904737
 20
287.2430616071
 10
863.0378578765
 20
286.6343841061
 10
862.674999194
 20
286.2703130498
  0
LWPOLYLINE
  5
154
330
1F
100
AcDbEntity
  8
0
370
    15
100
AcDbPolyline
 90
        9
 70
   128
 43
0.0
 10
861.7310632283
 20
284.4482396113
 10
862.1072396563
 20
283.837362939
 10
862.3880647665
 20
283.1868322028
 10
862.5563051074999
 20
282.5365675208
 10
862.6016379943999
 20
281.9264715748
 10
862.5212804178998
 20
281.3939836406
 10
862.3201642178999
 20
280.9717793702
 10
862.0106305183998
 20
280.685767704
 10
861.6116737188001
 20
280.5534996503
  0
LWPOLYLINE
  5
155
330
1F
100
AcDbEntity
  8
0
370
    15
100
AcDbPolyline
 90
       15
 70
   128
 43
0.0
 10
864.4382685777999
 20
282.2305990518
 10
864.1950019072
 20
282.3953763286
 10
863.6538057499999
 20
282.5834912523
 10
863.1950017425999
 20
282.4943455248
 10
862.8884387374
 20
282.1415107898
 10
862.7807884422999
 20
281.5787026828
 10
862.8884387374
 20
280.8916041908
 10
863.1950017425999
 20
280.184819344
 10
863.6538057499999
 20
279.565949785
 10
864.1950019072
 20
279.129212926
 10
864.7361980643999
 20
278.9410980022
 10
865.1950017425999
 20
279.0302439198
 10
865.5015647478
 20
279.3830786549
 10
865.6092153721999
 20
279.9458865717
 10
865.6092153721999
 20
279.9458865717
  0
LWPOLYLINE
  5
156
330
1F
100
AcDbEntity
  8
0
370
    15
100
AcDbPolyline
 90
       15
 70
   128
 43
0.0
 10
873.4185245902999
 20
277.0464076044
 10
873.1752579197999
 20
277.2111848812
 10
872.6340617625998
 20
277.3992998049
 10
872.1752580844
 20
277.3101538873
 10
871.8686950791999
 20
276.9573191523
 10
871.7610444549
 20
276.3945112354
 10
871.8686950791999
 20
275.7074125533
 10
872.1752580844
 20
275.0006277065001
 10
872.6340617625998
 20
274.3817583376
 10
873.1752579197999
 20
273.9450214785
 10
873.7164540769999
 20
273.7569065548
 10
874.1752580844
 20
273.8460522823
 10
874.4818210896001
 20
274.1988870174
 10
874.5894713847
 20
274.7616951243
 10
874.5894713847
 20
274.7616951243
  0
LWPOLYLINE
  5
157
330
1F
100
AcDbEntity
  8
0
370
    15
100
AcDbPolyline
 90
       16
 70
   128
 43
0.0
 10
851.9383022458001
 20
276.7755076713001
 10
852.3819004605
 20
274.7798948574
 10
853.0757284661
 20
272.7525712167
 10
853.9994866282
 20
270.7528499995
 10
855.1261495971001
 20
268.8392371637
 10
856.4227542569
 20
267.067717366
 10
857.8513667975
 20
265.4901196271
 10
859.3701898928999
 20
264.1526013584
 10
860.9347880877001
 20
263.0942915255
 10
862.4993862825
 20
262.3461547339
 10
864.0182093778999
 20
261.9300771831
 10
865.4468219185
 20
261.8582339919
 10
866.7434265783001
 20
262.1327259146
 10
867.8700895471999
 20
262.7455213751
 10
868.7938477092
 20
263.6786941206
 10
869.4444231701
 20
264.8042706636
  0
SPLINE
  5
158
330
1F
100
AcDbEntity
  8
0
370
    15
100
AcDbSpline
210
0.0
220
0.0
230
1.0
 70
     8
 71
     3
 72
    12
 73
     8
 74
     0
 42
0.000000001
 43
0.0000000001
 40
0.0
 40
0.0
 40
0.0
 40
0.0
 40
0.030590699265031
 40
0.3785535070999378
 40
0.6309975829725702
 40
0.8149120661487025
 40
1.0
 40
1.0
 40
1.0
 40
1.0
 10
852.5922040149559
 20
277.5310544169809
 30
0.0
 10
852.5811893927588
 20
277.5273080059352
 30
0.0
 10
852.4448857461553
 20
277.4809469525939
 30
0.0
 10
852.2293048174883
 20
277.3712968921271
 30
0.0
 10
852.0287420066591
 20
277.16771024621
 30
0.0
 10
851.9313443963691
 20
276.9680513327674
 30
0.0
 10
851.935978050856
 20
276.8398248145726
 30
0.0
 10
851.9383022457542
 20
276.775507671317
 30
0.0
  0
SPLINE
  5
159
330
1F
100
AcDbEntity
  8
0
370
    15
100
AcDbSpline
210
0.0
220
0.0
230
1.0
 70
     8
 71
     3
 72
    11
 73
     7
 74
     0
 42
0.000000001
 43
0.0000000001
 40
0.0
 40
0.0
 40
0.0
 40
0.0
 40
0.1323449962999452
 40
0.5276713338641074
 40
0.8953443168729132
 40
1.0
 40
1.0
 40
1.0
 40
1.0
 10
853.1555453775975
 20
277.0609737493348
 30
0.0
 10
853.1404305811141
 20
277.088910572674
 30
0.0
 10
853.0801665360465
 20
277.2002971852961
 30
0.0
 10
852.9191409930581
 20
277.3588435812471
 30
0.0
 10
852.7291601827693
 20
277.4729981767486
 30
0.0
 10
852.6170456615608
 20
277.5205239485391
 30
0.0
 10
852.5922040149559
 20
277.5310544169809
 30
0.0
  0
LINE
  5
15A
330
1F
100
AcDbEntity
  8
0
370
    15
100
AcDbLine
 10
853.2183422061999
 20
276.9134678124
 30
0.0
 11
853.1555453776
 21
277.0609737493
 31
0.0
  0
SPLINE
  5
15B
330
1F
100
AcDbEntity
  8
0
370
    15
100
AcDbSpline
210
0.0
220
0.0
230
1.0
 70
     8
 71
     3
 72
     9
 73
     5
 74
     0
 42
0.000000001
 43
0.0000000001
 40
0.0
 40
0.0
 40
0.0
 40
0.0
 40
0.5113810635752982
 40
1.0
 40
1.0
 40
1.0
 40
1.0
 10
853.2414189228941
 20
276.8081018008796
 30
0.0
 10
853.2380416128834
 20
276.8261771849989
 30
0.0
 10
853.231437320603
 20
276.8615233982375
 30
0.0
 10
853.2226404995782
 20
276.896417764339
 30
0.0
 10
853.2183422062454
 20
276.9134678123908
 30
0.0
  0
LWPOLYLINE
  5
15C
330
1F
100
AcDbEntity
  8
0
370
    15
100
AcDbPolyline
 90
       14
 70
   128
 43
0.0
 10
868.2820012344
 20
264.0996688561
 10
867.7925702975
 20
263.7271162677
 10
866.6368161249
 20
263.2131527779
 10
865.3157172314999
 20
263.0543669781
 10
863.8724935639
 20
263.2559540338
 10
862.3543593061
 20
263.8113187929
 10
860.8109795799
 20
264.7022929439
 10
859.2928453221
 20
265.8997286894
 10
857.8496216545
 20
267.364452212
 10
856.5285227610999
 20
269.048546327
 10
855.3727685885
 20
270.8969151809
 10
854.4201674941
 20
272.8490922134
 10
853.7018850966999
 20
274.841211352
 10
853.2414189228999
 20
276.8081018009
  0
LWPOLYLINE
  5
15D
330
1F
100
AcDbEntity
  8
0
370
    15
100
AcDbPolyline
 90
        8
 70
   128
 43
0.0
 10
847.3109727474
 20
281.0890567204
 10
847.0158980512
 20
280.9116795806001
 10
846.0664428239001
 20
280.0784311490001
 10
845.3245206542998
 20
278.9652335949
 10
844.8099497808
 20
277.6018219264
 10
844.5364753444
 20
276.0246146703
 10
844.5114019208999
 20
274.2757415383
 10
844.7353992497999
 20
272.401917401
  0
LWPOLYLINE
  5
15E
330
1F
100
AcDbEntity
  8
0
370
    15
100
AcDbPolyline
 90
       14
 70
   128
 43
0.0
 10
859.1274126855001
 20
257.3544437428
 10
858.2436406875
 20
256.9437800566
 10
856.9372579588
 20
256.6950478969
 10
855.5042835486998
 20
256.7851522445
 10
853.9848899892
 20
257.2115675694
 10
852.4216725975
 20
257.9623392093
 10
850.8584552059
 20
259.0164199524001
 10
849.3390616462999
 20
260.344259091
 10
847.9060872362
 20
261.9086317808
 10
846.5997045075999
 20
263.6656813336
 10
845.4565377547
 20
265.5661491604
 10
844.5086340582999
 20
267.5567589072
 10
843.7825676647999
 20
269.5817030763
 10
843.298694185
 20
271.5842140723
  0
LINE
  5
15F
330
1F
100
AcDbEntity
  8
0
370
    15
100
AcDbLine
 10
844.7353992497999
 20
272.401917401
 30
0.0
 11
843.298694185
 21
271.5842140723
 31
0.0
  0
ARC
  5
160
330
1F
100
AcDbEntity
  8
0
370
    15
100
AcDbCircle
 10
856.7914966825
 20
280.597335679
 30
0.0
 40
4.947240365630195
100
AcDbArc
 50
82.1655396915
 51
168.1424997186
  0
LINE
  5
161
330
1F
100
AcDbEntity
  8
0
370
    15
100
AcDbLine
 10
846.8275714441
 20
278.7235035539
 30
0.0
 11
851.9498221647999
 21
281.6138862679
 31
0.0
  0
ARC
  5
162
330
1F
100
AcDbEntity
  8
0
370
    15
100
AcDbCircle
 10
858.2090305920999
 20
275.9876340538
 30
0.0
 40
11.70566504983452
100
AcDbArc
 50
166.4837087766
 51
190.0046899420999
  0
LWPOLYLINE
  5
163
330
1F
100
AcDbEntity
  8
0
370
    15
100
AcDbPolyline
 90
        3
 70
   128
 43
0.0
 10
851.8002061210001
 20
276.7330924948
 10
850.4164572542999
 20
275.9819213701
 10
846.6813673193
 20
273.9540230467
  0
LWPOLYLINE
  5
164
330
1F
100
AcDbEntity
  8
0
370
    15
100
AcDbPolyline
 90
       14
 70
   128
 43
0.0
 10
867.4378643961
 20
262.3918184765
 10
866.6720917200999
 20
262.0242810667
 10
865.3696405021001
 20
261.7485513222
 10
863.9345860791999
 20
261.8207186266
 10
862.4089137917
 20
262.2386725473
 10
860.8372602802001
 20
262.9901826606
 10
859.2656067688
 20
264.0532650669
 10
857.7399344813001
 20
265.3968148747
 10
856.3048800583
 20
266.9815261394
 10
855.0024288403999
 20
268.7610340512
 10
853.8706852005999
 20
270.6832765234
 10
852.942761086
 20
272.6920156791
 10
852.2458043353999
 20
274.7284809309
 10
851.8002061210001
 20
276.7330924948
  0
ARC
  5
165
330
1F
100
AcDbEntity
  8
0
370
    15
100
AcDbCircle
 10
851.9799704916
 20
276.3938278567
 30
0.0
 40
0.3839475531422081
100
AcDbArc
 50
96.2303459489
 51
117.9175392633
  0
LINE
  5
166
330
1F
100
AcDbEntity
  8
0
370
    15
100
AcDbLine
 10
859.5242081421
 20
280.1996071115
 30
0.0
 11
859.5261271408
 21
280.1890537619
 31
0.0
  0
SPLINE
  5
167
330
1F
100
AcDbEntity
  8
0
370
    15
100
AcDbSpline
210
0.0
220
0.0
230
1.0
 70
     8
 71
     3
 72
    12
 73
     8
 74
     0
 42
0.000000001
 43
0.0000000001
 40
0.0
 40
0.0
 40
0.0
 40
0.0
 40
0.2586026835080785
 40
0.5148291222293047
 40
0.7798632571472748
 40
0.9945479187245997
 40
1.0
 40
1.0
 40
1.0
 40
1.0
 10
861.3836994395402
 20
280.7815042572767
 30
0.0
 10
861.3207389307872
 20
280.8560260964887
 30
0.0
 10
861.1953964439397
 20
281.0043850096602
 30
0.0
 10
860.9919967498996
 20
281.124159869732
 30
0.0
 10
860.8165301751668
 20
281.1513481342973
 30
0.0
 10
860.7195967132112
 20
281.1154956350567
 30
0.0
 10
860.6807023566112
 20
281.0888048812078
 30
0.0
 10
860.6797390681091
 20
281.0881438368161
 30
0.0
  0
ARC
  5
168
330
1F
100
AcDbEntity
  8
0
370
    15
100
AcDbCircle
 10
853.2949133025001
 20
276.4077825493
 30
0.0
 40
0.4038776446154921
100
AcDbArc
 50
86.51325196669999
 51
97.61130391809999
  0
LINE
  5
169
330
1F
100
AcDbEntity
  8
0
370
    15
100
AcDbLine
 10
853.3194762034
 20
276.8109125727
 30
0.0
 11
853.3061604334999
 21
276.9211210275
 31
0.0
  0
LINE
  5
16A
330
1F
100
AcDbEntity
  8
0
370
    15
100
AcDbLine
 10
853.2930791053999
 20
277.0815328834999
 30
0.0
 11
853.3061604334999
 21
276.9211210275
 31
0.0
  0
SPLINE
  5
16B
330
1F
100
AcDbEntity
  8
0
370
    15
100
AcDbSpline
210
0.0
220
0.0
230
1.0
 70
     8
 71
     3
 72
    10
 73
     6
 74
     0
 42
0.000000001
 43
0.0000000001
 40
0.0
 40
0.0
 40
0.0
 40
0.0
 40
0.4716558916902908
 40
0.9139194499722835
 40
1.0
 40
1.0
 40
1.0
 40
1.0
 10
853.2423296899484
 20
277.2815404472703
 30
0.0
 10
853.2524029427055
 20
277.2725370344808
 30
0.0
 10
853.2719217100554
 20
277.2550912775014
 30
0.0
 10
853.2852417531302
 20
277.1587131487673
 30
0.0
 10
853.2919810967145
 20
277.0923457953616
 30
0.0
 10
853.2930791053672
 20
277.0815328834824
 30
0.0
  0
ARC
  5
16C
330
1F
100
AcDbEntity
  8
0
370
    15
100
AcDbCircle
 10
859.5722793950001
 20
279.811306372
 30
0.0
 40
0.3912650119920724
100
AcDbArc
 50
97.05725418610001
 51
118.9042672723
  0
SPLINE
  5
16D
330
1F
100
AcDbEntity
  8
0
370
    15
100
AcDbSpline
210
0.0
220
0.0
230
1.0
 70
     8
 71
     3
 72
    14
 73
    10
 74
     0
 42
0.000000001
 43
0.0000000001
 40
0.0
 40
0.0
 40
0.0
 40
0.0
 40
0.2585120703023688
 40
0.5146974231847951
 40
0.7795990626585071
 40
0.9288100575743689
 40
0.9759056415169766
 40
0.9944783602710408
 40
1.0
 40
1.0
 40
1.0
 40
1.0
 10
861.5945877815095
 20
284.2545781916107
 30
0.0
 10
861.5248142993477
 20
284.190176808621
 30
0.0
 10
861.3858953257254
 20
284.0619536821899
 30
0.0
 10
861.1472150425564
 20
283.8282473451116
 30
0.0
 10
860.9497169804606
 20
283.6295304572038
 30
0.0
 10
860.8276163989337
 20
283.5017392465439
 30
0.0
 10
860.7750543226613
 20
283.4451553242155
 30
0.0
 10
860.7581406422077
 20
283.4267480094856
 30
0.0
 10
860.7524889618774
 20
283.4205678253694
 30
0.0
 10
860.7511937814033
 20
283.4191515290951
 30
0.0
  0
SPLINE
  5
16E
330
1F
100
AcDbEntity
  8
0
370
    15
100
AcDbSpline
210
0.0
220
0.0
230
1.0
 70
     8
 71
     3
 72
     9
 73
     5
 74
     0
 42
0.000000001
 43
0.0000000001
 40
0.0
 40
0.0
 40
0.0
 40
0.0
 40
0.2496803842085696
 40
1.0
 40
1.0
 40
1.0
 40
1.0
 10
861.7310632282547
 20
284.4482396112936
 30
0.0
 10
861.7241376728715
 20
284.4312268853091
 30
0.0
 10
861.6963999897317
 20
284.3630888694276
 30
0.0
 10
861.638232208657
 20
284.3010940903953
 30
0.0
 10
861.5945877815095
 20
284.2545781916107
 30
0.0
  0
SPLINE
  5
16F
330
1F
100
AcDbEntity
  8
0
370
    15
100
AcDbSpline
210
0.0
220
0.0
230
1.0
 70
     8
 71
     3
 72
     9
 73
     5
 74
     0
 42
0.000000001
 43
0.0000000001
 40
0.0
 40
0.0
 40
0.0
 40
0.0
 40
0.2534744316632443
 40
1.0
 40
1.0
 40
1.0
 40
1.0
 10
861.4893609302125
 20
280.8218515647059
 30
0.0
 10
861.5041614428525
 20
280.8013035656068
 30
0.0
 10
861.5625519974463
 20
280.7202381935915
 30
0.0
 10
861.5906773923523
 20
280.6247694834246
 30
0.0
 10
861.6116737187692
 20
280.5534996503089
 30
0.0
  0
SPLINE
  5
170
330
1F
100
AcDbEntity
  8
0
370
    15
100
AcDbSpline
210
0.0
220
0.0
230
1.0
 70
     8
 71
     3
 72
    14
 73
    10
 74
     0
 42
0.000000001
 43
0.0000000001
 40
0.0
 40
0.0
 40
0.0
 40
0.0
 40
0.0055216342201141
 40
0.0240943522000363
 40
0.0711899269139383
 40
0.220400953310797
 40
0.4853026573308411
 40
0.7414881709950591
 40
1.0
 40
1.0
 40
1.0
 40
1.0
 10
860.6797390681091
 20
281.0881438368161
 30
0.0
 10
860.6810150315142
 20
281.0889334210514
 30
0.0
 10
860.6865828598884
 20
281.0923788721439
 30
0.0
 10
860.7032318718848
 20
281.102148818772
 30
0.0
 10
860.7548707475604
 20
281.1286160329757
 30
0.0
 10
860.8741859616797
 20
281.1655600347818
 30
0.0
 10
861.0651885244479
 20
281.1523719375765
 30
0.0
 10
861.2933159427189
 20
281.0417943516083
 30
0.0
 10
861.4238159908342
 20
280.8953864039208
 30
0.0
 10
861.4893609302125
 20
280.8218515647059
 30
0.0
  0
ARC
  5
171
330
1F
100
AcDbEntity
  8
0
370
    15
100
AcDbCircle
 10
861.5362433455999
 20
280.5405491797
 30
0.0
 40
0.2851823849195116
100
AcDbArc
 50
99.46206151440001
 51
122.3370938522
  0
SPLINE
  5
172
330
1F
100
AcDbEntity
  8
0
370
    15
100
AcDbSpline
210
0.0
220
0.0
230
1.0
 70
     8
 71
     3
 72
     9
 73
     5
 74
     0
 42
0.000000001
 43
0.0000000001
 40
0.0
 40
0.0
 40
0.0
 40
0.0
 40
0.3101876025712605
 40
1.0
 40
1.0
 40
1.0
 40
1.0
 10
860.7511937814033
 20
283.4191515290951
 30
0.0
 10
860.6458465587612
 20
283.4395024116474
 30
0.0
 10
860.3062223385515
 20
283.5051107157302
 30
0.0
 10
859.9453143988791
 20
283.5296656551594
 30
0.0
 10
859.6963556277627
 20
283.5466039567956
 30
0.0
  0
SPLINE
  5
173
330
1F
100
AcDbEntity
  8
0
370
    15
100
AcDbSpline
210
0.0
220
0.0
230
1.0
 70
     8
 71
     3
 72
    15
 73
    11
 74
     0
 42
0.000000001
 43
0.0000000001
 40
0.0
 40
0.0
 40
0.0
 40
0.0
 40
0.2101248277396773
 40
0.4187987824000816
 40
0.6329575753836297
 40
0.8799317200664402
 40
0.9558647421732075
 40
0.9836289796980363
 40
0.9952038082681587
 40
1.0
 40
1.0
 40
1.0
 40
1.0
 10
859.6691287636247
 20
284.9272333317471
 30
0.0
 10
859.6495592136037
 20
284.847832123904
 30
0.0
 10
859.610555237686
 20
284.6895779588751
 30
0.0
 10
859.5921799056402
 20
284.3785681710238
 30
0.0
 10
859.6042550632839
 20
284.0372591369203
 30
0.0
 10
859.6415927510923
 20
283.7734786442194
 30
0.0
 10
859.6764464894736
 20
283.6210409739257
 30
0.0
 10
859.6889686051348
 20
283.5731495179818
 30
0.0
 10
859.6939108742464
 20
283.5551526789648
 30
0.0
 10
859.6958016810935
 20
283.5485409766791
 30
0.0
 10
859.6963556277627
 20
283.5466039567956
 30
0.0
  0
LINE
  5
174
330
1F
100
AcDbEntity
  8
0
370
    15
100
AcDbLine
 10
859.6716174033
 20
284.9352666992
 30
0.0
 11
859.6691287636
 21
284.9272333317
 31
0.0
  0
SPLINE
  5
175
330
1F
100
AcDbEntity
  8
0
370
    15
100
AcDbSpline
210
0.0
220
0.0
230
1.0
 70
     8
 71
     3
 72
     9
 73
     5
 74
     0
 42
0.000000001
 43
0.0000000001
 40
0.0
 40
0.0
 40
0.0
 40
0.0
 40
0.6389681312585979
 40
1.0
 40
1.0
 40
1.0
 40
1.0
 10
859.6716174033202
 20
284.9352666991961
 30
0.0
 10
860.0844897649961
 20
284.8469441615305
 30
0.0
 10
860.7306446223009
 20
284.7087173340177
 30
0.0
 10
861.2907291292415
 20
284.4415415587539
 30
0.0
 10
861.4929374854352
 20
284.345082589328
 30
0.0
  0
SPLINE
  5
176
330
1F
100
AcDbEntity
  8
0
370
    15
100
AcDbSpline
210
0.0
220
0.0
230
1.0
 70
     8
 71
     3
 72
    12
 73
     8
 74
     0
 42
0.000000001
 43
0.0000000001
 40
0.0
 40
0.0
 40
0.0
 40
0.0
 40
0.0054519382844227
 40
0.2201366848290082
 40
0.4851708318328719
 40
0.7413974980795003
 40
1.0
 40
1.0
 40
1.0
 40
1.0
 10
860.7511937814033
 20
283.4191515290951
 30
0.0
 10
860.7521877129125
 20
283.4208067689007
 30
0.0
 10
860.7923203732587
 20
283.4876415319503
 30
0.0
 10
860.8929437450639
 20
283.6442656220459
 30
0.0
 10
861.0768245148342
 20
283.8913952349082
 30
0.0
 10
861.2917098885557
 20
284.1463438028498
 30
0.0
 10
861.4256555754476
 20
284.2786328311923
 30
0.0
 10
861.4929374854352
 20
284.345082589328
 30
0.0
  0
LWPOLYLINE
  5
177
330
1F
100
AcDbEntity
  8
0
370
    15
100
AcDbPolyline
 90
        9
 70
   128
 43
0.0
 10
867.9684705402001
 20
287.0288128356
 10
867.6653447669
 20
287.2101679337
 10
866.1463820600999
 20
287.9259332504
 10
864.6782520746
 20
288.2955172445999
 10
863.3100860174
 20
288.3065534111
 10
862.0876703477
 20
287.9586708529
 10
861.0519135211999
 20
287.2635128635
 10
860.2374770402001
 20
286.2443427835
 10
859.6716174033
 20
284.9352666992
  0
LWPOLYLINE
  5
178
330
1F
100
AcDbEntity
  8
0
370
    15
100
AcDbPolyline
 90
       15
 70
   128
 43
0.0
 10
861.5968479062999
 20
284.5107072473
 10
862.0830822680998
 20
285.6892271955
 10
862.7936366457001
 20
286.6099440858
 10
863.7042219419001
 20
287.2413852129
 10
864.78371238
 20
287.5619666701
 10
865.9952080646
 20
287.5607295763
 10
867.2972968360999
 20
287.237715816
 10
868.6454697290999
 20
286.6039680297
 10
869.9936426219998
 20
285.6811485263
 10
871.2957313935001
 20
284.5008025909
 10
872.5072270782002
 20
283.1032765407
 10
873.5867175161999
 20
281.5363419531
 10
874.4973028124
 20
279.8535614213
 10
875.20785719
 20
278.1124559092
 10
875.2173257429999
 20
278.0848337436
  0
SPLINE
  5
179
330
1F
100
AcDbEntity
  8
0
370
    15
100
AcDbSpline
210
0.0
220
0.0
230
1.0
 70
     8
 71
     3
 72
     9
 73
     5
 74
     0
 42
0.000000001
 43
0.0000000001
 40
0.0
 40
0.0
 40
0.0
 40
0.0
 40
0.7478480526562617
 40
1.0
 40
1.0
 40
1.0
 40
1.0
 10
861.4929374854352
 20
284.345082589328
 30
0.0
 10
861.5272677221957
 20
284.3842427689951
 30
0.0
 10
861.5731730857762
 20
284.436606587458
 30
0.0
 10
861.5920803921421
 20
284.4957852358671
 30
0.0
 10
861.5968479062608
 20
284.5107072473045
 30
0.0
  0
ARC
  5
17A
330
1F
100
AcDbEntity
  8
0
370
    15
100
AcDbCircle
 10
861.3317148694999
 20
284.0616682841
 30
0.0
 40
0.3260619577482127
100
AcDbArc
 50
36.273171355
 51
60.36625178430001
  0
SPLINE
  5
17B
330
1F
100
AcDbEntity
  8
0
370
    15
100
AcDbSpline
210
0.0
220
0.0
230
1.0
 70
     8
 71
     3
 72
     9
 73
     5
 74
     0
 42
0.000000001
 43
0.0000000001
 40
0.0
 40
0.0
 40
0.0
 40
0.0
 40
0.221191173562485
 40
1.0
 40
1.0
 40
1.0
 40
1.0
 10
848.478162545388
 20
277.3620925742505
 30
0.0
 10
848.8164907507188
 20
277.5571760628103
 30
0.0
 10
850.3460644668935
 20
278.4391438439731
 30
0.0
 10
851.8760501559397
 20
279.3208526110482
 30
0.0
 10
853.0676165148918
 20
280.0075351811935
 30
0.0
  0
SPLINE
  5
17C
330
1F
100
AcDbEntity
  8
0
370
    15
100
AcDbSpline
210
0.0
220
0.0
230
1.0
 70
     8
 71
     3
 72
    12
 73
     8
 74
     0
 42
0.000000001
 43
0.0000000001
 40
0.0
 40
0.0
 40
0.0
 40
0.0
 40
0.1563089555820306
 40
0.3716361966121068
 40
0.6673376450350305
 40
0.8658156235035917
 40
1.0
 40
1.0
 40
1.0
 40
1.0
 10
853.4209822782523
 20
281.2540000144386
 30
0.0
 10
853.4123697300456
 20
281.1828984104135
 30
0.0
 10
853.3918927545164
 20
281.0138490453627
 30
0.0
 10
853.3516899832438
 20
280.6860352847428
 30
0.0
 10
853.2947269647102
 20
280.369078608157
 30
0.0
 10
853.2105979379883
 20
280.1225723954892
 30
0.0
 10
853.1087132428238
 20
280.0405999877647
 30
0.0
 10
853.0676165148918
 20
280.0075351811935
 30
0.0
  0
SPLINE
  5
17D
330
1F
100
AcDbEntity
  8
0
370
    15
100
AcDbSpline
210
0.0
220
0.0
230
1.0
 70
     8
 71
     3
 72
     9
 73
     5
 74
     0
 42
0.000000001
 43
0.0000000001
 40
0.0
 40
0.0
 40
0.0
 40
0.0
 40
0.843790497363161
 40
1.0
 40
1.0
 40
1.0
 40
1.0
 10
853.4443559984739
 20
281.4293663806919
 30
0.0
 10
853.4378546596057
 20
281.3825631141792
 30
0.0
 10
853.4301497389078
 20
281.3270952383746
 30
0.0
 10
853.422220846579
 20
281.2638755331487
 30
0.0
 10
853.4209822782523
 20
281.2540000144386
 30
0.0
  0
LINE
  5
17E
330
1F
100
AcDbEntity
  8
0
370
    15
100
AcDbLine
 10
853.4443559985001
 20
281.4293663807
 30
0.0
 11
853.4638080861999
 21
281.5193423729
 31
0.0
  0
SPLINE
  5
17F
330
1F
100
AcDbEntity
  8
0
370
    15
100
AcDbSpline
210
0.0
220
0.0
230
1.0
 70
     8
 71
     3
 72
    10
 73
     6
 74
     0
 42
0.000000001
 43
0.0000000001
 40
0.0
 40
0.0
 40
0.0
 40
0.0
 40
0.6702717026429888
 40
0.9730419538867675
 40
1.0
 40
1.0
 40
1.0
 40
1.0
 10
853.4638080861506
 20
281.5193423729147
 30
0.0
 10
854.8189893669661
 20
282.2771551381829
 30
0.0
 10
856.7863232647809
 20
283.3772815658529
 30
0.0
 10
858.8078962032463
 20
284.5067191985294
 30
0.0
 10
859.4744463676949
 20
284.8790462764895
 30
0.0
 10
859.5289424185768
 20
284.9094871292076
 30
0.0
  0
SPLINE
  5
180
330
1F
100
AcDbEntity
  8
0
370
    15
100
AcDbSpline
210
0.0
220
0.0
230
1.0
 70
     8
 71
     3
 72
    14
 73
    10
 74
     0
 42
0.000000001
 43
0.0000000001
 40
0.0
 40
0.0
 40
0.0
 40
0.0
 40
0.0048204885156055
 40
0.0508472209066456
 40
0.1378824394935471
 40
0.3673003023991014
 40
0.5813001013053128
 40
0.7898191006744763
 40
1.0
 40
1.0
 40
1.0
 40
1.0
 10
859.6963556277627
 20
283.5466039567956
 30
0.0
 10
859.695454824982
 20
283.5485144536205
 30
0.0
 10
859.685953024941
 20
283.5686666547475
 30
0.0
 10
859.660903815673
 20
283.6248358766362
 30
0.0
 10
859.5994403130237
 20
283.7811669485514
 30
0.0
 10
859.5271062817877
 20
284.0376324510322
 30
0.0
 10
859.4799456958503
 20
284.365602477525
 30
0.0
 10
859.4751846606142
 20
284.6732180775873
 30
0.0
 10
859.5109758119479
 20
284.830522654686
 30
0.0
 10
859.5289424185768
 20
284.9094871292076
 30
0.0
  0
ARC
  5
181
330
1F
100
AcDbEntity
  8
0
370
    15
100
AcDbCircle
 10
859.6250055075
 20
284.7132105566
 30
0.0
 40
0.2185237057975641
100
AcDbArc
 50
78.3510233364
 51
116.0783821635
  0
ARC
  5
182
330
1F
100
AcDbEntity
  8
0
370
    15
100
AcDbCircle
 10
861.5564776618999
 20
284.2485509453
 30
0.0
 40
0.265246457656557
100
AcDbArc
 50
48.8371615525
 51
81.24561687739999
  0
ARC
  5
183
330
1F
100
AcDbEntity
  8
0
370
    15
100
AcDbCircle
 10
858.0567659143
 20
280.4423723392
 30
0.0
 40
4.717533896506004
100
AcDbArc
 50
120.125141177
 51
166.8035295717
  0
ARC
  5
184
330
1F
100
AcDbEntity
  8
0
370
    15
100
AcDbCircle
 10
863.8257762603
 20
283.9406071443
 30
0.0
 40
4.404167279956507
100
AcDbArc
 50
90.21657553590001
 51
167.204159012
  0
LINE
  5
185
330
1F
100
AcDbEntity
  8
0
370
    15
100
AcDbLine
 10
859.5289424185999
 20
284.9094871292
 30
0.0
 11
859.5309845651
 21
284.9160320388
 31
0.0
  0
ARC
  5
186
330
1F
100
AcDbEntity
  8
0
370
    15
100
AcDbCircle
 10
859.6293532225999
 20
284.7205474425
 30
0.0
 40
0.2188392564700869
100
AcDbArc
 50
78.8645612976
 51
116.7117296811
  0
SPLINE
  5
187
330
1F
100
AcDbEntity
  8
0
370
    15
100
AcDbSpline
210
0.0
220
0.0
230
1.0
 70
     8
 71
     3
 72
    11
 73
     7
 74
     0
 42
0.000000001
 43
0.0000000001
 40
0.0
 40
0.0
 40
0.0
 40
0.0
 40
0.287529714589166
 40
0.7438898054235992
 40
0.9904698784650571
 40
1.0
 40
1.0
 40
1.0
 40
1.0
 10
846.8861120995489
 20
274.5201138825271
 30
0.0
 10
846.8629675748015
 20
274.4786816887029
 30
0.0
 10
846.8030886296443
 20
274.3714893359185
 30
0.0
 10
846.7260194780099
 20
274.1679475722914
 30
0.0
 10
846.6913595251433
 20
274.0132052173646
 30
0.0
 10
846.6817258000309
 20
273.9561462683578
 30
0.0
 10
846.6813673192943
 20
273.9540230466735
 30
0.0
  0
SPLINE
  5
188
330
1F
100
AcDbEntity
  8
0
370
    15
100
AcDbSpline
210
0.0
220
0.0
230
1.0
 70
     8
 71
     3
 72
     9
 73
     5
 74
     0
 42
0.000000001
 43
0.0000000001
 40
0.0
 40
0.0
 40
0.0
 40
0.0
 40
0.3756494673013769
 40
1.0
 40
1.0
 40
1.0
 40
1.0
 10
846.8861120995489
 20
274.5201138825271
 30
0.0
 10
846.8999762224036
 20
274.5422576666566
 30
0.0
 10
846.9368832968488
 20
274.601205664876
 30
0.0
 10
846.9953882380472
 20
274.6288623406382
 30
0.0
 10
847.0319158292499
 20
274.6461298008831
 30
0.0
  0
LINE
  5
189
330
1F
100
AcDbEntity
  8
0
370
    15
100
AcDbLine
 10
852.5981236714999
 20
277.6366510968
 30
0.0
 11
852.59816055
 21
277.6367463166
 31
0.0
  0
SPLINE
  5
18A
330
1F
100
AcDbEntity
  8
0
370
    15
100
AcDbSpline
210
0.0
220
0.0
230
1.0
 70
     8
 71
     3
 72
    12
 73
     8
 74
     0
 42
0.000000001
 43
0.0000000001
 40
0.0
 40
0.0
 40
0.0
 40
0.0
 40
0.1820098464536285
 40
0.3599263776130365
 40
0.5977930350838526
 40
0.9166585842880527
 40
1.0
 40
1.0
 40
1.0
 40
1.0
 10
851.8002061209751
 20
276.7330924947747
 30
0.0
 10
851.7965120047646
 20
276.8119321440163
 30
0.0
 10
851.7892068512697
 20
276.9678383761061
 30
0.0
 10
851.8938267879537
 20
277.2052254753887
 30
0.0
 10
852.1139441203377
 20
277.4412234280124
 30
0.0
 10
852.3794784406687
 20
277.5765326313945
 30
0.0
 10
852.5606251008102
 20
277.6264110050998
 30
0.0
 10
852.5981605500305
 20
277.6367463166201
 30
0.0
  0
SPLINE
  5
18B
330
1F
100
AcDbEntity
  8
0
370
    15
100
AcDbSpline
210
0.0
220
0.0
230
1.0
 70
     8
 71
     3
 72
    12
 73
     8
 74
     0
 42
0.000000001
 43
0.0000000001
 40
0.0
 40
0.0
 40
0.0
 40
0.0
 40
0.2375340902306466
 40
0.4747610367590129
 40
0.7212101298255612
 40
0.9878941564981715
 40
1.0
 40
1.0
 40
1.0
 40
1.0
 10
852.5981605500307
 20
277.6367462215622
 30
0.0
 10
852.5980060061852
 20
277.6403575836341
 30
0.0
 10
852.5976971183279
 20
277.6475756381024
 30
0.0
 10
852.5963927348312
 20
277.6298987824364
 30
0.0
 10
852.5945646411512
 20
277.592630724919
 30
0.0
 10
852.5930966078082
 20
277.5543683175818
 30
0.0
 10
852.5922411608775
 20
277.5320246424564
 30
0.0
 10
852.5922040149559
 20
277.5310544169809
 30
0.0
  0
SPLINE
  5
18C
330
1F
100
AcDbEntity
  8
0
370
    15
100
AcDbSpline
210
0.0
220
0.0
230
1.0
 70
     8
 71
     3
 72
    11
 73
     7
 74
     0
 42
0.000000001
 43
0.0000000001
 40
0.0
 40
0.0
 40
0.0
 40
0.0
 40
0.1753062239775704
 40
0.508763777854838
 40
0.8749377070417827
 40
1.0
 40
1.0
 40
1.0
 40
1.0
 10
852.5981236715381
 20
277.6366510968207
 30
0.0
 10
852.6507308179416
 20
277.6180720913795
 30
0.0
 10
852.8034042937552
 20
277.5641531558016
 30
0.0
 10
853.0377572811376
 20
277.4243807247106
 30
0.0
 10
853.213416096676
 20
277.243399941377
 30
0.0
 10
853.2769135000854
 20
277.1143797343486
 30
0.0
 10
853.2930791053672
 20
277.0815328834824
 30
0.0
  0
ARC
  5
18D
330
1F
100
AcDbEntity
  8
0
370
    15
100
AcDbCircle
 10
853.2627442566001
 20
276.8141559956
 30
0.0
 40
0.269092183486031
100
AcDbArc
 50
83.5272692042
 51
113.4764640742
  0
ARC
  5
18E
330
1F
100
AcDbEntity
  8
0
370
    15
100
AcDbCircle
 10
853.2952083799999
 20
276.539122559
 30
0.0
 40
0.3821554361970664
100
AcDbArc
 50
88.35775626290001
 51
101.6035436913
  0
SPLINE
  5
18F
330
1F
100
AcDbEntity
  8
0
370
    15
100
AcDbSpline
210
0.0
220
0.0
230
1.0
 70
     8
 71
     3
 72
    10
 73
     6
 74
     0
 42
0.000000001
 43
0.0000000001
 40
0.0
 40
0.0
 40
0.0
 40
0.0
 40
0.5124186438542015
 40
0.9906593143112459
 40
1.0
 40
1.0
 40
1.0
 40
1.0
 10
852.6932543769831
 20
280.7400266670689
 30
0.0
 10
852.6914314132106
 20
280.6452910399728
 30
0.0
 10
852.6879070761031
 20
280.4621385873729
 30
0.0
 10
852.6854489841968
 20
280.312045560263
 30
0.0
 10
852.6841304770185
 20
280.2456082287572
 30
0.0
 10
852.6841052181337
 20
280.2443354765821
 30
0.0
  0
SPLINE
  5
190
330
1F
100
AcDbEntity
  8
0
370
    15
100
AcDbSpline
210
0.0
220
0.0
230
1.0
 70
     8
 71
     3
 72
    11
 73
     7
 74
     0
 42
0.000000001
 43
0.0000000001
 40
0.0
 40
0.0
 40
0.0
 40
0.0
 40
0.0142195517083924
 40
0.4299739911580945
 40
0.8456577307719303
 40
1.0
 40
1.0
 40
1.0
 40
1.0
 10
847.4030247572887
 20
277.578626452842
 30
0.0
 10
847.4003690402344
 20
277.5807759690177
 30
0.0
 10
847.3200648727942
 20
277.645773520844
 30
0.0
 10
847.1847698944717
 20
277.8426709904973
 30
0.0
 10
847.0589617120927
 20
278.0775771870477
 30
0.0
 10
847.0130642899812
 20
278.2181173051264
 30
0.0
 10
847.0006369407542
 20
278.2561704472731
 30
0.0
  0
SPLINE
  5
191
330
1F
100
AcDbEntity
  8
0
370
    15
100
AcDbSpline
210
0.0
220
0.0
230
1.0
 70
     8
 71
     3
 72
    11
 73
     7
 74
     0
 42
0.000000001
 43
0.0000000001
 40
0.0
 40
0.0
 40
0.0
 40
0.0
 40
0.0095299729104791
 40
0.2561105105808742
 40
0.7124701244961431
 40
1.0
 40
1.0
 40
1.0
 40
1.0
 10
846.8275714440562
 20
278.7235035538538
 30
0.0
 10
846.8278333625548
 20
278.722474823476
 30
0.0
 10
846.8348722157632
 20
278.6948285054015
 30
0.0
 10
846.8621673396629
 20
278.6094334887728
 30
0.0
 10
846.9284965091782
 20
278.4625586014561
 30
0.0
 10
846.9805262757665
 20
278.3137054929547
 30
0.0
 10
847.0006369407542
 20
278.2561704472731
 30
0.0
  0
SPLINE
  5
192
330
1F
100
AcDbEntity
  8
0
370
    15
100
AcDbSpline
210
0.0
220
0.0
230
1.0
 70
     8
 71
     3
 72
    12
 73
     8
 74
     0
 42
0.000000001
 43
0.0000000001
 40
0.0
 40
0.0
 40
0.0
 40
0.0
 40
0.0833414958630499
 40
0.4022069726476238
 40
0.640073779205157
 40
0.8179901964489857
 40
1.0
 40
1.0
 40
1.0
 40
1.0
 10
852.6932965238318
 20
280.740285577
 30
0.0
 10
852.656537676629
 20
280.7552857561672
 30
0.0
 10
852.4791390770678
 20
280.8276767852645
 30
0.0
 10
852.2226006054856
 20
280.9858289426416
 30
0.0
 10
852.0168252800562
 20
281.2177130312001
 30
0.0
 10
851.9259459129697
 20
281.4285484167641
 30
0.0
 10
851.9418032996604
 20
281.5516403489122
 30
0.0
 10
851.9498221648325
 20
281.6138862679218
 30
0.0
  0
LINE
  5
193
330
1F
100
AcDbEntity
  8
0
370
    15
100
AcDbLine
 10
852.6932965238
 20
280.740285577
 30
0.0
 11
852.693254377
 21
280.7400266671
 31
0.0
  0
LINE
  5
194
330
1F
100
AcDbEntity
  8
0
370
    15
100
AcDbLine
 10
853.0676165148999
 20
280.0075351812
 30
0.0
 11
852.8259155339
 21
280.1567742568
 31
0.0
  0
LINE
  5
195
330
1F
100
AcDbEntity
  8
0
370
    15
100
AcDbLine
 10
852.8259155339
 20
280.1567742568
 30
0.0
 11
852.6841052181
 21
280.2443354766
 31
0.0
  0
SPLINE
  5
196
330
1F
100
AcDbEntity
  8
0
370
    15
100
AcDbSpline
210
0.0
220
0.0
230
1.0
 70
     8
 71
     3
 72
    11
 73
     7
 74
     0
 42
0.000000001
 43
0.0000000001
 40
0.0
 40
0.0
 40
0.0
 40
0.0
 40
0.0664165617267012
 40
0.4074673243408075
 40
0.8308271247953523
 40
1.0
 40
1.0
 40
1.0
 40
1.0
 10
853.4209822782523
 20
281.2540000144387
 30
0.0
 10
853.4117914834123
 20
281.2391259719476
 30
0.0
 10
853.3554057193111
 20
281.1478733364848
 30
0.0
 10
853.1836114011721
 20
280.9767608622864
 30
0.0
 10
852.9267175713014
 20
280.8264007094585
 30
0.0
 10
852.7451059616179
 20
280.7592101232976
 30
0.0
 10
852.6932543769831
 20
280.7400266670689
 30
0.0
  0
SPLINE
  5
197
330
1F
100
AcDbEntity
  8
0
370
    15
100
AcDbSpline
210
0.0
220
0.0
230
1.0
 70
     8
 71
     3
 72
    11
 73
     7
 74
     0
 42
0.000000001
 43
0.0000000001
 40
0.0
 40
0.0
 40
0.0
 40
0.0
 40
0.1851607542653027
 40
0.3691472405091681
 40
0.6216909794936454
 40
1.0
 40
1.0
 40
1.0
 40
1.0
 10
852.0872465742138
 20
281.6343909246135
 30
0.0
 10
852.0814005233283
 20
281.5842417967048
 30
0.0
 10
852.0697454965333
 20
281.4842615808382
 30
0.0
 10
852.1562209876371
 20
281.3205028454886
 30
0.0
 10
852.3510234775836
 20
281.1360715672112
 30
0.0
 10
852.5682047216813
 20
281.0490318573395
 30
0.0
 10
852.6984437077063
 20
280.9968359893001
 30
0.0
  0
ARC
  5
198
330
1F
100
AcDbEntity
  8
0
370
    15
100
AcDbCircle
 10
856.9026639756
 20
280.6274174418
 30
0.0
 40
4.919577252611997
100
AcDbArc
 50
83.1405255037
 51
168.1888233683
  0
ARC
  5
199
330
1F
100
AcDbEntity
  8
0
370
    15
100
AcDbCircle
 10
857.8961576409
 20
280.5173827214
 30
0.0
 40
4.624755566114333
100
AcDbArc
 50
110.2063535917
 51
167.1869653328
  0
LINE
  5
19A
330
1F
100
AcDbEntity
  8
0
370
    15
100
AcDbLine
 10
853.3578008596
 20
281.4629113613
 30
0.0
 11
853.3865634494999
 21
281.5430163185
 31
0.0
  0
SPLINE
  5
19B
330
1F
100
AcDbEntity
  8
0
370
    15
100
AcDbSpline
210
0.0
220
0.0
230
1.0
 70
     8
 71
     3
 72
     9
 73
     5
 74
     0
 42
0.000000001
 43
0.0000000001
 40
0.0
 40
0.0
 40
0.0
 40
0.0
 40
0.845027729638976
 40
1.0
 40
1.0
 40
1.0
 40
1.0
 10
853.2870435449515
 20
281.3507369151171
 30
0.0
 10
853.3101799006018
 20
281.3815256918281
 30
0.0
 10
853.3375593046601
 20
281.4179609183078
 30
0.0
 10
853.3550848812225
 20
281.4568799851089
 30
0.0
 10
853.3578008596116
 20
281.4629113612514
 30
0.0
  0
SPLINE
  5
19C
330
1F
100
AcDbEntity
  8
0
370
    15
100
AcDbSpline
210
0.0
220
0.0
230
1.0
 70
     8
 71
     3
 72
    11
 73
     7
 74
     0
 42
0.000000001
 43
0.0000000001
 40
0.0
 40
0.0
 40
0.0
 40
0.0
 40
0.0978051459748982
 40
0.5636667418911431
 40
0.9299072812502709
 40
1.0
 40
1.0
 40
1.0
 40
1.0
 10
852.6984437077061
 20
280.9968359893001
 30
0.0
 10
852.7221635005583
 20
281.0039315077176
 30
0.0
 10
852.8588644708612
 20
281.0448241183115
 30
0.0
 10
853.0678042523401
 20
281.1400002133885
 30
0.0
 10
853.2258559235819
 20
281.26841559388
 30
0.0
 10
853.2785747717612
 20
281.3393430975006
 30
0.0
 10
853.2870435449515
 20
281.3507369151171
 30
0.0
  0
SPLINE
  5
19D
330
1F
100
AcDbEntity
  8
0
370
    15
100
AcDbSpline
210
0.0
220
0.0
230
1.0
 70
     8
 71
     3
 72
    12
 73
     8
 74
     0
 42
0.000000001
 43
0.0000000001
 40
0.0
 40
0.0
 40
0.0
 40
0.0
 40
0.0121060516544841
 40
0.2787902584436065
 40
0.5252400959836553
 40
0.7624662243430784
 40
1.0
 40
1.0
 40
1.0
 40
1.0
 10
852.6984437077061
 20
280.9968359893001
 30
0.0
 10
852.6984264420708
 20
280.9960246801299
 30
0.0
 10
852.6980288317606
 20
280.9773410415954
 30
0.0
 10
852.6970518190013
 20
280.9360841677812
 30
0.0
 10
852.6956693792698
 20
280.8684715180175
 30
0.0
 10
852.6943316551232
 20
280.8000046824448
 30
0.0
 10
852.6936417166236
 20
280.7602005432561
 30
0.0
 10
852.6932965238318
 20
280.740285577
 30
0.0
  0
ARC
  5
19E
330
1F
100
AcDbEntity
  8
0
370
    15
100
AcDbCircle
 10
852.0494766052001
 20
281.4167604125
 30
0.0
 40
0.2208837032947658
100
AcDbArc
 50
80.15433500189999
 51
116.8182922451
  0
ARC
  5
19F
330
1F
100
AcDbEntity
  8
0
370
    15
100
AcDbCircle
 10
853.1855030800999
 20
281.0690552904
 30
0.0
 40
0.2994244540968021
100
AcDbArc
 50
38.1459950346
 51
70.17680362829999
  0
ARC
  5
1A0
330
1F
100
AcDbEntity
  8
0
370
    15
100
AcDbCircle
 10
853.2999500661
 20
281.1852002938
 30
0.0
 40
0.2836726128511124
100
AcDbArc
 50
59.39886802989999
 51
78.23283396749999
  0
ARC
  5
1A1
330
1F
100
AcDbEntity
  8
0
370
    15
100
AcDbCircle
 10
853.3446748911998
 20
281.2684840805
 30
0.0
 40
0.2777095623671225
100
AcDbArc
 50
64.59684658010001
 51
81.32463151359999
  0
ARC
  5
1A2
330
1F
100
AcDbEntity
  8
0
370
    15
100
AcDbCircle
 10
856.2709561128999
 20
276.3035130862
 30
0.0
 40
9.473736766604524
100
AcDbArc
 50
168.1053574349
 51
174.0588371286
  0
ARC
  5
1A3
330
1F
100
AcDbEntity
  8
0
370
    15
100
AcDbCircle
 10
860.6748404874
 20
276.171255457
 30
0.0
 40
13.88723511190142
100
AcDbArc
 50
182.1885776337
 51
186.8284121262
  0
LINE
  5
1A4
330
1F
100
AcDbEntity
  8
0
370
    15
100
AcDbLine
 10
875.2171775704999
 20
275.0681168444
 30
0.0
 11
875.1609339182
 21
275.0385444845
 31
0.0
  0
SPLINE
  5
1A5
330
1F
100
AcDbEntity
  8
0
370
    15
100
AcDbSpline
210
0.0
220
0.0
230
1.0
 70
     8
 71
     3
 72
     9
 73
     5
 74
     0
 42
0.000000001
 43
0.0000000001
 40
0.0
 40
0.0
 40
0.0
 40
0.0
 40
0.2496800892407037
 40
1.0
 40
1.0
 40
1.0
 40
1.0
 10
875.7585861082597
 20
272.3866609639054
 30
0.0
 10
875.7635701903097
 20
272.4044818558456
 30
0.0
 10
875.7835320625808
 20
272.4758567580029
 30
0.0
 10
875.7984657099051
 20
272.5210233185151
 30
0.0
 10
875.8096707228329
 20
272.5549126881679
 30
0.0
  0
LINE
  5
1A6
330
1F
100
AcDbEntity
  8
0
370
    15
100
AcDbLine
 10
875.8045623931
 20
270.7917131187
 30
0.0
 11
875.8063128044
 21
270.8001481631
 31
0.0
  0
ARC
  5
1A7
330
1F
100
AcDbEntity
  8
0
370
    15
100
AcDbCircle
 10
875.6636285951
 20
272.4385489964
 30
0.0
 40
0.1867319250606335
100
AcDbArc
 50
357.4333094729
 51
38.5471949102
  0
LWPOLYLINE
  5
1A8
330
1F
100
AcDbEntity
  8
0
370
    15
100
AcDbPolyline
 90
        3
 70
   128
 43
0.0
 10
875.8043694394999
 20
270.7801327753
 10
875.8054356230999
 20
270.786415639
 10
875.8063128044
 20
270.8001481631
  0
SPLINE
  5
1A9
330
1F
100
AcDbEntity
  8
0
370
    15
100
AcDbSpline
210
0.0
220
0.0
230
1.0
 70
     8
 71
     3
 72
     9
 73
     5
 74
     0
 42
0.000000001
 43
0.0000000001
 40
0.0
 40
0.0
 40
0.0
 40
0.0
 40
0.1346330049559387
 40
1.0
 40
1.0
 40
1.0
 40
1.0
 10
875.6501389743187
 20
275.5376689803632
 30
0.0
 10
875.6452484433125
 20
275.5224178920748
 30
0.0
 10
875.6089235391224
 20
275.4091389208937
 30
0.0
 10
875.5237262863907
 20
275.3231230602192
 30
0.0
 10
875.4499993958086
 20
275.2486877733411
 30
0.0
  0
SPLINE
  5
1AA
330
1F
100
AcDbEntity
  8
0
370
    15
100
AcDbSpline
210
0.0
220
0.0
230
1.0
 70
     8
 71
     3
 72
    15
 73
    11
 74
     0
 42
0.000000001
 43
0.0000000001
 40
0.0
 40
0.0
 40
0.0
 40
0.0
 40
0.0055932090432411
 40
0.0190915092472499
 40
0.0514695277012702
 40
0.1400208804565481
 40
0.4280364763127217
 40
0.6777835599526413
 40
0.9211343506532985
 40
1.0
 40
1.0
 40
1.0
 40
1.0
 10
874.9549267081315
 20
274.738018368115
 30
0.0
 10
874.9571373567244
 20
274.7383594222482
 30
0.0
 10
874.9646830460998
 20
274.7395235550542
 30
0.0
 10
874.9849717428363
 20
274.742954771999
 30
0.0
 10
875.0375278615797
 20
274.753278992809
 30
0.0
 10
875.1930881851873
 20
274.7957574366133
 30
0.0
 10
875.4095666137871
 20
274.9134596821988
 30
0.0
 10
875.5926601009736
 20
275.1404293750205
 30
0.0
 10
875.6794988981734
 20
275.3440380080223
 30
0.0
 10
875.6703758729573
 20
275.4702935914216
 30
0.0
 10
875.6681429226226
 20
275.5011958897865
 30
0.0
  0
LWPOLYLINE
  5
1AB
330
1F
100
AcDbEntity
  8
0
370
    15
100
AcDbPolyline
 90
        8
 70
   128
 43
0.0
 10
457.9479780725
 20
49.114291966
 10
457.7239807434999
 20
50.9881161034
 10
457.7490541670999
 20
52.7369892354
 10
458.0225286035
 20
54.3141964915
 10
458.5370994769999
 20
55.67760815999999
 10
459.2790216466
 20
56.7908057141
 10
460.2284768738999
 20
57.62405414569999
 10
460.3604169246
 20
57.7072547024
  0
LINE
  5
1AC
330
1F
100
AcDbEntity
  8
0
370
    15
100
AcDbLine
 10
459.3397241389999
 20
49.9294187197
 30
0.0
 11
457.9479780725
 21
49.114291966
 31
0.0
  0
LWPOLYLINE
  5
1AD
330
1F
100
AcDbEntity
  8
0
370
    15
100
AcDbPolyline
 90
       14
 70
   128
 43
0.0
 10
459.3397241389999
 20
49.9294187197
 10
459.8235976187999
 20
47.9269077237
 10
460.5496640123
 20
45.9019635546
 10
461.4975677087
 20
43.91135380779999
 10
462.6407344616001
 20
42.010885981
 10
463.9471171901999
 20
40.2538364282
 10
465.3800916003
 20
38.6894637384
 10
466.8994851598999
 20
37.3616245999
 10
468.4627025514999
 20
36.3075438567
 10
470.0259199431999
 20
35.5567722168
 10
471.5453135026999
 20
35.1303568919
 10
472.9782879127999
 20
35.0402525443
 10
474.2846706415
 20
35.2889847041
 10
475.2615825649
 20
35.7576983194
  0
LWPOLYLINE
  5
1AE
330
1F
100
AcDbEntity
  8
0
370
    15
100
AcDbPolyline
 90
        3
 70
   128
 43
0.0
 10
451.1596741192
 20
50.2426586762
 10
452.488435178
 20
51.0278051615
 10
456.0754484169999
 20
53.147104459
  0
ARC
  5
1AF
330
1F
100
AcDbEntity
  8
0
370
    15
100
AcDbCircle
 10
456.3754235084999
 20
49.0348410555
 30
0.0
 40
5.353771109897737
100
AcDbArc
 50
123.1665897903
 51
166.9617618403
  0
LWPOLYLINE
  5
1B0
330
1F
100
AcDbEntity
  8
0
370
    15
100
AcDbPolyline
 90
       14
 70
   128
 43
0.0
 10
451.0100580753999
 20
45.3618649031
 10
451.4556562898
 20
43.3572533392
 10
452.1526130404
 20
41.3207880875
 10
453.080537155
 20
39.3120489317
 10
454.2122807948
 20
37.3898064596
 10
455.5147320127
 20
35.6102985478
 10
456.9497864357
 20
34.025587283
 10
458.4754587232
 20
32.6820374752
 10
460.0471122345999
 20
31.6189550689
 10
461.6187657461
 20
30.8674449556
 10
463.1444380336
 20
30.4494910349
 10
464.5794924565
 20
30.3773237305
 10
465.8819436744
 20
30.653053475
 10
466.4867147306
 20
30.927646832
  0
LINE
  5
1B1
330
1F
100
AcDbEntity
  8
0
370
    15
100
AcDbLine
 10
455.9292442921999
 20
48.3776239518
 30
0.0
 11
451.0100580753999
 21
45.3618649031
 31
0.0
  0
ARC
  5
1B2
330
1F
100
AcDbEntity
  8
0
370
    15
100
AcDbCircle
 10
467.456907565
 20
50.41123495899999
 30
0.0
 40
11.70566504983196
100
AcDbArc
 50
166.4837087766
 51
190.0046899420999
  0
LINE
  5
1B3
330
1F
100
AcDbEntity
  8
0
370
    15
100
AcDbLine
 10
459.3397241389999
 20
49.9294187197
 30
0.0
 11
459.7832446455
 21
49.6733797813
 31
0.0
  0
LWPOLYLINE
  5
1B4
330
1F
100
AcDbEntity
  8
0
370
    15
100
AcDbPolyline
 90
       12
 70
   128
 43
0.0
 10
464.2508764420999
 20
30.3628971951
 10
463.0330017661
 20
30.4462441007
 10
461.5141786708
 20
30.8623216516
 10
459.9495804758999
 20
31.6104584432
 10
458.3849822811
 20
32.668768276
 10
456.8661591857
 20
34.0062865447
 10
455.4375466451
 20
35.5838842836
 10
454.1409419854
 20
37.3554040814
 10
453.0142790163999
 20
39.2690169171
 10
452.0905208544
 20
41.2687381344
 10
451.3966928487
 20
43.29606177499999
 10
450.9530946339999
 20
45.29167458899999
  0
ARC
  5
1B5
330
1F
100
AcDbEntity
  8
0
370
    15
100
AcDbCircle
 10
451.0487451303999
 20
45.2722584553
 30
0.0
 40
0.0976012485160002
100
AcDbArc
 50
113.3519872022
 51
168.5254146177
  0
SPLINE
  5
1B6
330
1F
100
AcDbEntity
  8
0
370
    15
100
AcDbSpline
210
0.0
220
0.0
230
1.0
 70
     8
 71
     3
 72
    14
 73
    10
 74
     0
 42
0.000000001
 43
0.0000000001
 40
0.0
 40
0.0
 40
0.0
 40
0.0
 40
0.25
 40
0.25
 40
0.5
 40
0.5
 40
0.75
 40
0.75
 40
1.0
 40
1.0
 40
1.0
 40
1.0
 10
450.9530944676346
 20
45.29167466525631
 30
0.0
 10
450.9391992321442
 20
45.37854667802602
 30
0.0
 10
450.9261988351753
 20
45.4518777395901
 30
0.0
 10
450.9035634243105
 20
45.56390629059002
 30
0.0
 10
450.8938996359153
 20
45.60273141578965
 30
0.0
 10
450.8780409440316
 20
45.64921518970159
 30
0.0
 10
450.8716037249687
 20
45.65768093583243
 30
0.0
 10
450.8613745834103
 20
45.65131816129417
 30
0.0
 10
450.8574668228883
 20
45.63687894266674
 30
0.0
 10
450.8544548174456
 20
45.61278842307571
 30
0.0
  0
ARC
  5
1B7
330
1F
100
AcDbEntity
  8
0
370
    15
100
AcDbCircle
 10
469.4886845269
 20
47.7913671711
 30
0.0
 40
18.80509641348507
100
AcDbArc
 50
189.8442404971
 51
237.1946542854
  0
SPLINE
  5
1B8
330
1F
100
AcDbEntity
  8
0
370
    15
100
AcDbSpline
210
0.0
220
0.0
230
1.0
 70
     8
 71
     3
 72
     8
 73
     4
 74
     0
 42
0.000000001
 43
0.0000000001
 40
0.0
 40
0.0
 40
0.0
 40
0.0
 40
0.0001202464489355
 40
0.0001202464489355
 40
0.0001202464489355
 40
0.0001202464489355
 10
450.9430403953582
 20
44.68487927805653
 30
0.0
 10
450.9486877655023
 20
44.64817451357524
 30
0.0
 10
450.9544964458934
 20
44.61169626451668
 30
0.0
 10
450.9604712884778
 20
44.57625385824715
 30
0.0
  0
SPLINE
  5
1B9
330
1F
100
AcDbEntity
  8
0
370
    15
100
AcDbSpline
210
0.0
220
0.0
230
1.0
 70
     8
 71
     3
 72
     8
 73
     4
 74
     0
 42
0.000000001
 43
0.0000000001
 40
0.0
 40
0.0
 40
0.0
 40
0.0
 40
1.0
 40
1.0
 40
1.0
 40
1.0
 10
450.9196983138596
 20
44.8551621065044
 30
0.0
 10
450.9270929778033
 20
44.79774524643222
 30
0.0
 10
450.934678718384
 20
44.73922552705734
 30
0.0
 10
450.9430403953592
 20
44.68487927805996
 30
0.0
  0
SPLINE
  5
1BA
330
1F
100
AcDbEntity
  8
0
370
    15
100
AcDbSpline
210
0.0
220
0.0
230
1.0
 70
     8
 71
     3
 72
    10
 73
     6
 74
     0
 42
0.000000001
 43
0.0000000001
 40
0.0
 40
0.0
 40
0.0
 40
0.0
 40
0.4999999999999999
 40
0.4999999999999999
 40
1.0
 40
1.0
 40
1.0
 40
1.0
 10
450.8544548174456
 20
45.61278842307578
 30
0.0
 10
450.8605322681486
 20
45.49793373490274
 30
0.0
 10
450.8684334423563
 20
45.37562201075709
 30
0.0
 10
450.8897026422062
 20
45.11841784395506
 30
0.0
 10
450.9030213250361
 20
44.98465282318668
 30
0.0
 10
450.9196983138596
 20
44.8551621065044
 30
0.0
  0
SPLINE
  5
1BB
330
1F
100
AcDbEntity
  8
0
370
    15
100
AcDbSpline
210
0.0
220
0.0
230
1.0
 70
     8
 71
     3
 72
    10
 73
     6
 74
     0
 42
0.000000001
 43
0.0000000001
 40
0.0
 40
0.0
 40
0.0
 40
0.0
 40
0.5
 40
0.5
 40
1.0
 40
1.0
 40
1.0
 40
1.0
 10
455.8560776416684
 20
48.78327988833256
 30
0.0
 10
455.8187747710324
 20
48.71971191266247
 30
0.0
 10
455.8169613503575
 20
48.65616556492526
 30
0.0
 10
455.8483299917661
 20
48.52274632873532
 30
0.0
 10
455.8830933130133
 20
48.4518275601686
 30
0.0
 10
455.9292444145101
 20
48.37762369577077
 30
0.0
  0
ARC
  5
1BC
330
1F
100
AcDbEntity
  8
0
370
    15
100
AcDbCircle
 10
469.3701876337999
 20
50.4106937671
 30
0.0
 40
13.61174651531891
100
AcDbArc
 50
180.5981025709
 51
186.8666815975999
  0
SPLINE
  5
1BD
330
1F
100
AcDbEntity
  8
0
370
    15
100
AcDbSpline
210
0.0
220
0.0
230
1.0
 70
     8
 71
     3
 72
    10
 73
     6
 74
     0
 42
0.000000001
 43
0.0000000001
 40
0.0
 40
0.0
 40
0.0
 40
0.0
 40
0.5
 40
0.5
 40
1.0
 40
1.0
 40
1.0
 40
1.0
 10
455.9706027805867
 20
52.51933627909784
 30
0.0
 10
455.9385106072891
 20
52.62575245953284
 30
0.0
 10
455.9421404104551
 20
52.73977578261155
 30
0.0
 10
455.9841327916942
 20
52.95292579280319
 30
0.0
 10
456.0242213522802
 20
53.05572778680631
 30
0.0
 10
456.0754481635083
 20
53.14710449237414
 30
0.0
  0
ARC
  5
1BE
330
1F
100
AcDbEntity
  8
0
370
    15
100
AcDbCircle
 10
469.3877930462
 20
47.73434049399999
 30
0.0
 40
18.68663325421274
100
AcDbArc
 50
189.8338895929
 51
237.3298140858
  0
SPLINE
  5
1BF
330
1F
100
AcDbEntity
  8
0
370
    15
100
AcDbSpline
210
0.0
220
0.0
230
1.0
 70
     8
 71
     3
 72
     8
 73
     4
 74
     0
 42
0.000000001
 43
0.0000000001
 40
0.0
 40
0.0
 40
0.0
 40
0.0
 40
0.0000097420371483
 40
0.0000097420371483
 40
0.0000097420371483
 40
0.0000097420371483
 10
445.1355273515463
 20
41.01376141369192
 30
0.0
 10
445.1359883557656
 20
41.01086497140776
 30
0.0
 10
445.1364682434394
 20
41.00797838476875
 30
0.0
 10
445.1369669245424
 20
41.00510219819642
 30
0.0
  0
SPLINE
  5
1C0
330
1F
100
AcDbEntity
  8
0
370
    15
100
AcDbSpline
210
0.0
220
0.0
230
1.0
 70
     8
 71
     3
 72
    14
 73
    10
 74
     0
 42
0.000000001
 43
0.0000000001
 40
0.0
 40
0.0
 40
0.0
 40
0.0
 40
0.0056429428686179
 40
0.0056429428686179
 40
0.0056429428686179
 40
0.0081919276040767
 40
0.0081919276040767
 40
0.0081919276040767
 40
0.008418877345937
 40
0.008418877345937
 40
0.008418877345937
 40
0.008418877345937
 10
450.9757216163997
 20
44.54280718253023
 30
0.0
 10
449.6709828185265
 20
43.75359033100822
 30
0.0
 10
448.3661758477935
 20
42.96488030393336
 30
0.0
 10
447.0613004226274
 20
42.17665880521101
 30
0.0
 10
446.4718725761692
 20
41.82060972070559
 30
0.0
 10
445.8824307447364
 20
41.46466033535729
 30
0.0
 10
445.2929749033883
 20
41.10880909735914
 30
0.0
 10
445.2404924972188
 20
41.07712575842443
 30
0.0
 10
445.1880099799439
 20
41.04544319755706
 30
0.0
 10
445.1355273515463
 20
41.01376141369193
 30
0.0
  0
LWPOLYLINE
  5
1C1
330
1F
100
AcDbEntity
  8
0
370
    15
100
AcDbPolyline
 90
       13
 70
   128
 43
0.0
 10
445.1369671753
 20
41.00510235069999
 10
445.5958370372
 20
39.0805446299
 10
446.3049327386999
 20
37.133418557
 10
447.2412783203999
 20
35.226815681
 10
448.3745333198999
 20
33.4225139207
 10
449.6679786123999
 20
31.7789772596
 10
451.0797029436999
 20
30.3494593577
 10
452.563963483
 20
29.1802804704
 10
454.0726668896
 20
28.3093245327
 10
455.5569274288999
 20
27.7648126781
 10
456.9686517602
 20
27.5643883614
 10
458.2620970526999
 20
27.71454487530001
 10
459.1707580819
 20
28.0772469814
  0
SPLINE
  5
1C2
330
1F
100
AcDbEntity
  8
0
370
    15
100
AcDbSpline
210
0.0
220
0.0
230
1.0
 70
     8
 71
     3
 72
     8
 73
     4
 74
     0
 42
0.000000001
 43
0.0000000001
 40
0.0
 40
0.0
 40
0.0
 40
0.0
 40
1.0
 40
1.0
 40
1.0
 40
1.0
 10
445.9294780806663
 20
44.68407025825022
 30
0.0
 10
445.8478092024139
 20
44.41035680831895
 30
0.0
 10
445.7595944839479
 20
44.11505960949329
 30
0.0
 10
445.6671910624406
 20
43.79625710667086
 30
0.0
  0
SPLINE
  5
1C3
330
1F
100
AcDbEntity
  8
0
370
    15
100
AcDbSpline
210
0.0
220
0.0
230
1.0
 70
     8
 71
     3
 72
     8
 73
     4
 74
     0
 42
0.000000001
 43
0.0000000001
 40
0.0
 40
0.0
 40
0.0
 40
0.0
 40
1.0
 40
1.0
 40
1.0
 40
1.0
 10
451.0816613067431
 20
48.89458877476439
 30
0.0
 10
451.2893595093229
 20
48.82538486613397
 30
0.0
 10
451.5166183419666
 20
48.78978878193386
 30
0.0
 10
451.7422314305238
 20
48.78551818135748
 30
0.0
  0
LINE
  5
1C4
330
1F
100
AcDbEntity
  8
0
370
    15
100
AcDbLine
 10
451.0816609612
 20
48.894588757
 30
0.0
 11
451.0814034702999
 21
48.8946746898
 31
0.0
  0
SPLINE
  5
1C5
330
1F
100
AcDbEntity
  8
0
370
    15
100
AcDbSpline
210
0.0
220
0.0
230
1.0
 70
     8
 71
     3
 72
    14
 73
    10
 74
     0
 42
0.000000001
 43
0.0000000001
 40
0.0
 40
0.0
 40
0.0
 40
0.0
 40
0.25
 40
0.25
 40
0.5
 40
0.5
 40
0.75
 40
0.75
 40
1.0
 40
1.0
 40
1.0
 40
1.0
 10
451.1596739000345
 20
50.24265883154434
 30
0.0
 10
451.1361693000807
 20
50.15894070045057
 30
0.0
 10
451.1166852382602
 20
50.05524470531396
 30
0.0
 10
451.0874546593283
 20
49.82847116601829
 30
0.0
 10
451.0776799022315
 20
49.70544342781355
 30
0.0
 10
451.0667639458792
 20
49.46288076932888
 30
0.0
 10
451.0654471728627
 20
49.34062924647722
 30
0.0
 10
451.0690801260254
 20
49.11017140841582
 30
0.0
 10
451.0740127037339
 20
48.99890456431315
 30
0.0
 10
451.0814035435297
 20
48.89467468084119
 30
0.0
  0
SPLINE
  5
1C6
330
1F
100
AcDbEntity
  8
0
370
    15
100
AcDbSpline
210
0.0
220
0.0
230
1.0
 70
     8
 71
     3
 72
     9
 73
     5
 74
     0
 42
0.000000001
 43
0.0000000001
 40
0.0
 40
0.0
 40
0.0
 40
0.0
 40
0.4638307308478545
 40
1.0
 40
1.0
 40
1.0
 40
1.0
 10
452.1257424488186
 20
48.54871802229965
 30
0.0
 10
452.592708311647
 20
48.81879720226921
 30
0.0
 10
453.5994675273953
 20
49.40107681853326
 30
0.0
 10
454.6065103823448
 20
49.98318429003967
 30
0.0
 10
455.146455813888
 20
50.29529242760525
 30
0.0
  0
LINE
  5
1C7
330
1F
100
AcDbEntity
  8
0
370
    15
100
AcDbLine
 10
451.7422311520999
 20
48.7855183177
 30
0.0
 11
452.1257424487999
 21
48.54871802229999
 31
0.0
  0
SPLINE
  5
1C8
330
1F
100
AcDbEntity
  8
0
370
    15
100
AcDbSpline
210
0.0
220
0.0
230
1.0
 70
     8
 71
     3
 72
    11
 73
     7
 74
     0
 42
0.000000001
 43
0.0000000001
 40
0.0
 40
0.0
 40
0.0
 40
0.0
 40
0.2330330506053148
 40
0.5083962729256943
 40
0.9195565112829392
 40
1.0
 40
1.0
 40
1.0
 40
1.0
 10
452.1257424488186
 20
48.54871802229965
 30
0.0
 10
452.0732652967598
 20
48.52816466071935
 30
0.0
 10
451.9587785814586
 20
48.48332444429347
 30
0.0
 10
451.7182909523127
 20
48.50956168810576
 30
0.0
 10
451.5170489085226
 20
48.56231789361543
 30
0.0
 10
451.4245528258018
 20
48.63732982595684
 30
0.0
 10
451.4094172457056
 20
48.64960439020569
 30
0.0
  0
SPLINE
  5
1C9
330
1F
100
AcDbEntity
  8
0
370
    15
100
AcDbSpline
210
0.0
220
0.0
230
1.0
 70
     8
 71
     3
 72
    14
 73
    10
 74
     0
 42
0.000000001
 43
0.0000000001
 40
0.0
 40
0.0
 40
0.0
 40
0.0
 40
0.25
 40
0.25
 40
0.5
 40
0.5
 40
0.75
 40
0.75
 40
1.0
 40
1.0
 40
1.0
 40
1.0
 10
445.2813073233825
 20
45.76941768767034
 30
0.0
 10
445.2567579931903
 20
45.68499093660874
 30
0.0
 10
445.2550810726111
 20
45.59060093587901
 30
0.0
 10
445.2957333858937
 20
45.39263217322369
 30
0.0
 10
445.3382591061398
 20
45.28990558791475
 30
0.0
 10
445.4586294286261
 20
45.09278789454259
 30
0.0
 10
445.5373644191645
 20
44.99704156210424
 30
0.0
 10
445.7172176870523
 20
44.82582700814825
 30
0.0
 10
445.8216625396527
 20
44.74749210494227
 30
0.0
 10
445.929478080665
 20
44.68407025825056
 30
0.0
  0
LWPOLYLINE
  5
1CA
330
1F
100
AcDbEntity
  8
0
370
    15
100
AcDbPolyline
 90
       12
 70
   128
 43
0.0
 10
457.0751545414999
 20
27.5634875073
 10
456.8505918520999
 20
27.562801221
 10
455.4461371936
 20
27.7621938915
 10
453.9695198865
 20
28.303901781
 10
452.4685856587999
 20
29.1703726673
 10
450.9919683516001
 20
30.3335308315
 10
449.5875136931999
 20
31.755686994
 10
448.3007292491
 20
33.3907601381
 10
447.1733092832
 20
35.1857709202
 10
446.2417862229
 20
37.0825555321
 10
445.5363414920999
 20
39.0196552444
 10
445.0798351465
 20
40.93430207409999
  0
ARC
  5
1CB
330
1F
100
AcDbEntity
  8
0
370
    15
100
AcDbCircle
 10
445.1740599506
 20
40.916719088
 30
0.0
 40
0.0958513177238019
100
AcDbArc
 50
112.7668668609
 51
169.4297930502
  0
SPLINE
  5
1CC
330
1F
100
AcDbEntity
  8
0
370
    15
100
AcDbSpline
210
0.0
220
0.0
230
1.0
 70
     8
 71
     3
 72
     8
 73
     4
 74
     0
 42
0.000000001
 43
0.0000000001
 40
0.0
 40
0.0
 40
0.0
 40
0.0
 40
1.0
 40
1.0
 40
1.0
 40
1.0
 10
445.0342018942146
 20
40.42805572965906
 30
0.0
 10
445.0446615897925
 20
40.33986790624161
 30
0.0
 10
445.056523729075
 20
40.25491643781113
 30
0.0
 10
445.0693035305031
 20
40.17663618435411
 30
0.0
  0
SPLINE
  5
1CD
330
1F
100
AcDbEntity
  8
0
370
    15
100
AcDbSpline
210
0.0
220
0.0
230
1.0
 70
     8
 71
     3
 72
    10
 73
     6
 74
     0
 42
0.000000001
 43
0.0000000001
 40
0.0
 40
0.0
 40
0.0
 40
0.0
 40
0.5
 40
0.5
 40
1.0
 40
1.0
 40
1.0
 40
1.0
 10
445.0798352275478
 20
40.93430228327053
 30
0.0
 10
445.0813787492196
 20
40.7878707676286
 30
0.0
 10
445.0779963039677
 20
40.67079688241522
 30
0.0
 10
445.0621613198795
 20
40.49830312706382
 30
0.0
 10
445.0495991504991
 20
40.44349463865289
 30
0.0
 10
445.0342018942146
 20
40.42805572965906
 30
0.0
  0
ARC
  5
1CE
330
1F
100
AcDbEntity
  8
0
370
    15
100
AcDbCircle
 10
460.9857077966
 20
42.8522171394
 30
0.0
 40
16.13972275166081
100
AcDbArc
 50
189.5423235386
 51
236.0523107658
  0
SPLINE
  5
1CF
330
1F
100
AcDbEntity
  8
0
370
    15
100
AcDbSpline
210
0.0
220
0.0
230
1.0
 70
     8
 71
     3
 72
    14
 73
    10
 74
     0
 42
0.000000001
 43
0.0000000001
 40
0.0
 40
0.0
 40
0.0
 40
0.0
 40
0.25
 40
0.25
 40
0.5
 40
0.5
 40
0.75
 40
0.75
 40
1.0
 40
1.0
 40
1.0
 40
1.0
 10
450.9606949390383
 20
49.0785697264805
 30
0.0
 10
450.9655297027783
 20
49.16214143769249
 30
0.0
 10
450.9717013016141
 20
49.24971489163191
 30
0.0
 10
450.9873489219631
 20
49.43207950427897
 30
0.0
 10
450.9970041562341
 20
49.52852147859517
 30
0.0
 10
451.0201697808376
 20
49.72044122596656
 30
0.0
 10
451.0340273468298
 20
49.81853344384115
 30
0.0
 10
451.0656532660676
 20
50.00028823361827
 30
0.0
 10
451.0834493617075
 20
50.08381363284717
 30
0.0
 10
451.1020387621591
 20
50.15055795221102
 30
0.0
  0
ARC
  5
1D0
330
1F
100
AcDbEntity
  8
0
370
    15
100
AcDbCircle
 10
451.2128181489
 20
50.14531805989999
 30
0.0
 40
0.110903036363029
100
AcDbArc
 50
118.6327506067
 51
177.2919657785
  0
SPLINE
  5
1D1
330
1F
100
AcDbEntity
  8
0
370
    15
100
AcDbSpline
210
0.0
220
0.0
230
1.0
 70
     8
 71
     3
 72
    10
 73
     6
 74
     0
 42
0.000000001
 43
0.0000000001
 40
0.0
 40
0.0
 40
0.0
 40
0.0
 40
0.5
 40
0.5
 40
1.0
 40
1.0
 40
1.0
 40
1.0
 10
451.0814035266764
 20
48.8946749185127
 30
0.0
 10
451.0382059282067
 20
48.90915287697337
 30
0.0
 10
451.0032455328886
 20
48.93627472901736
 30
0.0
 10
450.9608705104698
 20
49.00299391205293
 30
0.0
 10
450.9539034927873
 20
49.04171705730204
 30
0.0
 10
450.9606949390382
 20
49.0785697264801
 30
0.0
  0
LWPOLYLINE
  5
1D2
330
1F
100
AcDbEntity
  8
0
370
    15
100
AcDbPolyline
 90
        3
 70
   128
 43
0.0
 10
451.1020389623999
 20
50.1505578423
 10
451.6576674518
 20
51.5500866053
 10
451.8393467106999
 20
51.8626269047
  0
SPLINE
  5
1D3
330
1F
100
AcDbEntity
  8
0
370
    15
100
AcDbSpline
210
0.0
220
0.0
230
1.0
 70
     8
 71
     3
 72
     8
 73
     4
 74
     0
 42
0.000000001
 43
0.0000000001
 40
0.0
 40
0.0
 40
0.0
 40
0.0
 40
0.0000097420371484
 40
0.0000097420371484
 40
0.0000097420371484
 40
0.0000097420371484
 10
445.2832105074932
 20
45.77588246402116
 30
0.0
 10
445.2825572954158
 20
45.77371751779206
 30
0.0
 10
445.2819228609853
 20
45.77156245677438
 30
0.0
 10
445.2813073233825
 20
45.76941768767034
 30
0.0
  0
ARC
  5
1D4
330
1F
100
AcDbEntity
  8
0
370
    15
100
AcDbCircle
 10
449.900063438
 20
44.6021156923
 30
0.0
 40
4.763722983759961
100
AcDbArc
 50
122.7994940585
 51
165.7355960012
  0
ARC
  5
1D5
330
1F
100
AcDbEntity
  8
0
370
    15
100
AcDbCircle
 10
445.1698956547
 20
40.9266685603
 30
0.0
 40
0.0936287315612268
100
AcDbArc
 50
111.5353045384
 51
168.744856784
  0
SPLINE
  5
1D6
330
1F
100
AcDbEntity
  8
0
370
    15
100
AcDbSpline
210
0.0
220
0.0
230
1.0
 70
     8
 71
     3
 72
    10
 73
     6
 74
     0
 42
0.000000001
 43
0.0000000001
 40
0.0
 40
0.0
 40
0.0
 40
0.0
 40
0.4542913426375799
 40
0.9054274148346179
 40
1.0
 40
1.0
 40
1.0
 40
1.0
 10
445.0780676130165
 20
40.9449428627684
 30
0.0
 10
445.0740638444496
 20
41.03865544830181
 30
0.0
 10
445.066084115402
 20
41.22542974068513
 30
0.0
 10
445.1342094128866
 20
41.42173247365205
 30
0.0
 10
445.2116252337067
 20
41.49788845194475
 30
0.0
 10
445.2250415763081
 20
41.51108646089288
 30
0.0
  0
SPLINE
  5
1D7
330
1F
100
AcDbEntity
  8
0
370
    15
100
AcDbSpline
210
0.0
220
0.0
230
1.0
 70
     8
 71
     3
 72
     8
 73
     4
 74
     0
 42
0.000000001
 43
0.0000000001
 40
0.0
 40
0.0
 40
0.0
 40
0.0
 40
0.0000119721128104
 40
0.0000119721128104
 40
0.0000119721128104
 40
0.0000119721128104
 10
445.0798352275478
 20
40.93430228327053
 30
0.0
 10
445.0792223743555
 20
40.93783835459677
 30
0.0
 10
445.0786330213414
 20
40.94138549554928
 30
0.0
 10
445.0780672644107
 20
40.94494311627317
 30
0.0
  0
SPLINE
  5
1D8
330
1F
100
AcDbEntity
  8
0
370
    15
100
AcDbSpline
210
0.0
220
0.0
230
1.0
 70
     8
 71
     3
 72
     9
 73
     5
 74
     0
 42
0.000000001
 43
0.0000000001
 40
0.0
 40
0.0
 40
0.0
 40
0.0
 40
0.1818797710469124
 40
1.0
 40
1.0
 40
1.0
 40
1.0
 10
445.0750416010023
 20
40.82041559664487
 30
0.0
 10
445.0657377740405
 20
40.79813613337895
 30
0.0
 10
445.0145840536001
 20
40.67564057965308
 30
0.0
 10
445.0253742694655
 20
40.53946413519372
 30
0.0
 10
445.0342019633397
 20
40.42805543127463
 30
0.0
  0
LINE
  5
1D9
330
1F
100
AcDbEntity
  8
0
370
    15
100
AcDbLine
 10
445.2165101322
 20
45.5254541709
 30
0.0
 11
445.2229882344999
 21
45.672569083
 31
0.0
  0
SPLINE
  5
1DA
330
1F
100
AcDbEntity
  8
0
370
    15
100
AcDbSpline
210
0.0
220
0.0
230
1.0
 70
     8
 71
     3
 72
    12
 73
     8
 74
     0
 42
0.000000001
 43
0.0000000001
 40
0.0
 40
0.0
 40
0.0
 40
0.0
 40
0.5
 40
0.5
 40
0.75
 40
0.75
 40
1.0
 40
1.0
 40
1.0
 40
1.0
 10
445.1434398898014
 20
43.99163413160578
 30
0.0
 10
445.1099406649676
 20
43.9271170643363
 30
0.0
 10
445.1458747519895
 20
43.87511469035798
 30
0.0
 10
445.2882855194153
 20
43.82419322684944
 30
0.0
 10
445.349004005062
 20
43.81203154595806
 30
0.0
 10
445.4935855885016
 20
43.79696535843601
 30
0.0
 10
445.5774882132116
 20
43.79423640814688
 30
0.0
 10
445.6671910624406
 20
43.79625710667086
 30
0.0
  0
SPLINE
  5
1DB
330
1F
100
AcDbEntity
  8
0
370
    15
100
AcDbSpline
210
0.0
220
0.0
230
1.0
 70
     8
 71
     3
 72
    10
 73
     6
 74
     0
 42
0.000000001
 43
0.0000000001
 40
0.0
 40
0.0
 40
0.0
 40
0.0
 40
0.5
 40
0.5
 40
1.0
 40
1.0
 40
1.0
 40
1.0
 10
445.143439889802
 20
43.99163413160488
 30
0.0
 10
445.1680071939077
 20
44.3057951589145
 30
0.0
 10
445.1881809781069
 20
44.6081092770114
 30
0.0
 10
445.2159711506918
 20
45.17197603009289
 30
0.0
 10
445.2238357880887
 20
45.4351864677376
 30
0.0
 10
445.2253257234731
 20
45.68051523033108
 30
0.0
  0
ARC
  5
1DC
330
1F
100
AcDbEntity
  8
0
370
    15
100
AcDbCircle
 10
445.3303526803999
 20
45.67188944499999
 30
0.0
 40
0.1073665969219459
100
AcDbArc
 50
164.0504127298
 51
179.6373112916
  0
LWPOLYLINE
  5
1DD
330
1F
100
AcDbEntity
  8
0
370
    15
100
AcDbPolyline
 90
        3
 70
   128
 43
0.0
 10
445.225325409
 20
45.6805150115
 10
445.7911850458
 20
46.9895910957
 10
445.8266740094
 20
47.0485386649
  0
ARC
  5
1DE
330
1F
100
AcDbEntity
  8
0
370
    15
100
AcDbCircle
 10
844.9662257381
 20
272.7971907763
 30
0.0
 40
0.3163834556572465
100
AcDbArc
 50
189.9258914046
 51
211.0278673433
  0
LWPOLYLINE
  5
1DF
330
1F
100
AcDbEntity
  8
0
370
    15
100
AcDbPolyline
 90
        8
 70
   128
 43
0.0
 10
844.6545780580001
 20
272.7426544173
 10
844.4715040017998
 20
274.659094006
 10
844.5543133394998
 20
276.4318320549
 10
844.9006544086
 20
278.0105353248
 10
845.5006938225
 20
279.3503800931
 10
846.3373950348
 20
280.4133229853
 10
847.3870017109
 20
281.1691847037
 10
847.7975060885
 20
281.3562259906
  0
LINE
  5
1E0
330
1F
100
AcDbEntity
  8
0
370
    15
100
AcDbLine
 10
843.2403405561998
 20
271.9262324856
 30
0.0
 11
844.6545780580001
 21
272.7426544173
 31
0.0
  0
LWPOLYLINE
  5
1E1
330
1F
100
AcDbEntity
  8
0
370
    15
100
AcDbPolyline
 90
        7
 70
   128
 43
0.0
 10
845.7972107311999
 20
280.2566526874
 10
844.9231575329999
 20
279.5969010536
 10
844.0864563207
 20
278.5339581613
 10
843.4864169067999
 20
277.194113393
 10
843.1400758378
 20
275.6154101232
 10
843.0572665000999
 20
273.8426720742
 10
843.2403405561998
 20
271.9262324856
  0
ARC
  5
1E2
330
1F
100
AcDbEntity
  8
0
370
    15
100
AcDbCircle
 10
843.549121466
 20
271.9783090973
 30
0.0
 40
0.3131415394598238
100
AcDbArc
 50
189.5729802191
 51
237.077258226
  0
LINE
  5
1E3
330
1F
100
AcDbEntity
  8
0
370
    15
100
AcDbLine
 10
843.3789266380999
 20
271.7154567732
 30
0.0
 11
843.4535733165999
 21
271.6723641629
 31
0.0
  0
LINE
  5
1E4
330
1F
100
AcDbEntity
  8
0
370
    15
100
AcDbLine
 10
459.7423088603999
 20
49.8745714171
 30
0.0
 11
459.4199565921
 21
50.0606614206
 31
0.0
  0
ARC
  5
1E5
330
1F
100
AcDbEntity
  8
0
370
    15
100
AcDbCircle
 10
459.59015142
 20
50.3235137447
 30
0.0
 40
0.3131415394593331
100
AcDbArc
 50
189.5729802191
 51
237.0772582261
  0
LWPOLYLINE
  5
1E6
330
1F
100
AcDbEntity
  8
0
370
    15
100
AcDbPolyline
 90
        7
 70
   128
 43
0.0
 10
459.2813705101999
 20
50.271437133
 10
459.0982964541
 20
52.1878767216
 10
459.1811057918
 20
53.9606147706
 10
459.5274468608
 20
55.5393180405
 10
460.1274862747
 20
56.8791628088
 10
460.9641874869999
 20
57.942105701
 10
461.8382406851999
 20
58.60185733479999
  0
LINE
  5
1E7
330
1F
100
AcDbEntity
  8
0
370
    15
100
AcDbLine
 10
457.8671568805999
 20
49.4550289824
 30
0.0
 11
459.2813705101999
 21
50.271437133
 31
0.0
  0
LWPOLYLINE
  5
1E8
330
1F
100
AcDbEntity
  8
0
370
    15
100
AcDbPolyline
 90
        7
 70
   128
 43
0.0
 10
460.4240270556999
 20
57.78544918419999
 10
459.5499738574999
 20
57.1256975504
 10
458.7132726452
 20
56.0627546582
 10
458.1132332313
 20
54.7229098899
 10
457.7668921622
 20
53.14420661999999
 10
457.6840828244999
 20
51.371468571
 10
457.8671568805999
 20
49.4550289824
  0
LINE
  5
1E9
330
1F
100
AcDbEntity
  8
0
370
    15
100
AcDbLine
 10
459.4199565921
 20
50.0606614206
 30
0.0
 11
458.0057429624999
 21
49.24425327
 31
0.0
  0
ARC
  5
1EA
330
1F
100
AcDbEntity
  8
0
370
    15
100
AcDbCircle
 10
458.1759377903999
 20
49.5071055941
 30
0.0
 40
0.3131415394589667
100
AcDbArc
 50
189.5729802191
 51
237.0772582261
  0
LINE
  5
1EB
330
1F
100
AcDbEntity
  8
0
370
    15
100
AcDbLine
 10
458.0884008349999
 20
49.1965358959
 30
0.0
 11
458.0057429624999
 21
49.24425327
 31
0.0
  0
LWPOLYLINE
  5
1EC
330
1F
100
AcDbEntity
  8
0
370
    15
100
AcDbPolyline
 90
        7
 70
   128
 43
0.0
 10
843.1105216773
 20
272.9545882834
 10
843.0676556982
 20
274.7964475797
 10
843.2888469689999
 20
276.4685092629
 10
843.7678498536
 20
277.9235735246
 10
844.4911431161999
 20
279.1205643565001
 10
845.4383092427001
 20
280.0256915258
 10
845.7972107311999
 20
280.2566526874
  0
ARC
  5
1ED
330
1F
100
AcDbEntity
  8
0
370
    15
100
AcDbCircle
 10
459.4609932155999
 20
51.33518312439999
 30
0.0
 40
0.3114587611191557
100
AcDbArc
 50
186.524451613
 51
237.16149436
  0
LINE
  5
1EE
330
1F
100
AcDbEntity
  8
0
370
    15
100
AcDbLine
 10
459.1515516312999
 20
51.2997929308
 30
0.0
 11
843.1105216773
 21
272.9545882834
 31
0.0
  0
LWPOLYLINE
  5
1EF
330
1F
100
AcDbEntity
  8
0
370
    15
100
AcDbPolyline
 90
        7
 70
   128
 43
0.0
 10
459.1515516312999
 20
51.2997929308
 10
459.1086856521999
 20
53.1416522271
 10
459.329876923
 20
54.81371391029999
 10
459.8088798076
 20
56.268778172
 10
460.5321730702
 20
57.4657690039
 10
461.4793391966999
 20
58.3708961732
 10
461.8382406851999
 20
58.60185733479999
  0
LINE
  5
1F0
330
1F
100
AcDbEntity
  8
0
370
    15
100
AcDbLine
 10
459.517801818
 20
50.9431984334
 30
0.0
 11
459.2920975416999
 21
51.0734947387
 31
0.0
  0
ARC
  5
1F1
330
1F
100
AcDbEntity
  8
0
370
    15
100
AcDbCircle
 10
459.5470931786
 20
50.9840845419
 30
0.0
 40
0.0502957023117403
100
AcDbArc
 50
234.3816766973
 51
294.3140342442
  0
LWPOLYLINE
  5
1F2
330
1F
100
AcDbEntity
  8
0
370
    15
100
AcDbPolyline
 90
       11
 70
   128
 43
0.0
 10
848.0172623908
 20
275.1833124915
 10
847.9633539374001
 20
275.2383168471
 10
847.6079223199
 20
275.7177500731
 10
847.3704300969
 20
276.2652908826
 10
847.2870339960001
 20
276.7975808095
 10
847.3704300969
 20
277.2335837073
 10
847.6079223199
 20
277.5069217734
 10
847.9633539374001
 20
277.5759824363
 10
848.3826143227
 20
277.4302512118
 10
848.8018747081
 20
277.091914699
 10
848.8753155916
 20
277.0106676512
  0
LWPOLYLINE
  5
1F3
330
1F
100
AcDbEntity
  8
0
370
    15
100
AcDbPolyline
 90
        3
 70
   128
 43
0.0
 10
849.3402427458999
 20
276.226861395
 10
849.3947985485998
 20
276.0649406754
 10
849.4239404602
 20
275.9571606279
  0
LWPOLYLINE
  5
1F4
330
1F
100
AcDbEntity
  8
0
370
    15
100
AcDbPolyline
 90
        8
 70
   128
 43
0.0
 10
847.7274448553
 20
275.0270221259
 10
847.7236957615
 20
275.0309712381
 10
847.3324524936
 20
275.5587098891
 10
847.0710320559
 20
276.1614180281
 10
846.9792329271999
 20
276.7473391089
 10
847.0710320559
 20
277.2272712193
 10
847.3324524936
 20
277.528149698
 10
847.3844235091
 20
277.5547089882
  0
LINE
  5
1F5
330
1F
100
AcDbEntity
  8
0
370
    15
100
AcDbLine
 10
455.5319134389
 20
51.34274075069999
 30
0.0
 11
455.5137534155999
 21
51.3289277097
 31
0.0
  0
LINE
  5
1F6
330
1F
100
AcDbEntity
  8
0
370
    15
100
AcDbLine
 10
875.6719223096
 20
272.0118953884
 30
0.0
 11
875.7585861083001
 21
272.3866609639
 31
0.0
  0
LWPOLYLINE
  5
1F7
330
1F
100
AcDbEntity
  8
0
370
    15
100
AcDbPolyline
 90
        3
 70
   128
 43
0.0
 10
862.674999194
 20
286.2703130498
 10
862.2571033129
 20
285.6903064331
 10
861.7310632283
 20
284.4482396113
  0
ARC
  5
1F8
330
1F
100
AcDbEntity
  8
0
370
    15
100
AcDbCircle
 10
878.9446541819
 20
275.0794758731
 30
0.0
 40
4.171604236408122
100
AcDbArc
 50
178.7122383189
 51
220.2039721025
  0
SPLINE
  5
1F9
330
1F
100
AcDbEntity
  8
0
370
    15
100
AcDbSpline
210
0.0
220
0.0
230
1.0
 70
     8
 71
     3
 72
    11
 73
     7
 74
     0
 42
0.000000001
 43
0.0000000001
 40
0.0
 40
0.0
 40
0.0
 40
0.0
 40
0.1465008214133483
 40
0.4352791426282532
 40
0.7166612762832809
 40
1.0
 40
1.0
 40
1.0
 40
1.0
 10
859.5341534812686
 20
280.7417867840786
 30
0.0
 10
859.524456228747
 20
280.7441419218745
 30
0.0
 10
859.495644023309
 20
280.751139441415
 30
0.0
 10
859.4789586277299
 20
280.6506303842246
 30
0.0
 10
859.4808913735706
 20
280.4682608403045
 30
0.0
 10
859.5097359066825
 20
280.2893649614605
 30
0.0
 10
859.5242081421089
 20
280.1996071114923
 30
0.0
  0
SPLINE
  5
1FA
330
1F
100
AcDbEntity
  8
0
370
    15
100
AcDbSpline
210
0.0
220
0.0
230
1.0
 70
     8
 71
     3
 72
    11
 73
     7
 74
     0
 42
0.000000001
 43
0.0000000001
 40
0.0
 40
0.0
 40
0.0
 40
0.0
 40
0.308575201230654
 40
0.6147105527663511
 40
0.9288920415099203
 40
1.0
 40
1.0
 40
1.0
 40
1.0
 10
859.3831623964783
 20
280.1538309266057
 30
0.0
 10
859.3702312107394
 20
280.2442942359617
 30
0.0
 10
859.3444710838669
 20
280.4245055772408
 30
0.0
 10
859.3667995503606
 20
280.612724389841
 30
0.0
 10
859.4044522975362
 20
280.7150293974894
 30
0.0
 10
859.4446787108646
 20
280.7196148753516
 30
0.0
 10
859.4521027868408
 20
280.7204611585079
 30
0.0
  0
LWPOLYLINE
  5
1FB
330
1F
100
AcDbEntity
  8
0
370
    15
100
AcDbPolyline
 90
        9
 70
   128
 43
0.0
 10
860.7957206097999
 20
281.1390289742
 10
860.8888085100998
 20
281.2029651664
 10
861.0488183620001
 20
281.3927499877999
 10
861.1521940447
 20
281.6485140463001
 10
861.1940412554
 20
281.9581500696
 10
861.1723790924001
 20
282.3070001459
 10
861.0882335678999
 20
282.6785498086
 10
860.9455875591001
 20
283.0552105189
 10
860.7511937814001
 20
283.4191515291
  0
SPLINE
  5
1FC
330
1F
100
AcDbEntity
  8
0
370
    15
100
AcDbSpline
210
0.0
220
0.0
230
1.0
 70
     8
 71
     3
 72
    10
 73
     6
 74
     0
 42
0.000000001
 43
0.0000000001
 40
0.0
 40
0.0
 40
0.0
 40
0.0
 40
0.363977943253085
 40
0.586601978629756
 40
1.0
 40
1.0
 40
1.0
 40
1.0
 10
859.6963556277627
 20
283.5466039567958
 30
0.0
 10
858.3523425568463
 20
282.7848885993772
 30
0.0
 10
856.1862752406309
 20
281.5572764759037
 30
0.0
 10
852.4940885696652
 20
279.462515121941
 30
0.0
 10
850.1461123313259
 20
278.1285928451726
 30
0.0
 10
848.619988007716
 20
277.2615775836294
 30
0.0
  0
LINE
  5
1FD
330
1F
100
AcDbEntity
  8
0
370
    15
100
AcDbLine
 10
852.6841052181
 20
280.2443354766
 30
0.0
 11
847.9842594327999
 21
277.5963697351
 31
0.0
  0
SPLINE
  5
1FE
330
1F
100
AcDbEntity
  8
0
370
    15
100
AcDbSpline
210
0.0
220
0.0
230
1.0
 70
     8
 71
     3
 72
    13
 73
     9
 74
     0
 42
0.000000001
 43
0.0000000001
 40
0.0
 40
0.0
 40
0.0
 40
0.0
 40
0.0083168030220751
 40
0.0362913995267762
 40
0.1072276999894862
 40
0.3319722531219003
 40
0.7309723443761307
 40
1.0
 40
1.0
 40
1.0
 40
1.0
 10
875.2171775704562
 20
275.0681168444461
 30
0.0
 10
875.2190575176413
 20
275.0691955704496
 30
0.0
 10
875.2272608999019
 20
275.0739027249018
 30
0.0
 10
875.2512728364393
 20
275.0882109995057
 30
0.0
 10
875.3221662438573
 20
275.1342386711105
 30
0.0
 10
875.4611604351632
 20
275.251823776741
 30
0.0
 10
875.6112816526533
 20
275.4445868985979
 30
0.0
 10
875.6577781208076
 20
275.6225161899808
 30
0.0
 10
875.6765031451511
 20
275.6941717467317
 30
0.0
  0
LINE
  5
1FF
330
1F
100
AcDbEntity
  8
0
370
    15
100
AcDbLine
 10
875.8096707228
 20
272.5549126882
 30
0.0
 11
875.7988561049002
 21
272.643710508
 31
0.0
  0
SPLINE
  5
200
330
1F
100
AcDbEntity
  8
0
370
    15
100
AcDbSpline
210
0.0
220
0.0
230
1.0
 70
     8
 71
     3
 72
    10
 73
     6
 74
     0
 42
0.000000001
 43
0.0000000001
 40
0.0
 40
0.0
 40
0.0
 40
0.0
 40
0.1434929387826525
 40
0.691253605783628
 40
1.0
 40
1.0
 40
1.0
 40
1.0
 10
875.1365308929196
 20
274.9908594927906
 30
0.0
 10
875.1401844998392
 20
274.9961324551023
 30
0.0
 10
875.1577851495905
 20
275.0215340828199
 30
0.0
 10
875.1854577387577
 20
275.0422671078765
 30
0.0
 10
875.2087730610199
 20
275.0612676796399
 30
0.0
 10
875.2171775704562
 20
275.0681168444461
 30
0.0
  0
SPLINE
  5
201
330
1F
100
AcDbEntity
  8
0
370
    15
100
AcDbSpline
210
0.0
220
0.0
230
1.0
 70
     8
 71
     3
 72
    10
 73
     6
 74
     0
 42
0.000000001
 43
0.0000000001
 40
0.0
 40
0.0
 40
0.0
 40
0.0
 40
0.0786189774965589
 40
0.977180938856107
 40
1.0
 40
1.0
 40
1.0
 40
1.0
 10
875.4499993958086
 20
275.2486877733411
 30
0.0
 10
875.4453674413674
 20
275.2424351680286
 30
0.0
 10
875.3877953673763
 20
275.1647194952462
 30
0.0
 10
875.298048065931
 20
275.1136859005399
 30
0.0
 10
875.2191320172023
 20
275.0692181397068
 30
0.0
 10
875.2171775704564
 20
275.0681168444461
 30
0.0
  0
SPLINE
  5
202
330
1F
100
AcDbEntity
  8
0
370
    15
100
AcDbSpline
210
0.0
220
0.0
230
1.0
 70
     8
 71
     3
 72
    11
 73
     7
 74
     0
 42
0.000000001
 43
0.0000000001
 40
0.0
 40
0.0
 40
0.0
 40
0.0
 40
0.1661825801397321
 40
0.4979659389828854
 40
0.7461292468750497
 40
1.0
 40
1.0
 40
1.0
 40
1.0
 10
450.9645230153586
 20
45.82446067886895
 30
0.0
 10
450.9615094215815
 20
45.82851509300208
 30
0.0
 10
450.9524791907734
 20
45.8406641409898
 30
0.0
 10
450.9576114140779
 20
45.74607522265742
 30
0.0
 10
450.9756210134011
 20
45.58389193289263
 30
0.0
 10
450.9984923825773
 20
45.43643271668102
 30
0.0
 10
451.0100580753631
 20
45.36186490309678
 30
0.0
  0
SPLINE
  5
203
330
1F
100
AcDbEntity
  8
0
370
    15
100
AcDbSpline
210
0.0
220
0.0
230
1.0
 70
     8
 71
     3
 72
    11
 73
     7
 74
     0
 42
0.000000001
 43
0.0000000001
 40
0.0
 40
0.0
 40
0.0
 40
0.0
 40
0.0526225882232631
 40
0.3730533695314683
 40
0.6852818234610706
 40
1.0
 40
1.0
 40
1.0
 40
1.0
 10
445.4469447337179
 20
41.72260789780086
 30
0.0
 10
445.4335558324469
 20
41.71725382804242
 30
0.0
 10
445.3386388984441
 20
41.679297622703
 30
0.0
 10
445.2222901486774
 20
41.53152665998835
 30
0.0
 10
445.1162790959318
 20
41.29582468425565
 30
0.0
 10
445.1290940274301
 20
41.10803096023412
 30
0.0
 10
445.1355269384269
 20
41.01376121618055
 30
0.0
  0
ARC
  5
204
330
1F
100
AcDbEntity
  8
0
370
    15
100
AcDbCircle
 10
443.6463154382
 20
42.4007260444
 30
0.0
 40
2.455900102984025
100
AcDbArc
 50
352.6058144045
 51
34.6273177136
  0
SPLINE
  5
205
330
1F
100
AcDbEntity
  8
0
370
    15
100
AcDbSpline
210
0.0
220
0.0
230
1.0
 70
     8
 71
     3
 72
    10
 73
     6
 74
     0
 42
0.000000001
 43
0.0000000001
 40
0.0
 40
0.0
 40
0.0
 40
0.0
 40
0.3158230832355864
 40
0.5867167057858211
 40
1.0
 40
1.0
 40
1.0
 40
1.0
 10
455.1777867273998
 20
50.11747947407699
 30
0.0
 10
454.2040413597223
 20
49.54615427061025
 30
0.0
 10
452.3950770859752
 20
48.48478143529925
 30
0.0
 10
449.3123382462435
 20
46.67356037755664
 30
0.0
 10
447.2034012954493
 20
45.43327557969353
 30
0.0
 10
445.929478733963
 20
44.6840702579929
 30
0.0
  0
LINE
  5
206
330
1F
100
AcDbEntity
  8
0
370
    15
100
AcDbLine
 10
455.2132766787999
 20
50.83945537149999
 30
0.0
 11
451.7422311520999
 21
48.7855183177
 31
0.0
  0
SPLINE
  5
207
330
1F
100
AcDbEntity
  8
0
370
    15
100
AcDbSpline
210
0.0
220
0.0
230
1.0
 70
     8
 71
     3
 72
    10
 73
     6
 74
     0
 42
0.000000001
 43
0.0000000001
 40
0.0
 40
0.0
 40
0.0
 40
0.0
 40
0.6972975628538129
 40
0.7269543596221894
 40
1.0
 40
1.0
 40
1.0
 40
1.0
 10
445.2813069605255
 20
45.76941741878251
 30
0.0
 10
446.6028551189751
 20
46.55783083162063
 30
0.0
 10
447.9806101068223
 20
47.37977629390161
 30
0.0
 10
449.8756287486021
 20
48.5095574822894
 30
0.0
 10
450.4492290047004
 20
48.8514200450744
 30
0.0
 10
450.9666316748732
 20
49.1597891591683
 30
0.0
  0
SPLINE
  5
208
330
1F
100
AcDbEntity
  8
0
370
    15
100
AcDbSpline
210
0.0
220
0.0
230
1.0
 70
     8
 71
     3
 72
     9
 73
     5
 74
     0
 42
0.000000001
 43
0.0000000001
 40
0.0
 40
0.0
 40
0.0
 40
0.0
 40
0.4764774834733105
 40
1.0
 40
1.0
 40
1.0
 40
1.0
 10
451.0816609611715
 20
48.89458875702504
 30
0.0
 10
451.0791300386841
 20
48.8810775800628
 30
0.0
 10
451.073818302925
 20
48.8527211992665
 30
0.0
 10
451.0747390320169
 20
48.85577258971564
 30
0.0
 10
451.075221054428
 20
48.85737006132248
 30
0.0
  0
SPLINE
  5
209
330
1F
100
AcDbEntity
  8
0
370
    15
100
AcDbSpline
210
0.0
220
0.0
230
1.0
 70
     8
 71
     3
 72
    14
 73
    10
 74
     0
 42
0.000000001
 43
0.0000000001
 40
0.0
 40
0.0
 40
0.0
 40
0.0
 40
0.0073097567940256
 40
0.0318925493723553
 40
0.0942214221744709
 40
0.2916585072246208
 40
0.6422458333445491
 40
0.9813197760900399
 40
1.0
 40
1.0
 40
1.0
 40
1.0
 10
445.6671909931456
 20
43.79625723615215
 30
0.0
 10
445.6653106572077
 20
43.79584032862439
 30
0.0
 10
445.6571067308084
 20
43.79402135649066
 30
0.0
 10
445.6330870101206
 20
43.78879893182804
 30
0.0
 10
445.5623506310923
 20
43.77419002234478
 30
0.0
 10
445.420829546259
 20
43.74998965945116
 30
0.0
 10
445.2693714009144
 20
43.74596332221127
 30
0.0
 10
445.1776358884692
 20
43.7623313990709
 30
0.0
 10
445.1788416476063
 20
43.78944105933979
 30
0.0
 10
445.1789046066233
 20
43.79085659707813
 30
0.0
  0
SPLINE
  5
20A
330
1F
100
AcDbEntity
  8
0
370
    15
100
AcDbSpline
210
0.0
220
0.0
230
1.0
 70
     8
 71
     3
 72
    15
 73
    11
 74
     0
 42
0.000000001
 43
0.0000000001
 40
0.0
 40
0.0
 40
0.0
 40
0.0
 40
0.0055668351519537
 40
0.0189819392629778
 40
0.051143591778399
 40
0.1391161367954395
 40
0.4252373044116213
 40
0.6733417124308404
 40
0.9150851816698759
 40
1.0
 40
1.0
 40
1.0
 40
1.0
 10
445.929478733963
 20
44.6840702579929
 30
0.0
 10
445.9272612201982
 20
44.68504644077104
 30
0.0
 10
445.9196998840981
 20
44.68837505419293
 30
0.0
 10
445.8994073165221
 20
44.69751711322127
 30
0.0
 10
445.8468539105088
 20
44.72231226559144
 30
0.0
 10
445.6912758983771
 20
44.80497162677006
 30
0.0
 10
445.4748842577019
 20
44.96622680391439
 30
0.0
 10
445.2914980898332
 20
45.20555169364631
 30
0.0
 10
445.2044605767706
 20
45.39921188950592
 30
0.0
 10
445.2140240955925
 20
45.49940815319636
 30
0.0
 10
445.2165101322071
 20
45.52545417086193
 30
0.0
  0
ARC
  5
20B
330
1F
100
AcDbEntity
  8
0
370
    15
100
AcDbCircle
 10
445.3413235571999
 20
45.6660138421
 30
0.0
 40
0.1195587368133248
100
AcDbArc
 50
120.1313605821
 51
162.7876855552
  0
ARC
  5
20C
330
1F
100
AcDbEntity
  8
0
370
    15
100
AcDbCircle
 10
445.3408327783
 20
45.6743094637
 30
0.0
 40
0.1167791553955099
100
AcDbArc
 50
119.5660655132
 51
162.0030326257
  0
LINE
  5
20D
330
1F
100
AcDbEntity
  8
0
370
    15
100
AcDbLine
 10
844.7197864766
 20
272.4895186816
 30
0.0
 11
843.3789266380999
 21
271.7154567732
 31
0.0
  0
LINE
  5
20E
330
1F
100
AcDbEntity
  8
0
370
    15
100
AcDbLine
 10
843.1400527886999
 20
272.664202612
 30
0.0
 11
842.8909649139999
 21
272.5204072427
 31
0.0
  0
LINE
  5
20F
330
1F
100
AcDbEntity
  8
0
370
    15
100
AcDbLine
 10
459.5468722569
 20
51.2205730512
 30
0.0
 11
459.2920975416999
 21
51.0734947387
 31
0.0
  0
LINE
  5
210
330
1F
100
AcDbEntity
  8
0
370
    15
100
AcDbLine
 10
459.517801818
 20
50.9431984334
 30
0.0
 11
459.5638023351999
 21
50.96975396680001
 31
0.0
  0
LINE
  5
211
330
1F
100
AcDbEntity
  8
0
370
    15
100
AcDbLine
 10
843.1232440986999
 20
272.3939065511999
 30
0.0
 11
843.1692263103998
 21
272.420451517
 31
0.0
  0
VIEWPORT
  5
298
102
{ACAD_XDICTIONARY
360
299
102
}
330
291
100
AcDbEntity
 67
     1
  8
0
100
AcDbViewport
 10
145.3409271240234
 20
101.8116638660431
 30
0.0
 40
426.8753358107052
 41
222.1517806396485
 68
     1
 69
     1
 12
145.3409271240234
 22
101.8116638660431
 13
0.0
 23
0.0
 14
10.0
 24
10.0
 15
10.0
 25
10.0
 16
0.0
 26
0.0
 36
1.0
 17
0.0
 27
0.0
 37
0.0
 42
50.0
 43
0.0
 44
0.0
 45
222.1517806396485
 50
0.0
 51
0.0
 72
  2000
 90
   557088
  1

281
     0
 71
     1
 74
     0
110
0.0
120
0.0
130
0.0
111
1.0
121
0.0
131
0.0
112
0.0
122
1.0
132
0.0
 79
     0
146
0.0
  0
VIEWPORT
  5
29C
102
{ACAD_XDICTIONARY
360
29D
102
}
330
291
100
AcDbEntity
 67
     1
  8
0
100
AcDbViewport
 10
145.3409210443497
 20
101.8116623163223
 30
0.0
 40
232.5454736709595
 41
162.8986597061157
 68
     2
 69
     2
 12
660.4394476612201
 22
157.9537720908858
 13
0.0
 23
0.0
 14
10.0
 24
10.0
 15
10.0
 25
10.0
 16
0.0
 26
0.0
 36
1.0
 17
0.0
 27
0.0
 37
0.0
 42
50.0
 43
0.0
 44
0.0
 45
307.4561990702144
 50
0.0
 51
0.0
 72
  2000
 90
   819296
  1

281
     0
 71
     1
 74
     0
110
0.0
120
0.0
130
0.0
111
1.0
121
0.0
131
0.0
112
0.0
122
1.0
132
0.0
 79
     0
146
0.0
  0
ENDSEC
  0
SECTION
  2
OBJECTS
  0
DICTIONARY
  5
C
330
0
100
AcDbDictionary
281
     1
  3
ACAD_CIP_PREVIOUS_PRODUCT_INFO
350
252
  3
ACAD_COLOR
350
246
  3
ACAD_DETAILVIEWSTYLE
350
24D
  3
ACAD_GROUP
350
D
  3
ACAD_LAYOUT
350
1A
  3
ACAD_MATERIAL
350
214
  3
ACAD_MLEADERSTYLE
350
249
  3
ACAD_MLINESTYLE
350
17
  3
ACAD_PLOTSETTINGS
350
19
  3
ACAD_PLOTSTYLENAME
350
E
  3
ACAD_SCALELIST
350
47
  3
ACAD_SECTIONVIEWSTYLE
350
24B
  3
ACAD_TABLESTYLE
350
247
  3
ACAD_VISUALSTYLE
350
22D
  3
ACDB_RECOMPOSE_DATA
350
2C3
  3
AcDbVariableDictionary
350
2B7
  3
AcDsDecomposeData
350
2CA
  3
DWGPROPS
350
2C4
  0
DICTIONARY
  5
269
330
2
100
AcDbDictionary
280
     1
281
     1
  3
ACAD_LAYERSTATES
360
26A
  0
DICTIONARY
  5
253
330
10
100
AcDbDictionary
280
     1
281
     1
  3
ADSK_XREC_LAYER_RECONCILED
360
254
  0
DICTIONARY
  5
255
330
6F
100
AcDbDictionary
280
     1
281
     1
  3
ADSK_XREC_LAYER_RECONCILED
360
256
  0
DICTIONARY
  5
257
330
70
100
AcDbDictionary
280
     1
281
     1
  3
ADSK_XREC_LAYER_RECONCILED
360
258
  0
DICTIONARY
  5
259
330
71
100
AcDbDictionary
280
     1
281
     1
  3
ADSK_XREC_LAYER_RECONCILED
360
25A
  0
DICTIONARY
  5
299
330
298
100
AcDbDictionary
280
     1
281
     1
  3
ACAD_XREC_ROUNDTRIP
360
308
  3
ASDK_XREC_ANNOTATION_SCALE_INFO
360
29A
  0
DICTIONARY
  5
29D
330
29C
100
AcDbDictionary
280
     1
281
     1
  3
ACAD_XREC_ROUNDTRIP
360
309
  3
ASDK_XREC_ANNOTATION_SCALE_INFO
360
29E
  0
XRECORD
  5
252
102
{ACAD_REACTORS
330
C
102
}
330
C
100
AcDbXrecord
280
     1
300
ACDLT
300
2013
300
ACDLT_F_S
  0
DICTIONARY
  5
246
102
{ACAD_REACTORS
330
C
102
}
330
C
100
AcDbDictionary
281
     1
  0
DICTIONARY
  5
24D
102
{ACAD_REACTORS
330
C
102
}
330
C
100
AcDbDictionary
281
     1
  3
Metric50
350
24E
  0
DICTIONARY
  5
D
102
{ACAD_REACTORS
330
C
102
}
330
C
100
AcDbDictionary
281
     1
  0
DICTIONARY
  5
1A
102
{ACAD_REACTORS
330
C
102
}
330
C
100
AcDbDictionary
281
     1
  3
Model
350
22
  3
レイアウト1
350
292
  0
DICTIONARY
  5
214
102
{ACAD_REACTORS
330
C
102
}
330
C
100
AcDbDictionary
281
     1
  3
ByBlock
350
21D
  3
ByLayer
350
215
  3
Global
350
225
  0
DICTIONARY
  5
249
102
{ACAD_REACTORS
330
C
102
}
330
C
100
AcDbDictionary
281
     1
  3
Standard
350
24A
  0
DICTIONARY
  5
17
102
{ACAD_REACTORS
330
C
102
}
330
C
100
AcDbDictionary
281
     1
  3
Standard
350
18
  0
DICTIONARY
  5
19
102
{ACAD_REACTORS
330
C
102
}
330
C
100
AcDbDictionary
281
     1
  0
ACDBDICTIONARYWDFLT
  5
E
102
{ACAD_REACTORS
330
C
102
}
330
C
100
AcDbDictionary
281
     1
  3
Normal
350
F
100
AcDbDictionaryWithDefault
340
F
  0
DICTIONARY
  5
47
102
{ACAD_REACTORS
330
C
102
}
330
C
100
AcDbDictionary
281
     1
  3
A0
350
48
  3
A1
350
49
  3
A2
350
4A
  3
A3
350
4B
  3
A4
350
4C
  3
A5
350
4D
  3
A6
350
4E
  3
A7
350
4F
  3
A8
350
50
  3
A9
350
51
  3
B0
350
52
  3
B1
350
53
  3
B2
350
54
  3
B3
350
55
  3
B4
350
56
  3
B5
350
57
  3
B6
350
58
  3
B7
350
59
  3
B8
350
5A
  3
B9
350
5B
  3
C0
350
5C
  3
C1
350
5D
  3
C2
350
5E
  3
C3
350
5F
  3
C4
350
60
  3
C5
350
61
  3
C6
350
62
  3
C7
350
63
  3
C8
350
64
  3
C9
350
65
  3
D0
350
66
  3
D1
350
67
  3
D2
350
68
  0
DICTIONARY
  5
24B
102
{ACAD_REACTORS
330
C
102
}
330
C
100
AcDbDictionary
281
     1
  3
Metric50
350
24C
  0
DICTIONARY
  5
247
102
{ACAD_REACTORS
330
C
102
}
330
C
100
AcDbDictionary
281
     1
  3
Standard
350
248
  0
DICTIONARY
  5
22D
102
{ACAD_REACTORS
330
C
102
}
330
C
100
AcDbDictionary
281
     1
  3
2dWireframe
350
233
  3
Basic
350
232
  3
Brighten
350
239
  3
ColorChange
350
23D
  3
Conceptual
350
236
  3
Dim
350
238
  3
EdgeColorOff
350
245
  3
Facepattern
350
23C
  3
Flat
350
22E
  3
FlatWithEdges
350
22F
  3
Gouraud
350
230
  3
GouraudWithEdges
350
231
  3
Hidden
350
235
  3
JitterOff
350
243
  3
Linepattern
350
23B
  3
OverhangOff
350
244
  3
Realistic
350
237
  3
Shaded
350
242
  3
Shaded with edges
350
241
  3
Shades of Gray
350
23E
  3
Sketchy
350
23F
  3
Thicken
350
23A
  3
Wireframe
350
234
  3
X-Ray
350
240
  0
XRECORD
  5
2C3
102
{ACAD_REACTORS
330
C
102
}
330
C
100
AcDbXrecord
280
     1
 90
        1
330
248
  0
DICTIONARY
  5
2B7
102
{ACAD_REACTORS
330
C
102
}
330
C
100
AcDbDictionary
281
     1
  3
CANNOSCALE
350
2BC
  3
CMLEADERSTYLE
350
2B9
  3
CTABLESTYLE
350
2B8
  3
CVIEWDETAILSTYLE
350
2BA
  3
CVIEWSECTIONSTYLE
350
2BB
  3
DIMASSOC
350
2BF
  3
INDEXCTL
350
2BE
  3
SORTENTS
350
2BD
  3
XCLIPFRAME
350
2C0
  0
DICTIONARY
  5
2CA
102
{ACAD_REACTORS
330
C
102
}
330
C
100
AcDbDictionary
281
     1
  3
AcDsRecords
350
2CC
  3
AcDsSchemas
350
2CB
1001
ACAD
1070
     2
  0
XRECORD
  5
2C4
102
{ACAD_REACTORS
330
C
102
}
330
C
100
AcDbXrecord
280
     1
  1
DWGPROPS COOKIE
  2

  3

  4

  6

  7

  8
j00675
  9

300
=
301
=
302
=
303
=
304
=
305
=
306
=
307
=
308
=
309
=
 40
0.000904837962963
 41
2457121.368104653
 42
2457121.431581019
  1

 90
        0
  0
DICTIONARY
  5
26A
102
{ACAD_REACTORS
330
269
102
}
330
269
100
AcDbDictionary
281
     1
  0
XRECORD
  5
254
102
{ACAD_REACTORS
330
253
102
}
330
253
100
AcDbXrecord
280
     1
290
     1
  0
XRECORD
  5
256
102
{ACAD_REACTORS
330
255
102
}
330
255
100
AcDbXrecord
280
     1
290
     1
  0
XRECORD
  5
258
102
{ACAD_REACTORS
330
257
102
}
330
257
100
AcDbXrecord
280
     1
290
     1
  0
XRECORD
  5
25A
102
{ACAD_REACTORS
330
259
102
}
330
259
100
AcDbXrecord
280
     1
290
     1
  0
XRECORD
  5
308
102
{ACAD_REACTORS
330
299
102
}
330
299
100
AcDbXrecord
280
     1
102
SHADEPLOT
 70
     0
  0
XRECORD
  5
29A
102
{ACAD_REACTORS
330
299
102
}
330
299
100
AcDbXrecord
280
     1
 90
        1
340
48
  0
XRECORD
  5
309
102
{ACAD_REACTORS
330
29D
102
}
330
29D
100
AcDbXrecord
280
     1
102
SHADEPLOT
 70
     0
  0
XRECORD
  5
29E
102
{ACAD_REACTORS
330
29D
102
}
330
29D
100
AcDbXrecord
280
     1
 90
        1
340
48
  0
ACDBDETAILVIEWSTYLE
  5
24E
102
{ACAD_REACTORS
330
24D
102
}
330
24D
100
AcDbModelDocViewStyle
 70
     0
  3
Metric50
290
     0
100
AcDbDetailViewStyle
 70
     0
 71
     0
 90
        3
 71
     1
340
11
 40
5.0
340
0
 40
5.0
300

 40
0.0
280
     1
 71
     2
340
16
 90
       25
 71
     3
340
11
 40
5.0
 90
        0
 40
15.0
 90
        1
300
%<\AcVar ViewDetailId>% (%<\AcVar ViewScale \f "%sn">%)
 71
     4
340
16
 90
       25
340
16
 90
       25
280
     0
  0
LAYOUT
  5
22
102
{ACAD_XDICTIONARY
360
2CD
102
}
102
{ACAD_REACTORS
330
1A
102
}
330
1A
100
AcDbPlotSettings
  1

  2
none_device
  4
Letter_(8.50_x_11.00_Inches)
  6

 40
6.349999999999999
 41
6.349999999999999
 42
6.350005079999999
 43
6.350005079999999
 44
215.9
 45
279.4
 46
0.0
 47
0.0
 48
0.0
 49
0.0
140
0.0
141
0.0
142
1.0
143
1.0
 70
  1712
 72
     1
 73
     0
 74
     0
  7

 75
     0
147
1.0
148
0.0
149
0.0
100
AcDbLayout
  1
Model
 70
     1
 71
     0
 10
0.0
 20
0.0
 11
420.0
 21
297.0
 12
0.0
 22
0.0
 32
0.0
 14
0.0
 24
0.0
 34
0.0
 15
420.0
 25
297.0
 35
0.0
146
0.0
 13
0.0
 23
0.0
 33
0.0
 16
1.0
 26
0.0
 36
0.0
 17
0.0
 27
1.0
 37
0.0
 76
     0
330
1F
331
29
  0
LAYOUT
  5
292
102
{ACAD_XDICTIONARY
360
306
102
}
102
{ACAD_REACTORS
330
1A
102
}
330
1A
100
AcDbPlotSettings
  1

  2
Adobe PDF
  4
A4
  6

 40
3.174999952316284
 41
3.174999952316284
 42
3.175003051757812
 43
3.17498779296875
 44
209.9733276367187
 45
297.0318298339844
 46
0.0
 47
0.0
 48
0.0
 49
0.0
140
0.0
141
0.0
142
1.0
143
1.0
 70
   688
 72
     1
 73
     1
 74
     5
  7

 75
    16
147
1.0
148
0.0
149
0.0
100
AcDbLayout
  1
レイアウト1
 70
     1
 71
     1
 10
-3.17498779296875
 20
-3.174999952316284
 11
293.8568420410156
 21
206.7983276844024
 12
0.0
 22
0.0
 32
0.0
 14
29.06818420886992
 24
20.36233246326446
 34
0.0
 15
261.6136578798294
 25
183.2609921693802
 35
0.0
146
0.0
 13
0.0
 23
0.0
 33
0.0
 16
1.0
 26
0.0
 36
0.0
 17
0.0
 27
1.0
 37
0.0
 76
     0
330
291
331
298
1001
ACAD_PSEXT
1000
Adobe PDF
1000
Adobe PDF Converter
1000
Documents\*.pdf
1000

1070
     0
  0
MATERIAL
  5
21D
102
{ACAD_XDICTIONARY
360
21E
102
}
102
{ACAD_REACTORS
330
214
102
}
330
214
100
AcDbMaterial
  1
ByBlock
 72
     0
 43
0.0008202099737533
 43
0.0
 43
0.0
 43
0.0
 43
0.0
 43
0.0008202099737533
 43
0.0
 43
0.0
 43
0.0
 43
0.0
 43
1.0
 43
0.0
 43
0.0
 43
0.0
 43
0.0
 43
1.0
 77
     0
 47
0.0008202099737533
 47
0.0
 47
0.0
 47
0.0
 47
0.0
 47
0.0008202099737533
 47
0.0
 47
0.0
 47
0.0
 47
0.0
 47
1.0
 47
0.0
 47
0.0
 47
0.0
 47
0.0
 47
1.0
171
     0
 49
0.0008202099737533
 49
0.0
 49
0.0
 49
0.0
 49
0.0
 49
0.0008202099737533
 49
0.0
 49
0.0
 49
0.0
 49
0.0
 49
1.0
 49
0.0
 49
0.0
 49
0.0
 49
0.0
 49
1.0
175
     0
142
0.0008202099737533
142
0.0
142
0.0
142
0.0
142
0.0
142
0.0008202099737533
142
0.0
142
0.0
142
0.0
142
0.0
142
1.0
142
0.0
142
0.0
142
0.0
142
0.0
142
1.0
179
     0
144
0.0008202099737533
144
0.0
144
0.0
144
0.0
144
0.0
144
0.0008202099737533
144
0.0
144
0.0
144
0.0
144
0.0
144
1.0
144
0.0
144
0.0
144
0.0
144
0.0
144
1.0
147
0.0008202099737533
147
0.0
147
0.0
147
0.0
147
0.0
147
0.0008202099737533
147
0.0
147
0.0
147
0.0
147
0.0
147
1.0
147
0.0
147
0.0
147
0.0
147
0.0
147
1.0
  0
MATERIAL
  5
215
102
{ACAD_XDICTIONARY
360
216
102
}
102
{ACAD_REACTORS
330
214
102
}
330
214
100
AcDbMaterial
  1
ByLayer
 72
     0
 43
0.0008202099737533
 43
0.0
 43
0.0
 43
0.0
 43
0.0
 43
0.0008202099737533
 43
0.0
 43
0.0
 43
0.0
 43
0.0
 43
1.0
 43
0.0
 43
0.0
 43
0.0
 43
0.0
 43
1.0
 77
     0
 47
0.0008202099737533
 47
0.0
 47
0.0
 47
0.0
 47
0.0
 47
0.0008202099737533
 47
0.0
 47
0.0
 47
0.0
 47
0.0
 47
1.0
 47
0.0
 47
0.0
 47
0.0
 47
0.0
 47
1.0
171
     0
 49
0.0008202099737533
 49
0.0
 49
0.0
 49
0.0
 49
0.0
 49
0.0008202099737533
 49
0.0
 49
0.0
 49
0.0
 49
0.0
 49
1.0
 49
0.0
 49
0.0
 49
0.0
 49
0.0
 49
1.0
175
     0
142
0.0008202099737533
142
0.0
142
0.0
142
0.0
142
0.0
142
0.0008202099737533
142
0.0
142
0.0
142
0.0
142
0.0
142
1.0
142
0.0
142
0.0
142
0.0
142
0.0
142
1.0
179
     0
144
0.0008202099737533
144
0.0
144
0.0
144
0.0
144
0.0
144
0.0008202099737533
144
0.0
144
0.0
144
0.0
144
0.0
144
1.0
144
0.0
144
0.0
144
0.0
144
0.0
144
1.0
147
0.0008202099737533
147
0.0
147
0.0
147
0.0
147
0.0
147
0.0008202099737533
147
0.0
147
0.0
147
0.0
147
0.0
147
1.0
147
0.0
147
0.0
147
0.0
147
0.0
147
1.0
  0
MATERIAL
  5
225
102
{ACAD_XDICTIONARY
360
226
102
}
102
{ACAD_REACTORS
330
214
102
}
330
214
100
AcDbMaterial
  1
Global
 72
     0
 43
0.0008202099737533
 43
0.0
 43
0.0
 43
0.0
 43
0.0
 43
0.0008202099737533
 43
0.0
 43
0.0
 43
0.0
 43
0.0
 43
1.0
 43
0.0
 43
0.0
 43
0.0
 43
0.0
 43
1.0
 77
     0
 47
0.0008202099737533
 47
0.0
 47
0.0
 47
0.0
 47
0.0
 47
0.0008202099737533
 47
0.0
 47
0.0
 47
0.0
 47
0.0
 47
1.0
 47
0.0
 47
0.0
 47
0.0
 47
0.0
 47
1.0
171
     0
 49
0.0008202099737533
 49
0.0
 49
0.0
 49
0.0
 49
0.0
 49
0.0008202099737533
 49
0.0
 49
0.0
 49
0.0
 49
0.0
 49
1.0
 49
0.0
 49
0.0
 49
0.0
 49
0.0
 49
1.0
175
     0
142
0.0008202099737533
142
0.0
142
0.0
142
0.0
142
0.0
142
0.0008202099737533
142
0.0
142
0.0
142
0.0
142
0.0
142
1.0
142
0.0
142
0.0
142
0.0
142
0.0
142
1.0
179
     0
144
0.0008202099737533
144
0.0
144
0.0
144
0.0
144
0.0
144
0.0008202099737533
144
0.0
144
0.0
144
0.0
144
0.0
144
1.0
144
0.0
144
0.0
144
0.0
144
0.0
144
1.0
147
0.0008202099737533
147
0.0
147
0.0
147
0.0
147
0.0
147
0.0008202099737533
147
0.0
147
0.0
147
0.0
147
0.0
147
1.0
147
0.0
147
0.0
147
0.0
147
0.0
147
1.0
  0
MLEADERSTYLE
  5
24A
102
{ACAD_REACTORS
330
249
102
}
330
249
100
AcDbMLeaderStyle
170
     2
171
     1
172
     0
 90
        2
 40
0.0
 41
0.0
173
     1
 91
-1056964608
340
14
 92
       -2
290
     1
 42
2.0
291
     1
 43
0.36
  3
Standard
 44
4.0
300

342
11
174
     1
178
     6
175
     1
176
     0
 93
-1056964608
 45
4.0
292
     0
297
     0
 46
4.0
 94
-1056964608
 47
1.0
 49
1.0
140
1.0
293
     1
141
0.0
294
     1
177
     0
142
1.0
295
     0
296
     0
143
0.125
1001
ACAD_MLEADERVER
1070
     2
  0
MLINESTYLE
  5
18
102
{ACAD_REACTORS
330
17
102
}
330
17
100
AcDbMlineStyle
  2
STANDARD
 70
     0
  3

 62
   256
 51
90.0
 52
90.0
 71
     2
 49
0.5
 62
   256
  6
BYLAYER
 49
-0.5
 62
   256
  6
BYLAYER
  0
ACDBPLACEHOLDER
  5
F
102
{ACAD_REACTORS
330
E
102
}
330
E
  0
SCALE
  5
48
102
{ACAD_REACTORS
330
47
102
}
330
47
100
AcDbScale
 70
     0
300
1:1
140
1.0
141
1.0
290
     1
  0
SCALE
  5
49
102
{ACAD_REACTORS
330
47
102
}
330
47
100
AcDbScale
 70
     0
300
1:2
140
1.0
141
2.0
290
     0
  0
SCALE
  5
4A
102
{ACAD_REACTORS
330
47
102
}
330
47
100
AcDbScale
 70
     0
300
1:4
140
1.0
141
4.0
290
     0
  0
SCALE
  5
4B
102
{ACAD_REACTORS
330
47
102
}
330
47
100
AcDbScale
 70
     0
300
1:5
140
1.0
141
5.0
290
     0
  0
SCALE
  5
4C
102
{ACAD_REACTORS
330
47
102
}
330
47
100
AcDbScale
 70
     0
300
1:8
140
1.0
141
8.0
290
     0
  0
SCALE
  5
4D
102
{ACAD_REACTORS
330
47
102
}
330
47
100
AcDbScale
 70
     0
300
1:10
140
1.0
141
10.0
290
     0
  0
SCALE
  5
4E
102
{ACAD_REACTORS
330
47
102
}
330
47
100
AcDbScale
 70
     0
300
1:16
140
1.0
141
16.0
290
     0
  0
SCALE
  5
4F
102
{ACAD_REACTORS
330
47
102
}
330
47
100
AcDbScale
 70
     0
300
1:20
140
1.0
141
20.0
290
     0
  0
SCALE
  5
50
102
{ACAD_REACTORS
330
47
102
}
330
47
100
AcDbScale
 70
     0
300
1:30
140
1.0
141
30.0
290
     0
  0
SCALE
  5
51
102
{ACAD_REACTORS
330
47
102
}
330
47
100
AcDbScale
 70
     0
300
1:40
140
1.0
141
40.0
290
     0
  0
SCALE
  5
52
102
{ACAD_REACTORS
330
47
102
}
330
47
100
AcDbScale
 70
     0
300
1:50
140
1.0
141
50.0
290
     0
  0
SCALE
  5
53
102
{ACAD_REACTORS
330
47
102
}
330
47
100
AcDbScale
 70
     0
300
1:100
140
1.0
141
100.0
290
     0
  0
SCALE
  5
54
102
{ACAD_REACTORS
330
47
102
}
330
47
100
AcDbScale
 70
     0
300
2:1
140
2.0
141
1.0
290
     0
  0
SCALE
  5
55
102
{ACAD_REACTORS
330
47
102
}
330
47
100
AcDbScale
 70
     0
300
4:1
140
4.0
141
1.0
290
     0
  0
SCALE
  5
56
102
{ACAD_REACTORS
330
47
102
}
330
47
100
AcDbScale
 70
     0
300
8:1
140
8.0
141
1.0
290
     0
  0
SCALE
  5
57
102
{ACAD_REACTORS
330
47
102
}
330
47
100
AcDbScale
 70
     0
300
10:1
140
10.0
141
1.0
290
     0
  0
SCALE
  5
58
102
{ACAD_REACTORS
330
47
102
}
330
47
100
AcDbScale
 70
     0
300
100:1
140
100.0
141
1.0
290
     0
  0
SCALE
  5
59
102
{ACAD_REACTORS
330
47
102
}
330
47
100
AcDbScale
 70
     0
300
1/128" = 1'-0"
140
0.0078125
141
12.0
290
     0
  0
SCALE
  5
5A
102
{ACAD_REACTORS
330
47
102
}
330
47
100
AcDbScale
 70
     0
300
1/64" = 1'-0"
140
0.015625
141
12.0
290
     0
  0
SCALE
  5
5B
102
{ACAD_REACTORS
330
47
102
}
330
47
100
AcDbScale
 70
     0
300
1/32" = 1'-0"
140
0.03125
141
12.0
290
     0
  0
SCALE
  5
5C
102
{ACAD_REACTORS
330
47
102
}
330
47
100
AcDbScale
 70
     0
300
1/16" = 1'-0"
140
0.0625
141
12.0
290
     0
  0
SCALE
  5
5D
102
{ACAD_REACTORS
330
47
102
}
330
47
100
AcDbScale
 70
     0
300
3/32" = 1'-0"
140
0.09375
141
12.0
290
     0
  0
SCALE
  5
5E
102
{ACAD_REACTORS
330
47
102
}
330
47
100
AcDbScale
 70
     0
300
1/8" = 1'-0"
140
0.125
141
12.0
290
     0
  0
SCALE
  5
5F
102
{ACAD_REACTORS
330
47
102
}
330
47
100
AcDbScale
 70
     0
300
3/16" = 1'-0"
140
0.1875
141
12.0
290
     0
  0
SCALE
  5
60
102
{ACAD_REACTORS
330
47
102
}
330
47
100
AcDbScale
 70
     0
300
1/4" = 1'-0"
140
0.25
141
12.0
290
     0
  0
SCALE
  5
61
102
{ACAD_REACTORS
330
47
102
}
330
47
100
AcDbScale
 70
     0
300
3/8" = 1'-0"
140
0.375
141
12.0
290
     0
  0
SCALE
  5
62
102
{ACAD_REACTORS
330
47
102
}
330
47
100
AcDbScale
 70
     0
300
1/2" = 1'-0"
140
0.5
141
12.0
290
     0
  0
SCALE
  5
63
102
{ACAD_REACTORS
330
47
102
}
330
47
100
AcDbScale
 70
     0
300
3/4" = 1'-0"
140
0.75
141
12.0
290
     0
  0
SCALE
  5
64
102
{ACAD_REACTORS
330
47
102
}
330
47
100
AcDbScale
 70
     0
300
1" = 1'-0"
140
1.0
141
12.0
290
     0
  0
SCALE
  5
65
102
{ACAD_REACTORS
330
47
102
}
330
47
100
AcDbScale
 70
     0
300
1-1/2" = 1'-0"
140
1.5
141
12.0
290
     0
  0
SCALE
  5
66
102
{ACAD_REACTORS
330
47
102
}
330
47
100
AcDbScale
 70
     0
300
3" = 1'-0"
140
3.0
141
12.0
290
     0
  0
SCALE
  5
67
102
{ACAD_REACTORS
330
47
102
}
330
47
100
AcDbScale
 70
     0
300
6" = 1'-0"
140
6.0
141
12.0
290
     0
  0
SCALE
  5
68
102
{ACAD_REACTORS
330
47
102
}
330
47
100
AcDbScale
 70
     0
300
1'-0" = 1'-0"
140
12.0
141
12.0
290
     0
  0
ACDBSECTIONVIEWSTYLE
  5
24C
102
{ACAD_REACTORS
330
24B
102
}
330
24B
100
AcDbModelDocViewStyle
 70
     0
  3
Metric50
290
     0
100
AcDbSectionViewStyle
 70
     0
 71
     0
 90
      102
 71
     1
340
11
 40
5.0
340
0
340
0
 40
5.0
300
I, O, Q, S, X, Z
 40
10.0
 90
        0
 40
2.5
 90
        0
 71
     2
340
16
 90
       25
340
16
 90
       50
 40
5.0
 40
2.5
 40
5.0
 71
     3
340
11
 40
5.0
 90
        0
 40
15.0
 90
        1
300
%<\AcVar ViewSectionStartId>%-%<\AcVar ViewSectionEndId>% (%<\AcVar ViewScale \f "%sn">%)
 71
     4
300
ANSI31
 40
1.0
 90
        0
290
     0
290
     0
 90
        6
 40
0.0
 40
1.570796326794896
 40
0.2617993877991494
 40
1.308996938995747
 40
-0.2617993877991494
 40
1.832595714594046
  0
TABLESTYLE
  5
248
102
{ACAD_XDICTIONARY
360
2C1
102
}
102
{ACAD_REACTORS
330
247
102
}
330
247
100
AcDbTableStyle
  3
Standard
 70
     0
 71
     0
 40
1.5
 41
1.5
280
     0
281
     0
  7
Standard
140
4.5
170
     2
 62
     0
 63
     7
283
     0
274
    -2
284
     1
 64
     0
275
    -2
285
     1
 65
     0
276
    -2
286
     1
 66
     0
277
    -2
287
     1
 67
     0
278
    -2
288
     1
 68
     0
279
    -2
289
     1
 69
     0
  7
Standard
140
6.0
170
     5
 62
     0
 63
     7
283
     0
274
    -2
284
     1
 64
     0
275
    -2
285
     1
 65
     0
276
    -2
286
     1
 66
     0
277
    -2
287
     1
 67
     0
278
    -2
288
     1
 68
     0
279
    -2
289
     1
 69
     0
  7
Standard
140
4.5
170
     5
 62
     0
 63
     7
283
     0
274
    -2
284
     1
 64
     0
275
    -2
285
     1
 65
     0
276
    -2
286
     1
 66
     0
277
    -2
287
     1
 67
     0
278
    -2
288
     1
 68
     0
279
    -2
289
     1
 69
     0
  0
VISUALSTYLE
  5
233
102
{ACAD_XDICTIONARY
360
2DC
102
}
102
{ACAD_REACTORS
330
22D
102
}
330
22D
100
AcDbVisualStyle
  2
2dWireframe
 70
     4
 71
     0
 72
     2
 73
     0
 90
        0
 40
-0.6
 41
-30.0
 62
     5
 63
     7
 74
     1
 91
        4
 64
     7
 65
   257
 75
     1
175
     1
 42
1.0
 92
        0
 66
   257
 43
1.0
 76
     1
 77
     6
 78
     2
 67
     7
 79
     5
170
     0
171
     0
290
     0
174
     0
 93
        1
 44
0.0
173
     0
291
     0
 45
0.0
1001
ACAD
1000
AcDbSavedByObjectVersion
1070
     0
  0
VISUALSTYLE
  5
232
102
{ACAD_XDICTIONARY
360
2DA
102
}
102
{ACAD_REACTORS
330
22D
102
}
330
22D
100
AcDbVisualStyle
  2
Basic
 70
     7
 71
     1
 72
     0
 73
     1
 90
        0
 40
-0.6
 41
-30.0
 62
     5
 63
     7
 74
     0
 91
        4
 64
     7
 65
   257
 75
     1
175
     1
 42
1.0
 92
        8
 66
     7
 43
1.0
 76
     1
 77
     6
 78
     2
 67
     7
 79
     5
170
     0
171
     0
290
     0
174
     0
 93
        1
 44
0.0
173
     0
291
     1
 45
0.0
1001
ACAD
1000
AcDbSavedByObjectVersion
1070
     0
  0
VISUALSTYLE
  5
239
102
{ACAD_XDICTIONARY
360
2E8
102
}
102
{ACAD_REACTORS
330
22D
102
}
330
22D
100
AcDbVisualStyle
  2
Brighten
 70
    12
 71
     2
 72
     2
 73
     0
 90
        0
 40
-0.6
 41
-30.0
 62
     5
 63
     7
 74
     1
 91
        4
 64
     7
 65
   257
 75
     1
175
     1
 42
1.0
 92
        8
 66
     7
 43
1.0
 76
     1
 77
     6
 78
     2
 67
     7
 79
     5
170
     0
171
     0
290
     0
174
     0
 93
        1
 44
50.0
173
     0
291
     1
 45
0.0
1001
ACAD
1000
AcDbSavedByObjectVersion
1070
     0
  0
VISUALSTYLE
  5
23D
102
{ACAD_XDICTIONARY
360
2F0
102
}
102
{ACAD_REACTORS
330
22D
102
}
330
22D
100
AcDbVisualStyle
  2
ColorChange
 70
    16
 71
     2
 72
     2
 73
     3
 90
        0
 40
-0.6
 41
-30.0
 62
     5
 63
     8
 74
     1
 91
        4
 64
     7
 65
   257
 75
     1
175
     1
 42
1.0
 92
        8
 66
     8
 43
1.0
 76
     1
 77
     6
 78
     2
 67
     7
 79
     5
170
     0
171
     0
290
     0
174
     0
 93
        1
 44
0.0
173
     0
291
     1
 45
0.0
1001
ACAD
1000
AcDbSavedByObjectVersion
1070
     0
  0
VISUALSTYLE
  5
236
102
{ACAD_XDICTIONARY
360
2E2
102
}
102
{ACAD_REACTORS
330
22D
102
}
330
22D
100
AcDbVisualStyle
  2
Conceptual
 70
     9
 71
     3
 72
     2
 73
     0
 90
        0
 40
-0.6
 41
-30.0
 62
     5
 63
     7
 74
     2
 91
        2
 64
     7
 65
   257
 75
     1
175
     1
 42
179.0
 92
        8
 66
     7
 43
1.0
 76
     1
 77
     6
 78
     2
 67
     7
 79
     3
170
     0
171
     0
290
     0
174
     0
 93
        1
 44
0.0
173
     0
291
     0
 45
0.0
1001
ACAD
1000
AcDbSavedByObjectVersion
1070
     0
  0
VISUALSTYLE
  5
238
102
{ACAD_XDICTIONARY
360
2E6
102
}
102
{ACAD_REACTORS
330
22D
102
}
330
22D
100
AcDbVisualStyle
  2
Dim
 70
    11
 71
     2
 72
     2
 73
     0
 90
        0
 40
-0.6
 41
-30.0
 62
     5
 63
     7
 74
     1
 91
        4
 64
     7
 65
   257
 75
     1
175
     1
 42
1.0
 92
        8
 66
     7
 43
1.0
 76
     1
 77
     6
 78
     2
 67
     7
 79
     5
170
     0
171
     0
290
     0
174
     0
 93
        1
 44
-50.0
173
     0
291
     1
 45
0.0
1001
ACAD
1000
AcDbSavedByObjectVersion
1070
     0
  0
VISUALSTYLE
  5
245
102
{ACAD_XDICTIONARY
360
300
102
}
102
{ACAD_REACTORS
330
22D
102
}
330
22D
100
AcDbVisualStyle
  2
EdgeColorOff
 70
    22
 71
     2
 72
     2
 73
     0
 90
        0
 40
-0.6
 41
-30.0
 62
     5
 63
     7
 74
     1
 91
        4
 64
     7
 65
   257
 75
     1
175
     1
 42
1.0
 92
        8
 66
     7
 43
1.0
 76
     1
 77
     6
 78
     2
 67
     7
 79
     5
170
     0
171
     0
290
     0
174
     0
 93
        1
 44
0.0
173
     0
291
     1
 45
0.0
1001
ACAD
1000
AcDbSavedByObjectVersion
1070
     0
  0
VISUALSTYLE
  5
23C
102
{ACAD_XDICTIONARY
360
2EE
102
}
102
{ACAD_REACTORS
330
22D
102
}
330
22D
100
AcDbVisualStyle
  2
Facepattern
 70
    15
 71
     2
 72
     2
 73
     0
 90
        0
 40
-0.6
 41
-30.0
 62
     5
 63
     7
 74
     1
 91
        4
 64
     7
 65
   257
 75
     1
175
     1
 42
1.0
 92
        8
 66
     7
 43
1.0
 76
     1
 77
     6
 78
     2
 67
     7
 79
     5
170
     0
171
     0
290
     0
174
     0
 93
        1
 44
0.0
173
     0
291
     1
 45
0.0
1001
ACAD
1000
AcDbSavedByObjectVersion
1070
     0
  0
VISUALSTYLE
  5
22E
102
{ACAD_XDICTIONARY
360
2D2
102
}
102
{ACAD_REACTORS
330
22D
102
}
330
22D
100
AcDbVisualStyle
  2
Flat
 70
     0
 71
     2
 72
     1
 73
     1
 90
        2
 40
-0.6
 41
30.0
 62
     5
 63
     7
 74
     0
 91
        0
 64
     7
 65
   257
 75
     1
175
     1
 42
1.0
 92
        8
 66
     7
 43
1.0
 76
     1
 77
     6
 78
     2
 67
     7
 79
     5
170
     0
171
     0
290
     0
174
     0
 93
       13
 44
0.0
173
     0
291
     1
 45
0.0
1001
ACAD
1000
AcDbSavedByObjectVersion
1070
     0
  0
VISUALSTYLE
  5
22F
102
{ACAD_XDICTIONARY
360
2D4
102
}
102
{ACAD_REACTORS
330
22D
102
}
330
22D
100
AcDbVisualStyle
  2
FlatWithEdges
 70
     1
 71
     2
 72
     1
 73
     1
 90
        2
 40
-0.6
 41
30.0
 62
     5
 63
     7
 74
     1
 91
        0
 64
     7
 65
   257
 75
     1
175
     1
 42
1.0
 92
        0
 66
   257
 43
1.0
 76
     1
 77
     6
 78
     2
 67
     7
 79
     5
170
     0
171
     0
290
     0
174
     0
 93
       13
 44
0.0
173
     0
291
     1
 45
0.0
1001
ACAD
1000
AcDbSavedByObjectVersion
1070
     0
  0
VISUALSTYLE
  5
230
102
{ACAD_XDICTIONARY
360
2D6
102
}
102
{ACAD_REACTORS
330
22D
102
}
330
22D
100
AcDbVisualStyle
  2
Gouraud
 70
     2
 71
     2
 72
     2
 73
     1
 90
        2
 40
-0.6
 41
30.0
 62
     5
 63
     7
 74
     0
 91
        0
 64
     7
 65
   257
 75
     1
175
     1
 42
1.0
 92
        0
 66
     7
 43
1.0
 76
     1
 77
     6
 78
     2
 67
     7
 79
     5
170
     0
171
     0
290
     0
174
     0
 93
       13
 44
0.0
173
     0
291
     1
 45
0.0
1001
ACAD
1000
AcDbSavedByObjectVersion
1070
     0
  0
VISUALSTYLE
  5
231
102
{ACAD_XDICTIONARY
360
2D8
102
}
102
{ACAD_REACTORS
330
22D
102
}
330
22D
100
AcDbVisualStyle
  2
GouraudWithEdges
 70
     3
 71
     2
 72
     2
 73
     1
 90
        2
 40
-0.6
 41
30.0
 62
     5
 63
     7
 74
     1
 91
        0
 64
     7
 65
   257
 75
     1
175
     1
 42
1.0
 92
        0
 66
   257
 43
1.0
 76
     1
 77
     6
 78
     2
 67
     7
 79
     5
170
     0
171
     0
290
     0
174
     0
 93
       13
 44
0.0
173
     0
291
     1
 45
0.0
1001
ACAD
1000
AcDbSavedByObjectVersion
1070
     0
  0
VISUALSTYLE
  5
235
102
{ACAD_XDICTIONARY
360
2E0
102
}
102
{ACAD_REACTORS
330
22D
102
}
330
22D
100
AcDbVisualStyle
  2
Hidden
 70
     6
 71
     1
 72
     2
 73
     2
 90
        0
 40
-0.6
 41
-30.0
 62
     5
 63
     7
 74
     2
 91
        2
 64
     7
 65
   257
 75
     2
175
     1
 42
40.0
 92
        0
 66
   257
 43
1.0
 76
     1
 77
     6
 78
     2
 67
     7
 79
     3
170
     0
171
     0
290
     0
174
     0
 93
        1
 44
0.0
173
     0
291
     0
 45
0.0
1001
ACAD
1000
AcDbSavedByObjectVersion
1070
     0
  0
VISUALSTYLE
  5
243
102
{ACAD_XDICTIONARY
360
2FC
102
}
102
{ACAD_REACTORS
330
22D
102
}
330
22D
100
AcDbVisualStyle
  2
JitterOff
 70
    20
 71
     2
 72
     2
 73
     0
 90
        0
 40
-0.6
 41
-30.0
 62
     5
 63
     7
 74
     1
 91
        4
 64
     7
 65
   257
 75
     1
175
     1
 42
1.0
 92
       10
 66
     7
 43
1.0
 76
     1
 77
     6
 78
     2
 67
     7
 79
     5
170
     0
171
     0
290
     0
174
     0
 93
        1
 44
0.0
173
     0
291
     1
 45
0.0
1001
ACAD
1000
AcDbSavedByObjectVersion
1070
     0
  0
VISUALSTYLE
  5
23B
102
{ACAD_XDICTIONARY
360
2EC
102
}
102
{ACAD_REACTORS
330
22D
102
}
330
22D
100
AcDbVisualStyle
  2
Linepattern
 70
    14
 71
     2
 72
     2
 73
     0
 90
        0
 40
-0.6
 41
-30.0
 62
     5
 63
     7
 74
     1
 91
        4
 64
     7
 65
   257
 75
     7
175
     7
 42
1.0
 92
        8
 66
     7
 43
1.0
 76
     1
 77
     6
 78
     2
 67
     7
 79
     5
170
     0
171
     0
290
     0
174
     0
 93
        1
 44
0.0
173
     0
291
     1
 45
0.0
1001
ACAD
1000
AcDbSavedByObjectVersion
1070
     0
  0
VISUALSTYLE
  5
244
102
{ACAD_XDICTIONARY
360
2FE
102
}
102
{ACAD_REACTORS
330
22D
102
}
330
22D
100
AcDbVisualStyle
  2
OverhangOff
 70
    21
 71
     2
 72
     2
 73
     0
 90
        0
 40
-0.6
 41
-30.0
 62
     5
 63
     7
 74
     1
 91
        4
 64
     7
 65
   257
 75
     1
175
     1
 42
1.0
 92
        9
 66
     7
 43
1.0
 76
     1
 77
     6
 78
     2
 67
     7
 79
     5
170
     0
171
     0
290
     0
174
     0
 93
        1
 44
0.0
173
     0
291
     1
 45
0.0
1001
ACAD
1000
AcDbSavedByObjectVersion
1070
     0
  0
VISUALSTYLE
  5
237
102
{ACAD_XDICTIONARY
360
2E4
102
}
102
{ACAD_REACTORS
330
22D
102
}
330
22D
100
AcDbVisualStyle
  2
Realistic
 70
     8
 71
     2
 72
     3
 73
     0
 90
        2
 40
-0.6
 41
30.0
 62
     5
 63
     7
 74
     0
 91
        0
 64
     7
 65
   257
 75
     1
175
     1
 42
1.0
 92
        8
 66
   257
 43
1.0
 76
     1
 77
     6
 78
     2
 67
     7
 79
     3
170
     0
171
     0
290
     0
174
     0
 93
       13
 44
0.0
173
     0
291
     0
 45
0.0
1001
ACAD
1000
AcDbSavedByObjectVersion
1070
     0
  0
VISUALSTYLE
  5
242
102
{ACAD_XDICTIONARY
360
2FA
102
}
102
{ACAD_REACTORS
330
22D
102
}
330
22D
100
AcDbVisualStyle
  2
Shaded
 70
    27
 71
     2
 72
     2
 73
     1
 90
        2
 40
-0.6
 41
30.0
 62
     5
 63
     7
 74
     0
 91
        4
 64
     7
 65
   257
 75
     1
175
     1
 42
1.0
 92
        8
 66
   257
 43
1.0
 76
     1
 77
     6
 78
     2
 67
     8
 79
     3
170
     0
171
     0
290
     0
174
     0
 93
        5
 44
0.0
173
     0
291
     0
 45
0.0
1001
ACAD
1000
AcDbSavedByObjectVersion
1070
     0
  0
VISUALSTYLE
  5
241
102
{ACAD_XDICTIONARY
360
2F8
102
}
102
{ACAD_REACTORS
330
22D
102
}
330
22D
100
AcDbVisualStyle
  2
Shaded with edges
 70
    26
 71
     2
 72
     2
 73
     1
 90
        2
 40
-0.6
 41
30.0
 62
     5
 63
     7
 74
     1
 91
       10
 64
     7
 65
   257
 75
     2
175
     1
 42
1.0
 92
        8
 66
   257
 43
1.0
 76
     1
 77
     6
 78
     2
 67
     7
 79
     3
170
     0
171
     0
290
     0
174
     0
 93
        5
 44
0.0
173
     0
291
     0
 45
0.0
1001
ACAD
1000
AcDbSavedByObjectVersion
1070
     0
  0
VISUALSTYLE
  5
23E
102
{ACAD_XDICTIONARY
360
2F2
102
}
102
{ACAD_REACTORS
330
22D
102
}
330
22D
100
AcDbVisualStyle
  2
Shades of Gray
 70
    23
 71
     2
 72
     2
 73
     3
 90
        0
 40
-0.6
 41
-30.0
 62
     5
 63
     7
 74
     2
 91
        2
 64
     7
 65
     7
 75
     1
175
     1
 42
40.0
 92
        8
 66
     7
 43
1.0
 76
     1
 77
     6
 78
     2
 67
     7
 79
     3
170
     0
171
     0
290
     0
174
     0
 93
        1
 44
0.0
173
     0
291
     0
 45
0.0
1001
ACAD
1000
AcDbSavedByObjectVersion
1070
     0
  0
VISUALSTYLE
  5
23F
102
{ACAD_XDICTIONARY
360
2F4
102
}
102
{ACAD_REACTORS
330
22D
102
}
330
22D
100
AcDbVisualStyle
  2
Sketchy
 70
    24
 71
     1
 72
     2
 73
     2
 90
        0
 40
-0.6
 41
-30.0
 62
     5
 63
     7
 74
     2
 91
        2
 64
     7
 65
     7
 75
     1
175
     1
 42
40.0
 92
       11
 66
     7
 43
1.0
 76
     1
 77
     6
 78
     2
 67
     7
 79
     6
170
     0
171
     0
290
     0
174
     0
 93
        1
 44
0.0
173
     0
291
     0
 45
0.0
1001
ACAD
1000
AcDbSavedByObjectVersion
1070
     0
  0
VISUALSTYLE
  5
23A
102
{ACAD_XDICTIONARY
360
2EA
102
}
102
{ACAD_REACTORS
330
22D
102
}
330
22D
100
AcDbVisualStyle
  2
Thicken
 70
    13
 71
     2
 72
     2
 73
     0
 90
        0
 40
-0.6
 41
-30.0
 62
     5
 63
     7
 74
     1
 91
        4
 64
     7
 65
   257
 75
     1
175
     1
 42
1.0
 92
       12
 66
     7
 43
1.0
 76
     1
 77
     6
 78
     2
 67
     7
 79
     5
170
     0
171
     0
290
     0
174
     0
 93
        1
 44
0.0
173
     0
291
     1
 45
0.0
1001
ACAD
1000
AcDbSavedByObjectVersion
1070
     0
  0
VISUALSTYLE
  5
234
102
{ACAD_XDICTIONARY
360
2DE
102
}
102
{ACAD_REACTORS
330
22D
102
}
330
22D
100
AcDbVisualStyle
  2
Wireframe
 70
     5
 71
     0
 72
     2
 73
     0
 90
        0
 40
-0.6
 41
-30.0
 62
     5
 63
     7
 74
     1
 91
        4
 64
     7
 65
   257
 75
     1
175
     1
 42
1.0
 92
        0
 66
   257
 43
1.0
 76
     1
 77
     6
 78
     2
 67
     7
 79
     3
170
     0
171
     0
290
     0
174
     0
 93
        1
 44
0.0
173
     0
291
     0
 45
0.0
1001
ACAD
1000
AcDbSavedByObjectVersion
1070
     0
  0
VISUALSTYLE
  5
240
102
{ACAD_XDICTIONARY
360
2F6
102
}
102
{ACAD_REACTORS
330
22D
102
}
330
22D
100
AcDbVisualStyle
  2
X-Ray
 70
    25
 71
     2
 72
     2
 73
     1
 90
        1
 40
0.5
 41
-30.0
 62
     5
 63
     7
 74
     1
 91
        0
 64
     7
 65
   257
 75
     1
175
     1
 42
1.0
 92
        8
 66
     7
 43
1.0
 76
     1
 77
     6
 78
     2
 67
     7
 79
     3
170
     0
171
     0
290
     0
174
     0
 93
       13
 44
0.0
173
     0
291
     0
 45
0.0
1001
ACAD
1000
AcDbSavedByObjectVersion
1070
     0
  0
DICTIONARYVAR
  5
2BC
102
{ACAD_REACTORS
330
2B7
102
}
330
2B7
100
DictionaryVariables
280
     0
  1
1:1
  0
DICTIONARYVAR
  5
2B9
102
{ACAD_REACTORS
330
2B7
102
}
330
2B7
100
DictionaryVariables
280
     0
  1
STANDARD
  0
DICTIONARYVAR
  5
2B8
102
{ACAD_REACTORS
330
2B7
102
}
330
2B7
100
DictionaryVariables
280
     0
  1
STANDARD
  0
DICTIONARYVAR
  5
2BA
102
{ACAD_REACTORS
330
2B7
102
}
330
2B7
100
DictionaryVariables
280
     0
  1
Metric50
  0
DICTIONARYVAR
  5
2BB
102
{ACAD_REACTORS
330
2B7
102
}
330
2B7
100
DictionaryVariables
280
     0
  1
Metric50
  0
DICTIONARYVAR
  5
2BF
102
{ACAD_REACTORS
330
2B7
102
}
330
2B7
100
DictionaryVariables
280
     0
  1
1
  0
DICTIONARYVAR
  5
2BE
102
{ACAD_REACTORS
330
2B7
102
}
330
2B7
100
DictionaryVariables
280
     0
  1
0
  0
DICTIONARYVAR
  5
2BD
102
{ACAD_REACTORS
330
2B7
102
}
330
2B7
100
DictionaryVariables
280
     0
  1
127
  0
DICTIONARYVAR
  5
2C0
102
{ACAD_REACTORS
330
2B7
102
}
330
2B7
100
DictionaryVariables
280
     0
  1
2
  0
DICTIONARY
  5
2CC
102
{ACAD_REACTORS
330
2CA
102
}
330
2CA
100
AcDbDictionary
281
     1
  0
DICTIONARY
  5
2CB
102
{ACAD_REACTORS
330
2CA
102
}
330
2CA
100
AcDbDictionary
281
     1
  3
8796087795152
350
2C5
  3
8796087795168
350
2C6
  3
8796087795184
350
2C7
  3
8796087795200
350
2C8
  3
8796087795216
350
2C9
  0
DICTIONARY
  5
2CD
330
22
100
AcDbDictionary
280
     1
281
     1
  3
ACAD_XREC_ROUNDTRIP
360
2CE
  0
DICTIONARY
  5
306
330
292
100
AcDbDictionary
280
     1
281
     1
  3
ACAD_XREC_ROUNDTRIP
360
307
  0
DICTIONARY
  5
21E
330
21D
100
AcDbDictionary
280
     1
281
     1
  3
ACAD_XREC_ROUNDTRIP
360
2D0
  3
BUMPTILE
360
220
  3
DIFFUSETILE
360
21F
  3
OPACITYTILE
360
223
  3
REFLECTIONTILE
360
222
  3
REFRACTIONTILE
360
224
  3
SPECULARTILE
360
221
  0
DICTIONARY
  5
216
330
215
100
AcDbDictionary
280
     1
281
     1
  3
ACAD_XREC_ROUNDTRIP
360
2CF
  3
BUMPTILE
360
218
  3
DIFFUSETILE
360
217
  3
OPACITYTILE
360
21B
  3
REFLECTIONTILE
360
21A
  3
REFRACTIONTILE
360
21C
  3
SPECULARTILE
360
219
  0
DICTIONARY
  5
226
330
225
100
AcDbDictionary
280
     1
281
     1
  3
ACAD_XREC_ROUNDTRIP
360
2D1
  3
BUMPTILE
360
228
  3
DIFFUSETILE
360
227
  3
OPACITYTILE
360
22B
  3
REFLECTIONTILE
360
22A
  3
REFRACTIONTILE
360
22C
  3
SPECULARTILE
360
229
  0
DICTIONARY
  5
2C1
330
248
100
AcDbDictionary
280
     1
281
     1
  3
ACAD_ROUNDTRIP_2008_TABLESTYLE_CELLSTYLEMAP
360
2C2
  3
ACAD_XREC_ROUNDTRIP
360
302
  0
DICTIONARY
  5
2DC
330
233
100
AcDbDictionary
280
     1
281
     1
  3
ACAD_XREC_ROUNDTRIP
360
2DD
  0
DICTIONARY
  5
2DA
330
232
100
AcDbDictionary
280
     1
281
     1
  3
ACAD_XREC_ROUNDTRIP
360
2DB
  0
DICTIONARY
  5
2E8
330
239
100
AcDbDictionary
280
     1
281
     1
  3
ACAD_XREC_ROUNDTRIP
360
2E9
  0
DICTIONARY
  5
2F0
330
23D
100
AcDbDictionary
280
     1
281
     1
  3
ACAD_XREC_ROUNDTRIP
360
2F1
  0
DICTIONARY
  5
2E2
330
236
100
AcDbDictionary
280
     1
281
     1
  3
ACAD_XREC_ROUNDTRIP
360
2E3
  0
DICTIONARY
  5
2E6
330
238
100
AcDbDictionary
280
     1
281
     1
  3
ACAD_XREC_ROUNDTRIP
360
2E7
  0
DICTIONARY
  5
300
330
245
100
AcDbDictionary
280
     1
281
     1
  3
ACAD_XREC_ROUNDTRIP
360
301
  0
DICTIONARY
  5
2EE
330
23C
100
AcDbDictionary
280
     1
281
     1
  3
ACAD_XREC_ROUNDTRIP
360
2EF
  0
DICTIONARY
  5
2D2
330
22E
100
AcDbDictionary
280
     1
281
     1
  3
ACAD_XREC_ROUNDTRIP
360
2D3
  0
DICTIONARY
  5
2D4
330
22F
100
AcDbDictionary
280
     1
281
     1
  3
ACAD_XREC_ROUNDTRIP
360
2D5
  0
DICTIONARY
  5
2D6
330
230
100
AcDbDictionary
280
     1
281
     1
  3
ACAD_XREC_ROUNDTRIP
360
2D7
  0
DICTIONARY
  5
2D8
330
231
100
AcDbDictionary
280
     1
281
     1
  3
ACAD_XREC_ROUNDTRIP
360
2D9
  0
DICTIONARY
  5
2E0
330
235
100
AcDbDictionary
280
     1
281
     1
  3
ACAD_XREC_ROUNDTRIP
360
2E1
  0
DICTIONARY
  5
2FC
330
243
100
AcDbDictionary
280
     1
281
     1
  3
ACAD_XREC_ROUNDTRIP
360
2FD
  0
DICTIONARY
  5
2EC
330
23B
100
AcDbDictionary
280
     1
281
     1
  3
ACAD_XREC_ROUNDTRIP
360
2ED
  0
DICTIONARY
  5
2FE
330
244
100
AcDbDictionary
280
     1
281
     1
  3
ACAD_XREC_ROUNDTRIP
360
2FF
  0
DICTIONARY
  5
2E4
330
237
100
AcDbDictionary
280
     1
281
     1
  3
ACAD_XREC_ROUNDTRIP
360
2E5
  0
DICTIONARY
  5
2FA
330
242
100
AcDbDictionary
280
     1
281
     1
  3
ACAD_XREC_ROUNDTRIP
360
2FB
  0
DICTIONARY
  5
2F8
330
241
100
AcDbDictionary
280
     1
281
     1
  3
ACAD_XREC_ROUNDTRIP
360
2F9
  0
DICTIONARY
  5
2F2
330
23E
100
AcDbDictionary
280
     1
281
     1
  3
ACAD_XREC_ROUNDTRIP
360
2F3
  0
DICTIONARY
  5
2F4
330
23F
100
AcDbDictionary
280
     1
281
     1
  3
ACAD_XREC_ROUNDTRIP
360
2F5
  0
DICTIONARY
  5
2EA
330
23A
100
AcDbDictionary
280
     1
281
     1
  3
ACAD_XREC_ROUNDTRIP
360
2EB
  0
DICTIONARY
  5
2DE
330
234
100
AcDbDictionary
280
     1
281
     1
  3
ACAD_XREC_ROUNDTRIP
360
2DF
  0
DICTIONARY
  5
2F6
330
240
100
AcDbDictionary
280
     1
281
     1
  3
ACAD_XREC_ROUNDTRIP
360
2F7
  0
XRECORD
  5
2C5
102
{ACAD_REACTORS
330
2CB
102
}
330
2CB
100
AcDbXrecord
280
     1
  1
AcDb_Thumbnail_Schema
102
{ATTRRECORD
341
2C6
  2
AcDbDs::TreatedAsObjectData
280
     1
291
     1
102
ATTRRECORD}
102
{ATTRRECORD
341
2C7
  2
AcDbDs::Legacy
280
     1
291
     1
102
ATTRRECORD}
  2
AcDbDs::ID
280
    10
 91
        8
102
{ATTRRECORD
341
2C8
  2
AcDs:Indexable
280
     1
291
     1
102
ATTRRECORD}
102
{ATTRRECORD
341
2C9
  2
AcDbDs::HandleAttribute
280
     7
282
     1
102
ATTRRECORD}
  2
Thumbnail_Data
280
    15
 91
        0
  0
XRECORD
  5
2C6
102
{ACAD_REACTORS
330
2CB
102
}
330
2CB
100
AcDbXrecord
280
     1
  1
AcDbDs::TreatedAsObjectDataSchema
  2
AcDbDs::TreatedAsObjectData
280
     1
 91
        0
  0
XRECORD
  5
2C7
102
{ACAD_REACTORS
330
2CB
102
}
330
2CB
100
AcDbXrecord
280
     1
  1
AcDbDs::LegacySchema
  2
AcDbDs::Legacy
280
     1
 91
        0
  0
XRECORD
  5
2C8
102
{ACAD_REACTORS
330
2CB
102
}
330
2CB
100
AcDbXrecord
280
     1
  1
AcDbDs::IndexedPropertySchema
  2
AcDs:Indexable
280
     1
 91
        0
  0
XRECORD
  5
2C9
102
{ACAD_REACTORS
330
2CB
102
}
330
2CB
100
AcDbXrecord
280
     1
  1
AcDbDs::HandleAttributeSchema
  2
AcDbDs::HandleAttribute
280
     7
 91
        1
284
     1
  0
XRECORD
  5
2CE
102
{ACAD_REACTORS
330
2CD
102
}
330
2CD
100
AcDbXrecord
280
     1
102
SHADEPLOT
 70
     0
102
SHADEPLOTRESLEVEL
 70
     2
102
SHADEPLOTCUSTOMDPI
 70
   300
  0
XRECORD
  5
307
102
{ACAD_REACTORS
330
306
102
}
330
306
100
AcDbXrecord
280
     1
102
SHADEPLOT
 70
     0
102
SHADEPLOTRESLEVEL
 70
     2
102
SHADEPLOTCUSTOMDPI
 70
   300
  0
XRECORD
  5
2D0
102
{ACAD_REACTORS
330
21E
102
}
330
21E
100
AcDbXrecord
280
     1
102
MATERIAL
148
0.0
149
0.0
149
0.0
 93
        0
 94
      127
282
     0
 72
     0
 77
     0
171
     0
175
     0
179
     0
273
     0
  0
XRECORD
  5
220
102
{ACAD_REACTORS
330
21E
102
}
330
21E
100
AcDbXrecord
280
     1
270
     1
271
     1
  0
XRECORD
  5
21F
102
{ACAD_REACTORS
330
21E
102
}
330
21E
100
AcDbXrecord
280
     1
270
     1
271
     1
  0
XRECORD
  5
223
102
{ACAD_REACTORS
330
21E
102
}
330
21E
100
AcDbXrecord
280
     1
270
     1
271
     1
  0
XRECORD
  5
222
102
{ACAD_REACTORS
330
21E
102
}
330
21E
100
AcDbXrecord
280
     1
270
     1
271
     1
  0
XRECORD
  5
224
102
{ACAD_REACTORS
330
21E
102
}
330
21E
100
AcDbXrecord
280
     1
270
     1
271
     1
  0
XRECORD
  5
221
102
{ACAD_REACTORS
330
21E
102
}
330
21E
100
AcDbXrecord
280
     1
270
     1
271
     1
  0
XRECORD
  5
2CF
102
{ACAD_REACTORS
330
216
102
}
330
216
100
AcDbXrecord
280
     1
102
MATERIAL
148
0.0
149
0.0
149
0.0
 93
        0
 94
      127
282
     0
 72
     0
 77
     0
171
     0
175
     0
179
     0
273
     0
  0
XRECORD
  5
218
102
{ACAD_REACTORS
330
216
102
}
330
216
100
AcDbXrecord
280
     1
270
     1
271
     1
  0
XRECORD
  5
217
102
{ACAD_REACTORS
330
216
102
}
330
216
100
AcDbXrecord
280
     1
270
     1
271
     1
  0
XRECORD
  5
21B
102
{ACAD_REACTORS
330
216
102
}
330
216
100
AcDbXrecord
280
     1
270
     1
271
     1
  0
XRECORD
  5
21A
102
{ACAD_REACTORS
330
216
102
}
330
216
100
AcDbXrecord
280
     1
270
     1
271
     1
  0
XRECORD
  5
21C
102
{ACAD_REACTORS
330
216
102
}
330
216
100
AcDbXrecord
280
     1
270
     1
271
     1
  0
XRECORD
  5
219
102
{ACAD_REACTORS
330
216
102
}
330
216
100
AcDbXrecord
280
     1
270
     1
271
     1
  0
XRECORD
  5
2D1
102
{ACAD_REACTORS
330
226
102
}
330
226
100
AcDbXrecord
280
     1
102
MATERIAL
148
0.0
149
0.0
149
0.0
 93
        0
 94
      127
282
     0
 72
     0
 77
     0
171
     0
175
     0
179
     0
273
     0
  0
XRECORD
  5
228
102
{ACAD_REACTORS
330
226
102
}
330
226
100
AcDbXrecord
280
     1
270
     1
271
     1
  0
XRECORD
  5
227
102
{ACAD_REACTORS
330
226
102
}
330
226
100
AcDbXrecord
280
     1
270
     1
271
     1
  0
XRECORD
  5
22B
102
{ACAD_REACTORS
330
226
102
}
330
226
100
AcDbXrecord
280
     1
270
     1
271
     1
  0
XRECORD
  5
22A
102
{ACAD_REACTORS
330
226
102
}
330
226
100
AcDbXrecord
280
     1
270
     1
271
     1
  0
XRECORD
  5
22C
102
{ACAD_REACTORS
330
226
102
}
330
226
100
AcDbXrecord
280
     1
270
     1
271
     1
  0
XRECORD
  5
229
102
{ACAD_REACTORS
330
226
102
}
330
226
100
AcDbXrecord
280
     1
270
     1
271
     1
  0
CELLSTYLEMAP
  5
2C2
102
{ACAD_REACTORS
330
2C1
102
}
330
2C1
100
AcDbCellStyleMap
 90
        3
300
CELLSTYLE
  1
TABLEFORMAT_BEGIN
 90
        5
170
     1
 91
        0
 92
    32768
 62
   257
 93
        1
300
CONTENTFORMAT
  1
CONTENTFORMAT_BEGIN
 90
        0
 91
        0
 92
      512
 93
        0
300

 40
0.0
140
1.0
 94
        5
 62
     0
340
11
144
6.0
309
CONTENTFORMAT_END
171
     1
301
MARGIN
  1
CELLMARGIN_BEGIN
 40
1.5
 40
1.5
 40
1.5
 40
1.5
 40
4.5
 40
4.5
309
CELLMARGIN_END
 94
        6
 95
        1
302
GRIDFORMAT
  1
GRIDFORMAT_BEGIN
 90
        0
 91
        1
 62
     0
 92
       -2
340
0
 93
        0
 40
1.125
309
GRIDFORMAT_END
 95
        2
302
GRIDFORMAT
  1
GRIDFORMAT_BEGIN
 90
        0
 91
        1
 62
     0
 92
       -2
340
0
 93
        0
 40
1.125
309
GRIDFORMAT_END
 95
        4
302
GRIDFORMAT
  1
GRIDFORMAT_BEGIN
 90
        0
 91
        1
 62
     0
 92
       -2
340
0
 93
        0
 40
1.125
309
GRIDFORMAT_END
 95
        8
302
GRIDFORMAT
  1
GRIDFORMAT_BEGIN
 90
        0
 91
        1
 62
     0
 92
       -2
340
0
 93
        0
 40
1.125
309
GRIDFORMAT_END
 95
       16
302
GRIDFORMAT
  1
GRIDFORMAT_BEGIN
 90
        0
 91
        1
 62
     0
 92
       -2
340
0
 93
        0
 40
1.125
309
GRIDFORMAT_END
 95
       32
302
GRIDFORMAT
  1
GRIDFORMAT_BEGIN
 90
        0
 91
        1
 62
     0
 92
       -2
340
0
 93
        0
 40
1.125
309
GRIDFORMAT_END
309
TABLEFORMAT_END
  1
CELLSTYLE_BEGIN
 90
        1
 91
        1
300
_TITLE
309
CELLSTYLE_END
300
CELLSTYLE
  1
TABLEFORMAT_BEGIN
 90
        5
170
     1
 91
        0
 92
        0
 62
   257
 93
        1
300
CONTENTFORMAT
  1
CONTENTFORMAT_BEGIN
 90
        0
 91
        0
 92
      512
 93
        0
300

 40
0.0
140
1.0
 94
        5
 62
     0
340
11
144
4.5
309
CONTENTFORMAT_END
171
     1
301
MARGIN
  1
CELLMARGIN_BEGIN
 40
1.5
 40
1.5
 40
1.5
 40
1.5
 40
4.5
 40
4.5
309
CELLMARGIN_END
 94
        6
 95
        1
302
GRIDFORMAT
  1
GRIDFORMAT_BEGIN
 90
        0
 91
        1
 62
     0
 92
       -2
340
0
 93
        0
 40
1.125
309
GRIDFORMAT_END
 95
        2
302
GRIDFORMAT
  1
GRIDFORMAT_BEGIN
 90
        0
 91
        1
 62
     0
 92
       -2
340
0
 93
        0
 40
1.125
309
GRIDFORMAT_END
 95
        4
302
GRIDFORMAT
  1
GRIDFORMAT_BEGIN
 90
        0
 91
        1
 62
     0
 92
       -2
340
0
 93
        0
 40
1.125
309
GRIDFORMAT_END
 95
        8
302
GRIDFORMAT
  1
GRIDFORMAT_BEGIN
 90
        0
 91
        1
 62
     0
 92
       -2
340
0
 93
        0
 40
1.125
309
GRIDFORMAT_END
 95
       16
302
GRIDFORMAT
  1
GRIDFORMAT_BEGIN
 90
        0
 91
        1
 62
     0
 92
       -2
340
0
 93
        0
 40
1.125
309
GRIDFORMAT_END
 95
       32
302
GRIDFORMAT
  1
GRIDFORMAT_BEGIN
 90
        0
 91
        1
 62
     0
 92
       -2
340
0
 93
        0
 40
1.125
309
GRIDFORMAT_END
309
TABLEFORMAT_END
  1
CELLSTYLE_BEGIN
 90
        2
 91
        1
300
_HEADER
309
CELLSTYLE_END
300
CELLSTYLE
  1
TABLEFORMAT_BEGIN
 90
        5
170
     1
 91
        0
 92
        0
 62
   257
 93
        1
300
CONTENTFORMAT
  1
CONTENTFORMAT_BEGIN
 90
        0
 91
        0
 92
      512
 93
        0
300

 40
0.0
140
1.0
 94
        2
 62
     0
340
11
144
4.5
309
CONTENTFORMAT_END
171
     1
301
MARGIN
  1
CELLMARGIN_BEGIN
 40
1.5
 40
1.5
 40
1.5
 40
1.5
 40
4.5
 40
4.5
309
CELLMARGIN_END
 94
        6
 95
        1
302
GRIDFORMAT
  1
GRIDFORMAT_BEGIN
 90
        0
 91
        1
 62
     0
 92
       -2
340
0
 93
        0
 40
1.125
309
GRIDFORMAT_END
 95
        2
302
GRIDFORMAT
  1
GRIDFORMAT_BEGIN
 90
        0
 91
        1
 62
     0
 92
       -2
340
0
 93
        0
 40
1.125
309
GRIDFORMAT_END
 95
        4
302
GRIDFORMAT
  1
GRIDFORMAT_BEGIN
 90
        0
 91
        1
 62
     0
 92
       -2
340
0
 93
        0
 40
1.125
309
GRIDFORMAT_END
 95
        8
302
GRIDFORMAT
  1
GRIDFORMAT_BEGIN
 90
        0
 91
        1
 62
     0
 92
       -2
340
0
 93
        0
 40
1.125
309
GRIDFORMAT_END
 95
       16
302
GRIDFORMAT
  1
GRIDFORMAT_BEGIN
 90
        0
 91
        1
 62
     0
 92
       -2
340
0
 93
        0
 40
1.125
309
GRIDFORMAT_END
 95
       32
302
GRIDFORMAT
  1
GRIDFORMAT_BEGIN
 90
        0
 91
        1
 62
     0
 92
       -2
340
0
 93
        0
 40
1.125
309
GRIDFORMAT_END
309
TABLEFORMAT_END
  1
CELLSTYLE_BEGIN
 90
        3
 91
        2
300
_DATA
309
CELLSTYLE_END
  0
XRECORD
  5
302
102
{ACAD_REACTORS
330
2C1
102
}
330
2C1
100
AcDbXrecord
280
     1
102
ACAD_ROUNDTRIP_PRE2007_TABLESTYLE
 90
      512
 91
        0
  1

 92
      512
 93
        0
  2

 94
      512
 95
        0
  3

  0
XRECORD
  5
2DD
102
{ACAD_REACTORS
330
2DC
102
}
330
2DC
100
AcDbXrecord
280
     1
102
RTVSPost2010Prop28
280
     1
102
RTVSPost2010PropOp28
 70
     1
102
RTVSPost2010Prop29
280
     1
102
RTVSPost2010PropOp29
 70
     1
102
RTVSPost2010Prop30
280
     0
102
RTVSPost2010PropOp30
 70
     1
102
RTVSPost2010Prop31
280
     0
102
RTVSPost2010PropOp31
 70
     1
102
RTVSPost2010Prop32
280
     0
102
RTVSPost2010PropOp32
 70
     1
102
RTVSPost2010Prop33
280
     0
102
RTVSPost2010PropOp33
 70
     1
102
RTVSPost2010Prop34
280
     0
102
RTVSPost2010PropOp34
 70
     1
102
RTVSPost2010Prop35
280
     0
102
RTVSPost2010PropOp35
 70
     1
102
RTVSPost2010Prop36
280
     0
102
RTVSPost2010PropOp36
 70
     1
102
RTVSPost2010Prop37
 90
       50
102
RTVSPost2010PropOp37
 70
     1
102
RTVSPost2010Prop38
140
0.0
102
RTVSPost2010PropOp38
 70
     1
102
RTVSPost2010Prop39
140
1.0
102
RTVSPost2010PropOp39
 70
     1
102
RTVSPost2010Prop40
 90
        0
102
RTVSPost2010PropOp40
 70
     1
102
RTVSPost2010Prop41ColorIndex
 90
       18
102
RTVSPost2010Prop41ColorRGB
 90
        0
102
RTVSPost2010PropOp41
 70
     1
102
RTVSPost2010Prop42
 90
       50
102
RTVSPost2010PropOp42
 70
     1
102
RTVSPost2010Prop43
 90
        3
102
RTVSPost2010PropOp43
 70
     1
102
RTVSPost2010Prop44ColorIndex
 90
        5
102
RTVSPost2010Prop44ColorRGB
 90
      255
102
RTVSPost2010PropOp44
 70
     1
102
RTVSPost2010Prop45
280
     0
102
RTVSPost2010PropOp45
 70
     1
102
RTVSPost2010Prop46
 90
       50
102
RTVSPost2010PropOp46
 70
     1
102
RTVSPost2010Prop47
 90
       50
102
RTVSPost2010PropOp47
 70
     1
102
RTVSPost2010Prop48
 90
       50
102
RTVSPost2010PropOp48
 70
     1
102
RTVSPost2010Prop49
280
     0
102
RTVSPost2010PropOp49
 70
     1
102
RTVSPost2010Prop50
 90
       50
102
RTVSPost2010PropOp50
 70
     1
102
RTVSPost2010Prop51ColorIndex
 90
      256
102
RTVSPost2010Prop51ColorRGB
 90
-16777216
102
RTVSPost2010PropOp51
 70
     0
102
RTVSPost2010Prop52
140
1.0
102
RTVSPost2010PropOp52
 70
     0
102
RTVSPost2010Prop53
 90
        2
102
RTVSPost2010PropOp53
 70
     1
102
RTVSPost2010Prop54
  1
strokes_ogs.tif
102
RTVSPost2010PropOp54
 70
     1
102
RTVSPost2010Prop55
280
     0
102
RTVSPost2010PropOp55
 70
     1
102
RTVSPost2010Prop56
140
1.0
102
RTVSPost2010PropOp56
 70
     1
102
RTVSPost2010Prop57
140
1.0
102
RTVSPost2010PropOp57
 70
     1
102
RTVSPropertyOp0
 70
     1
102
RTVSPropertyOp1
 70
     1
102
RTVSPropertyOp2
 70
     1
102
RTVSPropertyOp3
 70
     1
102
RTVSPropertyOp4
 70
     1
102
RTVSPropertyOp5
 70
     1
102
RTVSPropertyOp6
 70
     1
102
RTVSPropertyOp7
 70
     1
102
RTVSPropertyOp8
 70
     1
102
RTVSPropertyOp9
 70
     1
102
RTVSPropertyOp10
 70
     1
102
RTVSPropertyOp11
 70
     1
102
RTVSPropertyOp12
 70
     1
102
RTVSPropertyOp13
 70
     1
102
RTVSPropertyOp14
 70
     1
102
RTVSPropertyOp15
 70
     1
102
RTVSPropertyOp16
 70
     1
102
RTVSPropertyOp17
 70
     1
102
RTVSPropertyOp18
 70
     1
102
RTVSPropertyOp19
 70
     1
102
RTVSPropertyOp20
 70
     1
102
RTVSPropertyOp21
 70
     1
102
RTVSPropertyOp22
 70
     1
102
RTVSPropertyOp23
 70
     1
102
RTVSPropertyOp24
 70
     1
102
RTVSPropertyOp25
 70
     1
102
RTVSPropertyOp26
 70
     1
102
RTVSPropertyOp27
 70
     1
102
RTVSPropertyOp28
 70
     1
102
RTVSPropertyOp29
 70
     1
102
RTVSPropertyOp30
 70
     1
102
RTVSPropertyOp31
 70
     1
102
RTVSPropertyOp32
 70
     1
102
RTVSPropertyOp33
 70
     1
102
RTVSPropertyOp34
 70
     1
102
RTVSPropertyOp35
 70
     1
102
RTVSPropertyOp36
 70
     1
102
RTVSPropertyOp37
 70
     1
102
RTVSPropertyOp38
 70
     1
102
RTVSPropertyOp39
 70
     1
102
RTVSPropertyOp40
 70
     1
102
RTVSPropertyOp41
 70
     1
102
RTVSPropertyOp42
 70
     1
102
RTVSPropertyOp43
 70
     1
102
RTVSPropertyOp44
 70
     1
102
RTVSPropertyOp45
 70
     1
102
RTVSPropertyOp46
 70
     1
102
RTVSPropertyOp47
 70
     1
102
RTVSPropertyOp48
 70
     1
102
RTVSPropertyOp49
 70
     1
102
RTVSPropertyOp50
 70
     1
102
RTVSPropertyOp51
 70
     0
102
RTVSPropertyOp52
 70
     0
102
RTVSPropertyOp53
 70
     1
102
RTVSPropertyOp54
 70
     1
102
RTVSPropertyOp55
 70
     1
102
RTVSPropertyOp56
 70
     1
102
RTVSPropertyOp57
 70
     1
102
RTVSPropertyOp58
 70
     1
102
RTVSPropertyOp59
 70
     1
102
RTVSPropertyOp60
 70
     1
102
RTVSPropertyOp61
 70
     1
102
RTVSPropertyOp62
 70
     1
  0
XRECORD
  5
2DB
102
{ACAD_REACTORS
330
2DA
102
}
330
2DA
100
AcDbXrecord
280
     1
102
RTVSPost2010Prop28
280
     0
102
RTVSPost2010PropOp28
 70
     1
102
RTVSPost2010Prop29
280
     1
102
RTVSPost2010PropOp29
 70
     1
102
RTVSPost2010Prop30
280
     1
102
RTVSPost2010PropOp30
 70
     1
102
RTVSPost2010Prop31
280
     0
102
RTVSPost2010PropOp31
 70
     1
102
RTVSPost2010Prop32
280
     0
102
RTVSPost2010PropOp32
 70
     1
102
RTVSPost2010Prop33
280
     0
102
RTVSPost2010PropOp33
 70
     1
102
RTVSPost2010Prop34
280
     0
102
RTVSPost2010PropOp34
 70
     1
102
RTVSPost2010Prop35
280
     0
102
RTVSPost2010PropOp35
 70
     1
102
RTVSPost2010Prop36
280
     0
102
RTVSPost2010PropOp36
 70
     1
102
RTVSPost2010Prop37
 90
       50
102
RTVSPost2010PropOp37
 70
     1
102
RTVSPost2010Prop38
140
0.0
102
RTVSPost2010PropOp38
 70
     1
102
RTVSPost2010Prop39
140
1.0
102
RTVSPost2010PropOp39
 70
     1
102
RTVSPost2010Prop40
 90
        0
102
RTVSPost2010PropOp40
 70
     1
102
RTVSPost2010Prop41ColorIndex
 90
       18
102
RTVSPost2010Prop41ColorRGB
 90
        0
102
RTVSPost2010PropOp41
 70
     1
102
RTVSPost2010Prop42
 90
       50
102
RTVSPost2010PropOp42
 70
     1
102
RTVSPost2010Prop43
 90
        3
102
RTVSPost2010PropOp43
 70
     1
102
RTVSPost2010Prop44ColorIndex
 90
        5
102
RTVSPost2010Prop44ColorRGB
 90
      255
102
RTVSPost2010PropOp44
 70
     1
102
RTVSPost2010Prop45
280
     0
102
RTVSPost2010PropOp45
 70
     1
102
RTVSPost2010Prop46
 90
       50
102
RTVSPost2010PropOp46
 70
     1
102
RTVSPost2010Prop47
 90
       50
102
RTVSPost2010PropOp47
 70
     1
102
RTVSPost2010Prop48
 90
       50
102
RTVSPost2010PropOp48
 70
     1
102
RTVSPost2010Prop49
280
     0
102
RTVSPost2010PropOp49
 70
     1
102
RTVSPost2010Prop50
 90
       50
102
RTVSPost2010PropOp50
 70
     1
102
RTVSPost2010Prop51ColorIndex
 90
      256
102
RTVSPost2010Prop51ColorRGB
 90
-16777216
102
RTVSPost2010PropOp51
 70
     0
102
RTVSPost2010Prop52
140
1.0
102
RTVSPost2010PropOp52
 70
     0
102
RTVSPost2010Prop53
 90
        2
102
RTVSPost2010PropOp53
 70
     1
102
RTVSPost2010Prop54
  1
strokes_ogs.tif
102
RTVSPost2010PropOp54
 70
     1
102
RTVSPost2010Prop55
280
     0
102
RTVSPost2010PropOp55
 70
     1
102
RTVSPost2010Prop56
140
1.0
102
RTVSPost2010PropOp56
 70
     1
102
RTVSPost2010Prop57
140
1.0
102
RTVSPost2010PropOp57
 70
     1
102
RTVSPropertyOp0
 70
     1
102
RTVSPropertyOp1
 70
     1
102
RTVSPropertyOp2
 70
     1
102
RTVSPropertyOp3
 70
     1
102
RTVSPropertyOp4
 70
     1
102
RTVSPropertyOp5
 70
     1
102
RTVSPropertyOp6
 70
     1
102
RTVSPropertyOp7
 70
     1
102
RTVSPropertyOp8
 70
     1
102
RTVSPropertyOp9
 70
     1
102
RTVSPropertyOp10
 70
     1
102
RTVSPropertyOp11
 70
     1
102
RTVSPropertyOp12
 70
     1
102
RTVSPropertyOp13
 70
     1
102
RTVSPropertyOp14
 70
     1
102
RTVSPropertyOp15
 70
     1
102
RTVSPropertyOp16
 70
     1
102
RTVSPropertyOp17
 70
     1
102
RTVSPropertyOp18
 70
     1
102
RTVSPropertyOp19
 70
     1
102
RTVSPropertyOp20
 70
     1
102
RTVSPropertyOp21
 70
     1
102
RTVSPropertyOp22
 70
     1
102
RTVSPropertyOp23
 70
     1
102
RTVSPropertyOp24
 70
     1
102
RTVSPropertyOp25
 70
     1
102
RTVSPropertyOp26
 70
     1
102
RTVSPropertyOp27
 70
     1
102
RTVSPropertyOp28
 70
     1
102
RTVSPropertyOp29
 70
     1
102
RTVSPropertyOp30
 70
     1
102
RTVSPropertyOp31
 70
     1
102
RTVSPropertyOp32
 70
     1
102
RTVSPropertyOp33
 70
     1
102
RTVSPropertyOp34
 70
     1
102
RTVSPropertyOp35
 70
     1
102
RTVSPropertyOp36
 70
     1
102
RTVSPropertyOp37
 70
     1
102
RTVSPropertyOp38
 70
     1
102
RTVSPropertyOp39
 70
     1
102
RTVSPropertyOp40
 70
     1
102
RTVSPropertyOp41
 70
     1
102
RTVSPropertyOp42
 70
     1
102
RTVSPropertyOp43
 70
     1
102
RTVSPropertyOp44
 70
     1
102
RTVSPropertyOp45
 70
     1
102
RTVSPropertyOp46
 70
     1
102
RTVSPropertyOp47
 70
     1
102
RTVSPropertyOp48
 70
     1
102
RTVSPropertyOp49
 70
     1
102
RTVSPropertyOp50
 70
     1
102
RTVSPropertyOp51
 70
     0
102
RTVSPropertyOp52
 70
     0
102
RTVSPropertyOp53
 70
     1
102
RTVSPropertyOp54
 70
     1
102
RTVSPropertyOp55
 70
     1
102
RTVSPropertyOp56
 70
     1
102
RTVSPropertyOp57
 70
     1
102
RTVSPropertyOp58
 70
     1
102
RTVSPropertyOp59
 70
     1
102
RTVSPropertyOp60
 70
     1
102
RTVSPropertyOp61
 70
     1
102
RTVSPropertyOp62
 70
     1
  0
XRECORD
  5
2E9
102
{ACAD_REACTORS
330
2E8
102
}
330
2E8
100
AcDbXrecord
280
     1
102
RTVSPost2010Prop28
280
     0
102
RTVSPost2010PropOp28
 70
     1
102
RTVSPost2010Prop29
280
     1
102
RTVSPost2010PropOp29
 70
     1
102
RTVSPost2010Prop30
280
     1
102
RTVSPost2010PropOp30
 70
     1
102
RTVSPost2010Prop31
280
     0
102
RTVSPost2010PropOp31
 70
     1
102
RTVSPost2010Prop32
280
     0
102
RTVSPost2010PropOp32
 70
     1
102
RTVSPost2010Prop33
280
     0
102
RTVSPost2010PropOp33
 70
     1
102
RTVSPost2010Prop34
280
     0
102
RTVSPost2010PropOp34
 70
     1
102
RTVSPost2010Prop35
280
     0
102
RTVSPost2010PropOp35
 70
     1
102
RTVSPost2010Prop36
280
     0
102
RTVSPost2010PropOp36
 70
     1
102
RTVSPost2010Prop37
 90
       50
102
RTVSPost2010PropOp37
 70
     1
102
RTVSPost2010Prop38
140
0.0
102
RTVSPost2010PropOp38
 70
     1
102
RTVSPost2010Prop39
140
1.0
102
RTVSPost2010PropOp39
 70
     1
102
RTVSPost2010Prop40
 90
        0
102
RTVSPost2010PropOp40
 70
     1
102
RTVSPost2010Prop41ColorIndex
 90
       18
102
RTVSPost2010Prop41ColorRGB
 90
        0
102
RTVSPost2010PropOp41
 70
     1
102
RTVSPost2010Prop42
 90
       50
102
RTVSPost2010PropOp42
 70
     1
102
RTVSPost2010Prop43
 90
        3
102
RTVSPost2010PropOp43
 70
     1
102
RTVSPost2010Prop44ColorIndex
 90
        5
102
RTVSPost2010Prop44ColorRGB
 90
      255
102
RTVSPost2010PropOp44
 70
     1
102
RTVSPost2010Prop45
280
     0
102
RTVSPost2010PropOp45
 70
     1
102
RTVSPost2010Prop46
 90
       50
102
RTVSPost2010PropOp46
 70
     1
102
RTVSPost2010Prop47
 90
       50
102
RTVSPost2010PropOp47
 70
     1
102
RTVSPost2010Prop48
 90
       50
102
RTVSPost2010PropOp48
 70
     1
102
RTVSPost2010Prop49
280
     0
102
RTVSPost2010PropOp49
 70
     1
102
RTVSPost2010Prop50
 90
       50
102
RTVSPost2010PropOp50
 70
     1
102
RTVSPost2010Prop51ColorIndex
 90
      256
102
RTVSPost2010Prop51ColorRGB
 90
-16777216
102
RTVSPost2010PropOp51
 70
     0
102
RTVSPost2010Prop52
140
1.0
102
RTVSPost2010PropOp52
 70
     0
102
RTVSPost2010Prop53
 90
        2
102
RTVSPost2010PropOp53
 70
     1
102
RTVSPost2010Prop54
  1
strokes_ogs.tif
102
RTVSPost2010PropOp54
 70
     1
102
RTVSPost2010Prop55
280
     0
102
RTVSPost2010PropOp55
 70
     1
102
RTVSPost2010Prop56
140
1.0
102
RTVSPost2010PropOp56
 70
     1
102
RTVSPost2010Prop57
140
1.0
102
RTVSPost2010PropOp57
 70
     1
102
RTVSPropertyOp0
 70
     1
102
RTVSPropertyOp1
 70
     1
102
RTVSPropertyOp2
 70
     1
102
RTVSPropertyOp3
 70
     1
102
RTVSPropertyOp4
 70
     1
102
RTVSPropertyOp5
 70
     1
102
RTVSPropertyOp6
 70
     1
102
RTVSPropertyOp7
 70
     1
102
RTVSPropertyOp8
 70
     1
102
RTVSPropertyOp9
 70
     1
102
RTVSPropertyOp10
 70
     1
102
RTVSPropertyOp11
 70
     1
102
RTVSPropertyOp12
 70
     1
102
RTVSPropertyOp13
 70
     1
102
RTVSPropertyOp14
 70
     1
102
RTVSPropertyOp15
 70
     1
102
RTVSPropertyOp16
 70
     1
102
RTVSPropertyOp17
 70
     1
102
RTVSPropertyOp18
 70
     1
102
RTVSPropertyOp19
 70
     1
102
RTVSPropertyOp20
 70
     1
102
RTVSPropertyOp21
 70
     1
102
RTVSPropertyOp22
 70
     1
102
RTVSPropertyOp23
 70
     1
102
RTVSPropertyOp24
 70
     1
102
RTVSPropertyOp25
 70
     1
102
RTVSPropertyOp26
 70
     1
102
RTVSPropertyOp27
 70
     1
102
RTVSPropertyOp28
 70
     1
102
RTVSPropertyOp29
 70
     1
102
RTVSPropertyOp30
 70
     1
102
RTVSPropertyOp31
 70
     1
102
RTVSPropertyOp32
 70
     1
102
RTVSPropertyOp33
 70
     1
102
RTVSPropertyOp34
 70
     1
102
RTVSPropertyOp35
 70
     1
102
RTVSPropertyOp36
 70
     1
102
RTVSPropertyOp37
 70
     1
102
RTVSPropertyOp38
 70
     1
102
RTVSPropertyOp39
 70
     1
102
RTVSPropertyOp40
 70
     1
102
RTVSPropertyOp41
 70
     1
102
RTVSPropertyOp42
 70
     1
102
RTVSPropertyOp43
 70
     1
102
RTVSPropertyOp44
 70
     1
102
RTVSPropertyOp45
 70
     1
102
RTVSPropertyOp46
 70
     1
102
RTVSPropertyOp47
 70
     1
102
RTVSPropertyOp48
 70
     1
102
RTVSPropertyOp49
 70
     1
102
RTVSPropertyOp50
 70
     1
102
RTVSPropertyOp51
 70
     0
102
RTVSPropertyOp52
 70
     0
102
RTVSPropertyOp53
 70
     1
102
RTVSPropertyOp54
 70
     1
102
RTVSPropertyOp55
 70
     1
102
RTVSPropertyOp56
 70
     1
102
RTVSPropertyOp57
 70
     1
102
RTVSPropertyOp58
 70
     1
102
RTVSPropertyOp59
 70
     1
102
RTVSPropertyOp60
 70
     1
102
RTVSPropertyOp61
 70
     1
102
RTVSPropertyOp62
 70
     1
  0
XRECORD
  5
2F1
102
{ACAD_REACTORS
330
2F0
102
}
330
2F0
100
AcDbXrecord
280
     1
102
RTVSPost2010Prop28
280
     0
102
RTVSPost2010PropOp28
 70
     1
102
RTVSPost2010Prop29
280
     1
102
RTVSPost2010PropOp29
 70
     1
102
RTVSPost2010Prop30
280
     1
102
RTVSPost2010PropOp30
 70
     1
102
RTVSPost2010Prop31
280
     0
102
RTVSPost2010PropOp31
 70
     1
102
RTVSPost2010Prop32
280
     0
102
RTVSPost2010PropOp32
 70
     1
102
RTVSPost2010Prop33
280
     0
102
RTVSPost2010PropOp33
 70
     1
102
RTVSPost2010Prop34
280
     0
102
RTVSPost2010PropOp34
 70
     1
102
RTVSPost2010Prop35
280
     0
102
RTVSPost2010PropOp35
 70
     1
102
RTVSPost2010Prop36
280
     0
102
RTVSPost2010PropOp36
 70
     1
102
RTVSPost2010Prop37
 90
       50
102
RTVSPost2010PropOp37
 70
     1
102
RTVSPost2010Prop38
140
0.0
102
RTVSPost2010PropOp38
 70
     1
102
RTVSPost2010Prop39
140
1.0
102
RTVSPost2010PropOp39
 70
     1
102
RTVSPost2010Prop40
 90
        0
102
RTVSPost2010PropOp40
 70
     1
102
RTVSPost2010Prop41ColorIndex
 90
       18
102
RTVSPost2010Prop41ColorRGB
 90
        0
102
RTVSPost2010PropOp41
 70
     1
102
RTVSPost2010Prop42
 90
       50
102
RTVSPost2010PropOp42
 70
     1
102
RTVSPost2010Prop43
 90
        3
102
RTVSPost2010PropOp43
 70
     1
102
RTVSPost2010Prop44ColorIndex
 90
        5
102
RTVSPost2010Prop44ColorRGB
 90
      255
102
RTVSPost2010PropOp44
 70
     1
102
RTVSPost2010Prop45
280
     0
102
RTVSPost2010PropOp45
 70
     1
102
RTVSPost2010Prop46
 90
       50
102
RTVSPost2010PropOp46
 70
     1
102
RTVSPost2010Prop47
 90
       50
102
RTVSPost2010PropOp47
 70
     1
102
RTVSPost2010Prop48
 90
       50
102
RTVSPost2010PropOp48
 70
     1
102
RTVSPost2010Prop49
280
     0
102
RTVSPost2010PropOp49
 70
     1
102
RTVSPost2010Prop50
 90
       50
102
RTVSPost2010PropOp50
 70
     1
102
RTVSPost2010Prop51ColorIndex
 90
      256
102
RTVSPost2010Prop51ColorRGB
 90
-16777216
102
RTVSPost2010PropOp51
 70
     0
102
RTVSPost2010Prop52
140
1.0
102
RTVSPost2010PropOp52
 70
     0
102
RTVSPost2010Prop53
 90
        2
102
RTVSPost2010PropOp53
 70
     1
102
RTVSPost2010Prop54
  1
strokes_ogs.tif
102
RTVSPost2010PropOp54
 70
     1
102
RTVSPost2010Prop55
280
     0
102
RTVSPost2010PropOp55
 70
     1
102
RTVSPost2010Prop56
140
1.0
102
RTVSPost2010PropOp56
 70
     1
102
RTVSPost2010Prop57
140
1.0
102
RTVSPost2010PropOp57
 70
     1
102
RTVSPropertyOp0
 70
     1
102
RTVSPropertyOp1
 70
     1
102
RTVSPropertyOp2
 70
     1
102
RTVSPropertyOp3
 70
     1
102
RTVSPropertyOp4
 70
     1
102
RTVSPropertyOp5
 70
     1
102
RTVSPropertyOp6
 70
     1
102
RTVSPropertyOp7
 70
     1
102
RTVSPropertyOp8
 70
     1
102
RTVSPropertyOp9
 70
     1
102
RTVSPropertyOp10
 70
     1
102
RTVSPropertyOp11
 70
     1
102
RTVSPropertyOp12
 70
     1
102
RTVSPropertyOp13
 70
     1
102
RTVSPropertyOp14
 70
     1
102
RTVSPropertyOp15
 70
     1
102
RTVSPropertyOp16
 70
     1
102
RTVSPropertyOp17
 70
     1
102
RTVSPropertyOp18
 70
     1
102
RTVSPropertyOp19
 70
     1
102
RTVSPropertyOp20
 70
     1
102
RTVSPropertyOp21
 70
     1
102
RTVSPropertyOp22
 70
     1
102
RTVSPropertyOp23
 70
     1
102
RTVSPropertyOp24
 70
     1
102
RTVSPropertyOp25
 70
     1
102
RTVSPropertyOp26
 70
     1
102
RTVSPropertyOp27
 70
     1
102
RTVSPropertyOp28
 70
     1
102
RTVSPropertyOp29
 70
     1
102
RTVSPropertyOp30
 70
     1
102
RTVSPropertyOp31
 70
     1
102
RTVSPropertyOp32
 70
     1
102
RTVSPropertyOp33
 70
     1
102
RTVSPropertyOp34
 70
     1
102
RTVSPropertyOp35
 70
     1
102
RTVSPropertyOp36
 70
     1
102
RTVSPropertyOp37
 70
     1
102
RTVSPropertyOp38
 70
     1
102
RTVSPropertyOp39
 70
     1
102
RTVSPropertyOp40
 70
     1
102
RTVSPropertyOp41
 70
     1
102
RTVSPropertyOp42
 70
     1
102
RTVSPropertyOp43
 70
     1
102
RTVSPropertyOp44
 70
     1
102
RTVSPropertyOp45
 70
     1
102
RTVSPropertyOp46
 70
     1
102
RTVSPropertyOp47
 70
     1
102
RTVSPropertyOp48
 70
     1
102
RTVSPropertyOp49
 70
     1
102
RTVSPropertyOp50
 70
     1
102
RTVSPropertyOp51
 70
     0
102
RTVSPropertyOp52
 70
     0
102
RTVSPropertyOp53
 70
     1
102
RTVSPropertyOp54
 70
     1
102
RTVSPropertyOp55
 70
     1
102
RTVSPropertyOp56
 70
     1
102
RTVSPropertyOp57
 70
     1
102
RTVSPropertyOp58
 70
     1
102
RTVSPropertyOp59
 70
     1
102
RTVSPropertyOp60
 70
     1
102
RTVSPropertyOp61
 70
     1
102
RTVSPropertyOp62
 70
     1
  0
XRECORD
  5
2E3
102
{ACAD_REACTORS
330
2E2
102
}
330
2E2
100
AcDbXrecord
280
     1
102
RTVSPost2010Prop28
280
     0
102
RTVSPost2010PropOp28
 70
     1
102
RTVSPost2010Prop29
280
     1
102
RTVSPost2010PropOp29
 70
     1
102
RTVSPost2010Prop30
280
     1
102
RTVSPost2010PropOp30
 70
     1
102
RTVSPost2010Prop31
280
     0
102
RTVSPost2010PropOp31
 70
     1
102
RTVSPost2010Prop32
280
     0
102
RTVSPost2010PropOp32
 70
     1
102
RTVSPost2010Prop33
280
     0
102
RTVSPost2010PropOp33
 70
     1
102
RTVSPost2010Prop34
280
     0
102
RTVSPost2010PropOp34
 70
     1
102
RTVSPost2010Prop35
280
     0
102
RTVSPost2010PropOp35
 70
     1
102
RTVSPost2010Prop36
280
     0
102
RTVSPost2010PropOp36
 70
     1
102
RTVSPost2010Prop37
 90
       50
102
RTVSPost2010PropOp37
 70
     1
102
RTVSPost2010Prop38
140
0.0
102
RTVSPost2010PropOp38
 70
     1
102
RTVSPost2010Prop39
140
1.0
102
RTVSPost2010PropOp39
 70
     1
102
RTVSPost2010Prop40
 90
        0
102
RTVSPost2010PropOp40
 70
     1
102
RTVSPost2010Prop41ColorIndex
 90
       18
102
RTVSPost2010Prop41ColorRGB
 90
        0
102
RTVSPost2010PropOp41
 70
     1
102
RTVSPost2010Prop42
 90
       50
102
RTVSPost2010PropOp42
 70
     1
102
RTVSPost2010Prop43
 90
        3
102
RTVSPost2010PropOp43
 70
     1
102
RTVSPost2010Prop44ColorIndex
 90
        5
102
RTVSPost2010Prop44ColorRGB
 90
      255
102
RTVSPost2010PropOp44
 70
     1
102
RTVSPost2010Prop45
280
     0
102
RTVSPost2010PropOp45
 70
     1
102
RTVSPost2010Prop46
 90
       50
102
RTVSPost2010PropOp46
 70
     1
102
RTVSPost2010Prop47
 90
       50
102
RTVSPost2010PropOp47
 70
     1
102
RTVSPost2010Prop48
 90
       50
102
RTVSPost2010PropOp48
 70
     1
102
RTVSPost2010Prop49
280
     0
102
RTVSPost2010PropOp49
 70
     1
102
RTVSPost2010Prop50
 90
       50
102
RTVSPost2010PropOp50
 70
     1
102
RTVSPost2010Prop51ColorIndex
 90
      256
102
RTVSPost2010Prop51ColorRGB
 90
-16777216
102
RTVSPost2010PropOp51
 70
     0
102
RTVSPost2010Prop52
140
1.0
102
RTVSPost2010PropOp52
 70
     0
102
RTVSPost2010Prop53
 90
        2
102
RTVSPost2010PropOp53
 70
     1
102
RTVSPost2010Prop54
  1
strokes_ogs.tif
102
RTVSPost2010PropOp54
 70
     1
102
RTVSPost2010Prop55
280
     0
102
RTVSPost2010PropOp55
 70
     1
102
RTVSPost2010Prop56
140
1.0
102
RTVSPost2010PropOp56
 70
     1
102
RTVSPost2010Prop57
140
1.0
102
RTVSPost2010PropOp57
 70
     1
102
RTVSPropertyOp0
 70
     1
102
RTVSPropertyOp1
 70
     1
102
RTVSPropertyOp2
 70
     1
102
RTVSPropertyOp3
 70
     1
102
RTVSPropertyOp4
 70
     1
102
RTVSPropertyOp5
 70
     1
102
RTVSPropertyOp6
 70
     1
102
RTVSPropertyOp7
 70
     1
102
RTVSPropertyOp8
 70
     1
102
RTVSPropertyOp9
 70
     1
102
RTVSPropertyOp10
 70
     1
102
RTVSPropertyOp11
 70
     1
102
RTVSPropertyOp12
 70
     1
102
RTVSPropertyOp13
 70
     1
102
RTVSPropertyOp14
 70
     1
102
RTVSPropertyOp15
 70
     1
102
RTVSPropertyOp16
 70
     1
102
RTVSPropertyOp17
 70
     1
102
RTVSPropertyOp18
 70
     1
102
RTVSPropertyOp19
 70
     1
102
RTVSPropertyOp20
 70
     1
102
RTVSPropertyOp21
 70
     1
102
RTVSPropertyOp22
 70
     1
102
RTVSPropertyOp23
 70
     1
102
RTVSPropertyOp24
 70
     1
102
RTVSPropertyOp25
 70
     1
102
RTVSPropertyOp26
 70
     1
102
RTVSPropertyOp27
 70
     1
102
RTVSPropertyOp28
 70
     1
102
RTVSPropertyOp29
 70
     1
102
RTVSPropertyOp30
 70
     1
102
RTVSPropertyOp31
 70
     1
102
RTVSPropertyOp32
 70
     1
102
RTVSPropertyOp33
 70
     1
102
RTVSPropertyOp34
 70
     1
102
RTVSPropertyOp35
 70
     1
102
RTVSPropertyOp36
 70
     1
102
RTVSPropertyOp37
 70
     1
102
RTVSPropertyOp38
 70
     1
102
RTVSPropertyOp39
 70
     1
102
RTVSPropertyOp40
 70
     1
102
RTVSPropertyOp41
 70
     1
102
RTVSPropertyOp42
 70
     1
102
RTVSPropertyOp43
 70
     1
102
RTVSPropertyOp44
 70
     1
102
RTVSPropertyOp45
 70
     1
102
RTVSPropertyOp46
 70
     1
102
RTVSPropertyOp47
 70
     1
102
RTVSPropertyOp48
 70
     1
102
RTVSPropertyOp49
 70
     1
102
RTVSPropertyOp50
 70
     1
102
RTVSPropertyOp51
 70
     0
102
RTVSPropertyOp52
 70
     0
102
RTVSPropertyOp53
 70
     1
102
RTVSPropertyOp54
 70
     1
102
RTVSPropertyOp55
 70
     1
102
RTVSPropertyOp56
 70
     1
102
RTVSPropertyOp57
 70
     1
102
RTVSPropertyOp58
 70
     1
102
RTVSPropertyOp59
 70
     1
102
RTVSPropertyOp60
 70
     1
102
RTVSPropertyOp61
 70
     1
102
RTVSPropertyOp62
 70
     1
  0
XRECORD
  5
2E7
102
{ACAD_REACTORS
330
2E6
102
}
330
2E6
100
AcDbXrecord
280
     1
102
RTVSPost2010Prop28
280
     0
102
RTVSPost2010PropOp28
 70
     1
102
RTVSPost2010Prop29
280
     1
102
RTVSPost2010PropOp29
 70
     1
102
RTVSPost2010Prop30
280
     1
102
RTVSPost2010PropOp30
 70
     1
102
RTVSPost2010Prop31
280
     0
102
RTVSPost2010PropOp31
 70
     1
102
RTVSPost2010Prop32
280
     0
102
RTVSPost2010PropOp32
 70
     1
102
RTVSPost2010Prop33
280
     0
102
RTVSPost2010PropOp33
 70
     1
102
RTVSPost2010Prop34
280
     0
102
RTVSPost2010PropOp34
 70
     1
102
RTVSPost2010Prop35
280
     0
102
RTVSPost2010PropOp35
 70
     1
102
RTVSPost2010Prop36
280
     0
102
RTVSPost2010PropOp36
 70
     1
102
RTVSPost2010Prop37
 90
       50
102
RTVSPost2010PropOp37
 70
     1
102
RTVSPost2010Prop38
140
0.0
102
RTVSPost2010PropOp38
 70
     1
102
RTVSPost2010Prop39
140
1.0
102
RTVSPost2010PropOp39
 70
     1
102
RTVSPost2010Prop40
 90
        0
102
RTVSPost2010PropOp40
 70
     1
102
RTVSPost2010Prop41ColorIndex
 90
       18
102
RTVSPost2010Prop41ColorRGB
 90
        0
102
RTVSPost2010PropOp41
 70
     1
102
RTVSPost2010Prop42
 90
       50
102
RTVSPost2010PropOp42
 70
     1
102
RTVSPost2010Prop43
 90
        3
102
RTVSPost2010PropOp43
 70
     1
102
RTVSPost2010Prop44ColorIndex
 90
        5
102
RTVSPost2010Prop44ColorRGB
 90
      255
102
RTVSPost2010PropOp44
 70
     1
102
RTVSPost2010Prop45
280
     0
102
RTVSPost2010PropOp45
 70
     1
102
RTVSPost2010Prop46
 90
       50
102
RTVSPost2010PropOp46
 70
     1
102
RTVSPost2010Prop47
 90
       50
102
RTVSPost2010PropOp47
 70
     1
102
RTVSPost2010Prop48
 90
       50
102
RTVSPost2010PropOp48
 70
     1
102
RTVSPost2010Prop49
280
     0
102
RTVSPost2010PropOp49
 70
     1
102
RTVSPost2010Prop50
 90
       50
102
RTVSPost2010PropOp50
 70
     1
102
RTVSPost2010Prop51ColorIndex
 90
      256
102
RTVSPost2010Prop51ColorRGB
 90
-16777216
102
RTVSPost2010PropOp51
 70
     0
102
RTVSPost2010Prop52
140
1.0
102
RTVSPost2010PropOp52
 70
     0
102
RTVSPost2010Prop53
 90
        2
102
RTVSPost2010PropOp53
 70
     1
102
RTVSPost2010Prop54
  1
strokes_ogs.tif
102
RTVSPost2010PropOp54
 70
     1
102
RTVSPost2010Prop55
280
     0
102
RTVSPost2010PropOp55
 70
     1
102
RTVSPost2010Prop56
140
1.0
102
RTVSPost2010PropOp56
 70
     1
102
RTVSPost2010Prop57
140
1.0
102
RTVSPost2010PropOp57
 70
     1
102
RTVSPropertyOp0
 70
     1
102
RTVSPropertyOp1
 70
     1
102
RTVSPropertyOp2
 70
     1
102
RTVSPropertyOp3
 70
     1
102
RTVSPropertyOp4
 70
     1
102
RTVSPropertyOp5
 70
     1
102
RTVSPropertyOp6
 70
     1
102
RTVSPropertyOp7
 70
     1
102
RTVSPropertyOp8
 70
     1
102
RTVSPropertyOp9
 70
     1
102
RTVSPropertyOp10
 70
     1
102
RTVSPropertyOp11
 70
     1
102
RTVSPropertyOp12
 70
     1
102
RTVSPropertyOp13
 70
     1
102
RTVSPropertyOp14
 70
     1
102
RTVSPropertyOp15
 70
     1
102
RTVSPropertyOp16
 70
     1
102
RTVSPropertyOp17
 70
     1
102
RTVSPropertyOp18
 70
     1
102
RTVSPropertyOp19
 70
     1
102
RTVSPropertyOp20
 70
     1
102
RTVSPropertyOp21
 70
     1
102
RTVSPropertyOp22
 70
     1
102
RTVSPropertyOp23
 70
     1
102
RTVSPropertyOp24
 70
     1
102
RTVSPropertyOp25
 70
     1
102
RTVSPropertyOp26
 70
     1
102
RTVSPropertyOp27
 70
     1
102
RTVSPropertyOp28
 70
     1
102
RTVSPropertyOp29
 70
     1
102
RTVSPropertyOp30
 70
     1
102
RTVSPropertyOp31
 70
     1
102
RTVSPropertyOp32
 70
     1
102
RTVSPropertyOp33
 70
     1
102
RTVSPropertyOp34
 70
     1
102
RTVSPropertyOp35
 70
     1
102
RTVSPropertyOp36
 70
     1
102
RTVSPropertyOp37
 70
     1
102
RTVSPropertyOp38
 70
     1
102
RTVSPropertyOp39
 70
     1
102
RTVSPropertyOp40
 70
     1
102
RTVSPropertyOp41
 70
     1
102
RTVSPropertyOp42
 70
     1
102
RTVSPropertyOp43
 70
     1
102
RTVSPropertyOp44
 70
     1
102
RTVSPropertyOp45
 70
     1
102
RTVSPropertyOp46
 70
     1
102
RTVSPropertyOp47
 70
     1
102
RTVSPropertyOp48
 70
     1
102
RTVSPropertyOp49
 70
     1
102
RTVSPropertyOp50
 70
     1
102
RTVSPropertyOp51
 70
     0
102
RTVSPropertyOp52
 70
     0
102
RTVSPropertyOp53
 70
     1
102
RTVSPropertyOp54
 70
     1
102
RTVSPropertyOp55
 70
     1
102
RTVSPropertyOp56
 70
     1
102
RTVSPropertyOp57
 70
     1
102
RTVSPropertyOp58
 70
     1
102
RTVSPropertyOp59
 70
     1
102
RTVSPropertyOp60
 70
     1
102
RTVSPropertyOp61
 70
     1
102
RTVSPropertyOp62
 70
     1
  0
XRECORD
  5
301
102
{ACAD_REACTORS
330
300
102
}
330
300
100
AcDbXrecord
280
     1
102
RTVSPost2010Prop28
280
     0
102
RTVSPost2010PropOp28
 70
     1
102
RTVSPost2010Prop29
280
     1
102
RTVSPost2010PropOp29
 70
     1
102
RTVSPost2010Prop30
280
     1
102
RTVSPost2010PropOp30
 70
     1
102
RTVSPost2010Prop31
280
     0
102
RTVSPost2010PropOp31
 70
     1
102
RTVSPost2010Prop32
280
     0
102
RTVSPost2010PropOp32
 70
     1
102
RTVSPost2010Prop33
280
     0
102
RTVSPost2010PropOp33
 70
     1
102
RTVSPost2010Prop34
280
     0
102
RTVSPost2010PropOp34
 70
     1
102
RTVSPost2010Prop35
280
     0
102
RTVSPost2010PropOp35
 70
     1
102
RTVSPost2010Prop36
280
     0
102
RTVSPost2010PropOp36
 70
     1
102
RTVSPost2010Prop37
 90
       50
102
RTVSPost2010PropOp37
 70
     0
102
RTVSPost2010Prop38
140
0.0
102
RTVSPost2010PropOp38
 70
     0
102
RTVSPost2010Prop39
140
1.0
102
RTVSPost2010PropOp39
 70
     0
102
RTVSPost2010Prop40
 90
        0
102
RTVSPost2010PropOp40
 70
     0
102
RTVSPost2010Prop41ColorIndex
 90
       18
102
RTVSPost2010Prop41ColorRGB
 90
        0
102
RTVSPost2010PropOp41
 70
     0
102
RTVSPost2010Prop42
 90
       50
102
RTVSPost2010PropOp42
 70
     0
102
RTVSPost2010Prop43
 90
        3
102
RTVSPost2010PropOp43
 70
     0
102
RTVSPost2010Prop44ColorIndex
 90
        5
102
RTVSPost2010Prop44ColorRGB
 90
      255
102
RTVSPost2010PropOp44
 70
     0
102
RTVSPost2010Prop45
280
     0
102
RTVSPost2010PropOp45
 70
     1
102
RTVSPost2010Prop46
 90
       50
102
RTVSPost2010PropOp46
 70
     0
102
RTVSPost2010Prop47
 90
       50
102
RTVSPost2010PropOp47
 70
     0
102
RTVSPost2010Prop48
 90
       50
102
RTVSPost2010PropOp48
 70
     0
102
RTVSPost2010Prop49
280
     0
102
RTVSPost2010PropOp49
 70
     1
102
RTVSPost2010Prop50
 90
       50
102
RTVSPost2010PropOp50
 70
     0
102
RTVSPost2010Prop51ColorIndex
 90
      256
102
RTVSPost2010Prop51ColorRGB
 90
-16777216
102
RTVSPost2010PropOp51
 70
     0
102
RTVSPost2010Prop52
140
1.0
102
RTVSPost2010PropOp52
 70
     0
102
RTVSPost2010Prop53
 90
        2
102
RTVSPost2010PropOp53
 70
     0
102
RTVSPost2010Prop54
  1
strokes_ogs.tif
102
RTVSPost2010PropOp54
 70
     0
102
RTVSPost2010Prop55
280
     0
102
RTVSPost2010PropOp55
 70
     1
102
RTVSPost2010Prop56
140
1.0
102
RTVSPost2010PropOp56
 70
     0
102
RTVSPost2010Prop57
140
1.0
102
RTVSPost2010PropOp57
 70
     0
102
RTVSPropertyOp0
 70
     0
102
RTVSPropertyOp1
 70
     0
102
RTVSPropertyOp2
 70
     0
102
RTVSPropertyOp3
 70
     0
102
RTVSPropertyOp4
 70
     0
102
RTVSPropertyOp5
 70
     0
102
RTVSPropertyOp6
 70
     0
102
RTVSPropertyOp7
 70
     0
102
RTVSPropertyOp8
 70
     0
102
RTVSPropertyOp9
 70
     0
102
RTVSPropertyOp10
 70
     0
102
RTVSPropertyOp11
 70
     0
102
RTVSPropertyOp12
 70
     0
102
RTVSPropertyOp13
 70
     0
102
RTVSPropertyOp14
 70
     2
102
RTVSPropertyOp15
 70
     0
102
RTVSPropertyOp16
 70
     0
102
RTVSPropertyOp17
 70
     0
102
RTVSPropertyOp18
 70
     0
102
RTVSPropertyOp19
 70
     0
102
RTVSPropertyOp20
 70
     0
102
RTVSPropertyOp21
 70
     0
102
RTVSPropertyOp22
 70
     0
102
RTVSPropertyOp23
 70
     0
102
RTVSPropertyOp24
 70
     0
102
RTVSPropertyOp25
 70
     0
102
RTVSPropertyOp26
 70
     0
102
RTVSPropertyOp27
 70
     0
102
RTVSPropertyOp28
 70
     1
102
RTVSPropertyOp29
 70
     1
102
RTVSPropertyOp30
 70
     1
102
RTVSPropertyOp31
 70
     1
102
RTVSPropertyOp32
 70
     1
102
RTVSPropertyOp33
 70
     1
102
RTVSPropertyOp34
 70
     1
102
RTVSPropertyOp35
 70
     1
102
RTVSPropertyOp36
 70
     1
102
RTVSPropertyOp37
 70
     0
102
RTVSPropertyOp38
 70
     0
102
RTVSPropertyOp39
 70
     0
102
RTVSPropertyOp40
 70
     0
102
RTVSPropertyOp41
 70
     0
102
RTVSPropertyOp42
 70
     0
102
RTVSPropertyOp43
 70
     0
102
RTVSPropertyOp44
 70
     0
102
RTVSPropertyOp45
 70
     1
102
RTVSPropertyOp46
 70
     0
102
RTVSPropertyOp47
 70
     0
102
RTVSPropertyOp48
 70
     0
102
RTVSPropertyOp49
 70
     1
102
RTVSPropertyOp50
 70
     0
102
RTVSPropertyOp51
 70
     0
102
RTVSPropertyOp52
 70
     0
102
RTVSPropertyOp53
 70
     0
102
RTVSPropertyOp54
 70
     0
102
RTVSPropertyOp55
 70
     1
102
RTVSPropertyOp56
 70
     0
102
RTVSPropertyOp57
 70
     0
102
RTVSPropertyOp58
 70
     0
102
RTVSPropertyOp59
 70
     0
102
RTVSPropertyOp60
 70
     0
102
RTVSPropertyOp61
 70
     0
102
RTVSPropertyOp62
 70
     0
  0
XRECORD
  5
2EF
102
{ACAD_REACTORS
330
2EE
102
}
330
2EE
100
AcDbXrecord
280
     1
102
RTVSPost2010Prop28
280
     0
102
RTVSPost2010PropOp28
 70
     1
102
RTVSPost2010Prop29
280
     1
102
RTVSPost2010PropOp29
 70
     1
102
RTVSPost2010Prop30
280
     1
102
RTVSPost2010PropOp30
 70
     1
102
RTVSPost2010Prop31
280
     0
102
RTVSPost2010PropOp31
 70
     1
102
RTVSPost2010Prop32
280
     0
102
RTVSPost2010PropOp32
 70
     1
102
RTVSPost2010Prop33
280
     0
102
RTVSPost2010PropOp33
 70
     1
102
RTVSPost2010Prop34
280
     0
102
RTVSPost2010PropOp34
 70
     1
102
RTVSPost2010Prop35
280
     0
102
RTVSPost2010PropOp35
 70
     1
102
RTVSPost2010Prop36
280
     0
102
RTVSPost2010PropOp36
 70
     1
102
RTVSPost2010Prop37
 90
       50
102
RTVSPost2010PropOp37
 70
     1
102
RTVSPost2010Prop38
140
0.0
102
RTVSPost2010PropOp38
 70
     1
102
RTVSPost2010Prop39
140
1.0
102
RTVSPost2010PropOp39
 70
     1
102
RTVSPost2010Prop40
 90
        0
102
RTVSPost2010PropOp40
 70
     1
102
RTVSPost2010Prop41ColorIndex
 90
       18
102
RTVSPost2010Prop41ColorRGB
 90
        0
102
RTVSPost2010PropOp41
 70
     1
102
RTVSPost2010Prop42
 90
       50
102
RTVSPost2010PropOp42
 70
     1
102
RTVSPost2010Prop43
 90
        3
102
RTVSPost2010PropOp43
 70
     1
102
RTVSPost2010Prop44ColorIndex
 90
        5
102
RTVSPost2010Prop44ColorRGB
 90
      255
102
RTVSPost2010PropOp44
 70
     1
102
RTVSPost2010Prop45
280
     0
102
RTVSPost2010PropOp45
 70
     1
102
RTVSPost2010Prop46
 90
       50
102
RTVSPost2010PropOp46
 70
     1
102
RTVSPost2010Prop47
 90
       50
102
RTVSPost2010PropOp47
 70
     1
102
RTVSPost2010Prop48
 90
       50
102
RTVSPost2010PropOp48
 70
     1
102
RTVSPost2010Prop49
280
     0
102
RTVSPost2010PropOp49
 70
     1
102
RTVSPost2010Prop50
 90
       50
102
RTVSPost2010PropOp50
 70
     1
102
RTVSPost2010Prop51ColorIndex
 90
      256
102
RTVSPost2010Prop51ColorRGB
 90
-16777216
102
RTVSPost2010PropOp51
 70
     0
102
RTVSPost2010Prop52
140
1.0
102
RTVSPost2010PropOp52
 70
     0
102
RTVSPost2010Prop53
 90
        2
102
RTVSPost2010PropOp53
 70
     1
102
RTVSPost2010Prop54
  1
strokes_ogs.tif
102
RTVSPost2010PropOp54
 70
     1
102
RTVSPost2010Prop55
280
     0
102
RTVSPost2010PropOp55
 70
     1
102
RTVSPost2010Prop56
140
1.0
102
RTVSPost2010PropOp56
 70
     1
102
RTVSPost2010Prop57
140
1.0
102
RTVSPost2010PropOp57
 70
     1
102
RTVSPropertyOp0
 70
     1
102
RTVSPropertyOp1
 70
     1
102
RTVSPropertyOp2
 70
     1
102
RTVSPropertyOp3
 70
     1
102
RTVSPropertyOp4
 70
     1
102
RTVSPropertyOp5
 70
     1
102
RTVSPropertyOp6
 70
     1
102
RTVSPropertyOp7
 70
     1
102
RTVSPropertyOp8
 70
     1
102
RTVSPropertyOp9
 70
     1
102
RTVSPropertyOp10
 70
     1
102
RTVSPropertyOp11
 70
     1
102
RTVSPropertyOp12
 70
     1
102
RTVSPropertyOp13
 70
     1
102
RTVSPropertyOp14
 70
     1
102
RTVSPropertyOp15
 70
     1
102
RTVSPropertyOp16
 70
     1
102
RTVSPropertyOp17
 70
     1
102
RTVSPropertyOp18
 70
     1
102
RTVSPropertyOp19
 70
     1
102
RTVSPropertyOp20
 70
     1
102
RTVSPropertyOp21
 70
     1
102
RTVSPropertyOp22
 70
     1
102
RTVSPropertyOp23
 70
     1
102
RTVSPropertyOp24
 70
     1
102
RTVSPropertyOp25
 70
     1
102
RTVSPropertyOp26
 70
     1
102
RTVSPropertyOp27
 70
     1
102
RTVSPropertyOp28
 70
     1
102
RTVSPropertyOp29
 70
     1
102
RTVSPropertyOp30
 70
     1
102
RTVSPropertyOp31
 70
     1
102
RTVSPropertyOp32
 70
     1
102
RTVSPropertyOp33
 70
     1
102
RTVSPropertyOp34
 70
     1
102
RTVSPropertyOp35
 70
     1
102
RTVSPropertyOp36
 70
     1
102
RTVSPropertyOp37
 70
     1
102
RTVSPropertyOp38
 70
     1
102
RTVSPropertyOp39
 70
     1
102
RTVSPropertyOp40
 70
     1
102
RTVSPropertyOp41
 70
     1
102
RTVSPropertyOp42
 70
     1
102
RTVSPropertyOp43
 70
     1
102
RTVSPropertyOp44
 70
     1
102
RTVSPropertyOp45
 70
     1
102
RTVSPropertyOp46
 70
     1
102
RTVSPropertyOp47
 70
     1
102
RTVSPropertyOp48
 70
     1
102
RTVSPropertyOp49
 70
     1
102
RTVSPropertyOp50
 70
     1
102
RTVSPropertyOp51
 70
     0
102
RTVSPropertyOp52
 70
     0
102
RTVSPropertyOp53
 70
     1
102
RTVSPropertyOp54
 70
     1
102
RTVSPropertyOp55
 70
     1
102
RTVSPropertyOp56
 70
     1
102
RTVSPropertyOp57
 70
     1
102
RTVSPropertyOp58
 70
     1
102
RTVSPropertyOp59
 70
     1
102
RTVSPropertyOp60
 70
     1
102
RTVSPropertyOp61
 70
     1
102
RTVSPropertyOp62
 70
     1
  0
XRECORD
  5
2D3
102
{ACAD_REACTORS
330
2D2
102
}
330
2D2
100
AcDbXrecord
280
     1
102
RTVSPost2010Prop28
280
     0
102
RTVSPost2010PropOp28
 70
     1
102
RTVSPost2010Prop29
280
     1
102
RTVSPost2010PropOp29
 70
     1
102
RTVSPost2010Prop30
280
     1
102
RTVSPost2010PropOp30
 70
     1
102
RTVSPost2010Prop31
280
     0
102
RTVSPost2010PropOp31
 70
     1
102
RTVSPost2010Prop32
280
     0
102
RTVSPost2010PropOp32
 70
     1
102
RTVSPost2010Prop33
280
     0
102
RTVSPost2010PropOp33
 70
     1
102
RTVSPost2010Prop34
280
     0
102
RTVSPost2010PropOp34
 70
     1
102
RTVSPost2010Prop35
280
     0
102
RTVSPost2010PropOp35
 70
     1
102
RTVSPost2010Prop36
280
     0
102
RTVSPost2010PropOp36
 70
     1
102
RTVSPost2010Prop37
 90
       50
102
RTVSPost2010PropOp37
 70
     1
102
RTVSPost2010Prop38
140
0.0
102
RTVSPost2010PropOp38
 70
     1
102
RTVSPost2010Prop39
140
1.0
102
RTVSPost2010PropOp39
 70
     1
102
RTVSPost2010Prop40
 90
        0
102
RTVSPost2010PropOp40
 70
     1
102
RTVSPost2010Prop41ColorIndex
 90
       18
102
RTVSPost2010Prop41ColorRGB
 90
        0
102
RTVSPost2010PropOp41
 70
     1
102
RTVSPost2010Prop42
 90
       50
102
RTVSPost2010PropOp42
 70
     1
102
RTVSPost2010Prop43
 90
        3
102
RTVSPost2010PropOp43
 70
     1
102
RTVSPost2010Prop44ColorIndex
 90
        5
102
RTVSPost2010Prop44ColorRGB
 90
      255
102
RTVSPost2010PropOp44
 70
     1
102
RTVSPost2010Prop45
280
     0
102
RTVSPost2010PropOp45
 70
     1
102
RTVSPost2010Prop46
 90
       50
102
RTVSPost2010PropOp46
 70
     1
102
RTVSPost2010Prop47
 90
       50
102
RTVSPost2010PropOp47
 70
     1
102
RTVSPost2010Prop48
 90
       50
102
RTVSPost2010PropOp48
 70
     1
102
RTVSPost2010Prop49
280
     0
102
RTVSPost2010PropOp49
 70
     1
102
RTVSPost2010Prop50
 90
       50
102
RTVSPost2010PropOp50
 70
     1
102
RTVSPost2010Prop51ColorIndex
 90
      256
102
RTVSPost2010Prop51ColorRGB
 90
-16777216
102
RTVSPost2010PropOp51
 70
     0
102
RTVSPost2010Prop52
140
1.0
102
RTVSPost2010PropOp52
 70
     0
102
RTVSPost2010Prop53
 90
        2
102
RTVSPost2010PropOp53
 70
     1
102
RTVSPost2010Prop54
  1
strokes_ogs.tif
102
RTVSPost2010PropOp54
 70
     1
102
RTVSPost2010Prop55
280
     0
102
RTVSPost2010PropOp55
 70
     1
102
RTVSPost2010Prop56
140
1.0
102
RTVSPost2010PropOp56
 70
     1
102
RTVSPost2010Prop57
140
1.0
102
RTVSPost2010PropOp57
 70
     1
102
RTVSPropertyOp0
 70
     1
102
RTVSPropertyOp1
 70
     1
102
RTVSPropertyOp2
 70
     1
102
RTVSPropertyOp3
 70
     1
102
RTVSPropertyOp4
 70
     1
102
RTVSPropertyOp5
 70
     1
102
RTVSPropertyOp6
 70
     1
102
RTVSPropertyOp7
 70
     1
102
RTVSPropertyOp8
 70
     1
102
RTVSPropertyOp9
 70
     1
102
RTVSPropertyOp10
 70
     1
102
RTVSPropertyOp11
 70
     1
102
RTVSPropertyOp12
 70
     1
102
RTVSPropertyOp13
 70
     1
102
RTVSPropertyOp14
 70
     1
102
RTVSPropertyOp15
 70
     1
102
RTVSPropertyOp16
 70
     1
102
RTVSPropertyOp17
 70
     1
102
RTVSPropertyOp18
 70
     1
102
RTVSPropertyOp19
 70
     1
102
RTVSPropertyOp20
 70
     1
102
RTVSPropertyOp21
 70
     1
102
RTVSPropertyOp22
 70
     1
102
RTVSPropertyOp23
 70
     1
102
RTVSPropertyOp24
 70
     1
102
RTVSPropertyOp25
 70
     1
102
RTVSPropertyOp26
 70
     1
102
RTVSPropertyOp27
 70
     1
102
RTVSPropertyOp28
 70
     1
102
RTVSPropertyOp29
 70
     1
102
RTVSPropertyOp30
 70
     1
102
RTVSPropertyOp31
 70
     1
102
RTVSPropertyOp32
 70
     1
102
RTVSPropertyOp33
 70
     1
102
RTVSPropertyOp34
 70
     1
102
RTVSPropertyOp35
 70
     1
102
RTVSPropertyOp36
 70
     1
102
RTVSPropertyOp37
 70
     1
102
RTVSPropertyOp38
 70
     1
102
RTVSPropertyOp39
 70
     1
102
RTVSPropertyOp40
 70
     1
102
RTVSPropertyOp41
 70
     1
102
RTVSPropertyOp42
 70
     1
102
RTVSPropertyOp43
 70
     1
102
RTVSPropertyOp44
 70
     1
102
RTVSPropertyOp45
 70
     1
102
RTVSPropertyOp46
 70
     1
102
RTVSPropertyOp47
 70
     1
102
RTVSPropertyOp48
 70
     1
102
RTVSPropertyOp49
 70
     1
102
RTVSPropertyOp50
 70
     1
102
RTVSPropertyOp51
 70
     0
102
RTVSPropertyOp52
 70
     0
102
RTVSPropertyOp53
 70
     1
102
RTVSPropertyOp54
 70
     1
102
RTVSPropertyOp55
 70
     1
102
RTVSPropertyOp56
 70
     1
102
RTVSPropertyOp57
 70
     1
102
RTVSPropertyOp58
 70
     1
102
RTVSPropertyOp59
 70
     1
102
RTVSPropertyOp60
 70
     1
102
RTVSPropertyOp61
 70
     1
102
RTVSPropertyOp62
 70
     1
  0
XRECORD
  5
2D5
102
{ACAD_REACTORS
330
2D4
102
}
330
2D4
100
AcDbXrecord
280
     1
102
RTVSPost2010Prop28
280
     0
102
RTVSPost2010PropOp28
 70
     1
102
RTVSPost2010Prop29
280
     1
102
RTVSPost2010PropOp29
 70
     1
102
RTVSPost2010Prop30
280
     1
102
RTVSPost2010PropOp30
 70
     1
102
RTVSPost2010Prop31
280
     0
102
RTVSPost2010PropOp31
 70
     1
102
RTVSPost2010Prop32
280
     0
102
RTVSPost2010PropOp32
 70
     1
102
RTVSPost2010Prop33
280
     0
102
RTVSPost2010PropOp33
 70
     1
102
RTVSPost2010Prop34
280
     0
102
RTVSPost2010PropOp34
 70
     1
102
RTVSPost2010Prop35
280
     0
102
RTVSPost2010PropOp35
 70
     1
102
RTVSPost2010Prop36
280
     0
102
RTVSPost2010PropOp36
 70
     1
102
RTVSPost2010Prop37
 90
       50
102
RTVSPost2010PropOp37
 70
     1
102
RTVSPost2010Prop38
140
0.0
102
RTVSPost2010PropOp38
 70
     1
102
RTVSPost2010Prop39
140
1.0
102
RTVSPost2010PropOp39
 70
     1
102
RTVSPost2010Prop40
 90
        0
102
RTVSPost2010PropOp40
 70
     1
102
RTVSPost2010Prop41ColorIndex
 90
       18
102
RTVSPost2010Prop41ColorRGB
 90
        0
102
RTVSPost2010PropOp41
 70
     1
102
RTVSPost2010Prop42
 90
       50
102
RTVSPost2010PropOp42
 70
     1
102
RTVSPost2010Prop43
 90
        3
102
RTVSPost2010PropOp43
 70
     1
102
RTVSPost2010Prop44ColorIndex
 90
        5
102
RTVSPost2010Prop44ColorRGB
 90
      255
102
RTVSPost2010PropOp44
 70
     1
102
RTVSPost2010Prop45
280
     0
102
RTVSPost2010PropOp45
 70
     1
102
RTVSPost2010Prop46
 90
       50
102
RTVSPost2010PropOp46
 70
     1
102
RTVSPost2010Prop47
 90
       50
102
RTVSPost2010PropOp47
 70
     1
102
RTVSPost2010Prop48
 90
       50
102
RTVSPost2010PropOp48
 70
     1
102
RTVSPost2010Prop49
280
     0
102
RTVSPost2010PropOp49
 70
     1
102
RTVSPost2010Prop50
 90
       50
102
RTVSPost2010PropOp50
 70
     1
102
RTVSPost2010Prop51ColorIndex
 90
      256
102
RTVSPost2010Prop51ColorRGB
 90
-16777216
102
RTVSPost2010PropOp51
 70
     0
102
RTVSPost2010Prop52
140
1.0
102
RTVSPost2010PropOp52
 70
     0
102
RTVSPost2010Prop53
 90
        2
102
RTVSPost2010PropOp53
 70
     1
102
RTVSPost2010Prop54
  1
strokes_ogs.tif
102
RTVSPost2010PropOp54
 70
     1
102
RTVSPost2010Prop55
280
     0
102
RTVSPost2010PropOp55
 70
     1
102
RTVSPost2010Prop56
140
1.0
102
RTVSPost2010PropOp56
 70
     1
102
RTVSPost2010Prop57
140
1.0
102
RTVSPost2010PropOp57
 70
     1
102
RTVSPropertyOp0
 70
     1
102
RTVSPropertyOp1
 70
     1
102
RTVSPropertyOp2
 70
     1
102
RTVSPropertyOp3
 70
     1
102
RTVSPropertyOp4
 70
     1
102
RTVSPropertyOp5
 70
     1
102
RTVSPropertyOp6
 70
     1
102
RTVSPropertyOp7
 70
     1
102
RTVSPropertyOp8
 70
     1
102
RTVSPropertyOp9
 70
     1
102
RTVSPropertyOp10
 70
     1
102
RTVSPropertyOp11
 70
     1
102
RTVSPropertyOp12
 70
     1
102
RTVSPropertyOp13
 70
     1
102
RTVSPropertyOp14
 70
     1
102
RTVSPropertyOp15
 70
     1
102
RTVSPropertyOp16
 70
     1
102
RTVSPropertyOp17
 70
     1
102
RTVSPropertyOp18
 70
     1
102
RTVSPropertyOp19
 70
     1
102
RTVSPropertyOp20
 70
     1
102
RTVSPropertyOp21
 70
     1
102
RTVSPropertyOp22
 70
     1
102
RTVSPropertyOp23
 70
     1
102
RTVSPropertyOp24
 70
     1
102
RTVSPropertyOp25
 70
     1
102
RTVSPropertyOp26
 70
     1
102
RTVSPropertyOp27
 70
     1
102
RTVSPropertyOp28
 70
     1
102
RTVSPropertyOp29
 70
     1
102
RTVSPropertyOp30
 70
     1
102
RTVSPropertyOp31
 70
     1
102
RTVSPropertyOp32
 70
     1
102
RTVSPropertyOp33
 70
     1
102
RTVSPropertyOp34
 70
     1
102
RTVSPropertyOp35
 70
     1
102
RTVSPropertyOp36
 70
     1
102
RTVSPropertyOp37
 70
     1
102
RTVSPropertyOp38
 70
     1
102
RTVSPropertyOp39
 70
     1
102
RTVSPropertyOp40
 70
     1
102
RTVSPropertyOp41
 70
     1
102
RTVSPropertyOp42
 70
     1
102
RTVSPropertyOp43
 70
     1
102
RTVSPropertyOp44
 70
     1
102
RTVSPropertyOp45
 70
     1
102
RTVSPropertyOp46
 70
     1
102
RTVSPropertyOp47
 70
     1
102
RTVSPropertyOp48
 70
     1
102
RTVSPropertyOp49
 70
     1
102
RTVSPropertyOp50
 70
     1
102
RTVSPropertyOp51
 70
     0
102
RTVSPropertyOp52
 70
     0
102
RTVSPropertyOp53
 70
     1
102
RTVSPropertyOp54
 70
     1
102
RTVSPropertyOp55
 70
     1
102
RTVSPropertyOp56
 70
     1
102
RTVSPropertyOp57
 70
     1
102
RTVSPropertyOp58
 70
     1
102
RTVSPropertyOp59
 70
     1
102
RTVSPropertyOp60
 70
     1
102
RTVSPropertyOp61
 70
     1
102
RTVSPropertyOp62
 70
     1
  0
XRECORD
  5
2D7
102
{ACAD_REACTORS
330
2D6
102
}
330
2D6
100
AcDbXrecord
280
     1
102
RTVSPost2010Prop28
280
     0
102
RTVSPost2010PropOp28
 70
     1
102
RTVSPost2010Prop29
280
     1
102
RTVSPost2010PropOp29
 70
     1
102
RTVSPost2010Prop30
280
     1
102
RTVSPost2010PropOp30
 70
     1
102
RTVSPost2010Prop31
280
     0
102
RTVSPost2010PropOp31
 70
     1
102
RTVSPost2010Prop32
280
     0
102
RTVSPost2010PropOp32
 70
     1
102
RTVSPost2010Prop33
280
     0
102
RTVSPost2010PropOp33
 70
     1
102
RTVSPost2010Prop34
280
     0
102
RTVSPost2010PropOp34
 70
     1
102
RTVSPost2010Prop35
280
     0
102
RTVSPost2010PropOp35
 70
     1
102
RTVSPost2010Prop36
280
     0
102
RTVSPost2010PropOp36
 70
     1
102
RTVSPost2010Prop37
 90
       50
102
RTVSPost2010PropOp37
 70
     1
102
RTVSPost2010Prop38
140
0.0
102
RTVSPost2010PropOp38
 70
     1
102
RTVSPost2010Prop39
140
1.0
102
RTVSPost2010PropOp39
 70
     1
102
RTVSPost2010Prop40
 90
        0
102
RTVSPost2010PropOp40
 70
     1
102
RTVSPost2010Prop41ColorIndex
 90
       18
102
RTVSPost2010Prop41ColorRGB
 90
        0
102
RTVSPost2010PropOp41
 70
     1
102
RTVSPost2010Prop42
 90
       50
102
RTVSPost2010PropOp42
 70
     1
102
RTVSPost2010Prop43
 90
        3
102
RTVSPost2010PropOp43
 70
     1
102
RTVSPost2010Prop44ColorIndex
 90
        5
102
RTVSPost2010Prop44ColorRGB
 90
      255
102
RTVSPost2010PropOp44
 70
     1
102
RTVSPost2010Prop45
280
     0
102
RTVSPost2010PropOp45
 70
     1
102
RTVSPost2010Prop46
 90
       50
102
RTVSPost2010PropOp46
 70
     1
102
RTVSPost2010Prop47
 90
       50
102
RTVSPost2010PropOp47
 70
     1
102
RTVSPost2010Prop48
 90
       50
102
RTVSPost2010PropOp48
 70
     1
102
RTVSPost2010Prop49
280
     0
102
RTVSPost2010PropOp49
 70
     1
102
RTVSPost2010Prop50
 90
       50
102
RTVSPost2010PropOp50
 70
     1
102
RTVSPost2010Prop51ColorIndex
 90
      256
102
RTVSPost2010Prop51ColorRGB
 90
-16777216
102
RTVSPost2010PropOp51
 70
     0
102
RTVSPost2010Prop52
140
1.0
102
RTVSPost2010PropOp52
 70
     0
102
RTVSPost2010Prop53
 90
        2
102
RTVSPost2010PropOp53
 70
     1
102
RTVSPost2010Prop54
  1
strokes_ogs.tif
102
RTVSPost2010PropOp54
 70
     1
102
RTVSPost2010Prop55
280
     0
102
RTVSPost2010PropOp55
 70
     1
102
RTVSPost2010Prop56
140
1.0
102
RTVSPost2010PropOp56
 70
     1
102
RTVSPost2010Prop57
140
1.0
102
RTVSPost2010PropOp57
 70
     1
102
RTVSPropertyOp0
 70
     1
102
RTVSPropertyOp1
 70
     1
102
RTVSPropertyOp2
 70
     1
102
RTVSPropertyOp3
 70
     1
102
RTVSPropertyOp4
 70
     1
102
RTVSPropertyOp5
 70
     1
102
RTVSPropertyOp6
 70
     1
102
RTVSPropertyOp7
 70
     1
102
RTVSPropertyOp8
 70
     1
102
RTVSPropertyOp9
 70
     1
102
RTVSPropertyOp10
 70
     1
102
RTVSPropertyOp11
 70
     1
102
RTVSPropertyOp12
 70
     1
102
RTVSPropertyOp13
 70
     1
102
RTVSPropertyOp14
 70
     1
102
RTVSPropertyOp15
 70
     1
102
RTVSPropertyOp16
 70
     1
102
RTVSPropertyOp17
 70
     1
102
RTVSPropertyOp18
 70
     1
102
RTVSPropertyOp19
 70
     1
102
RTVSPropertyOp20
 70
     1
102
RTVSPropertyOp21
 70
     1
102
RTVSPropertyOp22
 70
     1
102
RTVSPropertyOp23
 70
     1
102
RTVSPropertyOp24
 70
     1
102
RTVSPropertyOp25
 70
     1
102
RTVSPropertyOp26
 70
     1
102
RTVSPropertyOp27
 70
     1
102
RTVSPropertyOp28
 70
     1
102
RTVSPropertyOp29
 70
     1
102
RTVSPropertyOp30
 70
     1
102
RTVSPropertyOp31
 70
     1
102
RTVSPropertyOp32
 70
     1
102
RTVSPropertyOp33
 70
     1
102
RTVSPropertyOp34
 70
     1
102
RTVSPropertyOp35
 70
     1
102
RTVSPropertyOp36
 70
     1
102
RTVSPropertyOp37
 70
     1
102
RTVSPropertyOp38
 70
     1
102
RTVSPropertyOp39
 70
     1
102
RTVSPropertyOp40
 70
     1
102
RTVSPropertyOp41
 70
     1
102
RTVSPropertyOp42
 70
     1
102
RTVSPropertyOp43
 70
     1
102
RTVSPropertyOp44
 70
     1
102
RTVSPropertyOp45
 70
     1
102
RTVSPropertyOp46
 70
     1
102
RTVSPropertyOp47
 70
     1
102
RTVSPropertyOp48
 70
     1
102
RTVSPropertyOp49
 70
     1
102
RTVSPropertyOp50
 70
     1
102
RTVSPropertyOp51
 70
     0
102
RTVSPropertyOp52
 70
     0
102
RTVSPropertyOp53
 70
     1
102
RTVSPropertyOp54
 70
     1
102
RTVSPropertyOp55
 70
     1
102
RTVSPropertyOp56
 70
     1
102
RTVSPropertyOp57
 70
     1
102
RTVSPropertyOp58
 70
     1
102
RTVSPropertyOp59
 70
     1
102
RTVSPropertyOp60
 70
     1
102
RTVSPropertyOp61
 70
     1
102
RTVSPropertyOp62
 70
     1
  0
XRECORD
  5
2D9
102
{ACAD_REACTORS
330
2D8
102
}
330
2D8
100
AcDbXrecord
280
     1
102
RTVSPost2010Prop28
280
     0
102
RTVSPost2010PropOp28
 70
     1
102
RTVSPost2010Prop29
280
     1
102
RTVSPost2010PropOp29
 70
     1
102
RTVSPost2010Prop30
280
     1
102
RTVSPost2010PropOp30
 70
     1
102
RTVSPost2010Prop31
280
     0
102
RTVSPost2010PropOp31
 70
     1
102
RTVSPost2010Prop32
280
     0
102
RTVSPost2010PropOp32
 70
     1
102
RTVSPost2010Prop33
280
     0
102
RTVSPost2010PropOp33
 70
     1
102
RTVSPost2010Prop34
280
     0
102
RTVSPost2010PropOp34
 70
     1
102
RTVSPost2010Prop35
280
     0
102
RTVSPost2010PropOp35
 70
     1
102
RTVSPost2010Prop36
280
     0
102
RTVSPost2010PropOp36
 70
     1
102
RTVSPost2010Prop37
 90
       50
102
RTVSPost2010PropOp37
 70
     1
102
RTVSPost2010Prop38
140
0.0
102
RTVSPost2010PropOp38
 70
     1
102
RTVSPost2010Prop39
140
1.0
102
RTVSPost2010PropOp39
 70
     1
102
RTVSPost2010Prop40
 90
        0
102
RTVSPost2010PropOp40
 70
     1
102
RTVSPost2010Prop41ColorIndex
 90
       18
102
RTVSPost2010Prop41ColorRGB
 90
        0
102
RTVSPost2010PropOp41
 70
     1
102
RTVSPost2010Prop42
 90
       50
102
RTVSPost2010PropOp42
 70
     1
102
RTVSPost2010Prop43
 90
        3
102
RTVSPost2010PropOp43
 70
     1
102
RTVSPost2010Prop44ColorIndex
 90
        5
102
RTVSPost2010Prop44ColorRGB
 90
      255
102
RTVSPost2010PropOp44
 70
     1
102
RTVSPost2010Prop45
280
     0
102
RTVSPost2010PropOp45
 70
     1
102
RTVSPost2010Prop46
 90
       50
102
RTVSPost2010PropOp46
 70
     1
102
RTVSPost2010Prop47
 90
       50
102
RTVSPost2010PropOp47
 70
     1
102
RTVSPost2010Prop48
 90
       50
102
RTVSPost2010PropOp48
 70
     1
102
RTVSPost2010Prop49
280
     0
102
RTVSPost2010PropOp49
 70
     1
102
RTVSPost2010Prop50
 90
       50
102
RTVSPost2010PropOp50
 70
     1
102
RTVSPost2010Prop51ColorIndex
 90
      256
102
RTVSPost2010Prop51ColorRGB
 90
-16777216
102
RTVSPost2010PropOp51
 70
     0
102
RTVSPost2010Prop52
140
1.0
102
RTVSPost2010PropOp52
 70
     0
102
RTVSPost2010Prop53
 90
        2
102
RTVSPost2010PropOp53
 70
     1
102
RTVSPost2010Prop54
  1
strokes_ogs.tif
102
RTVSPost2010PropOp54
 70
     1
102
RTVSPost2010Prop55
280
     0
102
RTVSPost2010PropOp55
 70
     1
102
RTVSPost2010Prop56
140
1.0
102
RTVSPost2010PropOp56
 70
     1
102
RTVSPost2010Prop57
140
1.0
102
RTVSPost2010PropOp57
 70
     1
102
RTVSPropertyOp0
 70
     1
102
RTVSPropertyOp1
 70
     1
102
RTVSPropertyOp2
 70
     1
102
RTVSPropertyOp3
 70
     1
102
RTVSPropertyOp4
 70
     1
102
RTVSPropertyOp5
 70
     1
102
RTVSPropertyOp6
 70
     1
102
RTVSPropertyOp7
 70
     1
102
RTVSPropertyOp8
 70
     1
102
RTVSPropertyOp9
 70
     1
102
RTVSPropertyOp10
 70
     1
102
RTVSPropertyOp11
 70
     1
102
RTVSPropertyOp12
 70
     1
102
RTVSPropertyOp13
 70
     1
102
RTVSPropertyOp14
 70
     1
102
RTVSPropertyOp15
 70
     1
102
RTVSPropertyOp16
 70
     1
102
RTVSPropertyOp17
 70
     1
102
RTVSPropertyOp18
 70
     1
102
RTVSPropertyOp19
 70
     1
102
RTVSPropertyOp20
 70
     1
102
RTVSPropertyOp21
 70
     1
102
RTVSPropertyOp22
 70
     1
102
RTVSPropertyOp23
 70
     1
102
RTVSPropertyOp24
 70
     1
102
RTVSPropertyOp25
 70
     1
102
RTVSPropertyOp26
 70
     1
102
RTVSPropertyOp27
 70
     1
102
RTVSPropertyOp28
 70
     1
102
RTVSPropertyOp29
 70
     1
102
RTVSPropertyOp30
 70
     1
102
RTVSPropertyOp31
 70
     1
102
RTVSPropertyOp32
 70
     1
102
RTVSPropertyOp33
 70
     1
102
RTVSPropertyOp34
 70
     1
102
RTVSPropertyOp35
 70
     1
102
RTVSPropertyOp36
 70
     1
102
RTVSPropertyOp37
 70
     1
102
RTVSPropertyOp38
 70
     1
102
RTVSPropertyOp39
 70
     1
102
RTVSPropertyOp40
 70
     1
102
RTVSPropertyOp41
 70
     1
102
RTVSPropertyOp42
 70
     1
102
RTVSPropertyOp43
 70
     1
102
RTVSPropertyOp44
 70
     1
102
RTVSPropertyOp45
 70
     1
102
RTVSPropertyOp46
 70
     1
102
RTVSPropertyOp47
 70
     1
102
RTVSPropertyOp48
 70
     1
102
RTVSPropertyOp49
 70
     1
102
RTVSPropertyOp50
 70
     1
102
RTVSPropertyOp51
 70
     0
102
RTVSPropertyOp52
 70
     0
102
RTVSPropertyOp53
 70
     1
102
RTVSPropertyOp54
 70
     1
102
RTVSPropertyOp55
 70
     1
102
RTVSPropertyOp56
 70
     1
102
RTVSPropertyOp57
 70
     1
102
RTVSPropertyOp58
 70
     1
102
RTVSPropertyOp59
 70
     1
102
RTVSPropertyOp60
 70
     1
102
RTVSPropertyOp61
 70
     1
102
RTVSPropertyOp62
 70
     1
  0
XRECORD
  5
2E1
102
{ACAD_REACTORS
330
2E0
102
}
330
2E0
100
AcDbXrecord
280
     1
102
RTVSPost2010Prop28
280
     0
102
RTVSPost2010PropOp28
 70
     1
102
RTVSPost2010Prop29
280
     1
102
RTVSPost2010PropOp29
 70
     1
102
RTVSPost2010Prop30
280
     1
102
RTVSPost2010PropOp30
 70
     1
102
RTVSPost2010Prop31
280
     0
102
RTVSPost2010PropOp31
 70
     1
102
RTVSPost2010Prop32
280
     0
102
RTVSPost2010PropOp32
 70
     1
102
RTVSPost2010Prop33
280
     0
102
RTVSPost2010PropOp33
 70
     1
102
RTVSPost2010Prop34
280
     0
102
RTVSPost2010PropOp34
 70
     1
102
RTVSPost2010Prop35
280
     0
102
RTVSPost2010PropOp35
 70
     1
102
RTVSPost2010Prop36
280
     0
102
RTVSPost2010PropOp36
 70
     1
102
RTVSPost2010Prop37
 90
       50
102
RTVSPost2010PropOp37
 70
     1
102
RTVSPost2010Prop38
140
0.0
102
RTVSPost2010PropOp38
 70
     1
102
RTVSPost2010Prop39
140
1.0
102
RTVSPost2010PropOp39
 70
     1
102
RTVSPost2010Prop40
 90
        0
102
RTVSPost2010PropOp40
 70
     1
102
RTVSPost2010Prop41ColorIndex
 90
       18
102
RTVSPost2010Prop41ColorRGB
 90
        0
102
RTVSPost2010PropOp41
 70
     1
102
RTVSPost2010Prop42
 90
       50
102
RTVSPost2010PropOp42
 70
     1
102
RTVSPost2010Prop43
 90
        3
102
RTVSPost2010PropOp43
 70
     1
102
RTVSPost2010Prop44ColorIndex
 90
        5
102
RTVSPost2010Prop44ColorRGB
 90
      255
102
RTVSPost2010PropOp44
 70
     1
102
RTVSPost2010Prop45
280
     0
102
RTVSPost2010PropOp45
 70
     1
102
RTVSPost2010Prop46
 90
       50
102
RTVSPost2010PropOp46
 70
     1
102
RTVSPost2010Prop47
 90
       50
102
RTVSPost2010PropOp47
 70
     1
102
RTVSPost2010Prop48
 90
       50
102
RTVSPost2010PropOp48
 70
     1
102
RTVSPost2010Prop49
280
     0
102
RTVSPost2010PropOp49
 70
     1
102
RTVSPost2010Prop50
 90
       50
102
RTVSPost2010PropOp50
 70
     1
102
RTVSPost2010Prop51ColorIndex
 90
      256
102
RTVSPost2010Prop51ColorRGB
 90
-16777216
102
RTVSPost2010PropOp51
 70
     0
102
RTVSPost2010Prop52
140
1.0
102
RTVSPost2010PropOp52
 70
     0
102
RTVSPost2010Prop53
 90
        2
102
RTVSPost2010PropOp53
 70
     1
102
RTVSPost2010Prop54
  1
strokes_ogs.tif
102
RTVSPost2010PropOp54
 70
     1
102
RTVSPost2010Prop55
280
     0
102
RTVSPost2010PropOp55
 70
     1
102
RTVSPost2010Prop56
140
1.0
102
RTVSPost2010PropOp56
 70
     1
102
RTVSPost2010Prop57
140
1.0
102
RTVSPost2010PropOp57
 70
     1
102
RTVSPropertyOp0
 70
     1
102
RTVSPropertyOp1
 70
     1
102
RTVSPropertyOp2
 70
     1
102
RTVSPropertyOp3
 70
     1
102
RTVSPropertyOp4
 70
     1
102
RTVSPropertyOp5
 70
     1
102
RTVSPropertyOp6
 70
     1
102
RTVSPropertyOp7
 70
     1
102
RTVSPropertyOp8
 70
     1
102
RTVSPropertyOp9
 70
     1
102
RTVSPropertyOp10
 70
     1
102
RTVSPropertyOp11
 70
     1
102
RTVSPropertyOp12
 70
     1
102
RTVSPropertyOp13
 70
     1
102
RTVSPropertyOp14
 70
     1
102
RTVSPropertyOp15
 70
     1
102
RTVSPropertyOp16
 70
     1
102
RTVSPropertyOp17
 70
     1
102
RTVSPropertyOp18
 70
     1
102
RTVSPropertyOp19
 70
     1
102
RTVSPropertyOp20
 70
     1
102
RTVSPropertyOp21
 70
     1
102
RTVSPropertyOp22
 70
     1
102
RTVSPropertyOp23
 70
     1
102
RTVSPropertyOp24
 70
     1
102
RTVSPropertyOp25
 70
     1
102
RTVSPropertyOp26
 70
     1
102
RTVSPropertyOp27
 70
     1
102
RTVSPropertyOp28
 70
     1
102
RTVSPropertyOp29
 70
     1
102
RTVSPropertyOp30
 70
     1
102
RTVSPropertyOp31
 70
     1
102
RTVSPropertyOp32
 70
     1
102
RTVSPropertyOp33
 70
     1
102
RTVSPropertyOp34
 70
     1
102
RTVSPropertyOp35
 70
     1
102
RTVSPropertyOp36
 70
     1
102
RTVSPropertyOp37
 70
     1
102
RTVSPropertyOp38
 70
     1
102
RTVSPropertyOp39
 70
     1
102
RTVSPropertyOp40
 70
     1
102
RTVSPropertyOp41
 70
     1
102
RTVSPropertyOp42
 70
     1
102
RTVSPropertyOp43
 70
     1
102
RTVSPropertyOp44
 70
     1
102
RTVSPropertyOp45
 70
     1
102
RTVSPropertyOp46
 70
     1
102
RTVSPropertyOp47
 70
     1
102
RTVSPropertyOp48
 70
     1
102
RTVSPropertyOp49
 70
     1
102
RTVSPropertyOp50
 70
     1
102
RTVSPropertyOp51
 70
     0
102
RTVSPropertyOp52
 70
     0
102
RTVSPropertyOp53
 70
     1
102
RTVSPropertyOp54
 70
     1
102
RTVSPropertyOp55
 70
     1
102
RTVSPropertyOp56
 70
     1
102
RTVSPropertyOp57
 70
     1
102
RTVSPropertyOp58
 70
     1
102
RTVSPropertyOp59
 70
     1
102
RTVSPropertyOp60
 70
     1
102
RTVSPropertyOp61
 70
     1
102
RTVSPropertyOp62
 70
     1
  0
XRECORD
  5
2FD
102
{ACAD_REACTORS
330
2FC
102
}
330
2FC
100
AcDbXrecord
280
     1
102
RTVSPost2010Prop28
280
     0
102
RTVSPost2010PropOp28
 70
     1
102
RTVSPost2010Prop29
280
     1
102
RTVSPost2010PropOp29
 70
     1
102
RTVSPost2010Prop30
280
     1
102
RTVSPost2010PropOp30
 70
     1
102
RTVSPost2010Prop31
280
     0
102
RTVSPost2010PropOp31
 70
     1
102
RTVSPost2010Prop32
280
     0
102
RTVSPost2010PropOp32
 70
     1
102
RTVSPost2010Prop33
280
     0
102
RTVSPost2010PropOp33
 70
     1
102
RTVSPost2010Prop34
280
     0
102
RTVSPost2010PropOp34
 70
     1
102
RTVSPost2010Prop35
280
     0
102
RTVSPost2010PropOp35
 70
     1
102
RTVSPost2010Prop36
280
     0
102
RTVSPost2010PropOp36
 70
     1
102
RTVSPost2010Prop37
 90
       50
102
RTVSPost2010PropOp37
 70
     0
102
RTVSPost2010Prop38
140
0.0
102
RTVSPost2010PropOp38
 70
     0
102
RTVSPost2010Prop39
140
1.0
102
RTVSPost2010PropOp39
 70
     0
102
RTVSPost2010Prop40
 90
        0
102
RTVSPost2010PropOp40
 70
     0
102
RTVSPost2010Prop41ColorIndex
 90
       18
102
RTVSPost2010Prop41ColorRGB
 90
        0
102
RTVSPost2010PropOp41
 70
     0
102
RTVSPost2010Prop42
 90
       50
102
RTVSPost2010PropOp42
 70
     0
102
RTVSPost2010Prop43
 90
        3
102
RTVSPost2010PropOp43
 70
     0
102
RTVSPost2010Prop44ColorIndex
 90
        5
102
RTVSPost2010Prop44ColorRGB
 90
      255
102
RTVSPost2010PropOp44
 70
     0
102
RTVSPost2010Prop45
280
     0
102
RTVSPost2010PropOp45
 70
     1
102
RTVSPost2010Prop46
 90
       50
102
RTVSPost2010PropOp46
 70
     0
102
RTVSPost2010Prop47
 90
       50
102
RTVSPost2010PropOp47
 70
     0
102
RTVSPost2010Prop48
 90
       50
102
RTVSPost2010PropOp48
 70
     0
102
RTVSPost2010Prop49
280
     0
102
RTVSPost2010PropOp49
 70
     1
102
RTVSPost2010Prop50
 90
       50
102
RTVSPost2010PropOp50
 70
     0
102
RTVSPost2010Prop51ColorIndex
 90
      256
102
RTVSPost2010Prop51ColorRGB
 90
-16777216
102
RTVSPost2010PropOp51
 70
     0
102
RTVSPost2010Prop52
140
1.0
102
RTVSPost2010PropOp52
 70
     0
102
RTVSPost2010Prop53
 90
        2
102
RTVSPost2010PropOp53
 70
     0
102
RTVSPost2010Prop54
  1
strokes_ogs.tif
102
RTVSPost2010PropOp54
 70
     0
102
RTVSPost2010Prop55
280
     0
102
RTVSPost2010PropOp55
 70
     1
102
RTVSPost2010Prop56
140
1.0
102
RTVSPost2010PropOp56
 70
     0
102
RTVSPost2010Prop57
140
1.0
102
RTVSPost2010PropOp57
 70
     0
102
RTVSPropertyOp0
 70
     0
102
RTVSPropertyOp1
 70
     0
102
RTVSPropertyOp2
 70
     0
102
RTVSPropertyOp3
 70
     0
102
RTVSPropertyOp4
 70
     0
102
RTVSPropertyOp5
 70
     0
102
RTVSPropertyOp6
 70
     0
102
RTVSPropertyOp7
 70
     0
102
RTVSPropertyOp8
 70
     0
102
RTVSPropertyOp9
 70
     0
102
RTVSPropertyOp10
 70
     0
102
RTVSPropertyOp11
 70
     0
102
RTVSPropertyOp12
 70
     0
102
RTVSPropertyOp13
 70
     0
102
RTVSPropertyOp14
 70
     2
102
RTVSPropertyOp15
 70
     0
102
RTVSPropertyOp16
 70
     0
102
RTVSPropertyOp17
 70
     0
102
RTVSPropertyOp18
 70
     0
102
RTVSPropertyOp19
 70
     0
102
RTVSPropertyOp20
 70
     0
102
RTVSPropertyOp21
 70
     0
102
RTVSPropertyOp22
 70
     0
102
RTVSPropertyOp23
 70
     0
102
RTVSPropertyOp24
 70
     0
102
RTVSPropertyOp25
 70
     0
102
RTVSPropertyOp26
 70
     0
102
RTVSPropertyOp27
 70
     0
102
RTVSPropertyOp28
 70
     1
102
RTVSPropertyOp29
 70
     1
102
RTVSPropertyOp30
 70
     1
102
RTVSPropertyOp31
 70
     1
102
RTVSPropertyOp32
 70
     1
102
RTVSPropertyOp33
 70
     1
102
RTVSPropertyOp34
 70
     1
102
RTVSPropertyOp35
 70
     1
102
RTVSPropertyOp36
 70
     1
102
RTVSPropertyOp37
 70
     0
102
RTVSPropertyOp38
 70
     0
102
RTVSPropertyOp39
 70
     0
102
RTVSPropertyOp40
 70
     0
102
RTVSPropertyOp41
 70
     0
102
RTVSPropertyOp42
 70
     0
102
RTVSPropertyOp43
 70
     0
102
RTVSPropertyOp44
 70
     0
102
RTVSPropertyOp45
 70
     1
102
RTVSPropertyOp46
 70
     0
102
RTVSPropertyOp47
 70
     0
102
RTVSPropertyOp48
 70
     0
102
RTVSPropertyOp49
 70
     1
102
RTVSPropertyOp50
 70
     0
102
RTVSPropertyOp51
 70
     0
102
RTVSPropertyOp52
 70
     0
102
RTVSPropertyOp53
 70
     0
102
RTVSPropertyOp54
 70
     0
102
RTVSPropertyOp55
 70
     1
102
RTVSPropertyOp56
 70
     0
102
RTVSPropertyOp57
 70
     0
102
RTVSPropertyOp58
 70
     0
102
RTVSPropertyOp59
 70
     0
102
RTVSPropertyOp60
 70
     0
102
RTVSPropertyOp61
 70
     0
102
RTVSPropertyOp62
 70
     0
  0
XRECORD
  5
2ED
102
{ACAD_REACTORS
330
2EC
102
}
330
2EC
100
AcDbXrecord
280
     1
102
RTVSPost2010Prop28
280
     0
102
RTVSPost2010PropOp28
 70
     1
102
RTVSPost2010Prop29
280
     1
102
RTVSPost2010PropOp29
 70
     1
102
RTVSPost2010Prop30
280
     1
102
RTVSPost2010PropOp30
 70
     1
102
RTVSPost2010Prop31
280
     0
102
RTVSPost2010PropOp31
 70
     1
102
RTVSPost2010Prop32
280
     0
102
RTVSPost2010PropOp32
 70
     1
102
RTVSPost2010Prop33
280
     0
102
RTVSPost2010PropOp33
 70
     1
102
RTVSPost2010Prop34
280
     0
102
RTVSPost2010PropOp34
 70
     1
102
RTVSPost2010Prop35
280
     0
102
RTVSPost2010PropOp35
 70
     1
102
RTVSPost2010Prop36
280
     0
102
RTVSPost2010PropOp36
 70
     1
102
RTVSPost2010Prop37
 90
       50
102
RTVSPost2010PropOp37
 70
     1
102
RTVSPost2010Prop38
140
0.0
102
RTVSPost2010PropOp38
 70
     1
102
RTVSPost2010Prop39
140
1.0
102
RTVSPost2010PropOp39
 70
     1
102
RTVSPost2010Prop40
 90
        0
102
RTVSPost2010PropOp40
 70
     1
102
RTVSPost2010Prop41ColorIndex
 90
       18
102
RTVSPost2010Prop41ColorRGB
 90
        0
102
RTVSPost2010PropOp41
 70
     1
102
RTVSPost2010Prop42
 90
       50
102
RTVSPost2010PropOp42
 70
     1
102
RTVSPost2010Prop43
 90
        3
102
RTVSPost2010PropOp43
 70
     1
102
RTVSPost2010Prop44ColorIndex
 90
        5
102
RTVSPost2010Prop44ColorRGB
 90
      255
102
RTVSPost2010PropOp44
 70
     1
102
RTVSPost2010Prop45
280
     0
102
RTVSPost2010PropOp45
 70
     1
102
RTVSPost2010Prop46
 90
       50
102
RTVSPost2010PropOp46
 70
     1
102
RTVSPost2010Prop47
 90
       50
102
RTVSPost2010PropOp47
 70
     1
102
RTVSPost2010Prop48
 90
       50
102
RTVSPost2010PropOp48
 70
     1
102
RTVSPost2010Prop49
280
     0
102
RTVSPost2010PropOp49
 70
     1
102
RTVSPost2010Prop50
 90
       50
102
RTVSPost2010PropOp50
 70
     1
102
RTVSPost2010Prop51ColorIndex
 90
      256
102
RTVSPost2010Prop51ColorRGB
 90
-16777216
102
RTVSPost2010PropOp51
 70
     0
102
RTVSPost2010Prop52
140
1.0
102
RTVSPost2010PropOp52
 70
     0
102
RTVSPost2010Prop53
 90
        2
102
RTVSPost2010PropOp53
 70
     1
102
RTVSPost2010Prop54
  1
strokes_ogs.tif
102
RTVSPost2010PropOp54
 70
     1
102
RTVSPost2010Prop55
280
     0
102
RTVSPost2010PropOp55
 70
     1
102
RTVSPost2010Prop56
140
1.0
102
RTVSPost2010PropOp56
 70
     1
102
RTVSPost2010Prop57
140
1.0
102
RTVSPost2010PropOp57
 70
     1
102
RTVSPropertyOp0
 70
     1
102
RTVSPropertyOp1
 70
     1
102
RTVSPropertyOp2
 70
     1
102
RTVSPropertyOp3
 70
     1
102
RTVSPropertyOp4
 70
     1
102
RTVSPropertyOp5
 70
     1
102
RTVSPropertyOp6
 70
     1
102
RTVSPropertyOp7
 70
     1
102
RTVSPropertyOp8
 70
     1
102
RTVSPropertyOp9
 70
     1
102
RTVSPropertyOp10
 70
     1
102
RTVSPropertyOp11
 70
     1
102
RTVSPropertyOp12
 70
     1
102
RTVSPropertyOp13
 70
     1
102
RTVSPropertyOp14
 70
     1
102
RTVSPropertyOp15
 70
     1
102
RTVSPropertyOp16
 70
     1
102
RTVSPropertyOp17
 70
     1
102
RTVSPropertyOp18
 70
     1
102
RTVSPropertyOp19
 70
     1
102
RTVSPropertyOp20
 70
     1
102
RTVSPropertyOp21
 70
     1
102
RTVSPropertyOp22
 70
     1
102
RTVSPropertyOp23
 70
     1
102
RTVSPropertyOp24
 70
     1
102
RTVSPropertyOp25
 70
     1
102
RTVSPropertyOp26
 70
     1
102
RTVSPropertyOp27
 70
     1
102
RTVSPropertyOp28
 70
     1
102
RTVSPropertyOp29
 70
     1
102
RTVSPropertyOp30
 70
     1
102
RTVSPropertyOp31
 70
     1
102
RTVSPropertyOp32
 70
     1
102
RTVSPropertyOp33
 70
     1
102
RTVSPropertyOp34
 70
     1
102
RTVSPropertyOp35
 70
     1
102
RTVSPropertyOp36
 70
     1
102
RTVSPropertyOp37
 70
     1
102
RTVSPropertyOp38
 70
     1
102
RTVSPropertyOp39
 70
     1
102
RTVSPropertyOp40
 70
     1
102
RTVSPropertyOp41
 70
     1
102
RTVSPropertyOp42
 70
     1
102
RTVSPropertyOp43
 70
     1
102
RTVSPropertyOp44
 70
     1
102
RTVSPropertyOp45
 70
     1
102
RTVSPropertyOp46
 70
     1
102
RTVSPropertyOp47
 70
     1
102
RTVSPropertyOp48
 70
     1
102
RTVSPropertyOp49
 70
     1
102
RTVSPropertyOp50
 70
     1
102
RTVSPropertyOp51
 70
     0
102
RTVSPropertyOp52
 70
     0
102
RTVSPropertyOp53
 70
     1
102
RTVSPropertyOp54
 70
     1
102
RTVSPropertyOp55
 70
     1
102
RTVSPropertyOp56
 70
     1
102
RTVSPropertyOp57
 70
     1
102
RTVSPropertyOp58
 70
     1
102
RTVSPropertyOp59
 70
     1
102
RTVSPropertyOp60
 70
     1
102
RTVSPropertyOp61
 70
     1
102
RTVSPropertyOp62
 70
     1
  0
XRECORD
  5
2FF
102
{ACAD_REACTORS
330
2FE
102
}
330
2FE
100
AcDbXrecord
280
     1
102
RTVSPost2010Prop28
280
     0
102
RTVSPost2010PropOp28
 70
     1
102
RTVSPost2010Prop29
280
     1
102
RTVSPost2010PropOp29
 70
     1
102
RTVSPost2010Prop30
280
     1
102
RTVSPost2010PropOp30
 70
     1
102
RTVSPost2010Prop31
280
     0
102
RTVSPost2010PropOp31
 70
     1
102
RTVSPost2010Prop32
280
     0
102
RTVSPost2010PropOp32
 70
     1
102
RTVSPost2010Prop33
280
     0
102
RTVSPost2010PropOp33
 70
     1
102
RTVSPost2010Prop34
280
     0
102
RTVSPost2010PropOp34
 70
     1
102
RTVSPost2010Prop35
280
     0
102
RTVSPost2010PropOp35
 70
     1
102
RTVSPost2010Prop36
280
     0
102
RTVSPost2010PropOp36
 70
     1
102
RTVSPost2010Prop37
 90
       50
102
RTVSPost2010PropOp37
 70
     0
102
RTVSPost2010Prop38
140
0.0
102
RTVSPost2010PropOp38
 70
     0
102
RTVSPost2010Prop39
140
1.0
102
RTVSPost2010PropOp39
 70
     0
102
RTVSPost2010Prop40
 90
        0
102
RTVSPost2010PropOp40
 70
     0
102
RTVSPost2010Prop41ColorIndex
 90
       18
102
RTVSPost2010Prop41ColorRGB
 90
        0
102
RTVSPost2010PropOp41
 70
     0
102
RTVSPost2010Prop42
 90
       50
102
RTVSPost2010PropOp42
 70
     0
102
RTVSPost2010Prop43
 90
        3
102
RTVSPost2010PropOp43
 70
     0
102
RTVSPost2010Prop44ColorIndex
 90
        5
102
RTVSPost2010Prop44ColorRGB
 90
      255
102
RTVSPost2010PropOp44
 70
     0
102
RTVSPost2010Prop45
280
     0
102
RTVSPost2010PropOp45
 70
     1
102
RTVSPost2010Prop46
 90
       50
102
RTVSPost2010PropOp46
 70
     0
102
RTVSPost2010Prop47
 90
       50
102
RTVSPost2010PropOp47
 70
     0
102
RTVSPost2010Prop48
 90
       50
102
RTVSPost2010PropOp48
 70
     0
102
RTVSPost2010Prop49
280
     0
102
RTVSPost2010PropOp49
 70
     1
102
RTVSPost2010Prop50
 90
       50
102
RTVSPost2010PropOp50
 70
     0
102
RTVSPost2010Prop51ColorIndex
 90
      256
102
RTVSPost2010Prop51ColorRGB
 90
-16777216
102
RTVSPost2010PropOp51
 70
     0
102
RTVSPost2010Prop52
140
1.0
102
RTVSPost2010PropOp52
 70
     0
102
RTVSPost2010Prop53
 90
        2
102
RTVSPost2010PropOp53
 70
     0
102
RTVSPost2010Prop54
  1
strokes_ogs.tif
102
RTVSPost2010PropOp54
 70
     0
102
RTVSPost2010Prop55
280
     0
102
RTVSPost2010PropOp55
 70
     1
102
RTVSPost2010Prop56
140
1.0
102
RTVSPost2010PropOp56
 70
     0
102
RTVSPost2010Prop57
140
1.0
102
RTVSPost2010PropOp57
 70
     0
102
RTVSPropertyOp0
 70
     0
102
RTVSPropertyOp1
 70
     0
102
RTVSPropertyOp2
 70
     0
102
RTVSPropertyOp3
 70
     0
102
RTVSPropertyOp4
 70
     0
102
RTVSPropertyOp5
 70
     0
102
RTVSPropertyOp6
 70
     0
102
RTVSPropertyOp7
 70
     0
102
RTVSPropertyOp8
 70
     0
102
RTVSPropertyOp9
 70
     0
102
RTVSPropertyOp10
 70
     0
102
RTVSPropertyOp11
 70
     0
102
RTVSPropertyOp12
 70
     0
102
RTVSPropertyOp13
 70
     0
102
RTVSPropertyOp14
 70
     2
102
RTVSPropertyOp15
 70
     0
102
RTVSPropertyOp16
 70
     0
102
RTVSPropertyOp17
 70
     0
102
RTVSPropertyOp18
 70
     0
102
RTVSPropertyOp19
 70
     0
102
RTVSPropertyOp20
 70
     0
102
RTVSPropertyOp21
 70
     0
102
RTVSPropertyOp22
 70
     0
102
RTVSPropertyOp23
 70
     0
102
RTVSPropertyOp24
 70
     0
102
RTVSPropertyOp25
 70
     0
102
RTVSPropertyOp26
 70
     0
102
RTVSPropertyOp27
 70
     0
102
RTVSPropertyOp28
 70
     1
102
RTVSPropertyOp29
 70
     1
102
RTVSPropertyOp30
 70
     1
102
RTVSPropertyOp31
 70
     1
102
RTVSPropertyOp32
 70
     1
102
RTVSPropertyOp33
 70
     1
102
RTVSPropertyOp34
 70
     1
102
RTVSPropertyOp35
 70
     1
102
RTVSPropertyOp36
 70
     1
102
RTVSPropertyOp37
 70
     0
102
RTVSPropertyOp38
 70
     0
102
RTVSPropertyOp39
 70
     0
102
RTVSPropertyOp40
 70
     0
102
RTVSPropertyOp41
 70
     0
102
RTVSPropertyOp42
 70
     0
102
RTVSPropertyOp43
 70
     0
102
RTVSPropertyOp44
 70
     0
102
RTVSPropertyOp45
 70
     1
102
RTVSPropertyOp46
 70
     0
102
RTVSPropertyOp47
 70
     0
102
RTVSPropertyOp48
 70
     0
102
RTVSPropertyOp49
 70
     1
102
RTVSPropertyOp50
 70
     0
102
RTVSPropertyOp51
 70
     0
102
RTVSPropertyOp52
 70
     0
102
RTVSPropertyOp53
 70
     0
102
RTVSPropertyOp54
 70
     0
102
RTVSPropertyOp55
 70
     1
102
RTVSPropertyOp56
 70
     0
102
RTVSPropertyOp57
 70
     0
102
RTVSPropertyOp58
 70
     0
102
RTVSPropertyOp59
 70
     0
102
RTVSPropertyOp60
 70
     0
102
RTVSPropertyOp61
 70
     0
102
RTVSPropertyOp62
 70
     0
  0
XRECORD
  5
2E5
102
{ACAD_REACTORS
330
2E4
102
}
330
2E4
100
AcDbXrecord
280
     1
102
RTVSPost2010Prop28
280
     0
102
RTVSPost2010PropOp28
 70
     1
102
RTVSPost2010Prop29
280
     1
102
RTVSPost2010PropOp29
 70
     1
102
RTVSPost2010Prop30
280
     1
102
RTVSPost2010PropOp30
 70
     1
102
RTVSPost2010Prop31
280
     0
102
RTVSPost2010PropOp31
 70
     1
102
RTVSPost2010Prop32
280
     0
102
RTVSPost2010PropOp32
 70
     1
102
RTVSPost2010Prop33
280
     0
102
RTVSPost2010PropOp33
 70
     1
102
RTVSPost2010Prop34
280
     0
102
RTVSPost2010PropOp34
 70
     1
102
RTVSPost2010Prop35
280
     0
102
RTVSPost2010PropOp35
 70
     1
102
RTVSPost2010Prop36
280
     0
102
RTVSPost2010PropOp36
 70
     1
102
RTVSPost2010Prop37
 90
       50
102
RTVSPost2010PropOp37
 70
     1
102
RTVSPost2010Prop38
140
0.0
102
RTVSPost2010PropOp38
 70
     1
102
RTVSPost2010Prop39
140
1.0
102
RTVSPost2010PropOp39
 70
     1
102
RTVSPost2010Prop40
 90
        0
102
RTVSPost2010PropOp40
 70
     1
102
RTVSPost2010Prop41ColorIndex
 90
       18
102
RTVSPost2010Prop41ColorRGB
 90
        0
102
RTVSPost2010PropOp41
 70
     1
102
RTVSPost2010Prop42
 90
       50
102
RTVSPost2010PropOp42
 70
     1
102
RTVSPost2010Prop43
 90
        3
102
RTVSPost2010PropOp43
 70
     1
102
RTVSPost2010Prop44ColorIndex
 90
        5
102
RTVSPost2010Prop44ColorRGB
 90
      255
102
RTVSPost2010PropOp44
 70
     1
102
RTVSPost2010Prop45
280
     0
102
RTVSPost2010PropOp45
 70
     1
102
RTVSPost2010Prop46
 90
       50
102
RTVSPost2010PropOp46
 70
     1
102
RTVSPost2010Prop47
 90
       50
102
RTVSPost2010PropOp47
 70
     1
102
RTVSPost2010Prop48
 90
       50
102
RTVSPost2010PropOp48
 70
     1
102
RTVSPost2010Prop49
280
     0
102
RTVSPost2010PropOp49
 70
     1
102
RTVSPost2010Prop50
 90
       50
102
RTVSPost2010PropOp50
 70
     1
102
RTVSPost2010Prop51ColorIndex
 90
      256
102
RTVSPost2010Prop51ColorRGB
 90
-16777216
102
RTVSPost2010PropOp51
 70
     0
102
RTVSPost2010Prop52
140
1.0
102
RTVSPost2010PropOp52
 70
     0
102
RTVSPost2010Prop53
 90
        2
102
RTVSPost2010PropOp53
 70
     1
102
RTVSPost2010Prop54
  1
strokes_ogs.tif
102
RTVSPost2010PropOp54
 70
     1
102
RTVSPost2010Prop55
280
     0
102
RTVSPost2010PropOp55
 70
     1
102
RTVSPost2010Prop56
140
1.0
102
RTVSPost2010PropOp56
 70
     1
102
RTVSPost2010Prop57
140
1.0
102
RTVSPost2010PropOp57
 70
     1
102
RTVSPropertyOp0
 70
     1
102
RTVSPropertyOp1
 70
     1
102
RTVSPropertyOp2
 70
     1
102
RTVSPropertyOp3
 70
     1
102
RTVSPropertyOp4
 70
     1
102
RTVSPropertyOp5
 70
     1
102
RTVSPropertyOp6
 70
     1
102
RTVSPropertyOp7
 70
     1
102
RTVSPropertyOp8
 70
     1
102
RTVSPropertyOp9
 70
     1
102
RTVSPropertyOp10
 70
     1
102
RTVSPropertyOp11
 70
     1
102
RTVSPropertyOp12
 70
     1
102
RTVSPropertyOp13
 70
     1
102
RTVSPropertyOp14
 70
     1
102
RTVSPropertyOp15
 70
     1
102
RTVSPropertyOp16
 70
     1
102
RTVSPropertyOp17
 70
     1
102
RTVSPropertyOp18
 70
     1
102
RTVSPropertyOp19
 70
     1
102
RTVSPropertyOp20
 70
     1
102
RTVSPropertyOp21
 70
     1
102
RTVSPropertyOp22
 70
     1
102
RTVSPropertyOp23
 70
     1
102
RTVSPropertyOp24
 70
     1
102
RTVSPropertyOp25
 70
     1
102
RTVSPropertyOp26
 70
     1
102
RTVSPropertyOp27
 70
     1
102
RTVSPropertyOp28
 70
     1
102
RTVSPropertyOp29
 70
     1
102
RTVSPropertyOp30
 70
     1
102
RTVSPropertyOp31
 70
     1
102
RTVSPropertyOp32
 70
     1
102
RTVSPropertyOp33
 70
     1
102
RTVSPropertyOp34
 70
     1
102
RTVSPropertyOp35
 70
     1
102
RTVSPropertyOp36
 70
     1
102
RTVSPropertyOp37
 70
     1
102
RTVSPropertyOp38
 70
     1
102
RTVSPropertyOp39
 70
     1
102
RTVSPropertyOp40
 70
     1
102
RTVSPropertyOp41
 70
     1
102
RTVSPropertyOp42
 70
     1
102
RTVSPropertyOp43
 70
     1
102
RTVSPropertyOp44
 70
     1
102
RTVSPropertyOp45
 70
     1
102
RTVSPropertyOp46
 70
     1
102
RTVSPropertyOp47
 70
     1
102
RTVSPropertyOp48
 70
     1
102
RTVSPropertyOp49
 70
     1
102
RTVSPropertyOp50
 70
     1
102
RTVSPropertyOp51
 70
     0
102
RTVSPropertyOp52
 70
     0
102
RTVSPropertyOp53
 70
     1
102
RTVSPropertyOp54
 70
     1
102
RTVSPropertyOp55
 70
     1
102
RTVSPropertyOp56
 70
     1
102
RTVSPropertyOp57
 70
     1
102
RTVSPropertyOp58
 70
     1
102
RTVSPropertyOp59
 70
     1
102
RTVSPropertyOp60
 70
     1
102
RTVSPropertyOp61
 70
     1
102
RTVSPropertyOp62
 70
     1
  0
XRECORD
  5
2FB
102
{ACAD_REACTORS
330
2FA
102
}
330
2FA
100
AcDbXrecord
280
     1
102
RTVSPost2010Prop28
280
     0
102
RTVSPost2010PropOp28
 70
     1
102
RTVSPost2010Prop29
280
     1
102
RTVSPost2010PropOp29
 70
     1
102
RTVSPost2010Prop30
280
     1
102
RTVSPost2010PropOp30
 70
     1
102
RTVSPost2010Prop31
280
     0
102
RTVSPost2010PropOp31
 70
     1
102
RTVSPost2010Prop32
280
     0
102
RTVSPost2010PropOp32
 70
     1
102
RTVSPost2010Prop33
280
     0
102
RTVSPost2010PropOp33
 70
     1
102
RTVSPost2010Prop34
280
     0
102
RTVSPost2010PropOp34
 70
     1
102
RTVSPost2010Prop35
280
     0
102
RTVSPost2010PropOp35
 70
     1
102
RTVSPost2010Prop36
280
     0
102
RTVSPost2010PropOp36
 70
     1
102
RTVSPost2010Prop37
 90
       50
102
RTVSPost2010PropOp37
 70
     1
102
RTVSPost2010Prop38
140
0.0
102
RTVSPost2010PropOp38
 70
     1
102
RTVSPost2010Prop39
140
1.0
102
RTVSPost2010PropOp39
 70
     1
102
RTVSPost2010Prop40
 90
        0
102
RTVSPost2010PropOp40
 70
     1
102
RTVSPost2010Prop41ColorIndex
 90
       18
102
RTVSPost2010Prop41ColorRGB
 90
        0
102
RTVSPost2010PropOp41
 70
     1
102
RTVSPost2010Prop42
 90
       50
102
RTVSPost2010PropOp42
 70
     1
102
RTVSPost2010Prop43
 90
        3
102
RTVSPost2010PropOp43
 70
     1
102
RTVSPost2010Prop44ColorIndex
 90
        5
102
RTVSPost2010Prop44ColorRGB
 90
      255
102
RTVSPost2010PropOp44
 70
     1
102
RTVSPost2010Prop45
280
     0
102
RTVSPost2010PropOp45
 70
     1
102
RTVSPost2010Prop46
 90
       50
102
RTVSPost2010PropOp46
 70
     1
102
RTVSPost2010Prop47
 90
       50
102
RTVSPost2010PropOp47
 70
     1
102
RTVSPost2010Prop48
 90
       50
102
RTVSPost2010PropOp48
 70
     1
102
RTVSPost2010Prop49
280
     0
102
RTVSPost2010PropOp49
 70
     1
102
RTVSPost2010Prop50
 90
       50
102
RTVSPost2010PropOp50
 70
     1
102
RTVSPost2010Prop51ColorIndex
 90
      256
102
RTVSPost2010Prop51ColorRGB
 90
-16777216
102
RTVSPost2010PropOp51
 70
     0
102
RTVSPost2010Prop52
140
1.0
102
RTVSPost2010PropOp52
 70
     0
102
RTVSPost2010Prop53
 90
        2
102
RTVSPost2010PropOp53
 70
     1
102
RTVSPost2010Prop54
  1
strokes_ogs.tif
102
RTVSPost2010PropOp54
 70
     1
102
RTVSPost2010Prop55
280
     0
102
RTVSPost2010PropOp55
 70
     1
102
RTVSPost2010Prop56
140
1.0
102
RTVSPost2010PropOp56
 70
     1
102
RTVSPost2010Prop57
140
1.0
102
RTVSPost2010PropOp57
 70
     1
102
RTVSPropertyOp0
 70
     1
102
RTVSPropertyOp1
 70
     1
102
RTVSPropertyOp2
 70
     1
102
RTVSPropertyOp3
 70
     1
102
RTVSPropertyOp4
 70
     1
102
RTVSPropertyOp5
 70
     1
102
RTVSPropertyOp6
 70
     1
102
RTVSPropertyOp7
 70
     1
102
RTVSPropertyOp8
 70
     1
102
RTVSPropertyOp9
 70
     1
102
RTVSPropertyOp10
 70
     1
102
RTVSPropertyOp11
 70
     1
102
RTVSPropertyOp12
 70
     1
102
RTVSPropertyOp13
 70
     1
102
RTVSPropertyOp14
 70
     1
102
RTVSPropertyOp15
 70
     1
102
RTVSPropertyOp16
 70
     1
102
RTVSPropertyOp17
 70
     1
102
RTVSPropertyOp18
 70
     1
102
RTVSPropertyOp19
 70
     1
102
RTVSPropertyOp20
 70
     1
102
RTVSPropertyOp21
 70
     1
102
RTVSPropertyOp22
 70
     1
102
RTVSPropertyOp23
 70
     1
102
RTVSPropertyOp24
 70
     1
102
RTVSPropertyOp25
 70
     1
102
RTVSPropertyOp26
 70
     1
102
RTVSPropertyOp27
 70
     1
102
RTVSPropertyOp28
 70
     1
102
RTVSPropertyOp29
 70
     1
102
RTVSPropertyOp30
 70
     1
102
RTVSPropertyOp31
 70
     1
102
RTVSPropertyOp32
 70
     1
102
RTVSPropertyOp33
 70
     1
102
RTVSPropertyOp34
 70
     1
102
RTVSPropertyOp35
 70
     1
102
RTVSPropertyOp36
 70
     1
102
RTVSPropertyOp37
 70
     1
102
RTVSPropertyOp38
 70
     1
102
RTVSPropertyOp39
 70
     1
102
RTVSPropertyOp40
 70
     1
102
RTVSPropertyOp41
 70
     1
102
RTVSPropertyOp42
 70
     1
102
RTVSPropertyOp43
 70
     1
102
RTVSPropertyOp44
 70
     1
102
RTVSPropertyOp45
 70
     1
102
RTVSPropertyOp46
 70
     1
102
RTVSPropertyOp47
 70
     1
102
RTVSPropertyOp48
 70
     1
102
RTVSPropertyOp49
 70
     1
102
RTVSPropertyOp50
 70
     1
102
RTVSPropertyOp51
 70
     0
102
RTVSPropertyOp52
 70
     0
102
RTVSPropertyOp53
 70
     1
102
RTVSPropertyOp54
 70
     1
102
RTVSPropertyOp55
 70
     1
102
RTVSPropertyOp56
 70
     1
102
RTVSPropertyOp57
 70
     1
102
RTVSPropertyOp58
 70
     1
102
RTVSPropertyOp59
 70
     1
102
RTVSPropertyOp60
 70
     1
102
RTVSPropertyOp61
 70
     1
102
RTVSPropertyOp62
 70
     1
  0
XRECORD
  5
2F9
102
{ACAD_REACTORS
330
2F8
102
}
330
2F8
100
AcDbXrecord
280
     1
102
RTVSPost2010Prop28
280
     0
102
RTVSPost2010PropOp28
 70
     1
102
RTVSPost2010Prop29
280
     1
102
RTVSPost2010PropOp29
 70
     1
102
RTVSPost2010Prop30
280
     1
102
RTVSPost2010PropOp30
 70
     1
102
RTVSPost2010Prop31
280
     0
102
RTVSPost2010PropOp31
 70
     1
102
RTVSPost2010Prop32
280
     0
102
RTVSPost2010PropOp32
 70
     1
102
RTVSPost2010Prop33
280
     0
102
RTVSPost2010PropOp33
 70
     1
102
RTVSPost2010Prop34
280
     0
102
RTVSPost2010PropOp34
 70
     1
102
RTVSPost2010Prop35
280
     0
102
RTVSPost2010PropOp35
 70
     1
102
RTVSPost2010Prop36
280
     0
102
RTVSPost2010PropOp36
 70
     1
102
RTVSPost2010Prop37
 90
       50
102
RTVSPost2010PropOp37
 70
     1
102
RTVSPost2010Prop38
140
0.0
102
RTVSPost2010PropOp38
 70
     1
102
RTVSPost2010Prop39
140
1.0
102
RTVSPost2010PropOp39
 70
     1
102
RTVSPost2010Prop40
 90
        0
102
RTVSPost2010PropOp40
 70
     1
102
RTVSPost2010Prop41ColorIndex
 90
       18
102
RTVSPost2010Prop41ColorRGB
 90
        0
102
RTVSPost2010PropOp41
 70
     1
102
RTVSPost2010Prop42
 90
       50
102
RTVSPost2010PropOp42
 70
     1
102
RTVSPost2010Prop43
 90
        3
102
RTVSPost2010PropOp43
 70
     1
102
RTVSPost2010Prop44ColorIndex
 90
        5
102
RTVSPost2010Prop44ColorRGB
 90
      255
102
RTVSPost2010PropOp44
 70
     1
102
RTVSPost2010Prop45
280
     0
102
RTVSPost2010PropOp45
 70
     1
102
RTVSPost2010Prop46
 90
       50
102
RTVSPost2010PropOp46
 70
     1
102
RTVSPost2010Prop47
 90
       50
102
RTVSPost2010PropOp47
 70
     1
102
RTVSPost2010Prop48
 90
       50
102
RTVSPost2010PropOp48
 70
     1
102
RTVSPost2010Prop49
280
     0
102
RTVSPost2010PropOp49
 70
     1
102
RTVSPost2010Prop50
 90
       50
102
RTVSPost2010PropOp50
 70
     1
102
RTVSPost2010Prop51ColorIndex
 90
      256
102
RTVSPost2010Prop51ColorRGB
 90
-16777216
102
RTVSPost2010PropOp51
 70
     0
102
RTVSPost2010Prop52
140
1.0
102
RTVSPost2010PropOp52
 70
     0
102
RTVSPost2010Prop53
 90
        2
102
RTVSPost2010PropOp53
 70
     1
102
RTVSPost2010Prop54
  1
strokes_ogs.tif
102
RTVSPost2010PropOp54
 70
     1
102
RTVSPost2010Prop55
280
     0
102
RTVSPost2010PropOp55
 70
     1
102
RTVSPost2010Prop56
140
1.0
102
RTVSPost2010PropOp56
 70
     1
102
RTVSPost2010Prop57
140
1.0
102
RTVSPost2010PropOp57
 70
     1
102
RTVSPropertyOp0
 70
     1
102
RTVSPropertyOp1
 70
     1
102
RTVSPropertyOp2
 70
     1
102
RTVSPropertyOp3
 70
     1
102
RTVSPropertyOp4
 70
     1
102
RTVSPropertyOp5
 70
     1
102
RTVSPropertyOp6
 70
     1
102
RTVSPropertyOp7
 70
     1
102
RTVSPropertyOp8
 70
     1
102
RTVSPropertyOp9
 70
     1
102
RTVSPropertyOp10
 70
     1
102
RTVSPropertyOp11
 70
     1
102
RTVSPropertyOp12
 70
     1
102
RTVSPropertyOp13
 70
     1
102
RTVSPropertyOp14
 70
     1
102
RTVSPropertyOp15
 70
     1
102
RTVSPropertyOp16
 70
     1
102
RTVSPropertyOp17
 70
     1
102
RTVSPropertyOp18
 70
     1
102
RTVSPropertyOp19
 70
     1
102
RTVSPropertyOp20
 70
     1
102
RTVSPropertyOp21
 70
     1
102
RTVSPropertyOp22
 70
     1
102
RTVSPropertyOp23
 70
     1
102
RTVSPropertyOp24
 70
     1
102
RTVSPropertyOp25
 70
     1
102
RTVSPropertyOp26
 70
     1
102
RTVSPropertyOp27
 70
     1
102
RTVSPropertyOp28
 70
     1
102
RTVSPropertyOp29
 70
     1
102
RTVSPropertyOp30
 70
     1
102
RTVSPropertyOp31
 70
     1
102
RTVSPropertyOp32
 70
     1
102
RTVSPropertyOp33
 70
     1
102
RTVSPropertyOp34
 70
     1
102
RTVSPropertyOp35
 70
     1
102
RTVSPropertyOp36
 70
     1
102
RTVSPropertyOp37
 70
     1
102
RTVSPropertyOp38
 70
     1
102
RTVSPropertyOp39
 70
     1
102
RTVSPropertyOp40
 70
     1
102
RTVSPropertyOp41
 70
     1
102
RTVSPropertyOp42
 70
     1
102
RTVSPropertyOp43
 70
     1
102
RTVSPropertyOp44
 70
     1
102
RTVSPropertyOp45
 70
     1
102
RTVSPropertyOp46
 70
     1
102
RTVSPropertyOp47
 70
     1
102
RTVSPropertyOp48
 70
     1
102
RTVSPropertyOp49
 70
     1
102
RTVSPropertyOp50
 70
     1
102
RTVSPropertyOp51
 70
     0
102
RTVSPropertyOp52
 70
     0
102
RTVSPropertyOp53
 70
     1
102
RTVSPropertyOp54
 70
     1
102
RTVSPropertyOp55
 70
     1
102
RTVSPropertyOp56
 70
     1
102
RTVSPropertyOp57
 70
     1
102
RTVSPropertyOp58
 70
     1
102
RTVSPropertyOp59
 70
     1
102
RTVSPropertyOp60
 70
     1
102
RTVSPropertyOp61
 70
     1
102
RTVSPropertyOp62
 70
     1
  0
XRECORD
  5
2F3
102
{ACAD_REACTORS
330
2F2
102
}
330
2F2
100
AcDbXrecord
280
     1
102
RTVSPost2010Prop28
280
     0
102
RTVSPost2010PropOp28
 70
     1
102
RTVSPost2010Prop29
280
     1
102
RTVSPost2010PropOp29
 70
     1
102
RTVSPost2010Prop30
280
     1
102
RTVSPost2010PropOp30
 70
     1
102
RTVSPost2010Prop31
280
     0
102
RTVSPost2010PropOp31
 70
     1
102
RTVSPost2010Prop32
280
     0
102
RTVSPost2010PropOp32
 70
     1
102
RTVSPost2010Prop33
280
     0
102
RTVSPost2010PropOp33
 70
     1
102
RTVSPost2010Prop34
280
     0
102
RTVSPost2010PropOp34
 70
     1
102
RTVSPost2010Prop35
280
     0
102
RTVSPost2010PropOp35
 70
     1
102
RTVSPost2010Prop36
280
     0
102
RTVSPost2010PropOp36
 70
     1
102
RTVSPost2010Prop37
 90
       50
102
RTVSPost2010PropOp37
 70
     1
102
RTVSPost2010Prop38
140
0.0
102
RTVSPost2010PropOp38
 70
     1
102
RTVSPost2010Prop39
140
1.0
102
RTVSPost2010PropOp39
 70
     1
102
RTVSPost2010Prop40
 90
        0
102
RTVSPost2010PropOp40
 70
     1
102
RTVSPost2010Prop41ColorIndex
 90
       18
102
RTVSPost2010Prop41ColorRGB
 90
        0
102
RTVSPost2010PropOp41
 70
     1
102
RTVSPost2010Prop42
 90
       50
102
RTVSPost2010PropOp42
 70
     1
102
RTVSPost2010Prop43
 90
        3
102
RTVSPost2010PropOp43
 70
     1
102
RTVSPost2010Prop44ColorIndex
 90
        5
102
RTVSPost2010Prop44ColorRGB
 90
      255
102
RTVSPost2010PropOp44
 70
     1
102
RTVSPost2010Prop45
280
     0
102
RTVSPost2010PropOp45
 70
     1
102
RTVSPost2010Prop46
 90
       50
102
RTVSPost2010PropOp46
 70
     1
102
RTVSPost2010Prop47
 90
       50
102
RTVSPost2010PropOp47
 70
     1
102
RTVSPost2010Prop48
 90
       50
102
RTVSPost2010PropOp48
 70
     1
102
RTVSPost2010Prop49
280
     0
102
RTVSPost2010PropOp49
 70
     1
102
RTVSPost2010Prop50
 90
       50
102
RTVSPost2010PropOp50
 70
     1
102
RTVSPost2010Prop51ColorIndex
 90
      256
102
RTVSPost2010Prop51ColorRGB
 90
-16777216
102
RTVSPost2010PropOp51
 70
     0
102
RTVSPost2010Prop52
140
1.0
102
RTVSPost2010PropOp52
 70
     0
102
RTVSPost2010Prop53
 90
        2
102
RTVSPost2010PropOp53
 70
     1
102
RTVSPost2010Prop54
  1
strokes_ogs.tif
102
RTVSPost2010PropOp54
 70
     1
102
RTVSPost2010Prop55
280
     0
102
RTVSPost2010PropOp55
 70
     1
102
RTVSPost2010Prop56
140
1.0
102
RTVSPost2010PropOp56
 70
     1
102
RTVSPost2010Prop57
140
1.0
102
RTVSPost2010PropOp57
 70
     1
102
RTVSPropertyOp0
 70
     1
102
RTVSPropertyOp1
 70
     1
102
RTVSPropertyOp2
 70
     1
102
RTVSPropertyOp3
 70
     1
102
RTVSPropertyOp4
 70
     1
102
RTVSPropertyOp5
 70
     1
102
RTVSPropertyOp6
 70
     1
102
RTVSPropertyOp7
 70
     1
102
RTVSPropertyOp8
 70
     1
102
RTVSPropertyOp9
 70
     1
102
RTVSPropertyOp10
 70
     1
102
RTVSPropertyOp11
 70
     1
102
RTVSPropertyOp12
 70
     1
102
RTVSPropertyOp13
 70
     1
102
RTVSPropertyOp14
 70
     1
102
RTVSPropertyOp15
 70
     1
102
RTVSPropertyOp16
 70
     1
102
RTVSPropertyOp17
 70
     1
102
RTVSPropertyOp18
 70
     1
102
RTVSPropertyOp19
 70
     1
102
RTVSPropertyOp20
 70
     1
102
RTVSPropertyOp21
 70
     1
102
RTVSPropertyOp22
 70
     1
102
RTVSPropertyOp23
 70
     1
102
RTVSPropertyOp24
 70
     1
102
RTVSPropertyOp25
 70
     1
102
RTVSPropertyOp26
 70
     1
102
RTVSPropertyOp27
 70
     1
102
RTVSPropertyOp28
 70
     1
102
RTVSPropertyOp29
 70
     1
102
RTVSPropertyOp30
 70
     1
102
RTVSPropertyOp31
 70
     1
102
RTVSPropertyOp32
 70
     1
102
RTVSPropertyOp33
 70
     1
102
RTVSPropertyOp34
 70
     1
102
RTVSPropertyOp35
 70
     1
102
RTVSPropertyOp36
 70
     1
102
RTVSPropertyOp37
 70
     1
102
RTVSPropertyOp38
 70
     1
102
RTVSPropertyOp39
 70
     1
102
RTVSPropertyOp40
 70
     1
102
RTVSPropertyOp41
 70
     1
102
RTVSPropertyOp42
 70
     1
102
RTVSPropertyOp43
 70
     1
102
RTVSPropertyOp44
 70
     1
102
RTVSPropertyOp45
 70
     1
102
RTVSPropertyOp46
 70
     1
102
RTVSPropertyOp47
 70
     1
102
RTVSPropertyOp48
 70
     1
102
RTVSPropertyOp49
 70
     1
102
RTVSPropertyOp50
 70
     1
102
RTVSPropertyOp51
 70
     0
102
RTVSPropertyOp52
 70
     0
102
RTVSPropertyOp53
 70
     1
102
RTVSPropertyOp54
 70
     1
102
RTVSPropertyOp55
 70
     1
102
RTVSPropertyOp56
 70
     1
102
RTVSPropertyOp57
 70
     1
102
RTVSPropertyOp58
 70
     1
102
RTVSPropertyOp59
 70
     1
102
RTVSPropertyOp60
 70
     1
102
RTVSPropertyOp61
 70
     1
102
RTVSPropertyOp62
 70
     1
  0
XRECORD
  5
2F5
102
{ACAD_REACTORS
330
2F4
102
}
330
2F4
100
AcDbXrecord
280
     1
102
RTVSPost2010Prop28
280
     0
102
RTVSPost2010PropOp28
 70
     1
102
RTVSPost2010Prop29
280
     1
102
RTVSPost2010PropOp29
 70
     1
102
RTVSPost2010Prop30
280
     1
102
RTVSPost2010PropOp30
 70
     1
102
RTVSPost2010Prop31
280
     0
102
RTVSPost2010PropOp31
 70
     1
102
RTVSPost2010Prop32
280
     0
102
RTVSPost2010PropOp32
 70
     1
102
RTVSPost2010Prop33
280
     0
102
RTVSPost2010PropOp33
 70
     1
102
RTVSPost2010Prop34
280
     0
102
RTVSPost2010PropOp34
 70
     1
102
RTVSPost2010Prop35
280
     0
102
RTVSPost2010PropOp35
 70
     1
102
RTVSPost2010Prop36
280
     0
102
RTVSPost2010PropOp36
 70
     1
102
RTVSPost2010Prop37
 90
       50
102
RTVSPost2010PropOp37
 70
     1
102
RTVSPost2010Prop38
140
0.0
102
RTVSPost2010PropOp38
 70
     1
102
RTVSPost2010Prop39
140
1.0
102
RTVSPost2010PropOp39
 70
     1
102
RTVSPost2010Prop40
 90
        0
102
RTVSPost2010PropOp40
 70
     1
102
RTVSPost2010Prop41ColorIndex
 90
       18
102
RTVSPost2010Prop41ColorRGB
 90
        0
102
RTVSPost2010PropOp41
 70
     1
102
RTVSPost2010Prop42
 90
       50
102
RTVSPost2010PropOp42
 70
     1
102
RTVSPost2010Prop43
 90
        3
102
RTVSPost2010PropOp43
 70
     1
102
RTVSPost2010Prop44ColorIndex
 90
        5
102
RTVSPost2010Prop44ColorRGB
 90
      255
102
RTVSPost2010PropOp44
 70
     1
102
RTVSPost2010Prop45
280
     0
102
RTVSPost2010PropOp45
 70
     1
102
RTVSPost2010Prop46
 90
       50
102
RTVSPost2010PropOp46
 70
     1
102
RTVSPost2010Prop47
 90
       50
102
RTVSPost2010PropOp47
 70
     1
102
RTVSPost2010Prop48
 90
       50
102
RTVSPost2010PropOp48
 70
     1
102
RTVSPost2010Prop49
280
     0
102
RTVSPost2010PropOp49
 70
     1
102
RTVSPost2010Prop50
 90
       50
102
RTVSPost2010PropOp50
 70
     1
102
RTVSPost2010Prop51ColorIndex
 90
      256
102
RTVSPost2010Prop51ColorRGB
 90
-16777216
102
RTVSPost2010PropOp51
 70
     0
102
RTVSPost2010Prop52
140
1.0
102
RTVSPost2010PropOp52
 70
     0
102
RTVSPost2010Prop53
 90
        2
102
RTVSPost2010PropOp53
 70
     1
102
RTVSPost2010Prop54
  1
strokes_ogs.tif
102
RTVSPost2010PropOp54
 70
     1
102
RTVSPost2010Prop55
280
     0
102
RTVSPost2010PropOp55
 70
     1
102
RTVSPost2010Prop56
140
1.0
102
RTVSPost2010PropOp56
 70
     1
102
RTVSPost2010Prop57
140
1.0
102
RTVSPost2010PropOp57
 70
     1
102
RTVSPropertyOp0
 70
     1
102
RTVSPropertyOp1
 70
     1
102
RTVSPropertyOp2
 70
     1
102
RTVSPropertyOp3
 70
     1
102
RTVSPropertyOp4
 70
     1
102
RTVSPropertyOp5
 70
     1
102
RTVSPropertyOp6
 70
     1
102
RTVSPropertyOp7
 70
     1
102
RTVSPropertyOp8
 70
     1
102
RTVSPropertyOp9
 70
     1
102
RTVSPropertyOp10
 70
     1
102
RTVSPropertyOp11
 70
     1
102
RTVSPropertyOp12
 70
     1
102
RTVSPropertyOp13
 70
     1
102
RTVSPropertyOp14
 70
     1
102
RTVSPropertyOp15
 70
     1
102
RTVSPropertyOp16
 70
     1
102
RTVSPropertyOp17
 70
     1
102
RTVSPropertyOp18
 70
     1
102
RTVSPropertyOp19
 70
     1
102
RTVSPropertyOp20
 70
     1
102
RTVSPropertyOp21
 70
     1
102
RTVSPropertyOp22
 70
     1
102
RTVSPropertyOp23
 70
     1
102
RTVSPropertyOp24
 70
     1
102
RTVSPropertyOp25
 70
     1
102
RTVSPropertyOp26
 70
     1
102
RTVSPropertyOp27
 70
     1
102
RTVSPropertyOp28
 70
     1
102
RTVSPropertyOp29
 70
     1
102
RTVSPropertyOp30
 70
     1
102
RTVSPropertyOp31
 70
     1
102
RTVSPropertyOp32
 70
     1
102
RTVSPropertyOp33
 70
     1
102
RTVSPropertyOp34
 70
     1
102
RTVSPropertyOp35
 70
     1
102
RTVSPropertyOp36
 70
     1
102
RTVSPropertyOp37
 70
     1
102
RTVSPropertyOp38
 70
     1
102
RTVSPropertyOp39
 70
     1
102
RTVSPropertyOp40
 70
     1
102
RTVSPropertyOp41
 70
     1
102
RTVSPropertyOp42
 70
     1
102
RTVSPropertyOp43
 70
     1
102
RTVSPropertyOp44
 70
     1
102
RTVSPropertyOp45
 70
     1
102
RTVSPropertyOp46
 70
     1
102
RTVSPropertyOp47
 70
     1
102
RTVSPropertyOp48
 70
     1
102
RTVSPropertyOp49
 70
     1
102
RTVSPropertyOp50
 70
     1
102
RTVSPropertyOp51
 70
     0
102
RTVSPropertyOp52
 70
     0
102
RTVSPropertyOp53
 70
     1
102
RTVSPropertyOp54
 70
     1
102
RTVSPropertyOp55
 70
     1
102
RTVSPropertyOp56
 70
     1
102
RTVSPropertyOp57
 70
     1
102
RTVSPropertyOp58
 70
     1
102
RTVSPropertyOp59
 70
     1
102
RTVSPropertyOp60
 70
     1
102
RTVSPropertyOp61
 70
     1
102
RTVSPropertyOp62
 70
     1
  0
XRECORD
  5
2EB
102
{ACAD_REACTORS
330
2EA
102
}
330
2EA
100
AcDbXrecord
280
     1
102
RTVSPost2010Prop28
280
     0
102
RTVSPost2010PropOp28
 70
     1
102
RTVSPost2010Prop29
280
     1
102
RTVSPost2010PropOp29
 70
     1
102
RTVSPost2010Prop30
280
     1
102
RTVSPost2010PropOp30
 70
     1
102
RTVSPost2010Prop31
280
     0
102
RTVSPost2010PropOp31
 70
     1
102
RTVSPost2010Prop32
280
     0
102
RTVSPost2010PropOp32
 70
     1
102
RTVSPost2010Prop33
280
     0
102
RTVSPost2010PropOp33
 70
     1
102
RTVSPost2010Prop34
280
     0
102
RTVSPost2010PropOp34
 70
     1
102
RTVSPost2010Prop35
280
     0
102
RTVSPost2010PropOp35
 70
     1
102
RTVSPost2010Prop36
280
     0
102
RTVSPost2010PropOp36
 70
     1
102
RTVSPost2010Prop37
 90
       50
102
RTVSPost2010PropOp37
 70
     1
102
RTVSPost2010Prop38
140
0.0
102
RTVSPost2010PropOp38
 70
     1
102
RTVSPost2010Prop39
140
1.0
102
RTVSPost2010PropOp39
 70
     1
102
RTVSPost2010Prop40
 90
        0
102
RTVSPost2010PropOp40
 70
     1
102
RTVSPost2010Prop41ColorIndex
 90
       18
102
RTVSPost2010Prop41ColorRGB
 90
        0
102
RTVSPost2010PropOp41
 70
     1
102
RTVSPost2010Prop42
 90
       50
102
RTVSPost2010PropOp42
 70
     1
102
RTVSPost2010Prop43
 90
        3
102
RTVSPost2010PropOp43
 70
     1
102
RTVSPost2010Prop44ColorIndex
 90
        5
102
RTVSPost2010Prop44ColorRGB
 90
      255
102
RTVSPost2010PropOp44
 70
     1
102
RTVSPost2010Prop45
280
     0
102
RTVSPost2010PropOp45
 70
     1
102
RTVSPost2010Prop46
 90
       50
102
RTVSPost2010PropOp46
 70
     1
102
RTVSPost2010Prop47
 90
       50
102
RTVSPost2010PropOp47
 70
     1
102
RTVSPost2010Prop48
 90
       50
102
RTVSPost2010PropOp48
 70
     1
102
RTVSPost2010Prop49
280
     0
102
RTVSPost2010PropOp49
 70
     1
102
RTVSPost2010Prop50
 90
       50
102
RTVSPost2010PropOp50
 70
     1
102
RTVSPost2010Prop51ColorIndex
 90
      256
102
RTVSPost2010Prop51ColorRGB
 90
-16777216
102
RTVSPost2010PropOp51
 70
     0
102
RTVSPost2010Prop52
140
1.0
102
RTVSPost2010PropOp52
 70
     0
102
RTVSPost2010Prop53
 90
        2
102
RTVSPost2010PropOp53
 70
     1
102
RTVSPost2010Prop54
  1
strokes_ogs.tif
102
RTVSPost2010PropOp54
 70
     1
102
RTVSPost2010Prop55
280
     0
102
RTVSPost2010PropOp55
 70
     1
102
RTVSPost2010Prop56
140
1.0
102
RTVSPost2010PropOp56
 70
     1
102
RTVSPost2010Prop57
140
1.0
102
RTVSPost2010PropOp57
 70
     1
102
RTVSPropertyOp0
 70
     1
102
RTVSPropertyOp1
 70
     1
102
RTVSPropertyOp2
 70
     1
102
RTVSPropertyOp3
 70
     1
102
RTVSPropertyOp4
 70
     1
102
RTVSPropertyOp5
 70
     1
102
RTVSPropertyOp6
 70
     1
102
RTVSPropertyOp7
 70
     1
102
RTVSPropertyOp8
 70
     1
102
RTVSPropertyOp9
 70
     1
102
RTVSPropertyOp10
 70
     1
102
RTVSPropertyOp11
 70
     1
102
RTVSPropertyOp12
 70
     1
102
RTVSPropertyOp13
 70
     1
102
RTVSPropertyOp14
 70
     1
102
RTVSPropertyOp15
 70
     1
102
RTVSPropertyOp16
 70
     1
102
RTVSPropertyOp17
 70
     1
102
RTVSPropertyOp18
 70
     1
102
RTVSPropertyOp19
 70
     1
102
RTVSPropertyOp20
 70
     1
102
RTVSPropertyOp21
 70
     1
102
RTVSPropertyOp22
 70
     1
102
RTVSPropertyOp23
 70
     1
102
RTVSPropertyOp24
 70
     1
102
RTVSPropertyOp25
 70
     1
102
RTVSPropertyOp26
 70
     1
102
RTVSPropertyOp27
 70
     1
102
RTVSPropertyOp28
 70
     1
102
RTVSPropertyOp29
 70
     1
102
RTVSPropertyOp30
 70
     1
102
RTVSPropertyOp31
 70
     1
102
RTVSPropertyOp32
 70
     1
102
RTVSPropertyOp33
 70
     1
102
RTVSPropertyOp34
 70
     1
102
RTVSPropertyOp35
 70
     1
102
RTVSPropertyOp36
 70
     1
102
RTVSPropertyOp37
 70
     1
102
RTVSPropertyOp38
 70
     1
102
RTVSPropertyOp39
 70
     1
102
RTVSPropertyOp40
 70
     1
102
RTVSPropertyOp41
 70
     1
102
RTVSPropertyOp42
 70
     1
102
RTVSPropertyOp43
 70
     1
102
RTVSPropertyOp44
 70
     1
102
RTVSPropertyOp45
 70
     1
102
RTVSPropertyOp46
 70
     1
102
RTVSPropertyOp47
 70
     1
102
RTVSPropertyOp48
 70
     1
102
RTVSPropertyOp49
 70
     1
102
RTVSPropertyOp50
 70
     1
102
RTVSPropertyOp51
 70
     0
102
RTVSPropertyOp52
 70
     0
102
RTVSPropertyOp53
 70
     1
102
RTVSPropertyOp54
 70
     1
102
RTVSPropertyOp55
 70
     1
102
RTVSPropertyOp56
 70
     1
102
RTVSPropertyOp57
 70
     1
102
RTVSPropertyOp58
 70
     1
102
RTVSPropertyOp59
 70
     1
102
RTVSPropertyOp60
 70
     1
102
RTVSPropertyOp61
 70
     1
102
RTVSPropertyOp62
 70
     1
  0
XRECORD
  5
2DF
102
{ACAD_REACTORS
330
2DE
102
}
330
2DE
100
AcDbXrecord
280
     1
102
RTVSPost2010Prop28
280
     0
102
RTVSPost2010PropOp28
 70
     1
102
RTVSPost2010Prop29
280
     1
102
RTVSPost2010PropOp29
 70
     1
102
RTVSPost2010Prop30
280
     1
102
RTVSPost2010PropOp30
 70
     1
102
RTVSPost2010Prop31
280
     0
102
RTVSPost2010PropOp31
 70
     1
102
RTVSPost2010Prop32
280
     0
102
RTVSPost2010PropOp32
 70
     1
102
RTVSPost2010Prop33
280
     0
102
RTVSPost2010PropOp33
 70
     1
102
RTVSPost2010Prop34
280
     0
102
RTVSPost2010PropOp34
 70
     1
102
RTVSPost2010Prop35
280
     0
102
RTVSPost2010PropOp35
 70
     1
102
RTVSPost2010Prop36
280
     0
102
RTVSPost2010PropOp36
 70
     1
102
RTVSPost2010Prop37
 90
       50
102
RTVSPost2010PropOp37
 70
     1
102
RTVSPost2010Prop38
140
0.0
102
RTVSPost2010PropOp38
 70
     1
102
RTVSPost2010Prop39
140
1.0
102
RTVSPost2010PropOp39
 70
     1
102
RTVSPost2010Prop40
 90
        0
102
RTVSPost2010PropOp40
 70
     1
102
RTVSPost2010Prop41ColorIndex
 90
       18
102
RTVSPost2010Prop41ColorRGB
 90
        0
102
RTVSPost2010PropOp41
 70
     1
102
RTVSPost2010Prop42
 90
       50
102
RTVSPost2010PropOp42
 70
     1
102
RTVSPost2010Prop43
 90
        3
102
RTVSPost2010PropOp43
 70
     1
102
RTVSPost2010Prop44ColorIndex
 90
        5
102
RTVSPost2010Prop44ColorRGB
 90
      255
102
RTVSPost2010PropOp44
 70
     1
102
RTVSPost2010Prop45
280
     0
102
RTVSPost2010PropOp45
 70
     1
102
RTVSPost2010Prop46
 90
       50
102
RTVSPost2010PropOp46
 70
     1
102
RTVSPost2010Prop47
 90
       50
102
RTVSPost2010PropOp47
 70
     1
102
RTVSPost2010Prop48
 90
       50
102
RTVSPost2010PropOp48
 70
     1
102
RTVSPost2010Prop49
280
     0
102
RTVSPost2010PropOp49
 70
     1
102
RTVSPost2010Prop50
 90
       50
102
RTVSPost2010PropOp50
 70
     1
102
RTVSPost2010Prop51ColorIndex
 90
      256
102
RTVSPost2010Prop51ColorRGB
 90
-16777216
102
RTVSPost2010PropOp51
 70
     0
102
RTVSPost2010Prop52
140
1.0
102
RTVSPost2010PropOp52
 70
     0
102
RTVSPost2010Prop53
 90
        2
102
RTVSPost2010PropOp53
 70
     1
102
RTVSPost2010Prop54
  1
strokes_ogs.tif
102
RTVSPost2010PropOp54
 70
     1
102
RTVSPost2010Prop55
280
     0
102
RTVSPost2010PropOp55
 70
     1
102
RTVSPost2010Prop56
140
1.0
102
RTVSPost2010PropOp56
 70
     1
102
RTVSPost2010Prop57
140
1.0
102
RTVSPost2010PropOp57
 70
     1
102
RTVSPropertyOp0
 70
     1
102
RTVSPropertyOp1
 70
     1
102
RTVSPropertyOp2
 70
     1
102
RTVSPropertyOp3
 70
     1
102
RTVSPropertyOp4
 70
     1
102
RTVSPropertyOp5
 70
     1
102
RTVSPropertyOp6
 70
     1
102
RTVSPropertyOp7
 70
     1
102
RTVSPropertyOp8
 70
     1
102
RTVSPropertyOp9
 70
     1
102
RTVSPropertyOp10
 70
     1
102
RTVSPropertyOp11
 70
     1
102
RTVSPropertyOp12
 70
     1
102
RTVSPropertyOp13
 70
     1
102
RTVSPropertyOp14
 70
     1
102
RTVSPropertyOp15
 70
     1
102
RTVSPropertyOp16
 70
     1
102
RTVSPropertyOp17
 70
     1
102
RTVSPropertyOp18
 70
     1
102
RTVSPropertyOp19
 70
     1
102
RTVSPropertyOp20
 70
     1
102
RTVSPropertyOp21
 70
     1
102
RTVSPropertyOp22
 70
     1
102
RTVSPropertyOp23
 70
     1
102
RTVSPropertyOp24
 70
     1
102
RTVSPropertyOp25
 70
     1
102
RTVSPropertyOp26
 70
     1
102
RTVSPropertyOp27
 70
     1
102
RTVSPropertyOp28
 70
     1
102
RTVSPropertyOp29
 70
     1
102
RTVSPropertyOp30
 70
     1
102
RTVSPropertyOp31
 70
     1
102
RTVSPropertyOp32
 70
     1
102
RTVSPropertyOp33
 70
     1
102
RTVSPropertyOp34
 70
     1
102
RTVSPropertyOp35
 70
     1
102
RTVSPropertyOp36
 70
     1
102
RTVSPropertyOp37
 70
     1
102
RTVSPropertyOp38
 70
     1
102
RTVSPropertyOp39
 70
     1
102
RTVSPropertyOp40
 70
     1
102
RTVSPropertyOp41
 70
     1
102
RTVSPropertyOp42
 70
     1
102
RTVSPropertyOp43
 70
     1
102
RTVSPropertyOp44
 70
     1
102
RTVSPropertyOp45
 70
     1
102
RTVSPropertyOp46
 70
     1
102
RTVSPropertyOp47
 70
     1
102
RTVSPropertyOp48
 70
     1
102
RTVSPropertyOp49
 70
     1
102
RTVSPropertyOp50
 70
     1
102
RTVSPropertyOp51
 70
     0
102
RTVSPropertyOp52
 70
     0
102
RTVSPropertyOp53
 70
     1
102
RTVSPropertyOp54
 70
     1
102
RTVSPropertyOp55
 70
     1
102
RTVSPropertyOp56
 70
     1
102
RTVSPropertyOp57
 70
     1
102
RTVSPropertyOp58
 70
     1
102
RTVSPropertyOp59
 70
     1
102
RTVSPropertyOp60
 70
     1
102
RTVSPropertyOp61
 70
     1
102
RTVSPropertyOp62
 70
     1
  0
XRECORD
  5
2F7
102
{ACAD_REACTORS
330
2F6
102
}
330
2F6
100
AcDbXrecord
280
     1
102
RTVSPost2010Prop28
280
     0
102
RTVSPost2010PropOp28
 70
     1
102
RTVSPost2010Prop29
280
     1
102
RTVSPost2010PropOp29
 70
     1
102
RTVSPost2010Prop30
280
     1
102
RTVSPost2010PropOp30
 70
     1
102
RTVSPost2010Prop31
280
     0
102
RTVSPost2010PropOp31
 70
     1
102
RTVSPost2010Prop32
280
     0
102
RTVSPost2010PropOp32
 70
     1
102
RTVSPost2010Prop33
280
     0
102
RTVSPost2010PropOp33
 70
     1
102
RTVSPost2010Prop34
280
     0
102
RTVSPost2010PropOp34
 70
     1
102
RTVSPost2010Prop35
280
     0
102
RTVSPost2010PropOp35
 70
     1
102
RTVSPost2010Prop36
280
     0
102
RTVSPost2010PropOp36
 70
     1
102
RTVSPost2010Prop37
 90
       50
102
RTVSPost2010PropOp37
 70
     1
102
RTVSPost2010Prop38
140
0.0
102
RTVSPost2010PropOp38
 70
     1
102
RTVSPost2010Prop39
140
1.0
102
RTVSPost2010PropOp39
 70
     1
102
RTVSPost2010Prop40
 90
        0
102
RTVSPost2010PropOp40
 70
     1
102
RTVSPost2010Prop41ColorIndex
 90
       18
102
RTVSPost2010Prop41ColorRGB
 90
        0
102
RTVSPost2010PropOp41
 70
     1
102
RTVSPost2010Prop42
 90
       50
102
RTVSPost2010PropOp42
 70
     1
102
RTVSPost2010Prop43
 90
        3
102
RTVSPost2010PropOp43
 70
     1
102
RTVSPost2010Prop44ColorIndex
 90
        5
102
RTVSPost2010Prop44ColorRGB
 90
      255
102
RTVSPost2010PropOp44
 70
     1
102
RTVSPost2010Prop45
280
     0
102
RTVSPost2010PropOp45
 70
     1
102
RTVSPost2010Prop46
 90
       50
102
RTVSPost2010PropOp46
 70
     1
102
RTVSPost2010Prop47
 90
       50
102
RTVSPost2010PropOp47
 70
     1
102
RTVSPost2010Prop48
 90
       50
102
RTVSPost2010PropOp48
 70
     1
102
RTVSPost2010Prop49
280
     0
102
RTVSPost2010PropOp49
 70
     1
102
RTVSPost2010Prop50
 90
       50
102
RTVSPost2010PropOp50
 70
     1
102
RTVSPost2010Prop51ColorIndex
 90
      256
102
RTVSPost2010Prop51ColorRGB
 90
-16777216
102
RTVSPost2010PropOp51
 70
     0
102
RTVSPost2010Prop52
140
1.0
102
RTVSPost2010PropOp52
 70
     0
102
RTVSPost2010Prop53
 90
        2
102
RTVSPost2010PropOp53
 70
     1
102
RTVSPost2010Prop54
  1
strokes_ogs.tif
102
RTVSPost2010PropOp54
 70
     1
102
RTVSPost2010Prop55
280
     0
102
RTVSPost2010PropOp55
 70
     1
102
RTVSPost2010Prop56
140
1.0
102
RTVSPost2010PropOp56
 70
     1
102
RTVSPost2010Prop57
140
1.0
102
RTVSPost2010PropOp57
 70
     1
102
RTVSPropertyOp0
 70
     1
102
RTVSPropertyOp1
 70
     1
102
RTVSPropertyOp2
 70
     1
102
RTVSPropertyOp3
 70
     1
102
RTVSPropertyOp4
 70
     1
102
RTVSPropertyOp5
 70
     1
102
RTVSPropertyOp6
 70
     1
102
RTVSPropertyOp7
 70
     1
102
RTVSPropertyOp8
 70
     1
102
RTVSPropertyOp9
 70
     1
102
RTVSPropertyOp10
 70
     1
102
RTVSPropertyOp11
 70
     1
102
RTVSPropertyOp12
 70
     1
102
RTVSPropertyOp13
 70
     1
102
RTVSPropertyOp14
 70
     1
102
RTVSPropertyOp15
 70
     1
102
RTVSPropertyOp16
 70
     1
102
RTVSPropertyOp17
 70
     1
102
RTVSPropertyOp18
 70
     1
102
RTVSPropertyOp19
 70
     1
102
RTVSPropertyOp20
 70
     1
102
RTVSPropertyOp21
 70
     1
102
RTVSPropertyOp22
 70
     1
102
RTVSPropertyOp23
 70
     1
102
RTVSPropertyOp24
 70
     1
102
RTVSPropertyOp25
 70
     1
102
RTVSPropertyOp26
 70
     1
102
RTVSPropertyOp27
 70
     1
102
RTVSPropertyOp28
 70
     1
102
RTVSPropertyOp29
 70
     1
102
RTVSPropertyOp30
 70
     1
102
RTVSPropertyOp31
 70
     1
102
RTVSPropertyOp32
 70
     1
102
RTVSPropertyOp33
 70
     1
102
RTVSPropertyOp34
 70
     1
102
RTVSPropertyOp35
 70
     1
102
RTVSPropertyOp36
 70
     1
102
RTVSPropertyOp37
 70
     1
102
RTVSPropertyOp38
 70
     1
102
RTVSPropertyOp39
 70
     1
102
RTVSPropertyOp40
 70
     1
102
RTVSPropertyOp41
 70
     1
102
RTVSPropertyOp42
 70
     1
102
RTVSPropertyOp43
 70
     1
102
RTVSPropertyOp44
 70
     1
102
RTVSPropertyOp45
 70
     1
102
RTVSPropertyOp46
 70
     1
102
RTVSPropertyOp47
 70
     1
102
RTVSPropertyOp48
 70
     1
102
RTVSPropertyOp49
 70
     1
102
RTVSPropertyOp50
 70
     1
102
RTVSPropertyOp51
 70
     0
102
RTVSPropertyOp52
 70
     0
102
RTVSPropertyOp53
 70
     1
102
RTVSPropertyOp54
 70
     1
102
RTVSPropertyOp55
 70
     1
102
RTVSPropertyOp56
 70
     1
102
RTVSPropertyOp57
 70
     1
102
RTVSPropertyOp58
 70
     1
102
RTVSPropertyOp59
 70
     1
102
RTVSPropertyOp60
 70
     1
102
RTVSPropertyOp61
 70
     1
102
RTVSPropertyOp62
 70
     1
  0
ENDSEC
  0
EOF
