  0
SECTION
  2
HEADER
  9
$ACADVER
  1
AC1018
  9
$ACADMAINTVER
 70
     0
  9
$DWGCODEPAGE
  3
ANSI_932
  9
$INSBASE
 10
0.0
 20
0.0
 30
0.0
  9
$EXTMIN
 10
1.000000000000000E+20
 20
1.000000000000000E+20
 30
1.000000000000000E+20
  9
$EXTMAX
 10
-1.000000000000000E+20
 20
-1.000000000000000E+20
 30
-1.000000000000000E+20
  9
$LIMMIN
 10
0.0
 20
0.0
  9
$LIMMAX
 10
12.0
 20
9.0
  9
$ORTHOMODE
 70
     0
  9
$REGENMODE
 70
     1
  9
$FILLMODE
 70
     1
  9
$QTEXTMODE
 70
     0
  9
$MIRRTEXT
 70
     1
  9
$LTSCALE
 40
1.0
  9
$ATTMODE
 70
     1
  9
$TEXTSIZE
 40
0.2
  9
$TRACEWID
 40
0.05
  9
$TEXTSTYLE
  7
Standard
  9
$CLAYER
  8
0
  9
$CELTYPE
  6
ByLayer
  9
$CECOLOR
 62
   256
  9
$CELTSCALE
 40
1.0
  9
$DISPSILH
 70
     0
  9
$DIMSCALE
 40
1.0
  9
$DIMASZ
 40
0.18
  9
$DIMEXO
 40
0.0625
  9
$DIMDLI
 40
0.38
  9
$DIMRND
 40
0.0
  9
$DIMDLE
 40
0.0
  9
$DIMEXE
 40
0.18
  9
$DIMTP
 40
0.0
  9
$DIMTM
 40
0.0
  9
$DIMTXT
 40
0.18
  9
$DIMCEN
 40
0.09
  9
$DIMTSZ
 40
0.0
  9
$DIMTOL
 70
     0
  9
$DIMLIM
 70
     0
  9
$DIMTIH
 70
     1
  9
$DIMTOH
 70
     1
  9
$DIMSE1
 70
     0
  9
$DIMSE2
 70
     0
  9
$DIMTAD
 70
     0
  9
$DIMZIN
 70
     0
  9
$DIMBLK
  1

  9
$DIMASO
 70
     1
  9
$DIMSHO
 70
     1
  9
$DIMPOST
  1

  9
$DIMAPOST
  1

  9
$DIMALT
 70
     0
  9
$DIMALTD
 70
     2
  9
$DIMALTF
 40
25.4
  9
$DIMLFAC
 40
1.0
  9
$DIMTOFL
 70
     0
  9
$DIMTVP
 40
0.0
  9
$DIMTIX
 70
     0
  9
$DIMSOXD
 70
     0
  9
$DIMSAH
 70
     0
  9
$DIMBLK1
  1

  9
$DIMBLK2
  1

  9
$DIMSTYLE
  2
Standard
  9
$DIMCLRD
 70
     0
  9
$DIMCLRE
 70
     0
  9
$DIMCLRT
 70
     0
  9
$DIMTFAC
 40
1.0
  9
$DIMGAP
 40
0.09
  9
$DIMJUST
 70
     0
  9
$DIMSD1
 70
     0
  9
$DIMSD2
 70
     0
  9
$DIMTOLJ
 70
     1
  9
$DIMTZIN
 70
     0
  9
$DIMALTZ
 70
     0
  9
$DIMALTTZ
 70
     0
  9
$DIMUPT
 70
     0
  9
$DIMDEC
 70
     4
  9
$DIMTDEC
 70
     4
  9
$DIMALTU
 70
     2
  9
$DIMALTTD
 70
     2
  9
$DIMTXSTY
  7
Standard
  9
$DIMAUNIT
 70
     0
  9
$DIMADEC
 70
     0
  9
$DIMALTRND
 40
0.0
  9
$DIMAZIN
 70
     0
  9
$DIMDSEP
 70
    46
  9
$DIMATFIT
 70
     3
  9
$DIMFRAC
 70
     0
  9
$DIMLDRBLK
  1

  9
$DIMLUNIT
 70
     2
  9
$DIMLWD
 70
    -2
  9
$DIMLWE
 70
    -2
  9
$DIMTMOVE
 70
     0
  9
$LUNITS
 70
     2
  9
$LUPREC
 70
     4
  9
$SKETCHINC
 40
0.1
  9
$FILLETRAD
 40
0.5
  9
$AUNITS
 70
     0
  9
$AUPREC
 70
     0
  9
$MENU
  1
.
  9
$ELEVATION
 40
0.0
  9
$PELEVATION
 40
0.0
  9
$THICKNESS
 40
0.0
  9
$LIMCHECK
 70
     0
  9
$CHAMFERA
 40
0.5
  9
$CHAMFERB
 40
0.5
  9
$CHAMFERC
 40
1.0
  9
$CHAMFERD
 40
0.0
  9
$SKPOLY
 70
     0
  9
$TDCREATE
 40
2456485.628026493
  9
$TDUCREATE
 40
2456485.253026493
  9
$TDUPDATE
 40
2456485.628026505
  9
$TDUUPDATE
 40
2456485.253026505
  9
$TDINDWG
 40
0.0000000116
  9
$TDUSRTIMER
 40
0.0000000116
  9
$USRTIMER
 70
     1
  9
$ANGBASE
 50
0.0
  9
$ANGDIR
 70
     0
  9
$PDMODE
 70
     0
  9
$PDSIZE
 40
0.0
  9
$PLINEWID
 40
0.0
  9
$SPLFRAME
 70
     0
  9
$SPLINETYPE
 70
     6
  9
$SPLINESEGS
 70
     8
  9
$HANDSEED
  5
392
  9
$SURFTAB1
 70
     6
  9
$SURFTAB2
 70
     6
  9
$SURFTYPE
 70
     6
  9
$SURFU
 70
     6
  9
$SURFV
 70
     6
  9
$UCSBASE
  2

  9
$UCSNAME
  2

  9
$UCSORG
 10
0.0
 20
0.0
 30
0.0
  9
$UCSXDIR
 10
1.0
 20
0.0
 30
0.0
  9
$UCSYDIR
 10
0.0
 20
1.0
 30
0.0
  9
$UCSORTHOREF
  2

  9
$UCSORTHOVIEW
 70
     0
  9
$UCSORGTOP
 10
0.0
 20
0.0
 30
0.0
  9
$UCSORGBOTTOM
 10
0.0
 20
0.0
 30
0.0
  9
$UCSORGLEFT
 10
0.0
 20
0.0
 30
0.0
  9
$UCSORGRIGHT
 10
0.0
 20
0.0
 30
0.0
  9
$UCSORGFRONT
 10
0.0
 20
0.0
 30
0.0
  9
$UCSORGBACK
 10
0.0
 20
0.0
 30
0.0
  9
$PUCSBASE
  2

  9
$PUCSNAME
  2

  9
$PUCSORG
 10
0.0
 20
0.0
 30
0.0
  9
$PUCSXDIR
 10
1.0
 20
0.0
 30
0.0
  9
$PUCSYDIR
 10
0.0
 20
1.0
 30
0.0
  9
$PUCSORTHOREF
  2

  9
$PUCSORTHOVIEW
 70
     0
  9
$PUCSORGTOP
 10
0.0
 20
0.0
 30
0.0
  9
$PUCSORGBOTTOM
 10
0.0
 20
0.0
 30
0.0
  9
$PUCSORGLEFT
 10
0.0
 20
0.0
 30
0.0
  9
$PUCSORGRIGHT
 10
0.0
 20
0.0
 30
0.0
  9
$PUCSORGFRONT
 10
0.0
 20
0.0
 30
0.0
  9
$PUCSORGBACK
 10
0.0
 20
0.0
 30
0.0
  9
$USERI1
 70
     0
  9
$USERI2
 70
     0
  9
$USERI3
 70
     0
  9
$USERI4
 70
     0
  9
$USERI5
 70
     0
  9
$USERR1
 40
0.0
  9
$USERR2
 40
0.0
  9
$USERR3
 40
0.0
  9
$USERR4
 40
0.0
  9
$USERR5
 40
0.0
  9
$WORLDVIEW
 70
     1
  9
$SHADEDGE
 70
     3
  9
$SHADEDIF
 70
    70
  9
$TILEMODE
 70
     1
  9
$MAXACTVP
 70
    64
  9
$PINSBASE
 10
0.0
 20
0.0
 30
0.0
  9
$PLIMCHECK
 70
     0
  9
$PEXTMIN
 10
1.000000000000000E+20
 20
1.000000000000000E+20
 30
1.000000000000000E+20
  9
$PEXTMAX
 10
-1.000000000000000E+20
 20
-1.000000000000000E+20
 30
-1.000000000000000E+20
  9
$PLIMMIN
 10
0.0
 20
0.0
  9
$PLIMMAX
 10
12.0
 20
9.0
  9
$UNITMODE
 70
     0
  9
$VISRETAIN
 70
     1
  9
$PLINEGEN
 70
     0
  9
$PSLTSCALE
 70
     1
  9
$TREEDEPTH
 70
  3020
  9
$CMLSTYLE
  2
Standard
  9
$CMLJUST
 70
     0
  9
$CMLSCALE
 40
1.0
  9
$PROXYGRAPHICS
 70
     1
  9
$MEASUREMENT
 70
     0
  9
$CELWEIGHT
370
    -1
  9
$ENDCAPS
280
     0
  9
$JOINSTYLE
280
     0
  9
$LWDISPLAY
290
     1
  9
$INSUNITS
 70
     1
  9
$HYPERLINKBASE
  1

  9
$STYLESHEET
  1

  9
$XEDIT
290
     1
  9
$CEPSNTYPE
380
     0
  9
$PSTYLEMODE
290
     1
  9
$FINGERPRINTGUID
  2
{AB9D1CE0-1779-4C79-8D39-C50F2DB1375A}
  9
$VERSIONGUID
  2
{FAEB1C32-E019-11D5-929B-00C0DF256EC4}
  9
$EXTNAMES
290
     1
  9
$PSVPSCALE
 40
0.0
  9
$OLESTARTUP
290
     0
  9
$SORTENTS
280
   127
  9
$INDEXCTL
280
     0
  9
$HIDETEXT
280
     1
  9
$XCLIPFRAME
290
     0
  9
$HALOGAP
280
     0
  9
$OBSCOLOR
 70
   257
  9
$OBSLTYPE
280
     0
  9
$INTERSECTIONDISPLAY
280
     0
  9
$INTERSECTIONCOLOR
 70
   257
  9
$DIMASSOC
280
     2
  9
$PROJECTNAME
  1

  0
ENDSEC
  0
SECTION
  2
CLASSES
  0
CLASS
  1
ACDBDICTIONARYWDFLT
  2
AcDbDictionaryWithDefault
  3
ObjectDBX Classes
 90
        0
 91
        3
280
     0
281
     0
  0
CLASS
  1
VISUALSTYLE
  2
AcDbVisualStyle
  3
ObjectDBX Classes
 90
     4095
 91
        3
280
     0
281
     0
  0
ENDSEC
  0
SECTION
  2
TABLES
  0
TABLE
  2
VPORT
  5
8
330
0
100
AcDbSymbolTable
 70
     1
  0
VPORT
  5
29
330
8
100
AcDbSymbolTableRecord
100
AcDbViewportTableRecord
  2
*Active
 70
     0
 10
0.0
 20
0.0
 11
1.0
 21
1.0
 12
0.0
 22
0.0
 13
0.0
 23
0.0
 14
0.5
 24
0.5
 15
0.5
 25
0.5
 16
0.0
 26
0.0
 36
1.0
 17
105.0008259828644
 27
148.4999796178229
 37
0.0
 40
210.0016519657287
 41
1.414274394775308
 42
50.0
 43
0.0
 44
0.0
 50
0.0
 51
0.0
 71
     0
 72
   100
 73
     1
 74
     3
 75
     0
 76
     0
 77
     0
 78
     0
281
     0
 65
     1
110
0.0
120
0.0
130
0.0
111
1.0
121
0.0
131
0.0
112
0.0
122
1.0
132
0.0
 79
     0
146
0.0
  0
ENDTAB
  0
TABLE
  2
LTYPE
  5
5
330
0
100
AcDbSymbolTable
 70
     1
  0
LTYPE
  5
14
330
5
100
AcDbSymbolTableRecord
100
AcDbLinetypeTableRecord
  2
ByBlock
 70
     0
  3

 72
    65
 73
     0
 40
0.0
  0
LTYPE
  5
15
330
5
100
AcDbSymbolTableRecord
100
AcDbLinetypeTableRecord
  2
ByLayer
 70
     0
  3

 72
    65
 73
     0
 40
0.0
  0
LTYPE
  5
16
330
5
100
AcDbSymbolTableRecord
100
AcDbLinetypeTableRecord
  2
Continuous
 70
     0
  3
Solid line
 72
    65
 73
     0
 40
0.0
  0
ENDTAB
  0
TABLE
  2
LAYER
  5
2
330
0
100
AcDbSymbolTable
 70
     3
  0
LAYER
  5
10
330
2
100
AcDbSymbolTableRecord
100
AcDbLayerTableRecord
  2
0
 70
     0
 62
     7
  6
Continuous
370
    -3
390
F
  0
LAYER
  5
3B
330
2
100
AcDbSymbolTableRecord
100
AcDbLayerTableRecord
  2
\U+56F3\U+67A0
 70
     0
 62
     7
  6
Continuous
370
    -3
390
F
  0
LAYER
  5
3C
330
2
100
AcDbSymbolTableRecord
100
AcDbLayerTableRecord
  2
\U+30EC\U+30A4\U+30E4\U+30FC 4
 70
     0
 62
     7
  6
Continuous
370
    -3
390
F
  0
ENDTAB
  0
TABLE
  2
STYLE
  5
3
330
0
100
AcDbSymbolTable
 70
     1
  0
STYLE
  5
11
330
3
100
AcDbSymbolTableRecord
100
AcDbTextStyleTableRecord
  2
Standard
 70
     0
 40
0.0
 41
1.0
 50
0.0
 71
     0
 42
0.2
  3
txt
  4

  0
ENDTAB
  0
TABLE
  2
VIEW
  5
6
330
0
100
AcDbSymbolTable
 70
     0
  0
ENDTAB
  0
TABLE
  2
UCS
  5
7
330
0
100
AcDbSymbolTable
 70
     0
  0
ENDTAB
  0
TABLE
  2
APPID
  5
9
330
0
100
AcDbSymbolTable
 70
     1
  0
APPID
  5
12
330
9
100
AcDbSymbolTableRecord
100
AcDbRegAppTableRecord
  2
ACAD
 70
     0
  0
ENDTAB
  0
TABLE
  2
DIMSTYLE
  5
A
330
0
100
AcDbSymbolTable
 70
     1
100
AcDbDimStyleTable
  0
DIMSTYLE
105
27
330
A
100
AcDbSymbolTableRecord
100
AcDbDimStyleTableRecord
  2
Standard
 70
     0
340
11
  0
ENDTAB
  0
TABLE
  2
BLOCK_RECORD
  5
1
330
0
100
AcDbSymbolTable
 70
    85
  0
BLOCK_RECORD
  5
1F
330
1
100
AcDbSymbolTableRecord
100
AcDbBlockTableRecord
  2
*Model_Space
340
22
  0
BLOCK_RECORD
  5
1B
330
1
100
AcDbSymbolTableRecord
100
AcDbBlockTableRecord
  2
*Paper_Space
340
1E
  0
BLOCK_RECORD
  5
23
330
1
100
AcDbSymbolTableRecord
100
AcDbBlockTableRecord
  2
*Paper_Space0
340
26
  0
BLOCK_RECORD
  5
3D
330
1
100
AcDbSymbolTableRecord
100
AcDbBlockTableRecord
  2
block 2
340
0
102
{BLKREFS
331
3E
102
}
  0
BLOCK_RECORD
  5
41
330
1
100
AcDbSymbolTableRecord
100
AcDbBlockTableRecord
  2
block 3
340
0
102
{BLKREFS
331
42
102
}
  0
BLOCK_RECORD
  5
45
330
1
100
AcDbSymbolTableRecord
100
AcDbBlockTableRecord
  2
block 4
340
0
102
{BLKREFS
331
46
102
}
  0
BLOCK_RECORD
  5
4D
330
1
100
AcDbSymbolTableRecord
100
AcDbBlockTableRecord
  2
block 5
340
0
102
{BLKREFS
331
4E
102
}
  0
BLOCK_RECORD
  5
55
330
1
100
AcDbSymbolTableRecord
100
AcDbBlockTableRecord
  2
block 6
340
0
102
{BLKREFS
331
56
102
}
  0
BLOCK_RECORD
  5
5D
330
1
100
AcDbSymbolTableRecord
100
AcDbBlockTableRecord
  2
block 7
340
0
102
{BLKREFS
331
5E
102
}
  0
BLOCK_RECORD
  5
65
330
1
100
AcDbSymbolTableRecord
100
AcDbBlockTableRecord
  2
block 8
340
0
102
{BLKREFS
331
66
102
}
  0
BLOCK_RECORD
  5
6A
330
1
100
AcDbSymbolTableRecord
100
AcDbBlockTableRecord
  2
block 9
340
0
102
{BLKREFS
331
6B
102
}
  0
BLOCK_RECORD
  5
6F
330
1
100
AcDbSymbolTableRecord
100
AcDbBlockTableRecord
  2
block 10
340
0
102
{BLKREFS
331
70
102
}
  0
BLOCK_RECORD
  5
74
330
1
100
AcDbSymbolTableRecord
100
AcDbBlockTableRecord
  2
block 11
340
0
102
{BLKREFS
331
75
102
}
  0
BLOCK_RECORD
  5
97
330
1
100
AcDbSymbolTableRecord
100
AcDbBlockTableRecord
  2
block 12
340
0
102
{BLKREFS
331
98
102
}
  0
BLOCK_RECORD
  5
AE
330
1
100
AcDbSymbolTableRecord
100
AcDbBlockTableRecord
  2
block 13
340
0
102
{BLKREFS
331
AF
102
}
  0
BLOCK_RECORD
  5
B3
330
1
100
AcDbSymbolTableRecord
100
AcDbBlockTableRecord
  2
block 14
340
0
102
{BLKREFS
331
B4
102
}
  0
BLOCK_RECORD
  5
D2
330
1
100
AcDbSymbolTableRecord
100
AcDbBlockTableRecord
  2
block 15
340
0
102
{BLKREFS
331
D3
102
}
  0
BLOCK_RECORD
  5
DA
330
1
100
AcDbSymbolTableRecord
100
AcDbBlockTableRecord
  2
block 16
340
0
102
{BLKREFS
331
DB
102
}
  0
BLOCK_RECORD
  5
E3
330
1
100
AcDbSymbolTableRecord
100
AcDbBlockTableRecord
  2
block 17
340
0
102
{BLKREFS
331
E4
102
}
  0
BLOCK_RECORD
  5
EB
330
1
100
AcDbSymbolTableRecord
100
AcDbBlockTableRecord
  2
block 18
340
0
102
{BLKREFS
331
EC
102
}
  0
BLOCK_RECORD
  5
F2
330
1
100
AcDbSymbolTableRecord
100
AcDbBlockTableRecord
  2
block 19
340
0
102
{BLKREFS
331
F3
102
}
  0
BLOCK_RECORD
  5
108
330
1
100
AcDbSymbolTableRecord
100
AcDbBlockTableRecord
  2
block 20
340
0
102
{BLKREFS
331
109
102
}
  0
BLOCK_RECORD
  5
10D
330
1
100
AcDbSymbolTableRecord
100
AcDbBlockTableRecord
  2
block 21
340
0
102
{BLKREFS
331
10E
102
}
  0
BLOCK_RECORD
  5
111
330
1
100
AcDbSymbolTableRecord
100
AcDbBlockTableRecord
  2
block 22
340
0
102
{BLKREFS
331
112
102
}
  0
BLOCK_RECORD
  5
119
330
1
100
AcDbSymbolTableRecord
100
AcDbBlockTableRecord
  2
block 23
340
0
102
{BLKREFS
331
11A
102
}
  0
BLOCK_RECORD
  5
121
330
1
100
AcDbSymbolTableRecord
100
AcDbBlockTableRecord
  2
block 24
340
0
102
{BLKREFS
331
122
102
}
  0
BLOCK_RECORD
  5
125
330
1
100
AcDbSymbolTableRecord
100
AcDbBlockTableRecord
  2
block 25
340
0
102
{BLKREFS
331
126
102
}
  0
BLOCK_RECORD
  5
12A
330
1
100
AcDbSymbolTableRecord
100
AcDbBlockTableRecord
  2
block 26
340
0
102
{BLKREFS
331
12B
102
}
  0
BLOCK_RECORD
  5
12F
330
1
100
AcDbSymbolTableRecord
100
AcDbBlockTableRecord
  2
block 27
340
0
102
{BLKREFS
331
130
102
}
  0
BLOCK_RECORD
  5
137
330
1
100
AcDbSymbolTableRecord
100
AcDbBlockTableRecord
  2
block 28
340
0
102
{BLKREFS
331
138
102
}
  0
BLOCK_RECORD
  5
13F
330
1
100
AcDbSymbolTableRecord
100
AcDbBlockTableRecord
  2
block 29
340
0
102
{BLKREFS
331
140
102
}
  0
BLOCK_RECORD
  5
147
330
1
100
AcDbSymbolTableRecord
100
AcDbBlockTableRecord
  2
block 30
340
0
102
{BLKREFS
331
148
102
}
  0
BLOCK_RECORD
  5
14F
330
1
100
AcDbSymbolTableRecord
100
AcDbBlockTableRecord
  2
block 31
340
0
102
{BLKREFS
331
150
102
}
  0
BLOCK_RECORD
  5
154
330
1
100
AcDbSymbolTableRecord
100
AcDbBlockTableRecord
  2
block 32
340
0
102
{BLKREFS
331
155
102
}
  0
BLOCK_RECORD
  5
159
330
1
100
AcDbSymbolTableRecord
100
AcDbBlockTableRecord
  2
block 33
340
0
102
{BLKREFS
331
15A
102
}
  0
BLOCK_RECORD
  5
161
330
1
100
AcDbSymbolTableRecord
100
AcDbBlockTableRecord
  2
block 34
340
0
102
{BLKREFS
331
162
102
}
  0
BLOCK_RECORD
  5
169
330
1
100
AcDbSymbolTableRecord
100
AcDbBlockTableRecord
  2
block 35
340
0
102
{BLKREFS
331
16A
102
}
  0
BLOCK_RECORD
  5
16E
330
1
100
AcDbSymbolTableRecord
100
AcDbBlockTableRecord
  2
block 36
340
0
102
{BLKREFS
331
16F
102
}
  0
BLOCK_RECORD
  5
173
330
1
100
AcDbSymbolTableRecord
100
AcDbBlockTableRecord
  2
block 37
340
0
102
{BLKREFS
331
174
102
}
  0
BLOCK_RECORD
  5
17B
330
1
100
AcDbSymbolTableRecord
100
AcDbBlockTableRecord
  2
block 38
340
0
102
{BLKREFS
331
17C
102
}
  0
BLOCK_RECORD
  5
183
330
1
100
AcDbSymbolTableRecord
100
AcDbBlockTableRecord
  2
block 39
340
0
102
{BLKREFS
331
184
102
}
  0
BLOCK_RECORD
  5
18B
330
1
100
AcDbSymbolTableRecord
100
AcDbBlockTableRecord
  2
block 40
340
0
102
{BLKREFS
331
18C
102
}
  0
BLOCK_RECORD
  5
193
330
1
100
AcDbSymbolTableRecord
100
AcDbBlockTableRecord
  2
block 41
340
0
102
{BLKREFS
331
194
102
}
  0
BLOCK_RECORD
  5
1AD
330
1
100
AcDbSymbolTableRecord
100
AcDbBlockTableRecord
  2
block 42
340
0
102
{BLKREFS
331
1AE
102
}
  0
BLOCK_RECORD
  5
1BB
330
1
100
AcDbSymbolTableRecord
100
AcDbBlockTableRecord
  2
block 43
340
0
102
{BLKREFS
331
1BC
102
}
  0
BLOCK_RECORD
  5
1C4
330
1
100
AcDbSymbolTableRecord
100
AcDbBlockTableRecord
  2
block 44
340
0
102
{BLKREFS
331
1C5
102
}
  0
BLOCK_RECORD
  5
1D2
330
1
100
AcDbSymbolTableRecord
100
AcDbBlockTableRecord
  2
block 45
340
0
102
{BLKREFS
331
1D3
102
}
  0
BLOCK_RECORD
  5
1DB
330
1
100
AcDbSymbolTableRecord
100
AcDbBlockTableRecord
  2
block 46
340
0
102
{BLKREFS
331
1DC
102
}
  0
BLOCK_RECORD
  5
1E0
330
1
100
AcDbSymbolTableRecord
100
AcDbBlockTableRecord
  2
block 47
340
0
102
{BLKREFS
331
1E1
102
}
  0
BLOCK_RECORD
  5
1E8
330
1
100
AcDbSymbolTableRecord
100
AcDbBlockTableRecord
  2
block 48
340
0
102
{BLKREFS
331
1E9
102
}
  0
BLOCK_RECORD
  5
1ED
330
1
100
AcDbSymbolTableRecord
100
AcDbBlockTableRecord
  2
block 49
340
0
102
{BLKREFS
331
1EE
102
}
  0
BLOCK_RECORD
  5
1F5
330
1
100
AcDbSymbolTableRecord
100
AcDbBlockTableRecord
  2
block 50
340
0
102
{BLKREFS
331
1F6
102
}
  0
BLOCK_RECORD
  5
1FA
330
1
100
AcDbSymbolTableRecord
100
AcDbBlockTableRecord
  2
block 51
340
0
102
{BLKREFS
331
1FB
102
}
  0
BLOCK_RECORD
  5
202
330
1
100
AcDbSymbolTableRecord
100
AcDbBlockTableRecord
  2
block 52
340
0
102
{BLKREFS
331
203
102
}
  0
BLOCK_RECORD
  5
207
330
1
100
AcDbSymbolTableRecord
100
AcDbBlockTableRecord
  2
block 53
340
0
102
{BLKREFS
331
208
102
}
  0
BLOCK_RECORD
  5
20F
330
1
100
AcDbSymbolTableRecord
100
AcDbBlockTableRecord
  2
block 54
340
0
102
{BLKREFS
331
210
102
}
  0
BLOCK_RECORD
  5
214
330
1
100
AcDbSymbolTableRecord
100
AcDbBlockTableRecord
  2
block 55
340
0
102
{BLKREFS
331
215
102
}
  0
BLOCK_RECORD
  5
219
330
1
100
AcDbSymbolTableRecord
100
AcDbBlockTableRecord
  2
block 56
340
0
102
{BLKREFS
331
21A
102
}
  0
BLOCK_RECORD
  5
21E
330
1
100
AcDbSymbolTableRecord
100
AcDbBlockTableRecord
  2
block 57
340
0
102
{BLKREFS
331
21F
102
}
  0
BLOCK_RECORD
  5
239
330
1
100
AcDbSymbolTableRecord
100
AcDbBlockTableRecord
  2
block 58
340
0
102
{BLKREFS
331
23A
102
}
  0
BLOCK_RECORD
  5
241
330
1
100
AcDbSymbolTableRecord
100
AcDbBlockTableRecord
  2
block 59
340
0
102
{BLKREFS
331
242
102
}
  0
BLOCK_RECORD
  5
249
330
1
100
AcDbSymbolTableRecord
100
AcDbBlockTableRecord
  2
block 60
340
0
102
{BLKREFS
331
24A
102
}
  0
BLOCK_RECORD
  5
251
330
1
100
AcDbSymbolTableRecord
100
AcDbBlockTableRecord
  2
block 61
340
0
102
{BLKREFS
331
252
102
}
  0
BLOCK_RECORD
  5
259
330
1
100
AcDbSymbolTableRecord
100
AcDbBlockTableRecord
  2
block 62
340
0
102
{BLKREFS
331
25A
102
}
  0
BLOCK_RECORD
  5
25E
330
1
100
AcDbSymbolTableRecord
100
AcDbBlockTableRecord
  2
block 63
340
0
102
{BLKREFS
331
25F
102
}
  0
BLOCK_RECORD
  5
263
330
1
100
AcDbSymbolTableRecord
100
AcDbBlockTableRecord
  2
block 64
340
0
102
{BLKREFS
331
264
102
}
  0
BLOCK_RECORD
  5
26B
330
1
100
AcDbSymbolTableRecord
100
AcDbBlockTableRecord
  2
block 65
340
0
102
{BLKREFS
331
26C
102
}
  0
BLOCK_RECORD
  5
270
330
1
100
AcDbSymbolTableRecord
100
AcDbBlockTableRecord
  2
block 66
340
0
102
{BLKREFS
331
271
102
}
  0
BLOCK_RECORD
  5
278
330
1
100
AcDbSymbolTableRecord
100
AcDbBlockTableRecord
  2
block 67
340
0
102
{BLKREFS
331
279
102
}
  0
BLOCK_RECORD
  5
280
330
1
100
AcDbSymbolTableRecord
100
AcDbBlockTableRecord
  2
block 68
340
0
102
{BLKREFS
331
281
102
}
  0
BLOCK_RECORD
  5
288
330
1
100
AcDbSymbolTableRecord
100
AcDbBlockTableRecord
  2
block 69
340
0
102
{BLKREFS
331
289
102
}
  0
BLOCK_RECORD
  5
290
330
1
100
AcDbSymbolTableRecord
100
AcDbBlockTableRecord
  2
block 70
340
0
102
{BLKREFS
331
291
102
}
  0
BLOCK_RECORD
  5
298
330
1
100
AcDbSymbolTableRecord
100
AcDbBlockTableRecord
  2
block 71
340
0
102
{BLKREFS
331
299
102
}
  0
BLOCK_RECORD
  5
2A0
330
1
100
AcDbSymbolTableRecord
100
AcDbBlockTableRecord
  2
block 72
340
0
102
{BLKREFS
331
2A1
102
}
  0
BLOCK_RECORD
  5
2A8
330
1
100
AcDbSymbolTableRecord
100
AcDbBlockTableRecord
  2
block 73
340
0
102
{BLKREFS
331
2A9
102
}
  0
BLOCK_RECORD
  5
2AD
330
1
100
AcDbSymbolTableRecord
100
AcDbBlockTableRecord
  2
block 74
340
0
102
{BLKREFS
331
2AE
102
}
  0
BLOCK_RECORD
  5
2B5
330
1
100
AcDbSymbolTableRecord
100
AcDbBlockTableRecord
  2
block 75
340
0
102
{BLKREFS
331
2B6
102
}
  0
BLOCK_RECORD
  5
2CC
330
1
100
AcDbSymbolTableRecord
100
AcDbBlockTableRecord
  2
block 76
340
0
102
{BLKREFS
331
2CD
102
}
  0
BLOCK_RECORD
  5
2E3
330
1
100
AcDbSymbolTableRecord
100
AcDbBlockTableRecord
  2
block 77
340
0
102
{BLKREFS
331
2E4
102
}
  0
BLOCK_RECORD
  5
2FD
330
1
100
AcDbSymbolTableRecord
100
AcDbBlockTableRecord
  2
block 78
340
0
102
{BLKREFS
331
2FE
102
}
  0
BLOCK_RECORD
  5
306
330
1
100
AcDbSymbolTableRecord
100
AcDbBlockTableRecord
  2
block 79
340
0
102
{BLKREFS
331
307
102
}
  0
BLOCK_RECORD
  5
32E
330
1
100
AcDbSymbolTableRecord
100
AcDbBlockTableRecord
  2
block 80
340
0
102
{BLKREFS
331
32F
102
}
  0
BLOCK_RECORD
  5
349
330
1
100
AcDbSymbolTableRecord
100
AcDbBlockTableRecord
  2
block 81
340
0
102
{BLKREFS
331
34A
102
}
  0
BLOCK_RECORD
  5
359
330
1
100
AcDbSymbolTableRecord
100
AcDbBlockTableRecord
  2
block 82
340
0
102
{BLKREFS
331
35A
102
}
  0
BLOCK_RECORD
  5
368
330
1
100
AcDbSymbolTableRecord
100
AcDbBlockTableRecord
  2
block 83
340
0
102
{BLKREFS
331
369
102
}
  0
BLOCK_RECORD
  5
370
330
1
100
AcDbSymbolTableRecord
100
AcDbBlockTableRecord
  2
block 84
340
0
102
{BLKREFS
331
371
102
}
  0
BLOCK_RECORD
  5
380
330
1
100
AcDbSymbolTableRecord
100
AcDbBlockTableRecord
  2
block 85
340
0
102
{BLKREFS
331
381
102
}
  0
ENDTAB
  0
ENDSEC
  0
SECTION
  2
BLOCKS
  0
BLOCK
  5
20
330
1F
100
AcDbEntity
  8
0
100
AcDbBlockBegin
  2
*Model_Space
 70
     0
 71
     0
 10
0.0
 20
0.0
 30
0.0
  3
*Model_Space
  1

  0
ENDBLK
  5
21
330
1F
100
AcDbEntity
  8
0
100
AcDbBlockEnd
  0
BLOCK
  5
1C
330
1B
100
AcDbEntity
 67
     1
  8
0
100
AcDbBlockBegin
  2
*Paper_Space
 70
     0
 71
     0
 10
0.0
 20
0.0
 30
0.0
  3
*Paper_Space
  1

  0
ENDBLK
  5
1D
330
1B
100
AcDbEntity
 67
     1
  8
0
100
AcDbBlockEnd
  0
BLOCK
  5
24
330
23
100
AcDbEntity
  8
0
100
AcDbBlockBegin
  2
*Paper_Space0
 70
     0
 71
     0
 10
0.0
 20
0.0
 30
0.0
  3
*Paper_Space0
  1

  0
ENDBLK
  5
25
330
23
100
AcDbEntity
  8
0
100
AcDbBlockEnd
  0
BLOCK
  5
3F
330
3D
100
AcDbEntity
  8
0
100
AcDbBlockBegin
  2
block 2
 70
     0
 71
     0
 10
0.0
 20
0.0
 30
0.0
  3
block 2
  1

  0
INSERT
  5
42
330
3D
100
AcDbEntity
  8
\U+30EC\U+30A4\U+30E4\U+30FC 4
100
AcDbBlockReference
  2
block 3
 10
0.0
 20
0.0
 30
0.0
  0
INSERT
  5
10E
330
3D
100
AcDbEntity
  8
\U+30EC\U+30A4\U+30E4\U+30FC 4
100
AcDbBlockReference
  2
block 21
 10
0.0
 20
0.0
 30
0.0
  0
INSERT
  5
122
330
3D
100
AcDbEntity
  8
\U+30EC\U+30A4\U+30E4\U+30FC 4
100
AcDbBlockReference
  2
block 24
 10
0.0
 20
0.0
 30
0.0
  0
ENDBLK
  5
40
330
3D
100
AcDbEntity
  8
0
100
AcDbBlockEnd
  0
BLOCK
  5
43
330
41
100
AcDbEntity
  8
0
100
AcDbBlockBegin
  2
block 3
 70
     0
 71
     0
 10
0.0
 20
0.0
 30
0.0
  3
block 3
  1

  0
INSERT
  5
46
330
41
100
AcDbEntity
  8
\U+30EC\U+30A4\U+30E4\U+30FC 4
100
AcDbBlockReference
  2
block 4
 10
0.0
 20
0.0
 30
0.0
  0
INSERT
  5
4E
330
41
100
AcDbEntity
  8
\U+30EC\U+30A4\U+30E4\U+30FC 4
100
AcDbBlockReference
  2
block 5
 10
0.0
 20
0.0
 30
0.0
  0
INSERT
  5
56
330
41
100
AcDbEntity
  8
\U+30EC\U+30A4\U+30E4\U+30FC 4
100
AcDbBlockReference
  2
block 6
 10
0.0
 20
0.0
 30
0.0
  0
INSERT
  5
5E
330
41
100
AcDbEntity
  8
\U+30EC\U+30A4\U+30E4\U+30FC 4
100
AcDbBlockReference
  2
block 7
 10
0.0
 20
0.0
 30
0.0
  0
INSERT
  5
66
330
41
100
AcDbEntity
  8
\U+30EC\U+30A4\U+30E4\U+30FC 4
100
AcDbBlockReference
  2
block 8
 10
0.0
 20
0.0
 30
0.0
  0
INSERT
  5
6B
330
41
100
AcDbEntity
  8
\U+30EC\U+30A4\U+30E4\U+30FC 4
100
AcDbBlockReference
  2
block 9
 10
0.0
 20
0.0
 30
0.0
  0
INSERT
  5
70
330
41
100
AcDbEntity
  8
\U+30EC\U+30A4\U+30E4\U+30FC 4
100
AcDbBlockReference
  2
block 10
 10
0.0
 20
0.0
 30
0.0
  0
INSERT
  5
75
330
41
100
AcDbEntity
  8
\U+30EC\U+30A4\U+30E4\U+30FC 4
100
AcDbBlockReference
  2
block 11
 10
0.0
 20
0.0
 30
0.0
  0
INSERT
  5
98
330
41
100
AcDbEntity
  8
\U+30EC\U+30A4\U+30E4\U+30FC 4
100
AcDbBlockReference
  2
block 12
 10
0.0
 20
0.0
 30
0.0
  0
INSERT
  5
AF
330
41
100
AcDbEntity
  8
\U+30EC\U+30A4\U+30E4\U+30FC 4
100
AcDbBlockReference
  2
block 13
 10
0.0
 20
0.0
 30
0.0
  0
INSERT
  5
B4
330
41
100
AcDbEntity
  8
\U+30EC\U+30A4\U+30E4\U+30FC 4
100
AcDbBlockReference
  2
block 14
 10
0.0
 20
0.0
 30
0.0
  0
INSERT
  5
D3
330
41
100
AcDbEntity
  8
\U+30EC\U+30A4\U+30E4\U+30FC 4
100
AcDbBlockReference
  2
block 15
 10
0.0
 20
0.0
 30
0.0
  0
INSERT
  5
DB
330
41
100
AcDbEntity
  8
\U+30EC\U+30A4\U+30E4\U+30FC 4
100
AcDbBlockReference
  2
block 16
 10
0.0
 20
0.0
 30
0.0
  0
INSERT
  5
E4
330
41
100
AcDbEntity
  8
\U+30EC\U+30A4\U+30E4\U+30FC 4
100
AcDbBlockReference
  2
block 17
 10
0.0
 20
0.0
 30
0.0
  0
INSERT
  5
EC
330
41
100
AcDbEntity
  8
\U+30EC\U+30A4\U+30E4\U+30FC 4
100
AcDbBlockReference
  2
block 18
 10
0.0
 20
0.0
 30
0.0
  0
INSERT
  5
F3
330
41
100
AcDbEntity
  8
\U+30EC\U+30A4\U+30E4\U+30FC 4
100
AcDbBlockReference
  2
block 19
 10
0.0
 20
0.0
 30
0.0
  0
INSERT
  5
109
330
41
100
AcDbEntity
  8
\U+30EC\U+30A4\U+30E4\U+30FC 4
100
AcDbBlockReference
  2
block 20
 10
0.0
 20
0.0
 30
0.0
  0
ENDBLK
  5
44
330
41
100
AcDbEntity
  8
0
100
AcDbBlockEnd
  0
BLOCK
  5
47
330
45
100
AcDbEntity
  8
0
100
AcDbBlockBegin
  2
block 4
 70
     0
 71
     0
 10
0.0
 20
0.0
 30
0.0
  3
block 4
  1

  0
POLYLINE
  5
49
330
45
100
AcDbEntity
  8
\U+30EC\U+30A4\U+30E4\U+30FC 4
 62
     7
420
 16777215
370
    15
100
AcDb2dPolyline
 66
     1
 10
0.0
 20
0.0
 30
0.0
  0
VERTEX
  5
4A
330
49
100
AcDbEntity
  8
\U+30EC\U+30A4\U+30E4\U+30FC 4
 62
     7
420
 16777215
370
    15
100
AcDbVertex
100
AcDb2dVertex
 10
181.440776864362
 20
211.3007974732165
 30
0.0
  0
VERTEX
  5
4B
330
49
100
AcDbEntity
  8
\U+30EC\U+30A4\U+30E4\U+30FC 4
 62
     7
420
 16777215
370
    15
100
AcDbVertex
100
AcDb2dVertex
 10
182.8077907529092
 20
212.5003797211805
 30
0.0
  0
SEQEND
  5
4C
330
49
100
AcDbEntity
  8
\U+30EC\U+30A4\U+30E4\U+30FC 4
370
    15
  0
ENDBLK
  5
48
330
45
100
AcDbEntity
  8
0
100
AcDbBlockEnd
  0
BLOCK
  5
4F
330
4D
100
AcDbEntity
  8
0
100
AcDbBlockBegin
  2
block 5
 70
     0
 71
     0
 10
0.0
 20
0.0
 30
0.0
  3
block 5
  1

  0
POLYLINE
  5
51
330
4D
100
AcDbEntity
  8
\U+30EC\U+30A4\U+30E4\U+30FC 4
 62
     7
420
 16777215
370
    15
100
AcDb2dPolyline
 66
     1
 10
0.0
 20
0.0
 30
0.0
  0
VERTEX
  5
52
330
51
100
AcDbEntity
  8
\U+30EC\U+30A4\U+30E4\U+30FC 4
 62
     7
420
 16777215
370
    15
100
AcDbVertex
100
AcDb2dVertex
 10
178.2575086359912
 20
217.7548393552835
 30
0.0
  0
VERTEX
  5
53
330
51
100
AcDbEntity
  8
\U+30EC\U+30A4\U+30E4\U+30FC 4
 62
     7
420
 16777215
370
    15
100
AcDbVertex
100
AcDb2dVertex
 10
176.8739582891149
 20
216.5731716038428
 30
0.0
  0
SEQEND
  5
54
330
51
100
AcDbEntity
  8
\U+30EC\U+30A4\U+30E4\U+30FC 4
370
    15
  0
ENDBLK
  5
50
330
4D
100
AcDbEntity
  8
0
100
AcDbBlockEnd
  0
BLOCK
  5
57
330
55
100
AcDbEntity
  8
0
100
AcDbBlockBegin
  2
block 6
 70
     0
 71
     0
 10
0.0
 20
0.0
 30
0.0
  3
block 6
  1

  0
POLYLINE
  5
59
330
55
100
AcDbEntity
  8
\U+30EC\U+30A4\U+30E4\U+30FC 4
 62
     7
420
 16777215
370
    15
100
AcDb2dPolyline
 66
     1
 10
0.0
 20
0.0
 30
0.0
  0
VERTEX
  5
5A
330
59
100
AcDbEntity
  8
\U+30EC\U+30A4\U+30E4\U+30FC 4
 62
     7
420
 16777215
370
    15
100
AcDbVertex
100
AcDb2dVertex
 10
183.4389322458069
 20
213.5345973858525
 30
0.0
  0
VERTEX
  5
5B
330
59
100
AcDbEntity
  8
\U+30EC\U+30A4\U+30E4\U+30FC 4
 62
     7
420
 16777215
370
    15
100
AcDbVertex
100
AcDb2dVertex
 10
184.377376255989
 20
214.3683104932829
 30
0.0
  0
SEQEND
  5
5C
330
59
100
AcDbEntity
  8
\U+30EC\U+30A4\U+30E4\U+30FC 4
370
    15
  0
ENDBLK
  5
58
330
55
100
AcDbEntity
  8
0
100
AcDbBlockEnd
  0
BLOCK
  5
5F
330
5D
100
AcDbEntity
  8
0
100
AcDbBlockBegin
  2
block 7
 70
     0
 71
     0
 10
0.0
 20
0.0
 30
0.0
  3
block 7
  1

  0
POLYLINE
  5
61
330
5D
100
AcDbEntity
  8
\U+30EC\U+30A4\U+30E4\U+30FC 4
 62
     7
420
 16777215
370
    15
100
AcDb2dPolyline
 66
     1
 10
0.0
 20
0.0
 30
0.0
  0
VERTEX
  5
62
330
61
100
AcDbEntity
  8
\U+30EC\U+30A4\U+30E4\U+30FC 4
 62
     7
420
 16777215
370
    15
100
AcDbVertex
100
AcDb2dVertex
 10
180.3300780799175
 20
219.0412380094758
 30
0.0
  0
VERTEX
  5
63
330
61
100
AcDbEntity
  8
\U+30EC\U+30A4\U+30E4\U+30FC 4
 62
     7
420
 16777215
370
    15
100
AcDbVertex
100
AcDb2dVertex
 10
179.3709634968239
 20
218.2323295895391
 30
0.0
  0
SEQEND
  5
64
330
61
100
AcDbEntity
  8
\U+30EC\U+30A4\U+30E4\U+30FC 4
370
    15
  0
ENDBLK
  5
60
330
5D
100
AcDbEntity
  8
0
100
AcDbBlockEnd
  0
BLOCK
  5
67
330
65
100
AcDbEntity
  8
0
100
AcDbBlockBegin
  2
block 8
 70
     0
 71
     0
 10
0.0
 20
0.0
 30
0.0
  3
block 8
  1

  0
SPLINE
  5
69
330
65
100
AcDbEntity
  8
\U+30EC\U+30A4\U+30E4\U+30FC 4
 62
     7
420
 16777215
370
    15
100
AcDbSpline
210
0.0
220
0.0
230
1.0
 70
     8
 71
     3
 72
    20
 73
    16
 74
     0
 42
0.0000000001
 43
0.0000000001
 40
0.0
 40
0.0
 40
0.0
 40
0.0
 40
1.0
 40
1.0
 40
1.0
 40
2.0
 40
2.0
 40
2.0
 40
3.0
 40
3.0
 40
3.0
 40
4.0
 40
4.0
 40
4.0
 40
5.0
 40
5.0
 40
5.0
 40
5.0
 10
184.5275824191459
 20
214.5322970383808
 30
0.0
 10
184.5606553358043
 20
214.5660589741363
 30
0.0
 10
184.5937282524627
 20
214.5998209098917
 30
0.0
 10
184.6240450927329
 20
214.6349608838413
 30
0.0
 10
184.7067273843789
 20
214.7321125765253
 30
0.0
 10
184.7701171413075
 20
214.8464897466356
 30
0.0
 10
184.8252386690715
 20
214.9650010313282
 30
0.0
 10
184.8803601968355
 20
215.0848903542149
 30
0.0
 10
184.9272134954349
 20
215.2089137916839
 30
0.0
 10
184.9630424884815
 20
215.3384493819293
 30
0.0
 10
184.9988714815281
 20
215.4693630103688
 30
0.0
 10
185.0236761690219
 20
215.6057887915847
 30
0.0
 10
185.0347004745747
 20
215.7456596682858
 30
0.0
 10
185.0415906655452
 20
215.8221407880584
 30
0.0
 10
185.0429687037393
 20
215.9006889651221
 30
0.0
 10
185.0457247801275
 20
215.9785481230887
 30
0.0
  0
ENDBLK
  5
68
330
65
100
AcDbEntity
  8
0
100
AcDbBlockEnd
  0
BLOCK
  5
6C
330
6A
100
AcDbEntity
  8
0
100
AcDbBlockBegin
  2
block 9
 70
     0
 71
     0
 10
0.0
 20
0.0
 30
0.0
  3
block 9
  1

  0
SPLINE
  5
6E
330
6A
100
AcDbEntity
  8
\U+30EC\U+30A4\U+30E4\U+30FC 4
 62
     7
420
 16777215
370
    15
100
AcDbSpline
210
0.0
220
0.0
230
1.0
 70
     8
 71
     3
 72
    53
 73
    49
 74
     0
 42
0.0000000001
 43
0.0000000001
 40
0.0
 40
0.0
 40
0.0
 40
0.0
 40
1.0
 40
1.0
 40
1.0
 40
2.0
 40
2.0
 40
2.0
 40
3.0
 40
3.0
 40
3.0
 40
4.0
 40
4.0
 40
4.0
 40
5.0
 40
5.0
 40
5.0
 40
6.0
 40
6.0
 40
6.0
 40
7.0
 40
7.0
 40
7.0
 40
8.0
 40
8.0
 40
8.0
 40
9.0
 40
9.0
 40
9.0
 40
10.0
 40
10.0
 40
10.0
 40
11.0
 40
11.0
 40
11.0
 40
12.0
 40
12.0
 40
12.0
 40
13.0
 40
13.0
 40
13.0
 40
14.0
 40
14.0
 40
14.0
 40
15.0
 40
15.0
 40
15.0
 40
16.0
 40
16.0
 40
16.0
 40
16.0
 10
185.0457247801275
 20
215.9785481230887
 30
0.0
 10
185.0429687037393
 20
216.0577853192495
 30
0.0
 10
185.0415906655452
 20
216.1370225154102
 30
0.0
 10
185.0347004745747
 20
216.217637749765
 30
0.0
 10
185.0236761690219
 20
216.3650878365337
 30
0.0
 10
184.9988714815281
 20
216.5152939996906
 30
0.0
 10
184.9630424884815
 20
216.6648111437505
 30
0.0
 10
184.9272134954349
 20
216.8150173069074
 30
0.0
 10
184.8803601968355
 20
216.9652234700643
 30
0.0
 10
184.8224825926833
 20
217.11336257593
 30
0.0
 10
184.7659830267252
 20
217.2615016817957
 30
0.0
 10
184.6984591552143
 20
217.4082627494674
 30
0.0
 10
184.6185329399565
 20
217.5508897025567
 30
0.0
 10
184.5413628010869
 20
217.6935166556461
 30
0.0
 10
184.4531683566645
 20
217.8326985132502
 30
0.0
 10
184.3567056830775
 20
217.9663682180779
 30
0.0
 10
184.2602430094905
 20
218.1000379229056
 30
0.0
 10
184.1555121067389
 20
218.2281954749569
 30
0.0
 10
184.0425129748227
 20
218.3494628360376
 30
0.0
 10
183.9308918811006
 20
218.4707301971184
 30
0.0
 10
183.8110025582139
 20
218.5851073672287
 30
0.0
 10
183.6856010825508
 20
218.6905272890774
 30
0.0
 10
183.5601996068877
 20
218.795947210926
 30
0.0
 10
183.4279079402541
 20
218.8937879227071
 30
0.0
 10
183.2928601972324
 20
218.9806043289354
 30
0.0
 10
183.1578124542106
 20
219.0681097542608
 30
0.0
 10
183.0172525584124
 20
219.1459689122274
 30
0.0
 10
182.873936586226
 20
219.2121147455442
 30
0.0
 10
182.7319986522337
 20
219.278949597958
 30
0.0
 10
182.5873046418532
 20
219.3347601448191
 30
0.0
 10
182.4412325932786
 20
219.3788573670303
 30
0.0
 10
182.295160544704
 20
219.4229545892415
 30
0.0
 10
182.1490884961294
 20
219.4553384868028
 30
0.0
 10
182.0030164475548
 20
219.4753200406173
 30
0.0
 10
181.8583224371743
 20
219.4953015944317
 30
0.0
 10
181.7136284267938
 20
219.5028808044993
 30
0.0
 10
181.5730685309956
 20
219.498746689917
 30
0.0
 10
181.4325086351975
 20
219.4939235562376
 30
0.0
 10
181.2947048157874
 20
219.4773870979084
 30
0.0
 10
181.1624131491538
 20
219.4470702576382
 30
0.0
 10
181.0301214825203
 20
219.4174424364651
 30
0.0
 10
180.9060980450513
 20
219.374723252448
 30
0.0
 10
180.7820746075823
 20
219.3230468201693
 30
0.0
 10
180.6608072465015
 20
219.2727484260846
 30
0.0
 10
180.543674000003
 20
219.2134927837383
 30
0.0
 10
180.4458332882219
 20
219.1308104920923
 30
0.0
 10
180.4306748680868
 20
219.1184081483454
 30
0.0
 10
180.4155164479517
 20
219.1060058045985
 30
0.0
 10
180.4017360660107
 20
219.0929144417546
 30
0.0
  0
ENDBLK
  5
6D
330
6A
100
AcDbEntity
  8
0
100
AcDbBlockEnd
  0
BLOCK
  5
71
330
6F
100
AcDbEntity
  8
0
100
AcDbBlockBegin
  2
block 10
 70
     0
 71
     0
 10
0.0
 20
0.0
 30
0.0
  3
block 10
  1

  0
SPLINE
  5
73
330
6F
100
AcDbEntity
  8
\U+30EC\U+30A4\U+30E4\U+30FC 4
 62
     7
420
 16777215
370
    15
100
AcDbSpline
210
0.0
220
0.0
230
1.0
 70
     8
 71
     3
 72
    26
 73
    22
 74
     0
 42
0.0000000001
 43
0.0000000001
 40
0.0
 40
0.0
 40
0.0
 40
0.0
 40
1.0
 40
1.0
 40
1.0
 40
2.0
 40
2.0
 40
2.0
 40
3.0
 40
3.0
 40
3.0
 40
4.0
 40
4.0
 40
4.0
 40
5.0
 40
5.0
 40
5.0
 40
6.0
 40
6.0
 40
6.0
 40
7.0
 40
7.0
 40
7.0
 40
7.0
 10
184.8335068982361
 20
216.8894313693888
 30
0.0
 10
184.8417751274007
 20
216.8942545030681
 30
0.0
 10
184.8472872801771
 20
216.8983886176504
 30
0.0
 10
184.8541774711476
 20
216.9039007704268
 30
0.0
 10
184.8748480440591
 20
216.9225042860472
 30
0.0
 10
184.8886284260001
 20
216.9493760308321
 30
0.0
 10
184.8996527315529
 20
216.9776258138112
 30
0.0
 10
184.9079209607175
 20
217.0051865776932
 30
0.0
 10
184.9134331134939
 20
217.0334363606722
 30
0.0
 10
184.9134331134939
 20
217.0623751627483
 30
0.0
 10
184.9134331134939
 20
217.0926920030185
 30
0.0
 10
184.9079209607175
 20
217.1243868814828
 30
0.0
 10
184.8982746933588
 20
217.154014702656
 30
0.0
 10
184.887250387806
 20
217.1863986002173
 30
0.0
 10
184.8707139294768
 20
217.2174044595845
 30
0.0
 10
184.8500433565653
 20
217.2456542425636
 30
0.0
 10
184.8279947454597
 20
217.2766601019308
 30
0.0
 10
184.8004339815777
 20
217.3049098849099
 30
0.0
 10
184.7701171413075
 20
217.3228243814332
 30
0.0
 10
184.7522026447842
 20
217.3331596678889
 30
0.0
 10
184.7342881482609
 20
217.3407388779565
 30
0.0
 10
184.7149956135435
 20
217.347629068927
 30
0.0
  0
ENDBLK
  5
72
330
6F
100
AcDbEntity
  8
0
100
AcDbBlockEnd
  0
BLOCK
  5
76
330
74
100
AcDbEntity
  8
0
100
AcDbBlockBegin
  2
block 11
 70
     0
 71
     0
 10
0.0
 20
0.0
 30
0.0
  3
block 11
  1

  0
POLYLINE
  5
78
330
74
100
AcDbEntity
  8
\U+30EC\U+30A4\U+30E4\U+30FC 4
 62
     7
420
 16777215
370
    15
100
AcDb2dPolyline
 66
     1
 10
0.0
 20
0.0
 30
0.0
  0
VERTEX
  5
79
330
78
100
AcDbEntity
  8
\U+30EC\U+30A4\U+30E4\U+30FC 4
 62
     7
420
 16777215
370
    15
100
AcDbVertex
100
AcDb2dVertex
 10
180.4430772118337
 20
210.826063315349
 30
0.0
  0
VERTEX
  5
7A
330
78
100
AcDbEntity
  8
\U+30EC\U+30A4\U+30E4\U+30FC 4
 62
     7
420
 16777215
370
    15
100
AcDbVertex
100
AcDb2dVertex
 10
180.8633788610342
 20
210.9473306764299
 30
0.0
  0
VERTEX
  5
7B
330
78
100
AcDbEntity
  8
\U+30EC\U+30A4\U+30E4\U+30FC 4
 62
     7
420
 16777215
370
    15
100
AcDbVertex
100
AcDb2dVertex
 10
181.2395832880235
 20
211.1464571954773
 30
0.0
  0
VERTEX
  5
7C
330
78
100
AcDbEntity
  8
\U+30EC\U+30A4\U+30E4\U+30FC 4
 62
     7
420
 16777215
370
    15
100
AcDbVertex
100
AcDb2dVertex
 10
181.5620442254428
 20
211.4165526815209
 30
0.0
  0
VERTEX
  5
7D
330
78
100
AcDbEntity
  8
\U+30EC\U+30A4\U+30E4\U+30FC 4
 62
     7
420
 16777215
370
    15
100
AcDbVertex
100
AcDb2dVertex
 10
181.8211154059336
 20
211.7527940008813
 30
0.0
  0
VERTEX
  5
7E
330
78
100
AcDbEntity
  8
\U+30EC\U+30A4\U+30E4\U+30FC 4
 62
     7
420
 16777215
370
    15
100
AcDbVertex
100
AcDb2dVertex
 10
182.0126627149135
 20
212.1448458671027
 30
0.0
  0
VERTEX
  5
7F
330
78
100
AcDbEntity
  8
\U+30EC\U+30A4\U+30E4\U+30FC 4
 62
     7
420
 16777215
370
    15
100
AcDbVertex
100
AcDb2dVertex
 10
182.129795961412
 20
212.5830620128265
 30
0.0
  0
VERTEX
  5
80
330
78
100
AcDbEntity
  8
\U+30EC\U+30A4\U+30E4\U+30FC 4
 62
     7
420
 16777215
370
    15
100
AcDbVertex
100
AcDb2dVertex
 10
182.1683810308468
 20
213.0564181324998
 30
0.0
  0
SEQEND
  5
81
330
78
100
AcDbEntity
  8
\U+30EC\U+30A4\U+30E4\U+30FC 4
370
    15
  0
POLYLINE
  5
82
330
74
100
AcDbEntity
  8
\U+30EC\U+30A4\U+30E4\U+30FC 4
 62
     7
420
 16777215
370
    15
100
AcDb2dPolyline
 66
     1
 10
0.0
 20
0.0
 30
0.0
  0
VERTEX
  5
83
330
82
100
AcDbEntity
  8
\U+30EC\U+30A4\U+30E4\U+30FC 4
 62
     7
420
 16777215
370
    15
100
AcDbVertex
100
AcDb2dVertex
 10
182.1683810308468
 20
213.0564181324998
 30
0.0
  0
VERTEX
  5
84
330
82
100
AcDbEntity
  8
\U+30EC\U+30A4\U+30E4\U+30FC 4
 62
     7
420
 16777215
370
    15
100
AcDbVertex
100
AcDb2dVertex
 10
182.129795961412
 20
213.5525118823758
 30
0.0
  0
VERTEX
  5
85
330
82
100
AcDbEntity
  8
\U+30EC\U+30A4\U+30E4\U+30FC 4
 62
     7
420
 16777215
370
    15
100
AcDbVertex
100
AcDb2dVertex
 10
182.0126627149135
 20
214.0575628805134
 30
0.0
  0
VERTEX
  5
86
330
82
100
AcDbEntity
  8
\U+30EC\U+30A4\U+30E4\U+30FC 4
 62
     7
420
 16777215
370
    15
100
AcDbVertex
100
AcDb2dVertex
 10
181.8211154059336
 20
214.5598578022628
 30
0.0
  0
VERTEX
  5
87
330
82
100
AcDbEntity
  8
\U+30EC\U+30A4\U+30E4\U+30FC 4
 62
     7
420
 16777215
370
    15
100
AcDbVertex
100
AcDb2dVertex
 10
181.5620442254428
 20
215.045616265683
 30
0.0
  0
VERTEX
  5
88
330
82
100
AcDbEntity
  8
\U+30EC\U+30A4\U+30E4\U+30FC 4
 62
     7
420
 16777215
370
    15
100
AcDbVertex
100
AcDb2dVertex
 10
181.2395832880235
 20
215.5024359270272
 30
0.0
  0
VERTEX
  5
89
330
82
100
AcDbEntity
  8
\U+30EC\U+30A4\U+30E4\U+30FC 4
 62
     7
420
 16777215
370
    15
100
AcDbVertex
100
AcDb2dVertex
 10
180.8633788610342
 20
215.9186034616453
 30
0.0
  0
VERTEX
  5
8A
330
82
100
AcDbEntity
  8
\U+30EC\U+30A4\U+30E4\U+30FC 4
 62
     7
420
 16777215
370
    15
100
AcDbVertex
100
AcDb2dVertex
 10
180.4430772118337
 20
216.2830945639848
 30
0.0
  0
VERTEX
  5
8B
330
82
100
AcDbEntity
  8
\U+30EC\U+30A4\U+30E4\U+30FC 4
 62
     7
420
 16777215
370
    15
100
AcDbVertex
100
AcDb2dVertex
 10
179.9883246077807
 20
216.5869519857838
 30
0.0
  0
VERTEX
  5
8C
330
82
100
AcDbEntity
  8
\U+30EC\U+30A4\U+30E4\U+30FC 4
 62
     7
420
 16777215
370
    15
100
AcDbVertex
100
AcDb2dVertex
 10
179.5115233926221
 20
216.8212184787808
 30
0.0
  0
VERTEX
  5
8D
330
82
100
AcDbEntity
  8
\U+30EC\U+30A4\U+30E4\U+30FC 4
 62
     7
420
 16777215
370
    15
100
AcDbVertex
100
AcDb2dVertex
 10
179.026453948299
 20
216.9810709092964
 30
0.0
  0
VERTEX
  5
8E
330
82
100
AcDbEntity
  8
\U+30EC\U+30A4\U+30E4\U+30FC 4
 62
     7
420
 16777215
370
    15
100
AcDbVertex
100
AcDb2dVertex
 10
178.544140580364
 20
217.0623751627483
 30
0.0
  0
VERTEX
  5
8F
330
82
100
AcDbEntity
  8
\U+30EC\U+30A4\U+30E4\U+30FC 4
 62
     7
420
 16777215
370
    15
100
AcDbVertex
100
AcDb2dVertex
 10
178.0769856325641
 20
217.0616861436513
 30
0.0
  0
VERTEX
  5
90
330
82
100
AcDbEntity
  8
\U+30EC\U+30A4\U+30E4\U+30FC 4
 62
     7
420
 16777215
370
    15
100
AcDbVertex
100
AcDb2dVertex
 10
177.6373914486462
 20
216.9796928711023
 30
0.0
  0
VERTEX
  5
91
330
82
100
AcDbEntity
  8
\U+30EC\U+30A4\U+30E4\U+30FC 4
 62
     7
420
 16777215
370
    15
100
AcDbVertex
100
AcDb2dVertex
 10
177.2377603723572
 20
216.8191514214897
 30
0.0
  0
VERTEX
  5
92
330
82
100
AcDbEntity
  8
\U+30EC\U+30A4\U+30E4\U+30FC 4
 62
     7
420
 16777215
370
    15
100
AcDbVertex
100
AcDb2dVertex
 10
176.8877386710558
 20
216.5841959093956
 30
0.0
  0
VERTEX
  5
93
330
82
100
AcDbEntity
  8
\U+30EC\U+30A4\U+30E4\U+30FC 4
 62
     7
420
 16777215
370
    15
100
AcDbVertex
100
AcDb2dVertex
 10
176.5955945739067
 20
216.2796494684995
 30
0.0
  0
VERTEX
  5
94
330
82
100
AcDbEntity
  8
\U+30EC\U+30A4\U+30E4\U+30FC 4
 62
     7
420
 16777215
370
    15
100
AcDbVertex
100
AcDb2dVertex
 10
176.3695963100743
 20
215.9144693470631
 30
0.0
  0
VERTEX
  5
95
330
82
100
AcDbEntity
  8
\U+30EC\U+30A4\U+30E4\U+30FC 4
 62
     7
420
 16777215
370
    15
100
AcDbVertex
100
AcDb2dVertex
 10
176.2152560323351
 20
215.4976127933478
 30
0.0
  0
SEQEND
  5
96
330
82
100
AcDbEntity
  8
\U+30EC\U+30A4\U+30E4\U+30FC 4
370
    15
  0
ENDBLK
  5
77
330
74
100
AcDbEntity
  8
0
100
AcDbBlockEnd
  0
BLOCK
  5
99
330
97
100
AcDbEntity
  8
0
100
AcDbBlockBegin
  2
block 12
 70
     0
 71
     0
 10
0.0
 20
0.0
 30
0.0
  3
block 12
  1

  0
POLYLINE
  5
9B
330
97
100
AcDbEntity
  8
\U+30EC\U+30A4\U+30E4\U+30FC 4
 62
     7
420
 16777215
370
    15
100
AcDb2dPolyline
 66
     1
 10
0.0
 20
0.0
 30
0.0
  0
VERTEX
  5
9C
330
9B
100
AcDbEntity
  8
\U+30EC\U+30A4\U+30E4\U+30FC 4
 62
     7
420
 16777215
370
    15
100
AcDbVertex
100
AcDb2dVertex
 10
183.5326388430057
 20
214.2504882276874
 30
0.0
  0
VERTEX
  5
9D
330
9B
100
AcDbEntity
  8
\U+30EC\U+30A4\U+30E4\U+30FC 4
 62
     7
420
 16777215
370
    15
100
AcDbVertex
100
AcDb2dVertex
 10
183.4940537735709
 20
214.7445149202722
 30
0.0
  0
VERTEX
  5
9E
330
9B
100
AcDbEntity
  8
\U+30EC\U+30A4\U+30E4\U+30FC 4
 62
     7
420
 16777215
370
    15
100
AcDbVertex
100
AcDb2dVertex
 10
183.3782985652665
 20
215.2481878802157
 30
0.0
  0
VERTEX
  5
9F
330
9B
100
AcDbEntity
  8
\U+30EC\U+30A4\U+30E4\U+30FC 4
 62
     7
420
 16777215
370
    15
100
AcDbVertex
100
AcDb2dVertex
 10
183.1881292944807
 20
215.7491047637711
 30
0.0
  0
VERTEX
  5
A0
330
9B
100
AcDbEntity
  8
\U+30EC\U+30A4\U+30E4\U+30FC 4
 62
     7
420
 16777215
370
    15
100
AcDbVertex
100
AcDb2dVertex
 10
182.92905811399
 20
216.2327961699002
 30
0.0
  0
VERTEX
  5
A1
330
9B
100
AcDbEntity
  8
\U+30EC\U+30A4\U+30E4\U+30FC 4
 62
     7
420
 16777215
370
    15
100
AcDbVertex
100
AcDb2dVertex
 10
182.6079752147647
 20
216.6882377930502
 30
0.0
  0
VERTEX
  5
A2
330
9B
100
AcDbEntity
  8
\U+30EC\U+30A4\U+30E4\U+30FC 4
 62
     7
420
 16777215
370
    15
100
AcDbVertex
100
AcDb2dVertex
 10
182.2331488259695
 20
217.1030272894743
 30
0.0
  0
VERTEX
  5
A3
330
9B
100
AcDbEntity
  8
\U+30EC\U+30A4\U+30E4\U+30FC 4
 62
     7
420
 16777215
370
    15
100
AcDbVertex
100
AcDb2dVertex
 10
181.812847176769
 20
217.4661403536196
 30
0.0
  0
VERTEX
  5
A4
330
9B
100
AcDbEntity
  8
\U+30EC\U+30A4\U+30E4\U+30FC 4
 62
     7
420
 16777215
370
    15
100
AcDbVertex
100
AcDb2dVertex
 10
181.3608506491042
 20
217.7686197372245
 30
0.0
  0
VERTEX
  5
A5
330
9B
100
AcDbEntity
  8
\U+30EC\U+30A4\U+30E4\U+30FC 4
 62
     7
420
 16777215
370
    15
100
AcDbVertex
100
AcDb2dVertex
 10
180.8868055103339
 20
218.0021972111245
 30
0.0
  0
VERTEX
  5
A6
330
9B
100
AcDbEntity
  8
\U+30EC\U+30A4\U+30E4\U+30FC 4
 62
     7
420
 16777215
370
    15
100
AcDbVertex
100
AcDb2dVertex
 10
180.4017360660107
 20
218.1620496416401
 30
0.0
  0
VERTEX
  5
A7
330
9B
100
AcDbEntity
  8
\U+30EC\U+30A4\U+30E4\U+30FC 4
 62
     7
420
 16777215
370
    15
100
AcDbVertex
100
AcDb2dVertex
 10
179.9221787744639
 20
218.2419758568979
 30
0.0
  0
VERTEX
  5
A8
330
9B
100
AcDbEntity
  8
\U+30EC\U+30A4\U+30E4\U+30FC 4
 62
     7
420
 16777215
370
    15
100
AcDbVertex
100
AcDb2dVertex
 10
179.4564018648581
 20
218.2419758568979
 30
0.0
  0
VERTEX
  5
A9
330
9B
100
AcDbEntity
  8
\U+30EC\U+30A4\U+30E4\U+30FC 4
 62
     7
420
 16777215
370
    15
100
AcDbVertex
100
AcDb2dVertex
 10
179.0181857191344
 20
218.160671603446
 30
0.0
  0
VERTEX
  5
AA
330
9B
100
AcDbEntity
  8
\U+30EC\U+30A4\U+30E4\U+30FC 4
 62
     7
420
 16777215
370
    15
100
AcDbVertex
100
AcDb2dVertex
 10
178.6185546428454
 20
218.0001301538333
 30
0.0
  0
VERTEX
  5
AB
330
9B
100
AcDbEntity
  8
\U+30EC\U+30A4\U+30E4\U+30FC 4
 62
     7
420
 16777215
370
    15
100
AcDbVertex
100
AcDb2dVertex
 10
178.2712890179322
 20
217.7651746417393
 30
0.0
  0
VERTEX
  5
AC
330
9B
100
AcDbEntity
  8
\U+30EC\U+30A4\U+30E4\U+30FC 4
 62
     7
420
 16777215
370
    15
100
AcDbVertex
100
AcDb2dVertex
 10
178.2575086359912
 20
217.7548393552835
 30
0.0
  0
SEQEND
  5
AD
330
9B
100
AcDbEntity
  8
\U+30EC\U+30A4\U+30E4\U+30FC 4
370
    15
  0
ENDBLK
  5
9A
330
97
100
AcDbEntity
  8
0
100
AcDbBlockEnd
  0
BLOCK
  5
B0
330
AE
100
AcDbEntity
  8
0
100
AcDbBlockBegin
  2
block 13
 70
     0
 71
     0
 10
0.0
 20
0.0
 30
0.0
  3
block 13
  1

  0
SPLINE
  5
B2
330
AE
100
AcDbEntity
  8
\U+30EC\U+30A4\U+30E4\U+30FC 4
 62
     7
420
 16777215
370
    15
100
AcDbSpline
210
0.0
220
0.0
230
1.0
 70
     8
 71
     3
 72
     8
 73
     4
 74
     0
 42
0.0000000001
 43
0.0000000001
 40
0.0
 40
0.0
 40
0.0
 40
0.0
 40
1.0
 40
1.0
 40
1.0
 40
1.0
 10
182.8077907529092
 20
212.5003797211805
 30
0.0
 10
183.2928601972324
 20
212.9503091915541
 30
0.0
 10
183.5574435304995
 20
213.5897189136165
 30
0.0
 10
183.5326388430057
 20
214.2504882276874
 30
0.0
  0
ENDBLK
  5
B1
330
AE
100
AcDbEntity
  8
0
100
AcDbBlockEnd
  0
BLOCK
  5
B5
330
B3
100
AcDbEntity
  8
0
100
AcDbBlockBegin
  2
block 14
 70
     0
 71
     0
 10
0.0
 20
0.0
 30
0.0
  3
block 14
  1

  0
POLYLINE
  5
B7
330
B3
100
AcDbEntity
  8
\U+30EC\U+30A4\U+30E4\U+30FC 4
 62
     7
420
 16777215
370
    15
100
AcDb2dPolyline
 66
     1
 10
0.0
 20
0.0
 30
0.0
  0
VERTEX
  5
B8
330
B7
100
AcDbEntity
  8
\U+30EC\U+30A4\U+30E4\U+30FC 4
 62
     7
420
 16777215
370
    15
100
AcDbVertex
100
AcDb2dVertex
 10
181.0301214825203
 20
211.3400715617483
 30
0.0
  0
VERTEX
  5
B9
330
B7
100
AcDbEntity
  8
\U+30EC\U+30A4\U+30E4\U+30FC 4
 62
     7
420
 16777215
370
    15
100
AcDbVertex
100
AcDb2dVertex
 10
181.3415581143868
 20
211.5881184366863
 30
0.0
  0
VERTEX
  5
BA
330
B7
100
AcDbEntity
  8
\U+30EC\U+30A4\U+30E4\U+30FC 4
 62
     7
420
 16777215
370
    15
100
AcDbVertex
100
AcDb2dVertex
 10
181.592361065713
 20
211.90024408765
 30
0.0
  0
VERTEX
  5
BB
330
B7
100
AcDbEntity
  8
\U+30EC\U+30A4\U+30E4\U+30FC 4
 62
     7
420
 16777215
370
    15
100
AcDbVertex
100
AcDb2dVertex
 10
181.7770181837224
 20
212.2668022472805
 30
0.0
  0
VERTEX
  5
BC
330
B7
100
AcDbEntity
  8
\U+30EC\U+30A4\U+30E4\U+30FC 4
 62
     7
420
 16777215
370
    15
100
AcDbVertex
100
AcDb2dVertex
 10
181.8900173156386
 20
212.6795246864135
 30
0.0
  0
VERTEX
  5
BD
330
B7
100
AcDbEntity
  8
\U+30EC\U+30A4\U+30E4\U+30FC 4
 62
     7
420
 16777215
370
    15
100
AcDbVertex
100
AcDb2dVertex
 10
181.9272243468793
 20
213.1260090613018
 30
0.0
  0
SEQEND
  5
BE
330
B7
100
AcDbEntity
  8
\U+30EC\U+30A4\U+30E4\U+30FC 4
370
    15
  0
POLYLINE
  5
BF
330
B3
100
AcDbEntity
  8
\U+30EC\U+30A4\U+30E4\U+30FC 4
 62
     7
420
 16777215
370
    15
100
AcDb2dPolyline
 66
     1
 10
0.0
 20
0.0
 30
0.0
  0
VERTEX
  5
C0
330
BF
100
AcDbEntity
  8
\U+30EC\U+30A4\U+30E4\U+30FC 4
 62
     7
420
 16777215
370
    15
100
AcDbVertex
100
AcDb2dVertex
 10
181.9272243468793
 20
213.1260090613018
 30
0.0
  0
VERTEX
  5
C1
330
BF
100
AcDbEntity
  8
\U+30EC\U+30A4\U+30E4\U+30FC 4
 62
     7
420
 16777215
370
    15
100
AcDbVertex
100
AcDb2dVertex
 10
181.8900173156386
 20
213.5945420472958
 30
0.0
  0
VERTEX
  5
C2
330
BF
100
AcDbEntity
  8
\U+30EC\U+30A4\U+30E4\U+30FC 4
 62
     7
420
 16777215
370
    15
100
AcDbVertex
100
AcDb2dVertex
 10
181.7770181837224
 20
214.0720322815515
 30
0.0
  0
VERTEX
  5
C3
330
BF
100
AcDbEntity
  8
\U+30EC\U+30A4\U+30E4\U+30FC 4
 62
     7
420
 16777215
370
    15
100
AcDbVertex
100
AcDb2dVertex
 10
181.592361065713
 20
214.5453884012248
 30
0.0
  0
VERTEX
  5
C4
330
BF
100
AcDbEntity
  8
\U+30EC\U+30A4\U+30E4\U+30FC 4
 62
     7
420
 16777215
370
    15
100
AcDbVertex
100
AcDb2dVertex
 10
181.3415581143868
 20
215.0022080625689
 30
0.0
  0
VERTEX
  5
C5
330
BF
100
AcDbEntity
  8
\U+30EC\U+30A4\U+30E4\U+30FC 4
 62
     7
420
 16777215
370
    15
100
AcDbVertex
100
AcDb2dVertex
 10
181.0301214825203
 20
215.4293999027399
 30
0.0
  0
VERTEX
  5
C6
330
BF
100
AcDbEntity
  8
\U+30EC\U+30A4\U+30E4\U+30FC 4
 62
     7
420
 16777215
370
    15
100
AcDbVertex
100
AcDb2dVertex
 10
180.6690754756661
 20
215.816628635282
 30
0.0
  0
VERTEX
  5
C7
330
BF
100
AcDbEntity
  8
\U+30EC\U+30A4\U+30E4\U+30FC 4
 62
     7
420
 16777215
370
    15
100
AcDbVertex
100
AcDb2dVertex
 10
180.2639322466007
 20
216.1514919164482
 30
0.0
  0
VERTEX
  5
C8
330
BF
100
AcDbEntity
  8
\U+30EC\U+30A4\U+30E4\U+30FC 4
 62
     7
420
 16777215
370
    15
100
AcDbVertex
100
AcDb2dVertex
 10
179.8312282536533
 20
216.4257215170741
 30
0.0
  0
VERTEX
  5
C9
330
BF
100
AcDbEntity
  8
\U+30EC\U+30A4\U+30E4\U+30FC 4
 62
     7
420
 16777215
370
    15
100
AcDbVertex
100
AcDb2dVertex
 10
179.3764756496003
 20
216.6317382270921
 30
0.0
  0
VERTEX
  5
CA
330
BF
100
AcDbEntity
  8
\U+30EC\U+30A4\U+30E4\U+30FC 4
 62
     7
420
 16777215
370
    15
100
AcDbVertex
100
AcDb2dVertex
 10
178.9189669691592
 20
216.7647189128227
 30
0.0
  0
VERTEX
  5
CB
330
BF
100
AcDbEntity
  8
\U+30EC\U+30A4\U+30E4\U+30FC 4
 62
     7
420
 16777215
370
    15
100
AcDbVertex
100
AcDb2dVertex
 10
178.4655924033003
 20
216.8198404405867
 30
0.0
  0
VERTEX
  5
CC
330
BF
100
AcDbEntity
  8
\U+30EC\U+30A4\U+30E4\U+30FC 4
 62
     7
420
 16777215
370
    15
100
AcDbVertex
100
AcDb2dVertex
 10
178.0315103721588
 20
216.79572477219
 30
0.0
  0
VERTEX
  5
CD
330
BF
100
AcDbEntity
  8
\U+30EC\U+30A4\U+30E4\U+30FC 4
 62
     7
420
 16777215
370
    15
100
AcDbVertex
100
AcDb2dVertex
 10
177.6277451812875
 20
216.6937499458266
 30
0.0
  0
VERTEX
  5
CE
330
BF
100
AcDbEntity
  8
\U+30EC\U+30A4\U+30E4\U+30FC 4
 62
     7
420
 16777215
370
    15
100
AcDbVertex
100
AcDb2dVertex
 10
177.2653211362392
 20
216.5166720378847
 30
0.0
  0
VERTEX
  5
CF
330
BF
100
AcDbEntity
  8
\U+30EC\U+30A4\U+30E4\U+30FC 4
 62
     7
420
 16777215
370
    15
100
AcDbVertex
100
AcDb2dVertex
 10
176.9538845043726
 20
216.2686251629467
 30
0.0
  0
VERTEX
  5
D0
330
BF
100
AcDbEntity
  8
\U+30EC\U+30A4\U+30E4\U+30FC 4
 62
     7
420
 16777215
370
    15
100
AcDbVertex
100
AcDb2dVertex
 10
176.7030815530465
 20
215.9571885310802
 30
0.0
  0
SEQEND
  5
D1
330
BF
100
AcDbEntity
  8
\U+30EC\U+30A4\U+30E4\U+30FC 4
370
    15
  0
ENDBLK
  5
B6
330
B3
100
AcDbEntity
  8
0
100
AcDbBlockEnd
  0
BLOCK
  5
D4
330
D2
100
AcDbEntity
  8
0
100
AcDbBlockBegin
  2
block 15
 70
     0
 71
     0
 10
0.0
 20
0.0
 30
0.0
  3
block 15
  1

  0
POLYLINE
  5
D6
330
D2
100
AcDbEntity
  8
\U+30EC\U+30A4\U+30E4\U+30FC 4
 62
     7
420
 16777215
370
    15
100
AcDb2dPolyline
 66
     1
 10
0.0
 20
0.0
 30
0.0
  0
VERTEX
  5
D7
330
D6
100
AcDbEntity
  8
\U+30EC\U+30A4\U+30E4\U+30FC 4
 62
     7
420
 16777215
370
    15
100
AcDbVertex
100
AcDb2dVertex
 10
180.3962239132343
 20
219.0936034608516
 30
0.0
  0
VERTEX
  5
D8
330
D6
100
AcDbEntity
  8
\U+30EC\U+30A4\U+30E4\U+30FC 4
 62
     7
420
 16777215
370
    15
100
AcDbVertex
100
AcDb2dVertex
 10
180.3300780799175
 20
219.0412380094758
 30
0.0
  0
SEQEND
  5
D9
330
D6
100
AcDbEntity
  8
\U+30EC\U+30A4\U+30E4\U+30FC 4
370
    15
  0
ENDBLK
  5
D5
330
D2
100
AcDbEntity
  8
0
100
AcDbBlockEnd
  0
BLOCK
  5
DC
330
DA
100
AcDbEntity
  8
0
100
AcDbBlockBegin
  2
block 16
 70
     0
 71
     0
 10
0.0
 20
0.0
 30
0.0
  3
block 16
  1

  0
POLYLINE
  5
DE
330
DA
100
AcDbEntity
  8
\U+30EC\U+30A4\U+30E4\U+30FC 4
 62
     7
420
 16777215
370
    15
100
AcDb2dPolyline
 66
     1
 10
0.0
 20
0.0
 30
0.0
  0
VERTEX
  5
DF
330
DE
100
AcDbEntity
  8
\U+30EC\U+30A4\U+30E4\U+30FC 4
 62
     7
420
 16777215
370
    15
100
AcDbVertex
100
AcDb2dVertex
 10
184.377376255989
 20
214.3683104932829
 30
0.0
  0
VERTEX
  5
E0
330
DE
100
AcDbEntity
  8
\U+30EC\U+30A4\U+30E4\U+30FC 4
 62
     7
420
 16777215
370
    15
100
AcDbVertex
100
AcDb2dVertex
 10
184.4200954400061
 20
214.4068955627177
 30
0.0
  0
VERTEX
  5
E1
330
DE
100
AcDbEntity
  8
\U+30EC\U+30A4\U+30E4\U+30FC 4
 62
     7
420
 16777215
370
    15
100
AcDbVertex
100
AcDb2dVertex
 10
184.5248263427577
 20
214.5171386182457
 30
0.0
  0
SEQEND
  5
E2
330
DE
100
AcDbEntity
  8
\U+30EC\U+30A4\U+30E4\U+30FC 4
370
    15
  0
ENDBLK
  5
DD
330
DA
100
AcDbEntity
  8
0
100
AcDbBlockEnd
  0
BLOCK
  5
E5
330
E3
100
AcDbEntity
  8
0
100
AcDbBlockBegin
  2
block 17
 70
     0
 71
     0
 10
0.0
 20
0.0
 30
0.0
  3
block 17
  1

  0
POLYLINE
  5
E7
330
E3
100
AcDbEntity
  8
\U+30EC\U+30A4\U+30E4\U+30FC 4
 62
     7
420
 16777215
370
    15
100
AcDb2dPolyline
 66
     1
 10
0.0
 20
0.0
 30
0.0
  0
VERTEX
  5
E8
330
E7
100
AcDbEntity
  8
\U+30EC\U+30A4\U+30E4\U+30FC 4
 62
     7
420
 16777215
370
    15
100
AcDbVertex
100
AcDb2dVertex
 10
181.7081162740174
 20
214.2697807624048
 30
0.0
  0
VERTEX
  5
E9
330
E7
100
AcDbEntity
  8
\U+30EC\U+30A4\U+30E4\U+30FC 4
 62
     7
420
 16777215
370
    15
100
AcDbVertex
100
AcDb2dVertex
 10
181.6709092427767
 20
214.3331705193334
 30
0.0
  0
SEQEND
  5
EA
330
E7
100
AcDbEntity
  8
\U+30EC\U+30A4\U+30E4\U+30FC 4
370
    15
  0
ENDBLK
  5
E6
330
E3
100
AcDbEntity
  8
0
100
AcDbBlockEnd
  0
BLOCK
  5
ED
330
EB
100
AcDbEntity
  8
0
100
AcDbBlockBegin
  2
block 18
 70
     0
 71
     0
 10
0.0
 20
0.0
 30
0.0
  3
block 18
  1

  0
POLYLINE
  5
EF
330
EB
100
AcDbEntity
  8
\U+30EC\U+30A4\U+30E4\U+30FC 4
 62
     7
420
 16777215
370
    15
100
AcDb2dPolyline
 66
     1
 10
0.0
 20
0.0
 30
0.0
  0
VERTEX
  5
F0
330
EF
100
AcDbEntity
  8
\U+30EC\U+30A4\U+30E4\U+30FC 4
 62
     7
420
 16777215
370
    15
100
AcDbVertex
100
AcDb2dVertex
 10
181.7659938781696
 20
214.052050727737
 30
0.0
  0
VERTEX
  5
390
330
EF
100
AcDbEntity
  8
0
100
AcDbVertex
100
AcDb2dVertex
 10
181.7659938781696
 20
214.052050727737
 30
0.0
  0
SEQEND
  5
F1
330
EF
100
AcDbEntity
  8
\U+30EC\U+30A4\U+30E4\U+30FC 4
370
    15
  0
ENDBLK
  5
EE
330
EB
100
AcDbEntity
  8
0
100
AcDbBlockEnd
  0
BLOCK
  5
F4
330
F2
100
AcDbEntity
  8
0
100
AcDbBlockBegin
  2
block 19
 70
     0
 71
     0
 10
0.0
 20
0.0
 30
0.0
  3
block 19
  1

  0
POLYLINE
  5
F6
330
F2
100
AcDbEntity
  8
\U+30EC\U+30A4\U+30E4\U+30FC 4
 62
     7
420
 16777215
370
    15
100
AcDb2dPolyline
 66
     1
 10
0.0
 20
0.0
 30
0.0
  0
VERTEX
  5
F7
330
F6
100
AcDbEntity
  8
\U+30EC\U+30A4\U+30E4\U+30FC 4
 62
     7
420
 16777215
370
    15
100
AcDbVertex
100
AcDb2dVertex
 10
185.0126518634691
 20
215.9172254234513
 30
0.0
  0
VERTEX
  5
F8
330
F6
100
AcDbEntity
  8
\U+30EC\U+30A4\U+30E4\U+30FC 4
 62
     7
420
 16777215
370
    15
100
AcDbVertex
100
AcDb2dVertex
 10
184.9740667940343
 20
216.3802462566688
 30
0.0
  0
VERTEX
  5
F9
330
F6
100
AcDbEntity
  8
\U+30EC\U+30A4\U+30E4\U+30FC 4
 62
     7
420
 16777215
370
    15
100
AcDbVertex
100
AcDb2dVertex
 10
184.8610676621181
 20
216.8529133572451
 30
0.0
  0
VERTEX
  5
FA
330
F6
100
AcDbEntity
  8
\U+30EC\U+30A4\U+30E4\U+30FC 4
 62
     7
420
 16777215
370
    15
100
AcDbVertex
100
AcDb2dVertex
 10
184.6736544677205
 20
217.3207573241421
 30
0.0
  0
VERTEX
  5
FB
330
F6
100
AcDbEntity
  8
\U+30EC\U+30A4\U+30E4\U+30FC 4
 62
     7
420
 16777215
370
    15
100
AcDbVertex
100
AcDb2dVertex
 10
184.4200954400061
 20
217.7706867945157
 30
0.0
  0
VERTEX
  5
FC
330
F6
100
AcDbEntity
  8
\U+30EC\U+30A4\U+30E4\U+30FC 4
 62
     7
420
 16777215
370
    15
100
AcDbVertex
100
AcDb2dVertex
 10
184.1059027317513
 20
218.188921386425
 30
0.0
  0
VERTEX
  5
FD
330
F6
100
AcDbEntity
  8
\U+30EC\U+30A4\U+30E4\U+30FC 4
 62
     7
420
 16777215
370
    15
100
AcDbVertex
100
AcDb2dVertex
 10
183.7393445721207
 20
218.5644367943172
 30
0.0
  0
VERTEX
  5
FE
330
F6
100
AcDbEntity
  8
\U+30EC\U+30A4\U+30E4\U+30FC 4
 62
     7
420
 16777215
370
    15
100
AcDbVertex
100
AcDb2dVertex
 10
183.3342013430554
 20
218.8855196935425
 30
0.0
  0
VERTEX
  5
FF
330
F6
100
AcDbEntity
  8
\U+30EC\U+30A4\U+30E4\U+30FC 4
 62
     7
420
 16777215
370
    15
100
AcDbVertex
100
AcDb2dVertex
 10
182.901497350108
 20
219.1439018549362
 30
0.0
  0
VERTEX
  5
100
330
F6
100
AcDbEntity
  8
\U+30EC\U+30A4\U+30E4\U+30FC 4
 62
     7
420
 16777215
370
    15
100
AcDbVertex
100
AcDb2dVertex
 10
182.4495008224432
 20
219.3320040684309
 30
0.0
  0
VERTEX
  5
101
330
F6
100
AcDbEntity
  8
\U+30EC\U+30A4\U+30E4\U+30FC 4
 62
     7
420
 16777215
370
    15
100
AcDbVertex
100
AcDb2dVertex
 10
181.9975042947784
 20
219.443625162153
 30
0.0
  0
VERTEX
  5
102
330
F6
100
AcDbEntity
  8
\U+30EC\U+30A4\U+30E4\U+30FC 4
 62
     7
420
 16777215
370
    15
100
AcDbVertex
100
AcDb2dVertex
 10
181.5523979580841
 20
219.4753200406173
 30
0.0
  0
VERTEX
  5
103
330
F6
100
AcDbEntity
  8
\U+30EC\U+30A4\U+30E4\U+30FC 4
 62
     7
420
 16777215
370
    15
100
AcDbVertex
100
AcDb2dVertex
 10
181.1320963088837
 20
219.4284667420179
 30
0.0
  0
VERTEX
  5
104
330
F6
100
AcDbEntity
  8
\U+30EC\U+30A4\U+30E4\U+30FC 4
 62
     7
420
 16777215
370
    15
100
AcDbVertex
100
AcDb2dVertex
 10
180.7448675763416
 20
219.3016872281607
 30
0.0
  0
VERTEX
  5
105
330
F6
100
AcDbEntity
  8
\U+30EC\U+30A4\U+30E4\U+30FC 4
 62
     7
420
 16777215
370
    15
100
AcDbVertex
100
AcDb2dVertex
 10
180.4044921423989
 20
219.0998046327251
 30
0.0
  0
VERTEX
  5
106
330
F6
100
AcDbEntity
  8
\U+30EC\U+30A4\U+30E4\U+30FC 4
 62
     7
420
 16777215
370
    15
100
AcDbVertex
100
AcDb2dVertex
 10
180.3962239132343
 20
219.0936034608516
 30
0.0
  0
SEQEND
  5
107
330
F6
100
AcDbEntity
  8
\U+30EC\U+30A4\U+30E4\U+30FC 4
370
    15
  0
ENDBLK
  5
F5
330
F2
100
AcDbEntity
  8
0
100
AcDbBlockEnd
  0
BLOCK
  5
10A
330
108
100
AcDbEntity
  8
0
100
AcDbBlockBegin
  2
block 20
 70
     0
 71
     0
 10
0.0
 20
0.0
 30
0.0
  3
block 20
  1

  0
SPLINE
  5
10C
330
108
100
AcDbEntity
  8
\U+30EC\U+30A4\U+30E4\U+30FC 4
 62
     7
420
 16777215
370
    15
100
AcDbSpline
210
0.0
220
0.0
230
1.0
 70
     8
 71
     3
 72
     8
 73
     4
 74
     0
 42
0.0000000001
 43
0.0000000001
 40
0.0
 40
0.0
 40
0.0
 40
0.0
 40
1.0
 40
1.0
 40
1.0
 40
1.0
 10
184.5248263427577
 20
214.5171386182457
 30
0.0
 10
184.8555555093417
 20
214.907123427176
 30
0.0
 10
185.0291883217983
 20
215.4059732534402
 30
0.0
 10
185.0126518634691
 20
215.9172254234513
 30
0.0
  0
ENDBLK
  5
10B
330
108
100
AcDbEntity
  8
0
100
AcDbBlockEnd
  0
BLOCK
  5
10F
330
10D
100
AcDbEntity
  8
0
100
AcDbBlockBegin
  2
block 21
 70
     0
 71
     0
 10
0.0
 20
0.0
 30
0.0
  3
block 21
  1

  0
INSERT
  5
112
330
10D
100
AcDbEntity
  8
\U+30EC\U+30A4\U+30E4\U+30FC 4
100
AcDbBlockReference
  2
block 22
 10
0.0
 20
0.0
 30
0.0
  0
INSERT
  5
11A
330
10D
100
AcDbEntity
  8
\U+30EC\U+30A4\U+30E4\U+30FC 4
100
AcDbBlockReference
  2
block 23
 10
0.0
 20
0.0
 30
0.0
  0
ENDBLK
  5
110
330
10D
100
AcDbEntity
  8
0
100
AcDbBlockEnd
  0
BLOCK
  5
113
330
111
100
AcDbEntity
  8
0
100
AcDbBlockBegin
  2
block 22
 70
     0
 71
     0
 10
0.0
 20
0.0
 30
0.0
  3
block 22
  1

  0
POLYLINE
  5
115
330
111
100
AcDbEntity
  8
\U+30EC\U+30A4\U+30E4\U+30FC 4
 62
     7
420
 16777215
370
    15
100
AcDb2dPolyline
 66
     1
 10
0.0
 20
0.0
 30
0.0
  0
VERTEX
  5
116
330
115
100
AcDbEntity
  8
\U+30EC\U+30A4\U+30E4\U+30FC 4
 62
     7
420
 16777215
370
    15
100
AcDbVertex
100
AcDb2dVertex
 10
176.7030815530465
 20
215.9571885310802
 30
0.0
  0
VERTEX
  5
117
330
115
100
AcDbEntity
  8
\U+30EC\U+30A4\U+30E4\U+30FC 4
 62
     7
420
 16777215
370
    15
100
AcDbVertex
100
AcDb2dVertex
 10
31.30782198653068
 20
90.39241534198523
 30
0.0
  0
SEQEND
  5
118
330
115
100
AcDbEntity
  8
\U+30EC\U+30A4\U+30E4\U+30FC 4
370
    15
  0
ENDBLK
  5
114
330
111
100
AcDbEntity
  8
0
100
AcDbBlockEnd
  0
BLOCK
  5
11B
330
119
100
AcDbEntity
  8
0
100
AcDbBlockBegin
  2
block 23
 70
     0
 71
     0
 10
0.0
 20
0.0
 30
0.0
  3
block 23
  1

  0
POLYLINE
  5
11D
330
119
100
AcDbEntity
  8
\U+30EC\U+30A4\U+30E4\U+30FC 4
 62
     7
420
 16777215
370
    15
100
AcDb2dPolyline
 66
     1
 10
0.0
 20
0.0
 30
0.0
  0
VERTEX
  5
11E
330
11D
100
AcDbEntity
  8
\U+30EC\U+30A4\U+30E4\U+30FC 4
 62
     7
420
 16777215
370
    15
100
AcDbVertex
100
AcDb2dVertex
 10
35.47087537090659
 20
85.72913409315106
 30
0.0
  0
VERTEX
  5
11F
330
11D
100
AcDbEntity
  8
\U+30EC\U+30A4\U+30E4\U+30FC 4
 62
     7
420
 16777215
370
    15
100
AcDbVertex
100
AcDb2dVertex
 10
181.0301214825203
 20
211.3400715617483
 30
0.0
  0
SEQEND
  5
120
330
11D
100
AcDbEntity
  8
\U+30EC\U+30A4\U+30E4\U+30FC 4
370
    15
  0
ENDBLK
  5
11C
330
119
100
AcDbEntity
  8
0
100
AcDbBlockEnd
  0
BLOCK
  5
123
330
121
100
AcDbEntity
  8
0
100
AcDbBlockBegin
  2
block 24
 70
     0
 71
     0
 10
0.0
 20
0.0
 30
0.0
  3
block 24
  1

  0
INSERT
  5
126
330
121
100
AcDbEntity
  8
\U+30EC\U+30A4\U+30E4\U+30FC 4
100
AcDbBlockReference
  2
block 25
 10
0.0
 20
0.0
 30
0.0
  0
INSERT
  5
12B
330
121
100
AcDbEntity
  8
\U+30EC\U+30A4\U+30E4\U+30FC 4
100
AcDbBlockReference
  2
block 26
 10
0.0
 20
0.0
 30
0.0
  0
INSERT
  5
130
330
121
100
AcDbEntity
  8
\U+30EC\U+30A4\U+30E4\U+30FC 4
100
AcDbBlockReference
  2
block 27
 10
0.0
 20
0.0
 30
0.0
  0
INSERT
  5
138
330
121
100
AcDbEntity
  8
\U+30EC\U+30A4\U+30E4\U+30FC 4
100
AcDbBlockReference
  2
block 28
 10
0.0
 20
0.0
 30
0.0
  0
INSERT
  5
140
330
121
100
AcDbEntity
  8
\U+30EC\U+30A4\U+30E4\U+30FC 4
100
AcDbBlockReference
  2
block 29
 10
0.0
 20
0.0
 30
0.0
  0
INSERT
  5
148
330
121
100
AcDbEntity
  8
\U+30EC\U+30A4\U+30E4\U+30FC 4
100
AcDbBlockReference
  2
block 30
 10
0.0
 20
0.0
 30
0.0
  0
INSERT
  5
150
330
121
100
AcDbEntity
  8
\U+30EC\U+30A4\U+30E4\U+30FC 4
100
AcDbBlockReference
  2
block 31
 10
0.0
 20
0.0
 30
0.0
  0
INSERT
  5
155
330
121
100
AcDbEntity
  8
\U+30EC\U+30A4\U+30E4\U+30FC 4
100
AcDbBlockReference
  2
block 32
 10
0.0
 20
0.0
 30
0.0
  0
INSERT
  5
15A
330
121
100
AcDbEntity
  8
\U+30EC\U+30A4\U+30E4\U+30FC 4
100
AcDbBlockReference
  2
block 33
 10
0.0
 20
0.0
 30
0.0
  0
INSERT
  5
162
330
121
100
AcDbEntity
  8
\U+30EC\U+30A4\U+30E4\U+30FC 4
100
AcDbBlockReference
  2
block 34
 10
0.0
 20
0.0
 30
0.0
  0
INSERT
  5
16A
330
121
100
AcDbEntity
  8
\U+30EC\U+30A4\U+30E4\U+30FC 4
100
AcDbBlockReference
  2
block 35
 10
0.0
 20
0.0
 30
0.0
  0
INSERT
  5
16F
330
121
100
AcDbEntity
  8
\U+30EC\U+30A4\U+30E4\U+30FC 4
100
AcDbBlockReference
  2
block 36
 10
0.0
 20
0.0
 30
0.0
  0
INSERT
  5
174
330
121
100
AcDbEntity
  8
\U+30EC\U+30A4\U+30E4\U+30FC 4
100
AcDbBlockReference
  2
block 37
 10
0.0
 20
0.0
 30
0.0
  0
INSERT
  5
17C
330
121
100
AcDbEntity
  8
\U+30EC\U+30A4\U+30E4\U+30FC 4
100
AcDbBlockReference
  2
block 38
 10
0.0
 20
0.0
 30
0.0
  0
INSERT
  5
184
330
121
100
AcDbEntity
  8
\U+30EC\U+30A4\U+30E4\U+30FC 4
100
AcDbBlockReference
  2
block 39
 10
0.0
 20
0.0
 30
0.0
  0
INSERT
  5
18C
330
121
100
AcDbEntity
  8
\U+30EC\U+30A4\U+30E4\U+30FC 4
100
AcDbBlockReference
  2
block 40
 10
0.0
 20
0.0
 30
0.0
  0
INSERT
  5
194
330
121
100
AcDbEntity
  8
\U+30EC\U+30A4\U+30E4\U+30FC 4
100
AcDbBlockReference
  2
block 41
 10
0.0
 20
0.0
 30
0.0
  0
INSERT
  5
1AE
330
121
100
AcDbEntity
  8
\U+30EC\U+30A4\U+30E4\U+30FC 4
100
AcDbBlockReference
  2
block 42
 10
0.0
 20
0.0
 30
0.0
  0
INSERT
  5
1BC
330
121
100
AcDbEntity
  8
\U+30EC\U+30A4\U+30E4\U+30FC 4
100
AcDbBlockReference
  2
block 43
 10
0.0
 20
0.0
 30
0.0
  0
INSERT
  5
1C5
330
121
100
AcDbEntity
  8
\U+30EC\U+30A4\U+30E4\U+30FC 4
100
AcDbBlockReference
  2
block 44
 10
0.0
 20
0.0
 30
0.0
  0
INSERT
  5
1D3
330
121
100
AcDbEntity
  8
\U+30EC\U+30A4\U+30E4\U+30FC 4
100
AcDbBlockReference
  2
block 45
 10
0.0
 20
0.0
 30
0.0
  0
INSERT
  5
1DC
330
121
100
AcDbEntity
  8
\U+30EC\U+30A4\U+30E4\U+30FC 4
100
AcDbBlockReference
  2
block 46
 10
0.0
 20
0.0
 30
0.0
  0
INSERT
  5
1E1
330
121
100
AcDbEntity
  8
\U+30EC\U+30A4\U+30E4\U+30FC 4
100
AcDbBlockReference
  2
block 47
 10
0.0
 20
0.0
 30
0.0
  0
INSERT
  5
1E9
330
121
100
AcDbEntity
  8
\U+30EC\U+30A4\U+30E4\U+30FC 4
100
AcDbBlockReference
  2
block 48
 10
0.0
 20
0.0
 30
0.0
  0
INSERT
  5
1EE
330
121
100
AcDbEntity
  8
\U+30EC\U+30A4\U+30E4\U+30FC 4
100
AcDbBlockReference
  2
block 49
 10
0.0
 20
0.0
 30
0.0
  0
INSERT
  5
1F6
330
121
100
AcDbEntity
  8
\U+30EC\U+30A4\U+30E4\U+30FC 4
100
AcDbBlockReference
  2
block 50
 10
0.0
 20
0.0
 30
0.0
  0
INSERT
  5
1FB
330
121
100
AcDbEntity
  8
\U+30EC\U+30A4\U+30E4\U+30FC 4
100
AcDbBlockReference
  2
block 51
 10
0.0
 20
0.0
 30
0.0
  0
INSERT
  5
203
330
121
100
AcDbEntity
  8
\U+30EC\U+30A4\U+30E4\U+30FC 4
100
AcDbBlockReference
  2
block 52
 10
0.0
 20
0.0
 30
0.0
  0
INSERT
  5
208
330
121
100
AcDbEntity
  8
\U+30EC\U+30A4\U+30E4\U+30FC 4
100
AcDbBlockReference
  2
block 53
 10
0.0
 20
0.0
 30
0.0
  0
INSERT
  5
210
330
121
100
AcDbEntity
  8
\U+30EC\U+30A4\U+30E4\U+30FC 4
100
AcDbBlockReference
  2
block 54
 10
0.0
 20
0.0
 30
0.0
  0
INSERT
  5
215
330
121
100
AcDbEntity
  8
\U+30EC\U+30A4\U+30E4\U+30FC 4
100
AcDbBlockReference
  2
block 55
 10
0.0
 20
0.0
 30
0.0
  0
INSERT
  5
21A
330
121
100
AcDbEntity
  8
\U+30EC\U+30A4\U+30E4\U+30FC 4
100
AcDbBlockReference
  2
block 56
 10
0.0
 20
0.0
 30
0.0
  0
INSERT
  5
21F
330
121
100
AcDbEntity
  8
\U+30EC\U+30A4\U+30E4\U+30FC 4
100
AcDbBlockReference
  2
block 57
 10
0.0
 20
0.0
 30
0.0
  0
INSERT
  5
23A
330
121
100
AcDbEntity
  8
\U+30EC\U+30A4\U+30E4\U+30FC 4
100
AcDbBlockReference
  2
block 58
 10
0.0
 20
0.0
 30
0.0
  0
INSERT
  5
242
330
121
100
AcDbEntity
  8
\U+30EC\U+30A4\U+30E4\U+30FC 4
100
AcDbBlockReference
  2
block 59
 10
0.0
 20
0.0
 30
0.0
  0
INSERT
  5
24A
330
121
100
AcDbEntity
  8
\U+30EC\U+30A4\U+30E4\U+30FC 4
100
AcDbBlockReference
  2
block 60
 10
0.0
 20
0.0
 30
0.0
  0
INSERT
  5
252
330
121
100
AcDbEntity
  8
\U+30EC\U+30A4\U+30E4\U+30FC 4
100
AcDbBlockReference
  2
block 61
 10
0.0
 20
0.0
 30
0.0
  0
INSERT
  5
25A
330
121
100
AcDbEntity
  8
\U+30EC\U+30A4\U+30E4\U+30FC 4
100
AcDbBlockReference
  2
block 62
 10
0.0
 20
0.0
 30
0.0
  0
INSERT
  5
25F
330
121
100
AcDbEntity
  8
\U+30EC\U+30A4\U+30E4\U+30FC 4
100
AcDbBlockReference
  2
block 63
 10
0.0
 20
0.0
 30
0.0
  0
INSERT
  5
264
330
121
100
AcDbEntity
  8
\U+30EC\U+30A4\U+30E4\U+30FC 4
100
AcDbBlockReference
  2
block 64
 10
0.0
 20
0.0
 30
0.0
  0
INSERT
  5
26C
330
121
100
AcDbEntity
  8
\U+30EC\U+30A4\U+30E4\U+30FC 4
100
AcDbBlockReference
  2
block 65
 10
0.0
 20
0.0
 30
0.0
  0
INSERT
  5
271
330
121
100
AcDbEntity
  8
\U+30EC\U+30A4\U+30E4\U+30FC 4
100
AcDbBlockReference
  2
block 66
 10
0.0
 20
0.0
 30
0.0
  0
INSERT
  5
279
330
121
100
AcDbEntity
  8
\U+30EC\U+30A4\U+30E4\U+30FC 4
100
AcDbBlockReference
  2
block 67
 10
0.0
 20
0.0
 30
0.0
  0
INSERT
  5
281
330
121
100
AcDbEntity
  8
\U+30EC\U+30A4\U+30E4\U+30FC 4
100
AcDbBlockReference
  2
block 68
 10
0.0
 20
0.0
 30
0.0
  0
INSERT
  5
289
330
121
100
AcDbEntity
  8
\U+30EC\U+30A4\U+30E4\U+30FC 4
100
AcDbBlockReference
  2
block 69
 10
0.0
 20
0.0
 30
0.0
  0
INSERT
  5
291
330
121
100
AcDbEntity
  8
\U+30EC\U+30A4\U+30E4\U+30FC 4
100
AcDbBlockReference
  2
block 70
 10
0.0
 20
0.0
 30
0.0
  0
INSERT
  5
299
330
121
100
AcDbEntity
  8
\U+30EC\U+30A4\U+30E4\U+30FC 4
100
AcDbBlockReference
  2
block 71
 10
0.0
 20
0.0
 30
0.0
  0
INSERT
  5
2A1
330
121
100
AcDbEntity
  8
\U+30EC\U+30A4\U+30E4\U+30FC 4
100
AcDbBlockReference
  2
block 72
 10
0.0
 20
0.0
 30
0.0
  0
INSERT
  5
2A9
330
121
100
AcDbEntity
  8
\U+30EC\U+30A4\U+30E4\U+30FC 4
100
AcDbBlockReference
  2
block 73
 10
0.0
 20
0.0
 30
0.0
  0
INSERT
  5
2AE
330
121
100
AcDbEntity
  8
\U+30EC\U+30A4\U+30E4\U+30FC 4
100
AcDbBlockReference
  2
block 74
 10
0.0
 20
0.0
 30
0.0
  0
INSERT
  5
2B6
330
121
100
AcDbEntity
  8
\U+30EC\U+30A4\U+30E4\U+30FC 4
100
AcDbBlockReference
  2
block 75
 10
0.0
 20
0.0
 30
0.0
  0
INSERT
  5
2CD
330
121
100
AcDbEntity
  8
\U+30EC\U+30A4\U+30E4\U+30FC 4
100
AcDbBlockReference
  2
block 76
 10
0.0
 20
0.0
 30
0.0
  0
INSERT
  5
2E4
330
121
100
AcDbEntity
  8
\U+30EC\U+30A4\U+30E4\U+30FC 4
100
AcDbBlockReference
  2
block 77
 10
0.0
 20
0.0
 30
0.0
  0
INSERT
  5
2FE
330
121
100
AcDbEntity
  8
\U+30EC\U+30A4\U+30E4\U+30FC 4
100
AcDbBlockReference
  2
block 78
 10
0.0
 20
0.0
 30
0.0
  0
INSERT
  5
307
330
121
100
AcDbEntity
  8
\U+30EC\U+30A4\U+30E4\U+30FC 4
100
AcDbBlockReference
  2
block 79
 10
0.0
 20
0.0
 30
0.0
  0
INSERT
  5
32F
330
121
100
AcDbEntity
  8
\U+30EC\U+30A4\U+30E4\U+30FC 4
100
AcDbBlockReference
  2
block 80
 10
0.0
 20
0.0
 30
0.0
  0
INSERT
  5
34A
330
121
100
AcDbEntity
  8
\U+30EC\U+30A4\U+30E4\U+30FC 4
100
AcDbBlockReference
  2
block 81
 10
0.0
 20
0.0
 30
0.0
  0
INSERT
  5
35A
330
121
100
AcDbEntity
  8
\U+30EC\U+30A4\U+30E4\U+30FC 4
100
AcDbBlockReference
  2
block 82
 10
0.0
 20
0.0
 30
0.0
  0
INSERT
  5
369
330
121
100
AcDbEntity
  8
\U+30EC\U+30A4\U+30E4\U+30FC 4
100
AcDbBlockReference
  2
block 83
 10
0.0
 20
0.0
 30
0.0
  0
INSERT
  5
371
330
121
100
AcDbEntity
  8
\U+30EC\U+30A4\U+30E4\U+30FC 4
100
AcDbBlockReference
  2
block 84
 10
0.0
 20
0.0
 30
0.0
  0
INSERT
  5
381
330
121
100
AcDbEntity
  8
\U+30EC\U+30A4\U+30E4\U+30FC 4
100
AcDbBlockReference
  2
block 85
 10
0.0
 20
0.0
 30
0.0
  0
ENDBLK
  5
124
330
121
100
AcDbEntity
  8
0
100
AcDbBlockEnd
  0
BLOCK
  5
127
330
125
100
AcDbEntity
  8
0
100
AcDbBlockBegin
  2
block 25
 70
     0
 71
     0
 10
0.0
 20
0.0
 30
0.0
  3
block 25
  1

  0
SPLINE
  5
129
330
125
100
AcDbEntity
  8
\U+30EC\U+30A4\U+30E4\U+30FC 4
 62
     7
420
 16777215
370
    15
100
AcDbSpline
210
0.0
220
0.0
230
1.0
 70
     8
 71
     3
 72
    29
 73
    25
 74
     0
 42
0.0000000001
 43
0.0000000001
 40
0.0
 40
0.0
 40
0.0
 40
0.0
 40
1.0
 40
1.0
 40
1.0
 40
2.0
 40
2.0
 40
2.0
 40
3.0
 40
3.0
 40
3.0
 40
4.0
 40
4.0
 40
4.0
 40
5.0
 40
5.0
 40
5.0
 40
6.0
 40
6.0
 40
6.0
 40
7.0
 40
7.0
 40
7.0
 40
8.0
 40
8.0
 40
8.0
 40
8.0
 10
27.27843830698248
 20
86.8122721137136
 30
0.0
 10
27.20264620630698
 20
86.73785805123221
 30
0.0
 10
27.12547606743738
 20
86.6606879123626
 30
0.0
 10
27.05933023412059
 20
86.57800562071661
 30
0.0
 10
26.97940401886279
 20
86.47878687074142
 30
0.0
 10
26.91325818554599
 20
86.36578773882522
 30
0.0
 10
26.8567586195879
 20
86.24727645413263
 30
0.0
 10
26.8002590536298
 20
86.12876516944003
 30
0.0
 10
26.7534057550304
 20
86.00474173197104
 30
0.0
 10
26.7189548001779
 20
85.87520614172564
 30
0.0
 10
26.6831258071313
 20
85.74291447509205
 30
0.0
 10
26.6596991578316
 20
85.60786673207026
 30
0.0
 10
26.6472968140847
 20
85.46730683627207
 30
0.0
 10
26.64040662311421
 20
85.39013669740247
 30
0.0
 10
26.63627250853191
 20
85.31296655853288
 30
0.0
 10
26.637650546726
 20
85.23304034327508
 30
0.0
 10
26.637650546726
 20
85.15587020440547
 30
0.0
 10
26.64040662311421
 20
85.07594398914769
 30
0.0
 10
26.6472968140847
 20
84.99601777388989
 30
0.0
 10
26.6596991578316
 20
84.8471896489271
 30
0.0
 10
26.6803697307431
 20
84.69836152396431
 30
0.0
 10
26.720332838372
 20
84.54677732261331
 30
0.0
 10
26.7437594876717
 20
84.45582680180271
 30
0.0
 10
26.7740763279419
 20
84.36487628099212
 30
0.0
 10
26.8057712064062
 20
84.27392576018153
 30
0.0
  0
ENDBLK
  5
128
330
125
100
AcDbEntity
  8
0
100
AcDbBlockEnd
  0
BLOCK
  5
12C
330
12A
100
AcDbEntity
  8
0
100
AcDbBlockBegin
  2
block 26
 70
     0
 71
     0
 10
0.0
 20
0.0
 30
0.0
  3
block 26
  1

  0
SPLINE
  5
12E
330
12A
100
AcDbEntity
  8
\U+30EC\U+30A4\U+30E4\U+30FC 4
 62
     7
420
 16777215
370
    15
100
AcDbSpline
210
0.0
220
0.0
230
1.0
 70
     8
 71
     3
 72
    44
 73
    40
 74
     0
 42
0.0000000001
 43
0.0000000001
 40
0.0
 40
0.0
 40
0.0
 40
0.0
 40
1.0
 40
1.0
 40
1.0
 40
2.0
 40
2.0
 40
2.0
 40
3.0
 40
3.0
 40
3.0
 40
4.0
 40
4.0
 40
4.0
 40
5.0
 40
5.0
 40
5.0
 40
6.0
 40
6.0
 40
6.0
 40
7.0
 40
7.0
 40
7.0
 40
8.0
 40
8.0
 40
8.0
 40
9.0
 40
9.0
 40
9.0
 40
10.0
 40
10.0
 40
10.0
 40
11.0
 40
11.0
 40
11.0
 40
12.0
 40
12.0
 40
12.0
 40
13.0
 40
13.0
 40
13.0
 40
13.0
 10
26.97113578969819
 20
83.86051430195154
 30
0.0
 10
27.00007459177429
 20
83.79436846863474
 30
0.0
 10
27.03039143204449
 20
83.72822263531795
 30
0.0
 10
27.06346434870289
 20
83.66207680200115
 30
0.0
 10
27.13650037299018
 20
83.51876082981475
 30
0.0
 10
27.22745089380078
 20
83.38095701040477
 30
0.0
 10
27.32529160558187
 20
83.24590926738297
 30
0.0
 10
27.42313231736297
 20
83.11361760074938
 30
0.0
 10
27.52786322011456
 20
82.98408201050398
 30
0.0
 10
27.63948431383666
 20
82.86281464942319
 30
0.0
 10
27.75110540755875
 20
82.74154728834239
 30
0.0
 10
27.87099473044545
 20
82.6285481564262
 30
0.0
 10
27.99639620610854
 20
82.5210611772864
 30
0.0
 10
28.12317571996574
 20
82.41633027453481
 30
0.0
 10
28.25408934840523
 20
82.31986760094782
 30
0.0
 10
28.39051512962112
 20
82.23167315652542
 30
0.0
 10
28.52556287264292
 20
82.14347871210302
 30
0.0
 10
28.66612276844111
 20
82.06630857323343
 30
0.0
 10
28.8080607024334
 20
82.00016273991663
 30
0.0
 10
28.9499986364257
 20
81.93401690659984
 30
0.0
 10
29.09607068500029
 20
81.87889537883584
 30
0.0
 10
29.24214273357488
 20
81.83479815662464
 30
0.0
 10
29.38821478214948
 20
81.79070093441344
 30
0.0
 10
29.53428683072407
 20
81.75762801775504
 30
0.0
 10
29.67898084110456
 20
81.73833548303764
 30
0.0
 10
29.82367485148506
 20
81.71628687193204
 30
0.0
 10
29.96836886186555
 20
81.71077471915564
 30
0.0
 10
30.11030679585784
 20
81.71353079554385
 30
0.0
 10
30.25086669165604
 20
81.71904294832024
 30
0.0
 10
30.38867051106603
 20
81.73557940664944
 30
0.0
 10
30.52096217769962
 20
81.76589624691964
 30
0.0
 10
30.65187580613912
 20
81.79621308718984
 30
0.0
 10
30.77865531999631
 20
81.83755423301284
 30
0.0
 10
30.8999226810771
 20
81.88991968438863
 30
0.0
 10
31.0198120039638
 20
81.94228513576444
 30
0.0
 10
31.13556721226819
 20
82.00291881630483
 30
0.0
 10
31.23754203863159
 20
82.08284503156263
 30
0.0
 10
31.31057806291889
 20
82.13796655932663
 30
0.0
 10
31.37810193442978
 20
82.20135631625521
 30
0.0
 10
31.44424776774658
 20
82.26474607318382
 30
0.0
  0
ENDBLK
  5
12D
330
12A
100
AcDbEntity
  8
0
100
AcDbBlockEnd
  0
BLOCK
  5
131
330
12F
100
AcDbEntity
  8
0
100
AcDbBlockBegin
  2
block 27
 70
     0
 71
     0
 10
0.0
 20
0.0
 30
0.0
  3
block 27
  1

  0
POLYLINE
  5
133
330
12F
100
AcDbEntity
  8
\U+30EC\U+30A4\U+30E4\U+30FC 4
 62
     7
420
 16777215
370
    15
100
AcDb2dPolyline
 66
     1
 10
0.0
 20
0.0
 30
0.0
  0
VERTEX
  5
134
330
133
100
AcDbEntity
  8
\U+30EC\U+30A4\U+30E4\U+30FC 4
 62
     7
420
 16777215
370
    15
100
AcDbVertex
100
AcDb2dVertex
 10
29.03543700445989
 20
88.38323565498753
 30
0.0
  0
VERTEX
  5
135
330
133
100
AcDbEntity
  8
\U+30EC\U+30A4\U+30E4\U+30FC 4
 62
     7
420
 16777215
370
    15
100
AcDbVertex
100
AcDb2dVertex
 10
27.30462103267037
 20
86.845345030372
 30
0.0
  0
SEQEND
  5
136
330
133
100
AcDbEntity
  8
\U+30EC\U+30A4\U+30E4\U+30FC 4
370
    15
  0
ENDBLK
  5
132
330
12F
100
AcDbEntity
  8
0
100
AcDbBlockEnd
  0
BLOCK
  5
139
330
137
100
AcDbEntity
  8
0
100
AcDbBlockBegin
  2
block 28
 70
     0
 71
     0
 10
0.0
 20
0.0
 30
0.0
  3
block 28
  1

  0
POLYLINE
  5
13B
330
137
100
AcDbEntity
  8
\U+30EC\U+30A4\U+30E4\U+30FC 4
 62
     7
420
 16777215
370
    15
100
AcDb2dPolyline
 66
     1
 10
0.0
 20
0.0
 30
0.0
  0
VERTEX
  5
13C
330
13B
100
AcDbEntity
  8
\U+30EC\U+30A4\U+30E4\U+30FC 4
 62
     7
420
 16777215
370
    15
100
AcDbVertex
100
AcDb2dVertex
 10
31.35329724693598
 20
82.17103947598503
 30
0.0
  0
VERTEX
  5
13D
330
13B
100
AcDbEntity
  8
\U+30EC\U+30A4\U+30E4\U+30FC 4
 62
     7
420
 16777215
370
    15
100
AcDbVertex
100
AcDb2dVertex
 10
33.1226982881603
 20
83.66483287838935
 30
0.0
  0
SEQEND
  5
13E
330
13B
100
AcDbEntity
  8
\U+30EC\U+30A4\U+30E4\U+30FC 4
370
    15
  0
ENDBLK
  5
13A
330
137
100
AcDbEntity
  8
0
100
AcDbBlockEnd
  0
BLOCK
  5
141
330
13F
100
AcDbEntity
  8
0
100
AcDbBlockBegin
  2
block 29
 70
     0
 71
     0
 10
0.0
 20
0.0
 30
0.0
  3
block 29
  1

  0
POLYLINE
  5
143
330
13F
100
AcDbEntity
  8
\U+30EC\U+30A4\U+30E4\U+30FC 4
 62
     7
420
 16777215
370
    15
100
AcDb2dPolyline
 66
     1
 10
0.0
 20
0.0
 30
0.0
  0
VERTEX
  5
144
330
143
100
AcDbEntity
  8
\U+30EC\U+30A4\U+30E4\U+30FC 4
 62
     7
420
 16777215
370
    15
100
AcDbVertex
100
AcDb2dVertex
 10
30.24259846249144
 20
89.91285805043846
 30
0.0
  0
VERTEX
  5
145
330
143
100
AcDbEntity
  8
\U+30EC\U+30A4\U+30E4\U+30FC 4
 62
     7
420
 16777215
370
    15
100
AcDbVertex
100
AcDb2dVertex
 10
28.8742065357502
 20
88.71120874518331
 30
0.0
  0
SEQEND
  5
146
330
143
100
AcDbEntity
  8
\U+30EC\U+30A4\U+30E4\U+30FC 4
370
    15
  0
ENDBLK
  5
142
330
13F
100
AcDbEntity
  8
0
100
AcDbBlockEnd
  0
BLOCK
  5
149
330
147
100
AcDbEntity
  8
0
100
AcDbBlockBegin
  2
block 30
 70
     0
 71
     0
 10
0.0
 20
0.0
 30
0.0
  3
block 30
  1

  0
POLYLINE
  5
14B
330
147
100
AcDbEntity
  8
\U+30EC\U+30A4\U+30E4\U+30FC 4
 62
     7
420
 16777215
370
    15
100
AcDb2dPolyline
 66
     1
 10
0.0
 20
0.0
 30
0.0
  0
VERTEX
  5
14C
330
14B
100
AcDbEntity
  8
\U+30EC\U+30A4\U+30E4\U+30FC 4
 62
     7
420
 16777215
370
    15
100
AcDbVertex
100
AcDb2dVertex
 10
33.42586669086229
 20
83.45812714927436
 30
0.0
  0
VERTEX
  5
14D
330
14B
100
AcDbEntity
  8
\U+30EC\U+30A4\U+30E4\U+30FC 4
 62
     7
420
 16777215
370
    15
100
AcDbVertex
100
AcDb2dVertex
 10
34.80803899954452
 20
84.6404839198121
 30
0.0
  0
SEQEND
  5
14E
330
14B
100
AcDbEntity
  8
\U+30EC\U+30A4\U+30E4\U+30FC 4
370
    15
  0
ENDBLK
  5
14A
330
147
100
AcDbEntity
  8
0
100
AcDbBlockEnd
  0
BLOCK
  5
151
330
14F
100
AcDbEntity
  8
0
100
AcDbBlockBegin
  2
block 31
 70
     0
 71
     0
 10
0.0
 20
0.0
 30
0.0
  3
block 31
  1

  0
SPLINE
  5
153
330
14F
100
AcDbEntity
  8
\U+30EC\U+30A4\U+30E4\U+30FC 4
 62
     7
420
 16777215
370
    15
100
AcDbSpline
210
0.0
220
0.0
230
1.0
 70
     8
 71
     3
 72
    26
 73
    22
 74
     0
 42
0.0000000001
 43
0.0000000001
 40
0.0
 40
0.0
 40
0.0
 40
0.0
 40
1.0
 40
1.0
 40
1.0
 40
2.0
 40
2.0
 40
2.0
 40
3.0
 40
3.0
 40
3.0
 40
4.0
 40
4.0
 40
4.0
 40
5.0
 40
5.0
 40
5.0
 40
6.0
 40
6.0
 40
6.0
 40
7.0
 40
7.0
 40
7.0
 40
7.0
 10
29.60043266404087
 20
83.52978513536756
 30
0.0
 10
29.58665228209987
 20
83.51876082981475
 30
0.0
 10
29.57287190015887
 20
83.50773652426196
 30
0.0
 10
29.56184759460607
 20
83.49395614232095
 30
0.0
 10
29.54255505988867
 20
83.47190753121536
 30
0.0
 10
29.53290879252997
 20
83.44434676733336
 30
0.0
 10
29.52601860155947
 20
83.41678600345136
 30
0.0
 10
29.51912841058897
 20
83.38646916318116
 30
0.0
 10
29.51775037239487
 20
83.35890839929917
 30
0.0
 10
29.52050644878307
 20
83.32859155902896
 30
0.0
 10
29.52326252517127
 20
83.29827471875876
 30
0.0
 10
29.53153075433587
 20
83.26520180210036
 30
0.0
 10
29.54531113627687
 20
83.23488496183018
 30
0.0
 10
29.55909151821787
 20
83.20456812155997
 30
0.0
 10
29.57976209112937
 20
83.17425128128977
 30
0.0
 10
29.60456677862317
 20
83.14669051740778
 30
0.0
 10
29.62937146611696
 20
83.11912975352578
 30
0.0
 10
29.65968830638716
 20
83.09432506603198
 30
0.0
 10
29.69276122304556
 20
83.07778860770279
 30
0.0
 10
29.71067571956886
 20
83.06952037853817
 30
0.0
 10
29.72996825428626
 20
83.06125214937357
 30
0.0
 10
29.74926078900366
 20
83.05573999659718
 30
0.0
  0
ENDBLK
  5
152
330
14F
100
AcDbEntity
  8
0
100
AcDbBlockEnd
  0
BLOCK
  5
156
330
154
100
AcDbEntity
  8
0
100
AcDbBlockBegin
  2
block 32
 70
     0
 71
     0
 10
0.0
 20
0.0
 30
0.0
  3
block 32
  1

  0
SPLINE
  5
158
330
154
100
AcDbEntity
  8
\U+30EC\U+30A4\U+30E4\U+30FC 4
 62
     7
420
 16777215
370
    15
100
AcDbSpline
210
0.0
220
0.0
230
1.0
 70
     8
 71
     3
 72
    14
 73
    10
 74
     0
 42
0.0000000001
 43
0.0000000001
 40
0.0
 40
0.0
 40
0.0
 40
0.0
 40
1.0
 40
1.0
 40
1.0
 40
2.0
 40
2.0
 40
2.0
 40
3.0
 40
3.0
 40
3.0
 40
3.0
 10
29.74926078900366
 20
83.05573999659718
 30
0.0
 10
29.77957762927386
 20
83.05022784382078
 30
0.0
 10
29.80989446954406
 20
83.04471569104437
 30
0.0
 10
29.84021130981425
 20
83.04471569104437
 30
0.0
 10
29.86915011189035
 20
83.04471569104437
 30
0.0
 10
29.89808891396645
 20
83.05298392020897
 30
0.0
 10
29.92427163965435
 20
83.06676430214998
 30
0.0
 10
29.94080809798355
 20
83.07503253131458
 30
0.0
 10
29.95458847992455
 20
83.08605683686739
 30
0.0
 10
29.96974690005965
 20
83.09983721880837
 30
0.0
  0
ENDBLK
  5
157
330
154
100
AcDbEntity
  8
0
100
AcDbBlockEnd
  0
BLOCK
  5
15B
330
159
100
AcDbEntity
  8
0
100
AcDbBlockBegin
  2
block 33
 70
     0
 71
     0
 10
0.0
 20
0.0
 30
0.0
  3
block 33
  1

  0
POLYLINE
  5
15D
330
159
100
AcDbEntity
  8
\U+30EC\U+30A4\U+30E4\U+30FC 4
 62
     7
420
 16777215
370
    15
100
AcDb2dPolyline
 66
     1
 10
0.0
 20
0.0
 30
0.0
  0
VERTEX
  5
15E
330
15D
100
AcDbEntity
  8
\U+30EC\U+30A4\U+30E4\U+30FC 4
 62
     7
420
 16777215
370
    15
100
AcDbVertex
100
AcDb2dVertex
 10
30.40934108397753
 20
84.23534069074672
 30
0.0
  0
VERTEX
  5
15F
330
15D
100
AcDbEntity
  8
\U+30EC\U+30A4\U+30E4\U+30FC 4
 62
     7
420
 16777215
370
    15
100
AcDbVertex
100
AcDb2dVertex
 10
29.59629854945857
 20
83.53254121175576
 30
0.0
  0
SEQEND
  5
160
330
15D
100
AcDbEntity
  8
\U+30EC\U+30A4\U+30E4\U+30FC 4
370
    15
  0
ENDBLK
  5
15C
330
159
100
AcDbEntity
  8
0
100
AcDbBlockEnd
  0
BLOCK
  5
163
330
161
100
AcDbEntity
  8
0
100
AcDbBlockBegin
  2
block 34
 70
     0
 71
     0
 10
0.0
 20
0.0
 30
0.0
  3
block 34
  1

  0
POLYLINE
  5
165
330
161
100
AcDbEntity
  8
\U+30EC\U+30A4\U+30E4\U+30FC 4
 62
     7
420
 16777215
370
    15
100
AcDb2dPolyline
 66
     1
 10
0.0
 20
0.0
 30
0.0
  0
VERTEX
  5
166
330
165
100
AcDbEntity
  8
\U+30EC\U+30A4\U+30E4\U+30FC 4
 62
     7
420
 16777215
370
    15
100
AcDbVertex
100
AcDb2dVertex
 10
29.97250297644785
 20
83.09708114242018
 30
0.0
  0
VERTEX
  5
167
330
165
100
AcDbEntity
  8
\U+30EC\U+30A4\U+30E4\U+30FC 4
 62
     7
420
 16777215
370
    15
100
AcDbVertex
100
AcDb2dVertex
 10
30.78554551096681
 20
83.80263669779934
 30
0.0
  0
SEQEND
  5
168
330
165
100
AcDbEntity
  8
\U+30EC\U+30A4\U+30E4\U+30FC 4
370
    15
  0
ENDBLK
  5
164
330
161
100
AcDbEntity
  8
0
100
AcDbBlockEnd
  0
BLOCK
  5
16B
330
169
100
AcDbEntity
  8
0
100
AcDbBlockBegin
  2
block 35
 70
     0
 71
     0
 10
0.0
 20
0.0
 30
0.0
  3
block 35
  1

  0
SPLINE
  5
16D
330
169
100
AcDbEntity
  8
\U+30EC\U+30A4\U+30E4\U+30FC 4
 62
     7
420
 16777215
370
    15
100
AcDbSpline
210
0.0
220
0.0
230
1.0
 70
     8
 71
     3
 72
    26
 73
    22
 74
     0
 42
0.0000000001
 43
0.0000000001
 40
0.0
 40
0.0
 40
0.0
 40
0.0
 40
1.0
 40
1.0
 40
1.0
 40
2.0
 40
2.0
 40
2.0
 40
3.0
 40
3.0
 40
3.0
 40
4.0
 40
4.0
 40
4.0
 40
5.0
 40
5.0
 40
5.0
 40
6.0
 40
6.0
 40
6.0
 40
7.0
 40
7.0
 40
7.0
 40
7.0
 10
26.84986842861739
 20
84.32353513516912
 30
0.0
 10
26.83608804667639
 20
84.31251082961631
 30
0.0
 10
26.8223076647354
 20
84.30148652406352
 30
0.0
 10
26.8112833591826
 20
84.28770614212252
 30
0.0
 10
26.7933688626593
 20
84.26565753101693
 30
0.0
 10
26.7837225953006
 20
84.23809676713492
 30
0.0
 10
26.7768324043301
 20
84.21053600325293
 30
0.0
 10
26.7699422133596
 20
84.18021916298272
 30
0.0
 10
26.7671861369714
 20
84.15265839910073
 30
0.0
 10
26.7699422133596
 20
84.12234155883053
 30
0.0
 10
26.7740763279419
 20
84.09202471856032
 30
0.0
 10
26.7823445571065
 20
84.05895180190193
 30
0.0
 10
26.7961249390475
 20
84.02863496163174
 30
0.0
 10
26.8099053209885
 20
83.99831812136154
 30
0.0
 10
26.8305758939
 20
83.96800128109133
 30
0.0
 10
26.8553805813938
 20
83.94044051720934
 30
0.0
 10
26.88018526888759
 20
83.91287975332735
 30
0.0
 10
26.91050210915779
 20
83.88807506583355
 30
0.0
 10
26.94357502581619
 20
83.87153860750435
 30
0.0
 10
26.96148952233949
 20
83.86327037833975
 30
0.0
 10
26.98078205705689
 20
83.85500214917514
 30
0.0
 10
27.00007459177429
 20
83.84948999639875
 30
0.0
  0
ENDBLK
  5
16C
330
169
100
AcDbEntity
  8
0
100
AcDbBlockEnd
  0
BLOCK
  5
170
330
16E
100
AcDbEntity
  8
0
100
AcDbBlockBegin
  2
block 36
 70
     0
 71
     0
 10
0.0
 20
0.0
 30
0.0
  3
block 36
  1

  0
SPLINE
  5
172
330
16E
100
AcDbEntity
  8
\U+30EC\U+30A4\U+30E4\U+30FC 4
 62
     7
420
 16777215
370
    15
100
AcDbSpline
210
0.0
220
0.0
230
1.0
 70
     8
 71
     3
 72
    14
 73
    10
 74
     0
 42
0.0000000001
 43
0.0000000001
 40
0.0
 40
0.0
 40
0.0
 40
0.0
 40
1.0
 40
1.0
 40
1.0
 40
2.0
 40
2.0
 40
2.0
 40
3.0
 40
3.0
 40
3.0
 40
3.0
 10
27.00007459177429
 20
83.84948999639875
 30
0.0
 10
27.03039143204449
 20
83.84397784362234
 30
0.0
 10
27.05933023412059
 20
83.83846569084594
 30
0.0
 10
27.08964707439078
 20
83.83846569084594
 30
0.0
 10
27.11996391466098
 20
83.83846569084594
 30
0.0
 10
27.14890271673708
 20
83.84673392001054
 30
0.0
 10
27.17508544242498
 20
83.86051430195154
 30
0.0
 10
27.19162190075418
 20
83.86878253111614
 30
0.0
 10
27.20540228269518
 20
83.87980683666895
 30
0.0
 10
27.21918266463618
 20
83.89358721860994
 30
0.0
  0
ENDBLK
  5
171
330
16E
100
AcDbEntity
  8
0
100
AcDbBlockEnd
  0
BLOCK
  5
175
330
173
100
AcDbEntity
  8
0
100
AcDbBlockBegin
  2
block 37
 70
     0
 71
     0
 10
0.0
 20
0.0
 30
0.0
  3
block 37
  1

  0
POLYLINE
  5
177
330
173
100
AcDbEntity
  8
\U+30EC\U+30A4\U+30E4\U+30FC 4
 62
     7
420
 16777215
370
    15
100
AcDb2dPolyline
 66
     1
 10
0.0
 20
0.0
 30
0.0
  0
VERTEX
  5
178
330
177
100
AcDbEntity
  8
\U+30EC\U+30A4\U+30E4\U+30FC 4
 62
     7
420
 16777215
370
    15
100
AcDbVertex
100
AcDb2dVertex
 10
27.66015488674816
 20
85.02909069054829
 30
0.0
  0
VERTEX
  5
179
330
177
100
AcDbEntity
  8
\U+30EC\U+30A4\U+30E4\U+30FC 4
 62
     7
420
 16777215
370
    15
100
AcDbVertex
100
AcDb2dVertex
 10
26.8471123522292
 20
84.32629121155732
 30
0.0
  0
SEQEND
  5
17A
330
177
100
AcDbEntity
  8
\U+30EC\U+30A4\U+30E4\U+30FC 4
370
    15
  0
ENDBLK
  5
176
330
173
100
AcDbEntity
  8
0
100
AcDbBlockEnd
  0
BLOCK
  5
17D
330
17B
100
AcDbEntity
  8
0
100
AcDbBlockBegin
  2
block 38
 70
     0
 71
     0
 10
0.0
 20
0.0
 30
0.0
  3
block 38
  1

  0
POLYLINE
  5
17F
330
17B
100
AcDbEntity
  8
\U+30EC\U+30A4\U+30E4\U+30FC 4
 62
     7
420
 16777215
370
    15
100
AcDb2dPolyline
 66
     1
 10
0.0
 20
0.0
 30
0.0
  0
VERTEX
  5
180
330
17F
100
AcDbEntity
  8
\U+30EC\U+30A4\U+30E4\U+30FC 4
 62
     7
420
 16777215
370
    15
100
AcDbVertex
100
AcDb2dVertex
 10
27.22331677921848
 20
83.89083114222174
 30
0.0
  0
VERTEX
  5
181
330
17F
100
AcDbEntity
  8
\U+30EC\U+30A4\U+30E4\U+30FC 4
 62
     7
420
 16777215
370
    15
100
AcDbVertex
100
AcDb2dVertex
 10
28.03498127554334
 20
84.5963866976009
 30
0.0
  0
SEQEND
  5
182
330
17F
100
AcDbEntity
  8
\U+30EC\U+30A4\U+30E4\U+30FC 4
370
    15
  0
ENDBLK
  5
17E
330
17B
100
AcDbEntity
  8
0
100
AcDbBlockEnd
  0
BLOCK
  5
185
330
183
100
AcDbEntity
  8
0
100
AcDbBlockBegin
  2
block 39
 70
     0
 71
     0
 10
0.0
 20
0.0
 30
0.0
  3
block 39
  1

  0
POLYLINE
  5
187
330
183
100
AcDbEntity
  8
\U+30EC\U+30A4\U+30E4\U+30FC 4
 62
     7
420
 16777215
370
    15
100
AcDb2dPolyline
 66
     1
 10
0.0
 20
0.0
 30
0.0
  0
VERTEX
  5
188
330
187
100
AcDbEntity
  8
\U+30EC\U+30A4\U+30E4\U+30FC 4
 62
     7
420
 16777215
370
    15
100
AcDbVertex
100
AcDb2dVertex
 10
27.27706026878838
 20
86.81778426649001
 30
0.0
  0
VERTEX
  5
189
330
187
100
AcDbEntity
  8
\U+30EC\U+30A4\U+30E4\U+30FC 4
 62
     7
420
 16777215
370
    15
100
AcDbVertex
100
AcDb2dVertex
 10
27.30462103267037
 20
86.845345030372
 30
0.0
  0
SEQEND
  5
18A
330
187
100
AcDbEntity
  8
\U+30EC\U+30A4\U+30E4\U+30FC 4
370
    15
  0
ENDBLK
  5
186
330
183
100
AcDbEntity
  8
0
100
AcDbBlockEnd
  0
BLOCK
  5
18D
330
18B
100
AcDbEntity
  8
0
100
AcDbBlockBegin
  2
block 40
 70
     0
 71
     0
 10
0.0
 20
0.0
 30
0.0
  3
block 40
  1

  0
POLYLINE
  5
18F
330
18B
100
AcDbEntity
  8
\U+30EC\U+30A4\U+30E4\U+30FC 4
 62
     7
420
 16777215
370
    15
100
AcDb2dPolyline
 66
     1
 10
0.0
 20
0.0
 30
0.0
  0
VERTEX
  5
190
330
18F
100
AcDbEntity
  8
\U+30EC\U+30A4\U+30E4\U+30FC 4
 62
     7
420
 16777215
370
    15
100
AcDbVertex
100
AcDb2dVertex
 10
31.44424776774658
 20
82.25372176763102
 30
0.0
  0
VERTEX
  5
191
330
18F
100
AcDbEntity
  8
\U+30EC\U+30A4\U+30E4\U+30FC 4
 62
     7
420
 16777215
370
    15
100
AcDbVertex
100
AcDb2dVertex
 10
31.35329724693598
 20
82.17103947598503
 30
0.0
  0
SEQEND
  5
192
330
18F
100
AcDbEntity
  8
\U+30EC\U+30A4\U+30E4\U+30FC 4
370
    15
  0
ENDBLK
  5
18E
330
18B
100
AcDbEntity
  8
0
100
AcDbBlockEnd
  0
BLOCK
  5
195
330
193
100
AcDbEntity
  8
0
100
AcDbBlockBegin
  2
block 41
 70
     0
 71
     0
 10
0.0
 20
0.0
 30
0.0
  3
block 41
  1

  0
POLYLINE
  5
197
330
193
100
AcDbEntity
  8
\U+30EC\U+30A4\U+30E4\U+30FC 4
 62
     7
420
 16777215
370
    15
100
AcDb2dPolyline
 66
     1
 10
0.0
 20
0.0
 30
0.0
  0
VERTEX
  5
198
330
197
100
AcDbEntity
  8
\U+30EC\U+30A4\U+30E4\U+30FC 4
 62
     7
420
 16777215
370
    15
100
AcDbVertex
100
AcDb2dVertex
 10
33.1226982881603
 20
83.66483287838935
 30
0.0
  0
VERTEX
  5
199
330
197
100
AcDbEntity
  8
\U+30EC\U+30A4\U+30E4\U+30FC 4
 62
     7
420
 16777215
370
    15
100
AcDbVertex
100
AcDb2dVertex
 10
33.33767224643989
 20
83.87980683666895
 30
0.0
  0
VERTEX
  5
19A
330
197
100
AcDbEntity
  8
\U+30EC\U+30A4\U+30E4\U+30FC 4
 62
     7
420
 16777215
370
    15
100
AcDbVertex
100
AcDb2dVertex
 10
33.56091443388408
 20
84.21604815602933
 30
0.0
  0
VERTEX
  5
19B
330
197
100
AcDbEntity
  8
\U+30EC\U+30A4\U+30E4\U+30FC 4
 62
     7
420
 16777215
370
    15
100
AcDbVertex
100
AcDb2dVertex
 10
33.71387667342917
 20
84.60189885037731
 30
0.0
  0
VERTEX
  5
19C
330
197
100
AcDbEntity
  8
\U+30EC\U+30A4\U+30E4\U+30FC 4
 62
     7
420
 16777215
370
    15
100
AcDbVertex
100
AcDb2dVertex
 10
33.79104681229877
 20
85.03184676693648
 30
0.0
  0
VERTEX
  5
19D
330
197
100
AcDbEntity
  8
\U+30EC\U+30A4\U+30E4\U+30FC 4
 62
     7
420
 16777215
370
    15
100
AcDbVertex
100
AcDb2dVertex
 10
33.79104681229877
 20
85.49211152376587
 30
0.0
  0
VERTEX
  5
19E
330
197
100
AcDbEntity
  8
\U+30EC\U+30A4\U+30E4\U+30FC 4
 62
     7
420
 16777215
370
    15
100
AcDbVertex
100
AcDb2dVertex
 10
33.71387667342917
 20
85.96615666253624
 30
0.0
  0
VERTEX
  5
19F
330
197
100
AcDbEntity
  8
\U+30EC\U+30A4\U+30E4\U+30FC 4
 62
     7
420
 16777215
370
    15
100
AcDbVertex
100
AcDb2dVertex
 10
33.56091443388408
 20
86.44295787769482
 30
0.0
  0
VERTEX
  5
1A0
330
197
100
AcDbEntity
  8
\U+30EC\U+30A4\U+30E4\U+30FC 4
 62
     7
420
 16777215
370
    15
100
AcDbVertex
100
AcDb2dVertex
 10
33.33767224643989
 20
86.9059787109124
 30
0.0
  0
VERTEX
  5
1A1
330
197
100
AcDbEntity
  8
\U+30EC\U+30A4\U+30E4\U+30FC 4
 62
     7
420
 16777215
370
    15
100
AcDbVertex
100
AcDb2dVertex
 10
33.04828422567891
 20
87.34695093302437
 30
0.0
  0
VERTEX
  5
1A2
330
197
100
AcDbEntity
  8
\U+30EC\U+30A4\U+30E4\U+30FC 4
 62
     7
420
 16777215
370
    15
100
AcDbVertex
100
AcDb2dVertex
 10
32.70515271534802
 20
87.74933808570155
 30
0.0
  0
VERTEX
  5
1A3
330
197
100
AcDbEntity
  8
\U+30EC\U+30A4\U+30E4\U+30FC 4
 62
     7
420
 16777215
370
    15
100
AcDbVertex
100
AcDb2dVertex
 10
32.31516790641773
 20
88.10211586339115
 30
0.0
  0
VERTEX
  5
1A4
330
197
100
AcDbEntity
  8
\U+30EC\U+30A4\U+30E4\U+30FC 4
 62
     7
420
 16777215
370
    15
100
AcDbVertex
100
AcDb2dVertex
 10
31.88935410444086
 20
88.39701603692853
 30
0.0
  0
VERTEX
  5
1A5
330
197
100
AcDbEntity
  8
\U+30EC\U+30A4\U+30E4\U+30FC 4
 62
     7
420
 16777215
370
    15
100
AcDbVertex
100
AcDb2dVertex
 10
31.44149169135838
 20
88.62301430076091
 30
0.0
  0
VERTEX
  5
1A6
330
197
100
AcDbEntity
  8
\U+30EC\U+30A4\U+30E4\U+30FC 4
 62
     7
420
 16777215
370
    15
100
AcDbVertex
100
AcDb2dVertex
 10
30.9826049727231
 20
88.77459850211191
 30
0.0
  0
VERTEX
  5
1A7
330
197
100
AcDbEntity
  8
\U+30EC\U+30A4\U+30E4\U+30FC 4
 62
     7
420
 16777215
370
    15
100
AcDbVertex
100
AcDb2dVertex
 10
30.52785236867012
 20
88.8462564882051
 30
0.0
  0
VERTEX
  5
1A8
330
197
100
AcDbEntity
  8
\U+30EC\U+30A4\U+30E4\U+30FC 4
 62
     7
420
 16777215
370
    15
100
AcDbVertex
100
AcDb2dVertex
 10
30.08963622294634
 20
88.8379882590405
 30
0.0
  0
VERTEX
  5
1A9
330
197
100
AcDbEntity
  8
\U+30EC\U+30A4\U+30E4\U+30FC 4
 62
     7
420
 16777215
370
    15
100
AcDbVertex
100
AcDb2dVertex
 10
29.68035887929866
 20
88.74979381461812
 30
0.0
  0
VERTEX
  5
1AA
330
197
100
AcDbEntity
  8
\U+30EC\U+30A4\U+30E4\U+30FC 4
 62
     7
420
 16777215
370
    15
100
AcDbVertex
100
AcDb2dVertex
 10
29.31104464327988
 20
88.58442923132611
 30
0.0
  0
VERTEX
  5
1AB
330
197
100
AcDbEntity
  8
\U+30EC\U+30A4\U+30E4\U+30FC 4
 62
     7
420
 16777215
370
    15
100
AcDbVertex
100
AcDb2dVertex
 10
29.03543700445989
 20
88.38323565498753
 30
0.0
  0
SEQEND
  5
1AC
330
197
100
AcDbEntity
  8
\U+30EC\U+30A4\U+30E4\U+30FC 4
370
    15
  0
ENDBLK
  5
196
330
193
100
AcDbEntity
  8
0
100
AcDbBlockEnd
  0
BLOCK
  5
1AF
330
1AD
100
AcDbEntity
  8
0
100
AcDbBlockBegin
  2
block 42
 70
     0
 71
     0
 10
0.0
 20
0.0
 30
0.0
  3
block 42
  1

  0
POLYLINE
  5
1B1
330
1AD
100
AcDbEntity
  8
\U+30EC\U+30A4\U+30E4\U+30FC 4
 62
     7
420
 16777215
370
    15
100
AcDb2dPolyline
 66
     1
 10
0.0
 20
0.0
 30
0.0
  0
VERTEX
  5
1B2
330
1B1
100
AcDbEntity
  8
\U+30EC\U+30A4\U+30E4\U+30FC 4
 62
     7
420
 16777215
370
    15
100
AcDbVertex
100
AcDb2dVertex
 10
30.84617919150721
 20
83.94595266998574
 30
0.0
  0
VERTEX
  5
1B3
330
1B1
100
AcDbEntity
  8
\U+30EC\U+30A4\U+30E4\U+30FC 4
 62
     7
420
 16777215
370
    15
100
AcDbVertex
100
AcDb2dVertex
 10
30.82688665678981
 20
84.04792749634913
 30
0.0
  0
VERTEX
  5
1B4
330
1B1
100
AcDbEntity
  8
\U+30EC\U+30A4\U+30E4\U+30FC 4
 62
     7
420
 16777215
370
    15
100
AcDbVertex
100
AcDb2dVertex
 10
30.77314316721991
 20
84.14439016993613
 30
0.0
  0
VERTEX
  5
1B5
330
1B1
100
AcDbEntity
  8
\U+30EC\U+30A4\U+30E4\U+30FC 4
 62
     7
420
 16777215
370
    15
100
AcDbVertex
100
AcDb2dVertex
 10
30.69183891376801
 20
84.22156030880572
 30
0.0
  0
VERTEX
  5
1B6
330
1B1
100
AcDbEntity
  8
\U+30EC\U+30A4\U+30E4\U+30FC 4
 62
     7
420
 16777215
370
    15
100
AcDbVertex
100
AcDb2dVertex
 10
30.59675427837512
 20
84.26841360740512
 30
0.0
  0
VERTEX
  5
1B7
330
1B1
100
AcDbEntity
  8
\U+30EC\U+30A4\U+30E4\U+30FC 4
 62
     7
420
 16777215
370
    15
100
AcDbVertex
100
AcDb2dVertex
 10
30.50166964298222
 20
84.27668183656972
 30
0.0
  0
VERTEX
  5
1B8
330
1B1
100
AcDbEntity
  8
\U+30EC\U+30A4\U+30E4\U+30FC 4
 62
     7
420
 16777215
370
    15
100
AcDbVertex
100
AcDb2dVertex
 10
30.42174342772443
 20
84.24636499629952
 30
0.0
  0
VERTEX
  5
1B9
330
1B1
100
AcDbEntity
  8
\U+30EC\U+30A4\U+30E4\U+30FC 4
 62
     7
420
 16777215
370
    15
100
AcDbVertex
100
AcDb2dVertex
 10
30.40934108397753
 20
84.23534069074672
 30
0.0
  0
SEQEND
  5
1BA
330
1B1
100
AcDbEntity
  8
\U+30EC\U+30A4\U+30E4\U+30FC 4
370
    15
  0
ENDBLK
  5
1B0
330
1AD
100
AcDbEntity
  8
0
100
AcDbBlockEnd
  0
BLOCK
  5
1BD
330
1BB
100
AcDbEntity
  8
0
100
AcDbBlockBegin
  2
block 43
 70
     0
 71
     0
 10
0.0
 20
0.0
 30
0.0
  3
block 43
  1

  0
POLYLINE
  5
1BF
330
1BB
100
AcDbEntity
  8
\U+30EC\U+30A4\U+30E4\U+30FC 4
 62
     7
420
 16777215
370
    15
100
AcDb2dPolyline
 66
     1
 10
0.0
 20
0.0
 30
0.0
  0
VERTEX
  5
1C0
330
1BF
100
AcDbEntity
  8
\U+30EC\U+30A4\U+30E4\U+30FC 4
 62
     7
420
 16777215
370
    15
100
AcDbVertex
100
AcDb2dVertex
 10
30.78554551096681
 20
83.80263669779934
 30
0.0
  0
VERTEX
  5
1C1
330
1BF
100
AcDbEntity
  8
\U+30EC\U+30A4\U+30E4\U+30FC 4
 62
     7
420
 16777215
370
    15
100
AcDbVertex
100
AcDb2dVertex
 10
30.82688665678981
 20
83.85775822556334
 30
0.0
  0
VERTEX
  5
1C2
330
1BF
100
AcDbEntity
  8
\U+30EC\U+30A4\U+30E4\U+30FC 4
 62
     7
420
 16777215
370
    15
100
AcDbVertex
100
AcDb2dVertex
 10
30.84617919150721
 20
83.94595266998574
 30
0.0
  0
SEQEND
  5
1C3
330
1BF
100
AcDbEntity
  8
\U+30EC\U+30A4\U+30E4\U+30FC 4
370
    15
  0
ENDBLK
  5
1BE
330
1BB
100
AcDbEntity
  8
0
100
AcDbBlockEnd
  0
BLOCK
  5
1C6
330
1C4
100
AcDbEntity
  8
0
100
AcDbBlockBegin
  2
block 44
 70
     0
 71
     0
 10
0.0
 20
0.0
 30
0.0
  3
block 44
  1

  0
POLYLINE
  5
1C8
330
1C4
100
AcDbEntity
  8
\U+30EC\U+30A4\U+30E4\U+30FC 4
 62
     7
420
 16777215
370
    15
100
AcDb2dPolyline
 66
     1
 10
0.0
 20
0.0
 30
0.0
  0
VERTEX
  5
1C9
330
1C8
100
AcDbEntity
  8
\U+30EC\U+30A4\U+30E4\U+30FC 4
 62
     7
420
 16777215
370
    15
100
AcDbVertex
100
AcDb2dVertex
 10
28.09561495608374
 20
84.7397026697873
 30
0.0
  0
VERTEX
  5
1CA
330
1C8
100
AcDbEntity
  8
\U+30EC\U+30A4\U+30E4\U+30FC 4
 62
     7
420
 16777215
370
    15
100
AcDbVertex
100
AcDb2dVertex
 10
28.07770045956044
 20
84.8416774961507
 30
0.0
  0
VERTEX
  5
1CB
330
1C8
100
AcDbEntity
  8
\U+30EC\U+30A4\U+30E4\U+30FC 4
 62
     7
420
 16777215
370
    15
100
AcDbVertex
100
AcDb2dVertex
 10
28.02395696999054
 20
84.9381401697377
 30
0.0
  0
VERTEX
  5
1CC
330
1C8
100
AcDbEntity
  8
\U+30EC\U+30A4\U+30E4\U+30FC 4
 62
     7
420
 16777215
370
    15
100
AcDbVertex
100
AcDb2dVertex
 10
27.94265271653864
 20
85.01531030860728
 30
0.0
  0
VERTEX
  5
1CD
330
1C8
100
AcDbEntity
  8
\U+30EC\U+30A4\U+30E4\U+30FC 4
 62
     7
420
 16777215
370
    15
100
AcDbVertex
100
AcDb2dVertex
 10
27.84756808114575
 20
85.06216360720668
 30
0.0
  0
VERTEX
  5
1CE
330
1C8
100
AcDbEntity
  8
\U+30EC\U+30A4\U+30E4\U+30FC 4
 62
     7
420
 16777215
370
    15
100
AcDbVertex
100
AcDb2dVertex
 10
27.75248344575285
 20
85.07043183637128
 30
0.0
  0
VERTEX
  5
1CF
330
1C8
100
AcDbEntity
  8
\U+30EC\U+30A4\U+30E4\U+30FC 4
 62
     7
420
 16777215
370
    15
100
AcDbVertex
100
AcDb2dVertex
 10
27.67117919230096
 20
85.04011499610108
 30
0.0
  0
VERTEX
  5
1D0
330
1C8
100
AcDbEntity
  8
\U+30EC\U+30A4\U+30E4\U+30FC 4
 62
     7
420
 16777215
370
    15
100
AcDbVertex
100
AcDb2dVertex
 10
27.66015488674816
 20
85.02909069054829
 30
0.0
  0
SEQEND
  5
1D1
330
1C8
100
AcDbEntity
  8
\U+30EC\U+30A4\U+30E4\U+30FC 4
370
    15
  0
ENDBLK
  5
1C7
330
1C4
100
AcDbEntity
  8
0
100
AcDbBlockEnd
  0
BLOCK
  5
1D4
330
1D2
100
AcDbEntity
  8
0
100
AcDbBlockBegin
  2
block 45
 70
     0
 71
     0
 10
0.0
 20
0.0
 30
0.0
  3
block 45
  1

  0
POLYLINE
  5
1D6
330
1D2
100
AcDbEntity
  8
\U+30EC\U+30A4\U+30E4\U+30FC 4
 62
     7
420
 16777215
370
    15
100
AcDb2dPolyline
 66
     1
 10
0.0
 20
0.0
 30
0.0
  0
VERTEX
  5
1D7
330
1D6
100
AcDbEntity
  8
\U+30EC\U+30A4\U+30E4\U+30FC 4
 62
     7
420
 16777215
370
    15
100
AcDbVertex
100
AcDb2dVertex
 10
28.03498127554334
 20
84.5963866976009
 30
0.0
  0
VERTEX
  5
1D8
330
1D6
100
AcDbEntity
  8
\U+30EC\U+30A4\U+30E4\U+30FC 4
 62
     7
420
 16777215
370
    15
100
AcDbVertex
100
AcDb2dVertex
 10
28.07770045956044
 20
84.6515082253649
 30
0.0
  0
VERTEX
  5
1D9
330
1D6
100
AcDbEntity
  8
\U+30EC\U+30A4\U+30E4\U+30FC 4
 62
     7
420
 16777215
370
    15
100
AcDbVertex
100
AcDb2dVertex
 10
28.09561495608374
 20
84.7397026697873
 30
0.0
  0
SEQEND
  5
1DA
330
1D6
100
AcDbEntity
  8
\U+30EC\U+30A4\U+30E4\U+30FC 4
370
    15
  0
ENDBLK
  5
1D5
330
1D2
100
AcDbEntity
  8
0
100
AcDbBlockEnd
  0
BLOCK
  5
1DD
330
1DB
100
AcDbEntity
  8
0
100
AcDbBlockBegin
  2
block 46
 70
     0
 71
     0
 10
0.0
 20
0.0
 30
0.0
  3
block 46
  1

  0
SPLINE
  5
1DF
330
1DB
100
AcDbEntity
  8
\U+30EC\U+30A4\U+30E4\U+30FC 4
 62
     7
420
 16777215
370
     9
100
AcDbSpline
210
0.0
220
0.0
230
1.0
 70
     8
 71
     3
 72
     8
 73
     4
 74
     0
 42
0.0000000001
 43
0.0000000001
 40
0.0
 40
0.0
 40
0.0
 40
0.0
 40
1.0
 40
1.0
 40
1.0
 40
1.0
 10
29.81954073690276
 20
82.03874780935143
 30
0.0
 10
29.87879637924905
 20
82.01945527463403
 30
0.0
 10
29.92840575423665
 20
82.05528426768063
 30
0.0
 10
29.92840575423665
 20
82.11591794822102
 30
0.0
  0
ENDBLK
  5
1DE
330
1DB
100
AcDbEntity
  8
0
100
AcDbBlockEnd
  0
BLOCK
  5
1E2
330
1E0
100
AcDbEntity
  8
0
100
AcDbBlockBegin
  2
block 47
 70
     0
 71
     0
 10
0.0
 20
0.0
 30
0.0
  3
block 47
  1

  0
POLYLINE
  5
1E4
330
1E0
100
AcDbEntity
  8
\U+30EC\U+30A4\U+30E4\U+30FC 4
 62
     7
420
 16777215
370
     9
100
AcDb2dPolyline
 66
     1
 10
0.0
 20
0.0
 30
0.0
  0
VERTEX
  5
1E5
330
1E4
100
AcDbEntity
  8
\U+30EC\U+30A4\U+30E4\U+30FC 4
 62
     7
420
 16777215
370
     9
100
AcDbVertex
100
AcDb2dVertex
 10
29.92840575423665
 20
82.11591794822102
 30
0.0
  0
VERTEX
  5
1E6
330
1E4
100
AcDbEntity
  8
\U+30EC\U+30A4\U+30E4\U+30FC 4
 62
     7
420
 16777215
370
     9
100
AcDbVertex
100
AcDb2dVertex
 10
29.92840575423665
 20
82.98408201050398
 30
0.0
  0
SEQEND
  5
1E7
330
1E4
100
AcDbEntity
  8
\U+30EC\U+30A4\U+30E4\U+30FC 4
370
     9
  0
ENDBLK
  5
1E3
330
1E0
100
AcDbEntity
  8
0
100
AcDbBlockEnd
  0
BLOCK
  5
1EA
330
1E8
100
AcDbEntity
  8
0
100
AcDbBlockBegin
  2
block 48
 70
     0
 71
     0
 10
0.0
 20
0.0
 30
0.0
  3
block 48
  1

  0
SPLINE
  5
1EC
330
1E8
100
AcDbEntity
  8
\U+30EC\U+30A4\U+30E4\U+30FC 4
 62
     7
420
 16777215
370
     9
100
AcDbSpline
210
0.0
220
0.0
230
1.0
 70
     8
 71
     3
 72
     8
 73
     4
 74
     0
 42
0.0000000001
 43
0.0000000001
 40
0.0
 40
0.0
 40
0.0
 40
0.0
 40
1.0
 40
1.0
 40
1.0
 40
1.0
 10
29.92840575423665
 20
82.98408201050398
 30
0.0
 10
29.92840575423665
 20
83.00888669799778
 30
0.0
 10
29.91875948687795
 20
83.03644746187977
 30
0.0
 10
29.90222302854875
 20
83.06125214937357
 30
0.0
  0
ENDBLK
  5
1EB
330
1E8
100
AcDbEntity
  8
0
100
AcDbBlockEnd
  0
BLOCK
  5
1EF
330
1ED
100
AcDbEntity
  8
0
100
AcDbBlockBegin
  2
block 49
 70
     0
 71
     0
 10
0.0
 20
0.0
 30
0.0
  3
block 49
  1

  0
POLYLINE
  5
1F1
330
1ED
100
AcDbEntity
  8
\U+30EC\U+30A4\U+30E4\U+30FC 4
 62
     7
420
 16777215
370
     9
100
AcDb2dPolyline
 66
     1
 10
0.0
 20
0.0
 30
0.0
  0
VERTEX
  5
1F2
330
1F1
100
AcDbEntity
  8
\U+30EC\U+30A4\U+30E4\U+30FC 4
 62
     7
420
 16777215
370
     9
100
AcDbVertex
100
AcDb2dVertex
 10
29.57149386196477
 20
83.19629989239537
 30
0.0
  0
VERTEX
  5
1F3
330
1F1
100
AcDbEntity
  8
\U+30EC\U+30A4\U+30E4\U+30FC 4
 62
     7
420
 16777215
370
     9
100
AcDbVertex
100
AcDb2dVertex
 10
28.62478162261811
 20
83.46915145482716
 30
0.0
  0
SEQEND
  5
1F4
330
1F1
100
AcDbEntity
  8
\U+30EC\U+30A4\U+30E4\U+30FC 4
370
     9
  0
ENDBLK
  5
1F0
330
1ED
100
AcDbEntity
  8
0
100
AcDbBlockEnd
  0
BLOCK
  5
1F7
330
1F5
100
AcDbEntity
  8
0
100
AcDbBlockBegin
  2
block 50
 70
     0
 71
     0
 10
0.0
 20
0.0
 30
0.0
  3
block 50
  1

  0
SPLINE
  5
1F9
330
1F5
100
AcDbEntity
  8
\U+30EC\U+30A4\U+30E4\U+30FC 4
 62
     7
420
 16777215
370
     9
100
AcDbSpline
210
0.0
220
0.0
230
1.0
 70
     8
 71
     3
 72
     8
 73
     4
 74
     0
 42
0.0000000001
 43
0.0000000001
 40
0.0
 40
0.0
 40
0.0
 40
0.0
 40
1.0
 40
1.0
 40
1.0
 40
1.0
 10
28.62478162261811
 20
83.46915145482716
 30
0.0
 10
28.56552598027181
 20
83.48568791315635
 30
0.0
 10
28.51729464347832
 20
83.45261499649796
 30
0.0
 10
28.51729464347832
 20
83.39198131595757
 30
0.0
  0
ENDBLK
  5
1F8
330
1F5
100
AcDbEntity
  8
0
100
AcDbBlockEnd
  0
BLOCK
  5
1FC
330
1FA
100
AcDbEntity
  8
0
100
AcDbBlockBegin
  2
block 51
 70
     0
 71
     0
 10
0.0
 20
0.0
 30
0.0
  3
block 51
  1

  0
POLYLINE
  5
1FE
330
1FA
100
AcDbEntity
  8
\U+30EC\U+30A4\U+30E4\U+30FC 4
 62
     7
420
 16777215
370
     9
100
AcDb2dPolyline
 66
     1
 10
0.0
 20
0.0
 30
0.0
  0
VERTEX
  5
1FF
330
1FE
100
AcDbEntity
  8
\U+30EC\U+30A4\U+30E4\U+30FC 4
 62
     7
420
 16777215
370
     9
100
AcDbVertex
100
AcDb2dVertex
 10
28.51729464347832
 20
83.39198131595757
 30
0.0
  0
VERTEX
  5
200
330
1FE
100
AcDbEntity
  8
\U+30EC\U+30A4\U+30E4\U+30FC 4
 62
     7
420
 16777215
370
     9
100
AcDbVertex
100
AcDb2dVertex
 10
28.51729464347832
 20
82.5210611772864
 30
0.0
  0
SEQEND
  5
201
330
1FE
100
AcDbEntity
  8
\U+30EC\U+30A4\U+30E4\U+30FC 4
370
     9
  0
ENDBLK
  5
1FD
330
1FA
100
AcDbEntity
  8
0
100
AcDbBlockEnd
  0
BLOCK
  5
204
330
202
100
AcDbEntity
  8
0
100
AcDbBlockBegin
  2
block 52
 70
     0
 71
     0
 10
0.0
 20
0.0
 30
0.0
  3
block 52
  1

  0
SPLINE
  5
206
330
202
100
AcDbEntity
  8
\U+30EC\U+30A4\U+30E4\U+30FC 4
 62
     7
420
 16777215
370
     9
100
AcDbSpline
210
0.0
220
0.0
230
1.0
 70
     8
 71
     3
 72
     8
 73
     4
 74
     0
 42
0.0000000001
 43
0.0000000001
 40
0.0
 40
0.0
 40
0.0
 40
0.0
 40
1.0
 40
1.0
 40
1.0
 40
1.0
 10
28.51729464347832
 20
82.5210611772864
 30
0.0
 10
28.51729464347832
 20
82.4631835731342
 30
0.0
 10
28.56552598027181
 20
82.39979381620562
 30
0.0
 10
28.62478162261811
 20
82.38325735787642
 30
0.0
  0
ENDBLK
  5
205
330
202
100
AcDbEntity
  8
0
100
AcDbBlockEnd
  0
BLOCK
  5
209
330
207
100
AcDbEntity
  8
0
100
AcDbBlockBegin
  2
block 53
 70
     0
 71
     0
 10
0.0
 20
0.0
 30
0.0
  3
block 53
  1

  0
POLYLINE
  5
20B
330
207
100
AcDbEntity
  8
\U+30EC\U+30A4\U+30E4\U+30FC 4
 62
     7
420
 16777215
370
     9
100
AcDb2dPolyline
 66
     1
 10
0.0
 20
0.0
 30
0.0
  0
VERTEX
  5
20C
330
20B
100
AcDbEntity
  8
\U+30EC\U+30A4\U+30E4\U+30FC 4
 62
     7
420
 16777215
370
     9
100
AcDbVertex
100
AcDb2dVertex
 10
28.62478162261811
 20
82.38325735787642
 30
0.0
  0
VERTEX
  5
20D
330
20B
100
AcDbEntity
  8
\U+30EC\U+30A4\U+30E4\U+30FC 4
 62
     7
420
 16777215
370
     9
100
AcDbVertex
100
AcDb2dVertex
 10
29.81954073690276
 20
82.03874780935143
 30
0.0
  0
SEQEND
  5
20E
330
20B
100
AcDbEntity
  8
\U+30EC\U+30A4\U+30E4\U+30FC 4
370
     9
  0
ENDBLK
  5
20A
330
207
100
AcDbEntity
  8
0
100
AcDbBlockEnd
  0
BLOCK
  5
211
330
20F
100
AcDbEntity
  8
0
100
AcDbBlockBegin
  2
block 54
 70
     0
 71
     0
 10
0.0
 20
0.0
 30
0.0
  3
block 54
  1

  0
SPLINE
  5
213
330
20F
100
AcDbEntity
  8
\U+30EC\U+30A4\U+30E4\U+30FC 4
 62
     7
420
 16777215
370
    15
100
AcDbSpline
210
0.0
220
0.0
230
1.0
 70
     8
 71
     3
 72
     8
 73
     4
 74
     0
 42
0.0000000001
 43
0.0000000001
 40
0.0
 40
0.0
 40
0.0
 40
0.0
 40
1.0
 40
1.0
 40
1.0
 40
1.0
 10
28.8742065357502
 20
88.71120874518331
 30
0.0
 10
28.56690401846591
 20
88.43835718275153
 30
0.0
 10
28.34641790740993
 20
88.07731117589735
 30
0.0
 10
28.24306504285243
 20
87.67768009960837
 30
0.0
  0
ENDBLK
  5
212
330
20F
100
AcDbEntity
  8
0
100
AcDbBlockEnd
  0
BLOCK
  5
216
330
214
100
AcDbEntity
  8
0
100
AcDbBlockBegin
  2
block 55
 70
     0
 71
     0
 10
0.0
 20
0.0
 30
0.0
  3
block 55
  1

  0
SPLINE
  5
218
330
214
100
AcDbEntity
  8
\U+30EC\U+30A4\U+30E4\U+30FC 4
 62
     7
420
 16777215
370
    15
100
AcDbSpline
210
0.0
220
0.0
230
1.0
 70
     8
 71
     3
 72
     8
 73
     4
 74
     0
 42
0.0000000001
 43
0.0000000001
 40
0.0
 40
0.0
 40
0.0
 40
0.0
 40
1.0
 40
1.0
 40
1.0
 40
1.0
 10
32.31241183002954
 20
82.98132593411579
 30
0.0
 10
32.72168917367722
 20
83.02542315632698
 30
0.0
 10
33.1089179062193
 20
83.19078773961897
 30
0.0
 10
33.42586669086229
 20
83.45812714927436
 30
0.0
  0
ENDBLK
  5
217
330
214
100
AcDbEntity
  8
0
100
AcDbBlockEnd
  0
BLOCK
  5
21B
330
219
100
AcDbEntity
  8
0
100
AcDbBlockBegin
  2
block 56
 70
     0
 71
     0
 10
0.0
 20
0.0
 30
0.0
  3
block 56
  1

  0
SPLINE
  5
21D
330
219
100
AcDbEntity
  8
\U+30EC\U+30A4\U+30E4\U+30FC 4
 62
     7
420
 16777215
370
    15
100
AcDbSpline
210
0.0
220
0.0
230
1.0
 70
     8
 71
     3
 72
     8
 73
     4
 74
     0
 42
0.0000000001
 43
0.0000000001
 40
0.0
 40
0.0
 40
0.0
 40
0.0
 40
1.0
 40
1.0
 40
1.0
 40
1.0
 10
33.93436278448516
 20
85.82835284312625
 30
0.0
 10
33.62154811442448
 20
87.26702471776657
 30
0.0
 10
32.57975123968492
 20
88.43835718275153
 30
0.0
 10
31.18655462544989
 20
88.9151583979101
 30
0.0
  0
ENDBLK
  5
21C
330
219
100
AcDbEntity
  8
0
100
AcDbBlockEnd
  0
BLOCK
  5
220
330
21E
100
AcDbEntity
  8
0
100
AcDbBlockBegin
  2
block 57
 70
     0
 71
     0
 10
0.0
 20
0.0
 30
0.0
  3
block 57
  1

  0
POLYLINE
  5
222
330
21E
100
AcDbEntity
  8
\U+30EC\U+30A4\U+30E4\U+30FC 4
 62
     7
420
 16777215
370
    15
100
AcDb2dPolyline
 66
     1
 10
0.0
 20
0.0
 30
0.0
  0
VERTEX
  5
223
330
222
100
AcDbEntity
  8
\U+30EC\U+30A4\U+30E4\U+30FC 4
 62
     7
420
 16777215
370
    15
100
AcDbVertex
100
AcDb2dVertex
 10
30.24259846249144
 20
89.91285805043846
 30
0.0
  0
VERTEX
  5
224
330
222
100
AcDbEntity
  8
\U+30EC\U+30A4\U+30E4\U+30FC 4
 62
     7
420
 16777215
370
    15
100
AcDbVertex
100
AcDb2dVertex
 10
30.44241400063592
 20
90.06719832817765
 30
0.0
  0
VERTEX
  5
225
330
222
100
AcDbEntity
  8
\U+30EC\U+30A4\U+30E4\U+30FC 4
 62
     7
420
 16777215
370
    15
100
AcDbVertex
100
AcDb2dVertex
 10
30.81861842762521
 20
90.26563582812804
 30
0.0
  0
VERTEX
  5
226
330
222
100
AcDbEntity
  8
\U+30EC\U+30A4\U+30E4\U+30FC 4
 62
     7
420
 16777215
370
    15
100
AcDbVertex
100
AcDb2dVertex
 10
31.24029811501979
 20
90.38690318920884
 30
0.0
  0
VERTEX
  5
227
330
222
100
AcDbEntity
  8
\U+30EC\U+30A4\U+30E4\U+30FC 4
 62
     7
420
 16777215
370
    15
100
AcDbVertex
100
AcDb2dVertex
 10
31.69505071907277
 20
90.42824433503183
 30
0.0
  0
VERTEX
  5
228
330
222
100
AcDbEntity
  8
\U+30EC\U+30A4\U+30E4\U+30FC 4
 62
     7
420
 16777215
370
    15
100
AcDbVertex
100
AcDb2dVertex
 10
32.17047389603724
 20
90.38690318920884
 30
0.0
  0
VERTEX
  5
229
330
222
100
AcDbEntity
  8
\U+30EC\U+30A4\U+30E4\U+30FC 4
 62
     7
420
 16777215
370
    15
100
AcDbVertex
100
AcDb2dVertex
 10
32.65692137855452
 20
90.26839190451624
 30
0.0
  0
VERTEX
  5
22A
330
222
100
AcDbEntity
  8
\U+30EC\U+30A4\U+30E4\U+30FC 4
 62
     7
420
 16777215
370
    15
100
AcDbVertex
100
AcDb2dVertex
 10
33.1392347464895
 20
90.06995440456585
 30
0.0
  0
VERTEX
  5
22B
330
222
100
AcDbEntity
  8
\U+30EC\U+30A4\U+30E4\U+30FC 4
 62
     7
420
 16777215
370
    15
100
AcDbVertex
100
AcDb2dVertex
 10
33.60501165609528
 20
89.79985891852226
 30
0.0
  0
VERTEX
  5
22C
330
222
100
AcDbEntity
  8
\U+30EC\U+30A4\U+30E4\U+30FC 4
 62
     7
420
 16777215
370
    15
100
AcDbVertex
100
AcDb2dVertex
 10
34.04460584001315
 20
89.46361759916188
 30
0.0
  0
VERTEX
  5
22D
330
222
100
AcDbEntity
  8
\U+30EC\U+30A4\U+30E4\U+30FC 4
 62
     7
420
 16777215
370
    15
100
AcDbVertex
100
AcDb2dVertex
 10
34.44561495449624
 20
89.0722547520375
 30
0.0
  0
VERTEX
  5
22E
330
222
100
AcDbEntity
  8
\U+30EC\U+30A4\U+30E4\U+30FC 4
 62
     7
420
 16777215
370
    15
100
AcDbVertex
100
AcDb2dVertex
 10
34.79563665579762
 20
88.63403860631372
 30
0.0
  0
VERTEX
  5
22F
330
222
100
AcDbEntity
  8
\U+30EC\U+30A4\U+30E4\U+30FC 4
 62
     7
420
 16777215
370
    15
100
AcDbVertex
100
AcDb2dVertex
 10
35.08778075294681
 20
88.16274954393154
 30
0.0
  0
VERTEX
  5
230
330
222
100
AcDbEntity
  8
\U+30EC\U+30A4\U+30E4\U+30FC 4
 62
     7
420
 16777215
370
    15
100
AcDbVertex
100
AcDb2dVertex
 10
35.31377901677919
 20
87.66665579405556
 30
0.0
  0
VERTEX
  5
231
330
222
100
AcDbEntity
  8
\U+30EC\U+30A4\U+30E4\U+30FC 4
 62
     7
420
 16777215
370
    15
100
AcDbVertex
100
AcDb2dVertex
 10
35.46811929451839
 20
87.15953773862678
 30
0.0
  0
VERTEX
  5
232
330
222
100
AcDbEntity
  8
\U+30EC\U+30A4\U+30E4\U+30FC 4
 62
     7
420
 16777215
370
    15
100
AcDbVertex
100
AcDb2dVertex
 10
35.54528943338799
 20
86.65793183597441
 30
0.0
  0
VERTEX
  5
233
330
222
100
AcDbEntity
  8
\U+30EC\U+30A4\U+30E4\U+30FC 4
 62
     7
420
 16777215
370
    15
100
AcDbVertex
100
AcDb2dVertex
 10
35.54528943338799
 20
86.17286239165124
 30
0.0
  0
VERTEX
  5
234
330
222
100
AcDbEntity
  8
\U+30EC\U+30A4\U+30E4\U+30FC 4
 62
     7
420
 16777215
370
    15
100
AcDbVertex
100
AcDb2dVertex
 10
35.46811929451839
 20
85.71535371121006
 30
0.0
  0
VERTEX
  5
235
330
222
100
AcDbEntity
  8
\U+30EC\U+30A4\U+30E4\U+30FC 4
 62
     7
420
 16777215
370
    15
100
AcDbVertex
100
AcDb2dVertex
 10
35.31377901677919
 20
85.29918617659187
 30
0.0
  0
VERTEX
  5
236
330
222
100
AcDbEntity
  8
\U+30EC\U+30A4\U+30E4\U+30FC 4
 62
     7
420
 16777215
370
    15
100
AcDbVertex
100
AcDb2dVertex
 10
35.08778075294681
 20
84.93262801696129
 30
0.0
  0
VERTEX
  5
237
330
222
100
AcDbEntity
  8
\U+30EC\U+30A4\U+30E4\U+30FC 4
 62
     7
420
 16777215
370
    15
100
AcDbVertex
100
AcDb2dVertex
 10
34.80803899954452
 20
84.6404839198121
 30
0.0
  0
SEQEND
  5
238
330
222
100
AcDbEntity
  8
\U+30EC\U+30A4\U+30E4\U+30FC 4
370
    15
  0
ENDBLK
  5
221
330
21E
100
AcDbEntity
  8
0
100
AcDbBlockEnd
  0
BLOCK
  5
23B
330
239
100
AcDbEntity
  8
0
100
AcDbBlockBegin
  2
block 58
 70
     0
 71
     0
 10
0.0
 20
0.0
 30
0.0
  3
block 58
  1

  0
POLYLINE
  5
23D
330
239
100
AcDbEntity
  8
\U+30EC\U+30A4\U+30E4\U+30FC 4
 62
     7
420
 16777215
370
     9
100
AcDb2dPolyline
 66
     1
 10
0.0
 20
0.0
 30
0.0
  0
VERTEX
  5
23E
330
23D
100
AcDbEntity
  8
\U+30EC\U+30A4\U+30E4\U+30FC 4
 62
     7
420
 16777215
370
     9
100
AcDbVertex
100
AcDb2dVertex
 10
29.84572346259066
 20
82.28128253151301
 30
0.0
  0
VERTEX
  5
23F
330
23D
100
AcDbEntity
  8
\U+30EC\U+30A4\U+30E4\U+30FC 4
 62
     7
420
 16777215
370
     9
100
AcDbVertex
100
AcDb2dVertex
 10
28.72400037259331
 20
82.6064995453206
 30
0.0
  0
SEQEND
  5
240
330
23D
100
AcDbEntity
  8
\U+30EC\U+30A4\U+30E4\U+30FC 4
370
     9
  0
ENDBLK
  5
23C
330
239
100
AcDbEntity
  8
0
100
AcDbBlockEnd
  0
BLOCK
  5
243
330
241
100
AcDbEntity
  8
0
100
AcDbBlockBegin
  2
block 59
 70
     0
 71
     0
 10
0.0
 20
0.0
 30
0.0
  3
block 59
  1

  0
POLYLINE
  5
245
330
241
100
AcDbEntity
  8
\U+30EC\U+30A4\U+30E4\U+30FC 4
 62
     7
420
 16777215
370
     9
100
AcDb2dPolyline
 66
     1
 10
0.0
 20
0.0
 30
0.0
  0
VERTEX
  5
246
330
245
100
AcDbEntity
  8
\U+30EC\U+30A4\U+30E4\U+30FC 4
 62
     7
420
 16777215
370
     9
100
AcDbVertex
100
AcDb2dVertex
 10
29.84572346259066
 20
83.01715492716238
 30
0.0
  0
VERTEX
  5
247
330
245
100
AcDbEntity
  8
\U+30EC\U+30A4\U+30E4\U+30FC 4
 62
     7
420
 16777215
370
     9
100
AcDbVertex
100
AcDb2dVertex
 10
29.84572346259066
 20
82.28128253151301
 30
0.0
  0
SEQEND
  5
248
330
245
100
AcDbEntity
  8
\U+30EC\U+30A4\U+30E4\U+30FC 4
370
     9
  0
ENDBLK
  5
244
330
241
100
AcDbEntity
  8
0
100
AcDbBlockEnd
  0
BLOCK
  5
24B
330
249
100
AcDbEntity
  8
0
100
AcDbBlockBegin
  2
block 60
 70
     0
 71
     0
 10
0.0
 20
0.0
 30
0.0
  3
block 60
  1

  0
POLYLINE
  5
24D
330
249
100
AcDbEntity
  8
\U+30EC\U+30A4\U+30E4\U+30FC 4
 62
     7
420
 16777215
370
     9
100
AcDb2dPolyline
 66
     1
 10
0.0
 20
0.0
 30
0.0
  0
VERTEX
  5
24E
330
24D
100
AcDbEntity
  8
\U+30EC\U+30A4\U+30E4\U+30FC 4
 62
     7
420
 16777215
370
     9
100
AcDbVertex
100
AcDb2dVertex
 10
28.72400037259331
 20
83.34237194096997
 30
0.0
  0
VERTEX
  5
24F
330
24D
100
AcDbEntity
  8
\U+30EC\U+30A4\U+30E4\U+30FC 4
 62
     7
420
 16777215
370
     9
100
AcDbVertex
100
AcDb2dVertex
 10
29.84572346259066
 20
83.01715492716238
 30
0.0
  0
SEQEND
  5
250
330
24D
100
AcDbEntity
  8
\U+30EC\U+30A4\U+30E4\U+30FC 4
370
     9
  0
ENDBLK
  5
24C
330
249
100
AcDbEntity
  8
0
100
AcDbBlockEnd
  0
BLOCK
  5
253
330
251
100
AcDbEntity
  8
0
100
AcDbBlockBegin
  2
block 61
 70
     0
 71
     0
 10
0.0
 20
0.0
 30
0.0
  3
block 61
  1

  0
POLYLINE
  5
255
330
251
100
AcDbEntity
  8
\U+30EC\U+30A4\U+30E4\U+30FC 4
 62
     7
420
 16777215
370
     9
100
AcDb2dPolyline
 66
     1
 10
0.0
 20
0.0
 30
0.0
  0
VERTEX
  5
256
330
255
100
AcDbEntity
  8
\U+30EC\U+30A4\U+30E4\U+30FC 4
 62
     7
420
 16777215
370
     9
100
AcDbVertex
100
AcDb2dVertex
 10
28.72400037259331
 20
82.6064995453206
 30
0.0
  0
VERTEX
  5
257
330
255
100
AcDbEntity
  8
\U+30EC\U+30A4\U+30E4\U+30FC 4
 62
     7
420
 16777215
370
     9
100
AcDbVertex
100
AcDb2dVertex
 10
28.72400037259331
 20
83.34237194096997
 30
0.0
  0
SEQEND
  5
258
330
255
100
AcDbEntity
  8
\U+30EC\U+30A4\U+30E4\U+30FC 4
370
     9
  0
ENDBLK
  5
254
330
251
100
AcDbEntity
  8
0
100
AcDbBlockEnd
  0
BLOCK
  5
25B
330
259
100
AcDbEntity
  8
0
100
AcDbBlockBegin
  2
block 62
 70
     0
 71
     0
 10
0.0
 20
0.0
 30
0.0
  3
block 62
  1

  0
SPLINE
  5
25D
330
259
100
AcDbEntity
  8
\U+30EC\U+30A4\U+30E4\U+30FC 4
 62
     7
420
 16777215
370
     9
100
AcDbSpline
210
0.0
220
0.0
230
1.0
 70
     8
 71
     3
 72
     8
 73
     4
 74
     0
 42
0.0000000001
 43
0.0000000001
 40
0.0
 40
0.0
 40
0.0
 40
0.0
 40
1.0
 40
1.0
 40
1.0
 40
1.0
 10
28.58619655318331
 20
83.47190753121536
 30
0.0
 10
28.58344047679511
 20
83.46363930205077
 30
0.0
 10
28.58068440040691
 20
83.45537107288617
 30
0.0
 10
28.58068440040691
 20
83.44434676733336
 30
0.0
  0
ENDBLK
  5
25C
330
259
100
AcDbEntity
  8
0
100
AcDbBlockEnd
  0
BLOCK
  5
260
330
25E
100
AcDbEntity
  8
0
100
AcDbBlockBegin
  2
block 63
 70
     0
 71
     0
 10
0.0
 20
0.0
 30
0.0
  3
block 63
  1

  0
SPLINE
  5
262
330
25E
100
AcDbEntity
  8
\U+30EC\U+30A4\U+30E4\U+30FC 4
 62
     7
420
 16777215
370
     9
100
AcDbSpline
210
0.0
220
0.0
230
1.0
 70
     8
 71
     3
 72
     8
 73
     4
 74
     0
 42
0.0000000001
 43
0.0000000001
 40
0.0
 40
0.0
 40
0.0
 40
0.0
 40
1.0
 40
1.0
 40
1.0
 40
1.0
 10
29.88017441744315
 20
82.09386933711542
 30
0.0
 10
29.89533283757825
 20
82.09111326072723
 30
0.0
 10
29.91186929590745
 20
82.08835718433903
 30
0.0
 10
29.92564967784845
 20
82.09111326072723
 30
0.0
  0
ENDBLK
  5
261
330
25E
100
AcDbEntity
  8
0
100
AcDbBlockEnd
  0
BLOCK
  5
265
330
263
100
AcDbEntity
  8
0
100
AcDbBlockBegin
  2
block 64
 70
     0
 71
     0
 10
0.0
 20
0.0
 30
0.0
  3
block 64
  1

  0
POLYLINE
  5
267
330
263
100
AcDbEntity
  8
\U+30EC\U+30A4\U+30E4\U+30FC 4
 62
     7
420
 16777215
370
     9
100
AcDb2dPolyline
 66
     1
 10
0.0
 20
0.0
 30
0.0
  0
VERTEX
  5
268
330
267
100
AcDbEntity
  8
\U+30EC\U+30A4\U+30E4\U+30FC 4
 62
     7
420
 16777215
370
     9
100
AcDbVertex
100
AcDb2dVertex
 10
28.68954941774081
 20
82.4383788856404
 30
0.0
  0
VERTEX
  5
269
330
267
100
AcDbEntity
  8
\U+30EC\U+30A4\U+30E4\U+30FC 4
 62
     7
420
 16777215
370
     9
100
AcDbVertex
100
AcDb2dVertex
 10
29.88017441744315
 20
82.09386933711542
 30
0.0
  0
SEQEND
  5
26A
330
267
100
AcDbEntity
  8
\U+30EC\U+30A4\U+30E4\U+30FC 4
370
     9
  0
ENDBLK
  5
266
330
263
100
AcDbEntity
  8
0
100
AcDbBlockEnd
  0
BLOCK
  5
26D
330
26B
100
AcDbEntity
  8
0
100
AcDbBlockBegin
  2
block 65
 70
     0
 71
     0
 10
0.0
 20
0.0
 30
0.0
  3
block 65
  1

  0
SPLINE
  5
26F
330
26B
100
AcDbEntity
  8
\U+30EC\U+30A4\U+30E4\U+30FC 4
 62
     7
420
 16777215
370
     9
100
AcDbSpline
210
0.0
220
0.0
230
1.0
 70
     8
 71
     3
 72
     8
 73
     4
 74
     0
 42
0.0000000001
 43
0.0000000001
 40
0.0
 40
0.0
 40
0.0
 40
0.0
 40
1.0
 40
1.0
 40
1.0
 40
1.0
 10
28.58068440040691
 20
82.57893878143861
 30
0.0
 10
28.58068440040691
 20
82.5183051008982
 30
0.0
 10
28.63029377539451
 20
82.4549153439696
 30
0.0
 10
28.68954941774081
 20
82.4383788856404
 30
0.0
  0
ENDBLK
  5
26E
330
26B
100
AcDbEntity
  8
0
100
AcDbBlockEnd
  0
BLOCK
  5
272
330
270
100
AcDbEntity
  8
0
100
AcDbBlockBegin
  2
block 66
 70
     0
 71
     0
 10
0.0
 20
0.0
 30
0.0
  3
block 66
  1

  0
POLYLINE
  5
274
330
270
100
AcDbEntity
  8
\U+30EC\U+30A4\U+30E4\U+30FC 4
 62
     7
420
 16777215
370
     9
100
AcDb2dPolyline
 66
     1
 10
0.0
 20
0.0
 30
0.0
  0
VERTEX
  5
275
330
274
100
AcDbEntity
  8
\U+30EC\U+30A4\U+30E4\U+30FC 4
 62
     7
420
 16777215
370
     9
100
AcDbVertex
100
AcDb2dVertex
 10
28.58068440040691
 20
83.44434676733336
 30
0.0
  0
VERTEX
  5
276
330
274
100
AcDbEntity
  8
\U+30EC\U+30A4\U+30E4\U+30FC 4
 62
     7
420
 16777215
370
     9
100
AcDbVertex
100
AcDb2dVertex
 10
28.58068440040691
 20
82.57893878143861
 30
0.0
  0
SEQEND
  5
277
330
274
100
AcDbEntity
  8
\U+30EC\U+30A4\U+30E4\U+30FC 4
370
     9
  0
ENDBLK
  5
273
330
270
100
AcDbEntity
  8
0
100
AcDbBlockEnd
  0
BLOCK
  5
27A
330
278
100
AcDbEntity
  8
0
100
AcDbBlockBegin
  2
block 67
 70
     0
 71
     0
 10
0.0
 20
0.0
 30
0.0
  3
block 67
  1

  0
POLYLINE
  5
27C
330
278
100
AcDbEntity
  8
\U+30EC\U+30A4\U+30E4\U+30FC 4
 62
     7
420
 16777215
370
     9
100
AcDb2dPolyline
 66
     1
 10
0.0
 20
0.0
 30
0.0
  0
VERTEX
  5
27D
330
27C
100
AcDbEntity
  8
\U+30EC\U+30A4\U+30E4\U+30FC 4
 62
     7
420
 16777215
370
     9
100
AcDbVertex
100
AcDb2dVertex
 10
28.72400037259331
 20
82.6064995453206
 30
0.0
  0
VERTEX
  5
27E
330
27C
100
AcDbEntity
  8
\U+30EC\U+30A4\U+30E4\U+30FC 4
 62
     7
420
 16777215
370
     9
100
AcDbVertex
100
AcDb2dVertex
 10
29.30415445230938
 20
83.17425128128977
 30
0.0
  0
SEQEND
  5
27F
330
27C
100
AcDbEntity
  8
\U+30EC\U+30A4\U+30E4\U+30FC 4
370
     9
  0
ENDBLK
  5
27B
330
278
100
AcDbEntity
  8
0
100
AcDbBlockEnd
  0
BLOCK
  5
282
330
280
100
AcDbEntity
  8
0
100
AcDbBlockBegin
  2
block 68
 70
     0
 71
     0
 10
0.0
 20
0.0
 30
0.0
  3
block 68
  1

  0
POLYLINE
  5
284
330
280
100
AcDbEntity
  8
\U+30EC\U+30A4\U+30E4\U+30FC 4
 62
     7
420
 16777215
370
     9
100
AcDb2dPolyline
 66
     1
 10
0.0
 20
0.0
 30
0.0
  0
VERTEX
  5
285
330
284
100
AcDbEntity
  8
\U+30EC\U+30A4\U+30E4\U+30FC 4
 62
     7
420
 16777215
370
     9
100
AcDbVertex
100
AcDb2dVertex
 10
29.81954073690276
 20
82.03874780935143
 30
0.0
  0
VERTEX
  5
286
330
284
100
AcDbEntity
  8
\U+30EC\U+30A4\U+30E4\U+30FC 4
 62
     7
420
 16777215
370
     9
100
AcDbVertex
100
AcDb2dVertex
 10
29.88017441744315
 20
82.09386933711542
 30
0.0
  0
SEQEND
  5
287
330
284
100
AcDbEntity
  8
\U+30EC\U+30A4\U+30E4\U+30FC 4
370
     9
  0
ENDBLK
  5
283
330
280
100
AcDbEntity
  8
0
100
AcDbBlockEnd
  0
BLOCK
  5
28A
330
288
100
AcDbEntity
  8
0
100
AcDbBlockBegin
  2
block 69
 70
     0
 71
     0
 10
0.0
 20
0.0
 30
0.0
  3
block 69
  1

  0
POLYLINE
  5
28C
330
288
100
AcDbEntity
  8
\U+30EC\U+30A4\U+30E4\U+30FC 4
 62
     7
420
 16777215
370
     9
100
AcDb2dPolyline
 66
     1
 10
0.0
 20
0.0
 30
0.0
  0
VERTEX
  5
28D
330
28C
100
AcDbEntity
  8
\U+30EC\U+30A4\U+30E4\U+30FC 4
 62
     7
420
 16777215
370
     9
100
AcDbVertex
100
AcDb2dVertex
 10
28.58068440040691
 20
83.44434676733336
 30
0.0
  0
VERTEX
  5
28E
330
28C
100
AcDbEntity
  8
\U+30EC\U+30A4\U+30E4\U+30FC 4
 62
     7
420
 16777215
370
     9
100
AcDbVertex
100
AcDb2dVertex
 10
28.51729464347832
 20
83.39198131595757
 30
0.0
  0
SEQEND
  5
28F
330
28C
100
AcDbEntity
  8
\U+30EC\U+30A4\U+30E4\U+30FC 4
370
     9
  0
ENDBLK
  5
28B
330
288
100
AcDbEntity
  8
0
100
AcDbBlockEnd
  0
BLOCK
  5
292
330
290
100
AcDbEntity
  8
0
100
AcDbBlockBegin
  2
block 70
 70
     0
 71
     0
 10
0.0
 20
0.0
 30
0.0
  3
block 70
  1

  0
POLYLINE
  5
294
330
290
100
AcDbEntity
  8
\U+30EC\U+30A4\U+30E4\U+30FC 4
 62
     7
420
 16777215
370
     9
100
AcDb2dPolyline
 66
     1
 10
0.0
 20
0.0
 30
0.0
  0
VERTEX
  5
295
330
294
100
AcDbEntity
  8
\U+30EC\U+30A4\U+30E4\U+30FC 4
 62
     7
420
 16777215
370
     9
100
AcDbVertex
100
AcDb2dVertex
 10
28.68954941774081
 20
82.4383788856404
 30
0.0
  0
VERTEX
  5
296
330
294
100
AcDbEntity
  8
\U+30EC\U+30A4\U+30E4\U+30FC 4
 62
     7
420
 16777215
370
     9
100
AcDbVertex
100
AcDb2dVertex
 10
28.62478162261811
 20
82.38325735787642
 30
0.0
  0
SEQEND
  5
297
330
294
100
AcDbEntity
  8
\U+30EC\U+30A4\U+30E4\U+30FC 4
370
     9
  0
ENDBLK
  5
293
330
290
100
AcDbEntity
  8
0
100
AcDbBlockEnd
  0
BLOCK
  5
29A
330
298
100
AcDbEntity
  8
0
100
AcDbBlockBegin
  2
block 71
 70
     0
 71
     0
 10
0.0
 20
0.0
 30
0.0
  3
block 71
  1

  0
POLYLINE
  5
29C
330
298
100
AcDbEntity
  8
\U+30EC\U+30A4\U+30E4\U+30FC 4
 62
     7
420
 16777215
370
     9
100
AcDb2dPolyline
 66
     1
 10
0.0
 20
0.0
 30
0.0
  0
VERTEX
  5
29D
330
29C
100
AcDbEntity
  8
\U+30EC\U+30A4\U+30E4\U+30FC 4
 62
     7
420
 16777215
370
     9
100
AcDbVertex
100
AcDb2dVertex
 10
28.99547389683099
 20
83.15495874657238
 30
0.0
  0
VERTEX
  5
29E
330
29C
100
AcDbEntity
  8
\U+30EC\U+30A4\U+30E4\U+30FC 4
 62
     7
420
 16777215
370
     9
100
AcDbVertex
100
AcDb2dVertex
 10
29.10158283777669
 20
83.23212888544197
 30
0.0
  0
SEQEND
  5
29F
330
29C
100
AcDbEntity
  8
\U+30EC\U+30A4\U+30E4\U+30FC 4
370
     9
  0
ENDBLK
  5
29B
330
298
100
AcDbEntity
  8
0
100
AcDbBlockEnd
  0
BLOCK
  5
2A2
330
2A0
100
AcDbEntity
  8
0
100
AcDbBlockBegin
  2
block 72
 70
     0
 71
     0
 10
0.0
 20
0.0
 30
0.0
  3
block 72
  1

  0
POLYLINE
  5
2A4
330
2A0
100
AcDbEntity
  8
\U+30EC\U+30A4\U+30E4\U+30FC 4
 62
     7
420
 16777215
370
     9
100
AcDb2dPolyline
 66
     1
 10
0.0
 20
0.0
 30
0.0
  0
VERTEX
  5
2A5
330
2A4
100
AcDbEntity
  8
\U+30EC\U+30A4\U+30E4\U+30FC 4
 62
     7
420
 16777215
370
     9
100
AcDbVertex
100
AcDb2dVertex
 10
28.51729464347832
 20
82.5210611772864
 30
0.0
  0
VERTEX
  5
2A6
330
2A4
100
AcDbEntity
  8
\U+30EC\U+30A4\U+30E4\U+30FC 4
 62
     7
420
 16777215
370
     9
100
AcDbVertex
100
AcDb2dVertex
 10
28.58068440040691
 20
82.57893878143861
 30
0.0
  0
SEQEND
  5
2A7
330
2A4
100
AcDbEntity
  8
\U+30EC\U+30A4\U+30E4\U+30FC 4
370
     9
  0
ENDBLK
  5
2A3
330
2A0
100
AcDbEntity
  8
0
100
AcDbBlockEnd
  0
BLOCK
  5
2AA
330
2A8
100
AcDbEntity
  8
0
100
AcDbBlockBegin
  2
block 73
 70
     0
 71
     0
 10
0.0
 20
0.0
 30
0.0
  3
block 73
  1

  0
SPLINE
  5
2AC
330
2A8
100
AcDbEntity
  8
\U+30EC\U+30A4\U+30E4\U+30FC 4
 62
     7
420
 16777215
370
     9
100
AcDbSpline
210
0.0
220
0.0
230
1.0
 70
     8
 71
     3
 72
     8
 73
     4
 74
     0
 42
0.0000000001
 43
0.0000000001
 40
0.0
 40
0.0
 40
0.0
 40
0.0
 40
1.0
 40
1.0
 40
1.0
 40
1.0
 10
28.9279500253201
 20
83.21283635072457
 30
0.0
 10
28.9279500253201
 20
83.15495874657238
 30
0.0
 10
28.9582668655903
 20
83.12739798269038
 30
0.0
 10
28.99547389683099
 20
83.15495874657238
 30
0.0
  0
ENDBLK
  5
2AB
330
2A8
100
AcDbEntity
  8
0
100
AcDbBlockEnd
  0
BLOCK
  5
2AF
330
2AD
100
AcDbEntity
  8
0
100
AcDbBlockBegin
  2
block 74
 70
     0
 71
     0
 10
0.0
 20
0.0
 30
0.0
  3
block 74
  1

  0
POLYLINE
  5
2B1
330
2AD
100
AcDbEntity
  8
\U+30EC\U+30A4\U+30E4\U+30FC 4
 62
     7
420
 16777215
370
     9
100
AcDb2dPolyline
 66
     1
 10
0.0
 20
0.0
 30
0.0
  0
VERTEX
  5
2B2
330
2B1
100
AcDbEntity
  8
\U+30EC\U+30A4\U+30E4\U+30FC 4
 62
     7
420
 16777215
370
     9
100
AcDbVertex
100
AcDb2dVertex
 10
28.9279500253201
 20
83.21283635072457
 30
0.0
  0
VERTEX
  5
2B3
330
2B1
100
AcDbEntity
  8
\U+30EC\U+30A4\U+30E4\U+30FC 4
 62
     7
420
 16777215
370
     9
100
AcDbVertex
100
AcDb2dVertex
 10
28.9279500253201
 20
83.28173826042956
 30
0.0
  0
SEQEND
  5
2B4
330
2B1
100
AcDbEntity
  8
\U+30EC\U+30A4\U+30E4\U+30FC 4
370
     9
  0
ENDBLK
  5
2B0
330
2AD
100
AcDbEntity
  8
0
100
AcDbBlockEnd
  0
BLOCK
  5
2B7
330
2B5
100
AcDbEntity
  8
0
100
AcDbBlockBegin
  2
block 75
 70
     0
 71
     0
 10
0.0
 20
0.0
 30
0.0
  3
block 75
  1

  0
POLYLINE
  5
2B9
330
2B5
100
AcDbEntity
  8
\U+30EC\U+30A4\U+30E4\U+30FC 4
 62
     7
420
 16777215
370
    15
100
AcDb2dPolyline
 66
     1
 10
0.0
 20
0.0
 30
0.0
  0
VERTEX
  5
2BA
330
2B9
100
AcDbEntity
  8
\U+30EC\U+30A4\U+30E4\U+30FC 4
 62
     7
420
 16777215
370
    15
100
AcDbVertex
100
AcDb2dVertex
 10
29.72170002512166
 20
83.11912975352578
 30
0.0
  0
VERTEX
  5
2BB
330
2B9
100
AcDbEntity
  8
\U+30EC\U+30A4\U+30E4\U+30FC 4
 62
     7
420
 16777215
370
    15
100
AcDbVertex
100
AcDb2dVertex
 10
29.77682155288566
 20
83.11637367713757
 30
0.0
  0
VERTEX
  5
2BC
330
2B9
100
AcDbEntity
  8
\U+30EC\U+30A4\U+30E4\U+30FC 4
 62
     7
420
 16777215
370
    15
100
AcDbVertex
100
AcDb2dVertex
 10
29.82091877509686
 20
83.13291013546677
 30
0.0
  0
VERTEX
  5
2BD
330
2B9
100
AcDbEntity
  8
\U+30EC\U+30A4\U+30E4\U+30FC 4
 62
     7
420
 16777215
370
    15
100
AcDbVertex
100
AcDb2dVertex
 10
29.85261365356115
 20
83.16873912851338
 30
0.0
  0
VERTEX
  5
2BE
330
2B9
100
AcDbEntity
  8
\U+30EC\U+30A4\U+30E4\U+30FC 4
 62
     7
420
 16777215
370
    15
100
AcDbVertex
100
AcDb2dVertex
 10
29.86225992091985
 20
83.22110457988917
 30
0.0
  0
VERTEX
  5
2BF
330
2B9
100
AcDbEntity
  8
\U+30EC\U+30A4\U+30E4\U+30FC 4
 62
     7
420
 16777215
370
    15
100
AcDbVertex
100
AcDb2dVertex
 10
29.85261365356115
 20
83.27622610765317
 30
0.0
  0
VERTEX
  5
2C0
330
2B9
100
AcDbEntity
  8
\U+30EC\U+30A4\U+30E4\U+30FC 4
 62
     7
420
 16777215
370
    15
100
AcDbVertex
100
AcDb2dVertex
 10
29.82091877509686
 20
83.33134763541716
 30
0.0
  0
VERTEX
  5
2C1
330
2B9
100
AcDbEntity
  8
\U+30EC\U+30A4\U+30E4\U+30FC 4
 62
     7
420
 16777215
370
    15
100
AcDbVertex
100
AcDb2dVertex
 10
29.77682155288566
 20
83.37544485762837
 30
0.0
  0
VERTEX
  5
2C2
330
2B9
100
AcDbEntity
  8
\U+30EC\U+30A4\U+30E4\U+30FC 4
 62
     7
420
 16777215
370
    15
100
AcDbVertex
100
AcDb2dVertex
 10
29.72170002512166
 20
83.40300562151036
 30
0.0
  0
VERTEX
  5
2C3
330
2B9
100
AcDbEntity
  8
\U+30EC\U+30A4\U+30E4\U+30FC 4
 62
     7
420
 16777215
370
    15
100
AcDbVertex
100
AcDb2dVertex
 10
29.66795653555176
 20
83.40576169789857
 30
0.0
  0
VERTEX
  5
2C4
330
2B9
100
AcDbEntity
  8
\U+30EC\U+30A4\U+30E4\U+30FC 4
 62
     7
420
 16777215
370
    15
100
AcDbVertex
100
AcDb2dVertex
 10
29.62248127514647
 20
83.38922523956937
 30
0.0
  0
VERTEX
  5
2C5
330
2B9
100
AcDbEntity
  8
\U+30EC\U+30A4\U+30E4\U+30FC 4
 62
     7
420
 16777215
370
    15
100
AcDbVertex
100
AcDb2dVertex
 10
29.59216443487627
 20
83.35339624652276
 30
0.0
  0
VERTEX
  5
2C6
330
2B9
100
AcDbEntity
  8
\U+30EC\U+30A4\U+30E4\U+30FC 4
 62
     7
420
 16777215
370
    15
100
AcDbVertex
100
AcDb2dVertex
 10
29.58114012932347
 20
83.30103079514697
 30
0.0
  0
VERTEX
  5
2C7
330
2B9
100
AcDbEntity
  8
\U+30EC\U+30A4\U+30E4\U+30FC 4
 62
     7
420
 16777215
370
    15
100
AcDbVertex
100
AcDb2dVertex
 10
29.59216443487627
 20
83.24590926738297
 30
0.0
  0
VERTEX
  5
2C8
330
2B9
100
AcDbEntity
  8
\U+30EC\U+30A4\U+30E4\U+30FC 4
 62
     7
420
 16777215
370
    15
100
AcDbVertex
100
AcDb2dVertex
 10
29.62248127514647
 20
83.19078773961897
 30
0.0
  0
VERTEX
  5
2C9
330
2B9
100
AcDbEntity
  8
\U+30EC\U+30A4\U+30E4\U+30FC 4
 62
     7
420
 16777215
370
    15
100
AcDbVertex
100
AcDb2dVertex
 10
29.66795653555176
 20
83.14669051740778
 30
0.0
  0
VERTEX
  5
2CA
330
2B9
100
AcDbEntity
  8
\U+30EC\U+30A4\U+30E4\U+30FC 4
 62
     7
420
 16777215
370
    15
100
AcDbVertex
100
AcDb2dVertex
 10
29.72170002512166
 20
83.11912975352578
 30
0.0
  0
SEQEND
  5
2CB
330
2B9
100
AcDbEntity
  8
\U+30EC\U+30A4\U+30E4\U+30FC 4
370
    15
  0
ENDBLK
  5
2B8
330
2B5
100
AcDbEntity
  8
0
100
AcDbBlockEnd
  0
BLOCK
  5
2CE
330
2CC
100
AcDbEntity
  8
0
100
AcDbBlockBegin
  2
block 76
 70
     0
 71
     0
 10
0.0
 20
0.0
 30
0.0
  3
block 76
  1

  0
POLYLINE
  5
2D0
330
2CC
100
AcDbEntity
  8
\U+30EC\U+30A4\U+30E4\U+30FC 4
 62
     7
420
 16777215
370
    15
100
AcDb2dPolyline
 66
     1
 10
0.0
 20
0.0
 30
0.0
  0
VERTEX
  5
2D1
330
2D0
100
AcDbEntity
  8
\U+30EC\U+30A4\U+30E4\U+30FC 4
 62
     7
420
 16777215
370
    15
100
AcDbVertex
100
AcDb2dVertex
 10
26.97251382789229
 20
83.91287975332735
 30
0.0
  0
VERTEX
  5
2D2
330
2D0
100
AcDbEntity
  8
\U+30EC\U+30A4\U+30E4\U+30FC 4
 62
     7
420
 16777215
370
    15
100
AcDbVertex
100
AcDb2dVertex
 10
27.02625731746219
 20
83.91012367693914
 30
0.0
  0
VERTEX
  5
2D3
330
2D0
100
AcDbEntity
  8
\U+30EC\U+30A4\U+30E4\U+30FC 4
 62
     7
420
 16777215
370
    15
100
AcDbVertex
100
AcDb2dVertex
 10
27.07173257786749
 20
83.92666013526834
 30
0.0
  0
VERTEX
  5
2D4
330
2D0
100
AcDbEntity
  8
\U+30EC\U+30A4\U+30E4\U+30FC 4
 62
     7
420
 16777215
370
    15
100
AcDbVertex
100
AcDb2dVertex
 10
27.10204941813768
 20
83.96248912831494
 30
0.0
  0
VERTEX
  5
2D5
330
2D0
100
AcDbEntity
  8
\U+30EC\U+30A4\U+30E4\U+30FC 4
 62
     7
420
 16777215
370
    15
100
AcDbVertex
100
AcDb2dVertex
 10
27.11307372369048
 20
84.01485457969073
 30
0.0
  0
VERTEX
  5
2D6
330
2D0
100
AcDbEntity
  8
\U+30EC\U+30A4\U+30E4\U+30FC 4
 62
     7
420
 16777215
370
    15
100
AcDbVertex
100
AcDb2dVertex
 10
27.10204941813768
 20
84.06997610745474
 30
0.0
  0
VERTEX
  5
2D7
330
2D0
100
AcDbEntity
  8
\U+30EC\U+30A4\U+30E4\U+30FC 4
 62
     7
420
 16777215
370
    15
100
AcDbVertex
100
AcDb2dVertex
 10
27.07173257786749
 20
84.12509763521874
 30
0.0
  0
VERTEX
  5
2D8
330
2D0
100
AcDbEntity
  8
\U+30EC\U+30A4\U+30E4\U+30FC 4
 62
     7
420
 16777215
370
    15
100
AcDbVertex
100
AcDb2dVertex
 10
27.02625731746219
 20
84.16919485742993
 30
0.0
  0
VERTEX
  5
2D9
330
2D0
100
AcDbEntity
  8
\U+30EC\U+30A4\U+30E4\U+30FC 4
 62
     7
420
 16777215
370
    15
100
AcDbVertex
100
AcDb2dVertex
 10
26.97251382789229
 20
84.19675562131192
 30
0.0
  0
VERTEX
  5
2DA
330
2D0
100
AcDbEntity
  8
\U+30EC\U+30A4\U+30E4\U+30FC 4
 62
     7
420
 16777215
370
    15
100
AcDbVertex
100
AcDb2dVertex
 10
26.91877033832239
 20
84.19951169770013
 30
0.0
  0
VERTEX
  5
2DB
330
2D0
100
AcDbEntity
  8
\U+30EC\U+30A4\U+30E4\U+30FC 4
 62
     7
420
 16777215
370
    15
100
AcDbVertex
100
AcDb2dVertex
 10
26.8732950779171
 20
84.18297523937093
 30
0.0
  0
VERTEX
  5
2DC
330
2D0
100
AcDbEntity
  8
\U+30EC\U+30A4\U+30E4\U+30FC 4
 62
     7
420
 16777215
370
    15
100
AcDbVertex
100
AcDb2dVertex
 10
26.8416001994528
 20
84.14714624632433
 30
0.0
  0
VERTEX
  5
2DD
330
2D0
100
AcDbEntity
  8
\U+30EC\U+30A4\U+30E4\U+30FC 4
 62
     7
420
 16777215
370
    15
100
AcDbVertex
100
AcDb2dVertex
 10
26.83195393209409
 20
84.09478079494853
 30
0.0
  0
VERTEX
  5
2DE
330
2D0
100
AcDbEntity
  8
\U+30EC\U+30A4\U+30E4\U+30FC 4
 62
     7
420
 16777215
370
    15
100
AcDbVertex
100
AcDb2dVertex
 10
26.8416001994528
 20
84.03965926718453
 30
0.0
  0
VERTEX
  5
2DF
330
2D0
100
AcDbEntity
  8
\U+30EC\U+30A4\U+30E4\U+30FC 4
 62
     7
420
 16777215
370
    15
100
AcDbVertex
100
AcDb2dVertex
 10
26.8732950779171
 20
83.98453773942053
 30
0.0
  0
VERTEX
  5
2E0
330
2D0
100
AcDbEntity
  8
\U+30EC\U+30A4\U+30E4\U+30FC 4
 62
     7
420
 16777215
370
    15
100
AcDbVertex
100
AcDb2dVertex
 10
26.91877033832239
 20
83.94044051720934
 30
0.0
  0
VERTEX
  5
2E1
330
2D0
100
AcDbEntity
  8
\U+30EC\U+30A4\U+30E4\U+30FC 4
 62
     7
420
 16777215
370
    15
100
AcDbVertex
100
AcDb2dVertex
 10
26.97251382789229
 20
83.91287975332735
 30
0.0
  0
SEQEND
  5
2E2
330
2D0
100
AcDbEntity
  8
\U+30EC\U+30A4\U+30E4\U+30FC 4
370
    15
  0
ENDBLK
  5
2CF
330
2CC
100
AcDbEntity
  8
0
100
AcDbBlockEnd
  0
BLOCK
  5
2E5
330
2E3
100
AcDbEntity
  8
0
100
AcDbBlockBegin
  2
block 77
 70
     0
 71
     0
 10
0.0
 20
0.0
 30
0.0
  3
block 77
  1

  0
POLYLINE
  5
2E7
330
2E3
100
AcDbEntity
  8
\U+30EC\U+30A4\U+30E4\U+30FC 4
 62
     7
420
 16777215
370
    15
100
AcDb2dPolyline
 66
     1
 10
0.0
 20
0.0
 30
0.0
  0
VERTEX
  5
2E8
330
2E7
100
AcDbEntity
  8
\U+30EC\U+30A4\U+30E4\U+30FC 4
 62
     7
420
 16777215
370
    15
100
AcDbVertex
100
AcDb2dVertex
 10
27.30462103267037
 20
86.845345030372
 30
0.0
  0
VERTEX
  5
2E9
330
2E7
100
AcDbEntity
  8
\U+30EC\U+30A4\U+30E4\U+30FC 4
 62
     7
420
 16777215
370
    15
100
AcDbVertex
100
AcDb2dVertex
 10
27.57747259510216
 20
87.04378253032239
 30
0.0
  0
VERTEX
  5
2EA
330
2E7
100
AcDbEntity
  8
\U+30EC\U+30A4\U+30E4\U+30FC 4
 62
     7
420
 16777215
370
    15
100
AcDbVertex
100
AcDb2dVertex
 10
27.94265271653864
 20
87.20914711361438
 30
0.0
  0
VERTEX
  5
2EB
330
2E7
100
AcDbEntity
  8
\U+30EC\U+30A4\U+30E4\U+30FC 4
 62
     7
420
 16777215
370
    15
100
AcDbVertex
100
AcDb2dVertex
 10
28.34779594560402
 20
87.29458548164858
 30
0.0
  0
VERTEX
  5
2EC
330
2E7
100
AcDbEntity
  8
\U+30EC\U+30A4\U+30E4\U+30FC 4
 62
     7
420
 16777215
370
    15
100
AcDbVertex
100
AcDb2dVertex
 10
28.78187797674551
 20
87.30285371081318
 30
0.0
  0
VERTEX
  5
2ED
330
2E7
100
AcDbEntity
  8
\U+30EC\U+30A4\U+30E4\U+30FC 4
 62
     7
420
 16777215
370
    15
100
AcDbVertex
100
AcDb2dVertex
 10
29.23249646621618
 20
87.23119572471998
 30
0.0
  0
VERTEX
  5
2EE
330
2E7
100
AcDbEntity
  8
\U+30EC\U+30A4\U+30E4\U+30FC 4
 62
     7
420
 16777215
370
    15
100
AcDbVertex
100
AcDb2dVertex
 10
29.68587103207506
 20
87.079611523369
 30
0.0
  0
VERTEX
  5
2EF
330
2E7
100
AcDbEntity
  8
\U+30EC\U+30A4\U+30E4\U+30FC 4
 62
     7
420
 16777215
370
    15
100
AcDbVertex
100
AcDb2dVertex
 10
30.12959933057524
 20
86.8563693359248
 30
0.0
  0
VERTEX
  5
2F0
330
2E7
100
AcDbEntity
  8
\U+30EC\U+30A4\U+30E4\U+30FC 4
 62
     7
420
 16777215
370
    15
100
AcDbVertex
100
AcDb2dVertex
 10
30.55127901796982
 20
86.56422523877562
 30
0.0
  0
VERTEX
  5
2F1
330
2E7
100
AcDbEntity
  8
\U+30EC\U+30A4\U+30E4\U+30FC 4
 62
     7
420
 16777215
370
    15
100
AcDbVertex
100
AcDb2dVertex
 10
30.9385077505119
 20
86.21695961386243
 30
0.0
  0
VERTEX
  5
2F2
330
2E7
100
AcDbEntity
  8
\U+30EC\U+30A4\U+30E4\U+30FC 4
 62
     7
420
 16777215
370
    15
100
AcDbVertex
100
AcDb2dVertex
 10
31.27888318445459
 20
85.81732853757345
 30
0.0
  0
VERTEX
  5
2F3
330
2E7
100
AcDbEntity
  8
\U+30EC\U+30A4\U+30E4\U+30FC 4
 62
     7
420
 16777215
370
    15
100
AcDbVertex
100
AcDb2dVertex
 10
31.56413709063327
 20
85.38186846823787
 30
0.0
  0
VERTEX
  5
2F4
330
2E7
100
AcDbEntity
  8
\U+30EC\U+30A4\U+30E4\U+30FC 4
 62
     7
420
 16777215
370
    15
100
AcDbVertex
100
AcDb2dVertex
 10
31.78600123988336
 20
84.9216037114085
 30
0.0
  0
VERTEX
  5
2F5
330
2E7
100
AcDbEntity
  8
\U+30EC\U+30A4\U+30E4\U+30FC 4
 62
     7
420
 16777215
370
    15
100
AcDbVertex
100
AcDb2dVertex
 10
31.93758544123435
 20
84.45031464902631
 30
0.0
  0
VERTEX
  5
2F6
330
2E7
100
AcDbEntity
  8
\U+30EC\U+30A4\U+30E4\U+30FC 4
 62
     7
420
 16777215
370
    15
100
AcDbVertex
100
AcDb2dVertex
 10
32.01337754190985
 20
83.97902558664414
 30
0.0
  0
VERTEX
  5
2F7
330
2E7
100
AcDbEntity
  8
\U+30EC\U+30A4\U+30E4\U+30FC 4
 62
     7
420
 16777215
370
    15
100
AcDbVertex
100
AcDb2dVertex
 10
32.01337754190985
 20
83.52702905897935
 30
0.0
  0
VERTEX
  5
2F8
330
2E7
100
AcDbEntity
  8
\U+30EC\U+30A4\U+30E4\U+30FC 4
 62
     7
420
 16777215
370
    15
100
AcDbVertex
100
AcDb2dVertex
 10
31.93758544123435
 20
83.09983721880837
 30
0.0
  0
VERTEX
  5
2F9
330
2E7
100
AcDbEntity
  8
\U+30EC\U+30A4\U+30E4\U+30FC 4
 62
     7
420
 16777215
370
    15
100
AcDbVertex
100
AcDb2dVertex
 10
31.78600123988336
 20
82.71674260084859
 30
0.0
  0
VERTEX
  5
2FA
330
2E7
100
AcDbEntity
  8
\U+30EC\U+30A4\U+30E4\U+30FC 4
 62
     7
420
 16777215
370
    15
100
AcDbVertex
100
AcDb2dVertex
 10
31.56413709063327
 20
82.38325735787642
 30
0.0
  0
VERTEX
  5
2FB
330
2E7
100
AcDbEntity
  8
\U+30EC\U+30A4\U+30E4\U+30FC 4
 62
     7
420
 16777215
370
    15
100
AcDbVertex
100
AcDb2dVertex
 10
31.44424776774658
 20
82.25372176763102
 30
0.0
  0
SEQEND
  5
2FC
330
2E7
100
AcDbEntity
  8
\U+30EC\U+30A4\U+30E4\U+30FC 4
370
    15
  0
ENDBLK
  5
2E6
330
2E3
100
AcDbEntity
  8
0
100
AcDbBlockEnd
  0
BLOCK
  5
2FF
330
2FD
100
AcDbEntity
  8
0
100
AcDbBlockBegin
  2
block 78
 70
     0
 71
     0
 10
0.0
 20
0.0
 30
0.0
  3
block 78
  1

  0
POLYLINE
  5
301
330
2FD
100
AcDbEntity
  8
\U+30EC\U+30A4\U+30E4\U+30FC 4
 62
     7
420
 16777215
370
    15
100
AcDb2dPolyline
 66
     1
 10
0.0
 20
0.0
 30
0.0
  0
VERTEX
  5
302
330
301
100
AcDbEntity
  8
\U+30EC\U+30A4\U+30E4\U+30FC 4
 62
     7
420
 16777215
370
    15
100
AcDbVertex
100
AcDb2dVertex
 10
26.761673984195
 20
85.12555336413529
 30
0.0
  0
VERTEX
  5
303
330
301
100
AcDbEntity
  8
\U+30EC\U+30A4\U+30E4\U+30FC 4
 62
     7
420
 16777215
370
    15
100
AcDbVertex
100
AcDb2dVertex
 10
26.8016370918239
 20
84.6763129128587
 30
0.0
  0
VERTEX
  5
304
330
301
100
AcDbEntity
  8
\U+30EC\U+30A4\U+30E4\U+30FC 4
 62
     7
420
 16777215
370
    15
100
AcDbVertex
100
AcDb2dVertex
 10
26.87605115430529
 20
84.35109589905112
 30
0.0
  0
SEQEND
  5
305
330
301
100
AcDbEntity
  8
\U+30EC\U+30A4\U+30E4\U+30FC 4
370
    15
  0
ENDBLK
  5
300
330
2FD
100
AcDbEntity
  8
0
100
AcDbBlockEnd
  0
BLOCK
  5
308
330
306
100
AcDbEntity
  8
0
100
AcDbBlockBegin
  2
block 79
 70
     0
 71
     0
 10
0.0
 20
0.0
 30
0.0
  3
block 79
  1

  0
POLYLINE
  5
30A
330
306
100
AcDbEntity
  8
\U+30EC\U+30A4\U+30E4\U+30FC 4
 62
     7
420
 16777215
370
    15
100
AcDb2dPolyline
 66
     1
 10
0.0
 20
0.0
 30
0.0
  0
VERTEX
  5
30B
330
30A
100
AcDbEntity
  8
\U+30EC\U+30A4\U+30E4\U+30FC 4
 62
     7
420
 16777215
370
    15
100
AcDbVertex
100
AcDb2dVertex
 10
27.07586669244979
 20
83.83295353806955
 30
0.0
  0
VERTEX
  5
30C
330
30A
100
AcDbEntity
  8
\U+30EC\U+30A4\U+30E4\U+30FC 4
 62
     7
420
 16777215
370
    15
100
AcDbVertex
100
AcDb2dVertex
 10
27.11031764730228
 20
83.76405162836454
 30
0.0
  0
VERTEX
  5
30D
330
30A
100
AcDbEntity
  8
\U+30EC\U+30A4\U+30E4\U+30FC 4
 62
     7
420
 16777215
370
    15
100
AcDbVertex
100
AcDb2dVertex
 10
27.36938882779307
 20
83.33134763541716
 30
0.0
  0
VERTEX
  5
30E
330
30A
100
AcDbEntity
  8
\U+30EC\U+30A4\U+30E4\U+30FC 4
 62
     7
420
 16777215
370
    15
100
AcDbVertex
100
AcDb2dVertex
 10
27.68771565063016
 20
82.93447263551639
 30
0.0
  0
VERTEX
  5
30F
330
30A
100
AcDbEntity
  8
\U+30EC\U+30A4\U+30E4\U+30FC 4
 62
     7
420
 16777215
370
    15
100
AcDbVertex
100
AcDb2dVertex
 10
28.05702988664894
 20
82.584450934215
 30
0.0
  0
VERTEX
  5
310
330
30A
100
AcDbEntity
  8
\U+30EC\U+30A4\U+30E4\U+30FC 4
 62
     7
420
 16777215
370
    15
100
AcDbVertex
100
AcDb2dVertex
 10
28.46217311571432
 20
82.29506291345402
 30
0.0
  0
VERTEX
  5
311
330
30A
100
AcDbEntity
  8
\U+30EC\U+30A4\U+30E4\U+30FC 4
 62
     7
420
 16777215
370
    15
100
AcDbVertex
100
AcDb2dVertex
 10
28.8921210322735
 20
82.07182072600983
 30
0.0
  0
VERTEX
  5
312
330
30A
100
AcDbEntity
  8
\U+30EC\U+30A4\U+30E4\U+30FC 4
 62
     7
420
 16777215
370
    15
100
AcDbVertex
100
AcDb2dVertex
 10
29.33309325438548
 20
81.92574867743524
 30
0.0
  0
VERTEX
  5
313
330
30A
100
AcDbEntity
  8
\U+30EC\U+30A4\U+30E4\U+30FC 4
 62
     7
420
 16777215
370
    15
100
AcDbVertex
100
AcDb2dVertex
 10
29.76993136191516
 20
81.85960284411844
 30
0.0
  0
VERTEX
  5
314
330
30A
100
AcDbEntity
  8
\U+30EC\U+30A4\U+30E4\U+30FC 4
 62
     7
420
 16777215
370
    15
100
AcDbVertex
100
AcDb2dVertex
 10
30.19023301111564
 20
81.87338322605943
 30
0.0
  0
VERTEX
  5
315
330
30A
100
AcDbEntity
  8
\U+30EC\U+30A4\U+30E4\U+30FC 4
 62
     7
420
 16777215
370
    15
100
AcDbVertex
100
AcDb2dVertex
 10
30.57746174365772
 20
81.96984589964643
 30
0.0
  0
VERTEX
  5
316
330
30A
100
AcDbEntity
  8
\U+30EC\U+30A4\U+30E4\U+30FC 4
 62
     7
420
 16777215
370
    15
100
AcDbVertex
100
AcDb2dVertex
 10
30.9233493303768
 20
82.14623478849123
 30
0.0
  0
VERTEX
  5
317
330
30A
100
AcDbEntity
  8
\U+30EC\U+30A4\U+30E4\U+30FC 4
 62
     7
420
 16777215
370
    15
100
AcDbVertex
100
AcDb2dVertex
 10
31.21273735113779
 20
82.39428166342921
 30
0.0
  0
VERTEX
  5
318
330
30A
100
AcDbEntity
  8
\U+30EC\U+30A4\U+30E4\U+30FC 4
 62
     7
420
 16777215
370
    15
100
AcDbVertex
100
AcDb2dVertex
 10
31.43873561497018
 20
82.70847437168399
 30
0.0
  0
VERTEX
  5
319
330
30A
100
AcDbEntity
  8
\U+30EC\U+30A4\U+30E4\U+30FC 4
 62
     7
420
 16777215
370
    15
100
AcDbVertex
100
AcDb2dVertex
 10
31.59445393090347
 20
83.07778860770279
 30
0.0
  0
VERTEX
  5
31A
330
30A
100
AcDbEntity
  8
\U+30EC\U+30A4\U+30E4\U+30FC 4
 62
     7
420
 16777215
370
    15
100
AcDbVertex
100
AcDb2dVertex
 10
31.67300210796717
 20
83.48844398954456
 30
0.0
  0
VERTEX
  5
31B
330
30A
100
AcDbEntity
  8
\U+30EC\U+30A4\U+30E4\U+30FC 4
 62
     7
420
 16777215
370
    15
100
AcDbVertex
100
AcDb2dVertex
 10
31.67300210796717
 20
83.92941621165654
 30
0.0
  0
VERTEX
  5
31C
330
30A
100
AcDbEntity
  8
\U+30EC\U+30A4\U+30E4\U+30FC 4
 62
     7
420
 16777215
370
    15
100
AcDbVertex
100
AcDb2dVertex
 10
31.59445393090347
 20
84.38692489209772
 30
0.0
  0
VERTEX
  5
31D
330
30A
100
AcDbEntity
  8
\U+30EC\U+30A4\U+30E4\U+30FC 4
 62
     7
420
 16777215
370
    15
100
AcDbVertex
100
AcDb2dVertex
 10
31.43873561497018
 20
84.84443357253889
 30
0.0
  0
VERTEX
  5
31E
330
30A
100
AcDbEntity
  8
\U+30EC\U+30A4\U+30E4\U+30FC 4
 62
     7
420
 16777215
370
    15
100
AcDbVertex
100
AcDb2dVertex
 10
31.21273735113779
 20
85.28816187103908
 30
0.0
  0
VERTEX
  5
31F
330
30A
100
AcDbEntity
  8
\U+30EC\U+30A4\U+30E4\U+30FC 4
 62
     7
420
 16777215
370
    15
100
AcDbVertex
100
AcDb2dVertex
 10
30.9233493303768
 20
85.70432940565726
 30
0.0
  0
VERTEX
  5
320
330
30A
100
AcDbEntity
  8
\U+30EC\U+30A4\U+30E4\U+30FC 4
 62
     7
420
 16777215
370
    15
100
AcDbVertex
100
AcDb2dVertex
 10
30.57746174365772
 20
86.07915579445243
 30
0.0
  0
VERTEX
  5
321
330
30A
100
AcDbEntity
  8
\U+30EC\U+30A4\U+30E4\U+30FC 4
 62
     7
420
 16777215
370
    15
100
AcDbVertex
100
AcDb2dVertex
 10
30.19023301111564
 20
86.39886065548362
 30
0.0
  0
VERTEX
  5
322
330
30A
100
AcDbEntity
  8
\U+30EC\U+30A4\U+30E4\U+30FC 4
 62
     7
420
 16777215
370
    15
100
AcDbVertex
100
AcDb2dVertex
 10
29.76993136191516
 20
86.65793183597441
 30
0.0
  0
VERTEX
  5
323
330
30A
100
AcDbEntity
  8
\U+30EC\U+30A4\U+30E4\U+30FC 4
 62
     7
420
 16777215
370
    15
100
AcDbVertex
100
AcDb2dVertex
 10
29.33309325438548
 20
86.8425889539838
 30
0.0
  0
VERTEX
  5
324
330
30A
100
AcDbEntity
  8
\U+30EC\U+30A4\U+30E4\U+30FC 4
 62
     7
420
 16777215
370
    15
100
AcDbVertex
100
AcDb2dVertex
 10
28.8921210322735
 20
86.9500759331236
 30
0.0
  0
VERTEX
  5
325
330
30A
100
AcDbEntity
  8
\U+30EC\U+30A4\U+30E4\U+30FC 4
 62
     7
420
 16777215
370
    15
100
AcDbVertex
100
AcDb2dVertex
 10
28.46217311571432
 20
86.9748806206174
 30
0.0
  0
VERTEX
  5
326
330
30A
100
AcDbEntity
  8
\U+30EC\U+30A4\U+30E4\U+30FC 4
 62
     7
420
 16777215
370
    15
100
AcDbVertex
100
AcDb2dVertex
 10
28.05702988664894
 20
86.9197590928534
 30
0.0
  0
VERTEX
  5
327
330
30A
100
AcDbEntity
  8
\U+30EC\U+30A4\U+30E4\U+30FC 4
 62
     7
420
 16777215
370
    15
100
AcDbVertex
100
AcDb2dVertex
 10
27.68771565063016
 20
86.7819552734434
 30
0.0
  0
VERTEX
  5
328
330
30A
100
AcDbEntity
  8
\U+30EC\U+30A4\U+30E4\U+30FC 4
 62
     7
420
 16777215
370
    15
100
AcDbVertex
100
AcDb2dVertex
 10
27.36938882779307
 20
86.56973739155201
 30
0.0
  0
VERTEX
  5
329
330
30A
100
AcDbEntity
  8
\U+30EC\U+30A4\U+30E4\U+30FC 4
 62
     7
420
 16777215
370
    15
100
AcDbVertex
100
AcDb2dVertex
 10
27.11031764730228
 20
86.28861759995563
 30
0.0
  0
VERTEX
  5
32A
330
30A
100
AcDbEntity
  8
\U+30EC\U+30A4\U+30E4\U+30FC 4
 62
     7
420
 16777215
370
    15
100
AcDbVertex
100
AcDb2dVertex
 10
26.91877033832239
 20
85.94410805143065
 30
0.0
  0
VERTEX
  5
32B
330
30A
100
AcDbEntity
  8
\U+30EC\U+30A4\U+30E4\U+30FC 4
 62
     7
420
 16777215
370
    15
100
AcDbVertex
100
AcDb2dVertex
 10
26.8016370918239
 20
85.55274520430626
 30
0.0
  0
VERTEX
  5
32C
330
30A
100
AcDbEntity
  8
\U+30EC\U+30A4\U+30E4\U+30FC 4
 62
     7
420
 16777215
370
    15
100
AcDbVertex
100
AcDb2dVertex
 10
26.761673984195
 20
85.12555336413529
 30
0.0
  0
SEQEND
  5
32D
330
30A
100
AcDbEntity
  8
\U+30EC\U+30A4\U+30E4\U+30FC 4
370
    15
  0
ENDBLK
  5
309
330
306
100
AcDbEntity
  8
0
100
AcDbBlockEnd
  0
BLOCK
  5
330
330
32E
100
AcDbEntity
  8
0
100
AcDbBlockBegin
  2
block 80
 70
     0
 71
     0
 10
0.0
 20
0.0
 30
0.0
  3
block 80
  1

  0
POLYLINE
  5
332
330
32E
100
AcDbEntity
  8
\U+30EC\U+30A4\U+30E4\U+30FC 4
 62
     7
420
 16777215
370
    15
100
AcDb2dPolyline
 66
     1
 10
0.0
 20
0.0
 30
0.0
  0
VERTEX
  5
333
330
332
100
AcDbEntity
  8
\U+30EC\U+30A4\U+30E4\U+30FC 4
 62
     7
420
 16777215
370
    15
100
AcDbVertex
100
AcDb2dVertex
 10
28.8742065357502
 20
88.71120874518331
 30
0.0
  0
VERTEX
  5
334
330
332
100
AcDbEntity
  8
\U+30EC\U+30A4\U+30E4\U+30FC 4
 62
     7
420
 16777215
370
    15
100
AcDbVertex
100
AcDb2dVertex
 10
29.07402207389469
 20
88.86554902292251
 30
0.0
  0
VERTEX
  5
335
330
332
100
AcDbEntity
  8
\U+30EC\U+30A4\U+30E4\U+30FC 4
 62
     7
420
 16777215
370
    15
100
AcDbVertex
100
AcDb2dVertex
 10
29.44884846268987
 20
89.0639865228729
 30
0.0
  0
VERTEX
  5
336
330
332
100
AcDbEntity
  8
\U+30EC\U+30A4\U+30E4\U+30FC 4
 62
     7
420
 16777215
370
    15
100
AcDbVertex
100
AcDb2dVertex
 10
29.86915011189035
 20
89.18525388395369
 30
0.0
  0
VERTEX
  5
337
330
332
100
AcDbEntity
  8
\U+30EC\U+30A4\U+30E4\U+30FC 4
 62
     7
420
 16777215
370
    15
100
AcDbVertex
100
AcDb2dVertex
 10
30.32252467774923
 20
89.22659502977669
 30
0.0
  0
VERTEX
  5
338
330
332
100
AcDbEntity
  8
\U+30EC\U+30A4\U+30E4\U+30FC 4
 62
     7
420
 16777215
370
    15
100
AcDbVertex
100
AcDb2dVertex
 10
30.79656981651961
 20
89.18525388395369
 30
0.0
  0
VERTEX
  5
339
330
332
100
AcDbEntity
  8
\U+30EC\U+30A4\U+30E4\U+30FC 4
 62
     7
420
 16777215
370
    15
100
AcDbVertex
100
AcDb2dVertex
 10
31.28163926084279
 20
89.06674259926109
 30
0.0
  0
VERTEX
  5
33A
330
332
100
AcDbEntity
  8
\U+30EC\U+30A4\U+30E4\U+30FC 4
 62
     7
420
 16777215
370
    15
100
AcDbVertex
100
AcDb2dVertex
 10
31.76119655238956
 20
88.8683050993107
 30
0.0
  0
VERTEX
  5
33B
330
332
100
AcDbEntity
  8
\U+30EC\U+30A4\U+30E4\U+30FC 4
 62
     7
420
 16777215
370
    15
100
AcDbVertex
100
AcDb2dVertex
 10
32.22697346199534
 20
88.60096568965533
 30
0.0
  0
VERTEX
  5
33C
330
332
100
AcDbEntity
  8
\U+30EC\U+30A4\U+30E4\U+30FC 4
 62
     7
420
 16777215
370
    15
100
AcDbVertex
100
AcDb2dVertex
 10
32.66518960771912
 20
88.26472437029493
 30
0.0
  0
VERTEX
  5
33D
330
332
100
AcDbEntity
  8
\U+30EC\U+30A4\U+30E4\U+30FC 4
 62
     7
420
 16777215
370
    15
100
AcDbVertex
100
AcDb2dVertex
 10
33.063442645814
 20
87.87611759955875
 30
0.0
  0
VERTEX
  5
33E
330
332
100
AcDbEntity
  8
\U+30EC\U+30A4\U+30E4\U+30FC 4
 62
     7
420
 16777215
370
    15
100
AcDbVertex
100
AcDb2dVertex
 10
33.41208630892129
 20
87.43790145383497
 30
0.0
  0
VERTEX
  5
33F
330
332
100
AcDbEntity
  8
\U+30EC\U+30A4\U+30E4\U+30FC 4
 62
     7
420
 16777215
370
    15
100
AcDbVertex
100
AcDb2dVertex
 10
33.70423040607047
 20
86.9666123914528
 30
0.0
  0
VERTEX
  5
340
330
332
100
AcDbEntity
  8
\U+30EC\U+30A4\U+30E4\U+30FC 4
 62
     7
420
 16777215
370
    15
100
AcDbVertex
100
AcDb2dVertex
 10
33.92885063170876
 20
86.47327471796501
 30
0.0
  0
VERTEX
  5
341
330
332
100
AcDbEntity
  8
\U+30EC\U+30A4\U+30E4\U+30FC 4
 62
     7
420
 16777215
370
    15
100
AcDbVertex
100
AcDb2dVertex
 10
34.08181287125385
 20
85.96891273892444
 30
0.0
  0
VERTEX
  5
342
330
332
100
AcDbEntity
  8
\U+30EC\U+30A4\U+30E4\U+30FC 4
 62
     7
420
 16777215
370
    15
100
AcDbVertex
100
AcDb2dVertex
 10
34.15898301012345
 20
85.47006291266027
 30
0.0
  0
VERTEX
  5
343
330
332
100
AcDbEntity
  8
\U+30EC\U+30A4\U+30E4\U+30FC 4
 62
     7
420
 16777215
370
    15
100
AcDbVertex
100
AcDb2dVertex
 10
34.15898301012345
 20
84.9849934683371
 30
0.0
  0
VERTEX
  5
344
330
332
100
AcDbEntity
  8
\U+30EC\U+30A4\U+30E4\U+30FC 4
 62
     7
420
 16777215
370
    15
100
AcDbVertex
100
AcDb2dVertex
 10
34.08181287125385
 20
84.53024086428411
 30
0.0
  0
VERTEX
  5
345
330
332
100
AcDbEntity
  8
\U+30EC\U+30A4\U+30E4\U+30FC 4
 62
     7
420
 16777215
370
    15
100
AcDbVertex
100
AcDb2dVertex
 10
33.92885063170876
 20
84.11407332966593
 30
0.0
  0
VERTEX
  5
346
330
332
100
AcDbEntity
  8
\U+30EC\U+30A4\U+30E4\U+30FC 4
 62
     7
420
 16777215
370
    15
100
AcDbVertex
100
AcDb2dVertex
 10
33.70423040607047
 20
83.75027124642355
 30
0.0
  0
VERTEX
  5
347
330
332
100
AcDbEntity
  8
\U+30EC\U+30A4\U+30E4\U+30FC 4
 62
     7
420
 16777215
370
    15
100
AcDbVertex
100
AcDb2dVertex
 10
33.42586669086229
 20
83.45812714927436
 30
0.0
  0
SEQEND
  5
348
330
332
100
AcDbEntity
  8
\U+30EC\U+30A4\U+30E4\U+30FC 4
370
    15
  0
ENDBLK
  5
331
330
32E
100
AcDbEntity
  8
0
100
AcDbBlockEnd
  0
BLOCK
  5
34B
330
349
100
AcDbEntity
  8
0
100
AcDbBlockBegin
  2
block 81
 70
     0
 71
     0
 10
0.0
 20
0.0
 30
0.0
  3
block 81
  1

  0
POLYLINE
  5
34D
330
349
100
AcDbEntity
  8
\U+30EC\U+30A4\U+30E4\U+30FC 4
 62
     7
420
 16777215
370
    15
100
AcDb2dPolyline
 66
     1
 10
0.0
 20
0.0
 30
0.0
  0
VERTEX
  5
34E
330
34D
100
AcDbEntity
  8
\U+30EC\U+30A4\U+30E4\U+30FC 4
 62
     7
420
 16777215
370
    15
100
AcDbVertex
100
AcDb2dVertex
 10
32.42541096194573
 20
83.07503253131458
 30
0.0
  0
VERTEX
  5
34F
330
34D
100
AcDbEntity
  8
\U+30EC\U+30A4\U+30E4\U+30FC 4
 62
     7
420
 16777215
370
    15
100
AcDbVertex
100
AcDb2dVertex
 10
32.68448214243652
 20
83.15220267018418
 30
0.0
  0
VERTEX
  5
350
330
34D
100
AcDbEntity
  8
\U+30EC\U+30A4\U+30E4\U+30FC 4
 62
     7
420
 16777215
370
    15
100
AcDbVertex
100
AcDb2dVertex
 10
33.0620646076199
 20
83.33685978819356
 30
0.0
  0
VERTEX
  5
351
330
34D
100
AcDbEntity
  8
\U+30EC\U+30A4\U+30E4\U+30FC 4
 62
     7
420
 16777215
370
    15
100
AcDbVertex
100
AcDb2dVertex
 10
33.38728162142748
 20
83.59593096868436
 30
0.0
  0
VERTEX
  5
352
330
34D
100
AcDbEntity
  8
\U+30EC\U+30A4\U+30E4\U+30FC 4
 62
     7
420
 16777215
370
    15
100
AcDbVertex
100
AcDb2dVertex
 10
33.64910887830647
 20
83.92114798249195
 30
0.0
  0
VERTEX
  5
353
330
34D
100
AcDbEntity
  8
\U+30EC\U+30A4\U+30E4\U+30FC 4
 62
     7
420
 16777215
370
    15
100
AcDbVertex
100
AcDb2dVertex
 10
33.84203422548047
 20
84.30424260045172
 30
0.0
  0
VERTEX
  5
354
330
34D
100
AcDbEntity
  8
\U+30EC\U+30A4\U+30E4\U+30FC 4
 62
     7
420
 16777215
370
    15
100
AcDbVertex
100
AcDb2dVertex
 10
33.95916747197896
 20
84.7369465933991
 30
0.0
  0
VERTEX
  5
355
330
34D
100
AcDbEntity
  8
\U+30EC\U+30A4\U+30E4\U+30FC 4
 62
     7
420
 16777215
370
    15
100
AcDbVertex
100
AcDb2dVertex
 10
33.99913057960786
 20
85.20272350300488
 30
0.0
  0
VERTEX
  5
356
330
34D
100
AcDbEntity
  8
\U+30EC\U+30A4\U+30E4\U+30FC 4
 62
     7
420
 16777215
370
    15
100
AcDbVertex
100
AcDb2dVertex
 10
33.95916747197896
 20
85.69054902371626
 30
0.0
  0
VERTEX
  5
357
330
34D
100
AcDbEntity
  8
\U+30EC\U+30A4\U+30E4\U+30FC 4
 62
     7
420
 16777215
370
    15
100
AcDbVertex
100
AcDb2dVertex
 10
33.93436278448516
 20
85.82835284312625
 30
0.0
  0
SEQEND
  5
358
330
34D
100
AcDbEntity
  8
\U+30EC\U+30A4\U+30E4\U+30FC 4
370
    15
  0
ENDBLK
  5
34C
330
349
100
AcDbEntity
  8
0
100
AcDbBlockEnd
  0
BLOCK
  5
35B
330
359
100
AcDbEntity
  8
0
100
AcDbBlockBegin
  2
block 82
 70
     0
 71
     0
 10
0.0
 20
0.0
 30
0.0
  3
block 82
  1

  0
POLYLINE
  5
35D
330
359
100
AcDbEntity
  8
\U+30EC\U+30A4\U+30E4\U+30FC 4
 62
     7
420
 16777215
370
    15
100
AcDb2dPolyline
 66
     1
 10
0.0
 20
0.0
 30
0.0
  0
VERTEX
  5
35E
330
35D
100
AcDbEntity
  8
\U+30EC\U+30A4\U+30E4\U+30FC 4
 62
     7
420
 16777215
370
    15
100
AcDbVertex
100
AcDb2dVertex
 10
31.18655462544989
 20
88.9151583979101
 30
0.0
  0
VERTEX
  5
35F
330
35D
100
AcDbEntity
  8
\U+30EC\U+30A4\U+30E4\U+30FC 4
 62
     7
420
 16777215
370
    15
100
AcDbVertex
100
AcDb2dVertex
 10
30.85720349706001
 20
89.0005967659443
 30
0.0
  0
VERTEX
  5
360
330
35D
100
AcDbEntity
  8
\U+30EC\U+30A4\U+30E4\U+30FC 4
 62
     7
420
 16777215
370
    15
100
AcDbVertex
100
AcDb2dVertex
 10
30.38453639648373
 20
89.05847437009649
 30
0.0
  0
VERTEX
  5
361
330
35D
100
AcDbEntity
  8
\U+30EC\U+30A4\U+30E4\U+30FC 4
 62
     7
420
 16777215
370
    15
100
AcDbVertex
100
AcDb2dVertex
 10
29.93116183062485
 20
89.03366968260269
 30
0.0
  0
VERTEX
  5
362
330
35D
100
AcDbEntity
  8
\U+30EC\U+30A4\U+30E4\U+30FC 4
 62
     7
420
 16777215
370
    15
100
AcDbVertex
100
AcDb2dVertex
 10
29.50948214323027
 20
88.9261827034629
 30
0.0
  0
VERTEX
  5
363
330
35D
100
AcDbEntity
  8
\U+30EC\U+30A4\U+30E4\U+30FC 4
 62
     7
420
 16777215
370
    15
100
AcDbVertex
100
AcDb2dVertex
 10
29.13189967804689
 20
88.74152558545352
 30
0.0
  0
VERTEX
  5
364
330
35D
100
AcDbEntity
  8
\U+30EC\U+30A4\U+30E4\U+30FC 4
 62
     7
420
 16777215
370
    15
100
AcDbVertex
100
AcDb2dVertex
 10
28.8066826642393
 20
88.48245440496272
 30
0.0
  0
VERTEX
  5
365
330
35D
100
AcDbEntity
  8
\U+30EC\U+30A4\U+30E4\U+30FC 4
 62
     7
420
 16777215
370
    15
100
AcDbVertex
100
AcDb2dVertex
 10
28.54485540736032
 20
88.15723739115514
 30
0.0
  0
VERTEX
  5
366
330
35D
100
AcDbEntity
  8
\U+30EC\U+30A4\U+30E4\U+30FC 4
 62
     7
420
 16777215
370
    15
100
AcDbVertex
100
AcDb2dVertex
 10
28.35468613657453
 20
87.77689884958356
 30
0.0
  0
SEQEND
  5
367
330
35D
100
AcDbEntity
  8
\U+30EC\U+30A4\U+30E4\U+30FC 4
370
    15
  0
ENDBLK
  5
35C
330
359
100
AcDbEntity
  8
0
100
AcDbBlockEnd
  0
BLOCK
  5
36A
330
368
100
AcDbEntity
  8
0
100
AcDbBlockBegin
  2
block 83
 70
     0
 71
     0
 10
0.0
 20
0.0
 30
0.0
  3
block 83
  1

  0
POLYLINE
  5
36C
330
368
100
AcDbEntity
  8
\U+30EC\U+30A4\U+30E4\U+30FC 4
 62
     7
420
 16777215
370
     9
100
AcDb2dPolyline
 66
     1
 10
0.0
 20
0.0
 30
0.0
  0
VERTEX
  5
36D
330
36C
100
AcDbEntity
  8
\U+30EC\U+30A4\U+30E4\U+30FC 4
 62
     7
420
 16777215
370
     9
100
AcDbVertex
100
AcDb2dVertex
 10
28.9348402162906
 20
83.17425128128977
 30
0.0
  0
VERTEX
  5
36E
330
36C
100
AcDbEntity
  8
\U+30EC\U+30A4\U+30E4\U+30FC 4
 62
     7
420
 16777215
370
     9
100
AcDbVertex
100
AcDb2dVertex
 10
28.99547389683099
 20
83.15495874657238
 30
0.0
  0
SEQEND
  5
36F
330
36C
100
AcDbEntity
  8
\U+30EC\U+30A4\U+30E4\U+30FC 4
370
     9
  0
ENDBLK
  5
36B
330
368
100
AcDbEntity
  8
0
100
AcDbBlockEnd
  0
BLOCK
  5
372
330
370
100
AcDbEntity
  8
0
100
AcDbBlockBegin
  2
block 84
 70
     0
 71
     0
 10
0.0
 20
0.0
 30
0.0
  3
block 84
  1

  0
POLYLINE
  5
374
330
370
100
AcDbEntity
  8
\U+30EC\U+30A4\U+30E4\U+30FC 4
 62
     7
420
 16777215
370
    15
100
AcDb2dPolyline
 66
     1
 10
0.0
 20
0.0
 30
0.0
  0
VERTEX
  5
375
330
374
100
AcDbEntity
  8
\U+30EC\U+30A4\U+30E4\U+30FC 4
 62
     7
420
 16777215
370
    15
100
AcDbVertex
100
AcDb2dVertex
 10
29.59629854945857
 20
83.53254121175576
 30
0.0
  0
VERTEX
  5
376
330
374
100
AcDbEntity
  8
\U+30EC\U+30A4\U+30E4\U+30FC 4
 62
     7
420
 16777215
370
    15
100
AcDbVertex
100
AcDb2dVertex
 10
29.60870089320547
 20
83.54080944092036
 30
0.0
  0
VERTEX
  5
377
330
374
100
AcDbEntity
  8
\U+30EC\U+30A4\U+30E4\U+30FC 4
 62
     7
420
 16777215
370
    15
100
AcDbVertex
100
AcDb2dVertex
 10
29.68862710846326
 20
83.57388235757875
 30
0.0
  0
VERTEX
  5
378
330
374
100
AcDbEntity
  8
\U+30EC\U+30A4\U+30E4\U+30FC 4
 62
     7
420
 16777215
370
    15
100
AcDbVertex
100
AcDb2dVertex
 10
29.78508978205026
 20
83.56561412841415
 30
0.0
  0
VERTEX
  5
379
330
374
100
AcDbEntity
  8
\U+30EC\U+30A4\U+30E4\U+30FC 4
 62
     7
420
 16777215
370
    15
100
AcDbVertex
100
AcDb2dVertex
 10
29.88017441744315
 20
83.51876082981475
 30
0.0
  0
VERTEX
  5
37A
330
374
100
AcDbEntity
  8
\U+30EC\U+30A4\U+30E4\U+30FC 4
 62
     7
420
 16777215
370
    15
100
AcDbVertex
100
AcDb2dVertex
 10
29.96147867089505
 20
83.44159069094516
 30
0.0
  0
VERTEX
  5
37B
330
374
100
AcDbEntity
  8
\U+30EC\U+30A4\U+30E4\U+30FC 4
 62
     7
420
 16777215
370
    15
100
AcDbVertex
100
AcDb2dVertex
 10
30.01384412227085
 20
83.34512801735816
 30
0.0
  0
VERTEX
  5
37C
330
374
100
AcDbEntity
  8
\U+30EC\U+30A4\U+30E4\U+30FC 4
 62
     7
420
 16777215
370
    15
100
AcDbVertex
100
AcDb2dVertex
 10
30.03313665698824
 20
83.24315319099478
 30
0.0
  0
VERTEX
  5
37D
330
374
100
AcDbEntity
  8
\U+30EC\U+30A4\U+30E4\U+30FC 4
 62
     7
420
 16777215
370
    15
100
AcDbVertex
100
AcDb2dVertex
 10
30.01384412227085
 20
83.15220267018418
 30
0.0
  0
VERTEX
  5
37E
330
374
100
AcDbEntity
  8
\U+30EC\U+30A4\U+30E4\U+30FC 4
 62
     7
420
 16777215
370
    15
100
AcDbVertex
100
AcDb2dVertex
 10
29.97250297644785
 20
83.09708114242018
 30
0.0
  0
SEQEND
  5
37F
330
374
100
AcDbEntity
  8
\U+30EC\U+30A4\U+30E4\U+30FC 4
370
    15
  0
ENDBLK
  5
373
330
370
100
AcDbEntity
  8
0
100
AcDbBlockEnd
  0
BLOCK
  5
382
330
380
100
AcDbEntity
  8
0
100
AcDbBlockBegin
  2
block 85
 70
     0
 71
     0
 10
0.0
 20
0.0
 30
0.0
  3
block 85
  1

  0
POLYLINE
  5
384
330
380
100
AcDbEntity
  8
\U+30EC\U+30A4\U+30E4\U+30FC 4
 62
     7
420
 16777215
370
    15
100
AcDb2dPolyline
 66
     1
 10
0.0
 20
0.0
 30
0.0
  0
VERTEX
  5
385
330
384
100
AcDbEntity
  8
\U+30EC\U+30A4\U+30E4\U+30FC 4
 62
     7
420
 16777215
370
    15
100
AcDbVertex
100
AcDb2dVertex
 10
26.8471123522292
 20
84.32629121155732
 30
0.0
  0
VERTEX
  5
386
330
384
100
AcDbEntity
  8
\U+30EC\U+30A4\U+30E4\U+30FC 4
 62
     7
420
 16777215
370
    15
100
AcDbVertex
100
AcDb2dVertex
 10
26.85813665778199
 20
84.33455944072192
 30
0.0
  0
VERTEX
  5
387
330
384
100
AcDbEntity
  8
\U+30EC\U+30A4\U+30E4\U+30FC 4
 62
     7
420
 16777215
370
    15
100
AcDbVertex
100
AcDb2dVertex
 10
26.93944091123389
 20
84.36763235738032
 30
0.0
  0
VERTEX
  5
388
330
384
100
AcDbEntity
  8
\U+30EC\U+30A4\U+30E4\U+30FC 4
 62
     7
420
 16777215
370
    15
100
AcDbVertex
100
AcDb2dVertex
 10
27.03452554662679
 20
84.35936412821572
 30
0.0
  0
VERTEX
  5
389
330
384
100
AcDbEntity
  8
\U+30EC\U+30A4\U+30E4\U+30FC 4
 62
     7
420
 16777215
370
    15
100
AcDbVertex
100
AcDb2dVertex
 10
27.13098822021378
 20
84.31251082961631
 30
0.0
  0
VERTEX
  5
38A
330
384
100
AcDbEntity
  8
\U+30EC\U+30A4\U+30E4\U+30FC 4
 62
     7
420
 16777215
370
    15
100
AcDbVertex
100
AcDb2dVertex
 10
27.21091443547158
 20
84.23534069074672
 30
0.0
  0
VERTEX
  5
38B
330
384
100
AcDbEntity
  8
\U+30EC\U+30A4\U+30E4\U+30FC 4
 62
     7
420
 16777215
370
    15
100
AcDbVertex
100
AcDb2dVertex
 10
27.26465792504148
 20
84.13887801715973
 30
0.0
  0
VERTEX
  5
38C
330
384
100
AcDbEntity
  8
\U+30EC\U+30A4\U+30E4\U+30FC 4
 62
     7
420
 16777215
370
    15
100
AcDbVertex
100
AcDb2dVertex
 10
27.28395045975887
 20
84.03690319079634
 30
0.0
  0
VERTEX
  5
38D
330
384
100
AcDbEntity
  8
\U+30EC\U+30A4\U+30E4\U+30FC 4
 62
     7
420
 16777215
370
    15
100
AcDbVertex
100
AcDb2dVertex
 10
27.26465792504148
 20
83.94595266998574
 30
0.0
  0
VERTEX
  5
38E
330
384
100
AcDbEntity
  8
\U+30EC\U+30A4\U+30E4\U+30FC 4
 62
     7
420
 16777215
370
    15
100
AcDbVertex
100
AcDb2dVertex
 10
27.22193874102438
 20
83.89083114222174
 30
0.0
  0
SEQEND
  5
38F
330
384
100
AcDbEntity
  8
\U+30EC\U+30A4\U+30E4\U+30FC 4
370
    15
  0
ENDBLK
  5
383
330
380
100
AcDbEntity
  8
0
100
AcDbBlockEnd
  0
ENDSEC
  0
SECTION
  2
ENTITIES
  0
INSERT
  5
3E
330
1F
100
AcDbEntity
  8
\U+30EC\U+30A4\U+30E4\U+30FC 4
100
AcDbBlockReference
  2
block 2
 10
0.0
 20
0.0
 30
0.0
  0
ENDSEC
  0
SECTION
  2
OBJECTS
  0
DICTIONARY
  5
C
330
0
100
AcDbDictionary
281
     1
  3
ACAD_GROUP
350
D
  3
ACAD_LAYOUT
350
1A
  3
ACAD_MLINESTYLE
350
17
  3
ACAD_PLOTSETTINGS
350
19
  3
ACAD_PLOTSTYLENAME
350
E
  3
ACAD_TABLESTYLE
350
391
  3
ACAD_VISUALSTYLE
350
2A
  0
DICTIONARY
  5
D
102
{ACAD_REACTORS
330
C
102
}
330
C
100
AcDbDictionary
281
     1
  0
DICTIONARY
  5
1A
102
{ACAD_REACTORS
330
C
102
}
330
C
100
AcDbDictionary
281
     1
  3
Layout1
350
1E
  3
Layout2
350
26
  3
Model
350
22
  0
DICTIONARY
  5
17
102
{ACAD_REACTORS
330
C
102
}
330
C
100
AcDbDictionary
281
     1
  3
Standard
350
18
  0
DICTIONARY
  5
19
102
{ACAD_REACTORS
330
C
102
}
330
C
100
AcDbDictionary
281
     1
  0
ACDBDICTIONARYWDFLT
  5
E
102
{ACAD_REACTORS
330
C
102
}
330
C
100
AcDbDictionary
281
     1
  3
Normal
350
F
100
AcDbDictionaryWithDefault
340
F
  0
DICTIONARY
  5
391
102
{ACAD_REACTORS
330
C
102
}
330
C
100
AcDbDictionary
281
     1
  0
DICTIONARY
  5
2A
102
{ACAD_REACTORS
330
C
102
}
330
C
100
AcDbDictionary
281
     1
  3
2dWireframe
350
2F
  3
3D Hidden
350
31
  3
3dWireframe
350
30
  3
Basic
350
32
  3
Brighten
350
36
  3
ColorChange
350
3A
  3
Conceptual
350
34
  3
Dim
350
35
  3
Facepattern
350
39
  3
Flat
350
2B
  3
FlatWithEdges
350
2C
  3
Gouraud
350
2D
  3
GouraudWithEdges
350
2E
  3
Linepattern
350
38
  3
Realistic
350
33
  3
Thicken
350
37
  0
LAYOUT
  5
1E
102
{ACAD_REACTORS
330
1A
102
}
330
1A
100
AcDbPlotSettings
  1

  2
none_device
  4

  6

 40
0.0
 41
0.0
 42
0.0
 43
0.0
 44
0.0
 45
0.0
 46
0.0
 47
0.0
 48
0.0
 49
0.0
140
0.0
141
0.0
142
1.0
143
1.0
 70
   688
 72
     0
 73
     0
 74
     5
  7

 75
    16
 76
     0
 77
     2
 78
   300
147
1.0
148
0.0
149
0.0
100
AcDbLayout
  1
Layout1
 70
     1
 71
     1
 10
0.0
 20
0.0
 11
12.0
 21
9.0
 12
0.0
 22
0.0
 32
0.0
 14
1.000000000000000E+20
 24
1.000000000000000E+20
 34
1.000000000000000E+20
 15
-1.000000000000000E+20
 25
-1.000000000000000E+20
 35
-1.000000000000000E+20
146
0.0
 13
0.0
 23
0.0
 33
0.0
 16
1.0
 26
0.0
 36
0.0
 17
0.0
 27
1.0
 37
0.0
 76
     0
330
1B
  0
LAYOUT
  5
26
102
{ACAD_REACTORS
330
1A
102
}
330
1A
100
AcDbPlotSettings
  1

  2
none_device
  4

  6

 40
0.0
 41
0.0
 42
0.0
 43
0.0
 44
0.0
 45
0.0
 46
0.0
 47
0.0
 48
0.0
 49
0.0
140
0.0
141
0.0
142
1.0
143
1.0
 70
   688
 72
     0
 73
     0
 74
     5
  7

 75
    16
 76
     0
 77
     2
 78
   300
147
1.0
148
0.0
149
0.0
100
AcDbLayout
  1
Layout2
 70
     1
 71
     2
 10
0.0
 20
0.0
 11
0.0
 21
0.0
 12
0.0
 22
0.0
 32
0.0
 14
0.0
 24
0.0
 34
0.0
 15
0.0
 25
0.0
 35
0.0
146
0.0
 13
0.0
 23
0.0
 33
0.0
 16
1.0
 26
0.0
 36
0.0
 17
0.0
 27
1.0
 37
0.0
 76
     0
330
23
  0
LAYOUT
  5
22
102
{ACAD_REACTORS
330
1A
102
}
330
1A
100
AcDbPlotSettings
  1

  2
none_device
  4

  6

 40
0.0
 41
0.0
 42
0.0
 43
0.0
 44
0.0
 45
0.0
 46
0.0
 47
0.0
 48
0.0
 49
0.0
140
0.0
141
0.0
142
1.0
143
1.0
 70
  1712
 72
     0
 73
     0
 74
     0
  7

 75
     0
 76
     0
 77
     2
 78
   300
147
1.0
148
0.0
149
0.0
100
AcDbLayout
  1
Model
 70
     1
 71
     0
 10
0.0
 20
0.0
 11
12.0
 21
9.0
 12
0.0
 22
0.0
 32
0.0
 14
1.000000000000000E+20
 24
1.000000000000000E+20
 34
1.000000000000000E+20
 15
-1.000000000000000E+20
 25
-1.000000000000000E+20
 35
-1.000000000000000E+20
146
0.0
 13
0.0
 23
0.0
 33
0.0
 16
1.0
 26
0.0
 36
0.0
 17
0.0
 27
1.0
 37
0.0
 76
     0
330
1F
331
29
  0
MLINESTYLE
  5
18
102
{ACAD_REACTORS
330
17
102
}
330
17
100
AcDbMlineStyle
  2
Standard
 70
     0
  3

 62
   256
 51
90.0
 52
90.0
 71
     2
 49
0.5
 62
   256
  6
BYLAYER
 49
-0.5
 62
   256
  6
BYLAYER
  0
ACDBPLACEHOLDER
  5
F
102
{ACAD_REACTORS
330
E
102
}
330
E
  0
VISUALSTYLE
  5
2F
102
{ACAD_REACTORS
330
2A
102
}
330
2A
100
AcDbVisualStyle
  2
2dWireframe
 70
     4
 71
     0
 72
     2
 73
     0
 90
        0
 40
-0.6
 41
-30.0
 62
     5
 63
     7
421
 16777215
 74
     1
 91
        4
 64
     7
 65
   257
 75
     1
175
     1
 42
1.0
 92
        0
 66
   257
 43
1.0
 76
     1
 77
     6
 78
     2
 67
     7
 79
     5
170
     0
171
     0
290
     0
174
     0
 93
        1
 44
0.0
173
     0
291
     0
 45
0.0
1001
ACAD
1000
AcDbSavedByObjectVersion
1070
     0
  0
VISUALSTYLE
  5
31
102
{ACAD_REACTORS
330
2A
102
}
330
2A
100
AcDbVisualStyle
  2
3D Hidden
 70
     6
 71
     1
 72
     2
 73
     2
 90
        0
 40
-0.6
 41
-30.0
 62
     5
 63
     7
421
 16777215
 74
     2
 91
        2
 64
     7
 65
   257
 75
     2
175
     1
 42
40.0
 92
        0
 66
   257
 43
1.0
 76
     1
 77
     6
 78
     2
 67
     7
 79
     3
170
     0
171
     0
290
     0
174
     0
 93
        1
 44
0.0
173
     0
291
     0
 45
0.0
1001
ACAD
1000
AcDbSavedByObjectVersion
1070
     0
  0
VISUALSTYLE
  5
30
102
{ACAD_REACTORS
330
2A
102
}
330
2A
100
AcDbVisualStyle
  2
3dWireframe
 70
     5
 71
     0
 72
     2
 73
     0
 90
        0
 40
-0.6
 41
-30.0
 62
     5
 63
     7
421
 16777215
 74
     1
 91
        4
 64
     7
 65
   257
 75
     1
175
     1
 42
1.0
 92
        0
 66
   257
 43
1.0
 76
     1
 77
     6
 78
     2
 67
     7
 79
     5
170
     0
171
     0
290
     0
174
     0
 93
        1
 44
0.0
173
     0
291
     0
 45
0.0
1001
ACAD
1000
AcDbSavedByObjectVersion
1070
     0
  0
VISUALSTYLE
  5
32
102
{ACAD_REACTORS
330
2A
102
}
330
2A
100
AcDbVisualStyle
  2
Basic
 70
     7
 71
     1
 72
     0
 73
     1
 90
        0
 40
-0.6
 41
-30.0
 62
     5
 63
     7
421
 16777215
 74
     0
 91
        4
 64
     7
 65
   257
 75
     1
175
     1
 42
1.0
 92
        8
 66
     7
 43
1.0
 76
     1
 77
     6
 78
     2
 67
     7
 79
     5
170
     0
171
     0
290
     0
174
     0
 93
        1
 44
0.0
173
     0
291
     1
 45
0.0
1001
ACAD
1000
AcDbSavedByObjectVersion
1070
     0
  0
VISUALSTYLE
  5
36
102
{ACAD_REACTORS
330
2A
102
}
330
2A
100
AcDbVisualStyle
  2
Brighten
 70
    12
 71
     2
 72
     2
 73
     0
 90
        0
 40
-0.6
 41
-30.0
 62
     5
 63
     7
421
 16777215
 74
     1
 91
        4
 64
     7
 65
   257
 75
     1
175
     1
 42
1.0
 92
        8
 66
     7
 43
1.0
 76
     1
 77
     6
 78
     2
 67
     7
 79
     5
170
     0
171
     0
290
     0
174
     0
 93
        1
 44
50.0
173
     0
291
     1
 45
0.0
1001
ACAD
1000
AcDbSavedByObjectVersion
1070
     0
  0
VISUALSTYLE
  5
3A
102
{ACAD_REACTORS
330
2A
102
}
330
2A
100
AcDbVisualStyle
  2
ColorChange
 70
    16
 71
     2
 72
     2
 73
     3
 90
        0
 40
-0.6
 41
-30.0
 62
     5
 63
     8
421
  8421504
 74
     1
 91
        4
 64
     7
 65
   257
 75
     1
175
     1
 42
1.0
 92
        8
 66
     8
424
  8421504
 43
1.0
 76
     1
 77
     6
 78
     2
 67
     7
 79
     5
170
     0
171
     0
290
     0
174
     0
 93
        1
 44
0.0
173
     0
291
     1
 45
0.0
1001
ACAD
1000
AcDbSavedByObjectVersion
1070
     0
  0
VISUALSTYLE
  5
34
102
{ACAD_REACTORS
330
2A
102
}
330
2A
100
AcDbVisualStyle
  2
Conceptual
 70
     9
 71
     3
 72
     2
 73
     0
 90
        0
 40
-0.6
 41
-30.0
 62
     5
 63
     7
421
 16777215
 74
     2
 91
        2
 64
     7
 65
   257
 75
     1
175
     1
 42
40.0
 92
        8
 66
     7
 43
1.0
 76
     1
 77
     6
 78
     2
 67
     7
 79
     3
170
     0
171
     0
290
     0
174
     0
 93
        1
 44
0.0
173
     0
291
     0
 45
0.0
1001
ACAD
1000
AcDbSavedByObjectVersion
1070
     0
  0
VISUALSTYLE
  5
35
102
{ACAD_REACTORS
330
2A
102
}
330
2A
100
AcDbVisualStyle
  2
Dim
 70
    11
 71
     2
 72
     2
 73
     0
 90
        0
 40
-0.6
 41
-30.0
 62
     5
 63
     7
421
 16777215
 74
     1
 91
        4
 64
     7
 65
   257
 75
     1
175
     1
 42
1.0
 92
        8
 66
     7
 43
1.0
 76
     1
 77
     6
 78
     2
 67
     7
 79
     5
170
     0
171
     0
290
     0
174
     0
 93
        1
 44
-50.0
173
     0
291
     1
 45
0.0
1001
ACAD
1000
AcDbSavedByObjectVersion
1070
     0
  0
VISUALSTYLE
  5
39
102
{ACAD_REACTORS
330
2A
102
}
330
2A
100
AcDbVisualStyle
  2
Facepattern
 70
    15
 71
     2
 72
     2
 73
     0
 90
        0
 40
-0.6
 41
-30.0
 62
     5
 63
     7
421
 16777215
 74
     1
 91
        4
 64
     7
 65
   257
 75
     1
175
     1
 42
1.0
 92
        8
 66
     7
 43
1.0
 76
     1
 77
     6
 78
     2
 67
     7
 79
     5
170
     0
171
     0
290
     0
174
     0
 93
        1
 44
0.0
173
     0
291
     1
 45
0.0
1001
ACAD
1000
AcDbSavedByObjectVersion
1070
     0
  0
VISUALSTYLE
  5
2B
102
{ACAD_REACTORS
330
2A
102
}
330
2A
100
AcDbVisualStyle
  2
Flat
 70
     0
 71
     2
 72
     1
 73
     1
 90
        2
 40
-0.6
 41
30.0
 62
     5
 63
     7
421
 16777215
 74
     0
 91
        4
 64
     7
 65
   257
 75
     1
175
     1
 42
1.0
 92
        8
 66
     7
 43
1.0
 76
     1
 77
     6
 78
     2
 67
     7
 79
     5
170
     0
171
     0
290
     0
174
     0
 93
       13
 44
0.0
173
     0
291
     1
 45
0.0
1001
ACAD
1000
AcDbSavedByObjectVersion
1070
     0
  0
VISUALSTYLE
  5
2C
102
{ACAD_REACTORS
330
2A
102
}
330
2A
100
AcDbVisualStyle
  2
FlatWithEdges
 70
     1
 71
     2
 72
     1
 73
     1
 90
        2
 40
-0.6
 41
30.0
 62
     5
 63
     7
421
 16777215
 74
     1
 91
        4
 64
     7
 65
   257
 75
     1
175
     1
 42
1.0
 92
        0
 66
   257
 43
1.0
 76
     1
 77
     6
 78
     2
 67
     7
 79
     5
170
     0
171
     0
290
     0
174
     0
 93
       13
 44
0.0
173
     0
291
     1
 45
0.0
1001
ACAD
1000
AcDbSavedByObjectVersion
1070
     0
  0
VISUALSTYLE
  5
2D
102
{ACAD_REACTORS
330
2A
102
}
330
2A
100
AcDbVisualStyle
  2
Gouraud
 70
     2
 71
     2
 72
     2
 73
     1
 90
        2
 40
-0.6
 41
30.0
 62
     5
 63
     7
421
 16777215
 74
     0
 91
        4
 64
     7
 65
   257
 75
     1
175
     1
 42
1.0
 92
        0
 66
     7
 43
1.0
 76
     1
 77
     6
 78
     2
 67
     7
 79
     5
170
     0
171
     0
290
     0
174
     0
 93
       13
 44
0.0
173
     0
291
     1
 45
0.0
1001
ACAD
1000
AcDbSavedByObjectVersion
1070
     0
  0
VISUALSTYLE
  5
2E
102
{ACAD_REACTORS
330
2A
102
}
330
2A
100
AcDbVisualStyle
  2
GouraudWithEdges
 70
     3
 71
     2
 72
     2
 73
     1
 90
        2
 40
-0.6
 41
30.0
 62
     5
 63
     7
421
 16777215
 74
     1
 91
        4
 64
     7
 65
   257
 75
     1
175
     1
 42
1.0
 92
        0
 66
   257
 43
1.0
 76
     1
 77
     6
 78
     2
 67
     7
 79
     5
170
     0
171
     0
290
     0
174
     0
 93
       13
 44
0.0
173
     0
291
     1
 45
0.0
1001
ACAD
1000
AcDbSavedByObjectVersion
1070
     0
  0
VISUALSTYLE
  5
38
102
{ACAD_REACTORS
330
2A
102
}
330
2A
100
AcDbVisualStyle
  2
Linepattern
 70
    14
 71
     2
 72
     2
 73
     0
 90
        0
 40
-0.6
 41
-30.0
 62
     5
 63
     7
421
 16777215
 74
     1
 91
        4
 64
     7
 65
   257
 75
     7
175
     7
 42
1.0
 92
        8
 66
     7
 43
1.0
 76
     1
 77
     6
 78
     2
 67
     7
 79
     5
170
     0
171
     0
290
     0
174
     0
 93
        1
 44
0.0
173
     0
291
     1
 45
0.0
1001
ACAD
1000
AcDbSavedByObjectVersion
1070
     0
  0
VISUALSTYLE
  5
33
102
{ACAD_REACTORS
330
2A
102
}
330
2A
100
AcDbVisualStyle
  2
Realistic
 70
     8
 71
     2
 72
     2
 73
     0
 90
        0
 40
-0.6
 41
-30.0
 62
     5
 63
     7
421
 16777215
 74
     1
 91
        0
 64
     7
 65
   257
 75
     1
175
     1
 42
1.0
 92
        8
 66
     8
424
  7895160
 43
1.0
 76
     1
 77
     6
 78
     2
 67
     7
 79
     5
170
     0
171
     0
290
     0
174
     0
 93
       13
 44
0.0
173
     0
291
     0
 45
0.0
1001
ACAD
1000
AcDbSavedByObjectVersion
1070
     0
  0
VISUALSTYLE
  5
37
102
{ACAD_REACTORS
330
2A
102
}
330
2A
100
AcDbVisualStyle
  2
Thicken
 70
    13
 71
     2
 72
     2
 73
     0
 90
        0
 40
-0.6
 41
-30.0
 62
     5
 63
     7
421
 16777215
 74
     1
 91
        4
 64
     7
 65
   257
 75
     1
175
     1
 42
1.0
 92
       12
 66
     7
 43
1.0
 76
     1
 77
     6
 78
     2
 67
     7
 79
     5
170
     0
171
     0
290
     0
174
     0
 93
        1
 44
0.0
173
     0
291
     1
 45
0.0
1001
ACAD
1000
AcDbSavedByObjectVersion
1070
     0
  0
ENDSEC
  0
EOF
