  0
SECTION
  2
HEADER
  9
$ACADVER
  1
AC1027
  9
$ACADMAINTVER
 70
    20
  9
$DWGCODEPAGE
  3
ANSI_932
  9
$REQUIREDVERSIONS
160
                 0
  9
$INSBASE
 10
0.0
 20
0.0
 30
0.0
  9
$EXTMIN
 10
-0.0001171284044688
 20
-0.0001504967795114
 30
-0.0000000000112498
  9
$EXTMAX
 10
50.00406193372686
 20
13.70915790281766
 30
0.0000000000002956
  9
$LIMMIN
 10
-7.736359173441769
 20
-13.73874460813579
  9
$LIMMAX
 10
60.06283148288367
 20
26.24582313911139
  9
$ORTHOMODE
 70
     1
  9
$REGENMODE
 70
     1
  9
$FILLMODE
 70
     1
  9
$QTEXTMODE
 70
     0
  9
$MIRRTEXT
 70
     1
  9
$LTSCALE
 40
1.0
  9
$ATTMODE
 70
     1
  9
$TEXTSIZE
 40
3.5
  9
$TRACEWID
 40
1.0
  9
$TEXTSTYLE
  7
Standard
  9
$CLAYER
  8
0
  9
$CELTYPE
  6
ByLayer
  9
$CECOLOR
 62
   256
  9
$CELTSCALE
 40
1.0
  9
$DISPSILH
 70
     0
  9
$DIMSCALE
 40
1.0
  9
$DIMASZ
 40
2.5
  9
$DIMEXO
 40
0.625
  9
$DIMDLI
 40
3.75
  9
$DIMRND
 40
0.0
  9
$DIMDLE
 40
0.0
  9
$DIMEXE
 40
1.25
  9
$DIMTP
 40
0.0
  9
$DIMTM
 40
0.0
  9
$DIMTXT
 40
2.5
  9
$DIMCEN
 40
2.5
  9
$DIMTSZ
 40
0.0
  9
$DIMTOL
 70
     0
  9
$DIMLIM
 70
     0
  9
$DIMTIH
 70
     0
  9
$DIMTOH
 70
     0
  9
$DIMSE1
 70
     0
  9
$DIMSE2
 70
     0
  9
$DIMTAD
 70
     1
  9
$DIMZIN
 70
     8
  9
$DIMBLK
  1

  9
$DIMASO
 70
     1
  9
$DIMSHO
 70
     1
  9
$DIMPOST
  1

  9
$DIMAPOST
  1

  9
$DIMALT
 70
     0
  9
$DIMALTD
 70
     3
  9
$DIMALTF
 40
0.0393700787
  9
$DIMLFAC
 40
1.0
  9
$DIMTOFL
 70
     1
  9
$DIMTVP
 40
0.0
  9
$DIMTIX
 70
     0
  9
$DIMSOXD
 70
     0
  9
$DIMSAH
 70
     0
  9
$DIMBLK1
  1

  9
$DIMBLK2
  1

  9
$DIMSTYLE
  2
ISO-25
  9
$DIMCLRD
 70
     0
  9
$DIMCLRE
 70
     0
  9
$DIMCLRT
 70
     0
  9
$DIMTFAC
 40
1.0
  9
$DIMGAP
 40
0.625
  9
$DIMJUST
 70
     0
  9
$DIMSD1
 70
     0
  9
$DIMSD2
 70
     0
  9
$DIMTOLJ
 70
     0
  9
$DIMTZIN
 70
     8
  9
$DIMALTZ
 70
     0
  9
$DIMALTTZ
 70
     0
  9
$DIMUPT
 70
     0
  9
$DIMDEC
 70
     2
  9
$DIMTDEC
 70
     2
  9
$DIMALTU
 70
     2
  9
$DIMALTTD
 70
     3
  9
$DIMTXSTY
  7
Standard
  9
$DIMAUNIT
 70
     0
  9
$DIMADEC
 70
     0
  9
$DIMALTRND
 40
0.0
  9
$DIMAZIN
 70
     0
  9
$DIMDSEP
 70
    44
  9
$DIMATFIT
 70
     3
  9
$DIMFRAC
 70
     0
  9
$DIMLDRBLK
  1

  9
$DIMLUNIT
 70
     2
  9
$DIMLWD
 70
    -2
  9
$DIMLWE
 70
    -2
  9
$DIMTMOVE
 70
     0
  9
$DIMFXL
 40
1.0
  9
$DIMFXLON
 70
     0
  9
$DIMJOGANG
 40
0.7853981633974483
  9
$DIMTFILL
 70
     0
  9
$DIMTFILLCLR
 70
     0
  9
$DIMARCSYM
 70
     0
  9
$DIMLTYPE
  6

  9
$DIMLTEX1
  6

  9
$DIMLTEX2
  6

  9
$DIMTXTDIRECTION
 70
     0
  9
$LUNITS
 70
     2
  9
$LUPREC
 70
     2
  9
$SKETCHINC
 40
1.0
  9
$FILLETRAD
 40
10.0
  9
$AUNITS
 70
     0
  9
$AUPREC
 70
     2
  9
$MENU
  1
.
  9
$ELEVATION
 40
0.0
  9
$PELEVATION
 40
0.0
  9
$THICKNESS
 40
0.0
  9
$LIMCHECK
 70
     0
  9
$CHAMFERA
 40
0.0
  9
$CHAMFERB
 40
0.0
  9
$CHAMFERC
 40
0.0
  9
$CHAMFERD
 40
0.0
  9
$SKPOLY
 70
     0
  9
$TDCREATE
 40
2458037.569380775
  9
$TDUCREATE
 40
2458037.194380775
  9
$TDUPDATE
 40
2458037.722473437
  9
$TDUUPDATE
 40
2458037.347473438
  9
$TDINDWG
 40
0.0157957407
  9
$TDUSRTIMER
 40
0.0157956250
  9
$USRTIMER
 70
     1
  9
$ANGBASE
 50
0.0
  9
$ANGDIR
 70
     0
  9
$PDMODE
 70
     0
  9
$PDSIZE
 40
-1.0
  9
$PLINEWID
 40
0.0
  9
$SPLFRAME
 70
     0
  9
$SPLINETYPE
 70
     6
  9
$SPLINESEGS
 70
     8
  9
$HANDSEED
  5
162
  9
$SURFTAB1
 70
     6
  9
$SURFTAB2
 70
     6
  9
$SURFTYPE
 70
     6
  9
$SURFU
 70
     6
  9
$SURFV
 70
     6
  9
$UCSBASE
  2

  9
$UCSNAME
  2

  9
$UCSORG
 10
0.0
 20
0.0
 30
0.0
  9
$UCSXDIR
 10
1.0
 20
0.0
 30
0.0
  9
$UCSYDIR
 10
0.0
 20
1.0
 30
0.0
  9
$UCSORTHOREF
  2

  9
$UCSORTHOVIEW
 70
     0
  9
$UCSORGTOP
 10
0.0
 20
0.0
 30
0.0
  9
$UCSORGBOTTOM
 10
0.0
 20
0.0
 30
0.0
  9
$UCSORGLEFT
 10
0.0
 20
0.0
 30
0.0
  9
$UCSORGRIGHT
 10
0.0
 20
0.0
 30
0.0
  9
$UCSORGFRONT
 10
0.0
 20
0.0
 30
0.0
  9
$UCSORGBACK
 10
0.0
 20
0.0
 30
0.0
  9
$PUCSBASE
  2

  9
$PUCSNAME
  2

  9
$PUCSORG
 10
0.0
 20
0.0
 30
0.0
  9
$PUCSXDIR
 10
1.0
 20
0.0
 30
0.0
  9
$PUCSYDIR
 10
0.0
 20
1.0
 30
0.0
  9
$PUCSORTHOREF
  2

  9
$PUCSORTHOVIEW
 70
     0
  9
$PUCSORGTOP
 10
0.0
 20
0.0
 30
0.0
  9
$PUCSORGBOTTOM
 10
0.0
 20
0.0
 30
0.0
  9
$PUCSORGLEFT
 10
0.0
 20
0.0
 30
0.0
  9
$PUCSORGRIGHT
 10
0.0
 20
0.0
 30
0.0
  9
$PUCSORGFRONT
 10
0.0
 20
0.0
 30
0.0
  9
$PUCSORGBACK
 10
0.0
 20
0.0
 30
0.0
  9
$USERI1
 70
     0
  9
$USERI2
 70
     0
  9
$USERI3
 70
     0
  9
$USERI4
 70
     0
  9
$USERI5
 70
     0
  9
$USERR1
 40
0.0
  9
$USERR2
 40
0.0
  9
$USERR3
 40
0.0
  9
$USERR4
 40
0.0
  9
$USERR5
 40
0.0
  9
$WORLDVIEW
 70
     1
  9
$SHADEDGE
 70
     3
  9
$SHADEDIF
 70
    70
  9
$TILEMODE
 70
     1
  9
$MAXACTVP
 70
    64
  9
$PINSBASE
 10
0.0
 20
0.0
 30
0.0
  9
$PLIMCHECK
 70
     0
  9
$PEXTMIN
 10
1.000000000000000E+20
 20
1.000000000000000E+20
 30
1.000000000000000E+20
  9
$PEXTMAX
 10
-1.000000000000000E+20
 20
-1.000000000000000E+20
 30
-1.000000000000000E+20
  9
$PLIMMIN
 10
0.0
 20
0.0
  9
$PLIMMAX
 10
420.0
 20
297.0
  9
$UNITMODE
 70
     0
  9
$VISRETAIN
 70
     1
  9
$PLINEGEN
 70
     0
  9
$PSLTSCALE
 70
     1
  9
$TREEDEPTH
 70
  3020
  9
$CMLSTYLE
  2
Standard
  9
$CMLJUST
 70
     0
  9
$CMLSCALE
 40
20.0
  9
$PROXYGRAPHICS
 70
     1
  9
$MEASUREMENT
 70
     1
  9
$CELWEIGHT
370
    -1
  9
$ENDCAPS
280
     0
  9
$JOINSTYLE
280
     0
  9
$LWDISPLAY
290
     0
  9
$INSUNITS
 70
     4
  9
$HYPERLINKBASE
  1

  9
$STYLESHEET
  1

  9
$XEDIT
290
     1
  9
$CEPSNTYPE
380
     0
  9
$PSTYLEMODE
290
     1
  9
$FINGERPRINTGUID
  2
{8BCDF7E3-A818-4454-9D45-DECFCA1EB21C}
  9
$VERSIONGUID
  2
{3091840F-274B-46F8-91D4-5B838727BAA6}
  9
$EXTNAMES
290
     1
  9
$PSVPSCALE
 40
0.0
  9
$OLESTARTUP
290
     0
  9
$SORTENTS
280
   127
  9
$INDEXCTL
280
     0
  9
$HIDETEXT
280
     1
  9
$XCLIPFRAME
280
     2
  9
$HALOGAP
280
     0
  9
$OBSCOLOR
 70
   257
  9
$OBSLTYPE
280
     0
  9
$INTERSECTIONDISPLAY
280
     0
  9
$INTERSECTIONCOLOR
 70
   257
  9
$DIMASSOC
280
     1
  9
$PROJECTNAME
  1

  9
$CAMERADISPLAY
290
     0
  9
$LENSLENGTH
 40
50.0
  9
$CAMERAHEIGHT
 40
0.0
  9
$STEPSPERSEC
 40
2.0
  9
$STEPSIZE
 40
6.0
  9
$3DDWFPREC
 40
2.0
  9
$PSOLWIDTH
 40
0.25
  9
$PSOLHEIGHT
 40
4.0
  9
$LOFTANG1
 40
1.570796326794896
  9
$LOFTANG2
 40
1.570796326794896
  9
$LOFTMAG1
 40
0.0
  9
$LOFTMAG2
 40
0.0
  9
$LOFTPARAM
 70
     7
  9
$LOFTNORMALS
280
     1
  9
$LATITUDE
 40
37.795
  9
$LONGITUDE
 40
-122.394
  9
$NORTHDIRECTION
 40
0.0
  9
$TIMEZONE
 70
 -8000
  9
$LIGHTGLYPHDISPLAY
280
     1
  9
$TILEMODELIGHTSYNCH
280
     1
  9
$CMATERIAL
347
35
  9
$SOLIDHIST
280
     0
  9
$SHOWHIST
280
     1
  9
$DWFFRAME
280
     2
  9
$DGNFRAME
280
     0
  9
$REALWORLDSCALE
290
     1
  9
$INTERFERECOLOR
 62
     1
  9
$INTERFEREOBJVS
345
4B
  9
$INTERFEREVPVS
346
4C
  9
$CSHADOW
280
     0
  9
$SHADOWPLANELOCATION
 40
0.0
  0
ENDSEC
  0
SECTION
  2
CLASSES
  0
CLASS
  1
ACDBDICTIONARYWDFLT
  2
AcDbDictionaryWithDefault
  3
ObjectDBX Classes
 90
        0
 91
        1
280
     0
281
     0
  0
CLASS
  1
VISUALSTYLE
  2
AcDbVisualStyle
  3
ObjectDBX Classes
 90
     4095
 91
        3
280
     0
281
     0
  0
CLASS
  1
MATERIAL
  2
AcDbMaterial
  3
ObjectDBX Classes
 90
     1153
 91
        3
280
     0
281
     0
  0
CLASS
  1
SCALE
  2
AcDbScale
  3
ObjectDBX Classes
 90
     1153
 91
       33
280
     0
281
     0
  0
CLASS
  1
TABLESTYLE
  2
AcDbTableStyle
  3
ObjectDBX Classes
 90
     4095
 91
        1
280
     0
281
     0
  0
CLASS
  1
MLEADERSTYLE
  2
AcDbMLeaderStyle
  3
ACDB_MLEADERSTYLE_CLASS
 90
     4095
 91
        0
280
     0
281
     0
  0
CLASS
  1
SUN
  2
AcDbSun
  3
SCENEOE
 90
     1153
 91
        0
280
     1
281
     0
  0
CLASS
  1
ACDBSECTIONVIEWSTYLE
  2
AcDbSectionViewStyle
  3
ObjectDBX Classes
 90
     1025
 91
        0
280
     0
281
     0
  0
CLASS
  1
ACDBDETAILVIEWSTYLE
  2
AcDbDetailViewStyle
  3
ObjectDBX Classes
 90
     1025
 91
        0
280
     0
281
     0
  0
CLASS
  1
DICTIONARYVAR
  2
AcDbDictionaryVar
  3
ObjectDBX Classes
 90
        0
 91
        9
280
     0
281
     0
  0
CLASS
  1
SORTENTSTABLE
  2
AcDbSortentsTable
  3
ObjectDBX Classes
 90
        0
 91
        2
280
     0
281
     0
  0
CLASS
  1
SOLID_BACKGROUND
  2
AcDbSolidBackground
  3
SCENEOE
 90
     4095
 91
        0
280
     0
281
     0
  0
CLASS
  1
NPOCOLLECTION
  2
AcDbImpNonPersistentObjectsCollection
  3
ObjectDBX Classes
 90
     1153
 91
        0
280
     0
281
     0
  0
CLASS
  1
CELLSTYLEMAP
  2
AcDbCellStyleMap
  3
ObjectDBX Classes
 90
     1152
 91
        1
280
     0
281
     0
  0
ENDSEC
  0
SECTION
  2
TABLES
  0
TABLE
  2
VPORT
  5
28
330
0
100
AcDbSymbolTable
 70
     1
  0
VPORT
  5
29
330
28
100
AcDbSymbolTableRecord
100
AcDbViewportTableRecord
  2
*Active
 70
     0
 10
0.0
 20
0.0
 11
1.0
 21
1.0
 12
26.16323615472095
 22
9.190623695821987
 13
0.0
 23
0.0
 14
10.0
 24
10.0
 15
10.0
 25
10.0
 16
0.0
 26
0.0
 36
1.0
 17
0.0
 27
0.0
 37
0.0
 40
40.27250488186627
 41
2.232941176470588
 42
50.0
 43
0.0
 44
0.0
 50
0.0
 51
0.0
 71
     0
 72
  2000
 73
     1
 74
     3
 75
     0
 76
     0
 77
     0
 78
     0
281
     0
 65
     1
110
0.0
120
0.0
130
0.0
111
1.0
121
0.0
131
0.0
112
0.0
122
1.0
132
0.0
 79
     0
146
0.0
348
2A
 60
     3
 61
     5
292
     1
282
     1
141
0.0
142
0.0
 63
   250
421
  3355443
1001
ACAD_NAV_VCDISPLAY
1070
     3
  0
ENDTAB
  0
TABLE
  2
LTYPE
  5
23
330
0
100
AcDbSymbolTable
 70
     1
  0
LTYPE
  5
24
330
23
100
AcDbSymbolTableRecord
100
AcDbLinetypeTableRecord
  2
ByBlock
 70
     0
  3

 72
    65
 73
     0
 40
0.0
  0
LTYPE
  5
25
330
23
100
AcDbSymbolTableRecord
100
AcDbLinetypeTableRecord
  2
ByLayer
 70
     0
  3

 72
    65
 73
     0
 40
0.0
  0
LTYPE
  5
15
330
23
100
AcDbSymbolTableRecord
100
AcDbLinetypeTableRecord
  2
Continuous
 70
     0
  3
Solid line
 72
    65
 73
     0
 40
0.0
  0
ENDTAB
  0
TABLE
  2
LAYER
  5
1D
102
{ACAD_XDICTIONARY
360
1E
102
}
330
0
100
AcDbSymbolTable
 70
     1
  0
LAYER
  5
6
102
{ACAD_XDICTIONARY
360
7
102
}
330
1D
100
AcDbSymbolTableRecord
100
AcDbLayerTableRecord
  2
0
 70
     0
 62
     7
  6
Continuous
370
    -3
390
9
347
C
348
0
  0
ENDTAB
  0
TABLE
  2
STYLE
  5
20
330
0
100
AcDbSymbolTable
 70
     1
  0
STYLE
  5
21
330
20
100
AcDbSymbolTableRecord
100
AcDbTextStyleTableRecord
  2
Standard
 70
     0
 40
0.0
 41
1.0
 50
0.0
 71
     0
 42
3.5
  3
txt
  4
bigfont
  0
ENDTAB
  0
TABLE
  2
VIEW
  5
26
330
0
100
AcDbSymbolTable
 70
     0
  0
ENDTAB
  0
TABLE
  2
UCS
  5
27
330
0
100
AcDbSymbolTable
 70
     0
  0
ENDTAB
  0
TABLE
  2
APPID
  5
2D
330
0
100
AcDbSymbolTable
 70
     2
  0
APPID
  5
2E
330
2D
100
AcDbSymbolTableRecord
100
AcDbRegAppTableRecord
  2
ACAD
 70
     0
  0
APPID
  5
2C
330
2D
100
AcDbSymbolTableRecord
100
AcDbRegAppTableRecord
  2
ACAD_NAV_VCDISPLAY
 70
     0
  0
ENDTAB
  0
TABLE
  2
DIMSTYLE
  5
2F
330
0
100
AcDbSymbolTable
 70
     1
100
AcDbDimStyleTable
 71
     1
340
30
  0
DIMSTYLE
105
30
330
2F
100
AcDbSymbolTableRecord
100
AcDbDimStyleTableRecord
  2
ISO-25
 70
     0
 41
2.5
 42
0.625
 43
3.75
 44
1.25
 73
     0
 74
     0
 77
     1
 78
     8
140
2.5
141
2.5
143
0.0393700787
147
0.625
171
     3
172
     1
271
     2
272
     2
274
     3
278
    44
283
     0
284
     8
340
21
  0
ENDTAB
  0
TABLE
  2
BLOCK_RECORD
  5
1
330
0
100
AcDbSymbolTable
 70
     0
  0
BLOCK_RECORD
  5
2
102
{ACAD_XDICTIONARY
360
3
102
}
330
1
100
AcDbSymbolTableRecord
100
AcDbBlockTableRecord
  2
*Model_Space
340
17
 70
     0
280
     1
281
     0
  0
BLOCK_RECORD
  5
19
330
1
100
AcDbSymbolTableRecord
100
AcDbBlockTableRecord
  2
*Paper_Space
340
1C
 70
     0
280
     1
281
     0
  0
ENDTAB
  0
ENDSEC
  0
SECTION
  2
BLOCKS
  0
BLOCK
  5
5
330
2
100
AcDbEntity
  8
0
100
AcDbBlockBegin
  2
*Model_Space
 70
     0
 10
0.0
 20
0.0
 30
0.0
  3
*Model_Space
  1

  0
ENDBLK
  5
16
330
2
100
AcDbEntity
  8
0
100
AcDbBlockEnd
  0
BLOCK
  5
1A
330
19
100
AcDbEntity
 67
     1
  8
0
100
AcDbBlockBegin
  2
*Paper_Space
 70
     0
 10
0.0
 20
0.0
 30
0.0
  3
*Paper_Space
  1

  0
ENDBLK
  5
1B
330
19
100
AcDbEntity
 67
     1
  8
0
100
AcDbBlockEnd
  0
ENDSEC
  0
SECTION
  2
ENTITIES
  0
ARC
  5
6E
330
2
100
AcDbEntity
  8
0
100
AcDbCircle
 10
48.51773296707797
 20
12.71621204490526
 30
0.0
 40
0.0623881039132678
100
AcDbArc
 50
180.0
 51
255.4891813009007
  0
SPLINE
  5
6F
330
2
100
AcDbEntity
  8
0
100
AcDbSpline
210
0.0
220
0.0
230
1.0
 70
     8
 71
     3
 72
     9
 73
     5
 74
     0
 42
0.000000001
 43
0.0000000001
 40
0.0
 40
0.0
 40
0.0
 40
0.0
 40
0.6365801636223791
 40
1.0
 40
1.0
 40
1.0
 40
1.0
 10
48.44771480096045
 20
12.8426300658578
 30
0.0
 10
48.4549722217634
 20
12.80600382803259
 30
0.0
 10
48.45508343865599
 20
12.76880058798475
 30
0.0
 10
48.45470792354694
 20
12.73222323093152
 30
0.0
 10
48.45534418703988
 20
12.71915139745905
 30
0.0
  0
LINE
  5
70
330
2
100
AcDbEntity
  8
0
100
AcDbLine
 10
48.45534418703988
 20
12.71915139745905
 30
0.0
 11
48.45534418703988
 21
12.71621186661254
 31
0.0
  0
LINE
  5
71
330
2
100
AcDbEntity
  8
0
100
AcDbLine
 10
48.50209938976874
 20
12.65581373103217
 30
0.0
 11
48.50621694232625
 21
12.65474803001856
 31
0.0
  0
SPLINE
  5
72
330
2
100
AcDbEntity
  8
0
100
AcDbSpline
210
0.0
220
0.0
230
1.0
 70
     8
 71
     3
 72
     9
 73
     5
 74
     0
 42
0.000000001
 43
0.0000000001
 40
0.0
 40
0.0
 40
0.0
 40
0.0
 40
0.2170690133087815
 40
1.0
 40
1.0
 40
1.0
 40
1.0
 10
48.50621694232625
 20
12.65474803001856
 30
0.0
 10
48.51719913854097
 20
12.65179516078584
 30
0.0
 10
48.56834899446404
 20
12.63849230188681
 30
0.0
 10
48.61962342375984
 20
12.62474243804459
 30
0.0
 10
48.65976776328043
 20
12.61397724357972
 30
0.0
  0
LINE
  5
73
330
2
100
AcDbEntity
  8
0
100
AcDbLine
 10
49.16862224924325
 20
12.73193676364791
 30
0.0
 11
49.40684098538703
 21
12.79359230945213
 31
0.0
  0
LINE
  5
74
330
2
100
AcDbEntity
  8
0
100
AcDbLine
 10
48.65976776328043
 20
12.61397724357972
 30
0.0
 11
48.94809736808837
 21
12.54038096017382
 31
0.0
  0
SPLINE
  5
75
330
2
100
AcDbEntity
  8
0
100
AcDbSpline
210
0.0
220
0.0
230
1.0
 70
     8
 71
     3
 72
    13
 73
     9
 74
     0
 42
0.000000001
 43
0.0000000001
 40
0.0
 40
0.0
 40
0.0
 40
0.0
 40
0.1798615647400416
 40
0.3633394170742043
 40
0.5471439119550955
 40
0.7255083656555236
 40
0.8996131969033353
 40
1.0
 40
1.0
 40
1.0
 40
1.0
 10
49.12714587629473
 20
12.6489739122018
 30
0.0
 10
49.12758352318395
 20
12.6563422348761
 30
0.0
 10
49.12846761626878
 20
12.67122702735056
 30
0.0
 10
49.13570355607788
 20
12.69416594512374
 30
0.0
 10
49.14628246092142
 20
12.71344450176829
 30
0.0
 10
49.15798792247523
 20
12.72636843306997
 30
0.0
 10
49.16592410960638
 20
12.7311288408708
 30
0.0
 10
49.16789972805993
 20
12.73172041408483
 30
0.0
 10
49.16862224924408
 20
12.73193676364276
 30
0.0
  0
ARC
  5
76
330
2
100
AcDbEntity
  8
0
100
AcDbCircle
 10
49.06475960371709
 20
12.62486952119659
 30
0.0
 40
0.0623881039132678
100
AcDbArc
 50
284.5108186990993
 51
0.0
  0
LINE
  5
77
330
2
100
AcDbEntity
  8
0
100
AcDbLine
 10
49.12714587628995
 20
12.62486904082067
 30
0.0
 11
49.12714587628995
 21
12.64897391220359
 31
0.0
  0
LINE
  5
78
330
2
100
AcDbEntity
  8
0
100
AcDbLine
 10
48.35009662345634
 20
13.17778885528487
 30
0.0
 11
45.94393382789616
 21
12.55502809817224
 31
0.0
  0
LINE
  5
79
330
2
100
AcDbEntity
  8
0
100
AcDbLine
 10
48.98333984138019
 20
12.53935269497977
 30
0.0
 11
49.08039328248186
 21
12.56447197393606
 31
0.0
  0
LINE
  5
7A
330
2
100
AcDbEntity
  8
0
100
AcDbLine
 10
48.94809736808837
 20
12.54038096017382
 30
0.0
 11
48.95207292970102
 21
12.53935200910989
 31
0.0
  0
ARC
  5
7B
330
2
100
AcDbEntity
  8
0
100
AcDbCircle
 10
48.96770649076439
 20
12.59975032717546
 30
0.0
 40
0.0623881039132576
100
AcDbArc
 50
255.4891813009007
 51
284.5108186990993
  0
LINE
  5
7C
330
2
100
AcDbEntity
  8
0
100
AcDbLine
 10
46.15961472654332
 20
12.19409859565764
 30
0.0
 11
48.45452076907567
 21
12.78806398618717
 31
0.0
  0
SPLINE
  5
7D
330
2
100
AcDbEntity
  8
0
100
AcDbSpline
210
0.0
220
0.0
230
1.0
 70
     8
 71
     3
 72
    11
 73
     7
 74
     0
 42
0.000000001
 43
0.0000000001
 40
0.0642005403531258
 40
0.0642005403531258
 40
0.0642005403531258
 40
0.0642005403531258
 40
0.2090075643689372
 40
0.4864150028268102
 40
0.7339748711091128
 40
0.925574081958574
 40
0.925574081958574
 40
0.925574081958574
 40
0.925574081958574
 10
42.8526698657347
 20
11.79822606559339
 30
0.0
 10
42.84820927180932
 20
11.81008525293156
 30
0.0
 10
42.83416797764248
 20
11.84391928815527
 30
0.0
 10
42.79630105995777
 20
11.88639072675201
 30
0.0
 10
42.75407849474184
 20
11.90262100813729
 30
0.0
 10
42.73120454901421
 20
11.9101170004432
 30
0.0
 10
42.71497002464113
 20
11.91327154673697
 30
0.0
  0
SPLINE
  5
7E
330
2
100
AcDbEntity
  8
0
100
AcDbSpline
210
0.0
220
0.0
230
1.0
 70
     8
 71
     3
 72
    12
 73
     8
 74
     0
 42
0.000000001
 43
0.0000000001
 40
0.0
 40
0.0
 40
0.0
 40
0.0
 40
0.2090075619323856
 40
0.4864149971563205
 40
0.7339748625526394
 40
0.9596572505788659
 40
1.0
 40
1.0
 40
1.0
 40
1.0
 10
42.2408523746463
 20
11.94220179187948
 30
0.0
 10
42.23464143304645
 20
11.9594820314683
 30
0.0
 10
42.22018695535807
 20
11.99969764669656
 30
0.0
 10
42.17869034277703
 20
12.04624014717395
 30
0.0
 10
42.128992293172
 20
12.07257061115203
 30
0.0
 10
42.08957700019444
 20
12.08035557370373
 30
0.0
 10
42.07007557431526
 20
12.07369020254678
 30
0.0
 10
42.06839892681555
 20
12.07309775023576
 30
0.0
  0
LINE
  5
7F
330
2
100
AcDbEntity
  8
0
100
AcDbLine
 10
42.06532981059917
 20
12.07236232211173
 30
0.0
 11
42.04768612081156
 21
12.06779579916686
 31
0.0
  0
LINE
  5
80
330
2
100
AcDbEntity
  8
0
100
AcDbLine
 10
42.14147896745982
 20
11.70540813960257
 30
0.0
 11
42.15912265724743
 21
11.70997466254744
 31
0.0
  0
LINE
  5
81
330
2
100
AcDbEntity
  8
0
100
AcDbLine
 10
7.268199748690973
 20
2.504808108242081
 30
0.0
 11
4.519912397994536
 21
1.793499000473551
 31
0.0
  0
LINE
  5
82
330
2
100
AcDbEntity
  8
0
100
AcDbLine
 10
43.04406604768083
 20
11.44370253993632
 30
0.0
 11
46.03104017873606
 21
12.21678833227831
 31
0.0
  0
LINE
  5
83
330
2
100
AcDbEntity
  8
0
100
AcDbLine
 10
45.88143587204515
 20
12.49684112782242
 30
0.0
 11
42.82017418156409
 21
11.704528300287
 31
0.0
  0
LINE
  5
84
330
2
100
AcDbEntity
  8
0
100
AcDbLine
 10
4.744036971489322
 20
1.532733497286239
 30
0.0
 11
7.405901795798545
 21
2.221674809305048
 31
0.0
  0
LINE
  5
85
330
2
100
AcDbEntity
  8
0
100
AcDbLine
 10
4.525097851058268
 20
1.835716991486426
 30
0.0
 11
2.054606583266876
 21
1.196306800627298
 31
0.0
  0
LINE
  5
86
330
2
100
AcDbEntity
  8
0
100
AcDbLine
 10
2.251313678881808
 20
0.8471122354393411
 30
0.0
 11
4.738253942382187
 21
1.490779739657986
 31
0.0
  0
ARC
  5
87
330
2
100
AcDbEntity
  8
0
100
AcDbCircle
 10
1.716074997890337
 20
1.392487498891036
 30
0.0
 40
0.0623881039132523
100
AcDbArc
 50
75.48918130090062
 51
104.5108186990993
  0
LINE
  5
88
330
2
100
AcDbEntity
  8
0
100
AcDbLine
 10
2.181680458091323
 20
1.336423666590276
 30
0.0
 11
1.731706918171518
 21
1.452885388512541
 31
0.0
  0
LINE
  5
89
330
2
100
AcDbEntity
  8
0
100
AcDbLine
 10
1.700442635951275
 20
1.452885383197082
 30
0.0
 11
1.647504992953538
 21
1.439184112988947
 31
0.0
  0
SPLINE
  5
8A
330
2
100
AcDbEntity
  8
0
100
AcDbSpline
210
0.0
220
0.0
230
1.0
 70
     8
 71
     3
 72
    10
 73
     6
 74
     0
 42
0.000000001
 43
0.0000000001
 40
0.2530385314030499
 40
0.2530385314030499
 40
0.2530385314030499
 40
0.2530385314030499
 40
0.3033357543483469
 40
0.837854652458644
 40
0.9410679087272928
 40
0.9410679087272928
 40
0.9410679087272928
 40
0.9410679087272928
 10
2.228436975549653
 20
0.8232855103628978
 30
0.0
 10
2.229008125392568
 20
0.8242292908202577
 30
0.0
 10
2.235841443617938
 20
0.834998494361541
 30
0.0
 10
2.247036491596308
 20
0.8443177414477293
 30
0.0
 10
2.250772284168113
 20
0.8467736199648218
 30
0.0
 10
2.251313678881787
 20
0.847112235439334
 30
0.0
  0
SPLINE
  5
8B
330
2
100
AcDbEntity
  8
0
100
AcDbSpline
210
0.0
220
0.0
230
1.0
 70
     8
 71
     3
 72
    13
 73
     9
 74
     0
 42
0.000000001
 43
0.0000000001
 40
0.0
 40
0.0
 40
0.0
 40
0.0
 40
0.1798584139678142
 40
0.363342623614081
 40
0.54715796585203
 40
0.7255227295590498
 40
0.8996010810965323
 40
1.0
 40
1.0
 40
1.0
 40
1.0
 10
1.600748454949985
 20
1.378786025270029
 30
0.0
 10
1.60031255778354
 20
1.371418068855828
 30
0.0
 10
1.599431976127189
 20
1.356533624168742
 30
0.0
 10
1.592192871157583
 20
1.333594336701318
 30
0.0
 10
1.581613542698436
 20
1.314316348028198
 30
0.0
 10
1.569907570442434
 20
1.301392371958461
 30
0.0
 10
1.561974499728103
 20
1.296632035092012
 30
0.0
 10
1.559997765715755
 20
1.296040320977427
 30
0.0
 10
1.559274711462566
 20
1.295823882445709
 30
0.0
  0
ARC
  5
8C
330
2
100
AcDbEntity
  8
0
100
AcDbCircle
 10
1.663136936206036
 20
1.378786120314775
 30
0.0
 40
0.0623881039132559
100
AcDbArc
 50
104.5108186990993
 51
180.0
  0
LINE
  5
8D
330
2
100
AcDbEntity
  8
0
100
AcDbLine
 10
1.559274711462687
 20
1.295823882444979
 30
0.0
 11
0.9681335346385154
 21
1.142825287536931
 31
0.0
  0
ARC
  5
8E
330
2
100
AcDbEntity
  8
0
100
AcDbCircle
 10
2.166048521576739
 20
0.6613505167632372
 30
0.0
 40
0.0623881039132555
100
AcDbArc
 50
284.5108186990993
 51
0.0
  0
LINE
  5
8F
330
2
100
AcDbEntity
  8
0
100
AcDbLine
 10
2.228436975549653
 20
0.6613505847288394
 30
0.0
 11
2.228436975549653
 21
0.8232855103628907
 31
0.0
  0
LINE
  5
90
330
2
100
AcDbEntity
  8
0
100
AcDbLine
 10
2.228436975549653
 20
1.241297429567242
 30
0.0
 11
2.228436975549653
 21
1.276025871299587
 31
0.0
  0
LINE
  5
91
330
2
100
AcDbEntity
  8
0
100
AcDbLine
 10
1.441817431325037
 20
0.4094618602286116
 30
0.0
 11
2.181680437553158
 21
0.6009524970001482
 31
0.0
  0
ARC
  5
92
330
2
100
AcDbEntity
  8
0
100
AcDbCircle
 10
2.166048521576739
 20
1.276025781161256
 30
0.0
 40
0.0623881039132555
100
AcDbArc
 50
0.0
 51
75.48918130090062
  0
LINE
  5
93
330
2
100
AcDbEntity
  8
0
100
AcDbLine
 10
42.70796029663482
 20
11.81637966128379
 30
0.0
 11
42.67163429339951
 21
11.80697779982145
 31
0.0
  0
LINE
  5
94
330
2
100
AcDbEntity
  8
0
100
AcDbLine
 10
42.58044981139788
 20
11.78337751925544
 30
0.0
 11
42.49517635988922
 21
11.76130712596251
 31
0.0
  0
LINE
  5
95
330
2
100
AcDbEntity
  8
0
100
AcDbLine
 10
43.04644575184116
 20
11.33769901575476
 30
0.0
 11
43.10107656292238
 21
11.40829371832326
 31
0.0
  0
LINE
  5
96
330
2
100
AcDbEntity
  8
0
100
AcDbLine
 10
42.99375653650137
 20
11.74945473975387
 30
0.0
 11
42.93313622706308
 21
11.77549337546179
 31
0.0
  0
LINE
  5
97
330
2
100
AcDbEntity
  8
0
100
AcDbLine
 10
42.93216298717847
 20
11.27746123756564
 30
0.0
 11
42.97325527239681
 21
11.28859418636621
 31
0.0
  0
LINE
  5
98
330
2
100
AcDbEntity
  8
0
100
AcDbLine
 10
42.40399187788759
 20
11.737706845409
 30
0.0
 11
42.34852547091499
 21
11.72335108291756
 31
0.0
  0
LINE
  5
99
330
2
100
AcDbEntity
  8
0
100
AcDbLine
 10
42.75570505365569
 20
11.23179056370672
 30
0.0
 11
42.84097850517683
 21
11.25386095699965
 31
0.0
  0
SPLINE
  5
9A
330
2
100
AcDbEntity
  8
0
100
AcDbSpline
210
0.0
220
0.0
230
1.0
 70
     8
 71
     3
 72
     9
 73
     5
 74
     0
 42
0.000000001
 43
0.0000000001
 40
0.0
 40
0.0
 40
0.0
 40
0.0
 40
0.7650042242925269
 40
1.0
 40
1.0
 40
1.0
 40
1.0
 10
41.99324697286267
 20
12.1000672178227
 30
0.0
 10
41.98739471994643
 20
12.10130499511042
 30
0.0
 10
41.97974475837704
 20
12.10292299570231
 30
0.0
 10
41.97279466577431
 20
12.09994724144349
 30
0.0
 10
41.97116142337191
 20
12.09924795176315
 30
0.0
  0
LINE
  5
9B
330
2
100
AcDbEntity
  8
0
100
AcDbLine
 10
41.97201098609422
 20
12.10031123019112
 30
0.0
 11
41.77057645075431
 21
12.05145874804698
 31
0.0
  0
LINE
  5
9C
330
2
100
AcDbEntity
  8
0
100
AcDbLine
 10
42.71497002464113
 20
11.91327154673697
 30
0.0
 11
42.15372383825393
 21
12.05853274876463
 31
0.0
  0
LINE
  5
9D
330
2
100
AcDbEntity
  8
0
100
AcDbLine
 10
42.08304586054947
 20
12.07682555546381
 30
0.0
 11
41.9932469728607
 21
12.10006721782661
 31
0.0
  0
LINE
  5
9E
330
2
100
AcDbEntity
  8
0
100
AcDbLine
 10
42.60869217530697
 20
11.19374083091751
 30
0.0
 11
42.66452057165406
 21
11.2081902831532
 31
0.0
  0
SPLINE
  5
9F
330
2
100
AcDbEntity
  8
0
100
AcDbSpline
210
0.0
220
0.0
230
1.0
 70
     8
 71
     3
 72
    11
 73
     7
 74
     0
 42
0.000000001
 43
0.0000000001
 40
0.0
 40
0.0
 40
0.0
 40
0.0
 40
0.1809046924800727
 40
0.4377072271322828
 40
0.705867857710638
 40
1.0
 40
1.0
 40
1.0
 40
1.0
 10
42.79631974370832
 20
11.0581327262615
 30
0.0
 10
42.80017725339845
 20
11.05925737717283
 30
0.0
 10
42.80951067558307
 20
11.06197852179957
 30
0.0
 10
42.82066694683123
 20
11.07367354523606
 30
0.0
 10
42.82931336427387
 20
11.09011497793419
 30
0.0
 10
42.83046498098533
 20
11.10336719180415
 30
0.0
 10
42.83106738511852
 20
11.11029934929172
 30
0.0
  0
LINE
  5
A0
330
2
100
AcDbEntity
  8
0
100
AcDbLine
 10
42.59591735434778
 20
11.00200160677055
 30
0.0
 11
42.79570153254569
 21
11.05702258665265
 31
0.0
  0
LINE
  5
A1
330
2
100
AcDbEntity
  8
0
100
AcDbLine
 10
42.83106738511333
 20
11.11029934929786
 30
0.0
 11
42.83196407273563
 21
11.25152785261041
 31
0.0
  0
SPLINE
  5
A2
330
2
100
AcDbEntity
  8
0
100
AcDbSpline
210
0.0
220
0.0
230
1.0
 70
     8
 71
     3
 72
    11
 73
     7
 74
     0
 42
0.000000001
 43
0.0000000001
 40
0.0
 40
0.0
 40
0.0
 40
0.0
 40
0.2381357458245904
 40
0.5103924398475627
 40
0.7669975297702459
 40
1.0
 40
1.0
 40
1.0
 40
1.0
 10
7.565964499849356
 20
2.432558469338686
 30
0.0
 10
7.566582152239052
 20
2.425504618654999
 30
0.0
 10
7.567905956479595
 20
2.410386216130838
 30
0.0
 10
7.577982384078667
 20
2.389447212993216
 30
0.0
 10
7.592780259294908
 20
2.37289174978169
 30
0.0
 10
7.605371592826378
 20
2.367957170027886
 30
0.0
 10
7.611363762995082
 20
2.365608821338512
 30
0.0
  0
LINE
  5
A3
330
2
100
AcDbEntity
  8
0
100
AcDbLine
 10
7.801117036817672
 20
3.259515624774562
 30
0.0
 11
7.603166538575931
 21
3.204999610499683
 31
0.0
  0
LINE
  5
A4
330
2
100
AcDbEntity
  8
0
100
AcDbLine
 10
7.564605191270425
 20
2.646890046602508
 30
0.0
 11
7.565964499847136
 21
2.432558469344552
 31
0.0
  0
LINE
  5
A5
330
2
100
AcDbEntity
  8
0
100
AcDbLine
 10
7.567796741819894
 20
3.151721833598581
 30
0.0
 11
7.564605068016483
 21
2.646911175706436
 31
0.0
  0
SPLINE
  5
A6
330
2
100
AcDbEntity
  8
0
100
AcDbSpline
210
0.0
220
0.0
230
1.0
 70
     8
 71
     3
 72
    11
 73
     7
 74
     0
 42
0.000000001
 43
0.0000000001
 40
0.0
 40
0.0
 40
0.0
 40
0.0
 40
0.1808903879284383
 40
0.4377067374048327
 40
0.7058705180302756
 40
1.0
 40
1.0
 40
1.0
 40
1.0
 10
7.602546930516008
 20
3.203889061106397
 30
0.0
 10
7.59869007284101
 20
3.202764509741252
 30
0.0
 10
7.589357500729872
 20
3.200043393850457
 30
0.0
 10
7.578198261544731
 20
3.188348173369097
 30
0.0
 10
7.569550555391039
 20
3.171906353120066
 30
0.0
 10
7.568399070841856
 20
3.158653996838546
 30
0.0
 10
7.567796741814504
 20
3.151721833593375
 30
0.0
  0
LINE
  5
A7
330
2
100
AcDbEntity
  8
0
100
AcDbLine
 10
7.565070996351445
 20
2.720730610436571
 30
0.0
 11
7.55605325654215
 21
2.718396647636923
 31
0.0
  0
LINE
  5
A8
330
2
100
AcDbEntity
  8
0
100
AcDbLine
 10
7.993042513290334
 20
2.234551439794457
 30
0.0
 11
8.050598773690479
 21
2.249448096153265
 31
0.0
  0
LINE
  5
A9
330
2
100
AcDbEntity
  8
0
100
AcDbLine
 10
7.38225364744824
 20
2.231831788133961
 30
0.0
 11
7.463898164114855
 21
2.196764881679497
 31
0.0
  0
LINE
  5
AA
330
2
100
AcDbEntity
  8
0
100
AcDbLine
 10
7.464871403999469
 20
2.694797047625332
 30
0.0
 11
7.422232048786203
 21
2.683761170430707
 31
0.0
  0
LINE
  5
AB
330
2
100
AcDbEntity
  8
0
100
AcDbLine
 10
7.353562149238754
 20
2.634716190577654
 30
0.0
 11
7.295959142985015
 21
2.563964907157389
 31
0.0
  0
LINE
  5
AC
330
2
100
AcDbEntity
  8
0
100
AcDbLine
 10
7.816581950308639
 20
2.188880085381132
 30
0.0
 11
7.901859346018188
 21
2.210951499505652
 31
0.0
  0
LINE
  5
AD
330
2
100
AcDbEntity
  8
0
100
AcDbLine
 10
7.682760742552678
 20
2.154244608174909
 30
0.0
 11
7.72540009776595
 21
2.16528048538201
 31
0.0
  0
LINE
  5
AE
330
2
100
AcDbEntity
  8
0
100
AcDbLine
 10
41.77014000114782
 20
12.0513483999741
 30
0.0
 11
7.801553938363587
 21
3.25963139171594
 31
0.0
  0
LINE
  5
AF
330
2
100
AcDbEntity
  8
0
100
AcDbLine
 10
8.39929963977779
 20
2.151262887335632
 30
0.0
 11
42.59591735434778
 21
11.00200160677055
 31
0.0
  0
LINE
  5
B0
330
2
100
AcDbEntity
  8
0
100
AcDbLine
 10
49.9999999866578
 20
13.58094066367343
 30
0.0
 11
49.51473442452704
 21
13.70653663314853
 31
0.0
  0
LINE
  5
B1
330
2
100
AcDbEntity
  8
0
100
AcDbLine
 10
49.9999999866578
 20
12.97831786891226
 30
0.0
 11
49.9999999866578
 21
13.58094066367343
 31
0.0
  0
LINE
  5
B2
330
2
100
AcDbEntity
  8
0
100
AcDbLine
 10
49.9999999866578
 20
12.97831786891226
 30
0.0
 11
49.88971236077018
 21
13.00686240693797
 31
0.0
  0
LINE
  5
B3
330
2
100
AcDbEntity
  8
0
100
AcDbLine
 10
49.88971236077018
 20
12.88633782553849
 30
0.0
 11
49.88971236077018
 21
13.00686240693797
 31
0.0
  0
LINE
  5
B4
330
2
100
AcDbEntity
  8
0
100
AcDbLine
 10
49.88971236077018
 20
12.88633782553849
 30
0.0
 11
49.62502205041467
 21
12.95484471890644
 31
0.0
  0
LINE
  5
B5
330
2
100
AcDbEntity
  8
0
100
AcDbLine
 10
49.62502205041467
 20
12.95484471890644
 30
0.0
 11
49.62502205041467
 21
13.07536930030591
 31
0.0
  0
LINE
  5
B6
330
2
100
AcDbEntity
  8
0
100
AcDbLine
 10
49.62502205041467
 20
13.07536930030591
 30
0.0
 11
49.51473442452705
 21
13.10391383833163
 31
0.0
  0
LINE
  5
B7
330
2
100
AcDbEntity
  8
0
100
AcDbLine
 10
49.51473442452705
 20
13.10391383833163
 30
0.0
 11
49.51473442452705
 21
13.70653663309282
 31
0.0
  0
LINE
  5
B8
330
2
100
AcDbEntity
  8
0
100
AcDbLine
 10
49.62502205041467
 20
13.07536930030591
 30
0.0
 11
49.47943925929075
 21
13.03768970132956
 31
0.0
  0
LINE
  5
B9
330
2
100
AcDbEntity
  8
0
100
AcDbLine
 10
49.9999999866578
 20
12.97831786891226
 30
0.0
 11
49.88970983402701
 21
12.94977267692195
 31
0.0
  0
LINE
  5
BA
330
2
100
AcDbEntity
  8
0
100
AcDbLine
 10
49.62158359749654
 20
12.88037650042638
 30
0.0
 11
49.40885486564521
 21
12.82531825317261
 31
0.0
  0
LINE
  5
BB
330
2
100
AcDbEntity
  8
0
100
AcDbLine
 10
49.40885486564521
 20
12.82531825317261
 30
0.0
 11
48.92358930351446
 21
12.950914222592
 31
0.0
  0
LINE
  5
BC
330
2
100
AcDbEntity
  8
0
100
AcDbLine
 10
48.92358930351446
 20
12.950914222592
 30
0.0
 11
49.51473442452705
 21
13.10391383833163
 31
0.0
  0
LINE
  5
BD
330
2
100
AcDbEntity
  8
0
100
AcDbLine
 10
49.17945698835127
 20
13.55949815651132
 30
0.0
 11
49.17945698835127
 21
13.07739994316208
 31
0.0
  0
LINE
  5
BE
330
2
100
AcDbEntity
  8
0
100
AcDbLine
 10
49.51473442452705
 20
13.70653663309282
 30
0.0
 11
48.93886121860741
 21
13.55748967983654
 31
0.0
  0
LINE
  5
BF
330
2
100
AcDbEntity
  8
0
100
AcDbLine
 10
48.92358930351446
 20
12.950914222592
 30
0.0
 11
48.92358930351446
 21
13.03632468916919
 31
0.0
  0
LINE
  5
C0
330
2
100
AcDbEntity
  8
0
100
AcDbLine
 10
49.47943925929075
 20
13.03768970132956
 30
0.0
 11
49.47943925929075
 21
12.91716511993008
 31
0.0
  0
LINE
  5
C1
330
2
100
AcDbEntity
  8
0
100
AcDbLine
 10
49.47943925929075
 20
12.91716511993008
 30
0.0
 11
49.62502205041467
 21
12.95484471890644
 31
0.0
  0
LINE
  5
C2
330
2
100
AcDbEntity
  8
0
100
AcDbLine
 10
49.74412956964629
 20
12.84865822654967
 30
0.0
 11
49.88971236077018
 21
12.88633782553849
 31
0.0
  0
LINE
  5
C3
330
2
100
AcDbEntity
  8
0
100
AcDbLine
 10
49.47943925929075
 20
12.91716511993008
 30
0.0
 11
49.74412956964629
 21
12.84865822654967
 31
0.0
  0
LINE
  5
C4
330
2
100
AcDbEntity
  8
0
100
AcDbLine
 10
48.3500949800414
 20
12.99975904687087
 30
0.0
 11
48.482440114681
 21
12.96550560550236
 31
0.0
  0
LINE
  5
C5
330
2
100
AcDbEntity
  8
0
100
AcDbLine
 10
48.3500949800414
 20
12.99975904687087
 30
0.0
 11
48.63243082901857
 21
13.07283294170045
 31
0.0
  0
LINE
  5
C6
330
2
100
AcDbEntity
  8
0
100
AcDbLine
 10
48.63243082901857
 20
13.07283294170045
 30
0.0
 11
49.17945698835127
 21
13.07739994316208
 31
0.0
  0
LINE
  5
C7
330
2
100
AcDbEntity
  8
0
100
AcDbLine
 10
48.63243082901857
 20
13.55493115506215
 30
0.0
 11
49.17945698835127
 21
13.55949815651132
 31
0.0
  0
LINE
  5
C8
330
2
100
AcDbEntity
  8
0
100
AcDbLine
 10
48.63243082901857
 20
13.07283294170045
 30
0.0
 11
48.63243082901857
 21
13.55493115506215
 31
0.0
  0
LINE
  5
C9
330
2
100
AcDbEntity
  8
0
100
AcDbLine
 10
48.3500949800414
 20
12.99975904687087
 30
0.0
 11
48.3500949800414
 21
13.48185726023257
 31
0.0
  0
LINE
  5
CA
330
2
100
AcDbEntity
  8
0
100
AcDbLine
 10
48.3500949800414
 20
13.48185726023257
 30
0.0
 11
48.63243082901857
 21
13.55493115506215
 31
0.0
  0
LINE
  5
CB
330
2
100
AcDbEntity
  8
0
100
AcDbLine
 10
48.89712027658404
 20
12.98186978224611
 30
0.0
 11
48.89712027658404
 21
13.03207553201282
 31
0.0
  0
ARC
  5
CC
330
2
100
AcDbEntity
  8
0
100
AcDbCircle
 10
48.97010663984324
 20
12.97737359879395
 30
0.0
 40
0.073124721453381
100
AcDbArc
 50
176.4748592766998
 51
246.7450616751013
  0
LWPOLYLINE
  5
CD
330
2
100
AcDbEntity
  8
0
100
AcDbPolyline
 90
        9
 70
   128
 43
0.0
 10
49.39120885454596
 20
12.79372801372244
 10
49.39981526843823
 20
12.79265839635801
 10
49.40809094532331
 20
12.79394575914797
 10
49.41571786408752
 20
12.79754063376619
 10
49.42240290136183
 20
12.80330477448807
 10
49.42788917104637
 20
12.81101675415393
 10
49.43196584367402
 20
12.82038019842552
 10
49.43447624031853
 20
12.83103527288331
 10
49.4346134859119
 20
12.83198505742372
  0
LINE
  5
CE
330
2
100
AcDbEntity
  8
0
100
AcDbLine
 10
49.39120885454596
 20
12.79372801372244
 30
0.0
 11
48.94123531461371
 21
12.91018973565719
 31
0.0
  0
LINE
  5
CF
330
2
100
AcDbEntity
  8
0
100
AcDbLine
 10
48.94123531461371
 20
12.91018973565719
 30
0.0
 11
48.7030165784824
 21
12.8485341898405
 31
0.0
  0
ARC
  5
D0
330
2
100
AcDbEntity
  8
0
100
AcDbCircle
 10
48.73189234061664
 20
12.78134544256369
 30
0.0
 40
0.0731309606118687
100
AcDbArc
 50
113.2566212740005
 51
183.5215154159008
  0
ARC
  5
D1
330
2
100
AcDbEntity
  8
0
100
AcDbCircle
 10
48.58591866551209
 20
12.74824845281818
 30
0.0
 40
0.0731194140814857
100
AcDbArc
 50
293.2546964942009
 51
3.528526519100147
  0
LINE
  5
D2
330
2
100
AcDbEntity
  8
0
100
AcDbLine
 10
48.65889946563655
 20
12.77685349399107
 30
0.0
 11
48.65889946563655
 21
12.75274862262063
 31
0.0
  0
LINE
  5
D3
330
2
100
AcDbEntity
  8
0
100
AcDbLine
 10
48.614787611721
 20
12.68106934400429
 30
0.0
 11
48.51773417060687
 21
12.65595006506049
 31
0.0
  0
SPLINE
  5
D4
330
2
100
AcDbEntity
  8
0
100
AcDbSpline
210
0.0
220
0.0
230
1.0
 70
     8
 71
     3
 72
    12
 73
     8
 74
     0
 42
0.000000001
 43
0.0000000001
 40
0.1943211092608059
 40
0.1943211092608059
 40
0.1943211092608059
 40
0.1943211092608059
 40
0.475114943362488
 40
1.0
 40
1.0
 40
1.0
 40
1.04118702761279
 40
1.04118702761279
 40
1.04118702761279
 40
1.04118702761279
 10
48.4477148010215
 20
12.84263006559491
 30
0.0
 10
48.44429984777585
 20
12.85732923344979
 30
0.0
 10
48.43973752944538
 20
12.9006186072837
 30
0.0
 10
48.43871834520619
 20
12.94295762019731
 30
0.0
 10
48.43805436532132
 20
12.97054071247711
 30
0.0
 10
48.43800226370878
 20
12.97270512079662
 30
0.0
 10
48.43795016209624
 20
12.97486952911613
 30
0.0
 10
48.4378980604837
 20
12.97703393743564
 30
0.0
  0
LWPOLYLINE
  5
D5
330
2
100
AcDbEntity
  8
0
100
AcDbPolyline
 90
        9
 70
   128
 43
0.0
 10
45.98625240415451
 20
12.22838247770431
 10
45.94054998767751
 20
12.25262938295511
 10
45.90180534837758
 20
12.29802134542143
 10
45.87591702169564
 20
12.35764788492175
 10
45.86682623214208
 20
12.42243143736949
 10
45.87591702169564
 20
12.48250925087553
 10
45.90180534837758
 20
12.52873500639361
 10
45.94054998767751
 20
12.55407126775645
 10
45.94393382789616
 20
12.55502809817224
  0
LINE
  5
D6
330
2
100
AcDbEntity
  8
0
100
AcDbLine
 10
46.11729614514416
 20
12.19446586179802
 30
0.0
 11
45.98625240415451
 21
12.22838247770431
 31
0.0
  0
LINE
  5
D7
330
2
100
AcDbEntity
  8
0
100
AcDbLine
 10
46.15961472654332
 20
12.19409859565764
 30
0.0
 11
46.11729614514416
 21
12.19446586179802
 31
0.0
  0
LINE
  5
D8
330
2
100
AcDbEntity
  8
0
100
AcDbLine
 10
42.06532981059917
 20
12.07236232211173
 30
0.0
 11
42.06839892681555
 21
12.07309775023576
 31
0.0
  0
LWPOLYLINE
  5
D9
330
2
100
AcDbEntity
  8
0
100
AcDbPolyline
 90
        6
 70
   128
 43
0.0
 10
41.96223739923325
 20
11.92085540815163
 10
41.97231156646378
 20
11.84906389915095
 10
42.00100039340035
 20
11.78298719774099
 10
42.04393626154081
 20
11.73268491095422
 10
42.09458253387285
 20
11.70581512274608
 10
42.14147896745982
 20
11.70540813960257
  0
ARC
  5
DA
330
2
100
AcDbEntity
  8
0
100
AcDbCircle
 10
42.09441458341263
 20
11.94230703103926
 30
0.0
 40
0.1339066097749037
100
AcDbArc
 50
110.4239053946012
 51
189.2184114937016
  0
LINE
  5
DB
330
2
100
AcDbEntity
  8
0
100
AcDbLine
 10
42.15192892178548
 20
11.98498702726091
 30
0.0
 11
42.12545987431692
 21
11.99183772084759
 31
0.0
  0
LINE
  5
DC
330
2
100
AcDbEntity
  8
0
100
AcDbLine
 10
42.12545987431692
 20
11.99183772084759
 30
0.0
 11
42.12545987431692
 21
11.91952298042531
 31
0.0
  0
LINE
  5
DD
330
2
100
AcDbEntity
  8
0
100
AcDbLine
 10
42.12545987431692
 20
11.91952298042531
 30
0.0
 11
42.07252179991792
 21
11.93322436229567
 31
0.0
  0
LINE
  5
DE
330
2
100
AcDbEntity
  8
0
100
AcDbLine
 10
42.07252179991792
 20
11.93322436229567
 30
0.0
 11
42.07252179991792
 21
11.89706699909071
 31
0.0
  0
LINE
  5
DF
330
2
100
AcDbEntity
  8
0
100
AcDbLine
 10
42.07252179991792
 20
11.89706699909071
 30
0.0
 11
42.12545987431692
 21
11.88336561723282
 31
0.0
  0
LINE
  5
E0
330
2
100
AcDbEntity
  8
0
100
AcDbLine
 10
42.12545987431692
 20
11.88336561723282
 30
0.0
 11
42.12545987431692
 21
11.81105086277323
 31
0.0
  0
LINE
  5
E1
330
2
100
AcDbEntity
  8
0
100
AcDbLine
 10
42.12545987431692
 20
11.81105086277323
 30
0.0
 11
42.15192892178548
 21
11.80420016918655
 31
0.0
  0
LINE
  5
E2
330
2
100
AcDbEntity
  8
0
100
AcDbLine
 10
42.15192892178548
 20
11.80420016918655
 30
0.0
 11
42.15192892178548
 21
11.87651492364616
 31
0.0
  0
LINE
  5
E3
330
2
100
AcDbEntity
  8
0
100
AcDbLine
 10
42.15192892178548
 20
11.87651492364616
 30
0.0
 11
42.20486697564633
 21
11.86281354709126
 31
0.0
  0
LINE
  5
E4
330
2
100
AcDbEntity
  8
0
100
AcDbLine
 10
42.20486697564633
 20
11.86281354709126
 30
0.0
 11
42.20486697564633
 21
11.89897091028375
 31
0.0
  0
LINE
  5
E5
330
2
100
AcDbEntity
  8
0
100
AcDbLine
 10
42.20486697564633
 20
11.89897091028375
 30
0.0
 11
42.15192892178548
 21
11.91267228683863
 31
0.0
  0
LINE
  5
E6
330
2
100
AcDbEntity
  8
0
100
AcDbLine
 10
42.15192892178548
 20
11.91267228683863
 30
0.0
 11
42.15192892178548
 21
11.98498702726091
 31
0.0
  0
LWPOLYLINE
  5
E7
330
2
100
AcDbEntity
  8
0
100
AcDbPolyline
 90
        9
 70
   128
 43
0.0
 10
4.56528893581321
 20
1.83536819781478
 10
4.52188413497624
 20
1.834808256633911
 10
4.485087310713174
 20
1.81074571968464
 10
4.460500464987085
 20
1.766843908996417
 10
4.451866708797074
 20
1.709786407888784
 10
4.460500464987085
 20
1.648259745725521
 10
4.485087310713174
 20
1.591630819098797
 10
4.52188413497624
 20
1.548520872389179
 10
4.56528893581321
 20
1.525492952990698
  0
POLYLINE
  5
E8
330
2
100
AcDbEntity
  8
0
100
AcDb2dPolyline
 66
     1
 10
0.0
 20
0.0
 30
0.0
 70
   130
  0
VERTEX
  5
E9
330
E8
100
AcDbEntity
  8
0
100
AcDbVertex
100
AcDb2dVertex
 10
4.519912397994536
 20
1.793499000473551
 30
0.0
 42
0.0815359948854305
  0
VERTEX
  5
EA
330
E8
100
AcDbEntity
  8
0
100
AcDbVertex
100
AcDb2dVertex
 10
4.500225956864346
 20
1.73663259565064
 30
0.0
 42
0.081535994885358
 70
     1
  0
VERTEX
  5
EB
330
E8
100
AcDbEntity
  8
0
100
AcDbVertex
100
AcDb2dVertex
 10
4.499753549855025
 20
1.676456846436585
 30
0.0
 42
0.0912105501642699
  0
VERTEX
  5
EC
330
E8
100
AcDbEntity
  8
0
100
AcDbVertex
100
AcDb2dVertex
 10
4.521961828431463
 20
1.613025916366124
 30
0.0
 42
0.0912105501644029
 70
     1
  0
VERTEX
  5
ED
330
E8
100
AcDbEntity
  8
0
100
AcDbVertex
100
AcDb2dVertex
 10
4.56528893581321
 20
1.561650316195649
 30
0.0
  0
SEQEND
  5
EE
330
E8
100
AcDbEntity
  8
0
  0
LINE
  5
EF
330
2
100
AcDbEntity
  8
0
100
AcDbLine
 10
4.56528893581321
 20
1.561650316195649
 30
0.0
 11
4.698062852498927
 21
1.527285897857216
 31
0.0
  0
LWPOLYLINE
  5
F0
330
2
100
AcDbEntity
  8
0
100
AcDbPolyline
 90
        3
 70
   128
 43
0.0
 10
4.698062852498927
 20
1.527285897857216
 10
4.731338395787524
 20
1.527715125229636
 10
4.742172508344297
 20
1.53228715377495
  0
LINE
  5
F1
330
2
100
AcDbEntity
  8
0
100
AcDbLine
 10
4.56528893581321
 20
1.525492952990698
 30
0.0
 11
4.698062852498927
 21
1.491128534664748
 31
0.0
  0
LINE
  5
F2
330
2
100
AcDbEntity
  8
0
100
AcDbLine
 10
4.623485751180513
 20
1.820305753638105
 30
0.0
 11
4.56528893581321
 21
1.83536819781478
 31
0.0
  0
ARC
  5
F3
330
2
100
AcDbEntity
  8
0
100
AcDbCircle
 10
4.717114625446195
 20
1.574364097849841
 30
0.0
 40
0.0853881082493384
100
AcDbArc
 50
257.1076629910011
 51
341.0755909432009
  0
ARC
  5
F4
330
2
100
AcDbEntity
  8
0
100
AcDbCircle
 10
1.744946092021854
 20
0.7847337863419777
 30
0.0
 40
0.0731247214533812
100
AcDbArc
 50
176.4748592766998
 51
246.7450616751013
  0
LINE
  5
F5
330
2
100
AcDbEntity
  8
0
100
AcDbLine
 10
1.671959728762662
 20
0.7892299697941392
 30
0.0
 11
1.671959728762662
 21
1.40390525636488
 31
0.0
  0
ARC
  5
F6
330
2
100
AcDbEntity
  8
0
100
AcDbCircle
 10
1.012636990709094
 20
0.5951982440191323
 30
0.0
 40
0.0731247214533805
100
AcDbArc
 50
176.4748592766998
 51
246.7450616751013
  0
LINE
  5
F7
330
2
100
AcDbEntity
  8
0
100
AcDbLine
 10
2.166048306712112
 20
0.6010882012704651
 30
0.0
 11
1.716074766792314
 21
0.7175499232052131
 31
0.0
  0
LINE
  5
F8
330
2
100
AcDbEntity
  8
0
100
AcDbLine
 10
0.9396506274498955
 20
1.093845160704735
 30
0.0
 11
0.9396506274498955
 21
0.5996944274712938
 31
0.0
  0
LINE
  5
F9
330
2
100
AcDbEntity
  8
0
100
AcDbLine
 10
0.9837656654795472
 20
0.5280143808823819
 30
0.0
 11
1.441817431325037
 21
0.4094618602286116
 31
0.0
  0
ARC
  5
FA
330
2
100
AcDbEntity
  8
0
100
AcDbCircle
 10
0.9837096420353095
 20
1.10099572589466
 30
0.0
 40
0.0446354942742067
100
AcDbArc
 50
110.4238615150998
 51
189.2184518068987
  0
LINE
  5
FB
330
2
100
AcDbEntity
  8
0
100
AcDbLine
 10
0.7058409238301964
 20
0.4138333530871909
 30
0.0
 11
0.7058409238301964
 21
1.317767580309807
 31
0.0
  0
LINE
  5
FC
330
2
100
AcDbEntity
  8
0
100
AcDbLine
 10
0.7058409238301964
 20
1.317767580309807
 30
0.0
 11
1.17494979801348
 21
1.196353269433247
 31
0.0
  0
LINE
  5
FD
330
2
100
AcDbEntity
  8
0
100
AcDbLine
 10
0.7058409238301964
 20
0.4138333530871909
 30
0.0
 11
-0.0000000133422032
 21
0.2311482757360587
 31
0.0
  0
LINE
  5
FE
330
2
100
AcDbEntity
  8
0
100
AcDbLine
 10
-0.0000000133422032
 20
0.4330269102875356
 30
0.0
 11
-0.0000000133422032
 21
0.2311482757360587
 31
0.0
  0
LINE
  5
FF
330
2
100
AcDbEntity
  8
0
100
AcDbLine
 10
0.2646895163884099
 20
0.5015336016303157
 30
0.0
 11
-0.0000000133422032
 21
0.4330269102875356
 31
0.0
  0
LINE
  5
100
330
2
100
AcDbEntity
  8
0
100
AcDbLine
 10
0.2646895163884099
 20
1.001710552712602
 30
0.0
 11
0.2646895163884099
 21
0.5015336016303157
 31
0.0
  0
LINE
  5
101
330
2
100
AcDbEntity
  8
0
100
AcDbLine
 10
-0.0000000133422032
 20
0.9332038613698225
 30
0.0
 11
0.2646895163884099
 21
1.001710552712602
 31
0.0
  0
LINE
  5
102
330
2
100
AcDbEntity
  8
0
100
AcDbLine
 10
-0.0000000133422032
 20
1.135082502946192
 30
0.0
 11
-0.0000000133422032
 21
0.9332038613698225
 31
0.0
  0
LINE
  5
103
330
2
100
AcDbEntity
  8
0
100
AcDbLine
 10
0.7058409238301964
 20
1.317767580309807
 30
0.0
 11
-0.0000000133422032
 21
1.135082502946192
 31
0.0
  0
LINE
  5
104
330
2
100
AcDbEntity
  8
0
100
AcDbLine
 10
0.8930884022674597
 20
-0.0000000152165927
 30
0.0
 11
-0.0000000133422032
 21
0.2311482757360587
 31
0.0
  0
LINE
  5
105
330
2
100
AcDbEntity
  8
0
100
AcDbLine
 10
1.598664385283201
 20
0.182616486952728
 30
0.0
 11
0.8930884022674597
 21
-0.0000000152165927
 31
0.0
  0
LINE
  5
106
330
2
100
AcDbEntity
  8
0
100
AcDbLine
 10
-0.0000000133422032
 20
0.9332038613698225
 30
0.0
 11
0.10587613544331
 21
0.9058010976415889
 31
0.0
  0
LINE
  5
107
330
2
100
AcDbEntity
  8
0
100
AcDbLine
 10
0.10587613544331
 20
0.9058010976415889
 30
0.0
 11
0.2646903791784553
 21
0.946905248555643
 31
0.0
  0
ELLIPSE
  5
108
330
2
100
AcDbEntity
  8
0
100
AcDbEllipse
 10
42.86658968243968
 20
11.59240106865889
 30
0.0
 11
-0.0463536126590311
 21
0.1877763410232843
 31
0.0
210
0.0
220
0.0
230
1.0
 40
0.6852205343000002
 41
1.211923133923211
 42
2.787082908459908
  0
ELLIPSE
  5
109
330
2
100
AcDbEntity
  8
0
100
AcDbEllipse
 10
42.99893483645703
 20
11.55814762227439
 30
0.0
 11
-0.0463536126590453
 21
0.1877763410232843
 31
0.0
210
0.0
220
0.0
230
1.0
 40
0.6852205343000001
 41
2.787082908459797
 42
4.036833035841276
  0
LINE
  5
10A
330
2
100
AcDbEntity
  8
0
100
AcDbLine
 10
42.86539535002025
 20
11.40527530179952
 30
0.0
 11
42.997740505198
 21
11.37102185511555
 31
0.0
  0
LINE
  5
10B
330
2
100
AcDbEntity
  8
0
100
AcDbLine
 10
42.87797124489355
 20
11.48748948112356
 30
0.0
 11
43.04406604768083
 21
11.44370253993632
 31
0.0
  0
ELLIPSE
  5
10C
330
2
100
AcDbEntity
  8
0
100
AcDbEllipse
 10
42.86658968243968
 20
11.5940313926688
 30
0.0
 11
-0.0505373407284417
 21
0.1866937407530933
 31
0.0
210
0.0
220
0.0
230
1.0
 40
0.6807041655
 41
5.913414793188238
 42
7.48857456772495
  0
LWPOLYLINE
  5
10D
330
2
100
AcDbEntity
  8
0
100
AcDbPolyline
 90
        3
 70
   128
 43
0.0
 10
42.70796029663483
 20
11.81637966128379
 10
42.74307909629687
 20
11.82184274665667
 10
42.77836541791962
 20
11.81745747182202
  0
ELLIPSE
  5
10E
330
2
100
AcDbEntity
  8
0
100
AcDbEllipse
 10
42.73424973608217
 20
11.55896413212442
 30
0.0
 11
-0.0668405286965186
 21
0.246912589943163
 31
0.0
210
0.0
220
0.0
230
1.0
 40
0.6807089529000001
 41
1.201017064944132
 42
2.771813391739089
  0
LINE
  5
10F
330
2
100
AcDbEntity
  8
0
100
AcDbLine
 10
42.98962595476232
 20
11.74838566995733
 30
0.0
 11
42.86539535002025
 21
11.78053891645209
 31
0.0
  0
ELLIPSE
  5
110
330
2
100
AcDbEntity
  8
0
100
AcDbEllipse
 10
42.73424973608217
 20
11.55896413212442
 30
0.0
 11
-0.0613072824120404
 21
0.2483444198338551
 31
0.0
210
0.0
220
0.0
230
1.0
 40
0.6852254854000001
 41
0.0076998146033066
 42
1.216277996186575
  0
ELLIPSE
  5
111
330
2
100
AcDbEntity
  8
0
100
AcDbEllipse
 10
42.55778953070907
 20
11.51329287027008
 30
0.0
 11
-0.0668405286965186
 21
0.246912589943163
 31
0.0
210
0.0
220
0.0
230
1.0
 40
0.6807089529000001
 41
1.201017064944146
 42
2.771813391739089
  0
ELLIPSE
  5
112
330
2
100
AcDbEntity
  8
0
100
AcDbEllipse
 10
42.77836478742544
 20
11.50187505480027
 30
0.0
 11
-0.0613072824120404
 21
0.2483444198338551
 31
0.0
210
0.0
220
0.0
230
1.0
 40
0.6852254854000001
 41
3.148865670287154
 42
3.42188726411241
  0
LINE
  5
113
330
2
100
AcDbEntity
  8
0
100
AcDbLine
 10
42.73582598225828
 20
11.31229672247338
 30
0.0
 11
42.86817113743604
 21
11.27804327577692
 31
0.0
  0
ELLIPSE
  5
114
330
2
100
AcDbEntity
  8
0
100
AcDbEllipse
 10
42.55778953070907
 20
11.51329287027008
 30
0.0
 11
-0.0613072824120404
 21
0.2483444198338551
 31
0.0
210
0.0
220
0.0
230
1.0
 40
0.6852254854000001
 41
0.0076998146033056
 42
1.216277996186545
  0
ELLIPSE
  5
115
330
2
100
AcDbEntity
  8
0
100
AcDbEllipse
 10
42.64601963339561
 20
11.53612850119724
 30
0.0
 11
-0.0668405286965186
 21
0.246912589943163
 31
0.0
210
0.0
220
0.0
230
1.0
 40
0.6807089529000001
 41
6.032146619320848
 42
6.275866064271016
  0
LINE
  5
116
330
2
100
AcDbEntity
  8
0
100
AcDbLine
 10
42.77836541791962
 20
11.81745747182202
 30
0.0
 11
42.91071057309737
 21
11.78320402513806
 31
0.0
  0
ARC
  5
117
330
2
100
AcDbEntity
  8
0
100
AcDbCircle
 10
42.94289402633985
 20
11.41294487665796
 30
0.0
 40
0.1280035133821207
100
AcDbArc
 50
283.7207937411467
 51
323.9959700974991
  0
ELLIPSE
  5
118
330
2
100
AcDbEntity
  8
0
100
AcDbEllipse
 10
41.98909476069187
 20
11.32192056675493
 30
0.0
 11
-0.015390538011876
 21
0.060462000841125
 31
0.0
210
0.0
220
0.0
230
0.9999999999999998
 40
0.6810791221
 41
1.21135988136815
 42
2.782080055740644
  0
LINE
  5
119
330
2
100
AcDbEntity
  8
0
100
AcDbLine
 10
41.98901390886604
 20
11.2616362498228
 30
0.0
 11
41.78577572695361
 21
11.20754257200452
 31
0.0
  0
LINE
  5
11A
330
2
100
AcDbEntity
  8
0
100
AcDbLine
 10
41.94513394062733
 20
11.33337573864919
 30
0.0
 11
41.94651847560927
 21
11.54826975750339
 31
0.0
  0
ELLIPSE
  5
11B
330
2
100
AcDbEntity
  8
0
100
AcDbEllipse
 10
42.33721561783245
 20
11.45641449313245
 30
0.0
 11
-0.0672884806961277
 21
0.2725731437200914
 31
0.0
210
0.0
220
0.0
230
1.0
 40
0.6852254854000001
 41
1.217053688308708
 42
2.40003593026301
  0
LINE
  5
11C
330
2
100
AcDbEntity
  8
0
100
AcDbLine
 10
41.94651847560927
 20
11.54826975750339
 30
0.0
 11
41.9432666939497
 21
12.05126550690933
 31
0.0
  0
LINE
  5
11D
330
2
100
AcDbEntity
  8
0
100
AcDbLine
 10
42.2431901409428
 20
11.19585060014746
 30
0.0
 11
41.98901390886604
 21
11.2616362498228
 31
0.0
  0
LINE
  5
11E
330
2
100
AcDbEntity
  8
0
100
AcDbLine
 10
42.91071057309737
 20
11.78320402513806
 30
0.0
 11
42.93313622706308
 21
11.77549337546179
 31
0.0
  0
SPLINE
  5
11F
330
2
100
AcDbEntity
  8
0
100
AcDbSpline
210
0.0
220
0.0
230
1.0
 70
     8
 71
     3
 72
     9
 73
     5
 74
     0
 42
0.000000001
 43
0.0000000001
 40
0.0
 40
0.0
 40
0.0
 40
0.0
 40
0.0579445315277969
 40
1.0
 40
1.0
 40
1.0
 40
1.0
 10
42.32134389278964
 20
11.17733008586588
 30
0.0
 10
42.31988988887372
 20
11.17770358618362
 30
0.0
 10
42.29479685804578
 20
11.18414941131828
 30
0.0
 10
42.2682236123594
 20
11.19017456818157
 30
0.0
 10
42.24319014094552
 20
11.19585060015305
 30
0.0
  0
LINE
  5
120
330
2
100
AcDbEntity
  8
0
100
AcDbLine
 10
42.45368904796797
 20
11.14307663917809
 30
0.0
 11
42.32134389279023
 21
11.17733008586206
 31
0.0
  0
LINE
  5
121
330
2
100
AcDbEntity
  8
0
100
AcDbLine
 10
42.52539535907521
 20
11.12281051507844
 30
0.0
 11
42.45368904796797
 21
11.14307663917809
 31
0.0
  0
LINE
  5
122
330
2
100
AcDbEntity
  8
0
100
AcDbLine
 10
42.77957159115199
 20
11.05702486540311
 30
0.0
 11
42.52539535907521
 21
11.12281051507844
 31
0.0
  0
ELLIPSE
  5
123
330
2
100
AcDbEntity
  8
0
100
AcDbEllipse
 10
42.46955942802252
 20
11.49045723934293
 30
0.0
 11
-0.0613072824120546
 21
0.2483444198338552
 31
0.0
210
0.0
220
0.0
230
1.0
 40
0.6852254854
 41
1.216277996186524
 42
2.787074322981433
  0
ELLIPSE
  5
124
330
2
100
AcDbEntity
  8
0
100
AcDbEllipse
 10
42.60190458205233
 20
11.45620379294594
 30
0.0
 11
-0.0613072824120262
 21
0.2483444198338693
 31
0.0
210
0.0
220
0.0
230
0.9999999999999998
 40
0.6852254854000001
 41
2.787074322981622
 42
3.421887193137715
  0
LINE
  5
125
330
2
100
AcDbEntity
  8
0
100
AcDbLine
 10
42.46797846869966
 20
11.24297268478086
 30
0.0
 11
42.60032362387742
 21
11.20871923809688
 31
0.0
  0
ELLIPSE
  5
126
330
2
100
AcDbEntity
  8
0
100
AcDbEllipse
 10
42.86659489011197
 20
11.52471068572743
 30
0.0
 11
-0.0668405286965328
 21
0.246912589943163
 31
0.0
210
0.0
220
0.0
230
1.0
 40
0.6807089529000001
 41
2.771813391738941
 42
3.134031536950584
  0
LINE
  5
127
330
2
100
AcDbEntity
  8
0
100
AcDbLine
 10
42.55936804873551
 20
11.26662604861444
 30
0.0
 11
42.69171320391328
 21
11.23237260193046
 31
0.0
  0
ELLIPSE
  5
128
330
2
100
AcDbEntity
  8
0
100
AcDbEllipse
 10
42.33721561783245
 20
11.45599378838678
 30
0.0
 11
-0.0733615558864187
 21
0.2710016231083603
 31
0.0
210
0.0
220
0.0
230
1.0
 40
0.6807089529000003
 41
5.913406045328932
 42
7.483426680001704
  0
ELLIPSE
  5
129
330
2
100
AcDbEntity
  8
0
100
AcDbEllipse
 10
42.46955942802252
 20
11.49045723934293
 30
0.0
 11
-0.0668405286965328
 21
0.2469125899431773
 31
0.0
210
0.0
220
0.0
230
1.0
 40
0.6807089529000001
 41
6.003029448489571
 42
7.484202372123739
  0
SPLINE
  5
12A
330
2
100
AcDbEntity
  8
0
100
AcDbSpline
210
0.0
220
0.0
230
1.0
 70
     8
 71
     3
 72
    10
 73
     6
 74
     0
 42
0.000000001
 43
0.0000000001
 40
0.0
 40
0.0
 40
0.0
 40
0.0
 40
0.4685921609693685
 40
0.9400510269807547
 40
1.0
 40
1.0
 40
1.0
 40
1.0
 10
42.26068132193343
 20
11.22427127298026
 30
0.0
 10
42.2725356896622
 20
11.21867756231532
 30
0.0
 10
42.29631694655438
 20
11.20745592035627
 30
0.0
 10
42.32226686219397
 20
11.19918975163464
 30
0.0
 10
42.335652662326
 20
11.19566671163168
 30
0.0
 10
42.33716273596814
 20
11.19526927182261
 30
0.0
  0
ELLIPSE
  5
12B
330
2
100
AcDbEntity
  8
0
100
AcDbEllipse
 10
42.69013468473889
 20
11.4790394238731
 30
0.0
 11
-0.0668405286965328
 21
0.2469125899431773
 31
0.0
210
0.0
220
0.0
230
1.0
 40
0.6807089529000001
 41
2.771813391738968
 42
3.134031536950584
  0
LINE
  5
12C
330
2
100
AcDbEntity
  8
0
100
AcDbLine
 10
42.33716273596614
 20
11.19526927182548
 30
0.0
 11
42.46950789114392
 21
11.1610158251415
 31
0.0
  0
SPLINE
  5
12D
330
2
100
AcDbEntity
  8
0
100
AcDbSpline
210
0.0
220
0.0
230
1.0
 70
     8
 71
     3
 72
     9
 73
     5
 74
     0
 42
0.000000001
 43
0.0000000001
 40
0.0
 40
0.0
 40
0.0
 40
0.0
 40
0.4687420705482561
 40
1.0
 40
1.0
 40
1.0
 40
1.0
 10
42.46950789114582
 20
11.16101582513557
 30
0.0
 10
42.48110308999576
 20
11.15832208050876
 30
0.0
 10
42.50583993266141
 20
11.15257532809185
 30
0.0
 10
42.53003351016949
 20
11.15169752679865
 30
0.0
 10
42.54288654006248
 20
11.15123118790116
 30
0.0
  0
LINE
  5
12E
330
2
100
AcDbEntity
  8
0
100
AcDbLine
 10
7.817184405239024
 20
2.415824202637585
 30
0.0
 11
7.61746280002595
 21
2.36562421313818
 31
0.0
  0
LINE
  5
12F
330
2
100
AcDbEntity
  8
0
100
AcDbLine
 10
7.871639032102716
 20
2.299838563475309
 30
0.0
 11
8.39929963977779
 21
2.151262887335632
 31
0.0
  0
LINE
  5
130
330
2
100
AcDbEntity
  8
0
100
AcDbLine
 10
7.61746280002595
 20
2.36562421313818
 30
0.0
 11
7.871639032102716
 21
2.299838563475309
 31
0.0
  0
ELLIPSE
  5
131
330
2
100
AcDbEntity
  8
0
100
AcDbEllipse
 10
7.795129072871095
 20
2.516054285341128
 30
0.0
 11
-0.0668405286965186
 21
0.2469125899431558
 31
0.0
210
0.0
220
0.0
230
0.9999999999999998
 40
0.6807089529000003
 41
2.135117800001538
 42
2.771813391739144
  0
LINE
  5
132
330
2
100
AcDbEntity
  8
0
100
AcDbLine
 10
7.929053293006861
 20
2.235134158560117
 30
0.0
 11
7.796708137829093
 21
2.269387605256575
 31
0.0
  0
ELLIPSE
  5
133
330
2
100
AcDbEntity
  8
0
100
AcDbEllipse
 10
7.839244124214366
 20
2.458965208029456
 30
0.0
 11
-0.0613072824120404
 21
0.2483444198338551
 31
0.0
210
0.0
220
0.0
230
1.0
 40
0.6852254854000001
 41
3.148865675592714
 42
3.421887233229404
  0
ELLIPSE
  5
134
330
2
100
AcDbEntity
  8
0
100
AcDbEllipse
 10
7.618668867498003
 20
2.470383023486804
 30
0.0
 11
-0.0668405286965328
 21
0.2469125899431842
 31
0.0
210
0.0
220
0.0
230
0.9999999999999998
 40
0.6807089529000004
 41
1.201017064944129
 42
2.771813391738985
  0
ELLIPSE
  5
135
330
2
100
AcDbEntity
  8
0
100
AcDbEllipse
 10
7.618668867498003
 20
2.470383023486804
 30
0.0
 11
-0.0613072824120475
 21
0.2483444198338621
 31
0.0
210
0.0
220
0.0
230
1.0
 40
0.6852254854000001
 41
0.0076998146033455
 42
1.216277996186557
  0
ELLIPSE
  5
136
330
2
100
AcDbEntity
  8
0
100
AcDbEllipse
 10
7.927474226900915
 20
2.481800838956621
 30
0.0
 11
-0.0668405286965257
 21
0.2469125899431702
 31
0.0
210
0.0
220
0.0
230
1.0
 40
0.6807089529000003
 41
2.771813391739016
 42
3.134031536950701
  0
ELLIPSE
  5
137
330
2
100
AcDbEntity
  8
0
100
AcDbEllipse
 10
7.530438764811453
 20
2.447547392572114
 30
0.0
 11
-0.0613072824120404
 21
0.2483444198338551
 31
0.0
210
0.0
220
0.0
230
1.0
 40
0.6852254854000001
 41
1.216277996186573
 42
2.78707432298153
  0
ELLIPSE
  5
138
330
2
100
AcDbEntity
  8
0
100
AcDbEllipse
 10
7.662783918841274
 20
2.413293946175125
 30
0.0
 11
-0.0613072824120475
 21
0.248344419833855
 31
0.0
210
0.0
220
0.0
230
1.0
 40
0.6852254854000001
 41
2.787074322981396
 42
3.421887242035939
  0
LINE
  5
139
330
2
100
AcDbEntity
  8
0
100
AcDbLine
 10
7.66120577946071
 20
2.165810120867607
 30
0.0
 11
7.528860624282955
 21
2.200063567564058
 31
0.0
  0
LINE
  5
13A
330
2
100
AcDbEntity
  8
0
100
AcDbLine
 10
7.752592730037635
 20
2.189462804159276
 30
0.0
 11
7.620247574859874
 21
2.223716250843243
 31
0.0
  0
ELLIPSE
  5
13B
330
2
100
AcDbEntity
  8
0
100
AcDbEllipse
 10
7.398098818466404
 20
2.412480132015242
 30
0.0
 11
-0.0505373407284488
 21
0.1866937407530934
 31
0.0
210
0.0
220
0.0
230
1.0
 40
0.6807041654999999
 41
1.19666236506169
 42
2.646973534522943
  0
ELLIPSE
  5
13C
330
2
100
AcDbEntity
  8
0
100
AcDbEllipse
 10
7.530438764811453
 20
2.447547392572114
 30
0.0
 11
-0.0668405286965186
 21
0.24691258994317
 31
0.0
210
0.0
220
0.0
230
0.9999999999999998
 40
0.6807089529000001
 41
6.003029417315985
 42
7.484202372123736
  0
ARC
  5
13D
330
2
100
AcDbEntity
  8
0
100
AcDbCircle
 10
7.49768560793503
 20
2.505519260031892
 30
0.0
 40
0.193554690485723
100
AcDbArc
 50
112.943965045201
 51
138.1259225178081
  0
ELLIPSE
  5
13E
330
2
100
AcDbEntity
  8
0
100
AcDbEllipse
 10
7.398098818466404
 20
2.414110456025159
 30
0.0
 11
-0.0463536126590382
 21
0.1877763410232843
 31
0.0
210
0.0
220
0.0
230
1.0
 40
0.6852205343000001
 41
0.4975122473001547
 42
1.220650029406824
  0
ELLIPSE
  5
13F
330
2
100
AcDbEntity
  8
0
100
AcDbEllipse
 10
7.751014021527824
 20
2.436129577102298
 30
0.0
 11
-0.0668405286965257
 21
0.2469125899431631
 31
0.0
210
0.0
220
0.0
230
1.0
 40
0.6807089529000001
 41
2.771813391739028
 42
3.134031536950692
  0
LINE
  5
140
330
2
100
AcDbEntity
  8
0
100
AcDbLine
 10
7.463898164114855
 20
2.196764881679497
 30
0.0
 11
7.618668973258325
 21
2.154800785306783
 31
0.0
  0
LWPOLYLINE
  5
141
330
2
100
AcDbEntity
  8
0
100
AcDbPolyline
 90
        3
 70
   128
 43
0.0
 10
7.618668973258325
 20
2.154800785306783
 10
7.653955294868567
 20
2.150415510472135
 10
7.682760742552678
 20
2.154244608174909
  0
LINE
  5
142
330
2
100
AcDbEntity
  8
0
100
AcDbLine
 10
41.78577741144492
 20
11.20754213602397
 30
0.0
 11
7.817186089742792
 21
2.415823766657031
 31
0.0
  0
LWPOLYLINE
  5
143
330
2
100
AcDbEntity
  8
0
100
AcDbPolyline
 90
        3
 70
   128
 43
0.0
 10
48.50209938976874
 20
12.65581373103217
 10
48.50912531213659
 20
12.65487987110519
 10
48.51773417060687
 20
12.65595006506049
  0
LINE
  5
144
330
2
100
AcDbEntity
  8
0
100
AcDbLine
 10
48.35009735272338
 20
13.17126231558749
 30
0.0
 11
48.34104512176315
 21
13.16865207421934
 31
0.0
  0
LWPOLYLINE
  5
145
330
2
100
AcDbEntity
  8
0
100
AcDbPolyline
 90
        3
 70
   128
 43
0.0
 10
48.34104512176315
 20
13.16865207421934
 10
48.34894436446368
 20
13.17402276502521
 10
48.35009513411508
 20
13.17470231681613
  0
ARC
  5
146
330
2
100
AcDbEntity
  8
0
100
AcDbCircle
 10
1.716018734339233
 20
1.411055826795413
 30
0.0
 40
0.0446354862267804
100
AcDbArc
 50
110.4238530308
 51
189.2184602911986
  0
LWPOLYLINE
  5
147
330
2
100
AcDbEntity
  8
0
100
AcDbPolyline
 90
        3
 70
   128
 43
0.0
 10
2.166048306712112
 20
0.6010882012704651
 10
2.174654720616845
 20
0.6000185839060281
 10
2.181680437553158
 20
0.6009524970001482
  0
LINE
  5
148
330
2
100
AcDbEntity
  8
0
100
AcDbLine
 10
42.33548513922967
 20
11.72672616910889
 30
0.0
 11
42.34852547091501
 21
11.72335108291757
 31
0.0
  0
ELLIPSE
  5
149
330
2
100
AcDbEntity
  8
0
100
AcDbEllipse
 10
41.98723055817938
 20
12.039805640722
 30
0.0
 11
-0.0156668979138986
 21
0.0603933112982415
 31
0.0
210
0.0
220
0.0
230
1.0
 40
0.6801259657
 41
0.0066426188482795
 42
1.208175804649774
  0
ELLIPSE
  5
14A
330
2
100
AcDbEntity
  8
0
100
AcDbEllipse
 10
42.46956077186228
 20
11.42216104674794
 30
0.0
 11
-0.0672884806961419
 21
0.2725731437200773
 31
0.0
210
0.0
220
0.0
230
1.0
 40
0.6852254854000001
 41
3.174112715699955
 42
3.572353765055516
  0
ELLIPSE
  5
14B
330
2
100
AcDbEntity
  8
0
100
AcDbEllipse
 10
42.77964438552924
 20
11.11731126774494
 30
0.0
 11
-0.0156013935467402
 21
0.0604102655147263
 31
0.0
210
0.0
220
0.0
230
1.0
 40
0.6857973184999999
 41
2.779788849306436
 42
3.166691330012413
  0
LWPOLYLINE
  5
14C
330
2
100
AcDbEntity
  8
0
100
AcDbPolyline
 90
        3
 70
   128
 43
0.0
 10
7.61746280002595
 20
2.36562421313818
 10
7.614060276242179
 20
2.365237070197795
 10
7.611345356756802
 20
2.365613373978731
  0
LINE
  5
14D
330
2
100
AcDbEntity
  8
0
100
AcDbLine
 10
48.482440114681
 20
12.96550560550236
 30
0.0
 11
49.17945698835127
 21
13.07739994316208
 31
0.0
  0
ARC
  5
14E
330
2
100
AcDbEntity
  8
0
100
AcDbCircle
 10
42.89247617868475
 20
11.60756715872085
 30
0.0
 40
0.1209505756970401
100
AcDbArc
 50
126.7111624827293
 51
263.1122563998927
  0
ARC
  5
14F
330
2
100
AcDbEntity
  8
0
100
AcDbCircle
 10
42.02010443306234
 20
11.88939604818714
 30
0.0
 40
0.2269759905374419
100
AcDbArc
 50
307.7690302007953
 51
13.45308146180914
  0
LINE
  5
150
330
2
100
AcDbEntity
  8
0
100
AcDbLine
 10
2.054606583266876
 20
1.196306800627298
 30
0.0
 11
2.054606583266876
 21
0.9103640211218765
 31
0.0
  0
LINE
  5
151
330
2
100
AcDbEntity
  8
0
100
AcDbLine
 10
2.054606583266876
 20
0.9103640211218765
 30
0.0
 11
2.251313678881808
 21
0.8471122354393411
 31
0.0
  0
LINE
  5
152
330
2
100
AcDbEntity
  8
0
100
AcDbLine
 10
1.598664385283201
 20
0.4500568390777974
 30
0.0
 11
1.598664385283201
 21
0.182616486952728
 31
0.0
  0
LINE
  5
153
330
2
100
AcDbEntity
  8
0
100
AcDbLine
 10
0.7058409238301964
 20
0.4138333530871909
 30
0.0
 11
1.598664385283201
 21
0.182616486952728
 31
0.0
  0
ENDSEC
  0
SECTION
  2
OBJECTS
  0
DICTIONARY
  5
B
330
0
100
AcDbDictionary
281
     1
  3
ACAD_COLOR
350
45
  3
ACAD_GROUP
350
32
  3
ACAD_LAYOUT
350
18
  3
ACAD_MATERIAL
350
D
  3
ACAD_MLEADERSTYLE
350
48
  3
ACAD_MLINESTYLE
350
33
  3
ACAD_PLOTSETTINGS
350
34
  3
ACAD_PLOTSTYLENAME
350
A
  3
ACAD_SCALELIST
350
46
  3
ACAD_TABLESTYLE
350
47
  3
ACAD_VISUALSTYLE
350
2B
  3
ACDB_RECOMPOSE_DATA
350
161
  3
AcDbVariableDictionary
350
155
  0
DICTIONARY
  5
1E
330
1D
100
AcDbDictionary
280
     1
281
     1
  3
ACAD_LAYERSTATES
360
1F
  0
DICTIONARY
  5
7
330
6
100
AcDbDictionary
280
     1
281
     1
  3
ADSK_XREC_LAYER_RECONCILED
360
8
  0
DICTIONARY
  5
3
330
2
100
AcDbDictionary
280
     1
281
     1
  3
ACAD_SORTENTS
360
154
  0
DICTIONARY
  5
45
102
{ACAD_REACTORS
330
B
102
}
330
B
100
AcDbDictionary
281
     1
  0
DICTIONARY
  5
32
102
{ACAD_REACTORS
330
B
102
}
330
B
100
AcDbDictionary
281
     1
  0
DICTIONARY
  5
18
102
{ACAD_REACTORS
330
B
102
}
330
B
100
AcDbDictionary
281
     1
  3
Layout1
350
1C
  3
Model
350
17
  0
DICTIONARY
  5
D
102
{ACAD_REACTORS
330
B
102
}
330
B
100
AcDbDictionary
281
     1
  3
ByBlock
350
3D
  3
ByLayer
350
35
  3
Global
350
C
  0
DICTIONARY
  5
48
102
{ACAD_REACTORS
330
B
102
}
330
B
100
AcDbDictionary
281
     1
  0
DICTIONARY
  5
33
102
{ACAD_REACTORS
330
B
102
}
330
B
100
AcDbDictionary
281
     1
  3
Standard
350
49
  0
DICTIONARY
  5
34
102
{ACAD_REACTORS
330
B
102
}
330
B
100
AcDbDictionary
281
     1
  0
ACDBDICTIONARYWDFLT
  5
A
102
{ACAD_REACTORS
330
B
102
}
330
B
100
AcDbDictionary
281
     1
  3
Normal
350
9
100
AcDbDictionaryWithDefault
340
9
  0
DICTIONARY
  5
46
102
{ACAD_REACTORS
330
B
102
}
330
B
100
AcDbDictionary
281
     1
  3
A0
350
4D
  3
A1
350
4E
  3
A2
350
4F
  3
A3
350
50
  3
A4
350
51
  3
A5
350
52
  3
A6
350
53
  3
A7
350
54
  3
A8
350
55
  3
A9
350
56
  3
B0
350
57
  3
B1
350
58
  3
B2
350
59
  3
B3
350
5A
  3
B4
350
5B
  3
B5
350
5C
  3
B6
350
5D
  3
B7
350
5E
  3
B8
350
5F
  3
B9
350
60
  3
C0
350
61
  3
C1
350
62
  3
C2
350
63
  3
C3
350
64
  3
C4
350
65
  3
C5
350
66
  3
C6
350
67
  3
C7
350
68
  3
C8
350
69
  3
C9
350
6A
  3
D0
350
6B
  3
D1
350
6C
  3
D2
350
6D
  0
DICTIONARY
  5
47
102
{ACAD_REACTORS
330
B
102
}
330
B
100
AcDbDictionary
281
     1
  3
Standard
350
4A
  0
DICTIONARY
  5
2B
102
{ACAD_REACTORS
330
B
102
}
330
B
100
AcDbDictionary
281
     1
  3
2dWireframe
350
2A
  3
Realistic
350
4B
  3
Wireframe
350
4C
  0
XRECORD
  5
161
102
{ACAD_REACTORS
330
B
102
}
330
B
100
AcDbXrecord
280
     1
 90
        1
330
4A
  0
DICTIONARY
  5
155
102
{ACAD_REACTORS
330
B
102
}
330
B
100
AcDbDictionary
281
     1
  3
CANNOSCALE
350
15B
  3
CMLEADERSTYLE
350
157
  3
CTABLESTYLE
350
156
  3
CVIEWDETAILSTYLE
350
158
  3
CVIEWSECTIONSTYLE
350
159
  3
LAYEREVAL
350
15D
  3
LAYERNOTIFY
350
15E
  3
LIGHTINGUNITS
350
15C
  3
MSLTSCALE
350
15A
  0
DICTIONARY
  5
1F
102
{ACAD_REACTORS
330
1E
102
}
330
1E
100
AcDbDictionary
281
     1
  0
XRECORD
  5
8
102
{ACAD_REACTORS
330
7
102
}
330
7
100
AcDbXrecord
280
     1
290
     1
  0
SORTENTSTABLE
  5
154
102
{ACAD_REACTORS
330
3
102
}
330
3
100
AcDbSortentsTable
330
2
  0
LAYOUT
  5
1C
102
{ACAD_REACTORS
330
18
102
}
330
18
100
AcDbPlotSettings
  1

  2
none_device
  4

  6

 40
0.0
 41
0.0
 42
0.0
 43
0.0
 44
0.0
 45
0.0
 46
0.0
 47
0.0
 48
0.0
 49
0.0
140
0.0
141
0.0
142
1.0
143
1.0
 70
   688
 72
     1
 73
     0
 74
     5
  7

 75
    16
147
1.0
 76
     0
 77
     2
 78
   300
148
0.0
149
0.0
100
AcDbLayout
  1
Layout1
 70
     1
 71
     1
 10
0.0
 20
0.0
 11
420.0
 21
297.0
 12
0.0
 22
0.0
 32
0.0
 14
1.000000000000000E+20
 24
1.000000000000000E+20
 34
1.000000000000000E+20
 15
-1.000000000000000E+20
 25
-1.000000000000000E+20
 35
-1.000000000000000E+20
146
0.0
 13
0.0
 23
0.0
 33
0.0
 16
1.0
 26
0.0
 36
0.0
 17
0.0
 27
1.0
 37
0.0
 76
     0
330
19
  0
LAYOUT
  5
17
102
{ACAD_REACTORS
330
18
102
}
330
18
100
AcDbPlotSettings
  1

  2
none_device
  4
Letter_(8.50_x_11.00_Inches)
  6

 40
6.349999999999999
 41
6.349999999999999
 42
6.350005079999999
 43
6.350005079999999
 44
215.9
 45
279.4
 46
0.0
 47
0.0
 48
0.0
 49
0.0
140
0.0
141
0.0
142
1.0
143
1.0
 70
  1712
 72
     1
 73
     0
 74
     0
  7

 75
     0
147
1.0
 76
     0
 77
     2
 78
   300
148
0.0
149
0.0
100
AcDbLayout
  1
Model
 70
     1
 71
     0
 10
0.0
 20
0.0
 11
1189.0
 21
841.0
 12
0.0
 22
0.0
 32
0.0
 14
0.0
 24
0.0
 34
0.0
 15
1189.0
 25
841.0
 35
0.0
146
0.0
 13
0.0
 23
0.0
 33
0.0
 16
1.0
 26
0.0
 36
0.0
 17
0.0
 27
1.0
 37
0.0
 76
     0
330
2
331
29
  0
MATERIAL
  5
3D
102
{ACAD_XDICTIONARY
360
3E
102
}
102
{ACAD_REACTORS
330
D
102
}
330
D
100
AcDbMaterial
  1
ByBlock
 72
     0
 43
0.0008202099737533
 43
0.0
 43
0.0
 43
0.0
 43
0.0
 43
0.0008202099737533
 43
0.0
 43
0.0
 43
0.0
 43
0.0
 43
1.0
 43
0.0
 43
0.0
 43
0.0
 43
0.0
 43
1.0
 77
     0
 47
0.0008202099737533
 47
0.0
 47
0.0
 47
0.0
 47
0.0
 47
0.0008202099737533
 47
0.0
 47
0.0
 47
0.0
 47
0.0
 47
1.0
 47
0.0
 47
0.0
 47
0.0
 47
0.0
 47
1.0
171
     0
 49
0.0008202099737533
 49
0.0
 49
0.0
 49
0.0
 49
0.0
 49
0.0008202099737533
 49
0.0
 49
0.0
 49
0.0
 49
0.0
 49
1.0
 49
0.0
 49
0.0
 49
0.0
 49
0.0
 49
1.0
175
     0
142
0.0008202099737533
142
0.0
142
0.0
142
0.0
142
0.0
142
0.0008202099737533
142
0.0
142
0.0
142
0.0
142
0.0
142
1.0
142
0.0
142
0.0
142
0.0
142
0.0
142
1.0
179
     0
144
0.0008202099737533
144
0.0
144
0.0
144
0.0
144
0.0
144
0.0008202099737533
144
0.0
144
0.0
144
0.0
144
0.0
144
1.0
144
0.0
144
0.0
144
0.0
144
0.0
144
1.0
147
0.0008202099737533
147
0.0
147
0.0
147
0.0
147
0.0
147
0.0008202099737533
147
0.0
147
0.0
147
0.0
147
0.0
147
1.0
147
0.0
147
0.0
147
0.0
147
0.0
147
1.0
  0
MATERIAL
  5
35
102
{ACAD_XDICTIONARY
360
36
102
}
102
{ACAD_REACTORS
330
D
102
}
330
D
100
AcDbMaterial
  1
ByLayer
 72
     0
 43
0.0008202099737533
 43
0.0
 43
0.0
 43
0.0
 43
0.0
 43
0.0008202099737533
 43
0.0
 43
0.0
 43
0.0
 43
0.0
 43
1.0
 43
0.0
 43
0.0
 43
0.0
 43
0.0
 43
1.0
 77
     0
 47
0.0008202099737533
 47
0.0
 47
0.0
 47
0.0
 47
0.0
 47
0.0008202099737533
 47
0.0
 47
0.0
 47
0.0
 47
0.0
 47
1.0
 47
0.0
 47
0.0
 47
0.0
 47
0.0
 47
1.0
171
     0
 49
0.0008202099737533
 49
0.0
 49
0.0
 49
0.0
 49
0.0
 49
0.0008202099737533
 49
0.0
 49
0.0
 49
0.0
 49
0.0
 49
1.0
 49
0.0
 49
0.0
 49
0.0
 49
0.0
 49
1.0
175
     0
142
0.0008202099737533
142
0.0
142
0.0
142
0.0
142
0.0
142
0.0008202099737533
142
0.0
142
0.0
142
0.0
142
0.0
142
1.0
142
0.0
142
0.0
142
0.0
142
0.0
142
1.0
179
     0
144
0.0008202099737533
144
0.0
144
0.0
144
0.0
144
0.0
144
0.0008202099737533
144
0.0
144
0.0
144
0.0
144
0.0
144
1.0
144
0.0
144
0.0
144
0.0
144
0.0
144
1.0
147
0.0008202099737533
147
0.0
147
0.0
147
0.0
147
0.0
147
0.0008202099737533
147
0.0
147
0.0
147
0.0
147
0.0
147
1.0
147
0.0
147
0.0
147
0.0
147
0.0
147
1.0
  0
MATERIAL
  5
C
102
{ACAD_XDICTIONARY
360
E
102
}
102
{ACAD_REACTORS
330
D
102
}
330
D
100
AcDbMaterial
  1
Global
 72
     0
 43
0.0008202099737533
 43
0.0
 43
0.0
 43
0.0
 43
0.0
 43
0.0008202099737533
 43
0.0
 43
0.0
 43
0.0
 43
0.0
 43
1.0
 43
0.0
 43
0.0
 43
0.0
 43
0.0
 43
1.0
 77
     0
 47
0.0008202099737533
 47
0.0
 47
0.0
 47
0.0
 47
0.0
 47
0.0008202099737533
 47
0.0
 47
0.0
 47
0.0
 47
0.0
 47
1.0
 47
0.0
 47
0.0
 47
0.0
 47
0.0
 47
1.0
171
     0
 49
0.0008202099737533
 49
0.0
 49
0.0
 49
0.0
 49
0.0
 49
0.0008202099737533
 49
0.0
 49
0.0
 49
0.0
 49
0.0
 49
1.0
 49
0.0
 49
0.0
 49
0.0
 49
0.0
 49
1.0
175
     0
142
0.0008202099737533
142
0.0
142
0.0
142
0.0
142
0.0
142
0.0008202099737533
142
0.0
142
0.0
142
0.0
142
0.0
142
1.0
142
0.0
142
0.0
142
0.0
142
0.0
142
1.0
179
     0
144
0.0008202099737533
144
0.0
144
0.0
144
0.0
144
0.0
144
0.0008202099737533
144
0.0
144
0.0
144
0.0
144
0.0
144
1.0
144
0.0
144
0.0
144
0.0
144
0.0
144
1.0
147
0.0008202099737533
147
0.0
147
0.0
147
0.0
147
0.0
147
0.0008202099737533
147
0.0
147
0.0
147
0.0
147
0.0
147
1.0
147
0.0
147
0.0
147
0.0
147
0.0
147
1.0
  0
MLINESTYLE
  5
49
102
{ACAD_REACTORS
330
33
102
}
330
33
100
AcDbMlineStyle
  2
STANDARD
 70
     0
  3

 62
   256
 51
90.0
 52
90.0
 71
     2
 49
0.5
 62
   256
  6
BYLAYER
 49
-0.5
 62
   256
  6
BYLAYER
  0
ACDBPLACEHOLDER
  5
9
102
{ACAD_REACTORS
330
A
102
}
330
A
  0
SCALE
  5
4D
102
{ACAD_REACTORS
330
46
102
}
330
46
100
AcDbScale
 70
     0
300
1:1
140
1.0
141
1.0
290
     1
  0
SCALE
  5
4E
102
{ACAD_REACTORS
330
46
102
}
330
46
100
AcDbScale
 70
     0
300
1:2
140
1.0
141
2.0
290
     0
  0
SCALE
  5
4F
102
{ACAD_REACTORS
330
46
102
}
330
46
100
AcDbScale
 70
     0
300
1:4
140
1.0
141
4.0
290
     0
  0
SCALE
  5
50
102
{ACAD_REACTORS
330
46
102
}
330
46
100
AcDbScale
 70
     0
300
1:5
140
1.0
141
5.0
290
     0
  0
SCALE
  5
51
102
{ACAD_REACTORS
330
46
102
}
330
46
100
AcDbScale
 70
     0
300
1:8
140
1.0
141
8.0
290
     0
  0
SCALE
  5
52
102
{ACAD_REACTORS
330
46
102
}
330
46
100
AcDbScale
 70
     0
300
1:10
140
1.0
141
10.0
290
     0
  0
SCALE
  5
53
102
{ACAD_REACTORS
330
46
102
}
330
46
100
AcDbScale
 70
     0
300
1:16
140
1.0
141
16.0
290
     0
  0
SCALE
  5
54
102
{ACAD_REACTORS
330
46
102
}
330
46
100
AcDbScale
 70
     0
300
1:20
140
1.0
141
20.0
290
     0
  0
SCALE
  5
55
102
{ACAD_REACTORS
330
46
102
}
330
46
100
AcDbScale
 70
     0
300
1:30
140
1.0
141
30.0
290
     0
  0
SCALE
  5
56
102
{ACAD_REACTORS
330
46
102
}
330
46
100
AcDbScale
 70
     0
300
1:40
140
1.0
141
40.0
290
     0
  0
SCALE
  5
57
102
{ACAD_REACTORS
330
46
102
}
330
46
100
AcDbScale
 70
     0
300
1:50
140
1.0
141
50.0
290
     0
  0
SCALE
  5
58
102
{ACAD_REACTORS
330
46
102
}
330
46
100
AcDbScale
 70
     0
300
1:100
140
1.0
141
100.0
290
     0
  0
SCALE
  5
59
102
{ACAD_REACTORS
330
46
102
}
330
46
100
AcDbScale
 70
     0
300
2:1
140
2.0
141
1.0
290
     0
  0
SCALE
  5
5A
102
{ACAD_REACTORS
330
46
102
}
330
46
100
AcDbScale
 70
     0
300
4:1
140
4.0
141
1.0
290
     0
  0
SCALE
  5
5B
102
{ACAD_REACTORS
330
46
102
}
330
46
100
AcDbScale
 70
     0
300
8:1
140
8.0
141
1.0
290
     0
  0
SCALE
  5
5C
102
{ACAD_REACTORS
330
46
102
}
330
46
100
AcDbScale
 70
     0
300
10:1
140
10.0
141
1.0
290
     0
  0
SCALE
  5
5D
102
{ACAD_REACTORS
330
46
102
}
330
46
100
AcDbScale
 70
     0
300
100:1
140
100.0
141
1.0
290
     0
  0
SCALE
  5
5E
102
{ACAD_REACTORS
330
46
102
}
330
46
100
AcDbScale
 70
     0
300
1/128" = 1'-0"
140
0.0078125
141
12.0
290
     0
  0
SCALE
  5
5F
102
{ACAD_REACTORS
330
46
102
}
330
46
100
AcDbScale
 70
     0
300
1/64" = 1'-0"
140
0.015625
141
12.0
290
     0
  0
SCALE
  5
60
102
{ACAD_REACTORS
330
46
102
}
330
46
100
AcDbScale
 70
     0
300
1/32" = 1'-0"
140
0.03125
141
12.0
290
     0
  0
SCALE
  5
61
102
{ACAD_REACTORS
330
46
102
}
330
46
100
AcDbScale
 70
     0
300
1/16" = 1'-0"
140
0.0625
141
12.0
290
     0
  0
SCALE
  5
62
102
{ACAD_REACTORS
330
46
102
}
330
46
100
AcDbScale
 70
     0
300
3/32" = 1'-0"
140
0.09375
141
12.0
290
     0
  0
SCALE
  5
63
102
{ACAD_REACTORS
330
46
102
}
330
46
100
AcDbScale
 70
     0
300
1/8" = 1'-0"
140
0.125
141
12.0
290
     0
  0
SCALE
  5
64
102
{ACAD_REACTORS
330
46
102
}
330
46
100
AcDbScale
 70
     0
300
3/16" = 1'-0"
140
0.1875
141
12.0
290
     0
  0
SCALE
  5
65
102
{ACAD_REACTORS
330
46
102
}
330
46
100
AcDbScale
 70
     0
300
1/4" = 1'-0"
140
0.25
141
12.0
290
     0
  0
SCALE
  5
66
102
{ACAD_REACTORS
330
46
102
}
330
46
100
AcDbScale
 70
     0
300
3/8" = 1'-0"
140
0.375
141
12.0
290
     0
  0
SCALE
  5
67
102
{ACAD_REACTORS
330
46
102
}
330
46
100
AcDbScale
 70
     0
300
1/2" = 1'-0"
140
0.5
141
12.0
290
     0
  0
SCALE
  5
68
102
{ACAD_REACTORS
330
46
102
}
330
46
100
AcDbScale
 70
     0
300
3/4" = 1'-0"
140
0.75
141
12.0
290
     0
  0
SCALE
  5
69
102
{ACAD_REACTORS
330
46
102
}
330
46
100
AcDbScale
 70
     0
300
1" = 1'-0"
140
1.0
141
12.0
290
     0
  0
SCALE
  5
6A
102
{ACAD_REACTORS
330
46
102
}
330
46
100
AcDbScale
 70
     0
300
1-1/2" = 1'-0"
140
1.5
141
12.0
290
     0
  0
SCALE
  5
6B
102
{ACAD_REACTORS
330
46
102
}
330
46
100
AcDbScale
 70
     0
300
3" = 1'-0"
140
3.0
141
12.0
290
     0
  0
SCALE
  5
6C
102
{ACAD_REACTORS
330
46
102
}
330
46
100
AcDbScale
 70
     0
300
6" = 1'-0"
140
6.0
141
12.0
290
     0
  0
SCALE
  5
6D
102
{ACAD_REACTORS
330
46
102
}
330
46
100
AcDbScale
 70
     0
300
1'-0" = 1'-0"
140
12.0
141
12.0
290
     0
  0
TABLESTYLE
  5
4A
102
{ACAD_XDICTIONARY
360
15F
102
}
102
{ACAD_REACTORS
330
47
102
}
330
47
100
AcDbTableStyle
280
     0
  3
Standard
 70
     0
 71
     0
 40
1.5
 41
1.5
280
     0
281
     0
  7
Standard
140
4.5
170
     2
 62
     0
 63
     7
283
     0
 90
      512
 91
        0
  1

274
    -2
284
     1
 64
     0
275
    -2
285
     1
 65
     0
276
    -2
286
     1
 66
     0
277
    -2
287
     1
 67
     0
278
    -2
288
     1
 68
     0
279
    -2
289
     1
 69
     0
  7
Standard
140
6.0
170
     5
 62
     0
 63
     7
283
     0
 90
      512
 91
        0
  1

274
    -2
284
     1
 64
     0
275
    -2
285
     1
 65
     0
276
    -2
286
     1
 66
     0
277
    -2
287
     1
 67
     0
278
    -2
288
     1
 68
     0
279
    -2
289
     1
 69
     0
  7
Standard
140
4.5
170
     5
 62
     0
 63
     7
283
     0
 90
      512
 91
        0
  1

274
    -2
284
     1
 64
     0
275
    -2
285
     1
 65
     0
276
    -2
286
     1
 66
     0
277
    -2
287
     1
 67
     0
278
    -2
288
     1
 68
     0
279
    -2
289
     1
 69
     0
  0
VISUALSTYLE
  5
2A
102
{ACAD_REACTORS
330
2B
102
}
330
2B
100
AcDbVisualStyle
  2
2dWireframe
 70
     4
177
     3
291
     0
 70
    58
 90
        0
176
     1
 90
        2
176
     1
 90
        0
176
     1
 90
        0
176
     1
 40
0.6
176
     1
 40
30.0
176
     1
 62
     7
420
 16777215
176
     1
 90
        1
176
     1
 90
        4
176
     1
 62
     7
176
     1
 62
   257
176
     1
 90
        1
176
     1
 90
        1
176
     1
 40
1.0
176
     1
 90
        0
176
     1
 62
   257
176
     1
 40
1.0
176
     1
 90
        1
176
     1
 90
        6
176
     1
 90
        2
176
     1
 62
     7
176
     1
 90
        5
176
     1
 90
        0
176
     1
 90
        0
176
     1
290
     0
176
     1
 90
        1
176
     1
 40
0.0
176
     1
 90
        0
176
     1
290
     1
176
     1
290
     1
176
     1
290
     0
176
     1
290
     0
176
     1
290
     0
176
     1
290
     0
176
     1
290
     0
176
     1
290
     0
176
     1
290
     0
176
     1
 90
       50
176
     1
 40
0.0
176
     1
 40
1.0
176
     1
 90
        0
176
     1
 62
    18
420
        0
176
     1
 90
       50
176
     1
 90
        3
176
     1
 62
     5
420
      255
176
     1
290
     0
176
     1
 90
       50
176
     1
 90
       50
176
     1
 90
       50
176
     1
290
     0
176
     1
 90
       50
176
     1
 62
   256
176
     0
 40
1.0
176
     0
 90
        2
176
     1
  1
strokes_ogs.tif
176
     1
290
     0
176
     1
 40
1.0
176
     1
 40
1.0
176
     1
  0
VISUALSTYLE
  5
4B
102
{ACAD_REACTORS
330
2B
102
}
330
2B
100
AcDbVisualStyle
  2
Realistic
 70
     8
177
     3
291
     0
 70
    58
 90
        2
176
     1
 90
        3
176
     1
 90
        0
176
     1
 90
        2
176
     1
 40
0.6
176
     1
 40
30.0
176
     1
 62
     7
420
 16777215
176
     1
 90
        0
176
     1
 90
        0
176
     1
 62
     7
176
     1
 62
   257
176
     1
 90
        1
176
     1
 90
        1
176
     1
 40
1.0
176
     1
 90
        8
176
     1
 62
   257
176
     1
 40
1.0
176
     1
 90
        1
176
     1
 90
        6
176
     1
 90
        2
176
     1
 62
     7
176
     1
 90
        3
176
     1
 90
        0
176
     1
 90
        0
176
     1
290
     0
176
     1
 90
       13
176
     1
 40
0.0
176
     1
 90
        0
176
     1
290
     0
176
     1
290
     1
176
     1
290
     1
176
     1
290
     0
176
     1
290
     0
176
     1
290
     0
176
     1
290
     0
176
     1
290
     0
176
     1
290
     0
176
     1
 90
       50
176
     1
 40
0.0
176
     1
 40
1.0
176
     1
 90
        0
176
     1
 62
    18
420
        0
176
     1
 90
       50
176
     1
 90
        3
176
     1
 62
     5
420
      255
176
     1
290
     0
176
     1
 90
       50
176
     1
 90
       50
176
     1
 90
       50
176
     1
290
     0
176
     1
 90
       50
176
     1
 62
   256
176
     0
 40
1.0
176
     0
 90
        2
176
     1
  1
strokes_ogs.tif
176
     1
290
     0
176
     1
 40
1.0
176
     1
 40
1.0
176
     1
  0
VISUALSTYLE
  5
4C
102
{ACAD_REACTORS
330
2B
102
}
330
2B
100
AcDbVisualStyle
  2
Wireframe
 70
     5
177
     3
291
     0
 70
    58
 90
        0
176
     1
 90
        2
176
     1
 90
        0
176
     1
 90
        0
176
     1
 40
0.6
176
     1
 40
30.0
176
     1
 62
     7
420
 16777215
176
     1
 90
        1
176
     1
 90
        4
176
     1
 62
     7
176
     1
 62
   257
176
     1
 90
        1
176
     1
 90
        1
176
     1
 40
1.0
176
     1
 90
        0
176
     1
 62
   257
176
     1
 40
1.0
176
     1
 90
        1
176
     1
 90
        6
176
     1
 90
        2
176
     1
 62
     7
176
     1
 90
        3
176
     1
 90
        0
176
     1
 90
        0
176
     1
290
     0
176
     1
 90
        1
176
     1
 40
0.0
176
     1
 90
        0
176
     1
290
     0
176
     1
290
     1
176
     1
290
     1
176
     1
290
     0
176
     1
290
     0
176
     1
290
     0
176
     1
290
     0
176
     1
290
     0
176
     1
290
     0
176
     1
 90
       50
176
     1
 40
0.0
176
     1
 40
1.0
176
     1
 90
        0
176
     1
 62
    18
420
        0
176
     1
 90
       50
176
     1
 90
        3
176
     1
 62
     5
420
      255
176
     1
290
     0
176
     1
 90
       50
176
     1
 90
       50
176
     1
 90
       50
176
     1
290
     0
176
     1
 90
       50
176
     1
 62
   256
176
     0
 40
1.0
176
     0
 90
        2
176
     1
  1
strokes_ogs.tif
176
     1
290
     0
176
     1
 40
1.0
176
     1
 40
1.0
176
     1
  0
DICTIONARYVAR
  5
15B
102
{ACAD_REACTORS
330
155
102
}
330
155
100
DictionaryVariables
280
     0
  1
1:1
  0
DICTIONARYVAR
  5
157
102
{ACAD_REACTORS
330
155
102
}
330
155
100
DictionaryVariables
280
     0
  1
STANDARD
  0
DICTIONARYVAR
  5
156
102
{ACAD_REACTORS
330
155
102
}
330
155
100
DictionaryVariables
280
     0
  1
STANDARD
  0
DICTIONARYVAR
  5
158
102
{ACAD_REACTORS
330
155
102
}
330
155
100
DictionaryVariables
280
     0
  1

  0
DICTIONARYVAR
  5
159
102
{ACAD_REACTORS
330
155
102
}
330
155
100
DictionaryVariables
280
     0
  1

  0
DICTIONARYVAR
  5
15D
102
{ACAD_REACTORS
330
155
102
}
330
155
100
DictionaryVariables
280
     0
  1
1
  0
DICTIONARYVAR
  5
15E
102
{ACAD_REACTORS
330
155
102
}
330
155
100
DictionaryVariables
280
     0
  1
15
  0
DICTIONARYVAR
  5
15C
102
{ACAD_REACTORS
330
155
102
}
330
155
100
DictionaryVariables
280
     0
  1
0
  0
DICTIONARYVAR
  5
15A
102
{ACAD_REACTORS
330
155
102
}
330
155
100
DictionaryVariables
280
     0
  1
0
  0
DICTIONARY
  5
3E
330
3D
100
AcDbDictionary
280
     1
281
     1
  3
BUMPTILE
360
3F
  3
DIFFUSETILE
360
40
  3
OPACITYTILE
360
41
  3
REFLECTIONTILE
360
42
  3
REFRACTIONTILE
360
43
  3
SPECULARTILE
360
44
  0
DICTIONARY
  5
36
330
35
100
AcDbDictionary
280
     1
281
     1
  3
BUMPTILE
360
37
  3
DIFFUSETILE
360
38
  3
OPACITYTILE
360
39
  3
REFLECTIONTILE
360
3A
  3
REFRACTIONTILE
360
3B
  3
SPECULARTILE
360
3C
  0
DICTIONARY
  5
E
330
C
100
AcDbDictionary
280
     1
281
     1
  3
BUMPTILE
360
F
  3
DIFFUSETILE
360
10
  3
OPACITYTILE
360
11
  3
REFLECTIONTILE
360
12
  3
REFRACTIONTILE
360
13
  3
SPECULARTILE
360
14
  0
DICTIONARY
  5
15F
330
4A
100
AcDbDictionary
280
     1
281
     1
  3
ACAD_ROUNDTRIP_2008_TABLESTYLE_CELLSTYLEMAP
360
160
  0
XRECORD
  5
3F
102
{ACAD_REACTORS
330
3E
102
}
330
3E
100
AcDbXrecord
280
     1
270
     1
271
     1
  0
XRECORD
  5
40
102
{ACAD_REACTORS
330
3E
102
}
330
3E
100
AcDbXrecord
280
     1
270
     1
271
     1
  0
XRECORD
  5
41
102
{ACAD_REACTORS
330
3E
102
}
330
3E
100
AcDbXrecord
280
     1
270
     1
271
     1
  0
XRECORD
  5
42
102
{ACAD_REACTORS
330
3E
102
}
330
3E
100
AcDbXrecord
280
     1
270
     1
271
     1
  0
XRECORD
  5
43
102
{ACAD_REACTORS
330
3E
102
}
330
3E
100
AcDbXrecord
280
     1
270
     1
271
     1
  0
XRECORD
  5
44
102
{ACAD_REACTORS
330
3E
102
}
330
3E
100
AcDbXrecord
280
     1
270
     1
271
     1
  0
XRECORD
  5
37
102
{ACAD_REACTORS
330
36
102
}
330
36
100
AcDbXrecord
280
     1
270
     1
271
     1
  0
XRECORD
  5
38
102
{ACAD_REACTORS
330
36
102
}
330
36
100
AcDbXrecord
280
     1
270
     1
271
     1
  0
XRECORD
  5
39
102
{ACAD_REACTORS
330
36
102
}
330
36
100
AcDbXrecord
280
     1
270
     1
271
     1
  0
XRECORD
  5
3A
102
{ACAD_REACTORS
330
36
102
}
330
36
100
AcDbXrecord
280
     1
270
     1
271
     1
  0
XRECORD
  5
3B
102
{ACAD_REACTORS
330
36
102
}
330
36
100
AcDbXrecord
280
     1
270
     1
271
     1
  0
XRECORD
  5
3C
102
{ACAD_REACTORS
330
36
102
}
330
36
100
AcDbXrecord
280
     1
270
     1
271
     1
  0
XRECORD
  5
F
102
{ACAD_REACTORS
330
E
102
}
330
E
100
AcDbXrecord
280
     1
270
     1
271
     1
  0
XRECORD
  5
10
102
{ACAD_REACTORS
330
E
102
}
330
E
100
AcDbXrecord
280
     1
270
     1
271
     1
  0
XRECORD
  5
11
102
{ACAD_REACTORS
330
E
102
}
330
E
100
AcDbXrecord
280
     1
270
     1
271
     1
  0
XRECORD
  5
12
102
{ACAD_REACTORS
330
E
102
}
330
E
100
AcDbXrecord
280
     1
270
     1
271
     1
  0
XRECORD
  5
13
102
{ACAD_REACTORS
330
E
102
}
330
E
100
AcDbXrecord
280
     1
270
     1
271
     1
  0
XRECORD
  5
14
102
{ACAD_REACTORS
330
E
102
}
330
E
100
AcDbXrecord
280
     1
270
     1
271
     1
  0
CELLSTYLEMAP
  5
160
102
{ACAD_REACTORS
330
15F
102
}
330
15F
100
AcDbCellStyleMap
 90
        3
300
CELLSTYLE
  1
TABLEFORMAT_BEGIN
 90
        5
170
     1
 91
        0
 92
    32768
 62
   257
 93
        1
300
CONTENTFORMAT
  1
CONTENTFORMAT_BEGIN
 90
        0
 91
        0
 92
      512
 93
        0
300

 40
0.0
140
1.0
 94
        5
 62
     0
340
21
144
6.0
309
CONTENTFORMAT_END
171
     1
301
MARGIN
  1
CELLMARGIN_BEGIN
 40
1.5
 40
1.5
 40
1.5
 40
1.5
 40
4.5
 40
4.5
309
CELLMARGIN_END
 94
        6
 95
        1
302
GRIDFORMAT
  1
GRIDFORMAT_BEGIN
 90
        0
 91
        1
 62
     0
 92
       -2
340
0
 93
        0
 40
1.125
309
GRIDFORMAT_END
 95
        2
302
GRIDFORMAT
  1
GRIDFORMAT_BEGIN
 90
        0
 91
        1
 62
     0
 92
       -2
340
0
 93
        0
 40
1.125
309
GRIDFORMAT_END
 95
        4
302
GRIDFORMAT
  1
GRIDFORMAT_BEGIN
 90
        0
 91
        1
 62
     0
 92
       -2
340
0
 93
        0
 40
1.125
309
GRIDFORMAT_END
 95
        8
302
GRIDFORMAT
  1
GRIDFORMAT_BEGIN
 90
        0
 91
        1
 62
     0
 92
       -2
340
0
 93
        0
 40
1.125
309
GRIDFORMAT_END
 95
       16
302
GRIDFORMAT
  1
GRIDFORMAT_BEGIN
 90
        0
 91
        1
 62
     0
 92
       -2
340
0
 93
        0
 40
1.125
309
GRIDFORMAT_END
 95
       32
302
GRIDFORMAT
  1
GRIDFORMAT_BEGIN
 90
        0
 91
        1
 62
     0
 92
       -2
340
0
 93
        0
 40
1.125
309
GRIDFORMAT_END
309
TABLEFORMAT_END
  1
CELLSTYLE_BEGIN
 90
        1
 91
        1
300
_TITLE
309
CELLSTYLE_END
300
CELLSTYLE
  1
TABLEFORMAT_BEGIN
 90
        5
170
     1
 91
        0
 92
        0
 62
   257
 93
        1
300
CONTENTFORMAT
  1
CONTENTFORMAT_BEGIN
 90
        0
 91
        0
 92
      512
 93
        0
300

 40
0.0
140
1.0
 94
        5
 62
     0
340
21
144
4.5
309
CONTENTFORMAT_END
171
     1
301
MARGIN
  1
CELLMARGIN_BEGIN
 40
1.5
 40
1.5
 40
1.5
 40
1.5
 40
4.5
 40
4.5
309
CELLMARGIN_END
 94
        6
 95
        1
302
GRIDFORMAT
  1
GRIDFORMAT_BEGIN
 90
        0
 91
        1
 62
     0
 92
       -2
340
0
 93
        0
 40
1.125
309
GRIDFORMAT_END
 95
        2
302
GRIDFORMAT
  1
GRIDFORMAT_BEGIN
 90
        0
 91
        1
 62
     0
 92
       -2
340
0
 93
        0
 40
1.125
309
GRIDFORMAT_END
 95
        4
302
GRIDFORMAT
  1
GRIDFORMAT_BEGIN
 90
        0
 91
        1
 62
     0
 92
       -2
340
0
 93
        0
 40
1.125
309
GRIDFORMAT_END
 95
        8
302
GRIDFORMAT
  1
GRIDFORMAT_BEGIN
 90
        0
 91
        1
 62
     0
 92
       -2
340
0
 93
        0
 40
1.125
309
GRIDFORMAT_END
 95
       16
302
GRIDFORMAT
  1
GRIDFORMAT_BEGIN
 90
        0
 91
        1
 62
     0
 92
       -2
340
0
 93
        0
 40
1.125
309
GRIDFORMAT_END
 95
       32
302
GRIDFORMAT
  1
GRIDFORMAT_BEGIN
 90
        0
 91
        1
 62
     0
 92
       -2
340
0
 93
        0
 40
1.125
309
GRIDFORMAT_END
309
TABLEFORMAT_END
  1
CELLSTYLE_BEGIN
 90
        2
 91
        1
300
_HEADER
309
CELLSTYLE_END
300
CELLSTYLE
  1
TABLEFORMAT_BEGIN
 90
        5
170
     1
 91
        0
 92
        0
 62
   257
 93
        1
300
CONTENTFORMAT
  1
CONTENTFORMAT_BEGIN
 90
        0
 91
        0
 92
      512
 93
        0
300

 40
0.0
140
1.0
 94
        2
 62
     0
340
21
144
4.5
309
CONTENTFORMAT_END
171
     1
301
MARGIN
  1
CELLMARGIN_BEGIN
 40
1.5
 40
1.5
 40
1.5
 40
1.5
 40
4.5
 40
4.5
309
CELLMARGIN_END
 94
        6
 95
        1
302
GRIDFORMAT
  1
GRIDFORMAT_BEGIN
 90
        0
 91
        1
 62
     0
 92
       -2
340
0
 93
        0
 40
1.125
309
GRIDFORMAT_END
 95
        2
302
GRIDFORMAT
  1
GRIDFORMAT_BEGIN
 90
        0
 91
        1
 62
     0
 92
       -2
340
0
 93
        0
 40
1.125
309
GRIDFORMAT_END
 95
        4
302
GRIDFORMAT
  1
GRIDFORMAT_BEGIN
 90
        0
 91
        1
 62
     0
 92
       -2
340
0
 93
        0
 40
1.125
309
GRIDFORMAT_END
 95
        8
302
GRIDFORMAT
  1
GRIDFORMAT_BEGIN
 90
        0
 91
        1
 62
     0
 92
       -2
340
0
 93
        0
 40
1.125
309
GRIDFORMAT_END
 95
       16
302
GRIDFORMAT
  1
GRIDFORMAT_BEGIN
 90
        0
 91
        1
 62
     0
 92
       -2
340
0
 93
        0
 40
1.125
309
GRIDFORMAT_END
 95
       32
302
GRIDFORMAT
  1
GRIDFORMAT_BEGIN
 90
        0
 91
        1
 62
     0
 92
       -2
340
0
 93
        0
 40
1.125
309
GRIDFORMAT_END
309
TABLEFORMAT_END
  1
CELLSTYLE_BEGIN
 90
        3
 91
        2
300
_DATA
309
CELLSTYLE_END
  0
ENDSEC
  0
SECTION
  2
ACDSDATA
 70
     2
 71
     7
  0
ACDSSCHEMA
 90
        0
  1
AcDb_Thumbnail_Schema
  2
AcDbDs::ID
280
    10
 91
        8
  2
Thumbnail_Data
280
    15
 91
        0
101
ACDSRECORD
 95
        0
 90
        1
  2
AcDbDs::TreatedAsObjectData
280
     1
291
     1
101
ACDSRECORD
 95
        0
 90
        2
  2
AcDbDs::Legacy
280
     1
291
     1
101
ACDSRECORD
  1
AcDbDs::ID
 90
        3
  2
AcDs:Indexable
280
     1
291
     1
101
ACDSRECORD
  1
AcDbDs::ID
 90
        4
  2
AcDbDs::HandleAttribute
280
     7
282
     1
  0
ACDSSCHEMA
 90
        1
  1
AcDbDs::TreatedAsObjectDataSchema
  2
AcDbDs::TreatedAsObjectData
280
     1
 91
        0
  0
ACDSSCHEMA
 90
        2
  1
AcDbDs::LegacySchema
  2
AcDbDs::Legacy
280
     1
 91
        0
  0
ACDSSCHEMA
 90
        3
  1
AcDbDs::IndexedPropertySchema
  2
AcDs:Indexable
280
     1
 91
        0
  0
ACDSSCHEMA
 90
        4
  1
AcDbDs::HandleAttributeSchema
  2
AcDbDs::HandleAttribute
280
     7
 91
        1
284
     1
  0
ACDSRECORD
 90
        0
  2
AcDbDs::ID
280
    10
320
17
  2
Thumbnail_Data
280
    15
 94
     1658
310
89504E470D0A1A0A0000000D49484452000001000000007208030000008B31FF2A00000300504C5445212830000000C8C8C80000000000000000000000000000000000000000000000000000330000660000990000CC0000FF0033000033330033660033990033CC0033FF0066000066330066660066990066CC0066FF0099
310
000099330099660099990099CC0099FF00CC0000CC3300CC6600CC9900CCCC00CCFF00FF0000FF3300FF6600FF9900FFCC00FFFF3300003300333300663300993300CC3300FF3333003333333333663333993333CC3333FF3366003366333366663366993366CC3366FF3399003399333399663399993399CC3399FF33CC00
310
33CC3333CC6633CC9933CCCC33CCFF33FF0033FF3333FF6633FF9933FFCC33FFFF6600006600336600666600996600CC6600FF6633006633336633666633996633CC6633FF6666006666336666666666996666CC6666FF6699006699336699666699996699CC6699FF66CC0066CC3366CC6666CC9966CCCC66CCFF66FF0066
310
FF3366FF6666FF9966FFCC66FFFF9900009900339900669900999900CC9900FF9933009933339933669933999933CC9933FF9966009966339966669966999966CC9966FF9999009999339999669999999999CC9999FF99CC0099CC3399CC6699CC9999CCCC99CCFF99FF0099FF3399FF6699FF9999FFCC99FFFFCC0000CC00
310
33CC0066CC0099CC00CCCC00FFCC3300CC3333CC3366CC3399CC33CCCC33FFCC6600CC6633CC6666CC6699CC66CCCC66FFCC9900CC9933CC9966CC9999CC99CCCC99FFCCCC00CCCC33CCCC66CCCC99CCCCCCCCCCFFCCFF00CCFF33CCFF66CCFF99CCFFCCCCFFFFFF0000FF0033FF0066FF0099FF00CCFF00FFFF3300FF3333
310
FF3366FF3399FF33CCFF33FFFF6600FF6633FF6666FF6699FF66CCFF66FFFF9900FF9933FF9966FF9999FF99CCFF99FFFFCC00FFCC33FFCC66FFCC99FFCCCCFFCCFFFFFF00FFFF33FFFF66FFFF99FFFFCCFFFFFF0000000D0D0D1A1A1A2828283535354343435050505D5D5D6B6B6B787878868686939393A1A1A1AEAEAEBB
310
BBBBC9C9C9D6D6D6E4E4E4F1F1F1FFFFFF000000000000000000000000000000000000000000000000000000000000B21171F6000000984944415478DAEDD9C109C3301000C1EBBFDFFB079C181B92026276A683D50949A0190000000000000000000080BFB38774FF7417E0539F5C803DB5E6FF8E3DBBB737F3D9727CF5CC
310
BF17E7F2BFE257BC78F1818BBE1BBFE2E3F12E7AC7BD78F1E2BD725CF4E2BD729C78E2C58B7F667E38FEC82EC7DFBE6EC4F7EA273AF76BF4C93DBFDDD167FFE87FEC80F6020C00000000000000F0082F26795E56479629020000000049454E44AE4260828735A5D53B830000000049454E44AE4260820000FCA71B1C82B52E
310
AC1DB44C0000000049454E44AE426082525D06A0BF09E236BA63118C3CB336DF80A127F6EA7AF317B8E7AFF423FA0D00000000000000000000000000809F780112B7C1BA361065050000000049454E44AE4260825AD77668F6B76DE5D3B0BC8ADF3106DC57BE5601A8EF5CE808E431F57784C0B76A00000000000000000000
310
0000000000000000000000000000F0075EFD8B1F9CC7F797780000000049454E44AE426082E86179B6007AB93D4B003DE73C3B00BD731D2B0003A23D1F00A36E03B30030F21EF87000A30F000C05C0E1F4C330005C8E7E8C00607F8DCDB997211E60AD31BA01403700BB004C0EA076F102303D007F032F4AF80A0084858E5F
310
F5E8009080A00F800F01C75B3B7401083CE1FF309555062082601402B820402F807D29C8EA0988AE002C37F57400CFDD96A37822807DE6CEE4F74D00609E4D02CB2AEBB50338DCBFFAEEB1E4C78C4D5F4DC9FEA1D8F221A9FD7C7D58F2B3367D9B6F200C09890A07CE8FD2C59700B81032E7EBB9FBFD1D00F00198DAF9FA09
310
1E74A67840399ECA46103C1AE0C700E2F97A08160F9F01A2B2605A0008F7F3E001682A29205BBC3B1928214D388052D846FDB131E100F2FA70C6831238D10050565F4A69BBF8BD50160920FBBE4D38EF1E4ECE804BFC551ECC92064F9BE6FCC317BFFB470A9250F1A739EB96777E91B81E122D5F0AFC69F1FE54F23E1667F8
310
82DF475BDAD965F17515C4191EE9807F8A472573C0750908C90208272DEE898F3383C0D5600020126F483583E07F5EE000488A477325291340ABF8795E7277EE0268147F18DFCB039AC43B19109405B299B3256F7128303DD5BC6A5EEB99DD1B53D4D2BBA3CA5A7A95AB91C16AABCDD9FE006B3204317B64A93F0000000049
310
454E44AE426082
  0
ENDSEC
  0
EOF
