  0
SECTION
  2
HEADER
  9
$ACADVER
  1
AC1027
  9
$ACADMAINTVER
 70
    20
  9
$DWGCODEPAGE
  3
ANSI_932
  9
$REQUIREDVERSIONS
160
                 0
  9
$INSBASE
 10
0.0
 20
0.0
 30
0.0
  9
$EXTMIN
 10
-0.0053790068590729
 20
-0.0027821191494724
 30
-0.0000000349181948
  9
$EXTMAX
 10
50.00404183245558
 20
13.35812537704359
 30
0.0000000814935746
  9
$LIMMIN
 10
-19.12009120561288
 20
-11.14415651206423
  9
$LIMMAX
 10
65.07817229429019
 20
28.09493986458188
  9
$ORTHOMODE
 70
     0
  9
$REGENMODE
 70
     1
  9
$FILLMODE
 70
     1
  9
$QTEXTMODE
 70
     0
  9
$MIRRTEXT
 70
     1
  9
$LTSCALE
 40
1.0
  9
$ATTMODE
 70
     1
  9
$TEXTSIZE
 40
3.5
  9
$TRACEWID
 40
1.0
  9
$TEXTSTYLE
  7
Standard
  9
$CLAYER
  8
0
  9
$CELTYPE
  6
ByLayer
  9
$CECOLOR
 62
   256
  9
$CELTSCALE
 40
1.0
  9
$DISPSILH
 70
     0
  9
$DIMSCALE
 40
1.0
  9
$DIMASZ
 40
2.5
  9
$DIMEXO
 40
0.625
  9
$DIMDLI
 40
3.75
  9
$DIMRND
 40
0.0
  9
$DIMDLE
 40
0.0
  9
$DIMEXE
 40
1.25
  9
$DIMTP
 40
0.0
  9
$DIMTM
 40
0.0
  9
$DIMTXT
 40
2.5
  9
$DIMCEN
 40
2.5
  9
$DIMTSZ
 40
0.0
  9
$DIMTOL
 70
     0
  9
$DIMLIM
 70
     0
  9
$DIMTIH
 70
     0
  9
$DIMTOH
 70
     0
  9
$DIMSE1
 70
     0
  9
$DIMSE2
 70
     0
  9
$DIMTAD
 70
     1
  9
$DIMZIN
 70
     8
  9
$DIMBLK
  1

  9
$DIMASO
 70
     1
  9
$DIMSHO
 70
     1
  9
$DIMPOST
  1

  9
$DIMAPOST
  1

  9
$DIMALT
 70
     0
  9
$DIMALTD
 70
     3
  9
$DIMALTF
 40
0.0393700787
  9
$DIMLFAC
 40
1.0
  9
$DIMTOFL
 70
     1
  9
$DIMTVP
 40
0.0
  9
$DIMTIX
 70
     0
  9
$DIMSOXD
 70
     0
  9
$DIMSAH
 70
     0
  9
$DIMBLK1
  1

  9
$DIMBLK2
  1

  9
$DIMSTYLE
  2
ISO-25
  9
$DIMCLRD
 70
     0
  9
$DIMCLRE
 70
     0
  9
$DIMCLRT
 70
     0
  9
$DIMTFAC
 40
1.0
  9
$DIMGAP
 40
0.625
  9
$DIMJUST
 70
     0
  9
$DIMSD1
 70
     0
  9
$DIMSD2
 70
     0
  9
$DIMTOLJ
 70
     0
  9
$DIMTZIN
 70
     8
  9
$DIMALTZ
 70
     0
  9
$DIMALTTZ
 70
     0
  9
$DIMUPT
 70
     0
  9
$DIMDEC
 70
     2
  9
$DIMTDEC
 70
     2
  9
$DIMALTU
 70
     2
  9
$DIMALTTD
 70
     3
  9
$DIMTXSTY
  7
Standard
  9
$DIMAUNIT
 70
     0
  9
$DIMADEC
 70
     0
  9
$DIMALTRND
 40
0.0
  9
$DIMAZIN
 70
     0
  9
$DIMDSEP
 70
    44
  9
$DIMATFIT
 70
     3
  9
$DIMFRAC
 70
     0
  9
$DIMLDRBLK
  1

  9
$DIMLUNIT
 70
     2
  9
$DIMLWD
 70
    -2
  9
$DIMLWE
 70
    -2
  9
$DIMTMOVE
 70
     0
  9
$DIMFXL
 40
1.0
  9
$DIMFXLON
 70
     0
  9
$DIMJOGANG
 40
0.7853981633974483
  9
$DIMTFILL
 70
     0
  9
$DIMTFILLCLR
 70
     0
  9
$DIMARCSYM
 70
     0
  9
$DIMLTYPE
  6

  9
$DIMLTEX1
  6

  9
$DIMLTEX2
  6

  9
$DIMTXTDIRECTION
 70
     0
  9
$LUNITS
 70
     2
  9
$LUPREC
 70
     2
  9
$SKETCHINC
 40
1.0
  9
$FILLETRAD
 40
10.0
  9
$AUNITS
 70
     0
  9
$AUPREC
 70
     2
  9
$MENU
  1
.
  9
$ELEVATION
 40
0.0
  9
$PELEVATION
 40
0.0
  9
$THICKNESS
 40
0.0
  9
$LIMCHECK
 70
     0
  9
$CHAMFERA
 40
0.0
  9
$CHAMFERB
 40
0.0
  9
$CHAMFERC
 40
0.0
  9
$CHAMFERD
 40
0.0
  9
$SKPOLY
 70
     0
  9
$TDCREATE
 40
2458037.571001273
  9
$TDUCREATE
 40
2458037.196001273
  9
$TDUPDATE
 40
2458038.454771679
  9
$TDUUPDATE
 40
2458038.079771679
  9
$TDINDWG
 40
0.0093367824
  9
$TDUSRTIMER
 40
0.0093366551
  9
$USRTIMER
 70
     1
  9
$ANGBASE
 50
0.0
  9
$ANGDIR
 70
     0
  9
$PDMODE
 70
     0
  9
$PDSIZE
 40
-1.0
  9
$PLINEWID
 40
0.0
  9
$SPLFRAME
 70
     0
  9
$SPLINETYPE
 70
     6
  9
$SPLINESEGS
 70
     8
  9
$HANDSEED
  5
15D
  9
$SURFTAB1
 70
     6
  9
$SURFTAB2
 70
     6
  9
$SURFTYPE
 70
     6
  9
$SURFU
 70
     6
  9
$SURFV
 70
     6
  9
$UCSBASE
  2

  9
$UCSNAME
  2

  9
$UCSORG
 10
0.0
 20
0.0
 30
0.0
  9
$UCSXDIR
 10
1.0
 20
0.0
 30
0.0
  9
$UCSYDIR
 10
0.0
 20
1.0
 30
0.0
  9
$UCSORTHOREF
  2

  9
$UCSORTHOVIEW
 70
     0
  9
$UCSORGTOP
 10
0.0
 20
0.0
 30
0.0
  9
$UCSORGBOTTOM
 10
0.0
 20
0.0
 30
0.0
  9
$UCSORGLEFT
 10
0.0
 20
0.0
 30
0.0
  9
$UCSORGRIGHT
 10
0.0
 20
0.0
 30
0.0
  9
$UCSORGFRONT
 10
0.0
 20
0.0
 30
0.0
  9
$UCSORGBACK
 10
0.0
 20
0.0
 30
0.0
  9
$PUCSBASE
  2

  9
$PUCSNAME
  2

  9
$PUCSORG
 10
0.0
 20
0.0
 30
0.0
  9
$PUCSXDIR
 10
1.0
 20
0.0
 30
0.0
  9
$PUCSYDIR
 10
0.0
 20
1.0
 30
0.0
  9
$PUCSORTHOREF
  2

  9
$PUCSORTHOVIEW
 70
     0
  9
$PUCSORGTOP
 10
0.0
 20
0.0
 30
0.0
  9
$PUCSORGBOTTOM
 10
0.0
 20
0.0
 30
0.0
  9
$PUCSORGLEFT
 10
0.0
 20
0.0
 30
0.0
  9
$PUCSORGRIGHT
 10
0.0
 20
0.0
 30
0.0
  9
$PUCSORGFRONT
 10
0.0
 20
0.0
 30
0.0
  9
$PUCSORGBACK
 10
0.0
 20
0.0
 30
0.0
  9
$USERI1
 70
     0
  9
$USERI2
 70
     0
  9
$USERI3
 70
     0
  9
$USERI4
 70
     0
  9
$USERI5
 70
     0
  9
$USERR1
 40
0.0
  9
$USERR2
 40
0.0
  9
$USERR3
 40
0.0
  9
$USERR4
 40
0.0
  9
$USERR5
 40
0.0
  9
$WORLDVIEW
 70
     1
  9
$SHADEDGE
 70
     3
  9
$SHADEDIF
 70
    70
  9
$TILEMODE
 70
     1
  9
$MAXACTVP
 70
    64
  9
$PINSBASE
 10
0.0
 20
0.0
 30
0.0
  9
$PLIMCHECK
 70
     0
  9
$PEXTMIN
 10
1.000000000000000E+20
 20
1.000000000000000E+20
 30
1.000000000000000E+20
  9
$PEXTMAX
 10
-1.000000000000000E+20
 20
-1.000000000000000E+20
 30
-1.000000000000000E+20
  9
$PLIMMIN
 10
0.0
 20
0.0
  9
$PLIMMAX
 10
420.0
 20
297.0
  9
$UNITMODE
 70
     0
  9
$VISRETAIN
 70
     1
  9
$PLINEGEN
 70
     0
  9
$PSLTSCALE
 70
     1
  9
$TREEDEPTH
 70
  3020
  9
$CMLSTYLE
  2
Standard
  9
$CMLJUST
 70
     0
  9
$CMLSCALE
 40
20.0
  9
$PROXYGRAPHICS
 70
     1
  9
$MEASUREMENT
 70
     1
  9
$CELWEIGHT
370
    -1
  9
$ENDCAPS
280
     0
  9
$JOINSTYLE
280
     0
  9
$LWDISPLAY
290
     0
  9
$INSUNITS
 70
     4
  9
$HYPERLINKBASE
  1

  9
$STYLESHEET
  1

  9
$XEDIT
290
     1
  9
$CEPSNTYPE
380
     0
  9
$PSTYLEMODE
290
     1
  9
$FINGERPRINTGUID
  2
{F5FE95E4-AC8C-4FBF-956F-9490AFA85C76}
  9
$VERSIONGUID
  2
{9A894263-A6CB-4D13-B19B-83F177D24D1E}
  9
$EXTNAMES
290
     1
  9
$PSVPSCALE
 40
0.0
  9
$OLESTARTUP
290
     0
  9
$SORTENTS
280
   127
  9
$INDEXCTL
280
     0
  9
$HIDETEXT
280
     1
  9
$XCLIPFRAME
280
     2
  9
$HALOGAP
280
     0
  9
$OBSCOLOR
 70
   257
  9
$OBSLTYPE
280
     0
  9
$INTERSECTIONDISPLAY
280
     0
  9
$INTERSECTIONCOLOR
 70
   257
  9
$DIMASSOC
280
     1
  9
$PROJECTNAME
  1

  9
$CAMERADISPLAY
290
     0
  9
$LENSLENGTH
 40
50.0
  9
$CAMERAHEIGHT
 40
0.0
  9
$STEPSPERSEC
 40
2.0
  9
$STEPSIZE
 40
6.0
  9
$3DDWFPREC
 40
2.0
  9
$PSOLWIDTH
 40
0.25
  9
$PSOLHEIGHT
 40
4.0
  9
$LOFTANG1
 40
1.570796326794896
  9
$LOFTANG2
 40
1.570796326794896
  9
$LOFTMAG1
 40
0.0
  9
$LOFTMAG2
 40
0.0
  9
$LOFTPARAM
 70
     7
  9
$LOFTNORMALS
280
     1
  9
$LATITUDE
 40
37.795
  9
$LONGITUDE
 40
-122.394
  9
$NORTHDIRECTION
 40
0.0
  9
$TIMEZONE
 70
 -8000
  9
$LIGHTGLYPHDISPLAY
280
     1
  9
$TILEMODELIGHTSYNCH
280
     1
  9
$CMATERIAL
347
35
  9
$SOLIDHIST
280
     0
  9
$SHOWHIST
280
     1
  9
$DWFFRAME
280
     2
  9
$DGNFRAME
280
     0
  9
$REALWORLDSCALE
290
     1
  9
$INTERFERECOLOR
 62
     1
  9
$INTERFEREOBJVS
345
4B
  9
$INTERFEREVPVS
346
4C
  9
$CSHADOW
280
     0
  9
$SHADOWPLANELOCATION
 40
0.0
  0
ENDSEC
  0
SECTION
  2
CLASSES
  0
CLASS
  1
ACDBDICTIONARYWDFLT
  2
AcDbDictionaryWithDefault
  3
ObjectDBX Classes
 90
        0
 91
        1
280
     0
281
     0
  0
CLASS
  1
VISUALSTYLE
  2
AcDbVisualStyle
  3
ObjectDBX Classes
 90
     4095
 91
        3
280
     0
281
     0
  0
CLASS
  1
MATERIAL
  2
AcDbMaterial
  3
ObjectDBX Classes
 90
     1153
 91
        3
280
     0
281
     0
  0
CLASS
  1
SCALE
  2
AcDbScale
  3
ObjectDBX Classes
 90
     1153
 91
       33
280
     0
281
     0
  0
CLASS
  1
TABLESTYLE
  2
AcDbTableStyle
  3
ObjectDBX Classes
 90
     4095
 91
        1
280
     0
281
     0
  0
CLASS
  1
MLEADERSTYLE
  2
AcDbMLeaderStyle
  3
ACDB_MLEADERSTYLE_CLASS
 90
     4095
 91
        0
280
     0
281
     0
  0
CLASS
  1
SUN
  2
AcDbSun
  3
SCENEOE
 90
     1153
 91
        0
280
     0
281
     0
  0
CLASS
  1
ACDBSECTIONVIEWSTYLE
  2
AcDbSectionViewStyle
  3
ObjectDBX Classes
 90
     1025
 91
        0
280
     0
281
     0
  0
CLASS
  1
ACDBDETAILVIEWSTYLE
  2
AcDbDetailViewStyle
  3
ObjectDBX Classes
 90
     1025
 91
        0
280
     0
281
     0
  0
CLASS
  1
DICTIONARYVAR
  2
AcDbDictionaryVar
  3
ObjectDBX Classes
 90
        0
 91
        9
280
     0
281
     0
  0
CLASS
  1
SORTENTSTABLE
  2
AcDbSortentsTable
  3
ObjectDBX Classes
 90
        0
 91
        2
280
     0
281
     0
  0
CLASS
  1
SOLID_BACKGROUND
  2
AcDbSolidBackground
  3
SCENEOE
 90
     4095
 91
        0
280
     0
281
     0
  0
CLASS
  1
NPOCOLLECTION
  2
AcDbImpNonPersistentObjectsCollection
  3
ObjectDBX Classes
 90
     1153
 91
        0
280
     0
281
     0
  0
CLASS
  1
CELLSTYLEMAP
  2
AcDbCellStyleMap
  3
ObjectDBX Classes
 90
     1152
 91
        1
280
     0
281
     0
  0
ENDSEC
  0
SECTION
  2
TABLES
  0
TABLE
  2
VPORT
  5
28
330
0
100
AcDbSymbolTable
 70
     1
  0
VPORT
  5
29
330
28
100
AcDbSymbolTableRecord
100
AcDbViewportTableRecord
  2
*Active
 70
     0
 10
0.0
 20
0.0
 11
1.0
 21
1.0
 12
22.97904054433866
 22
8.475391676258823
 13
0.0
 23
0.0
 14
10.0
 24
10.0
 15
10.0
 25
10.0
 16
0.0
 26
0.0
 36
1.0
 17
0.0
 27
0.0
 37
0.0
 40
39.52173092437705
 41
2.27764423076923
 42
50.0
 43
0.0
 44
0.0
 50
0.0
 51
0.0
 71
     0
 72
  2000
 73
     1
 74
     3
 75
     0
 76
     0
 77
     0
 78
     0
281
     0
 65
     1
110
0.0
120
0.0
130
0.0
111
1.0
121
0.0
131
0.0
112
0.0
122
1.0
132
0.0
 79
     0
146
0.0
348
2A
 60
     3
 61
     5
292
     1
282
     1
141
0.0
142
0.0
 63
   250
421
  3355443
1001
ACAD_NAV_VCDISPLAY
1070
     3
  0
ENDTAB
  0
TABLE
  2
LTYPE
  5
23
330
0
100
AcDbSymbolTable
 70
     1
  0
LTYPE
  5
24
330
23
100
AcDbSymbolTableRecord
100
AcDbLinetypeTableRecord
  2
ByBlock
 70
     0
  3

 72
    65
 73
     0
 40
0.0
  0
LTYPE
  5
25
330
23
100
AcDbSymbolTableRecord
100
AcDbLinetypeTableRecord
  2
ByLayer
 70
     0
  3

 72
    65
 73
     0
 40
0.0
  0
LTYPE
  5
15
330
23
100
AcDbSymbolTableRecord
100
AcDbLinetypeTableRecord
  2
Continuous
 70
     0
  3
Solid line
 72
    65
 73
     0
 40
0.0
  0
ENDTAB
  0
TABLE
  2
LAYER
  5
1D
102
{ACAD_XDICTIONARY
360
1E
102
}
330
0
100
AcDbSymbolTable
 70
     1
  0
LAYER
  5
6
102
{ACAD_XDICTIONARY
360
7
102
}
330
1D
100
AcDbSymbolTableRecord
100
AcDbLayerTableRecord
  2
0
 70
     0
 62
     7
  6
Continuous
370
    -3
390
9
347
C
348
0
  0
ENDTAB
  0
TABLE
  2
STYLE
  5
20
330
0
100
AcDbSymbolTable
 70
     1
  0
STYLE
  5
21
330
20
100
AcDbSymbolTableRecord
100
AcDbTextStyleTableRecord
  2
Standard
 70
     0
 40
0.0
 41
1.0
 50
0.0
 71
     0
 42
3.5
  3
txt
  4
bigfont
  0
ENDTAB
  0
TABLE
  2
VIEW
  5
26
330
0
100
AcDbSymbolTable
 70
     0
  0
ENDTAB
  0
TABLE
  2
UCS
  5
27
330
0
100
AcDbSymbolTable
 70
     0
  0
ENDTAB
  0
TABLE
  2
APPID
  5
2D
330
0
100
AcDbSymbolTable
 70
     2
  0
APPID
  5
2E
330
2D
100
AcDbSymbolTableRecord
100
AcDbRegAppTableRecord
  2
ACAD
 70
     0
  0
APPID
  5
2C
330
2D
100
AcDbSymbolTableRecord
100
AcDbRegAppTableRecord
  2
ACAD_NAV_VCDISPLAY
 70
     0
  0
ENDTAB
  0
TABLE
  2
DIMSTYLE
  5
2F
330
0
100
AcDbSymbolTable
 70
     1
100
AcDbDimStyleTable
 71
     1
340
30
  0
DIMSTYLE
105
30
330
2F
100
AcDbSymbolTableRecord
100
AcDbDimStyleTableRecord
  2
ISO-25
 70
     0
 41
2.5
 42
0.625
 43
3.75
 44
1.25
 73
     0
 74
     0
 77
     1
 78
     8
140
2.5
141
2.5
143
0.0393700787
147
0.625
171
     3
172
     1
271
     2
272
     2
274
     3
278
    44
283
     0
284
     8
340
21
  0
ENDTAB
  0
TABLE
  2
BLOCK_RECORD
  5
1
330
0
100
AcDbSymbolTable
 70
     0
  0
BLOCK_RECORD
  5
2
102
{ACAD_XDICTIONARY
360
3
102
}
330
1
100
AcDbSymbolTableRecord
100
AcDbBlockTableRecord
  2
*Model_Space
340
17
 70
     0
280
     1
281
     0
  0
BLOCK_RECORD
  5
19
330
1
100
AcDbSymbolTableRecord
100
AcDbBlockTableRecord
  2
*Paper_Space
340
1C
 70
     0
280
     1
281
     0
  0
ENDTAB
  0
ENDSEC
  0
SECTION
  2
BLOCKS
  0
BLOCK
  5
5
330
2
100
AcDbEntity
  8
0
100
AcDbBlockBegin
  2
*Model_Space
 70
     0
 10
0.0
 20
0.0
 30
0.0
  3
*Model_Space
  1

  0
ENDBLK
  5
16
330
2
100
AcDbEntity
  8
0
100
AcDbBlockEnd
  0
BLOCK
  5
1A
330
19
100
AcDbEntity
 67
     1
  8
0
100
AcDbBlockBegin
  2
*Paper_Space
 70
     0
 10
0.0
 20
0.0
 30
0.0
  3
*Paper_Space
  1

  0
ENDBLK
  5
1B
330
19
100
AcDbEntity
 67
     1
  8
0
100
AcDbBlockEnd
  0
ENDSEC
  0
SECTION
  2
ENTITIES
  0
ARC
  5
6E
330
2
100
AcDbEntity
  8
0
100
AcDbCircle
 10
49.17379848526387
 20
12.80458191605128
 30
0.0
 40
0.034774603790103
100
AcDbArc
 50
180.0
 51
255.489181300899
  0
SPLINE
  5
6F
330
2
100
AcDbEntity
  8
0
100
AcDbSpline
210
0.0
220
0.0
230
1.0
 70
     8
 71
     3
 72
     9
 73
     5
 74
     0
 42
0.000000001
 43
0.0000000001
 40
0.0
 40
0.0
 40
0.0
 40
0.0
 40
0.6365801636223791
 40
1.0
 40
1.0
 40
1.0
 40
1.0
 10
49.13238008387331
 20
12.86408969504533
 30
0.0
 10
49.13490809713913
 20
12.85234472863334
 30
0.0
 10
49.13887933817095
 20
12.83389463062026
 30
0.0
 10
49.13867002921114
 20
12.8135067197938
 30
0.0
 10
49.1385939621832
 20
12.80609734857719
 30
0.0
  0
LINE
  5
70
330
2
100
AcDbEntity
  8
0
100
AcDbLine
 10
49.13902467712365
 20
12.80622058988533
 30
0.0
 11
49.13902467712365
 21
12.80458212014343
 31
0.0
  0
LINE
  5
71
330
2
100
AcDbEntity
  8
0
100
AcDbLine
 10
49.16508563342843
 20
12.7709167079458
 30
0.0
 11
49.16738072255267
 21
12.77032269517441
 31
0.0
  0
SPLINE
  5
72
330
2
100
AcDbEntity
  8
0
100
AcDbSpline
210
0.0
220
0.0
230
1.0
 70
     8
 71
     3
 72
     9
 73
     5
 74
     0
 42
0.000000001
 43
0.0000000001
 40
0.0
 40
0.0
 40
0.0
 40
0.0
 40
0.2170689331645715
 40
1.0
 40
1.0
 40
1.0
 40
1.0
 10
49.16731336036459
 20
12.77028633608906
 30
0.0
 10
49.17350213596924
 20
12.76867679825295
 30
0.0
 10
49.20201278240033
 20
12.76126192864155
 30
0.0
 10
49.23059097281142
 20
12.75359742301511
 30
0.0
 10
49.25296572591824
 20
12.74759664344823
 30
0.0
  0
LINE
  5
73
330
2
100
AcDbEntity
  8
0
100
AcDbLine
 10
49.53659986292803
 20
12.81334704534143
 30
0.0
 11
49.66938098056382
 21
12.84771332740997
 31
0.0
  0
LINE
  5
74
330
2
100
AcDbEntity
  8
0
100
AcDbLine
 10
49.25296572591824
 20
12.74759664344823
 30
0.0
 11
49.4136811510742
 21
12.70657545345641
 31
0.0
  0
SPLINE
  5
75
330
2
100
AcDbEntity
  8
0
100
AcDbSpline
210
0.0
220
0.0
230
1.0
 70
     8
 71
     3
 72
    13
 73
     9
 74
     0
 42
0.000000001
 43
0.0000000001
 40
0.0
 40
0.0
 40
0.0
 40
0.0
 40
0.1798543288212751
 40
0.3633544872554297
 40
0.5471563042017777
 40
0.7255181592261933
 40
0.8995668908407811
 40
1.0
 40
1.0
 40
1.0
 40
1.0
 10
49.51348128189398
 20
12.76710425052423
 30
0.0
 10
49.51372373719542
 20
12.77121110188428
 30
0.0
 10
49.51421356261311
 20
12.77950805464572
 30
0.0
 10
49.51825219034128
 20
12.79229309921157
 30
0.0
 10
49.52414726820061
 20
12.80303966050128
 30
0.0
 10
49.53067285262246
 20
12.81024270281748
 30
0.0
 10
49.53509225408559
 20
12.81289606890256
 30
0.0
 10
49.53619600108392
 20
12.81322623669796
 30
0.0
 10
49.5365998629294
 20
12.81334704533923
 30
0.0
  0
ARC
  5
76
330
2
100
AcDbEntity
  8
0
100
AcDbCircle
 10
49.47870652636481
 20
12.7536683624812
 30
0.0
 40
0.034774603790103
100
AcDbArc
 50
284.510818699101
 51
0.0
  0
LINE
  5
77
330
2
100
AcDbEntity
  8
0
100
AcDbLine
 10
49.51348128189739
 20
12.75366839818775
 30
0.0
 11
49.51348128189739
 21
12.76710425052457
 31
0.0
  0
LINE
  5
78
330
2
100
AcDbEntity
  8
0
100
AcDbLine
 10
49.08035764012947
 20
13.06186048830812
 30
0.0
 11
47.7391827586669
 21
12.71473888617177
 31
0.0
  0
LINE
  5
79
330
2
100
AcDbEntity
  8
0
100
AcDbLine
 10
49.43332207764878
 20
12.70600154842503
 30
0.0
 11
49.48741884849956
 21
12.72000282300156
 31
0.0
  0
LINE
  5
7A
330
2
100
AcDbEntity
  8
0
100
AcDbLine
 10
49.4136811510742
 20
12.70657545345641
 30
0.0
 11
49.41589709564137
 21
12.70600192479753
 31
0.0
  0
ARC
  5
7B
330
2
100
AcDbEntity
  8
0
100
AcDbCircle
 10
49.42460993842845
 20
12.73966713524682
 30
0.0
 40
0.034774603790105
100
AcDbArc
 50
255.489181300899
 51
284.510818699101
  0
LINE
  5
7C
330
2
100
AcDbEntity
  8
0
100
AcDbLine
 10
47.8594014754591
 20
12.51355982063139
 30
0.0
 11
49.13568368213807
 21
12.84388596264468
 31
0.0
  0
SPLINE
  5
7D
330
2
100
AcDbEntity
  8
0
100
AcDbSpline
210
0.0
220
0.0
230
1.0
 70
     8
 71
     3
 72
    12
 73
     8
 74
     0
 42
0.000000001
 43
0.0000000001
 40
0.0
 40
0.0
 40
0.0
 40
0.0
 40
0.2090082635920138
 40
0.4864143936780513
 40
0.7339745499648719
 40
0.9596572031748872
 40
1.0
 40
1.0
 40
1.0
 40
1.0
 10
45.67511926923914
 20
12.37315542194186
 30
0.0
 10
45.67165593222724
 20
12.3827868977219
 30
0.0
 10
45.66359588262058
 20
12.40520174568656
 30
0.0
 10
45.64047183027797
 20
12.4311459531522
 30
0.0
 10
45.61276910969482
 20
12.44582180879014
 30
0.0
 10
45.59079965889407
 20
12.45016117974893
 30
0.0
 10
45.58100177952211
 20
12.44589750646845
 30
0.0
 10
45.57951592974056
 20
12.44525091981721
 30
0.0
  0
LINE
  5
7E
330
2
100
AcDbEntity
  8
0
100
AcDbLine
 10
45.57728447000393
 20
12.44570580549238
 30
0.0
 11
45.56744709460622
 21
12.44315970538416
 31
0.0
  0
LINE
  5
7F
330
2
100
AcDbEntity
  8
0
100
AcDbLine
 10
45.61972643755715
 20
12.24116787538251
 30
0.0
 11
45.62956381295485
 21
12.24371397549072
 31
0.0
  0
SPLINE
  5
80
330
2
100
AcDbEntity
  8
0
100
AcDbSpline
210
0.0
220
0.0
230
1.0
 70
     8
 71
     3
 72
    11
 73
     7
 74
     0
 42
0.000000001
 43
0.0000000001
 40
0.0641938950914733
 40
0.0641938950914733
 40
0.0641938950914733
 40
0.0641938950914733
 40
0.2090082660285765
 40
0.4864143993485408
 40
0.7339745585213518
 40
0.925573839592247
 40
0.925573839592247
 40
0.925573839592247
 40
0.925573839592247
 10
46.0161402784888
 20
12.29290328224709
 30
0.0
 10
46.01365298967034
 20
12.29951357958656
 30
0.0
 10
46.00582445119848
 20
12.31837212470588
 30
0.0
 10
45.98472284352156
 20
12.34204723220087
 30
0.0
 10
45.93219080049039
 20
12.35889283698806
 30
0.0
 10
45.93747941692067
 20
12.35719747828837
 30
0.0
 10
45.93219080049038
 20
12.35889283698806
 30
0.0
  0
LINE
  5
81
330
2
100
AcDbEntity
  8
0
100
AcDbLine
 10
4.051233457379824
 20
1.385056513891831
 30
0.0
 11
2.519361367116245
 21
0.9885788422705966
 31
0.0
  0
LINE
  5
82
330
2
100
AcDbEntity
  8
0
100
AcDbLine
 10
46.12282087594498
 20
12.09529537778746
 30
0.0
 11
47.78773803644056
 21
12.52620764743827
 31
0.0
  0
LINE
  5
83
330
2
100
AcDbEntity
  8
0
100
AcDbLine
 10
2.644286150756548
 20
0.8432302517065966
 30
0.0
 11
4.127987418934904
 21
1.227240397152483
 31
0.0
  0
LINE
  5
84
330
2
100
AcDbEntity
  8
0
100
AcDbLine
 10
47.70434985561521
 20
12.68230671752539
 30
0.0
 11
45.99802836630817
 21
12.24067821902716
 31
0.0
  0
LINE
  5
85
330
2
100
AcDbEntity
  8
0
100
AcDbLine
 10
2.522251328577467
 20
1.01211070013957
 30
0.0
 11
1.145220664776078
 21
0.6557089386577304
 31
0.0
  0
LINE
  5
86
330
2
100
AcDbEntity
  8
0
100
AcDbLine
 10
1.253391895543923
 20
0.4606899378481968
 30
0.0
 11
2.641062739027493
 21
0.8198455804709253
 31
0.0
  0
ARC
  5
87
330
2
100
AcDbEntity
  8
0
100
AcDbCircle
 10
0.9565260829336105
 20
0.7650584269212306
 30
0.0
 40
0.034774603790105
100
AcDbArc
 50
75.48918130089905
 51
104.5108186991009
  0
LINE
  5
88
330
2
100
AcDbEntity
  8
0
100
AcDbLine
 10
1.21605093901372
 20
0.7338089947464275
 30
0.0
 11
0.965239476800783
 21
0.7987237778946938
 31
0.0
  0
LINE
  5
89
330
2
100
AcDbEntity
  8
0
100
AcDbLine
 10
0.9478130291481521
 20
0.798723774931898
 30
0.0
 11
0.918305666282905
 21
0.7910867074504012
 31
0.0
  0
SPLINE
  5
8A
330
2
100
AcDbEntity
  8
0
100
AcDbSpline
210
0.0
220
0.0
230
1.0
 70
     8
 71
     3
 72
    10
 73
     6
 74
     0
 42
0.000000001
 43
0.0000000001
 40
0.2444594673062686
 40
0.2444594673062686
 40
0.2444594673062686
 40
0.2444594673062686
 40
0.3033307132658044
 40
0.8378459507251097
 40
1.0
 40
1.0
 40
1.0
 40
1.0
 10
1.24195031563827
 20
0.4475201354315561
 30
0.0
 10
1.24231929886654
 20
0.4481397118419205
 30
0.0
 10
1.246161490102668
 20
0.454253983212248
 30
0.0
 10
1.253013355765978
 20
0.4599580353482458
 30
0.0
 10
1.254914881523216
 20
0.4611056287964416
 30
0.0
 10
1.255357473305578
 20
0.4613727382098802
 30
0.0
  0
SPLINE
  5
8B
330
2
100
AcDbEntity
  8
0
100
AcDbSpline
210
0.0
220
0.0
230
1.0
 70
     8
 71
     3
 72
    13
 73
     9
 74
     0
 42
0.000000001
 43
0.0000000001
 40
0.0
 40
0.0
 40
0.0
 40
0.0
 40
0.1798596404458984
 40
0.3633476352936872
 40
0.5471636418068738
 40
0.7255224621926734
 40
0.8995947473300685
 40
1.0
 40
1.0
 40
1.0
 40
1.0
 10
0.8922443321210771
 20
0.757421416766655
 30
0.0
 10
0.8920012445472412
 20
0.7533145318454181
 30
0.0
 10
0.891510165531959
 20
0.7450179127659416
 30
0.0
 10
0.8874747409053995
 20
0.7322318566147632
 30
0.0
 10
0.8815780390494371
 20
0.7214865428966708
 30
0.0
 10
0.8750534429629029
 20
0.714282713536843
 30
0.0
 10
0.8706321441484284
 20
0.7116294701305579
 30
0.0
 10
0.8695300147485035
 20
0.711299592849764
 30
0.0
 10
0.8691268503156049
 20
0.7111789220947239
 30
0.0
  0
ARC
  5
8C
330
2
100
AcDbEntity
  8
0
100
AcDbCircle
 10
0.9270188531090381
 20
0.7574213938735492
 30
0.0
 40
0.0347746037901058
100
AcDbArc
 50
104.5108186991009
 51
180.0
  0
LINE
  5
8D
330
2
100
AcDbEntity
  8
0
100
AcDbLine
 10
0.8691268503187913
 20
0.7111789220918933
 30
0.0
 11
0.5396293695735033
 21
0.6258986987651265
 31
0.0
  0
ARC
  5
8E
330
2
100
AcDbEntity
  8
0
100
AcDbCircle
 10
1.207337536091239
 20
0.3575288295366841
 30
0.0
 40
0.0347746037901058
100
AcDbArc
 50
284.510818699101
 51
0.0
  0
LINE
  5
8F
330
2
100
AcDbEntity
  8
0
100
AcDbLine
 10
1.242112261724601
 20
0.3575288484471161
 30
0.0
 11
1.242112261724601
 21
0.447490241111513
 31
0.0
  0
LINE
  5
90
330
2
100
AcDbEntity
  8
0
100
AcDbLine
 10
1.242112261724601
 20
0.6807863363909431
 30
0.0
 11
1.242112261724601
 21
0.7001436773860944
 31
0.0
  0
LINE
  5
91
330
2
100
AcDbEntity
  8
0
100
AcDbLine
 10
0.8036567849910424
 20
0.2171280995775713
 30
0.0
 11
1.216050927558964
 21
0.3238635577589106
 31
0.0
  0
ARC
  5
92
330
2
100
AcDbEntity
  8
0
100
AcDbCircle
 10
1.207337536091239
 20
0.700143646109816
 30
0.0
 40
0.0347746037901083
100
AcDbArc
 50
0.0
 51
75.48918130089905
  0
LINE
  5
93
330
2
100
AcDbEntity
  8
0
100
AcDbLine
 10
45.97472158222159
 20
12.30362322966439
 30
0.0
 11
45.91523348340657
 21
12.2977827074046
 31
0.0
  0
LINE
  5
94
330
2
100
AcDbEntity
  8
0
100
AcDbLine
 10
45.91520927617196
 20
12.29777644210873
 30
0.0
 11
45.81687438583312
 21
12.27232549968919
 31
0.0
  0
LINE
  5
95
330
2
100
AcDbEntity
  8
0
100
AcDbLine
 10
46.12414730301289
 20
12.03620990599793
 30
0.0
 11
46.15459805709078
 21
12.07555879877584
 31
0.0
  0
LINE
  5
96
330
2
100
AcDbEntity
  8
0
100
AcDbLine
 10
46.09478170932192
 20
12.26571983808859
 30
0.0
 11
46.06098952800317
 21
12.28023279570657
 31
0.0
  0
LINE
  5
97
330
2
100
AcDbEntity
  8
0
100
AcDbLine
 10
46.06044998357003
 20
12.00263463433049
 30
0.0
 11
46.08312838229025
 21
12.00878518068199
 31
0.0
  0
LINE
  5
98
330
2
100
AcDbEntity
  8
0
100
AcDbLine
 10
45.96209088598962
 20
11.97717742661509
 30
0.0
 11
46.00459831130009
 21
11.98838323073992
 31
0.0
  0
SPLINE
  5
99
330
2
100
AcDbEntity
  8
0
100
AcDbSpline
210
0.0
220
0.0
230
1.0
 70
     8
 71
     3
 72
     9
 73
     5
 74
     0
 42
0.000000001
 43
0.0000000001
 40
0.0
 40
0.0
 40
0.0
 40
0.0
 40
0.7651194289916702
 40
1.0
 40
1.0
 40
1.0
 40
1.0
 10
45.53710610321493
 20
12.46114828107673
 30
0.0
 10
45.53384225936327
 20
12.46183789174637
 30
0.0
 10
45.52957646277259
 20
12.46273920289272
 30
0.0
 10
45.52570510955233
 20
12.46108108803762
 30
0.0
 10
45.52479580389735
 20
12.46069162907366
 30
0.0
  0
LINE
  5
9A
330
2
100
AcDbEntity
  8
0
100
AcDbLine
 10
45.5252664117277
 20
12.461283532845
 30
0.0
 11
45.41298849787631
 21
12.43405357065402
 31
0.0
  0
LINE
  5
9B
330
2
100
AcDbEntity
  8
0
100
AcDbLine
 10
45.93219080048925
 20
12.35889283699496
 30
0.0
 11
45.62655550468808
 21
12.43799707240357
 31
0.0
  0
LINE
  5
9C
330
2
100
AcDbEntity
  8
0
100
AcDbLine
 10
45.58793976524198
 20
12.4479915612129
 30
0.0
 11
45.53710610321291
 21
12.46114828107828
 31
0.0
  0
SPLINE
  5
9D
330
2
100
AcDbEntity
  8
0
100
AcDbSpline
210
0.0
220
0.0
230
1.0
 70
     8
 71
     3
 72
    11
 73
     7
 74
     0
 42
0.000000001
 43
0.0000000001
 40
0.0
 40
0.0
 40
0.0
 40
0.0
 40
0.1808987432465532
 40
0.4377257186980141
 40
0.7058775305432002
 40
1.0
 40
1.0
 40
1.0
 40
1.0
 10
45.98472917223161
 20
11.88038201028713
 30
0.0
 10
45.98687917332091
 20
11.8810088970046
 30
0.0
 10
45.99208159073475
 20
11.88252579222468
 30
0.0
 10
45.99830360520431
 20
11.88904472439473
 30
0.0
 10
46.00312225182763
 20
11.89820940624171
 30
0.0
 10
46.00376429639458
 20
11.90559607899011
 30
0.0
 10
46.00410014624546
 20
11.9094600053728
 30
0.0
  0
LINE
  5
9E
330
2
100
AcDbEntity
  8
0
100
AcDbLine
 10
45.87302656786751
 20
11.84909499692773
 30
0.0
 11
45.98438458653761
 21
11.87976322781681
 31
0.0
  0
LINE
  5
9F
330
2
100
AcDbEntity
  8
0
100
AcDbLine
 10
46.00410014624861
 20
11.90946000537558
 30
0.0
 11
46.00459831130009
 21
11.98838323073992
 31
0.0
  0
SPLINE
  5
A0
330
2
100
AcDbEntity
  8
0
100
AcDbSpline
210
0.0
220
0.0
230
1.0
 70
     8
 71
     3
 72
    11
 73
     7
 74
     0
 42
0.000000001
 43
0.0000000001
 40
0.0
 40
0.0
 40
0.0
 40
0.0
 40
0.2381360523780202
 40
0.510392920169511
 40
0.7669984362362574
 40
1.0
 40
1.0
 40
1.0
 40
1.0
 10
4.217205239942504
 20
1.344785229843899
 30
0.0
 10
4.217549632211443
 20
1.340853504534034
 30
0.0
 10
4.218287762259692
 20
1.33242670505461
 30
0.0
 10
4.22390379272262
 20
1.32075533728468
 30
0.0
 10
4.232152137128407
 20
1.311527537644807
 30
0.0
 10
4.239170294701405
 20
1.308776982093688
 30
0.0
 10
4.242510200835551
 20
1.307468006445601
 30
0.0
  0
LINE
  5
A1
330
2
100
AcDbEntity
  8
0
100
AcDbLine
 10
4.3482775702404
 20
1.805724259085602
 30
0.0
 11
4.237941033912927
 21
1.775337337666853
 31
0.0
  0
LINE
  5
A2
330
2
100
AcDbEntity
  8
0
100
AcDbLine
 10
4.216447412481954
 20
1.464251804771867
 30
0.0
 11
4.217205239940698
 21
1.344785229846339
 31
0.0
  0
LINE
  5
A3
330
2
100
AcDbEntity
  8
0
100
AcDbLine
 10
4.242510200838065
 20
1.307468006447696
 30
0.0
 11
4.692911785715561
 21
1.190895498334431
 31
0.0
  0
LINE
  5
A4
330
2
100
AcDbEntity
  8
0
100
AcDbLine
 10
4.218226344429426
 20
1.745640789001479
 30
0.0
 11
4.216447423929751
 21
1.464263602696056
 31
0.0
  0
SPLINE
  5
A5
330
2
100
AcDbEntity
  8
0
100
AcDbSpline
210
0.0
220
0.0
230
1.0
 70
     8
 71
     3
 72
    11
 73
     7
 74
     0
 42
0.000000001
 43
0.0000000001
 40
0.0
 40
0.0
 40
0.0
 40
0.0
 40
0.1808889154707575
 40
0.4377081331718922
 40
0.7058702200276454
 40
1.0
 40
1.0
 40
1.0
 40
1.0
 10
4.237595852804921
 20
1.774718374204326
 30
0.0
 10
4.235446128406425
 20
1.774091565143614
 30
0.0
 10
4.230244306886015
 20
1.77257483636501
 30
0.0
 10
4.22402383268886
 20
1.766056017995922
 30
0.0
 10
4.219204120699751
 20
1.756891476521745
 30
0.0
 10
4.218562152289053
 20
1.749504729453549
 30
0.0
 10
4.218226344431028
 20
1.745640789001886
 30
0.0
  0
LINE
  5
A6
330
2
100
AcDbEntity
  8
0
100
AcDbLine
 10
4.216707563574119
 20
1.505410046648455
 30
0.0
 11
4.211680716223409
 21
1.504109002815733
 31
0.0
  0
LINE
  5
A7
330
2
100
AcDbEntity
  8
0
100
AcDbLine
 10
4.114806140170688
 20
1.232901811626162
 30
0.0
 11
4.160314266587293
 21
1.213355854731004
 31
0.0
  0
LINE
  5
A8
330
2
100
AcDbEntity
  8
0
100
AcDbLine
 10
4.135917225392272
 20
1.478561682528843
 30
0.0
 11
4.097156491584533
 21
1.457378760081248
 31
0.0
  0
LINE
  5
A9
330
2
100
AcDbEntity
  8
0
100
AcDbLine
 10
4.097156491584533
 20
1.457378760081248
 30
0.0
 11
4.066706355819959
 21
1.418030027336062
 31
0.0
  0
LINE
  5
AA
330
2
100
AcDbEntity
  8
0
100
AcDbLine
 10
4.356897216386866
 20
1.208960929741634
 30
0.0
 11
4.455214528658969
 21
1.234407322627962
 31
0.0
  0
LINE
  5
AB
330
2
100
AcDbEntity
  8
0
100
AcDbLine
 10
4.282306424903863
 20
1.189655412323085
 30
0.0
 11
4.306032684244441
 21
1.195796220103323
 31
0.0
  0
LINE
  5
AC
330
2
100
AcDbEntity
  8
0
100
AcDbLine
 10
45.41274815582421
 20
12.43399282223794
 30
0.0
 11
4.348521095476261
 21
1.805788786603929
 31
0.0
  0
LINE
  5
AD
330
2
100
AcDbEntity
  8
0
100
AcDbLine
 10
4.692911785715561
 20
1.190895498334431
 30
0.0
 11
45.79030268835005
 21
11.82768296796336
 31
0.0
  0
LINE
  5
AE
330
2
100
AcDbEntity
  8
0
100
AcDbLine
 10
45.79030268835005
 20
11.82768296796336
 30
0.0
 11
45.8727830426247
 21
11.84903045449806
 31
0.0
  0
LINE
  5
AF
330
2
100
AcDbEntity
  8
0
100
AcDbLine
 10
49.99999988197522
 20
13.28657391161506
 30
0.0
 11
49.72951694376087
 21
13.35658004742128
 31
0.0
  0
LINE
  5
B0
330
2
100
AcDbEntity
  8
0
100
AcDbLine
 10
49.99999988197522
 20
12.95067704012424
 30
0.0
 11
49.99999988197522
 21
13.28657391161506
 31
0.0
  0
LINE
  5
B1
330
2
100
AcDbEntity
  8
0
100
AcDbLine
 10
49.99999988197522
 20
12.95067704012424
 30
0.0
 11
49.93852648796848
 21
12.96658752526411
 31
0.0
  0
LINE
  5
B2
330
2
100
AcDbEntity
  8
0
100
AcDbLine
 10
49.93852648796848
 20
12.89940813845404
 30
0.0
 11
49.93852648796848
 21
12.96658752526411
 31
0.0
  0
LINE
  5
B3
330
2
100
AcDbEntity
  8
0
100
AcDbLine
 10
49.93852648796848
 20
12.89940813845404
 30
0.0
 11
49.79099033776762
 21
12.9375933039637
 31
0.0
  0
LINE
  5
B4
330
2
100
AcDbEntity
  8
0
100
AcDbLine
 10
49.79099033776762
 20
12.9375933039637
 30
0.0
 11
49.79099033776762
 21
13.00477269077377
 31
0.0
  0
LINE
  5
B5
330
2
100
AcDbEntity
  8
0
100
AcDbLine
 10
49.79099033776762
 20
13.00477269077377
 30
0.0
 11
49.72951694376087
 21
13.02068317591363
 31
0.0
  0
LINE
  5
B6
330
2
100
AcDbEntity
  8
0
100
AcDbLine
 10
49.72951694376087
 20
13.02068317591363
 30
0.0
 11
49.72951694376087
 21
13.35658004740445
 31
0.0
  0
LINE
  5
B7
330
2
100
AcDbEntity
  8
0
100
AcDbLine
 10
49.79099033776762
 20
13.00477269077377
 30
0.0
 11
49.70984664713318
 21
12.98377115825122
 31
0.0
  0
LINE
  5
B8
330
2
100
AcDbEntity
  8
0
100
AcDbLine
 10
49.99999988197522
 20
12.95067704012424
 30
0.0
 11
49.93852801085966
 21
12.93476694914061
 31
0.0
  0
LINE
  5
B9
330
2
100
AcDbEntity
  8
0
100
AcDbLine
 10
49.78907670434761
 20
12.89608610470371
 30
0.0
 11
49.67050350046211
 21
12.86539710130243
 31
0.0
  0
LINE
  5
BA
330
2
100
AcDbEntity
  8
0
100
AcDbLine
 10
49.67050350046211
 20
12.86539710130243
 30
0.0
 11
49.40002056224777
 21
12.93540323708485
 31
0.0
  0
LINE
  5
BB
330
2
100
AcDbEntity
  8
0
100
AcDbLine
 10
49.40002056224777
 20
12.93540323708485
 30
0.0
 11
49.72951694376087
 21
13.02068317591363
 31
0.0
  0
LINE
  5
BC
330
2
100
AcDbEntity
  8
0
100
AcDbLine
 10
49.5426390552743
 20
13.2746227973474
 30
0.0
 11
49.5426390552743
 21
13.0059053126736
 31
0.0
  0
LINE
  5
BD
330
2
100
AcDbEntity
  8
0
100
AcDbLine
 10
49.72951694376087
 20
13.35658004740445
 30
0.0
 11
49.40853299912534
 21
13.273503289361
 31
0.0
  0
LINE
  5
BE
330
2
100
AcDbEntity
  8
0
100
AcDbLine
 10
49.40002056224777
 20
12.93540323708485
 30
0.0
 11
49.40002056224778
 21
12.98996632165795
 31
0.0
  0
LINE
  5
BF
330
2
100
AcDbEntity
  8
0
100
AcDbLine
 10
49.70984664713318
 20
12.98377115825122
 30
0.0
 11
49.70984664713318
 21
12.91659177144115
 31
0.0
  0
LINE
  5
C0
330
2
100
AcDbEntity
  8
0
100
AcDbLine
 10
49.70984664713318
 20
12.91659177144115
 30
0.0
 11
49.79099033776762
 21
12.9375933039637
 31
0.0
  0
LINE
  5
C1
330
2
100
AcDbEntity
  8
0
100
AcDbLine
 10
49.85738279733405
 20
12.87840660592455
 30
0.0
 11
49.93852648796848
 21
12.89940813845404
 31
0.0
  0
LINE
  5
C2
330
2
100
AcDbEntity
  8
0
100
AcDbLine
 10
49.70984664713318
 20
12.91659177144115
 30
0.0
 11
49.85738279733405
 21
12.87840660592455
 31
0.0
  0
LINE
  5
C3
330
2
100
AcDbEntity
  8
0
100
AcDbLine
 10
49.28298092157477
 20
12.97688601389718
 30
0.0
 11
49.15412771903297
 21
12.9435363510542
 31
0.0
  0
LINE
  5
C4
330
2
100
AcDbEntity
  8
0
100
AcDbLine
 10
49.08035965538033
 20
12.96262893084623
 30
0.0
 11
49.15412771903297
 21
12.9435363510542
 31
0.0
  0
LINE
  5
C5
330
2
100
AcDbEntity
  8
0
100
AcDbLine
 10
49.08035965538033
 20
12.96262893084623
 30
0.0
 11
49.23773128022688
 21
13.00335970451474
 31
0.0
  0
LINE
  5
C6
330
2
100
AcDbEntity
  8
0
100
AcDbLine
 10
49.23773128022688
 20
13.00335970451474
 30
0.0
 11
49.5426390552743
 21
13.0059053126736
 31
0.0
  0
LINE
  5
C7
330
2
100
AcDbEntity
  8
0
100
AcDbLine
 10
49.23773128022688
 20
13.27207718919549
 30
0.0
 11
49.5426390552743
 21
13.2746227973474
 31
0.0
  0
LINE
  5
C8
330
2
100
AcDbEntity
  8
0
100
AcDbLine
 10
49.23773128022688
 20
13.00335970451474
 30
0.0
 11
49.23773128022688
 21
13.27207718919549
 31
0.0
  0
LINE
  5
C9
330
2
100
AcDbEntity
  8
0
100
AcDbLine
 10
49.08035965538033
 20
12.96262893084623
 30
0.0
 11
49.08035965538033
 21
13.23134641552698
 31
0.0
  0
LINE
  5
CA
330
2
100
AcDbEntity
  8
0
100
AcDbLine
 10
49.08035965538033
 20
13.23134641552698
 30
0.0
 11
49.23773128022688
 21
13.27207718919549
 31
0.0
  0
LINE
  5
CB
330
2
100
AcDbEntity
  8
0
100
AcDbLine
 10
49.38526694951585
 20
12.95265760537868
 30
0.0
 11
49.38526694951585
 21
12.98831746325401
 31
0.0
  0
ARC
  5
CC
330
2
100
AcDbEntity
  8
0
100
AcDbCircle
 10
49.42594893382406
 20
12.95015147058199
 30
0.0
 40
0.0407591040006408
100
AcDbArc
 50
176.4748592766999
 51
246.7450616750998
  0
LWPOLYLINE
  5
CD
330
2
100
AcDbEntity
  8
0
100
AcDbPolyline
 90
        9
 70
   128
 43
0.0
 10
49.66066776246141
 20
12.84778896782757
 10
49.66546490509572
 20
12.8471927721152
 10
49.67007769770719
 20
12.84791033729426
 10
49.67432887800486
 20
12.84991409013627
 10
49.67805506149103
 20
12.85312697363842
 10
49.68111306201675
 20
12.85742556616643
 10
49.6833853650123
 20
12.86264467115971
 10
49.68478463896347
 20
12.86858371994277
 10
49.68486113850156
 20
12.86911312184806
  0
LINE
  5
CE
330
2
100
AcDbEntity
  8
0
100
AcDbLine
 10
49.66066776246141
 20
12.84778896782757
 30
0.0
 11
49.40985630024847
 21
12.91270375098279
 31
0.0
  0
LINE
  5
CF
330
2
100
AcDbEntity
  8
0
100
AcDbLine
 10
49.40985630024847
 20
12.91270375098279
 30
0.0
 11
49.27707518261964
 21
12.8783374689073
 31
0.0
  0
ARC
  5
D0
330
2
100
AcDbEntity
  8
0
100
AcDbCircle
 10
49.29316214996566
 20
12.84089203641292
 30
0.0
 40
0.0407547657693571
100
AcDbArc
 50
113.2488890439002
 51
183.5292476459987
  0
ARC
  5
D1
330
2
100
AcDbEntity
  8
0
100
AcDbCircle
 10
49.21179908502988
 20
12.82244364082745
 30
0.0
 40
0.0407625572705908
100
AcDbArc
 50
293.2566000256997
 51
3.521496614501536
  0
LINE
  5
D2
330
2
100
AcDbEntity
  8
0
100
AcDbLine
 10
49.25248467540193
 20
12.83838325262601
 30
0.0
 11
49.25248467540193
 21
12.8249474002892
 31
0.0
  0
LINE
  5
D3
330
2
100
AcDbEntity
  8
0
100
AcDbLine
 10
49.22789416819117
 20
12.78499321528419
 30
0.0
 11
49.17379739734038
 21
12.77099194071462
 31
0.0
  0
LWPOLYLINE
  5
D4
330
2
100
AcDbEntity
  8
0
100
AcDbPolyline
 90
        9
 70
   128
 43
0.0
 10
47.76277077674206
 20
12.53266936780111
 10
47.73729663462223
 20
12.5461843886199
 10
47.71570069892774
 20
12.57148548628134
 10
47.70127076361766
 20
12.60472081732108
 10
47.69620363407532
 20
12.64083062395375
 10
47.70127076361766
 20
12.67431749132437
 10
47.71570069892774
 20
12.70008333821202
 10
47.73729663462223
 20
12.71420555695488
 10
47.7391827586669
 20
12.71473888617177
  0
LINE
  5
D5
330
2
100
AcDbEntity
  8
0
100
AcDbLine
 10
47.83581345452548
 20
12.51376453168552
 30
0.0
 11
47.76277077674206
 21
12.53266936780111
 31
0.0
  0
LINE
  5
D6
330
2
100
AcDbEntity
  8
0
100
AcDbLine
 10
47.8594014754591
 20
12.51355982063139
 30
0.0
 11
47.83581345452548
 21
12.51376453168552
 31
0.0
  0
LINE
  5
D7
330
2
100
AcDbEntity
  8
0
100
AcDbLine
 10
45.57728447000393
 20
12.44570580549238
 30
0.0
 11
45.57899516953983
 21
12.44611572693613
 31
0.0
  0
LWPOLYLINE
  5
D8
330
2
100
AcDbEntity
  8
0
100
AcDbPolyline
 90
        6
 70
   128
 43
0.0
 10
45.51981869670863
 20
12.36125636872526
 10
45.52543395269468
 20
12.3212403861196
 10
45.54142486325848
 20
12.28440978914421
 10
45.56535695462392
 20
12.25637171805331
 10
45.5935867603543
 20
12.24139472435975
 10
45.61972643755715
 20
12.24116787538251
  0
ARC
  5
D9
330
2
100
AcDbEntity
  8
0
100
AcDbCircle
 10
45.593493146182
 20
12.37321332269215
 30
0.0
 40
0.074638416744925
100
AcDbArc
 50
110.4239053945997
 51
189.2184114935993
  0
LINE
  5
DA
330
2
100
AcDbEntity
  8
0
100
AcDbLine
 10
45.62555408538926
 20
12.39700355187516
 30
0.0
 11
45.61080046120259
 21
12.40082207079497
 31
0.0
  0
LINE
  5
DB
330
2
100
AcDbEntity
  8
0
100
AcDbLine
 10
45.61080046120259
 20
12.40082207079497
 30
0.0
 11
45.61080046120259
 21
12.36051444340072
 31
0.0
  0
LINE
  5
DC
330
2
100
AcDbEntity
  8
0
100
AcDbLine
 10
45.61080046120259
 20
12.36051444340072
 30
0.0
 11
45.58129322429791
 21
12.36815147828451
 31
0.0
  0
LINE
  5
DD
330
2
100
AcDbEntity
  8
0
100
AcDbLine
 10
45.58129322429791
 20
12.36815147828451
 30
0.0
 11
45.58129322429791
 21
12.34799766849952
 31
0.0
  0
LINE
  5
DE
330
2
100
AcDbEntity
  8
0
100
AcDbLine
 10
45.58129322429791
 20
12.34799766849952
 30
0.0
 11
45.61080046120259
 21
12.34036063361574
 31
0.0
  0
LINE
  5
DF
330
2
100
AcDbEntity
  8
0
100
AcDbLine
 10
45.61080046120259
 20
12.34036063361574
 30
0.0
 11
45.61080046120259
 21
12.30005299840416
 31
0.0
  0
LINE
  5
E0
330
2
100
AcDbEntity
  8
0
100
AcDbLine
 10
45.61080046120259
 20
12.30005299840416
 30
0.0
 11
45.62555408538926
 21
12.29623447947739
 31
0.0
  0
LINE
  5
E1
330
2
100
AcDbEntity
  8
0
100
AcDbLine
 10
45.62555408538926
 20
12.29623447947739
 30
0.0
 11
45.62555408538926
 21
12.33654211469593
 31
0.0
  0
LINE
  5
E2
330
2
100
AcDbEntity
  8
0
100
AcDbLine
 10
45.62555408538926
 20
12.33654211469593
 30
0.0
 11
45.65506131084614
 21
12.32890508277494
 31
0.0
  0
LINE
  5
E3
330
2
100
AcDbEntity
  8
0
100
AcDbLine
 10
45.65506131084614
 20
12.32890508277494
 30
0.0
 11
45.65506131084614
 21
12.34905889255993
 31
0.0
  0
LINE
  5
E4
330
2
100
AcDbEntity
  8
0
100
AcDbLine
 10
45.65506131084614
 20
12.34905889255993
 30
0.0
 11
45.62555408538926
 21
12.35669592448091
 31
0.0
  0
LINE
  5
E5
330
2
100
AcDbEntity
  8
0
100
AcDbLine
 10
45.62555408538926
 20
12.35669592448091
 30
0.0
 11
45.62555408538926
 21
12.39700355187516
 31
0.0
  0
LWPOLYLINE
  5
E6
330
2
100
AcDbEntity
  8
0
100
AcDbPolyline
 90
        9
 70
   128
 43
0.0
 10
2.544653500795924
 20
1.011916285483968
 10
2.520460030294035
 20
1.011604178984665
 10
2.499949790292809
 20
0.9981919235046886
 10
2.486245289515514
 20
0.9737214238967247
 10
2.481432906514655
 20
0.9419180532248059
 10
2.486245289515514
 20
0.9076236098124804
 10
2.499949790292809
 20
0.8760591229474671
 10
2.520460030294035
 20
0.8520300016533827
 10
2.544653500795924
 20
0.8391944332843541
  0
LWPOLYLINE
  5
E7
330
2
100
AcDbEntity
  8
0
100
AcDbPolyline
 90
        3
 70
   128
 43
0.0
 10
2.519360411009374
 20
0.8756250395595635
 10
2.526105990293943
 20
0.8691883879721256
 10
2.544653500795924
 20
0.8593482430762911
  0
LINE
  5
E8
330
2
100
AcDbEntity
  8
0
100
AcDbLine
 10
2.544653500795924
 20
0.8593482430762911
 30
0.0
 11
2.618660563950564
 21
0.8401938056556893
 31
0.0
  0
LWPOLYLINE
  5
E9
330
2
100
AcDbEntity
  8
0
100
AcDbPolyline
 90
        3
 70
   128
 43
0.0
 10
2.618660563950564
 20
0.8401938056556893
 10
2.637208071587114
 20
0.8404330533788177
 10
2.643246914698987
 20
0.842981463591783
  0
LINE
  5
EA
330
2
100
AcDbEntity
  8
0
100
AcDbLine
 10
2.544653500795924
 20
0.8391944332843541
 30
0.0
 11
2.618660563950564
 21
0.8200399958707064
 31
0.0
  0
LINE
  5
EB
330
2
100
AcDbEntity
  8
0
100
AcDbLine
 10
2.577091915642731
 20
1.003520605924338
 30
0.0
 11
2.544653500795924
 21
1.011916285483968
 31
0.0
  0
ARC
  5
EC
330
2
100
AcDbEntity
  8
0
100
AcDbCircle
 10
2.629279861768321
 20
0.8664347979085846
 30
0.0
 40
0.0475946125384071
100
AcDbArc
 50
257.1076629909995
 51
341.0755909432009
  0
ARC
  5
ED
330
2
100
AcDbEntity
  8
0
100
AcDbCircle
 10
0.9726188808261666
 20
0.4263017009309264
 30
0.0
 40
0.0407591040006426
100
AcDbArc
 50
176.4748592766999
 51
246.7450616750998
  0
LINE
  5
EE
330
2
100
AcDbEntity
  8
0
100
AcDbLine
 10
0.931936896517943
 20
0.4288078357276167
 30
0.0
 11
0.931936896517943
 21
0.7714226646665949
 31
0.0
  0
LINE
  5
EF
330
2
100
AcDbEntity
  8
0
100
AcDbLine
 10
1.207337709463504
 20
0.3239391981765006
 30
0.0
 11
0.9565262472505693
 21
0.3888539813317248
 31
0.0
  0
ARC
  5
F0
330
2
100
AcDbEntity
  8
0
100
AcDbCircle
 10
0.5644352212515197
 20
0.3206559959326064
 30
0.0
 40
0.0407591040006332
100
AcDbArc
 50
176.4748592766999
 51
246.7450616750998
  0
LINE
  5
F1
330
2
100
AcDbEntity
  8
0
100
AcDbLine
 10
0.5237532369432922
 20
0.5985975884998313
 30
0.0
 11
0.5237532369432922
 21
0.3231621307293008
 31
0.0
  0
LINE
  5
F2
330
2
100
AcDbEntity
  8
0
100
AcDbLine
 10
0.5483425876759186
 20
0.2832082763334049
 30
0.0
 11
0.8036567849910424
 21
0.2171280995775713
 31
0.0
  0
ARC
  5
F3
330
2
100
AcDbEntity
  8
0
100
AcDbCircle
 10
0.5483113606798389
 20
0.602583253326261
 30
0.0
 40
0.0248794486609052
100
AcDbArc
 50
110.4238615150998
 51
189.2184518068987
  0
LINE
  5
F4
330
2
100
AcDbEntity
  8
0
100
AcDbLine
 10
0.8483330605142448
 20
0.1018270735125903
 30
0.0
 11
0.8483330605142468
 21
0.2286911705467934
 31
0.0
  0
LINE
  5
F5
330
2
100
AcDbEntity
  8
0
100
AcDbLine
 10
0.4549032655787352
 20
-0.0000000503263331
 30
0.0
 11
-0.0000001180247791
 21
0.1177376090483616
 31
0.0
  0
LINE
  5
F6
330
2
100
AcDbEntity
  8
0
100
AcDbLine
 10
0.3934296769107226
 20
0.219564732887285
 30
0.0
 11
-0.0000001180247791
 21
0.1177376090483616
 31
0.0
  0
LINE
  5
F7
330
2
100
AcDbEntity
  8
0
100
AcDbLine
 10
0.8483330605142448
 20
0.1018270735125903
 30
0.0
 11
0.3934296769107226
 21
0.219564732887285
 31
0.0
  0
LINE
  5
F8
330
2
100
AcDbEntity
  8
0
100
AcDbLine
 10
0.3934296769107226
 20
0.219564732887285
 30
0.0
 11
0.3934296769107226
 21
0.7234100596703108
 31
0.0
  0
LINE
  5
F9
330
2
100
AcDbEntity
  8
0
100
AcDbLine
 10
0.3934296769107226
 20
0.7234100596703108
 30
0.0
 11
0.6549070133085115
 21
0.6557347451485316
 31
0.0
  0
LINE
  5
FA
330
2
100
AcDbEntity
  8
0
100
AcDbLine
 10
-0.0000001180247791
 20
0.2302630600538269
 30
0.0
 11
-0.0000001180247791
 21
0.1177376090483616
 31
0.0
  0
LINE
  5
FB
330
2
100
AcDbEntity
  8
0
100
AcDbLine
 10
0.1475363298814723
 20
0.2684483026240034
 30
0.0
 11
-0.0000001180247791
 21
0.2302630600538269
 31
0.0
  0
LINE
  5
FC
330
2
100
AcDbEntity
  8
0
100
AcDbLine
 10
0.1475363298814723
 20
0.5472427234735282
 30
0.0
 11
0.1475363298814723
 21
0.2684483026240034
 31
0.0
  0
LINE
  5
FD
330
2
100
AcDbEntity
  8
0
100
AcDbLine
 10
-0.0000001180247791
 20
0.5090574809103018
 30
0.0
 11
0.1475363298814723
 21
0.5472427234735282
 31
0.0
  0
LINE
  5
FE
330
2
100
AcDbEntity
  8
0
100
AcDbLine
 10
-0.0000001180247791
 20
0.6215829358313873
 30
0.0
 11
-0.0000001180247791
 21
0.5090574809103018
 31
0.0
  0
LINE
  5
FF
330
2
100
AcDbEntity
  8
0
100
AcDbLine
 10
0.3934296769107226
 20
0.7234100596703108
 30
0.0
 11
-0.0000001180247791
 21
0.6215829358313873
 31
0.0
  0
LINE
  5
100
330
2
100
AcDbEntity
  8
0
100
AcDbLine
 10
-0.0000001180247791
 20
0.5090574809103018
 30
0.0
 11
0.0590143557915364
 21
0.4937834111496925
 31
0.0
  0
LINE
  5
101
330
2
100
AcDbEntity
  8
0
100
AcDbLine
 10
0.0590143557915364
 20
0.4937834111496925
 30
0.0
 11
0.1475360779742419
 21
0.5166945187568793
 31
0.0
  0
ELLIPSE
  5
102
330
2
100
AcDbEntity
  8
0
100
AcDbEllipse
 10
46.09766687760477
 20
12.15908655821192
 30
0.0
 11
-0.0258371133814079
 21
0.1046649513394349
 31
0.0
210
0.0
220
0.0
230
0.9999999999999998
 40
0.6852205343000001
 41
3.63585006676881
 42
4.036833035841388
  0
LINE
  5
103
330
2
100
AcDbEntity
  8
0
100
AcDbLine
 10
46.03024103145164
 20
12.11970185010282
 30
0.0
 11
46.12282087594498
 21
12.09529537778746
 31
0.0
  0
ELLIPSE
  5
104
330
2
100
AcDbEntity
  8
0
100
AcDbEllipse
 10
45.95013363140323
 20
12.159541673927
 30
0.0
 11
-0.0372563478732245
 21
0.1376269985380742
 31
0.0
210
0.0
220
0.0
230
0.9999999999999998
 40
0.6807089529000001
 41
1.201017064944204
 42
2.771813391739021
  0
ELLIPSE
  5
105
330
2
100
AcDbEntity
  8
0
100
AcDbEllipse
 10
45.95013363140323
 20
12.159541673927
 30
0.0
 11
-0.0341721629862572
 21
0.1384250884625876
 31
0.0
210
0.0
220
0.0
230
1.0
 40
0.6852254854000002
 41
0.0076998146033061
 42
1.216277996186571
  0
ELLIPSE
  5
106
330
2
100
AcDbEntity
  8
0
100
AcDbEllipse
 10
45.97472298954981
 20
12.12772070294483
 30
0.0
 11
-0.0341721629862572
 21
0.1384250884625955
 31
0.0
210
0.0
220
0.0
230
1.0
 40
0.6852254854000001
 41
3.096641148819393
 42
3.421887189796066
  0
ELLIPSE
  5
107
330
2
100
AcDbEntity
  8
0
100
AcDbEllipse
 10
45.85177619878913
 20
12.13408489713848
 30
0.0
 11
-0.0372563478732166
 21
0.1376269985380663
 31
0.0
210
0.0
220
0.0
230
1.0
 40
0.6807089529000001
 41
1.201017064944211
 42
2.771813391739017
  0
LINE
  5
108
330
2
100
AcDbEntity
  8
0
100
AcDbLine
 10
45.95101339025846
 20
12.02205164029026
 30
0.0
 11
46.02478146535888
 21
12.00295905753543
 31
0.0
  0
ELLIPSE
  5
109
330
2
100
AcDbEntity
  8
0
100
AcDbEllipse
 10
45.85177619878913
 20
12.13408489713848
 30
0.0
 11
-0.0341721629862493
 21
0.1384250884625955
 31
0.0
210
0.0
220
0.0
230
1.0
 40
0.6852254854000002
 41
0.0076998146034827
 42
1.21627799618663
  0
LINE
  5
10A
330
2
100
AcDbEntity
  8
0
100
AcDbLine
 10
45.97472158222159
 20
12.30362322966439
 30
0.0
 11
46.04848965731507
 21
12.28453064690956
 31
0.0
  0
ARC
  5
10B
330
2
100
AcDbEntity
  8
0
100
AcDbCircle
 10
46.06642844316269
 20
12.07815131526712
 30
0.0
 40
0.0713480805218069
100
AcDbArc
 50
283.5363907897413
 51
323.9959700975
  0
ELLIPSE
  5
10C
330
2
100
AcDbEntity
  8
0
100
AcDbEllipse
 10
45.53479052259701
 20
12.02741558658543
 30
0.0
 11
-0.0085785562937398
 21
0.0337010101562235
 31
0.0
210
0.0
220
0.0
230
1.0
 40
0.6810791221000001
 41
1.211359881368033
 42
2.782080055741029
  0
LINE
  5
10D
330
2
100
AcDbEntity
  8
0
100
AcDbLine
 10
45.53474662898628
 20
11.99381391941494
 30
0.0
 11
45.42146044644622
 21
11.96366180021744
 31
0.0
  0
LINE
  5
10E
330
2
100
AcDbEntity
  8
0
100
AcDbLine
 10
45.5102853728992
 20
12.03380014774289
 30
0.0
 11
45.51105710103984
 21
12.15358026436431
 31
0.0
  0
LINE
  5
10F
330
2
100
AcDbEntity
  8
0
100
AcDbLine
 10
45.51105710103984
 20
12.15358026436431
 30
0.0
 11
45.50924751660055
 21
12.43394661834163
 31
0.0
  0
LINE
  5
110
330
2
100
AcDbEntity
  8
0
100
AcDbLine
 10
45.67642232048704
 20
11.95714555223261
 30
0.0
 11
45.53474662898628
 21
11.99381391941494
 31
0.0
  0
LINE
  5
111
330
2
100
AcDbEntity
  8
0
100
AcDbLine
 10
46.04848965731507
 20
12.28453064690956
 30
0.0
 11
46.06098952800317
 21
12.28023279570657
 31
0.0
  0
SPLINE
  5
112
330
2
100
AcDbEntity
  8
0
100
AcDbSpline
210
0.0
220
0.0
230
1.0
 70
     8
 71
     3
 72
     9
 73
     5
 74
     0
 42
0.000000001
 43
0.0000000001
 40
0.0
 40
0.0
 40
0.0
 40
0.0
 40
0.0579445315277969
 40
1.0
 40
1.0
 40
1.0
 40
1.0
 10
45.71998456368357
 20
11.94682237351538
 30
0.0
 10
45.7191741141441
 20
11.94703055944748
 30
0.0
 10
45.70518747005329
 20
11.95062340810127
 30
0.0
 10
45.69037576666435
 20
11.95398177980281
 30
0.0
 10
45.67642232048942
 20
11.9571455522294
 30
0.0
  0
LINE
  5
113
330
2
100
AcDbEntity
  8
0
100
AcDbLine
 10
45.79375263878343
 20
11.92772979075779
 30
0.0
 11
45.71998456368299
 21
11.94682237351261
 31
0.0
  0
LINE
  5
114
330
2
100
AcDbEntity
  8
0
100
AcDbLine
 10
45.83372113280068
 20
11.91643362383298
 30
0.0
 11
45.79375263878343
 21
11.92772979075779
 31
0.0
  0
LINE
  5
115
330
2
100
AcDbEntity
  8
0
100
AcDbLine
 10
45.97539682430143
 20
11.8797652566437
 30
0.0
 11
45.83372113280068
 21
11.91643362383298
 31
0.0
  0
ELLIPSE
  5
116
330
2
100
AcDbEntity
  8
0
100
AcDbEllipse
 10
46.02390170585686
 20
12.14044909133909
 30
0.0
 11
-0.0372563478732245
 21
0.1376269985380663
 31
0.0
210
0.0
220
0.0
230
0.9999999999999998
 40
0.6807089529000003
 41
2.771813391739017
 42
3.134031536950721
  0
LINE
  5
117
330
2
100
AcDbEntity
  8
0
100
AcDbLine
 10
45.85265722396154
 20
11.99659519124543
 30
0.0
 11
45.92642529906198
 21
11.9775026084906
 31
0.0
  0
ELLIPSE
  5
118
330
2
100
AcDbEntity
  8
0
100
AcDbEllipse
 10
45.92554427324972
 20
12.11499231455057
 30
0.0
 11
-0.0372563478732245
 21
0.1376269985380663
 31
0.0
210
0.0
220
0.0
230
0.9999999999999998
 40
0.6807089529000003
 41
2.77181339173896
 42
3.134031536950663
  0
LINE
  5
119
330
2
100
AcDbEntity
  8
0
100
AcDbLine
 10
4.357233386098267
 20
1.335457764583424
 30
0.0
 11
4.245909661113098
 21
1.307476562001741
 31
0.0
  0
ELLIPSE
  5
11A
330
2
100
AcDbEntity
  8
0
100
AcDbEllipse
 10
4.344939636421474
 20
1.391325092843368
 30
0.0
 11
-0.0372563478732245
 21
0.1376269985380702
 31
0.0
210
0.0
220
0.0
230
1.0
 40
0.6807089529000001
 41
2.135117800001399
 42
2.771813391739019
  0
LINE
  5
11B
330
2
100
AcDbEntity
  8
0
100
AcDbLine
 10
4.41958752094635
 20
1.234742489534002
 30
0.0
 11
4.345819445845912
 21
1.253835072288828
 31
0.0
  0
ELLIPSE
  5
11C
330
2
100
AcDbEntity
  8
0
100
AcDbEllipse
 10
4.246582203814317
 20
1.365868316054847
 30
0.0
 11
-0.0372563478732205
 21
0.1376269985380664
 31
0.0
210
0.0
220
0.0
230
1.0
 40
0.6807089529000001
 41
1.201017064944147
 42
2.771813391739068
  0
ELLIPSE
  5
11D
330
2
100
AcDbEntity
  8
0
100
AcDbEllipse
 10
4.246582203814317
 20
1.365868316054847
 30
0.0
 11
-0.0341721629862533
 21
0.1384250884625955
 31
0.0
210
0.0
220
0.0
230
1.0
 40
0.6852254854000001
 41
0.007699814603316
 42
1.216277996186585
  0
ELLIPSE
  5
11E
330
2
100
AcDbEntity
  8
0
100
AcDbEllipse
 10
4.418707710882052
 20
1.372232510248501
 30
0.0
 11
-0.0372563478732205
 21
0.1376269985380703
 31
0.0
210
0.0
220
0.0
230
1.0
 40
0.6807089529000001
 41
2.77181339173911
 42
3.408508977503914
  0
ELLIPSE
  5
11F
330
2
100
AcDbEntity
  8
0
100
AcDbEllipse
 10
4.271171561967847
 20
1.334047345072677
 30
0.0
 11
-0.0341721629862533
 21
0.1384250884625955
 31
0.0
210
0.0
220
0.0
230
1.0
 40
0.6852254854000001
 41
3.148865734656932
 42
3.421887237245265
  0
LINE
  5
120
330
2
100
AcDbEntity
  8
0
100
AcDbLine
 10
4.32123009511329
 20
1.209285714498125
 30
0.0
 11
4.247462020012856
 21
1.228378297259909
 31
0.0
  0
ELLIPSE
  5
121
330
2
100
AcDbEntity
  8
0
100
AcDbEllipse
 10
4.123638315759366
 20
1.333593731912581
 30
0.0
 11
-0.0281690881787479
 21
0.1040615190647331
 31
0.0
210
0.0
220
0.0
230
0.9999999999999998
 40
0.6807041655
 41
1.196662365061682
 42
2.646973534522981
  0
ELLIPSE
  5
122
330
2
100
AcDbEntity
  8
0
100
AcDbEllipse
 10
4.197403487507266
 20
1.353139927660593
 30
0.0
 11
-0.0372563478732245
 21
0.1376269985380702
 31
0.0
210
0.0
220
0.0
230
1.0
 40
0.6807089529000001
 41
6.003029421481651
 42
6.560563955419117
  0
ELLIPSE
  5
123
330
2
100
AcDbEntity
  8
0
100
AcDbEllipse
 10
4.123638315759366
 20
1.334502460787768
 30
0.0
 11
-0.0258371133814039
 21
0.1046649513394349
 31
0.0
210
0.0
220
0.0
230
1.0
 40
0.6852205342999999
 41
0.4975122473001274
 42
1.220650029406846
  0
ELLIPSE
  5
124
330
2
100
AcDbEntity
  8
0
100
AcDbEllipse
 10
4.320350278267945
 20
1.346775733466939
 30
0.0
 11
-0.0372563478732245
 21
0.1376269985380702
 31
0.0
210
0.0
220
0.0
230
1.0
 40
0.6807089529000001
 41
2.771813391739019
 42
3.134031536950663
  0
LINE
  5
125
330
2
100
AcDbEntity
  8
0
100
AcDbLine
 10
4.160314266587293
 20
1.213355854731004
 30
0.0
 11
4.246582212375829
 21
1.189965420773172
 31
0.0
  0
LWPOLYLINE
  5
126
330
2
100
AcDbEntity
  8
0
100
AcDbPolyline
 90
        3
 70
   128
 43
0.0
 10
4.246582212375829
 20
1.189965420773172
 10
4.266250510924324
 20
1.187521105506
 10
4.282306424903863
 20
1.189655412323085
  0
LINE
  5
127
330
2
100
AcDbEntity
  8
0
100
AcDbLine
 10
45.42146138537443
 20
11.96366155720555
 30
0.0
 11
4.357234325026479
 21
1.335457521571539
 31
0.0
  0
LWPOLYLINE
  5
128
330
2
100
AcDbEntity
  8
0
100
AcDbPolyline
 90
        3
 70
   128
 43
0.0
 10
49.16508563342843
 20
12.7709167079458
 10
49.16900182339539
 20
12.77039618228595
 10
49.17379739734038
 20
12.77099194071462
  0
LINE
  5
129
330
2
100
AcDbEntity
  8
0
100
AcDbLine
 10
49.08035804661675
 20
13.0582226500367
 30
0.0
 11
49.07531534058618
 21
13.05676848214788
 31
0.0
  0
LWPOLYLINE
  5
12A
330
2
100
AcDbEntity
  8
0
100
AcDbPolyline
 90
        3
 70
   128
 43
0.0
 10
49.07531534058618
 20
13.05676848214788
 10
49.07971831194593
 20
13.05976205997984
 10
49.0803597412597
 20
13.06014083642603
  0
ARC
  5
12B
330
2
100
AcDbEntity
  8
0
100
AcDbCircle
 10
0.9564950152399902
 20
0.7754083324071419
 30
0.0
 40
0.0248794441753756
100
AcDbArc
 50
110.4238530309011
 51
189.2184602911986
  0
LWPOLYLINE
  5
12C
330
2
100
AcDbEntity
  8
0
100
AcDbPolyline
 90
        3
 70
   128
 43
0.0
 10
1.207337709463504
 20
0.3239391981765006
 10
1.212134852097824
 20
0.3233430024641373
 10
1.216050927558964
 20
0.3238635577589106
  0
ELLIPSE
  5
12D
330
2
100
AcDbEntity
  8
0
100
AcDbEllipse
 10
45.53375143182079
 20
12.42755868196111
 30
0.0
 11
-0.0087325969760657
 21
0.0336627231833882
 31
0.0
210
0.0
220
0.0
230
0.9999999999999998
 40
0.6801259657000001
 41
0.0066426188486038
 42
1.208175804650275
  0
ELLIPSE
  5
12E
330
2
100
AcDbEntity
  8
0
100
AcDbEllipse
 10
45.97543622675818
 20
11.91336808621095
 30
0.0
 11
-0.0086960853933828
 21
0.0336721733209038
 31
0.0
210
0.0
220
0.0
230
1.0
 40
0.6857973184999999
 41
2.779788849306993
 42
3.166691330013353
  0
LWPOLYLINE
  5
12F
330
2
100
AcDbEntity
  8
0
100
AcDbPolyline
 90
        3
 70
   128
 43
0.0
 10
4.245909661113098
 20
1.307476562001741
 10
4.244013535217749
 20
1.307260878468188
 10
4.242500204711285
 20
1.307470612206126
  0
LINE
  5
130
330
2
100
AcDbEntity
  8
0
100
AcDbLine
 10
49.28298092157477
 20
12.97688601389718
 30
0.0
 11
49.5426390552743
 21
13.0059053126736
 31
0.0
  0
LINE
  5
131
330
2
100
AcDbEntity
  8
0
100
AcDbLine
 10
49.13238008387331
 20
12.86408969504533
 30
0.0
 11
49.1323800838733
 21
12.94916505321898
 31
0.0
  0
POLYLINE
  5
132
330
2
100
AcDbEntity
  8
0
100
AcDb2dPolyline
 66
     1
 10
0.0
 20
0.0
 30
0.0
 70
     2
  0
VERTEX
  5
133
330
132
100
AcDbEntity
  8
0
100
AcDbVertex
100
AcDb2dVertex
 10
45.99802836630817
 20
12.24067821902716
 30
0.0
 42
0.1168133958312708
  0
VERTEX
  5
134
330
132
100
AcDbEntity
  8
0
100
AcDbVertex
100
AcDb2dVertex
 10
45.98134420788393
 20
12.21075752775106
 30
0.0
 42
0.1168133958313404
 70
     1
  0
VERTEX
  5
135
330
132
100
AcDbEntity
  8
0
100
AcDbVertex
100
AcDb2dVertex
 10
45.97985364841512
 20
12.1765319942821
 30
0.0
 42
0.1348919903812665
  0
VERTEX
  5
136
330
132
100
AcDbEntity
  8
0
100
AcDbVertex
100
AcDb2dVertex
 10
45.99723933539936
 20
12.14119410119864
 30
0.0
 42
0.1348919903812562
 70
     1
  0
VERTEX
  5
137
330
132
100
AcDbEntity
  8
0
100
AcDbVertex
100
AcDb2dVertex
 10
46.03024103145164
 20
12.11970185010282
 30
0.0
  0
SEQEND
  5
138
330
132
100
AcDbEntity
  8
0
  0
POLYLINE
  5
139
330
2
100
AcDbEntity
  8
0
100
AcDb2dPolyline
 66
     1
 10
0.0
 20
0.0
 30
0.0
 70
     2
  0
VERTEX
  5
13A
330
139
100
AcDbEntity
  8
0
100
AcDbVertex
100
AcDb2dVertex
 10
45.67511926923914
 20
12.37315542194186
 30
0.0
 42
-0.0526713124923038
  0
VERTEX
  5
13B
330
139
100
AcDbEntity
  8
0
100
AcDbVertex
100
AcDb2dVertex
 10
45.67942552988489
 20
12.34863241804779
 30
0.0
 42
-0.0526713124923988
 70
     1
  0
VERTEX
  5
13C
330
139
100
AcDbEntity
  8
0
100
AcDbVertex
100
AcDb2dVertex
 10
45.67851291250294
 20
12.32375092431745
 30
0.0
 42
-0.102098600068852
  0
VERTEX
  5
13D
330
139
100
AcDbEntity
  8
0
100
AcDbVertex
100
AcDb2dVertex
 10
45.66229610286615
 20
12.27868217062751
 30
0.0
 42
-0.1020986000688282
 70
     1
  0
VERTEX
  5
13E
330
139
100
AcDbEntity
  8
0
100
AcDbVertex
100
AcDb2dVertex
 10
45.62956381295485
 20
12.24371397549072
 30
0.0
  0
SEQEND
  5
13F
330
139
100
AcDbEntity
  8
0
  0
POLYLINE
  5
140
330
2
100
AcDbEntity
  8
0
100
AcDb2dPolyline
 66
     1
 10
0.0
 20
0.0
 30
0.0
 70
     2
  0
VERTEX
  5
141
330
140
100
AcDbEntity
  8
0
100
AcDbVertex
100
AcDb2dVertex
 10
2.519361367116245
 20
0.9885788422705966
 30
0.0
 42
0.0530745980722191
  0
VERTEX
  5
142
330
140
100
AcDbEntity
  8
0
100
AcDbVertex
100
AcDb2dVertex
 10
2.51001838311966
 20
0.963392651242805
 30
0.0
 42
0.0530745980722557
 70
     1
  0
VERTEX
  5
143
330
140
100
AcDbEntity
  8
0
100
AcDbVertex
100
AcDb2dVertex
 10
2.506186778085979
 20
0.9368040376776937
 30
0.0
 42
0.0623714200341475
  0
VERTEX
  5
144
330
140
100
AcDbEntity
  8
0
100
AcDbVertex
100
AcDb2dVertex
 10
2.50894287130206
 20
0.9053896715331585
 30
0.0
 42
0.0623714200341248
 70
     1
  0
VERTEX
  5
145
330
140
100
AcDbEntity
  8
0
100
AcDbVertex
100
AcDb2dVertex
 10
2.519360411009374
 20
0.8756250395595635
 30
0.0
  0
SEQEND
  5
146
330
140
100
AcDbEntity
  8
0
  0
POLYLINE
  5
147
330
2
100
AcDbEntity
  8
0
100
AcDb2dPolyline
 66
     1
 10
0.0
 20
0.0
 30
0.0
 70
     2
  0
VERTEX
  5
148
330
147
100
AcDbEntity
  8
0
100
AcDbVertex
100
AcDb2dVertex
 10
1.145220664776078
 20
0.6557089386577304
 30
0.0
 42
0.1023154536212768
  0
VERTEX
  5
149
330
147
100
AcDbEntity
  8
0
100
AcDbVertex
100
AcDb2dVertex
 10
1.127610339603667
 20
0.6014533758916293
 30
0.0
 42
0.1023154536212819
 70
     1
  0
VERTEX
  5
14A
330
147
100
AcDbEntity
  8
0
100
AcDbVertex
100
AcDb2dVertex
 10
1.132963810731444
 20
0.5446631479414891
 30
0.0
 42
0.1372179275534805
  0
VERTEX
  5
14B
330
147
100
AcDbEntity
  8
0
100
AcDbVertex
100
AcDb2dVertex
 10
1.173948293335959
 20
0.4808121579961736
 30
0.0
 42
0.1372179275534741
 70
     1
  0
VERTEX
  5
14C
330
147
100
AcDbEntity
  8
0
100
AcDbVertex
100
AcDb2dVertex
 10
1.242112261724601
 20
0.447490241111513
 30
0.0
  0
SEQEND
  5
14D
330
147
100
AcDbEntity
  8
0
  0
LINE
  5
14E
330
2
100
AcDbEntity
  8
0
100
AcDbLine
 10
0.8483330605142448
 20
0.1018270735125903
 30
0.0
 11
0.4549032655787352
 21
-0.0000000503263331
 31
0.0
  0
ENDSEC
  0
SECTION
  2
OBJECTS
  0
DICTIONARY
  5
B
330
0
100
AcDbDictionary
281
     1
  3
ACAD_COLOR
350
45
  3
ACAD_GROUP
350
32
  3
ACAD_LAYOUT
350
18
  3
ACAD_MATERIAL
350
D
  3
ACAD_MLEADERSTYLE
350
48
  3
ACAD_MLINESTYLE
350
33
  3
ACAD_PLOTSETTINGS
350
34
  3
ACAD_PLOTSTYLENAME
350
A
  3
ACAD_SCALELIST
350
46
  3
ACAD_TABLESTYLE
350
47
  3
ACAD_VISUALSTYLE
350
2B
  3
ACDB_RECOMPOSE_DATA
350
15C
  3
AcDbVariableDictionary
350
150
  0
DICTIONARY
  5
1E
330
1D
100
AcDbDictionary
280
     1
281
     1
  3
ACAD_LAYERSTATES
360
1F
  0
DICTIONARY
  5
7
330
6
100
AcDbDictionary
280
     1
281
     1
  3
ADSK_XREC_LAYER_RECONCILED
360
8
  0
DICTIONARY
  5
3
330
2
100
AcDbDictionary
280
     1
281
     1
  3
ACAD_SORTENTS
360
14F
  0
DICTIONARY
  5
45
102
{ACAD_REACTORS
330
B
102
}
330
B
100
AcDbDictionary
281
     1
  0
DICTIONARY
  5
32
102
{ACAD_REACTORS
330
B
102
}
330
B
100
AcDbDictionary
281
     1
  0
DICTIONARY
  5
18
102
{ACAD_REACTORS
330
B
102
}
330
B
100
AcDbDictionary
281
     1
  3
Layout1
350
1C
  3
Model
350
17
  0
DICTIONARY
  5
D
102
{ACAD_REACTORS
330
B
102
}
330
B
100
AcDbDictionary
281
     1
  3
ByBlock
350
3D
  3
ByLayer
350
35
  3
Global
350
C
  0
DICTIONARY
  5
48
102
{ACAD_REACTORS
330
B
102
}
330
B
100
AcDbDictionary
281
     1
  0
DICTIONARY
  5
33
102
{ACAD_REACTORS
330
B
102
}
330
B
100
AcDbDictionary
281
     1
  3
Standard
350
49
  0
DICTIONARY
  5
34
102
{ACAD_REACTORS
330
B
102
}
330
B
100
AcDbDictionary
281
     1
  0
ACDBDICTIONARYWDFLT
  5
A
102
{ACAD_REACTORS
330
B
102
}
330
B
100
AcDbDictionary
281
     1
  3
Normal
350
9
100
AcDbDictionaryWithDefault
340
9
  0
DICTIONARY
  5
46
102
{ACAD_REACTORS
330
B
102
}
330
B
100
AcDbDictionary
281
     1
  3
A0
350
4D
  3
A1
350
4E
  3
A2
350
4F
  3
A3
350
50
  3
A4
350
51
  3
A5
350
52
  3
A6
350
53
  3
A7
350
54
  3
A8
350
55
  3
A9
350
56
  3
B0
350
57
  3
B1
350
58
  3
B2
350
59
  3
B3
350
5A
  3
B4
350
5B
  3
B5
350
5C
  3
B6
350
5D
  3
B7
350
5E
  3
B8
350
5F
  3
B9
350
60
  3
C0
350
61
  3
C1
350
62
  3
C2
350
63
  3
C3
350
64
  3
C4
350
65
  3
C5
350
66
  3
C6
350
67
  3
C7
350
68
  3
C8
350
69
  3
C9
350
6A
  3
D0
350
6B
  3
D1
350
6C
  3
D2
350
6D
  0
DICTIONARY
  5
47
102
{ACAD_REACTORS
330
B
102
}
330
B
100
AcDbDictionary
281
     1
  3
Standard
350
4A
  0
DICTIONARY
  5
2B
102
{ACAD_REACTORS
330
B
102
}
330
B
100
AcDbDictionary
281
     1
  3
2dWireframe
350
2A
  3
Realistic
350
4B
  3
Wireframe
350
4C
  0
XRECORD
  5
15C
102
{ACAD_REACTORS
330
B
102
}
330
B
100
AcDbXrecord
280
     1
 90
        1
330
4A
  0
DICTIONARY
  5
150
102
{ACAD_REACTORS
330
B
102
}
330
B
100
AcDbDictionary
281
     1
  3
CANNOSCALE
350
156
  3
CMLEADERSTYLE
350
152
  3
CTABLESTYLE
350
151
  3
CVIEWDETAILSTYLE
350
153
  3
CVIEWSECTIONSTYLE
350
154
  3
LAYEREVAL
350
158
  3
LAYERNOTIFY
350
159
  3
LIGHTINGUNITS
350
157
  3
MSLTSCALE
350
155
  0
DICTIONARY
  5
1F
102
{ACAD_REACTORS
330
1E
102
}
330
1E
100
AcDbDictionary
281
     1
  0
XRECORD
  5
8
102
{ACAD_REACTORS
330
7
102
}
330
7
100
AcDbXrecord
280
     1
290
     1
  0
SORTENTSTABLE
  5
14F
102
{ACAD_REACTORS
330
3
102
}
330
3
100
AcDbSortentsTable
330
2
  0
LAYOUT
  5
1C
102
{ACAD_REACTORS
330
18
102
}
330
18
100
AcDbPlotSettings
  1

  2
none_device
  4

  6

 40
0.0
 41
0.0
 42
0.0
 43
0.0
 44
0.0
 45
0.0
 46
0.0
 47
0.0
 48
0.0
 49
0.0
140
0.0
141
0.0
142
1.0
143
1.0
 70
   688
 72
     1
 73
     0
 74
     5
  7

 75
    16
147
1.0
 76
     0
 77
     2
 78
   300
148
0.0
149
0.0
100
AcDbLayout
  1
Layout1
 70
     1
 71
     1
 10
0.0
 20
0.0
 11
420.0
 21
297.0
 12
0.0
 22
0.0
 32
0.0
 14
1.000000000000000E+20
 24
1.000000000000000E+20
 34
1.000000000000000E+20
 15
-1.000000000000000E+20
 25
-1.000000000000000E+20
 35
-1.000000000000000E+20
146
0.0
 13
0.0
 23
0.0
 33
0.0
 16
1.0
 26
0.0
 36
0.0
 17
0.0
 27
1.0
 37
0.0
 76
     0
330
19
  0
LAYOUT
  5
17
102
{ACAD_REACTORS
330
18
102
}
330
18
100
AcDbPlotSettings
  1

  2
none_device
  4
Letter_(8.50_x_11.00_Inches)
  6

 40
6.349999999999999
 41
6.349999999999999
 42
6.350005079999999
 43
6.350005079999999
 44
215.9
 45
279.4
 46
0.0
 47
0.0
 48
0.0
 49
0.0
140
0.0
141
0.0
142
1.0
143
1.0
 70
  1712
 72
     1
 73
     0
 74
     0
  7

 75
     0
147
1.0
 76
     0
 77
     2
 78
   300
148
0.0
149
0.0
100
AcDbLayout
  1
Model
 70
     1
 71
     0
 10
0.0
 20
0.0
 11
1189.0
 21
841.0
 12
0.0
 22
0.0
 32
0.0
 14
0.0
 24
0.0
 34
0.0
 15
1189.0
 25
841.0
 35
0.0
146
0.0
 13
0.0
 23
0.0
 33
0.0
 16
1.0
 26
0.0
 36
0.0
 17
0.0
 27
1.0
 37
0.0
 76
     0
330
2
331
29
  0
MATERIAL
  5
3D
102
{ACAD_XDICTIONARY
360
3E
102
}
102
{ACAD_REACTORS
330
D
102
}
330
D
100
AcDbMaterial
  1
ByBlock
 72
     0
 43
0.0008202099737533
 43
0.0
 43
0.0
 43
0.0
 43
0.0
 43
0.0008202099737533
 43
0.0
 43
0.0
 43
0.0
 43
0.0
 43
1.0
 43
0.0
 43
0.0
 43
0.0
 43
0.0
 43
1.0
 77
     0
 47
0.0008202099737533
 47
0.0
 47
0.0
 47
0.0
 47
0.0
 47
0.0008202099737533
 47
0.0
 47
0.0
 47
0.0
 47
0.0
 47
1.0
 47
0.0
 47
0.0
 47
0.0
 47
0.0
 47
1.0
171
     0
 49
0.0008202099737533
 49
0.0
 49
0.0
 49
0.0
 49
0.0
 49
0.0008202099737533
 49
0.0
 49
0.0
 49
0.0
 49
0.0
 49
1.0
 49
0.0
 49
0.0
 49
0.0
 49
0.0
 49
1.0
175
     0
142
0.0008202099737533
142
0.0
142
0.0
142
0.0
142
0.0
142
0.0008202099737533
142
0.0
142
0.0
142
0.0
142
0.0
142
1.0
142
0.0
142
0.0
142
0.0
142
0.0
142
1.0
179
     0
144
0.0008202099737533
144
0.0
144
0.0
144
0.0
144
0.0
144
0.0008202099737533
144
0.0
144
0.0
144
0.0
144
0.0
144
1.0
144
0.0
144
0.0
144
0.0
144
0.0
144
1.0
147
0.0008202099737533
147
0.0
147
0.0
147
0.0
147
0.0
147
0.0008202099737533
147
0.0
147
0.0
147
0.0
147
0.0
147
1.0
147
0.0
147
0.0
147
0.0
147
0.0
147
1.0
  0
MATERIAL
  5
35
102
{ACAD_XDICTIONARY
360
36
102
}
102
{ACAD_REACTORS
330
D
102
}
330
D
100
AcDbMaterial
  1
ByLayer
 72
     0
 43
0.0008202099737533
 43
0.0
 43
0.0
 43
0.0
 43
0.0
 43
0.0008202099737533
 43
0.0
 43
0.0
 43
0.0
 43
0.0
 43
1.0
 43
0.0
 43
0.0
 43
0.0
 43
0.0
 43
1.0
 77
     0
 47
0.0008202099737533
 47
0.0
 47
0.0
 47
0.0
 47
0.0
 47
0.0008202099737533
 47
0.0
 47
0.0
 47
0.0
 47
0.0
 47
1.0
 47
0.0
 47
0.0
 47
0.0
 47
0.0
 47
1.0
171
     0
 49
0.0008202099737533
 49
0.0
 49
0.0
 49
0.0
 49
0.0
 49
0.0008202099737533
 49
0.0
 49
0.0
 49
0.0
 49
0.0
 49
1.0
 49
0.0
 49
0.0
 49
0.0
 49
0.0
 49
1.0
175
     0
142
0.0008202099737533
142
0.0
142
0.0
142
0.0
142
0.0
142
0.0008202099737533
142
0.0
142
0.0
142
0.0
142
0.0
142
1.0
142
0.0
142
0.0
142
0.0
142
0.0
142
1.0
179
     0
144
0.0008202099737533
144
0.0
144
0.0
144
0.0
144
0.0
144
0.0008202099737533
144
0.0
144
0.0
144
0.0
144
0.0
144
1.0
144
0.0
144
0.0
144
0.0
144
0.0
144
1.0
147
0.0008202099737533
147
0.0
147
0.0
147
0.0
147
0.0
147
0.0008202099737533
147
0.0
147
0.0
147
0.0
147
0.0
147
1.0
147
0.0
147
0.0
147
0.0
147
0.0
147
1.0
  0
MATERIAL
  5
C
102
{ACAD_XDICTIONARY
360
E
102
}
102
{ACAD_REACTORS
330
D
102
}
330
D
100
AcDbMaterial
  1
Global
 72
     0
 43
0.0008202099737533
 43
0.0
 43
0.0
 43
0.0
 43
0.0
 43
0.0008202099737533
 43
0.0
 43
0.0
 43
0.0
 43
0.0
 43
1.0
 43
0.0
 43
0.0
 43
0.0
 43
0.0
 43
1.0
 77
     0
 47
0.0008202099737533
 47
0.0
 47
0.0
 47
0.0
 47
0.0
 47
0.0008202099737533
 47
0.0
 47
0.0
 47
0.0
 47
0.0
 47
1.0
 47
0.0
 47
0.0
 47
0.0
 47
0.0
 47
1.0
171
     0
 49
0.0008202099737533
 49
0.0
 49
0.0
 49
0.0
 49
0.0
 49
0.0008202099737533
 49
0.0
 49
0.0
 49
0.0
 49
0.0
 49
1.0
 49
0.0
 49
0.0
 49
0.0
 49
0.0
 49
1.0
175
     0
142
0.0008202099737533
142
0.0
142
0.0
142
0.0
142
0.0
142
0.0008202099737533
142
0.0
142
0.0
142
0.0
142
0.0
142
1.0
142
0.0
142
0.0
142
0.0
142
0.0
142
1.0
179
     0
144
0.0008202099737533
144
0.0
144
0.0
144
0.0
144
0.0
144
0.0008202099737533
144
0.0
144
0.0
144
0.0
144
0.0
144
1.0
144
0.0
144
0.0
144
0.0
144
0.0
144
1.0
147
0.0008202099737533
147
0.0
147
0.0
147
0.0
147
0.0
147
0.0008202099737533
147
0.0
147
0.0
147
0.0
147
0.0
147
1.0
147
0.0
147
0.0
147
0.0
147
0.0
147
1.0
  0
MLINESTYLE
  5
49
102
{ACAD_REACTORS
330
33
102
}
330
33
100
AcDbMlineStyle
  2
STANDARD
 70
     0
  3

 62
   256
 51
90.0
 52
90.0
 71
     2
 49
0.5
 62
   256
  6
BYLAYER
 49
-0.5
 62
   256
  6
BYLAYER
  0
ACDBPLACEHOLDER
  5
9
102
{ACAD_REACTORS
330
A
102
}
330
A
  0
SCALE
  5
4D
102
{ACAD_REACTORS
330
46
102
}
330
46
100
AcDbScale
 70
     0
300
1:1
140
1.0
141
1.0
290
     1
  0
SCALE
  5
4E
102
{ACAD_REACTORS
330
46
102
}
330
46
100
AcDbScale
 70
     0
300
1:2
140
1.0
141
2.0
290
     0
  0
SCALE
  5
4F
102
{ACAD_REACTORS
330
46
102
}
330
46
100
AcDbScale
 70
     0
300
1:4
140
1.0
141
4.0
290
     0
  0
SCALE
  5
50
102
{ACAD_REACTORS
330
46
102
}
330
46
100
AcDbScale
 70
     0
300
1:5
140
1.0
141
5.0
290
     0
  0
SCALE
  5
51
102
{ACAD_REACTORS
330
46
102
}
330
46
100
AcDbScale
 70
     0
300
1:8
140
1.0
141
8.0
290
     0
  0
SCALE
  5
52
102
{ACAD_REACTORS
330
46
102
}
330
46
100
AcDbScale
 70
     0
300
1:10
140
1.0
141
10.0
290
     0
  0
SCALE
  5
53
102
{ACAD_REACTORS
330
46
102
}
330
46
100
AcDbScale
 70
     0
300
1:16
140
1.0
141
16.0
290
     0
  0
SCALE
  5
54
102
{ACAD_REACTORS
330
46
102
}
330
46
100
AcDbScale
 70
     0
300
1:20
140
1.0
141
20.0
290
     0
  0
SCALE
  5
55
102
{ACAD_REACTORS
330
46
102
}
330
46
100
AcDbScale
 70
     0
300
1:30
140
1.0
141
30.0
290
     0
  0
SCALE
  5
56
102
{ACAD_REACTORS
330
46
102
}
330
46
100
AcDbScale
 70
     0
300
1:40
140
1.0
141
40.0
290
     0
  0
SCALE
  5
57
102
{ACAD_REACTORS
330
46
102
}
330
46
100
AcDbScale
 70
     0
300
1:50
140
1.0
141
50.0
290
     0
  0
SCALE
  5
58
102
{ACAD_REACTORS
330
46
102
}
330
46
100
AcDbScale
 70
     0
300
1:100
140
1.0
141
100.0
290
     0
  0
SCALE
  5
59
102
{ACAD_REACTORS
330
46
102
}
330
46
100
AcDbScale
 70
     0
300
2:1
140
2.0
141
1.0
290
     0
  0
SCALE
  5
5A
102
{ACAD_REACTORS
330
46
102
}
330
46
100
AcDbScale
 70
     0
300
4:1
140
4.0
141
1.0
290
     0
  0
SCALE
  5
5B
102
{ACAD_REACTORS
330
46
102
}
330
46
100
AcDbScale
 70
     0
300
8:1
140
8.0
141
1.0
290
     0
  0
SCALE
  5
5C
102
{ACAD_REACTORS
330
46
102
}
330
46
100
AcDbScale
 70
     0
300
10:1
140
10.0
141
1.0
290
     0
  0
SCALE
  5
5D
102
{ACAD_REACTORS
330
46
102
}
330
46
100
AcDbScale
 70
     0
300
100:1
140
100.0
141
1.0
290
     0
  0
SCALE
  5
5E
102
{ACAD_REACTORS
330
46
102
}
330
46
100
AcDbScale
 70
     0
300
1/128" = 1'-0"
140
0.0078125
141
12.0
290
     0
  0
SCALE
  5
5F
102
{ACAD_REACTORS
330
46
102
}
330
46
100
AcDbScale
 70
     0
300
1/64" = 1'-0"
140
0.015625
141
12.0
290
     0
  0
SCALE
  5
60
102
{ACAD_REACTORS
330
46
102
}
330
46
100
AcDbScale
 70
     0
300
1/32" = 1'-0"
140
0.03125
141
12.0
290
     0
  0
SCALE
  5
61
102
{ACAD_REACTORS
330
46
102
}
330
46
100
AcDbScale
 70
     0
300
1/16" = 1'-0"
140
0.0625
141
12.0
290
     0
  0
SCALE
  5
62
102
{ACAD_REACTORS
330
46
102
}
330
46
100
AcDbScale
 70
     0
300
3/32" = 1'-0"
140
0.09375
141
12.0
290
     0
  0
SCALE
  5
63
102
{ACAD_REACTORS
330
46
102
}
330
46
100
AcDbScale
 70
     0
300
1/8" = 1'-0"
140
0.125
141
12.0
290
     0
  0
SCALE
  5
64
102
{ACAD_REACTORS
330
46
102
}
330
46
100
AcDbScale
 70
     0
300
3/16" = 1'-0"
140
0.1875
141
12.0
290
     0
  0
SCALE
  5
65
102
{ACAD_REACTORS
330
46
102
}
330
46
100
AcDbScale
 70
     0
300
1/4" = 1'-0"
140
0.25
141
12.0
290
     0
  0
SCALE
  5
66
102
{ACAD_REACTORS
330
46
102
}
330
46
100
AcDbScale
 70
     0
300
3/8" = 1'-0"
140
0.375
141
12.0
290
     0
  0
SCALE
  5
67
102
{ACAD_REACTORS
330
46
102
}
330
46
100
AcDbScale
 70
     0
300
1/2" = 1'-0"
140
0.5
141
12.0
290
     0
  0
SCALE
  5
68
102
{ACAD_REACTORS
330
46
102
}
330
46
100
AcDbScale
 70
     0
300
3/4" = 1'-0"
140
0.75
141
12.0
290
     0
  0
SCALE
  5
69
102
{ACAD_REACTORS
330
46
102
}
330
46
100
AcDbScale
 70
     0
300
1" = 1'-0"
140
1.0
141
12.0
290
     0
  0
SCALE
  5
6A
102
{ACAD_REACTORS
330
46
102
}
330
46
100
AcDbScale
 70
     0
300
1-1/2" = 1'-0"
140
1.5
141
12.0
290
     0
  0
SCALE
  5
6B
102
{ACAD_REACTORS
330
46
102
}
330
46
100
AcDbScale
 70
     0
300
3" = 1'-0"
140
3.0
141
12.0
290
     0
  0
SCALE
  5
6C
102
{ACAD_REACTORS
330
46
102
}
330
46
100
AcDbScale
 70
     0
300
6" = 1'-0"
140
6.0
141
12.0
290
     0
  0
SCALE
  5
6D
102
{ACAD_REACTORS
330
46
102
}
330
46
100
AcDbScale
 70
     0
300
1'-0" = 1'-0"
140
12.0
141
12.0
290
     0
  0
TABLESTYLE
  5
4A
102
{ACAD_XDICTIONARY
360
15A
102
}
102
{ACAD_REACTORS
330
47
102
}
330
47
100
AcDbTableStyle
280
     0
  3
Standard
 70
     0
 71
     0
 40
1.5
 41
1.5
280
     0
281
     0
  7
Standard
140
4.5
170
     2
 62
     0
 63
     7
283
     0
 90
      512
 91
        0
  1

274
    -2
284
     1
 64
     0
275
    -2
285
     1
 65
     0
276
    -2
286
     1
 66
     0
277
    -2
287
     1
 67
     0
278
    -2
288
     1
 68
     0
279
    -2
289
     1
 69
     0
  7
Standard
140
6.0
170
     5
 62
     0
 63
     7
283
     0
 90
      512
 91
        0
  1

274
    -2
284
     1
 64
     0
275
    -2
285
     1
 65
     0
276
    -2
286
     1
 66
     0
277
    -2
287
     1
 67
     0
278
    -2
288
     1
 68
     0
279
    -2
289
     1
 69
     0
  7
Standard
140
4.5
170
     5
 62
     0
 63
     7
283
     0
 90
      512
 91
        0
  1

274
    -2
284
     1
 64
     0
275
    -2
285
     1
 65
     0
276
    -2
286
     1
 66
     0
277
    -2
287
     1
 67
     0
278
    -2
288
     1
 68
     0
279
    -2
289
     1
 69
     0
  0
VISUALSTYLE
  5
2A
102
{ACAD_REACTORS
330
2B
102
}
330
2B
100
AcDbVisualStyle
  2
2dWireframe
 70
     4
177
     3
291
     0
 70
    58
 90
        0
176
     1
 90
        2
176
     1
 90
        0
176
     1
 90
        0
176
     1
 40
0.6
176
     1
 40
30.0
176
     1
 62
     7
420
 16777215
176
     1
 90
        1
176
     1
 90
        4
176
     1
 62
     7
176
     1
 62
   257
176
     1
 90
        1
176
     1
 90
        1
176
     1
 40
1.0
176
     1
 90
        0
176
     1
 62
   257
176
     1
 40
1.0
176
     1
 90
        1
176
     1
 90
        6
176
     1
 90
        2
176
     1
 62
     7
176
     1
 90
        5
176
     1
 90
        0
176
     1
 90
        0
176
     1
290
     0
176
     1
 90
        1
176
     1
 40
0.0
176
     1
 90
        0
176
     1
290
     1
176
     1
290
     1
176
     1
290
     0
176
     1
290
     0
176
     1
290
     0
176
     1
290
     0
176
     1
290
     0
176
     1
290
     0
176
     1
290
     0
176
     1
 90
       50
176
     1
 40
0.0
176
     1
 40
1.0
176
     1
 90
        0
176
     1
 62
    18
420
        0
176
     1
 90
       50
176
     1
 90
        3
176
     1
 62
     5
420
      255
176
     1
290
     0
176
     1
 90
       50
176
     1
 90
       50
176
     1
 90
       50
176
     1
290
     0
176
     1
 90
       50
176
     1
 62
   256
176
     0
 40
1.0
176
     0
 90
        2
176
     1
  1
strokes_ogs.tif
176
     1
290
     0
176
     1
 40
1.0
176
     1
 40
1.0
176
     1
  0
VISUALSTYLE
  5
4B
102
{ACAD_REACTORS
330
2B
102
}
330
2B
100
AcDbVisualStyle
  2
Realistic
 70
     8
177
     3
291
     0
 70
    58
 90
        2
176
     1
 90
        3
176
     1
 90
        0
176
     1
 90
        2
176
     1
 40
0.6
176
     1
 40
30.0
176
     1
 62
     7
420
 16777215
176
     1
 90
        0
176
     1
 90
        0
176
     1
 62
     7
176
     1
 62
   257
176
     1
 90
        1
176
     1
 90
        1
176
     1
 40
1.0
176
     1
 90
        8
176
     1
 62
   257
176
     1
 40
1.0
176
     1
 90
        1
176
     1
 90
        6
176
     1
 90
        2
176
     1
 62
     7
176
     1
 90
        3
176
     1
 90
        0
176
     1
 90
        0
176
     1
290
     0
176
     1
 90
       13
176
     1
 40
0.0
176
     1
 90
        0
176
     1
290
     0
176
     1
290
     1
176
     1
290
     1
176
     1
290
     0
176
     1
290
     0
176
     1
290
     0
176
     1
290
     0
176
     1
290
     0
176
     1
290
     0
176
     1
 90
       50
176
     1
 40
0.0
176
     1
 40
1.0
176
     1
 90
        0
176
     1
 62
    18
420
        0
176
     1
 90
       50
176
     1
 90
        3
176
     1
 62
     5
420
      255
176
     1
290
     0
176
     1
 90
       50
176
     1
 90
       50
176
     1
 90
       50
176
     1
290
     0
176
     1
 90
       50
176
     1
 62
   256
176
     0
 40
1.0
176
     0
 90
        2
176
     1
  1
strokes_ogs.tif
176
     1
290
     0
176
     1
 40
1.0
176
     1
 40
1.0
176
     1
  0
VISUALSTYLE
  5
4C
102
{ACAD_REACTORS
330
2B
102
}
330
2B
100
AcDbVisualStyle
  2
Wireframe
 70
     5
177
     3
291
     0
 70
    58
 90
        0
176
     1
 90
        2
176
     1
 90
        0
176
     1
 90
        0
176
     1
 40
0.6
176
     1
 40
30.0
176
     1
 62
     7
420
 16777215
176
     1
 90
        1
176
     1
 90
        4
176
     1
 62
     7
176
     1
 62
   257
176
     1
 90
        1
176
     1
 90
        1
176
     1
 40
1.0
176
     1
 90
        0
176
     1
 62
   257
176
     1
 40
1.0
176
     1
 90
        1
176
     1
 90
        6
176
     1
 90
        2
176
     1
 62
     7
176
     1
 90
        3
176
     1
 90
        0
176
     1
 90
        0
176
     1
290
     0
176
     1
 90
        1
176
     1
 40
0.0
176
     1
 90
        0
176
     1
290
     0
176
     1
290
     1
176
     1
290
     1
176
     1
290
     0
176
     1
290
     0
176
     1
290
     0
176
     1
290
     0
176
     1
290
     0
176
     1
290
     0
176
     1
 90
       50
176
     1
 40
0.0
176
     1
 40
1.0
176
     1
 90
        0
176
     1
 62
    18
420
        0
176
     1
 90
       50
176
     1
 90
        3
176
     1
 62
     5
420
      255
176
     1
290
     0
176
     1
 90
       50
176
     1
 90
       50
176
     1
 90
       50
176
     1
290
     0
176
     1
 90
       50
176
     1
 62
   256
176
     0
 40
1.0
176
     0
 90
        2
176
     1
  1
strokes_ogs.tif
176
     1
290
     0
176
     1
 40
1.0
176
     1
 40
1.0
176
     1
  0
DICTIONARYVAR
  5
156
102
{ACAD_REACTORS
330
150
102
}
330
150
100
DictionaryVariables
280
     0
  1
1:1
  0
DICTIONARYVAR
  5
152
102
{ACAD_REACTORS
330
150
102
}
330
150
100
DictionaryVariables
280
     0
  1
STANDARD
  0
DICTIONARYVAR
  5
151
102
{ACAD_REACTORS
330
150
102
}
330
150
100
DictionaryVariables
280
     0
  1
STANDARD
  0
DICTIONARYVAR
  5
153
102
{ACAD_REACTORS
330
150
102
}
330
150
100
DictionaryVariables
280
     0
  1

  0
DICTIONARYVAR
  5
154
102
{ACAD_REACTORS
330
150
102
}
330
150
100
DictionaryVariables
280
     0
  1

  0
DICTIONARYVAR
  5
158
102
{ACAD_REACTORS
330
150
102
}
330
150
100
DictionaryVariables
280
     0
  1
1
  0
DICTIONARYVAR
  5
159
102
{ACAD_REACTORS
330
150
102
}
330
150
100
DictionaryVariables
280
     0
  1
15
  0
DICTIONARYVAR
  5
157
102
{ACAD_REACTORS
330
150
102
}
330
150
100
DictionaryVariables
280
     0
  1
0
  0
DICTIONARYVAR
  5
155
102
{ACAD_REACTORS
330
150
102
}
330
150
100
DictionaryVariables
280
     0
  1
0
  0
DICTIONARY
  5
3E
330
3D
100
AcDbDictionary
280
     1
281
     1
  3
BUMPTILE
360
3F
  3
DIFFUSETILE
360
40
  3
OPACITYTILE
360
41
  3
REFLECTIONTILE
360
42
  3
REFRACTIONTILE
360
43
  3
SPECULARTILE
360
44
  0
DICTIONARY
  5
36
330
35
100
AcDbDictionary
280
     1
281
     1
  3
BUMPTILE
360
37
  3
DIFFUSETILE
360
38
  3
OPACITYTILE
360
39
  3
REFLECTIONTILE
360
3A
  3
REFRACTIONTILE
360
3B
  3
SPECULARTILE
360
3C
  0
DICTIONARY
  5
E
330
C
100
AcDbDictionary
280
     1
281
     1
  3
BUMPTILE
360
F
  3
DIFFUSETILE
360
10
  3
OPACITYTILE
360
11
  3
REFLECTIONTILE
360
12
  3
REFRACTIONTILE
360
13
  3
SPECULARTILE
360
14
  0
DICTIONARY
  5
15A
330
4A
100
AcDbDictionary
280
     1
281
     1
  3
ACAD_ROUNDTRIP_2008_TABLESTYLE_CELLSTYLEMAP
360
15B
  0
XRECORD
  5
3F
102
{ACAD_REACTORS
330
3E
102
}
330
3E
100
AcDbXrecord
280
     1
270
     1
271
     1
  0
XRECORD
  5
40
102
{ACAD_REACTORS
330
3E
102
}
330
3E
100
AcDbXrecord
280
     1
270
     1
271
     1
  0
XRECORD
  5
41
102
{ACAD_REACTORS
330
3E
102
}
330
3E
100
AcDbXrecord
280
     1
270
     1
271
     1
  0
XRECORD
  5
42
102
{ACAD_REACTORS
330
3E
102
}
330
3E
100
AcDbXrecord
280
     1
270
     1
271
     1
  0
XRECORD
  5
43
102
{ACAD_REACTORS
330
3E
102
}
330
3E
100
AcDbXrecord
280
     1
270
     1
271
     1
  0
XRECORD
  5
44
102
{ACAD_REACTORS
330
3E
102
}
330
3E
100
AcDbXrecord
280
     1
270
     1
271
     1
  0
XRECORD
  5
37
102
{ACAD_REACTORS
330
36
102
}
330
36
100
AcDbXrecord
280
     1
270
     1
271
     1
  0
XRECORD
  5
38
102
{ACAD_REACTORS
330
36
102
}
330
36
100
AcDbXrecord
280
     1
270
     1
271
     1
  0
XRECORD
  5
39
102
{ACAD_REACTORS
330
36
102
}
330
36
100
AcDbXrecord
280
     1
270
     1
271
     1
  0
XRECORD
  5
3A
102
{ACAD_REACTORS
330
36
102
}
330
36
100
AcDbXrecord
280
     1
270
     1
271
     1
  0
XRECORD
  5
3B
102
{ACAD_REACTORS
330
36
102
}
330
36
100
AcDbXrecord
280
     1
270
     1
271
     1
  0
XRECORD
  5
3C
102
{ACAD_REACTORS
330
36
102
}
330
36
100
AcDbXrecord
280
     1
270
     1
271
     1
  0
XRECORD
  5
F
102
{ACAD_REACTORS
330
E
102
}
330
E
100
AcDbXrecord
280
     1
270
     1
271
     1
  0
XRECORD
  5
10
102
{ACAD_REACTORS
330
E
102
}
330
E
100
AcDbXrecord
280
     1
270
     1
271
     1
  0
XRECORD
  5
11
102
{ACAD_REACTORS
330
E
102
}
330
E
100
AcDbXrecord
280
     1
270
     1
271
     1
  0
XRECORD
  5
12
102
{ACAD_REACTORS
330
E
102
}
330
E
100
AcDbXrecord
280
     1
270
     1
271
     1
  0
XRECORD
  5
13
102
{ACAD_REACTORS
330
E
102
}
330
E
100
AcDbXrecord
280
     1
270
     1
271
     1
  0
XRECORD
  5
14
102
{ACAD_REACTORS
330
E
102
}
330
E
100
AcDbXrecord
280
     1
270
     1
271
     1
  0
CELLSTYLEMAP
  5
15B
102
{ACAD_REACTORS
330
15A
102
}
330
15A
100
AcDbCellStyleMap
 90
        3
300
CELLSTYLE
  1
TABLEFORMAT_BEGIN
 90
        5
170
     1
 91
        0
 92
    32768
 62
   257
 93
        1
300
CONTENTFORMAT
  1
CONTENTFORMAT_BEGIN
 90
        0
 91
        0
 92
      512
 93
        0
300

 40
0.0
140
1.0
 94
        5
 62
     0
340
21
144
6.0
309
CONTENTFORMAT_END
171
     1
301
MARGIN
  1
CELLMARGIN_BEGIN
 40
1.5
 40
1.5
 40
1.5
 40
1.5
 40
4.5
 40
4.5
309
CELLMARGIN_END
 94
        6
 95
        1
302
GRIDFORMAT
  1
GRIDFORMAT_BEGIN
 90
        0
 91
        1
 62
     0
 92
       -2
340
0
 93
        0
 40
1.125
309
GRIDFORMAT_END
 95
        2
302
GRIDFORMAT
  1
GRIDFORMAT_BEGIN
 90
        0
 91
        1
 62
     0
 92
       -2
340
0
 93
        0
 40
1.125
309
GRIDFORMAT_END
 95
        4
302
GRIDFORMAT
  1
GRIDFORMAT_BEGIN
 90
        0
 91
        1
 62
     0
 92
       -2
340
0
 93
        0
 40
1.125
309
GRIDFORMAT_END
 95
        8
302
GRIDFORMAT
  1
GRIDFORMAT_BEGIN
 90
        0
 91
        1
 62
     0
 92
       -2
340
0
 93
        0
 40
1.125
309
GRIDFORMAT_END
 95
       16
302
GRIDFORMAT
  1
GRIDFORMAT_BEGIN
 90
        0
 91
        1
 62
     0
 92
       -2
340
0
 93
        0
 40
1.125
309
GRIDFORMAT_END
 95
       32
302
GRIDFORMAT
  1
GRIDFORMAT_BEGIN
 90
        0
 91
        1
 62
     0
 92
       -2
340
0
 93
        0
 40
1.125
309
GRIDFORMAT_END
309
TABLEFORMAT_END
  1
CELLSTYLE_BEGIN
 90
        1
 91
        1
300
_TITLE
309
CELLSTYLE_END
300
CELLSTYLE
  1
TABLEFORMAT_BEGIN
 90
        5
170
     1
 91
        0
 92
        0
 62
   257
 93
        1
300
CONTENTFORMAT
  1
CONTENTFORMAT_BEGIN
 90
        0
 91
        0
 92
      512
 93
        0
300

 40
0.0
140
1.0
 94
        5
 62
     0
340
21
144
4.5
309
CONTENTFORMAT_END
171
     1
301
MARGIN
  1
CELLMARGIN_BEGIN
 40
1.5
 40
1.5
 40
1.5
 40
1.5
 40
4.5
 40
4.5
309
CELLMARGIN_END
 94
        6
 95
        1
302
GRIDFORMAT
  1
GRIDFORMAT_BEGIN
 90
        0
 91
        1
 62
     0
 92
       -2
340
0
 93
        0
 40
1.125
309
GRIDFORMAT_END
 95
        2
302
GRIDFORMAT
  1
GRIDFORMAT_BEGIN
 90
        0
 91
        1
 62
     0
 92
       -2
340
0
 93
        0
 40
1.125
309
GRIDFORMAT_END
 95
        4
302
GRIDFORMAT
  1
GRIDFORMAT_BEGIN
 90
        0
 91
        1
 62
     0
 92
       -2
340
0
 93
        0
 40
1.125
309
GRIDFORMAT_END
 95
        8
302
GRIDFORMAT
  1
GRIDFORMAT_BEGIN
 90
        0
 91
        1
 62
     0
 92
       -2
340
0
 93
        0
 40
1.125
309
GRIDFORMAT_END
 95
       16
302
GRIDFORMAT
  1
GRIDFORMAT_BEGIN
 90
        0
 91
        1
 62
     0
 92
       -2
340
0
 93
        0
 40
1.125
309
GRIDFORMAT_END
 95
       32
302
GRIDFORMAT
  1
GRIDFORMAT_BEGIN
 90
        0
 91
        1
 62
     0
 92
       -2
340
0
 93
        0
 40
1.125
309
GRIDFORMAT_END
309
TABLEFORMAT_END
  1
CELLSTYLE_BEGIN
 90
        2
 91
        1
300
_HEADER
309
CELLSTYLE_END
300
CELLSTYLE
  1
TABLEFORMAT_BEGIN
 90
        5
170
     1
 91
        0
 92
        0
 62
   257
 93
        1
300
CONTENTFORMAT
  1
CONTENTFORMAT_BEGIN
 90
        0
 91
        0
 92
      512
 93
        0
300

 40
0.0
140
1.0
 94
        2
 62
     0
340
21
144
4.5
309
CONTENTFORMAT_END
171
     1
301
MARGIN
  1
CELLMARGIN_BEGIN
 40
1.5
 40
1.5
 40
1.5
 40
1.5
 40
4.5
 40
4.5
309
CELLMARGIN_END
 94
        6
 95
        1
302
GRIDFORMAT
  1
GRIDFORMAT_BEGIN
 90
        0
 91
        1
 62
     0
 92
       -2
340
0
 93
        0
 40
1.125
309
GRIDFORMAT_END
 95
        2
302
GRIDFORMAT
  1
GRIDFORMAT_BEGIN
 90
        0
 91
        1
 62
     0
 92
       -2
340
0
 93
        0
 40
1.125
309
GRIDFORMAT_END
 95
        4
302
GRIDFORMAT
  1
GRIDFORMAT_BEGIN
 90
        0
 91
        1
 62
     0
 92
       -2
340
0
 93
        0
 40
1.125
309
GRIDFORMAT_END
 95
        8
302
GRIDFORMAT
  1
GRIDFORMAT_BEGIN
 90
        0
 91
        1
 62
     0
 92
       -2
340
0
 93
        0
 40
1.125
309
GRIDFORMAT_END
 95
       16
302
GRIDFORMAT
  1
GRIDFORMAT_BEGIN
 90
        0
 91
        1
 62
     0
 92
       -2
340
0
 93
        0
 40
1.125
309
GRIDFORMAT_END
 95
       32
302
GRIDFORMAT
  1
GRIDFORMAT_BEGIN
 90
        0
 91
        1
 62
     0
 92
       -2
340
0
 93
        0
 40
1.125
309
GRIDFORMAT_END
309
TABLEFORMAT_END
  1
CELLSTYLE_BEGIN
 90
        3
 91
        2
300
_DATA
309
CELLSTYLE_END
  0
ENDSEC
  0
SECTION
  2
ACDSDATA
 70
     2
 71
     7
  0
ACDSSCHEMA
 90
        0
  1
AcDb_Thumbnail_Schema
  2
AcDbDs::ID
280
    10
 91
        8
  2
Thumbnail_Data
280
    15
 91
        0
101
ACDSRECORD
 95
        0
 90
        1
  2
AcDbDs::TreatedAsObjectData
280
     1
291
     1
101
ACDSRECORD
 95
        0
 90
        2
  2
AcDbDs::Legacy
280
     1
291
     1
101
ACDSRECORD
  1
AcDbDs::ID
 90
        3
  2
AcDs:Indexable
280
     1
291
     1
101
ACDSRECORD
  1
AcDbDs::ID
 90
        4
  2
AcDbDs::HandleAttribute
280
     7
282
     1
  0
ACDSSCHEMA
 90
        1
  1
AcDbDs::TreatedAsObjectDataSchema
  2
AcDbDs::TreatedAsObjectData
280
     1
 91
        0
  0
ACDSSCHEMA
 90
        2
  1
AcDbDs::LegacySchema
  2
AcDbDs::Legacy
280
     1
 91
        0
  0
ACDSSCHEMA
 90
        3
  1
AcDbDs::IndexedPropertySchema
  2
AcDs:Indexable
280
     1
 91
        0
  0
ACDSSCHEMA
 90
        4
  1
AcDbDs::HandleAttributeSchema
  2
AcDbDs::HandleAttribute
280
     7
 91
        1
284
     1
  0
ACDSRECORD
 90
        0
  2
AcDbDs::ID
280
    10
320
17
  2
Thumbnail_Data
280
    15
 94
     1264
310
89504E470D0A1A0A0000000D4948445200000100000000700803000000C6F95E2100000300504C5445212830000000C8C8C80000000000000000000000000000000000000000000000000000330000660000990000CC0000FF0033000033330033660033990033CC0033FF0066000066330066660066990066CC0066FF0099
310
000099330099660099990099CC0099FF00CC0000CC3300CC6600CC9900CCCC00CCFF00FF0000FF3300FF6600FF9900FFCC00FFFF3300003300333300663300993300CC3300FF3333003333333333663333993333CC3333FF3366003366333366663366993366CC3366FF3399003399333399663399993399CC3399FF33CC00
310
33CC3333CC6633CC9933CCCC33CCFF33FF0033FF3333FF6633FF9933FFCC33FFFF6600006600336600666600996600CC6600FF6633006633336633666633996633CC6633FF6666006666336666666666996666CC6666FF6699006699336699666699996699CC6699FF66CC0066CC3366CC6666CC9966CCCC66CCFF66FF0066
310
FF3366FF6666FF9966FFCC66FFFF9900009900339900669900999900CC9900FF9933009933339933669933999933CC9933FF9966009966339966669966999966CC9966FF9999009999339999669999999999CC9999FF99CC0099CC3399CC6699CC9999CCCC99CCFF99FF0099FF3399FF6699FF9999FFCC99FFFFCC0000CC00
310
33CC0066CC0099CC00CCCC00FFCC3300CC3333CC3366CC3399CC33CCCC33FFCC6600CC6633CC6666CC6699CC66CCCC66FFCC9900CC9933CC9966CC9999CC99CCCC99FFCCCC00CCCC33CCCC66CCCC99CCCCCCCCCCFFCCFF00CCFF33CCFF66CCFF99CCFFCCCCFFFFFF0000FF0033FF0066FF0099FF00CCFF00FFFF3300FF3333
310
FF3366FF3399FF33CCFF33FFFF6600FF6633FF6666FF6699FF66CCFF66FFFF9900FF9933FF9966FF9999FF99CCFF99FFFFCC00FFCC33FFCC66FFCC99FFCCCCFFCCFFFFFF00FFFF33FFFF66FFFF99FFFFCCFFFFFF0000000D0D0D1A1A1A2828283535354343435050505D5D5D6B6B6B787878868686939393A1A1A1AEAEAEBB
310
BBBBC9C9C9D6D6D6E4E4E4F1F1F1FFFFFF000000000000000000000000000000000000000000000000000000000000B21171F6000000854944415478DAEDDAC10980301405C1F4DFEFBF2B1E822524EC4C078BC42798B500000000000000000000E06CF3AAF74F327B3FFC5CFF971D7DF0FBC027F3FFF1235EBCF8CAD675E3
310
A71E6FEB0CBD78F1E20DBDA1B7750EBD78F1E26D9DADB375E2BDF1C48B176FE88FEC5FE97FB5D3BDA13013BE9D928ECF7EE20100000000000000977900036D2C9267D4D9AB0000000049454E44AE4260824E44AE4260827FCE4F355F03DAF7F6C4F8B980280B189FA2E9E4488C1F5728FA5EA894570303FC54C0FC58A9A8E2
310
C673FB2363537541DC5FBBF68E3F3438AD7FD6B63F15FE6801E9F01B05540DA4C4BF5B405AFC5601D3953435BE5DC0724AA4CCF8EA5CAFFF86D567017FF9C2A8B1327AB5FB7EB39CA3054C27817AF59F704E4A8D76E74D727C34DF215287D7BF73F1EBDFDED9C719FEE795AFDE1B97D361DFBAC0CA0EBF3E2F1CF1C50307B9
310
E2C7DBDF608CBFECF6773D3E2EC5EB7ABC921DF7D67881070F1E7C6F37FAB0C65F7E3C59E323DBC7346F32CBE1B8070F1E3C78F0E0C19F3CCB095E7AF0E0C183070F1E7CBA594EBEEF1B1FD4876DF82A3E78F0E0C183070F1E7C467D38C7FC9F6A12E29E0FD3101C41D9195C7C0000000049454E44AE426082
  0
ENDSEC
  0
EOF
