  0
SECTION
  2
HEADER
  9
$ACADVER
  1
AC1009
  9
$INSBASE
 10
0.0
 20
0.0
 30
0.0
  9
$EXTMIN
 10
47.648771146941968
 20
-192.99562712189001
 30
0.0
  9
$EXTMAX
 10
162.27226558443189
 20
-103.9240613889495
 30
0.0
  9
$LIMMIN
 10
0.0
 20
0.0
  9
$LIMMAX
 10
12.0
 20
9.0
  9
$ORTHOMODE
 70
     0
  9
$REGENMODE
 70
     1
  9
$FILLMODE
 70
     1
  9
$QTEXTMODE
 70
     0
  9
$MIRRTEXT
 70
     1
  9
$DRAGMODE
 70
     2
  9
$LTSCALE
 40
1.0
  9
$OSMODE
 70
    37
  9
$ATTMODE
 70
     1
  9
$TEXTSIZE
 40
0.2
  9
$TRACEWID
 40
0.05
  9
$TEXTSTYLE
  7
STANDARD
  9
$CLAYER
  8
0
  9
$CELTYPE
  6
BYLAYER
  9
$CECOLOR
 62
   256
  9
$DIMSCALE
 40
1.0
  9
$DIMASZ
 40
0.18
  9
$DIMEXO
 40
0.0625
  9
$DIMDLI
 40
0.38
  9
$DIMRND
 40
0.0
  9
$DIMDLE
 40
0.0
  9
$DIMEXE
 40
0.18
  9
$DIMTP
 40
0.0
  9
$DIMTM
 40
0.0
  9
$DIMTXT
 40
0.18
  9
$DIMCEN
 40
0.09
  9
$DIMTSZ
 40
0.0
  9
$DIMTOL
 70
     0
  9
$DIMLIM
 70
     0
  9
$DIMTIH
 70
     1
  9
$DIMTOH
 70
     1
  9
$DIMSE1
 70
     0
  9
$DIMSE2
 70
     0
  9
$DIMTAD
 70
     0
  9
$DIMZIN
 70
     0
  9
$DIMBLK
  1

  9
$DIMASO
 70
     1
  9
$DIMSHO
 70
     1
  9
$DIMPOST
  1

  9
$DIMAPOST
  1

  9
$DIMALT
 70
     0
  9
$DIMALTD
 70
     2
  9
$DIMALTF
 40
25.399999999999999
  9
$DIMLFAC
 40
1.0
  9
$DIMTOFL
 70
     0
  9
$DIMTVP
 40
0.0
  9
$DIMTIX
 70
     0
  9
$DIMSOXD
 70
     0
  9
$DIMSAH
 70
     0
  9
$DIMBLK1
  1

  9
$DIMBLK2
  1

  9
$DIMSTYLE
  2
STANDARD
  9
$DIMCLRD
 70
     0
  9
$DIMCLRE
 70
     0
  9
$DIMCLRT
 70
     0
  9
$DIMTFAC
 40
1.0
  9
$DIMGAP
 40
0.09
  9
$LUNITS
 70
     2
  9
$LUPREC
 70
     4
  9
$SKETCHINC
 40
0.1
  9
$FILLETRAD
 40
0.5
  9
$AUNITS
 70
     0
  9
$AUPREC
 70
     0
  9
$MENU
  1
.
  9
$ELEVATION
 40
0.0
  9
$PELEVATION
 40
0.0
  9
$THICKNESS
 40
0.0
  9
$LIMCHECK
 70
     0
  9
$BLIPMODE
 70
     0
  9
$CHAMFERA
 40
0.5
  9
$CHAMFERB
 40
0.5
  9
$SKPOLY
 70
     0
  9
$TDCREATE
 40
2456653.6603957289
  9
$TDUPDATE
 40
2456865.7272731359
  9
$TDINDWG
 40
0.0001579977
  9
$TDUSRTIMER
 40
0.0001578125
  9
$USRTIMER
 70
     1
  9
$ANGBASE
 50
0.0
  9
$ANGDIR
 70
     0
  9
$PDMODE
 70
     0
  9
$PDSIZE
 40
0.0
  9
$PLINEWID
 40
0.0
  9
$COORDS
 70
     1
  9
$SPLFRAME
 70
     0
  9
$SPLINETYPE
 70
     6
  9
$SPLINESEGS
 70
     8
  9
$ATTDIA
 70
     0
  9
$ATTREQ
 70
     1
  9
$HANDLING
 70
     1
  9
$HANDSEED
  5
4CA
  9
$SURFTAB1
 70
     6
  9
$SURFTAB2
 70
     6
  9
$SURFTYPE
 70
     6
  9
$SURFU
 70
     6
  9
$SURFV
 70
     6
  9
$UCSNAME
  2

  9
$UCSORG
 10
0.0
 20
0.0
 30
0.0
  9
$UCSXDIR
 10
1.0
 20
0.0
 30
0.0
  9
$UCSYDIR
 10
0.0
 20
1.0
 30
0.0
  9
$PUCSNAME
  2

  9
$PUCSORG
 10
0.0
 20
0.0
 30
0.0
  9
$PUCSXDIR
 10
1.0
 20
0.0
 30
0.0
  9
$PUCSYDIR
 10
0.0
 20
1.0
 30
0.0
  9
$USERI1
 70
     0
  9
$USERI2
 70
     0
  9
$USERI3
 70
     0
  9
$USERI4
 70
     0
  9
$USERI5
 70
     0
  9
$USERR1
 40
0.0
  9
$USERR2
 40
0.0
  9
$USERR3
 40
0.0
  9
$USERR4
 40
0.0
  9
$USERR5
 40
0.0
  9
$WORLDVIEW
 70
     1
  9
$SHADEDGE
 70
     3
  9
$SHADEDIF
 70
    70
  9
$TILEMODE
 70
     1
  9
$MAXACTVP
 70
    64
  9
$PLIMCHECK
 70
     0
  9
$PEXTMIN
 10
1.0000000000000000E+020
 20
1.0000000000000000E+020
 30
1.0000000000000000E+020
  9
$PEXTMAX
 10
-1.0000000000000000E+020
 20
-1.0000000000000000E+020
 30
-1.0000000000000000E+020
  9
$PLIMMIN
 10
0.0
 20
0.0
  9
$PLIMMAX
 10
12.0
 20
9.0
  9
$UNITMODE
 70
     0
  9
$VISRETAIN
 70
     1
  9
$PLINEGEN
 70
     0
  9
$PSLTSCALE
 70
     1
  0
ENDSEC
  0
SECTION
  2
TABLES
  0
TABLE
  2
VPORT
 70
     1
  0
VPORT
  2
*ACTIVE
 70
     0
 10
0.0
 20
0.0
 11
1.0
 21
1.0
 12
189.24011723802411
 22
0.0
 13
0.0
 23
0.0
 14
0.5
 24
0.5
 15
0.5
 25
0.5
 16
0.0
 26
0.0
 36
1.0
 17
105.0008259828644
 27
-148.4999796178229
 37
0.0
 40
296.9999592356458
 41
1.9814207650273219
 42
50.0
 43
0.0
 44
0.0
 50
0.0
 51
0.0
 71
     0
 72
   100
 73
     1
 74
     3
 75
     0
 76
     0
 77
     0
 78
     0
  0
ENDTAB
  0
TABLE
  2
LTYPE
 70
     2
  0
LTYPE
  2
CONTINUOUS
 70
     0
  3
Solid line
 72
    65
 73
     0
 40
0.0
  0
LTYPE
  2
PHANTOM2
 70
     0
  3
___ _ _ ___ _ _ ___ _ _ ___ _ _
 72
    65
 73
     6
 40
1.25
 49
0.625
 49
-0.125
 49
0.125
 49
-0.125
 49
0.125
 49
-0.125
  0
ENDTAB
  0
TABLE
  2
LAYER
 70
     2
  0
LAYER
  2
0
 70
     0
 62
     7
  6
CONTINUOUS
  0
LAYER
  2
レイヤー_1
 70
     0
 62
     7
  6
CONTINUOUS
  0
ENDTAB
  0
TABLE
  2
STYLE
 70
     1
  0
STYLE
  2
STANDARD
 70
     0
 40
0.0
 41
1.0
 50
0.0
 71
     0
 42
0.2
  3
txt
  4

  0
ENDTAB
  0
TABLE
  2
VIEW
 70
     0
  0
ENDTAB
  0
TABLE
  2
UCS
 70
     0
  0
ENDTAB
  0
TABLE
  2
APPID
 70
     3
  0
APPID
  2
ACAD
 70
     0
  0
APPID
  2
ACAD_NAV_VCDISPLAY
 70
     0
  0
APPID
  2
ACAD_MLEADERVER
 70
     0
  0
ENDTAB
  0
TABLE
  2
DIMSTYLE
 70
     1
  0
DIMSTYLE
  2
STANDARD
 70
     0
  3

  4

  5

  6

  7

 40
1.0
 41
0.18
 42
0.0625
 43
0.38
 44
0.18
 45
0.0
 46
0.0
 47
0.0
 48
0.0
140
0.18
141
0.09
142
0.0
143
25.399999999999999
144
1.0
145
0.0
146
1.0
147
0.09
 71
     0
 72
     0
 73
     1
 74
     1
 75
     0
 76
     0
 77
     0
 78
     0
170
     0
171
     2
172
     0
173
     0
174
     0
175
     0
176
     0
177
     0
178
     0
  0
ENDTAB
  0
ENDSEC
  0
SECTION
  2
BLOCKS
  0
BLOCK
  8
0
  2
$MODEL_SPACE
 70
     0
 10
0.0
 20
0.0
 30
0.0
  3
$MODEL_SPACE
  1

  0
ENDBLK
  5
21
  8
0
  0
BLOCK
 67
     1
  8
0
  2
$PAPER_SPACE
 70
     0
 10
0.0
 20
0.0
 30
0.0
  3
$PAPER_SPACE
  1

  0
ENDBLK
  5
1D
 67
     1
  8
0
  0
ENDSEC
  0
SECTION
  2
ENTITIES
  0
POLYLINE
  5
3C
  8
レイヤー_1
 66
     1
 10
0.0
 20
0.0
 30
0.0
  0
VERTEX
  5
3D
  8
レイヤー_1
 10
105.9511555724706
 20
-106.6329399690015
 30
0.0
  0
VERTEX
  5
3E
  8
レイヤー_1
 10
105.2648925518088
 20
-106.5931491161469
 30
0.0
  0
VERTEX
  5
3F
  8
レイヤー_1
 10
104.0112223047264
 20
-106.6329399690015
 30
0.0
  0
SEQEND
  5
40
  8
レイヤー_1
  0
POLYLINE
  5
41
  8
レイヤー_1
 66
     1
 10
0.0
 20
0.0
 30
0.0
  0
VERTEX
  5
42
  8
レイヤー_1
 10
58.606241847327617
 20
-120.3809380124395
 30
0.0
  0
VERTEX
  5
43
  8
レイヤー_1
 10
57.798022446487991
 20
-121.1896741776019
 30
0.0
  0
SEQEND
  5
44
  8
レイヤー_1
  0
POLYLINE
  5
45
  8
レイヤー_1
 66
     1
 10
0.0
 20
0.0
 30
0.0
  0
VERTEX
  5
46
  8
レイヤー_1
 10
151.68066402457981
 20
-120.74474009568191
 30
0.0
  0
VERTEX
  5
47
  8
レイヤー_1
 10
151.3974771756923
 20
-120.42072886529409
 30
0.0
  0
SEQEND
  5
48
  8
レイヤー_1
  0
POLYLINE
  5
49
  8
レイヤー_1
 66
     1
 10
0.0
 20
0.0
 30
0.0
  0
VERTEX
  5
4A
  8
レイヤー_1
 10
104.0112223047264
 20
-106.6329399690015
 30
0.0
  0
VERTEX
  5
4B
  8
レイヤー_1
 10
103.84895830737111
 20
-106.6329399690015
 30
0.0
  0
SEQEND
  5
4C
  8
レイヤー_1
  0
POLYLINE
  5
4D
  8
レイヤー_1
 66
     1
 10
0.0
 20
0.0
 30
0.0
  0
VERTEX
  5
4E
  8
レイヤー_1
 10
161.8288817954803
 20
-139.18082407544779
 30
0.0
  0
VERTEX
  5
4F
  8
レイヤー_1
 10
161.8288817954803
 20
-139.10020884109301
 30
0.0
  0
VERTEX
  5
50
  8
レイヤー_1
 10
161.8288817954803
 20
-139.01856007809261
 30
0.0
  0
SEQEND
  5
51
  8
レイヤー_1
  0
POLYLINE
  5
52
  8
レイヤー_1
 66
     1
 10
0.0
 20
0.0
 30
0.0
  0
VERTEX
  5
53
  8
レイヤー_1
 10
161.8288817954803
 20
-139.01856007809261
 30
0.0
  0
VERTEX
  5
54
  8
レイヤー_1
 10
161.666617798125
 20
-137.1189344275258
 30
0.0
  0
VERTEX
  5
55
  8
レイヤー_1
 10
161.30384924352819
 20
-135.17796763113611
 30
0.0
  0
VERTEX
  5
56
  8
レイヤー_1
 10
160.77674963428501
 20
-133.23751759906909
 30
0.0
  0
VERTEX
  5
57
  8
レイヤー_1
 10
160.0088378506228
 20
-131.37819956567981
 30
0.0
  0
VERTEX
  5
58
  8
レイヤー_1
 10
159.07866206960529
 20
-129.51939829661319
 30
0.0
  0
VERTEX
  5
59
  8
レイヤー_1
 10
157.94694820270081
 20
-127.6580132059327
 30
0.0
  0
VERTEX
  5
5A
  8
レイヤー_1
 10
156.65297033844089
 20
-125.8793104068982
 30
0.0
  0
VERTEX
  5
5B
  8
レイヤー_1
 10
155.6421793230686
 20
-124.70677215849349
 30
0.0
  0
SEQEND
  5
5C
  8
レイヤー_1
  0
POLYLINE
  5
5D
  8
レイヤー_1
 66
     1
 10
0.0
 20
0.0
 30
0.0
  0
VERTEX
  5
5E
  8
レイヤー_1
 10
55.00749510343563
 20
-123.89803599333101
 30
0.0
  0
VERTEX
  5
5F
  8
レイヤー_1
 10
54.804923488902944
 20
-124.1409152250412
 30
0.0
  0
VERTEX
  5
60
  8
レイヤー_1
 10
53.308374010110413
 20
-125.8793104068982
 30
0.0
  0
VERTEX
  5
61
  8
レイヤー_1
 10
51.9761555859643
 20
-127.6580132059327
 30
0.0
  0
VERTEX
  5
62
  8
レイヤー_1
 10
50.842374661768567
 20
-129.51939829661319
 30
0.0
  0
VERTEX
  5
63
  8
レイヤー_1
 10
49.913232409396677
 20
-131.37819956567981
 30
0.0
  0
VERTEX
  5
64
  8
レイヤー_1
 10
49.185628242911932
 20
-133.23751759906909
 30
0.0
  0
VERTEX
  5
65
  8
レイヤー_1
 10
48.619254545136847
 20
-135.17796763113611
 30
0.0
  0
VERTEX
  5
66
  8
レイヤー_1
 10
48.2544189332489
 20
-137.1189344275258
 30
0.0
  0
VERTEX
  5
67
  8
レイヤー_1
 10
48.093188464539203
 20
-139.01856007809261
 30
0.0
  0
SEQEND
  5
68
  8
レイヤー_1
  0
POLYLINE
  5
69
  8
レイヤー_1
 66
     1
 10
0.0
 20
0.0
 30
0.0
  0
VERTEX
  5
6A
  8
レイヤー_1
 10
48.093188464539203
 20
-139.01856007809261
 30
0.0
  0
VERTEX
  5
6B
  8
レイヤー_1
 10
48.093188464539203
 20
-139.05938445959279
 30
0.0
  0
VERTEX
  5
6C
  8
レイヤー_1
 10
48.093188464539203
 20
-139.18082407544779
 30
0.0
  0
SEQEND
  5
6D
  8
レイヤー_1
  0
POLYLINE
  5
6E
  8
レイヤー_1
 66
     1
 10
0.0
 20
0.0
 30
0.0
  0
VERTEX
  5
6F
  8
レイヤー_1
 10
66.004239892353112
 20
-182.40299203339231
 30
0.0
  0
VERTEX
  5
70
  8
レイヤー_1
 10
63.78215330436695
 20
-181.02839893477761
 30
0.0
  0
VERTEX
  5
71
  8
レイヤー_1
 10
61.720263656444928
 20
-179.61246469033989
 30
0.0
  0
VERTEX
  5
72
  8
レイヤー_1
 10
59.77722980276404
 20
-178.11798226883849
 30
0.0
  0
VERTEX
  5
73
  8
レイヤー_1
 10
58.039868149552539
 20
-176.53978402704561
 30
0.0
  0
VERTEX
  5
74
  8
レイヤー_1
 10
56.422395819227738
 20
-174.92231169672081
 30
0.0
  0
VERTEX
  5
75
  8
レイヤー_1
 10
54.967187486258197
 20
-173.2655652778642
 30
0.0
  0
VERTEX
  5
76
  8
レイヤー_1
 10
53.714550767821358
 20
-171.5271700960071
 30
0.0
  0
VERTEX
  5
77
  8
レイヤー_1
 10
52.622110989448643
 20
-169.78774138550449
 30
0.0
  0
VERTEX
  5
78
  8
レイヤー_1
 10
51.690901679785611
 20
-168.00903858647001
 30
0.0
  0
VERTEX
  5
79
  8
レイヤー_1
 10
50.964331041946423
 20
-166.19002817025799
 30
0.0
  0
VERTEX
  5
7A
  8
レイヤー_1
 10
50.439298489994343
 20
-164.32967660822311
 30
0.0
  0
VERTEX
  5
7B
  8
レイヤー_1
 10
50.074462878106402
 20
-162.4693250461882
 30
0.0
  0
VERTEX
  5
7C
  8
レイヤー_1
 10
49.913232409396677
 20
-160.61000701279889
 30
0.0
  0
VERTEX
  5
7D
  8
レイヤー_1
 10
49.913232409396677
 20
-158.74965545076401
 30
0.0
  0
VERTEX
  5
7E
  8
レイヤー_1
 10
50.155078112461233
 20
-156.89033741737461
 30
0.0
  0
VERTEX
  5
7F
  8
レイヤー_1
 10
50.520947252994773
 20
-155.02998585533959
 30
0.0
  0
VERTEX
  5
80
  8
レイヤー_1
 10
51.126595039301677
 20
-153.21097543912779
 30
0.0
  0
VERTEX
  5
81
  8
レイヤー_1
 10
51.894506822963891
 20
-151.39196502291591
 30
0.0
  0
VERTEX
  5
82
  8
レイヤー_1
 10
52.864990221158763
 20
-149.61326222388141
 30
0.0
  0
VERTEX
  5
83
  8
レイヤー_1
 10
53.996704088063318
 20
-147.83404266052409
 30
0.0
  0
VERTEX
  5
84
  8
レイヤー_1
 10
55.330989569500588
 20
-146.13595509584451
 30
0.0
  0
VERTEX
  5
85
  8
レイヤー_1
 10
56.786197902470121
 20
-144.47869191266511
 30
0.0
  0
VERTEX
  5
86
  8
レイヤー_1
 10
58.443977849972342
 20
-142.90101043519491
 30
0.0
  0
VERTEX
  5
87
  8
レイヤー_1
 10
60.264021794829823
 20
-141.32539601501591
 30
0.0
  0
VERTEX
  5
88
  8
レイヤー_1
 10
62.245296208397001
 20
-139.86812062475519
 30
0.0
  0
VERTEX
  5
89
  8
レイヤー_1
 10
64.346459944850892
 20
-138.4537366732859
 30
0.0
  0
VERTEX
  5
8A
  8
レイヤー_1
 10
66.610921207305609
 20
-137.1189344275258
 30
0.0
  0
VERTEX
  5
8B
  8
レイヤー_1
 10
68.997338849938174
 20
-135.824956563266
 30
0.0
  0
VERTEX
  5
8C
  8
レイヤー_1
 10
71.502612286811853
 20
-134.6539686078296
 30
0.0
  0
VERTEX
  5
8D
  8
レイヤー_1
 10
74.131909161154525
 20
-133.56152882945679
 30
0.0
  0
VERTEX
  5
8E
  8
レイヤー_1
 10
76.840787741206469
 20
-132.55022104976169
 30
0.0
  0
VERTEX
  5
8F
  8
レイヤー_1
 10
79.670589172790685
 20
-131.6619031788901
 30
0.0
  0
VERTEX
  5
90
  8
レイヤー_1
 10
82.58203936737533
 20
-130.85213348508211
 30
0.0
  0
VERTEX
  5
91
  8
レイヤー_1
 10
85.574104796314813
 20
-130.16587046442041
 30
0.0
  0
VERTEX
  5
92
  8
レイヤー_1
 10
88.646785459609106
 20
-129.55918914946781
 30
0.0
  0
VERTEX
  5
93
  8
レイヤー_1
 10
91.759773740080874
 20
-129.03260630454739
 30
0.0
  0
VERTEX
  5
94
  8
レイヤー_1
 10
94.914103166375639
 20
-128.62901336845039
 30
0.0
  0
VERTEX
  5
95
  8
レイヤー_1
 10
98.108740209847824
 20
-128.34530975524009
 30
0.0
  0
VERTEX
  5
96
  8
レイヤー_1
 10
101.3436848704974
 20
-128.18407928653039
 30
0.0
  0
VERTEX
  5
97
  8
レイヤー_1
 10
104.5765624738559
 20
-128.10294728785269
 30
0.0
  0
VERTEX
  5
98
  8
レイヤー_1
 10
107.8104736058599
 20
-128.14377166935299
 30
0.0
  0
VERTEX
  5
99
  8
レイヤー_1
 10
111.0051106493321
 20
-128.30448537373991
 30
0.0
  0
VERTEX
  5
9A
  8
レイヤー_1
 10
114.2400553099817
 20
-128.54736460545001
 30
0.0
  0
VERTEX
  5
9B
  8
レイヤー_1
 10
117.3933512076308
 20
-128.95147430586979
 30
0.0
  0
VERTEX
  5
9C
  8
レイヤー_1
 10
120.5073730167482
 20
-129.39589162346701
 30
0.0
  0
VERTEX
  5
9D
  8
レイヤー_1
 10
123.5800536800425
 20
-130.00360646706511
 30
0.0
  0
VERTEX
  5
9E
  8
レイヤー_1
 10
126.6124267261594
 20
-130.65007863487219
 30
0.0
  0
VERTEX
  5
9F
  8
レイヤー_1
 10
129.52387692074399
 20
-131.45984832868021
 30
0.0
  0
VERTEX
  5
A0
  8
レイヤー_1
 10
132.39398596950571
 20
-132.34816619955191
 30
0.0
  0
VERTEX
  5
A1
  8
レイヤー_1
 10
135.14317216673501
 20
-133.3191663620695
 30
0.0
  0
VERTEX
  5
A2
  8
レイヤー_1
 10
137.8127766582551
 20
-134.36923146597371
 30
0.0
  0
VERTEX
  5
A3
  8
レイヤー_1
 10
140.3180500951288
 20
-135.54228647870119
 30
0.0
  0
VERTEX
  5
A4
  8
レイヤー_1
 10
142.74477535493881
 20
-136.79543996146089
 30
0.0
  0
VERTEX
  5
A5
  8
レイヤー_1
 10
145.04851070592539
 20
-138.09045135436631
 30
0.0
  0
VERTEX
  5
A6
  8
レイヤー_1
 10
147.19101558820219
 20
-139.50535207015841
 30
0.0
  0
VERTEX
  5
A7
  8
レイヤー_1
 10
149.21363114759239
 20
-140.95952687448229
 30
0.0
  0
VERTEX
  5
A8
  8
レイヤー_1
 10
151.0326415638043
 20
-142.49638397045231
 30
0.0
  0
VERTEX
  5
A9
  8
レイヤー_1
 10
152.73176265712959
 20
-144.0730319192769
 30
0.0
  0
VERTEX
  5
AA
  8
レイヤー_1
 10
154.26758622445391
 20
-145.73081186677911
 30
0.0
  0
VERTEX
  5
AB
  8
レイヤー_1
 10
155.6018717058912
 20
-147.42889943145869
 30
0.0
  0
VERTEX
  5
AC
  8
レイヤー_1
 10
156.8142008071506
 20
-149.1678113776386
 30
0.0
  0
VERTEX
  5
AD
  8
レイヤー_1
 10
157.82602535116851
 20
-150.94754770531861
 30
0.0
  0
VERTEX
  5
AE
  8
レイヤー_1
 10
158.63321122336251
 20
-152.7252169757075
 30
0.0
  0
VERTEX
  5
AF
  8
レイヤー_1
 10
159.28226721278361
 20
-154.58556853774249
 30
0.0
  0
VERTEX
  5
B0
  8
レイヤー_1
 10
159.72565100173529
 20
-156.4045789539544
 30
0.0
  0
VERTEX
  5
B1
  8
レイヤー_1
 10
159.96853023344539
 20
-158.26493051598931
 30
0.0
  0
VERTEX
  5
B2
  8
レイヤー_1
 10
160.04914546780009
 20
-160.12528207802421
 30
0.0
  0
VERTEX
  5
B3
  8
レイヤー_1
 10
159.92822261626799
 20
-162.02490772859099
 30
0.0
  0
VERTEX
  5
B4
  8
レイヤー_1
 10
159.60472815020299
 20
-163.8842257619803
 30
0.0
  0
VERTEX
  5
B5
  8
レイヤー_1
 10
159.1189696867828
 20
-165.70426970683781
 30
0.0
  0
VERTEX
  5
B6
  8
レイヤー_1
 10
158.4316731374754
 20
-167.52431365169531
 30
0.0
  0
VERTEX
  5
B7
  8
レイヤー_1
 10
157.58314611945841
 20
-169.34332406790719
 30
0.0
  0
VERTEX
  5
B8
  8
レイヤー_1
 10
156.5320474869086
 20
-171.12202686694161
 30
0.0
  0
VERTEX
  5
B9
  8
レイヤー_1
 10
155.27837723982631
 20
-172.82114796026701
 30
0.0
  0
VERTEX
  5
BA
  8
レイヤー_1
 10
153.90378414121159
 20
-174.51923552494659
 30
0.0
  0
VERTEX
  5
BB
  8
レイヤー_1
 10
152.32661942806419
 20
-176.1367078552714
 30
0.0
  0
VERTEX
  5
BC
  8
レイヤー_1
 10
150.58822424620709
 20
-177.7128390397732
 30
0.0
  0
VERTEX
  5
BD
  8
レイヤー_1
 10
148.68756506699481
 20
-179.24969613574311
 30
0.0
  0
VERTEX
  5
BE
  8
レイヤー_1
 10
146.6659830362502
 20
-180.7049044687127
 30
0.0
  0
VERTEX
  5
BF
  8
レイヤー_1
 10
144.48317053679591
 20
-182.0784640386818
 30
0.0
  0
VERTEX
  5
C0
  8
レイヤー_1
 10
142.1784016571637
 20
-183.37347543158711
 30
0.0
  0
VERTEX
  5
C1
  8
レイヤー_1
 10
139.71240230882191
 20
-184.58683806149219
 30
0.0
  0
VERTEX
  5
C2
  8
レイヤー_1
 10
137.16475419747971
 20
-185.71855192839669
 30
0.0
  0
VERTEX
  5
C3
  8
レイヤー_1
 10
134.45587561742769
 20
-186.7696505609465
 30
0.0
  0
VERTEX
  5
C4
  8
レイヤー_1
 10
131.7066894201983
 20
-187.6998263419639
 30
0.0
  0
VERTEX
  5
C5
  8
レイヤー_1
 10
128.7952392256137
 20
-188.5886609771583
 30
0.0
  0
VERTEX
  5
C6
  8
レイヤー_1
 10
125.84348141385161
 20
-189.3172986722887
 30
0.0
  0
VERTEX
  5
C7
  8
レイヤー_1
 10
122.8524495135577
 20
-190.00356169295051
 30
0.0
  0
VERTEX
  5
C8
  8
レイヤー_1
 10
119.739461233086
 20
-190.52962777354821
 30
0.0
  0
VERTEX
  5
C9
  8
レイヤー_1
 10
116.5851318067912
 20
-190.9740450911454
 30
0.0
  0
VERTEX
  5
CA
  8
レイヤー_1
 10
113.43183590914209
 20
-191.33888070303331
 30
0.0
  0
VERTEX
  5
CB
  8
レイヤー_1
 10
110.19689124849241
 20
-191.57969287745229
 30
0.0
  0
VERTEX
  5
CC
  8
レイヤー_1
 10
107.0032877336658
 20
-191.7026827862756
 30
0.0
  0
VERTEX
  5
CD
  8
レイヤー_1
 10
103.7683430730163
 20
-191.7026827862756
 30
0.0
  0
VERTEX
  5
CE
  8
レイヤー_1
 10
100.53339841236669
 20
-191.62103402327531
 30
0.0
  0
VERTEX
  5
CF
  8
レイヤー_1
 10
97.299487280362641
 20
-191.41949593738821
 30
0.0
  0
VERTEX
  5
D0
  8
レイヤー_1
 10
94.104850236890456
 20
-191.09600147132321
 30
0.0
  0
VERTEX
  5
D1
  8
レイヤー_1
 10
90.951554339241255
 20
-190.65158415372599
 30
0.0
  0
VERTEX
  5
D2
  8
レイヤー_1
 10
87.87784014730137
 20
-190.12448454448281
 30
0.0
  0
VERTEX
  5
D3
  8
レイヤー_1
 10
84.806193012652614
 20
-189.51883675817589
 30
0.0
  0
VERTEX
  5
D4
  8
レイヤー_1
 10
81.854435200890563
 20
-188.79123259169111
 30
0.0
  0
VERTEX
  5
D5
  8
レイヤー_1
 10
78.942985006305918
 20
-187.9416720450285
 30
0.0
  0
VERTEX
  5
D6
  8
レイヤー_1
 10
76.153491191899136
 20
-187.01252979265661
 30
0.0
  0
VERTEX
  5
D7
  8
レイヤー_1
 10
73.444612611847191
 20
-186.00173877728429
 30
0.0
  0
VERTEX
  5
D8
  8
レイヤー_1
 10
70.857690411973081
 20
-184.86899138173419
 30
0.0
  0
VERTEX
  5
D9
  8
レイヤー_1
 10
68.390657534985678
 20
-183.6959363690066
 30
0.0
  0
VERTEX
  5
DA
  8
レイヤー_1
 10
66.004239892353112
 20
-182.40299203339231
 30
0.0
  0
SEQEND
  5
DB
  8
レイヤー_1
  0
POLYLINE
  5
DC
  8
レイヤー_1
 66
     1
 10
0.0
 20
0.0
 30
0.0
  0
VERTEX
  5
DD
  8
レイヤー_1
 10
145.4939615521682
 20
-136.51328664121891
 30
0.0
  0
VERTEX
  5
DE
  8
レイヤー_1
 10
147.71811519744551
 20
-137.8889132684792
 30
0.0
  0
VERTEX
  5
DF
  8
レイヤー_1
 10
149.8616536083679
 20
-139.34308807280311
 30
0.0
  0
VERTEX
  5
E0
  8
レイヤー_1
 10
151.80055334746649
 20
-140.83912078727289
 30
0.0
  0
VERTEX
  5
E1
  8
レイヤー_1
 10
153.62059729232399
 20
-142.41576873609739
 30
0.0
  0
VERTEX
  5
E2
  8
レイヤー_1
 10
155.27837723982631
 20
-144.0730319192769
 30
0.0
  0
VERTEX
  5
E3
  8
レイヤー_1
 10
156.73358557279579
 20
-145.73081186677911
 30
0.0
  0
VERTEX
  5
E4
  8
レイヤー_1
 10
158.06890458287859
 20
-147.46972381295899
 30
0.0
  0
VERTEX
  5
E5
  8
レイヤー_1
 10
159.20061844978309
 20
-149.24842661199349
 30
0.0
  0
VERTEX
  5
E6
  8
レイヤー_1
 10
160.1700683193325
 20
-151.02816293967351
 30
0.0
  0
VERTEX
  5
E7
  8
レイヤー_1
 10
160.98035477746319
 20
-152.88851450170841
 30
0.0
  0
VERTEX
  5
E8
  8
レイヤー_1
 10
161.58600256377019
 20
-154.74783253509781
 30
0.0
  0
VERTEX
  5
E9
  8
レイヤー_1
 10
161.99011226418989
 20
-156.6071505684871
 30
0.0
  0
VERTEX
  5
EA
  8
レイヤー_1
 10
162.23195796725449
 20
-158.50780974769941
 30
0.0
  0
VERTEX
  5
EB
  8
レイヤー_1
 10
162.27226558443189
 20
-160.36816130973429
 30
0.0
  0
VERTEX
  5
EC
  8
レイヤー_1
 10
162.11103511572219
 20
-162.2667534316555
 30
0.0
  0
VERTEX
  5
ED
  8
レイヤー_1
 10
161.7875406496573
 20
-164.16844613951349
 30
0.0
  0
VERTEX
  5
EE
  8
レイヤー_1
 10
161.30384924352819
 20
-166.0287977015484
 30
0.0
  0
VERTEX
  5
EF
  8
レイヤー_1
 10
160.5752115483979
 20
-167.84780811776031
 30
0.0
  0
VERTEX
  5
F0
  8
レイヤー_1
 10
159.72565100173529
 20
-169.66681853397219
 30
0.0
  0
VERTEX
  5
F1
  8
レイヤー_1
 10
158.67455236918551
 20
-171.48686247882969
 30
0.0
  0
VERTEX
  5
F2
  8
レイヤー_1
 10
157.4219156507487
 20
-173.22525766068671
 30
0.0
  0
VERTEX
  5
F3
  8
レイヤー_1
 10
156.0070149349566
 20
-174.92231169672081
 30
0.0
  0
VERTEX
  5
F4
  8
レイヤー_1
 10
154.47015783898661
 20
-176.58112517286861
 30
0.0
  0
VERTEX
  5
F5
  8
レイヤー_1
 10
152.73176265712959
 20
-178.19859750319341
 30
0.0
  0
VERTEX
  5
F6
  8
レイヤー_1
 10
150.83006994927169
 20
-179.7354545991634
 30
0.0
  0
VERTEX
  5
F7
  8
レイヤー_1
 10
148.80848791852699
 20
-181.22993702066461
 30
0.0
  0
VERTEX
  5
F8
  8
レイヤー_1
 10
146.6267089477183
 20
-182.64587126510239
 30
0.0
  0
VERTEX
  5
F9
  8
レイヤー_1
 10
144.32194006808621
 20
-183.98015674653971
 30
0.0
  0
VERTEX
  5
FA
  8
レイヤー_1
 10
141.85490719109879
 20
-185.23279346497651
 30
0.0
  0
VERTEX
  5
FB
  8
レイヤー_1
 10
139.3082926084021
 20
-186.4058484777041
 30
0.0
  0
VERTEX
  5
FC
  8
レイヤー_1
 10
136.6397216455276
 20
-187.49828825607679
 30
0.0
  0
VERTEX
  5
FD
  8
レイヤー_1
 10
133.84919430247521
 20
-188.46773812562611
 30
0.0
  0
VERTEX
  5
FE
  8
レイヤー_1
 10
130.97908525371361
 20
-189.39791390664359
 30
0.0
  0
VERTEX
  5
FF
  8
レイヤー_1
 10
128.02836097059711
 20
-190.20613330748321
 30
0.0
  0
VERTEX
  5
100
  8
レイヤー_1
 10
124.9959879244802
 20
-190.8934298567905
 30
0.0
  0
VERTEX
  5
101
  8
レイヤー_1
 10
121.8819661153628
 20
-191.50011117174299
 30
0.0
  0
VERTEX
  5
102
  8
レイヤー_1
 10
118.72763668906811
 20
-192.02514372369509
 30
0.0
  0
VERTEX
  5
103
  8
レイヤー_1
 10
115.5340331742415
 20
-192.4302869527605
 30
0.0
  0
VERTEX
  5
104
  8
レイヤー_1
 10
112.2990885135919
 20
-192.71347380164801
 30
0.0
  0
VERTEX
  5
105
  8
レイヤー_1
 10
109.06414385294229
 20
-192.91501188753509
 30
0.0
  0
VERTEX
  5
106
  8
レイヤー_1
 10
105.78992510376089
 20
-192.99562712189001
 30
0.0
  0
VERTEX
  5
107
  8
レイヤー_1
 10
102.5146728259338
 20
-192.95635303335811
 30
0.0
  0
VERTEX
  5
108
  8
レイヤー_1
 10
99.239420548106807
 20
-192.83439665318031
 30
0.0
  0
VERTEX
  5
109
  8
レイヤー_1
 10
96.005509416102797
 20
-192.5915174214702
 30
0.0
  0
VERTEX
  5
10A
  8
レイヤー_1
 10
92.770564755453194
 20
-192.22874886687339
 30
0.0
  0
VERTEX
  5
10B
  8
レイヤー_1
 10
89.616235329158442
 20
-191.78226449198499
 30
0.0
  0
VERTEX
  5
10C
  8
レイヤー_1
 10
86.462939431509284
 20
-191.2169243228555
 30
0.0
  0
VERTEX
  5
10D
  8
レイヤー_1
 10
83.431599914037918
 20
-190.5709689193711
 30
0.0
  0
VERTEX
  5
10E
  8
レイヤー_1
 10
80.439534485098463
 20
-189.8020236070634
 30
0.0
  0
VERTEX
  5
10F
  8
レイヤー_1
 10
77.487776673336413
 20
-188.95349658904641
 30
0.0
  0
VERTEX
  5
110
  8
レイヤー_1
 10
74.65694171310659
 20
-187.9819796622059
 30
0.0
  0
VERTEX
  5
111
  8
レイヤー_1
 10
71.94806313305466
 20
-186.93088102965621
 30
0.0
  0
VERTEX
  5
112
  8
レイヤー_1
 10
69.320833316003132
 20
-185.80020069139721
 30
0.0
  0
VERTEX
  5
113
  8
レイヤー_1
 10
66.813492821838295
 20
-184.58683806149219
 30
0.0
  0
VERTEX
  5
114
  8
レイヤー_1
 10
64.42707517920573
 20
-183.29182666858679
 30
0.0
  0
VERTEX
  5
115
  8
レイヤー_1
 10
62.203955062574003
 20
-181.91723356997201
 30
0.0
  0
VERTEX
  5
116
  8
レイヤー_1
 10
60.102791326120141
 20
-180.50233285418
 30
0.0
  0
VERTEX
  5
117
  8
レイヤー_1
 10
58.120483383907377
 20
-178.9665092868556
 30
0.0
  0
VERTEX
  5
118
  8
レイヤー_1
 10
56.3417805848729
 20
-177.3893445737082
 30
0.0
  0
VERTEX
  5
119
  8
レイヤー_1
 10
54.68296710872508
 20
-175.7718722433834
 30
0.0
  0
VERTEX
  5
11A
  8
レイヤー_1
 10
53.187451158578128
 20
-174.07378467870379
 30
0.0
  0
VERTEX
  5
11B
  8
レイヤー_1
 10
51.85419920578645
 20
-172.3353894968466
 30
0.0
  0
VERTEX
  5
11C
  8
レイヤー_1
 10
50.722485338881881
 20
-170.59699431498959
 30
0.0
  0
VERTEX
  5
11D
  8
レイヤー_1
 10
49.750968412041424
 20
-168.7769503701322
 30
0.0
  0
VERTEX
  5
11E
  8
レイヤー_1
 10
48.984090157024823
 20
-166.9579399539202
 30
0.0
  0
VERTEX
  5
11F
  8
レイヤー_1
 10
48.376375313426742
 20
-165.09862192053089
 30
0.0
  0
VERTEX
  5
120
  8
レイヤー_1
 10
47.931957995829499
 20
-163.19796274131849
 30
0.0
  0
VERTEX
  5
121
  8
レイヤー_1
 10
47.730419909942391
 20
-161.33864470792921
 30
0.0
  0
VERTEX
  5
122
  8
レイヤー_1
 10
47.648771146941968
 20
-159.43798552871689
 30
0.0
  0
VERTEX
  5
123
  8
レイヤー_1
 10
47.810001615651672
 20
-157.53732634950461
 30
0.0
  0
VERTEX
  5
124
  8
レイヤー_1
 10
48.134529610362208
 20
-155.67800831611521
 30
0.0
  0
VERTEX
  5
125
  8
レイヤー_1
 10
48.65956216231428
 20
-153.8166232254346
 30
0.0
  0
VERTEX
  5
126
  8
レイヤー_1
 10
49.346858711621621
 20
-151.95833872069099
 30
0.0
  0
VERTEX
  5
127
  8
レイヤー_1
 10
50.236726875461663
 20
-150.13726124718789
 30
0.0
  0
VERTEX
  5
128
  8
レイヤー_1
 10
51.28782550801138
 20
-148.36010874112179
 30
0.0
  0
VERTEX
  5
129
  8
レイヤー_1
 10
52.500154609270787
 20
-146.58037241344169
 30
0.0
  0
VERTEX
  5
12A
  8
レイヤー_1
 10
53.91608885370848
 20
-144.88228484876211
 30
0.0
  0
VERTEX
  5
12B
  8
レイヤー_1
 10
55.493253566855863
 20
-143.22450490125979
 30
0.0
  0
VERTEX
  5
12C
  8
レイヤー_1
 10
57.191341131535502
 20
-141.64785695243529
 30
0.0
  0
VERTEX
  5
12D
  8
レイヤー_1
 10
59.092000310747842
 20
-140.0712090036107
 30
0.0
  0
VERTEX
  5
12E
  8
レイヤー_1
 10
61.11254881284686
 20
-138.61496714199561
 30
0.0
  0
VERTEX
  5
12F
  8
レイヤー_1
 10
63.295361312301161
 20
-137.20058319052629
 30
0.0
  0
VERTEX
  5
130
  8
レイヤー_1
 10
65.600130191933303
 20
-135.8652641804434
 30
0.0
  0
VERTEX
  5
131
  8
レイヤー_1
 10
68.067163068920706
 20
-134.61314422632941
 30
0.0
  0
VERTEX
  5
132
  8
レイヤー_1
 10
70.614811180262961
 20
-133.4406059779246
 30
0.0
  0
VERTEX
  5
133
  8
レイヤー_1
 10
73.282348614491923
 20
-132.34816619955191
 30
0.0
  0
VERTEX
  5
134
  8
レイヤー_1
 10
76.072875957544284
 20
-131.33737518417959
 30
0.0
  0
VERTEX
  5
135
  8
レイヤー_1
 10
78.942985006305918
 20
-130.4480237846623
 30
0.0
  0
VERTEX
  5
136
  8
レイヤー_1
 10
81.894742818067982
 20
-129.63980438382271
 30
0.0
  0
VERTEX
  5
137
  8
レイヤー_1
 10
84.927115864184898
 20
-128.91168345301509
 30
0.0
  0
VERTEX
  5
138
  8
レイヤー_1
 10
88.040104144656624
 20
-128.30448537373991
 30
0.0
  0
VERTEX
  5
139
  8
レイヤー_1
 10
91.193400042305839
 20
-127.820277203288
 30
0.0
  0
VERTEX
  5
13A
  8
レイヤー_1
 10
94.388037085777995
 20
-127.4151339742226
 30
0.0
  0
VERTEX
  5
13B
  8
レイヤー_1
 10
97.621948217782005
 20
-127.09215627248039
 30
0.0
  0
VERTEX
  5
13C
  8
レイヤー_1
 10
100.897200495609
 20
-126.93092580377071
 30
0.0
  0
VERTEX
  5
13D
  8
レイヤー_1
 10
104.13111162761309
 20
-126.8492770407703
 30
0.0
  0
VERTEX
  5
13E
  8
レイヤー_1
 10
107.40739743408569
 20
-126.8492770407703
 30
0.0
  0
VERTEX
  5
13F
  8
レイヤー_1
 10
110.6816161832671
 20
-127.0115410381256
 30
0.0
  0
VERTEX
  5
140
  8
レイヤー_1
 10
113.9165608439167
 20
-127.2533867411901
 30
0.0
  0
VERTEX
  5
141
  8
レイヤー_1
 10
117.1515055045663
 20
-127.57739797157789
 30
0.0
  0
VERTEX
  5
142
  8
レイヤー_1
 10
120.3048014022155
 20
-128.0233655821435
 30
0.0
  0
VERTEX
  5
143
  8
レイヤー_1
 10
123.4591308285102
 20
-128.5881889869502
 30
0.0
  0
VERTEX
  5
144
  8
レイヤー_1
 10
126.5318114918045
 20
-129.27548553625749
 30
0.0
  0
VERTEX
  5
145
  8
レイヤー_1
 10
129.52387692074399
 20
-130.00360646706511
 30
0.0
  0
VERTEX
  5
146
  8
レイヤー_1
 10
132.43429358668311
 20
-130.89192433793681
 30
0.0
  0
VERTEX
  5
147
  8
レイヤー_1
 10
135.2651285469129
 20
-131.8231336475998
 30
0.0
  0
VERTEX
  5
148
  8
レイヤー_1
 10
137.9729735983193
 20
-132.8742322801495
 30
0.0
  0
VERTEX
  5
149
  8
レイヤー_1
 10
140.60123694401639
 20
-134.0064629113769
 30
0.0
  0
VERTEX
  5
14A
  8
レイヤー_1
 10
143.10961096682681
 20
-135.2187920126363
 30
0.0
  0
VERTEX
  5
14B
  8
レイヤー_1
 10
145.4939615521682
 20
-136.51328664121891
 30
0.0
  0
SEQEND
  5
14C
  8
レイヤー_1
  0
POLYLINE
  5
14D
  8
レイヤー_1
 66
     1
 10
0.0
 20
0.0
 30
0.0
  0
VERTEX
  5
14E
  8
レイヤー_1
 10
57.392879217422617
 20
-121.4320366449892
 30
0.0
  0
VERTEX
  5
14F
  8
レイヤー_1
 10
57.87863768084285
 20
-120.82432180139121
 30
0.0
  0
VERTEX
  5
150
  8
レイヤー_1
 10
59.37312010234421
 20
-119.2487073812121
 30
0.0
  0
VERTEX
  5
151
  8
レイヤー_1
 10
60.991625961314597
 20
-117.67102590374201
 30
0.0
  0
VERTEX
  5
152
  8
レイヤー_1
 10
62.770328760349088
 20
-116.2158175707724
 30
0.0
  0
VERTEX
  5
153
  8
レイヤー_1
 10
64.710262028093254
 20
-114.7595757091573
 30
0.0
  0
VERTEX
  5
154
  8
レイヤー_1
 10
66.813492821838295
 20
-113.42580699204289
 30
0.0
  0
VERTEX
  5
155
  8
レイヤー_1
 10
68.997338849938174
 20
-112.1328626564286
 30
0.0
  0
VERTEX
  5
156
  8
レイヤー_1
 10
71.381689435279583
 20
-110.9189832622008
 30
0.0
  0
VERTEX
  5
157
  8
レイヤー_1
 10
73.849755840912565
 20
-109.82809377679651
 30
0.0
  0
VERTEX
  5
158
  8
レイヤー_1
 10
76.396370423609241
 20
-108.7764783799239
 30
0.0
  0
VERTEX
  5
159
  8
レイヤー_1
 10
79.104215475015621
 20
-107.8463025989065
 30
0.0
  0
VERTEX
  5
15A
  8
レイヤー_1
 10
81.854435200890563
 20
-106.9977755808895
 30
0.0
  0
VERTEX
  5
15B
  8
レイヤー_1
 10
84.724544249652183
 20
-106.2696546500819
 30
0.0
  0
VERTEX
  5
15C
  8
レイヤー_1
 10
87.635994444236857
 20
-105.6231824822748
 30
0.0
  0
VERTEX
  5
15D
  8
レイヤー_1
 10
90.628059873176312
 20
-105.0562920201769
 30
0.0
  0
VERTEX
  5
15E
  8
レイヤー_1
 10
93.700740536470633
 20
-104.6118747025797
 30
0.0
  0
VERTEX
  5
15F
  8
レイヤー_1
 10
96.773421199764996
 20
-104.2883802365147
 30
0.0
  0
VERTEX
  5
160
  8
レイヤー_1
 10
99.887443008882315
 20
-104.04550100480461
 30
0.0
  0
VERTEX
  5
161
  8
レイヤー_1
 10
103.0004312893541
 20
-103.9240613889495
 30
0.0
  0
VERTEX
  5
162
  8
レイヤー_1
 10
106.1537271870032
 20
-103.9240613889495
 30
0.0
  0
VERTEX
  5
163
  8
レイヤー_1
 10
109.266715467475
 20
-104.00571015195
 30
0.0
  0
VERTEX
  5
164
  8
レイヤー_1
 10
112.3807372765923
 20
-104.2077650021599
 30
0.0
  0
VERTEX
  5
165
  8
レイヤー_1
 10
115.4937255570641
 20
-104.5322929968704
 30
0.0
  0
VERTEX
  5
166
  8
レイヤー_1
 10
118.526098603181
 20
-104.93588593296739
 30
0.0
  0
VERTEX
  5
167
  8
レイヤー_1
 10
121.5584716492979
 20
-105.4609184849195
 30
0.0
  0
VERTEX
  5
168
  8
レイヤー_1
 10
124.468888315237
 20
-106.0681165641948
 30
0.0
  0
VERTEX
  5
169
  8
レイヤー_1
 10
127.37930498117601
 20
-106.79520396635679
 30
0.0
  0
VERTEX
  5
16A
  8
レイヤー_1
 10
130.16983232422839
 20
-107.6447645130194
 30
0.0
  0
VERTEX
  5
16B
  8
レイヤー_1
 10
132.87974443292589
 20
-108.5335991482138
 30
0.0
  0
VERTEX
  5
16C
  8
レイヤー_1
 10
135.46666663280001
 20
-109.54542369223169
 30
0.0
  0
VERTEX
  5
16D
  8
レイヤー_1
 10
137.9729735983193
 20
-110.63682994195889
 30
0.0
  0
VERTEX
  5
16E
  8
レイヤー_1
 10
140.35835771230629
 20
-111.8501925718638
 30
0.0
  0
VERTEX
  5
16F
  8
レイヤー_1
 10
142.58354488622911
 20
-113.1033460546235
 30
0.0
  0
VERTEX
  5
170
  8
レイヤー_1
 10
144.72604976850599
 20
-114.43763153606071
 30
0.0
  0
VERTEX
  5
171
  8
レイヤー_1
 10
146.6659830362502
 20
-115.8520154875301
 30
0.0
  0
VERTEX
  5
172
  8
レイヤー_1
 10
148.5263345982851
 20
-117.30825734914519
 30
0.0
  0
VERTEX
  5
173
  8
レイヤー_1
 10
150.18308101714169
 20
-118.84408091646949
 30
0.0
  0
VERTEX
  5
174
  8
レイヤー_1
 10
151.68066402457981
 20
-120.42072886529409
 30
0.0
  0
VERTEX
  5
175
  8
レイヤー_1
 10
152.48784989677389
 20
-121.3922457921346
 30
0.0
  0
SEQEND
  5
176
  8
レイヤー_1
  0
POLYLINE
  5
177
  8
レイヤー_1
 66
     1
 10
0.0
 20
0.0
 30
0.0
  0
VERTEX
  5
178
  8
レイヤー_1
 10
65.438899723223614
 20
-156.93167856319761
 30
0.0
  0
VERTEX
  5
179
  8
レイヤー_1
 10
65.722086572111152
 20
-156.5658094226641
 30
0.0
  0
VERTEX
  5
17A
  8
レイヤー_1
 10
66.004239892353112
 20
-156.00150278218021
 30
0.0
  0
VERTEX
  5
17B
  8
レイヤー_1
 10
66.126196272530962
 20
-155.43512908440511
 30
0.0
  0
VERTEX
  5
17C
  8
レイヤー_1
 10
66.004239892353112
 20
-154.86875538663
 30
0.0
  0
VERTEX
  5
17D
  8
レイヤー_1
 10
65.722086572111152
 20
-154.30341521750049
 30
0.0
  0
VERTEX
  5
17E
  8
レイヤー_1
 10
65.237361637336491
 20
-153.77631560825731
 30
0.0
  0
VERTEX
  5
17F
  8
レイヤー_1
 10
64.589339176560998
 20
-153.33293181930571
 30
0.0
  0
VERTEX
  5
180
  8
レイヤー_1
 10
63.821427392898819
 20
-152.96912973606331
 30
0.0
  0
VERTEX
  5
181
  8
レイヤー_1
 10
62.932592757704363
 20
-152.68594288717571
 30
0.0
  0
VERTEX
  5
182
  8
レイヤー_1
 10
61.962109359509469
 20
-152.5236788898205
 30
0.0
  0
VERTEX
  5
183
  8
レイヤー_1
 10
60.951318344137171
 20
-152.44306365546561
 30
0.0
  0
SEQEND
  5
184
  8
レイヤー_1
  0
POLYLINE
  5
185
  8
レイヤー_1
 66
     1
 10
0.0
 20
0.0
 30
0.0
  0
VERTEX
  5
186
  8
レイヤー_1
 10
60.951318344137171
 20
-152.44306365546561
 30
0.0
  0
VERTEX
  5
187
  8
レイヤー_1
 10
59.940527328764858
 20
-152.5236788898205
 30
0.0
  0
VERTEX
  5
188
  8
レイヤー_1
 10
58.970043930569993
 20
-152.68594288717571
 30
0.0
  0
VERTEX
  5
189
  8
レイヤー_1
 10
58.080175766729958
 20
-152.96912973606331
 30
0.0
  0
VERTEX
  5
18A
  8
レイヤー_1
 10
57.312263983067773
 20
-153.33293181930571
 30
0.0
  0
VERTEX
  5
18B
  8
レイヤー_1
 10
56.665275050937851
 20
-153.77631560825731
 30
0.0
  0
VERTEX
  5
18C
  8
レイヤー_1
 10
56.179516587517632
 20
-154.30341521750049
 30
0.0
  0
VERTEX
  5
18D
  8
レイヤー_1
 10
55.897363267275672
 20
-154.86875538663
 30
0.0
  0
VERTEX
  5
18E
  8
レイヤー_1
 10
55.816748032920813
 20
-155.43512908440511
 30
0.0
  0
VERTEX
  5
18F
  8
レイヤー_1
 10
55.897363267275672
 20
-156.00150278218021
 30
0.0
  0
VERTEX
  5
190
  8
レイヤー_1
 10
56.179516587517632
 20
-156.5658094226641
 30
0.0
  0
VERTEX
  5
191
  8
レイヤー_1
 10
56.504044582228161
 20
-156.93167856319761
 30
0.0
  0
SEQEND
  5
192
  8
レイヤー_1
  0
POLYLINE
  5
193
  8
レイヤー_1
 66
     1
 10
0.0
 20
0.0
 30
0.0
  0
VERTEX
  5
194
  8
レイヤー_1
 10
66.126196272530962
 20
-155.43512908440511
 30
0.0
  0
VERTEX
  5
195
  8
レイヤー_1
 10
66.369075504241067
 20
-154.9896782381623
 30
0.0
  0
VERTEX
  5
196
  8
レイヤー_1
 10
66.448657209950341
 20
-154.54629444921059
 30
0.0
  0
SEQEND
  5
197
  8
レイヤー_1
  0
POLYLINE
  5
198
  8
レイヤー_1
 66
     1
 10
0.0
 20
0.0
 30
0.0
  0
VERTEX
  5
199
  8
レイヤー_1
 10
55.493253566855863
 20
-154.58556853774249
 30
0.0
  0
VERTEX
  5
19A
  8
レイヤー_1
 10
55.53252765538771
 20
-154.86875538663
 30
0.0
  0
VERTEX
  5
19B
  8
レイヤー_1
 10
55.816748032920813
 20
-155.43512908440511
 30
0.0
  0
SEQEND
  5
19C
  8
レイヤー_1
  0
POLYLINE
  5
19D
  8
レイヤー_1
 66
     1
 10
0.0
 20
0.0
 30
0.0
  0
VERTEX
  5
19E
  8
レイヤー_1
 10
65.03479002280379
 20
-153.17066782195039
 30
0.0
  0
VERTEX
  5
19F
  8
レイヤー_1
 10
65.237361637336491
 20
-153.29262420212831
 30
0.0
  0
VERTEX
  5
1A0
  8
レイヤー_1
 10
65.883317040820842
 20
-153.77631560825731
 30
0.0
  0
VERTEX
  5
1A1
  8
レイヤー_1
 10
66.085888655353514
 20
-153.97785369414439
 30
0.0
  0
SEQEND
  5
1A2
  8
レイヤー_1
  0
POLYLINE
  5
1A3
  8
レイヤー_1
 66
     1
 10
0.0
 20
0.0
 30
0.0
  0
VERTEX
  5
1A4
  8
レイヤー_1
 10
56.018286118807929
 20
-153.8166232254346
 30
0.0
  0
VERTEX
  5
1A5
  8
レイヤー_1
 10
56.62393390511486
 20
-153.33293181930571
 30
0.0
  0
VERTEX
  5
1A6
  8
レイヤー_1
 10
57.230615220067349
 20
-152.96912973606331
 30
0.0
  0
SEQEND
  5
1A7
  8
レイヤー_1
  0
POLYLINE
  5
1A8
  8
レイヤー_1
 66
     1
 10
0.0
 20
0.0
 30
0.0
  0
VERTEX
  5
1A9
  8
レイヤー_1
 10
56.018286118807929
 20
-153.8166232254346
 30
0.0
  0
VERTEX
  5
1AA
  8
レイヤー_1
 10
55.977978501630503
 20
-153.8166232254346
 30
0.0
  0
VERTEX
  5
1AB
  8
レイヤー_1
 10
55.45294594967843
 20
-154.54629444921059
 30
0.0
  0
VERTEX
  5
1AC
  8
レイヤー_1
 10
55.210066717968331
 20
-155.7575900218244
 30
0.0
  0
VERTEX
  5
1AD
  8
レイヤー_1
 10
55.330989569500588
 20
-156.2433484852447
 30
0.0
  0
SEQEND
  5
1AE
  8
レイヤー_1
  0
POLYLINE
  5
1AF
  8
レイヤー_1
 66
     1
 10
0.0
 20
0.0
 30
0.0
  0
VERTEX
  5
1B0
  8
レイヤー_1
 10
66.085888655353514
 20
-153.97785369414439
 30
0.0
  0
VERTEX
  5
1B1
  8
レイヤー_1
 10
65.277669254513924
 20
-153.25231658495079
 30
0.0
  0
VERTEX
  5
1B2
  8
レイヤー_1
 10
64.225537093318621
 20
-152.88851450170841
 30
0.0
  0
VERTEX
  5
1B3
  8
レイヤー_1
 10
62.325911442751853
 20
-152.44306365546561
 30
0.0
  0
VERTEX
  5
1B4
  8
レイヤー_1
 10
60.547208643717369
 20
-152.3211072752878
 30
0.0
  0
VERTEX
  5
1B5
  8
レイヤー_1
 10
59.496110011167637
 20
-152.36141489246509
 30
0.0
  0
VERTEX
  5
1B6
  8
レイヤー_1
 10
58.485318995795339
 20
-152.56398650699791
 30
0.0
  0
VERTEX
  5
1B7
  8
レイヤー_1
 10
57.59545083195529
 20
-152.84820688453101
 30
0.0
  0
VERTEX
  5
1B8
  8
レイヤー_1
 10
56.786197902470121
 20
-153.21097543912779
 30
0.0
  0
VERTEX
  5
1B9
  8
レイヤー_1
 10
56.018286118807929
 20
-153.8166232254346
 30
0.0
  0
SEQEND
  5
1BA
  8
レイヤー_1
  0
POLYLINE
  5
1BB
  8
レイヤー_1
 66
     1
 10
0.0
 20
0.0
 30
0.0
  0
VERTEX
  5
1BC
  8
レイヤー_1
 10
67.622745751323478
 20
-154.86875538663
 30
0.0
  0
VERTEX
  5
42D
  8
0
 10
67.622745751323478
 20
-154.86875538663
 30
0.0
  0
SEQEND
  5
1BD
  8
レイヤー_1
  0
POLYLINE
  5
1BE
  8
レイヤー_1
 66
     1
 10
0.0
 20
0.0
 30
0.0
  0
VERTEX
  5
1BF
  8
レイヤー_1
 10
51.9761555859643
 20
-167.36204965434001
 30
0.0
  0
VERTEX
  5
1C0
  8
レイヤー_1
 10
51.9761555859643
 20
-167.36204965434001
 30
0.0
  0
VERTEX
  5
1C1
  8
レイヤー_1
 10
51.934814440141288
 20
-167.32070850851699
 30
0.0
  0
VERTEX
  5
1C2
  8
レイヤー_1
 10
51.894506822963891
 20
-167.24009327416221
 30
0.0
  0
SEQEND
  5
1C3
  8
レイヤー_1
  0
POLYLINE
  5
1C4
  8
レイヤー_1
 66
     1
 10
0.0
 20
0.0
 30
0.0
  0
VERTEX
  5
1C5
  8
レイヤー_1
 10
50.155078112461233
 20
-156.6887993314875
 30
0.0
  0
VERTEX
  5
1C6
  8
レイヤー_1
 10
50.114770495283807
 20
-157.90112843274699
 30
0.0
  0
SEQEND
  5
1C7
  8
レイヤー_1
  0
POLYLINE
  5
1C8
  8
レイヤー_1
 66
     1
 10
0.0
 20
0.0
 30
0.0
  0
VERTEX
  5
1C9
  8
レイヤー_1
 10
67.339558902435954
 20
-145.48844939939181
 30
0.0
  0
VERTEX
  5
1CA
  8
レイヤー_1
 10
67.339558902435954
 20
-145.48844939939181
 30
0.0
  0
SEQEND
  5
1CB
  8
レイヤー_1
  0
POLYLINE
  5
1CC
  8
レイヤー_1
 66
     1
 10
0.0
 20
0.0
 30
0.0
  0
VERTEX
  5
1CD
  8
レイヤー_1
 10
67.339558902435954
 20
-145.48844939939181
 30
0.0
  0
VERTEX
  5
1CE
  8
レイヤー_1
 10
67.339558902435954
 20
-145.36804331218229
 30
0.0
  0
SEQEND
  5
1CF
  8
レイヤー_1
  0
POLYLINE
  5
1D0
  8
レイヤー_1
 66
     1
 10
0.0
 20
0.0
 30
0.0
  0
VERTEX
  5
1D1
  8
レイヤー_1
 10
59.940527328764858
 20
-162.14686410876891
 30
0.0
  0
VERTEX
  5
1D2
  8
レイヤー_1
 10
60.667097966604061
 20
-162.22747934312369
 30
0.0
  0
VERTEX
  5
1D3
  8
レイヤー_1
 10
61.314086898733969
 20
-162.4290174290108
 30
0.0
  0
VERTEX
  5
1D4
  8
レイヤー_1
 10
61.881494125154632
 20
-162.75354542372131
 30
0.0
  0
VERTEX
  5
1D5
  8
レイヤー_1
 10
62.285603825574427
 20
-163.11734750696371
 30
0.0
  0
VERTEX
  5
1D6
  8
レイヤー_1
 10
62.406526677106697
 20
-163.52145720738349
 30
0.0
  0
VERTEX
  5
1D7
  8
レイヤー_1
 10
62.325911442751853
 20
-163.92453337915779
 30
0.0
  0
VERTEX
  5
1D8
  8
レイヤー_1
 10
62.042724593864307
 20
-164.2490613738683
 30
0.0
  0
VERTEX
  5
1D9
  8
レイヤー_1
 10
61.556966130444088
 20
-164.49090707693281
 30
0.0
  0
VERTEX
  5
1DA
  8
レイヤー_1
 10
60.909977198314166
 20
-164.57255583993319
 30
0.0
  0
VERTEX
  5
1DB
  8
レイヤー_1
 10
60.183406560474999
 20
-164.57255583993319
 30
0.0
  0
VERTEX
  5
1DC
  8
レイヤー_1
 10
59.496110011167637
 20
-164.37101775404611
 30
0.0
  0
VERTEX
  5
1DD
  8
レイヤー_1
 10
58.890462224860713
 20
-164.12710499369049
 30
0.0
  0
VERTEX
  5
1DE
  8
レイヤー_1
 10
58.485318995795339
 20
-163.76433643909371
 30
0.0
  0
VERTEX
  5
1DF
  8
レイヤー_1
 10
58.241406235439641
 20
-163.36022673867379
 30
0.0
  0
VERTEX
  5
1E0
  8
レイヤー_1
 10
58.241406235439641
 20
-162.95611703825401
 30
0.0
  0
VERTEX
  5
1E1
  8
レイヤー_1
 10
58.485318995795339
 20
-162.59128142636609
 30
0.0
  0
VERTEX
  5
1E2
  8
レイヤー_1
 10
58.929736313392567
 20
-162.34840219465599
 30
0.0
  0
VERTEX
  5
1E3
  8
レイヤー_1
 10
59.535384099699478
 20
-162.18613819730069
 30
0.0
  0
VERTEX
  5
1E4
  8
レイヤー_1
 10
59.940527328764858
 20
-162.14686410876891
 30
0.0
  0
SEQEND
  5
1E5
  8
レイヤー_1
  0
POLYLINE
  5
1E6
  8
レイヤー_1
 66
     1
 10
0.0
 20
0.0
 30
0.0
  0
VERTEX
  5
1E7
  8
レイヤー_1
 10
64.14492185896377
 20
-146.8232516451518
 30
0.0
  0
VERTEX
  5
1E8
  8
レイヤー_1
 10
65.237361637336491
 20
-146.94365773236129
 30
0.0
  0
VERTEX
  5
1E9
  8
レイヤー_1
 10
66.247119124063218
 20
-147.30745981560369
 30
0.0
  0
VERTEX
  5
1EA
  8
レイヤー_1
 10
67.096679670725834
 20
-147.83404266052409
 30
0.0
  0
VERTEX
  5
1EB
  8
レイヤー_1
 10
67.662019839855333
 20
-148.48051482833131
 30
0.0
  0
VERTEX
  5
1EC
  8
レイヤー_1
 10
67.864591454388034
 20
-149.1678113776386
 30
0.0
  0
VERTEX
  5
1ED
  8
レイヤー_1
 10
67.70336098567833
 20
-149.81480030976849
 30
0.0
  0
VERTEX
  5
1EE
  8
レイヤー_1
 10
67.218636050903683
 20
-150.380140478898
 30
0.0
  0
VERTEX
  5
1EF
  8
レイヤー_1
 10
66.4093831214185
 20
-150.78425017931781
 30
0.0
  0
VERTEX
  5
1F0
  8
レイヤー_1
 10
65.398592106046195
 20
-150.94754770531861
 30
0.0
  0
VERTEX
  5
1F1
  8
レイヤー_1
 10
64.346459944850892
 20
-150.9062065594957
 30
0.0
  0
VERTEX
  5
1F2
  8
レイヤー_1
 10
63.295361312301161
 20
-150.62301971060811
 30
0.0
  0
VERTEX
  5
1F3
  8
レイヤー_1
 10
62.365185531283707
 20
-150.13726124718789
 30
0.0
  0
VERTEX
  5
1F4
  8
レイヤー_1
 10
61.720263656444928
 20
-149.531613460881
 30
0.0
  0
VERTEX
  5
1F5
  8
レイヤー_1
 10
61.395735661734399
 20
-148.84431691157371
 30
0.0
  0
VERTEX
  5
1F6
  8
レイヤー_1
 10
61.436043278911818
 20
-148.1580538909119
 30
0.0
  0
VERTEX
  5
1F7
  8
レイヤー_1
 10
61.841186507977213
 20
-147.5503390473138
 30
0.0
  0
VERTEX
  5
1F8
  8
レイヤー_1
 10
62.568790674461958
 20
-147.10592172971661
 30
0.0
  0
VERTEX
  5
1F9
  8
レイヤー_1
 10
63.498966455479433
 20
-146.86407602665199
 30
0.0
  0
VERTEX
  5
1FA
  8
レイヤー_1
 10
64.14492185896377
 20
-146.8232516451518
 30
0.0
  0
SEQEND
  5
1FB
  8
レイヤー_1
  0
POLYLINE
  5
1FC
  8
レイヤー_1
 66
     1
 10
0.0
 20
0.0
 30
0.0
  0
VERTEX
  5
1FD
  8
レイヤー_1
 10
52.297582994738107
 20
-168.1299614380022
 30
0.0
  0
VERTEX
  5
1FE
  8
レイヤー_1
 10
51.165869127833538
 20
-165.4210828579503
 30
0.0
  0
VERTEX
  5
1FF
  8
レイヤー_1
 10
50.640836575881458
 20
-163.56279835320649
 30
0.0
  0
VERTEX
  5
200
  8
レイヤー_1
 10
50.278068021284639
 20
-161.70244679117161
 30
0.0
  0
VERTEX
  5
201
  8
レイヤー_1
 10
50.114770495283807
 20
-159.80075408331371
 30
0.0
  0
VERTEX
  5
202
  8
レイヤー_1
 10
50.196419258284223
 20
-157.94246957857001
 30
0.0
  0
VERTEX
  5
203
  8
レイヤー_1
 10
50.397957344171353
 20
-156.04284392800321
 30
0.0
  0
VERTEX
  5
204
  8
レイヤー_1
 10
50.842374661768567
 20
-154.18042530867709
 30
0.0
  0
VERTEX
  5
205
  8
レイヤー_1
 10
51.449055976721063
 20
-152.4027560382882
 30
0.0
  0
SEQEND
  5
206
  8
レイヤー_1
  0
POLYLINE
  5
207
  8
レイヤー_1
 66
     1
 10
0.0
 20
0.0
 30
0.0
  0
VERTEX
  5
208
  8
レイヤー_1
 10
67.70336098567833
 20
-145.57009816239221
 30
0.0
  0
VERTEX
  5
209
  8
レイヤー_1
 10
67.70336098567833
 20
-145.57009816239221
 30
0.0
  0
SEQEND
  5
20A
  8
レイヤー_1
  0
POLYLINE
  5
20B
  8
レイヤー_1
 66
     1
 10
0.0
 20
0.0
 30
0.0
  0
VERTEX
  5
20C
  8
レイヤー_1
 10
159.8062662360901
 20
-157.90112843274699
 30
0.0
  0
VERTEX
  5
20D
  8
レイヤー_1
 10
159.8062662360901
 20
-157.45567758650421
 30
0.0
  0
VERTEX
  5
20E
  8
レイヤー_1
 10
159.76699214755831
 20
-156.6887993314875
 30
0.0
  0
SEQEND
  5
20F
  8
レイヤー_1
  0
POLYLINE
  5
210
  8
レイヤー_1
 66
     1
 10
0.0
 20
0.0
 30
0.0
  0
VERTEX
  5
211
  8
レイヤー_1
 10
158.51228837183029
 20
-152.48337127264301
 30
0.0
  0
VERTEX
  5
212
  8
レイヤー_1
 10
158.83578283789521
 20
-153.33293181930571
 30
0.0
  0
VERTEX
  5
213
  8
レイヤー_1
 10
159.32154130131539
 20
-155.15194223551759
 30
0.0
  0
VERTEX
  5
214
  8
レイヤー_1
 10
159.68637691320339
 20
-157.01126026890691
 30
0.0
  0
VERTEX
  5
215
  8
レイヤー_1
 10
159.8062662360901
 20
-158.87057830229631
 30
0.0
  0
VERTEX
  5
216
  8
レイヤー_1
 10
159.76699214755831
 20
-160.73092986433119
 30
0.0
  0
VERTEX
  5
217
  8
レイヤー_1
 10
159.52411291584809
 20
-162.59128142636609
 30
0.0
  0
VERTEX
  5
218
  8
レイヤー_1
 10
159.07866206960529
 20
-164.4123588998691
 30
0.0
  0
VERTEX
  5
219
  8
レイヤー_1
 10
158.4719807546528
 20
-166.22930225878989
 30
0.0
  0
VERTEX
  5
21A
  8
レイヤー_1
 10
157.66479488245881
 20
-168.05037973229301
 30
0.0
  0
VERTEX
  5
21B
  8
レイヤー_1
 10
156.69431148426389
 20
-169.78774138550449
 30
0.0
  0
VERTEX
  5
21C
  8
レイヤー_1
 10
155.5605305600682
 20
-171.5271700960071
 30
0.0
  0
VERTEX
  5
21D
  8
レイヤー_1
 10
154.2283121359221
 20
-173.22525766068671
 30
0.0
  0
VERTEX
  5
21E
  8
レイヤー_1
 10
152.73176265712959
 20
-174.84272999101151
 30
0.0
  0
VERTEX
  5
21F
  8
レイヤー_1
 10
151.07398270962739
 20
-176.4591687926908
 30
0.0
  0
VERTEX
  5
220
  8
レイヤー_1
 10
149.25497229341539
 20
-177.99499236001509
 30
0.0
  0
VERTEX
  5
221
  8
レイヤー_1
 10
147.27266435120259
 20
-179.4512342216301
 30
0.0
  0
VERTEX
  5
222
  8
レイヤー_1
 10
145.1301594689258
 20
-180.8268608488905
 30
0.0
  0
VERTEX
  5
223
  8
レイヤー_1
 10
142.90600582364851
 20
-182.1601128016822
 30
0.0
  0
VERTEX
  5
224
  8
レイヤー_1
 10
140.5206217096615
 20
-183.4137830487646
 30
0.0
  0
VERTEX
  5
225
  8
レイヤー_1
 10
138.0143147441423
 20
-184.5454969156691
 30
0.0
  0
VERTEX
  5
226
  8
レイヤー_1
 10
135.38501786979961
 20
-185.63793669404191
 30
0.0
  0
VERTEX
  5
227
  8
レイヤー_1
 10
132.63686520121581
 20
-186.60738656359121
 30
0.0
  0
VERTEX
  5
228
  8
レイヤー_1
 10
129.84737138680899
 20
-187.49828825607679
 30
0.0
  0
VERTEX
  5
229
  8
レイヤー_1
 10
126.9359211922244
 20
-188.3054741282709
 30
0.0
  0
VERTEX
  5
22A
  8
レイヤー_1
 10
123.94282223463929
 20
-188.99380420622381
 30
0.0
  0
VERTEX
  5
22B
  8
レイヤー_1
 10
120.911482717168
 20
-189.5994519925307
 30
0.0
  0
VERTEX
  5
22C
  8
レイヤー_1
 10
117.7984944366962
 20
-190.08521045595089
 30
0.0
  0
VERTEX
  5
22D
  8
レイヤー_1
 10
114.64416501040149
 20
-190.44797901054761
 30
0.0
  0
VERTEX
  5
22E
  8
レイヤー_1
 10
111.49086911275231
 20
-190.73219938808089
 30
0.0
  0
VERTEX
  5
22F
  8
レイヤー_1
 10
108.2569579807483
 20
-190.8934298567905
 30
0.0
  0
VERTEX
  5
230
  8
レイヤー_1
 10
105.0623209372761
 20
-190.93477100261339
 30
0.0
  0
VERTEX
  5
231
  8
レイヤー_1
 10
101.8273762766265
 20
-190.8934298567905
 30
0.0
  0
VERTEX
  5
232
  8
レイヤー_1
 10
98.633772761799875
 20
-190.73219938808089
 30
0.0
  0
VERTEX
  5
233
  8
レイヤー_1
 10
95.480476864150717
 20
-190.4893201563707
 30
0.0
  0
VERTEX
  5
234
  8
レイヤー_1
 10
92.326147437855937
 20
-190.08521045595089
 30
0.0
  0
VERTEX
  5
235
  8
レイヤー_1
 10
89.213159157384212
 20
-189.5994519925307
 30
0.0
  0
VERTEX
  5
236
  8
レイヤー_1
 10
86.179752582621731
 20
-189.03514535204681
 30
0.0
  0
VERTEX
  5
237
  8
レイヤー_1
 10
83.188720682327826
 20
-188.3468152740939
 30
0.0
  0
VERTEX
  5
238
  8
レイヤー_1
 10
80.277270487743181
 20
-187.53756234460869
 30
0.0
  0
VERTEX
  5
239
  8
レイヤー_1
 10
77.447469056158965
 20
-186.6880017979461
 30
0.0
  0
VERTEX
  5
23A
  8
レイヤー_1
 10
74.698282858929602
 20
-185.67824431121929
 30
0.0
  0
VERTEX
  5
23B
  8
レイヤー_1
 10
72.070019513232495
 20
-184.62714567866959
 30
0.0
  0
VERTEX
  5
23C
  8
レイヤー_1
 10
69.563712547713223
 20
-183.4530571372965
 30
0.0
  0
VERTEX
  5
23D
  8
レイヤー_1
 10
67.17832843372625
 20
-182.24072803603701
 30
0.0
  0
VERTEX
  5
23E
  8
レイヤー_1
 10
64.912833642625955
 20
-180.9074760832454
 30
0.0
  0
VERTEX
  5
23F
  8
レイヤー_1
 10
62.770328760349088
 20
-179.53184945598511
 30
0.0
  0
VERTEX
  5
240
  8
レイヤー_1
 10
60.789054346781903
 20
-178.07664112301561
 30
0.0
  0
VERTEX
  5
241
  8
レイヤー_1
 10
58.970043930569993
 20
-176.53978402704561
 30
0.0
  0
VERTEX
  5
242
  8
レイヤー_1
 10
57.312263983067773
 20
-174.96365284254381
 30
0.0
  0
VERTEX
  5
243
  8
レイヤー_1
 10
55.816748032920813
 20
-173.3058728950416
 30
0.0
  0
VERTEX
  5
244
  8
レイヤー_1
 10
54.441121405660553
 20
-171.60778533036199
 30
0.0
  0
VERTEX
  5
245
  8
レイヤー_1
 10
53.308374010110413
 20
-169.9096977656823
 30
0.0
  0
VERTEX
  5
246
  8
レイヤー_1
 10
52.297582994738107
 20
-168.1299614380022
 30
0.0
  0
SEQEND
  5
247
  8
レイヤー_1
  0
POLYLINE
  5
248
  8
レイヤー_1
 66
     1
 10
0.0
 20
0.0
 30
0.0
  0
VERTEX
  5
249
  8
レイヤー_1
 10
99.199112930929417
 20
-105.42112763206489
 30
0.0
  0
VERTEX
  5
24A
  8
レイヤー_1
 10
99.158805313751941
 20
-105.42112763206489
 30
0.0
  0
VERTEX
  5
24B
  8
レイヤー_1
 10
99.119531225220143
 20
-105.42112763206489
 30
0.0
  0
SEQEND
  5
24C
  8
レイヤー_1
  0
POLYLINE
  5
24D
  8
レイヤー_1
 66
     1
 10
0.0
 20
0.0
 30
0.0
  0
VERTEX
  5
24E
  8
レイヤー_1
 10
107.1645182023755
 20
-105.299171251887
 30
0.0
  0
VERTEX
  5
24F
  8
レイヤー_1
 10
107.1242105851981
 20
-105.25938039903239
 30
0.0
  0
VERTEX
  5
250
  8
レイヤー_1
 10
107.08390296802069
 20
-105.25938039903239
 30
0.0
  0
VERTEX
  5
251
  8
レイヤー_1
 10
107.08390296802069
 20
-105.2195895461777
 30
0.0
  0
SEQEND
  5
252
  8
レイヤー_1
  0
POLYLINE
  5
253
  8
レイヤー_1
 66
     1
 10
0.0
 20
0.0
 30
0.0
  0
VERTEX
  5
254
  8
レイヤー_1
 10
107.08390296802069
 20
-105.2195895461777
 30
0.0
  0
VERTEX
  5
255
  8
レイヤー_1
 10
107.08390296802069
 20
-105.1379407831773
 30
0.0
  0
VERTEX
  5
256
  8
レイヤー_1
 10
106.88133135348799
 20
-104.7736219356122
 30
0.0
  0
VERTEX
  5
257
  8
レイヤー_1
 10
106.59917803324601
 20
-104.45064423386999
 30
0.0
  0
VERTEX
  5
258
  8
レイヤー_1
 10
106.1537271870032
 20
-104.2077650021599
 30
0.0
  0
VERTEX
  5
259
  8
レイヤー_1
 10
105.58735348922821
 20
-104.04550100480461
 30
0.0
  0
VERTEX
  5
25A
  8
レイヤー_1
 10
105.02201332009869
 20
-104.00571015195
 30
0.0
  0
VERTEX
  5
25B
  8
レイヤー_1
 10
104.4153320051462
 20
-104.04550100480461
 30
0.0
  0
VERTEX
  5
25C
  8
レイヤー_1
 10
104.13111162761309
 20
-104.08632538630479
 30
0.0
  0
SEQEND
  5
25D
  8
レイヤー_1
  0
POLYLINE
  5
25E
  8
レイヤー_1
 66
     1
 10
0.0
 20
0.0
 30
0.0
  0
VERTEX
  5
25F
  8
レイヤー_1
 10
104.13111162761309
 20
-104.08632538630479
 30
0.0
  0
VERTEX
  5
260
  8
レイヤー_1
 10
99.199112930929417
 20
-105.42112763206489
 30
0.0
  0
SEQEND
  5
261
  8
レイヤー_1
  0
POLYLINE
  5
262
  8
レイヤー_1
 66
     1
 10
0.0
 20
0.0
 30
0.0
  0
VERTEX
  5
263
  8
レイヤー_1
 10
99.119531225220143
 20
-105.4609184849195
 30
0.0
  0
VERTEX
  5
264
  8
レイヤー_1
 10
98.067399064024855
 20
-105.5007093377741
 30
0.0
  0
VERTEX
  5
265
  8
レイヤー_1
 10
95.075333635085329
 20
-105.7844129509845
 30
0.0
  0
VERTEX
  5
266
  8
レイヤー_1
 10
92.124609351968843
 20
-106.14821503422679
 30
0.0
  0
VERTEX
  5
267
  8
レイヤー_1
 10
89.213159157384212
 20
-106.5931491161469
 30
0.0
  0
VERTEX
  5
268
  8
レイヤー_1
 10
86.342016579976985
 20
-107.1590060495991
 30
0.0
  0
VERTEX
  5
269
  8
レイヤー_1
 10
83.512215148392784
 20
-107.8065117460519
 30
0.0
  0
VERTEX
  5
26A
  8
レイヤー_1
 10
80.763028951163406
 20
-108.5335991482138
 30
0.0
  0
VERTEX
  5
26B
  8
レイヤー_1
 10
78.093424459643316
 20
-109.3831596948764
 30
0.0
  0
VERTEX
  5
26C
  8
レイヤー_1
 10
75.506502259769206
 20
-110.2735446230393
 30
0.0
  0
VERTEX
  5
26D
  8
レイヤー_1
 10
72.99916176560437
 20
-111.283302109766
 30
0.0
  0
VERTEX
  5
26E
  8
レイヤー_1
 10
70.614811180262961
 20
-112.33440074231569
 30
0.0
  0
VERTEX
  5
26F
  8
レイヤー_1
 10
68.310042300630826
 20
-113.46663137354309
 30
0.0
  0
VERTEX
  5
270
  8
レイヤー_1
 10
66.126196272530962
 20
-114.6799940034481
 30
0.0
  0
VERTEX
  5
271
  8
レイヤー_1
 10
64.064306624608932
 20
-115.97345510338511
 30
0.0
  0
VERTEX
  5
272
  8
レイヤー_1
 10
62.163647445396592
 20
-117.3480482019998
 30
0.0
  0
VERTEX
  5
273
  8
レイヤー_1
 10
60.345670557830253
 20
-118.7634656821147
 30
0.0
  0
VERTEX
  5
274
  8
レイヤー_1
 10
58.686857081682447
 20
-120.2186740150842
 30
0.0
  0
SEQEND
  5
275
  8
レイヤー_1
  0
POLYLINE
  5
276
  8
レイヤー_1
 66
     1
 10
0.0
 20
0.0
 30
0.0
  0
VERTEX
  5
277
  8
レイヤー_1
 10
151.31686194133749
 20
-120.30032277808461
 30
0.0
  0
VERTEX
  5
278
  8
レイヤー_1
 10
150.62853186338461
 20
-119.6538506102775
 30
0.0
  0
VERTEX
  5
279
  8
レイヤー_1
 10
148.93044429870491
 20
-118.1976087486624
 30
0.0
  0
VERTEX
  5
27A
  8
レイヤー_1
 10
147.07009273667001
 20
-116.8224988857249
 30
0.0
  0
VERTEX
  5
27B
  8
レイヤー_1
 10
145.08985185174839
 20
-115.48769663996489
 30
0.0
  0
VERTEX
  5
27C
  8
レイヤー_1
 10
142.98765458664889
 20
-114.2355766858508
 30
0.0
  0
VERTEX
  5
27D
  8
レイヤー_1
 10
140.7635009413716
 20
-113.0625216731233
 30
0.0
  0
VERTEX
  5
27E
  8
レイヤー_1
 10
138.41842444456199
 20
-111.9308078062187
 30
0.0
  0
VERTEX
  5
27F
  8
レイヤー_1
 10
135.99273271339769
 20
-110.8791924093462
 30
0.0
  0
VERTEX
  5
280
  8
レイヤー_1
 10
133.4450846020554
 20
-109.9087090111513
 30
0.0
  0
VERTEX
  5
281
  8
レイヤー_1
 10
130.85712887353569
 20
-109.06018199313429
 30
0.0
  0
VERTEX
  5
282
  8
レイヤー_1
 10
128.14825029348381
 20
-108.2504122993263
 30
0.0
  0
VERTEX
  5
283
  8
レイヤー_1
 10
125.358756479077
 20
-107.56311575001899
 30
0.0
  0
VERTEX
  5
284
  8
レイヤー_1
 10
122.5289550474928
 20
-106.9569511993892
 30
0.0
  0
VERTEX
  5
285
  8
レイヤー_1
 10
119.6588459987311
 20
-106.43088511879159
 30
0.0
  0
VERTEX
  5
286
  8
レイヤー_1
 10
116.7060546583235
 20
-105.98646780119439
 30
0.0
  0
VERTEX
  5
287
  8
レイヤー_1
 10
113.7542968465614
 20
-105.66297333512939
 30
0.0
  0
VERTEX
  5
288
  8
レイヤー_1
 10
110.7219238004445
 20
-105.42112763206489
 30
0.0
  0
VERTEX
  5
289
  8
レイヤー_1
 10
107.729858371505
 20
-105.299171251887
 30
0.0
  0
VERTEX
  5
28A
  8
レイヤー_1
 10
107.1242105851981
 20
-105.299171251887
 30
0.0
  0
SEQEND
  5
28B
  8
レイヤー_1
  0
POLYLINE
  5
28C
  8
レイヤー_1
 66
     1
 10
0.0
 20
0.0
 30
0.0
  0
VERTEX
  5
28D
  8
レイヤー_1
 10
155.6018717058912
 20
-124.5853325426384
 30
0.0
  0
VERTEX
  5
28E
  8
レイヤー_1
 10
155.35899247418109
 20
-124.3021456937509
 30
0.0
  0
VERTEX
  5
28F
  8
レイヤー_1
 10
153.8634765240341
 20
-122.76528859778089
 30
0.0
  0
VERTEX
  5
290
  8
レイヤー_1
 10
152.20569657653189
 20
-121.2304985591021
 30
0.0
  0
VERTEX
  5
291
  8
レイヤー_1
 10
150.42596024885191
 20
-119.774256697487
 30
0.0
  0
VERTEX
  5
292
  8
レイヤー_1
 10
148.4860269811077
 20
-118.3593559816949
 30
0.0
  0
VERTEX
  5
293
  8
レイヤー_1
 10
146.4241373331856
 20
-117.0245537359348
 30
0.0
  0
VERTEX
  5
294
  8
レイヤー_1
 10
144.2402913050858
 20
-115.730575871675
 30
0.0
  0
VERTEX
  5
295
  8
レイヤー_1
 10
141.9355224254536
 20
-114.5580376232702
 30
0.0
  0
VERTEX
  5
296
  8
レイヤー_1
 10
139.5511718401122
 20
-113.42580699204289
 30
0.0
  0
VERTEX
  5
297
  8
レイヤー_1
 10
137.04383134594741
 20
-112.37522512381589
 30
0.0
  0
VERTEX
  5
298
  8
レイヤー_1
 10
134.41660152889591
 20
-111.40474172562099
 30
0.0
  0
VERTEX
  5
299
  8
レイヤー_1
 10
131.74699703737579
 20
-110.5153903261038
 30
0.0
  0
VERTEX
  5
29A
  8
レイヤー_1
 10
128.957503222969
 20
-109.7066541609414
 30
0.0
  0
VERTEX
  5
29B
  8
レイヤー_1
 10
126.12770179138479
 20
-108.97853323013381
 30
0.0
  0
VERTEX
  5
29C
  8
レイヤー_1
 10
123.21625159680011
 20
-108.3728854438269
 30
0.0
  0
VERTEX
  5
29D
  8
レイヤー_1
 10
120.2644937850381
 20
-107.8463025989065
 30
0.0
  0
VERTEX
  5
29E
  8
レイヤー_1
 10
117.2724283560986
 20
-107.4018852813093
 30
0.0
  0
VERTEX
  5
29F
  8
レイヤー_1
 10
114.2400553099817
 20
-107.0783908152443
 30
0.0
  0
VERTEX
  5
2A0
  8
レイヤー_1
 10
111.16737464668731
 20
-106.83654511217981
 30
0.0
  0
VERTEX
  5
2A1
  8
レイヤー_1
 10
108.094693983393
 20
-106.6737643505017
 30
0.0
  0
VERTEX
  5
2A2
  8
レイヤー_1
 10
105.9511555724706
 20
-106.6329399690015
 30
0.0
  0
SEQEND
  5
2A3
  8
レイヤー_1
  0
POLYLINE
  5
2A4
  8
レイヤー_1
 66
     1
 10
0.0
 20
0.0
 30
0.0
  0
VERTEX
  5
2A5
  8
レイヤー_1
 10
103.7683430730163
 20
-106.6329399690015
 30
0.0
  0
VERTEX
  5
2A6
  8
レイヤー_1
 10
103.72803545583881
 20
-106.6329399690015
 30
0.0
  0
SEQEND
  5
2A7
  8
レイヤー_1
  0
POLYLINE
  5
2A8
  8
レイヤー_1
 66
     1
 10
0.0
 20
0.0
 30
0.0
  0
VERTEX
  5
2A9
  8
レイヤー_1
 10
103.72803545583881
 20
-106.6329399690015
 30
0.0
  0
VERTEX
  5
2AA
  8
レイヤー_1
 10
102.3524088285786
 20
-106.6737643505017
 30
0.0
  0
VERTEX
  5
2AB
  8
レイヤー_1
 10
99.27972816528424
 20
-106.79520396635679
 30
0.0
  0
VERTEX
  5
2AC
  8
レイヤー_1
 10
96.208081030635483
 20
-107.0385999623897
 30
0.0
  0
VERTEX
  5
2AD
  8
レイヤー_1
 10
93.175707984518596
 20
-107.361060899809
 30
0.0
  0
VERTEX
  5
2AE
  8
レイヤー_1
 10
90.183642555579084
 20
-107.7656873645516
 30
0.0
  0
VERTEX
  5
2AF
  8
レイヤー_1
 10
87.191577126639615
 20
-108.2912366808265
 30
0.0
  0
VERTEX
  5
2B0
  8
レイヤー_1
 10
84.280126932054969
 20
-108.897917995779
 30
0.0
  0
VERTEX
  5
2B1
  8
レイヤー_1
 10
81.450325500470754
 20
-109.5852145450863
 30
0.0
  0
VERTEX
  5
2B2
  8
レイヤー_1
 10
78.659798157418408
 20
-110.3531263287485
 30
0.0
  0
VERTEX
  5
2B3
  8
レイヤー_1
 10
75.950919577366435
 20
-111.2424777282658
 30
0.0
  0
VERTEX
  5
2B4
  8
レイヤー_1
 10
73.32368976031492
 20
-112.1736870379288
 30
0.0
  0
VERTEX
  5
2B5
  8
レイヤー_1
 10
70.81634926615007
 20
-113.223752141833
 30
0.0
  0
VERTEX
  5
2B6
  8
レイヤー_1
 10
68.390657534985678
 20
-114.3559827730603
 30
0.0
  0
VERTEX
  5
2B7
  8
レイヤー_1
 10
66.085888655353514
 20
-115.5285210214651
 30
0.0
  0
VERTEX
  5
2B8
  8
レイヤー_1
 10
63.862768538721809
 20
-116.78219126854751
 30
0.0
  0
VERTEX
  5
2B9
  8
レイヤー_1
 10
61.800878890799773
 20
-118.11699351430759
 30
0.0
  0
VERTEX
  5
2BA
  8
レイヤー_1
 10
59.818570948587023
 20
-119.5313774657769
 30
0.0
  0
VERTEX
  5
2BB
  8
レイヤー_1
 10
57.999560532375106
 20
-120.9865857987464
 30
0.0
  0
VERTEX
  5
2BC
  8
レイヤー_1
 10
56.3417805848729
 20
-122.4826185132162
 30
0.0
  0
VERTEX
  5
2BD
  8
レイヤー_1
 10
55.047802720613049
 20
-123.776596377476
 30
0.0
  0
SEQEND
  5
2BE
  8
レイヤー_1
  0
POLYLINE
  5
2BF
  8
レイヤー_1
 66
     1
 10
0.0
 20
0.0
 30
0.0
  0
VERTEX
  5
2C0
  8
レイヤー_1
 10
48.093188464539203
 20
-139.18082407544779
 30
0.0
  0
VERTEX
  5
2C1
  8
レイヤー_1
 10
47.648771146941968
 20
-159.5196342917173
 30
0.0
  0
SEQEND
  5
2C2
  8
レイヤー_1
  0
POLYLINE
  5
2C3
  8
レイヤー_1
 66
     1
 10
0.0
 20
0.0
 30
0.0
  0
VERTEX
  5
2C4
  8
レイヤー_1
 10
162.27226558443189
 20
-159.5196342917173
 30
0.0
  0
VERTEX
  5
2C5
  8
レイヤー_1
 10
161.8288817954803
 20
-139.18082407544779
 30
0.0
  0
SEQEND
  5
2C6
  8
レイヤー_1
  0
POLYLINE
  5
2C7
  8
レイヤー_1
 66
     1
 10
0.0
 20
0.0
 30
0.0
  0
VERTEX
  5
2C8
  8
レイヤー_1
 10
55.816748032920813
 20
-154.09981007432231
 30
0.0
  0
VERTEX
  5
2C9
  8
レイヤー_1
 10
55.816748032920813
 20
-155.43512908440511
 30
0.0
  0
SEQEND
  5
2CA
  8
レイヤー_1
  0
POLYLINE
  5
2CB
  8
レイヤー_1
 66
     1
 10
0.0
 20
0.0
 30
0.0
  0
VERTEX
  5
2CC
  8
レイヤー_1
 10
66.126196272530962
 20
-155.43512908440511
 30
0.0
  0
VERTEX
  5
2CD
  8
レイヤー_1
 10
66.126196272530962
 20
-154.09981007432231
 30
0.0
  0
SEQEND
  5
2CE
  8
レイヤー_1
  0
POLYLINE
  5
2CF
  8
レイヤー_1
 66
     1
 10
0.0
 20
0.0
 30
0.0
  0
VERTEX
  5
2D0
  8
レイヤー_1
 10
56.504044582228161
 20
-156.93167856319761
 30
0.0
  0
VERTEX
  5
2D1
  8
レイヤー_1
 10
57.312263983067773
 20
-157.61794158385939
 30
0.0
  0
VERTEX
  5
2D2
  8
レイヤー_1
 10
58.281713852617081
 20
-158.1843152816345
 30
0.0
  0
VERTEX
  5
2D3
  8
レイヤー_1
 10
59.333846013812384
 20
-158.5481173648769
 30
0.0
  0
VERTEX
  5
2D4
  8
レイヤー_1
 10
60.426285792185112
 20
-158.74965545076401
 30
0.0
  0
VERTEX
  5
2D5
  8
レイヤー_1
 10
61.51665851326667
 20
-158.74965545076401
 30
0.0
  0
VERTEX
  5
2D6
  8
レイヤー_1
 10
62.60806476299382
 20
-158.5481173648769
 30
0.0
  0
VERTEX
  5
2D7
  8
レイヤー_1
 10
63.61988930701169
 20
-158.1843152816345
 30
0.0
  0
VERTEX
  5
2D8
  8
レイヤー_1
 10
64.589339176560998
 20
-157.61794158385939
 30
0.0
  0
VERTEX
  5
2D9
  8
レイヤー_1
 10
65.438899723223614
 20
-156.93167856319761
 30
0.0
  0
SEQEND
  5
2DA
  8
レイヤー_1
  0
POLYLINE
  5
2DB
  8
レイヤー_1
 66
     1
 10
0.0
 20
0.0
 30
0.0
  0
VERTEX
  5
2DC
  8
レイヤー_1
 10
55.45294594967843
 20
-155.02998585533959
 30
0.0
  0
VERTEX
  5
2DD
  8
レイヤー_1
 10
55.493253566855863
 20
-154.74783253509781
 30
0.0
  0
VERTEX
  5
2DE
  8
レイヤー_1
 10
55.655517564211117
 20
-154.343722834678
 30
0.0
  0
VERTEX
  5
2DF
  8
レイヤー_1
 10
55.936637355807513
 20
-153.9385796056126
 30
0.0
  0
VERTEX
  5
2E0
  8
レイヤー_1
 10
56.018286118807929
 20
-153.85796437125771
 30
0.0
  0
SEQEND
  5
2E1
  8
レイヤー_1
  0
POLYLINE
  5
2E2
  8
レイヤー_1
 66
     1
 10
0.0
 20
0.0
 30
0.0
  0
VERTEX
  5
2E3
  8
レイヤー_1
 10
56.018286118807929
 20
-153.85796437125771
 30
0.0
  0
VERTEX
  5
2E4
  8
レイヤー_1
 10
56.098901353162788
 20
-153.77631560825731
 30
0.0
  0
SEQEND
  5
2E5
  8
レイヤー_1
  0
POLYLINE
  5
2E6
  8
レイヤー_1
 66
     1
 10
0.0
 20
0.0
 30
0.0
  0
VERTEX
  5
2E7
  8
レイヤー_1
 10
65.963932275175694
 20
-153.89930551708071
 30
0.0
  0
VERTEX
  5
2E8
  8
レイヤー_1
 10
66.206811506885799
 20
-154.22176645450011
 30
0.0
  0
VERTEX
  5
2E9
  8
レイヤー_1
 10
66.4093831214185
 20
-154.62690968356549
 30
0.0
  0
VERTEX
  5
2EA
  8
レイヤー_1
 10
66.489998355773338
 20
-155.02998585533959
 30
0.0
  0
SEQEND
  5
2EB
  8
レイヤー_1
  0
POLYLINE
  5
2EC
  8
レイヤー_1
 66
     1
 10
0.0
 20
0.0
 30
0.0
  0
VERTEX
  5
2ED
  8
レイヤー_1
 10
50.114770495283807
 20
-157.90112843274699
 30
0.0
  0
VERTEX
  5
2EE
  8
レイヤー_1
 10
50.114770495283807
 20
-159.31706267718459
 30
0.0
  0
SEQEND
  5
2EF
  8
レイヤー_1
  0
POLYLINE
  5
2F0
  8
レイヤー_1
 66
     1
 10
0.0
 20
0.0
 30
0.0
  0
VERTEX
  5
2F1
  8
レイヤー_1
 10
159.8062662360901
 20
-159.27675506000719
 30
0.0
  0
VERTEX
  5
2F2
  8
レイヤー_1
 10
159.8062662360901
 20
-157.90112843274699
 30
0.0
  0
SEQEND
  5
2F3
  8
レイヤー_1
  0
POLYLINE
  5
2F4
  8
レイヤー_1
 66
     1
 10
0.0
 20
0.0
 30
0.0
  0
VERTEX
  5
2F5
  8
レイヤー_1
 10
99.078190079397146
 20
-105.5823581007746
 30
0.0
  0
VERTEX
  5
2F6
  8
レイヤー_1
 10
99.078190079397146
 20
-105.5823581007746
 30
0.0
  0
VERTEX
  5
2F7
  8
レイヤー_1
 10
99.119531225220143
 20
-105.5823581007746
 30
0.0
  0
VERTEX
  5
2F8
  8
レイヤー_1
 10
99.158805313751941
 20
-105.5823581007746
 30
0.0
  0
VERTEX
  5
2F9
  8
レイヤー_1
 10
99.158805313751941
 20
-105.5415337192743
 30
0.0
  0
SEQEND
  5
2FA
  8
レイヤー_1
  0
POLYLINE
  5
2FB
  8
レイヤー_1
 66
     1
 10
0.0
 20
0.0
 30
0.0
  0
VERTEX
  5
2FC
  8
レイヤー_1
 10
107.40739743408569
 20
-105.42112763206489
 30
0.0
  0
VERTEX
  5
2FD
  8
レイヤー_1
 10
107.3660562882627
 20
-105.42112763206489
 30
0.0
  0
VERTEX
  5
2FE
  8
レイヤー_1
 10
107.2854410539078
 20
-105.42112763206489
 30
0.0
  0
VERTEX
  5
2FF
  8
レイヤー_1
 10
107.2451334367304
 20
-105.38030325056469
 30
0.0
  0
VERTEX
  5
300
  8
レイヤー_1
 10
107.20482581955299
 20
-105.38030325056469
 30
0.0
  0
VERTEX
  5
301
  8
レイヤー_1
 10
107.1645182023755
 20
-105.3399956333872
 30
0.0
  0
VERTEX
  5
302
  8
レイヤー_1
 10
107.1242105851981
 20
-105.299171251887
 30
0.0
  0
VERTEX
  5
303
  8
レイヤー_1
 10
107.08390296802069
 20
-105.25938039903239
 30
0.0
  0
SEQEND
  5
304
  8
レイヤー_1
  0
POLYLINE
  5
305
  8
レイヤー_1
 66
     1
 10
0.0
 20
0.0
 30
0.0
  0
VERTEX
  5
306
  8
レイヤー_1
 10
99.199112930929417
 20
-105.42112763206489
 30
0.0
  0
VERTEX
  5
307
  8
レイヤー_1
 10
99.199112930929417
 20
-105.42112763206489
 30
0.0
  0
VERTEX
  5
308
  8
レイヤー_1
 10
99.158805313751941
 20
-105.4609184849195
 30
0.0
  0
VERTEX
  5
309
  8
レイヤー_1
 10
99.158805313751941
 20
-105.5415337192743
 30
0.0
  0
SEQEND
  5
30A
  8
レイヤー_1
  0
POLYLINE
  5
30B
  8
レイヤー_1
 66
     1
 10
0.0
 20
0.0
 30
0.0
  0
VERTEX
  5
30C
  8
レイヤー_1
 10
104.0504963932582
 20
-104.2485893836601
 30
0.0
  0
VERTEX
  5
30D
  8
レイヤー_1
 10
104.0918375390812
 20
-104.2077650021599
 30
0.0
  0
VERTEX
  5
30E
  8
レイヤー_1
 10
104.0918375390812
 20
-104.1669406206597
 30
0.0
  0
VERTEX
  5
30F
  8
レイヤー_1
 10
104.0918375390812
 20
-104.1261162391594
 30
0.0
  0
VERTEX
  5
310
  8
レイヤー_1
 10
104.13111162761309
 20
-104.1261162391594
 30
0.0
  0
VERTEX
  5
311
  8
レイヤー_1
 10
104.13111162761309
 20
-104.08632538630479
 30
0.0
  0
SEQEND
  5
312
  8
レイヤー_1
  0
POLYLINE
  5
313
  8
レイヤー_1
 66
     1
 10
0.0
 20
0.0
 30
0.0
  0
VERTEX
  5
314
  8
レイヤー_1
 10
103.84895830737111
 20
-106.6329399690015
 30
0.0
  0
VERTEX
  5
315
  8
レイヤー_1
 10
103.8892659245485
 20
-106.6329399690015
 30
0.0
  0
VERTEX
  5
316
  8
レイヤー_1
 10
103.9295735417259
 20
-106.6329399690015
 30
0.0
  0
VERTEX
  5
317
  8
レイヤー_1
 10
103.9295735417259
 20
-106.5931491161469
 30
0.0
  0
VERTEX
  5
318
  8
レイヤー_1
 10
103.96988115890341
 20
-106.5931491161469
 30
0.0
  0
VERTEX
  5
319
  8
レイヤー_1
 10
103.96988115890341
 20
-106.5533582632922
 30
0.0
  0
VERTEX
  5
31A
  8
レイヤー_1
 10
104.0112223047264
 20
-106.512533881792
 30
0.0
  0
SEQEND
  5
31B
  8
レイヤー_1
  0
POLYLINE
  5
31C
  8
レイヤー_1
 66
     1
 10
0.0
 20
0.0
 30
0.0
  0
VERTEX
  5
31D
  8
レイヤー_1
 10
107.1645182023755
 20
-106.6737643505017
 30
0.0
  0
VERTEX
  5
31E
  8
レイヤー_1
 10
107.08390296802069
 20
-105.25938039903239
 30
0.0
  0
SEQEND
  5
31F
  8
レイヤー_1
  0
POLYLINE
  5
320
  8
レイヤー_1
 66
     1
 10
0.0
 20
0.0
 30
0.0
  0
VERTEX
  5
321
  8
レイヤー_1
 10
107.08390296802069
 20
-105.25938039903239
 30
0.0
  0
VERTEX
  5
322
  8
レイヤー_1
 10
106.9619465878428
 20
-104.93588593296739
 30
0.0
  0
VERTEX
  5
323
  8
レイヤー_1
 10
106.76040850195569
 20
-104.6930067012573
 30
0.0
  0
VERTEX
  5
324
  8
レイヤー_1
 10
106.43691403589079
 20
-104.45064423386999
 30
0.0
  0
VERTEX
  5
325
  8
レイヤー_1
 10
106.032804335471
 20
-104.2883802365147
 30
0.0
  0
VERTEX
  5
326
  8
レイヤー_1
 10
105.5470458720507
 20
-104.1669406206597
 30
0.0
  0
VERTEX
  5
327
  8
レイヤー_1
 10
105.0623209372761
 20
-104.1261162391594
 30
0.0
  0
VERTEX
  5
328
  8
レイヤー_1
 10
104.5362548566784
 20
-104.1669406206597
 30
0.0
  0
VERTEX
  5
329
  8
レイヤー_1
 10
104.0504963932582
 20
-104.2485893836601
 30
0.0
  0
SEQEND
  5
32A
  8
レイヤー_1
  0
POLYLINE
  5
32B
  8
レイヤー_1
 66
     1
 10
0.0
 20
0.0
 30
0.0
  0
VERTEX
  5
32C
  8
レイヤー_1
 10
104.0112223047264
 20
-106.512533881792
 30
0.0
  0
VERTEX
  5
32D
  8
レイヤー_1
 10
104.13111162761309
 20
-106.47170950029179
 30
0.0
  0
SEQEND
  5
32E
  8
レイヤー_1
  0
POLYLINE
  5
32F
  8
レイヤー_1
 66
     1
 10
0.0
 20
0.0
 30
0.0
  0
VERTEX
  5
330
  8
レイヤー_1
 10
105.8302327209383
 20
-106.47170950029179
 30
0.0
  0
VERTEX
  5
331
  8
レイヤー_1
 10
106.3562988015359
 20
-106.5931491161469
 30
0.0
  0
SEQEND
  5
332
  8
レイヤー_1
  0
POLYLINE
  5
333
  8
レイヤー_1
 66
     1
 10
0.0
 20
0.0
 30
0.0
  0
VERTEX
  5
334
  8
レイヤー_1
 10
104.0504963932582
 20
-104.2485893836601
 30
0.0
  0
VERTEX
  5
335
  8
レイヤー_1
 10
99.158805313751941
 20
-105.5415337192743
 30
0.0
  0
SEQEND
  5
336
  8
レイヤー_1
  0
POLYLINE
  5
337
  8
レイヤー_1
 66
     1
 10
0.0
 20
0.0
 30
0.0
  0
VERTEX
  5
338
  8
レイヤー_1
 10
99.158805313751941
 20
-105.5415337192743
 30
0.0
  0
VERTEX
  5
339
  8
レイヤー_1
 10
99.158805313751941
 20
-106.79520396635679
 30
0.0
  0
SEQEND
  5
33A
  8
レイヤー_1
  0
POLYLINE
  5
33B
  8
レイヤー_1
 66
     1
 10
0.0
 20
0.0
 30
0.0
  0
VERTEX
  5
33C
  8
レイヤー_1
 10
103.2433105210642
 20
-106.6329399690015
 30
0.0
  0
VERTEX
  5
33D
  8
レイヤー_1
 10
103.323925755419
 20
-106.6329399690015
 30
0.0
  0
SEQEND
  5
33E
  8
レイヤー_1
  0
POLYLINE
  5
33F
  8
レイヤー_1
 66
     1
 10
0.0
 20
0.0
 30
0.0
  0
VERTEX
  5
340
  8
レイヤー_1
 10
103.323925755419
 20
-106.6329399690015
 30
0.0
  0
VERTEX
  5
341
  8
レイヤー_1
 10
104.0112223047264
 20
-106.512533881792
 30
0.0
  0
SEQEND
  5
342
  8
レイヤー_1
  0
POLYLINE
  5
343
  8
レイヤー_1
 66
     1
 10
0.0
 20
0.0
 30
0.0
  0
VERTEX
  5
344
  8
レイヤー_1
 10
104.0504963932582
 20
-104.2485893836601
 30
0.0
  0
VERTEX
  5
345
  8
レイヤー_1
 10
104.0112223047264
 20
-106.512533881792
 30
0.0
  0
SEQEND
  5
346
  8
レイヤー_1
  0
POLYLINE
  5
347
  8
レイヤー_1
 66
     1
 10
0.0
 20
0.0
 30
0.0
  0
VERTEX
  5
348
  8
レイヤー_1
 10
105.9511555724706
 20
-106.6329399690015
 30
0.0
  0
VERTEX
  5
349
  8
レイヤー_1
 10
105.91084795529309
 20
-106.6329399690015
 30
0.0
  0
VERTEX
  5
34A
  8
レイヤー_1
 10
105.8705403381157
 20
-106.6329399690015
 30
0.0
  0
VERTEX
  5
34B
  8
レイヤー_1
 10
105.8705403381157
 20
-106.5931491161469
 30
0.0
  0
VERTEX
  5
34C
  8
レイヤー_1
 10
105.8302327209383
 20
-106.5931491161469
 30
0.0
  0
VERTEX
  5
34D
  8
レイヤー_1
 10
105.8302327209383
 20
-106.5533582632922
 30
0.0
  0
VERTEX
  5
34E
  8
レイヤー_1
 10
105.8302327209383
 20
-106.512533881792
 30
0.0
  0
VERTEX
  5
34F
  8
レイヤー_1
 10
105.8302327209383
 20
-106.47170950029179
 30
0.0
  0
SEQEND
  5
350
  8
レイヤー_1
  0
POLYLINE
  5
351
  8
レイヤー_1
 66
     1
 10
0.0
 20
0.0
 30
0.0
  0
VERTEX
  5
352
  8
レイヤー_1
 10
104.13111162761309
 20
-106.47170950029179
 30
0.0
  0
VERTEX
  5
353
  8
レイヤー_1
 10
104.69851885403369
 20
-106.47170950029179
 30
0.0
  0
VERTEX
  5
354
  8
レイヤー_1
 10
105.3444742575181
 20
-106.47170950029179
 30
0.0
  0
VERTEX
  5
355
  8
レイヤー_1
 10
105.8302327209383
 20
-106.47170950029179
 30
0.0
  0
SEQEND
  5
356
  8
レイヤー_1
  0
POLYLINE
  5
357
  8
レイヤー_1
 66
     1
 10
0.0
 20
0.0
 30
0.0
  0
VERTEX
  5
358
  8
レイヤー_1
 10
104.0112223047264
 20
-106.6329399690015
 30
0.0
  0
VERTEX
  5
359
  8
レイヤー_1
 10
104.0112223047264
 20
-106.6329399690015
 30
0.0
  0
VERTEX
  5
35A
  8
レイヤー_1
 10
104.0504963932582
 20
-106.6329399690015
 30
0.0
  0
VERTEX
  5
35B
  8
レイヤー_1
 10
104.0504963932582
 20
-106.5931491161469
 30
0.0
  0
VERTEX
  5
35C
  8
レイヤー_1
 10
104.0918375390812
 20
-106.5931491161469
 30
0.0
  0
VERTEX
  5
35D
  8
レイヤー_1
 10
104.0918375390812
 20
-106.5533582632922
 30
0.0
  0
VERTEX
  5
35E
  8
レイヤー_1
 10
104.13111162761309
 20
-106.512533881792
 30
0.0
  0
VERTEX
  5
35F
  8
レイヤー_1
 10
104.13111162761309
 20
-106.47170950029179
 30
0.0
  0
SEQEND
  5
360
  8
レイヤー_1
  0
POLYLINE
  5
361
  8
レイヤー_1
 66
     1
 10
0.0
 20
0.0
 30
0.0
  0
VERTEX
  5
362
  8
レイヤー_1
 10
99.078190079397146
 20
-105.5823581007746
 30
0.0
  0
VERTEX
  5
363
  8
レイヤー_1
 10
99.078190079397146
 20
-105.5823581007746
 30
0.0
  0
VERTEX
  5
364
  8
レイヤー_1
 10
99.078190079397146
 20
-105.5007093377741
 30
0.0
  0
VERTEX
  5
365
  8
レイヤー_1
 10
99.119531225220143
 20
-105.4609184849195
 30
0.0
  0
SEQEND
  5
366
  8
レイヤー_1
  0
POLYLINE
  5
367
  8
レイヤー_1
 66
     1
 10
0.0
 20
0.0
 30
0.0
  0
VERTEX
  5
368
  8
レイヤー_1
 10
99.037882462219713
 20
-106.79520396635679
 30
0.0
  0
VERTEX
  5
369
  8
レイヤー_1
 10
99.078190079397146
 20
-105.5823581007746
 30
0.0
  0
SEQEND
  5
36A
  8
レイヤー_1
  0
POLYLINE
  5
36B
  8
レイヤー_1
 66
     1
 10
0.0
 20
0.0
 30
0.0
  0
VERTEX
  5
36C
  8
レイヤー_1
 10
99.078190079397146
 20
-105.5823581007746
 30
0.0
  0
VERTEX
  5
36D
  8
レイヤー_1
 10
95.884586564570526
 20
-105.8252373324847
 30
0.0
  0
VERTEX
  5
36E
  8
レイヤー_1
 10
92.730257138275775
 20
-106.18903941572709
 30
0.0
  0
VERTEX
  5
36F
  8
レイヤー_1
 10
89.616235329158442
 20
-106.6737643505017
 30
0.0
  0
VERTEX
  5
370
  8
レイヤー_1
 10
86.585929340332683
 20
-107.2406548125996
 30
0.0
  0
VERTEX
  5
371
  8
レイヤー_1
 10
83.592830382747636
 20
-107.92795136190691
 30
0.0
  0
VERTEX
  5
372
  8
レイヤー_1
 10
80.682413716808568
 20
-108.69586314556911
 30
0.0
  0
VERTEX
  5
373
  8
レイヤー_1
 10
77.851578756578775
 20
-109.5852145450863
 30
0.0
  0
VERTEX
  5
374
  8
レイヤー_1
 10
75.102392559349397
 20
-110.55518117895841
 30
0.0
  0
VERTEX
  5
375
  8
レイヤー_1
 10
72.47412921365229
 20
-111.6062798115082
 30
0.0
  0
VERTEX
  5
376
  8
レイヤー_1
 10
69.967822248133047
 20
-112.7385104427355
 30
0.0
  0
VERTEX
  5
377
  8
レイヤー_1
 10
67.581404605500481
 20
-113.9926974541407
 30
0.0
  0
VERTEX
  5
378
  8
レイヤー_1
 10
65.317976871691343
 20
-115.285641789755
 30
0.0
  0
VERTEX
  5
379
  8
レイヤー_1
 10
63.17443846076889
 20
-116.7015760341927
 30
0.0
  0
VERTEX
  5
37A
  8
レイヤー_1
 10
61.194197575847276
 20
-118.1578178958078
 30
0.0
  0
VERTEX
  5
37B
  8
レイヤー_1
 10
59.37312010234421
 20
-119.6936414631322
 30
0.0
  0
VERTEX
  5
37C
  8
レイヤー_1
 10
58.606241847327617
 20
-120.3809380124395
 30
0.0
  0
SEQEND
  5
37D
  8
レイヤー_1
  0
POLYLINE
  5
37E
  8
レイヤー_1
 66
     1
 10
0.0
 20
0.0
 30
0.0
  0
VERTEX
  5
37F
  8
レイヤー_1
 10
107.1242105851981
 20
-105.299171251887
 30
0.0
  0
VERTEX
  5
380
  8
レイヤー_1
 10
107.2854410539078
 20
-105.299171251887
 30
0.0
  0
VERTEX
  5
381
  8
レイヤー_1
 10
107.3660562882627
 20
-105.3399956333872
 30
0.0
  0
VERTEX
  5
382
  8
レイヤー_1
 10
107.40739743408569
 20
-105.38030325056469
 30
0.0
  0
VERTEX
  5
383
  8
レイヤー_1
 10
107.40739743408569
 20
-105.42112763206489
 30
0.0
  0
SEQEND
  5
384
  8
レイヤー_1
  0
POLYLINE
  5
385
  8
レイヤー_1
 66
     1
 10
0.0
 20
0.0
 30
0.0
  0
VERTEX
  5
386
  8
レイヤー_1
 10
151.3974771756923
 20
-120.42072886529409
 30
0.0
  0
VERTEX
  5
387
  8
レイヤー_1
 10
150.42596024885191
 20
-119.5313774657769
 30
0.0
  0
VERTEX
  5
388
  8
レイヤー_1
 10
148.56664221546251
 20
-118.03534475130709
 30
0.0
  0
VERTEX
  5
389
  8
レイヤー_1
 10
146.5853678018953
 20
-116.5801364183376
 30
0.0
  0
VERTEX
  5
38A
  8
レイヤー_1
 10
144.44286291961839
 20
-115.20554331972291
 30
0.0
  0
VERTEX
  5
38B
  8
レイヤー_1
 10
142.1784016571637
 20
-113.87022430964009
 30
0.0
  0
VERTEX
  5
38C
  8
レイヤー_1
 10
139.75270992599931
 20
-112.6589287370262
 30
0.0
  0
VERTEX
  5
38D
  8
レイヤー_1
 10
137.24536943183449
 20
-111.52566457715329
 30
0.0
  0
VERTEX
  5
38E
  8
レイヤー_1
 10
134.61813961478299
 20
-110.4755994732492
 30
0.0
  0
VERTEX
  5
38F
  8
レイヤー_1
 10
131.8689534175536
 20
-109.50459931073151
 30
0.0
  0
VERTEX
  5
390
  8
レイヤー_1
 10
129.0381184573238
 20
-108.6152479112143
 30
0.0
  0
VERTEX
  5
391
  8
レイヤー_1
 10
126.0863606455618
 20
-107.8463025989065
 30
0.0
  0
VERTEX
  5
392
  8
レイヤー_1
 10
123.09532874526781
 20
-107.1998304310994
 30
0.0
  0
VERTEX
  5
393
  8
レイヤー_1
 10
120.0629556991509
 20
-106.6329399690015
 30
0.0
  0
VERTEX
  5
394
  8
レイヤー_1
 10
116.9489338900336
 20
-106.14821503422679
 30
0.0
  0
VERTEX
  5
395
  8
レイヤー_1
 10
113.79460446373881
 20
-105.8252373324847
 30
0.0
  0
VERTEX
  5
396
  8
レイヤー_1
 10
110.6010009489123
 20
-105.5415337192743
 30
0.0
  0
VERTEX
  5
397
  8
レイヤー_1
 10
107.40739743408569
 20
-105.42112763206489
 30
0.0
  0
SEQEND
  5
398
  8
レイヤー_1
  0
POLYLINE
  5
399
  8
レイヤー_1
 66
     1
 10
0.0
 20
0.0
 30
0.0
  0
VERTEX
  5
39A
  8
レイヤー_1
 10
107.40739743408569
 20
-105.42112763206489
 30
0.0
  0
VERTEX
  5
39B
  8
レイヤー_1
 10
107.4880126684405
 20
-106.6737643505017
 30
0.0
  0
SEQEND
  5
39C
  8
レイヤー_1
  0
POLYLINE
  5
39D
  8
レイヤー_1
 66
     1
 10
0.0
 20
0.0
 30
0.0
  0
VERTEX
  5
39E
  8
レイヤー_1
 10
105.9511555724706
 20
-106.6329399690015
 30
0.0
  0
VERTEX
  5
39F
  8
レイヤー_1
 10
105.9511555724706
 20
-106.6329399690015
 30
0.0
  0
VERTEX
  5
3A0
  8
レイヤー_1
 10
105.9511555724706
 20
-106.6737643505017
 30
0.0
  0
VERTEX
  5
3A1
  8
レイヤー_1
 10
105.9511555724706
 20
-106.7145887320019
 30
0.0
  0
VERTEX
  5
3A2
  8
レイヤー_1
 10
105.9511555724706
 20
-106.7554131135021
 30
0.0
  0
SEQEND
  5
3A3
  8
レイヤー_1
  0
POLYLINE
  5
3A4
  8
レイヤー_1
 66
     1
 10
0.0
 20
0.0
 30
0.0
  0
VERTEX
  5
3A5
  8
レイヤー_1
 10
104.0112223047264
 20
-106.6329399690015
 30
0.0
  0
VERTEX
  5
3A6
  8
レイヤー_1
 10
104.0112223047264
 20
-106.6329399690015
 30
0.0
  0
VERTEX
  5
3A7
  8
レイヤー_1
 10
104.0112223047264
 20
-106.6737643505017
 30
0.0
  0
VERTEX
  5
3A8
  8
レイヤー_1
 10
104.0112223047264
 20
-106.7145887320019
 30
0.0
  0
VERTEX
  5
3A9
  8
レイヤー_1
 10
104.0112223047264
 20
-106.7554131135021
 30
0.0
  0
SEQEND
  5
3AA
  8
レイヤー_1
  0
POLYLINE
  5
3AB
  8
レイヤー_1
 66
     1
 10
0.0
 20
0.0
 30
0.0
  0
VERTEX
  5
3AC
  8
レイヤー_1
 10
155.6421793230686
 20
-124.70677215849349
 30
0.0
  0
VERTEX
  5
3AD
  8
レイヤー_1
 10
155.15745438829401
 20
-124.1409152250412
 30
0.0
  0
VERTEX
  5
3AE
  8
レイヤー_1
 10
153.49967444079181
 20
-122.4826185132162
 30
0.0
  0
VERTEX
  5
3AF
  8
レイヤー_1
 10
151.63932287875679
 20
-120.82432180139121
 30
0.0
  0
VERTEX
  5
3B0
  8
レイヤー_1
 10
149.65804846518969
 20
-119.28849823406679
 30
0.0
  0
VERTEX
  5
3B1
  8
レイヤー_1
 10
147.47523596573541
 20
-117.792465519597
 30
0.0
  0
VERTEX
  5
3B2
  8
レイヤー_1
 10
145.1704670861032
 20
-116.3780815681277
 30
0.0
  0
VERTEX
  5
3B3
  8
レイヤー_1
 10
142.74477535493881
 20
-115.0432793223677
 30
0.0
  0
VERTEX
  5
3B4
  8
レイヤー_1
 10
140.15681962641909
 20
-113.79064260393081
 30
0.0
  0
VERTEX
  5
3B5
  8
レイヤー_1
 10
137.4469075177216
 20
-112.6589287370262
 30
0.0
  0
VERTEX
  5
3B6
  8
レイヤー_1
 10
134.65844723196039
 20
-111.6062798115082
 30
0.0
  0
VERTEX
  5
3B7
  8
レイヤー_1
 10
131.7066894201983
 20
-110.63682994195889
 30
0.0
  0
VERTEX
  5
3B8
  8
レイヤー_1
 10
128.71462399125889
 20
-109.78726939529621
 30
0.0
  0
VERTEX
  5
3B9
  8
レイヤー_1
 10
125.6419433279645
 20
-109.01935761163401
 30
0.0
  0
VERTEX
  5
3BA
  8
レイヤー_1
 10
122.4473062844923
 20
-108.3728854438269
 30
0.0
  0
VERTEX
  5
3BB
  8
レイヤー_1
 10
119.2133951524883
 20
-107.8065117460519
 30
0.0
  0
VERTEX
  5
3BC
  8
レイヤー_1
 10
115.9381428746613
 20
-107.4018852813093
 30
0.0
  0
VERTEX
  5
3BD
  8
レイヤー_1
 10
112.6225829796569
 20
-107.0783908152443
 30
0.0
  0
VERTEX
  5
3BE
  8
レイヤー_1
 10
109.3070230846524
 20
-106.8768527293572
 30
0.0
  0
VERTEX
  5
3BF
  8
レイヤー_1
 10
105.9511555724706
 20
-106.7554131135021
 30
0.0
  0
SEQEND
  5
3C0
  8
レイヤー_1
  0
POLYLINE
  5
3C1
  8
レイヤー_1
 66
     1
 10
0.0
 20
0.0
 30
0.0
  0
VERTEX
  5
3C2
  8
レイヤー_1
 10
105.9511555724706
 20
-106.7554131135021
 30
0.0
  0
VERTEX
  5
3C3
  8
レイヤー_1
 10
105.91084795529309
 20
-106.7554131135021
 30
0.0
  0
VERTEX
  5
3C4
  8
レイヤー_1
 10
104.9817057029212
 20
-106.7145887320019
 30
0.0
  0
VERTEX
  5
3C5
  8
レイヤー_1
 10
104.454606093678
 20
-106.7554131135021
 30
0.0
  0
VERTEX
  5
3C6
  8
レイヤー_1
 10
104.0918375390812
 20
-106.7554131135021
 30
0.0
  0
VERTEX
  5
3C7
  8
レイヤー_1
 10
104.0112223047264
 20
-106.7554131135021
 30
0.0
  0
SEQEND
  5
3C8
  8
レイヤー_1
  0
POLYLINE
  5
3C9
  8
レイヤー_1
 66
     1
 10
0.0
 20
0.0
 30
0.0
  0
VERTEX
  5
3CA
  8
レイヤー_1
 10
104.0112223047264
 20
-106.7554131135021
 30
0.0
  0
VERTEX
  5
3CB
  8
レイヤー_1
 10
100.6553547925445
 20
-106.8768527293572
 30
0.0
  0
VERTEX
  5
3CC
  8
レイヤー_1
 10
97.299487280362641
 20
-107.0783908152443
 30
0.0
  0
VERTEX
  5
3CD
  8
レイヤー_1
 10
93.9839273853582
 20
-107.4018852813093
 30
0.0
  0
VERTEX
  5
3CE
  8
レイヤー_1
 10
90.708675107531164
 20
-107.8065117460519
 30
0.0
  0
VERTEX
  5
3CF
  8
レイヤー_1
 10
87.473730446881575
 20
-108.3728854438269
 30
0.0
  0
VERTEX
  5
3D0
  8
レイヤー_1
 10
84.320434549232374
 20
-109.01935761163401
 30
0.0
  0
VERTEX
  5
3D1
  8
レイヤー_1
 10
81.207446268760648
 20
-109.78726939529621
 30
0.0
  0
VERTEX
  5
3D2
  8
レイヤー_1
 10
78.216414368466729
 20
-110.63682994195889
 30
0.0
  0
VERTEX
  5
3D3
  8
レイヤー_1
 10
75.304964173882098
 20
-111.6062798115082
 30
0.0
  0
VERTEX
  5
3D4
  8
レイヤー_1
 10
72.47412921365229
 20
-112.6589287370262
 30
0.0
  0
VERTEX
  5
3D5
  8
レイヤー_1
 10
69.765250633600346
 20
-113.79064260393081
 30
0.0
  0
VERTEX
  5
3D6
  8
レイヤー_1
 10
67.218636050903683
 20
-115.0432793223677
 30
0.0
  0
VERTEX
  5
3D7
  8
レイヤー_1
 10
64.750569645270687
 20
-116.3780815681277
 30
0.0
  0
VERTEX
  5
3D8
  8
レイヤー_1
 10
62.44683429428413
 20
-117.792465519597
 30
0.0
  0
VERTEX
  5
3D9
  8
レイヤー_1
 10
60.304329412007249
 20
-119.28849823406679
 30
0.0
  0
VERTEX
  5
3DA
  8
レイヤー_1
 10
58.281713852617081
 20
-120.82432180139121
 30
0.0
  0
VERTEX
  5
3DB
  8
レイヤー_1
 10
56.462703436405157
 20
-122.4826185132162
 30
0.0
  0
VERTEX
  5
3DC
  8
レイヤー_1
 10
55.00749510343563
 20
-123.89803599333101
 30
0.0
  0
SEQEND
  5
3DD
  8
レイヤー_1
  0
POLYLINE
  5
3DE
  8
レイヤー_1
 66
     1
 10
0.0
 20
0.0
 30
0.0
  0
VERTEX
  5
3DF
  8
レイヤー_1
 10
55.45294594967843
 20
-155.0713270011627
 30
0.0
  0
VERTEX
  5
3E0
  8
レイヤー_1
 10
55.45294594967843
 20
-155.3131727042273
 30
0.0
  0
VERTEX
  5
3E1
  8
レイヤー_1
 10
55.614176418388119
 20
-155.87954640200229
 30
0.0
  0
VERTEX
  5
3E2
  8
レイヤー_1
 10
55.977978501630503
 20
-156.4459200997774
 30
0.0
  0
VERTEX
  5
3E3
  8
レイヤー_1
 10
56.504044582228161
 20
-156.93167856319761
 30
0.0
  0
VERTEX
  5
3E4
  8
レイヤー_1
 10
56.543318670760009
 20
-156.9709526517295
 30
0.0
  0
SEQEND
  5
3E5
  8
レイヤー_1
  0
POLYLINE
  5
3E6
  8
レイヤー_1
 66
     1
 10
0.0
 20
0.0
 30
0.0
  0
VERTEX
  5
3E7
  8
レイヤー_1
 10
65.398592106046195
 20
-156.9709526517295
 30
0.0
  0
VERTEX
  5
3E8
  8
レイヤー_1
 10
65.843009423643423
 20
-156.52653533413229
 30
0.0
  0
VERTEX
  5
3E9
  8
レイヤー_1
 10
66.247119124063218
 20
-156.00150278218021
 30
0.0
  0
VERTEX
  5
3EA
  8
レイヤー_1
 10
66.448657209950341
 20
-155.3948214672277
 30
0.0
  0
VERTEX
  5
3EB
  8
レイヤー_1
 10
66.489998355773338
 20
-155.02998585533959
 30
0.0
  0
SEQEND
  5
3EC
  8
レイヤー_1
  0
POLYLINE
  5
3ED
  8
レイヤー_1
 66
     1
 10
0.0
 20
0.0
 30
0.0
  0
VERTEX
  5
3EE
  8
レイヤー_1
 10
66.085888655353514
 20
-153.97785369414439
 30
0.0
  0
VERTEX
  5
3EF
  8
レイヤー_1
 10
66.369075504241067
 20
-154.343722834678
 30
0.0
  0
VERTEX
  5
3F0
  8
レイヤー_1
 10
66.651228824483027
 20
-154.94937062098489
 30
0.0
  0
VERTEX
  5
3F1
  8
レイヤー_1
 10
66.732877587483429
 20
-155.55501840729181
 30
0.0
  0
VERTEX
  5
3F2
  8
レイヤー_1
 10
66.610921207305609
 20
-156.16273325088989
 30
0.0
  0
VERTEX
  5
3F3
  8
レイヤー_1
 10
66.328767887063648
 20
-156.7694145658424
 30
0.0
  0
VERTEX
  5
3F4
  8
レイヤー_1
 10
65.843009423643423
 20
-157.33475473497191
 30
0.0
  0
VERTEX
  5
3F5
  8
レイヤー_1
 10
65.156746402981639
 20
-157.82051319839209
 30
0.0
  0
SEQEND
  5
3F6
  8
レイヤー_1
  0
POLYLINE
  5
3F7
  8
レイヤー_1
 66
     1
 10
0.0
 20
0.0
 30
0.0
  0
VERTEX
  5
3F8
  8
レイヤー_1
 10
65.156746402981639
 20
-157.82051319839209
 30
0.0
  0
VERTEX
  5
3F9
  8
レイヤー_1
 10
64.387801090673889
 20
-158.2246228988119
 30
0.0
  0
VERTEX
  5
3FA
  8
レイヤー_1
 10
63.498966455479433
 20
-158.50780974769941
 30
0.0
  0
VERTEX
  5
3FB
  8
レイヤー_1
 10
62.528483057284546
 20
-158.74965545076401
 30
0.0
  0
VERTEX
  5
3FC
  8
レイヤー_1
 10
61.476350896089251
 20
-158.83130421376441
 30
0.0
  0
VERTEX
  5
3FD
  8
レイヤー_1
 10
60.426285792185112
 20
-158.83130421376441
 30
0.0
  0
VERTEX
  5
3FE
  8
レイヤー_1
 10
59.414461248167221
 20
-158.74965545076401
 30
0.0
  0
VERTEX
  5
3FF
  8
レイヤー_1
 10
58.443977849972342
 20
-158.5481173648769
 30
0.0
  0
VERTEX
  5
400
  8
レイヤー_1
 10
57.555143214777893
 20
-158.2246228988119
 30
0.0
  0
VERTEX
  5
401
  8
レイヤー_1
 10
56.745890285292703
 20
-157.82051319839209
 30
0.0
  0
VERTEX
  5
402
  8
レイヤー_1
 10
56.138175441694642
 20
-157.33475473497191
 30
0.0
  0
VERTEX
  5
403
  8
レイヤー_1
 10
55.614176418388119
 20
-156.8097221830198
 30
0.0
  0
VERTEX
  5
404
  8
レイヤー_1
 10
55.330989569500588
 20
-156.2433484852447
 30
0.0
  0
SEQEND
  5
405
  8
レイヤー_1
  0
POLYLINE
  5
406
  8
レイヤー_1
 66
     1
 10
0.0
 20
0.0
 30
0.0
  0
VERTEX
  5
407
  8
レイヤー_1
 10
69.885139956487052
 20
-163.43980844438309
 30
0.0
  0
VERTEX
  5
408
  8
レイヤー_1
 10
69.643294253422511
 20
-164.0464897593356
 30
0.0
  0
VERTEX
  5
409
  8
レイヤー_1
 10
68.997338849938174
 20
-165.01800668617611
 30
0.0
  0
VERTEX
  5
40A
  8
レイヤー_1
 10
68.026855451743288
 20
-165.90684132137051
 30
0.0
  0
VERTEX
  5
40B
  8
レイヤー_1
 10
66.813492821838295
 20
-166.63444548785529
 30
0.0
  0
VERTEX
  5
40C
  8
レイヤー_1
 10
65.317976871691343
 20
-167.24009327416221
 30
0.0
  0
VERTEX
  5
40D
  8
レイヤー_1
 10
63.539274072656852
 20
-167.6462700318732
 30
0.0
  0
VERTEX
  5
40E
  8
レイヤー_1
 10
61.556966130444088
 20
-167.84780811776031
 30
0.0
  0
SEQEND
  5
40F
  8
レイヤー_1
  0
POLYLINE
  5
410
  8
レイヤー_1
 66
     1
 10
0.0
 20
0.0
 30
0.0
  0
VERTEX
  5
411
  8
レイヤー_1
 10
61.556966130444088
 20
-167.84780811776031
 30
0.0
  0
VERTEX
  5
412
  8
レイヤー_1
 10
58.767472316037292
 20
-167.96873096929261
 30
0.0
  0
VERTEX
  5
413
  8
レイヤー_1
 10
55.977978501630503
 20
-168.05037973229301
 30
0.0
  0
VERTEX
  5
414
  8
レイヤー_1
 10
53.187451158578128
 20
-168.1299614380022
 30
0.0
  0
VERTEX
  5
415
  8
レイヤー_1
 10
52.297582994738107
 20
-168.1299614380022
 30
0.0
  0
SEQEND
  5
416
  8
レイヤー_1
  0
POLYLINE
  5
417
  8
レイヤー_1
 66
     1
 10
0.0
 20
0.0
 30
0.0
  0
VERTEX
  5
418
  8
レイヤー_1
 10
60.264021794829823
 20
-141.36518686787051
 30
0.0
  0
VERTEX
  5
419
  8
レイヤー_1
 10
60.708439112427072
 20
-141.64785695243529
 30
0.0
  0
VERTEX
  5
41A
  8
レイヤー_1
 10
63.093823226414052
 20
-142.94183481669509
 30
0.0
  0
VERTEX
  5
41B
  8
レイヤー_1
 10
65.519514957578451
 20
-144.23477915230939
 30
0.0
  0
VERTEX
  5
41C
  8
レイヤー_1
 10
67.904899071565438
 20
-145.48844939939181
 30
0.0
  0
SEQEND
  5
41D
  8
レイヤー_1
  0
POLYLINE
  5
41E
  8
レイヤー_1
 66
     1
 10
0.0
 20
0.0
 30
0.0
  0
VERTEX
  5
41F
  8
レイヤー_1
 10
67.904899071565438
 20
-145.48844939939181
 30
0.0
  0
VERTEX
  5
420
  8
レイヤー_1
 10
68.835074852582906
 20
-146.01554900863499
 30
0.0
  0
VERTEX
  5
421
  8
レイヤー_1
 10
70.210701479843166
 20
-146.9844821138615
 30
0.0
  0
VERTEX
  5
422
  8
レイヤー_1
 10
71.341381818102164
 20
-148.0764051279115
 30
0.0
  0
VERTEX
  5
423
  8
レイヤー_1
 10
72.190942364764766
 20
-149.20846350436449
 30
0.0
  0
VERTEX
  5
424
  8
レイヤー_1
 10
72.757316062539843
 20
-150.42044809607549
 30
0.0
  0
VERTEX
  5
425
  8
レイヤー_1
 10
72.99916176560437
 20
-151.71442596033529
 30
0.0
  0
VERTEX
  5
426
  8
レイヤー_1
 10
72.837931296894681
 20
-153.00943735324071
 30
0.0
  0
SEQEND
  5
427
  8
レイヤー_1
  0
POLYLINE
  5
428
  8
レイヤー_1
 66
     1
 10
0.0
 20
0.0
 30
0.0
  0
VERTEX
  5
429
  8
レイヤー_1
 10
72.837931296894681
 20
-153.00943735324071
 30
0.0
  0
VERTEX
  5
42A
  8
レイヤー_1
 10
70.452547182907693
 20
-161.4595675594615
 30
0.0
  0
VERTEX
  5
42B
  8
レイヤー_1
 10
69.885139956487052
 20
-163.43980844438309
 30
0.0
  0
SEQEND
  5
42C
  8
レイヤー_1
  0
ENDSEC
  0
EOF
