  0
SECTION
  2
HEADER
  9
$ACADVER
  1
AC1015
  9
$ACADMAINTVER
 70
    20
  9
$DWGCODEPAGE
  3
ANSI_932
  9
$INSBASE
 10
0.0
 20
0.0
 30
0.0
  9
$EXTMIN
 10
-830.4472633425639
 20
0.6526404089681961
 30
0.0
  9
$EXTMAX
 10
23.02432722543446
 20
142.6771615330391
 30
0.0
  9
$LIMMIN
 10
0.0
 20
0.0
  9
$LIMMAX
 10
420.0
 20
297.0
  9
$ORTHOMODE
 70
     0
  9
$REGENMODE
 70
     1
  9
$FILLMODE
 70
     1
  9
$QTEXTMODE
 70
     0
  9
$MIRRTEXT
 70
     1
  9
$LTSCALE
 40
1.0
  9
$ATTMODE
 70
     1
  9
$TEXTSIZE
 40
3.5
  9
$TRACEWID
 40
1.0
  9
$TEXTSTYLE
  7
Standard
  9
$CLAYER
  8
0
  9
$CELTYPE
  6
ByLayer
  9
$CECOLOR
 62
   256
  9
$CELTSCALE
 40
1.0
  9
$DISPSILH
 70
     0
  9
$DIMSCALE
 40
1.0
  9
$DIMASZ
 40
2.0
  9
$DIMEXO
 40
1.0
  9
$DIMDLI
 40
3.75
  9
$DIMRND
 40
0.0
  9
$DIMDLE
 40
0.0
  9
$DIMEXE
 40
1.0
  9
$DIMTP
 40
0.0
  9
$DIMTM
 40
0.0
  9
$DIMTXT
 40
3.5
  9
$DIMCEN
 40
2.5
  9
$DIMTSZ
 40
0.0
  9
$DIMTOL
 70
     0
  9
$DIMLIM
 70
     0
  9
$DIMTIH
 70
     1
  9
$DIMTOH
 70
     1
  9
$DIMSE1
 70
     0
  9
$DIMSE2
 70
     0
  9
$DIMTAD
 70
     1
  9
$DIMZIN
 70
     0
  9
$DIMBLK
  1

  9
$DIMASO
 70
     1
  9
$DIMSHO
 70
     1
  9
$DIMPOST
  1

  9
$DIMAPOST
  1

  9
$DIMALT
 70
     0
  9
$DIMALTD
 70
     3
  9
$DIMALTF
 40
0.0393700787
  9
$DIMLFAC
 40
5.0
  9
$DIMTOFL
 70
     1
  9
$DIMTVP
 40
0.0
  9
$DIMTIX
 70
     0
  9
$DIMSOXD
 70
     0
  9
$DIMSAH
 70
     0
  9
$DIMBLK1
  1

  9
$DIMBLK2
  1

  9
$DIMSTYLE
  2
ISO-25
  9
$DIMCLRD
 70
     0
  9
$DIMCLRE
 70
     0
  9
$DIMCLRT
 70
     0
  9
$DIMTFAC
 40
1.0
  9
$DIMGAP
 40
1.524
  9
$DIMJUST
 70
     0
  9
$DIMSD1
 70
     0
  9
$DIMSD2
 70
     0
  9
$DIMTOLJ
 70
     0
  9
$DIMTZIN
 70
     0
  9
$DIMALTZ
 70
     0
  9
$DIMALTTZ
 70
     0
  9
$DIMUPT
 70
     0
  9
$DIMDEC
 70
     1
  9
$DIMTDEC
 70
     1
  9
$DIMALTU
 70
     2
  9
$DIMALTTD
 70
     3
  9
$DIMTXSTY
  7
Standard
  9
$DIMAUNIT
 70
     0
  9
$DIMADEC
 70
     1
  9
$DIMALTRND
 40
0.0
  9
$DIMAZIN
 70
     0
  9
$DIMDSEP
 70
    44
  9
$DIMATFIT
 70
     3
  9
$DIMFRAC
 70
     0
  9
$DIMLDRBLK
  1

  9
$DIMLUNIT
 70
     2
  9
$DIMLWD
 70
    -2
  9
$DIMLWE
 70
    -2
  9
$DIMTMOVE
 70
     0
  9
$LUNITS
 70
     2
  9
$LUPREC
 70
     1
  9
$SKETCHINC
 40
1.0
  9
$FILLETRAD
 40
10.0
  9
$AUNITS
 70
     0
  9
$AUPREC
 70
     1
  9
$MENU
  1
.
  9
$ELEVATION
 40
0.0
  9
$PELEVATION
 40
0.0
  9
$THICKNESS
 40
0.0
  9
$LIMCHECK
 70
     0
  9
$CHAMFERA
 40
0.0
  9
$CHAMFERB
 40
0.0
  9
$CHAMFERC
 40
0.0
  9
$CHAMFERD
 40
0.0
  9
$SKPOLY
 70
     0
  9
$TDCREATE
 40
2458044.512063843
  9
$TDUCREATE
 40
2458044.137063843
  9
$TDUPDATE
 40
2458044.574381562
  9
$TDUUPDATE
 40
2458044.199381562
  9
$TDINDWG
 40
0.0066636574
  9
$TDUSRTIMER
 40
0.0066636574
  9
$USRTIMER
 70
     1
  9
$ANGBASE
 50
0.0
  9
$ANGDIR
 70
     0
  9
$PDMODE
 70
     0
  9
$PDSIZE
 40
-1.0
  9
$PLINEWID
 40
0.0
  9
$SPLFRAME
 70
     0
  9
$SPLINETYPE
 70
     6
  9
$SPLINESEGS
 70
     8
  9
$HANDSEED
  5
CC8
  9
$SURFTAB1
 70
     6
  9
$SURFTAB2
 70
     6
  9
$SURFTYPE
 70
     6
  9
$SURFU
 70
     6
  9
$SURFV
 70
     6
  9
$UCSBASE
  2

  9
$UCSNAME
  2

  9
$UCSORG
 10
0.0
 20
0.0
 30
0.0
  9
$UCSXDIR
 10
1.0
 20
0.0
 30
0.0
  9
$UCSYDIR
 10
0.0
 20
1.0
 30
0.0
  9
$UCSORTHOREF
  2

  9
$UCSORTHOVIEW
 70
     0
  9
$UCSORGTOP
 10
0.0
 20
0.0
 30
0.0
  9
$UCSORGBOTTOM
 10
0.0
 20
0.0
 30
0.0
  9
$UCSORGLEFT
 10
0.0
 20
0.0
 30
0.0
  9
$UCSORGRIGHT
 10
0.0
 20
0.0
 30
0.0
  9
$UCSORGFRONT
 10
0.0
 20
0.0
 30
0.0
  9
$UCSORGBACK
 10
0.0
 20
0.0
 30
0.0
  9
$PUCSBASE
  2

  9
$PUCSNAME
  2

  9
$PUCSORG
 10
0.0
 20
0.0
 30
0.0
  9
$PUCSXDIR
 10
1.0
 20
0.0
 30
0.0
  9
$PUCSYDIR
 10
0.0
 20
1.0
 30
0.0
  9
$PUCSORTHOREF
  2

  9
$PUCSORTHOVIEW
 70
     0
  9
$PUCSORGTOP
 10
0.0
 20
0.0
 30
0.0
  9
$PUCSORGBOTTOM
 10
0.0
 20
0.0
 30
0.0
  9
$PUCSORGLEFT
 10
0.0
 20
0.0
 30
0.0
  9
$PUCSORGRIGHT
 10
0.0
 20
0.0
 30
0.0
  9
$PUCSORGFRONT
 10
0.0
 20
0.0
 30
0.0
  9
$PUCSORGBACK
 10
0.0
 20
0.0
 30
0.0
  9
$USERI1
 70
     0
  9
$USERI2
 70
     0
  9
$USERI3
 70
     0
  9
$USERI4
 70
     0
  9
$USERI5
 70
     0
  9
$USERR1
 40
0.0
  9
$USERR2
 40
0.0
  9
$USERR3
 40
0.0
  9
$USERR4
 40
0.0
  9
$USERR5
 40
0.0
  9
$WORLDVIEW
 70
     1
  9
$SHADEDGE
 70
     3
  9
$SHADEDIF
 70
    70
  9
$TILEMODE
 70
     1
  9
$MAXACTVP
 70
    64
  9
$PINSBASE
 10
0.0
 20
0.0
 30
0.0
  9
$PLIMCHECK
 70
     0
  9
$PEXTMIN
 10
1.000000000000000E+20
 20
1.000000000000000E+20
 30
1.000000000000000E+20
  9
$PEXTMAX
 10
-1.000000000000000E+20
 20
-1.000000000000000E+20
 30
-1.000000000000000E+20
  9
$PLIMMIN
 10
0.0
 20
0.0
  9
$PLIMMAX
 10
420.0
 20
297.0
  9
$UNITMODE
 70
     0
  9
$VISRETAIN
 70
     1
  9
$PLINEGEN
 70
     0
  9
$PSLTSCALE
 70
     1
  9
$TREEDEPTH
 70
  3020
  9
$CMLSTYLE
  2
Standard
  9
$CMLJUST
 70
     0
  9
$CMLSCALE
 40
20.0
  9
$PROXYGRAPHICS
 70
     1
  9
$MEASUREMENT
 70
     1
  9
$CELWEIGHT
370
    -1
  9
$ENDCAPS
280
     0
  9
$JOINSTYLE
280
     0
  9
$LWDISPLAY
290
     1
  9
$INSUNITS
 70
     4
  9
$HYPERLINKBASE
  1

  9
$STYLESHEET
  1

  9
$XEDIT
290
     1
  9
$CEPSNTYPE
380
     0
  9
$PSTYLEMODE
290
     1
  9
$FINGERPRINTGUID
  2
{8CB2EAC3-7A1E-475C-A4D7-2B638A17CAE1}
  9
$VERSIONGUID
  2
{CF365491-7F52-4615-B10D-8D614ADE2152}
  9
$EXTNAMES
290
     1
  9
$PSVPSCALE
 40
0.0
  9
$OLESTARTUP
290
     0
  0
ENDSEC
  0
SECTION
  2
CLASSES
  0
CLASS
  1
ACDBDICTIONARYWDFLT
  2
AcDbDictionaryWithDefault
  3
ObjectDBX Classes
 90
        0
280
     0
281
     0
  0
CLASS
  1
VISUALSTYLE
  2
AcDbVisualStyle
  3
ObjectDBX Classes
 90
     4095
280
     0
281
     0
  0
CLASS
  1
MATERIAL
  2
AcDbMaterial
  3
ObjectDBX Classes
 90
     1153
280
     0
281
     0
  0
CLASS
  1
SCALE
  2
AcDbScale
  3
ObjectDBX Classes
 90
     1153
280
     0
281
     0
  0
CLASS
  1
TABLESTYLE
  2
AcDbTableStyle
  3
ObjectDBX Classes
 90
     4095
280
     0
281
     0
  0
CLASS
  1
MLEADERSTYLE
  2
AcDbMLeaderStyle
  3
ACDB_MLEADERSTYLE_CLASS
 90
     4095
280
     0
281
     0
  0
CLASS
  1
SUN
  2
AcDbSun
  3
SCENEOE
 90
    33921
280
     0
281
     0
  0
CLASS
  1
ACDBPLACEHOLDER
  2
AcDbPlaceHolder
  3
ObjectDBX Classes
 90
        0
280
     0
281
     0
  0
CLASS
  1
LAYOUT
  2
AcDbLayout
  3
ObjectDBX Classes
 90
        0
280
     0
281
     0
  0
CLASS
  1
ACDBSECTIONVIEWSTYLE
  2
AcDbSectionViewStyle
  3
ObjectDBX Classes
 90
     1025
280
     0
281
     0
  0
CLASS
  1
ACDBDETAILVIEWSTYLE
  2
AcDbDetailViewStyle
  3
ObjectDBX Classes
 90
     1025
280
     0
281
     0
  0
CLASS
  1
DICTIONARYVAR
  2
AcDbDictionaryVar
  3
ObjectDBX Classes
 90
        0
280
     0
281
     0
  0
CLASS
  1
CELLSTYLEMAP
  2
AcDbCellStyleMap
  3
ObjectDBX Classes
 90
     1152
280
     0
281
     0
  0
ENDSEC
  0
SECTION
  2
TABLES
  0
TABLE
  2
VPORT
  5
8
330
0
100
AcDbSymbolTable
 70
     1
  0
VPORT
  5
29
330
8
100
AcDbSymbolTableRecord
100
AcDbViewportTableRecord
  2
*Active
 70
     0
 10
0.0
 20
0.0
 11
1.0
 21
1.0
 12
14.56471600592989
 22
6.613012151327211
 13
0.0
 23
0.0
 14
10.0
 24
10.0
 15
10.0
 25
10.0
 16
0.0
 26
0.0
 36
1.0
 17
0.0
 27
0.0
 37
0.0
 40
25.5838783844265
 41
2.232941176470588
 42
50.0
 43
0.0
 44
0.0
 50
0.0
 51
0.0
 71
     0
 72
  2000
 73
     1
 74
     3
 75
     0
 76
     0
 77
     0
 78
     0
281
     0
 65
     1
110
0.0
120
0.0
130
0.0
111
1.0
121
0.0
131
0.0
112
0.0
122
1.0
132
0.0
 79
     0
146
0.0
1001
ACAD_NAV_VCDISPLAY
1070
     3
  0
ENDTAB
  0
TABLE
  2
LTYPE
  5
5
330
0
100
AcDbSymbolTable
 70
     7
  0
LTYPE
  5
14
330
5
100
AcDbSymbolTableRecord
100
AcDbLinetypeTableRecord
  2
ByBlock
 70
     0
  3

 72
    65
 73
     0
 40
0.0
  0
LTYPE
  5
15
330
5
100
AcDbSymbolTableRecord
100
AcDbLinetypeTableRecord
  2
ByLayer
 70
     0
  3

 72
    65
 73
     0
 40
0.0
  0
LTYPE
  5
16
330
5
100
AcDbSymbolTableRecord
100
AcDbLinetypeTableRecord
  2
Continuous
 70
     0
  3
Solid line
 72
    65
 73
     0
 40
0.0
  0
LTYPE
  5
6E
330
5
100
AcDbSymbolTableRecord
100
AcDbLinetypeTableRecord
  2
HIDDEN
 70
     0
  3
Hidden __ __ __ __ __ __ __ __ __ __ __ __ __ __
 72
    65
 73
     2
 40
1.905
 49
1.27
 74
     0
 49
-0.635
 74
     0
  0
LTYPE
  5
6F
330
5
100
AcDbSymbolTableRecord
100
AcDbLinetypeTableRecord
  2
PHANTOM
 70
     0
  3
Phantom ______  __  __  ______  __  __  ______
 72
    65
 73
     6
 40
12.7
 49
6.349999999999998
 74
     0
 49
-1.27
 74
     0
 49
1.27
 74
     0
 49
-1.27
 74
     0
 49
1.27
 74
     0
 49
-1.27
 74
     0
  0
LTYPE
  5
70
330
5
100
AcDbSymbolTableRecord
100
AcDbLinetypeTableRecord
  2
CENTER
 70
     0
  3
Center ____ _ ____ _ ____ _ ____ _ ____ _ ____
 72
    65
 73
     4
 40
10.16
 49
6.349999999999998
 74
     0
 49
-1.27
 74
     0
 49
1.27
 74
     0
 49
-1.27
 74
     0
  0
LTYPE
  5
71
330
5
100
AcDbSymbolTableRecord
100
AcDbLinetypeTableRecord
  2
CENTERX2
 70
     0
  3
Center (2x) ________  __  ________  __  _____
 72
    65
 73
     4
 40
20.32
 49
12.7
 74
     0
 49
-2.54
 74
     0
 49
2.54
 74
     0
 49
-2.54
 74
     0
  0
LTYPE
  5
72
330
5
100
AcDbSymbolTableRecord
100
AcDbLinetypeTableRecord
  2
DOT2
 70
     0
  3
Dot (.5x) ........................................
 72
    65
 73
     2
 40
0.635
 49
0.0
 74
     0
 49
-0.635
 74
     0
  0
ENDTAB
  0
TABLE
  2
LAYER
  5
2
330
0
100
AcDbSymbolTable
 70
     4
  0
LAYER
  5
10
102
{ACAD_XDICTIONARY
360
BEF
102
}
330
2
100
AcDbSymbolTableRecord
100
AcDbLayerTableRecord
  2
0
 70
     0
 62
     7
  6
Continuous
370
    -3
390
F
  0
LAYER
  5
73
102
{ACAD_XDICTIONARY
360
BF1
102
}
330
2
100
AcDbSymbolTableRecord
100
AcDbLayerTableRecord
  2
FORMAT
 70
     0
 62
     7
  6
Continuous
370
    -3
390
F
  0
LAYER
  5
74
102
{ACAD_XDICTIONARY
360
BF3
102
}
330
2
100
AcDbSymbolTableRecord
100
AcDbLayerTableRecord
  2
図枠
 70
     0
 62
     7
  6
Continuous
370
    25
390
F
  0
LAYER
  5
75
102
{ACAD_XDICTIONARY
360
BF5
102
}
330
2
100
AcDbSymbolTableRecord
100
AcDbLayerTableRecord
  2
ﾚｲﾔｰ2
 70
     0
 62
     7
  6
Continuous
370
    -3
390
F
  0
ENDTAB
  0
TABLE
  2
STYLE
  5
3
330
0
100
AcDbSymbolTable
 70
     2
  0
STYLE
  5
11
330
3
100
AcDbSymbolTableRecord
100
AcDbTextStyleTableRecord
  2
Standard
 70
     0
 40
0.0
 41
1.0
 50
0.0
 71
     0
 42
3.5
  3
txt
  4
bigfont
  0
STYLE
  5
7C
330
3
100
AcDbSymbolTableRecord
100
AcDbTextStyleTableRecord
  2
SLDTEXTSTYLE0
 70
     0
 40
0.0
 41
0.7
 50
0.0
 71
     0
 42
3.5
  3
TXT
  4
bigfont
  0
ENDTAB
  0
TABLE
  2
VIEW
  5
6
330
0
100
AcDbSymbolTable
 70
     0
  0
ENDTAB
  0
TABLE
  2
UCS
  5
7
330
0
100
AcDbSymbolTable
 70
     0
  0
ENDTAB
  0
TABLE
  2
APPID
  5
9
330
0
100
AcDbSymbolTable
 70
     4
  0
APPID
  5
12
330
9
100
AcDbSymbolTableRecord
100
AcDbRegAppTableRecord
  2
ACAD
 70
     0
  0
APPID
  5
C01
330
9
100
AcDbSymbolTableRecord
100
AcDbRegAppTableRecord
  2
ACAD_NAV_VCDISPLAY
 70
     0
  0
APPID
  5
C7F
330
9
100
AcDbSymbolTableRecord
100
AcDbRegAppTableRecord
  2
ACAD_MLEADERVER
 70
     0
  0
APPID
  5
C86
330
9
100
AcDbSymbolTableRecord
100
AcDbRegAppTableRecord
  2
ACAD_EXEMPT_FROM_CAD_STANDARDS
 70
     0
  0
ENDTAB
  0
TABLE
  2
DIMSTYLE
  5
A
330
0
100
AcDbSymbolTable
 70
     2
100
AcDbDimStyleTable
 71
     1
340
27
  0
DIMSTYLE
105
27
330
A
100
AcDbSymbolTableRecord
100
AcDbDimStyleTableRecord
  2
ISO-25
 70
     0
 41
2.5
 42
0.625
 43
3.75
 44
1.25
 73
     0
 74
     0
 77
     1
 78
     8
140
2.5
141
2.5
143
0.0393700787
147
0.625
171
     3
172
     1
271
     2
272
     2
274
     3
278
    44
283
     0
284
     8
340
11
  0
ENDTAB
  0
TABLE
  2
BLOCK_RECORD
  5
1
330
0
100
AcDbSymbolTable
 70
     8
  0
BLOCK_RECORD
  5
1F
330
1
100
AcDbSymbolTableRecord
100
AcDbBlockTableRecord
  2
*Model_Space
340
22
  0
BLOCK_RECORD
  5
1B
330
1
100
AcDbSymbolTableRecord
100
AcDbBlockTableRecord
  2
*Paper_Space
340
1E
  0
BLOCK_RECORD
  5
23
330
1
100
AcDbSymbolTableRecord
100
AcDbBlockTableRecord
  2
*Paper_Space0
340
26
  0
BLOCK_RECORD
  5
76
330
1
100
AcDbSymbolTableRecord
100
AcDbBlockTableRecord
  2
三角１
340
0
  0
BLOCK_RECORD
  5
7E
330
1
100
AcDbSymbolTableRecord
100
AcDbBlockTableRecord
  2
三角２
340
0
  0
BLOCK_RECORD
  5
85
330
1
100
AcDbSymbolTableRecord
100
AcDbBlockTableRecord
  2
三角３
340
0
  0
BLOCK_RECORD
  5
8C
330
1
100
AcDbSymbolTableRecord
100
AcDbBlockTableRecord
  2
三角４
340
0
  0
BLOCK_RECORD
  5
93
330
1
100
AcDbSymbolTableRecord
100
AcDbBlockTableRecord
  2
三角５
340
0
  0
BLOCK_RECORD
  5
9A
330
1
100
AcDbSymbolTableRecord
100
AcDbBlockTableRecord
  2
三角６
340
0
  0
ENDTAB
  0
ENDSEC
  0
SECTION
  2
BLOCKS
  0
BLOCK
  5
20
330
1F
100
AcDbEntity
  8
0
100
AcDbBlockBegin
  2
*Model_Space
 70
     0
 10
0.0
 20
0.0
 30
0.0
  3
*Model_Space
  1

  0
ENDBLK
  5
21
330
1F
100
AcDbEntity
  8
0
100
AcDbBlockEnd
  0
BLOCK
  5
1C
330
1B
100
AcDbEntity
 67
     1
  8
0
100
AcDbBlockBegin
  2
*Paper_Space
 70
     0
 10
0.0
 20
0.0
 30
0.0
  3
*Paper_Space
  1

  0
ENDBLK
  5
1D
330
1B
100
AcDbEntity
 67
     1
  8
0
100
AcDbBlockEnd
  0
BLOCK
  5
24
330
23
100
AcDbEntity
 67
     1
  8
0
100
AcDbBlockBegin
  2
*Paper_Space0
 70
     0
 10
0.0
 20
0.0
 30
0.0
  3
*Paper_Space0
  1

  0
ENDBLK
  5
25
330
23
100
AcDbEntity
 67
     1
  8
0
100
AcDbBlockEnd
  0
BLOCK
  5
77
330
76
100
AcDbEntity
  8
0
100
AcDbBlockBegin
  2
三角１
 70
     0
 10
0.0
 20
0.0
 30
0.0
  3
三角１
  1

  0
LINE
  5
79
330
76
100
AcDbEntity
  8
FORMAT
370
    18
100
AcDbLine
 10
0.0
 20
0.0
 30
0.0
 11
-1.75
 21
-3.5
 31
0.0
  0
LINE
  5
7A
330
76
100
AcDbEntity
  8
FORMAT
370
    18
100
AcDbLine
 10
-1.75
 20
-3.5
 30
0.0
 11
1.75
 21
-3.5
 31
0.0
  0
LINE
  5
7B
330
76
100
AcDbEntity
  8
FORMAT
370
    18
100
AcDbLine
 10
1.75
 20
-3.5
 30
0.0
 11
0.0
 21
0.0
 31
0.0
  0
MTEXT
  5
7D
330
76
100
AcDbEntity
  8
FORMAT
 62
     7
100
AcDbMText
 10
-0.6943926639
 20
-0.9380245362
 30
0.0
 40
2.1166666667
 41
0.0
 71
     1
 72
     1
  1
1
  7
SLDTEXTSTYLE0
 73
     1
 44
1.0
1001
ACAD
1000
MTEXTBEGIN
1070
    73
1070
     1
1070
    44
1040
1.0
1070
    74
1070
     0
1000
MTEXTEND
  0
ENDBLK
  5
78
330
76
100
AcDbEntity
  8
0
100
AcDbBlockEnd
  0
BLOCK
  5
7F
330
7E
100
AcDbEntity
  8
0
100
AcDbBlockBegin
  2
三角２
 70
     0
 10
0.0
 20
0.0
 30
0.0
  3
三角２
  1

  0
LINE
  5
81
330
7E
100
AcDbEntity
  8
FORMAT
370
    18
100
AcDbLine
 10
0.0
 20
0.0
 30
0.0
 11
-1.75
 21
-3.5
 31
0.0
  0
LINE
  5
82
330
7E
100
AcDbEntity
  8
FORMAT
370
    18
100
AcDbLine
 10
-1.75
 20
-3.5
 30
0.0
 11
1.75
 21
-3.5
 31
0.0
  0
LINE
  5
83
330
7E
100
AcDbEntity
  8
FORMAT
370
    18
100
AcDbLine
 10
1.75
 20
-3.5
 30
0.0
 11
0.0
 21
0.0
 31
0.0
  0
MTEXT
  5
84
330
7E
100
AcDbEntity
  8
FORMAT
 62
     7
100
AcDbMText
 10
-0.6943926639
 20
-0.9380245362
 30
0.0
 40
2.1166666667
 41
0.0
 71
     1
 72
     1
  1
2
  7
SLDTEXTSTYLE0
 73
     1
 44
1.0
1001
ACAD
1000
MTEXTBEGIN
1070
    73
1070
     1
1070
    44
1040
1.0
1070
    74
1070
     0
1000
MTEXTEND
  0
ENDBLK
  5
80
330
7E
100
AcDbEntity
  8
0
100
AcDbBlockEnd
  0
BLOCK
  5
86
330
85
100
AcDbEntity
  8
0
100
AcDbBlockBegin
  2
三角３
 70
     0
 10
0.0
 20
0.0
 30
0.0
  3
三角３
  1

  0
LINE
  5
88
330
85
100
AcDbEntity
  8
FORMAT
370
    18
100
AcDbLine
 10
0.0
 20
0.0
 30
0.0
 11
-1.75
 21
-3.5
 31
0.0
  0
LINE
  5
89
330
85
100
AcDbEntity
  8
FORMAT
370
    18
100
AcDbLine
 10
-1.75
 20
-3.5
 30
0.0
 11
1.75
 21
-3.5
 31
0.0
  0
LINE
  5
8A
330
85
100
AcDbEntity
  8
FORMAT
370
    18
100
AcDbLine
 10
1.75
 20
-3.5
 30
0.0
 11
0.0
 21
0.0
 31
0.0
  0
MTEXT
  5
8B
330
85
100
AcDbEntity
  8
FORMAT
 62
     7
100
AcDbMText
 10
-0.6943926639
 20
-0.9380245362
 30
0.0
 40
2.1166666667
 41
0.0
 71
     1
 72
     1
  1
3
  7
SLDTEXTSTYLE0
 73
     1
 44
1.0
1001
ACAD
1000
MTEXTBEGIN
1070
    73
1070
     1
1070
    44
1040
1.0
1070
    74
1070
     0
1000
MTEXTEND
  0
ENDBLK
  5
87
330
85
100
AcDbEntity
  8
0
100
AcDbBlockEnd
  0
BLOCK
  5
8D
330
8C
100
AcDbEntity
  8
0
100
AcDbBlockBegin
  2
三角４
 70
     0
 10
0.0
 20
0.0
 30
0.0
  3
三角４
  1

  0
LINE
  5
8F
330
8C
100
AcDbEntity
  8
FORMAT
370
    18
100
AcDbLine
 10
0.0
 20
0.0
 30
0.0
 11
-1.75
 21
-3.5
 31
0.0
  0
LINE
  5
90
330
8C
100
AcDbEntity
  8
FORMAT
370
    18
100
AcDbLine
 10
-1.75
 20
-3.5
 30
0.0
 11
1.75
 21
-3.5
 31
0.0
  0
LINE
  5
91
330
8C
100
AcDbEntity
  8
FORMAT
370
    18
100
AcDbLine
 10
1.75
 20
-3.5
 30
0.0
 11
0.0
 21
0.0
 31
0.0
  0
MTEXT
  5
92
330
8C
100
AcDbEntity
  8
FORMAT
 62
     7
100
AcDbMText
 10
-0.6943926639
 20
-0.9380245362
 30
0.0
 40
2.1166666667
 41
0.0
 71
     1
 72
     1
  1
4
  7
SLDTEXTSTYLE0
 73
     1
 44
1.0
1001
ACAD
1000
MTEXTBEGIN
1070
    73
1070
     1
1070
    44
1040
1.0
1070
    74
1070
     0
1000
MTEXTEND
  0
ENDBLK
  5
8E
330
8C
100
AcDbEntity
  8
0
100
AcDbBlockEnd
  0
BLOCK
  5
94
330
93
100
AcDbEntity
  8
0
100
AcDbBlockBegin
  2
三角５
 70
     0
 10
0.0
 20
0.0
 30
0.0
  3
三角５
  1

  0
LINE
  5
96
330
93
100
AcDbEntity
  8
FORMAT
370
    18
100
AcDbLine
 10
0.0
 20
0.0
 30
0.0
 11
-1.75
 21
-3.5
 31
0.0
  0
LINE
  5
97
330
93
100
AcDbEntity
  8
FORMAT
370
    18
100
AcDbLine
 10
-1.75
 20
-3.5
 30
0.0
 11
1.75
 21
-3.5
 31
0.0
  0
LINE
  5
98
330
93
100
AcDbEntity
  8
FORMAT
370
    18
100
AcDbLine
 10
1.75
 20
-3.5
 30
0.0
 11
0.0
 21
0.0
 31
0.0
  0
MTEXT
  5
99
330
93
100
AcDbEntity
  8
FORMAT
 62
     7
100
AcDbMText
 10
-0.6943926639
 20
-0.9380245362
 30
0.0
 40
2.1166666667
 41
0.0
 71
     1
 72
     1
  1
5
  7
SLDTEXTSTYLE0
 73
     1
 44
1.0
1001
ACAD
1000
MTEXTBEGIN
1070
    73
1070
     1
1070
    44
1040
1.0
1070
    74
1070
     0
1000
MTEXTEND
  0
ENDBLK
  5
95
330
93
100
AcDbEntity
  8
0
100
AcDbBlockEnd
  0
BLOCK
  5
9B
330
9A
100
AcDbEntity
  8
0
100
AcDbBlockBegin
  2
三角６
 70
     0
 10
0.0
 20
0.0
 30
0.0
  3
三角６
  1

  0
LINE
  5
9D
330
9A
100
AcDbEntity
  8
FORMAT
370
    18
100
AcDbLine
 10
0.0
 20
0.0
 30
0.0
 11
-1.75
 21
-3.5
 31
0.0
  0
LINE
  5
9E
330
9A
100
AcDbEntity
  8
FORMAT
370
    18
100
AcDbLine
 10
-1.75
 20
-3.5
 30
0.0
 11
1.75
 21
-3.5
 31
0.0
  0
LINE
  5
9F
330
9A
100
AcDbEntity
  8
FORMAT
370
    18
100
AcDbLine
 10
1.75
 20
-3.5
 30
0.0
 11
0.0
 21
0.0
 31
0.0
  0
MTEXT
  5
A0
330
9A
100
AcDbEntity
  8
FORMAT
 62
     7
100
AcDbMText
 10
-0.6943926639
 20
-0.9380245362
 30
0.0
 40
2.1166666667
 41
0.0
 71
     1
 72
     1
  1
6
  7
SLDTEXTSTYLE0
 73
     1
 44
1.0
1001
ACAD
1000
MTEXTBEGIN
1070
    73
1070
     1
1070
    44
1040
1.0
1070
    74
1070
     0
1000
MTEXTEND
  0
ENDBLK
  5
9C
330
9A
100
AcDbEntity
  8
0
100
AcDbBlockEnd
  0
ENDSEC
  0
SECTION
  2
ENTITIES
  0
LINE
  5
EA
330
1F
100
AcDbEntity
  8
0
  6
Continuous
 62
     7
370
    25
100
AcDbLine
 10
6.150705699407922
 20
14.92908379956819
 30
0.0
 11
6.768341707031936
 21
14.7982925440202
 31
0.0
  0
SPLINE
  5
EB
330
1F
100
AcDbEntity
  8
0
  6
Continuous
 62
     7
370
    25
100
AcDbSpline
210
0.0
220
0.0
230
1.0
 70
     8
 71
     3
 72
    11
 73
     7
 74
     0
 42
0.000000001
 43
0.0000000001
 40
0.0
 40
0.0
 40
0.0
 40
0.0
 40
0.0409530576498191
 40
0.3656117988194302
 40
0.7033984382657378
 40
1.0
 40
1.0
 40
1.0
 40
1.0
 10
4.695742119370834
 20
15.34979594364461
 30
0.0
 10
4.697900584736089
 20
15.349231092568
 30
0.0
 10
4.717170462254102
 20
15.3441883380095
 30
0.0
 10
4.761725195079634
 20
15.33934109531759
 30
0.0
 10
4.828395093546987
 20
15.33722184915982
 30
0.0
 10
4.870226357003616
 20
15.3413577853104
 30
0.0
 10
4.889784126280233
 20
15.34329149895637
 30
0.0
  0
SPLINE
  5
EC
330
1F
100
AcDbEntity
  8
0
  6
Continuous
 62
     7
370
    25
100
AcDbSpline
210
0.0
220
0.0
230
1.0
 70
     8
 71
     3
 72
    12
 73
     8
 74
     0
 42
0.000000001
 43
0.0000000001
 40
0.0
 40
0.0
 40
0.0
 40
0.0
 40
0.1202302561357527
 40
0.3506355950688131
 40
0.5827340412673827
 40
0.8180875866620523
 40
1.0
 40
1.0
 40
1.0
 40
1.0
 10
4.89004798662529
 20
15.34314069409589
 30
0.0
 10
4.913465733595558
 20
15.34623265399349
 30
0.0
 10
4.981760486581038
 20
15.3552499449278
 30
0.0
 10
5.086872707826955
 20
15.37432918991911
 30
0.0
 10
5.198159806480248
 20
15.40198986246659
 30
0.0
 10
5.286744501617363
 20
15.4317779954078
 30
0.0
 10
5.331813429670432
 20
15.4545066921824
 30
0.0
 10
5.351461803320717
 20
15.46441555724979
 30
0.0
  0
LINE
  5
ED
330
1F
100
AcDbEntity
  8
0
  6
Continuous
 62
     7
370
    25
100
AcDbLine
 10
7.244063441032039
 20
14.80459680083018
 30
0.0
 11
7.379630802313954
 21
14.83968421581818
 31
0.0
  0
LINE
  5
EE
330
1F
100
AcDbEntity
  8
0
  6
Continuous
 62
     7
370
    25
100
AcDbLine
 10
4.367404017999888
 20
15.42387672356619
 30
0.0
 11
4.695453134239983
 21
15.34959634771218
 31
0.0
  0
LINE
  5
EF
330
1F
100
AcDbEntity
  8
0
  6
Continuous
 62
     7
370
    25
100
AcDbLine
 10
5.01287352583995
 20
15.7429718822502
 30
0.0
 11
5.012342401778028
 21
15.80176279777819
 31
0.0
  0
LINE
  5
F0
330
1F
100
AcDbEntity
  8
0
  6
Continuous
 62
     7
370
    25
100
AcDbLine
 10
5.011079480707962
 20
15.94154757918019
 30
0.0
 11
5.010618525887821
 21
15.9925657483042
 31
0.0
  0
LINE
  5
F1
330
1F
100
AcDbEntity
  8
0
  6
Continuous
 62
     7
370
    25
100
AcDbLine
 10
4.028457699747946
 20
15.9925657353462
 30
0.0
 11
4.026202649749848
 21
15.7429718692922
 31
0.0
  0
LINE
  5
F2
330
1F
100
AcDbEntity
  8
0
  6
Continuous
 62
     7
370
    25
100
AcDbLine
 10
4.025538043999858
 20
15.54301374334417
 30
0.0
 11
4.025538043999858
 21
15.36239094756018
 31
0.0
  0
LINE
  5
F3
330
1F
100
AcDbEntity
  8
0
  6
Continuous
 62
     7
370
    25
100
AcDbLine
 10
7.249374981813957
 20
14.80597148772818
 30
0.0
 11
7.255779701199912
 21
14.55535542030617
 31
0.0
  0
LINE
  5
F4
330
1F
100
AcDbEntity
  8
0
  6
Continuous
 62
     7
370
    25
100
AcDbLine
 10
7.587229009826046
 20
14.56926438147817
 30
0.0
 11
7.600384740279992
 21
15.08404268997418
 31
0.0
  0
ARC
  5
F5
330
1F
100
AcDbEntity
  8
0
  6
Continuous
 62
     7
370
    25
100
AcDbCircle
 10
7.394634290330031
 20
14.51819550101217
 30
0.0
 40
0.0380000000000081
100
AcDbArc
 50
255.4891813008944
 51
284.5108186991056
  0
LINE
  5
F6
330
1F
100
AcDbEntity
  8
0
  6
Continuous
 62
     7
370
    25
100
AcDbLine
 10
7.317631178679903
 20
14.49887323692019
 30
0.0
 11
7.385112961462027
 21
14.48140766631818
 31
0.0
  0
LINE
  5
F7
330
1F
100
AcDbEntity
  8
0
  6
Continuous
 62
     7
370
    25
100
AcDbLine
 10
7.404155750525887
 20
14.48140766631818
 30
0.0
 11
7.525377607434052
 21
14.51278219159419
 31
0.0
  0
SPLINE
  5
F8
330
1F
100
AcDbEntity
  8
0
  6
Continuous
 62
     7
370
    25
100
AcDbSpline
210
0.0
220
0.0
230
1.0
 70
     8
 71
     3
 72
    12
 73
     8
 74
     0
 42
0.000000001
 43
0.0000000001
 40
0.0
 40
0.0
 40
0.0
 40
0.0
 40
0.1705385360556428
 40
0.3541944111558991
 40
0.5629670847197597
 40
0.894626493486321
 40
1.0
 40
1.0
 40
1.0
 40
1.0
 10
7.256637597676217
 20
14.554021992276
 30
0.0
 10
7.257273000110558
 20
14.54833765555719
 30
0.0
 10
7.258592678326976
 20
14.53653175910989
 30
0.0
 10
7.269519510296959
 20
14.52220487711281
 30
0.0
 10
7.285404080717626
 20
14.51000787737558
 30
0.0
 10
7.301675778870958
 20
14.50326809988732
 30
0.0
 10
7.314531516952797
 20
14.49972702865267
 30
0.0
 10
7.31763117867888
 20
14.49887323691351
 30
0.0
  0
SPLINE
  5
F9
330
1F
100
AcDbEntity
  8
0
  6
Continuous
 62
     7
370
    25
100
AcDbSpline
210
0.0
220
0.0
230
1.0
 70
     8
 71
     3
 72
    12
 73
     8
 74
     0
 42
0.000000001
 43
0.0000000001
 40
0.0
 40
0.0
 40
0.0
 40
0.0
 40
0.2531981578370564
 40
0.5452145749286476
 40
0.7785025524526216
 40
0.9783391784487346
 40
1.0
 40
1.0
 40
1.0
 40
1.0
 10
7.525377607434506
 20
14.51278219158339
 30
0.0
 10
7.532826205389369
 20
14.51499907009099
 30
0.0
 10
7.548865359079741
 20
14.5197727006873
 30
0.0
 10
7.567794201586707
 20
14.53011365453551
 30
0.0
 10
7.582128874682553
 20
14.54702782445181
 30
0.0
 10
7.588522407617119
 20
14.56275418681238
 30
0.0
 10
7.586944645544804
 20
14.57006184176129
 30
0.0
 10
7.586790352016578
 20
14.57077647667731
 30
0.0
  0
SPLINE
  5
FA
330
1F
100
AcDbEntity
  8
0
  6
Continuous
 62
     7
370
    25
100
AcDbSpline
210
0.0
220
0.0
230
1.0
 70
     8
 71
     3
 72
    12
 73
     8
 74
     0
 42
0.000000001
 43
0.0000000001
 40
0.0
 40
0.0
 40
0.0
 40
0.0
 40
0.1183868985623319
 40
0.312423447137515
 40
0.490664826205769
 40
0.703775874988634
 40
1.0
 40
1.0
 40
1.0
 40
1.0
 10
5.4019865549634
 20
15.5931216435047
 30
0.0
 10
5.40212053369828
 20
15.59977245492859
 30
0.0
 10
5.402474104057546
 20
15.61732396997428
 30
0.0
 10
5.38937796551022
 20
15.64232329675499
 30
0.0
 10
5.368908495493542
 20
15.6642041622182
 30
0.0
 10
5.341463328816757
 20
15.6813616875159
 30
0.0
 10
5.31810674170174
 20
15.68845864854128
 30
0.0
 10
5.304522789645488
 20
15.6925861684499
 30
0.0
  0
LINE
  5
FB
330
1F
100
AcDbEntity
  8
0
  6
Continuous
 62
     7
370
    25
100
AcDbLine
 10
5.609413068067738
 20
15.06916421477618
 30
0.0
 11
6.150011414365962
 21
14.92924706698619
 31
0.0
  0
SPLINE
  5
FC
330
1F
100
AcDbEntity
  8
0
  6
Continuous
 62
     7
370
    25
100
AcDbSpline
210
0.0
220
0.0
230
1.0
 70
     8
 71
     3
 72
    11
 73
     7
 74
     0
 42
0.000000001
 43
0.0000000001
 40
0.0
 40
0.0
 40
0.0
 40
0.0
 40
0.0822461860108526
 40
0.4761054842469031
 40
0.7893575342844276
 40
1.0
 40
1.0
 40
1.0
 40
1.0
 10
5.351211856704026
 20
15.46493087531601
 30
0.0
 10
5.353458319175047
 20
15.4659868672565
 30
0.0
 10
5.36646260733039
 20
15.4720997775151
 30
0.0
 10
5.385871490149952
 20
15.4902446482013
 30
0.0
 10
5.402784553749711
 20
15.52002977688542
 30
0.0
 10
5.402738461068338
 20
15.53955952366178
 30
0.0
 10
5.402719928566853
 20
15.54741185632059
 30
0.0
  0
LINE
  5
FD
330
1F
100
AcDbEntity
  8
0
  6
Continuous
 62
     7
370
    25
100
AcDbLine
 10
5.404155344852142
 20
15.5474635568342
 30
0.0
 11
5.403664260326081
 21
15.59299194792419
 31
0.0
  0
LINE
  5
FE
330
1F
100
AcDbEntity
  8
0
  6
Continuous
 62
     7
370
    25
100
AcDbLine
 10
3.732210274042017
 20
15.59890339957019
 30
0.0
 11
4.051433707159958
 21
15.50557253098819
 31
0.0
  0
LINE
  5
FF
330
1F
100
AcDbEntity
  8
0
  6
Continuous
 62
     7
370
    25
100
AcDbLine
 10
5.304704468919908
 20
15.69277525264419
 30
0.0
 11
5.01261977548188
 21
15.77105842024821
 31
0.0
  0
SPLINE
  5
100
330
1F
100
AcDbEntity
  8
0
  6
Continuous
 62
     7
370
    25
100
AcDbSpline
210
0.0
220
0.0
230
1.0
 70
     8
 71
     3
 72
     9
 73
     5
 74
     0
 42
0.000000001
 43
0.0000000001
 40
0.0
 40
0.0
 40
0.0
 40
0.0
 40
0.4509647321844983
 40
1.0
 40
1.0
 40
1.0
 40
1.0
 10
5.609164672979886
 20
15.06927107056319
 30
0.0
 10
5.609115265454988
 20
15.06925328094019
 30
0.0
 10
5.609005705834306
 20
15.06921383301491
 30
0.0
 10
5.609101770219695
 20
15.0692477994709
 30
0.0
 10
5.609154512955115
 20
15.0692664482531
 30
0.0
  0
SPLINE
  5
101
330
1F
100
AcDbEntity
  8
0
  6
Continuous
 62
     7
370
    25
100
AcDbSpline
210
0.0
220
0.0
230
1.0
 70
     8
 71
     3
 72
    11
 73
     7
 74
     0
 42
0.000000001
 43
0.0000000001
 40
0.0
 40
0.0
 40
0.0
 40
0.0
 40
0.179969980750736
 40
0.5564787455640206
 40
0.881420064229294
 40
1.0
 40
1.0
 40
1.0
 40
1.0
 10
3.687772678462238
 20
15.82763459334418
 30
0.0
 10
3.682933362882863
 20
15.8252167875344
 30
0.0
 10
3.667969888131551
 20
15.8177407765996
 30
0.0
 10
3.648228652742773
 20
15.79521027012842
 30
0.0
 10
3.635187957279299
 20
15.76748067308961
 30
0.0
 10
3.636626724366578
 20
15.75150062743941
 30
0.0
 10
3.637011393437319
 20
15.74722819907691
 30
0.0
  0
LINE
  5
102
330
1F
100
AcDbEntity
  8
0
  6
Continuous
 62
     7
370
    25
100
AcDbLine
 10
3.635410964314132
 20
15.74742910821018
 30
0.0
 11
3.634921431327938
 21
15.70186655329618
 31
0.0
  0
SPLINE
  5
103
330
1F
100
AcDbEntity
  8
0
  6
Continuous
 62
     7
370
    25
100
AcDbSpline
210
0.0
220
0.0
230
1.0
 70
     8
 71
     3
 72
    13
 73
     9
 74
     0
 42
0.000000001
 43
0.0000000001
 40
0.0
 40
0.0
 40
0.0
 40
0.0
 40
0.0869577971200574
 40
0.2899745599400327
 40
0.4714740946396315
 40
0.6838680492086234
 40
0.9883218837902244
 40
1.0
 40
1.0
 40
1.0
 40
1.0
 10
3.636622609833352
 20
15.7018221387155
 30
0.0
 10
3.636150165656999
 20
15.69696464549059
 30
0.0
 10
3.634574725654601
 20
15.68076656427249
 30
0.0
 10
3.645881364816204
 20
15.65557785432091
 30
0.0
 10
3.665383709823117
 20
15.63155661328142
 30
0.0
 10
3.693537699612079
 20
15.61262660377991
 30
0.0
 10
3.715912812691044
 20
15.60317387607909
 30
0.0
 10
3.731697593633953
 20
15.5990955071995
 30
0.0
 10
3.732280693525353
 20
15.59894484964778
 30
0.0
  0
SPLINE
  5
104
330
1F
100
AcDbEntity
  8
0
  6
Continuous
 62
     7
370
    25
100
AcDbSpline
210
0.0
220
0.0
230
1.0
 70
     8
 71
     3
 72
    11
 73
     7
 74
     0
 42
0.000000001
 43
0.0000000001
 40
0.0
 40
0.0
 40
0.0
 40
0.0
 40
0.1721276443323086
 40
0.4686011545657955
 40
0.769337312036188
 40
1.0
 40
1.0
 40
1.0
 40
1.0
 10
4.027911435768373
 20
15.93210167202627
 30
0.0
 10
4.003172604786982
 20
15.9279962488404
 30
0.0
 10
3.93582348834775
 20
15.91681962435129
 30
0.0
 10
3.841184297974336
 20
15.8922171410947
 30
0.0
 10
3.752075053129829
 20
15.86225461355249
 30
0.0
 10
3.706994581057074
 20
15.8389409838212
 30
0.0
 10
3.687426637030739
 20
15.8288213071485
 30
0.0
  0
LINE
  5
105
330
1F
100
AcDbEntity
  8
0
  6
Continuous
 62
     7
370
    25
100
AcDbLine
 10
3.921113210356111
 20
16.0910221859342
 30
0.0
 11
3.921113210356111
 21
16.0469759747362
 31
0.0
  0
LINE
  5
106
330
1F
100
AcDbEntity
  8
0
  6
Continuous
 62
     7
370
    25
100
AcDbLine
 10
5.117963015279997
 20
15.84946866555219
 30
0.0
 11
5.117963015279997
 21
15.8935148767882
 31
0.0
  0
LINE
  5
108
330
1F
100
AcDbEntity
  8
0
  6
Continuous
 62
     7
370
    25
100
AcDbLine
 10
4.970188759717984
 20
16.2077619396502
 30
0.0
 11
4.898164432425915
 21
16.42640370906218
 31
0.0
  0
LINE
  5
109
330
1F
100
AcDbEntity
  8
0
  6
Continuous
 62
     7
370
    25
100
AcDbLine
 10
4.140911805712107
 20
16.42640372525017
 30
0.0
 11
4.068887616056031
 21
16.20776195260819
 31
0.0
  0
LINE
  5
10A
330
1F
100
AcDbEntity
  8
0
  6
Continuous
 62
     7
370
    25
100
AcDbLine
 10
4.975533107876117
 20
15.99282052234417
 30
0.0
 11
4.97181876800812
 21
16.19836504235221
 31
0.0
  0
LINE
  5
10B
330
1F
100
AcDbEntity
  8
0
  6
Continuous
 62
     7
370
    25
100
AcDbLine
 10
4.067257482632157
 20
16.19836503589221
 30
0.0
 11
4.063543167805732
 21
15.9928205482222
 31
0.0
  0
ARC
  5
10C
330
1F
100
AcDbEntity
  8
0
  6
Continuous
 62
     7
370
    25
100
AcDbCircle
 10
7.636464809507856
 20
16.8906974967222
 30
0.0
 40
0.3306558823529442
100
AcDbArc
 50
102.6371311623075
 51
127.7001948741973
  0
ARC
  5
10E
330
1F
100
AcDbEntity
  8
0
  6
Continuous
 62
     7
370
    25
100
AcDbCircle
 10
7.636464809507856
 20
16.8906974967222
 30
0.0
 40
0.3306558823529373
100
AcDbArc
 50
54.14035386029958
 51
77.3628688376925
  0
LINE
  5
10F
330
1F
100
AcDbEntity
  8
0
  6
Continuous
 62
     7
370
    25
100
AcDbLine
 10
8.111070772801895
 20
15.14167809823419
 30
0.0
 11
8.119803864516143
 21
14.7999509241362
 31
0.0
  0
LINE
  5
110
330
1F
100
AcDbEntity
  8
0
  6
Continuous
 62
     7
370
    25
100
AcDbLine
 10
8.006872262445767
 20
15.16535438321219
 30
0.0
 11
8.111155356241852
 21
15.13836393245219
 31
0.0
  0
LINE
  5
111
330
1F
100
AcDbEntity
  8
0
  6
Continuous
 62
     7
370
    25
100
AcDbLine
 10
8.148270126558031
 20
14.76413391583619
 30
0.0
 11
8.218097023175914
 21
14.74606138514218
 31
0.0
  0
LINE
  5
112
330
1F
100
AcDbEntity
  8
0
  6
Continuous
 62
     7
370
    25
100
AcDbLine
 10
8.398335635615922
 20
14.74606137864418
 30
0.0
 11
8.521902556314103
 21
14.77804285109218
 31
0.0
  0
LINE
  5
113
330
1F
100
AcDbEntity
  8
0
  6
Continuous
 62
     7
370
    25
100
AcDbLine
 10
8.55036859312986
 20
14.81385989176817
 30
0.0
 11
8.559101910107983
 21
15.15558705936817
 31
0.0
  0
LINE
  5
114
330
1F
100
AcDbEntity
  8
0
  6
Continuous
 62
     7
370
    25
100
AcDbLine
 10
8.559017126446065
 20
15.1522728935862
 30
0.0
 11
8.689029857107925
 21
15.18592266437821
 31
0.0
  0
LINE
  5
115
330
1F
100
AcDbEntity
  8
0
  6
Continuous
 62
     7
370
    25
100
AcDbLine
 10
7.941245560053971
 20
15.36956305741418
 30
0.0
 11
7.945020860054
 21
15.22183653954218
 31
0.0
  0
ARC
  5
116
330
1F
100
AcDbEntity
  8
0
  6
Continuous
 62
     7
370
    25
100
AcDbCircle
 10
8.157791519455827
 20
14.80092173365818
 30
0.0
 40
0.0380000000000081
100
AcDbArc
 50
181.4639316503005
 51
255.4891813008944
  0
SPLINE
  5
117
330
1F
100
AcDbEntity
  8
0
  6
Continuous
 62
     7
370
    25
100
AcDbSpline
210
0.0
220
0.0
230
1.0
 70
     8
 71
     3
 72
    12
 73
     8
 74
     0
 42
0.000000001
 43
0.0000000001
 40
0.0
 40
0.0
 40
0.0
 40
0.0
 40
0.1705385619626988
 40
0.3541937812700389
 40
0.5629677606641586
 40
0.8946263462258945
 40
1.0
 40
1.0
 40
1.0
 40
1.0
 10
7.945878731491234
 20
15.2205031007683
 30
0.0
 10
7.946514153508587
 20
15.2148187763691
 30
0.0
 10
7.947833869850001
 20
15.2030129282974
 30
0.0
 10
7.95876052966264
 20
15.18868591298079
 30
0.0
 10
7.974645246093245
 20
15.17648907950388
 30
0.0
 10
7.990916846538993
 20
15.16974925559731
 30
0.0
 10
8.003772590237872
 20
15.16620817879419
 30
0.0
 10
8.006872262444403
 20
15.1653543831988
 30
0.0
  0
ARC
  5
118
330
1F
100
AcDbEntity
  8
0
  6
Continuous
 62
     7
370
    25
100
AcDbCircle
 10
8.512381099120034
 20
14.8148306990102
 30
0.0
 40
0.0380000000000081
100
AcDbArc
 50
284.5108186991056
 51
358.5360683496995
  0
LINE
  5
119
330
1F
100
AcDbEntity
  8
0
  6
Continuous
 62
     7
370
    25
100
AcDbLine
 10
8.817650914606019
 20
15.28380797781619
 30
0.0
 11
8.821245961758108
 21
15.4314453023922
 31
0.0
  0
SPLINE
  5
11A
330
1F
100
AcDbEntity
  8
0
  6
Continuous
 62
     7
370
    25
100
AcDbSpline
210
0.0
220
0.0
230
1.0
 70
     8
 71
     3
 72
    12
 73
     8
 74
     0
 42
0.000000001
 43
0.0000000001
 40
0.0
 40
0.0
 40
0.0
 40
0.0
 40
0.1610353467625392
 40
0.4834283520815295
 40
0.7277679225966595
 40
0.9397657779480979
 40
1.0
 40
1.0
 40
1.0
 40
1.0
 10
8.689029857089508
 20
15.18592266438779
 30
0.0
 10
8.700575792095037
 20
15.18917145999231
 30
0.0
 10
8.735236706267869
 20
15.198924349261
 30
0.0
 10
8.775677059870076
 20
15.2176915067979
 30
0.0
 10
8.805721923230521
 20
15.2441296733553
 30
0.0
 10
8.821115086686177
 20
15.27436334754267
 30
0.0
 10
8.815991751153433
 20
15.2892833975684
 30
0.0
 10
8.8148581590616
 20
15.29258461620091
 30
0.0
  0
LINE
  5
11B
330
1F
100
AcDbEntity
  8
0
  6
Continuous
 62
     7
370
    25
100
AcDbLine
 10
7.2414738359181
 20
15.4747258011262
 30
0.0
 11
7.943199512948012
 21
15.29310583145818
 31
0.0
  0
LINE
  5
11C
330
1F
100
AcDbEntity
  8
0
  6
Continuous
 62
     7
370
    25
100
AcDbLine
 10
8.127066054966121
 20
16.57201025903219
 30
0.0
 11
8.120565941444056
 21
16.9317131910482
 31
0.0
  0
LINE
  5
11D
330
1F
100
AcDbEntity
  8
0
  6
Continuous
 62
     7
370
    25
100
AcDbLine
 10
7.152363737992118
 20
16.93171316513218
 30
0.0
 11
7.145863549381942
 21
16.5720102525722
 31
0.0
  0
LINE
  5
11E
330
1F
100
AcDbEntity
  8
0
  6
Continuous
 62
     7
370
    25
100
AcDbLine
 10
8.059766502020124
 20
16.93163957497819
 30
0.0
 11
8.054460153862009
 21
17.2252746265782
 31
0.0
  0
LINE
  5
11F
330
1F
100
AcDbEntity
  8
0
  6
Continuous
 62
     7
370
    25
100
AcDbLine
 10
7.218469387976028
 20
17.2252746557242
 30
0.0
 11
7.213163127369966
 21
16.93163958793619
 31
0.0
  0
LINE
  5
120
330
1F
100
AcDbEntity
  8
0
  6
Continuous
 62
     7
370
    25
100
AcDbLine
 10
8.122544243408015
 20
15.92417621909018
 30
0.0
 11
8.127292077977926
 21
16.1869195482202
 31
0.0
  0
SPLINE
  5
121
330
1F
100
AcDbEntity
  8
0
  6
Continuous
 62
     7
370
    25
100
AcDbSpline
210
0.0
220
0.0
230
1.0
 70
     8
 71
     3
 72
    14
 73
    10
 74
     0
 42
0.000000001
 43
0.0000000001
 40
0.0
 40
0.0
 40
0.0
 40
0.0
 40
0.0879777561710855
 40
0.2646113891430116
 40
0.4425903101679702
 40
0.6236195121248849
 40
0.8120506578003844
 40
0.9426612140283918
 40
1.0
 40
1.0
 40
1.0
 40
1.0
 10
7.757979810827805
 20
15.77650521223148
 30
0.0
 10
7.775204249228295
 20
15.77758050279877
 30
0.0
 10
7.827010328068922
 20
15.78081466269501
 30
0.0
 10
7.905218300918704
 20
15.79283190938929
 30
0.0
 10
7.987308649491069
 20
15.8116639045769
 30
0.0
 10
8.053821141356479
 20
15.83657865753241
 30
0.0
 10
8.095441035506837
 20
15.8646144176366
 30
0.0
 10
8.120476773647624
 20
15.89553208723276
 30
0.0
 10
8.119842644375239
 20
15.91521634262702
 30
0.0
 10
8.119649186913875
 20
15.92122153154579
 30
0.0
  0
SPLINE
  5
122
330
1F
100
AcDbEntity
  8
0
  6
Continuous
 62
     7
370
    25
100
AcDbSpline
210
0.0
220
0.0
230
1.0
 70
     8
 71
     3
 72
    12
 73
     8
 74
     0
 42
0.000000001
 43
0.0000000001
 40
0.0
 40
0.0
 40
0.0
 40
0.0
 40
0.1179609921013619
 40
0.3032613869287333
 40
0.4842064484964569
 40
0.699068963801593
 40
1.0
 40
1.0
 40
1.0
 40
1.0
 10
8.52026774328533
 20
16.4267585796675
 30
0.0
 10
8.52031021233131
 20
16.43350065010551
 30
0.0
 10
8.520419394372083
 20
16.4508335802154
 30
0.0
 10
8.507435215983377
 20
16.47541717605992
 30
0.0
 10
8.486712739262998
 20
16.49756270025
 30
0.0
 10
8.458493378283492
 20
16.5147759770129
 30
0.0
 10
8.434450493718031
 20
16.52201650235059
 30
0.0
 10
8.420423078787507
 20
16.52624086457092
 30
0.0
  0
LINE
  5
123
330
1F
100
AcDbEntity
  8
0
  6
Continuous
 62
     7
370
    25
100
AcDbLine
 10
8.522879370102032
 20
16.3812601516482
 30
0.0
 11
8.521923026533954
 21
16.42674074668019
 31
0.0
  0
SPLINE
  5
124
330
1F
100
AcDbEntity
  8
0
  6
Continuous
 62
     7
370
    25
100
AcDbSpline
210
0.0
220
0.0
230
1.0
 70
     8
 71
     3
 72
     9
 73
     5
 74
     0
 42
0.000000001
 43
0.0000000001
 40
0.0
 40
0.0
 40
0.0
 40
0.0
 40
0.5000017513876274
 40
1.0
 40
1.0
 40
1.0
 40
1.0
 10
8.442923629577649
 20
16.29308916949893
 30
0.0
 10
8.455608619202735
 20
16.30492501622751
 30
0.0
 10
8.480978509586861
 20
16.32859662676861
 30
0.0
 10
8.506358125950782
 20
16.35228175973668
 30
0.0
 10
8.519047889683179
 20
16.36412428473892
 30
0.0
  0
LINE
  5
125
330
1F
100
AcDbEntity
  8
0
  6
Continuous
 62
     7
370
    25
100
AcDbLine
 10
8.522757499883823
 20
16.3743120313502
 30
0.0
 11
8.522889329939857
 21
16.38057694774821
 31
0.0
  0
LINE
  5
126
330
1F
100
AcDbEntity
  8
0
  6
Continuous
 62
     7
370
    25
100
AcDbLine
 10
7.003686016014057
 20
16.16110609988419
 30
0.0
 11
6.817385897831854
 21
16.11288808118217
 31
0.0
  0
LINE
  5
127
330
1F
100
AcDbEntity
  8
0
  6
Continuous
 62
     7
370
    25
100
AcDbLine
 10
8.420481236172008
 20
16.52629498914819
 30
0.0
 11
8.126517275990067
 21
16.60237846059419
 31
0.0
  0
SPLINE
  5
128
330
1F
100
AcDbEntity
  8
0
  6
Continuous
 62
     7
370
    25
100
AcDbSpline
210
0.0
220
0.0
230
1.0
 70
     8
 71
     3
 72
    11
 73
     7
 74
     0
 42
0.000000001
 43
0.0000000001
 40
0.0
 40
0.0
 40
0.0
 40
0.0
 40
0.1226803277746073
 40
0.5231664955890285
 40
0.8882659369817108
 40
1.0
 40
1.0
 40
1.0
 40
1.0
 10
6.794550516685944
 20
16.64708702074799
 30
0.0
 10
6.791702437843923
 20
16.6454750242905
 30
0.0
 10
6.779556892962887
 20
16.63860071483208
 30
0.0
 10
6.762879367998721
 20
16.6177497340156
 30
0.0
 10
6.750631247161777
 20
16.5915230376192
 30
0.0
 10
6.752112128403155
 20
16.5764067212506
 30
0.0
 10
6.752459136061929
 20
16.57286458876601
 30
0.0
  0
LINE
  5
129
330
1F
100
AcDbEntity
  8
0
  6
Continuous
 62
     7
370
    25
100
AcDbLine
 10
6.750999145507876
 20
16.57292872534017
 30
0.0
 11
6.750040299449892
 21
16.5273426315542
 31
0.0
  0
LINE
  5
12A
330
1F
100
AcDbEntity
  8
0
  6
Continuous
 62
     7
370
    25
100
AcDbLine
 10
6.75004930833802
 20
16.52665974210419
 30
0.0
 11
6.750180738026074
 21
16.52041084016019
 31
0.0
  0
SPLINE
  5
12B
330
1F
100
AcDbEntity
  8
0
  6
Continuous
 62
     7
370
    25
100
AcDbSpline
210
0.0
220
0.0
230
1.0
 70
     8
 71
     3
 72
     9
 73
     5
 74
     0
 42
0.000000001
 43
0.0000000001
 40
0.0
 40
0.0
 40
0.0
 40
0.0
 40
0.4999994187221386
 40
1.0
 40
1.0
 40
1.0
 40
1.0
 10
6.758590836072926
 20
16.50483952196561
 30
0.0
 10
6.77100921288445
 20
16.49332324047901
 30
0.0
 10
6.795845995381455
 20
16.47029065072899
 30
0.0
 10
6.820678487114946
 20
16.44726214868248
 30
0.0
 10
6.833094747416339
 20
16.43574788427321
 30
0.0
  0
SPLINE
  5
12C
330
1F
100
AcDbEntity
  8
0
  6
Continuous
 62
     7
370
    25
100
AcDbSpline
210
0.0
220
0.0
230
1.0
 70
     8
 71
     3
 72
    12
 73
     8
 74
     0
 42
0.000000001
 43
0.0000000001
 40
0.0
 40
0.0
 40
0.0
 40
0.0
 40
0.1059517016882858
 40
0.3735535850869982
 40
0.6448337924611052
 40
0.9231799206220799
 40
1.0
 40
1.0
 40
1.0
 40
1.0
 10
7.149282923219516
 20
16.76122180026348
 30
0.0
 10
7.132650215343915
 20
16.7587504519924
 30
0.0
 10
7.074008328920967
 20
16.75003722707998
 30
0.0
 10
6.98644024518046
 20
16.72909624834909
 30
0.0
 10
6.889386118608513
 20
16.69844310893359
 30
0.0
 10
6.829162768246987
 20
16.67057347323992
 30
0.0
 10
6.800566937527605
 20
16.65207983270591
 30
0.0
 10
6.794381850266518
 20
16.6480797817336
 30
0.0
  0
SPLINE
  5
12D
330
1F
100
AcDbEntity
  8
0
  6
Continuous
 62
     7
370
    25
100
AcDbSpline
210
0.0
220
0.0
230
1.0
 70
     8
 71
     3
 72
     9
 73
     5
 74
     0
 42
0.000000001
 43
0.0000000001
 40
0.0
 40
0.0
 40
0.0
 40
0.0
 40
0.4944269114750234
 40
1.0
 40
1.0
 40
1.0
 40
1.0
 10
7.903874474329768
 20
17.17014606755177
 30
0.0
 10
7.888952129922813
 20
17.16955075914907
 30
0.0
 10
7.85877103730661
 20
17.1683467219315
 30
0.0
 10
7.827065019067845
 20
17.16768487489801
 30
0.0
 10
7.811035309501789
 20
17.1673502628492
 30
0.0
  0
LINE
  5
12E
330
1F
100
AcDbEntity
  8
0
  6
Continuous
 62
     7
370
    25
100
AcDbLine
 10
7.250878164989899
 20
15.40130717699819
 30
0.0
 11
7.209157500136029
 21
15.7270155582942
 31
0.0
  0
ARC
  5
12F
330
1F
100
AcDbEntity
  8
0
  6
Continuous
 62
     7
370
    25
100
AcDbCircle
 10
7.186542237896105
 20
15.72411872481419
 30
0.0
 40
0.0228000000000054
100
AcDbArc
 50
7.299399037899872
 51
75.48918130089427
  0
LINE
  5
130
330
1F
100
AcDbEntity
  8
0
  6
Continuous
 62
     7
370
    25
100
AcDbLine
 10
7.19225507289002
 20
15.74619139926619
 30
0.0
 11
6.851482139857921
 21
15.8343899243882
 31
0.0
  0
LINE
  5
131
330
1F
100
AcDbEntity
  8
0
  6
Continuous
 62
     7
370
    25
100
AcDbLine
 10
6.179025341756073
 20
16.37842956303618
 30
0.0
 11
5.576685939441972
 21
16.2225326541062
 31
0.0
  0
LINE
  5
132
330
1F
100
AcDbEntity
  8
0
  6
Continuous
 62
     7
370
    25
100
AcDbLine
 10
6.853113499466076
 20
15.83396771467218
 30
0.0
 11
6.811245539278047
 21
16.16082537427618
 31
0.0
  0
LINE
  5
133
330
1F
100
AcDbEntity
  8
0
  6
Continuous
 62
     7
370
    25
100
AcDbLine
 10
5.532847797814042
 20
16.1653095357762
 30
0.0
 11
5.490885544615935
 21
15.83771568169018
 31
0.0
  0
LINE
  5
134
330
1F
100
AcDbEntity
  8
0
  6
Continuous
 62
     7
370
    25
100
AcDbLine
 10
6.753863897107976
 20
16.23583144300818
 30
0.0
 11
6.20356738183591
 21
16.37825866164618
 31
0.0
  0
ARC
  5
135
330
1F
100
AcDbEntity
  8
0
  6
Continuous
 62
     7
370
    25
100
AcDbCircle
 10
5.157551093419897
 20
15.91188975695217
 30
0.0
 40
0.0228000000000054
100
AcDbArc
 50
104.5108186991056
 51
169.1049413516015
  0
LINE
  5
136
330
1F
100
AcDbEntity
  8
0
  6
Continuous
 62
     7
370
    25
100
AcDbLine
 10
5.515262546857911
 20
16.02802355560018
 30
0.0
 11
5.151838289282068
 21
15.93396243626819
 31
0.0
  0
LINE
  5
139
330
1F
100
AcDbEntity
  8
0
  6
Continuous
 62
     7
370
    25
100
AcDbLine
 10
9.325246647972107
 20
16.04946496204419
 30
0.0
 11
9.283525883026072
 21
16.37517334334018
 31
0.0
  0
ARC
  5
13A
330
1F
100
AcDbEntity
  8
0
  6
Continuous
 62
     7
370
    25
100
AcDbCircle
 10
9.260910691200024
 20
16.3722765098222
 30
0.0
 40
0.022800000000004
100
AcDbArc
 50
7.299399037899872
 51
75.48918130089427
  0
LINE
  5
13B
330
1F
100
AcDbEntity
  8
0
  6
Continuous
 62
     7
370
    25
100
AcDbLine
 10
9.266623455779949
 20
16.39434918431217
 30
0.0
 11
9.140811019473972
 21
16.42691183894419
 31
0.0
  0
LINE
  5
13C
330
1F
100
AcDbEntity
  8
0
  6
Continuous
 62
     7
370
    25
100
AcDbLine
 10
9.142442479173837
 20
16.42648965510619
 30
0.0
 11
9.100574443936011
 21
16.75334729529217
 31
0.0
  0
LINE
  5
13D
330
1F
100
AcDbEntity
  8
0
  6
Continuous
 62
     7
370
    25
100
AcDbLine
 10
9.043192726677943
 20
16.82835334460617
 30
0.0
 11
8.492896211405877
 21
16.9707805632062
 31
0.0
  0
LINE
  5
13E
330
1F
100
AcDbEntity
  8
0
  6
Continuous
 62
     7
370
    25
100
AcDbLine
 10
8.46835422137201
 20
16.97095147759219
 30
0.0
 11
8.129341324916026
 21
16.88320848343619
 31
0.0
  0
LINE
  5
13F
330
1F
100
AcDbEntity
  8
0
  6
Continuous
 62
     7
370
    25
100
AcDbLine
 10
4.214561649352049
 20
14.72672235085218
 30
0.0
 11
4.172840884406127
 21
15.05243073218619
 31
0.0
  0
ARC
  5
140
330
1F
100
AcDbEntity
  8
0
  6
Continuous
 62
     7
370
    25
100
AcDbCircle
 10
4.150225719483955
 20
15.04953390562218
 30
0.0
 40
0.0227999999999949
100
AcDbArc
 50
7.299399037899872
 51
75.48918130089427
  0
LINE
  5
141
330
1F
100
AcDbEntity
  8
0
  6
Continuous
 62
     7
370
    25
100
AcDbLine
 10
4.155938457159891
 20
15.07160657312019
 30
0.0
 11
4.030126020854027
 21
15.10416922775218
 31
0.0
  0
LINE
  5
142
330
1F
100
AcDbEntity
  8
0
  6
Continuous
 62
     7
370
    25
100
AcDbLine
 10
4.031757480591977
 20
15.10374704395218
 30
0.0
 11
3.989889445315952
 21
15.43060468413819
 31
0.0
  0
LINE
  5
143
330
1F
100
AcDbEntity
  8
0
  6
Continuous
 62
     7
370
    25
100
AcDbLine
 10
3.932507928241875
 20
15.50561078528417
 30
0.0
 11
3.382211413008121
 21
15.64803800388421
 31
0.0
  0
LINE
  5
144
330
1F
100
AcDbEntity
  8
0
  6
Continuous
 62
     7
370
    25
100
AcDbLine
 10
3.357669222751837
 20
15.64820886643818
 30
0.0
 11
3.099266662729746
 21
15.58132936260418
 31
0.0
  0
LINE
  5
145
330
1F
100
AcDbEntity
  8
0
  6
Continuous
 62
     7
370
    25
100
AcDbLine
 10
3.055428458553933
 20
15.5241062280862
 30
0.0
 11
3.013466230359881
 21
15.19651238046018
 31
0.0
  0
LINE
  5
146
330
1F
100
AcDbEntity
  8
0
  6
Continuous
 62
     7
370
    25
100
AcDbLine
 10
2.791866858209914
 20
15.2388108750242
 30
0.0
 11
2.750146093263765
 21
14.91310249369019
 31
0.0
  0
ARC
  5
148
330
1F
100
AcDbEntity
  8
0
  6
Continuous
 62
     7
370
    25
100
AcDbCircle
 10
2.814482063259902
 20
15.23591404124019
 30
0.0
 40
0.0228000000000027
100
AcDbArc
 50
104.5108186991056
 51
172.7006009621001
  0
LINE
  5
149
330
1F
100
AcDbEntity
  8
0
  6
Continuous
 62
     7
370
    25
100
AcDbLine
 10
3.028629616752027
 20
15.31489078286819
 30
0.0
 11
2.808769285456037
 21
15.25798674187419
 31
0.0
  0
LINE
  5
14B
330
1F
100
AcDbEntity
  8
0
  6
Continuous
 62
     7
370
    25
100
AcDbLine
 10
5.10641447058208
 20
15.92220588690421
 30
0.0
 11
5.091791292228094
 21
15.91842112984418
 31
0.0
  0
LINE
  5
14C
330
1F
100
AcDbEntity
  8
0
  6
Continuous
 62
     7
370
    25
100
AcDbLine
 10
2.06202528985375
 20
12.16559237432619
 30
0.0
 11
4.644440701406097
 21
11.49721408346818
 31
0.0
  0
LINE
  5
14D
330
1F
100
AcDbEntity
  8
0
  6
Continuous
 62
     7
370
    25
100
AcDbLine
 10
4.770816293380107
 20
11.49721405755218
 30
0.0
 11
10.09397773773207
 21
12.87494961951418
 31
0.0
  0
LINE
  5
14E
330
1F
100
AcDbEntity
  8
0
  6
Continuous
 62
     7
370
    25
100
AcDbLine
 10
1.788722027636026
 20
15.11539510631817
 30
0.0
 11
2.011425764449995
 21
12.21297331816018
 31
0.0
  0
LINE
  5
14F
330
1F
100
AcDbEntity
  8
0
  6
Continuous
 62
     7
370
    25
100
AcDbLine
 10
7.669918823033867
 20
11.7557272232242
 30
0.0
 11
7.696986580158068
 21
12.25456248610419
 31
0.0
  0
SPLINE
  5
150
330
1F
100
AcDbEntity
  8
0
  6
Continuous
 62
     7
370
    25
100
AcDbSpline
210
0.0
220
0.0
230
1.0
 70
     8
 71
     3
 72
     9
 73
     5
 74
     0
 42
0.000000001
 43
0.0000000001
 40
0.0
 40
0.0
 40
0.0
 40
0.0
 40
0.3902429974291351
 40
1.0
 40
1.0
 40
1.0
 40
1.0
 10
4.785227249847935
 20
11.50094369993431
 30
0.0
 10
4.806471431465979
 20
11.49266959248768
 30
0.0
 10
4.860909773109597
 20
11.47146714298552
 30
0.0
 10
4.928396358364352
 20
11.45329973564568
 30
0.0
 10
4.969546776303218
 20
11.44222203180169
 30
0.0
  0
SPLINE
  5
151
330
1F
100
AcDbEntity
  8
0
  6
Continuous
 62
     7
370
    25
100
AcDbSpline
210
0.0
220
0.0
230
1.0
 70
     8
 71
     3
 72
    10
 73
     6
 74
     0
 42
0.000000001
 43
0.0000000001
 40
0.0
 40
0.0
 40
0.0
 40
0.0
 40
0.3385232899685513
 40
0.7866537893266666
 40
1.0
 40
1.0
 40
1.0
 40
1.0
 10
7.609153867597342
 20
11.63910211383259
 30
0.0
 10
7.620868726079947
 20
11.65095301523851
 30
0.0
 10
7.64809148472068
 20
11.6784919077582
 30
0.0
 10
7.667756430256645
 20
11.71921129492079
 30
0.0
 10
7.666959790322493
 20
11.74754914650199
 30
0.0
 10
7.66670284989118
 20
11.75668895922982
 30
0.0
  0
SPLINE
  5
152
330
1F
100
AcDbEntity
  8
0
  6
Continuous
 62
     7
370
    25
100
AcDbSpline
210
0.0
220
0.0
230
1.0
 70
     8
 71
     3
 72
    12
 73
     8
 74
     0
 42
0.000000001
 43
0.0000000001
 40
0.0
 40
0.0
 40
0.0
 40
0.0
 40
0.2053714978483341
 40
0.3916971298538201
 40
0.5943491862715767
 40
0.8844695050722457
 40
1.0
 40
1.0
 40
1.0
 40
1.0
 10
2.011634670568923
 20
12.2115206407542
 30
0.0
 10
2.012851949396463
 20
12.20607200792128
 30
0.0
 10
2.015173618312473
 20
12.1956800408536
 30
0.0
 10
2.024915320232935
 20
12.18355399223858
 30
0.0
 10
2.037685031047658
 20
12.174122808388
 30
0.0
 10
2.050077466731863
 20
12.16891148300729
 30
0.0
 10
2.059376810542403
 20
12.166328122652
 30
0.0
 10
2.062025289866483
 20
12.16559237434248
 30
0.0
  0
LINE
  5
153
330
1F
100
AcDbEntity
  8
0
  6
Continuous
 62
     7
370
    25
100
AcDbLine
 10
10.14457726317414
 20
12.9223305633102
 30
0.0
 11
10.36728099995002
 21
15.82475235146819
 31
0.0
  0
SPLINE
  5
154
330
1F
100
AcDbEntity
  8
0
  6
Continuous
 62
     7
370
    25
100
AcDbSpline
210
0.0
220
0.0
230
1.0
 70
     8
 71
     3
 72
    11
 73
     7
 74
     0
 42
0.000000001
 43
0.0000000001
 40
0.0
 40
0.0
 40
0.0
 40
0.0
 40
0.296168445881782
 40
0.6694902626593896
 40
0.887986761396997
 40
1.0
 40
1.0
 40
1.0
 40
1.0
 10
10.0939777377481
 20
12.87494961951958
 30
0.0
 10
10.10062732915503
 20
12.87694225738511
 30
0.0
 10
10.11565876400095
 20
12.88144662530999
 30
0.0
 10
10.13267804841121
 20
12.89323976759368
 30
0.0
 10
10.14319910752397
 20
12.9098462652403
 30
0.0
 10
10.14356536029106
 20
12.91892884298968
 30
0.0
 10
10.14368948721949
 20
12.92200702445799
 30
0.0
  0
LINE
  5
155
330
1F
100
AcDbEntity
  8
0
  6
Continuous
 62
     7
370
    25
100
AcDbLine
 10
9.265689834578097
 20
5.242075268590184
 30
0.0
 11
8.719756124006039
 21
11.00724705113219
 31
0.0
  0
SPLINE
  5
156
330
1F
100
AcDbEntity
  8
0
  6
Continuous
 62
     7
370
    25
100
AcDbSpline
210
0.0
220
0.0
230
1.0
 70
     8
 71
     3
 72
    10
 73
     6
 74
     0
 42
0.000000001
 43
0.0000000001
 40
0.0
 40
0.0
 40
0.0
 40
0.0
 40
0.1954629238394745
 40
0.646005136726962
 40
1.0
 40
1.0
 40
1.0
 40
1.0
 10
8.704336009327562
 20
11.05677503669679
 30
0.0
 10
8.701782998223734
 20
11.0628679398055
 30
0.0
 10
8.693345294259643
 20
11.08300498998619
 30
0.0
 10
8.669543598397808
 20
11.10675048926558
 30
0.0
 10
8.646763876332101
 20
11.11574042296229
 30
0.0
 10
8.63674083968533
 20
11.1196959775838
 30
0.0
  0
SPLINE
  5
157
330
1F
100
AcDbEntity
  8
0
  6
Continuous
 62
     7
370
    25
100
AcDbSpline
210
0.0
220
0.0
230
1.0
 70
     8
 71
     3
 72
     9
 73
     5
 74
     0
 42
0.000000001
 43
0.0000000001
 40
0.0
 40
0.0
 40
0.0
 40
0.0
 40
0.5472252233986917
 40
1.0
 40
1.0
 40
1.0
 40
1.0
 10
8.719756124010018
 20
11.00724705114152
 30
0.0
 10
8.71853216234308
 20
11.01682598624887
 30
0.0
 10
8.716295493390589
 20
11.03433054323551
 30
0.0
 10
8.70806332674249
 20
11.0497799396752
 30
0.0
 10
8.704336009327562
 20
11.05677503669679
 30
0.0
  0
LINE
  5
158
330
1F
100
AcDbEntity
  8
0
  6
Continuous
 62
     7
370
    25
100
AcDbLine
 10
9.182801500516006
 20
5.057810938582179
 30
0.0
 11
9.085555550111962
 21
5.082980042616185
 31
0.0
  0
LINE
  5
159
330
1F
100
AcDbEntity
  8
0
  6
Continuous
 62
     7
370
    25
100
AcDbLine
 10
8.636740839696017
 20
11.11969597758218
 30
0.0
 11
7.566309769286021
 21
11.39674392506219
 31
0.0
  0
SPLINE
  5
15A
330
1F
100
AcDbEntity
  8
0
  6
Continuous
 62
     7
370
    25
100
AcDbSpline
210
0.0
220
0.0
230
1.0
 70
     8
 71
     3
 72
    10
 73
     6
 74
     0
 42
0.000000001
 43
0.0000000001
 40
0.0
 40
0.0
 40
0.0
 40
0.0
 40
0.3416922065644172
 40
0.4355706774535767
 40
1.0
 40
1.0
 40
1.0
 40
1.0
 10
9.316100623793317
 20
5.016553311340373
 30
0.0
 10
9.308590535397001
 20
5.041201650912
 30
0.0
 10
9.299017082366617
 20
5.072622016255593
 30
0.0
 10
9.275996967770993
 20
5.144147283784207
 30
0.0
 10
9.270447724185487
 20
5.196870599987192
 30
0.0
 10
9.265689834594809
 20
5.242075268598995
 30
0.0
  0
LINE
  5
15B
330
1F
100
AcDbEntity
  8
0
  6
Continuous
 62
     7
370
    25
100
AcDbLine
 10
3.415467676206048
 20
11.81529557695219
 30
0.0
 11
3.00999748282004
 21
7.659610978952201
 31
0.0
  0
LINE
  5
15C
330
1F
100
AcDbEntity
  8
0
  6
Continuous
 62
     7
370
    25
100
AcDbLine
 10
8.136551589126042
 20
3.28749056284019
 30
0.0
 11
8.743159715815977
 21
3.130488826710177
 31
0.0
  0
LINE
  5
15D
330
1F
100
AcDbEntity
  8
0
  6
Continuous
 62
     7
370
    25
100
AcDbLine
 10
8.797436419406039
 20
3.119861576926183
 30
0.0
 11
9.010579447875898
 21
3.091204107510208
 31
0.0
  0
LINE
  5
15E
330
1F
100
AcDbEntity
  8
0
  6
Continuous
 62
     7
370
    25
100
AcDbLine
 10
9.49117186265596
 20
4.94807055553619
 30
0.0
 11
9.290888797833986
 21
5.026414801718203
 31
0.0
  0
LINE
  5
15F
330
1F
100
AcDbEntity
  8
0
  6
Continuous
 62
     7
370
    25
100
AcDbLine
 10
9.066976255864119
 20
3.359489555342179
 30
0.0
 11
9.083190241327883
 21
3.356513768502196
 31
0.0
  0
LINE
  5
161
330
1F
100
AcDbEntity
  8
0
  6
Continuous
 62
     7
370
    25
100
AcDbLine
 10
3.854690772801973
 20
6.931340010522177
 30
0.0
 11
3.398834539645918
 21
6.777752138114209
 31
0.0
  0
LINE
  5
2B6
330
1F
100
AcDbEntity
  8
0
  6
Continuous
 62
     7
370
    25
100
AcDbLine
 10
4.297625506630083
 20
0.7349775075821868
 30
0.0
 11
5.747054926223881
 21
1.210570415464189
 31
0.0
  0
LINE
  5
2B7
330
1F
100
AcDbEntity
  8
0
  6
Continuous
 62
     7
370
    25
100
AcDbLine
 10
4.027422303146067
 20
7.854720347612186
 30
0.0
 11
2.529259048973926
 21
7.567420421020187
 31
0.0
  0
LINE
  5
2B8
330
1F
100
AcDbEntity
  8
0
  6
Continuous
 62
     7
370
    25
100
AcDbLine
 10
5.799806074593902
 20
1.227879216458177
 30
0.0
 11
6.370542757717885
 21
1.41515228724819
 31
0.0
  0
LINE
  5
2B9
330
1F
100
AcDbEntity
  8
0
  6
Continuous
 62
     7
370
    25
100
AcDbLine
 10
4.671873618845893
 20
7.978305507056205
 30
0.0
 11
4.081947151600047
 21
7.865176237802188
 31
0.0
  0
SPLINE
  5
2BA
330
1F
100
AcDbEntity
  8
0
  6
Continuous
 62
     7
370
    25
100
AcDbSpline
210
0.0
220
0.0
230
1.0
 70
     8
 71
     3
 72
    11
 73
     7
 74
     0
 42
0.000000001
 43
0.0000000001
 40
0.0
 40
0.0
 40
0.0
 40
0.0
 40
0.0572037305592259
 40
0.4671220790129393
 40
0.8719017207366498
 40
1.0
 40
1.0
 40
1.0
 40
1.0
 10
5.214084831534364
 20
8.006346471133412
 30
0.0
 10
5.203620677083108
 20
8.00764910413531
 30
0.0
 10
5.118171047582222
 20
8.01828632359809
 30
0.0
 10
4.958011165247512
 20
8.013523441951008
 30
0.0
 10
4.785454486016078
 20
8.001680326987383
 30
0.0
 10
4.690536831641452
 20
7.980025306339172
 30
0.0
 10
4.667719620197431
 20
7.974819665847803
 30
0.0
  0
LINE
  5
2BB
330
1F
100
AcDbEntity
  8
0
  6
Continuous
 62
     7
370
    25
100
AcDbLine
 10
6.844899294712035
 20
1.643131004018187
 30
0.0
 11
7.738449740938108
 21
2.22447363576019
 31
0.0
  0
LINE
  5
2BC
330
1F
100
AcDbEntity
  8
0
  6
Continuous
 62
     7
370
    25
100
AcDbLine
 10
5.464976705943854
 20
7.990238165672195
 30
0.0
 11
5.197270190886001
 21
8.009081263596186
 31
0.0
  0
SPLINE
  5
2BD
330
1F
100
AcDbEntity
  8
0
  6
Continuous
 62
     7
370
    25
100
AcDbSpline
210
0.0
220
0.0
230
1.0
 70
     8
 71
     3
 72
    11
 73
     7
 74
     0
 42
0.000000001
 43
0.0000000001
 40
0.0
 40
0.0
 40
0.0
 40
0.0
 40
0.1646711000971526
 40
0.5108177663736584
 40
0.8635371595361053
 40
1.0
 40
1.0
 40
1.0
 40
1.0
 10
7.722220327745162
 20
4.194247013742398
 30
0.0
 10
7.723708397892778
 20
4.218643905252889
 30
0.0
 10
7.728324463907483
 20
4.294324250016103
 30
0.0
 10
7.747124717983865
 20
4.422557807227093
 30
0.0
 10
7.769706250911553
 20
4.545005897757874
 30
0.0
 10
7.789282047398614
 20
4.612006257536705
 30
0.0
 10
7.794742934179339
 20
4.630696755226523
 30
0.0
  0
SPLINE
  5
2BE
330
1F
100
AcDbEntity
  8
0
  6
Continuous
 62
     7
370
    25
100
AcDbSpline
210
0.0
220
0.0
230
1.0
 70
     8
 71
     3
 72
    13
 73
     9
 74
     0
 42
0.000000001
 43
0.0000000001
 40
0.0
 40
0.0
 40
0.0
 40
0.0
 40
0.0830150265328873
 40
0.2889044064278131
 40
0.4933951152134062
 40
0.6943844354130168
 40
0.8956514587766156
 40
1.0
 40
1.0
 40
1.0
 40
1.0
 10
7.788429354711752
 20
3.521783683157309
 30
0.0
 10
7.783023631658693
 20
3.535598033512172
 30
0.0
 10
7.764210926596319
 20
3.583673988626884
 30
0.0
 10
7.742342795513536
 20
3.683871724266111
 30
0.0
 10
7.722744563182345
 20
3.817754403579414
 30
0.0
 10
7.714397256184611
 20
3.962772325636905
 30
0.0
 10
7.713872862298558
 20
4.089279382482089
 30
0.0
 10
7.720095639681403
 20
4.167529505935078
 30
0.0
 10
7.722220327745162
 20
4.194247013742398
 30
0.0
  0
LINE
  5
2BF
330
1F
100
AcDbEntity
  8
0
  6
Continuous
 62
     7
370
    25
100
AcDbLine
 10
7.793683789129772
 20
3.50764015465819
 30
0.0
 11
7.788429354710046
 21
3.521783683142189
 31
0.0
  0
SPLINE
  5
2C0
330
1F
100
AcDbEntity
  8
0
  6
Continuous
 62
     7
370
    25
100
AcDbSpline
210
0.0
220
0.0
230
1.0
 70
     8
 71
     3
 72
     9
 73
     5
 74
     0
 42
0.000000001
 43
0.0000000001
 40
0.0
 40
0.0
 40
0.0
 40
0.0
 40
0.6130627091288023
 40
1.0
 40
1.0
 40
1.0
 40
1.0
 10
7.823241653228365
 20
4.737060416475287
 30
0.0
 10
7.828907493681185
 20
4.756809997547009
 30
0.0
 10
7.838149354862025
 20
4.7890246156891
 30
0.0
 10
7.84596835109005
 20
4.817547245226194
 30
0.0
 10
7.848993812307867
 20
4.828583714227676
 30
0.0
  0
SPLINE
  5
2C1
330
1F
100
AcDbEntity
  8
0
  6
Continuous
 62
     7
370
    25
100
AcDbSpline
210
0.0
220
0.0
230
1.0
 70
     8
 71
     3
 72
     9
 73
     5
 74
     0
 42
0.000000001
 43
0.0000000001
 40
0.0
 40
0.0
 40
0.0
 40
0.0
 40
0.253501381572403
 40
1.0
 40
1.0
 40
1.0
 40
1.0
 10
7.79362843452759
 20
4.631462153982511
 30
0.0
 10
7.796106317732551
 20
4.640740799139791
 30
0.0
 10
7.805880951660242
 20
4.677342750181111
 30
0.0
 10
7.815821240982472
 20
4.711535543501383
 30
0.0
 10
7.823241653228365
 20
4.737060416475287
 30
0.0
  0
SPLINE
  5
2C2
330
1F
100
AcDbEntity
  8
0
  6
Continuous
 62
     7
370
    25
100
AcDbSpline
210
0.0
220
0.0
230
1.0
 70
     8
 71
     3
 72
     9
 73
     5
 74
     0
 42
0.000000001
 43
0.0000000001
 40
0.0
 40
0.0
 40
0.0
 40
0.0
 40
0.1854646362435826
 40
1.0
 40
1.0
 40
1.0
 40
1.0
 10
7.854348495654107
 20
4.844975022527307
 30
0.0
 10
7.856430011929546
 20
4.85245155815059
 30
0.0
 10
7.867653263528723
 20
4.892764017575075
 30
0.0
 10
7.881392653024249
 20
4.928428017498902
 30
0.0
 10
7.892583871644546
 20
4.957477606649803
 30
0.0
  0
LINE
  5
2C3
330
1F
100
AcDbEntity
  8
0
  6
Continuous
 62
     7
370
    25
100
AcDbLine
 10
7.849872829610148
 20
4.829232720816179
 30
0.0
 11
7.854348495640124
 21
4.844975022540182
 31
0.0
  0
SPLINE
  5
2C4
330
1F
100
AcDbEntity
  8
0
  6
Continuous
 62
     7
370
    25
100
AcDbSpline
210
0.0
220
0.0
230
1.0
 70
     8
 71
     3
 72
    10
 73
     6
 74
     0
 42
0.000000001
 43
0.0000000001
 40
0.0
 40
0.0
 40
0.0
 40
0.0
 40
0.2254363037269643
 40
0.6308995093243164
 40
1.0
 40
1.0
 40
1.0
 40
1.0
 10
6.367485841520306
 20
1.417265339244309
 30
0.0
 10
6.406036925838634
 20
1.429449393781197
 30
0.0
 10
6.513924873690598
 20
1.463547335868994
 30
0.0
 10
6.677240293879549
 20
1.540119704472587
 30
0.0
 10
6.79581345449003
 20
1.613949639854695
 30
0.0
 10
6.852316763349904
 20
1.649131595202305
 30
0.0
  0
LINE
  5
2C9
330
1F
100
AcDbEntity
  8
0
  6
Continuous
 62
     7
370
    25
100
AcDbLine
 10
8.038756947336082
 20
2.420047229178194
 30
0.0
 11
10.40479126051002
 21
3.210366655346206
 31
0.0
  0
LINE
  5
2CA
330
1F
100
AcDbEntity
  8
0
  6
Continuous
 62
     7
370
    25
100
AcDbLine
 10
9.070498493647846
 20
8.365678415674182
 30
0.0
 11
8.971643205357963
 21
8.347265616146188
 31
0.0
  0
LINE
  5
2CB
330
1F
100
AcDbEntity
  8
0
  6
Continuous
 62
     7
370
    25
100
AcDbLine
 10
7.776892821888054
 20
8.124733970806204
 30
0.0
 11
6.613570447706138
 21
7.908055586230204
 31
0.0
  0
SPLINE
  5
2CC
330
1F
100
AcDbEntity
  8
0
  6
Continuous
 62
     7
370
    25
100
AcDbSpline
210
0.0
220
0.0
230
1.0
 70
     8
 71
     3
 72
    32
 73
    28
 74
     0
 42
0.000000001
 43
0.0000000001
 40
0.0
 40
0.0
 40
0.0
 40
0.0
 40
0.0363909624759924
 40
0.0774619068117677
 40
0.1186366574604147
 40
0.1598872292971087
 40
0.2011861772391656
 40
0.2425115204523274
 40
0.2838474466708923
 40
0.3251821386363994
 40
0.3665117070481667
 40
0.4078352086054743
 40
0.4491533630210305
 40
0.4904689284167451
 40
0.5317848933694986
 40
0.5731041635638967
 40
0.6144294524393841
 40
0.6557642157601666
 40
0.6971113426241783
 40
0.7384727679145941
 40
0.7798487446426773
 40
0.8212370851865923
 40
0.8626305272898465
 40
0.9040142294483588
 40
0.9453679248211615
 40
0.9866642798486999
 40
1.0
 40
1.0
 40
1.0
 40
1.0
 10
10.98423503471633
 20
3.592196823230807
 30
0.0
 10
11.02200324610419
 20
3.63449713050619
 30
0.0
 10
11.10239676888955
 20
3.724537685560022
 30
0.0
 10
11.20938629637101
 20
3.88502605533489
 30
0.0
 10
11.30759288077422
 20
4.066966073634688
 30
0.0
 10
11.39050294133767
 20
4.264820847755004
 30
0.0
 10
11.45774648613553
 20
4.476149178077207
 30
0.0
 10
11.50861072394969
 20
4.699161850027905
 30
0.0
 10
11.5426834306096
 20
4.931760293878511
 30
0.0
 10
11.55967758855752
 20
5.171831764414491
 30
0.0
 10
11.55947372765456
 20
5.417199328682585
 30
0.0
 10
11.54210018395133
 20
5.66566110444981
 30
0.0
 10
11.50773434743644
 20
5.914994859322689
 30
0.0
 10
11.4566946873465
 20
6.162975307040596
 30
0.0
 10
11.38944184671084
 20
6.407391113401814
 30
0.0
 10
11.30657394563718
 20
6.646060489076006
 30
0.0
 10
11.20881682332958
 20
6.876850638262482
 30
0.0
 10
11.09702459881646
 20
7.097698037508905
 30
0.0
 10
10.9721638198788
 20
7.306621762327011
 30
0.0
 10
10.835313309252
 20
7.501742798853172
 30
0.0
 10
10.68764896499726
 20
7.681277411382012
 30
0.0
 10
10.53045131374051
 20
7.843617093769495
 30
0.0
 10
10.36508207495922
 20
7.987092097976898
 30
0.0
 10
10.19304370464306
 20
8.110896534297893
 30
0.0
 10
10.01576097502391
 20
8.211727925916306
 30
0.0
 10
9.875965338478181
 20
8.277347333679102
 30
0.0
 10
9.795342243072582
 20
8.301272299428177
 30
0.0
 10
9.77566210032603
 20
8.307112396968307
 30
0.0
  0
LINE
  5
2CD
330
1F
100
AcDbEntity
  8
0
  6
Continuous
 62
     7
370
    25
100
AcDbLine
 10
6.131901045286099
 20
15.09207882623417
 30
0.0
 11
5.592929303922119
 21
15.2379566544042
 31
0.0
  0
ELLIPSE
  5
2CE
330
1F
100
AcDbEntity
  8
0
  6
Continuous
 62
     7
370
    25
100
AcDbEllipse
 10
5.566063311939956
 20
15.23099888575419
 30
0.0
 11
0.0379999459927882
 21
-0.0002419347297996
 31
0.0
210
0.0
220
0.0
230
1.0
 40
0.2648099464
 41
0.7872364238332203
 42
2.357728164134165
  0
LINE
  5
2CF
330
1F
100
AcDbEntity
  8
0
  6
Continuous
 62
     7
370
    25
100
AcDbLine
 10
5.53919733777991
 20
15.23827473906618
 30
0.0
 11
5.476017099251976
 21
15.2219224900702
 31
0.0
  0
ELLIPSE
  5
2D1
330
1F
100
AcDbEntity
  8
0
  6
Continuous
 62
     7
370
    25
100
AcDbEllipse
 10
6.992895978751903
 20
15.03048441050819
 30
0.0
 11
0.3799969703797386
 21
-0.0024223087925401
 31
0.0
210
0.0
220
0.0
230
1.0
 40
0.2648060924
 41
4.028491859476651
 42
4.969053113544675
  0
LINE
  5
2D2
330
1F
100
AcDbEntity
  8
0
  6
Continuous
 62
     7
370
    25
100
AcDbLine
 10
6.752309688596028
 20
14.9540183727322
 30
0.0
 11
6.131901045286099
 21
15.09207882623417
 31
0.0
  0
ELLIPSE
  5
2D3
330
1F
100
AcDbEntity
  8
0
  6
Continuous
 62
     7
370
    25
100
AcDbEllipse
 10
7.007169395340042
 20
26.71309794454018
 30
0.0
 11
0.2961055148741456
 21
23.16226965203438
 31
0.0
210
0.0
220
0.0
230
1.0
 40
0.0116390895
 41
4.178968383426017
 42
4.180080537590819
  0
ELLIPSE
  5
2D4
330
1F
100
AcDbEntity
  8
0
  6
Continuous
 62
     7
370
    25
100
AcDbEllipse
 10
6.992919696945932
 20
15.0498974632502
 30
0.0
 11
0.3800002612919827
 21
-0.0000029066632322
 31
0.0
210
0.0
220
0.0
230
1.0
 40
0.2588903995
 41
4.968486468015292
 42
5.497665083298292
  0
LWPOLYLINE
  5
2D5
330
1F
100
AcDbEntity
  8
0
  6
Continuous
 62
     7
370
    25
100
AcDbPolyline
 90
        3
 70
   128
 43
0.0
 10
7.244063441032039
 20
14.80459680083018
 10
7.239726762130089
 20
14.80402727415819
 10
7.234542046500109
 20
14.80467943407217
  0
LWPOLYLINE
  5
2D6
330
1F
100
AcDbEntity
  8
0
  6
Continuous
 62
     7
370
    25
100
AcDbPolyline
 90
        3
 70
   128
 43
0.0
 10
6.768341707031936
 20
14.7982925440202
 10
6.771571193499994
 20
14.79798398185417
 10
6.776214074539893
 20
14.79876295882618
  0
ELLIPSE
  5
2D7
330
1F
100
AcDbEntity
  8
0
  6
Continuous
 62
     7
370
    25
100
AcDbEllipse
 10
6.992741446546006
 20
14.86729654923218
 30
0.0
 11
0.3420002351627682
 21
-0.0000026159969036
 31
0.0
210
0.0
220
0.0
230
1.0
 40
0.2588903995
 41
4.026813059782556
 42
5.497665083298257
  0
ELLIPSE
  5
2D8
330
1F
100
AcDbEntity
  8
0
  6
Continuous
 62
     7
370
    25
100
AcDbEllipse
 10
7.018453482723998
 20
15.19558303437219
 30
0.0
 11
0.1519999999999914
 21
0.0
 31
0.0
210
0.0
220
0.0
230
1.0
 40
0.2588978899
 41
3.927143110234838
 42
5.497634850534597
  0
LINE
  5
2D9
330
1F
100
AcDbEntity
  8
0
  6
Continuous
 62
     7
370
    25
100
AcDbLine
 10
7.12591731890609
 20
15.16775239023619
 30
0.0
 11
7.125950051193967
 21
15.16776086195619
 31
0.0
  0
ELLIPSE
  5
2DA
330
1F
100
AcDbEntity
  8
0
  6
Continuous
 62
     7
370
    25
100
AcDbEllipse
 10
7.233413944224025
 20
15.1399302232162
 30
0.0
 11
0.1520000000000021
 21
0.0
 31
0.0
210
0.0
220
0.0
230
1.0
 40
0.2588978899000001
 41
0.7855504566449387
 42
2.356042196944904
  0
LINE
  5
2DB
330
1F
100
AcDbEntity
  8
0
  6
Continuous
 62
     7
370
    25
100
AcDbLine
 10
7.340877765548043
 20
15.16776087491419
 30
0.0
 11
7.555871094692065
 21
15.1121165067882
 31
0.0
  0
ELLIPSE
  5
2DC
330
1F
100
AcDbEntity
  8
0
  6
Continuous
 62
     7
370
    25
100
AcDbEllipse
 10
7.448341661200061
 20
15.08430283672018
 30
0.0
 11
0.1520463041994452
 21
0.0
 31
0.0
210
0.0
220
0.0
230
1.0
 40
0.2587402243
 41
5.497939437029632
 42
7.068431177329567
  0
LINE
  5
2DD
330
1F
100
AcDbEntity
  8
0
  6
Continuous
 62
     7
370
    25
100
AcDbLine
 10
7.555871044645982
 20
15.05648912097618
 30
0.0
 11
7.26158718131171
 21
14.98032285250821
 31
0.0
  0
LINE
  5
2DE
330
1F
100
AcDbEntity
  8
0
  6
Continuous
 62
     7
370
    25
100
AcDbLine
 10
7.089175666751998
 20
14.95472684522619
 30
0.0
 11
5.26530213523597
 21
15.4267800510182
 31
0.0
  0
LINE
  5
2DF
330
1F
100
AcDbEntity
  8
0
  6
Continuous
 62
     7
370
    25
100
AcDbLine
 10
5.404044110111954
 20
15.55777859706021
 30
0.0
 11
6.910989654597869
 21
15.16775239023619
 31
0.0
  0
LWPOLYLINE
  5
2E0
330
1F
100
AcDbEntity
  8
0
  6
Continuous
 62
     7
370
    25
100
AcDbPolyline
 90
       17
 70
   128
 43
0.0
 10
7.475244517248029
 20
15.0912573106562
 10
7.450588289485949
 20
15.09552129107419
 10
7.421504292945996
 20
15.09701861313019
 10
7.392420471585978
 20
15.09552128461419
 10
7.367764143769932
 20
15.0912573300742
 10
7.351289538612036
 20
15.08487581580618
 10
7.345504280443947
 20
15.07734836244219
 10
7.351289488566067
 20
15.06982087024218
 10
7.367764293907839
 20
15.06343938189019
 10
7.392420471585978
 20
15.0591753884762
 10
7.421504267941827
 20
15.0576781182522
 10
7.450588314527976
 20
15.05917540143417
 10
7.475244392114063
 20
15.06343939484819
 10
7.491719247502146
 20
15.06982087024218
 10
7.49750428044399
 20
15.07734836894019
 10
7.491719272506088
 20
15.08487580930818
 10
7.475244517248029
 20
15.0912573106562
  0
ELLIPSE
  5
2E3
330
1F
100
AcDbEntity
  8
0
  6
Continuous
 62
     7
370
    25
100
AcDbEllipse
 10
4.519374383015815
 20
15.36832672958019
 30
0.0
 11
0.7599954443235459
 21
-0.0097772699660573
 31
0.0
210
0.0
220
0.0
230
1.0
 40
0.2706995573999999
 41
0.1277320472126171
 42
0.294153015529649
  0
ELLIPSE
  5
2E4
330
1F
100
AcDbEntity
  8
0
  6
Continuous
 62
     7
370
    25
100
AcDbEllipse
 10
4.519701853031733
 20
15.3682419740762
 30
0.0
 11
0.7599963203952084
 21
0.0096487732417859
 31
0.0
210
0.0
220
0.0
230
1.0
 40
0.2468596494000001
 41
2.2755301632571
 42
2.403941699239179
  0
ELLIPSE
  5
2E5
330
1F
100
AcDbEntity
  8
0
  6
Continuous
 62
     7
370
    25
100
AcDbEllipse
 10
4.519374383015815
 20
15.36832672958019
 30
0.0
 11
0.7599954443235459
 21
-0.0097772699660573
 31
0.0
210
0.0
220
0.0
230
1.0
 40
0.2706995573999999
 41
3.993472607186423
 42
5.501269677275668
  0
ARC
  5
2E6
330
1F
100
AcDbEntity
  8
0
  6
Continuous
 62
     7
370
    25
100
AcDbCircle
 10
4.512477005105893
 20
17.42273089157819
 30
0.0
 40
2.544328918171602
100
AcDbArc
 50
262.7763450619091
 51
282.2698266233035
  0
LINE
  5
2E7
330
1F
100
AcDbEntity
  8
0
  6
Continuous
 62
     7
370
    25
100
AcDbLine
 10
5.273515620574016
 20
15.38483610610618
 30
0.0
 11
5.477318983773898
 21
15.32526785414219
 31
0.0
  0
LINE
  5
2E8
330
1F
100
AcDbEntity
  8
0
  6
Continuous
 62
     7
370
    25
100
AcDbLine
 10
5.477318983773898
 20
15.32526785414219
 30
0.0
 11
5.056775643089849
 21
15.21642322826219
 31
0.0
  0
LINE
  5
2E9
330
1F
100
AcDbEntity
  8
0
  6
Continuous
 62
     7
370
    25
100
AcDbLine
 10
4.014612363875812
 20
15.23759604766619
 30
0.0
 11
4.170227305662024
 21
15.27787215829019
 31
0.0
  0
ELLIPSE
  5
2EA
330
1F
100
AcDbEntity
  8
0
  6
Continuous
 62
     7
370
    25
100
AcDbEllipse
 10
4.519538118024115
 20
15.36828044770817
 30
0.0
 11
0.4939970044234907
 21
-0.0063552183370325
 31
0.0
210
0.0
220
0.0
230
1.0
 40
0.2706995574
 41
3.930473323603986
 42
6.286667813796254
  0
LWPOLYLINE
  5
2EB
330
1F
100
AcDbEntity
  8
0
  6
Continuous
 62
     7
370
    25
100
AcDbPolyline
 90
        9
 70
   128
 43
0.0
 10
4.419991417302071
 20
15.61761480207218
 10
4.541221357190011
 20
15.61511174568218
 10
4.661133646964117
 20
15.62036060493219
 10
4.772441196636009
 20
15.63304238118419
 10
4.868379932257994
 20
15.65238643094218
 10
4.943119501099999
 20
15.67721717697219
 10
4.992118121958014
 20
15.70602569068819
 10
5.012398156783888
 20
15.73706127504019
 10
5.01287352583995
 20
15.7429718822502
  0
ELLIPSE
  5
2EC
330
1F
100
AcDbEntity
  8
0
  6
Continuous
 62
     7
370
    25
100
AcDbEllipse
 10
7.394634290330031
 20
14.8828194960702
 30
0.0
 11
0.0317342834307777
 21
0.0409933895145093
 31
0.0
210
0.0
220
0.0
230
1.0
 40
0.5099113922000002
 41
3.724051307530502
 42
4.915176196593923
  0
SPLINE
  5
2ED
330
1F
100
AcDbEntity
  8
0
  6
Continuous
 62
     7
370
    25
100
AcDbSpline
210
0.0
220
0.0
230
1.0
 70
     8
 71
     3
 72
    13
 73
     9
 74
     0
 42
0.000000001
 43
0.0000000001
 40
0.0
 40
0.0
 40
0.0
 40
0.0
 40
0.0079196170396075
 40
0.0187621807736785
 40
0.0473950363201649
 40
0.1743946693680644
 40
0.6829299770084774
 40
1.0
 40
1.0
 40
1.0
 40
1.0
 10
4.202715930204135
 20
15.57180664302768
 30
0.0
 10
4.202781901945627
 20
15.57245608497177
 30
0.0
 10
4.20293819406595
 20
15.57399466279651
 30
0.0
 10
4.20472848010263
 20
15.57701677149319
 30
0.0
 10
4.21361527266049
 20
15.58370947531441
 30
0.0
 10
4.255791468630377
 20
15.59722547546442
 30
0.0
 10
4.324489098418553
 20
15.61558942185368
 30
0.0
 10
4.393491394934358
 20
15.617052798738
 30
0.0
 10
4.419991417318897
 20
15.61761480206468
 30
0.0
  0
ELLIPSE
  5
2EE
330
1F
100
AcDbEntity
  8
0
  6
Continuous
 62
     7
370
    25
100
AcDbEllipse
 10
4.519538118024115
 20
70.21508774255818
 30
0.0
 11
0.3425988449805493
 21
54.77833744561015
 31
0.0
210
0.0
220
0.0
230
1.0
 40
0.0064970226
 41
3.19510525537529
 42
3.211701790269255
  0
LINE
  5
2EF
330
1F
100
AcDbEntity
  8
0
  6
Continuous
 62
     7
370
    25
100
AcDbLine
 10
4.202715930214026
 20
15.57180664301219
 30
0.0
 11
4.202711951272135
 21
15.57116495000821
 31
0.0
  0
SPLINE
  5
2F0
330
1F
100
AcDbEntity
  8
0
  6
Continuous
 62
     7
370
    25
100
AcDbSpline
210
0.0
220
0.0
230
1.0
 70
     8
 71
     3
 72
    20
 73
    16
 74
     0
 42
0.000000001
 43
0.0000000001
 40
0.0
 40
0.0
 40
0.0
 40
0.0
 40
0.2114843032153556
 40
0.4630608268428098
 40
0.6366113328934336
 40
0.7546211308773309
 40
0.8341096661931054
 40
0.8874838339264684
 40
0.9234318507308035
 40
0.9478744823609384
 40
0.9703640653960404
 40
0.9823123119453823
 40
0.9909314645205704
 40
0.9977722877653999
 40
1.0
 40
1.0
 40
1.0
 40
1.0
 10
4.368125617494115
 20
15.42740167563278
 30
0.0
 10
4.353759076365918
 20
15.42981018826552
 30
0.0
 10
4.322302451393852
 20
15.43508380826569
 30
0.0
 10
4.284052043242127
 20
15.45355980988529
 30
0.0
 10
4.252835142925505
 20
15.46991958248989
 30
0.0
 10
4.232613726194699
 20
15.48233620884019
 30
0.0
 10
4.219442023525516
 20
15.49121616576619
 30
0.0
 10
4.210870949505306
 20
15.49756553233189
 30
0.0
 10
4.205284597959689
 20
15.50215242371169
 30
0.0
 10
4.201389968748799
 20
15.50579663767661
 30
0.0
 10
4.198799634532633
 20
15.50870117078591
 30
0.0
 10
4.197214292253534
 20
15.511212579566
 30
0.0
 10
4.196526324333603
 20
15.51304451583908
 30
0.0
 10
4.196390869255765
 20
15.51429707766567
 30
0.0
 10
4.196450816547098
 20
15.51489680039128
 30
0.0
 10
4.196465542774149
 20
15.51504412403099
 30
0.0
  0
LINE
  5
2F1
330
1F
100
AcDbEntity
  8
0
  6
Continuous
 62
     7
370
    25
100
AcDbLine
 10
4.140516597009991
 20
15.58726229219218
 30
0.0
 11
4.140521026366059
 21
15.58790386865019
 31
0.0
  0
SPLINE
  5
2F2
330
1F
100
AcDbEntity
  8
0
  6
Continuous
 62
     7
370
    25
100
AcDbSpline
210
0.0
220
0.0
230
1.0
 70
     8
 71
     3
 72
    18
 73
    14
 74
     0
 42
0.000000001
 43
0.0000000001
 40
0.0
 40
0.0
 40
0.0
 40
0.0
 40
0.3841620385502475
 40
0.5846503026564985
 40
0.7241326711621962
 40
0.8183014665388716
 40
0.8808167327578948
 40
0.9221496834786467
 40
0.9496558116467143
 40
0.976240372916153
 40
0.9870879897492047
 40
0.995739776387132
 40
1.0
 40
1.0
 40
1.0
 40
1.0
 10
4.036349136058674
 20
15.71690873096151
 30
0.0
 10
4.044875475202161
 20
15.7054541009106
 30
0.0
 10
4.057851579711723
 20
15.68802147547117
 30
0.0
 10
4.084520511183086
 20
15.65583945193319
 30
0.0
 10
4.102477724934715
 20
15.63583153231241
 30
0.0
 10
4.11574966000353
 20
15.62154017314617
 30
0.0
 10
4.124955762509557
 20
15.6115851825136
 30
0.0
 10
4.131134917376471
 20
15.60459429728808
 30
0.0
 10
4.135524657515361
 20
15.59910588647509
 30
0.0
 10
4.138379932664861
 20
15.59491425971299
 30
0.0
 10
4.139950149560831
 20
15.5913923254831
 30
0.0
 10
4.140471183245495
 20
15.58935830307001
 30
0.0
 10
4.140508660903606
 20
15.58826469624191
 30
0.0
 10
4.140521026383453
 20
15.58790386864479
 30
0.0
  0
LINE
  5
2F3
330
1F
100
AcDbEntity
  8
0
  6
Continuous
 62
     7
370
    25
100
AcDbLine
 10
4.026202649749848
 20
15.7429718692922
 30
0.0
 11
4.036349136073908
 21
15.71690873097418
 31
0.0
  0
LINE
  5
2F4
330
1F
100
AcDbEntity
  8
0
  6
Continuous
 62
     7
370
    25
100
AcDbLine
 10
4.264249575314011
 20
15.88369125761619
 30
0.0
 11
4.262439076448004
 21
15.75883359806218
 31
0.0
  0
ARC
  5
2F5
330
1F
100
AcDbEntity
  8
0
  6
Continuous
 62
     7
370
    25
100
AcDbCircle
 10
4.520360441443926
 20
17.62637967818818
 30
0.0
 40
1.761407308643172
100
AcDbArc
 50
261.6394832571955
 51
274.0252165452954
  0
ELLIPSE
  5
2F6
330
1F
100
AcDbEntity
  8
0
  6
Continuous
 62
     7
370
    25
100
AcDbEllipse
 10
4.809425321887943
 20
-20.33732927164381
 30
0.0
 11
-0.5813303595787428
 21
45.22645414958918
 31
0.0
210
0.0
220
0.0
230
1.0
 40
0.0110643076
 41
5.638316680815637
 42
5.640481654437787
  0
LWPOLYLINE
  5
2F7
330
1F
100
AcDbEntity
  8
0
  6
Continuous
 62
     7
370
    25
100
AcDbPolyline
 90
        3
 70
   128
 43
0.0
 10
4.645625170108019
 20
15.81055769588417
 10
4.706843973313993
 20
15.8158987792342
 10
4.726582048454133
 20
15.8181361480982
  0
ELLIPSE
  5
2F8
330
1F
100
AcDbEntity
  8
0
  6
Continuous
 62
     7
370
    25
100
AcDbEllipse
 10
4.229650914159947
 20
-20.48738593024982
 30
0.0
 11
0.5784535198064999
 21
45.52658910098711
 31
0.0
210
0.0
220
0.0
230
1.0
 40
0.0110643522
 41
5.640261402195882
 42
5.640783399190534
  0
LWPOLYLINE
  5
2F9
330
1F
100
AcDbEntity
  8
0
  6
Continuous
 62
     7
370
    25
100
AcDbPolyline
 90
        4
 70
   128
 43
0.0
 10
4.974680641792133
 20
16.03999704141617
 10
4.993531916898064
 20
16.02550552496819
 10
5.010615623029934
 20
15.99279790512418
 10
4.994585131092094
 20
15.96005456531819
  0
LWPOLYLINE
  5
2FA
330
1F
100
AcDbEntity
  8
0
  6
Continuous
 62
     7
370
    25
100
AcDbPolyline
 90
        9
 70
   128
 43
0.0
 10
4.100027741296003
 20
15.92619499588019
 10
4.076559823541856
 20
15.93740659784609
 10
4.057550267226019
 20
15.9491703495022
 10
4.043190548837856
 20
15.96136788282419
 10
4.033625110824118
 20
15.97387642232019
 10
4.028950110588084
 20
15.98657004153819
 10
4.029212894876081
 20
15.99932104254219
 10
4.034410773516015
 20
16.01200110244818
 10
4.0444910945439
 20
16.02448249740419
  0
LINE
  5
2FB
330
1F
100
AcDbEntity
  8
0
  6
Continuous
 62
     7
370
    25
100
AcDbLine
 10
4.099811840799929
 20
15.80092462391221
 30
0.0
 11
4.100027741296003
 21
15.92619499588019
 31
0.0
  0
SPLINE
  5
2FC
330
1F
100
AcDbEntity
  8
0
  6
Continuous
 62
     7
370
    25
100
AcDbSpline
210
0.0
220
0.0
230
1.0
 70
     8
 71
     3
 72
    17
 73
    13
 74
     0
 42
0.000000001
 43
0.0000000001
 40
0.0
 40
0.0
 40
0.0
 40
0.0
 40
0.0718500814629745
 40
0.1809460051454002
 40
0.2884944761223129
 40
0.3942141113226919
 40
0.5000033194457627
 40
0.570935348296776
 40
0.6799556594270619
 40
0.7878947438194233
 40
0.8939091400979226
 40
1.0
 40
1.0
 40
1.0
 40
1.0
 10
4.099811840790266
 20
15.80092462391602
 30
0.0
 10
4.100106236644137
 20
15.79244751014829
 30
0.0
 10
4.100847638081518
 20
15.77109889313649
 30
0.0
 10
4.108453195334732
 20
15.73665953787358
 30
0.0
 10
4.123420659570001
 20
15.70321094685002
 30
0.0
 10
4.144550720750089
 20
15.67839262493967
 30
0.0
 10
4.16760421308254
 20
15.66641846702919
 30
0.0
 10
4.192464490256043
 20
15.66401458441319
 30
0.0
 10
4.217632501811749
 20
15.67160828567409
 30
0.0
 10
4.241549312343863
 20
15.6924353110451
 30
0.0
 10
4.258622979228448
 20
15.72241067506758
 30
0.0
 10
4.261166738367137
 20
15.74668970622159
 30
0.0
 10
4.262439076447208
 20
15.75883359807551
 30
0.0
  0
LINE
  5
2FD
330
1F
100
AcDbEntity
  8
0
  6
Continuous
 62
     7
370
    25
100
AcDbLine
 10
4.644003319847797
 20
15.86931731571417
 30
0.0
 11
4.614878132676039
 21
15.8768554688522
 31
0.0
  0
LINE
  5
2FE
330
1F
100
AcDbEntity
  8
0
  6
Continuous
 62
     7
370
    25
100
AcDbLine
 10
4.264249575314011
 20
15.88369125761619
 30
0.0
 11
4.289838423281935
 21
15.89031413880221
 31
0.0
  0
ELLIPSE
  5
2FF
330
1F
100
AcDbEntity
  8
0
  6
Continuous
 62
     7
370
    25
100
AcDbEllipse
 10
4.519538118024115
 20
15.36828044770817
 30
0.0
 11
0.4939975738590574
 21
0.0062717081988086
 31
0.0
210
0.0
220
0.0
230
1.0
 40
0.2468596494
 41
3.138458576218654
 42
3.923856739616035
  0
SPLINE
  5
300
330
1F
100
AcDbEntity
  8
0
  6
Continuous
 62
     7
370
    25
100
AcDbSpline
210
0.0
220
0.0
230
1.0
 70
     8
 71
     3
 72
    13
 73
     9
 74
     0
 42
0.000000001
 43
0.0000000001
 40
0.0
 40
0.0
 40
0.0
 40
0.0
 40
0.0072620567786641
 40
0.0144957860080401
 40
0.0275869162400698
 40
0.0802585052891854
 40
0.2878216194110986
 40
1.0
 40
1.0
 40
1.0
 40
1.0
 10
4.145826881864536
 20
15.52815037389268
 30
0.0
 10
4.145844164627305
 20
15.52765831557559
 30
0.0
 10
4.145878662736777
 20
15.5266761183432
 30
0.0
 10
4.14539930074045
 20
15.5250802736621
 30
0.0
 10
4.143269310816435
 20
15.52197239726379
 30
0.0
 10
4.132468685922958
 20
15.51641149366818
 30
0.0
 10
4.094309341087864
 20
15.50515594169567
 30
0.0
 10
4.070675717780773
 20
15.50625968038559
 30
0.0
 10
4.052375624035903
 20
15.50711433230378
 30
0.0
  0
ELLIPSE
  5
301
330
1F
100
AcDbEntity
  8
0
  6
Continuous
 62
     7
370
    25
100
AcDbEllipse
 10
4.519538118024115
 20
70.21508774255818
 30
0.0
 11
0.3547913633800624
 21
54.77518685365846
 31
0.0
210
0.0
220
0.0
230
1.0
 40
0.0062755197
 41
3.068264326849831
 42
3.084860861743823
  0
LINE
  5
302
330
1F
100
AcDbEntity
  8
0
  6
Continuous
 62
     7
370
    25
100
AcDbLine
 10
4.682137145664
 20
15.8296393353882
 30
0.0
 11
4.645361560004062
 21
15.82012111343817
 31
0.0
  0
LINE
  5
303
330
1F
100
AcDbEntity
  8
0
  6
Continuous
 62
     7
370
    25
100
AcDbLine
 10
5.477318983773898
 20
15.32526785414219
 30
0.0
 11
5.476017099251976
 21
15.2219224900702
 31
0.0
  0
LINE
  5
304
330
1F
100
AcDbEntity
  8
0
  6
Continuous
 62
     7
370
    25
100
AcDbLine
 10
5.546201999113918
 20
15.06412211793417
 30
0.0
 11
5.053187152381838
 21
14.93652048605619
 31
0.0
  0
LINE
  5
305
330
1F
100
AcDbEntity
  8
0
  6
Continuous
 62
     7
370
    25
100
AcDbLine
 10
4.125616589264041
 20
15.93281787706618
 30
0.0
 11
4.100027741296003
 21
15.92619499588019
 31
0.0
  0
LINE
  5
306
330
1F
100
AcDbEntity
  8
0
  6
Continuous
 62
     7
370
    25
100
AcDbLine
 10
4.064023917129929
 20
16.01942703090819
 30
0.0
 11
4.0444910945439
 21
16.02448249740419
 31
0.0
  0
LINE
  5
307
330
1F
100
AcDbEntity
  8
0
  6
Continuous
 62
     7
370
    25
100
AcDbLine
 10
4.965459943920109
 20
15.96759271845619
 30
0.0
 11
4.994585131092094
 21
15.96005456531819
 31
0.0
  0
SPLINE
  5
308
330
1F
100
AcDbEntity
  8
0
  6
Continuous
 62
     7
370
    25
100
AcDbSpline
210
0.0
220
0.0
230
1.0
 70
     8
 71
     3
 72
    10
 73
     6
 74
     0
 42
0.000000001
 43
0.0000000001
 40
0.0
 40
0.0
 40
0.0
 40
0.0
 40
0.3210654330398269
 40
0.7141554978127676
 40
1.0
 40
1.0
 40
1.0
 40
1.0
 10
5.609166224510659
 20
15.06914586071599
 30
0.0
 10
5.601956892074895
 20
15.06912037642939
 30
0.0
 10
5.585920957138455
 20
15.0690636909645
 30
0.0
 10
5.563335538498222
 20
15.0676450813668
 30
0.0
 10
5.551278319895573
 20
15.0651659006491
 30
0.0
 10
5.546201999117215
 20
15.06412211791567
 30
0.0
  0
LINE
  5
309
330
1F
100
AcDbEntity
  8
0
  6
Continuous
 62
     7
370
    25
100
AcDbLine
 10
4.029078287057927
 20
15.99866332900418
 30
0.0
 11
3.976762893655973
 21
16.01220354919618
 31
0.0
  0
LINE
  5
30A
330
1F
100
AcDbEntity
  8
0
  6
Continuous
 62
     7
370
    25
100
AcDbLine
 10
4.062747082322061
 20
16.03399541482019
 30
0.0
 11
3.976762893655973
 21
16.05624976039419
 31
0.0
  0
LWPOLYLINE
  5
30B
330
1F
100
AcDbEntity
  8
0
  6
Continuous
 62
     7
370
    25
100
AcDbPolyline
 90
        9
 70
   128
 43
0.0
 10
3.976762968705997
 20
16.12579460501419
 10
3.953134004557909
 20
16.11834269781619
 10
3.93557613058806
 20
16.1098408905562
 10
3.92476401251406
 20
16.10061587634018
 10
3.921113210356111
 20
16.0910221859342
 10
3.92476401251406
 20
16.0814284955282
 10
3.935576180633916
 20
16.07220349427018
 10
3.953134004557909
 20
16.06370167405219
 10
3.976762893655973
 20
16.05624976039419
  0
LINE
  5
30C
330
1F
100
AcDbEntity
  8
0
  6
Continuous
 62
     7
370
    25
100
AcDbLine
 10
3.976762968705997
 20
16.12579460501419
 30
0.0
 11
4.066365177233819
 21
16.14898536304218
 31
0.0
  0
LWPOLYLINE
  5
30D
330
1F
100
AcDbEntity
  8
0
  6
Continuous
 62
     7
370
    25
100
AcDbPolyline
 90
        5
 70
   128
 43
0.0
 10
3.921113210356111
 20
16.0469759747362
 10
3.92476401251406
 20
16.03738228429219
 10
3.935576180633916
 20
16.0281572830722
 10
3.953134004557909
 20
16.01965546285419
 10
3.976762893655973
 20
16.01220354919618
  0
ARC
  5
30E
330
1F
100
AcDbEntity
  8
0
  6
Continuous
 62
     7
370
    25
100
AcDbCircle
 10
4.665077557029803
 20
15.81737915823018
 30
0.0
 40
0.0587928760435496
100
AcDbArc
 50
74.53120635099489
 51
115.5453008267931
  0
LINE
  5
30F
330
1F
100
AcDbEntity
  8
0
  6
Continuous
 62
     7
370
    25
100
AcDbLine
 10
4.680758410284056
 20
15.87404231304418
 30
0.0
 11
4.901092884375998
 21
15.8170155548502
 31
0.0
  0
LINE
  5
310
330
1F
100
AcDbEntity
  8
0
  6
Continuous
 62
     7
370
    25
100
AcDbLine
 10
4.901092884375998
 20
15.8170155548502
 30
0.0
 11
4.901092884375998
 21
15.77296934361419
 31
0.0
  0
LINE
  5
311
330
1F
100
AcDbEntity
  8
0
  6
Continuous
 62
     7
370
    25
100
AcDbLine
 10
4.680758410284056
 20
15.8299961018082
 30
0.0
 11
4.901092884375998
 21
15.77296934361419
 31
0.0
  0
ARC
  5
312
330
1F
100
AcDbEntity
  8
0
  6
Continuous
 62
     7
370
    25
100
AcDbCircle
 10
4.67099509441391
 20
15.79432291860618
 30
0.0
 40
0.0369851096552867
100
AcDbArc
 50
74.69366846900564
 51
133.9241698733035
  0
LWPOLYLINE
  5
313
330
1F
100
AcDbEntity
  8
0
  6
Continuous
 62
     7
370
    25
100
AcDbPolyline
 90
        9
 70
   128
 43
0.0
 10
5.062313256929883
 20
15.85874245770819
 10
5.085942221077857
 20
15.86619436490619
 10
5.103500095047934
 20
15.87469617216618
 10
5.114312213122047
 20
15.88392118638219
 10
5.117963015279997
 20
15.8935148767882
 10
5.114312213122047
 20
15.90310856719418
 10
5.103500045002078
 20
15.91233356845217
 10
5.085942221077857
 20
15.92083538867018
 10
5.062313331979908
 20
15.92828730232819
  0
LINE
  5
314
330
1F
100
AcDbEntity
  8
0
  6
Continuous
 62
     7
370
    25
100
AcDbLine
 10
5.062313256929883
 20
15.85874245770819
 30
0.0
 11
4.901092884375998
 21
15.8170155548502
 31
0.0
  0
LINE
  5
315
330
1F
100
AcDbEntity
  8
0
  6
Continuous
 62
     7
370
    25
100
AcDbLine
 10
4.976329143313819
 20
15.95054164794018
 30
0.0
 11
5.062313331979908
 21
15.92828730232819
 31
0.0
  0
LINE
  5
316
330
1F
100
AcDbEntity
  8
0
  6
Continuous
 62
     7
370
    25
100
AcDbLine
 10
5.062313256929883
 20
15.81469624651021
 30
0.0
 11
4.901092884375998
 21
15.77296934361419
 31
0.0
  0
LWPOLYLINE
  5
317
330
1F
100
AcDbEntity
  8
0
  6
Continuous
 62
     7
370
    25
100
AcDbPolyline
 90
        5
 70
   128
 43
0.0
 10
5.062313256929883
 20
15.81469624651021
 10
5.085942221077857
 20
15.82214815367018
 10
5.103500095047934
 20
15.8306499609302
 10
5.114312213122047
 20
15.83987497514619
 10
5.117963015279997
 20
15.84946866555219
  0
LWPOLYLINE
  5
318
330
1F
100
AcDbEntity
  8
0
  6
Continuous
 62
     7
370
    25
100
AcDbPolyline
 90
        3
 70
   128
 43
0.0
 10
4.945860705769973
 20
15.95080605585417
 10
4.959554467127986
 20
15.95262633352618
 10
4.976329143313819
 20
15.95054164794018
  0
LWPOLYLINE
  5
319
330
1F
100
AcDbEntity
  8
0
  6
Continuous
 62
     7
370
    25
100
AcDbPolyline
 90
       24
 70
   128
 43
0.0
 10
4.250837592011862
 20
16.48759350249818
 10
4.188307094583819
 20
16.4662516049062
 10
4.150342635908032
 20
16.44133473598017
 10
4.139759581339831
 20
16.41469082671418
 10
4.157343030525908
 20
16.38829596272216
 10
4.201788840451968
 20
16.3641077267342
 10
4.269800635263891
 20
16.34392003555621
 10
4.356334495943883
 20
16.3292301703182
 10
4.454972106971808
 20
16.32112748378418
 10
4.558398518014087
 20
16.32021306352618
 10
4.658942735228038
 20
16.32655463819819
 10
4.749147938700048
 20
16.3396818998502
 10
4.822324039911904
 20
16.35862126849417
 10
4.873043884069943
 20
16.38196809309218
 10
4.897545847107949
 20
16.4079908513942
 10
4.894012698536016
 20
16.43475955041819
 10
4.86270652192195
 20
16.46028889452819
 10
4.805949040886048
 20
16.4826854539242
 10
4.727949791725905
 20
16.5002882017142
 10
4.634493624337892
 20
16.51179162380617
 10
4.532511701063981
 20
16.51634255533418
 10
4.429567640969935
 20
16.5136034851622
 10
4.333296252132072
 20
16.50377756022618
 10
4.250837592011862
 20
16.48759350249818
  0
LWPOLYLINE
  5
31A
330
1F
100
AcDbEntity
  8
0
  6
Continuous
 62
     7
370
    25
100
AcDbPolyline
 90
       15
 70
   128
 43
0.0
 10
4.068887616056031
 20
16.20776195260819
 10
4.067475647889978
 20
16.2014944635722
 10
4.078145125211904
 20
16.17228168328418
 10
4.116548635849881
 20
16.14467333455019
 10
4.180273732286082
 20
16.12040430250619
 10
4.265316002563736
 20
16.10099941269618
 10
4.366331897665986
 20
16.08767794224019
 10
4.47697426603986
 20
16.08127693256619
 10
4.590291198294039
 20
16.08219863605618
 10
4.699162419119943
 20
16.0903850846982
 10
4.796747178815735
 20
16.10532191163219
 10
4.876913877486117
 20
16.12607058001418
 10
4.93462524501001
 20
16.15132734845218
 10
4.966255253634017
 20
16.17950529385419
 10
4.970188759717984
 20
16.2077619396502
  0
LWPOLYLINE
  5
31B
330
1F
100
AcDbEntity
  8
0
  6
Continuous
 62
     7
370
    25
100
AcDbPolyline
 90
       10
 70
   128
 43
0.0
 10
4.277914333020021
 20
15.8921774879922
 10
4.378015725860109
 20
15.88007491203419
 10
4.486425040878089
 20
15.87455860350218
 10
4.596778424115996
 20
15.87595250293418
 10
4.702597333245989
 20
15.88417467796017
 10
4.797669764095985
 20
15.89874249191018
 10
4.876414559842032
 20
15.91880075223818
 10
4.934208934261846
 20
15.94317191923809
 10
4.967660114773934
 20
15.9704252854242
 10
4.975533107876117
 20
15.99282052234417
  0
LWPOLYLINE
  5
31C
330
1F
100
AcDbEntity
  8
0
  6
Continuous
 62
     7
370
    25
100
AcDbPolyline
 90
        4
 70
   128
 43
0.0
 10
4.063543167805732
 20
15.9928205482222
 10
4.064741875525896
 20
15.98369823770818
 10
4.086055254992061
 20
15.95563984232018
 10
4.132816017773848
 20
15.92973169540019
  0
ARC
  5
31D
330
1F
100
AcDbEntity
  8
0
  6
Continuous
 62
     7
370
    25
100
AcDbCircle
 10
4.372975579025819
 20
16.5585514620862
 30
0.0
 40
0.673120281839347
100
AcDbArc
 50
249.0970862548909
 51
261.8812763469085
  0
LWPOLYLINE
  5
31E
330
1F
100
AcDbEntity
  8
0
  6
Continuous
 62
     7
370
    25
100
AcDbPolyline
 90
       17
 70
   128
 43
0.0
 10
4.473859064191969
 20
16.42987129802017
 10
4.459855531584025
 20
16.42444702982018
 10
4.454938092183965
 20
16.41804865951218
 10
4.459855489365963
 20
16.41165030657018
 10
4.473858992257987
 20
16.40622603799019
 10
4.494816756742011
 20
16.40260166475619
 10
4.519538094045969
 20
16.40132894869219
 10
4.544259498610017
 20
16.4026016756622
 10
4.565217261536076
 20
16.40622605661019
 10
4.579220694051741
 20
16.41165029889419
 10
4.584138133451915
 20
16.41804866920219
 10
4.579220736270144
 20
16.42444702214419
 10
4.56521723337812
 20
16.42987129072421
 10
4.544259468893869
 20
16.43349566395818
 10
4.519538131589911
 20
16.4347683800222
 10
4.494816727025863
 20
16.4334956530522
 10
4.473859064191969
 20
16.42987129802017
  0
LINE
  5
31F
330
1F
100
AcDbEntity
  8
0
  6
Continuous
 62
     7
370
    25
100
AcDbLine
 10
4.277914333020021
 20
15.88722793391818
 30
0.0
 11
4.277914333020021
 21
15.8921774879922
 31
0.0
  0
SPLINE
  5
320
330
1F
100
AcDbEntity
  8
0
  6
Continuous
 62
     7
370
    25
100
AcDbSpline
210
0.0
220
0.0
230
1.0
 70
     8
 71
     3
 72
    15
 73
    11
 74
     0
 42
0.000000001
 43
0.0000000001
 40
0.0
 40
0.0
 40
0.0
 40
0.0
 40
0.1016624850717131
 40
0.2036315447328607
 40
0.4061394031785543
 40
0.6085103161715613
 40
0.7103773539170603
 40
0.8125703410566341
 40
0.9142308162105814
 40
1.0
 40
1.0
 40
1.0
 40
1.0
 10
4.132816017773734
 20
15.80493408554161
 30
0.0
 10
4.133025182569554
 20
15.7983479627959
 30
0.0
 10
4.133444142920666
 20
15.78515585611518
 30
0.0
 10
4.137889614396954
 20
15.75845479579399
 30
0.0
 10
4.148529024418053
 20
15.7268415851982
 30
0.0
 10
4.165968625927575
 20
15.7026035156374
 30
0.0
 10
4.182984093812365
 20
15.68995786265651
 30
0.0
 10
4.196958732271582
 20
15.68431380487442
 30
0.0
 10
4.210851756415195
 20
15.68240855543911
 30
0.0
 10
4.219742891562418
 20
15.6843404448052
 30
0.0
 10
4.223811540083261
 20
15.68522449151911
 30
0.0
  0
LINE
  5
321
330
1F
100
AcDbEntity
  8
0
  6
Continuous
 62
     7
370
    25
100
AcDbLine
 10
4.132816017773848
 20
15.80493408553619
 30
0.0
 11
4.132816017773848
 21
15.92973169540019
 31
0.0
  0
ARC
  5
322
330
1F
100
AcDbEntity
  8
0
  6
Continuous
 62
     7
370
    25
100
AcDbCircle
 10
7.65267743350796
 20
17.06208070202217
 30
0.0
 40
0.1584997138873987
100
AcDbArc
 50
77.30189101770735
 51
95.87093787400103
  0
ARC
  5
323
330
1F
100
AcDbEntity
  8
0
  6
Continuous
 62
     7
370
    25
100
AcDbCircle
 10
7.620252185621893
 20
17.06208013331419
 30
0.0
 40
0.1585002812982343
100
AcDbArc
 50
84.12907720949306
 51
102.6980693897961
  0
ARC
  5
324
330
1F
100
AcDbEntity
  8
0
  6
Continuous
 62
     7
370
    25
100
AcDbCircle
 10
7.602670914101963
 20
17.0392469334742
 30
0.0
 40
0.1782942009043455
100
AcDbArc
 50
95.55503469149236
 51
113.4666027066073
  0
ARC
  5
32D
330
1F
100
AcDbEntity
  8
0
  6
Continuous
 62
     7
370
    25
100
AcDbCircle
 10
7.670258716200123
 20
17.03924704967818
 30
0.0
 40
0.1782940735653206
100
AcDbArc
 50
66.53339189559102
 51
84.44497070619135
  0
ELLIPSE
  5
333
330
1F
100
AcDbEntity
  8
0
  6
Continuous
 62
     7
370
    25
100
AcDbEllipse
 10
8.308216251610019
 20
15.3141957934202
 30
0.0
 11
0.1520000000000021
 21
0.0
 31
0.0
210
0.0
220
0.0
230
1.0
 40
0.2588978899000001
 41
3.927143110234573
 42
5.497634850534813
  0
LINE
  5
334
330
1F
100
AcDbEntity
  8
0
  6
Continuous
 62
     7
370
    25
100
AcDbLine
 10
8.200752484740064
 20
15.28636513324818
 30
0.0
 11
7.985759155595928
 21
15.34200950141221
 31
0.0
  0
ELLIPSE
  5
335
330
1F
100
AcDbEntity
  8
0
  6
Continuous
 62
     7
370
    25
100
AcDbEllipse
 10
8.093288534634098
 20
15.36982317987818
 30
0.0
 11
0.1520463041994344
 21
0.0
 31
0.0
210
0.0
220
0.0
230
1.0
 40
0.2587402243
 41
2.356346783439846
 42
3.926838523739767
  0
LINE
  5
336
330
1F
100
AcDbEntity
  8
0
  6
Continuous
 62
     7
370
    25
100
AcDbLine
 10
7.985759205679755
 20
15.39763688718619
 30
0.0
 11
8.012657896015866
 21
15.40459878054619
 31
0.0
  0
ELLIPSE
  5
337
330
1F
100
AcDbEntity
  8
0
  6
Continuous
 62
     7
370
    25
100
AcDbEllipse
 10
7.932010885629892
 20
15.42545904124819
 30
0.0
 11
0.1140347281495758
 21
0.0
 31
0.0
210
0.0
220
0.0
230
1.0
 40
0.2587402243
 41
5.49793943702974
 42
7.068431177329717
  0
LINE
  5
338
330
1F
100
AcDbEntity
  8
0
  6
Continuous
 62
     7
370
    25
100
AcDbLine
 10
8.012657845931926
 20
15.4463193231542
 30
0.0
 11
7.218793707943973
 21
15.6517864812802
 31
0.0
  0
ARC
  5
339
330
1F
100
AcDbEntity
  8
0
  6
Continuous
 62
     7
370
    25
100
AcDbCircle
 10
7.33444579856598
 20
17.38955251090018
 30
0.0
 40
1.549667977332598
100
AcDbArc
 50
251.474288877594
 51
260.5958376131982
  0
SPLINE
  5
33A
330
1F
100
AcDbEntity
  8
0
  6
Continuous
 62
     7
370
    25
100
AcDbSpline
210
0.0
220
0.0
230
1.0
 70
     8
 71
     3
 72
    11
 73
     7
 74
     0
 42
0.000000001
 43
0.0000000001
 40
0.0
 40
0.0
 40
0.0
 40
0.0
 40
0.2441581622862504
 40
0.488317118151815
 40
0.7324476806280013
 40
1.0
 40
1.0
 40
1.0
 40
1.0
 10
7.177669231355139
 20
15.86307262485869
 30
0.0
 10
7.171027882033513
 20
15.8616605474275
 30
0.0
 10
7.1577451618042
 20
15.85883638797568
 30
0.0
 10
7.132475415703993
 20
15.85710040946259
 30
0.0
 10
7.105487519378129
 20
15.8573635876742
 30
0.0
 10
7.089561320306074
 20
15.85956206217369
 30
0.0
 10
7.081233718090288
 20
15.86071161587628
 30
0.0
  0
LINE
  5
33B
330
1F
100
AcDbEntity
  8
0
  6
Continuous
 62
     7
370
    25
100
AcDbLine
 10
7.177669231360027
 20
15.86307262485419
 30
0.0
 11
7.504022036377932
 21
15.94753894623218
 31
0.0
  0
ARC
  5
33C
330
1F
100
AcDbEntity
  8
0
  6
Continuous
 62
     7
370
    25
100
AcDbCircle
 10
7.632513665838018
 20
17.75884254313419
 30
0.0
 40
1.815855395956388
100
AcDbArc
 50
265.9423059129923
 51
267.8472977669932
  0
LINE
  5
33D
330
1F
100
AcDbEntity
  8
0
  6
Continuous
 62
     7
370
    25
100
AcDbLine
 10
7.564304866106112
 20
15.94426865962018
 30
0.0
 11
7.444512069231791
 21
15.91326400232819
 31
0.0
  0
ELLIPSE
  5
33E
330
1F
100
AcDbEntity
  8
0
  6
Continuous
 62
     7
370
    25
100
AcDbEllipse
 10
7.552041428395909
 20
15.88545030338019
 30
0.0
 11
0.1520463041994344
 21
0.0
 31
0.0
210
0.0
220
0.0
230
1.0
 40
0.2587402243
 41
2.356346783439846
 42
3.926838523739767
  0
LINE
  5
33F
330
1F
100
AcDbEntity
  8
0
  6
Continuous
 62
     7
370
    25
100
AcDbLine
 10
7.444512094236074
 20
15.8576366230142
 30
0.0
 11
8.227606130597905
 21
15.65495697229218
 31
0.0
  0
LINE
  5
340
330
1F
100
AcDbEntity
  8
0
  6
Continuous
 62
     7
370
    25
100
AcDbLine
 10
8.227606130597905
 20
15.65495697229218
 30
0.0
 11
8.735363323265914
 21
15.49433591126617
 31
0.0
  0
ELLIPSE
  5
341
330
1F
100
AcDbEntity
  8
0
  6
Continuous
 62
     7
370
    25
100
AcDbEllipse
 10
8.441148406865977
 20
15.43206767133219
 30
0.0
 11
0.3801050245470679
 21
-0.0000029056320568
 31
0.0
210
0.0
220
0.0
230
1.0
 40
0.2587477102
 41
5.497940727948174
 42
6.968792751463722
  0
LINE
  5
342
330
1F
100
AcDbEntity
  8
0
  6
Continuous
 62
     7
370
    25
100
AcDbLine
 10
8.709964062389985
 20
15.36253141471221
 30
0.0
 11
8.415680199093912
 21
15.28636514620618
 31
0.0
  0
LWPOLYLINE
  5
343
330
1F
100
AcDbEntity
  8
0
  6
Continuous
 62
     7
370
    25
100
AcDbPolyline
 90
       17
 70
   128
 43
0.0
 10
8.393516630807766
 20
15.33626466312219
 10
8.41142915467401
 20
15.32932624194419
 10
8.417719160876004
 20
15.32114181410418
 10
8.411429104628155
 20
15.3129573733062
 10
8.393516630807766
 20
15.30601893917017
 10
8.366708529850029
 20
15.30138283683621
 10
8.335086253845929
 20
15.2997548439902
 10
8.303464052930166
 20
15.30138281741819
 10
8.276656052063913
 20
15.30601891971409
 10
8.25874352819801
 20
15.31295734093018
 10
8.252453321773941
 20
15.32114182056418
 10
8.258743403064045
 20
15.32932626786021
 10
8.276656127151909
 20
15.33626466312219
 10
8.303463977842056
 20
15.3409008043302
 10
8.335086228841987
 20
15.34252879067819
 10
8.366708629941967
 20
15.34090076545618
 10
8.393516630807766
 20
15.33626466312219
  0
ELLIPSE
  5
344
330
1F
100
AcDbEntity
  8
0
  6
Continuous
 62
     7
370
    25
100
AcDbEllipse
 10
8.308216251610019
 20
14.76701701892818
 30
0.0
 11
0.1139999999999935
 21
0.0
 31
0.0
210
0.0
220
0.0
230
1.0
 40
0.2588978899
 41
3.927143110234821
 42
5.497634850534549
  0
LWPOLYLINE
  5
345
330
1F
100
AcDbEntity
  8
0
  6
Continuous
 62
     7
370
    25
100
AcDbPolyline
 90
        3
 70
   128
 43
0.0
 10
8.227618417745929
 20
14.74614401036618
 10
8.22243382721183
 20
14.7454919117082
 10
8.218097023175914
 20
14.74606138514218
  0
LWPOLYLINE
  5
346
330
1F
100
AcDbEntity
  8
0
  6
Continuous
 62
     7
370
    25
100
AcDbPolyline
 90
        3
 70
   128
 43
0.0
 10
8.388814241046134
 20
14.74614400390618
 10
8.39399875649201
 20
14.7454919246662
 10
8.398335635615922
 20
14.74606137864418
  0
ELLIPSE
  5
347
330
1F
100
AcDbEntity
  8
0
  6
Continuous
 62
     7
370
    25
100
AcDbEllipse
 10
8.148411147445926
 20
15.16797354765219
 30
0.0
 11
0.0364661302702587
 21
0.0289821163416872
 31
0.0
210
0.0
220
0.0
230
1.0
 40
0.2775179276
 41
2.156713406930808
 42
2.935347011186626
  0
ELLIPSE
  5
348
330
1F
100
AcDbEntity
  8
0
  6
Continuous
 62
     7
370
    25
100
AcDbEllipse
 10
8.521761471167906
 20
15.18188251300418
 30
0.0
 11
0.0364661302702587
 21
-0.0289821163416872
 31
0.0
210
0.0
220
0.0
230
1.0
 40
0.2775179276
 41
0.2062456424032714
 42
0.9848792466592232
  0
ELLIPSE
  5
349
330
1F
100
AcDbEntity
  8
0
  6
Continuous
 62
     7
370
    25
100
AcDbEllipse
 10
8.437574508461921
 20
15.2852930803262
 30
0.0
 11
0.3800839467692562
 21
-0.0009270903233494
 31
0.0
210
0.0
220
0.0
230
1.0
 40
0.2588737278
 41
6.277513678174576
 42
6.318433621960047
  0
SPLINE
  5
34B
330
1F
100
AcDbEntity
  8
0
  6
Continuous
 62
     7
370
    25
100
AcDbSpline
210
0.0
220
0.0
230
1.0
 70
     8
 71
     3
 72
    11
 73
     7
 74
     0
 42
0.000000001
 43
0.0000000001
 40
0.0
 40
0.0
 40
0.0
 40
0.0
 40
0.2549071285762403
 40
0.4999748113394503
 40
0.7450580839237789
 40
1.0
 40
1.0
 40
1.0
 40
1.0
 10
7.872232991886562
 20
16.25063369216241
 30
0.0
 10
7.892546278819054
 20
16.24622360092459
 30
0.0
 10
7.932388757365856
 20
16.23757364850092
 30
0.0
 10
8.007568922224891
 20
16.2323816699224
 30
0.0
 10
8.085263899044775
 20
16.23312909302601
 30
0.0
 10
8.131354718442025
 20
16.2392818873266
 30
0.0
 10
8.154854498207214
 20
16.2424189396267
 30
0.0
  0
SPLINE
  5
34C
330
1F
100
AcDbEntity
  8
0
  6
Continuous
 62
     7
370
    25
100
AcDbSpline
210
0.0
220
0.0
230
1.0
 70
     8
 71
     3
 72
    11
 73
     7
 74
     0
 42
0.000000001
 43
0.0000000001
 40
0.0
 40
0.0
 40
0.0
 40
0.0
 40
0.2500376403585529
 40
0.5000254609312056
 40
0.7500125135447993
 40
1.0
 40
1.0
 40
1.0
 40
1.0
 10
8.113653996593598
 20
16.18464785812171
 30
0.0
 10
8.098446645056469
 20
16.18267712284327
 30
0.0
 10
8.068034972033615
 20
16.17873604495369
 30
0.0
 10
8.016329478559327
 20
16.17824414567909
 30
0.0
 10
7.966337883183086
 20
16.18169276899041
 30
0.0
 10
7.940064473986467
 20
16.18728109815541
 30
0.0
 10
7.926927757989346
 20
16.19007526516259
 30
0.0
  0
LWPOLYLINE
  5
34D
330
1F
100
AcDbEntity
  8
0
  6
Continuous
 62
     7
370
    25
100
AcDbPolyline
 90
        8
 70
   128
 43
0.0
 10
7.704324695519972
 20
16.44565857179421
 10
7.803160114218144
 20
16.4519923515642
 10
7.894815523584156
 20
16.46346998761618
 10
7.975343153360086
 20
16.4795971331242
 10
8.041274456303995
 20
16.49967913763819
 10
8.089769680483982
 20
16.52285104151019
 10
8.11873991475204
 20
16.5481147466582
 10
8.127066054966121
 20
16.57201025903219
  0
LINE
  5
34E
330
1F
100
AcDbEntity
  8
0
  6
Continuous
 62
     7
370
    25
100
AcDbLine
 10
7.504022036377932
 20
15.94753894623218
 30
0.0
 11
7.50362675885799
 21
16.02197739657617
 31
0.0
  0
SPLINE
  5
34F
330
1F
100
AcDbEntity
  8
0
  6
Continuous
 62
     7
370
    25
100
AcDbSpline
210
0.0
220
0.0
230
1.0
 70
     8
 71
     3
 72
    12
 73
     8
 74
     0
 42
0.000000001
 43
0.0000000001
 40
0.0
 40
0.0
 40
0.0
 40
0.0
 40
0.2482006218276641
 40
0.4966578083830557
 40
0.7347620049678678
 40
0.9448221447175903
 40
1.0
 40
1.0
 40
1.0
 40
1.0
 10
7.463528932730241
 20
16.06157073764311
 30
0.0
 10
7.468385717266983
 20
16.0606295301298
 30
0.0
 10
7.478104306793738
 20
16.05874614217799
 30
0.0
 10
7.491051134349504
 20
16.05012791023108
 30
0.0
 10
7.500158726918016
 20
16.0385790150201
 30
0.0
 10
7.503386474802482
 20
16.02843435773229
 30
0.0
 10
7.503585380260005
 20
16.0230893305575
 30
0.0
 10
7.503626758858558
 20
16.02197739659092
 30
0.0
  0
ARC
  5
350
330
1F
100
AcDbEntity
  8
0
  6
Continuous
 62
     7
370
    25
100
AcDbCircle
 10
7.564888148663953
 20
17.22502091505617
 30
0.0
 40
1.167857014358518
100
AcDbArc
 50
255.9706842774986
 51
265.0209906255971
  0
ELLIPSE
  5
351
330
1F
100
AcDbEntity
  8
0
  6
Continuous
 62
     7
370
    25
100
AcDbEllipse
 10
7.871871848205955
 20
6.802681003868201
 30
0.0
 11
-0.4688574271260113
 21
18.54503765328219
 31
0.0
210
0.0
220
0.0
230
1.0
 40
0.0221253194
 41
1.024597282735008
 42
1.045591958269056
  0
SPLINE
  5
352
330
1F
100
AcDbEntity
  8
0
  6
Continuous
 62
     7
370
    25
100
AcDbSpline
210
0.0
220
0.0
230
1.0
 70
     8
 71
     3
 72
    10
 73
     6
 74
     0
 42
0.000000001
 43
0.0000000001
 40
0.0
 40
0.0
 40
0.0
 40
0.0
 40
0.3895424496865848
 40
0.6912725254329483
 40
1.0
 40
1.0
 40
1.0
 40
1.0
 10
7.158920294698305
 20
16.5423109526933
 30
0.0
 10
7.16879712703178
 20
16.53060475830992
 30
0.0
 10
7.186324312672127
 20
16.5098312314168
 30
0.0
 10
7.227700683561806
 20
16.46344421509411
 30
0.0
 10
7.26091398141466
 20
16.43917922077091
 30
0.0
 10
7.277710984847203
 20
16.42690765428119
 30
0.0
  0
LINE
  5
353
330
1F
100
AcDbEntity
  8
0
  6
Continuous
 62
     7
370
    25
100
AcDbLine
 10
7.145863549381942
 20
16.5720102525722
 30
0.0
 11
7.15892029470001
 21
16.54231095269819
 31
0.0
  0
SPLINE
  5
354
330
1F
100
AcDbEntity
  8
0
  6
Continuous
 62
     7
370
    25
100
AcDbSpline
210
0.0
220
0.0
230
1.0
 70
     8
 71
     3
 72
    12
 73
     8
 74
     0
 42
0.000000001
 43
0.0000000001
 40
0.0
 40
0.0
 40
0.0
 40
0.0
 40
0.142046064333917
 40
0.2831379291136136
 40
0.4983641385932179
 40
0.7870656997236009
 40
1.0
 40
1.0
 40
1.0
 40
1.0
 10
7.601646260008692
 20
16.37229087512699
 30
0.0
 10
7.602487666502042
 20
16.37867480020239
 30
0.0
 10
7.604164827310455
 20
16.39139976610659
 30
0.0
 10
7.61708139068628
 20
16.41044993091819
 30
0.0
 10
7.640159922829866
 20
16.42906848582009
 30
0.0
 10
7.671480467870651
 20
16.44228307208311
 30
0.0
 10
7.694537465370899
 20
16.44465270881102
 30
0.0
 10
7.704324695525201
 20
16.44565857178341
 30
0.0
  0
LINE
  5
355
330
1F
100
AcDbEntity
  8
0
  6
Continuous
 62
     7
370
    25
100
AcDbLine
 10
7.600635888093847
 20
16.24563966344019
 30
0.0
 11
7.60164626002404
 21
16.37229087511417
 31
0.0
  0
ARC
  5
356
330
1F
100
AcDbEntity
  8
0
  6
Continuous
 62
     7
370
    25
100
AcDbCircle
 10
7.636046810458083
 20
18.12923134571019
 30
0.0
 40
1.883924509881504
100
AcDbArc
 50
268.1710563464916
 51
268.9229845051017
  0
LINE
  5
357
330
1F
100
AcDbEntity
  8
0
  6
Continuous
 62
     7
370
    25
100
AcDbLine
 10
7.564304866106112
 20
15.94426865962018
 30
0.0
 11
7.575920101602036
 21
16.24626657231619
 31
0.0
  0
LWPOLYLINE
  5
358
330
1F
100
AcDbEntity
  8
0
  6
Continuous
 62
     7
370
    25
100
AcDbPolyline
 90
       13
 70
   128
 43
0.0
 10
7.294149910234068
 20
16.84252954096817
 10
7.386018336010124
 20
16.8239012481522
 10
7.492441647755867
 20
16.81150449774017
 10
7.607235199476008
 20
16.8060598136602
 10
7.723727414769996
 20
16.8078835762742
 10
7.835148276224003
 20
16.81686980783817
 10
7.935022369745752
 20
16.83249627211018
 10
8.017545293300031
 20
16.85385477634818
 10
8.07792131494989
 20
16.87970409387219
 10
8.112641447550004
 20
16.90854193484819
 10
8.119687925148014
 20
16.93869233876418
 10
8.098651281252159
 20
16.96840309620819
 10
8.05866803693209
 20
16.99243149283418
  0
LWPOLYLINE
  5
359
330
1F
100
AcDbEntity
  8
0
  6
Continuous
 62
     7
370
    25
100
AcDbPolyline
 90
        7
 70
   128
 43
0.0
 10
7.214261711322023
 20
16.99243148474019
 10
7.195008314439974
 20
16.98255022146819
 10
7.160288181878058
 20
16.95371238049219
 10
7.153241704241963
 20
16.92356197657619
 10
7.174278348137931
 20
16.89385121913218
 10
7.222175713644105
 20
16.86630683921819
 10
7.294149910234068
 20
16.84252954096817
  0
LWPOLYLINE
  5
35B
330
1F
100
AcDbEntity
  8
0
  6
Continuous
 62
     7
370
    25
100
AcDbPolyline
 90
       11
 70
   128
 43
0.0
 10
7.337142029589927
 20
16.8536567202722
 10
7.424811631229999
 20
16.8362456330822
 10
7.526905089557885
 20
16.82530057683419
 10
7.63646478967189
 20
16.82156741446417
 10
7.746024539831978
 20
16.82530056387619
 10
7.848117923071868
 20
16.8362456266222
 10
7.935787549753968
 20
16.85365670731417
 10
8.003058799767927
 20
16.87634727635819
 10
8.04534737496408
 20
16.9027710142322
 10
8.059771156601982
 20
16.93112716416817
 10
8.059766502020124
 20
16.93163957497819
  0
LWPOLYLINE
  5
35C
330
1F
100
AcDbEntity
  8
0
  6
Continuous
 62
     7
370
    25
100
AcDbPolyline
 90
        5
 70
   128
 43
0.0
 10
7.213163127369966
 20
16.93163958793619
 10
7.213158472787881
 20
16.93112715121017
 10
7.227582304471866
 20
16.9027710142322
 10
7.26987075453394
 20
16.87634728281819
 10
7.337142029589927
 20
16.8536567202722
  0
LWPOLYLINE
  5
35D
330
1F
100
AcDbEntity
  8
0
  6
Continuous
 62
     7
370
    25
100
AcDbPolyline
 90
       25
 70
   128
 43
0.0
 10
7.34089413173001
 20
17.14826933505819
 10
7.427464780285959
 20
17.13107651021619
 10
7.528278419589923
 20
17.1202686485602
 10
7.636464852220001
 20
17.11658230424217
 10
7.74465113471183
 20
17.12026864206217
 10
7.845464805327992
 20
17.13107651181218
 10
7.932035397568029
 20
17.14826933505819
 10
7.998463465658119
 20
17.17067547900419
 10
8.040221867741934
 20
17.1967679769582
 10
8.054464783402067
 20
17.2247686472682
 10
8.040221842737992
 20
17.2527693564522
 10
7.998463371835896
 20
17.27886182043417
 10
7.932035397568029
 20
17.3012679530182
 10
7.845464749011966
 20
17.31846077789819
 10
7.74465120979994
 20
17.32926866543218
 10
7.63646477717009
 20
17.33295500975018
 10
7.528278494677806
 20
17.32926867193018
 10
7.427464824061871
 20
17.31846080218019
 10
7.34089413173001
 20
17.3012679530182
 10
7.274466163731972
 20
17.27886183498819
 10
7.232707761648043
 20
17.25276933703418
 10
7.218464845988023
 20
17.22476866672417
 10
7.232707786651985
 20
17.19676795754017
 10
7.274466157461915
 20
17.17067546768018
 10
7.34089413173001
 20
17.14826933505819
  0
ARC
  5
35E
330
1F
100
AcDbEntity
  8
0
  6
Continuous
 62
     7
370
    25
100
AcDbCircle
 10
8.049114966967863
 20
17.19207311609818
 30
0.0
 40
0.9555228429213835
100
AcDbArc
 50
276.3534459272994
 51
298.6877506267077
  0
ARC
  5
35F
330
1F
100
AcDbEntity
  8
0
  6
Continuous
 62
     7
370
    25
100
AcDbCircle
 10
8.017223032437868
 20
17.0507005431142
 30
0.0
 40
0.8714047188400789
100
AcDbArc
 50
276.3534502571012
 51
298.6877468856014
  0
LWPOLYLINE
  5
360
330
1F
100
AcDbEntity
  8
0
  6
Continuous
 62
     7
370
    25
100
AcDbPolyline
 90
       23
 70
   128
 43
0.0
 10
7.392289242119886
 20
17.16157136847619
 10
7.470972220606086
 20
17.14632654869217
 10
7.563062490267952
 20
17.1374366589082
 10
7.661099408619975
 20
17.13562189591019
 10
7.757140532734069
 20
17.1410292603042
 10
7.843405223188028
 20
17.15322069888219
 10
7.912904896941768
 20
17.17120853806418
 10
7.960008998501848
 20
17.19353548290416
 10
7.98090135001405
 20
17.21839272903219
 10
7.973889744332041
 20
17.2437665764962
 10
7.939541747670091
 20
17.26760126626018
 10
7.880640487361915
 20
17.28796597143218
 10
7.801957308691953
 20
17.30321073938418
 10
7.709867139122025
 20
17.31210065508418
 10
7.61183012067795
 20
17.31391539216619
 10
7.515789096656021
 20
17.3085080536882
 10
7.429524406240034
 20
17.29631661511018
 10
7.360024732448096
 20
17.27832877592817
 10
7.312920630887902
 20
17.25600183108818
 10
7.292028179283875
 20
17.23114455908219
 10
7.29903988505805
 20
17.20577073749621
 10
7.333387781628061
 20
17.1819360218162
 10
7.392289242119886
 20
17.16157136847619
  0
LINE
  5
363
330
1F
100
AcDbEntity
  8
0
  6
Continuous
 62
     7
370
    25
100
AcDbLine
 10
7.613936936931736
 20
16.2421970986602
 30
0.0
 11
7.600635888093847
 21
16.24563966344019
 31
0.0
  0
LINE
  5
364
330
1F
100
AcDbEntity
  8
0
  6
Continuous
 62
     7
370
    25
100
AcDbLine
 10
7.669740747319906
 20
16.30304254153017
 30
0.0
 11
7.872232991883947
 21
16.25063369214419
 31
0.0
  0
ELLIPSE
  5
366
330
1F
100
AcDbEntity
  8
0
  6
Continuous
 62
     7
370
    25
100
AcDbEllipse
 10
7.630426945161843
 20
16.09500268498419
 30
0.0
 11
0.4782425016888796
 21
-0.3702546352497676
 31
0.0
210
0.0
220
0.0
230
0.9999999999999998
 40
0.2774615769
 41
1.622519610137618
 42
1.701933129858681
  0
LINE
  5
367
330
1F
100
AcDbEntity
  8
0
  6
Continuous
 62
     7
370
    25
100
AcDbLine
 10
7.669740722278106
 20
16.27497225742419
 30
0.0
 11
7.669740747319906
 21
16.30304254153017
 31
0.0
  0
LINE
  5
368
330
1F
100
AcDbEntity
  8
0
  6
Continuous
 62
     7
370
    25
100
AcDbLine
 10
7.926927757984003
 20
16.19007526517419
 30
0.0
 11
7.708295738649894
 21
16.2466613956222
 31
0.0
  0
ARC
  5
369
330
1F
100
AcDbEntity
  8
0
  6
Continuous
 62
     7
370
    25
100
AcDbCircle
 10
7.304921630469948
 20
17.26691186866418
 30
0.0
 40
1.303329793674825
100
AcDbArc
 50
248.3827365178925
 51
261.060008504898
  0
LINE
  5
36A
330
1F
100
AcDbEntity
  8
0
  6
Continuous
 62
     7
370
    25
100
AcDbLine
 10
7.280868313785958
 20
16.09176345280818
 30
0.0
 11
7.28177821155009
 21
16.09199895169019
 31
0.0
  0
LINE
  5
36B
330
1F
100
AcDbEntity
  8
0
  6
Continuous
 62
     7
370
    25
100
AcDbLine
 10
7.013237840565921
 20
16.1610313163022
 30
0.0
 11
7.280868313785958
 21
16.09176345280818
 31
0.0
  0
ELLIPSE
  5
36C
330
1F
100
AcDbEntity
  8
0
  6
Continuous
 62
     7
370
    25
100
AcDbEllipse
 10
7.64249253226194
 20
16.04953571758818
 30
0.0
 11
0.4774392159801233
 21
0.3696327326458704
 31
0.0
210
0.0
220
0.0
230
1.0
 40
0.2774615769
 41
1.303373780572404
 42
1.392884320206019
  0
LINE
  5
36D
330
1F
100
AcDbEntity
  8
0
  6
Continuous
 62
     7
370
    25
100
AcDbLine
 10
7.575920101602036
 20
16.24626657231619
 30
0.0
 11
7.573160328573976
 21
15.82433997417618
 31
0.0
  0
LINE
  5
36E
330
1F
100
AcDbEntity
  8
0
  6
Continuous
 62
     7
370
    25
100
AcDbLine
 10
7.626047285942036
 20
16.2453314876202
 30
0.0
 11
7.613936936931736
 21
16.2421970986602
 31
0.0
  0
SPLINE
  5
370
330
1F
100
AcDbEntity
  8
0
  6
Continuous
 62
     7
370
    25
100
AcDbSpline
210
0.0
220
0.0
230
1.0
 70
     8
 71
     3
 72
     9
 73
     5
 74
     0
 42
0.000000001
 43
0.0000000001
 40
0.0
 40
0.0
 40
0.0
 40
0.0
 40
0.8114487073453709
 40
1.0
 40
1.0
 40
1.0
 40
1.0
 10
8.507800291929925
 20
16.35384183773126
 30
0.0
 10
8.515135481454308
 20
16.35928188530528
 30
0.0
 10
8.524175103377501
 20
16.36598600292208
 30
0.0
 10
8.521592098386463
 20
16.3729943319536
 30
0.0
 10
8.521105069456439
 20
16.37431576145178
 30
0.0
  0
LINE
  5
371
330
1F
100
AcDbEntity
  8
0
  6
Continuous
 62
     7
370
    25
100
AcDbLine
 10
8.441564238282012
 20
16.29321664718418
 30
0.0
 11
8.435528583065888
 21
16.2862617618222
 31
0.0
  0
ELLIPSE
  5
372
330
1F
100
AcDbEntity
  8
0
  6
Continuous
 62
     7
370
    25
100
AcDbEllipse
 10
7.330580635558021
 20
16.42447164071021
 30
0.0
 11
0.0156704537755536
 21
0.0744092511501526
 31
0.0
210
0.0
220
0.0
230
1.0
 40
0.6912968772000001
 41
1.682964145015339
 42
1.883959840381838
  0
LINE
  5
373
330
1F
100
AcDbEntity
  8
0
  6
Continuous
 62
     7
370
    25
100
AcDbLine
 10
7.280868313785958
 20
16.09176345280818
 30
0.0
 11
7.277395547822038
 21
16.36607722713819
 31
0.0
  0
LINE
  5
374
330
1F
100
AcDbEntity
  8
0
  6
Continuous
 62
     7
370
    25
100
AcDbLine
 10
7.277395547822038
 20
16.36607722713819
 30
0.0
 11
7.276815979117827
 21
16.41185447293219
 31
0.0
  0
LINE
  5
375
330
1F
100
AcDbEntity
  8
0
  6
Continuous
 62
     7
370
    25
100
AcDbLine
 10
6.816804724426106
 20
16.48528690420821
 30
0.0
 11
6.947559537252004
 21
16.45144506842018
 31
0.0
  0
ELLIPSE
  5
376
330
1F
100
AcDbEntity
  8
0
  6
Continuous
 62
     7
370
    25
100
AcDbEllipse
 10
7.012768850987981
 20
16.12420476758819
 30
0.0
 11
-0.0086887849581314
 21
0.0369985696179384
 31
0.0
210
0.0
220
0.0
230
1.0
 40
0.6873451752000001
 41
5.936502687511834
 42
6.298720832723327
  0
LINE
  5
377
330
1F
100
AcDbEntity
  8
0
  6
Continuous
 62
     7
370
    25
100
AcDbLine
 10
6.947559537252004
 20
16.45144506842018
 30
0.0
 11
6.947559487205921
 21
16.1465794740202
 31
0.0
  0
LINE
  5
378
330
1F
100
AcDbEntity
  8
0
  6
Continuous
 62
     7
370
    25
100
AcDbLine
 10
6.816931799808003
 20
16.4792570218762
 30
0.0
 11
6.947559487205921
 21
16.44544808854019
 31
0.0
  0
LINE
  5
379
330
1F
100
AcDbEntity
  8
0
  6
Continuous
 62
     7
370
    25
100
AcDbLine
 10
6.947559537252004
 20
16.39904574753419
 30
0.0
 11
6.871626665999883
 21
16.41869862078417
 31
0.0
  0
SPLINE
  5
37A
330
1F
100
AcDbEntity
  8
0
  6
Continuous
 62
     7
370
    25
100
AcDbSpline
210
0.0
220
0.0
230
1.0
 70
     8
 71
     3
 72
    10
 73
     6
 74
     0
 42
0.000000001
 43
0.0000000001
 40
0.0
 40
0.0
 40
0.0
 40
0.0
 40
0.1744976445209105
 40
0.6006967353873768
 40
1.0
 40
1.0
 40
1.0
 40
1.0
 10
6.816804724415078
 20
16.48528690422409
 30
0.0
 10
6.809754315602049
 20
16.4872792977344
 30
0.0
 10
6.785483744106613
 20
16.49413798216241
 30
0.0
 10
6.756275505732105
 20
16.50828988270601
 30
0.0
 10
6.752585156034456
 20
16.52113972808342
 30
0.0
 10
6.750800099127332
 20
16.52735531932291
 30
0.0
  0
SPLINE
  5
37B
330
1F
100
AcDbEntity
  8
0
  6
Continuous
 62
     7
370
    25
100
AcDbSpline
210
0.0
220
0.0
230
1.0
 70
     8
 71
     3
 72
    10
 73
     6
 74
     0
 42
0.000000001
 43
0.0000000001
 40
0.0
 40
0.0
 40
0.0
 40
0.0
 40
0.2619862187928165
 40
0.6257503186126927
 40
1.0
 40
1.0
 40
1.0
 40
1.0
 10
6.751994177297319
 20
16.52047893098441
 30
0.0
 10
6.752302708924958
 20
16.5164403103204
 30
0.0
 10
6.753039632283162
 20
16.50679412290299
 30
0.0
 10
6.774640183565452
 20
16.49213793025291
 30
0.0
 10
6.802701696559893
 20
16.4835911351646
 30
0.0
 10
6.81693179979743
 20
16.47925702187277
 30
0.0
  0
SPLINE
  5
37C
330
1F
100
AcDbEntity
  8
0
  6
Continuous
 62
     7
370
    25
100
AcDbSpline
210
0.0
220
0.0
230
1.0
 70
     8
 71
     3
 72
     9
 73
     5
 74
     0
 42
0.000000001
 43
0.0000000001
 40
0.0
 40
0.0
 40
0.0
 40
0.0
 40
0.5600401761286084
 40
1.0
 40
1.0
 40
1.0
 40
1.0
 10
6.871626665999087
 20
16.41869862078042
 30
0.0
 10
6.861978447684009
 20
16.42154767792479
 30
0.0
 10
6.844750722377284
 20
16.42663491499451
 30
0.0
 10
6.837264777322161
 20
16.43309077145409
 30
0.0
 10
6.833971262253953
 20
16.435931088925
 30
0.0
  0
SPLINE
  5
37D
330
1F
100
AcDbEntity
  8
0
  6
Continuous
 62
     7
370
    25
100
AcDbSpline
210
0.0
220
0.0
230
1.0
 70
     8
 71
     3
 72
    12
 73
     8
 74
     0
 42
0.000000001
 43
0.0000000001
 40
0.0
 40
0.0
 40
0.0
 40
0.0
 40
0.1477215823338081
 40
0.42397425432324
 40
0.6782511209712363
 40
0.9234184034962495
 40
1.0
 40
1.0
 40
1.0
 40
1.0
 10
7.388561313857053
 20
17.16614971044899
 30
0.0
 10
7.394875317360515
 20
17.17599073156819
 30
0.0
 10
7.412997076448277
 20
17.20423534907678
 30
0.0
 10
7.460110829563745
 20
17.231047642301
 30
0.0
 10
7.523265827952968
 20
17.2403276077639
 30
0.0
 10
7.575072871494853
 20
17.23422055288969
 30
0.0
 10
7.600637478335556
 20
17.2200234492264
 30
0.0
 10
7.606722280904932
 20
17.2166443019002
 30
0.0
  0
LINE
  5
37F
330
1F
100
AcDbEntity
  8
0
  6
Continuous
 62
     7
370
    25
100
AcDbLine
 10
8.126133935257826
 20
16.12282433136619
 30
0.0
 11
8.856426823952006
 21
15.9338106232662
 31
0.0
  0
ELLIPSE
  5
380
330
1F
100
AcDbEntity
  8
0
  6
Continuous
 62
     7
370
    25
100
AcDbEllipse
 10
8.87248746299997
 20
15.9380310687562
 30
0.0
 11
0.0228000000000009
 21
0.0
 31
0.0
210
0.0
220
0.0
230
1.0
 40
0.2607925906
 41
3.930788915259975
 42
5.49398904550946
  0
LINE
  5
381
330
1F
100
AcDbEntity
  8
0
  6
Continuous
 62
     7
370
    25
100
AcDbLine
 10
8.888548117286063
 20
15.9338106232662
 30
0.0
 11
9.318591831814046
 21
16.04511412681219
 31
0.0
  0
ELLIPSE
  5
382
330
1F
100
AcDbEntity
  8
0
  6
Continuous
 62
     7
370
    25
100
AcDbEllipse
 10
9.302285218880001
 20
16.0492709135242
 30
0.0
 11
0.022973854433464
 21
0.0
 31
0.0
210
0.0
220
0.0
230
1.0
 40
0.2568604343
 41
5.501585242055025
 42
6.316075284625287
  0
LINE
  5
387
330
1F
100
AcDbEntity
  8
0
  6
Continuous
 62
     7
370
    25
100
AcDbLine
 10
6.634818500194114
 20
15.23923073485818
 30
0.0
 11
7.244223348831951
 21
15.39695631585019
 31
0.0
  0
ELLIPSE
  5
388
330
1F
100
AcDbEntity
  8
0
  6
Continuous
 62
     7
370
    25
100
AcDbEllipse
 10
7.227916765575969
 20
15.40111312851619
 30
0.0
 11
0.0229738544334748
 21
0.0
 31
0.0
210
0.0
220
0.0
230
1.0
 40
0.2568604343
 41
5.501585242055453
 42
6.316075284625271
  0
LINE
  5
389
330
1F
100
AcDbEntity
  8
0
  6
Continuous
 62
     7
370
    25
100
AcDbLine
 10
6.930540945411848
 20
16.4034504174042
 30
0.0
 11
6.518387482797834
 21
16.2967772517442
 31
0.0
  0
LINE
  5
38B
330
1F
100
AcDbEntity
  8
0
  6
Continuous
 62
     7
370
    25
100
AcDbLine
 10
7.774465877256034
 20
15.77657344012419
 30
0.0
 11
7.762040592491985
 21
15.77545419222821
 31
0.0
  0
ELLIPSE
  5
38C
330
1F
100
AcDbEntity
  8
0
  6
Continuous
 62
     7
370
    25
100
AcDbEllipse
 10
6.180709395925987
 20
15.64707690210818
 30
0.0
 11
0.0220723300608444
 21
0.0170868909944613
 31
0.0
210
0.0
220
0.0
230
1.0
 40
0.3344209520999999
 41
0.6155423364680334
 42
1.887227435898481
  0
ELLIPSE
  5
38D
330
1F
100
AcDbEntity
  8
0
  6
Continuous
 62
     7
370
    25
100
AcDbEllipse
 10
6.82963819888198
 20
15.83778527014018
 30
0.0
 11
0.0229738544334748
 21
0.0
 31
0.0
210
0.0
220
0.0
230
1.0
 40
0.2568604343
 41
5.501585242055067
 42
5.581255508108247
  0
ELLIPSE
  5
38E
330
1F
100
AcDbEntity
  8
0
  6
Continuous
 62
     7
370
    25
100
AcDbEllipse
 10
6.180709395925987
 20
15.66983013702818
 30
0.0
 11
0.0228000000000009
 21
0.0
 31
0.0
210
0.0
220
0.0
230
1.0
 40
0.2607925906
 41
5.414318779456306
 42
5.493989045509088
  0
LINE
  5
38F
330
1F
100
AcDbEntity
  8
0
  6
Continuous
 62
     7
370
    25
100
AcDbLine
 10
6.19677010010605
 20
15.66560968724417
 30
0.0
 11
6.845944751244019
 21
15.83362845055819
 31
0.0
  0
ELLIPSE
  5
390
330
1F
100
AcDbEntity
  8
0
  6
Continuous
 62
     7
370
    25
100
AcDbEllipse
 10
6.751442225660071
 20
16.1632232969022
 30
0.0
 11
-0.0245444693936747
 21
0.0720537022519073
 31
0.0
210
0.0
220
0.0
230
1.0
 40
0.6650702744000001
 41
4.387470330893758
 42
5.871000195088662
  0
ELLIPSE
  5
391
330
1F
100
AcDbEntity
  8
0
  6
Continuous
 62
     7
370
    25
100
AcDbEllipse
 10
6.832459189415885
 20
15.81576216133021
 30
0.0
 11
0.0202968959673632
 21
0.0178905263319968
 31
0.0
210
0.0
220
0.0
230
1.0
 40
0.278446936
 41
0.1863008156526826
 42
0.5485189608637766
  0
LWPOLYLINE
  5
392
330
1F
100
AcDbEntity
  8
0
  6
Continuous
 62
     7
370
    25
100
AcDbPolyline
 90
        5
 70
   128
 43
0.0
 10
5.532847797814042
 20
16.1653095357762
 10
5.533266135596022
 20
16.16621124963217
 10
5.534541569040015
 20
16.1671609233642
 10
5.536613238106042
 20
16.16792994977018
 10
5.53940232752609
 20
16.16848892445017
  0
ELLIPSE
  5
393
330
1F
100
AcDbEntity
  8
0
  6
Continuous
 62
     7
370
    25
100
AcDbEllipse
 10
5.592651105618074
 20
16.14816052257819
 30
0.0
 11
-0.0130254954766764
 21
0.0750068458930627
 31
0.0
210
0.0
220
0.0
230
0.9999999999999998
 40
0.6964889740999999
 41
5.977669191795502
 42
7.46119905599062
  0
ELLIPSE
  5
394
330
1F
100
AcDbEntity
  8
0
  6
Continuous
 62
     7
370
    25
100
AcDbEllipse
 10
6.201145711109916
 20
16.30565051535018
 30
0.0
 11
-0.0245444693936747
 21
0.0720537022518966
 31
0.0
210
0.0
220
0.0
230
1.0
 40
0.6650702743999999
 41
5.871000195088947
 42
6.23321834030049
  0
LWPOLYLINE
  5
395
330
1F
100
AcDbEntity
  8
0
  6
Continuous
 62
     7
370
    25
100
AcDbPolyline
 90
        6
 70
   128
 43
0.0
 10
6.811245539278047
 20
16.16082537427618
 10
6.811257776379989
 20
16.16063275660821
 10
6.810827176492011
 20
16.15943559210618
 10
6.809551768090045
 20
16.15818100029418
 10
6.807480099024019
 20
16.15691684756817
 10
6.804690997063971
 20
16.15569113780819
  0
LWPOLYLINE
  5
396
330
1F
100
AcDbEntity
  8
0
  6
Continuous
 62
     7
370
    25
100
AcDbPolyline
 90
        3
 70
   128
 43
0.0
 10
6.748151060365898
 20
16.23578182686421
 10
6.751123643350069
 20
16.23617358748419
 10
6.753863897107976
 20
16.23583144300818
  0
ELLIPSE
  5
397
330
1F
100
AcDbEntity
  8
0
  6
Continuous
 62
     7
370
    25
100
AcDbEllipse
 10
5.511634141900003
 20
15.82024632047418
 30
0.0
 11
-0.016815677576837
 21
0.0248414229662205
 31
0.0
210
0.0
220
0.0
230
1.0
 40
0.4995766488000001
 41
0.5156289834186423
 42
1.118274261223034
  0
LWPOLYLINE
  5
398
330
1F
100
AcDbEntity
  8
0
  6
Continuous
 62
     7
370
    25
100
AcDbPolyline
 90
        3
 70
   128
 43
0.0
 10
6.20356738183591
 20
16.37825866164618
 10
6.200827128078003
 20
16.37860080608419
 10
6.197854545131917
 20
16.37820904546419
  0
ELLIPSE
  5
39A
330
1F
100
AcDbEntity
  8
0
  6
Continuous
 62
     7
370
    25
100
AcDbEllipse
 10
8.733364875982033
 20
16.3077527559482
 30
0.0
 11
0.0220723300608336
 21
0.0170868909944721
 31
0.0
210
0.0
220
0.0
230
1.0
 40
0.3344209521
 41
0.6155423364676133
 42
2.099072200663208
  0
ELLIPSE
  5
39B
330
1F
100
AcDbEntity
  8
0
  6
Continuous
 62
     7
370
    25
100
AcDbEllipse
 10
8.733364875982033
 20
16.33050599086817
 30
0.0
 11
0.0228000000000009
 21
0.0
 31
0.0
210
0.0
220
0.0
230
1.0
 40
0.2607925906
 41
5.414318779455946
 42
5.493989045509088
  0
LINE
  5
39C
330
1F
100
AcDbEntity
  8
0
  6
Continuous
 62
     7
370
    25
100
AcDbLine
 10
8.749425598212042
 20
16.32628554575819
 30
0.0
 11
9.135273705909867
 21
16.42615038453221
 31
0.0
  0
ELLIPSE
  5
39D
330
1F
100
AcDbEntity
  8
0
  6
Continuous
 62
     7
370
    25
100
AcDbEllipse
 10
9.11896711364784
 20
16.43030719381619
 30
0.0
 11
0.0229738544334748
 21
0.0
 31
0.0
210
0.0
220
0.0
230
1.0
 40
0.2568604343
 41
5.501585242055834
 42
5.581255508109236
  0
ELLIPSE
  5
39E
330
1F
100
AcDbEntity
  8
0
  6
Continuous
 62
     7
370
    25
100
AcDbEllipse
 10
9.040771140426045
 20
16.75574522057817
 30
0.0
 11
-0.0245444693936747
 21
0.0720537022519073
 31
0.0
210
0.0
220
0.0
230
1.0
 40
0.6650702744000001
 41
4.387470330893758
 42
5.871000195088682
  0
ELLIPSE
  5
39F
330
1F
100
AcDbEntity
  8
0
  6
Continuous
 62
     7
370
    25
100
AcDbEllipse
 10
9.121788104181973
 20
16.40828408496818
 30
0.0
 11
0.020296895967374
 21
0.0178905263319967
 31
0.0
210
0.0
220
0.0
230
1.0
 40
0.278446936
 41
0.1863008156524745
 42
0.5485189608632333
  0
LWPOLYLINE
  5
3A0
330
1F
100
AcDbEntity
  8
0
  6
Continuous
 62
     7
370
    25
100
AcDbPolyline
 90
        6
 70
   128
 43
0.0
 10
9.100574443936011
 20
16.75334729529217
 10
9.100586680999867
 20
16.75315467766219
 10
9.100156006061979
 20
16.75195749370419
 10
9.098880722755893
 20
16.75070293426819
 10
9.096809028686038
 20
16.74943877504418
 10
9.094019876680135
 20
16.74821305236418
  0
LWPOLYLINE
  5
3A1
330
1F
100
AcDbEntity
  8
0
  6
Continuous
 62
     7
370
    25
100
AcDbPolyline
 90
        3
 70
   128
 43
0.0
 10
9.037479889935866
 20
16.8283037284622
 10
9.040452623057944
 20
16.82869552791817
 10
9.043192726677943
 20
16.82835334460617
  0
LWPOLYLINE
  5
3A2
330
1F
100
AcDbEntity
  8
0
  6
Continuous
 62
     7
370
    25
100
AcDbPolyline
 90
        3
 70
   128
 43
0.0
 10
8.492896211405877
 20
16.9707805632062
 10
8.490156107823736
 20
16.97112274651817
 10
8.487183374663914
 20
16.97073094706218
  0
ELLIPSE
  5
3A4
330
1F
100
AcDbEntity
  8
0
  6
Continuous
 62
     7
370
    25
100
AcDbEllipse
 10
8.490474625876004
 20
16.89817243898818
 30
0.0
 11
-0.0245444693936747
 21
0.0720537022519073
 31
0.0
210
0.0
220
0.0
230
1.0
 40
0.6650702744000001
 41
5.871000195089
 42
6.233218340300437
  0
ARC
  5
3A6
330
1F
100
AcDbEntity
  8
0
  6
Continuous
 62
     7
370
    25
100
AcDbCircle
 10
4.512376797205888
 20
17.53685740174819
 30
0.0
 40
2.676116661146618
100
AcDbArc
 50
263.1883844855079
 51
282.2738306474981
  0
ARC
  5
3A7
330
1F
100
AcDbEntity
  8
0
  6
Continuous
 62
     7
370
    25
100
AcDbCircle
 10
4.961111718832057
 20
15.48797413013218
 30
0.0
 40
0.578678625841119
100
AcDbArc
 50
281.9849077480901
 51
300.2677954990941
  0
ELLIPSE
  5
3AB
330
1F
100
AcDbEntity
  8
0
  6
Continuous
 62
     7
370
    25
100
AcDbEllipse
 10
3.84241266435572
 20
14.63615191258418
 30
0.0
 11
0.0228000000000009
 21
0.0
 31
0.0
210
0.0
220
0.0
230
1.0
 40
0.2607925906
 41
3.930788915260883
 42
5.49398904550855
  0
LINE
  5
3AC
330
1F
100
AcDbEntity
  8
0
  6
Continuous
 62
     7
370
    25
100
AcDbLine
 10
4.207906833194101
 20
14.72237151565818
 30
0.0
 11
3.858473254915907
 21
14.63193145060219
 31
0.0
  0
ELLIPSE
  5
3AD
330
1F
100
AcDbEntity
  8
0
  6
Continuous
 62
     7
370
    25
100
AcDbEllipse
 10
4.191600247163933
 20
14.72652830932418
 30
0.0
 11
0.0229738544334748
 21
0.0
 31
0.0
210
0.0
220
0.0
230
1.0
 40
0.2568604343
 41
5.501585242055504
 42
6.31607528462533
  0
ELLIPSE
  5
3AE
330
1F
100
AcDbEntity
  8
0
  6
Continuous
 62
     7
370
    25
100
AcDbEllipse
 10
2.773107535580152
 20
14.91290844494219
 30
0.0
 11
0.022973854433464
 21
0.0
 31
0.0
210
0.0
220
0.0
230
1.0
 40
0.2568604343
 41
3.108702676142233
 42
3.923192718713698
  0
LINE
  5
3B3
330
1F
100
AcDbEntity
  8
0
  6
Continuous
 62
     7
370
    25
100
AcDbLine
 10
2.756800959467909
 20
14.90875161962219
 30
0.0
 11
3.826351961543878
 21
14.63193145060219
 31
0.0
  0
ELLIPSE
  5
3B4
330
1F
100
AcDbEntity
  8
0
  6
Continuous
 62
     7
370
    25
100
AcDbEllipse
 10
3.703290077337896
 20
15.00587359977618
 30
0.0
 11
0.0220723300608444
 21
0.0170868909944721
 31
0.0
210
0.0
220
0.0
230
1.0
 40
0.3344209521000001
 41
0.615542336467167
 42
2.099072200662957
  0
ELLIPSE
  5
3B5
330
1F
100
AcDbEntity
  8
0
  6
Continuous
 62
     7
370
    25
100
AcDbEllipse
 10
4.008282141970084
 20
15.1075645896162
 30
0.0
 11
0.0229738544334532
 21
0.0
 31
0.0
210
0.0
220
0.0
230
1.0
 40
0.2568604343
 41
5.501585242055261
 42
5.581255508107201
  0
ELLIPSE
  5
3B6
330
1F
100
AcDbEntity
  8
0
  6
Continuous
 62
     7
370
    25
100
AcDbEllipse
 10
3.703290077337896
 20
15.02862683469618
 30
0.0
 11
0.0228000000000117
 21
0.0
 31
0.0
210
0.0
220
0.0
230
1.0
 40
0.2607925906
 41
5.414318779455176
 42
5.493989045508278
  0
LINE
  5
3B7
330
1F
100
AcDbEntity
  8
0
  6
Continuous
 62
     7
370
    25
100
AcDbLine
 10
3.719350735842112
 20
15.02440637305619
 30
0.0
 11
4.024588707289808
 21
15.10340777337819
 31
0.0
  0
ELLIPSE
  5
3B8
330
1F
100
AcDbEntity
  8
0
  6
Continuous
 62
     7
370
    25
100
AcDbEllipse
 10
3.930086168747948
 20
15.43300261637819
 30
0.0
 11
-0.0245444693936747
 21
0.0720537022519073
 31
0.0
210
0.0
220
0.0
230
1.0
 40
0.6650702744000001
 41
4.387470330893847
 42
5.87100019508894
  0
ELLIPSE
  5
3B9
330
1F
100
AcDbEntity
  8
0
  6
Continuous
 62
     7
370
    25
100
AcDbEllipse
 10
4.011103132465905
 20
15.0855414807682
 30
0.0
 11
0.0202968959673524
 21
0.0178905263320075
 31
0.0
210
0.0
220
0.0
230
1.0
 40
0.278446936
 41
0.1863008156510851
 42
0.5485189608641102
  0
LWPOLYLINE
  5
3BA
330
1F
100
AcDbEntity
  8
0
  6
Continuous
 62
     7
370
    25
100
AcDbPolyline
 90
        6
 70
   128
 43
0.0
 10
3.989889445315952
 20
15.43060468413819
 10
3.989901682379922
 20
15.43041206647021
 10
3.989471207663882
 20
15.4292149343442
 10
3.988195724173806
 20
15.4279603231142
 10
3.986124030065866
 20
15.4266961638902
 10
3.983334878059963
 20
15.42547044117219
  0
LWPOLYLINE
  5
3BB
330
1F
100
AcDbEntity
  8
0
  6
Continuous
 62
     7
370
    25
100
AcDbPolyline
 90
        3
 70
   128
 43
0.0
 10
3.926795091537996
 20
15.50556116910218
 10
3.929767624475971
 20
15.50595291676418
 10
3.932507928241875
 20
15.50561078528417
  0
LWPOLYLINE
  5
3BC
330
1F
100
AcDbEntity
  8
0
  6
Continuous
 62
     7
370
    25
100
AcDbPolyline
 90
        3
 70
   128
 43
0.0
 10
3.382211413008121
 20
15.64803800388421
 10
3.379471109204018
 20
15.64838013536419
 10
3.376498576266044
 20
15.64798838770218
  0
LWPOLYLINE
  5
3BF
330
1F
100
AcDbEntity
  8
0
  6
Continuous
 62
     7
370
    25
100
AcDbPolyline
 90
        5
 70
   128
 43
0.0
 10
3.055428458553933
 20
15.5241062280862
 10
3.055846921432021
 20
15.52500797428018
 10
3.057122204737993
 20
15.5259576091762
 10
3.059193898845933
 20
15.52672664208017
 10
3.061983050813978
 20
15.52728563294818
  0
ELLIPSE
  5
3C0
330
1F
100
AcDbEntity
  8
0
  6
Continuous
 62
     7
370
    25
100
AcDbEllipse
 10
3.115231787067841
 20
15.50695722024619
 30
0.0
 11
-0.0130254954766656
 21
0.075006845893052
 31
0.0
210
0.0
220
0.0
230
1.0
 40
0.6964889740999999
 41
5.977669191795537
 42
7.461199055990884
  0
ELLIPSE
  5
3C1
330
1F
100
AcDbEntity
  8
0
  6
Continuous
 62
     7
370
    25
100
AcDbEllipse
 10
3.379789654198134
 20
15.57542983478819
 30
0.0
 11
-0.0245444693936747
 21
0.0720537022518966
 31
0.0
210
0.0
220
0.0
230
1.0
 40
0.6650702743999999
 41
5.871000195088861
 42
6.233218340300482
  0
ELLIPSE
  5
3C2
330
1F
100
AcDbEntity
  8
0
  6
Continuous
 62
     7
370
    25
100
AcDbEllipse
 10
3.034214823349884
 20
15.17904301810418
 30
0.0
 11
-0.0168156775768478
 21
0.0248414229662314
 31
0.0
210
0.0
220
0.0
230
1.0
 40
0.4995766488000001
 41
0.5156289834180275
 42
1.330119025987875
  0
LINE
  5
3C4
330
1F
100
AcDbEntity
  8
0
  6
Continuous
 62
     7
370
    25
100
AcDbLine
 10
6.505310004527814
 20
15.54140868555018
 30
0.0
 11
6.520749188042145
 21
15.26875404381218
 31
0.0
  0
ELLIPSE
  5
3C5
330
1F
100
AcDbEntity
  8
0
  6
Continuous
 62
     7
370
    25
100
AcDbEllipse
 10
6.489237064005806
 20
15.54364286556818
 30
0.0
 11
-0.0054646363779085
 21
0.0221362274999638
 31
0.0
210
0.0
220
0.0
230
1.0
 40
0.6852254854000001
 41
4.44513711237655
 42
5.928666976571544
  0
LINE
  5
3C6
330
1F
100
AcDbEntity
  8
0
  6
Continuous
 62
     7
370
    25
100
AcDbLine
 10
6.489377784580028
 20
15.56570237963217
 30
0.0
 11
5.112136391299827
 21
15.92215868193619
 31
0.0
  0
ELLIPSE
  5
3C7
330
1F
100
AcDbEntity
  8
0
  6
Continuous
 62
     7
370
    25
100
AcDbEllipse
 10
5.11199571301995
 20
15.90009915689021
 30
0.0
 11
-0.0054646363779193
 21
0.0221362274999638
 31
0.0
210
0.0
220
0.0
230
1.0
 40
0.6852254854000001
 41
5.928666976570879
 42
6.290885121782717
  0
ELLIPSE
  5
3C8
330
1F
100
AcDbEntity
  8
0
  6
Continuous
 62
     7
370
    25
100
AcDbEllipse
 10
10.25299070176209
 20
15.82533657148619
 30
0.0
 11
0.1143126807749661
 21
0.0
 31
0.0
210
0.0
220
0.0
230
1.0
 40
0.2581110944
 41
5.499156671652504
 42
7.067213942706697
  0
LINE
  5
3C9
330
1F
100
AcDbEntity
  8
0
  6
Continuous
 62
     7
370
    25
100
AcDbLine
 10
4.788128274707901
 20
14.36914192358017
 30
0.0
 11
6.59118521067603
 21
14.83580739802019
 31
0.0
  0
LINE
  5
3CA
330
1F
100
AcDbEntity
  8
0
  6
Continuous
 62
     7
370
    25
100
AcDbLine
 10
7.594204539296129
 20
15.0954079028742
 30
0.0
 11
7.958842072119978
 21
15.18978304094417
 31
0.0
  0
LINE
  5
3CB
330
1F
100
AcDbEntity
  8
0
  6
Continuous
 62
     7
370
    25
100
AcDbLine
 10
8.820793715550053
 20
15.41287254220617
 30
0.0
 11
10.33393259583386
 21
15.80450170230818
 31
0.0
  0
ELLIPSE
  5
3CC
330
1F
100
AcDbEntity
  8
0
  6
Continuous
 62
     7
370
    25
100
AcDbEllipse
 10
4.707628521808032
 20
14.39009122732619
 30
0.0
 11
0.1140000000000151
 21
0.0
 31
0.0
210
0.0
220
0.0
230
1.0
 40
0.2595289376
 41
3.92836034485814
 42
5.496417615911363
  0
LINE
  5
3CD
330
1F
100
AcDbEntity
  8
0
  6
Continuous
 62
     7
370
    25
100
AcDbLine
 10
1.822070231568091
 20
15.09514445712017
 30
0.0
 11
4.627128720077962
 21
14.3691418977022
 31
0.0
  0
ELLIPSE
  5
3CE
330
1F
100
AcDbEntity
  8
0
  6
Continuous
 62
     7
370
    25
100
AcDbEllipse
 10
1.903012225731913
 20
15.1159793389522
 30
0.0
 11
0.1143126807749769
 21
0.0
 31
0.0
210
0.0
220
0.0
230
1.0
 40
0.2581110944
 41
2.357564018062634
 42
3.925621289116981
  0
LINE
  5
3CF
330
1F
100
AcDbEntity
  8
0
  6
Continuous
 62
     7
370
    25
100
AcDbLine
 10
6.835992456509984
 20
16.43451274471221
 30
0.0
 11
6.411105429990016
 21
16.32454389023817
 31
0.0
  0
LINE
  5
3D0
330
1F
100
AcDbEntity
  8
0
  6
Continuous
 62
     7
370
    25
100
AcDbLine
 10
5.523828874052128
 20
16.0948998192882
 30
0.0
 11
5.010893347055912
 21
15.9621423359722
 31
0.0
  0
LINE
  5
3D1
330
1F
100
AcDbEntity
  8
0
  6
Continuous
 62
     7
370
    25
100
AcDbLine
 10
3.685561196451999
 20
15.61912113430819
 30
0.0
 11
3.589749260940038
 21
15.59432318064418
 31
0.0
  0
LINE
  5
3D2
330
1F
100
AcDbEntity
  8
0
  6
Continuous
 62
     7
370
    25
100
AcDbLine
 10
3.046409459704136
 20
15.4536964921422
 30
0.0
 11
1.822070331659915
 21
15.13681420813017
 31
0.0
  0
LINE
  5
3D3
330
1F
100
AcDbEntity
  8
0
  6
Continuous
 62
     7
370
    25
100
AcDbLine
 10
10.33393269592602
 20
15.84617145331819
 30
0.0
 11
9.317592645943932
 21
16.10921961453417
 31
0.0
  0
LINE
  5
3D4
330
1F
100
AcDbEntity
  8
0
  6
Continuous
 62
     7
370
    25
100
AcDbLine
 10
6.919991136132011
 20
16.4061809089622
 30
0.0
 11
6.507837673517997
 21
16.2995077433022
 31
0.0
  0
LINE
  5
3D5
330
1F
100
AcDbEntity
  8
0
  6
Continuous
 62
     7
370
    25
100
AcDbLine
 10
5.51719507861992
 20
16.0431105728602
 30
0.0
 11
5.067815060406019
 21
15.92680246566618
 31
0.0
  0
LINE
  5
3D6
330
1F
100
AcDbEntity
  8
0
  6
Continuous
 62
     7
370
    25
100
AcDbLine
 10
3.764469453454125
 20
15.58947180021618
 30
0.0
 11
3.686481504505991
 21
15.56928703374621
 31
0.0
  0
LINE
  5
3D7
330
1F
100
AcDbEntity
  8
0
  6
Continuous
 62
     7
370
    25
100
AcDbLine
 10
3.039775714356096
 20
15.40190725867219
 30
0.0
 11
1.935034991373981
 21
15.1159793196862
 31
0.0
  0
LINE
  5
3D8
330
1F
100
AcDbEntity
  8
0
  6
Continuous
 62
     7
370
    25
100
AcDbLine
 10
1.935034991373981
 20
15.1159793196862
 30
0.0
 11
4.707628447327806
 21
14.39837932893218
 31
0.0
  0
LINE
  5
3D9
330
1F
100
AcDbEntity
  8
0
  6
Continuous
 62
     7
370
    25
100
AcDbLine
 10
4.707628447327806
 20
14.39837932893218
 30
0.0
 11
6.484779722754069
 21
14.8583399250642
 31
0.0
  0
LINE
  5
3DA
330
1F
100
AcDbEntity
  8
0
  6
Continuous
 62
     7
370
    25
100
AcDbLine
 10
7.510584120414137
 20
15.12383763973417
 30
0.0
 11
7.944654198282023
 21
15.23618324277817
 31
0.0
  0
LINE
  5
3DB
330
1F
100
AcDbEntity
  8
0
  6
Continuous
 62
     7
370
    25
100
AcDbLine
 10
8.806461173926095
 20
15.4592353012722
 30
0.0
 11
10.22096793612002
 21
15.82533659075219
 31
0.0
  0
LINE
  5
3DC
330
1F
100
AcDbEntity
  8
0
  6
Continuous
 62
     7
370
    25
100
AcDbLine
 10
10.22096793612002
 20
15.82533659075219
 30
0.0
 11
9.324226391292086
 21
16.05743038110219
 31
0.0
  0
ELLIPSE
  5
3DD
330
1F
100
AcDbEntity
  8
0
  6
Continuous
 62
     7
370
    25
100
AcDbEllipse
 10
4.707628521808032
 20
11.51126281627819
 30
0.0
 11
0.0760000000000065
 21
0.0
 31
0.0
210
0.0
220
0.0
230
1.0
 40
0.2595289376
 41
3.928360344857889
 42
5.496417615911748
  0
LWPOLYLINE
  5
3DE
330
1F
100
AcDbEntity
  8
0
  6
Continuous
 62
     7
370
    25
100
AcDbPolyline
 90
        3
 70
   128
 43
0.0
 10
4.644440701406097
 20
11.49721408346818
 10
4.64889249389796
 20
11.4966436736762
 10
4.653962095937913
 20
11.49729670869217
  0
LWPOLYLINE
  5
3DF
330
1F
100
AcDbEntity
  8
0
  6
Continuous
 62
     7
370
    25
100
AcDbPolyline
 90
        3
 70
   128
 43
0.0
 10
4.761294998940115
 20
11.49729665689818
 10
4.766364400795964
 20
11.4966436736762
 10
4.770816293380107
 20
11.49721405755218
  0
LWPOLYLINE
  5
3E0
330
1F
100
AcDbEntity
  8
0
  6
Continuous
 62
     7
370
    25
100
AcDbPolyline
 90
       17
 70
   128
 43
0.0
 10
7.578903470202021
 20
11.62236339093218
 10
7.537413182666
 20
11.58845462316017
 10
7.453182599227829
 20
11.53934275154819
 10
7.344411827563703
 20
11.49357481495619
 10
7.213041982875893
 20
11.45196752036619
 10
7.061417315678113
 20
11.41526335962018
 10
6.892243533205942
 20
11.38411733499419
 10
6.708539626666038
 20
11.35908521670419
 10
6.513583592907934
 20
11.34061374339018
 10
6.310854814949948
 20
11.32903249691818
 10
6.103970636975986
 20
11.32454816050418
 10
5.896623051737947
 20
11.32724074945619
 10
5.692512160086039
 20
11.33706224420018
 10
5.495280405925996
 20
11.35383736783618
 10
5.30844723681605
 20
11.37726674013816
 10
5.135346830022058
 20
11.40693229551817
 10
4.979068070757875
 20
11.44230463112418
  0
ELLIPSE
  5
3E1
330
1F
100
AcDbEntity
  8
0
  6
Continuous
 62
     7
370
    25
100
AcDbEllipse
 10
8.906663084784099
 20
4.108725922418187
 30
0.0
 11
0.1098731133374594
 21
0.9869742685059947
 31
0.0
210
0.0
220
0.0
230
1.0
 40
0.7029807219
 41
6.182741530752567
 42
7.290785242480322
  0
LINE
  5
3E2
330
1F
100
AcDbEntity
  8
0
  6
Continuous
 62
     7
370
    25
100
AcDbLine
 10
7.912291066297825
 20
5.722778194210178
 30
0.0
 11
7.908516942435994
 21
5.127416950168196
 31
0.0
  0
LINE
  5
3E3
330
1F
100
AcDbEntity
  8
0
  6
Continuous
 62
     7
370
    25
100
AcDbLine
 10
7.678022218457954
 20
9.878690040684205
 30
0.0
 11
7.912291066297825
 21
5.722778194210178
 31
0.0
  0
ELLIPSE
  5
3E4
330
1F
100
AcDbEntity
  8
0
  6
Continuous
 62
     7
370
    25
100
AcDbEllipse
 10
7.410058210421993
 20
9.909296426474185
 30
0.0
 11
-0.0826459946870711
 21
0.3710225199989912
 31
0.0
210
0.0
220
0.0
230
1.0
 40
0.6893696647000001
 41
4.478394505546621
 42
5.944471077221865
  0
LINE
  5
3E5
330
1F
100
AcDbEntity
  8
0
  6
Continuous
 62
     7
370
    25
100
AcDbLine
 10
6.886178298752156
 20
10.41558038046017
 30
0.0
 11
7.4170944418521
 21
10.27816917128419
 31
0.0
  0
LINE
  5
3E6
330
1F
100
AcDbEntity
  8
0
  6
Continuous
 62
     7
370
    25
100
AcDbLine
 10
6.91090051974595
 20
11.3871349243042
 30
0.0
 11
6.991583427782074
 21
11.36625265111419
 31
0.0
  0
LINE
  5
3E7
330
1F
100
AcDbEntity
  8
0
  6
Continuous
 62
     7
370
    25
100
AcDbLine
 10
6.991583427782074
 20
11.36625265111419
 30
0.0
 11
7.045323545684027
 21
11.38016161711218
 31
0.0
  0
SPLINE
  5
3E8
330
1F
100
AcDbEntity
  8
0
  6
Continuous
 62
     7
370
    25
100
AcDbSpline
210
0.0
220
0.0
230
1.0
 70
     8
 71
     3
 72
     9
 73
     5
 74
     0
 42
0.000000001
 43
0.0000000001
 40
0.0
 40
0.0
 40
0.0
 40
0.0
 40
0.9155672371454397
 40
1.0
 40
1.0
 40
1.0
 40
1.0
 10
7.556788399760989
 20
11.39666130631687
 30
0.0
 10
7.465610363040468
 20
11.4204683313375
 30
0.0
 10
7.366023972198604
 20
11.44647081816168
 30
0.0
 10
7.296318147875354
 20
11.47793740774668
 30
0.0
 10
7.290432692540662
 20
11.48059421884301
 30
0.0
  0
LWPOLYLINE
  5
3E9
330
1F
100
AcDbEntity
  8
0
  6
Continuous
 62
     7
370
    25
100
AcDbPolyline
 90
        3
 70
   128
 43
0.0
 10
8.636740839696017
 20
11.11969597758218
 10
8.632375282275916
 20
11.1202657347622
 10
8.627219470167915
 20
11.11961335881818
  0
LINE
  5
3EA
330
1F
100
AcDbEntity
  8
0
  6
Continuous
 62
     7
370
    25
100
AcDbLine
 10
9.182304284955989
 20
5.055589619702175
 30
0.0
 11
9.094898368470012
 21
5.071713932994185
 31
0.0
  0
LINE
  5
3EB
330
1F
100
AcDbEntity
  8
0
  6
Continuous
 62
     7
370
    25
100
AcDbLine
 10
9.094898368470012
 20
5.071713932994185
 30
0.0
 11
9.150283415665967
 21
5.057379227992186
 31
0.0
  0
LWPOLYLINE
  5
3EC
330
1F
100
AcDbEntity
  8
0
  6
Continuous
 62
     7
370
    25
100
AcDbPolyline
 90
       11
 70
   128
 43
0.0
 10
9.150283415665967
 20
5.057379227992186
 10
9.025851529012129
 20
5.049192640498205
 10
8.900282751860004
 20
5.009871491268199
 10
8.777640111850132
 20
4.940688336994185
 10
8.661891905661946
 20
4.843881195352196
 10
8.556783422491889
 20
4.722583151940199
 10
8.465715567871939
 20
4.580718748718197
 10
8.391635074298051
 20
4.422879304830189
 10
8.336938906833893
 20
4.254169095264188
 10
8.303396861633927
 20
4.080050767764191
 10
8.292094259624036
 20
3.906154393400186
  0
LINE
  5
3ED
330
1F
100
AcDbEntity
  8
0
  6
Continuous
 62
     7
370
    25
100
AcDbLine
 10
8.292094259624036
 20
3.906154393400186
 30
0.0
 11
7.716243480525918
 21
4.055195542172185
 31
0.0
  0
SPLINE
  5
3EE
330
1F
100
AcDbEntity
  8
0
  6
Continuous
 62
     7
370
    25
100
AcDbSpline
210
0.0
220
0.0
230
1.0
 70
     8
 71
     3
 72
    10
 73
     6
 74
     0
 42
0.000000001
 43
0.0000000001
 40
0.0
 40
0.0
 40
0.0
 40
0.0
 40
0.423340005797148
 40
0.9936591727293192
 40
1.0
 40
1.0
 40
1.0
 40
1.0
 10
8.378658520632029
 20
4.700972797774113
 30
0.0
 10
8.365444327161526
 20
4.680482711423593
 30
0.0
 10
8.334428112364435
 20
4.632388598008105
 30
0.0
 10
8.298161405990867
 20
4.583780562216503
 30
0.0
 10
8.278656510835048
 20
4.555084899226187
 30
0.0
 10
8.278442039270544
 20
4.554769367987177
 30
0.0
  0
LWPOLYLINE
  5
3EF
330
1F
100
AcDbEntity
  8
0
  6
Continuous
 62
     7
370
    25
100
AcDbPolyline
 90
        3
 70
   128
 43
0.0
 10
7.566309769286021
 20
11.39674392506219
 10
7.561944211904005
 20
11.39731368224218
 10
7.55678839975792
 20
11.3966613062982
  0
SPLINE
  5
3F0
330
1F
100
AcDbEntity
  8
0
  6
Continuous
 62
     7
370
    25
100
AcDbSpline
210
0.0
220
0.0
230
1.0
 70
     8
 71
     3
 72
    10
 73
     6
 74
     0
 42
0.000000001
 43
0.0000000001
 40
0.0
 40
0.0
 40
0.0
 40
0.0
 40
0.3093011852179895
 40
0.6486617410945703
 40
1.0
 40
1.0
 40
1.0
 40
1.0
 10
6.886178298769777
 20
10.4155803804652
 30
0.0
 10
6.793351016153792
 20
10.4373084782396
 30
0.0
 10
6.598675050977476
 20
10.4828763144026
 30
0.0
 10
6.245901906634003
 20
10.53620708939789
 30
0.0
 10
5.979030658557121
 20
10.55787422273499
 30
0.0
 10
5.843281070394255
 20
10.5688956589083
 30
0.0
  0
ELLIPSE
  5
3F1
330
1F
100
AcDbEntity
  8
0
  6
Continuous
 62
     7
370
    25
100
AcDbEllipse
 10
7.371054466413852
 20
5.007654600338184
 30
0.0
 11
0.1737756991625514
 21
0.7399713923588872
 31
0.0
210
0.0
220
0.0
230
1.0
 40
0.6873451752
 41
4.547500455371244
 42
5.032891661272619
  0
LWPOLYLINE
  5
3F2
330
1F
100
AcDbEntity
  8
0
  6
Continuous
 62
     7
370
    25
100
AcDbPolyline
 90
        9
 70
   128
 43
0.0
 10
5.843281070399939
 20
10.56889565891819
 10
5.721021114216
 20
10.57920398735618
 10
5.605201712823941
 20
10.59366004942418
 10
5.497912396582023
 20
10.61200299096819
 10
5.401088869225986
 20
10.63390189746218
 10
5.316477991820079
 20
10.65896167032818
 10
5.245606308077981
 20
10.68673018872019
 10
5.189752373257988
 20
10.71670645558419
 10
5.149924050530103
 20
10.74834966069619
  0
LINE
  5
3F3
330
1F
100
AcDbEntity
  8
0
  6
Continuous
 62
     7
370
    25
100
AcDbLine
 10
6.928265866259835
 20
11.3900298860562
 30
0.0
 11
6.991583440284102
 21
11.3736420920122
 31
0.0
  0
LINE
  5
3F4
330
1F
100
AcDbEntity
  8
0
  6
Continuous
 62
     7
370
    25
100
AcDbLine
 10
6.991583440284102
 20
11.3736420920122
 30
0.0
 11
6.991583427782074
 21
11.36625265111419
 31
0.0
  0
LINE
  5
3F5
330
1F
100
AcDbEntity
  8
0
  6
Continuous
 62
     7
370
    25
100
AcDbLine
 10
6.991583440284102
 20
11.3736420920122
 30
0.0
 11
7.045135948119877
 21
11.38750250092619
 31
0.0
  0
LINE
  5
3F6
330
1F
100
AcDbEntity
  8
0
  6
Continuous
 62
     7
370
    25
100
AcDbLine
 10
7.045135948119877
 20
11.38750250092619
 30
0.0
 11
7.045323545684027
 21
11.38016161711218
 31
0.0
  0
LINE
  5
3F7
330
1F
100
AcDbEntity
  8
0
  6
Continuous
 62
     7
370
    25
100
AcDbLine
 10
7.045135948119877
 20
11.38750250092619
 30
0.0
 11
6.991658783378056
 21
11.40134340964618
 31
0.0
  0
SPLINE
  5
3F8
330
1F
100
AcDbEntity
  8
0
  6
Continuous
 62
     7
370
    25
100
AcDbSpline
210
0.0
220
0.0
230
1.0
 70
     8
 71
     3
 72
    10
 73
     6
 74
     0
 42
0.000000001
 43
0.0000000001
 40
0.0
 40
0.0
 40
0.0
 40
0.0
 40
0.3093011852179895
 40
0.6486617410945703
 40
1.0
 40
1.0
 40
1.0
 40
1.0
 10
4.557559302475056
 20
11.0182713254938
 30
0.0
 10
4.641510225661022
 20
10.99424585684767
 30
0.0
 10
4.817570824852737
 20
10.94386000943629
 30
0.0
 10
5.023625116468338
 20
10.8525556010795
 30
0.0
 10
5.107340491155923
 20
10.78348423948691
 30
0.0
 10
5.149924050526578
 20
10.74834966070551
 30
0.0
  0
ELLIPSE
  5
3F9
330
1F
100
AcDbEntity
  8
0
  6
Continuous
 62
     7
370
    25
100
AcDbEllipse
 10
4.019607048118132
 20
10.78680975876818
 30
0.0
 11
-0.0826459946870711
 21
0.3710225199989912
 31
0.0
210
0.0
220
0.0
230
1.0
 40
0.6893696647000001
 41
5.944471077221867
 42
7.410547648897081
  0
LINE
  5
3FA
330
1F
100
AcDbEntity
  8
0
  6
Continuous
 62
     7
370
    25
100
AcDbLine
 10
3.753113999296033
 20
10.89453103807219
 30
0.0
 11
3.445633815465953
 21
7.743151884696203
 31
0.0
  0
LINE
  5
3FB
330
1F
100
AcDbEntity
  8
0
  6
Continuous
 62
     7
370
    25
100
AcDbLine
 10
4.557559302491881
 20
11.01827132548621
 30
0.0
 11
4.026643159392051
 21
11.15568253466219
 31
0.0
  0
ELLIPSE
  5
3FC
330
1F
100
AcDbEntity
  8
0
  6
Continuous
 62
     7
370
    25
100
AcDbEllipse
 10
4.630940958205883
 20
10.9450346176182
 30
0.0
 11
-0.1033277483695252
 21
0.3657340575037371
 31
0.0
210
0.0
220
0.0
230
1.0
 40
0.6783163797000001
 41
1.044275018170591
 42
1.088877290182675
  0
LINE
  5
3FD
330
1F
100
AcDbEntity
  8
0
  6
Continuous
 62
     7
370
    25
100
AcDbLine
 10
4.36322217937004
 20
11.05243865464419
 30
0.0
 11
4.154771280548061
 21
7.879141612748185
 31
0.0
  0
SPLINE
  5
3FE
330
1F
100
AcDbEntity
  8
0
  6
Continuous
 62
     7
370
    25
100
AcDbSpline
210
0.0
220
0.0
230
1.0
 70
     8
 71
     3
 72
    10
 73
     6
 74
     0
 42
0.000000001
 43
0.0000000001
 40
0.0
 40
0.0
 40
0.0
 40
0.0
 40
0.0101479346611905
 40
0.4215902080402686
 40
1.0
 40
1.0
 40
1.0
 40
1.0
 10
3.88821247292526
 20
11.08622326175239
 30
0.0
 10
3.888519409422428
 20
11.08668960956979
 30
0.0
 10
3.90127091265208
 20
11.10606376597741
 30
0.0
 10
3.935816048619813
 20
11.14745211152379
 30
0.0
 10
3.980618882863723
 20
11.16487161093909
 30
0.0
 10
4.006798954555051
 20
11.17505051482351
 30
0.0
  0
LINE
  5
3FF
330
1F
100
AcDbEntity
  8
0
  6
Continuous
 62
     7
370
    25
100
AcDbLine
 10
3.888212472915938
 20
11.08622326174819
 30
0.0
 11
3.923989998797878
 21
11.0954831668422
 31
0.0
  0
ELLIPSE
  5
400
330
1F
100
AcDbEntity
  8
0
  6
Continuous
 62
     7
370
    25
100
AcDbEllipse
 10
4.134610806984255
 20
10.81657492180019
 30
0.0
 11
-0.0868878495812595
 21
0.369985696179449
 31
0.0
210
0.0
220
0.0
230
1.0
 40
0.6873451752000002
 41
0.5714195612413217
 42
1.119393952007402
  0
LINE
  5
401
330
1F
100
AcDbEntity
  8
0
  6
Continuous
 62
     7
370
    25
100
AcDbLine
 10
3.924615390866051
 20
11.12816981889418
 30
0.0
 11
3.923989998797878
 21
11.0954831668422
 31
0.0
  0
LINE
  5
402
330
1F
100
AcDbEntity
  8
0
  6
Continuous
 62
     7
370
    25
100
AcDbLine
 10
3.867872528961925
 20
10.92423273114821
 30
0.0
 11
3.579998089679975
 21
7.76891868290221
 31
0.0
  0
LINE
  5
403
330
1F
100
AcDbEntity
  8
0
  6
Continuous
 62
     7
370
    25
100
AcDbLine
 10
4.475455617623993
 20
11.0395213669322
 30
0.0
 11
4.289749435452108
 21
7.905026290982192
 31
0.0
  0
LWPOLYLINE
  5
404
330
1F
100
AcDbEntity
  8
0
  6
Continuous
 62
     7
370
    25
100
AcDbPolyline
 90
        9
 70
   128
 43
0.0
 10
8.292094259624036
 20
3.906154393400186
 10
8.301622560959913
 20
3.751543073034184
 10
8.329947508563918
 20
3.606080393686198
 10
8.376296490084087
 20
3.473735240200198
 10
8.439405258098076
 20
3.358117346082195
 10
8.517552314034105
 20
3.262381178428199
 10
8.608606029690008
 20
3.189137495204192
 10
8.710082704469868
 20
3.14038414112818
 10
8.797436419406039
 20
3.119861576926183
  0
ELLIPSE
  5
405
330
1F
100
AcDbEntity
  8
0
  6
Continuous
 62
     7
370
    25
100
AcDbEllipse
 10
8.372704390060107
 20
4.246924601908176
 30
0.0
 11
0.2259084089113071
 21
0.9619628100665501
 31
0.0
210
0.0
220
0.0
230
1.0
 40
0.6873451752
 41
2.321383452914739
 42
3.126057128045955
  0
ELLIPSE
  5
406
330
1F
100
AcDbEntity
  8
0
  6
Continuous
 62
     7
370
    25
100
AcDbEllipse
 10
4.14267305220801
 20
10.81866158441218
 30
0.0
 11
-0.0868878495812703
 21
0.3699856961794381
 31
0.0
210
0.0
220
0.0
230
1.0
 40
0.6873451752
 41
0.2565414699108017
 42
1.119393952007404
  0
LINE
  5
407
330
1F
100
AcDbEntity
  8
0
  6
Continuous
 62
     7
370
    25
100
AcDbLine
 10
3.875934783800062
 20
10.92631939623018
 30
0.0
 11
3.588010144997952
 21
7.770455106160198
 31
0.0
  0
ELLIPSE
  5
408
330
1F
100
AcDbEntity
  8
0
  6
Continuous
 62
     7
370
    25
100
AcDbEllipse
 10
4.622878712982014
 20
10.94294795500619
 30
0.0
 11
-0.1033277483695144
 21
0.3657340575037477
 31
0.0
210
0.0
220
0.0
230
1.0
 40
0.6783163797000002
 41
1.032690308211569
 42
1.088877290182685
  0
LINE
  5
409
330
1F
100
AcDbEntity
  8
0
  6
Continuous
 62
     7
370
    25
100
AcDbLine
 10
4.146745111308064
 20
7.877602526830202
 30
0.0
 11
4.355159924532017
 21
11.05035198956219
 31
0.0
  0
LWPOLYLINE
  5
40A
330
1F
100
AcDbEntity
  8
0
  6
Continuous
 62
     7
370
    25
100
AcDbPolyline
 90
       14
 70
   128
 43
0.0
 10
8.292094259624036
 20
3.906154393400186
 10
8.301622560959913
 20
4.065699019420208
 10
8.329947508563918
 20
4.225823770540188
 10
8.376296490084087
 20
4.38216092231417
 10
8.439405258098076
 20
4.530446318574206
 10
8.517552314034105
 20
4.666634379000186
 10
8.608606029690008
 20
4.787010933698184
 10
8.710082704469868
 20
4.888292479922199
 10
8.819214332189858
 20
4.967715918694182
 10
8.933024069457928
 20
5.023114970296177
 10
9.048407478192075
 20
5.05297839399418
 10
9.162217215459918
 20
5.056491597430181
 10
9.271348843217992
 20
5.033558845988181
 10
9.290888797833986
 20
5.026414801718203
  0
LWPOLYLINE
  5
40B
330
1F
100
AcDbEntity
  8
0
  6
Continuous
 62
     7
370
    25
100
AcDbPolyline
 90
        9
 70
   128
 43
0.0
 10
8.797436419406039
 20
3.119861576926183
 10
8.710082704469868
 20
3.14038414112818
 10
8.608606029690008
 20
3.189137495204192
 10
8.517552314034105
 20
3.262381178428199
 10
8.439405258098076
 20
3.358117346082195
 10
8.376296490084087
 20
3.473735240200198
 10
8.329947508563918
 20
3.606080393686198
 10
8.301622560959913
 20
3.751543073034184
 10
8.292094259624036
 20
3.906154393400186
  0
LWPOLYLINE
  5
40C
330
1F
100
AcDbEntity
  8
0
  6
Continuous
 62
     7
370
    25
100
AcDbPolyline
 90
       18
 70
   128
 43
0.0
 10
9.879236307168071
 20
4.209213424632167
 10
9.869449150402033
 20
4.049600708008199
 10
9.84036925793805
 20
3.889513563436196
 10
9.792833255218056
 20
3.733556156948196
 10
9.72820859150795
 20
3.586217351176202
 10
9.648354401151891
 20
3.451734776844205
 10
9.55556802590604
 20
3.333977071452181
 10
9.452518699466054
 20
3.236332640052211
 10
9.342170959303985
 20
3.161608884188183
 10
9.227699322076091
 20
3.111957611278171
 10
9.112396933901891
 20
3.088805447532195
 10
8.999580820785922
 20
3.092820563898186
 10
8.892496513099899
 20
3.1238847093922
 10
8.794224625433912
 20
3.1811062246922
 10
8.707592272211854
 20
3.262838682962183
 10
8.635091687499993
 20
3.366729836854176
 10
8.578808554193983
 20
3.489791674396172
 10
8.571791730845916
 20
3.509929058970186
  0
LWPOLYLINE
  5
40D
330
1F
100
AcDbEntity
  8
0
  6
Continuous
 62
     7
370
    25
100
AcDbPolyline
 90
       13
 70
   128
 43
0.0
 10
8.901711230038131
 20
4.792381646180189
 10
8.999580820785922
 20
4.870264193274181
 10
9.112396933901891
 20
4.93267613309618
 10
9.227699322076091
 20
4.969209971230185
 10
9.342170959303985
 20
4.978813578002188
 10
9.452518699466054
 20
4.961210015644184
 10
9.55556802590604
 20
4.916907840740208
 10
9.648354401151891
 20
4.847179897452207
 10
9.72820859150795
 20
4.754032893732187
 10
9.792833255218056
 20
4.640146275434176
 10
9.84036925793805
 20
4.508795314618168
 10
9.869449150402033
 20
4.363761030018196
 10
9.879236307168071
 20
4.209213424632167
  0
LWPOLYLINE
  5
40E
330
1F
100
AcDbEntity
  8
0
  6
Continuous
 62
     7
370
    25
100
AcDbPolyline
 90
       34
 70
   128
 43
0.0
 10
8.693187509345989
 20
3.886161368090199
 10
8.702886328955969
 20
4.027420744964189
 10
8.731632342020134
 20
4.168594368340194
 10
8.778386473269961
 20
4.304580457132175
 10
8.841459005510046
 20
4.430464349056194
 10
8.918570314522071
 20
4.541696117266184
 10
9.006933350345889
 20
4.634256312712182
 10
9.103354499463875
 20
4.704798022504178
 10
9.204348817026016
 20
4.750774051580208
 10
9.306266114042045
 20
4.770519875528208
 10
9.405422831023997
 20
4.763323870742169
 10
9.498235181892027
 20
4.729444272454202
 10
9.581348713149964
 20
4.670107701968191
 10
9.651759460843891
 20
4.587458482184189
 10
9.70692258910401
 20
4.484481740836201
 10
9.744844355653981
 20
4.364901414502185
 10
9.76415420826197
 20
4.233038105310185
 10
9.76415420826197
 20
4.093658881492189
 10
9.744844355653981
 20
3.951800057050178
 10
9.70692258910401
 20
3.812589979896188
 10
9.651759460843891
 20
3.681058702202193
 10
9.581348713149964
 20
3.561962197454192
 10
9.498235181892027
 20
3.459602897396194
 10
9.405422831023997
 20
3.377680091008187
 10
9.306266114042045
 20
3.319156792646197
 10
9.204348817026016
 20
3.286146341568183
 10
9.103354499463875
 20
3.279843864982211
 10
9.006933350345889
 20
3.300474315326198
 10
8.918570314522071
 20
3.347294437642176
 10
8.841459005510046
 20
3.418610455118198
 10
8.778386473269961
 20
3.5118456019282
 10
8.731632342020134
 20
3.6236299714962
 10
8.702886328955969
 20
3.749923563612185
 10
8.693187509345989
 20
3.886161368090199
  0
LWPOLYLINE
  5
412
330
1F
100
AcDbEntity
  8
0
  6
Continuous
 62
     7
370
    25
100
AcDbPolyline
 90
       32
 70
   128
 43
0.0
 10
8.748147637273973
 20
3.89909476415417
 10
8.75805991751406
 20
4.034815185864204
 10
8.787390907746043
 20
4.170108449802171
 10
8.834939873253915
 20
4.299438224362205
 10
8.89876009322802
 20
4.417508286676195
 10
8.976238789736044
 20
4.519486675380193
 10
9.06420395799796
 20
4.601196331028177
 10
9.159054294693987
 20
4.65929202515619
 10
9.256906618393941
 20
4.691396966254188
 10
9.353754851373878
 20
4.696196454642205
 10
9.445634006488035
 20
4.673493452036183
 10
9.528782547297964
 20
4.62421669264819
 10
9.599796340020134
 20
4.550385049826189
 10
9.655768116108106
 20
4.45502002087619
 10
9.69440633959789
 20
4.342026628032186
 10
9.714129199690091
 20
4.216029594680179
 10
9.714129199690091
 20
4.082189878660187
 10
9.69440633959789
 20
3.945983541678202
 10
9.655768116108106
 20
3.812989532606195
 10
9.599796340020134
 20
3.688651380362188
 10
9.528782547297964
 20
3.578060293482195
 10
9.445634006488035
 20
3.485742682246183
 10
9.353754851373878
 20
3.415479529288205
 10
9.256906618393941
 20
3.370146683272196
 10
9.159054294693987
 20
3.351599534440197
 10
9.06420395799796
 20
3.360597081416187
 10
8.976238789736044
 20
3.396772615346208
 10
8.89876009322802
 20
3.458645079542179
 10
8.834939873253915
 20
3.543679365108204
 10
8.787390907746043
 20
3.648395983956191
 10
8.75805991751406
 20
3.768506410138172
 10
8.748147637273973
 20
3.89909476415417
  0
LWPOLYLINE
  5
413
330
1F
100
AcDbEntity
  8
0
  6
Continuous
 62
     7
370
    25
100
AcDbPolyline
 90
        3
 70
   128
 43
0.0
 10
3.854690772801973
 20
6.931340010522177
 10
3.984800248917963
 20
6.967215886826181
 10
4.058600265746008
 20
6.980800758462208
  0
LWPOLYLINE
  5
415
330
1F
100
AcDbEntity
  8
0
  6
Continuous
 62
     7
370
    25
100
AcDbPolyline
 90
       25
 70
   128
 43
0.0
 10
2.316727899239936
 20
4.800526108166195
 10
2.32628272678005
 20
4.54484490328619
 10
2.354846109639993
 20
4.286927258148182
 10
2.402115148908023
 20
4.0295075570302
 10
2.467588650158063
 20
3.775315718108203
 10
2.550572828807958
 20
3.527045087408197
 10
2.650187916762092
 20
3.28732775716017
 10
2.765377872131921
 20
3.058704705018186
 10
2.894921890312048
 20
2.843598749232199
 10
3.037446616266038
 20
2.644291697538193
 10
3.191441159239957
 20
2.462895301326199
 10
3.355273358814088
 20
2.301331731278182
 10
3.527206401313719
 20
2.161315055826179
 10
3.705417838546054
 20
2.044327722534191
 10
3.888018531555871
 20
1.951611279486186
 10
4.07307287681408
 20
1.8841480136482
 10
4.258619257510076
 20
1.842653469656198
 10
4.442690839319993
 20
1.827567786082184
 10
4.623336428301968
 20
1.839049202906181
 10
4.798641097485983
 20
1.876977474106197
 10
4.966746613431951
 20
1.94094967504219
 10
5.125871017934059
 20
2.030288260888184
 10
5.27432749661591
 20
2.144046028254194
 10
5.410542396822052
 20
2.281017860340185
 10
5.51724477767982
 20
2.416920653284179
  0
LWPOLYLINE
  5
416
330
1F
100
AcDbEntity
  8
0
  6
Continuous
 62
     7
370
    25
100
AcDbPolyline
 90
       18
 70
   128
 43
0.0
 10
4.411716802959972
 20
6.688353020054194
 10
4.258619257510076
 20
6.75320235956218
 10
4.07307287681408
 20
6.807753689722176
 10
3.888018531555871
 20
6.836082148678173
 10
3.705417838546054
 20
6.83788677966018
 10
3.527206401313719
 20
6.813149021340194
 10
3.355273358814088
 20
6.762130890672182
 10
3.191441159239957
 20
6.685373654488188
 10
3.037446616266038
 20
6.583690152472172
 10
2.894921890312048
 20
6.458159327706198
 10
2.765377872131921
 20
6.310110837050189
 10
2.650187916762092
 20
6.141113946478185
 10
2.550572828807958
 20
5.952961180096195
 10
2.467588650158063
 20
5.747646321182202
 10
2.402115148908023
 20
5.527346060390186
 10
2.354846109639993
 20
5.294394614486179
 10
2.32628272678005
 20
5.051262464284178
 10
2.316727899239936
 20
4.800526108166195
  0
SPLINE
  5
469
330
1F
100
AcDbEntity
  8
0
  6
Continuous
 62
     7
370
    25
100
AcDbSpline
210
0.0
220
0.0
230
1.0
 70
     9
 71
     3
 72
    43
 73
    39
 74
     0
 42
0.000000001
 43
0.0000000001
 40
0.0
 40
0.0
 40
0.0
 40
0.0
 40
0.0455772732798655
 40
0.0724152114859111
 40
0.0992536034118323
 40
0.1260907353985828
 40
0.1529283147874471
 40
0.1797734995968258
 40
0.2066185056204505
 40
0.2334849657947316
 40
0.2603508168978094
 40
0.287210193863915
 40
0.3140689589286816
 40
0.3409280747013952
 40
0.3677873197098963
 40
0.3946200731613302
 40
0.4214536165141034
 40
0.4483204905934321
 40
0.4751872947153098
 40
0.5020316001833367
 40
0.5288762268373525
 40
0.5557250783308854
 40
0.5825740680988694
 40
0.609417180267216
 40
0.636260355570448
 40
0.6631203464583779
 40
0.6899801517223457
 40
0.7168319457598626
 40
0.7436835147369031
 40
0.7705336016050533
 40
0.7973837708141282
 40
0.8242467200024821
 40
0.8511098560330692
 40
0.8779536233303591
 40
0.9047977035170898
 40
0.9316375940264611
 40
0.9584777954364
 40
1.0
 40
1.0
 40
1.0
 40
1.0
 10
4.620032218104029
 20
4.047330423860017
 30
0.0
 10
4.613843511486948
 20
4.154056236219304
 30
0.0
 10
4.604010617453241
 20
4.323626983147278
 30
0.0
 10
4.540987184813388
 20
4.55313399262431
 30
0.0
 10
4.471696472285088
 20
4.73064250134189
 30
0.0
 10
4.382911909573294
 20
4.894512406803301
 30
0.0
 10
4.27850029338299
 20
5.0405964354442
 30
0.0
 10
4.160665776232008
 20
5.163994532837193
 30
0.0
 10
4.033209061431534
 20
5.262149558198899
 30
0.0
 10
3.89942872388292
 20
5.331171289625501
 30
0.0
 10
3.763303490697694
 20
5.370252365343304
 30
0.0
 10
3.62872498437207
 20
5.377007365700706
 30
0.0
 10
3.499361243624093
 20
5.352593785113896
 30
0.0
 10
3.37919006521156
 20
5.296334764582297
 30
0.0
 10
3.271196231597969
 20
5.211174473961506
 30
0.0
 10
3.179029861571734
 20
5.098340086478799
 30
0.0
 10
3.104546829013429
 20
4.962092991417989
 30
0.0
 10
3.050622461540001
 20
4.805330814417601
 30
0.0
 10
3.018012227027611
 20
4.633225004289897
 30
0.0
 10
3.008552178878858
 20
4.450218582515901
 30
0.0
 10
3.021516391485306
 20
4.261846932554306
 30
0.0
 10
3.057483729442083
 20
4.073274039054695
 30
0.0
 10
3.114546406865201
 20
3.889768150599678
 30
0.0
 10
3.191918068800987
 20
3.716862498446801
 30
0.0
 10
3.286651015147185
 20
3.558904398957508
 30
0.0
 10
3.396738540452133
 20
3.421084506836876
 30
0.0
 10
3.518509572304196
 20
3.306470266676683
 30
0.0
 10
3.648888173530963
 20
3.219367917822097
 30
0.0
 10
3.783897998887709
 20
3.161065067512794
 30
0.0
 10
3.9198380184514
 20
3.134480226164015
 30
0.0
 10
4.052912940176611
 20
3.139052624932901
 30
0.0
 10
4.179140684152343
 20
3.175993721210176
 30
0.0
 10
4.295266484775993
 20
3.242957808158507
 30
0.0
 10
4.39744393887895
 20
3.339247356432792
 30
0.0
 10
4.483583142662041
 20
3.460910364347995
 30
0.0
 10
4.549889700315929
 20
3.605722812208
 30
0.0
 10
4.606414211352557
 20
3.797598330799587
 30
0.0
 10
4.614886368659426
 20
3.952963915179083
 30
0.0
 10
4.620032218104029
 20
4.047330423860017
 30
0.0
  0
LINE
  5
B08
330
1F
100
AcDbEntity
  8
0
  6
Continuous
 62
     7
370
    25
100
AcDbLine
 10
7.87470162764589
 20
6.389611438508183
 30
0.0
 11
7.693094389840098
 21
6.423214210102202
 31
0.0
  0
LINE
  5
B09
330
1F
100
AcDbEntity
  8
0
  6
Continuous
 62
     7
370
    25
100
AcDbLine
 10
7.874475704725909
 20
6.393618510578193
 30
0.0
 11
7.702241064661848
 21
6.425487535516168
 31
0.0
  0
LWPOLYLINE
  5
B0D
330
1F
100
AcDbEntity
  8
0
  6
Continuous
 62
     7
370
    25
100
AcDbPolyline
 90
       34
 70
   128
 43
0.0
 10
3.085476206001999
 20
7.368538687138197
 10
3.014814986172041
 20
7.333356794764199
 10
2.840092591482061
 20
7.225887936426204
 10
2.676258640183959
 20
7.094529699560212
 10
2.524670571621982
 20
6.940370871908186
 10
2.386584425103933
 20
6.764688382594187
 10
2.263144629834073
 20
6.568938458840193
 10
2.155373894859849
 20
6.354742287008178
 10
2.064165301350044
 20
6.123875479608187
 10
1.990274595051801
 20
5.878250926810181
 10
1.934313979981993
 20
5.619903994304195
 10
1.896747313779997
 20
5.350975717496197
 10
1.877885903655851
 20
5.073693652434201
 10
1.877885903655851
 20
4.790357234750189
 10
1.896747313779997
 20
4.503311785342191
 10
1.934313979981993
 20
4.214937571200181
 10
1.990274595051801
 20
3.927623292768174
 10
2.064165301350044
 20
3.643750095900173
 10
2.155373894859849
 20
3.365669699402189
 10
2.263144629834073
 20
3.09568783706419
 10
2.386584425103933
 20
2.836040773432188
 10
2.524670571621982
 20
2.588879088030196
 10
2.676258640183959
 20
2.356252502036184
 10
2.840092591482061
 20
2.140087571522187
 10
3.014814986172041
 20
1.942176293420189
 10
3.198977795493874
 20
1.764157993164189
 10
3.391055113868105
 20
1.6075072830982
 10
3.589455320907973
 20
1.47352325755618
 10
3.792534369489885
 20
1.363316208404185
 10
3.998609536736012
 20
1.277798596620186
 10
4.205973184688104
 20
1.217679302932182
 10
4.412907052335981
 20
1.183456647104179
 10
4.617696363384084
 20
1.175413642648194
 10
4.687516553381897
 20
1.178729679778186
  0
LWPOLYLINE
  5
B28
330
1F
100
AcDbEntity
  8
0
  6
Continuous
 62
     7
370
    25
100
AcDbPolyline
 90
       39
 70
   128
 43
0.0
 10
3.999910032396087
 20
7.020768255088199
 10
3.913218145448013
 20
7.031064027338203
 10
3.723022408587894
 20
7.034478335964195
 10
3.537110973938069
 20
7.01114277783418
 10
3.35733148954398
 20
6.961288540312182
 10
3.185470768415939
 20
6.885411965224193
 10
3.023236695663854
 20
6.784266651660175
 10
2.872241712291838
 20
6.658857338810179
 10
2.73398649894807
 20
6.510431548814182
 10
2.609845011333845
 20
6.340463769870183
 10
2.501051166868137
 20
6.150643040418174
 10
2.408686032262039
 20
5.942856575054179
 10
2.333667613263969
 20
5.719168888128194
 10
2.276741645699985
 20
5.481802299516203
 10
2.238473687559917
 20
5.233117650000195
 10
2.219244314354114
 20
4.97558600966019
 10
2.219244314354114
 20
4.71176476170018
 10
2.238473687559917
 20
4.444279265358204
 10
2.276741645699985
 20
4.175785663064175
 10
2.333667613263969
 20
3.908952025296173
 10
2.408686032262039
 20
3.646431947268183
 10
2.501051166868137
 20
3.390833769994202
 10
2.609845011333845
 20
3.144696655716188
 10
2.73398649894807
 20
2.910468514236185
 10
2.872241712291838
 20
2.690477106576196
 10
3.023236695663854
 20
2.486907038904178
 10
3.185470768415939
 20
2.301783189784202
 10
3.35733148954398
 20
2.136944959248197
 10
3.537110973938069
 20
1.994030012738178
 10
3.723022408587894
 20
1.874459067654186
 10
3.913218145448013
 20
1.779421365232195
 10
4.105807935128041
 20
1.709860106398195
 10
4.298877717134018
 20
1.666467588376193
 10
4.490508695145877
 20
1.649673704330197
 10
4.678796349368099
 20
1.659646492046192
 10
4.861869383442012
 20
1.696287230146197
 10
5.037908327119907
 20
1.759231092866187
 10
5.205163654208035
 20
1.847852305820197
 10
5.318413795571814
 20
1.926460776186189
  0
ARC
  5
B29
330
1F
100
AcDbEntity
  8
0
  6
Continuous
 62
     7
370
    25
100
AcDbCircle
 10
4.179893770514013
 20
5.771213587808176
 30
0.0
 40
1.222859560235838
100
AcDbArc
 50
96.11824255820801
 51
118.8980423793915
  0
LWPOLYLINE
  5
B5C
330
1F
100
AcDbEntity
  8
0
  6
Continuous
 62
     7
370
    25
100
AcDbPolyline
 90
       38
 70
   128
 43
0.0
 10
3.311636753568109
 20
7.53664052111219
 10
3.529317334107986
 20
7.467318240060194
 10
3.745341230054009
 20
7.372556748618194
 10
3.958064369240105
 20
7.253079104592188
 10
4.165867804226081
 20
7.109793295638183
 10
4.367170024639904
 20
6.943790146184198
 10
4.560439018833903
 20
6.756333632446199
 10
4.744203835459984
 20
6.548849685804185
 10
4.917065994679887
 20
6.322917769760181
 10
5.077709898455964
 20
6.080256699706183
 10
5.22491274019012
 20
5.8227144207342
 10
5.35755461496592
 20
5.552250076500172
 10
5.474625726401995
 20
5.270922298650191
 10
5.575235195506138
 20
4.9808721593742
 10
5.658617266759733
 20
4.684307891340182
 10
5.724137514128074
 20
4.383485232308203
 10
5.771297045376059
 20
4.080693756796193
 10
5.799737106531893
 20
3.778239276190191
 10
5.809241284100039
 20
3.478421390662191
 10
5.799737106531893
 20
3.183524323342197
 10
5.771297045376059
 20
2.895791501700188
 10
5.724137514128074
 20
2.617411595890189
 10
5.658617266759733
 20
2.350504712552194
 10
5.575235195506138
 20
2.097102180636184
 10
5.474625726401995
 20
1.859131334796188
 10
5.35755461496592
 20
1.638403476534193
 10
5.22491274019012
 20
1.436600166004197
 10
5.077709898455964
 20
1.255255138002183
 10
4.917065994679887
 20
1.095750018416183
 10
4.744203835459984
 20
0.9592986872641944
 10
4.560439018833903
 20
0.8469378624081969
 10
4.367170024639904
 20
0.7595241947961995
 10
4.165867804226081
 20
0.6977227422641903
 10
3.958064369240105
 20
0.6620044534801793
 10
3.745341230054009
 20
0.6526404089681961
 10
3.529317334107986
 20
0.6697016613941856
 10
3.311636753568109
 20
0.713058046432181
 10
3.311592174399947
 20
0.7130695843721924
  0
ARC
  5
B5D
330
1F
100
AcDbEntity
  8
0
  6
Continuous
 62
     7
370
    25
100
AcDbCircle
 10
2.852561991091988
 20
5.826475067896183
 30
0.0
 40
1.770710454853361
100
AcDbArc
 50
74.97382990230412
 51
100.5202918205923
  0
LWPOLYLINE
  5
B5E
330
1F
100
AcDbEntity
  8
0
  6
Continuous
 62
     7
370
    25
100
AcDbPolyline
 90
       37
 70
   128
 43
0.0
 10
5.747054926223881
 20
1.210570415464189
 10
5.828190981334046
 20
1.239618955914181
 10
6.018104064352087
 20
1.327751332992193
 10
6.198391750143969
 20
1.440765978134194
 10
6.367643046649845
 20
1.577777755630179
 10
6.524533446883992
 20
1.73771506088218
 10
6.667834839143893
 20
1.919326006538199
 10
6.79642591711206
 20
2.121189949070185
 10
6.909300287724022
 20
2.341725235112178
 10
7.005574479327947
 20
2.579206819134185
 10
7.084494948389874
 20
2.831777576916181
 10
7.145444085507961
 20
3.097457689686194
 10
7.187944820061943
 20
3.374170800356182
 10
7.211664824039871
 20
3.659749488372199
 10
7.216417913820009
 20
3.951958973050182
 10
7.202167453183847
 20
4.248512641174187
 10
7.169024752036079
 20
4.5470899638822
 10
7.117249066135968
 20
4.845353999048199
 10
7.047245795482012
 20
5.140969360076184
 10
6.959562680510089
 20
5.431623437418181
 10
6.85488599837015
 20
5.715041056922189
 10
6.734034957318044
 20
5.989004526846201
 10
6.597955490783988
 20
6.251369464934185
 10
6.447712449321898
 20
6.500082680608187
 10
6.284481893373936
 20
6.733197296688189
 10
6.109541083195722
 20
6.948889013962201
 10
5.924259369878086
 20
7.145469954586189
 10
5.730086784134073
 20
7.321401460712195
 10
5.528542925292072
 20
7.475306268396195
 10
5.32120514975395
 20
7.605980862690188
 10
5.109696233649856
 20
7.712401405642197
 10
4.895671472712024
 20
7.793735826148207
 10
4.680805894628065
 20
7.849347129904202
 10
4.466781133690005
 20
7.878800077868191
 10
4.255272217585911
 20
7.881864606336193
 10
4.047934442010046
 20
7.858515942196191
 10
4.027422303146067
 20
7.854720347612186
  0
LWPOLYLINE
  5
B5F
330
1F
100
AcDbEntity
  8
0
  6
Continuous
 62
     7
370
    25
100
AcDbPolyline
 90
       71
 70
   128
 43
0.0
 10
3.283515406848096
 20
0.8510495797901853
 10
3.069164511632038
 20
0.9196774415081989
 10
2.85653941920998
 20
1.014053153568184
 10
2.647352118768026
 20
1.133416389702176
 10
2.443286772054079
 20
1.276806184934187
 10
2.245986500284061
 20
1.443068731052179
 10
2.057039870848029
 20
1.630864155732183
 10
1.877967984643987
 20
1.838681897566203
 10
1.710212764326001
 20
2.064847018926201
 10
1.555124842525856
 20
2.307539749212182
 10
1.413952951379997
 20
2.564805888416188
 10
1.287833712346014
 20
2.834574764250191
 10
1.177782527300109
 20
3.114672528612175
 10
1.084685270330055
 20
3.402845092220189
 10
1.009291881353874
 20
3.696772909272198
 10
0.9522091591160233
 20
3.99408815758818
 10
0.9138967571259399
 20
4.29239765264819
 10
0.8946631797898589
 20
4.589299198688195
 10
0.8946631797898589
 20
4.882404140218199
 10
0.9138967571259399
 20
5.169349654034192
 10
0.9522091591160233
 20
5.447827190470206
 10
1.009291881353874
 20
5.715594247470193
 10
1.084685270330055
 20
5.970495574664198
 10
1.177782527300109
 20
6.2104774519442
 10
1.287833712346014
 20
6.433608531058183
 10
1.413952951379997
 20
6.638092737902184
 10
1.555124842525856
 20
6.822282928960191
 10
1.710212764326001
 20
6.984696243608169
 10
1.877967984643987
 20
7.124025420058188
 10
2.057039870848029
 20
7.239148185766197
 10
2.245986500284061
 20
7.329138184978205
 10
2.443286772054079
 20
7.393270048272171
 10
2.647352118768026
 20
7.431028394112189
 10
2.85653941920998
 20
7.442108315552189
 10
3.069164511632038
 20
7.426421180860188
 10
3.283515406848096
 20
7.384093401482203
 10
3.497866302102011
 20
7.315464992830186
 10
3.710491394524069
 20
7.221089280732201
 10
3.919678694927938
 20
7.101726044598194
 10
4.123744041641998
 20
6.95833570239418
 10
4.321044313412016
 20
6.792073703248178
 10
4.509990942847821
 20
6.604277731634198
 10
4.68906282905209
 20
6.396460536734196
 10
4.856818049407934
 20
6.17029486844018
 10
5.011905971169881
 20
5.927602138116185
 10
5.153077862316081
 20
5.670335998912207
 10
5.279197101350064
 20
5.400567670088179
 10
5.389248286395854
 20
5.120469905688196
 10
5.482345543365909
 20
4.832297342080181
 10
5.557738932341862
 20
4.538369525028173
 10
5.614821654580055
 20
4.241054276712191
 10
5.653134056569911
 20
3.942744781652208
 10
5.672367633943849
 20
3.645843235612204
 10
5.672367633943849
 20
3.3527382940822
 10
5.653134056569911
 20
3.065792780266178
 10
5.614821654580055
 20
2.787315243830192
 10
5.557738932341862
 20
2.519548186830192
 10
5.482345543365909
 20
2.264646859636187
 10
5.389248286395854
 20
2.024664982356185
 10
5.279197101350064
 20
1.801533903242187
 10
5.153077862316081
 20
1.597049149464183
 10
5.011905971169881
 20
1.412858958368175
 10
4.856818049407934
 20
1.250445643720183
 10
4.68906282905209
 20
1.111117014242182
 10
4.509990942847821
 20
0.9959937016001845
 10
4.321044313412016
 20
0.9060042493221942
 10
4.123744041641998
 20
0.8418718390941961
 10
3.919678694927938
 20
0.804114040188196
 10
3.710491394524069
 20
0.7930341187481816
 10
3.497866302102011
 20
0.8087212534401828
 10
3.283515406848096
 20
0.8510495797901853
  0
LWPOLYLINE
  5
B60
330
1F
100
AcDbEntity
  8
0
  6
Continuous
 62
     7
370
    25
100
AcDbPolyline
 90
       53
 70
   128
 43
0.0
 10
3.339883023502011
 20
7.321682817880173
 10
3.127559904045938
 20
7.363421230178204
 10
2.916996170530069
 20
7.378384507430183
 10
2.709936569431874
 20
7.366448698842191
 10
2.508096968825952
 20
7.327712279400202
 10
2.313149768776042
 20
7.262496643908178
 10
2.126710413236082
 20
7.171341940744184
 10
1.950323776473965
 20
7.055004032088191
 10
1.785451500711928
 20
6.9144462849342
 10
1.633459733830022
 20
6.750833446972194
 10
1.49560791853014
 20
6.565521968064189
 10
1.37303818170983
 20
6.360046338142211
 10
1.266766525836032
 20
6.136109881024196
 10
1.177673419648044
 20
5.895568046536197
 10
1.106496991448011
 20
5.640414310612186
 10
1.053827023162057
 20
5.372762039566197
 10
1.020100145619949
 20
5.094830419110195
 10
1.005595634350129
 20
4.808922023524189
 10
1.010433808068
 20
4.517405727854196
 10
1.034574427091911
 20
4.222696338354182
 10
1.077817694224108
 20
3.927236830982195
 10
1.13980505579002
 20
3.633476266066196
 10
1.220023005021971
 20
3.343848019928174
 10
1.317806886199718
 20
3.060751297808195
 10
1.432346299696064
 20
2.7865322325882
 10
1.56269190879982
 20
2.523463526710187
 10
1.707764148331989
 20
2.273725789806192
 10
1.866360531814052
 20
2.039387051150185
 10
2.037167062793855
 20
1.822389960992197
 10
2.218768244654029
 20
1.624532791470201
 10
2.409659292555943
 20
1.447454242956197
 10
2.608258545990111
 20
1.29262148028819
 10
2.812920281157971
 20
1.161318065414192
 10
3.021948549700027
 20
1.054632718512181
 10
3.233611330122016
 20
0.973447997866188
 10
3.446154716919977
 20
0.918437721452193
 10
3.65781749734208
 20
0.8900577246921841
 10
3.866845765884022
 20
0.8885420778581902
 10
4.071507501013911
 20
0.9139047830001914
 10
4.270106754485937
 20
0.965935007416192
 10
4.460997802387964
 20
1.044201078440181
 10
4.642598984210053
 20
1.148054559018191
 10
4.813405515228055
 20
1.276635682658195
 10
4.972001898710004
 20
1.42887889227218
 10
5.117074138241832
 20
1.603521712150183
 10
5.247419747346043
 20
1.799118565862187
 10
5.361959160842047
 20
2.014047667824186
 10
5.459743041982051
 20
2.246527728440185
 10
5.539960991252087
 20
2.494632108532201
 10
5.601948352779913
 20
2.756305653986174
 10
5.645191619949969
 20
3.029380799164187
 10
5.669332238973993
 20
3.311594084744172
 10
5.674751385913964
 20
3.513349455272191
  0
LWPOLYLINE
  5
B61
330
1F
100
AcDbEntity
  8
0
  6
Continuous
 62
     7
370
    25
100
AcDbPolyline
 90
       11
 70
   128
 43
0.0
 10
5.081367507325808
 20
5.806008247186184
 10
5.046306313212085
 20
5.867523754202181
 10
4.894314546329951
 20
6.109813320106184
 10
4.729442270567915
 20
6.33571523720218
 10
4.553055633805911
 20
6.543357587680191
 10
4.366616278265837
 20
6.731020402772202
 10
4.171669078215927
 20
6.897148134580191
 10
3.969829477610005
 20
7.040364419418182
 10
3.762769876511924
 20
7.159482164456193
 10
3.552206142995714
 20
7.253514696122181
 10
3.339883023502011
 20
7.321682817880173
  0
LINE
  5
B62
330
1F
100
AcDbEntity
  8
0
  6
Continuous
 62
     7
370
    25
100
AcDbLine
 10
4.84197880784211
 20
7.813682389580179
 30
0.0
 11
4.723455638695895
 21
7.840375554408183
 31
0.0
  0
LWPOLYLINE
  5
B67
330
1F
100
AcDbEntity
  8
0
  6
Continuous
 62
     7
370
    25
100
AcDbPolyline
 90
       15
 70
   128
 43
0.0
 10
7.26824735277205
 20
3.892966171502195
 10
7.25875298486585
 20
3.602502328354177
 10
7.230344154541739
 20
3.319224534144183
 10
7.183242880752118
 20
3.045352825252194
 10
7.11781812761194
 20
2.783029825408192
 10
7.034582000373916
 20
2.534307509608183
 10
6.934185541448073
 20
2.301134071504193
 10
6.817414926488027
 20
2.085333029940201
 10
6.685183857058063
 20
1.888593164880191
 10
6.538526953951986
 20
1.71245600682019
 10
6.378592450174096
 20
1.558298037664201
 10
6.206631880511849
 20
1.427327889744177
 10
6.023990972823753
 20
1.320567919354189
 10
5.832099237520083
 20
1.238855807158202
 10
5.773370290985781
 20
1.219457025012189
  0
LWPOLYLINE
  5
B68
330
1F
100
AcDbEntity
  8
0
  6
Continuous
 62
     7
370
    25
100
AcDbPolyline
 90
       23
 70
   128
 43
0.0
 10
4.054744911753914
 20
7.85971561036618
 10
4.153739137163938
 20
7.877266409990198
 10
4.362058230934053
 20
7.894003892460176
 10
4.574133330698032
 20
7.884341551672179
 10
4.788304680017972
 20
7.848356728570195
 10
5.002896118844091
 20
7.786330099324175
 10
5.216228146280059
 20
7.698747217066198
 10
5.426631171260055
 20
7.586293441550196
 10
5.63245850649605
 20
7.44984893516019
 10
5.832099237520083
 20
7.290482050454187
 10
6.023990972823753
 20
7.109439466884197
 10
6.206631880511849
 20
6.90813869974221
 10
6.378592450174096
 20
6.688154117034173
 10
6.538526953951986
 20
6.451208503708187
 10
6.685183857058063
 20
6.199155599476199
 10
6.817414926488027
 20
5.933968990084196
 10
6.934185541448073
 20
5.657723030400205
 10
7.034582000373916
 20
5.372580014094182
 10
7.11781812761194
 20
5.080771508342195
 10
7.183242880752118
 20
4.784582164230187
 10
7.230344154541739
 20
4.486329041942184
 10
7.25875298486585
 20
4.188345755032202
 10
7.26824735277205
 20
3.892966171502195
  0
LINE
  5
B6D
330
1F
100
AcDbEntity
  8
0
  6
Continuous
 62
     7
370
    25
100
AcDbLine
 10
5.197270190886001
 20
8.009081263596186
 30
0.0
 11
5.211041328565897
 21
8.008055971954178
 31
0.0
  0
LINE
  5
B6E
330
1F
100
AcDbEntity
  8
0
  6
Continuous
 62
     7
370
    25
100
AcDbLine
 10
6.285256157320077
 20
7.732477221400188
 30
0.0
 11
7.56318160780404
 21
7.641011269812196
 31
0.0
  0
ARC
  5
B6F
330
1F
100
AcDbEntity
  8
0
  6
Continuous
 62
     7
370
    25
100
AcDbCircle
 10
6.362659505490114
 20
5.655700294086187
 30
0.0
 40
2.320067453453229
100
AcDbArc
 50
51.27543289210161
 51
58.83855023839936
  0
LINE
  5
B70
330
1F
100
AcDbEntity
  8
0
  6
Continuous
 62
     7
370
    25
100
AcDbLine
 10
6.855149858703839
 20
7.301631068092177
 30
0.0
 11
7.821052693442084
 21
7.341340737606202
 31
0.0
  0
ARC
  5
B71
330
1F
100
AcDbEntity
  8
0
  6
Continuous
 62
     7
370
    25
100
AcDbCircle
 10
4.518527256729839
 20
4.8952471931062
 30
0.0
 40
3.354174792384751
100
AcDbArc
 50
41.49969626750521
 51
45.84265925960433
  0
LINE
  5
B72
330
1F
100
AcDbEntity
  8
0
  6
Continuous
 62
     7
370
    25
100
AcDbLine
 10
7.030667437974102
 20
7.117777338610181
 30
0.0
 11
7.834913970047978
 21
7.09544307215819
 31
0.0
  0
LINE
  5
B73
330
1F
100
AcDbEntity
  8
0
  6
Continuous
 62
     7
370
    25
100
AcDbLine
 10
7.495249030223931
 20
6.465016767920189
 30
0.0
 11
7.866883713871857
 21
6.528300706776207
 31
0.0
  0
ARC
  5
B74
330
1F
100
AcDbEntity
  8
0
  6
Continuous
 62
     7
370
    25
100
AcDbCircle
 10
3.677338937293939
 20
4.284093443222189
 30
0.0
 40
4.396915285286911
100
AcDbArc
 50
26.11087259549762
 51
29.73651363140131
  0
LINE
  5
B75
330
1F
100
AcDbEntity
  8
0
  6
Continuous
 62
     7
370
    25
100
AcDbLine
 10
7.625522968629979
 20
6.219217956204204
 30
0.0
 11
7.883355872818015
 21
6.236084231162209
 31
0.0
  0
LINE
  5
B76
330
1F
100
AcDbEntity
  8
0
  6
Continuous
 62
     7
370
    25
100
AcDbLine
 10
8.704658827860043
 20
3.061470394988191
 30
0.0
 11
8.744991122813871
 21
3.130018840886179
 31
0.0
  0
LINE
  5
B77
330
1F
100
AcDbEntity
  8
0
  6
Continuous
 62
     7
370
    25
100
AcDbLine
 10
7.625522968629979
 20
2.355403591460188
 30
0.0
 11
8.704658827860043
 21
3.061470394988191
 31
0.0
  0
ARC
  5
B78
330
1F
100
AcDbEntity
  8
0
  6
Continuous
 62
     7
370
    25
100
AcDbCircle
 10
5.784612623019938
 20
3.563210621866176
 30
0.0
 40
2.201760369156104
100
AcDbArc
 50
320.9812814354004
 51
326.7314296753039
  0
LINE
  5
B79
330
1F
100
AcDbEntity
  8
0
  6
Continuous
 62
     7
370
    25
100
AcDbLine
 10
7.495249030223931
 20
2.177038985462189
 30
0.0
 11
8.519370808290091
 21
2.807783634966199
 31
0.0
  0
ARC
  5
B7A
330
1F
100
AcDbEntity
  8
0
  6
Continuous
 62
     7
370
    25
100
AcDbCircle
 10
7.316177162906001
 20
3.844053290766197
 30
0.0
 40
1.587932538815663
100
AcDbArc
 50
303.9095927509012
 51
319.262801190906
  0
LINE
  5
B7B
330
1F
100
AcDbEntity
  8
0
  6
Continuous
 62
     7
370
    25
100
AcDbLine
 10
7.730835828454132
 20
2.219890340620182
 30
0.0
 11
8.202059424250023
 21
2.526198076060197
 31
0.0
  0
LINE
  5
B7C
330
1F
100
AcDbEntity
  8
0
  6
Continuous
 62
     7
370
    25
100
AcDbLine
 10
5.464976705943854
 20
7.990238165672195
 30
0.0
 11
5.479196711480085
 21
7.989176006240199
 31
0.0
  0
LINE
  5
B7D
330
1F
100
AcDbEntity
  8
0
  6
Continuous
 62
     7
370
    25
100
AcDbLine
 10
5.479196711480085
 20
7.989176006240199
 30
0.0
 11
6.865083347351969
 21
7.890069327316183
 31
0.0
  0
ARC
  5
B7E
330
1F
100
AcDbEntity
  8
0
  6
Continuous
 62
     7
370
    25
100
AcDbCircle
 10
6.667627955477996
 20
6.273343586500175
 30
0.0
 40
1.62873900694511
100
AcDbArc
 50
67.94157643250192
 51
83.03678616940404
  0
LINE
  5
B7F
330
1F
100
AcDbEntity
  8
0
  6
Continuous
 62
     7
370
    25
100
AcDbLine
 10
6.085664950138038
 20
7.832210475826173
 30
0.0
 11
7.279303874496008
 21
7.782861166002192
 31
0.0
  0
ARC
  5
B80
330
1F
100
AcDbEntity
  8
0
  6
Continuous
 62
     7
370
    25
100
AcDbCircle
 10
5.172317530747932
 20
5.754791050554189
 30
0.0
 40
2.269333597524825
100
AcDbArc
 50
60.63146038880031
 51
66.26707813590066
  0
LINE
  5
B85
330
1F
100
AcDbEntity
  8
0
  6
Continuous
 62
     7
370
    25
100
AcDbLine
 10
7.864177693895953
 20
5.169350367294185
 30
0.0
 11
7.908874495228133
 21
5.18381963208219
 31
0.0
  0
SPLINE
  5
B86
330
1F
100
AcDbEntity
  8
0
  6
Continuous
 62
     7
370
    25
100
AcDbSpline
210
0.0
220
0.0
230
1.0
 70
     8
 71
     3
 72
    16
 73
    12
 74
     0
 42
0.000000001
 43
0.0000000001
 40
0.0
 40
0.0
 40
0.0
 40
0.0
 40
0.0622897557227895
 40
0.0832901127846782
 40
0.1045113938637153
 40
0.1226880300549931
 40
0.1462526003981389
 40
0.1885377294237467
 40
0.3237311801975451
 40
0.9169176750511574
 40
1.0
 40
1.0
 40
1.0
 40
1.0
 10
7.809242790863777
 20
5.109719056977098
 30
0.0
 10
7.807429715723969
 20
5.111200467751189
 30
0.0
 10
7.805005380757052
 20
5.113181321087608
 30
0.0
 10
7.80253894893508
 20
5.117390934236993
 30
0.0
 10
7.801552127491618
 20
5.120370034187516
 30
0.0
 10
7.801254639985018
 20
5.123621285062199
 30
0.0
 10
7.801752227272004
 20
5.127544534240172
 30
0.0
 10
7.804755821211529
 20
5.135008416772507
 30
0.0
 10
7.822041333733977
 20
5.153351312245888
 30
0.0
 10
7.843700104037907
 20
5.162460363294997
 30
0.0
 10
7.861937194515917
 20
5.168596516385889
 30
0.0
 10
7.864177693904252
 20
5.169350367295692
 30
0.0
  0
LINE
  5
B87
330
1F
100
AcDbEntity
  8
0
  6
Continuous
 62
     7
370
    25
100
AcDbLine
 10
7.908835807048035
 20
5.030730955870183
 30
0.0
 11
7.809242790861731
 21
5.109719056990201
 31
0.0
  0
LINE
  5
B88
330
1F
100
AcDbEntity
  8
0
  6
Continuous
 62
     7
370
    25
100
AcDbLine
 10
7.642382753796027
 20
7.161022381976209
 30
0.0
 11
7.06165783424592
 21
7.170309483860194
 31
0.0
  0
ARC
  5
B89
330
1F
100
AcDbEntity
  8
0
  6
Continuous
 62
     7
370
    25
100
AcDbCircle
 10
5.866250033333813
 20
5.241305740356182
 30
0.0
 40
2.615331608974826
100
AcDbArc
 50
45.38229206139321
 51
47.22482484429786
  0
LINE
  5
B8A
330
1F
100
AcDbEntity
  8
0
  6
Continuous
 62
     7
370
    25
100
AcDbLine
 10
7.870535041570065
 20
6.46352599512619
 30
0.0
 11
7.848155084754012
 21
6.461739850840189
 31
0.0
  0
LINE
  5
B8B
330
1F
100
AcDbEntity
  8
0
  6
Continuous
 62
     7
370
    25
100
AcDbLine
 10
7.793348157967898
 20
4.63119819442619
 30
0.0
 11
7.79347443257609
 21
4.631495113202191
 31
0.0
  0
LINE
  5
B8D
330
1F
100
AcDbEntity
  8
0
  6
Continuous
 62
     7
370
    25
100
AcDbLine
 10
7.849204219913872
 20
4.828535830418189
 30
0.0
 11
7.849496658451926
 21
4.829305234354194
 31
0.0
  0
SPLINE
  5
B95
330
1F
100
AcDbEntity
  8
0
  6
Continuous
 62
     7
370
    25
100
AcDbSpline
210
0.0
220
0.0
230
1.0
 70
     8
 71
     3
 72
     9
 73
     5
 74
     0
 42
0.000000001
 43
0.0000000001
 40
0.0
 40
0.0
 40
0.0
 40
0.0
 40
0.8490947105604384
 40
1.0
 40
1.0
 40
1.0
 40
1.0
 10
7.537851715358101
 20
6.384635027887185
 30
0.0
 10
7.631978097228625
 20
6.408038411036898
 30
0.0
 10
7.742833082779952
 20
6.435601158582784
 30
0.0
 10
7.853608924441914
 20
6.463093642678501
 30
0.0
 10
7.870325584890679
 20
6.467242403948404
 30
0.0
  0
LINE
  5
B99
330
1F
100
AcDbEntity
  8
0
  6
Continuous
 62
     7
370
    25
100
AcDbLine
 10
7.700530627016064
 20
7.282249529358182
 30
0.0
 11
7.822621541377998
 21
7.313508778708182
 31
0.0
  0
SPLINE
  5
B9A
330
1F
100
AcDbEntity
  8
0
  6
Continuous
 62
     7
370
    25
100
AcDbSpline
210
0.0
220
0.0
230
1.0
 70
     8
 71
     3
 72
     9
 73
     5
 74
     0
 42
0.000000001
 43
0.0000000001
 40
0.0
 40
0.0
 40
0.0
 40
0.0
 40
0.3480365785757247
 40
1.0
 40
1.0
 40
1.0
 40
1.0
 10
6.992167450895976
 20
7.158106050845105
 30
0.0
 10
7.074367534432326
 20
7.172549446216009
 30
0.0
 10
7.31054984570801
 20
7.214049093839378
 30
0.0
 10
7.546620921033763
 20
7.255333564577
 30
0.0
 10
7.700530627002535
 20
7.282249529370801
 30
0.0
  0
LWPOLYLINE
  5
B9B
330
1F
100
AcDbEntity
  8
0
  6
Continuous
 62
     7
370
    25
100
AcDbPolyline
 90
        3
 70
   128
 43
0.0
 10
8.268820445870005
 20
2.732558868330187
 10
8.392027661646125
 20
2.769538394404207
 10
8.519370808290091
 20
2.807783634966199
  0
ARC
  5
B9D
330
1F
100
AcDbEntity
  8
0
  6
Continuous
 62
     7
370
    25
100
AcDbCircle
 10
5.754407089007827
 20
5.196665090712201
 30
0.0
 40
2.852553115341668
100
AcDbArc
 50
43.26098216249834
 51
46.98112967449648
  0
ARC
  5
B9E
330
1F
100
AcDbEntity
  8
0
  6
Continuous
 62
     7
370
    25
100
AcDbCircle
 10
6.305146851099834
 20
5.967411779018192
 30
0.0
 40
1.900342786547908
100
AcDbArc
 50
64.12803363230931
 51
67.77163734000423
  0
LINE
  5
B9F
330
1F
100
AcDbEntity
  8
0
  6
Continuous
 62
     7
370
    25
100
AcDbLine
 10
7.024044753513862
 20
7.726527611522186
 30
0.0
 11
7.279303874496008
 21
7.782861166002192
 31
0.0
  0
ARC
  5
BA0
330
1F
100
AcDbEntity
  8
0
  6
Continuous
 62
     7
370
    25
100
AcDbCircle
 10
9.307641007736037
 20
7.009648600468182
 30
0.0
 40
1.376609396908383
100
AcDbArc
 50
70.92728495989324
 51
99.91957500239577
  0
ARC
  5
BA1
330
1F
100
AcDbEntity
  8
0
  6
Continuous
 62
     7
370
    25
100
AcDbCircle
 10
9.951927352249867
 20
4.514254298288193
 30
0.0
 40
1.38029297789136
100
AcDbArc
 50
289.1530447380015
 51
317.4918206009032
  0
LINE
  5
BA2
330
1F
100
AcDbEntity
  8
0
  6
Continuous
 62
     7
370
    25
100
AcDbLine
 10
7.642382753796027
 20
7.161022381976209
 30
0.0
 11
7.689299845842128
 21
7.280283493452174
 31
0.0
  0
LINE
  5
BA3
330
1F
100
AcDbEntity
  8
0
  6
Continuous
 62
     7
370
    25
100
AcDbLine
 10
8.086394550313798
 20
2.656946953818192
 30
0.0
 11
8.268820445870005
 21
2.732558868330187
 31
0.0
  0
LINE
  5
BA4
330
1F
100
AcDbEntity
  8
0
  6
Continuous
 62
     7
370
    25
100
AcDbLine
 10
6.775941480551978
 20
7.697357376680201
 30
0.0
 11
7.024044753513862
 21
7.726527611522186
 31
0.0
  0
LINE
  5
BA6
330
1F
100
AcDbEntity
  8
0
  6
Continuous
 62
     7
370
    25
100
AcDbLine
 10
7.011678539559852
 20
7.680484689640195
 30
0.0
 11
7.015211613044129
 21
7.725488888514178
 31
0.0
  0
ARC
  5
BA7
330
1F
100
AcDbEntity
  8
0
  6
Continuous
 62
     7
370
    25
100
AcDbCircle
 10
8.053575274043964
 20
5.348756036986202
 30
0.0
 40
3.521294850583846
100
AcDbArc
 50
359.3899141061998
 51
43.8589777967025
  0
LWPOLYLINE
  5
BA8
330
1F
100
AcDbEntity
  8
0
  6
Continuous
 62
     7
370
    25
100
AcDbPolyline
 90
        3
 70
   128
 43
0.0
 10
11.24550172071212
 20
3.962009008914208
 10
11.34352563873199
 20
4.151589833156208
 10
11.39707867830202
 20
4.28002484687218
  0
ARC
  5
BA9
330
1F
100
AcDbEntity
  8
0
  6
Continuous
 62
     7
370
    25
100
AcDbCircle
 10
8.553924550251736
 20
5.291004710372192
 30
0.0
 40
3.020813876231287
100
AcDbArc
 50
345.1964943671016
 51
0.3842223661994414
  0
ARC
  5
BAA
330
1F
100
AcDbEntity
  8
0
  6
Continuous
 62
     7
370
    25
100
AcDbCircle
 10
8.568549413639971
 20
5.292994237574191
 30
0.0
 40
3.006736252286058
100
AcDbArc
 50
344.838842022402
 51
0.3949268831002582
  0
ARC
  5
BAB
330
1F
100
AcDbEntity
  8
0
  6
Continuous
 62
     7
370
    25
100
AcDbCircle
 10
8.028608991589976
 20
5.337694285132187
 30
0.0
 40
3.546686286582545
100
AcDbArc
 50
359.6126798801997
 51
43.60776856779549
  0
LINE
  5
C85
330
1F
100
AcDbEntity
  8
0
100
AcDbLine
 10
4.707628521808032
 20
14.36050492843979
 30
0.0
 11
4.707628521808032
 21
11.51126281627819
 31
0.0
  0
ENDSEC
  0
SECTION
  2
OBJECTS
  0
DICTIONARY
  5
C
330
0
100
AcDbDictionary
281
     1
  3
ACAD_CIP_PREVIOUS_PRODUCT_INFO
350
BEC
  3
ACAD_COLOR
350
BE0
  3
ACAD_DETAILVIEWSTYLE
350
BE7
  3
ACAD_GROUP
350
D
  3
ACAD_LAYOUT
350
1A
  3
ACAD_MATERIAL
350
BAE
  3
ACAD_MLEADERSTYLE
350
BE3
  3
ACAD_MLINESTYLE
350
17
  3
ACAD_PLOTSETTINGS
350
19
  3
ACAD_PLOTSTYLENAME
350
E
  3
ACAD_SCALELIST
350
47
  3
ACAD_SECTIONVIEWSTYLE
350
BE5
  3
ACAD_TABLESTYLE
350
BE1
  3
ACAD_VISUALSTYLE
350
BC7
  3
ACDB_RECOMPOSE_DATA
350
C8F
  3
AcDbVariableDictionary
350
BF7
  3
DWGPROPS
350
C90
  0
DICTIONARY
  5
BEF
330
10
100
AcDbDictionary
280
     1
281
     1
  3
ADSK_XREC_LAYER_RECONCILED
360
BF0
  0
DICTIONARY
  5
BF1
330
73
100
AcDbDictionary
280
     1
281
     1
  3
ADSK_XREC_LAYER_RECONCILED
360
BF2
  0
DICTIONARY
  5
BF3
330
74
100
AcDbDictionary
280
     1
281
     1
  3
ADSK_XREC_LAYER_RECONCILED
360
BF4
  0
DICTIONARY
  5
BF5
330
75
100
AcDbDictionary
280
     1
281
     1
  3
ADSK_XREC_LAYER_RECONCILED
360
BF6
  0
XRECORD
  5
BEC
102
{ACAD_REACTORS
330
C
102
}
330
C
100
AcDbXrecord
280
     1
300
ACDLT
300
2013
300
ACDLT_F_S
  0
DICTIONARY
  5
BE0
102
{ACAD_REACTORS
330
C
102
}
330
C
100
AcDbDictionary
281
     1
  0
DICTIONARY
  5
BE7
102
{ACAD_REACTORS
330
C
102
}
330
C
100
AcDbDictionary
281
     1
  3
Metric50
350
BE8
  0
DICTIONARY
  5
D
102
{ACAD_REACTORS
330
C
102
}
330
C
100
AcDbDictionary
281
     1
  0
DICTIONARY
  5
1A
102
{ACAD_REACTORS
330
C
102
}
330
C
100
AcDbDictionary
281
     1
  3
Layout1
350
1E
  3
Layout2
350
26
  3
Model
350
22
  0
DICTIONARY
  5
BAE
102
{ACAD_REACTORS
330
C
102
}
330
C
100
AcDbDictionary
281
     1
  3
ByBlock
350
BB7
  3
ByLayer
350
BAF
  3
Global
350
BBF
  0
DICTIONARY
  5
BE3
102
{ACAD_REACTORS
330
C
102
}
330
C
100
AcDbDictionary
281
     1
  3
Standard
350
BE4
  0
DICTIONARY
  5
17
102
{ACAD_REACTORS
330
C
102
}
330
C
100
AcDbDictionary
281
     1
  3
Standard
350
18
  0
DICTIONARY
  5
19
102
{ACAD_REACTORS
330
C
102
}
330
C
100
AcDbDictionary
281
     1
  0
ACDBDICTIONARYWDFLT
  5
E
102
{ACAD_REACTORS
330
C
102
}
330
C
100
AcDbDictionary
281
     1
  3
Normal
350
F
100
AcDbDictionaryWithDefault
340
F
  0
DICTIONARY
  5
47
102
{ACAD_REACTORS
330
C
102
}
330
C
100
AcDbDictionary
281
     1
  3
A0
350
48
  3
A1
350
49
  3
A2
350
4A
  3
A3
350
4B
  3
A4
350
4C
  3
A5
350
4D
  3
A6
350
4E
  3
A7
350
4F
  3
A8
350
50
  3
A9
350
51
  3
B0
350
52
  3
B1
350
53
  3
B2
350
54
  3
B3
350
55
  3
B4
350
56
  3
B5
350
57
  3
B6
350
58
  3
B7
350
59
  3
B8
350
5A
  3
B9
350
5B
  3
C0
350
5C
  3
C1
350
5D
  3
C2
350
5E
  3
C3
350
5F
  3
C4
350
60
  3
C5
350
61
  3
C6
350
62
  3
C7
350
63
  3
C8
350
64
  3
C9
350
65
  3
D0
350
66
  3
D1
350
67
  3
D2
350
68
  0
DICTIONARY
  5
BE5
102
{ACAD_REACTORS
330
C
102
}
330
C
100
AcDbDictionary
281
     1
  3
Metric50
350
BE6
  0
DICTIONARY
  5
BE1
102
{ACAD_REACTORS
330
C
102
}
330
C
100
AcDbDictionary
281
     1
  3
Standard
350
BE2
  0
DICTIONARY
  5
BC7
102
{ACAD_REACTORS
330
C
102
}
330
C
100
AcDbDictionary
281
     1
  3
2dWireframe
350
BCD
  3
Basic
350
BCC
  3
Brighten
350
BD3
  3
ColorChange
350
BD7
  3
Conceptual
350
BD0
  3
Dim
350
BD2
  3
EdgeColorOff
350
BDF
  3
Facepattern
350
BD6
  3
Flat
350
BC8
  3
FlatWithEdges
350
BC9
  3
Gouraud
350
BCA
  3
GouraudWithEdges
350
BCB
  3
Hidden
350
BCF
  3
JitterOff
350
BDD
  3
Linepattern
350
BD5
  3
OverhangOff
350
BDE
  3
Realistic
350
BD1
  3
Shaded
350
BDC
  3
Shaded with edges
350
BDB
  3
Shades of Gray
350
BD8
  3
Sketchy
350
BD9
  3
Thicken
350
BD4
  3
Wireframe
350
BCE
  3
X-Ray
350
BDA
  0
XRECORD
  5
C8F
102
{ACAD_REACTORS
330
C
102
}
330
C
100
AcDbXrecord
280
     1
 90
        1
330
BE2
  0
DICTIONARY
  5
BF7
102
{ACAD_REACTORS
330
C
102
}
330
C
100
AcDbDictionary
281
     1
  3
CANNOSCALE
350
BFC
  3
CMLEADERSTYLE
350
BF9
  3
CTABLESTYLE
350
BF8
  3
CVIEWDETAILSTYLE
350
BFA
  3
CVIEWSECTIONSTYLE
350
BFB
  3
DIMASSOC
350
BFF
  3
INDEXCTL
350
BFE
  3
SORTENTS
350
BFD
  3
XCLIPFRAME
350
C8D
  0
XRECORD
  5
C90
102
{ACAD_REACTORS
330
C
102
}
330
C
100
AcDbXrecord
280
     1
  1
DWGPROPS COOKIE
  2

  3

  4

  6

  7

  8
j00675
  9

300
=
301
=
302
=
303
=
304
=
305
=
306
=
307
=
308
=
309
=
 40
0.0066629282407407
 41
2458044.512063843
 42
2458044.574381562
  1

 90
        0
  0
XRECORD
  5
BF0
102
{ACAD_REACTORS
330
BEF
102
}
330
BEF
100
AcDbXrecord
280
     1
290
     1
  0
XRECORD
  5
BF2
102
{ACAD_REACTORS
330
BF1
102
}
330
BF1
100
AcDbXrecord
280
     1
290
     1
  0
XRECORD
  5
BF4
102
{ACAD_REACTORS
330
BF3
102
}
330
BF3
100
AcDbXrecord
280
     1
290
     1
  0
XRECORD
  5
BF6
102
{ACAD_REACTORS
330
BF5
102
}
330
BF5
100
AcDbXrecord
280
     1
290
     1
  0
ACDBDETAILVIEWSTYLE
  5
BE8
102
{ACAD_REACTORS
330
BE7
102
}
330
BE7
100
AcDbModelDocViewStyle
 70
     0
  3
Metric50
290
     0
100
AcDbDetailViewStyle
 70
     0
 71
     0
 90
        3
 71
     1
340
11
 40
5.0
340
0
 40
5.0
300

 40
0.0
280
     1
 71
     2
340
16
 90
       25
 71
     3
340
11
 40
5.0
 90
        0
 40
15.0
 90
        1
300
%<\AcVar ViewDetailId>% (%<\AcVar ViewScale \f "%sn">%)
 71
     4
340
16
 90
       25
340
16
 90
       25
280
     0
  0
LAYOUT
  5
1E
102
{ACAD_XDICTIONARY
360
C91
102
}
102
{ACAD_REACTORS
330
1A
102
}
330
1A
100
AcDbPlotSettings
  1

  2
none_device
  4

  6

 40
0.0
 41
0.0
 42
0.0
 43
0.0
 44
0.0
 45
0.0
 46
0.0
 47
0.0
 48
0.0
 49
0.0
140
0.0
141
0.0
142
1.0
143
1.0
 70
   688
 72
     1
 73
     0
 74
     5
  7

 75
    16
147
1.0
148
0.0
149
0.0
100
AcDbLayout
  1
Layout1
 70
     1
 71
     1
 10
0.0
 20
0.0
 11
420.0
 21
297.0
 12
0.0
 22
0.0
 32
0.0
 14
1.000000000000000E+20
 24
1.000000000000000E+20
 34
1.000000000000000E+20
 15
-1.000000000000000E+20
 25
-1.000000000000000E+20
 35
-1.000000000000000E+20
146
0.0
 13
0.0
 23
0.0
 33
0.0
 16
1.0
 26
0.0
 36
0.0
 17
0.0
 27
1.0
 37
0.0
 76
     0
330
1B
  0
LAYOUT
  5
26
102
{ACAD_XDICTIONARY
360
C95
102
}
102
{ACAD_REACTORS
330
1A
102
}
330
1A
100
AcDbPlotSettings
  1

  2
none_device
  4

  6

 40
0.0
 41
0.0
 42
0.0
 43
0.0
 44
0.0
 45
0.0
 46
0.0
 47
0.0
 48
0.0
 49
0.0
140
0.0
141
0.0
142
1.0
143
1.0
 70
   688
 72
     1
 73
     0
 74
     5
  7

 75
    16
147
1.0
148
0.0
149
0.0
100
AcDbLayout
  1
Layout2
 70
     1
 71
     2
 10
0.0
 20
0.0
 11
0.0
 21
0.0
 12
0.0
 22
0.0
 32
0.0
 14
0.0
 24
0.0
 34
0.0
 15
0.0
 25
0.0
 35
0.0
146
0.0
 13
0.0
 23
0.0
 33
0.0
 16
1.0
 26
0.0
 36
0.0
 17
0.0
 27
1.0
 37
0.0
 76
     0
330
23
  0
LAYOUT
  5
22
102
{ACAD_XDICTIONARY
360
C93
102
}
102
{ACAD_REACTORS
330
1A
102
}
330
1A
100
AcDbPlotSettings
  1

  2
none_device
  4
Letter_(8.50_x_11.00_Inches)
  6

 40
6.349999999999998
 41
6.349999999999998
 42
6.350005079999998
 43
6.350005079999998
 44
215.9
 45
279.4
 46
0.0
 47
0.0
 48
0.0
 49
0.0
140
0.0
141
0.0
142
1.0
143
1.0
 70
  1712
 72
     1
 73
     0
 74
     0
  7

 75
     0
147
1.0
148
0.0
149
0.0
100
AcDbLayout
  1
Model
 70
     1
 71
     0
 10
0.0
 20
0.0
 11
420.0
 21
297.0
 12
0.0
 22
0.0
 32
0.0
 14
0.0
 24
0.0
 34
0.0
 15
420.0
 25
297.0
 35
0.0
146
0.0
 13
0.0
 23
0.0
 33
0.0
 16
1.0
 26
0.0
 36
0.0
 17
0.0
 27
1.0
 37
0.0
 76
     0
330
1F
331
29
  0
MATERIAL
  5
BB7
102
{ACAD_XDICTIONARY
360
BB8
102
}
102
{ACAD_REACTORS
330
BAE
102
}
330
BAE
100
AcDbMaterial
  1
ByBlock
 72
     0
 43
0.0008202099737533
 43
0.0
 43
0.0
 43
0.0
 43
0.0
 43
0.0008202099737533
 43
0.0
 43
0.0
 43
0.0
 43
0.0
 43
1.0
 43
0.0
 43
0.0
 43
0.0
 43
0.0
 43
1.0
 77
     0
 47
0.0008202099737533
 47
0.0
 47
0.0
 47
0.0
 47
0.0
 47
0.0008202099737533
 47
0.0
 47
0.0
 47
0.0
 47
0.0
 47
1.0
 47
0.0
 47
0.0
 47
0.0
 47
0.0
 47
1.0
171
     0
 49
0.0008202099737533
 49
0.0
 49
0.0
 49
0.0
 49
0.0
 49
0.0008202099737533
 49
0.0
 49
0.0
 49
0.0
 49
0.0
 49
1.0
 49
0.0
 49
0.0
 49
0.0
 49
0.0
 49
1.0
175
     0
142
0.0008202099737533
142
0.0
142
0.0
142
0.0
142
0.0
142
0.0008202099737533
142
0.0
142
0.0
142
0.0
142
0.0
142
1.0
142
0.0
142
0.0
142
0.0
142
0.0
142
1.0
179
     0
144
0.0008202099737533
144
0.0
144
0.0
144
0.0
144
0.0
144
0.0008202099737533
144
0.0
144
0.0
144
0.0
144
0.0
144
1.0
144
0.0
144
0.0
144
0.0
144
0.0
144
1.0
147
0.0008202099737533
147
0.0
147
0.0
147
0.0
147
0.0
147
0.0008202099737533
147
0.0
147
0.0
147
0.0
147
0.0
147
1.0
147
0.0
147
0.0
147
0.0
147
0.0
147
1.0
  0
MATERIAL
  5
BAF
102
{ACAD_XDICTIONARY
360
BB0
102
}
102
{ACAD_REACTORS
330
BAE
102
}
330
BAE
100
AcDbMaterial
  1
ByLayer
 72
     0
 43
0.0008202099737533
 43
0.0
 43
0.0
 43
0.0
 43
0.0
 43
0.0008202099737533
 43
0.0
 43
0.0
 43
0.0
 43
0.0
 43
1.0
 43
0.0
 43
0.0
 43
0.0
 43
0.0
 43
1.0
 77
     0
 47
0.0008202099737533
 47
0.0
 47
0.0
 47
0.0
 47
0.0
 47
0.0008202099737533
 47
0.0
 47
0.0
 47
0.0
 47
0.0
 47
1.0
 47
0.0
 47
0.0
 47
0.0
 47
0.0
 47
1.0
171
     0
 49
0.0008202099737533
 49
0.0
 49
0.0
 49
0.0
 49
0.0
 49
0.0008202099737533
 49
0.0
 49
0.0
 49
0.0
 49
0.0
 49
1.0
 49
0.0
 49
0.0
 49
0.0
 49
0.0
 49
1.0
175
     0
142
0.0008202099737533
142
0.0
142
0.0
142
0.0
142
0.0
142
0.0008202099737533
142
0.0
142
0.0
142
0.0
142
0.0
142
1.0
142
0.0
142
0.0
142
0.0
142
0.0
142
1.0
179
     0
144
0.0008202099737533
144
0.0
144
0.0
144
0.0
144
0.0
144
0.0008202099737533
144
0.0
144
0.0
144
0.0
144
0.0
144
1.0
144
0.0
144
0.0
144
0.0
144
0.0
144
1.0
147
0.0008202099737533
147
0.0
147
0.0
147
0.0
147
0.0
147
0.0008202099737533
147
0.0
147
0.0
147
0.0
147
0.0
147
1.0
147
0.0
147
0.0
147
0.0
147
0.0
147
1.0
  0
MATERIAL
  5
BBF
102
{ACAD_XDICTIONARY
360
BC0
102
}
102
{ACAD_REACTORS
330
BAE
102
}
330
BAE
100
AcDbMaterial
  1
Global
 72
     0
 43
0.0008202099737533
 43
0.0
 43
0.0
 43
0.0
 43
0.0
 43
0.0008202099737533
 43
0.0
 43
0.0
 43
0.0
 43
0.0
 43
1.0
 43
0.0
 43
0.0
 43
0.0
 43
0.0
 43
1.0
 77
     0
 47
0.0008202099737533
 47
0.0
 47
0.0
 47
0.0
 47
0.0
 47
0.0008202099737533
 47
0.0
 47
0.0
 47
0.0
 47
0.0
 47
1.0
 47
0.0
 47
0.0
 47
0.0
 47
0.0
 47
1.0
171
     0
 49
0.0008202099737533
 49
0.0
 49
0.0
 49
0.0
 49
0.0
 49
0.0008202099737533
 49
0.0
 49
0.0
 49
0.0
 49
0.0
 49
1.0
 49
0.0
 49
0.0
 49
0.0
 49
0.0
 49
1.0
175
     0
142
0.0008202099737533
142
0.0
142
0.0
142
0.0
142
0.0
142
0.0008202099737533
142
0.0
142
0.0
142
0.0
142
0.0
142
1.0
142
0.0
142
0.0
142
0.0
142
0.0
142
1.0
179
     0
144
0.0008202099737533
144
0.0
144
0.0
144
0.0
144
0.0
144
0.0008202099737533
144
0.0
144
0.0
144
0.0
144
0.0
144
1.0
144
0.0
144
0.0
144
0.0
144
0.0
144
1.0
147
0.0008202099737533
147
0.0
147
0.0
147
0.0
147
0.0
147
0.0008202099737533
147
0.0
147
0.0
147
0.0
147
0.0
147
1.0
147
0.0
147
0.0
147
0.0
147
0.0
147
1.0
  0
MLEADERSTYLE
  5
BE4
102
{ACAD_REACTORS
330
BE3
102
}
330
BE3
100
AcDbMLeaderStyle
170
     2
171
     1
172
     0
 90
        2
 40
0.0
 41
0.0
173
     1
 91
-1056964608
340
14
 92
       -2
290
     1
 42
2.0
291
     1
 43
0.36
  3
Standard
 44
4.0
300

342
11
174
     1
178
     6
175
     1
176
     0
 93
-1056964608
 45
4.0
292
     0
297
     0
 46
4.0
 94
-1056964608
 47
1.0
 49
1.0
140
1.0
293
     1
141
0.0
294
     1
177
     0
142
1.0
295
     0
296
     0
143
0.125
1001
ACAD_MLEADERVER
1070
     2
  0
MLINESTYLE
  5
18
102
{ACAD_REACTORS
330
17
102
}
330
17
100
AcDbMlineStyle
  2
STANDARD
 70
     0
  3

 62
   256
 51
90.0
 52
90.0
 71
     2
 49
0.5
 62
   256
  6
BYLAYER
 49
-0.5
 62
   256
  6
BYLAYER
  0
ACDBPLACEHOLDER
  5
F
102
{ACAD_REACTORS
330
E
102
}
330
E
  0
SCALE
  5
48
102
{ACAD_REACTORS
330
47
102
}
330
47
100
AcDbScale
 70
     0
300
1:1
140
1.0
141
1.0
290
     1
  0
SCALE
  5
49
102
{ACAD_REACTORS
330
47
102
}
330
47
100
AcDbScale
 70
     0
300
1:2
140
1.0
141
2.0
290
     0
  0
SCALE
  5
4A
102
{ACAD_REACTORS
330
47
102
}
330
47
100
AcDbScale
 70
     0
300
1:4
140
1.0
141
4.0
290
     0
  0
SCALE
  5
4B
102
{ACAD_REACTORS
330
47
102
}
330
47
100
AcDbScale
 70
     0
300
1:5
140
1.0
141
5.0
290
     0
  0
SCALE
  5
4C
102
{ACAD_REACTORS
330
47
102
}
330
47
100
AcDbScale
 70
     0
300
1:8
140
1.0
141
8.0
290
     0
  0
SCALE
  5
4D
102
{ACAD_REACTORS
330
47
102
}
330
47
100
AcDbScale
 70
     0
300
1:10
140
1.0
141
10.0
290
     0
  0
SCALE
  5
4E
102
{ACAD_REACTORS
330
47
102
}
330
47
100
AcDbScale
 70
     0
300
1:16
140
1.0
141
16.0
290
     0
  0
SCALE
  5
4F
102
{ACAD_REACTORS
330
47
102
}
330
47
100
AcDbScale
 70
     0
300
1:20
140
1.0
141
20.0
290
     0
  0
SCALE
  5
50
102
{ACAD_REACTORS
330
47
102
}
330
47
100
AcDbScale
 70
     0
300
1:30
140
1.0
141
30.0
290
     0
  0
SCALE
  5
51
102
{ACAD_REACTORS
330
47
102
}
330
47
100
AcDbScale
 70
     0
300
1:40
140
1.0
141
40.0
290
     0
  0
SCALE
  5
52
102
{ACAD_REACTORS
330
47
102
}
330
47
100
AcDbScale
 70
     0
300
1:50
140
1.0
141
50.0
290
     0
  0
SCALE
  5
53
102
{ACAD_REACTORS
330
47
102
}
330
47
100
AcDbScale
 70
     0
300
1:100
140
1.0
141
100.0
290
     0
  0
SCALE
  5
54
102
{ACAD_REACTORS
330
47
102
}
330
47
100
AcDbScale
 70
     0
300
2:1
140
2.0
141
1.0
290
     0
  0
SCALE
  5
55
102
{ACAD_REACTORS
330
47
102
}
330
47
100
AcDbScale
 70
     0
300
4:1
140
4.0
141
1.0
290
     0
  0
SCALE
  5
56
102
{ACAD_REACTORS
330
47
102
}
330
47
100
AcDbScale
 70
     0
300
8:1
140
8.0
141
1.0
290
     0
  0
SCALE
  5
57
102
{ACAD_REACTORS
330
47
102
}
330
47
100
AcDbScale
 70
     0
300
10:1
140
10.0
141
1.0
290
     0
  0
SCALE
  5
58
102
{ACAD_REACTORS
330
47
102
}
330
47
100
AcDbScale
 70
     0
300
100:1
140
100.0
141
1.0
290
     0
  0
SCALE
  5
59
102
{ACAD_REACTORS
330
47
102
}
330
47
100
AcDbScale
 70
     0
300
1/128" = 1'-0"
140
0.0078125
141
12.0
290
     0
  0
SCALE
  5
5A
102
{ACAD_REACTORS
330
47
102
}
330
47
100
AcDbScale
 70
     0
300
1/64" = 1'-0"
140
0.015625
141
12.0
290
     0
  0
SCALE
  5
5B
102
{ACAD_REACTORS
330
47
102
}
330
47
100
AcDbScale
 70
     0
300
1/32" = 1'-0"
140
0.03125
141
12.0
290
     0
  0
SCALE
  5
5C
102
{ACAD_REACTORS
330
47
102
}
330
47
100
AcDbScale
 70
     0
300
1/16" = 1'-0"
140
0.0625
141
12.0
290
     0
  0
SCALE
  5
5D
102
{ACAD_REACTORS
330
47
102
}
330
47
100
AcDbScale
 70
     0
300
3/32" = 1'-0"
140
0.09375
141
12.0
290
     0
  0
SCALE
  5
5E
102
{ACAD_REACTORS
330
47
102
}
330
47
100
AcDbScale
 70
     0
300
1/8" = 1'-0"
140
0.125
141
12.0
290
     0
  0
SCALE
  5
5F
102
{ACAD_REACTORS
330
47
102
}
330
47
100
AcDbScale
 70
     0
300
3/16" = 1'-0"
140
0.1875
141
12.0
290
     0
  0
SCALE
  5
60
102
{ACAD_REACTORS
330
47
102
}
330
47
100
AcDbScale
 70
     0
300
1/4" = 1'-0"
140
0.25
141
12.0
290
     0
  0
SCALE
  5
61
102
{ACAD_REACTORS
330
47
102
}
330
47
100
AcDbScale
 70
     0
300
3/8" = 1'-0"
140
0.375
141
12.0
290
     0
  0
SCALE
  5
62
102
{ACAD_REACTORS
330
47
102
}
330
47
100
AcDbScale
 70
     0
300
1/2" = 1'-0"
140
0.5
141
12.0
290
     0
  0
SCALE
  5
63
102
{ACAD_REACTORS
330
47
102
}
330
47
100
AcDbScale
 70
     0
300
3/4" = 1'-0"
140
0.75
141
12.0
290
     0
  0
SCALE
  5
64
102
{ACAD_REACTORS
330
47
102
}
330
47
100
AcDbScale
 70
     0
300
1" = 1'-0"
140
1.0
141
12.0
290
     0
  0
SCALE
  5
65
102
{ACAD_REACTORS
330
47
102
}
330
47
100
AcDbScale
 70
     0
300
1-1/2" = 1'-0"
140
1.5
141
12.0
290
     0
  0
SCALE
  5
66
102
{ACAD_REACTORS
330
47
102
}
330
47
100
AcDbScale
 70
     0
300
3" = 1'-0"
140
3.0
141
12.0
290
     0
  0
SCALE
  5
67
102
{ACAD_REACTORS
330
47
102
}
330
47
100
AcDbScale
 70
     0
300
6" = 1'-0"
140
6.0
141
12.0
290
     0
  0
SCALE
  5
68
102
{ACAD_REACTORS
330
47
102
}
330
47
100
AcDbScale
 70
     0
300
1'-0" = 1'-0"
140
12.0
141
12.0
290
     0
  0
ACDBSECTIONVIEWSTYLE
  5
BE6
102
{ACAD_REACTORS
330
BE5
102
}
330
BE5
100
AcDbModelDocViewStyle
 70
     0
  3
Metric50
290
     0
100
AcDbSectionViewStyle
 70
     0
 71
     0
 90
      102
 71
     1
340
11
 40
5.0
340
0
340
0
 40
5.0
300
I, O, Q, S, X, Z
 40
10.0
 90
        0
 40
2.5
 90
        0
 71
     2
340
16
 90
       25
340
16
 90
       50
 40
5.0
 40
2.5
 40
5.0
 71
     3
340
11
 40
5.0
 90
        0
 40
15.0
 90
        1
300
%<\AcVar ViewSectionStartId>%-%<\AcVar ViewSectionEndId>% (%<\AcVar ViewScale \f "%sn">%)
 71
     4
300
ANSI31
 40
1.0
 90
        0
290
     0
290
     0
 90
        6
 40
0.0
 40
1.570796326794896
 40
0.2617993877991494
 40
1.308996938995747
 40
-0.2617993877991494
 40
1.832595714594045
  0
TABLESTYLE
  5
BE2
102
{ACAD_XDICTIONARY
360
C41
102
}
102
{ACAD_REACTORS
330
BE1
102
}
330
BE1
100
AcDbTableStyle
  3
Standard
 70
     0
 71
     0
 40
1.5
 41
1.5
280
     0
281
     0
  7
Standard
140
4.5
170
     2
 62
     0
 63
     7
283
     0
274
    -2
284
     1
 64
     0
275
    -2
285
     1
 65
     0
276
    -2
286
     1
 66
     0
277
    -2
287
     1
 67
     0
278
    -2
288
     1
 68
     0
279
    -2
289
     1
 69
     0
  7
Standard
140
6.0
170
     5
 62
     0
 63
     7
283
     0
274
    -2
284
     1
 64
     0
275
    -2
285
     1
 65
     0
276
    -2
286
     1
 66
     0
277
    -2
287
     1
 67
     0
278
    -2
288
     1
 68
     0
279
    -2
289
     1
 69
     0
  7
Standard
140
4.5
170
     5
 62
     0
 63
     7
283
     0
274
    -2
284
     1
 64
     0
275
    -2
285
     1
 65
     0
276
    -2
286
     1
 66
     0
277
    -2
287
     1
 67
     0
278
    -2
288
     1
 68
     0
279
    -2
289
     1
 69
     0
  0
VISUALSTYLE
  5
BCD
102
{ACAD_XDICTIONARY
360
CA1
102
}
102
{ACAD_REACTORS
330
BC7
102
}
330
BC7
100
AcDbVisualStyle
  2

 70
     4
 71
     0
 72
     2
 73
     0
 90
        0
 40
-0.6
 41
-30.0
 62
     5
 63
     7
 74
     1
 91
        4
 64
     7
 65
   257
 75
     1
175
     1
 42
1.0
 92
        0
 66
   257
 43
1.0
 76
     1
 77
     6
 78
     2
 67
     7
 79
     5
170
     0
171
     0
290
     0
174
     0
 93
        1
 44
0.0
173
     0
291
     0
 45
0.0
1001
ACAD
1000
AcDbSavedByObjectVersion
1070
     0
  0
VISUALSTYLE
  5
BCC
102
{ACAD_XDICTIONARY
360
C9F
102
}
102
{ACAD_REACTORS
330
BC7
102
}
330
BC7
100
AcDbVisualStyle
  2

 70
     7
 71
     1
 72
     0
 73
     1
 90
        0
 40
-0.6
 41
-30.0
 62
     5
 63
     7
 74
     0
 91
        4
 64
     7
 65
   257
 75
     1
175
     1
 42
1.0
 92
        8
 66
     7
 43
1.0
 76
     1
 77
     6
 78
     2
 67
     7
 79
     5
170
     0
171
     0
290
     0
174
     0
 93
        1
 44
0.0
173
     0
291
     1
 45
0.0
1001
ACAD
1000
AcDbSavedByObjectVersion
1070
     0
  0
VISUALSTYLE
  5
BD3
102
{ACAD_XDICTIONARY
360
CAD
102
}
102
{ACAD_REACTORS
330
BC7
102
}
330
BC7
100
AcDbVisualStyle
  2

 70
    12
 71
     2
 72
     2
 73
     0
 90
        0
 40
-0.6
 41
-30.0
 62
     5
 63
     7
 74
     1
 91
        4
 64
     7
 65
   257
 75
     1
175
     1
 42
1.0
 92
        8
 66
     7
 43
1.0
 76
     1
 77
     6
 78
     2
 67
     7
 79
     5
170
     0
171
     0
290
     0
174
     0
 93
        1
 44
50.0
173
     0
291
     1
 45
0.0
1001
ACAD
1000
AcDbSavedByObjectVersion
1070
     0
  0
VISUALSTYLE
  5
BD7
102
{ACAD_XDICTIONARY
360
CB5
102
}
102
{ACAD_REACTORS
330
BC7
102
}
330
BC7
100
AcDbVisualStyle
  2

 70
    16
 71
     2
 72
     2
 73
     3
 90
        0
 40
-0.6
 41
-30.0
 62
     5
 63
     8
 74
     1
 91
        4
 64
     7
 65
   257
 75
     1
175
     1
 42
1.0
 92
        8
 66
     8
 43
1.0
 76
     1
 77
     6
 78
     2
 67
     7
 79
     5
170
     0
171
     0
290
     0
174
     0
 93
        1
 44
0.0
173
     0
291
     1
 45
0.0
1001
ACAD
1000
AcDbSavedByObjectVersion
1070
     0
  0
VISUALSTYLE
  5
BD0
102
{ACAD_XDICTIONARY
360
CA7
102
}
102
{ACAD_REACTORS
330
BC7
102
}
330
BC7
100
AcDbVisualStyle
  2

 70
     9
 71
     3
 72
     2
 73
     0
 90
        0
 40
-0.6
 41
-30.0
 62
     5
 63
     7
 74
     2
 91
        2
 64
     7
 65
   257
 75
     1
175
     1
 42
179.0
 92
        8
 66
     7
 43
1.0
 76
     1
 77
     6
 78
     2
 67
     7
 79
     3
170
     0
171
     0
290
     0
174
     0
 93
        1
 44
0.0
173
     0
291
     0
 45
0.0
1001
ACAD
1000
AcDbSavedByObjectVersion
1070
     0
  0
VISUALSTYLE
  5
BD2
102
{ACAD_XDICTIONARY
360
CAB
102
}
102
{ACAD_REACTORS
330
BC7
102
}
330
BC7
100
AcDbVisualStyle
  2

 70
    11
 71
     2
 72
     2
 73
     0
 90
        0
 40
-0.6
 41
-30.0
 62
     5
 63
     7
 74
     1
 91
        4
 64
     7
 65
   257
 75
     1
175
     1
 42
1.0
 92
        8
 66
     7
 43
1.0
 76
     1
 77
     6
 78
     2
 67
     7
 79
     5
170
     0
171
     0
290
     0
174
     0
 93
        1
 44
-50.0
173
     0
291
     1
 45
0.0
1001
ACAD
1000
AcDbSavedByObjectVersion
1070
     0
  0
VISUALSTYLE
  5
BDF
102
{ACAD_XDICTIONARY
360
CC5
102
}
102
{ACAD_REACTORS
330
BC7
102
}
330
BC7
100
AcDbVisualStyle
  2

 70
    22
 71
     2
 72
     2
 73
     0
 90
        0
 40
-0.6
 41
-30.0
 62
     5
 63
     7
 74
     1
 91
        4
 64
     7
 65
   257
 75
     1
175
     1
 42
1.0
 92
        8
 66
     7
 43
1.0
 76
     1
 77
     6
 78
     2
 67
     7
 79
     5
170
     0
171
     0
290
     0
174
     0
 93
        1
 44
0.0
173
     0
291
     1
 45
0.0
1001
ACAD
1000
AcDbSavedByObjectVersion
1070
     0
  0
VISUALSTYLE
  5
BD6
102
{ACAD_XDICTIONARY
360
CB3
102
}
102
{ACAD_REACTORS
330
BC7
102
}
330
BC7
100
AcDbVisualStyle
  2

 70
    15
 71
     2
 72
     2
 73
     0
 90
        0
 40
-0.6
 41
-30.0
 62
     5
 63
     7
 74
     1
 91
        4
 64
     7
 65
   257
 75
     1
175
     1
 42
1.0
 92
        8
 66
     7
 43
1.0
 76
     1
 77
     6
 78
     2
 67
     7
 79
     5
170
     0
171
     0
290
     0
174
     0
 93
        1
 44
0.0
173
     0
291
     1
 45
0.0
1001
ACAD
1000
AcDbSavedByObjectVersion
1070
     0
  0
VISUALSTYLE
  5
BC8
102
{ACAD_XDICTIONARY
360
C97
102
}
102
{ACAD_REACTORS
330
BC7
102
}
330
BC7
100
AcDbVisualStyle
  2

 70
     0
 71
     2
 72
     1
 73
     1
 90
        2
 40
-0.6
 41
30.0
 62
     5
 63
     7
 74
     0
 91
        0
 64
     7
 65
   257
 75
     1
175
     1
 42
1.0
 92
        8
 66
     7
 43
1.0
 76
     1
 77
     6
 78
     2
 67
     7
 79
     5
170
     0
171
     0
290
     0
174
     0
 93
       13
 44
0.0
173
     0
291
     1
 45
0.0
1001
ACAD
1000
AcDbSavedByObjectVersion
1070
     0
  0
VISUALSTYLE
  5
BC9
102
{ACAD_XDICTIONARY
360
C99
102
}
102
{ACAD_REACTORS
330
BC7
102
}
330
BC7
100
AcDbVisualStyle
  2

 70
     1
 71
     2
 72
     1
 73
     1
 90
        2
 40
-0.6
 41
30.0
 62
     5
 63
     7
 74
     1
 91
        0
 64
     7
 65
   257
 75
     1
175
     1
 42
1.0
 92
        0
 66
   257
 43
1.0
 76
     1
 77
     6
 78
     2
 67
     7
 79
     5
170
     0
171
     0
290
     0
174
     0
 93
       13
 44
0.0
173
     0
291
     1
 45
0.0
1001
ACAD
1000
AcDbSavedByObjectVersion
1070
     0
  0
VISUALSTYLE
  5
BCA
102
{ACAD_XDICTIONARY
360
C9B
102
}
102
{ACAD_REACTORS
330
BC7
102
}
330
BC7
100
AcDbVisualStyle
  2

 70
     2
 71
     2
 72
     2
 73
     1
 90
        2
 40
-0.6
 41
30.0
 62
     5
 63
     7
 74
     0
 91
        0
 64
     7
 65
   257
 75
     1
175
     1
 42
1.0
 92
        0
 66
     7
 43
1.0
 76
     1
 77
     6
 78
     2
 67
     7
 79
     5
170
     0
171
     0
290
     0
174
     0
 93
       13
 44
0.0
173
     0
291
     1
 45
0.0
1001
ACAD
1000
AcDbSavedByObjectVersion
1070
     0
  0
VISUALSTYLE
  5
BCB
102
{ACAD_XDICTIONARY
360
C9D
102
}
102
{ACAD_REACTORS
330
BC7
102
}
330
BC7
100
AcDbVisualStyle
  2

 70
     3
 71
     2
 72
     2
 73
     1
 90
        2
 40
-0.6
 41
30.0
 62
     5
 63
     7
 74
     1
 91
        0
 64
     7
 65
   257
 75
     1
175
     1
 42
1.0
 92
        0
 66
   257
 43
1.0
 76
     1
 77
     6
 78
     2
 67
     7
 79
     5
170
     0
171
     0
290
     0
174
     0
 93
       13
 44
0.0
173
     0
291
     1
 45
0.0
1001
ACAD
1000
AcDbSavedByObjectVersion
1070
     0
  0
VISUALSTYLE
  5
BCF
102
{ACAD_XDICTIONARY
360
CA5
102
}
102
{ACAD_REACTORS
330
BC7
102
}
330
BC7
100
AcDbVisualStyle
  2

 70
     6
 71
     1
 72
     2
 73
     2
 90
        0
 40
-0.6
 41
-30.0
 62
     5
 63
     7
 74
     2
 91
        2
 64
     7
 65
   257
 75
     2
175
     1
 42
40.0
 92
        0
 66
   257
 43
1.0
 76
     1
 77
     6
 78
     2
 67
     7
 79
     3
170
     0
171
     0
290
     0
174
     0
 93
        1
 44
0.0
173
     0
291
     0
 45
0.0
1001
ACAD
1000
AcDbSavedByObjectVersion
1070
     0
  0
VISUALSTYLE
  5
BDD
102
{ACAD_XDICTIONARY
360
CC1
102
}
102
{ACAD_REACTORS
330
BC7
102
}
330
BC7
100
AcDbVisualStyle
  2

 70
    20
 71
     2
 72
     2
 73
     0
 90
        0
 40
-0.6
 41
-30.0
 62
     5
 63
     7
 74
     1
 91
        4
 64
     7
 65
   257
 75
     1
175
     1
 42
1.0
 92
       10
 66
     7
 43
1.0
 76
     1
 77
     6
 78
     2
 67
     7
 79
     5
170
     0
171
     0
290
     0
174
     0
 93
        1
 44
0.0
173
     0
291
     1
 45
0.0
1001
ACAD
1000
AcDbSavedByObjectVersion
1070
     0
  0
VISUALSTYLE
  5
BD5
102
{ACAD_XDICTIONARY
360
CB1
102
}
102
{ACAD_REACTORS
330
BC7
102
}
330
BC7
100
AcDbVisualStyle
  2

 70
    14
 71
     2
 72
     2
 73
     0
 90
        0
 40
-0.6
 41
-30.0
 62
     5
 63
     7
 74
     1
 91
        4
 64
     7
 65
   257
 75
     7
175
     7
 42
1.0
 92
        8
 66
     7
 43
1.0
 76
     1
 77
     6
 78
     2
 67
     7
 79
     5
170
     0
171
     0
290
     0
174
     0
 93
        1
 44
0.0
173
     0
291
     1
 45
0.0
1001
ACAD
1000
AcDbSavedByObjectVersion
1070
     0
  0
VISUALSTYLE
  5
BDE
102
{ACAD_XDICTIONARY
360
CC3
102
}
102
{ACAD_REACTORS
330
BC7
102
}
330
BC7
100
AcDbVisualStyle
  2

 70
    21
 71
     2
 72
     2
 73
     0
 90
        0
 40
-0.6
 41
-30.0
 62
     5
 63
     7
 74
     1
 91
        4
 64
     7
 65
   257
 75
     1
175
     1
 42
1.0
 92
        9
 66
     7
 43
1.0
 76
     1
 77
     6
 78
     2
 67
     7
 79
     5
170
     0
171
     0
290
     0
174
     0
 93
        1
 44
0.0
173
     0
291
     1
 45
0.0
1001
ACAD
1000
AcDbSavedByObjectVersion
1070
     0
  0
VISUALSTYLE
  5
BD1
102
{ACAD_XDICTIONARY
360
CA9
102
}
102
{ACAD_REACTORS
330
BC7
102
}
330
BC7
100
AcDbVisualStyle
  2

 70
     8
 71
     2
 72
     3
 73
     0
 90
        2
 40
-0.6
 41
30.0
 62
     5
 63
     7
 74
     0
 91
        0
 64
     7
 65
   257
 75
     1
175
     1
 42
1.0
 92
        8
 66
   257
 43
1.0
 76
     1
 77
     6
 78
     2
 67
     7
 79
     3
170
     0
171
     0
290
     0
174
     0
 93
       13
 44
0.0
173
     0
291
     0
 45
0.0
1001
ACAD
1000
AcDbSavedByObjectVersion
1070
     0
  0
VISUALSTYLE
  5
BDC
102
{ACAD_XDICTIONARY
360
CBF
102
}
102
{ACAD_REACTORS
330
BC7
102
}
330
BC7
100
AcDbVisualStyle
  2

 70
    27
 71
     2
 72
     2
 73
     1
 90
        2
 40
-0.6
 41
30.0
 62
     5
 63
     7
 74
     0
 91
        4
 64
     7
 65
   257
 75
     1
175
     1
 42
1.0
 92
        8
 66
   257
 43
1.0
 76
     1
 77
     6
 78
     2
 67
     8
 79
     3
170
     0
171
     0
290
     0
174
     0
 93
        5
 44
0.0
173
     0
291
     0
 45
0.0
1001
ACAD
1000
AcDbSavedByObjectVersion
1070
     0
  0
VISUALSTYLE
  5
BDB
102
{ACAD_XDICTIONARY
360
CBD
102
}
102
{ACAD_REACTORS
330
BC7
102
}
330
BC7
100
AcDbVisualStyle
  2

 70
    26
 71
     2
 72
     2
 73
     1
 90
        2
 40
-0.6
 41
30.0
 62
     5
 63
     7
 74
     1
 91
       10
 64
     7
 65
   257
 75
     2
175
     1
 42
1.0
 92
        8
 66
   257
 43
1.0
 76
     1
 77
     6
 78
     2
 67
     7
 79
     3
170
     0
171
     0
290
     0
174
     0
 93
        5
 44
0.0
173
     0
291
     0
 45
0.0
1001
ACAD
1000
AcDbSavedByObjectVersion
1070
     0
  0
VISUALSTYLE
  5
BD8
102
{ACAD_XDICTIONARY
360
CB7
102
}
102
{ACAD_REACTORS
330
BC7
102
}
330
BC7
100
AcDbVisualStyle
  2

 70
    23
 71
     2
 72
     2
 73
     3
 90
        0
 40
-0.6
 41
-30.0
 62
     5
 63
     7
 74
     2
 91
        2
 64
     7
 65
     7
 75
     1
175
     1
 42
40.0
 92
        8
 66
     7
 43
1.0
 76
     1
 77
     6
 78
     2
 67
     7
 79
     3
170
     0
171
     0
290
     0
174
     0
 93
        1
 44
0.0
173
     0
291
     0
 45
0.0
1001
ACAD
1000
AcDbSavedByObjectVersion
1070
     0
  0
VISUALSTYLE
  5
BD9
102
{ACAD_XDICTIONARY
360
CB9
102
}
102
{ACAD_REACTORS
330
BC7
102
}
330
BC7
100
AcDbVisualStyle
  2

 70
    24
 71
     1
 72
     2
 73
     2
 90
        0
 40
-0.6
 41
-30.0
 62
     5
 63
     7
 74
     2
 91
        2
 64
     7
 65
     7
 75
     1
175
     1
 42
40.0
 92
       11
 66
     7
 43
1.0
 76
     1
 77
     6
 78
     2
 67
     7
 79
     6
170
     0
171
     0
290
     0
174
     0
 93
        1
 44
0.0
173
     0
291
     0
 45
0.0
1001
ACAD
1000
AcDbSavedByObjectVersion
1070
     0
  0
VISUALSTYLE
  5
BD4
102
{ACAD_XDICTIONARY
360
CAF
102
}
102
{ACAD_REACTORS
330
BC7
102
}
330
BC7
100
AcDbVisualStyle
  2

 70
    13
 71
     2
 72
     2
 73
     0
 90
        0
 40
-0.6
 41
-30.0
 62
     5
 63
     7
 74
     1
 91
        4
 64
     7
 65
   257
 75
     1
175
     1
 42
1.0
 92
       12
 66
     7
 43
1.0
 76
     1
 77
     6
 78
     2
 67
     7
 79
     5
170
     0
171
     0
290
     0
174
     0
 93
        1
 44
0.0
173
     0
291
     1
 45
0.0
1001
ACAD
1000
AcDbSavedByObjectVersion
1070
     0
  0
VISUALSTYLE
  5
BCE
102
{ACAD_XDICTIONARY
360
CA3
102
}
102
{ACAD_REACTORS
330
BC7
102
}
330
BC7
100
AcDbVisualStyle
  2

 70
     5
 71
     0
 72
     2
 73
     0
 90
        0
 40
-0.6
 41
-30.0
 62
     5
 63
     7
 74
     1
 91
        4
 64
     7
 65
   257
 75
     1
175
     1
 42
1.0
 92
        0
 66
   257
 43
1.0
 76
     1
 77
     6
 78
     2
 67
     7
 79
     3
170
     0
171
     0
290
     0
174
     0
 93
        1
 44
0.0
173
     0
291
     0
 45
0.0
1001
ACAD
1000
AcDbSavedByObjectVersion
1070
     0
  0
VISUALSTYLE
  5
BDA
102
{ACAD_XDICTIONARY
360
CBB
102
}
102
{ACAD_REACTORS
330
BC7
102
}
330
BC7
100
AcDbVisualStyle
  2

 70
    25
 71
     2
 72
     2
 73
     1
 90
        1
 40
0.5
 41
-30.0
 62
     5
 63
     7
 74
     1
 91
        0
 64
     7
 65
   257
 75
     1
175
     1
 42
1.0
 92
        8
 66
     7
 43
1.0
 76
     1
 77
     6
 78
     2
 67
     7
 79
     3
170
     0
171
     0
290
     0
174
     0
 93
       13
 44
0.0
173
     0
291
     0
 45
0.0
1001
ACAD
1000
AcDbSavedByObjectVersion
1070
     0
  0
DICTIONARYVAR
  5
BFC
102
{ACAD_REACTORS
330
BF7
102
}
330
BF7
100
DictionaryVariables
280
     0
  1
1:1
  0
DICTIONARYVAR
  5
BF9
102
{ACAD_REACTORS
330
BF7
102
}
330
BF7
100
DictionaryVariables
280
     0
  1
STANDARD
  0
DICTIONARYVAR
  5
BF8
102
{ACAD_REACTORS
330
BF7
102
}
330
BF7
100
DictionaryVariables
280
     0
  1
STANDARD
  0
DICTIONARYVAR
  5
BFA
102
{ACAD_REACTORS
330
BF7
102
}
330
BF7
100
DictionaryVariables
280
     0
  1
Metric50
  0
DICTIONARYVAR
  5
BFB
102
{ACAD_REACTORS
330
BF7
102
}
330
BF7
100
DictionaryVariables
280
     0
  1
Metric50
  0
DICTIONARYVAR
  5
BFF
102
{ACAD_REACTORS
330
BF7
102
}
330
BF7
100
DictionaryVariables
280
     0
  1
1
  0
DICTIONARYVAR
  5
BFE
102
{ACAD_REACTORS
330
BF7
102
}
330
BF7
100
DictionaryVariables
280
     0
  1
0
  0
DICTIONARYVAR
  5
BFD
102
{ACAD_REACTORS
330
BF7
102
}
330
BF7
100
DictionaryVariables
280
     0
  1
127
  0
DICTIONARYVAR
  5
C8D
102
{ACAD_REACTORS
330
BF7
102
}
330
BF7
100
DictionaryVariables
280
     0
  1
2
  0
DICTIONARY
  5
C91
330
1E
100
AcDbDictionary
280
     1
281
     1
  3
ACAD_XREC_ROUNDTRIP
360
C92
  0
DICTIONARY
  5
C95
330
26
100
AcDbDictionary
280
     1
281
     1
  3
ACAD_XREC_ROUNDTRIP
360
C96
  0
DICTIONARY
  5
C93
330
22
100
AcDbDictionary
280
     1
281
     1
  3
ACAD_XREC_ROUNDTRIP
360
C94
  0
DICTIONARY
  5
BB8
330
BB7
100
AcDbDictionary
280
     1
281
     1
  3
ACAD_XREC_ROUNDTRIP
360
C4C
  3
BUMPTILE
360
BBA
  3
DIFFUSETILE
360
BB9
  3
OPACITYTILE
360
BBD
  3
REFLECTIONTILE
360
BBC
  3
REFRACTIONTILE
360
BBE
  3
SPECULARTILE
360
BBB
  0
DICTIONARY
  5
BB0
330
BAF
100
AcDbDictionary
280
     1
281
     1
  3
ACAD_XREC_ROUNDTRIP
360
C4B
  3
BUMPTILE
360
BB2
  3
DIFFUSETILE
360
BB1
  3
OPACITYTILE
360
BB5
  3
REFLECTIONTILE
360
BB4
  3
REFRACTIONTILE
360
BB6
  3
SPECULARTILE
360
BB3
  0
DICTIONARY
  5
BC0
330
BBF
100
AcDbDictionary
280
     1
281
     1
  3
ACAD_XREC_ROUNDTRIP
360
C4D
  3
BUMPTILE
360
BC2
  3
DIFFUSETILE
360
BC1
  3
OPACITYTILE
360
BC5
  3
REFLECTIONTILE
360
BC4
  3
REFRACTIONTILE
360
BC6
  3
SPECULARTILE
360
BC3
  0
DICTIONARY
  5
C41
330
BE2
100
AcDbDictionary
280
     1
281
     1
  3
ACAD_ROUNDTRIP_2008_TABLESTYLE_CELLSTYLEMAP
360
C8E
  3
ACAD_XREC_ROUNDTRIP
360
CC7
  0
DICTIONARY
  5
CA1
330
BCD
100
AcDbDictionary
280
     1
281
     1
  3
ACAD_XREC_ROUNDTRIP
360
CA2
  0
DICTIONARY
  5
C9F
330
BCC
100
AcDbDictionary
280
     1
281
     1
  3
ACAD_XREC_ROUNDTRIP
360
CA0
  0
DICTIONARY
  5
CAD
330
BD3
100
AcDbDictionary
280
     1
281
     1
  3
ACAD_XREC_ROUNDTRIP
360
CAE
  0
DICTIONARY
  5
CB5
330
BD7
100
AcDbDictionary
280
     1
281
     1
  3
ACAD_XREC_ROUNDTRIP
360
CB6
  0
DICTIONARY
  5
CA7
330
BD0
100
AcDbDictionary
280
     1
281
     1
  3
ACAD_XREC_ROUNDTRIP
360
CA8
  0
DICTIONARY
  5
CAB
330
BD2
100
AcDbDictionary
280
     1
281
     1
  3
ACAD_XREC_ROUNDTRIP
360
CAC
  0
DICTIONARY
  5
CC5
330
BDF
100
AcDbDictionary
280
     1
281
     1
  3
ACAD_XREC_ROUNDTRIP
360
CC6
  0
DICTIONARY
  5
CB3
330
BD6
100
AcDbDictionary
280
     1
281
     1
  3
ACAD_XREC_ROUNDTRIP
360
CB4
  0
DICTIONARY
  5
C97
330
BC8
100
AcDbDictionary
280
     1
281
     1
  3
ACAD_XREC_ROUNDTRIP
360
C98
  0
DICTIONARY
  5
C99
330
BC9
100
AcDbDictionary
280
     1
281
     1
  3
ACAD_XREC_ROUNDTRIP
360
C9A
  0
DICTIONARY
  5
C9B
330
BCA
100
AcDbDictionary
280
     1
281
     1
  3
ACAD_XREC_ROUNDTRIP
360
C9C
  0
DICTIONARY
  5
C9D
330
BCB
100
AcDbDictionary
280
     1
281
     1
  3
ACAD_XREC_ROUNDTRIP
360
C9E
  0
DICTIONARY
  5
CA5
330
BCF
100
AcDbDictionary
280
     1
281
     1
  3
ACAD_XREC_ROUNDTRIP
360
CA6
  0
DICTIONARY
  5
CC1
330
BDD
100
AcDbDictionary
280
     1
281
     1
  3
ACAD_XREC_ROUNDTRIP
360
CC2
  0
DICTIONARY
  5
CB1
330
BD5
100
AcDbDictionary
280
     1
281
     1
  3
ACAD_XREC_ROUNDTRIP
360
CB2
  0
DICTIONARY
  5
CC3
330
BDE
100
AcDbDictionary
280
     1
281
     1
  3
ACAD_XREC_ROUNDTRIP
360
CC4
  0
DICTIONARY
  5
CA9
330
BD1
100
AcDbDictionary
280
     1
281
     1
  3
ACAD_XREC_ROUNDTRIP
360
CAA
  0
DICTIONARY
  5
CBF
330
BDC
100
AcDbDictionary
280
     1
281
     1
  3
ACAD_XREC_ROUNDTRIP
360
CC0
  0
DICTIONARY
  5
CBD
330
BDB
100
AcDbDictionary
280
     1
281
     1
  3
ACAD_XREC_ROUNDTRIP
360
CBE
  0
DICTIONARY
  5
CB7
330
BD8
100
AcDbDictionary
280
     1
281
     1
  3
ACAD_XREC_ROUNDTRIP
360
CB8
  0
DICTIONARY
  5
CB9
330
BD9
100
AcDbDictionary
280
     1
281
     1
  3
ACAD_XREC_ROUNDTRIP
360
CBA
  0
DICTIONARY
  5
CAF
330
BD4
100
AcDbDictionary
280
     1
281
     1
  3
ACAD_XREC_ROUNDTRIP
360
CB0
  0
DICTIONARY
  5
CA3
330
BCE
100
AcDbDictionary
280
     1
281
     1
  3
ACAD_XREC_ROUNDTRIP
360
CA4
  0
DICTIONARY
  5
CBB
330
BDA
100
AcDbDictionary
280
     1
281
     1
  3
ACAD_XREC_ROUNDTRIP
360
CBC
  0
XRECORD
  5
C92
102
{ACAD_REACTORS
330
C91
102
}
330
C91
100
AcDbXrecord
280
     1
102
SHADEPLOT
 70
     0
102
SHADEPLOTRESLEVEL
 70
     2
102
SHADEPLOTCUSTOMDPI
 70
   300
  0
XRECORD
  5
C96
102
{ACAD_REACTORS
330
C95
102
}
330
C95
100
AcDbXrecord
280
     1
102
SHADEPLOT
 70
     0
102
SHADEPLOTRESLEVEL
 70
     2
102
SHADEPLOTCUSTOMDPI
 70
   300
  0
XRECORD
  5
C94
102
{ACAD_REACTORS
330
C93
102
}
330
C93
100
AcDbXrecord
280
     1
102
SHADEPLOT
 70
     0
102
SHADEPLOTRESLEVEL
 70
     2
102
SHADEPLOTCUSTOMDPI
 70
   300
  0
XRECORD
  5
C4C
102
{ACAD_REACTORS
330
BB8
102
}
330
BB8
100
AcDbXrecord
280
     1
102
MATERIAL
148
0.0
149
0.0
149
0.0
 93
        0
 94
      127
282
     0
 72
     0
 77
     0
171
     0
175
     0
179
     0
273
     0
  0
XRECORD
  5
BBA
102
{ACAD_REACTORS
330
BB8
102
}
330
BB8
100
AcDbXrecord
280
     1
270
     1
271
     1
  0
XRECORD
  5
BB9
102
{ACAD_REACTORS
330
BB8
102
}
330
BB8
100
AcDbXrecord
280
     1
270
     1
271
     1
  0
XRECORD
  5
BBD
102
{ACAD_REACTORS
330
BB8
102
}
330
BB8
100
AcDbXrecord
280
     1
270
     1
271
     1
  0
XRECORD
  5
BBC
102
{ACAD_REACTORS
330
BB8
102
}
330
BB8
100
AcDbXrecord
280
     1
270
     1
271
     1
  0
XRECORD
  5
BBE
102
{ACAD_REACTORS
330
BB8
102
}
330
BB8
100
AcDbXrecord
280
     1
270
     1
271
     1
  0
XRECORD
  5
BBB
102
{ACAD_REACTORS
330
BB8
102
}
330
BB8
100
AcDbXrecord
280
     1
270
     1
271
     1
  0
XRECORD
  5
C4B
102
{ACAD_REACTORS
330
BB0
102
}
330
BB0
100
AcDbXrecord
280
     1
102
MATERIAL
148
0.0
149
0.0
149
0.0
 93
        0
 94
      127
282
     0
 72
     0
 77
     0
171
     0
175
     0
179
     0
273
     0
  0
XRECORD
  5
BB2
102
{ACAD_REACTORS
330
BB0
102
}
330
BB0
100
AcDbXrecord
280
     1
270
     1
271
     1
  0
XRECORD
  5
BB1
102
{ACAD_REACTORS
330
BB0
102
}
330
BB0
100
AcDbXrecord
280
     1
270
     1
271
     1
  0
XRECORD
  5
BB5
102
{ACAD_REACTORS
330
BB0
102
}
330
BB0
100
AcDbXrecord
280
     1
270
     1
271
     1
  0
XRECORD
  5
BB4
102
{ACAD_REACTORS
330
BB0
102
}
330
BB0
100
AcDbXrecord
280
     1
270
     1
271
     1
  0
XRECORD
  5
BB6
102
{ACAD_REACTORS
330
BB0
102
}
330
BB0
100
AcDbXrecord
280
     1
270
     1
271
     1
  0
XRECORD
  5
BB3
102
{ACAD_REACTORS
330
BB0
102
}
330
BB0
100
AcDbXrecord
280
     1
270
     1
271
     1
  0
XRECORD
  5
C4D
102
{ACAD_REACTORS
330
BC0
102
}
330
BC0
100
AcDbXrecord
280
     1
102
MATERIAL
148
0.0
149
0.0
149
0.0
 93
        0
 94
      127
282
     0
 72
     0
 77
     0
171
     0
175
     0
179
     0
273
     0
  0
XRECORD
  5
BC2
102
{ACAD_REACTORS
330
BC0
102
}
330
BC0
100
AcDbXrecord
280
     1
270
     1
271
     1
  0
XRECORD
  5
BC1
102
{ACAD_REACTORS
330
BC0
102
}
330
BC0
100
AcDbXrecord
280
     1
270
     1
271
     1
  0
XRECORD
  5
BC5
102
{ACAD_REACTORS
330
BC0
102
}
330
BC0
100
AcDbXrecord
280
     1
270
     1
271
     1
  0
XRECORD
  5
BC4
102
{ACAD_REACTORS
330
BC0
102
}
330
BC0
100
AcDbXrecord
280
     1
270
     1
271
     1
  0
XRECORD
  5
BC6
102
{ACAD_REACTORS
330
BC0
102
}
330
BC0
100
AcDbXrecord
280
     1
270
     1
271
     1
  0
XRECORD
  5
BC3
102
{ACAD_REACTORS
330
BC0
102
}
330
BC0
100
AcDbXrecord
280
     1
270
     1
271
     1
  0
CELLSTYLEMAP
  5
C8E
102
{ACAD_REACTORS
330
C41
102
}
330
C41
100
AcDbCellStyleMap
 90
        3
300
CELLSTYLE
  1
TABLEFORMAT_BEGIN
 90
        5
170
     1
 91
        0
 92
    32768
 62
   257
 93
        1
300
CONTENTFORMAT
  1
CONTENTFORMAT_BEGIN
 90
        0
 91
        0
 92
      512
 93
        0
300

 40
0.0
140
1.0
 94
        5
 62
     0
340
11
144
6.0
309
CONTENTFORMAT_END
171
     1
301
MARGIN
  1
CELLMARGIN_BEGIN
 40
1.5
 40
1.5
 40
1.5
 40
1.5
 40
0.18
 40
0.18
309
CELLMARGIN_END
 94
        6
 95
        1
302
GRIDFORMAT
  1
GRIDFORMAT_BEGIN
 90
        0
 91
        1
 62
     0
 92
       -2
340
0
 93
        0
 40
1.125
309
GRIDFORMAT_END
 95
        2
302
GRIDFORMAT
  1
GRIDFORMAT_BEGIN
 90
        0
 91
        1
 62
     0
 92
       -2
340
0
 93
        0
 40
1.125
309
GRIDFORMAT_END
 95
        4
302
GRIDFORMAT
  1
GRIDFORMAT_BEGIN
 90
        0
 91
        1
 62
     0
 92
       -2
340
0
 93
        0
 40
1.125
309
GRIDFORMAT_END
 95
        8
302
GRIDFORMAT
  1
GRIDFORMAT_BEGIN
 90
        0
 91
        1
 62
     0
 92
       -2
340
0
 93
        0
 40
1.125
309
GRIDFORMAT_END
 95
       16
302
GRIDFORMAT
  1
GRIDFORMAT_BEGIN
 90
        0
 91
        1
 62
     0
 92
       -2
340
0
 93
        0
 40
1.125
309
GRIDFORMAT_END
 95
       32
302
GRIDFORMAT
  1
GRIDFORMAT_BEGIN
 90
        0
 91
        1
 62
     0
 92
       -2
340
0
 93
        0
 40
1.125
309
GRIDFORMAT_END
309
TABLEFORMAT_END
  1
CELLSTYLE_BEGIN
 90
        1
 91
        1
300
_TITLE
309
CELLSTYLE_END
300
CELLSTYLE
  1
TABLEFORMAT_BEGIN
 90
        5
170
     1
 91
        0
 92
        0
 62
   257
 93
        1
300
CONTENTFORMAT
  1
CONTENTFORMAT_BEGIN
 90
        0
 91
        0
 92
      512
 93
        0
300

 40
0.0
140
1.0
 94
        5
 62
     0
340
11
144
4.5
309
CONTENTFORMAT_END
171
     1
301
MARGIN
  1
CELLMARGIN_BEGIN
 40
1.5
 40
1.5
 40
1.5
 40
1.5
 40
0.18
 40
0.18
309
CELLMARGIN_END
 94
        6
 95
        1
302
GRIDFORMAT
  1
GRIDFORMAT_BEGIN
 90
        0
 91
        1
 62
     0
 92
       -2
340
0
 93
        0
 40
1.125
309
GRIDFORMAT_END
 95
        2
302
GRIDFORMAT
  1
GRIDFORMAT_BEGIN
 90
        0
 91
        1
 62
     0
 92
       -2
340
0
 93
        0
 40
1.125
309
GRIDFORMAT_END
 95
        4
302
GRIDFORMAT
  1
GRIDFORMAT_BEGIN
 90
        0
 91
        1
 62
     0
 92
       -2
340
0
 93
        0
 40
1.125
309
GRIDFORMAT_END
 95
        8
302
GRIDFORMAT
  1
GRIDFORMAT_BEGIN
 90
        0
 91
        1
 62
     0
 92
       -2
340
0
 93
        0
 40
1.125
309
GRIDFORMAT_END
 95
       16
302
GRIDFORMAT
  1
GRIDFORMAT_BEGIN
 90
        0
 91
        1
 62
     0
 92
       -2
340
0
 93
        0
 40
1.125
309
GRIDFORMAT_END
 95
       32
302
GRIDFORMAT
  1
GRIDFORMAT_BEGIN
 90
        0
 91
        1
 62
     0
 92
       -2
340
0
 93
        0
 40
1.125
309
GRIDFORMAT_END
309
TABLEFORMAT_END
  1
CELLSTYLE_BEGIN
 90
        2
 91
        1
300
_HEADER
309
CELLSTYLE_END
300
CELLSTYLE
  1
TABLEFORMAT_BEGIN
 90
        5
170
     1
 91
        0
 92
        0
 62
   257
 93
        1
300
CONTENTFORMAT
  1
CONTENTFORMAT_BEGIN
 90
        0
 91
        0
 92
      512
 93
        0
300

 40
0.0
140
1.0
 94
        2
 62
     0
340
11
144
4.5
309
CONTENTFORMAT_END
171
     1
301
MARGIN
  1
CELLMARGIN_BEGIN
 40
1.5
 40
1.5
 40
1.5
 40
1.5
 40
0.18
 40
0.18
309
CELLMARGIN_END
 94
        6
 95
        1
302
GRIDFORMAT
  1
GRIDFORMAT_BEGIN
 90
        0
 91
        1
 62
     0
 92
       -2
340
0
 93
        0
 40
1.125
309
GRIDFORMAT_END
 95
        2
302
GRIDFORMAT
  1
GRIDFORMAT_BEGIN
 90
        0
 91
        1
 62
     0
 92
       -2
340
0
 93
        0
 40
1.125
309
GRIDFORMAT_END
 95
        4
302
GRIDFORMAT
  1
GRIDFORMAT_BEGIN
 90
        0
 91
        1
 62
     0
 92
       -2
340
0
 93
        0
 40
1.125
309
GRIDFORMAT_END
 95
        8
302
GRIDFORMAT
  1
GRIDFORMAT_BEGIN
 90
        0
 91
        1
 62
     0
 92
       -2
340
0
 93
        0
 40
1.125
309
GRIDFORMAT_END
 95
       16
302
GRIDFORMAT
  1
GRIDFORMAT_BEGIN
 90
        0
 91
        1
 62
     0
 92
       -2
340
0
 93
        0
 40
1.125
309
GRIDFORMAT_END
 95
       32
302
GRIDFORMAT
  1
GRIDFORMAT_BEGIN
 90
        0
 91
        1
 62
     0
 92
       -2
340
0
 93
        0
 40
1.125
309
GRIDFORMAT_END
309
TABLEFORMAT_END
  1
CELLSTYLE_BEGIN
 90
        3
 91
        2
300
_DATA
309
CELLSTYLE_END
  0
XRECORD
  5
CC7
102
{ACAD_REACTORS
330
C41
102
}
330
C41
100
AcDbXrecord
280
     1
102
ACAD_ROUNDTRIP_PRE2007_TABLESTYLE
 90
      512
 91
        0
  1

 92
      512
 93
        0
  2

 94
      512
 95
        0
  3

  0
XRECORD
  5
CA2
102
{ACAD_REACTORS
330
CA1
102
}
330
CA1
100
AcDbXrecord
280
     1
102
RTVSPost2010Prop28
280
     1
102
RTVSPost2010PropOp28
 70
     1
102
RTVSPost2010Prop29
280
     1
102
RTVSPost2010PropOp29
 70
     1
102
RTVSPost2010Prop30
280
     0
102
RTVSPost2010PropOp30
 70
     1
102
RTVSPost2010Prop31
280
     0
102
RTVSPost2010PropOp31
 70
     1
102
RTVSPost2010Prop32
280
     0
102
RTVSPost2010PropOp32
 70
     1
102
RTVSPost2010Prop33
280
     0
102
RTVSPost2010PropOp33
 70
     1
102
RTVSPost2010Prop34
280
     0
102
RTVSPost2010PropOp34
 70
     1
102
RTVSPost2010Prop35
280
     0
102
RTVSPost2010PropOp35
 70
     1
102
RTVSPost2010Prop36
280
     0
102
RTVSPost2010PropOp36
 70
     1
102
RTVSPost2010Prop37
 90
       50
102
RTVSPost2010PropOp37
 70
     1
102
RTVSPost2010Prop38
140
0.0
102
RTVSPost2010PropOp38
 70
     1
102
RTVSPost2010Prop39
140
1.0
102
RTVSPost2010PropOp39
 70
     1
102
RTVSPost2010Prop40
 90
        0
102
RTVSPost2010PropOp40
 70
     1
102
RTVSPost2010Prop41ColorIndex
 90
       18
102
RTVSPost2010Prop41ColorRGB
 90
        0
102
RTVSPost2010PropOp41
 70
     1
102
RTVSPost2010Prop42
 90
       50
102
RTVSPost2010PropOp42
 70
     1
102
RTVSPost2010Prop43
 90
        3
102
RTVSPost2010PropOp43
 70
     1
102
RTVSPost2010Prop44ColorIndex
 90
        5
102
RTVSPost2010Prop44ColorRGB
 90
      255
102
RTVSPost2010PropOp44
 70
     1
102
RTVSPost2010Prop45
280
     0
102
RTVSPost2010PropOp45
 70
     1
102
RTVSPost2010Prop46
 90
       50
102
RTVSPost2010PropOp46
 70
     1
102
RTVSPost2010Prop47
 90
       50
102
RTVSPost2010PropOp47
 70
     1
102
RTVSPost2010Prop48
 90
       50
102
RTVSPost2010PropOp48
 70
     1
102
RTVSPost2010Prop49
280
     0
102
RTVSPost2010PropOp49
 70
     1
102
RTVSPost2010Prop50
 90
       50
102
RTVSPost2010PropOp50
 70
     1
102
RTVSPost2010Prop51ColorIndex
 90
      256
102
RTVSPost2010Prop51ColorRGB
 90
-16777216
102
RTVSPost2010PropOp51
 70
     0
102
RTVSPost2010Prop52
140
1.0
102
RTVSPost2010PropOp52
 70
     0
102
RTVSPost2010Prop53
 90
        2
102
RTVSPost2010PropOp53
 70
     1
102
RTVSPost2010Prop54
  1
strokes_ogs.tif
102
RTVSPost2010PropOp54
 70
     1
102
RTVSPost2010Prop55
280
     0
102
RTVSPost2010PropOp55
 70
     1
102
RTVSPost2010Prop56
140
1.0
102
RTVSPost2010PropOp56
 70
     1
102
RTVSPost2010Prop57
140
1.0
102
RTVSPost2010PropOp57
 70
     1
102
RTVSPropertyOp0
 70
     1
102
RTVSPropertyOp1
 70
     1
102
RTVSPropertyOp2
 70
     1
102
RTVSPropertyOp3
 70
     1
102
RTVSPropertyOp4
 70
     1
102
RTVSPropertyOp5
 70
     1
102
RTVSPropertyOp6
 70
     1
102
RTVSPropertyOp7
 70
     1
102
RTVSPropertyOp8
 70
     1
102
RTVSPropertyOp9
 70
     1
102
RTVSPropertyOp10
 70
     1
102
RTVSPropertyOp11
 70
     1
102
RTVSPropertyOp12
 70
     1
102
RTVSPropertyOp13
 70
     1
102
RTVSPropertyOp14
 70
     1
102
RTVSPropertyOp15
 70
     1
102
RTVSPropertyOp16
 70
     1
102
RTVSPropertyOp17
 70
     1
102
RTVSPropertyOp18
 70
     1
102
RTVSPropertyOp19
 70
     1
102
RTVSPropertyOp20
 70
     1
102
RTVSPropertyOp21
 70
     1
102
RTVSPropertyOp22
 70
     1
102
RTVSPropertyOp23
 70
     1
102
RTVSPropertyOp24
 70
     1
102
RTVSPropertyOp25
 70
     1
102
RTVSPropertyOp26
 70
     1
102
RTVSPropertyOp27
 70
     1
102
RTVSPropertyOp28
 70
     1
102
RTVSPropertyOp29
 70
     1
102
RTVSPropertyOp30
 70
     1
102
RTVSPropertyOp31
 70
     1
102
RTVSPropertyOp32
 70
     1
102
RTVSPropertyOp33
 70
     1
102
RTVSPropertyOp34
 70
     1
102
RTVSPropertyOp35
 70
     1
102
RTVSPropertyOp36
 70
     1
102
RTVSPropertyOp37
 70
     1
102
RTVSPropertyOp38
 70
     1
102
RTVSPropertyOp39
 70
     1
102
RTVSPropertyOp40
 70
     1
102
RTVSPropertyOp41
 70
     1
102
RTVSPropertyOp42
 70
     1
102
RTVSPropertyOp43
 70
     1
102
RTVSPropertyOp44
 70
     1
102
RTVSPropertyOp45
 70
     1
102
RTVSPropertyOp46
 70
     1
102
RTVSPropertyOp47
 70
     1
102
RTVSPropertyOp48
 70
     1
102
RTVSPropertyOp49
 70
     1
102
RTVSPropertyOp50
 70
     1
102
RTVSPropertyOp51
 70
     0
102
RTVSPropertyOp52
 70
     0
102
RTVSPropertyOp53
 70
     1
102
RTVSPropertyOp54
 70
     1
102
RTVSPropertyOp55
 70
     1
102
RTVSPropertyOp56
 70
     1
102
RTVSPropertyOp57
 70
     1
102
RTVSPropertyOp58
 70
     1
102
RTVSPropertyOp59
 70
     1
102
RTVSPropertyOp60
 70
     1
102
RTVSPropertyOp61
 70
     1
102
RTVSPropertyOp62
 70
     1
  0
XRECORD
  5
CA0
102
{ACAD_REACTORS
330
C9F
102
}
330
C9F
100
AcDbXrecord
280
     1
102
RTVSPost2010Prop28
280
     0
102
RTVSPost2010PropOp28
 70
     1
102
RTVSPost2010Prop29
280
     1
102
RTVSPost2010PropOp29
 70
     1
102
RTVSPost2010Prop30
280
     1
102
RTVSPost2010PropOp30
 70
     1
102
RTVSPost2010Prop31
280
     0
102
RTVSPost2010PropOp31
 70
     1
102
RTVSPost2010Prop32
280
     0
102
RTVSPost2010PropOp32
 70
     1
102
RTVSPost2010Prop33
280
     0
102
RTVSPost2010PropOp33
 70
     1
102
RTVSPost2010Prop34
280
     0
102
RTVSPost2010PropOp34
 70
     1
102
RTVSPost2010Prop35
280
     0
102
RTVSPost2010PropOp35
 70
     1
102
RTVSPost2010Prop36
280
     0
102
RTVSPost2010PropOp36
 70
     1
102
RTVSPost2010Prop37
 90
       50
102
RTVSPost2010PropOp37
 70
     1
102
RTVSPost2010Prop38
140
0.0
102
RTVSPost2010PropOp38
 70
     1
102
RTVSPost2010Prop39
140
1.0
102
RTVSPost2010PropOp39
 70
     1
102
RTVSPost2010Prop40
 90
        0
102
RTVSPost2010PropOp40
 70
     1
102
RTVSPost2010Prop41ColorIndex
 90
       18
102
RTVSPost2010Prop41ColorRGB
 90
        0
102
RTVSPost2010PropOp41
 70
     1
102
RTVSPost2010Prop42
 90
       50
102
RTVSPost2010PropOp42
 70
     1
102
RTVSPost2010Prop43
 90
        3
102
RTVSPost2010PropOp43
 70
     1
102
RTVSPost2010Prop44ColorIndex
 90
        5
102
RTVSPost2010Prop44ColorRGB
 90
      255
102
RTVSPost2010PropOp44
 70
     1
102
RTVSPost2010Prop45
280
     0
102
RTVSPost2010PropOp45
 70
     1
102
RTVSPost2010Prop46
 90
       50
102
RTVSPost2010PropOp46
 70
     1
102
RTVSPost2010Prop47
 90
       50
102
RTVSPost2010PropOp47
 70
     1
102
RTVSPost2010Prop48
 90
       50
102
RTVSPost2010PropOp48
 70
     1
102
RTVSPost2010Prop49
280
     0
102
RTVSPost2010PropOp49
 70
     1
102
RTVSPost2010Prop50
 90
       50
102
RTVSPost2010PropOp50
 70
     1
102
RTVSPost2010Prop51ColorIndex
 90
      256
102
RTVSPost2010Prop51ColorRGB
 90
-16777216
102
RTVSPost2010PropOp51
 70
     0
102
RTVSPost2010Prop52
140
1.0
102
RTVSPost2010PropOp52
 70
     0
102
RTVSPost2010Prop53
 90
        2
102
RTVSPost2010PropOp53
 70
     1
102
RTVSPost2010Prop54
  1
strokes_ogs.tif
102
RTVSPost2010PropOp54
 70
     1
102
RTVSPost2010Prop55
280
     0
102
RTVSPost2010PropOp55
 70
     1
102
RTVSPost2010Prop56
140
1.0
102
RTVSPost2010PropOp56
 70
     1
102
RTVSPost2010Prop57
140
1.0
102
RTVSPost2010PropOp57
 70
     1
102
RTVSPropertyOp0
 70
     1
102
RTVSPropertyOp1
 70
     1
102
RTVSPropertyOp2
 70
     1
102
RTVSPropertyOp3
 70
     1
102
RTVSPropertyOp4
 70
     1
102
RTVSPropertyOp5
 70
     1
102
RTVSPropertyOp6
 70
     1
102
RTVSPropertyOp7
 70
     1
102
RTVSPropertyOp8
 70
     1
102
RTVSPropertyOp9
 70
     1
102
RTVSPropertyOp10
 70
     1
102
RTVSPropertyOp11
 70
     1
102
RTVSPropertyOp12
 70
     1
102
RTVSPropertyOp13
 70
     1
102
RTVSPropertyOp14
 70
     1
102
RTVSPropertyOp15
 70
     1
102
RTVSPropertyOp16
 70
     1
102
RTVSPropertyOp17
 70
     1
102
RTVSPropertyOp18
 70
     1
102
RTVSPropertyOp19
 70
     1
102
RTVSPropertyOp20
 70
     1
102
RTVSPropertyOp21
 70
     1
102
RTVSPropertyOp22
 70
     1
102
RTVSPropertyOp23
 70
     1
102
RTVSPropertyOp24
 70
     1
102
RTVSPropertyOp25
 70
     1
102
RTVSPropertyOp26
 70
     1
102
RTVSPropertyOp27
 70
     1
102
RTVSPropertyOp28
 70
     1
102
RTVSPropertyOp29
 70
     1
102
RTVSPropertyOp30
 70
     1
102
RTVSPropertyOp31
 70
     1
102
RTVSPropertyOp32
 70
     1
102
RTVSPropertyOp33
 70
     1
102
RTVSPropertyOp34
 70
     1
102
RTVSPropertyOp35
 70
     1
102
RTVSPropertyOp36
 70
     1
102
RTVSPropertyOp37
 70
     1
102
RTVSPropertyOp38
 70
     1
102
RTVSPropertyOp39
 70
     1
102
RTVSPropertyOp40
 70
     1
102
RTVSPropertyOp41
 70
     1
102
RTVSPropertyOp42
 70
     1
102
RTVSPropertyOp43
 70
     1
102
RTVSPropertyOp44
 70
     1
102
RTVSPropertyOp45
 70
     1
102
RTVSPropertyOp46
 70
     1
102
RTVSPropertyOp47
 70
     1
102
RTVSPropertyOp48
 70
     1
102
RTVSPropertyOp49
 70
     1
102
RTVSPropertyOp50
 70
     1
102
RTVSPropertyOp51
 70
     0
102
RTVSPropertyOp52
 70
     0
102
RTVSPropertyOp53
 70
     1
102
RTVSPropertyOp54
 70
     1
102
RTVSPropertyOp55
 70
     1
102
RTVSPropertyOp56
 70
     1
102
RTVSPropertyOp57
 70
     1
102
RTVSPropertyOp58
 70
     1
102
RTVSPropertyOp59
 70
     1
102
RTVSPropertyOp60
 70
     1
102
RTVSPropertyOp61
 70
     1
102
RTVSPropertyOp62
 70
     1
  0
XRECORD
  5
CAE
102
{ACAD_REACTORS
330
CAD
102
}
330
CAD
100
AcDbXrecord
280
     1
102
RTVSPost2010Prop28
280
     0
102
RTVSPost2010PropOp28
 70
     1
102
RTVSPost2010Prop29
280
     1
102
RTVSPost2010PropOp29
 70
     1
102
RTVSPost2010Prop30
280
     1
102
RTVSPost2010PropOp30
 70
     1
102
RTVSPost2010Prop31
280
     0
102
RTVSPost2010PropOp31
 70
     1
102
RTVSPost2010Prop32
280
     0
102
RTVSPost2010PropOp32
 70
     1
102
RTVSPost2010Prop33
280
     0
102
RTVSPost2010PropOp33
 70
     1
102
RTVSPost2010Prop34
280
     0
102
RTVSPost2010PropOp34
 70
     1
102
RTVSPost2010Prop35
280
     0
102
RTVSPost2010PropOp35
 70
     1
102
RTVSPost2010Prop36
280
     0
102
RTVSPost2010PropOp36
 70
     1
102
RTVSPost2010Prop37
 90
       50
102
RTVSPost2010PropOp37
 70
     1
102
RTVSPost2010Prop38
140
0.0
102
RTVSPost2010PropOp38
 70
     1
102
RTVSPost2010Prop39
140
1.0
102
RTVSPost2010PropOp39
 70
     1
102
RTVSPost2010Prop40
 90
        0
102
RTVSPost2010PropOp40
 70
     1
102
RTVSPost2010Prop41ColorIndex
 90
       18
102
RTVSPost2010Prop41ColorRGB
 90
        0
102
RTVSPost2010PropOp41
 70
     1
102
RTVSPost2010Prop42
 90
       50
102
RTVSPost2010PropOp42
 70
     1
102
RTVSPost2010Prop43
 90
        3
102
RTVSPost2010PropOp43
 70
     1
102
RTVSPost2010Prop44ColorIndex
 90
        5
102
RTVSPost2010Prop44ColorRGB
 90
      255
102
RTVSPost2010PropOp44
 70
     1
102
RTVSPost2010Prop45
280
     0
102
RTVSPost2010PropOp45
 70
     1
102
RTVSPost2010Prop46
 90
       50
102
RTVSPost2010PropOp46
 70
     1
102
RTVSPost2010Prop47
 90
       50
102
RTVSPost2010PropOp47
 70
     1
102
RTVSPost2010Prop48
 90
       50
102
RTVSPost2010PropOp48
 70
     1
102
RTVSPost2010Prop49
280
     0
102
RTVSPost2010PropOp49
 70
     1
102
RTVSPost2010Prop50
 90
       50
102
RTVSPost2010PropOp50
 70
     1
102
RTVSPost2010Prop51ColorIndex
 90
      256
102
RTVSPost2010Prop51ColorRGB
 90
-16777216
102
RTVSPost2010PropOp51
 70
     0
102
RTVSPost2010Prop52
140
1.0
102
RTVSPost2010PropOp52
 70
     0
102
RTVSPost2010Prop53
 90
        2
102
RTVSPost2010PropOp53
 70
     1
102
RTVSPost2010Prop54
  1
strokes_ogs.tif
102
RTVSPost2010PropOp54
 70
     1
102
RTVSPost2010Prop55
280
     0
102
RTVSPost2010PropOp55
 70
     1
102
RTVSPost2010Prop56
140
1.0
102
RTVSPost2010PropOp56
 70
     1
102
RTVSPost2010Prop57
140
1.0
102
RTVSPost2010PropOp57
 70
     1
102
RTVSPropertyOp0
 70
     1
102
RTVSPropertyOp1
 70
     1
102
RTVSPropertyOp2
 70
     1
102
RTVSPropertyOp3
 70
     1
102
RTVSPropertyOp4
 70
     1
102
RTVSPropertyOp5
 70
     1
102
RTVSPropertyOp6
 70
     1
102
RTVSPropertyOp7
 70
     1
102
RTVSPropertyOp8
 70
     1
102
RTVSPropertyOp9
 70
     1
102
RTVSPropertyOp10
 70
     1
102
RTVSPropertyOp11
 70
     1
102
RTVSPropertyOp12
 70
     1
102
RTVSPropertyOp13
 70
     1
102
RTVSPropertyOp14
 70
     1
102
RTVSPropertyOp15
 70
     1
102
RTVSPropertyOp16
 70
     1
102
RTVSPropertyOp17
 70
     1
102
RTVSPropertyOp18
 70
     1
102
RTVSPropertyOp19
 70
     1
102
RTVSPropertyOp20
 70
     1
102
RTVSPropertyOp21
 70
     1
102
RTVSPropertyOp22
 70
     1
102
RTVSPropertyOp23
 70
     1
102
RTVSPropertyOp24
 70
     1
102
RTVSPropertyOp25
 70
     1
102
RTVSPropertyOp26
 70
     1
102
RTVSPropertyOp27
 70
     1
102
RTVSPropertyOp28
 70
     1
102
RTVSPropertyOp29
 70
     1
102
RTVSPropertyOp30
 70
     1
102
RTVSPropertyOp31
 70
     1
102
RTVSPropertyOp32
 70
     1
102
RTVSPropertyOp33
 70
     1
102
RTVSPropertyOp34
 70
     1
102
RTVSPropertyOp35
 70
     1
102
RTVSPropertyOp36
 70
     1
102
RTVSPropertyOp37
 70
     1
102
RTVSPropertyOp38
 70
     1
102
RTVSPropertyOp39
 70
     1
102
RTVSPropertyOp40
 70
     1
102
RTVSPropertyOp41
 70
     1
102
RTVSPropertyOp42
 70
     1
102
RTVSPropertyOp43
 70
     1
102
RTVSPropertyOp44
 70
     1
102
RTVSPropertyOp45
 70
     1
102
RTVSPropertyOp46
 70
     1
102
RTVSPropertyOp47
 70
     1
102
RTVSPropertyOp48
 70
     1
102
RTVSPropertyOp49
 70
     1
102
RTVSPropertyOp50
 70
     1
102
RTVSPropertyOp51
 70
     0
102
RTVSPropertyOp52
 70
     0
102
RTVSPropertyOp53
 70
     1
102
RTVSPropertyOp54
 70
     1
102
RTVSPropertyOp55
 70
     1
102
RTVSPropertyOp56
 70
     1
102
RTVSPropertyOp57
 70
     1
102
RTVSPropertyOp58
 70
     1
102
RTVSPropertyOp59
 70
     1
102
RTVSPropertyOp60
 70
     1
102
RTVSPropertyOp61
 70
     1
102
RTVSPropertyOp62
 70
     1
  0
XRECORD
  5
CB6
102
{ACAD_REACTORS
330
CB5
102
}
330
CB5
100
AcDbXrecord
280
     1
102
RTVSPost2010Prop28
280
     0
102
RTVSPost2010PropOp28
 70
     1
102
RTVSPost2010Prop29
280
     1
102
RTVSPost2010PropOp29
 70
     1
102
RTVSPost2010Prop30
280
     1
102
RTVSPost2010PropOp30
 70
     1
102
RTVSPost2010Prop31
280
     0
102
RTVSPost2010PropOp31
 70
     1
102
RTVSPost2010Prop32
280
     0
102
RTVSPost2010PropOp32
 70
     1
102
RTVSPost2010Prop33
280
     0
102
RTVSPost2010PropOp33
 70
     1
102
RTVSPost2010Prop34
280
     0
102
RTVSPost2010PropOp34
 70
     1
102
RTVSPost2010Prop35
280
     0
102
RTVSPost2010PropOp35
 70
     1
102
RTVSPost2010Prop36
280
     0
102
RTVSPost2010PropOp36
 70
     1
102
RTVSPost2010Prop37
 90
       50
102
RTVSPost2010PropOp37
 70
     1
102
RTVSPost2010Prop38
140
0.0
102
RTVSPost2010PropOp38
 70
     1
102
RTVSPost2010Prop39
140
1.0
102
RTVSPost2010PropOp39
 70
     1
102
RTVSPost2010Prop40
 90
        0
102
RTVSPost2010PropOp40
 70
     1
102
RTVSPost2010Prop41ColorIndex
 90
       18
102
RTVSPost2010Prop41ColorRGB
 90
        0
102
RTVSPost2010PropOp41
 70
     1
102
RTVSPost2010Prop42
 90
       50
102
RTVSPost2010PropOp42
 70
     1
102
RTVSPost2010Prop43
 90
        3
102
RTVSPost2010PropOp43
 70
     1
102
RTVSPost2010Prop44ColorIndex
 90
        5
102
RTVSPost2010Prop44ColorRGB
 90
      255
102
RTVSPost2010PropOp44
 70
     1
102
RTVSPost2010Prop45
280
     0
102
RTVSPost2010PropOp45
 70
     1
102
RTVSPost2010Prop46
 90
       50
102
RTVSPost2010PropOp46
 70
     1
102
RTVSPost2010Prop47
 90
       50
102
RTVSPost2010PropOp47
 70
     1
102
RTVSPost2010Prop48
 90
       50
102
RTVSPost2010PropOp48
 70
     1
102
RTVSPost2010Prop49
280
     0
102
RTVSPost2010PropOp49
 70
     1
102
RTVSPost2010Prop50
 90
       50
102
RTVSPost2010PropOp50
 70
     1
102
RTVSPost2010Prop51ColorIndex
 90
      256
102
RTVSPost2010Prop51ColorRGB
 90
-16777216
102
RTVSPost2010PropOp51
 70
     0
102
RTVSPost2010Prop52
140
1.0
102
RTVSPost2010PropOp52
 70
     0
102
RTVSPost2010Prop53
 90
        2
102
RTVSPost2010PropOp53
 70
     1
102
RTVSPost2010Prop54
  1
strokes_ogs.tif
102
RTVSPost2010PropOp54
 70
     1
102
RTVSPost2010Prop55
280
     0
102
RTVSPost2010PropOp55
 70
     1
102
RTVSPost2010Prop56
140
1.0
102
RTVSPost2010PropOp56
 70
     1
102
RTVSPost2010Prop57
140
1.0
102
RTVSPost2010PropOp57
 70
     1
102
RTVSPropertyOp0
 70
     1
102
RTVSPropertyOp1
 70
     1
102
RTVSPropertyOp2
 70
     1
102
RTVSPropertyOp3
 70
     1
102
RTVSPropertyOp4
 70
     1
102
RTVSPropertyOp5
 70
     1
102
RTVSPropertyOp6
 70
     1
102
RTVSPropertyOp7
 70
     1
102
RTVSPropertyOp8
 70
     1
102
RTVSPropertyOp9
 70
     1
102
RTVSPropertyOp10
 70
     1
102
RTVSPropertyOp11
 70
     1
102
RTVSPropertyOp12
 70
     1
102
RTVSPropertyOp13
 70
     1
102
RTVSPropertyOp14
 70
     1
102
RTVSPropertyOp15
 70
     1
102
RTVSPropertyOp16
 70
     1
102
RTVSPropertyOp17
 70
     1
102
RTVSPropertyOp18
 70
     1
102
RTVSPropertyOp19
 70
     1
102
RTVSPropertyOp20
 70
     1
102
RTVSPropertyOp21
 70
     1
102
RTVSPropertyOp22
 70
     1
102
RTVSPropertyOp23
 70
     1
102
RTVSPropertyOp24
 70
     1
102
RTVSPropertyOp25
 70
     1
102
RTVSPropertyOp26
 70
     1
102
RTVSPropertyOp27
 70
     1
102
RTVSPropertyOp28
 70
     1
102
RTVSPropertyOp29
 70
     1
102
RTVSPropertyOp30
 70
     1
102
RTVSPropertyOp31
 70
     1
102
RTVSPropertyOp32
 70
     1
102
RTVSPropertyOp33
 70
     1
102
RTVSPropertyOp34
 70
     1
102
RTVSPropertyOp35
 70
     1
102
RTVSPropertyOp36
 70
     1
102
RTVSPropertyOp37
 70
     1
102
RTVSPropertyOp38
 70
     1
102
RTVSPropertyOp39
 70
     1
102
RTVSPropertyOp40
 70
     1
102
RTVSPropertyOp41
 70
     1
102
RTVSPropertyOp42
 70
     1
102
RTVSPropertyOp43
 70
     1
102
RTVSPropertyOp44
 70
     1
102
RTVSPropertyOp45
 70
     1
102
RTVSPropertyOp46
 70
     1
102
RTVSPropertyOp47
 70
     1
102
RTVSPropertyOp48
 70
     1
102
RTVSPropertyOp49
 70
     1
102
RTVSPropertyOp50
 70
     1
102
RTVSPropertyOp51
 70
     0
102
RTVSPropertyOp52
 70
     0
102
RTVSPropertyOp53
 70
     1
102
RTVSPropertyOp54
 70
     1
102
RTVSPropertyOp55
 70
     1
102
RTVSPropertyOp56
 70
     1
102
RTVSPropertyOp57
 70
     1
102
RTVSPropertyOp58
 70
     1
102
RTVSPropertyOp59
 70
     1
102
RTVSPropertyOp60
 70
     1
102
RTVSPropertyOp61
 70
     1
102
RTVSPropertyOp62
 70
     1
  0
XRECORD
  5
CA8
102
{ACAD_REACTORS
330
CA7
102
}
330
CA7
100
AcDbXrecord
280
     1
102
RTVSPost2010Prop28
280
     0
102
RTVSPost2010PropOp28
 70
     1
102
RTVSPost2010Prop29
280
     1
102
RTVSPost2010PropOp29
 70
     1
102
RTVSPost2010Prop30
280
     1
102
RTVSPost2010PropOp30
 70
     1
102
RTVSPost2010Prop31
280
     0
102
RTVSPost2010PropOp31
 70
     1
102
RTVSPost2010Prop32
280
     0
102
RTVSPost2010PropOp32
 70
     1
102
RTVSPost2010Prop33
280
     0
102
RTVSPost2010PropOp33
 70
     1
102
RTVSPost2010Prop34
280
     0
102
RTVSPost2010PropOp34
 70
     1
102
RTVSPost2010Prop35
280
     0
102
RTVSPost2010PropOp35
 70
     1
102
RTVSPost2010Prop36
280
     0
102
RTVSPost2010PropOp36
 70
     1
102
RTVSPost2010Prop37
 90
       50
102
RTVSPost2010PropOp37
 70
     1
102
RTVSPost2010Prop38
140
0.0
102
RTVSPost2010PropOp38
 70
     1
102
RTVSPost2010Prop39
140
1.0
102
RTVSPost2010PropOp39
 70
     1
102
RTVSPost2010Prop40
 90
        0
102
RTVSPost2010PropOp40
 70
     1
102
RTVSPost2010Prop41ColorIndex
 90
       18
102
RTVSPost2010Prop41ColorRGB
 90
        0
102
RTVSPost2010PropOp41
 70
     1
102
RTVSPost2010Prop42
 90
       50
102
RTVSPost2010PropOp42
 70
     1
102
RTVSPost2010Prop43
 90
        3
102
RTVSPost2010PropOp43
 70
     1
102
RTVSPost2010Prop44ColorIndex
 90
        5
102
RTVSPost2010Prop44ColorRGB
 90
      255
102
RTVSPost2010PropOp44
 70
     1
102
RTVSPost2010Prop45
280
     0
102
RTVSPost2010PropOp45
 70
     1
102
RTVSPost2010Prop46
 90
       50
102
RTVSPost2010PropOp46
 70
     1
102
RTVSPost2010Prop47
 90
       50
102
RTVSPost2010PropOp47
 70
     1
102
RTVSPost2010Prop48
 90
       50
102
RTVSPost2010PropOp48
 70
     1
102
RTVSPost2010Prop49
280
     0
102
RTVSPost2010PropOp49
 70
     1
102
RTVSPost2010Prop50
 90
       50
102
RTVSPost2010PropOp50
 70
     1
102
RTVSPost2010Prop51ColorIndex
 90
      256
102
RTVSPost2010Prop51ColorRGB
 90
-16777216
102
RTVSPost2010PropOp51
 70
     0
102
RTVSPost2010Prop52
140
1.0
102
RTVSPost2010PropOp52
 70
     0
102
RTVSPost2010Prop53
 90
        2
102
RTVSPost2010PropOp53
 70
     1
102
RTVSPost2010Prop54
  1
strokes_ogs.tif
102
RTVSPost2010PropOp54
 70
     1
102
RTVSPost2010Prop55
280
     0
102
RTVSPost2010PropOp55
 70
     1
102
RTVSPost2010Prop56
140
1.0
102
RTVSPost2010PropOp56
 70
     1
102
RTVSPost2010Prop57
140
1.0
102
RTVSPost2010PropOp57
 70
     1
102
RTVSPropertyOp0
 70
     1
102
RTVSPropertyOp1
 70
     1
102
RTVSPropertyOp2
 70
     1
102
RTVSPropertyOp3
 70
     1
102
RTVSPropertyOp4
 70
     1
102
RTVSPropertyOp5
 70
     1
102
RTVSPropertyOp6
 70
     1
102
RTVSPropertyOp7
 70
     1
102
RTVSPropertyOp8
 70
     1
102
RTVSPropertyOp9
 70
     1
102
RTVSPropertyOp10
 70
     1
102
RTVSPropertyOp11
 70
     1
102
RTVSPropertyOp12
 70
     1
102
RTVSPropertyOp13
 70
     1
102
RTVSPropertyOp14
 70
     1
102
RTVSPropertyOp15
 70
     1
102
RTVSPropertyOp16
 70
     1
102
RTVSPropertyOp17
 70
     1
102
RTVSPropertyOp18
 70
     1
102
RTVSPropertyOp19
 70
     1
102
RTVSPropertyOp20
 70
     1
102
RTVSPropertyOp21
 70
     1
102
RTVSPropertyOp22
 70
     1
102
RTVSPropertyOp23
 70
     1
102
RTVSPropertyOp24
 70
     1
102
RTVSPropertyOp25
 70
     1
102
RTVSPropertyOp26
 70
     1
102
RTVSPropertyOp27
 70
     1
102
RTVSPropertyOp28
 70
     1
102
RTVSPropertyOp29
 70
     1
102
RTVSPropertyOp30
 70
     1
102
RTVSPropertyOp31
 70
     1
102
RTVSPropertyOp32
 70
     1
102
RTVSPropertyOp33
 70
     1
102
RTVSPropertyOp34
 70
     1
102
RTVSPropertyOp35
 70
     1
102
RTVSPropertyOp36
 70
     1
102
RTVSPropertyOp37
 70
     1
102
RTVSPropertyOp38
 70
     1
102
RTVSPropertyOp39
 70
     1
102
RTVSPropertyOp40
 70
     1
102
RTVSPropertyOp41
 70
     1
102
RTVSPropertyOp42
 70
     1
102
RTVSPropertyOp43
 70
     1
102
RTVSPropertyOp44
 70
     1
102
RTVSPropertyOp45
 70
     1
102
RTVSPropertyOp46
 70
     1
102
RTVSPropertyOp47
 70
     1
102
RTVSPropertyOp48
 70
     1
102
RTVSPropertyOp49
 70
     1
102
RTVSPropertyOp50
 70
     1
102
RTVSPropertyOp51
 70
     0
102
RTVSPropertyOp52
 70
     0
102
RTVSPropertyOp53
 70
     1
102
RTVSPropertyOp54
 70
     1
102
RTVSPropertyOp55
 70
     1
102
RTVSPropertyOp56
 70
     1
102
RTVSPropertyOp57
 70
     1
102
RTVSPropertyOp58
 70
     1
102
RTVSPropertyOp59
 70
     1
102
RTVSPropertyOp60
 70
     1
102
RTVSPropertyOp61
 70
     1
102
RTVSPropertyOp62
 70
     1
  0
XRECORD
  5
CAC
102
{ACAD_REACTORS
330
CAB
102
}
330
CAB
100
AcDbXrecord
280
     1
102
RTVSPost2010Prop28
280
     0
102
RTVSPost2010PropOp28
 70
     1
102
RTVSPost2010Prop29
280
     1
102
RTVSPost2010PropOp29
 70
     1
102
RTVSPost2010Prop30
280
     1
102
RTVSPost2010PropOp30
 70
     1
102
RTVSPost2010Prop31
280
     0
102
RTVSPost2010PropOp31
 70
     1
102
RTVSPost2010Prop32
280
     0
102
RTVSPost2010PropOp32
 70
     1
102
RTVSPost2010Prop33
280
     0
102
RTVSPost2010PropOp33
 70
     1
102
RTVSPost2010Prop34
280
     0
102
RTVSPost2010PropOp34
 70
     1
102
RTVSPost2010Prop35
280
     0
102
RTVSPost2010PropOp35
 70
     1
102
RTVSPost2010Prop36
280
     0
102
RTVSPost2010PropOp36
 70
     1
102
RTVSPost2010Prop37
 90
       50
102
RTVSPost2010PropOp37
 70
     1
102
RTVSPost2010Prop38
140
0.0
102
RTVSPost2010PropOp38
 70
     1
102
RTVSPost2010Prop39
140
1.0
102
RTVSPost2010PropOp39
 70
     1
102
RTVSPost2010Prop40
 90
        0
102
RTVSPost2010PropOp40
 70
     1
102
RTVSPost2010Prop41ColorIndex
 90
       18
102
RTVSPost2010Prop41ColorRGB
 90
        0
102
RTVSPost2010PropOp41
 70
     1
102
RTVSPost2010Prop42
 90
       50
102
RTVSPost2010PropOp42
 70
     1
102
RTVSPost2010Prop43
 90
        3
102
RTVSPost2010PropOp43
 70
     1
102
RTVSPost2010Prop44ColorIndex
 90
        5
102
RTVSPost2010Prop44ColorRGB
 90
      255
102
RTVSPost2010PropOp44
 70
     1
102
RTVSPost2010Prop45
280
     0
102
RTVSPost2010PropOp45
 70
     1
102
RTVSPost2010Prop46
 90
       50
102
RTVSPost2010PropOp46
 70
     1
102
RTVSPost2010Prop47
 90
       50
102
RTVSPost2010PropOp47
 70
     1
102
RTVSPost2010Prop48
 90
       50
102
RTVSPost2010PropOp48
 70
     1
102
RTVSPost2010Prop49
280
     0
102
RTVSPost2010PropOp49
 70
     1
102
RTVSPost2010Prop50
 90
       50
102
RTVSPost2010PropOp50
 70
     1
102
RTVSPost2010Prop51ColorIndex
 90
      256
102
RTVSPost2010Prop51ColorRGB
 90
-16777216
102
RTVSPost2010PropOp51
 70
     0
102
RTVSPost2010Prop52
140
1.0
102
RTVSPost2010PropOp52
 70
     0
102
RTVSPost2010Prop53
 90
        2
102
RTVSPost2010PropOp53
 70
     1
102
RTVSPost2010Prop54
  1
strokes_ogs.tif
102
RTVSPost2010PropOp54
 70
     1
102
RTVSPost2010Prop55
280
     0
102
RTVSPost2010PropOp55
 70
     1
102
RTVSPost2010Prop56
140
1.0
102
RTVSPost2010PropOp56
 70
     1
102
RTVSPost2010Prop57
140
1.0
102
RTVSPost2010PropOp57
 70
     1
102
RTVSPropertyOp0
 70
     1
102
RTVSPropertyOp1
 70
     1
102
RTVSPropertyOp2
 70
     1
102
RTVSPropertyOp3
 70
     1
102
RTVSPropertyOp4
 70
     1
102
RTVSPropertyOp5
 70
     1
102
RTVSPropertyOp6
 70
     1
102
RTVSPropertyOp7
 70
     1
102
RTVSPropertyOp8
 70
     1
102
RTVSPropertyOp9
 70
     1
102
RTVSPropertyOp10
 70
     1
102
RTVSPropertyOp11
 70
     1
102
RTVSPropertyOp12
 70
     1
102
RTVSPropertyOp13
 70
     1
102
RTVSPropertyOp14
 70
     1
102
RTVSPropertyOp15
 70
     1
102
RTVSPropertyOp16
 70
     1
102
RTVSPropertyOp17
 70
     1
102
RTVSPropertyOp18
 70
     1
102
RTVSPropertyOp19
 70
     1
102
RTVSPropertyOp20
 70
     1
102
RTVSPropertyOp21
 70
     1
102
RTVSPropertyOp22
 70
     1
102
RTVSPropertyOp23
 70
     1
102
RTVSPropertyOp24
 70
     1
102
RTVSPropertyOp25
 70
     1
102
RTVSPropertyOp26
 70
     1
102
RTVSPropertyOp27
 70
     1
102
RTVSPropertyOp28
 70
     1
102
RTVSPropertyOp29
 70
     1
102
RTVSPropertyOp30
 70
     1
102
RTVSPropertyOp31
 70
     1
102
RTVSPropertyOp32
 70
     1
102
RTVSPropertyOp33
 70
     1
102
RTVSPropertyOp34
 70
     1
102
RTVSPropertyOp35
 70
     1
102
RTVSPropertyOp36
 70
     1
102
RTVSPropertyOp37
 70
     1
102
RTVSPropertyOp38
 70
     1
102
RTVSPropertyOp39
 70
     1
102
RTVSPropertyOp40
 70
     1
102
RTVSPropertyOp41
 70
     1
102
RTVSPropertyOp42
 70
     1
102
RTVSPropertyOp43
 70
     1
102
RTVSPropertyOp44
 70
     1
102
RTVSPropertyOp45
 70
     1
102
RTVSPropertyOp46
 70
     1
102
RTVSPropertyOp47
 70
     1
102
RTVSPropertyOp48
 70
     1
102
RTVSPropertyOp49
 70
     1
102
RTVSPropertyOp50
 70
     1
102
RTVSPropertyOp51
 70
     0
102
RTVSPropertyOp52
 70
     0
102
RTVSPropertyOp53
 70
     1
102
RTVSPropertyOp54
 70
     1
102
RTVSPropertyOp55
 70
     1
102
RTVSPropertyOp56
 70
     1
102
RTVSPropertyOp57
 70
     1
102
RTVSPropertyOp58
 70
     1
102
RTVSPropertyOp59
 70
     1
102
RTVSPropertyOp60
 70
     1
102
RTVSPropertyOp61
 70
     1
102
RTVSPropertyOp62
 70
     1
  0
XRECORD
  5
CC6
102
{ACAD_REACTORS
330
CC5
102
}
330
CC5
100
AcDbXrecord
280
     1
102
RTVSPost2010Prop28
280
     0
102
RTVSPost2010PropOp28
 70
     1
102
RTVSPost2010Prop29
280
     1
102
RTVSPost2010PropOp29
 70
     1
102
RTVSPost2010Prop30
280
     1
102
RTVSPost2010PropOp30
 70
     1
102
RTVSPost2010Prop31
280
     0
102
RTVSPost2010PropOp31
 70
     1
102
RTVSPost2010Prop32
280
     0
102
RTVSPost2010PropOp32
 70
     1
102
RTVSPost2010Prop33
280
     0
102
RTVSPost2010PropOp33
 70
     1
102
RTVSPost2010Prop34
280
     0
102
RTVSPost2010PropOp34
 70
     1
102
RTVSPost2010Prop35
280
     0
102
RTVSPost2010PropOp35
 70
     1
102
RTVSPost2010Prop36
280
     0
102
RTVSPost2010PropOp36
 70
     1
102
RTVSPost2010Prop37
 90
       50
102
RTVSPost2010PropOp37
 70
     0
102
RTVSPost2010Prop38
140
0.0
102
RTVSPost2010PropOp38
 70
     0
102
RTVSPost2010Prop39
140
1.0
102
RTVSPost2010PropOp39
 70
     0
102
RTVSPost2010Prop40
 90
        0
102
RTVSPost2010PropOp40
 70
     0
102
RTVSPost2010Prop41ColorIndex
 90
       18
102
RTVSPost2010Prop41ColorRGB
 90
        0
102
RTVSPost2010PropOp41
 70
     0
102
RTVSPost2010Prop42
 90
       50
102
RTVSPost2010PropOp42
 70
     0
102
RTVSPost2010Prop43
 90
        3
102
RTVSPost2010PropOp43
 70
     0
102
RTVSPost2010Prop44ColorIndex
 90
        5
102
RTVSPost2010Prop44ColorRGB
 90
      255
102
RTVSPost2010PropOp44
 70
     0
102
RTVSPost2010Prop45
280
     0
102
RTVSPost2010PropOp45
 70
     1
102
RTVSPost2010Prop46
 90
       50
102
RTVSPost2010PropOp46
 70
     0
102
RTVSPost2010Prop47
 90
       50
102
RTVSPost2010PropOp47
 70
     0
102
RTVSPost2010Prop48
 90
       50
102
RTVSPost2010PropOp48
 70
     0
102
RTVSPost2010Prop49
280
     0
102
RTVSPost2010PropOp49
 70
     1
102
RTVSPost2010Prop50
 90
       50
102
RTVSPost2010PropOp50
 70
     0
102
RTVSPost2010Prop51ColorIndex
 90
      256
102
RTVSPost2010Prop51ColorRGB
 90
-16777216
102
RTVSPost2010PropOp51
 70
     0
102
RTVSPost2010Prop52
140
1.0
102
RTVSPost2010PropOp52
 70
     0
102
RTVSPost2010Prop53
 90
        2
102
RTVSPost2010PropOp53
 70
     0
102
RTVSPost2010Prop54
  1
strokes_ogs.tif
102
RTVSPost2010PropOp54
 70
     0
102
RTVSPost2010Prop55
280
     0
102
RTVSPost2010PropOp55
 70
     1
102
RTVSPost2010Prop56
140
1.0
102
RTVSPost2010PropOp56
 70
     0
102
RTVSPost2010Prop57
140
1.0
102
RTVSPost2010PropOp57
 70
     0
102
RTVSPropertyOp0
 70
     0
102
RTVSPropertyOp1
 70
     0
102
RTVSPropertyOp2
 70
     0
102
RTVSPropertyOp3
 70
     0
102
RTVSPropertyOp4
 70
     0
102
RTVSPropertyOp5
 70
     0
102
RTVSPropertyOp6
 70
     0
102
RTVSPropertyOp7
 70
     0
102
RTVSPropertyOp8
 70
     0
102
RTVSPropertyOp9
 70
     0
102
RTVSPropertyOp10
 70
     0
102
RTVSPropertyOp11
 70
     0
102
RTVSPropertyOp12
 70
     0
102
RTVSPropertyOp13
 70
     0
102
RTVSPropertyOp14
 70
     2
102
RTVSPropertyOp15
 70
     0
102
RTVSPropertyOp16
 70
     0
102
RTVSPropertyOp17
 70
     0
102
RTVSPropertyOp18
 70
     0
102
RTVSPropertyOp19
 70
     0
102
RTVSPropertyOp20
 70
     0
102
RTVSPropertyOp21
 70
     0
102
RTVSPropertyOp22
 70
     0
102
RTVSPropertyOp23
 70
     0
102
RTVSPropertyOp24
 70
     0
102
RTVSPropertyOp25
 70
     0
102
RTVSPropertyOp26
 70
     0
102
RTVSPropertyOp27
 70
     0
102
RTVSPropertyOp28
 70
     1
102
RTVSPropertyOp29
 70
     1
102
RTVSPropertyOp30
 70
     1
102
RTVSPropertyOp31
 70
     1
102
RTVSPropertyOp32
 70
     1
102
RTVSPropertyOp33
 70
     1
102
RTVSPropertyOp34
 70
     1
102
RTVSPropertyOp35
 70
     1
102
RTVSPropertyOp36
 70
     1
102
RTVSPropertyOp37
 70
     0
102
RTVSPropertyOp38
 70
     0
102
RTVSPropertyOp39
 70
     0
102
RTVSPropertyOp40
 70
     0
102
RTVSPropertyOp41
 70
     0
102
RTVSPropertyOp42
 70
     0
102
RTVSPropertyOp43
 70
     0
102
RTVSPropertyOp44
 70
     0
102
RTVSPropertyOp45
 70
     1
102
RTVSPropertyOp46
 70
     0
102
RTVSPropertyOp47
 70
     0
102
RTVSPropertyOp48
 70
     0
102
RTVSPropertyOp49
 70
     1
102
RTVSPropertyOp50
 70
     0
102
RTVSPropertyOp51
 70
     0
102
RTVSPropertyOp52
 70
     0
102
RTVSPropertyOp53
 70
     0
102
RTVSPropertyOp54
 70
     0
102
RTVSPropertyOp55
 70
     1
102
RTVSPropertyOp56
 70
     0
102
RTVSPropertyOp57
 70
     0
102
RTVSPropertyOp58
 70
     0
102
RTVSPropertyOp59
 70
     0
102
RTVSPropertyOp60
 70
     0
102
RTVSPropertyOp61
 70
     0
102
RTVSPropertyOp62
 70
     0
  0
XRECORD
  5
CB4
102
{ACAD_REACTORS
330
CB3
102
}
330
CB3
100
AcDbXrecord
280
     1
102
RTVSPost2010Prop28
280
     0
102
RTVSPost2010PropOp28
 70
     1
102
RTVSPost2010Prop29
280
     1
102
RTVSPost2010PropOp29
 70
     1
102
RTVSPost2010Prop30
280
     1
102
RTVSPost2010PropOp30
 70
     1
102
RTVSPost2010Prop31
280
     0
102
RTVSPost2010PropOp31
 70
     1
102
RTVSPost2010Prop32
280
     0
102
RTVSPost2010PropOp32
 70
     1
102
RTVSPost2010Prop33
280
     0
102
RTVSPost2010PropOp33
 70
     1
102
RTVSPost2010Prop34
280
     0
102
RTVSPost2010PropOp34
 70
     1
102
RTVSPost2010Prop35
280
     0
102
RTVSPost2010PropOp35
 70
     1
102
RTVSPost2010Prop36
280
     0
102
RTVSPost2010PropOp36
 70
     1
102
RTVSPost2010Prop37
 90
       50
102
RTVSPost2010PropOp37
 70
     1
102
RTVSPost2010Prop38
140
0.0
102
RTVSPost2010PropOp38
 70
     1
102
RTVSPost2010Prop39
140
1.0
102
RTVSPost2010PropOp39
 70
     1
102
RTVSPost2010Prop40
 90
        0
102
RTVSPost2010PropOp40
 70
     1
102
RTVSPost2010Prop41ColorIndex
 90
       18
102
RTVSPost2010Prop41ColorRGB
 90
        0
102
RTVSPost2010PropOp41
 70
     1
102
RTVSPost2010Prop42
 90
       50
102
RTVSPost2010PropOp42
 70
     1
102
RTVSPost2010Prop43
 90
        3
102
RTVSPost2010PropOp43
 70
     1
102
RTVSPost2010Prop44ColorIndex
 90
        5
102
RTVSPost2010Prop44ColorRGB
 90
      255
102
RTVSPost2010PropOp44
 70
     1
102
RTVSPost2010Prop45
280
     0
102
RTVSPost2010PropOp45
 70
     1
102
RTVSPost2010Prop46
 90
       50
102
RTVSPost2010PropOp46
 70
     1
102
RTVSPost2010Prop47
 90
       50
102
RTVSPost2010PropOp47
 70
     1
102
RTVSPost2010Prop48
 90
       50
102
RTVSPost2010PropOp48
 70
     1
102
RTVSPost2010Prop49
280
     0
102
RTVSPost2010PropOp49
 70
     1
102
RTVSPost2010Prop50
 90
       50
102
RTVSPost2010PropOp50
 70
     1
102
RTVSPost2010Prop51ColorIndex
 90
      256
102
RTVSPost2010Prop51ColorRGB
 90
-16777216
102
RTVSPost2010PropOp51
 70
     0
102
RTVSPost2010Prop52
140
1.0
102
RTVSPost2010PropOp52
 70
     0
102
RTVSPost2010Prop53
 90
        2
102
RTVSPost2010PropOp53
 70
     1
102
RTVSPost2010Prop54
  1
strokes_ogs.tif
102
RTVSPost2010PropOp54
 70
     1
102
RTVSPost2010Prop55
280
     0
102
RTVSPost2010PropOp55
 70
     1
102
RTVSPost2010Prop56
140
1.0
102
RTVSPost2010PropOp56
 70
     1
102
RTVSPost2010Prop57
140
1.0
102
RTVSPost2010PropOp57
 70
     1
102
RTVSPropertyOp0
 70
     1
102
RTVSPropertyOp1
 70
     1
102
RTVSPropertyOp2
 70
     1
102
RTVSPropertyOp3
 70
     1
102
RTVSPropertyOp4
 70
     1
102
RTVSPropertyOp5
 70
     1
102
RTVSPropertyOp6
 70
     1
102
RTVSPropertyOp7
 70
     1
102
RTVSPropertyOp8
 70
     1
102
RTVSPropertyOp9
 70
     1
102
RTVSPropertyOp10
 70
     1
102
RTVSPropertyOp11
 70
     1
102
RTVSPropertyOp12
 70
     1
102
RTVSPropertyOp13
 70
     1
102
RTVSPropertyOp14
 70
     1
102
RTVSPropertyOp15
 70
     1
102
RTVSPropertyOp16
 70
     1
102
RTVSPropertyOp17
 70
     1
102
RTVSPropertyOp18
 70
     1
102
RTVSPropertyOp19
 70
     1
102
RTVSPropertyOp20
 70
     1
102
RTVSPropertyOp21
 70
     1
102
RTVSPropertyOp22
 70
     1
102
RTVSPropertyOp23
 70
     1
102
RTVSPropertyOp24
 70
     1
102
RTVSPropertyOp25
 70
     1
102
RTVSPropertyOp26
 70
     1
102
RTVSPropertyOp27
 70
     1
102
RTVSPropertyOp28
 70
     1
102
RTVSPropertyOp29
 70
     1
102
RTVSPropertyOp30
 70
     1
102
RTVSPropertyOp31
 70
     1
102
RTVSPropertyOp32
 70
     1
102
RTVSPropertyOp33
 70
     1
102
RTVSPropertyOp34
 70
     1
102
RTVSPropertyOp35
 70
     1
102
RTVSPropertyOp36
 70
     1
102
RTVSPropertyOp37
 70
     1
102
RTVSPropertyOp38
 70
     1
102
RTVSPropertyOp39
 70
     1
102
RTVSPropertyOp40
 70
     1
102
RTVSPropertyOp41
 70
     1
102
RTVSPropertyOp42
 70
     1
102
RTVSPropertyOp43
 70
     1
102
RTVSPropertyOp44
 70
     1
102
RTVSPropertyOp45
 70
     1
102
RTVSPropertyOp46
 70
     1
102
RTVSPropertyOp47
 70
     1
102
RTVSPropertyOp48
 70
     1
102
RTVSPropertyOp49
 70
     1
102
RTVSPropertyOp50
 70
     1
102
RTVSPropertyOp51
 70
     0
102
RTVSPropertyOp52
 70
     0
102
RTVSPropertyOp53
 70
     1
102
RTVSPropertyOp54
 70
     1
102
RTVSPropertyOp55
 70
     1
102
RTVSPropertyOp56
 70
     1
102
RTVSPropertyOp57
 70
     1
102
RTVSPropertyOp58
 70
     1
102
RTVSPropertyOp59
 70
     1
102
RTVSPropertyOp60
 70
     1
102
RTVSPropertyOp61
 70
     1
102
RTVSPropertyOp62
 70
     1
  0
XRECORD
  5
C98
102
{ACAD_REACTORS
330
C97
102
}
330
C97
100
AcDbXrecord
280
     1
102
RTVSPost2010Prop28
280
     0
102
RTVSPost2010PropOp28
 70
     1
102
RTVSPost2010Prop29
280
     1
102
RTVSPost2010PropOp29
 70
     1
102
RTVSPost2010Prop30
280
     1
102
RTVSPost2010PropOp30
 70
     1
102
RTVSPost2010Prop31
280
     0
102
RTVSPost2010PropOp31
 70
     1
102
RTVSPost2010Prop32
280
     0
102
RTVSPost2010PropOp32
 70
     1
102
RTVSPost2010Prop33
280
     0
102
RTVSPost2010PropOp33
 70
     1
102
RTVSPost2010Prop34
280
     0
102
RTVSPost2010PropOp34
 70
     1
102
RTVSPost2010Prop35
280
     0
102
RTVSPost2010PropOp35
 70
     1
102
RTVSPost2010Prop36
280
     0
102
RTVSPost2010PropOp36
 70
     1
102
RTVSPost2010Prop37
 90
       50
102
RTVSPost2010PropOp37
 70
     1
102
RTVSPost2010Prop38
140
0.0
102
RTVSPost2010PropOp38
 70
     1
102
RTVSPost2010Prop39
140
1.0
102
RTVSPost2010PropOp39
 70
     1
102
RTVSPost2010Prop40
 90
        0
102
RTVSPost2010PropOp40
 70
     1
102
RTVSPost2010Prop41ColorIndex
 90
       18
102
RTVSPost2010Prop41ColorRGB
 90
        0
102
RTVSPost2010PropOp41
 70
     1
102
RTVSPost2010Prop42
 90
       50
102
RTVSPost2010PropOp42
 70
     1
102
RTVSPost2010Prop43
 90
        3
102
RTVSPost2010PropOp43
 70
     1
102
RTVSPost2010Prop44ColorIndex
 90
        5
102
RTVSPost2010Prop44ColorRGB
 90
      255
102
RTVSPost2010PropOp44
 70
     1
102
RTVSPost2010Prop45
280
     0
102
RTVSPost2010PropOp45
 70
     1
102
RTVSPost2010Prop46
 90
       50
102
RTVSPost2010PropOp46
 70
     1
102
RTVSPost2010Prop47
 90
       50
102
RTVSPost2010PropOp47
 70
     1
102
RTVSPost2010Prop48
 90
       50
102
RTVSPost2010PropOp48
 70
     1
102
RTVSPost2010Prop49
280
     0
102
RTVSPost2010PropOp49
 70
     1
102
RTVSPost2010Prop50
 90
       50
102
RTVSPost2010PropOp50
 70
     1
102
RTVSPost2010Prop51ColorIndex
 90
      256
102
RTVSPost2010Prop51ColorRGB
 90
-16777216
102
RTVSPost2010PropOp51
 70
     0
102
RTVSPost2010Prop52
140
1.0
102
RTVSPost2010PropOp52
 70
     0
102
RTVSPost2010Prop53
 90
        2
102
RTVSPost2010PropOp53
 70
     1
102
RTVSPost2010Prop54
  1
strokes_ogs.tif
102
RTVSPost2010PropOp54
 70
     1
102
RTVSPost2010Prop55
280
     0
102
RTVSPost2010PropOp55
 70
     1
102
RTVSPost2010Prop56
140
1.0
102
RTVSPost2010PropOp56
 70
     1
102
RTVSPost2010Prop57
140
1.0
102
RTVSPost2010PropOp57
 70
     1
102
RTVSPropertyOp0
 70
     1
102
RTVSPropertyOp1
 70
     1
102
RTVSPropertyOp2
 70
     1
102
RTVSPropertyOp3
 70
     1
102
RTVSPropertyOp4
 70
     1
102
RTVSPropertyOp5
 70
     1
102
RTVSPropertyOp6
 70
     1
102
RTVSPropertyOp7
 70
     1
102
RTVSPropertyOp8
 70
     1
102
RTVSPropertyOp9
 70
     1
102
RTVSPropertyOp10
 70
     1
102
RTVSPropertyOp11
 70
     1
102
RTVSPropertyOp12
 70
     1
102
RTVSPropertyOp13
 70
     1
102
RTVSPropertyOp14
 70
     1
102
RTVSPropertyOp15
 70
     1
102
RTVSPropertyOp16
 70
     1
102
RTVSPropertyOp17
 70
     1
102
RTVSPropertyOp18
 70
     1
102
RTVSPropertyOp19
 70
     1
102
RTVSPropertyOp20
 70
     1
102
RTVSPropertyOp21
 70
     1
102
RTVSPropertyOp22
 70
     1
102
RTVSPropertyOp23
 70
     1
102
RTVSPropertyOp24
 70
     1
102
RTVSPropertyOp25
 70
     1
102
RTVSPropertyOp26
 70
     1
102
RTVSPropertyOp27
 70
     1
102
RTVSPropertyOp28
 70
     1
102
RTVSPropertyOp29
 70
     1
102
RTVSPropertyOp30
 70
     1
102
RTVSPropertyOp31
 70
     1
102
RTVSPropertyOp32
 70
     1
102
RTVSPropertyOp33
 70
     1
102
RTVSPropertyOp34
 70
     1
102
RTVSPropertyOp35
 70
     1
102
RTVSPropertyOp36
 70
     1
102
RTVSPropertyOp37
 70
     1
102
RTVSPropertyOp38
 70
     1
102
RTVSPropertyOp39
 70
     1
102
RTVSPropertyOp40
 70
     1
102
RTVSPropertyOp41
 70
     1
102
RTVSPropertyOp42
 70
     1
102
RTVSPropertyOp43
 70
     1
102
RTVSPropertyOp44
 70
     1
102
RTVSPropertyOp45
 70
     1
102
RTVSPropertyOp46
 70
     1
102
RTVSPropertyOp47
 70
     1
102
RTVSPropertyOp48
 70
     1
102
RTVSPropertyOp49
 70
     1
102
RTVSPropertyOp50
 70
     1
102
RTVSPropertyOp51
 70
     0
102
RTVSPropertyOp52
 70
     0
102
RTVSPropertyOp53
 70
     1
102
RTVSPropertyOp54
 70
     1
102
RTVSPropertyOp55
 70
     1
102
RTVSPropertyOp56
 70
     1
102
RTVSPropertyOp57
 70
     1
102
RTVSPropertyOp58
 70
     1
102
RTVSPropertyOp59
 70
     1
102
RTVSPropertyOp60
 70
     1
102
RTVSPropertyOp61
 70
     1
102
RTVSPropertyOp62
 70
     1
  0
XRECORD
  5
C9A
102
{ACAD_REACTORS
330
C99
102
}
330
C99
100
AcDbXrecord
280
     1
102
RTVSPost2010Prop28
280
     0
102
RTVSPost2010PropOp28
 70
     1
102
RTVSPost2010Prop29
280
     1
102
RTVSPost2010PropOp29
 70
     1
102
RTVSPost2010Prop30
280
     1
102
RTVSPost2010PropOp30
 70
     1
102
RTVSPost2010Prop31
280
     0
102
RTVSPost2010PropOp31
 70
     1
102
RTVSPost2010Prop32
280
     0
102
RTVSPost2010PropOp32
 70
     1
102
RTVSPost2010Prop33
280
     0
102
RTVSPost2010PropOp33
 70
     1
102
RTVSPost2010Prop34
280
     0
102
RTVSPost2010PropOp34
 70
     1
102
RTVSPost2010Prop35
280
     0
102
RTVSPost2010PropOp35
 70
     1
102
RTVSPost2010Prop36
280
     0
102
RTVSPost2010PropOp36
 70
     1
102
RTVSPost2010Prop37
 90
       50
102
RTVSPost2010PropOp37
 70
     1
102
RTVSPost2010Prop38
140
0.0
102
RTVSPost2010PropOp38
 70
     1
102
RTVSPost2010Prop39
140
1.0
102
RTVSPost2010PropOp39
 70
     1
102
RTVSPost2010Prop40
 90
        0
102
RTVSPost2010PropOp40
 70
     1
102
RTVSPost2010Prop41ColorIndex
 90
       18
102
RTVSPost2010Prop41ColorRGB
 90
        0
102
RTVSPost2010PropOp41
 70
     1
102
RTVSPost2010Prop42
 90
       50
102
RTVSPost2010PropOp42
 70
     1
102
RTVSPost2010Prop43
 90
        3
102
RTVSPost2010PropOp43
 70
     1
102
RTVSPost2010Prop44ColorIndex
 90
        5
102
RTVSPost2010Prop44ColorRGB
 90
      255
102
RTVSPost2010PropOp44
 70
     1
102
RTVSPost2010Prop45
280
     0
102
RTVSPost2010PropOp45
 70
     1
102
RTVSPost2010Prop46
 90
       50
102
RTVSPost2010PropOp46
 70
     1
102
RTVSPost2010Prop47
 90
       50
102
RTVSPost2010PropOp47
 70
     1
102
RTVSPost2010Prop48
 90
       50
102
RTVSPost2010PropOp48
 70
     1
102
RTVSPost2010Prop49
280
     0
102
RTVSPost2010PropOp49
 70
     1
102
RTVSPost2010Prop50
 90
       50
102
RTVSPost2010PropOp50
 70
     1
102
RTVSPost2010Prop51ColorIndex
 90
      256
102
RTVSPost2010Prop51ColorRGB
 90
-16777216
102
RTVSPost2010PropOp51
 70
     0
102
RTVSPost2010Prop52
140
1.0
102
RTVSPost2010PropOp52
 70
     0
102
RTVSPost2010Prop53
 90
        2
102
RTVSPost2010PropOp53
 70
     1
102
RTVSPost2010Prop54
  1
strokes_ogs.tif
102
RTVSPost2010PropOp54
 70
     1
102
RTVSPost2010Prop55
280
     0
102
RTVSPost2010PropOp55
 70
     1
102
RTVSPost2010Prop56
140
1.0
102
RTVSPost2010PropOp56
 70
     1
102
RTVSPost2010Prop57
140
1.0
102
RTVSPost2010PropOp57
 70
     1
102
RTVSPropertyOp0
 70
     1
102
RTVSPropertyOp1
 70
     1
102
RTVSPropertyOp2
 70
     1
102
RTVSPropertyOp3
 70
     1
102
RTVSPropertyOp4
 70
     1
102
RTVSPropertyOp5
 70
     1
102
RTVSPropertyOp6
 70
     1
102
RTVSPropertyOp7
 70
     1
102
RTVSPropertyOp8
 70
     1
102
RTVSPropertyOp9
 70
     1
102
RTVSPropertyOp10
 70
     1
102
RTVSPropertyOp11
 70
     1
102
RTVSPropertyOp12
 70
     1
102
RTVSPropertyOp13
 70
     1
102
RTVSPropertyOp14
 70
     1
102
RTVSPropertyOp15
 70
     1
102
RTVSPropertyOp16
 70
     1
102
RTVSPropertyOp17
 70
     1
102
RTVSPropertyOp18
 70
     1
102
RTVSPropertyOp19
 70
     1
102
RTVSPropertyOp20
 70
     1
102
RTVSPropertyOp21
 70
     1
102
RTVSPropertyOp22
 70
     1
102
RTVSPropertyOp23
 70
     1
102
RTVSPropertyOp24
 70
     1
102
RTVSPropertyOp25
 70
     1
102
RTVSPropertyOp26
 70
     1
102
RTVSPropertyOp27
 70
     1
102
RTVSPropertyOp28
 70
     1
102
RTVSPropertyOp29
 70
     1
102
RTVSPropertyOp30
 70
     1
102
RTVSPropertyOp31
 70
     1
102
RTVSPropertyOp32
 70
     1
102
RTVSPropertyOp33
 70
     1
102
RTVSPropertyOp34
 70
     1
102
RTVSPropertyOp35
 70
     1
102
RTVSPropertyOp36
 70
     1
102
RTVSPropertyOp37
 70
     1
102
RTVSPropertyOp38
 70
     1
102
RTVSPropertyOp39
 70
     1
102
RTVSPropertyOp40
 70
     1
102
RTVSPropertyOp41
 70
     1
102
RTVSPropertyOp42
 70
     1
102
RTVSPropertyOp43
 70
     1
102
RTVSPropertyOp44
 70
     1
102
RTVSPropertyOp45
 70
     1
102
RTVSPropertyOp46
 70
     1
102
RTVSPropertyOp47
 70
     1
102
RTVSPropertyOp48
 70
     1
102
RTVSPropertyOp49
 70
     1
102
RTVSPropertyOp50
 70
     1
102
RTVSPropertyOp51
 70
     0
102
RTVSPropertyOp52
 70
     0
102
RTVSPropertyOp53
 70
     1
102
RTVSPropertyOp54
 70
     1
102
RTVSPropertyOp55
 70
     1
102
RTVSPropertyOp56
 70
     1
102
RTVSPropertyOp57
 70
     1
102
RTVSPropertyOp58
 70
     1
102
RTVSPropertyOp59
 70
     1
102
RTVSPropertyOp60
 70
     1
102
RTVSPropertyOp61
 70
     1
102
RTVSPropertyOp62
 70
     1
  0
XRECORD
  5
C9C
102
{ACAD_REACTORS
330
C9B
102
}
330
C9B
100
AcDbXrecord
280
     1
102
RTVSPost2010Prop28
280
     0
102
RTVSPost2010PropOp28
 70
     1
102
RTVSPost2010Prop29
280
     1
102
RTVSPost2010PropOp29
 70
     1
102
RTVSPost2010Prop30
280
     1
102
RTVSPost2010PropOp30
 70
     1
102
RTVSPost2010Prop31
280
     0
102
RTVSPost2010PropOp31
 70
     1
102
RTVSPost2010Prop32
280
     0
102
RTVSPost2010PropOp32
 70
     1
102
RTVSPost2010Prop33
280
     0
102
RTVSPost2010PropOp33
 70
     1
102
RTVSPost2010Prop34
280
     0
102
RTVSPost2010PropOp34
 70
     1
102
RTVSPost2010Prop35
280
     0
102
RTVSPost2010PropOp35
 70
     1
102
RTVSPost2010Prop36
280
     0
102
RTVSPost2010PropOp36
 70
     1
102
RTVSPost2010Prop37
 90
       50
102
RTVSPost2010PropOp37
 70
     1
102
RTVSPost2010Prop38
140
0.0
102
RTVSPost2010PropOp38
 70
     1
102
RTVSPost2010Prop39
140
1.0
102
RTVSPost2010PropOp39
 70
     1
102
RTVSPost2010Prop40
 90
        0
102
RTVSPost2010PropOp40
 70
     1
102
RTVSPost2010Prop41ColorIndex
 90
       18
102
RTVSPost2010Prop41ColorRGB
 90
        0
102
RTVSPost2010PropOp41
 70
     1
102
RTVSPost2010Prop42
 90
       50
102
RTVSPost2010PropOp42
 70
     1
102
RTVSPost2010Prop43
 90
        3
102
RTVSPost2010PropOp43
 70
     1
102
RTVSPost2010Prop44ColorIndex
 90
        5
102
RTVSPost2010Prop44ColorRGB
 90
      255
102
RTVSPost2010PropOp44
 70
     1
102
RTVSPost2010Prop45
280
     0
102
RTVSPost2010PropOp45
 70
     1
102
RTVSPost2010Prop46
 90
       50
102
RTVSPost2010PropOp46
 70
     1
102
RTVSPost2010Prop47
 90
       50
102
RTVSPost2010PropOp47
 70
     1
102
RTVSPost2010Prop48
 90
       50
102
RTVSPost2010PropOp48
 70
     1
102
RTVSPost2010Prop49
280
     0
102
RTVSPost2010PropOp49
 70
     1
102
RTVSPost2010Prop50
 90
       50
102
RTVSPost2010PropOp50
 70
     1
102
RTVSPost2010Prop51ColorIndex
 90
      256
102
RTVSPost2010Prop51ColorRGB
 90
-16777216
102
RTVSPost2010PropOp51
 70
     0
102
RTVSPost2010Prop52
140
1.0
102
RTVSPost2010PropOp52
 70
     0
102
RTVSPost2010Prop53
 90
        2
102
RTVSPost2010PropOp53
 70
     1
102
RTVSPost2010Prop54
  1
strokes_ogs.tif
102
RTVSPost2010PropOp54
 70
     1
102
RTVSPost2010Prop55
280
     0
102
RTVSPost2010PropOp55
 70
     1
102
RTVSPost2010Prop56
140
1.0
102
RTVSPost2010PropOp56
 70
     1
102
RTVSPost2010Prop57
140
1.0
102
RTVSPost2010PropOp57
 70
     1
102
RTVSPropertyOp0
 70
     1
102
RTVSPropertyOp1
 70
     1
102
RTVSPropertyOp2
 70
     1
102
RTVSPropertyOp3
 70
     1
102
RTVSPropertyOp4
 70
     1
102
RTVSPropertyOp5
 70
     1
102
RTVSPropertyOp6
 70
     1
102
RTVSPropertyOp7
 70
     1
102
RTVSPropertyOp8
 70
     1
102
RTVSPropertyOp9
 70
     1
102
RTVSPropertyOp10
 70
     1
102
RTVSPropertyOp11
 70
     1
102
RTVSPropertyOp12
 70
     1
102
RTVSPropertyOp13
 70
     1
102
RTVSPropertyOp14
 70
     1
102
RTVSPropertyOp15
 70
     1
102
RTVSPropertyOp16
 70
     1
102
RTVSPropertyOp17
 70
     1
102
RTVSPropertyOp18
 70
     1
102
RTVSPropertyOp19
 70
     1
102
RTVSPropertyOp20
 70
     1
102
RTVSPropertyOp21
 70
     1
102
RTVSPropertyOp22
 70
     1
102
RTVSPropertyOp23
 70
     1
102
RTVSPropertyOp24
 70
     1
102
RTVSPropertyOp25
 70
     1
102
RTVSPropertyOp26
 70
     1
102
RTVSPropertyOp27
 70
     1
102
RTVSPropertyOp28
 70
     1
102
RTVSPropertyOp29
 70
     1
102
RTVSPropertyOp30
 70
     1
102
RTVSPropertyOp31
 70
     1
102
RTVSPropertyOp32
 70
     1
102
RTVSPropertyOp33
 70
     1
102
RTVSPropertyOp34
 70
     1
102
RTVSPropertyOp35
 70
     1
102
RTVSPropertyOp36
 70
     1
102
RTVSPropertyOp37
 70
     1
102
RTVSPropertyOp38
 70
     1
102
RTVSPropertyOp39
 70
     1
102
RTVSPropertyOp40
 70
     1
102
RTVSPropertyOp41
 70
     1
102
RTVSPropertyOp42
 70
     1
102
RTVSPropertyOp43
 70
     1
102
RTVSPropertyOp44
 70
     1
102
RTVSPropertyOp45
 70
     1
102
RTVSPropertyOp46
 70
     1
102
RTVSPropertyOp47
 70
     1
102
RTVSPropertyOp48
 70
     1
102
RTVSPropertyOp49
 70
     1
102
RTVSPropertyOp50
 70
     1
102
RTVSPropertyOp51
 70
     0
102
RTVSPropertyOp52
 70
     0
102
RTVSPropertyOp53
 70
     1
102
RTVSPropertyOp54
 70
     1
102
RTVSPropertyOp55
 70
     1
102
RTVSPropertyOp56
 70
     1
102
RTVSPropertyOp57
 70
     1
102
RTVSPropertyOp58
 70
     1
102
RTVSPropertyOp59
 70
     1
102
RTVSPropertyOp60
 70
     1
102
RTVSPropertyOp61
 70
     1
102
RTVSPropertyOp62
 70
     1
  0
XRECORD
  5
C9E
102
{ACAD_REACTORS
330
C9D
102
}
330
C9D
100
AcDbXrecord
280
     1
102
RTVSPost2010Prop28
280
     0
102
RTVSPost2010PropOp28
 70
     1
102
RTVSPost2010Prop29
280
     1
102
RTVSPost2010PropOp29
 70
     1
102
RTVSPost2010Prop30
280
     1
102
RTVSPost2010PropOp30
 70
     1
102
RTVSPost2010Prop31
280
     0
102
RTVSPost2010PropOp31
 70
     1
102
RTVSPost2010Prop32
280
     0
102
RTVSPost2010PropOp32
 70
     1
102
RTVSPost2010Prop33
280
     0
102
RTVSPost2010PropOp33
 70
     1
102
RTVSPost2010Prop34
280
     0
102
RTVSPost2010PropOp34
 70
     1
102
RTVSPost2010Prop35
280
     0
102
RTVSPost2010PropOp35
 70
     1
102
RTVSPost2010Prop36
280
     0
102
RTVSPost2010PropOp36
 70
     1
102
RTVSPost2010Prop37
 90
       50
102
RTVSPost2010PropOp37
 70
     1
102
RTVSPost2010Prop38
140
0.0
102
RTVSPost2010PropOp38
 70
     1
102
RTVSPost2010Prop39
140
1.0
102
RTVSPost2010PropOp39
 70
     1
102
RTVSPost2010Prop40
 90
        0
102
RTVSPost2010PropOp40
 70
     1
102
RTVSPost2010Prop41ColorIndex
 90
       18
102
RTVSPost2010Prop41ColorRGB
 90
        0
102
RTVSPost2010PropOp41
 70
     1
102
RTVSPost2010Prop42
 90
       50
102
RTVSPost2010PropOp42
 70
     1
102
RTVSPost2010Prop43
 90
        3
102
RTVSPost2010PropOp43
 70
     1
102
RTVSPost2010Prop44ColorIndex
 90
        5
102
RTVSPost2010Prop44ColorRGB
 90
      255
102
RTVSPost2010PropOp44
 70
     1
102
RTVSPost2010Prop45
280
     0
102
RTVSPost2010PropOp45
 70
     1
102
RTVSPost2010Prop46
 90
       50
102
RTVSPost2010PropOp46
 70
     1
102
RTVSPost2010Prop47
 90
       50
102
RTVSPost2010PropOp47
 70
     1
102
RTVSPost2010Prop48
 90
       50
102
RTVSPost2010PropOp48
 70
     1
102
RTVSPost2010Prop49
280
     0
102
RTVSPost2010PropOp49
 70
     1
102
RTVSPost2010Prop50
 90
       50
102
RTVSPost2010PropOp50
 70
     1
102
RTVSPost2010Prop51ColorIndex
 90
      256
102
RTVSPost2010Prop51ColorRGB
 90
-16777216
102
RTVSPost2010PropOp51
 70
     0
102
RTVSPost2010Prop52
140
1.0
102
RTVSPost2010PropOp52
 70
     0
102
RTVSPost2010Prop53
 90
        2
102
RTVSPost2010PropOp53
 70
     1
102
RTVSPost2010Prop54
  1
strokes_ogs.tif
102
RTVSPost2010PropOp54
 70
     1
102
RTVSPost2010Prop55
280
     0
102
RTVSPost2010PropOp55
 70
     1
102
RTVSPost2010Prop56
140
1.0
102
RTVSPost2010PropOp56
 70
     1
102
RTVSPost2010Prop57
140
1.0
102
RTVSPost2010PropOp57
 70
     1
102
RTVSPropertyOp0
 70
     1
102
RTVSPropertyOp1
 70
     1
102
RTVSPropertyOp2
 70
     1
102
RTVSPropertyOp3
 70
     1
102
RTVSPropertyOp4
 70
     1
102
RTVSPropertyOp5
 70
     1
102
RTVSPropertyOp6
 70
     1
102
RTVSPropertyOp7
 70
     1
102
RTVSPropertyOp8
 70
     1
102
RTVSPropertyOp9
 70
     1
102
RTVSPropertyOp10
 70
     1
102
RTVSPropertyOp11
 70
     1
102
RTVSPropertyOp12
 70
     1
102
RTVSPropertyOp13
 70
     1
102
RTVSPropertyOp14
 70
     1
102
RTVSPropertyOp15
 70
     1
102
RTVSPropertyOp16
 70
     1
102
RTVSPropertyOp17
 70
     1
102
RTVSPropertyOp18
 70
     1
102
RTVSPropertyOp19
 70
     1
102
RTVSPropertyOp20
 70
     1
102
RTVSPropertyOp21
 70
     1
102
RTVSPropertyOp22
 70
     1
102
RTVSPropertyOp23
 70
     1
102
RTVSPropertyOp24
 70
     1
102
RTVSPropertyOp25
 70
     1
102
RTVSPropertyOp26
 70
     1
102
RTVSPropertyOp27
 70
     1
102
RTVSPropertyOp28
 70
     1
102
RTVSPropertyOp29
 70
     1
102
RTVSPropertyOp30
 70
     1
102
RTVSPropertyOp31
 70
     1
102
RTVSPropertyOp32
 70
     1
102
RTVSPropertyOp33
 70
     1
102
RTVSPropertyOp34
 70
     1
102
RTVSPropertyOp35
 70
     1
102
RTVSPropertyOp36
 70
     1
102
RTVSPropertyOp37
 70
     1
102
RTVSPropertyOp38
 70
     1
102
RTVSPropertyOp39
 70
     1
102
RTVSPropertyOp40
 70
     1
102
RTVSPropertyOp41
 70
     1
102
RTVSPropertyOp42
 70
     1
102
RTVSPropertyOp43
 70
     1
102
RTVSPropertyOp44
 70
     1
102
RTVSPropertyOp45
 70
     1
102
RTVSPropertyOp46
 70
     1
102
RTVSPropertyOp47
 70
     1
102
RTVSPropertyOp48
 70
     1
102
RTVSPropertyOp49
 70
     1
102
RTVSPropertyOp50
 70
     1
102
RTVSPropertyOp51
 70
     0
102
RTVSPropertyOp52
 70
     0
102
RTVSPropertyOp53
 70
     1
102
RTVSPropertyOp54
 70
     1
102
RTVSPropertyOp55
 70
     1
102
RTVSPropertyOp56
 70
     1
102
RTVSPropertyOp57
 70
     1
102
RTVSPropertyOp58
 70
     1
102
RTVSPropertyOp59
 70
     1
102
RTVSPropertyOp60
 70
     1
102
RTVSPropertyOp61
 70
     1
102
RTVSPropertyOp62
 70
     1
  0
XRECORD
  5
CA6
102
{ACAD_REACTORS
330
CA5
102
}
330
CA5
100
AcDbXrecord
280
     1
102
RTVSPost2010Prop28
280
     0
102
RTVSPost2010PropOp28
 70
     1
102
RTVSPost2010Prop29
280
     1
102
RTVSPost2010PropOp29
 70
     1
102
RTVSPost2010Prop30
280
     1
102
RTVSPost2010PropOp30
 70
     1
102
RTVSPost2010Prop31
280
     0
102
RTVSPost2010PropOp31
 70
     1
102
RTVSPost2010Prop32
280
     0
102
RTVSPost2010PropOp32
 70
     1
102
RTVSPost2010Prop33
280
     0
102
RTVSPost2010PropOp33
 70
     1
102
RTVSPost2010Prop34
280
     0
102
RTVSPost2010PropOp34
 70
     1
102
RTVSPost2010Prop35
280
     0
102
RTVSPost2010PropOp35
 70
     1
102
RTVSPost2010Prop36
280
     0
102
RTVSPost2010PropOp36
 70
     1
102
RTVSPost2010Prop37
 90
       50
102
RTVSPost2010PropOp37
 70
     1
102
RTVSPost2010Prop38
140
0.0
102
RTVSPost2010PropOp38
 70
     1
102
RTVSPost2010Prop39
140
1.0
102
RTVSPost2010PropOp39
 70
     1
102
RTVSPost2010Prop40
 90
        0
102
RTVSPost2010PropOp40
 70
     1
102
RTVSPost2010Prop41ColorIndex
 90
       18
102
RTVSPost2010Prop41ColorRGB
 90
        0
102
RTVSPost2010PropOp41
 70
     1
102
RTVSPost2010Prop42
 90
       50
102
RTVSPost2010PropOp42
 70
     1
102
RTVSPost2010Prop43
 90
        3
102
RTVSPost2010PropOp43
 70
     1
102
RTVSPost2010Prop44ColorIndex
 90
        5
102
RTVSPost2010Prop44ColorRGB
 90
      255
102
RTVSPost2010PropOp44
 70
     1
102
RTVSPost2010Prop45
280
     0
102
RTVSPost2010PropOp45
 70
     1
102
RTVSPost2010Prop46
 90
       50
102
RTVSPost2010PropOp46
 70
     1
102
RTVSPost2010Prop47
 90
       50
102
RTVSPost2010PropOp47
 70
     1
102
RTVSPost2010Prop48
 90
       50
102
RTVSPost2010PropOp48
 70
     1
102
RTVSPost2010Prop49
280
     0
102
RTVSPost2010PropOp49
 70
     1
102
RTVSPost2010Prop50
 90
       50
102
RTVSPost2010PropOp50
 70
     1
102
RTVSPost2010Prop51ColorIndex
 90
      256
102
RTVSPost2010Prop51ColorRGB
 90
-16777216
102
RTVSPost2010PropOp51
 70
     0
102
RTVSPost2010Prop52
140
1.0
102
RTVSPost2010PropOp52
 70
     0
102
RTVSPost2010Prop53
 90
        2
102
RTVSPost2010PropOp53
 70
     1
102
RTVSPost2010Prop54
  1
strokes_ogs.tif
102
RTVSPost2010PropOp54
 70
     1
102
RTVSPost2010Prop55
280
     0
102
RTVSPost2010PropOp55
 70
     1
102
RTVSPost2010Prop56
140
1.0
102
RTVSPost2010PropOp56
 70
     1
102
RTVSPost2010Prop57
140
1.0
102
RTVSPost2010PropOp57
 70
     1
102
RTVSPropertyOp0
 70
     1
102
RTVSPropertyOp1
 70
     1
102
RTVSPropertyOp2
 70
     1
102
RTVSPropertyOp3
 70
     1
102
RTVSPropertyOp4
 70
     1
102
RTVSPropertyOp5
 70
     1
102
RTVSPropertyOp6
 70
     1
102
RTVSPropertyOp7
 70
     1
102
RTVSPropertyOp8
 70
     1
102
RTVSPropertyOp9
 70
     1
102
RTVSPropertyOp10
 70
     1
102
RTVSPropertyOp11
 70
     1
102
RTVSPropertyOp12
 70
     1
102
RTVSPropertyOp13
 70
     1
102
RTVSPropertyOp14
 70
     1
102
RTVSPropertyOp15
 70
     1
102
RTVSPropertyOp16
 70
     1
102
RTVSPropertyOp17
 70
     1
102
RTVSPropertyOp18
 70
     1
102
RTVSPropertyOp19
 70
     1
102
RTVSPropertyOp20
 70
     1
102
RTVSPropertyOp21
 70
     1
102
RTVSPropertyOp22
 70
     1
102
RTVSPropertyOp23
 70
     1
102
RTVSPropertyOp24
 70
     1
102
RTVSPropertyOp25
 70
     1
102
RTVSPropertyOp26
 70
     1
102
RTVSPropertyOp27
 70
     1
102
RTVSPropertyOp28
 70
     1
102
RTVSPropertyOp29
 70
     1
102
RTVSPropertyOp30
 70
     1
102
RTVSPropertyOp31
 70
     1
102
RTVSPropertyOp32
 70
     1
102
RTVSPropertyOp33
 70
     1
102
RTVSPropertyOp34
 70
     1
102
RTVSPropertyOp35
 70
     1
102
RTVSPropertyOp36
 70
     1
102
RTVSPropertyOp37
 70
     1
102
RTVSPropertyOp38
 70
     1
102
RTVSPropertyOp39
 70
     1
102
RTVSPropertyOp40
 70
     1
102
RTVSPropertyOp41
 70
     1
102
RTVSPropertyOp42
 70
     1
102
RTVSPropertyOp43
 70
     1
102
RTVSPropertyOp44
 70
     1
102
RTVSPropertyOp45
 70
     1
102
RTVSPropertyOp46
 70
     1
102
RTVSPropertyOp47
 70
     1
102
RTVSPropertyOp48
 70
     1
102
RTVSPropertyOp49
 70
     1
102
RTVSPropertyOp50
 70
     1
102
RTVSPropertyOp51
 70
     0
102
RTVSPropertyOp52
 70
     0
102
RTVSPropertyOp53
 70
     1
102
RTVSPropertyOp54
 70
     1
102
RTVSPropertyOp55
 70
     1
102
RTVSPropertyOp56
 70
     1
102
RTVSPropertyOp57
 70
     1
102
RTVSPropertyOp58
 70
     1
102
RTVSPropertyOp59
 70
     1
102
RTVSPropertyOp60
 70
     1
102
RTVSPropertyOp61
 70
     1
102
RTVSPropertyOp62
 70
     1
  0
XRECORD
  5
CC2
102
{ACAD_REACTORS
330
CC1
102
}
330
CC1
100
AcDbXrecord
280
     1
102
RTVSPost2010Prop28
280
     0
102
RTVSPost2010PropOp28
 70
     1
102
RTVSPost2010Prop29
280
     1
102
RTVSPost2010PropOp29
 70
     1
102
RTVSPost2010Prop30
280
     1
102
RTVSPost2010PropOp30
 70
     1
102
RTVSPost2010Prop31
280
     0
102
RTVSPost2010PropOp31
 70
     1
102
RTVSPost2010Prop32
280
     0
102
RTVSPost2010PropOp32
 70
     1
102
RTVSPost2010Prop33
280
     0
102
RTVSPost2010PropOp33
 70
     1
102
RTVSPost2010Prop34
280
     0
102
RTVSPost2010PropOp34
 70
     1
102
RTVSPost2010Prop35
280
     0
102
RTVSPost2010PropOp35
 70
     1
102
RTVSPost2010Prop36
280
     0
102
RTVSPost2010PropOp36
 70
     1
102
RTVSPost2010Prop37
 90
       50
102
RTVSPost2010PropOp37
 70
     0
102
RTVSPost2010Prop38
140
0.0
102
RTVSPost2010PropOp38
 70
     0
102
RTVSPost2010Prop39
140
1.0
102
RTVSPost2010PropOp39
 70
     0
102
RTVSPost2010Prop40
 90
        0
102
RTVSPost2010PropOp40
 70
     0
102
RTVSPost2010Prop41ColorIndex
 90
       18
102
RTVSPost2010Prop41ColorRGB
 90
        0
102
RTVSPost2010PropOp41
 70
     0
102
RTVSPost2010Prop42
 90
       50
102
RTVSPost2010PropOp42
 70
     0
102
RTVSPost2010Prop43
 90
        3
102
RTVSPost2010PropOp43
 70
     0
102
RTVSPost2010Prop44ColorIndex
 90
        5
102
RTVSPost2010Prop44ColorRGB
 90
      255
102
RTVSPost2010PropOp44
 70
     0
102
RTVSPost2010Prop45
280
     0
102
RTVSPost2010PropOp45
 70
     1
102
RTVSPost2010Prop46
 90
       50
102
RTVSPost2010PropOp46
 70
     0
102
RTVSPost2010Prop47
 90
       50
102
RTVSPost2010PropOp47
 70
     0
102
RTVSPost2010Prop48
 90
       50
102
RTVSPost2010PropOp48
 70
     0
102
RTVSPost2010Prop49
280
     0
102
RTVSPost2010PropOp49
 70
     1
102
RTVSPost2010Prop50
 90
       50
102
RTVSPost2010PropOp50
 70
     0
102
RTVSPost2010Prop51ColorIndex
 90
      256
102
RTVSPost2010Prop51ColorRGB
 90
-16777216
102
RTVSPost2010PropOp51
 70
     0
102
RTVSPost2010Prop52
140
1.0
102
RTVSPost2010PropOp52
 70
     0
102
RTVSPost2010Prop53
 90
        2
102
RTVSPost2010PropOp53
 70
     0
102
RTVSPost2010Prop54
  1
strokes_ogs.tif
102
RTVSPost2010PropOp54
 70
     0
102
RTVSPost2010Prop55
280
     0
102
RTVSPost2010PropOp55
 70
     1
102
RTVSPost2010Prop56
140
1.0
102
RTVSPost2010PropOp56
 70
     0
102
RTVSPost2010Prop57
140
1.0
102
RTVSPost2010PropOp57
 70
     0
102
RTVSPropertyOp0
 70
     0
102
RTVSPropertyOp1
 70
     0
102
RTVSPropertyOp2
 70
     0
102
RTVSPropertyOp3
 70
     0
102
RTVSPropertyOp4
 70
     0
102
RTVSPropertyOp5
 70
     0
102
RTVSPropertyOp6
 70
     0
102
RTVSPropertyOp7
 70
     0
102
RTVSPropertyOp8
 70
     0
102
RTVSPropertyOp9
 70
     0
102
RTVSPropertyOp10
 70
     0
102
RTVSPropertyOp11
 70
     0
102
RTVSPropertyOp12
 70
     0
102
RTVSPropertyOp13
 70
     0
102
RTVSPropertyOp14
 70
     2
102
RTVSPropertyOp15
 70
     0
102
RTVSPropertyOp16
 70
     0
102
RTVSPropertyOp17
 70
     0
102
RTVSPropertyOp18
 70
     0
102
RTVSPropertyOp19
 70
     0
102
RTVSPropertyOp20
 70
     0
102
RTVSPropertyOp21
 70
     0
102
RTVSPropertyOp22
 70
     0
102
RTVSPropertyOp23
 70
     0
102
RTVSPropertyOp24
 70
     0
102
RTVSPropertyOp25
 70
     0
102
RTVSPropertyOp26
 70
     0
102
RTVSPropertyOp27
 70
     0
102
RTVSPropertyOp28
 70
     1
102
RTVSPropertyOp29
 70
     1
102
RTVSPropertyOp30
 70
     1
102
RTVSPropertyOp31
 70
     1
102
RTVSPropertyOp32
 70
     1
102
RTVSPropertyOp33
 70
     1
102
RTVSPropertyOp34
 70
     1
102
RTVSPropertyOp35
 70
     1
102
RTVSPropertyOp36
 70
     1
102
RTVSPropertyOp37
 70
     0
102
RTVSPropertyOp38
 70
     0
102
RTVSPropertyOp39
 70
     0
102
RTVSPropertyOp40
 70
     0
102
RTVSPropertyOp41
 70
     0
102
RTVSPropertyOp42
 70
     0
102
RTVSPropertyOp43
 70
     0
102
RTVSPropertyOp44
 70
     0
102
RTVSPropertyOp45
 70
     1
102
RTVSPropertyOp46
 70
     0
102
RTVSPropertyOp47
 70
     0
102
RTVSPropertyOp48
 70
     0
102
RTVSPropertyOp49
 70
     1
102
RTVSPropertyOp50
 70
     0
102
RTVSPropertyOp51
 70
     0
102
RTVSPropertyOp52
 70
     0
102
RTVSPropertyOp53
 70
     0
102
RTVSPropertyOp54
 70
     0
102
RTVSPropertyOp55
 70
     1
102
RTVSPropertyOp56
 70
     0
102
RTVSPropertyOp57
 70
     0
102
RTVSPropertyOp58
 70
     0
102
RTVSPropertyOp59
 70
     0
102
RTVSPropertyOp60
 70
     0
102
RTVSPropertyOp61
 70
     0
102
RTVSPropertyOp62
 70
     0
  0
XRECORD
  5
CB2
102
{ACAD_REACTORS
330
CB1
102
}
330
CB1
100
AcDbXrecord
280
     1
102
RTVSPost2010Prop28
280
     0
102
RTVSPost2010PropOp28
 70
     1
102
RTVSPost2010Prop29
280
     1
102
RTVSPost2010PropOp29
 70
     1
102
RTVSPost2010Prop30
280
     1
102
RTVSPost2010PropOp30
 70
     1
102
RTVSPost2010Prop31
280
     0
102
RTVSPost2010PropOp31
 70
     1
102
RTVSPost2010Prop32
280
     0
102
RTVSPost2010PropOp32
 70
     1
102
RTVSPost2010Prop33
280
     0
102
RTVSPost2010PropOp33
 70
     1
102
RTVSPost2010Prop34
280
     0
102
RTVSPost2010PropOp34
 70
     1
102
RTVSPost2010Prop35
280
     0
102
RTVSPost2010PropOp35
 70
     1
102
RTVSPost2010Prop36
280
     0
102
RTVSPost2010PropOp36
 70
     1
102
RTVSPost2010Prop37
 90
       50
102
RTVSPost2010PropOp37
 70
     1
102
RTVSPost2010Prop38
140
0.0
102
RTVSPost2010PropOp38
 70
     1
102
RTVSPost2010Prop39
140
1.0
102
RTVSPost2010PropOp39
 70
     1
102
RTVSPost2010Prop40
 90
        0
102
RTVSPost2010PropOp40
 70
     1
102
RTVSPost2010Prop41ColorIndex
 90
       18
102
RTVSPost2010Prop41ColorRGB
 90
        0
102
RTVSPost2010PropOp41
 70
     1
102
RTVSPost2010Prop42
 90
       50
102
RTVSPost2010PropOp42
 70
     1
102
RTVSPost2010Prop43
 90
        3
102
RTVSPost2010PropOp43
 70
     1
102
RTVSPost2010Prop44ColorIndex
 90
        5
102
RTVSPost2010Prop44ColorRGB
 90
      255
102
RTVSPost2010PropOp44
 70
     1
102
RTVSPost2010Prop45
280
     0
102
RTVSPost2010PropOp45
 70
     1
102
RTVSPost2010Prop46
 90
       50
102
RTVSPost2010PropOp46
 70
     1
102
RTVSPost2010Prop47
 90
       50
102
RTVSPost2010PropOp47
 70
     1
102
RTVSPost2010Prop48
 90
       50
102
RTVSPost2010PropOp48
 70
     1
102
RTVSPost2010Prop49
280
     0
102
RTVSPost2010PropOp49
 70
     1
102
RTVSPost2010Prop50
 90
       50
102
RTVSPost2010PropOp50
 70
     1
102
RTVSPost2010Prop51ColorIndex
 90
      256
102
RTVSPost2010Prop51ColorRGB
 90
-16777216
102
RTVSPost2010PropOp51
 70
     0
102
RTVSPost2010Prop52
140
1.0
102
RTVSPost2010PropOp52
 70
     0
102
RTVSPost2010Prop53
 90
        2
102
RTVSPost2010PropOp53
 70
     1
102
RTVSPost2010Prop54
  1
strokes_ogs.tif
102
RTVSPost2010PropOp54
 70
     1
102
RTVSPost2010Prop55
280
     0
102
RTVSPost2010PropOp55
 70
     1
102
RTVSPost2010Prop56
140
1.0
102
RTVSPost2010PropOp56
 70
     1
102
RTVSPost2010Prop57
140
1.0
102
RTVSPost2010PropOp57
 70
     1
102
RTVSPropertyOp0
 70
     1
102
RTVSPropertyOp1
 70
     1
102
RTVSPropertyOp2
 70
     1
102
RTVSPropertyOp3
 70
     1
102
RTVSPropertyOp4
 70
     1
102
RTVSPropertyOp5
 70
     1
102
RTVSPropertyOp6
 70
     1
102
RTVSPropertyOp7
 70
     1
102
RTVSPropertyOp8
 70
     1
102
RTVSPropertyOp9
 70
     1
102
RTVSPropertyOp10
 70
     1
102
RTVSPropertyOp11
 70
     1
102
RTVSPropertyOp12
 70
     1
102
RTVSPropertyOp13
 70
     1
102
RTVSPropertyOp14
 70
     1
102
RTVSPropertyOp15
 70
     1
102
RTVSPropertyOp16
 70
     1
102
RTVSPropertyOp17
 70
     1
102
RTVSPropertyOp18
 70
     1
102
RTVSPropertyOp19
 70
     1
102
RTVSPropertyOp20
 70
     1
102
RTVSPropertyOp21
 70
     1
102
RTVSPropertyOp22
 70
     1
102
RTVSPropertyOp23
 70
     1
102
RTVSPropertyOp24
 70
     1
102
RTVSPropertyOp25
 70
     1
102
RTVSPropertyOp26
 70
     1
102
RTVSPropertyOp27
 70
     1
102
RTVSPropertyOp28
 70
     1
102
RTVSPropertyOp29
 70
     1
102
RTVSPropertyOp30
 70
     1
102
RTVSPropertyOp31
 70
     1
102
RTVSPropertyOp32
 70
     1
102
RTVSPropertyOp33
 70
     1
102
RTVSPropertyOp34
 70
     1
102
RTVSPropertyOp35
 70
     1
102
RTVSPropertyOp36
 70
     1
102
RTVSPropertyOp37
 70
     1
102
RTVSPropertyOp38
 70
     1
102
RTVSPropertyOp39
 70
     1
102
RTVSPropertyOp40
 70
     1
102
RTVSPropertyOp41
 70
     1
102
RTVSPropertyOp42
 70
     1
102
RTVSPropertyOp43
 70
     1
102
RTVSPropertyOp44
 70
     1
102
RTVSPropertyOp45
 70
     1
102
RTVSPropertyOp46
 70
     1
102
RTVSPropertyOp47
 70
     1
102
RTVSPropertyOp48
 70
     1
102
RTVSPropertyOp49
 70
     1
102
RTVSPropertyOp50
 70
     1
102
RTVSPropertyOp51
 70
     0
102
RTVSPropertyOp52
 70
     0
102
RTVSPropertyOp53
 70
     1
102
RTVSPropertyOp54
 70
     1
102
RTVSPropertyOp55
 70
     1
102
RTVSPropertyOp56
 70
     1
102
RTVSPropertyOp57
 70
     1
102
RTVSPropertyOp58
 70
     1
102
RTVSPropertyOp59
 70
     1
102
RTVSPropertyOp60
 70
     1
102
RTVSPropertyOp61
 70
     1
102
RTVSPropertyOp62
 70
     1
  0
XRECORD
  5
CC4
102
{ACAD_REACTORS
330
CC3
102
}
330
CC3
100
AcDbXrecord
280
     1
102
RTVSPost2010Prop28
280
     0
102
RTVSPost2010PropOp28
 70
     1
102
RTVSPost2010Prop29
280
     1
102
RTVSPost2010PropOp29
 70
     1
102
RTVSPost2010Prop30
280
     1
102
RTVSPost2010PropOp30
 70
     1
102
RTVSPost2010Prop31
280
     0
102
RTVSPost2010PropOp31
 70
     1
102
RTVSPost2010Prop32
280
     0
102
RTVSPost2010PropOp32
 70
     1
102
RTVSPost2010Prop33
280
     0
102
RTVSPost2010PropOp33
 70
     1
102
RTVSPost2010Prop34
280
     0
102
RTVSPost2010PropOp34
 70
     1
102
RTVSPost2010Prop35
280
     0
102
RTVSPost2010PropOp35
 70
     1
102
RTVSPost2010Prop36
280
     0
102
RTVSPost2010PropOp36
 70
     1
102
RTVSPost2010Prop37
 90
       50
102
RTVSPost2010PropOp37
 70
     0
102
RTVSPost2010Prop38
140
0.0
102
RTVSPost2010PropOp38
 70
     0
102
RTVSPost2010Prop39
140
1.0
102
RTVSPost2010PropOp39
 70
     0
102
RTVSPost2010Prop40
 90
        0
102
RTVSPost2010PropOp40
 70
     0
102
RTVSPost2010Prop41ColorIndex
 90
       18
102
RTVSPost2010Prop41ColorRGB
 90
        0
102
RTVSPost2010PropOp41
 70
     0
102
RTVSPost2010Prop42
 90
       50
102
RTVSPost2010PropOp42
 70
     0
102
RTVSPost2010Prop43
 90
        3
102
RTVSPost2010PropOp43
 70
     0
102
RTVSPost2010Prop44ColorIndex
 90
        5
102
RTVSPost2010Prop44ColorRGB
 90
      255
102
RTVSPost2010PropOp44
 70
     0
102
RTVSPost2010Prop45
280
     0
102
RTVSPost2010PropOp45
 70
     1
102
RTVSPost2010Prop46
 90
       50
102
RTVSPost2010PropOp46
 70
     0
102
RTVSPost2010Prop47
 90
       50
102
RTVSPost2010PropOp47
 70
     0
102
RTVSPost2010Prop48
 90
       50
102
RTVSPost2010PropOp48
 70
     0
102
RTVSPost2010Prop49
280
     0
102
RTVSPost2010PropOp49
 70
     1
102
RTVSPost2010Prop50
 90
       50
102
RTVSPost2010PropOp50
 70
     0
102
RTVSPost2010Prop51ColorIndex
 90
      256
102
RTVSPost2010Prop51ColorRGB
 90
-16777216
102
RTVSPost2010PropOp51
 70
     0
102
RTVSPost2010Prop52
140
1.0
102
RTVSPost2010PropOp52
 70
     0
102
RTVSPost2010Prop53
 90
        2
102
RTVSPost2010PropOp53
 70
     0
102
RTVSPost2010Prop54
  1
strokes_ogs.tif
102
RTVSPost2010PropOp54
 70
     0
102
RTVSPost2010Prop55
280
     0
102
RTVSPost2010PropOp55
 70
     1
102
RTVSPost2010Prop56
140
1.0
102
RTVSPost2010PropOp56
 70
     0
102
RTVSPost2010Prop57
140
1.0
102
RTVSPost2010PropOp57
 70
     0
102
RTVSPropertyOp0
 70
     0
102
RTVSPropertyOp1
 70
     0
102
RTVSPropertyOp2
 70
     0
102
RTVSPropertyOp3
 70
     0
102
RTVSPropertyOp4
 70
     0
102
RTVSPropertyOp5
 70
     0
102
RTVSPropertyOp6
 70
     0
102
RTVSPropertyOp7
 70
     0
102
RTVSPropertyOp8
 70
     0
102
RTVSPropertyOp9
 70
     0
102
RTVSPropertyOp10
 70
     0
102
RTVSPropertyOp11
 70
     0
102
RTVSPropertyOp12
 70
     0
102
RTVSPropertyOp13
 70
     0
102
RTVSPropertyOp14
 70
     2
102
RTVSPropertyOp15
 70
     0
102
RTVSPropertyOp16
 70
     0
102
RTVSPropertyOp17
 70
     0
102
RTVSPropertyOp18
 70
     0
102
RTVSPropertyOp19
 70
     0
102
RTVSPropertyOp20
 70
     0
102
RTVSPropertyOp21
 70
     0
102
RTVSPropertyOp22
 70
     0
102
RTVSPropertyOp23
 70
     0
102
RTVSPropertyOp24
 70
     0
102
RTVSPropertyOp25
 70
     0
102
RTVSPropertyOp26
 70
     0
102
RTVSPropertyOp27
 70
     0
102
RTVSPropertyOp28
 70
     1
102
RTVSPropertyOp29
 70
     1
102
RTVSPropertyOp30
 70
     1
102
RTVSPropertyOp31
 70
     1
102
RTVSPropertyOp32
 70
     1
102
RTVSPropertyOp33
 70
     1
102
RTVSPropertyOp34
 70
     1
102
RTVSPropertyOp35
 70
     1
102
RTVSPropertyOp36
 70
     1
102
RTVSPropertyOp37
 70
     0
102
RTVSPropertyOp38
 70
     0
102
RTVSPropertyOp39
 70
     0
102
RTVSPropertyOp40
 70
     0
102
RTVSPropertyOp41
 70
     0
102
RTVSPropertyOp42
 70
     0
102
RTVSPropertyOp43
 70
     0
102
RTVSPropertyOp44
 70
     0
102
RTVSPropertyOp45
 70
     1
102
RTVSPropertyOp46
 70
     0
102
RTVSPropertyOp47
 70
     0
102
RTVSPropertyOp48
 70
     0
102
RTVSPropertyOp49
 70
     1
102
RTVSPropertyOp50
 70
     0
102
RTVSPropertyOp51
 70
     0
102
RTVSPropertyOp52
 70
     0
102
RTVSPropertyOp53
 70
     0
102
RTVSPropertyOp54
 70
     0
102
RTVSPropertyOp55
 70
     1
102
RTVSPropertyOp56
 70
     0
102
RTVSPropertyOp57
 70
     0
102
RTVSPropertyOp58
 70
     0
102
RTVSPropertyOp59
 70
     0
102
RTVSPropertyOp60
 70
     0
102
RTVSPropertyOp61
 70
     0
102
RTVSPropertyOp62
 70
     0
  0
XRECORD
  5
CAA
102
{ACAD_REACTORS
330
CA9
102
}
330
CA9
100
AcDbXrecord
280
     1
102
RTVSPost2010Prop28
280
     0
102
RTVSPost2010PropOp28
 70
     1
102
RTVSPost2010Prop29
280
     1
102
RTVSPost2010PropOp29
 70
     1
102
RTVSPost2010Prop30
280
     1
102
RTVSPost2010PropOp30
 70
     1
102
RTVSPost2010Prop31
280
     0
102
RTVSPost2010PropOp31
 70
     1
102
RTVSPost2010Prop32
280
     0
102
RTVSPost2010PropOp32
 70
     1
102
RTVSPost2010Prop33
280
     0
102
RTVSPost2010PropOp33
 70
     1
102
RTVSPost2010Prop34
280
     0
102
RTVSPost2010PropOp34
 70
     1
102
RTVSPost2010Prop35
280
     0
102
RTVSPost2010PropOp35
 70
     1
102
RTVSPost2010Prop36
280
     0
102
RTVSPost2010PropOp36
 70
     1
102
RTVSPost2010Prop37
 90
       50
102
RTVSPost2010PropOp37
 70
     1
102
RTVSPost2010Prop38
140
0.0
102
RTVSPost2010PropOp38
 70
     1
102
RTVSPost2010Prop39
140
1.0
102
RTVSPost2010PropOp39
 70
     1
102
RTVSPost2010Prop40
 90
        0
102
RTVSPost2010PropOp40
 70
     1
102
RTVSPost2010Prop41ColorIndex
 90
       18
102
RTVSPost2010Prop41ColorRGB
 90
        0
102
RTVSPost2010PropOp41
 70
     1
102
RTVSPost2010Prop42
 90
       50
102
RTVSPost2010PropOp42
 70
     1
102
RTVSPost2010Prop43
 90
        3
102
RTVSPost2010PropOp43
 70
     1
102
RTVSPost2010Prop44ColorIndex
 90
        5
102
RTVSPost2010Prop44ColorRGB
 90
      255
102
RTVSPost2010PropOp44
 70
     1
102
RTVSPost2010Prop45
280
     0
102
RTVSPost2010PropOp45
 70
     1
102
RTVSPost2010Prop46
 90
       50
102
RTVSPost2010PropOp46
 70
     1
102
RTVSPost2010Prop47
 90
       50
102
RTVSPost2010PropOp47
 70
     1
102
RTVSPost2010Prop48
 90
       50
102
RTVSPost2010PropOp48
 70
     1
102
RTVSPost2010Prop49
280
     0
102
RTVSPost2010PropOp49
 70
     1
102
RTVSPost2010Prop50
 90
       50
102
RTVSPost2010PropOp50
 70
     1
102
RTVSPost2010Prop51ColorIndex
 90
      256
102
RTVSPost2010Prop51ColorRGB
 90
-16777216
102
RTVSPost2010PropOp51
 70
     0
102
RTVSPost2010Prop52
140
1.0
102
RTVSPost2010PropOp52
 70
     0
102
RTVSPost2010Prop53
 90
        2
102
RTVSPost2010PropOp53
 70
     1
102
RTVSPost2010Prop54
  1
strokes_ogs.tif
102
RTVSPost2010PropOp54
 70
     1
102
RTVSPost2010Prop55
280
     0
102
RTVSPost2010PropOp55
 70
     1
102
RTVSPost2010Prop56
140
1.0
102
RTVSPost2010PropOp56
 70
     1
102
RTVSPost2010Prop57
140
1.0
102
RTVSPost2010PropOp57
 70
     1
102
RTVSPropertyOp0
 70
     1
102
RTVSPropertyOp1
 70
     1
102
RTVSPropertyOp2
 70
     1
102
RTVSPropertyOp3
 70
     1
102
RTVSPropertyOp4
 70
     1
102
RTVSPropertyOp5
 70
     1
102
RTVSPropertyOp6
 70
     1
102
RTVSPropertyOp7
 70
     1
102
RTVSPropertyOp8
 70
     1
102
RTVSPropertyOp9
 70
     1
102
RTVSPropertyOp10
 70
     1
102
RTVSPropertyOp11
 70
     1
102
RTVSPropertyOp12
 70
     1
102
RTVSPropertyOp13
 70
     1
102
RTVSPropertyOp14
 70
     1
102
RTVSPropertyOp15
 70
     1
102
RTVSPropertyOp16
 70
     1
102
RTVSPropertyOp17
 70
     1
102
RTVSPropertyOp18
 70
     1
102
RTVSPropertyOp19
 70
     1
102
RTVSPropertyOp20
 70
     1
102
RTVSPropertyOp21
 70
     1
102
RTVSPropertyOp22
 70
     1
102
RTVSPropertyOp23
 70
     1
102
RTVSPropertyOp24
 70
     1
102
RTVSPropertyOp25
 70
     1
102
RTVSPropertyOp26
 70
     1
102
RTVSPropertyOp27
 70
     1
102
RTVSPropertyOp28
 70
     1
102
RTVSPropertyOp29
 70
     1
102
RTVSPropertyOp30
 70
     1
102
RTVSPropertyOp31
 70
     1
102
RTVSPropertyOp32
 70
     1
102
RTVSPropertyOp33
 70
     1
102
RTVSPropertyOp34
 70
     1
102
RTVSPropertyOp35
 70
     1
102
RTVSPropertyOp36
 70
     1
102
RTVSPropertyOp37
 70
     1
102
RTVSPropertyOp38
 70
     1
102
RTVSPropertyOp39
 70
     1
102
RTVSPropertyOp40
 70
     1
102
RTVSPropertyOp41
 70
     1
102
RTVSPropertyOp42
 70
     1
102
RTVSPropertyOp43
 70
     1
102
RTVSPropertyOp44
 70
     1
102
RTVSPropertyOp45
 70
     1
102
RTVSPropertyOp46
 70
     1
102
RTVSPropertyOp47
 70
     1
102
RTVSPropertyOp48
 70
     1
102
RTVSPropertyOp49
 70
     1
102
RTVSPropertyOp50
 70
     1
102
RTVSPropertyOp51
 70
     0
102
RTVSPropertyOp52
 70
     0
102
RTVSPropertyOp53
 70
     1
102
RTVSPropertyOp54
 70
     1
102
RTVSPropertyOp55
 70
     1
102
RTVSPropertyOp56
 70
     1
102
RTVSPropertyOp57
 70
     1
102
RTVSPropertyOp58
 70
     1
102
RTVSPropertyOp59
 70
     1
102
RTVSPropertyOp60
 70
     1
102
RTVSPropertyOp61
 70
     1
102
RTVSPropertyOp62
 70
     1
  0
XRECORD
  5
CC0
102
{ACAD_REACTORS
330
CBF
102
}
330
CBF
100
AcDbXrecord
280
     1
102
RTVSPost2010Prop28
280
     0
102
RTVSPost2010PropOp28
 70
     1
102
RTVSPost2010Prop29
280
     1
102
RTVSPost2010PropOp29
 70
     1
102
RTVSPost2010Prop30
280
     1
102
RTVSPost2010PropOp30
 70
     1
102
RTVSPost2010Prop31
280
     0
102
RTVSPost2010PropOp31
 70
     1
102
RTVSPost2010Prop32
280
     0
102
RTVSPost2010PropOp32
 70
     1
102
RTVSPost2010Prop33
280
     0
102
RTVSPost2010PropOp33
 70
     1
102
RTVSPost2010Prop34
280
     0
102
RTVSPost2010PropOp34
 70
     1
102
RTVSPost2010Prop35
280
     0
102
RTVSPost2010PropOp35
 70
     1
102
RTVSPost2010Prop36
280
     0
102
RTVSPost2010PropOp36
 70
     1
102
RTVSPost2010Prop37
 90
       50
102
RTVSPost2010PropOp37
 70
     1
102
RTVSPost2010Prop38
140
0.0
102
RTVSPost2010PropOp38
 70
     1
102
RTVSPost2010Prop39
140
1.0
102
RTVSPost2010PropOp39
 70
     1
102
RTVSPost2010Prop40
 90
        0
102
RTVSPost2010PropOp40
 70
     1
102
RTVSPost2010Prop41ColorIndex
 90
       18
102
RTVSPost2010Prop41ColorRGB
 90
        0
102
RTVSPost2010PropOp41
 70
     1
102
RTVSPost2010Prop42
 90
       50
102
RTVSPost2010PropOp42
 70
     1
102
RTVSPost2010Prop43
 90
        3
102
RTVSPost2010PropOp43
 70
     1
102
RTVSPost2010Prop44ColorIndex
 90
        5
102
RTVSPost2010Prop44ColorRGB
 90
      255
102
RTVSPost2010PropOp44
 70
     1
102
RTVSPost2010Prop45
280
     0
102
RTVSPost2010PropOp45
 70
     1
102
RTVSPost2010Prop46
 90
       50
102
RTVSPost2010PropOp46
 70
     1
102
RTVSPost2010Prop47
 90
       50
102
RTVSPost2010PropOp47
 70
     1
102
RTVSPost2010Prop48
 90
       50
102
RTVSPost2010PropOp48
 70
     1
102
RTVSPost2010Prop49
280
     0
102
RTVSPost2010PropOp49
 70
     1
102
RTVSPost2010Prop50
 90
       50
102
RTVSPost2010PropOp50
 70
     1
102
RTVSPost2010Prop51ColorIndex
 90
      256
102
RTVSPost2010Prop51ColorRGB
 90
-16777216
102
RTVSPost2010PropOp51
 70
     0
102
RTVSPost2010Prop52
140
1.0
102
RTVSPost2010PropOp52
 70
     0
102
RTVSPost2010Prop53
 90
        2
102
RTVSPost2010PropOp53
 70
     1
102
RTVSPost2010Prop54
  1
strokes_ogs.tif
102
RTVSPost2010PropOp54
 70
     1
102
RTVSPost2010Prop55
280
     0
102
RTVSPost2010PropOp55
 70
     1
102
RTVSPost2010Prop56
140
1.0
102
RTVSPost2010PropOp56
 70
     1
102
RTVSPost2010Prop57
140
1.0
102
RTVSPost2010PropOp57
 70
     1
102
RTVSPropertyOp0
 70
     1
102
RTVSPropertyOp1
 70
     1
102
RTVSPropertyOp2
 70
     1
102
RTVSPropertyOp3
 70
     1
102
RTVSPropertyOp4
 70
     1
102
RTVSPropertyOp5
 70
     1
102
RTVSPropertyOp6
 70
     1
102
RTVSPropertyOp7
 70
     1
102
RTVSPropertyOp8
 70
     1
102
RTVSPropertyOp9
 70
     1
102
RTVSPropertyOp10
 70
     1
102
RTVSPropertyOp11
 70
     1
102
RTVSPropertyOp12
 70
     1
102
RTVSPropertyOp13
 70
     1
102
RTVSPropertyOp14
 70
     1
102
RTVSPropertyOp15
 70
     1
102
RTVSPropertyOp16
 70
     1
102
RTVSPropertyOp17
 70
     1
102
RTVSPropertyOp18
 70
     1
102
RTVSPropertyOp19
 70
     1
102
RTVSPropertyOp20
 70
     1
102
RTVSPropertyOp21
 70
     1
102
RTVSPropertyOp22
 70
     1
102
RTVSPropertyOp23
 70
     1
102
RTVSPropertyOp24
 70
     1
102
RTVSPropertyOp25
 70
     1
102
RTVSPropertyOp26
 70
     1
102
RTVSPropertyOp27
 70
     1
102
RTVSPropertyOp28
 70
     1
102
RTVSPropertyOp29
 70
     1
102
RTVSPropertyOp30
 70
     1
102
RTVSPropertyOp31
 70
     1
102
RTVSPropertyOp32
 70
     1
102
RTVSPropertyOp33
 70
     1
102
RTVSPropertyOp34
 70
     1
102
RTVSPropertyOp35
 70
     1
102
RTVSPropertyOp36
 70
     1
102
RTVSPropertyOp37
 70
     1
102
RTVSPropertyOp38
 70
     1
102
RTVSPropertyOp39
 70
     1
102
RTVSPropertyOp40
 70
     1
102
RTVSPropertyOp41
 70
     1
102
RTVSPropertyOp42
 70
     1
102
RTVSPropertyOp43
 70
     1
102
RTVSPropertyOp44
 70
     1
102
RTVSPropertyOp45
 70
     1
102
RTVSPropertyOp46
 70
     1
102
RTVSPropertyOp47
 70
     1
102
RTVSPropertyOp48
 70
     1
102
RTVSPropertyOp49
 70
     1
102
RTVSPropertyOp50
 70
     1
102
RTVSPropertyOp51
 70
     0
102
RTVSPropertyOp52
 70
     0
102
RTVSPropertyOp53
 70
     1
102
RTVSPropertyOp54
 70
     1
102
RTVSPropertyOp55
 70
     1
102
RTVSPropertyOp56
 70
     1
102
RTVSPropertyOp57
 70
     1
102
RTVSPropertyOp58
 70
     1
102
RTVSPropertyOp59
 70
     1
102
RTVSPropertyOp60
 70
     1
102
RTVSPropertyOp61
 70
     1
102
RTVSPropertyOp62
 70
     1
  0
XRECORD
  5
CBE
102
{ACAD_REACTORS
330
CBD
102
}
330
CBD
100
AcDbXrecord
280
     1
102
RTVSPost2010Prop28
280
     0
102
RTVSPost2010PropOp28
 70
     1
102
RTVSPost2010Prop29
280
     1
102
RTVSPost2010PropOp29
 70
     1
102
RTVSPost2010Prop30
280
     1
102
RTVSPost2010PropOp30
 70
     1
102
RTVSPost2010Prop31
280
     0
102
RTVSPost2010PropOp31
 70
     1
102
RTVSPost2010Prop32
280
     0
102
RTVSPost2010PropOp32
 70
     1
102
RTVSPost2010Prop33
280
     0
102
RTVSPost2010PropOp33
 70
     1
102
RTVSPost2010Prop34
280
     0
102
RTVSPost2010PropOp34
 70
     1
102
RTVSPost2010Prop35
280
     0
102
RTVSPost2010PropOp35
 70
     1
102
RTVSPost2010Prop36
280
     0
102
RTVSPost2010PropOp36
 70
     1
102
RTVSPost2010Prop37
 90
       50
102
RTVSPost2010PropOp37
 70
     1
102
RTVSPost2010Prop38
140
0.0
102
RTVSPost2010PropOp38
 70
     1
102
RTVSPost2010Prop39
140
1.0
102
RTVSPost2010PropOp39
 70
     1
102
RTVSPost2010Prop40
 90
        0
102
RTVSPost2010PropOp40
 70
     1
102
RTVSPost2010Prop41ColorIndex
 90
       18
102
RTVSPost2010Prop41ColorRGB
 90
        0
102
RTVSPost2010PropOp41
 70
     1
102
RTVSPost2010Prop42
 90
       50
102
RTVSPost2010PropOp42
 70
     1
102
RTVSPost2010Prop43
 90
        3
102
RTVSPost2010PropOp43
 70
     1
102
RTVSPost2010Prop44ColorIndex
 90
        5
102
RTVSPost2010Prop44ColorRGB
 90
      255
102
RTVSPost2010PropOp44
 70
     1
102
RTVSPost2010Prop45
280
     0
102
RTVSPost2010PropOp45
 70
     1
102
RTVSPost2010Prop46
 90
       50
102
RTVSPost2010PropOp46
 70
     1
102
RTVSPost2010Prop47
 90
       50
102
RTVSPost2010PropOp47
 70
     1
102
RTVSPost2010Prop48
 90
       50
102
RTVSPost2010PropOp48
 70
     1
102
RTVSPost2010Prop49
280
     0
102
RTVSPost2010PropOp49
 70
     1
102
RTVSPost2010Prop50
 90
       50
102
RTVSPost2010PropOp50
 70
     1
102
RTVSPost2010Prop51ColorIndex
 90
      256
102
RTVSPost2010Prop51ColorRGB
 90
-16777216
102
RTVSPost2010PropOp51
 70
     0
102
RTVSPost2010Prop52
140
1.0
102
RTVSPost2010PropOp52
 70
     0
102
RTVSPost2010Prop53
 90
        2
102
RTVSPost2010PropOp53
 70
     1
102
RTVSPost2010Prop54
  1
strokes_ogs.tif
102
RTVSPost2010PropOp54
 70
     1
102
RTVSPost2010Prop55
280
     0
102
RTVSPost2010PropOp55
 70
     1
102
RTVSPost2010Prop56
140
1.0
102
RTVSPost2010PropOp56
 70
     1
102
RTVSPost2010Prop57
140
1.0
102
RTVSPost2010PropOp57
 70
     1
102
RTVSPropertyOp0
 70
     1
102
RTVSPropertyOp1
 70
     1
102
RTVSPropertyOp2
 70
     1
102
RTVSPropertyOp3
 70
     1
102
RTVSPropertyOp4
 70
     1
102
RTVSPropertyOp5
 70
     1
102
RTVSPropertyOp6
 70
     1
102
RTVSPropertyOp7
 70
     1
102
RTVSPropertyOp8
 70
     1
102
RTVSPropertyOp9
 70
     1
102
RTVSPropertyOp10
 70
     1
102
RTVSPropertyOp11
 70
     1
102
RTVSPropertyOp12
 70
     1
102
RTVSPropertyOp13
 70
     1
102
RTVSPropertyOp14
 70
     1
102
RTVSPropertyOp15
 70
     1
102
RTVSPropertyOp16
 70
     1
102
RTVSPropertyOp17
 70
     1
102
RTVSPropertyOp18
 70
     1
102
RTVSPropertyOp19
 70
     1
102
RTVSPropertyOp20
 70
     1
102
RTVSPropertyOp21
 70
     1
102
RTVSPropertyOp22
 70
     1
102
RTVSPropertyOp23
 70
     1
102
RTVSPropertyOp24
 70
     1
102
RTVSPropertyOp25
 70
     1
102
RTVSPropertyOp26
 70
     1
102
RTVSPropertyOp27
 70
     1
102
RTVSPropertyOp28
 70
     1
102
RTVSPropertyOp29
 70
     1
102
RTVSPropertyOp30
 70
     1
102
RTVSPropertyOp31
 70
     1
102
RTVSPropertyOp32
 70
     1
102
RTVSPropertyOp33
 70
     1
102
RTVSPropertyOp34
 70
     1
102
RTVSPropertyOp35
 70
     1
102
RTVSPropertyOp36
 70
     1
102
RTVSPropertyOp37
 70
     1
102
RTVSPropertyOp38
 70
     1
102
RTVSPropertyOp39
 70
     1
102
RTVSPropertyOp40
 70
     1
102
RTVSPropertyOp41
 70
     1
102
RTVSPropertyOp42
 70
     1
102
RTVSPropertyOp43
 70
     1
102
RTVSPropertyOp44
 70
     1
102
RTVSPropertyOp45
 70
     1
102
RTVSPropertyOp46
 70
     1
102
RTVSPropertyOp47
 70
     1
102
RTVSPropertyOp48
 70
     1
102
RTVSPropertyOp49
 70
     1
102
RTVSPropertyOp50
 70
     1
102
RTVSPropertyOp51
 70
     0
102
RTVSPropertyOp52
 70
     0
102
RTVSPropertyOp53
 70
     1
102
RTVSPropertyOp54
 70
     1
102
RTVSPropertyOp55
 70
     1
102
RTVSPropertyOp56
 70
     1
102
RTVSPropertyOp57
 70
     1
102
RTVSPropertyOp58
 70
     1
102
RTVSPropertyOp59
 70
     1
102
RTVSPropertyOp60
 70
     1
102
RTVSPropertyOp61
 70
     1
102
RTVSPropertyOp62
 70
     1
  0
XRECORD
  5
CB8
102
{ACAD_REACTORS
330
CB7
102
}
330
CB7
100
AcDbXrecord
280
     1
102
RTVSPost2010Prop28
280
     0
102
RTVSPost2010PropOp28
 70
     1
102
RTVSPost2010Prop29
280
     1
102
RTVSPost2010PropOp29
 70
     1
102
RTVSPost2010Prop30
280
     1
102
RTVSPost2010PropOp30
 70
     1
102
RTVSPost2010Prop31
280
     0
102
RTVSPost2010PropOp31
 70
     1
102
RTVSPost2010Prop32
280
     0
102
RTVSPost2010PropOp32
 70
     1
102
RTVSPost2010Prop33
280
     0
102
RTVSPost2010PropOp33
 70
     1
102
RTVSPost2010Prop34
280
     0
102
RTVSPost2010PropOp34
 70
     1
102
RTVSPost2010Prop35
280
     0
102
RTVSPost2010PropOp35
 70
     1
102
RTVSPost2010Prop36
280
     0
102
RTVSPost2010PropOp36
 70
     1
102
RTVSPost2010Prop37
 90
       50
102
RTVSPost2010PropOp37
 70
     1
102
RTVSPost2010Prop38
140
0.0
102
RTVSPost2010PropOp38
 70
     1
102
RTVSPost2010Prop39
140
1.0
102
RTVSPost2010PropOp39
 70
     1
102
RTVSPost2010Prop40
 90
        0
102
RTVSPost2010PropOp40
 70
     1
102
RTVSPost2010Prop41ColorIndex
 90
       18
102
RTVSPost2010Prop41ColorRGB
 90
        0
102
RTVSPost2010PropOp41
 70
     1
102
RTVSPost2010Prop42
 90
       50
102
RTVSPost2010PropOp42
 70
     1
102
RTVSPost2010Prop43
 90
        3
102
RTVSPost2010PropOp43
 70
     1
102
RTVSPost2010Prop44ColorIndex
 90
        5
102
RTVSPost2010Prop44ColorRGB
 90
      255
102
RTVSPost2010PropOp44
 70
     1
102
RTVSPost2010Prop45
280
     0
102
RTVSPost2010PropOp45
 70
     1
102
RTVSPost2010Prop46
 90
       50
102
RTVSPost2010PropOp46
 70
     1
102
RTVSPost2010Prop47
 90
       50
102
RTVSPost2010PropOp47
 70
     1
102
RTVSPost2010Prop48
 90
       50
102
RTVSPost2010PropOp48
 70
     1
102
RTVSPost2010Prop49
280
     0
102
RTVSPost2010PropOp49
 70
     1
102
RTVSPost2010Prop50
 90
       50
102
RTVSPost2010PropOp50
 70
     1
102
RTVSPost2010Prop51ColorIndex
 90
      256
102
RTVSPost2010Prop51ColorRGB
 90
-16777216
102
RTVSPost2010PropOp51
 70
     0
102
RTVSPost2010Prop52
140
1.0
102
RTVSPost2010PropOp52
 70
     0
102
RTVSPost2010Prop53
 90
        2
102
RTVSPost2010PropOp53
 70
     1
102
RTVSPost2010Prop54
  1
strokes_ogs.tif
102
RTVSPost2010PropOp54
 70
     1
102
RTVSPost2010Prop55
280
     0
102
RTVSPost2010PropOp55
 70
     1
102
RTVSPost2010Prop56
140
1.0
102
RTVSPost2010PropOp56
 70
     1
102
RTVSPost2010Prop57
140
1.0
102
RTVSPost2010PropOp57
 70
     1
102
RTVSPropertyOp0
 70
     1
102
RTVSPropertyOp1
 70
     1
102
RTVSPropertyOp2
 70
     1
102
RTVSPropertyOp3
 70
     1
102
RTVSPropertyOp4
 70
     1
102
RTVSPropertyOp5
 70
     1
102
RTVSPropertyOp6
 70
     1
102
RTVSPropertyOp7
 70
     1
102
RTVSPropertyOp8
 70
     1
102
RTVSPropertyOp9
 70
     1
102
RTVSPropertyOp10
 70
     1
102
RTVSPropertyOp11
 70
     1
102
RTVSPropertyOp12
 70
     1
102
RTVSPropertyOp13
 70
     1
102
RTVSPropertyOp14
 70
     1
102
RTVSPropertyOp15
 70
     1
102
RTVSPropertyOp16
 70
     1
102
RTVSPropertyOp17
 70
     1
102
RTVSPropertyOp18
 70
     1
102
RTVSPropertyOp19
 70
     1
102
RTVSPropertyOp20
 70
     1
102
RTVSPropertyOp21
 70
     1
102
RTVSPropertyOp22
 70
     1
102
RTVSPropertyOp23
 70
     1
102
RTVSPropertyOp24
 70
     1
102
RTVSPropertyOp25
 70
     1
102
RTVSPropertyOp26
 70
     1
102
RTVSPropertyOp27
 70
     1
102
RTVSPropertyOp28
 70
     1
102
RTVSPropertyOp29
 70
     1
102
RTVSPropertyOp30
 70
     1
102
RTVSPropertyOp31
 70
     1
102
RTVSPropertyOp32
 70
     1
102
RTVSPropertyOp33
 70
     1
102
RTVSPropertyOp34
 70
     1
102
RTVSPropertyOp35
 70
     1
102
RTVSPropertyOp36
 70
     1
102
RTVSPropertyOp37
 70
     1
102
RTVSPropertyOp38
 70
     1
102
RTVSPropertyOp39
 70
     1
102
RTVSPropertyOp40
 70
     1
102
RTVSPropertyOp41
 70
     1
102
RTVSPropertyOp42
 70
     1
102
RTVSPropertyOp43
 70
     1
102
RTVSPropertyOp44
 70
     1
102
RTVSPropertyOp45
 70
     1
102
RTVSPropertyOp46
 70
     1
102
RTVSPropertyOp47
 70
     1
102
RTVSPropertyOp48
 70
     1
102
RTVSPropertyOp49
 70
     1
102
RTVSPropertyOp50
 70
     1
102
RTVSPropertyOp51
 70
     0
102
RTVSPropertyOp52
 70
     0
102
RTVSPropertyOp53
 70
     1
102
RTVSPropertyOp54
 70
     1
102
RTVSPropertyOp55
 70
     1
102
RTVSPropertyOp56
 70
     1
102
RTVSPropertyOp57
 70
     1
102
RTVSPropertyOp58
 70
     1
102
RTVSPropertyOp59
 70
     1
102
RTVSPropertyOp60
 70
     1
102
RTVSPropertyOp61
 70
     1
102
RTVSPropertyOp62
 70
     1
  0
XRECORD
  5
CBA
102
{ACAD_REACTORS
330
CB9
102
}
330
CB9
100
AcDbXrecord
280
     1
102
RTVSPost2010Prop28
280
     0
102
RTVSPost2010PropOp28
 70
     1
102
RTVSPost2010Prop29
280
     1
102
RTVSPost2010PropOp29
 70
     1
102
RTVSPost2010Prop30
280
     1
102
RTVSPost2010PropOp30
 70
     1
102
RTVSPost2010Prop31
280
     0
102
RTVSPost2010PropOp31
 70
     1
102
RTVSPost2010Prop32
280
     0
102
RTVSPost2010PropOp32
 70
     1
102
RTVSPost2010Prop33
280
     0
102
RTVSPost2010PropOp33
 70
     1
102
RTVSPost2010Prop34
280
     0
102
RTVSPost2010PropOp34
 70
     1
102
RTVSPost2010Prop35
280
     0
102
RTVSPost2010PropOp35
 70
     1
102
RTVSPost2010Prop36
280
     0
102
RTVSPost2010PropOp36
 70
     1
102
RTVSPost2010Prop37
 90
       50
102
RTVSPost2010PropOp37
 70
     1
102
RTVSPost2010Prop38
140
0.0
102
RTVSPost2010PropOp38
 70
     1
102
RTVSPost2010Prop39
140
1.0
102
RTVSPost2010PropOp39
 70
     1
102
RTVSPost2010Prop40
 90
        0
102
RTVSPost2010PropOp40
 70
     1
102
RTVSPost2010Prop41ColorIndex
 90
       18
102
RTVSPost2010Prop41ColorRGB
 90
        0
102
RTVSPost2010PropOp41
 70
     1
102
RTVSPost2010Prop42
 90
       50
102
RTVSPost2010PropOp42
 70
     1
102
RTVSPost2010Prop43
 90
        3
102
RTVSPost2010PropOp43
 70
     1
102
RTVSPost2010Prop44ColorIndex
 90
        5
102
RTVSPost2010Prop44ColorRGB
 90
      255
102
RTVSPost2010PropOp44
 70
     1
102
RTVSPost2010Prop45
280
     0
102
RTVSPost2010PropOp45
 70
     1
102
RTVSPost2010Prop46
 90
       50
102
RTVSPost2010PropOp46
 70
     1
102
RTVSPost2010Prop47
 90
       50
102
RTVSPost2010PropOp47
 70
     1
102
RTVSPost2010Prop48
 90
       50
102
RTVSPost2010PropOp48
 70
     1
102
RTVSPost2010Prop49
280
     0
102
RTVSPost2010PropOp49
 70
     1
102
RTVSPost2010Prop50
 90
       50
102
RTVSPost2010PropOp50
 70
     1
102
RTVSPost2010Prop51ColorIndex
 90
      256
102
RTVSPost2010Prop51ColorRGB
 90
-16777216
102
RTVSPost2010PropOp51
 70
     0
102
RTVSPost2010Prop52
140
1.0
102
RTVSPost2010PropOp52
 70
     0
102
RTVSPost2010Prop53
 90
        2
102
RTVSPost2010PropOp53
 70
     1
102
RTVSPost2010Prop54
  1
strokes_ogs.tif
102
RTVSPost2010PropOp54
 70
     1
102
RTVSPost2010Prop55
280
     0
102
RTVSPost2010PropOp55
 70
     1
102
RTVSPost2010Prop56
140
1.0
102
RTVSPost2010PropOp56
 70
     1
102
RTVSPost2010Prop57
140
1.0
102
RTVSPost2010PropOp57
 70
     1
102
RTVSPropertyOp0
 70
     1
102
RTVSPropertyOp1
 70
     1
102
RTVSPropertyOp2
 70
     1
102
RTVSPropertyOp3
 70
     1
102
RTVSPropertyOp4
 70
     1
102
RTVSPropertyOp5
 70
     1
102
RTVSPropertyOp6
 70
     1
102
RTVSPropertyOp7
 70
     1
102
RTVSPropertyOp8
 70
     1
102
RTVSPropertyOp9
 70
     1
102
RTVSPropertyOp10
 70
     1
102
RTVSPropertyOp11
 70
     1
102
RTVSPropertyOp12
 70
     1
102
RTVSPropertyOp13
 70
     1
102
RTVSPropertyOp14
 70
     1
102
RTVSPropertyOp15
 70
     1
102
RTVSPropertyOp16
 70
     1
102
RTVSPropertyOp17
 70
     1
102
RTVSPropertyOp18
 70
     1
102
RTVSPropertyOp19
 70
     1
102
RTVSPropertyOp20
 70
     1
102
RTVSPropertyOp21
 70
     1
102
RTVSPropertyOp22
 70
     1
102
RTVSPropertyOp23
 70
     1
102
RTVSPropertyOp24
 70
     1
102
RTVSPropertyOp25
 70
     1
102
RTVSPropertyOp26
 70
     1
102
RTVSPropertyOp27
 70
     1
102
RTVSPropertyOp28
 70
     1
102
RTVSPropertyOp29
 70
     1
102
RTVSPropertyOp30
 70
     1
102
RTVSPropertyOp31
 70
     1
102
RTVSPropertyOp32
 70
     1
102
RTVSPropertyOp33
 70
     1
102
RTVSPropertyOp34
 70
     1
102
RTVSPropertyOp35
 70
     1
102
RTVSPropertyOp36
 70
     1
102
RTVSPropertyOp37
 70
     1
102
RTVSPropertyOp38
 70
     1
102
RTVSPropertyOp39
 70
     1
102
RTVSPropertyOp40
 70
     1
102
RTVSPropertyOp41
 70
     1
102
RTVSPropertyOp42
 70
     1
102
RTVSPropertyOp43
 70
     1
102
RTVSPropertyOp44
 70
     1
102
RTVSPropertyOp45
 70
     1
102
RTVSPropertyOp46
 70
     1
102
RTVSPropertyOp47
 70
     1
102
RTVSPropertyOp48
 70
     1
102
RTVSPropertyOp49
 70
     1
102
RTVSPropertyOp50
 70
     1
102
RTVSPropertyOp51
 70
     0
102
RTVSPropertyOp52
 70
     0
102
RTVSPropertyOp53
 70
     1
102
RTVSPropertyOp54
 70
     1
102
RTVSPropertyOp55
 70
     1
102
RTVSPropertyOp56
 70
     1
102
RTVSPropertyOp57
 70
     1
102
RTVSPropertyOp58
 70
     1
102
RTVSPropertyOp59
 70
     1
102
RTVSPropertyOp60
 70
     1
102
RTVSPropertyOp61
 70
     1
102
RTVSPropertyOp62
 70
     1
  0
XRECORD
  5
CB0
102
{ACAD_REACTORS
330
CAF
102
}
330
CAF
100
AcDbXrecord
280
     1
102
RTVSPost2010Prop28
280
     0
102
RTVSPost2010PropOp28
 70
     1
102
RTVSPost2010Prop29
280
     1
102
RTVSPost2010PropOp29
 70
     1
102
RTVSPost2010Prop30
280
     1
102
RTVSPost2010PropOp30
 70
     1
102
RTVSPost2010Prop31
280
     0
102
RTVSPost2010PropOp31
 70
     1
102
RTVSPost2010Prop32
280
     0
102
RTVSPost2010PropOp32
 70
     1
102
RTVSPost2010Prop33
280
     0
102
RTVSPost2010PropOp33
 70
     1
102
RTVSPost2010Prop34
280
     0
102
RTVSPost2010PropOp34
 70
     1
102
RTVSPost2010Prop35
280
     0
102
RTVSPost2010PropOp35
 70
     1
102
RTVSPost2010Prop36
280
     0
102
RTVSPost2010PropOp36
 70
     1
102
RTVSPost2010Prop37
 90
       50
102
RTVSPost2010PropOp37
 70
     1
102
RTVSPost2010Prop38
140
0.0
102
RTVSPost2010PropOp38
 70
     1
102
RTVSPost2010Prop39
140
1.0
102
RTVSPost2010PropOp39
 70
     1
102
RTVSPost2010Prop40
 90
        0
102
RTVSPost2010PropOp40
 70
     1
102
RTVSPost2010Prop41ColorIndex
 90
       18
102
RTVSPost2010Prop41ColorRGB
 90
        0
102
RTVSPost2010PropOp41
 70
     1
102
RTVSPost2010Prop42
 90
       50
102
RTVSPost2010PropOp42
 70
     1
102
RTVSPost2010Prop43
 90
        3
102
RTVSPost2010PropOp43
 70
     1
102
RTVSPost2010Prop44ColorIndex
 90
        5
102
RTVSPost2010Prop44ColorRGB
 90
      255
102
RTVSPost2010PropOp44
 70
     1
102
RTVSPost2010Prop45
280
     0
102
RTVSPost2010PropOp45
 70
     1
102
RTVSPost2010Prop46
 90
       50
102
RTVSPost2010PropOp46
 70
     1
102
RTVSPost2010Prop47
 90
       50
102
RTVSPost2010PropOp47
 70
     1
102
RTVSPost2010Prop48
 90
       50
102
RTVSPost2010PropOp48
 70
     1
102
RTVSPost2010Prop49
280
     0
102
RTVSPost2010PropOp49
 70
     1
102
RTVSPost2010Prop50
 90
       50
102
RTVSPost2010PropOp50
 70
     1
102
RTVSPost2010Prop51ColorIndex
 90
      256
102
RTVSPost2010Prop51ColorRGB
 90
-16777216
102
RTVSPost2010PropOp51
 70
     0
102
RTVSPost2010Prop52
140
1.0
102
RTVSPost2010PropOp52
 70
     0
102
RTVSPost2010Prop53
 90
        2
102
RTVSPost2010PropOp53
 70
     1
102
RTVSPost2010Prop54
  1
strokes_ogs.tif
102
RTVSPost2010PropOp54
 70
     1
102
RTVSPost2010Prop55
280
     0
102
RTVSPost2010PropOp55
 70
     1
102
RTVSPost2010Prop56
140
1.0
102
RTVSPost2010PropOp56
 70
     1
102
RTVSPost2010Prop57
140
1.0
102
RTVSPost2010PropOp57
 70
     1
102
RTVSPropertyOp0
 70
     1
102
RTVSPropertyOp1
 70
     1
102
RTVSPropertyOp2
 70
     1
102
RTVSPropertyOp3
 70
     1
102
RTVSPropertyOp4
 70
     1
102
RTVSPropertyOp5
 70
     1
102
RTVSPropertyOp6
 70
     1
102
RTVSPropertyOp7
 70
     1
102
RTVSPropertyOp8
 70
     1
102
RTVSPropertyOp9
 70
     1
102
RTVSPropertyOp10
 70
     1
102
RTVSPropertyOp11
 70
     1
102
RTVSPropertyOp12
 70
     1
102
RTVSPropertyOp13
 70
     1
102
RTVSPropertyOp14
 70
     1
102
RTVSPropertyOp15
 70
     1
102
RTVSPropertyOp16
 70
     1
102
RTVSPropertyOp17
 70
     1
102
RTVSPropertyOp18
 70
     1
102
RTVSPropertyOp19
 70
     1
102
RTVSPropertyOp20
 70
     1
102
RTVSPropertyOp21
 70
     1
102
RTVSPropertyOp22
 70
     1
102
RTVSPropertyOp23
 70
     1
102
RTVSPropertyOp24
 70
     1
102
RTVSPropertyOp25
 70
     1
102
RTVSPropertyOp26
 70
     1
102
RTVSPropertyOp27
 70
     1
102
RTVSPropertyOp28
 70
     1
102
RTVSPropertyOp29
 70
     1
102
RTVSPropertyOp30
 70
     1
102
RTVSPropertyOp31
 70
     1
102
RTVSPropertyOp32
 70
     1
102
RTVSPropertyOp33
 70
     1
102
RTVSPropertyOp34
 70
     1
102
RTVSPropertyOp35
 70
     1
102
RTVSPropertyOp36
 70
     1
102
RTVSPropertyOp37
 70
     1
102
RTVSPropertyOp38
 70
     1
102
RTVSPropertyOp39
 70
     1
102
RTVSPropertyOp40
 70
     1
102
RTVSPropertyOp41
 70
     1
102
RTVSPropertyOp42
 70
     1
102
RTVSPropertyOp43
 70
     1
102
RTVSPropertyOp44
 70
     1
102
RTVSPropertyOp45
 70
     1
102
RTVSPropertyOp46
 70
     1
102
RTVSPropertyOp47
 70
     1
102
RTVSPropertyOp48
 70
     1
102
RTVSPropertyOp49
 70
     1
102
RTVSPropertyOp50
 70
     1
102
RTVSPropertyOp51
 70
     0
102
RTVSPropertyOp52
 70
     0
102
RTVSPropertyOp53
 70
     1
102
RTVSPropertyOp54
 70
     1
102
RTVSPropertyOp55
 70
     1
102
RTVSPropertyOp56
 70
     1
102
RTVSPropertyOp57
 70
     1
102
RTVSPropertyOp58
 70
     1
102
RTVSPropertyOp59
 70
     1
102
RTVSPropertyOp60
 70
     1
102
RTVSPropertyOp61
 70
     1
102
RTVSPropertyOp62
 70
     1
  0
XRECORD
  5
CA4
102
{ACAD_REACTORS
330
CA3
102
}
330
CA3
100
AcDbXrecord
280
     1
102
RTVSPost2010Prop28
280
     0
102
RTVSPost2010PropOp28
 70
     1
102
RTVSPost2010Prop29
280
     1
102
RTVSPost2010PropOp29
 70
     1
102
RTVSPost2010Prop30
280
     1
102
RTVSPost2010PropOp30
 70
     1
102
RTVSPost2010Prop31
280
     0
102
RTVSPost2010PropOp31
 70
     1
102
RTVSPost2010Prop32
280
     0
102
RTVSPost2010PropOp32
 70
     1
102
RTVSPost2010Prop33
280
     0
102
RTVSPost2010PropOp33
 70
     1
102
RTVSPost2010Prop34
280
     0
102
RTVSPost2010PropOp34
 70
     1
102
RTVSPost2010Prop35
280
     0
102
RTVSPost2010PropOp35
 70
     1
102
RTVSPost2010Prop36
280
     0
102
RTVSPost2010PropOp36
 70
     1
102
RTVSPost2010Prop37
 90
       50
102
RTVSPost2010PropOp37
 70
     1
102
RTVSPost2010Prop38
140
0.0
102
RTVSPost2010PropOp38
 70
     1
102
RTVSPost2010Prop39
140
1.0
102
RTVSPost2010PropOp39
 70
     1
102
RTVSPost2010Prop40
 90
        0
102
RTVSPost2010PropOp40
 70
     1
102
RTVSPost2010Prop41ColorIndex
 90
       18
102
RTVSPost2010Prop41ColorRGB
 90
        0
102
RTVSPost2010PropOp41
 70
     1
102
RTVSPost2010Prop42
 90
       50
102
RTVSPost2010PropOp42
 70
     1
102
RTVSPost2010Prop43
 90
        3
102
RTVSPost2010PropOp43
 70
     1
102
RTVSPost2010Prop44ColorIndex
 90
        5
102
RTVSPost2010Prop44ColorRGB
 90
      255
102
RTVSPost2010PropOp44
 70
     1
102
RTVSPost2010Prop45
280
     0
102
RTVSPost2010PropOp45
 70
     1
102
RTVSPost2010Prop46
 90
       50
102
RTVSPost2010PropOp46
 70
     1
102
RTVSPost2010Prop47
 90
       50
102
RTVSPost2010PropOp47
 70
     1
102
RTVSPost2010Prop48
 90
       50
102
RTVSPost2010PropOp48
 70
     1
102
RTVSPost2010Prop49
280
     0
102
RTVSPost2010PropOp49
 70
     1
102
RTVSPost2010Prop50
 90
       50
102
RTVSPost2010PropOp50
 70
     1
102
RTVSPost2010Prop51ColorIndex
 90
      256
102
RTVSPost2010Prop51ColorRGB
 90
-16777216
102
RTVSPost2010PropOp51
 70
     0
102
RTVSPost2010Prop52
140
1.0
102
RTVSPost2010PropOp52
 70
     0
102
RTVSPost2010Prop53
 90
        2
102
RTVSPost2010PropOp53
 70
     1
102
RTVSPost2010Prop54
  1
strokes_ogs.tif
102
RTVSPost2010PropOp54
 70
     1
102
RTVSPost2010Prop55
280
     0
102
RTVSPost2010PropOp55
 70
     1
102
RTVSPost2010Prop56
140
1.0
102
RTVSPost2010PropOp56
 70
     1
102
RTVSPost2010Prop57
140
1.0
102
RTVSPost2010PropOp57
 70
     1
102
RTVSPropertyOp0
 70
     1
102
RTVSPropertyOp1
 70
     1
102
RTVSPropertyOp2
 70
     1
102
RTVSPropertyOp3
 70
     1
102
RTVSPropertyOp4
 70
     1
102
RTVSPropertyOp5
 70
     1
102
RTVSPropertyOp6
 70
     1
102
RTVSPropertyOp7
 70
     1
102
RTVSPropertyOp8
 70
     1
102
RTVSPropertyOp9
 70
     1
102
RTVSPropertyOp10
 70
     1
102
RTVSPropertyOp11
 70
     1
102
RTVSPropertyOp12
 70
     1
102
RTVSPropertyOp13
 70
     1
102
RTVSPropertyOp14
 70
     1
102
RTVSPropertyOp15
 70
     1
102
RTVSPropertyOp16
 70
     1
102
RTVSPropertyOp17
 70
     1
102
RTVSPropertyOp18
 70
     1
102
RTVSPropertyOp19
 70
     1
102
RTVSPropertyOp20
 70
     1
102
RTVSPropertyOp21
 70
     1
102
RTVSPropertyOp22
 70
     1
102
RTVSPropertyOp23
 70
     1
102
RTVSPropertyOp24
 70
     1
102
RTVSPropertyOp25
 70
     1
102
RTVSPropertyOp26
 70
     1
102
RTVSPropertyOp27
 70
     1
102
RTVSPropertyOp28
 70
     1
102
RTVSPropertyOp29
 70
     1
102
RTVSPropertyOp30
 70
     1
102
RTVSPropertyOp31
 70
     1
102
RTVSPropertyOp32
 70
     1
102
RTVSPropertyOp33
 70
     1
102
RTVSPropertyOp34
 70
     1
102
RTVSPropertyOp35
 70
     1
102
RTVSPropertyOp36
 70
     1
102
RTVSPropertyOp37
 70
     1
102
RTVSPropertyOp38
 70
     1
102
RTVSPropertyOp39
 70
     1
102
RTVSPropertyOp40
 70
     1
102
RTVSPropertyOp41
 70
     1
102
RTVSPropertyOp42
 70
     1
102
RTVSPropertyOp43
 70
     1
102
RTVSPropertyOp44
 70
     1
102
RTVSPropertyOp45
 70
     1
102
RTVSPropertyOp46
 70
     1
102
RTVSPropertyOp47
 70
     1
102
RTVSPropertyOp48
 70
     1
102
RTVSPropertyOp49
 70
     1
102
RTVSPropertyOp50
 70
     1
102
RTVSPropertyOp51
 70
     0
102
RTVSPropertyOp52
 70
     0
102
RTVSPropertyOp53
 70
     1
102
RTVSPropertyOp54
 70
     1
102
RTVSPropertyOp55
 70
     1
102
RTVSPropertyOp56
 70
     1
102
RTVSPropertyOp57
 70
     1
102
RTVSPropertyOp58
 70
     1
102
RTVSPropertyOp59
 70
     1
102
RTVSPropertyOp60
 70
     1
102
RTVSPropertyOp61
 70
     1
102
RTVSPropertyOp62
 70
     1
  0
XRECORD
  5
CBC
102
{ACAD_REACTORS
330
CBB
102
}
330
CBB
100
AcDbXrecord
280
     1
102
RTVSPost2010Prop28
280
     0
102
RTVSPost2010PropOp28
 70
     1
102
RTVSPost2010Prop29
280
     1
102
RTVSPost2010PropOp29
 70
     1
102
RTVSPost2010Prop30
280
     1
102
RTVSPost2010PropOp30
 70
     1
102
RTVSPost2010Prop31
280
     0
102
RTVSPost2010PropOp31
 70
     1
102
RTVSPost2010Prop32
280
     0
102
RTVSPost2010PropOp32
 70
     1
102
RTVSPost2010Prop33
280
     0
102
RTVSPost2010PropOp33
 70
     1
102
RTVSPost2010Prop34
280
     0
102
RTVSPost2010PropOp34
 70
     1
102
RTVSPost2010Prop35
280
     0
102
RTVSPost2010PropOp35
 70
     1
102
RTVSPost2010Prop36
280
     0
102
RTVSPost2010PropOp36
 70
     1
102
RTVSPost2010Prop37
 90
       50
102
RTVSPost2010PropOp37
 70
     1
102
RTVSPost2010Prop38
140
0.0
102
RTVSPost2010PropOp38
 70
     1
102
RTVSPost2010Prop39
140
1.0
102
RTVSPost2010PropOp39
 70
     1
102
RTVSPost2010Prop40
 90
        0
102
RTVSPost2010PropOp40
 70
     1
102
RTVSPost2010Prop41ColorIndex
 90
       18
102
RTVSPost2010Prop41ColorRGB
 90
        0
102
RTVSPost2010PropOp41
 70
     1
102
RTVSPost2010Prop42
 90
       50
102
RTVSPost2010PropOp42
 70
     1
102
RTVSPost2010Prop43
 90
        3
102
RTVSPost2010PropOp43
 70
     1
102
RTVSPost2010Prop44ColorIndex
 90
        5
102
RTVSPost2010Prop44ColorRGB
 90
      255
102
RTVSPost2010PropOp44
 70
     1
102
RTVSPost2010Prop45
280
     0
102
RTVSPost2010PropOp45
 70
     1
102
RTVSPost2010Prop46
 90
       50
102
RTVSPost2010PropOp46
 70
     1
102
RTVSPost2010Prop47
 90
       50
102
RTVSPost2010PropOp47
 70
     1
102
RTVSPost2010Prop48
 90
       50
102
RTVSPost2010PropOp48
 70
     1
102
RTVSPost2010Prop49
280
     0
102
RTVSPost2010PropOp49
 70
     1
102
RTVSPost2010Prop50
 90
       50
102
RTVSPost2010PropOp50
 70
     1
102
RTVSPost2010Prop51ColorIndex
 90
      256
102
RTVSPost2010Prop51ColorRGB
 90
-16777216
102
RTVSPost2010PropOp51
 70
     0
102
RTVSPost2010Prop52
140
1.0
102
RTVSPost2010PropOp52
 70
     0
102
RTVSPost2010Prop53
 90
        2
102
RTVSPost2010PropOp53
 70
     1
102
RTVSPost2010Prop54
  1
strokes_ogs.tif
102
RTVSPost2010PropOp54
 70
     1
102
RTVSPost2010Prop55
280
     0
102
RTVSPost2010PropOp55
 70
     1
102
RTVSPost2010Prop56
140
1.0
102
RTVSPost2010PropOp56
 70
     1
102
RTVSPost2010Prop57
140
1.0
102
RTVSPost2010PropOp57
 70
     1
102
RTVSPropertyOp0
 70
     1
102
RTVSPropertyOp1
 70
     1
102
RTVSPropertyOp2
 70
     1
102
RTVSPropertyOp3
 70
     1
102
RTVSPropertyOp4
 70
     1
102
RTVSPropertyOp5
 70
     1
102
RTVSPropertyOp6
 70
     1
102
RTVSPropertyOp7
 70
     1
102
RTVSPropertyOp8
 70
     1
102
RTVSPropertyOp9
 70
     1
102
RTVSPropertyOp10
 70
     1
102
RTVSPropertyOp11
 70
     1
102
RTVSPropertyOp12
 70
     1
102
RTVSPropertyOp13
 70
     1
102
RTVSPropertyOp14
 70
     1
102
RTVSPropertyOp15
 70
     1
102
RTVSPropertyOp16
 70
     1
102
RTVSPropertyOp17
 70
     1
102
RTVSPropertyOp18
 70
     1
102
RTVSPropertyOp19
 70
     1
102
RTVSPropertyOp20
 70
     1
102
RTVSPropertyOp21
 70
     1
102
RTVSPropertyOp22
 70
     1
102
RTVSPropertyOp23
 70
     1
102
RTVSPropertyOp24
 70
     1
102
RTVSPropertyOp25
 70
     1
102
RTVSPropertyOp26
 70
     1
102
RTVSPropertyOp27
 70
     1
102
RTVSPropertyOp28
 70
     1
102
RTVSPropertyOp29
 70
     1
102
RTVSPropertyOp30
 70
     1
102
RTVSPropertyOp31
 70
     1
102
RTVSPropertyOp32
 70
     1
102
RTVSPropertyOp33
 70
     1
102
RTVSPropertyOp34
 70
     1
102
RTVSPropertyOp35
 70
     1
102
RTVSPropertyOp36
 70
     1
102
RTVSPropertyOp37
 70
     1
102
RTVSPropertyOp38
 70
     1
102
RTVSPropertyOp39
 70
     1
102
RTVSPropertyOp40
 70
     1
102
RTVSPropertyOp41
 70
     1
102
RTVSPropertyOp42
 70
     1
102
RTVSPropertyOp43
 70
     1
102
RTVSPropertyOp44
 70
     1
102
RTVSPropertyOp45
 70
     1
102
RTVSPropertyOp46
 70
     1
102
RTVSPropertyOp47
 70
     1
102
RTVSPropertyOp48
 70
     1
102
RTVSPropertyOp49
 70
     1
102
RTVSPropertyOp50
 70
     1
102
RTVSPropertyOp51
 70
     0
102
RTVSPropertyOp52
 70
     0
102
RTVSPropertyOp53
 70
     1
102
RTVSPropertyOp54
 70
     1
102
RTVSPropertyOp55
 70
     1
102
RTVSPropertyOp56
 70
     1
102
RTVSPropertyOp57
 70
     1
102
RTVSPropertyOp58
 70
     1
102
RTVSPropertyOp59
 70
     1
102
RTVSPropertyOp60
 70
     1
102
RTVSPropertyOp61
 70
     1
102
RTVSPropertyOp62
 70
     1
  0
ENDSEC
  0
EOF
