  0
SECTION
  2
HEADER
  9
$ACADVER
  1
AC1009
  9
$INSBASE
 10
0.0
 20
0.0
 30
0.0
  9
$EXTMIN
 10
0.0788435654
 20
0.2147801566
 30
0.0
  9
$EXTMAX
 10
1189.0788435653999
 20
841.2147801566
 30
0.0
  9
$LIMMIN
 10
0.0
 20
0.0
  9
$LIMMAX
 10
1189.0
 20
841.0
  9
$ORTHOMODE
 70
     0
  9
$REGENMODE
 70
     1
  9
$FILLMODE
 70
     1
  9
$QTEXTMODE
 70
     0
  9
$MIRRTEXT
 70
     1
  9
$DRAGMODE
 70
     2
  9
$LTSCALE
 40
1.0
  9
$OSMODE
 70
    37
  9
$ATTMODE
 70
     1
  9
$TEXTSIZE
 40
2.5
  9
$TRACEWID
 40
1.0
  9
$TEXTSTYLE
  7
STANDARD
  9
$CLAYER
  8
0
  9
$CELTYPE
  6
BYLAYER
  9
$CECOLOR
 62
   256
  9
$DIMSCALE
 40
1.0
  9
$DIMASZ
 40
6.0
  9
$DIMEXO
 40
1.0
  9
$DIMDLI
 40
3.75
  9
$DIMRND
 40
0.0
  9
$DIMDLE
 40
0.0
  9
$DIMEXE
 40
1.0
  9
$DIMTP
 40
0.0
  9
$DIMTM
 40
0.0
  9
$DIMTXT
 40
3.5
  9
$DIMCEN
 40
2.5
  9
$DIMTSZ
 40
0.0
  9
$DIMTOL
 70
     0
  9
$DIMLIM
 70
     0
  9
$DIMTIH
 70
     1
  9
$DIMTOH
 70
     1
  9
$DIMSE1
 70
     0
  9
$DIMSE2
 70
     0
  9
$DIMTAD
 70
     1
  9
$DIMZIN
 70
     0
  9
$DIMBLK
  1

  9
$DIMASO
 70
     1
  9
$DIMSHO
 70
     1
  9
$DIMPOST
  1

  9
$DIMAPOST
  1

  9
$DIMALT
 70
     0
  9
$DIMALTD
 70
     3
  9
$DIMALTF
 40
0.0393700787
  9
$DIMLFAC
 40
2.0
  9
$DIMTOFL
 70
     1
  9
$DIMTVP
 40
0.0
  9
$DIMTIX
 70
     0
  9
$DIMSOXD
 70
     0
  9
$DIMSAH
 70
     0
  9
$DIMBLK1
  1

  9
$DIMBLK2
  1

  9
$DIMSTYLE
  2
ISO-25
  9
$DIMCLRD
 70
     0
  9
$DIMCLRE
 70
     0
  9
$DIMCLRT
 70
     0
  9
$DIMTFAC
 40
1.0
  9
$DIMGAP
 40
1.524
  9
$LUNITS
 70
     2
  9
$LUPREC
 70
     2
  9
$SKETCHINC
 40
1.0
  9
$FILLETRAD
 40
10.0
  9
$AUNITS
 70
     0
  9
$AUPREC
 70
     2
  9
$MENU
  1
.
  9
$ELEVATION
 40
0.0
  9
$PELEVATION
 40
0.0
  9
$THICKNESS
 40
0.0
  9
$LIMCHECK
 70
     0
  9
$BLIPMODE
 70
     0
  9
$CHAMFERA
 40
10.0
  9
$CHAMFERB
 40
10.0
  9
$SKPOLY
 70
     0
  9
$TDCREATE
 40
2456911.4890642939
  9
$TDUPDATE
 40
2456911.5019836579
  9
$TDINDWG
 40
0.000539213
  9
$TDUSRTIMER
 40
0.0005391898
  9
$USRTIMER
 70
     1
  9
$ANGBASE
 50
0.0
  9
$ANGDIR
 70
     0
  9
$PDMODE
 70
     0
  9
$PDSIZE
 40
-1.0
  9
$PLINEWID
 40
0.0
  9
$COORDS
 70
     1
  9
$SPLFRAME
 70
     0
  9
$SPLINETYPE
 70
     6
  9
$SPLINESEGS
 70
     8
  9
$ATTDIA
 70
     0
  9
$ATTREQ
 70
     1
  9
$HANDLING
 70
     1
  9
$HANDSEED
  5
F78
  9
$SURFTAB1
 70
     6
  9
$SURFTAB2
 70
     6
  9
$SURFTYPE
 70
     6
  9
$SURFU
 70
     6
  9
$SURFV
 70
     6
  9
$UCSNAME
  2

  9
$UCSORG
 10
0.0
 20
0.0
 30
0.0
  9
$UCSXDIR
 10
1.0
 20
0.0
 30
0.0
  9
$UCSYDIR
 10
0.0
 20
1.0
 30
0.0
  9
$PUCSNAME
  2

  9
$PUCSORG
 10
0.0
 20
0.0
 30
0.0
  9
$PUCSXDIR
 10
1.0
 20
0.0
 30
0.0
  9
$PUCSYDIR
 10
0.0
 20
1.0
 30
0.0
  9
$USERI1
 70
     0
  9
$USERI2
 70
     0
  9
$USERI3
 70
     0
  9
$USERI4
 70
     0
  9
$USERI5
 70
     0
  9
$USERR1
 40
0.0
  9
$USERR2
 40
0.0
  9
$USERR3
 40
0.0
  9
$USERR4
 40
0.0
  9
$USERR5
 40
0.0
  9
$WORLDVIEW
 70
     1
  9
$SHADEDGE
 70
     3
  9
$SHADEDIF
 70
    70
  9
$TILEMODE
 70
     1
  9
$MAXACTVP
 70
    64
  9
$PLIMCHECK
 70
     0
  9
$PEXTMIN
 10
1.0000000000000000E+020
 20
1.0000000000000000E+020
 30
1.0000000000000000E+020
  9
$PEXTMAX
 10
-1.0000000000000000E+020
 20
-1.0000000000000000E+020
 30
-1.0000000000000000E+020
  9
$PLIMMIN
 10
0.0
 20
0.0
  9
$PLIMMAX
 10
420.0
 20
297.0
  9
$UNITMODE
 70
     0
  9
$VISRETAIN
 70
     1
  9
$PLINEGEN
 70
     0
  9
$PSLTSCALE
 70
     1
  0
ENDSEC
  0
SECTION
  2
TABLES
  0
TABLE
  2
VPORT
 70
     1
  0
VPORT
  2
*ACTIVE
 70
     0
 10
0.0
 20
0.0
 11
1.0
 21
1.0
 12
490.7748986196554
 22
129.44225657567799
 13
0.0
 23
0.0
 14
10.0
 24
10.0
 15
10.0
 25
10.0
 16
0.0
 26
0.0
 36
1.0
 17
0.0
 27
0.0
 37
0.0
 40
205.93488268901399
 41
1.911550468262226
 42
50.0
 43
0.0
 44
0.0
 50
0.0
 51
0.0
 71
     0
 72
  2000
 73
     1
 74
     3
 75
     0
 76
     0
 77
     0
 78
     0
  0
ENDTAB
  0
TABLE
  2
LTYPE
 70
     6
  0
LTYPE
  2
CONTINUOUS
 70
     0
  3
Solid line
 72
    65
 73
     0
 40
0.0
  0
LTYPE
  2
HIDDEN
 70
     0
  3
Hidden __ __ __ __ __ __ __ __ __ __ __ __ __ __
 72
    65
 73
     2
 40
1.905
 49
1.27
 49
-0.635
  0
LTYPE
  2
PHANTOM
 70
     0
  3
Phantom ______  __  __  ______  __  __  ______
 72
    65
 73
     6
 40
12.699999999999999
 49
6.3499999999999988
 49
-1.27
 49
1.27
 49
-1.27
 49
1.27
 49
-1.27
  0
LTYPE
  2
CENTER
 70
     0
  3
Center ____ _ ____ _ ____ _ ____ _ ____ _ ____
 72
    65
 73
     4
 40
10.16
 49
6.3499999999999988
 49
-1.27
 49
1.27
 49
-1.27
  0
LTYPE
  2
CENTERX2
 70
     0
  3
Center (2x) ________  __  ________  __  _____
 72
    65
 73
     4
 40
20.32
 49
12.699999999999999
 49
-2.54
 49
2.54
 49
-2.54
  0
LTYPE
  2
DOT2
 70
     0
  3
Dot (.5x) ........................................
 72
    65
 73
     2
 40
0.635
 49
0.0
 49
-0.635
  0
ENDTAB
  0
TABLE
  2
LAYER
 70
     2
  0
LAYER
  2
0
 70
     0
 62
     7
  6
CONTINUOUS
  0
LAYER
  2
FORMAT
 70
     0
 62
     7
  6
CONTINUOUS
  0
ENDTAB
  0
TABLE
  2
STYLE
 70
     3
  0
STYLE
  2
STANDARD
 70
     0
 40
0.0
 41
1.0
 50
0.0
 71
     0
 42
2.5
  3
txt
  4
bigfont
  0
STYLE
  2
SLDTEXTSTYLE0
 70
     0
 40
0.0
 41
0.75
 50
0.0
 71
     0
 42
0.2
  3
TXT
  4
bigfont
  0
STYLE
  2
SLDTEXTSTYLE1
 70
     0
 40
0.0
 41
0.6785714286
 50
0.0
 71
     0
 42
0.2
  3
TXT
  4
bigfont
  0
ENDTAB
  0
TABLE
  2
VIEW
 70
     0
  0
ENDTAB
  0
TABLE
  2
UCS
 70
     0
  0
ENDTAB
  0
TABLE
  2
APPID
 70
     3
  0
APPID
  2
ACAD
 70
     0
  0
APPID
  2
ACAD_NAV_VCDISPLAY
 70
     0
  0
APPID
  2
ACAD_MLEADERVER
 70
     0
  0
ENDTAB
  0
TABLE
  2
DIMSTYLE
 70
     1
  0
DIMSTYLE
  2
ISO-25
 70
     0
  3

  4

  5

  6

  7

 40
1.0
 41
2.5
 42
0.625
 43
3.75
 44
1.25
 45
0.0
 46
0.0
 47
0.0
 48
0.0
140
2.5
141
2.5
142
0.0
143
0.0393700787
144
1.0
145
0.0
146
1.0
147
0.625
 71
     0
 72
     0
 73
     0
 74
     0
 75
     0
 76
     0
 77
     1
 78
     8
170
     0
171
     3
172
     1
173
     0
174
     0
175
     0
176
     0
177
     0
178
     0
  0
ENDTAB
  0
ENDSEC
  0
SECTION
  2
BLOCKS
  0
BLOCK
  8
0
  2
$MODEL_SPACE
 70
     0
 10
0.0
 20
0.0
 30
0.0
  3
$MODEL_SPACE
  1

  0
ENDBLK
  5
21
  8
0
  0
BLOCK
 67
     1
  8
0
  2
$PAPER_SPACE
 70
     0
 10
0.0
 20
0.0
 30
0.0
  3
$PAPER_SPACE
  1

  0
ENDBLK
  5
1D
 67
     1
  8
0
  0
BLOCK
  8
0
  2
SW_NOTE_0
 70
     0
 10
0.0
 20
0.0
 30
0.0
  3
SW_NOTE_0
  1

  0
INSERT
  5
9D
  8
0
  2
*U2
 10
0.0
 20
0.0
 30
0.0
  0
INSERT
  5
9E
  8
0
  2
*U3
 10
0.0
 20
0.0
 30
0.0
  0
INSERT
  5
9F
  8
0
  2
*U4
 10
0.0
 20
0.0
 30
0.0
  0
INSERT
  5
A0
  8
0
  2
*U5
 10
0.0
 20
0.0
 30
0.0
  0
INSERT
  5
A1
  8
0
  2
*U6
 10
0.0
 20
0.0
 30
0.0
  0
INSERT
  5
A2
  8
0
  2
*U7
 10
0.0
 20
0.0
 30
0.0
  0
ENDBLK
  5
9C
  8
0
  0
BLOCK
  8
0
  2
*U2
 70
     1
 10
0.0
 20
0.0
 30
0.0
  3
*U2
  1

  0
TEXT
  5
463
  8
0
 62
     0
 10
0.0
 20
0.4336016097
 30
0.0
 40
1.5
  1
指示なき場合：
 41
0.75
  7
SLDTEXTSTYLE0
  0
ENDBLK
  5
465
  8
0
  0
BLOCK
  8
0
  2
*U3
 70
     1
 10
0.0
 20
0.0
 30
0.0
  3
*U3
  1

  0
TEXT
  5
467
  8
0
 62
     0
 10
0.0
 20
-2.0663983345000001
 30
0.0
 40
1.5
  1
寸法はミリメータとする
 41
0.75
  7
SLDTEXTSTYLE0
  0
ENDBLK
  5
469
  8
0
  0
BLOCK
  8
0
  2
*U4
 70
     1
 10
0.0
 20
0.0
 30
0.0
  3
*U4
  1

  0
TEXT
  5
46B
  8
0
 62
     0
 10
-0.0000000000000001
 20
-4.5663982786000004
 30
0.0
 40
1.5
  1
表面粗さ：
 41
0.75
  7
SLDTEXTSTYLE0
  0
ENDBLK
  5
46D
  8
0
  0
BLOCK
  8
0
  2
*U5
 70
     1
 10
0.0
 20
0.0
 30
0.0
  3
*U5
  1

  0
TEXT
  5
46F
  8
0
 62
     0
 10
0.0
 20
-7.0663982227000002
 30
0.0
 40
1.5
  1
　公差　：
 41
0.75
  7
SLDTEXTSTYLE0
  0
ENDBLK
  5
471
  8
0
  0
BLOCK
  8
0
  2
*U6
 70
     1
 10
0.0
 20
0.0
 30
0.0
  3
*U6
  1

  0
TEXT
  5
473
  8
0
 62
     0
 10
0.0
 20
-9.5663981667999991
 30
0.0
 40
1.5
  1
　寸法　：
 41
0.75
  7
SLDTEXTSTYLE0
  0
ENDBLK
  5
475
  8
0
  0
BLOCK
  8
0
  2
*U7
 70
     1
 10
0.0
 20
0.0
 30
0.0
  3
*U7
  1

  0
TEXT
  5
477
  8
0
 62
     0
 10
0.0
 20
-12.0663981109
 30
0.0
 40
1.5
  1
　角度　：
 41
0.75
  7
SLDTEXTSTYLE0
  0
ENDBLK
  5
479
  8
0
  0
ENDSEC
  0
SECTION
  2
ENTITIES
  0
LINE
  5
2F7
  8
0
  6
CONTINUOUS
 10
512.61891449949997
 20
162.84063029800001
 30
0.0
 11
512.17697318269995
 21
162.5855030063
 31
0.0
  0
LINE
  5
2F8
  8
0
  6
CONTINUOUS
 10
513.67685126970002
 20
159.9873564008
 30
0.0
 11
514.11879258639999
 21
160.24248369239999
 31
0.0
  0
POLYLINE
  8
0
  5
598
  66
     1
 10
0.000000
 20
0.000000
 30
0.000000
  70
     8
  0
VERTEX
  8
0
  5
599
 10
457.298
 20
180.968
 30
0.000000
  70
    32
  0
VERTEX
  8
0
  5
59A
 10
457.303
 20
180.976
 30
0.000000
  70
    32
  0
VERTEX
  8
0
  5
59B
 10
457.307
 20
180.984
 30
0.000000
  70
    32
  0
VERTEX
  8
0
  5
59C
 10
457.312
 20
180.992
 30
0.000000
  70
    32
  0
VERTEX
  8
0
  5
59D
 10
457.316
 20
181.000
 30
0.000000
  70
    32
  0
VERTEX
  8
0
  5
59E
 10
457.320
 20
181.009
 30
0.000000
  70
    32
  0
VERTEX
  8
0
  5
59F
 10
457.324
 20
181.017
 30
0.000000
  70
    32
  0
VERTEX
  8
0
  5
5A0
 10
457.329
 20
181.025
 30
0.000000
  70
    32
  0
VERTEX
  8
0
  5
5A1
 10
457.333
 20
181.033
 30
0.000000
  70
    32
  0
VERTEX
  8
0
  5
5A2
 10
457.337
 20
181.041
 30
0.000000
  70
    32
  0
VERTEX
  8
0
  5
5A3
 10
457.341
 20
181.050
 30
0.000000
  70
    32
  0
VERTEX
  8
0
  5
5A4
 10
457.344
 20
181.058
 30
0.000000
  70
    32
  0
VERTEX
  8
0
  5
5A5
 10
457.348
 20
181.066
 30
0.000000
  70
    32
  0
VERTEX
  8
0
  5
5A6
 10
457.351
 20
181.075
 30
0.000000
  70
    32
  0
VERTEX
  8
0
  5
5A7
 10
457.355
 20
181.083
 30
0.000000
  70
    32
  0
VERTEX
  8
0
  5
5A8
 10
457.358
 20
181.092
 30
0.000000
  70
    32
  0
VERTEX
  8
0
  5
5A9
 10
457.361
 20
181.100
 30
0.000000
  70
    32
  0
VERTEX
  8
0
  5
5AA
 10
457.364
 20
181.109
 30
0.000000
  70
    32
  0
VERTEX
  8
0
  5
5AB
 10
457.367
 20
181.117
 30
0.000000
  70
    32
  0
VERTEX
  8
0
  5
5AC
 10
457.370
 20
181.126
 30
0.000000
  70
    32
  0
VERTEX
  8
0
  5
5AD
 10
457.373
 20
181.135
 30
0.000000
  70
    32
  0
VERTEX
  8
0
  5
5AE
 10
457.375
 20
181.143
 30
0.000000
  70
    32
  0
VERTEX
  8
0
  5
5AF
 10
457.378
 20
181.152
 30
0.000000
  70
    32
  0
VERTEX
  8
0
  5
5B0
 10
457.380
 20
181.161
 30
0.000000
  70
    32
  0
VERTEX
  8
0
  5
5B1
 10
457.383
 20
181.170
 30
0.000000
  70
    32
  0
VERTEX
  8
0
  5
5B2
 10
457.385
 20
181.179
 30
0.000000
  70
    32
  0
VERTEX
  8
0
  5
5B3
 10
457.387
 20
181.188
 30
0.000000
  70
    32
  0
VERTEX
  8
0
  5
5B4
 10
457.389
 20
181.197
 30
0.000000
  70
    32
  0
VERTEX
  8
0
  5
5B5
 10
457.391
 20
181.206
 30
0.000000
  70
    32
  0
VERTEX
  8
0
  5
5B6
 10
457.393
 20
181.215
 30
0.000000
  70
    32
  0
VERTEX
  8
0
  5
5B7
 10
457.394
 20
181.224
 30
0.000000
  70
    32
  0
VERTEX
  8
0
  5
5B8
 10
457.396
 20
181.233
 30
0.000000
  70
    32
  0
VERTEX
  8
0
  5
5B9
 10
457.397
 20
181.242
 30
0.000000
  70
    32
  0
VERTEX
  8
0
  5
5BA
 10
457.399
 20
181.251
 30
0.000000
  70
    32
  0
VERTEX
  8
0
  5
5BB
 10
457.400
 20
181.260
 30
0.000000
  70
    32
  0
VERTEX
  8
0
  5
5BC
 10
457.402
 20
181.269
 30
0.000000
  70
    32
  0
VERTEX
  8
0
  5
5BD
 10
457.403
 20
181.278
 30
0.000000
  70
    32
  0
VERTEX
  8
0
  5
5BE
 10
457.404
 20
181.288
 30
0.000000
  70
    32
  0
VERTEX
  8
0
  5
5BF
 10
457.405
 20
181.297
 30
0.000000
  70
    32
  0
VERTEX
  8
0
  5
5C0
 10
457.406
 20
181.306
 30
0.000000
  70
    32
  0
VERTEX
  8
0
  5
5C1
 10
457.407
 20
181.315
 30
0.000000
  70
    32
  0
VERTEX
  8
0
  5
5C2
 10
457.408
 20
181.325
 30
0.000000
  70
    32
  0
VERTEX
  8
0
  5
5C3
 10
457.409
 20
181.334
 30
0.000000
  70
    32
  0
VERTEX
  8
0
  5
5C4
 10
457.410
 20
181.343
 30
0.000000
  70
    32
  0
VERTEX
  8
0
  5
5C5
 10
457.411
 20
181.352
 30
0.000000
  70
    32
  0
VERTEX
  8
0
  5
5C6
 10
457.411
 20
181.362
 30
0.000000
  70
    32
  0
VERTEX
  8
0
  5
5C7
 10
457.412
 20
181.371
 30
0.000000
  70
    32
  0
VERTEX
  8
0
  5
5C8
 10
457.412
 20
181.380
 30
0.000000
  70
    32
  0
VERTEX
  8
0
  5
5C9
 10
457.413
 20
181.390
 30
0.000000
  70
    32
  0
VERTEX
  8
0
  5
5CA
 10
457.413
 20
181.399
 30
0.000000
  70
    32
  0
VERTEX
  8
0
  5
5CB
 10
457.414
 20
181.408
 30
0.000000
  70
    32
  0
VERTEX
  8
0
  5
5CC
 10
457.414
 20
181.418
 30
0.000000
  70
    32
  0
VERTEX
  8
0
  5
5CD
 10
457.415
 20
181.427
 30
0.000000
  70
    32
  0
VERTEX
  8
0
  5
5CE
 10
457.415
 20
181.436
 30
0.000000
  70
    32
  0
VERTEX
  8
0
  5
5CF
 10
457.415
 20
181.446
 30
0.000000
  70
    32
  0
VERTEX
  8
0
  5
5D0
 10
457.415
 20
181.455
 30
0.000000
  70
    32
  0
VERTEX
  8
0
  5
5D1
 10
457.416
 20
181.464
 30
0.000000
  70
    32
  0
VERTEX
  8
0
  5
5D2
 10
457.416
 20
181.474
 30
0.000000
  70
    32
  0
VERTEX
  8
0
  5
5D3
 10
457.416
 20
181.483
 30
0.000000
  70
    32
  0
VERTEX
  8
0
  5
5D4
 10
457.416
 20
181.492
 30
0.000000
  70
    32
  0
VERTEX
  8
0
  5
5D5
 10
457.416
 20
181.502
 30
0.000000
  70
    32
  0
VERTEX
  8
0
  5
5D6
 10
457.416
 20
181.511
 30
0.000000
  70
    32
  0
VERTEX
  8
0
  5
5D7
 10
457.416
 20
181.520
 30
0.000000
  70
    32
  0
VERTEX
  8
0
  5
5D8
 10
457.416
 20
181.529
 30
0.000000
  70
    32
  0
VERTEX
  8
0
  5
5D9
 10
457.416
 20
181.539
 30
0.000000
  70
    32
  0
VERTEX
  8
0
  5
5DA
 10
457.416
 20
181.548
 30
0.000000
  70
    32
  0
VERTEX
  8
0
  5
5DB
 10
457.415
 20
181.557
 30
0.000000
  70
    32
  0
VERTEX
  8
0
  5
5DC
 10
457.415
 20
181.567
 30
0.000000
  70
    32
  0
VERTEX
  8
0
  5
5DD
 10
457.415
 20
181.576
 30
0.000000
  70
    32
  0
VERTEX
  8
0
  5
5DE
 10
457.415
 20
181.585
 30
0.000000
  70
    32
  0
VERTEX
  8
0
  5
5DF
 10
457.414
 20
181.595
 30
0.000000
  70
    32
  0
VERTEX
  8
0
  5
5E0
 10
457.414
 20
181.604
 30
0.000000
  70
    32
  0
VERTEX
  8
0
  5
5E1
 10
457.413
 20
181.613
 30
0.000000
  70
    32
  0
VERTEX
  8
0
  5
5E2
 10
457.413
 20
181.622
 30
0.000000
  70
    32
  0
VERTEX
  8
0
  5
5E3
 10
457.412
 20
181.632
 30
0.000000
  70
    32
  0
VERTEX
  8
0
  5
5E4
 10
457.412
 20
181.641
 30
0.000000
  70
    32
  0
VERTEX
  8
0
  5
5E5
 10
457.411
 20
181.650
 30
0.000000
  70
    32
  0
VERTEX
  8
0
  5
5E6
 10
457.411
 20
181.660
 30
0.000000
  70
    32
  0
VERTEX
  8
0
  5
5E7
 10
457.410
 20
181.669
 30
0.000000
  70
    32
  0
VERTEX
  8
0
  5
5E8
 10
457.409
 20
181.678
 30
0.000000
  70
    32
  0
VERTEX
  8
0
  5
5E9
 10
457.408
 20
181.688
 30
0.000000
  70
    32
  0
VERTEX
  8
0
  5
5EA
 10
457.408
 20
181.697
 30
0.000000
  70
    32
  0
VERTEX
  8
0
  5
5EB
 10
457.407
 20
181.706
 30
0.000000
  70
    32
  0
VERTEX
  8
0
  5
5EC
 10
457.406
 20
181.715
 30
0.000000
  70
    32
  0
VERTEX
  8
0
  5
5ED
 10
457.405
 20
181.725
 30
0.000000
  70
    32
  0
VERTEX
  8
0
  5
5EE
 10
457.404
 20
181.734
 30
0.000000
  70
    32
  0
VERTEX
  8
0
  5
5EF
 10
457.403
 20
181.743
 30
0.000000
  70
    32
  0
VERTEX
  8
0
  5
5F0
 10
457.402
 20
181.753
 30
0.000000
  70
    32
  0
VERTEX
  8
0
  5
5F1
 10
457.400
 20
181.762
 30
0.000000
  70
    32
  0
VERTEX
  8
0
  5
5F2
 10
457.399
 20
181.771
 30
0.000000
  70
    32
  0
VERTEX
  8
0
  5
5F3
 10
457.398
 20
181.780
 30
0.000000
  70
    32
  0
VERTEX
  8
0
  5
5F4
 10
457.397
 20
181.790
 30
0.000000
  70
    32
  0
VERTEX
  8
0
  5
5F5
 10
457.395
 20
181.799
 30
0.000000
  70
    32
  0
VERTEX
  8
0
  5
5F6
 10
457.394
 20
181.808
 30
0.000000
  70
    32
  0
VERTEX
  8
0
  5
5F7
 10
457.393
 20
181.817
 30
0.000000
  70
    32
  0
VERTEX
  8
0
  5
5F8
 10
457.391
 20
181.827
 30
0.000000
  70
    32
  0
VERTEX
  8
0
  5
5F9
 10
457.390
 20
181.836
 30
0.000000
  70
    32
  0
VERTEX
  8
0
  5
5FA
 10
457.388
 20
181.845
 30
0.000000
  70
    32
  0
VERTEX
  8
0
  5
5FB
 10
457.386
 20
181.855
 30
0.000000
  70
    32
  0
VERTEX
  8
0
  5
5FC
 10
457.385
 20
181.864
 30
0.000000
  70
    32
  0
VERTEX
  8
0
  5
5FD
 10
457.383
 20
181.873
 30
0.000000
  70
    32
  0
VERTEX
  8
0
  5
5FE
 10
457.381
 20
181.882
 30
0.000000
  70
    32
  0
VERTEX
  8
0
  5
5FF
 10
457.379
 20
181.892
 30
0.000000
  70
    32
  0
VERTEX
  8
0
  5
600
 10
457.377
 20
181.901
 30
0.000000
  70
    32
  0
VERTEX
  8
0
  5
601
 10
457.376
 20
181.910
 30
0.000000
  70
    32
  0
VERTEX
  8
0
  5
602
 10
457.374
 20
181.919
 30
0.000000
  70
    32
  0
VERTEX
  8
0
  5
603
 10
457.372
 20
181.929
 30
0.000000
  70
    32
  0
VERTEX
  8
0
  5
604
 10
457.369
 20
181.938
 30
0.000000
  70
    32
  0
VERTEX
  8
0
  5
605
 10
457.367
 20
181.947
 30
0.000000
  70
    32
  0
VERTEX
  8
0
  5
606
 10
457.365
 20
181.957
 30
0.000000
  70
    32
  0
VERTEX
  8
0
  5
607
 10
457.363
 20
181.966
 30
0.000000
  70
    32
  0
VERTEX
  8
0
  5
608
 10
457.361
 20
181.975
 30
0.000000
  70
    32
  0
VERTEX
  8
0
  5
609
 10
457.358
 20
181.984
 30
0.000000
  70
    32
  0
VERTEX
  8
0
  5
60A
 10
457.356
 20
181.994
 30
0.000000
  70
    32
  0
VERTEX
  8
0
  5
60B
 10
457.354
 20
182.003
 30
0.000000
  70
    32
  0
VERTEX
  8
0
  5
60C
 10
457.351
 20
182.012
 30
0.000000
  70
    32
  0
VERTEX
  8
0
  5
60D
 10
457.349
 20
182.021
 30
0.000000
  70
    32
  0
VERTEX
  8
0
  5
60E
 10
457.346
 20
182.031
 30
0.000000
  70
    32
  0
VERTEX
  8
0
  5
60F
 10
457.343
 20
182.040
 30
0.000000
  70
    32
  0
VERTEX
  8
0
  5
610
 10
457.341
 20
182.049
 30
0.000000
  70
    32
  0
VERTEX
  8
0
  5
611
 10
457.338
 20
182.058
 30
0.000000
  70
    32
  0
VERTEX
  8
0
  5
612
 10
457.335
 20
182.067
 30
0.000000
  70
    32
  0
VERTEX
  8
0
  5
613
 10
457.333
 20
182.077
 30
0.000000
  70
    32
  0
VERTEX
  8
0
  5
614
 10
457.330
 20
182.086
 30
0.000000
  70
    32
  0
VERTEX
  8
0
  5
615
 10
457.327
 20
182.095
 30
0.000000
  70
    32
  0
VERTEX
  8
0
  5
616
 10
457.324
 20
182.104
 30
0.000000
  70
    32
  0
VERTEX
  8
0
  5
617
 10
457.321
 20
182.113
 30
0.000000
  70
    32
  0
VERTEX
  8
0
  5
618
 10
457.318
 20
182.123
 30
0.000000
  70
    32
  0
VERTEX
  8
0
  5
619
 10
457.315
 20
182.132
 30
0.000000
  70
    32
  0
VERTEX
  8
0
  5
61A
 10
457.312
 20
182.141
 30
0.000000
  70
    32
  0
VERTEX
  8
0
  5
61B
 10
457.309
 20
182.150
 30
0.000000
  70
    32
  0
VERTEX
  8
0
  5
61C
 10
457.306
 20
182.159
 30
0.000000
  70
    32
  0
VERTEX
  8
0
  5
61D
 10
457.302
 20
182.168
 30
0.000000
  70
    32
  0
VERTEX
  8
0
  5
61E
 10
457.299
 20
182.177
 30
0.000000
  70
    32
  0
VERTEX
  8
0
  5
61F
 10
457.296
 20
182.186
 30
0.000000
  70
    32
  0
VERTEX
  8
0
  5
620
 10
457.292
 20
182.196
 30
0.000000
  70
    32
  0
VERTEX
  8
0
  5
621
 10
457.289
 20
182.205
 30
0.000000
  70
    32
  0
VERTEX
  8
0
  5
622
 10
457.286
 20
182.214
 30
0.000000
  70
    32
  0
VERTEX
  8
0
  5
623
 10
457.282
 20
182.223
 30
0.000000
  70
    32
  0
VERTEX
  8
0
  5
624
 10
457.279
 20
182.232
 30
0.000000
  70
    32
  0
VERTEX
  8
0
  5
625
 10
457.275
 20
182.241
 30
0.000000
  70
    32
  0
VERTEX
  8
0
  5
626
 10
457.271
 20
182.250
 30
0.000000
  70
    32
  0
VERTEX
  8
0
  5
627
 10
457.268
 20
182.259
 30
0.000000
  70
    32
  0
VERTEX
  8
0
  5
628
 10
457.264
 20
182.268
 30
0.000000
  70
    32
  0
VERTEX
  8
0
  5
629
 10
457.260
 20
182.277
 30
0.000000
  70
    32
  0
VERTEX
  8
0
  5
62A
 10
457.257
 20
182.286
 30
0.000000
  70
    32
  0
VERTEX
  8
0
  5
62B
 10
457.253
 20
182.295
 30
0.000000
  70
    32
  0
VERTEX
  8
0
  5
62C
 10
457.249
 20
182.304
 30
0.000000
  70
    32
  0
VERTEX
  8
0
  5
62D
 10
457.245
 20
182.313
 30
0.000000
  70
    32
  0
VERTEX
  8
0
  5
62E
 10
457.241
 20
182.322
 30
0.000000
  70
    32
  0
VERTEX
  8
0
  5
62F
 10
457.237
 20
182.331
 30
0.000000
  70
    32
  0
VERTEX
  8
0
  5
630
 10
457.233
 20
182.340
 30
0.000000
  70
    32
  0
VERTEX
  8
0
  5
631
 10
457.229
 20
182.349
 30
0.000000
  70
    32
  0
VERTEX
  8
0
  5
632
 10
457.225
 20
182.357
 30
0.000000
  70
    32
  0
VERTEX
  8
0
  5
633
 10
457.221
 20
182.366
 30
0.000000
  70
    32
  0
VERTEX
  8
0
  5
634
 10
457.217
 20
182.375
 30
0.000000
  70
    32
  0
VERTEX
  8
0
  5
635
 10
457.213
 20
182.384
 30
0.000000
  70
    32
  0
VERTEX
  8
0
  5
636
 10
457.208
 20
182.393
 30
0.000000
  70
    32
  0
VERTEX
  8
0
  5
637
 10
457.204
 20
182.402
 30
0.000000
  70
    32
  0
VERTEX
  8
0
  5
638
 10
457.200
 20
182.410
 30
0.000000
  70
    32
  0
VERTEX
  8
0
  5
639
 10
457.196
 20
182.419
 30
0.000000
  70
    32
  0
VERTEX
  8
0
  5
63A
 10
457.191
 20
182.428
 30
0.000000
  70
    32
  0
VERTEX
  8
0
  5
63B
 10
457.187
 20
182.437
 30
0.000000
  70
    32
  0
VERTEX
  8
0
  5
63C
 10
457.182
 20
182.445
 30
0.000000
  70
    32
  0
VERTEX
  8
0
  5
63D
 10
457.178
 20
182.454
 30
0.000000
  70
    32
  0
VERTEX
  8
0
  5
63E
 10
457.173
 20
182.463
 30
0.000000
  70
    32
  0
VERTEX
  8
0
  5
63F
 10
457.169
 20
182.471
 30
0.000000
  70
    32
  0
VERTEX
  8
0
  5
640
 10
457.164
 20
182.480
 30
0.000000
  70
    32
  0
VERTEX
  8
0
  5
641
 10
457.160
 20
182.489
 30
0.000000
  70
    32
  0
VERTEX
  8
0
  5
642
 10
457.155
 20
182.497
 30
0.000000
  70
    32
  0
VERTEX
  8
0
  5
643
 10
457.150
 20
182.506
 30
0.000000
  70
    32
  0
VERTEX
  8
0
  5
644
 10
457.145
 20
182.514
 30
0.000000
  70
    32
  0
VERTEX
  8
0
  5
645
 10
457.141
 20
182.523
 30
0.000000
  70
    32
  0
VERTEX
  8
0
  5
646
 10
457.136
 20
182.532
 30
0.000000
  70
    32
  0
VERTEX
  8
0
  5
647
 10
457.131
 20
182.540
 30
0.000000
  70
    32
  0
VERTEX
  8
0
  5
648
 10
457.126
 20
182.549
 30
0.000000
  70
    32
  0
VERTEX
  8
0
  5
649
 10
457.121
 20
182.557
 30
0.000000
  70
    32
  0
VERTEX
  8
0
  5
64A
 10
457.116
 20
182.565
 30
0.000000
  70
    32
  0
VERTEX
  8
0
  5
64B
 10
457.111
 20
182.574
 30
0.000000
  70
    32
  0
VERTEX
  8
0
  5
64C
 10
457.106
 20
182.582
 30
0.000000
  70
    32
  0
VERTEX
  8
0
  5
64D
 10
457.101
 20
182.591
 30
0.000000
  70
    32
  0
VERTEX
  8
0
  5
64E
 10
457.096
 20
182.599
 30
0.000000
  70
    32
  0
VERTEX
  8
0
  5
64F
 10
457.091
 20
182.607
 30
0.000000
  70
    32
  0
VERTEX
  8
0
  5
650
 10
457.086
 20
182.616
 30
0.000000
  70
    32
  0
VERTEX
  8
0
  5
651
 10
457.081
 20
182.624
 30
0.000000
  70
    32
  0
VERTEX
  8
0
  5
652
 10
457.075
 20
182.632
 30
0.000000
  70
    32
  0
VERTEX
  8
0
  5
653
 10
457.070
 20
182.640
 30
0.000000
  70
    32
  0
VERTEX
  8
0
  5
654
 10
457.065
 20
182.649
 30
0.000000
  70
    32
  0
VERTEX
  8
0
  5
655
 10
457.059
 20
182.657
 30
0.000000
  70
    32
  0
VERTEX
  8
0
  5
656
 10
457.054
 20
182.665
 30
0.000000
  70
    32
  0
VERTEX
  8
0
  5
657
 10
457.049
 20
182.673
 30
0.000000
  70
    32
  0
VERTEX
  8
0
  5
658
 10
457.043
 20
182.681
 30
0.000000
  70
    32
  0
VERTEX
  8
0
  5
659
 10
457.038
 20
182.689
 30
0.000000
  70
    32
  0
VERTEX
  8
0
  5
65A
 10
457.032
 20
182.697
 30
0.000000
  70
    32
  0
VERTEX
  8
0
  5
65B
 10
457.027
 20
182.705
 30
0.000000
  70
    32
  0
VERTEX
  8
0
  5
65C
 10
457.021
 20
182.713
 30
0.000000
  70
    32
  0
VERTEX
  8
0
  5
65D
 10
457.016
 20
182.721
 30
0.000000
  70
    32
  0
VERTEX
  8
0
  5
65E
 10
457.010
 20
182.729
 30
0.000000
  70
    32
  0
VERTEX
  8
0
  5
65F
 10
457.004
 20
182.737
 30
0.000000
  70
    32
  0
VERTEX
  8
0
  5
660
 10
456.999
 20
182.745
 30
0.000000
  70
    32
  0
VERTEX
  8
0
  5
661
 10
456.993
 20
182.753
 30
0.000000
  70
    32
  0
VERTEX
  8
0
  5
662
 10
456.987
 20
182.761
 30
0.000000
  70
    32
  0
VERTEX
  8
0
  5
663
 10
456.981
 20
182.769
 30
0.000000
  70
    32
  0
VERTEX
  8
0
  5
664
 10
456.976
 20
182.776
 30
0.000000
  70
    32
  0
VERTEX
  8
0
  5
665
 10
456.970
 20
182.784
 30
0.000000
  70
    32
  0
VERTEX
  8
0
  5
666
 10
456.964
 20
182.792
 30
0.000000
  70
    32
  0
VERTEX
  8
0
  5
667
 10
456.958
 20
182.800
 30
0.000000
  70
    32
  0
VERTEX
  8
0
  5
668
 10
456.952
 20
182.807
 30
0.000000
  70
    32
  0
VERTEX
  8
0
  5
669
 10
456.946
 20
182.815
 30
0.000000
  70
    32
  0
VERTEX
  8
0
  5
66A
 10
456.940
 20
182.823
 30
0.000000
  70
    32
  0
VERTEX
  8
0
  5
66B
 10
456.934
 20
182.830
 30
0.000000
  70
    32
  0
VERTEX
  8
0
  5
66C
 10
456.928
 20
182.838
 30
0.000000
  70
    32
  0
VERTEX
  8
0
  5
66D
 10
456.922
 20
182.845
 30
0.000000
  70
    32
  0
VERTEX
  8
0
  5
66E
 10
456.916
 20
182.853
 30
0.000000
  70
    32
  0
VERTEX
  8
0
  5
66F
 10
456.909
 20
182.860
 30
0.000000
  70
    32
  0
VERTEX
  8
0
  5
670
 10
456.903
 20
182.868
 30
0.000000
  70
    32
  0
VERTEX
  8
0
  5
671
 10
456.897
 20
182.875
 30
0.000000
  70
    32
  0
VERTEX
  8
0
  5
672
 10
456.891
 20
182.882
 30
0.000000
  70
    32
  0
VERTEX
  8
0
  5
673
 10
456.885
 20
182.890
 30
0.000000
  70
    32
  0
VERTEX
  8
0
  5
674
 10
456.878
 20
182.897
 30
0.000000
  70
    32
  0
VERTEX
  8
0
  5
675
 10
456.872
 20
182.904
 30
0.000000
  70
    32
  0
VERTEX
  8
0
  5
676
 10
456.866
 20
182.911
 30
0.000000
  70
    32
  0
VERTEX
  8
0
  5
677
 10
456.859
 20
182.919
 30
0.000000
  70
    32
  0
VERTEX
  8
0
  5
678
 10
456.853
 20
182.926
 30
0.000000
  70
    32
  0
VERTEX
  8
0
  5
679
 10
456.846
 20
182.933
 30
0.000000
  70
    32
  0
VERTEX
  8
0
  5
67A
 10
456.840
 20
182.940
 30
0.000000
  70
    32
  0
VERTEX
  8
0
  5
67B
 10
456.833
 20
182.947
 30
0.000000
  70
    32
  0
VERTEX
  8
0
  5
67C
 10
456.827
 20
182.954
 30
0.000000
  70
    32
  0
VERTEX
  8
0
  5
67D
 10
456.820
 20
182.961
 30
0.000000
  70
    32
  0
VERTEX
  8
0
  5
67E
 10
456.814
 20
182.968
 30
0.000000
  70
    32
  0
VERTEX
  8
0
  5
67F
 10
456.807
 20
182.975
 30
0.000000
  70
    32
  0
VERTEX
  8
0
  5
680
 10
456.800
 20
182.982
 30
0.000000
  70
    32
  0
VERTEX
  8
0
  5
681
 10
456.794
 20
182.989
 30
0.000000
  70
    32
  0
VERTEX
  8
0
  5
682
 10
456.787
 20
182.996
 30
0.000000
  70
    32
  0
VERTEX
  8
0
  5
683
 10
456.780
 20
183.003
 30
0.000000
  70
    32
  0
VERTEX
  8
0
  5
684
 10
456.773
 20
183.009
 30
0.000000
  70
    32
  0
VERTEX
  8
0
  5
685
 10
456.767
 20
183.016
 30
0.000000
  70
    32
  0
VERTEX
  8
0
  5
686
 10
456.760
 20
183.023
 30
0.000000
  70
    32
  0
VERTEX
  8
0
  5
687
 10
456.753
 20
183.029
 30
0.000000
  70
    32
  0
VERTEX
  8
0
  5
688
 10
456.746
 20
183.036
 30
0.000000
  70
    32
  0
VERTEX
  8
0
  5
689
 10
456.739
 20
183.043
 30
0.000000
  70
    32
  0
VERTEX
  8
0
  5
68A
 10
456.732
 20
183.049
 30
0.000000
  70
    32
  0
VERTEX
  8
0
  5
68B
 10
456.725
 20
183.056
 30
0.000000
  70
    32
  0
VERTEX
  8
0
  5
68C
 10
456.718
 20
183.062
 30
0.000000
  70
    32
  0
VERTEX
  8
0
  5
68D
 10
456.711
 20
183.069
 30
0.000000
  70
    32
  0
VERTEX
  8
0
  5
68E
 10
456.704
 20
183.075
 30
0.000000
  70
    32
  0
VERTEX
  8
0
  5
68F
 10
456.697
 20
183.082
 30
0.000000
  70
    32
  0
VERTEX
  8
0
  5
690
 10
456.690
 20
183.088
 30
0.000000
  70
    32
  0
VERTEX
  8
0
  5
691
 10
456.683
 20
183.094
 30
0.000000
  70
    32
  0
VERTEX
  8
0
  5
692
 10
456.676
 20
183.101
 30
0.000000
  70
    32
  0
VERTEX
  8
0
  5
693
 10
456.669
 20
183.107
 30
0.000000
  70
    32
  0
VERTEX
  8
0
  5
694
 10
456.662
 20
183.113
 30
0.000000
  70
    32
  0
VERTEX
  8
0
  5
695
 10
456.654
 20
183.119
 30
0.000000
  70
    32
  0
VERTEX
  8
0
  5
696
 10
456.647
 20
183.126
 30
0.000000
  70
    32
  0
VERTEX
  8
0
  5
697
 10
456.640
 20
183.132
 30
0.000000
  70
    32
  0
VERTEX
  8
0
  5
698
 10
456.633
 20
183.138
 30
0.000000
  70
    32
  0
VERTEX
  8
0
  5
699
 10
456.625
 20
183.144
 30
0.000000
  70
    32
  0
VERTEX
  8
0
  5
69A
 10
456.618
 20
183.150
 30
0.000000
  70
    32
  0
VERTEX
  8
0
  5
69B
 10
456.611
 20
183.156
 30
0.000000
  70
    32
  0
VERTEX
  8
0
  5
69C
 10
456.603
 20
183.162
 30
0.000000
  70
    32
  0
VERTEX
  8
0
  5
69D
 10
456.596
 20
183.168
 30
0.000000
  70
    32
  0
VERTEX
  8
0
  5
69E
 10
456.589
 20
183.174
 30
0.000000
  70
    32
  0
VERTEX
  8
0
  5
69F
 10
456.581
 20
183.180
 30
0.000000
  70
    32
  0
VERTEX
  8
0
  5
6A0
 10
456.574
 20
183.185
 30
0.000000
  70
    32
  0
VERTEX
  8
0
  5
6A1
 10
456.566
 20
183.191
 30
0.000000
  70
    32
  0
VERTEX
  8
0
  5
6A2
 10
456.559
 20
183.197
 30
0.000000
  70
    32
  0
VERTEX
  8
0
  5
6A3
 10
456.551
 20
183.203
 30
0.000000
  70
    32
  0
VERTEX
  8
0
  5
6A4
 10
456.544
 20
183.208
 30
0.000000
  70
    32
  0
VERTEX
  8
0
  5
6A5
 10
456.536
 20
183.214
 30
0.000000
  70
    32
  0
VERTEX
  8
0
  5
6A6
 10
456.528
 20
183.219
 30
0.000000
  70
    32
  0
VERTEX
  8
0
  5
6A7
 10
456.521
 20
183.225
 30
0.000000
  70
    32
  0
VERTEX
  8
0
  5
6A8
 10
456.513
 20
183.230
 30
0.000000
  70
    32
  0
VERTEX
  8
0
  5
6A9
 10
456.505
 20
183.236
 30
0.000000
  70
    32
  0
VERTEX
  8
0
  5
6AA
 10
456.498
 20
183.241
 30
0.000000
  70
    32
  0
VERTEX
  8
0
  5
6AB
 10
456.490
 20
183.247
 30
0.000000
  70
    32
  0
VERTEX
  8
0
  5
6AC
 10
456.482
 20
183.252
 30
0.000000
  70
    32
  0
VERTEX
  8
0
  5
6AD
 10
456.475
 20
183.257
 30
0.000000
  70
    32
  0
VERTEX
  8
0
  5
6AE
 10
456.467
 20
183.262
 30
0.000000
  70
    32
  0
VERTEX
  8
0
  5
6AF
 10
456.459
 20
183.268
 30
0.000000
  70
    32
  0
VERTEX
  8
0
  5
6B0
 10
456.451
 20
183.273
 30
0.000000
  70
    32
  0
VERTEX
  8
0
  5
6B1
 10
456.443
 20
183.278
 30
0.000000
  70
    32
  0
VERTEX
  8
0
  5
6B2
 10
456.435
 20
183.283
 30
0.000000
  70
    32
  0
VERTEX
  8
0
  5
6B3
 10
456.427
 20
183.288
 30
0.000000
  70
    32
  0
VERTEX
  8
0
  5
6B4
 10
456.420
 20
183.293
 30
0.000000
  70
    32
  0
VERTEX
  8
0
  5
6B5
 10
456.412
 20
183.297
 30
0.000000
  70
    32
  0
VERTEX
  8
0
  5
6B6
 10
456.404
 20
183.302
 30
0.000000
  70
    32
  0
VERTEX
  8
0
  5
6B7
 10
456.396
 20
183.307
 30
0.000000
  70
    32
  0
VERTEX
  8
0
  5
6B8
 10
456.388
 20
183.312
 30
0.000000
  70
    32
  0
VERTEX
  8
0
  5
6B9
 10
456.380
 20
183.316
 30
0.000000
  70
    32
  0
VERTEX
  8
0
  5
6BA
 10
456.371
 20
183.321
 30
0.000000
  70
    32
  0
VERTEX
  8
0
  5
6BB
 10
456.363
 20
183.325
 30
0.000000
  70
    32
  0
VERTEX
  8
0
  5
6BC
 10
456.355
 20
183.330
 30
0.000000
  70
    32
  0
VERTEX
  8
0
  5
6BD
 10
456.347
 20
183.334
 30
0.000000
  70
    32
  0
VERTEX
  8
0
  5
6BE
 10
456.339
 20
183.338
 30
0.000000
  70
    32
  0
VERTEX
  8
0
  5
6BF
 10
456.331
 20
183.343
 30
0.000000
  70
    32
  0
VERTEX
  8
0
  5
6C0
 10
456.323
 20
183.347
 30
0.000000
  70
    32
  0
VERTEX
  8
0
  5
6C1
 10
456.314
 20
183.351
 30
0.000000
  70
    32
  0
VERTEX
  8
0
  5
6C2
 10
456.306
 20
183.355
 30
0.000000
  70
    32
  0
VERTEX
  8
0
  5
6C3
 10
456.298
 20
183.359
 30
0.000000
  70
    32
  0
VERTEX
  8
0
  5
6C4
 10
456.290
 20
183.363
 30
0.000000
  70
    32
  0
VERTEX
  8
0
  5
6C5
 10
456.281
 20
183.367
 30
0.000000
  70
    32
  0
VERTEX
  8
0
  5
6C6
 10
456.273
 20
183.371
 30
0.000000
  70
    32
  0
VERTEX
  8
0
  5
6C7
 10
456.264
 20
183.375
 30
0.000000
  70
    32
  0
VERTEX
  8
0
  5
6C8
 10
456.256
 20
183.378
 30
0.000000
  70
    32
  0
VERTEX
  8
0
  5
6C9
 10
456.248
 20
183.382
 30
0.000000
  70
    32
  0
VERTEX
  8
0
  5
6CA
 10
456.239
 20
183.386
 30
0.000000
  70
    32
  0
VERTEX
  8
0
  5
6CB
 10
456.231
 20
183.389
 30
0.000000
  70
    32
  0
VERTEX
  8
0
  5
6CC
 10
456.222
 20
183.392
 30
0.000000
  70
    32
  0
VERTEX
  8
0
  5
6CD
 10
456.214
 20
183.396
 30
0.000000
  70
    32
  0
VERTEX
  8
0
  5
6CE
 10
456.205
 20
183.399
 30
0.000000
  70
    32
  0
VERTEX
  8
0
  5
6CF
 10
456.197
 20
183.402
 30
0.000000
  70
    32
  0
VERTEX
  8
0
  5
6D0
 10
456.188
 20
183.405
 30
0.000000
  70
    32
  0
VERTEX
  8
0
  5
6D1
 10
456.179
 20
183.408
 30
0.000000
  70
    32
  0
VERTEX
  8
0
  5
6D2
 10
456.171
 20
183.411
 30
0.000000
  70
    32
  0
VERTEX
  8
0
  5
6D3
 10
456.162
 20
183.414
 30
0.000000
  70
    32
  0
VERTEX
  8
0
  5
6D4
 10
456.154
 20
183.417
 30
0.000000
  70
    32
  0
VERTEX
  8
0
  5
6D5
 10
456.145
 20
183.420
 30
0.000000
  70
    32
  0
VERTEX
  8
0
  5
6D6
 10
456.136
 20
183.423
 30
0.000000
  70
    32
  0
VERTEX
  8
0
  5
6D7
 10
456.127
 20
183.425
 30
0.000000
  70
    32
  0
VERTEX
  8
0
  5
6D8
 10
456.119
 20
183.428
 30
0.000000
  70
    32
  0
VERTEX
  8
0
  5
6D9
 10
456.110
 20
183.431
 30
0.000000
  70
    32
  0
VERTEX
  8
0
  5
6DA
 10
456.101
 20
183.433
 30
0.000000
  70
    32
  0
VERTEX
  8
0
  5
6DB
 10
456.092
 20
183.436
 30
0.000000
  70
    32
  0
VERTEX
  8
0
  5
6DC
 10
456.083
 20
183.438
 30
0.000000
  70
    32
  0
VERTEX
  8
0
  5
6DD
 10
456.075
 20
183.440
 30
0.000000
  70
    32
  0
VERTEX
  8
0
  5
6DE
 10
456.066
 20
183.443
 30
0.000000
  70
    32
  0
VERTEX
  8
0
  5
6DF
 10
456.057
 20
183.445
 30
0.000000
  70
    32
  0
VERTEX
  8
0
  5
6E0
 10
456.048
 20
183.447
 30
0.000000
  70
    32
  0
VERTEX
  8
0
  5
6E1
 10
456.039
 20
183.449
 30
0.000000
  70
    32
  0
VERTEX
  8
0
  5
6E2
 10
456.030
 20
183.451
 30
0.000000
  70
    32
  0
VERTEX
  8
0
  5
6E3
 10
456.021
 20
183.454
 30
0.000000
  70
    32
  0
VERTEX
  8
0
  5
6E4
 10
456.012
 20
183.456
 30
0.000000
  70
    32
  0
VERTEX
  8
0
  5
6E5
 10
456.003
 20
183.458
 30
0.000000
  70
    32
  0
VERTEX
  8
0
  5
6E6
 10
455.995
 20
183.460
 30
0.000000
  70
    32
  0
VERTEX
  8
0
  5
6E7
 10
455.986
 20
183.462
 30
0.000000
  70
    32
  0
VERTEX
  8
0
  5
6E8
 10
455.977
 20
183.464
 30
0.000000
  70
    32
  0
VERTEX
  8
0
  5
6E9
 10
455.968
 20
183.465
 30
0.000000
  70
    32
  0
VERTEX
  8
0
  5
6EA
 10
455.959
 20
183.467
 30
0.000000
  70
    32
  0
VERTEX
  8
0
  5
6EB
 10
455.950
 20
183.469
 30
0.000000
  70
    32
  0
VERTEX
  8
0
  5
6EC
 10
455.941
 20
183.471
 30
0.000000
  70
    32
  0
VERTEX
  8
0
  5
6ED
 10
455.932
 20
183.473
 30
0.000000
  70
    32
  0
VERTEX
  8
0
  5
6EE
 10
455.923
 20
183.475
 30
0.000000
  70
    32
  0
VERTEX
  8
0
  5
6EF
 10
455.914
 20
183.476
 30
0.000000
  70
    32
  0
VERTEX
  8
0
  5
6F0
 10
455.905
 20
183.478
 30
0.000000
  70
    32
  0
VERTEX
  8
0
  5
6F1
 10
455.896
 20
183.480
 30
0.000000
  70
    32
  0
VERTEX
  8
0
  5
6F2
 10
455.887
 20
183.482
 30
0.000000
  70
    32
  0
VERTEX
  8
0
  5
6F3
 10
455.878
 20
183.483
 30
0.000000
  70
    32
  0
VERTEX
  8
0
  5
6F4
 10
455.868
 20
183.485
 30
0.000000
  70
    32
  0
VERTEX
  8
0
  5
6F5
 10
455.859
 20
183.487
 30
0.000000
  70
    32
  0
VERTEX
  8
0
  5
6F6
 10
455.850
 20
183.488
 30
0.000000
  70
    32
  0
VERTEX
  8
0
  5
6F7
 10
455.841
 20
183.490
 30
0.000000
  70
    32
  0
VERTEX
  8
0
  5
6F8
 10
455.832
 20
183.492
 30
0.000000
  70
    32
  0
SEQEND
  8
0
  5
6F9
  0
LINE
  5
2FA
  8
0
  6
CONTINUOUS
 10
455.45236653500001
 20
183.42729417379999
 30
0.0
 11
455.4170105975
 21
183.4068836255
 31
0.0
  0
POLYLINE
  8
0
  5
6FA
  66
     1
 10
0.000000
 20
0.000000
 30
0.000000
  70
     8
  0
VERTEX
  8
0
  5
6FB
 10
457.298
 20
203.423
 30
0.000000
  70
    32
  0
VERTEX
  8
0
  5
6FC
 10
457.303
 20
203.431
 30
0.000000
  70
    32
  0
VERTEX
  8
0
  5
6FD
 10
457.307
 20
203.439
 30
0.000000
  70
    32
  0
VERTEX
  8
0
  5
6FE
 10
457.312
 20
203.447
 30
0.000000
  70
    32
  0
VERTEX
  8
0
  5
6FF
 10
457.316
 20
203.455
 30
0.000000
  70
    32
  0
VERTEX
  8
0
  5
700
 10
457.320
 20
203.463
 30
0.000000
  70
    32
  0
VERTEX
  8
0
  5
701
 10
457.324
 20
203.472
 30
0.000000
  70
    32
  0
VERTEX
  8
0
  5
702
 10
457.329
 20
203.480
 30
0.000000
  70
    32
  0
VERTEX
  8
0
  5
703
 10
457.333
 20
203.488
 30
0.000000
  70
    32
  0
VERTEX
  8
0
  5
704
 10
457.337
 20
203.496
 30
0.000000
  70
    32
  0
VERTEX
  8
0
  5
705
 10
457.341
 20
203.504
 30
0.000000
  70
    32
  0
VERTEX
  8
0
  5
706
 10
457.344
 20
203.513
 30
0.000000
  70
    32
  0
VERTEX
  8
0
  5
707
 10
457.348
 20
203.521
 30
0.000000
  70
    32
  0
VERTEX
  8
0
  5
708
 10
457.351
 20
203.529
 30
0.000000
  70
    32
  0
VERTEX
  8
0
  5
709
 10
457.355
 20
203.538
 30
0.000000
  70
    32
  0
VERTEX
  8
0
  5
70A
 10
457.358
 20
203.546
 30
0.000000
  70
    32
  0
VERTEX
  8
0
  5
70B
 10
457.361
 20
203.555
 30
0.000000
  70
    32
  0
VERTEX
  8
0
  5
70C
 10
457.364
 20
203.564
 30
0.000000
  70
    32
  0
VERTEX
  8
0
  5
70D
 10
457.367
 20
203.572
 30
0.000000
  70
    32
  0
VERTEX
  8
0
  5
70E
 10
457.370
 20
203.581
 30
0.000000
  70
    32
  0
VERTEX
  8
0
  5
70F
 10
457.373
 20
203.590
 30
0.000000
  70
    32
  0
VERTEX
  8
0
  5
710
 10
457.375
 20
203.598
 30
0.000000
  70
    32
  0
VERTEX
  8
0
  5
711
 10
457.378
 20
203.607
 30
0.000000
  70
    32
  0
VERTEX
  8
0
  5
712
 10
457.380
 20
203.616
 30
0.000000
  70
    32
  0
VERTEX
  8
0
  5
713
 10
457.383
 20
203.625
 30
0.000000
  70
    32
  0
VERTEX
  8
0
  5
714
 10
457.385
 20
203.634
 30
0.000000
  70
    32
  0
VERTEX
  8
0
  5
715
 10
457.387
 20
203.643
 30
0.000000
  70
    32
  0
VERTEX
  8
0
  5
716
 10
457.389
 20
203.652
 30
0.000000
  70
    32
  0
VERTEX
  8
0
  5
717
 10
457.391
 20
203.661
 30
0.000000
  70
    32
  0
VERTEX
  8
0
  5
718
 10
457.393
 20
203.670
 30
0.000000
  70
    32
  0
VERTEX
  8
0
  5
719
 10
457.394
 20
203.679
 30
0.000000
  70
    32
  0
VERTEX
  8
0
  5
71A
 10
457.396
 20
203.688
 30
0.000000
  70
    32
  0
VERTEX
  8
0
  5
71B
 10
457.397
 20
203.697
 30
0.000000
  70
    32
  0
VERTEX
  8
0
  5
71C
 10
457.399
 20
203.706
 30
0.000000
  70
    32
  0
VERTEX
  8
0
  5
71D
 10
457.400
 20
203.715
 30
0.000000
  70
    32
  0
VERTEX
  8
0
  5
71E
 10
457.402
 20
203.724
 30
0.000000
  70
    32
  0
VERTEX
  8
0
  5
71F
 10
457.403
 20
203.733
 30
0.000000
  70
    32
  0
VERTEX
  8
0
  5
720
 10
457.404
 20
203.743
 30
0.000000
  70
    32
  0
VERTEX
  8
0
  5
721
 10
457.405
 20
203.752
 30
0.000000
  70
    32
  0
VERTEX
  8
0
  5
722
 10
457.406
 20
203.761
 30
0.000000
  70
    32
  0
VERTEX
  8
0
  5
723
 10
457.407
 20
203.770
 30
0.000000
  70
    32
  0
VERTEX
  8
0
  5
724
 10
457.408
 20
203.779
 30
0.000000
  70
    32
  0
VERTEX
  8
0
  5
725
 10
457.409
 20
203.789
 30
0.000000
  70
    32
  0
VERTEX
  8
0
  5
726
 10
457.410
 20
203.798
 30
0.000000
  70
    32
  0
VERTEX
  8
0
  5
727
 10
457.411
 20
203.807
 30
0.000000
  70
    32
  0
VERTEX
  8
0
  5
728
 10
457.411
 20
203.817
 30
0.000000
  70
    32
  0
VERTEX
  8
0
  5
729
 10
457.412
 20
203.826
 30
0.000000
  70
    32
  0
VERTEX
  8
0
  5
72A
 10
457.412
 20
203.835
 30
0.000000
  70
    32
  0
VERTEX
  8
0
  5
72B
 10
457.413
 20
203.845
 30
0.000000
  70
    32
  0
VERTEX
  8
0
  5
72C
 10
457.413
 20
203.854
 30
0.000000
  70
    32
  0
VERTEX
  8
0
  5
72D
 10
457.414
 20
203.863
 30
0.000000
  70
    32
  0
VERTEX
  8
0
  5
72E
 10
457.414
 20
203.872
 30
0.000000
  70
    32
  0
VERTEX
  8
0
  5
72F
 10
457.415
 20
203.882
 30
0.000000
  70
    32
  0
VERTEX
  8
0
  5
730
 10
457.415
 20
203.891
 30
0.000000
  70
    32
  0
VERTEX
  8
0
  5
731
 10
457.415
 20
203.900
 30
0.000000
  70
    32
  0
VERTEX
  8
0
  5
732
 10
457.415
 20
203.910
 30
0.000000
  70
    32
  0
VERTEX
  8
0
  5
733
 10
457.416
 20
203.919
 30
0.000000
  70
    32
  0
VERTEX
  8
0
  5
734
 10
457.416
 20
203.928
 30
0.000000
  70
    32
  0
VERTEX
  8
0
  5
735
 10
457.416
 20
203.938
 30
0.000000
  70
    32
  0
VERTEX
  8
0
  5
736
 10
457.416
 20
203.947
 30
0.000000
  70
    32
  0
VERTEX
  8
0
  5
737
 10
457.416
 20
203.956
 30
0.000000
  70
    32
  0
VERTEX
  8
0
  5
738
 10
457.416
 20
203.966
 30
0.000000
  70
    32
  0
VERTEX
  8
0
  5
739
 10
457.416
 20
203.975
 30
0.000000
  70
    32
  0
VERTEX
  8
0
  5
73A
 10
457.416
 20
203.984
 30
0.000000
  70
    32
  0
VERTEX
  8
0
  5
73B
 10
457.416
 20
203.994
 30
0.000000
  70
    32
  0
VERTEX
  8
0
  5
73C
 10
457.416
 20
204.003
 30
0.000000
  70
    32
  0
VERTEX
  8
0
  5
73D
 10
457.415
 20
204.012
 30
0.000000
  70
    32
  0
VERTEX
  8
0
  5
73E
 10
457.415
 20
204.022
 30
0.000000
  70
    32
  0
VERTEX
  8
0
  5
73F
 10
457.415
 20
204.031
 30
0.000000
  70
    32
  0
VERTEX
  8
0
  5
740
 10
457.415
 20
204.040
 30
0.000000
  70
    32
  0
VERTEX
  8
0
  5
741
 10
457.414
 20
204.049
 30
0.000000
  70
    32
  0
VERTEX
  8
0
  5
742
 10
457.414
 20
204.059
 30
0.000000
  70
    32
  0
VERTEX
  8
0
  5
743
 10
457.413
 20
204.068
 30
0.000000
  70
    32
  0
VERTEX
  8
0
  5
744
 10
457.413
 20
204.077
 30
0.000000
  70
    32
  0
VERTEX
  8
0
  5
745
 10
457.412
 20
204.087
 30
0.000000
  70
    32
  0
VERTEX
  8
0
  5
746
 10
457.412
 20
204.096
 30
0.000000
  70
    32
  0
VERTEX
  8
0
  5
747
 10
457.411
 20
204.105
 30
0.000000
  70
    32
  0
VERTEX
  8
0
  5
748
 10
457.411
 20
204.115
 30
0.000000
  70
    32
  0
VERTEX
  8
0
  5
749
 10
457.410
 20
204.124
 30
0.000000
  70
    32
  0
VERTEX
  8
0
  5
74A
 10
457.409
 20
204.133
 30
0.000000
  70
    32
  0
VERTEX
  8
0
  5
74B
 10
457.408
 20
204.142
 30
0.000000
  70
    32
  0
VERTEX
  8
0
  5
74C
 10
457.408
 20
204.152
 30
0.000000
  70
    32
  0
VERTEX
  8
0
  5
74D
 10
457.407
 20
204.161
 30
0.000000
  70
    32
  0
VERTEX
  8
0
  5
74E
 10
457.406
 20
204.170
 30
0.000000
  70
    32
  0
VERTEX
  8
0
  5
74F
 10
457.405
 20
204.180
 30
0.000000
  70
    32
  0
VERTEX
  8
0
  5
750
 10
457.404
 20
204.189
 30
0.000000
  70
    32
  0
VERTEX
  8
0
  5
751
 10
457.403
 20
204.198
 30
0.000000
  70
    32
  0
VERTEX
  8
0
  5
752
 10
457.402
 20
204.207
 30
0.000000
  70
    32
  0
VERTEX
  8
0
  5
753
 10
457.400
 20
204.217
 30
0.000000
  70
    32
  0
VERTEX
  8
0
  5
754
 10
457.399
 20
204.226
 30
0.000000
  70
    32
  0
VERTEX
  8
0
  5
755
 10
457.398
 20
204.235
 30
0.000000
  70
    32
  0
VERTEX
  8
0
  5
756
 10
457.397
 20
204.245
 30
0.000000
  70
    32
  0
VERTEX
  8
0
  5
757
 10
457.395
 20
204.254
 30
0.000000
  70
    32
  0
VERTEX
  8
0
  5
758
 10
457.394
 20
204.263
 30
0.000000
  70
    32
  0
VERTEX
  8
0
  5
759
 10
457.393
 20
204.272
 30
0.000000
  70
    32
  0
VERTEX
  8
0
  5
75A
 10
457.391
 20
204.282
 30
0.000000
  70
    32
  0
VERTEX
  8
0
  5
75B
 10
457.390
 20
204.291
 30
0.000000
  70
    32
  0
VERTEX
  8
0
  5
75C
 10
457.388
 20
204.300
 30
0.000000
  70
    32
  0
VERTEX
  8
0
  5
75D
 10
457.386
 20
204.309
 30
0.000000
  70
    32
  0
VERTEX
  8
0
  5
75E
 10
457.385
 20
204.319
 30
0.000000
  70
    32
  0
VERTEX
  8
0
  5
75F
 10
457.383
 20
204.328
 30
0.000000
  70
    32
  0
VERTEX
  8
0
  5
760
 10
457.381
 20
204.337
 30
0.000000
  70
    32
  0
VERTEX
  8
0
  5
761
 10
457.379
 20
204.347
 30
0.000000
  70
    32
  0
VERTEX
  8
0
  5
762
 10
457.377
 20
204.356
 30
0.000000
  70
    32
  0
VERTEX
  8
0
  5
763
 10
457.376
 20
204.365
 30
0.000000
  70
    32
  0
VERTEX
  8
0
  5
764
 10
457.374
 20
204.374
 30
0.000000
  70
    32
  0
VERTEX
  8
0
  5
765
 10
457.372
 20
204.384
 30
0.000000
  70
    32
  0
VERTEX
  8
0
  5
766
 10
457.369
 20
204.393
 30
0.000000
  70
    32
  0
VERTEX
  8
0
  5
767
 10
457.367
 20
204.402
 30
0.000000
  70
    32
  0
VERTEX
  8
0
  5
768
 10
457.365
 20
204.411
 30
0.000000
  70
    32
  0
VERTEX
  8
0
  5
769
 10
457.363
 20
204.421
 30
0.000000
  70
    32
  0
VERTEX
  8
0
  5
76A
 10
457.361
 20
204.430
 30
0.000000
  70
    32
  0
VERTEX
  8
0
  5
76B
 10
457.358
 20
204.439
 30
0.000000
  70
    32
  0
VERTEX
  8
0
  5
76C
 10
457.356
 20
204.448
 30
0.000000
  70
    32
  0
VERTEX
  8
0
  5
76D
 10
457.354
 20
204.458
 30
0.000000
  70
    32
  0
VERTEX
  8
0
  5
76E
 10
457.351
 20
204.467
 30
0.000000
  70
    32
  0
VERTEX
  8
0
  5
76F
 10
457.349
 20
204.476
 30
0.000000
  70
    32
  0
VERTEX
  8
0
  5
770
 10
457.346
 20
204.485
 30
0.000000
  70
    32
  0
VERTEX
  8
0
  5
771
 10
457.343
 20
204.495
 30
0.000000
  70
    32
  0
VERTEX
  8
0
  5
772
 10
457.341
 20
204.504
 30
0.000000
  70
    32
  0
VERTEX
  8
0
  5
773
 10
457.338
 20
204.513
 30
0.000000
  70
    32
  0
VERTEX
  8
0
  5
774
 10
457.335
 20
204.522
 30
0.000000
  70
    32
  0
VERTEX
  8
0
  5
775
 10
457.333
 20
204.531
 30
0.000000
  70
    32
  0
VERTEX
  8
0
  5
776
 10
457.330
 20
204.541
 30
0.000000
  70
    32
  0
VERTEX
  8
0
  5
777
 10
457.327
 20
204.550
 30
0.000000
  70
    32
  0
VERTEX
  8
0
  5
778
 10
457.324
 20
204.559
 30
0.000000
  70
    32
  0
VERTEX
  8
0
  5
779
 10
457.321
 20
204.568
 30
0.000000
  70
    32
  0
VERTEX
  8
0
  5
77A
 10
457.318
 20
204.577
 30
0.000000
  70
    32
  0
VERTEX
  8
0
  5
77B
 10
457.315
 20
204.587
 30
0.000000
  70
    32
  0
VERTEX
  8
0
  5
77C
 10
457.312
 20
204.596
 30
0.000000
  70
    32
  0
VERTEX
  8
0
  5
77D
 10
457.309
 20
204.605
 30
0.000000
  70
    32
  0
VERTEX
  8
0
  5
77E
 10
457.306
 20
204.614
 30
0.000000
  70
    32
  0
VERTEX
  8
0
  5
77F
 10
457.302
 20
204.623
 30
0.000000
  70
    32
  0
VERTEX
  8
0
  5
780
 10
457.299
 20
204.632
 30
0.000000
  70
    32
  0
VERTEX
  8
0
  5
781
 10
457.296
 20
204.641
 30
0.000000
  70
    32
  0
VERTEX
  8
0
  5
782
 10
457.292
 20
204.650
 30
0.000000
  70
    32
  0
VERTEX
  8
0
  5
783
 10
457.289
 20
204.660
 30
0.000000
  70
    32
  0
VERTEX
  8
0
  5
784
 10
457.286
 20
204.669
 30
0.000000
  70
    32
  0
VERTEX
  8
0
  5
785
 10
457.282
 20
204.678
 30
0.000000
  70
    32
  0
VERTEX
  8
0
  5
786
 10
457.279
 20
204.687
 30
0.000000
  70
    32
  0
VERTEX
  8
0
  5
787
 10
457.275
 20
204.696
 30
0.000000
  70
    32
  0
VERTEX
  8
0
  5
788
 10
457.271
 20
204.705
 30
0.000000
  70
    32
  0
VERTEX
  8
0
  5
789
 10
457.268
 20
204.714
 30
0.000000
  70
    32
  0
VERTEX
  8
0
  5
78A
 10
457.264
 20
204.723
 30
0.000000
  70
    32
  0
VERTEX
  8
0
  5
78B
 10
457.260
 20
204.732
 30
0.000000
  70
    32
  0
VERTEX
  8
0
  5
78C
 10
457.257
 20
204.741
 30
0.000000
  70
    32
  0
VERTEX
  8
0
  5
78D
 10
457.253
 20
204.750
 30
0.000000
  70
    32
  0
VERTEX
  8
0
  5
78E
 10
457.249
 20
204.759
 30
0.000000
  70
    32
  0
VERTEX
  8
0
  5
78F
 10
457.245
 20
204.768
 30
0.000000
  70
    32
  0
VERTEX
  8
0
  5
790
 10
457.241
 20
204.777
 30
0.000000
  70
    32
  0
VERTEX
  8
0
  5
791
 10
457.237
 20
204.786
 30
0.000000
  70
    32
  0
VERTEX
  8
0
  5
792
 10
457.233
 20
204.795
 30
0.000000
  70
    32
  0
VERTEX
  8
0
  5
793
 10
457.229
 20
204.803
 30
0.000000
  70
    32
  0
VERTEX
  8
0
  5
794
 10
457.225
 20
204.812
 30
0.000000
  70
    32
  0
VERTEX
  8
0
  5
795
 10
457.221
 20
204.821
 30
0.000000
  70
    32
  0
VERTEX
  8
0
  5
796
 10
457.217
 20
204.830
 30
0.000000
  70
    32
  0
VERTEX
  8
0
  5
797
 10
457.213
 20
204.839
 30
0.000000
  70
    32
  0
VERTEX
  8
0
  5
798
 10
457.208
 20
204.848
 30
0.000000
  70
    32
  0
VERTEX
  8
0
  5
799
 10
457.204
 20
204.856
 30
0.000000
  70
    32
  0
VERTEX
  8
0
  5
79A
 10
457.200
 20
204.865
 30
0.000000
  70
    32
  0
VERTEX
  8
0
  5
79B
 10
457.196
 20
204.874
 30
0.000000
  70
    32
  0
VERTEX
  8
0
  5
79C
 10
457.191
 20
204.883
 30
0.000000
  70
    32
  0
VERTEX
  8
0
  5
79D
 10
457.187
 20
204.892
 30
0.000000
  70
    32
  0
VERTEX
  8
0
  5
79E
 10
457.182
 20
204.900
 30
0.000000
  70
    32
  0
VERTEX
  8
0
  5
79F
 10
457.178
 20
204.909
 30
0.000000
  70
    32
  0
VERTEX
  8
0
  5
7A0
 10
457.173
 20
204.918
 30
0.000000
  70
    32
  0
VERTEX
  8
0
  5
7A1
 10
457.169
 20
204.926
 30
0.000000
  70
    32
  0
VERTEX
  8
0
  5
7A2
 10
457.164
 20
204.935
 30
0.000000
  70
    32
  0
VERTEX
  8
0
  5
7A3
 10
457.160
 20
204.944
 30
0.000000
  70
    32
  0
VERTEX
  8
0
  5
7A4
 10
457.155
 20
204.952
 30
0.000000
  70
    32
  0
VERTEX
  8
0
  5
7A5
 10
457.150
 20
204.961
 30
0.000000
  70
    32
  0
VERTEX
  8
0
  5
7A6
 10
457.145
 20
204.969
 30
0.000000
  70
    32
  0
VERTEX
  8
0
  5
7A7
 10
457.141
 20
204.978
 30
0.000000
  70
    32
  0
VERTEX
  8
0
  5
7A8
 10
457.136
 20
204.986
 30
0.000000
  70
    32
  0
VERTEX
  8
0
  5
7A9
 10
457.131
 20
204.995
 30
0.000000
  70
    32
  0
VERTEX
  8
0
  5
7AA
 10
457.126
 20
205.003
 30
0.000000
  70
    32
  0
VERTEX
  8
0
  5
7AB
 10
457.121
 20
205.012
 30
0.000000
  70
    32
  0
VERTEX
  8
0
  5
7AC
 10
457.116
 20
205.020
 30
0.000000
  70
    32
  0
VERTEX
  8
0
  5
7AD
 10
457.111
 20
205.029
 30
0.000000
  70
    32
  0
VERTEX
  8
0
  5
7AE
 10
457.106
 20
205.037
 30
0.000000
  70
    32
  0
VERTEX
  8
0
  5
7AF
 10
457.101
 20
205.046
 30
0.000000
  70
    32
  0
VERTEX
  8
0
  5
7B0
 10
457.096
 20
205.054
 30
0.000000
  70
    32
  0
VERTEX
  8
0
  5
7B1
 10
457.091
 20
205.062
 30
0.000000
  70
    32
  0
VERTEX
  8
0
  5
7B2
 10
457.086
 20
205.071
 30
0.000000
  70
    32
  0
VERTEX
  8
0
  5
7B3
 10
457.081
 20
205.079
 30
0.000000
  70
    32
  0
VERTEX
  8
0
  5
7B4
 10
457.075
 20
205.087
 30
0.000000
  70
    32
  0
VERTEX
  8
0
  5
7B5
 10
457.070
 20
205.095
 30
0.000000
  70
    32
  0
VERTEX
  8
0
  5
7B6
 10
457.065
 20
205.104
 30
0.000000
  70
    32
  0
VERTEX
  8
0
  5
7B7
 10
457.059
 20
205.112
 30
0.000000
  70
    32
  0
VERTEX
  8
0
  5
7B8
 10
457.054
 20
205.120
 30
0.000000
  70
    32
  0
VERTEX
  8
0
  5
7B9
 10
457.049
 20
205.128
 30
0.000000
  70
    32
  0
VERTEX
  8
0
  5
7BA
 10
457.043
 20
205.136
 30
0.000000
  70
    32
  0
VERTEX
  8
0
  5
7BB
 10
457.038
 20
205.144
 30
0.000000
  70
    32
  0
VERTEX
  8
0
  5
7BC
 10
457.032
 20
205.152
 30
0.000000
  70
    32
  0
VERTEX
  8
0
  5
7BD
 10
457.027
 20
205.160
 30
0.000000
  70
    32
  0
VERTEX
  8
0
  5
7BE
 10
457.021
 20
205.168
 30
0.000000
  70
    32
  0
VERTEX
  8
0
  5
7BF
 10
457.016
 20
205.176
 30
0.000000
  70
    32
  0
VERTEX
  8
0
  5
7C0
 10
457.010
 20
205.184
 30
0.000000
  70
    32
  0
VERTEX
  8
0
  5
7C1
 10
457.004
 20
205.192
 30
0.000000
  70
    32
  0
VERTEX
  8
0
  5
7C2
 10
456.999
 20
205.200
 30
0.000000
  70
    32
  0
VERTEX
  8
0
  5
7C3
 10
456.993
 20
205.208
 30
0.000000
  70
    32
  0
VERTEX
  8
0
  5
7C4
 10
456.987
 20
205.216
 30
0.000000
  70
    32
  0
VERTEX
  8
0
  5
7C5
 10
456.981
 20
205.224
 30
0.000000
  70
    32
  0
VERTEX
  8
0
  5
7C6
 10
456.976
 20
205.231
 30
0.000000
  70
    32
  0
VERTEX
  8
0
  5
7C7
 10
456.970
 20
205.239
 30
0.000000
  70
    32
  0
VERTEX
  8
0
  5
7C8
 10
456.964
 20
205.247
 30
0.000000
  70
    32
  0
VERTEX
  8
0
  5
7C9
 10
456.958
 20
205.255
 30
0.000000
  70
    32
  0
VERTEX
  8
0
  5
7CA
 10
456.952
 20
205.262
 30
0.000000
  70
    32
  0
VERTEX
  8
0
  5
7CB
 10
456.946
 20
205.270
 30
0.000000
  70
    32
  0
VERTEX
  8
0
  5
7CC
 10
456.940
 20
205.277
 30
0.000000
  70
    32
  0
VERTEX
  8
0
  5
7CD
 10
456.934
 20
205.285
 30
0.000000
  70
    32
  0
VERTEX
  8
0
  5
7CE
 10
456.928
 20
205.293
 30
0.000000
  70
    32
  0
VERTEX
  8
0
  5
7CF
 10
456.922
 20
205.300
 30
0.000000
  70
    32
  0
VERTEX
  8
0
  5
7D0
 10
456.916
 20
205.308
 30
0.000000
  70
    32
  0
VERTEX
  8
0
  5
7D1
 10
456.909
 20
205.315
 30
0.000000
  70
    32
  0
VERTEX
  8
0
  5
7D2
 10
456.903
 20
205.322
 30
0.000000
  70
    32
  0
VERTEX
  8
0
  5
7D3
 10
456.897
 20
205.330
 30
0.000000
  70
    32
  0
VERTEX
  8
0
  5
7D4
 10
456.891
 20
205.337
 30
0.000000
  70
    32
  0
VERTEX
  8
0
  5
7D5
 10
456.885
 20
205.344
 30
0.000000
  70
    32
  0
VERTEX
  8
0
  5
7D6
 10
456.878
 20
205.352
 30
0.000000
  70
    32
  0
VERTEX
  8
0
  5
7D7
 10
456.872
 20
205.359
 30
0.000000
  70
    32
  0
VERTEX
  8
0
  5
7D8
 10
456.866
 20
205.366
 30
0.000000
  70
    32
  0
VERTEX
  8
0
  5
7D9
 10
456.859
 20
205.373
 30
0.000000
  70
    32
  0
VERTEX
  8
0
  5
7DA
 10
456.853
 20
205.381
 30
0.000000
  70
    32
  0
VERTEX
  8
0
  5
7DB
 10
456.846
 20
205.388
 30
0.000000
  70
    32
  0
VERTEX
  8
0
  5
7DC
 10
456.840
 20
205.395
 30
0.000000
  70
    32
  0
VERTEX
  8
0
  5
7DD
 10
456.833
 20
205.402
 30
0.000000
  70
    32
  0
VERTEX
  8
0
  5
7DE
 10
456.827
 20
205.409
 30
0.000000
  70
    32
  0
VERTEX
  8
0
  5
7DF
 10
456.820
 20
205.416
 30
0.000000
  70
    32
  0
VERTEX
  8
0
  5
7E0
 10
456.814
 20
205.423
 30
0.000000
  70
    32
  0
VERTEX
  8
0
  5
7E1
 10
456.807
 20
205.430
 30
0.000000
  70
    32
  0
VERTEX
  8
0
  5
7E2
 10
456.800
 20
205.437
 30
0.000000
  70
    32
  0
VERTEX
  8
0
  5
7E3
 10
456.794
 20
205.444
 30
0.000000
  70
    32
  0
VERTEX
  8
0
  5
7E4
 10
456.787
 20
205.451
 30
0.000000
  70
    32
  0
VERTEX
  8
0
  5
7E5
 10
456.780
 20
205.457
 30
0.000000
  70
    32
  0
VERTEX
  8
0
  5
7E6
 10
456.773
 20
205.464
 30
0.000000
  70
    32
  0
VERTEX
  8
0
  5
7E7
 10
456.767
 20
205.471
 30
0.000000
  70
    32
  0
VERTEX
  8
0
  5
7E8
 10
456.760
 20
205.478
 30
0.000000
  70
    32
  0
VERTEX
  8
0
  5
7E9
 10
456.753
 20
205.484
 30
0.000000
  70
    32
  0
VERTEX
  8
0
  5
7EA
 10
456.746
 20
205.491
 30
0.000000
  70
    32
  0
VERTEX
  8
0
  5
7EB
 10
456.739
 20
205.498
 30
0.000000
  70
    32
  0
VERTEX
  8
0
  5
7EC
 10
456.732
 20
205.504
 30
0.000000
  70
    32
  0
VERTEX
  8
0
  5
7ED
 10
456.725
 20
205.511
 30
0.000000
  70
    32
  0
VERTEX
  8
0
  5
7EE
 10
456.718
 20
205.517
 30
0.000000
  70
    32
  0
VERTEX
  8
0
  5
7EF
 10
456.711
 20
205.524
 30
0.000000
  70
    32
  0
VERTEX
  8
0
  5
7F0
 10
456.704
 20
205.530
 30
0.000000
  70
    32
  0
VERTEX
  8
0
  5
7F1
 10
456.697
 20
205.537
 30
0.000000
  70
    32
  0
VERTEX
  8
0
  5
7F2
 10
456.690
 20
205.543
 30
0.000000
  70
    32
  0
VERTEX
  8
0
  5
7F3
 10
456.683
 20
205.549
 30
0.000000
  70
    32
  0
VERTEX
  8
0
  5
7F4
 10
456.676
 20
205.556
 30
0.000000
  70
    32
  0
VERTEX
  8
0
  5
7F5
 10
456.669
 20
205.562
 30
0.000000
  70
    32
  0
VERTEX
  8
0
  5
7F6
 10
456.662
 20
205.568
 30
0.000000
  70
    32
  0
VERTEX
  8
0
  5
7F7
 10
456.654
 20
205.574
 30
0.000000
  70
    32
  0
VERTEX
  8
0
  5
7F8
 10
456.647
 20
205.580
 30
0.000000
  70
    32
  0
VERTEX
  8
0
  5
7F9
 10
456.640
 20
205.587
 30
0.000000
  70
    32
  0
VERTEX
  8
0
  5
7FA
 10
456.633
 20
205.593
 30
0.000000
  70
    32
  0
VERTEX
  8
0
  5
7FB
 10
456.625
 20
205.599
 30
0.000000
  70
    32
  0
VERTEX
  8
0
  5
7FC
 10
456.618
 20
205.605
 30
0.000000
  70
    32
  0
VERTEX
  8
0
  5
7FD
 10
456.611
 20
205.611
 30
0.000000
  70
    32
  0
VERTEX
  8
0
  5
7FE
 10
456.603
 20
205.617
 30
0.000000
  70
    32
  0
VERTEX
  8
0
  5
7FF
 10
456.596
 20
205.623
 30
0.000000
  70
    32
  0
VERTEX
  8
0
  5
800
 10
456.589
 20
205.629
 30
0.000000
  70
    32
  0
VERTEX
  8
0
  5
801
 10
456.581
 20
205.634
 30
0.000000
  70
    32
  0
VERTEX
  8
0
  5
802
 10
456.574
 20
205.640
 30
0.000000
  70
    32
  0
VERTEX
  8
0
  5
803
 10
456.566
 20
205.646
 30
0.000000
  70
    32
  0
VERTEX
  8
0
  5
804
 10
456.559
 20
205.652
 30
0.000000
  70
    32
  0
VERTEX
  8
0
  5
805
 10
456.551
 20
205.657
 30
0.000000
  70
    32
  0
VERTEX
  8
0
  5
806
 10
456.544
 20
205.663
 30
0.000000
  70
    32
  0
VERTEX
  8
0
  5
807
 10
456.536
 20
205.669
 30
0.000000
  70
    32
  0
VERTEX
  8
0
  5
808
 10
456.528
 20
205.674
 30
0.000000
  70
    32
  0
VERTEX
  8
0
  5
809
 10
456.521
 20
205.680
 30
0.000000
  70
    32
  0
VERTEX
  8
0
  5
80A
 10
456.513
 20
205.685
 30
0.000000
  70
    32
  0
VERTEX
  8
0
  5
80B
 10
456.505
 20
205.691
 30
0.000000
  70
    32
  0
VERTEX
  8
0
  5
80C
 10
456.498
 20
205.696
 30
0.000000
  70
    32
  0
VERTEX
  8
0
  5
80D
 10
456.490
 20
205.701
 30
0.000000
  70
    32
  0
VERTEX
  8
0
  5
80E
 10
456.482
 20
205.707
 30
0.000000
  70
    32
  0
VERTEX
  8
0
  5
80F
 10
456.475
 20
205.712
 30
0.000000
  70
    32
  0
VERTEX
  8
0
  5
810
 10
456.467
 20
205.717
 30
0.000000
  70
    32
  0
VERTEX
  8
0
  5
811
 10
456.459
 20
205.722
 30
0.000000
  70
    32
  0
VERTEX
  8
0
  5
812
 10
456.451
 20
205.727
 30
0.000000
  70
    32
  0
VERTEX
  8
0
  5
813
 10
456.443
 20
205.733
 30
0.000000
  70
    32
  0
VERTEX
  8
0
  5
814
 10
456.435
 20
205.738
 30
0.000000
  70
    32
  0
VERTEX
  8
0
  5
815
 10
456.427
 20
205.742
 30
0.000000
  70
    32
  0
VERTEX
  8
0
  5
816
 10
456.420
 20
205.747
 30
0.000000
  70
    32
  0
VERTEX
  8
0
  5
817
 10
456.412
 20
205.752
 30
0.000000
  70
    32
  0
VERTEX
  8
0
  5
818
 10
456.404
 20
205.757
 30
0.000000
  70
    32
  0
VERTEX
  8
0
  5
819
 10
456.396
 20
205.762
 30
0.000000
  70
    32
  0
VERTEX
  8
0
  5
81A
 10
456.388
 20
205.766
 30
0.000000
  70
    32
  0
VERTEX
  8
0
  5
81B
 10
456.380
 20
205.771
 30
0.000000
  70
    32
  0
VERTEX
  8
0
  5
81C
 10
456.371
 20
205.776
 30
0.000000
  70
    32
  0
VERTEX
  8
0
  5
81D
 10
456.363
 20
205.780
 30
0.000000
  70
    32
  0
VERTEX
  8
0
  5
81E
 10
456.355
 20
205.785
 30
0.000000
  70
    32
  0
VERTEX
  8
0
  5
81F
 10
456.347
 20
205.789
 30
0.000000
  70
    32
  0
VERTEX
  8
0
  5
820
 10
456.339
 20
205.793
 30
0.000000
  70
    32
  0
VERTEX
  8
0
  5
821
 10
456.331
 20
205.798
 30
0.000000
  70
    32
  0
VERTEX
  8
0
  5
822
 10
456.323
 20
205.802
 30
0.000000
  70
    32
  0
VERTEX
  8
0
  5
823
 10
456.314
 20
205.806
 30
0.000000
  70
    32
  0
VERTEX
  8
0
  5
824
 10
456.306
 20
205.810
 30
0.000000
  70
    32
  0
VERTEX
  8
0
  5
825
 10
456.298
 20
205.814
 30
0.000000
  70
    32
  0
VERTEX
  8
0
  5
826
 10
456.290
 20
205.818
 30
0.000000
  70
    32
  0
VERTEX
  8
0
  5
827
 10
456.281
 20
205.822
 30
0.000000
  70
    32
  0
VERTEX
  8
0
  5
828
 10
456.273
 20
205.826
 30
0.000000
  70
    32
  0
VERTEX
  8
0
  5
829
 10
456.264
 20
205.830
 30
0.000000
  70
    32
  0
VERTEX
  8
0
  5
82A
 10
456.256
 20
205.833
 30
0.000000
  70
    32
  0
VERTEX
  8
0
  5
82B
 10
456.248
 20
205.837
 30
0.000000
  70
    32
  0
VERTEX
  8
0
  5
82C
 10
456.239
 20
205.840
 30
0.000000
  70
    32
  0
VERTEX
  8
0
  5
82D
 10
456.231
 20
205.844
 30
0.000000
  70
    32
  0
VERTEX
  8
0
  5
82E
 10
456.222
 20
205.847
 30
0.000000
  70
    32
  0
VERTEX
  8
0
  5
82F
 10
456.214
 20
205.851
 30
0.000000
  70
    32
  0
VERTEX
  8
0
  5
830
 10
456.205
 20
205.854
 30
0.000000
  70
    32
  0
VERTEX
  8
0
  5
831
 10
456.197
 20
205.857
 30
0.000000
  70
    32
  0
VERTEX
  8
0
  5
832
 10
456.188
 20
205.860
 30
0.000000
  70
    32
  0
VERTEX
  8
0
  5
833
 10
456.179
 20
205.863
 30
0.000000
  70
    32
  0
VERTEX
  8
0
  5
834
 10
456.171
 20
205.866
 30
0.000000
  70
    32
  0
VERTEX
  8
0
  5
835
 10
456.162
 20
205.869
 30
0.000000
  70
    32
  0
VERTEX
  8
0
  5
836
 10
456.154
 20
205.872
 30
0.000000
  70
    32
  0
VERTEX
  8
0
  5
837
 10
456.145
 20
205.875
 30
0.000000
  70
    32
  0
VERTEX
  8
0
  5
838
 10
456.136
 20
205.878
 30
0.000000
  70
    32
  0
VERTEX
  8
0
  5
839
 10
456.127
 20
205.880
 30
0.000000
  70
    32
  0
VERTEX
  8
0
  5
83A
 10
456.119
 20
205.883
 30
0.000000
  70
    32
  0
VERTEX
  8
0
  5
83B
 10
456.110
 20
205.885
 30
0.000000
  70
    32
  0
VERTEX
  8
0
  5
83C
 10
456.101
 20
205.888
 30
0.000000
  70
    32
  0
VERTEX
  8
0
  5
83D
 10
456.092
 20
205.890
 30
0.000000
  70
    32
  0
VERTEX
  8
0
  5
83E
 10
456.083
 20
205.893
 30
0.000000
  70
    32
  0
VERTEX
  8
0
  5
83F
 10
456.075
 20
205.895
 30
0.000000
  70
    32
  0
VERTEX
  8
0
  5
840
 10
456.066
 20
205.897
 30
0.000000
  70
    32
  0
VERTEX
  8
0
  5
841
 10
456.057
 20
205.900
 30
0.000000
  70
    32
  0
VERTEX
  8
0
  5
842
 10
456.048
 20
205.902
 30
0.000000
  70
    32
  0
VERTEX
  8
0
  5
843
 10
456.039
 20
205.904
 30
0.000000
  70
    32
  0
VERTEX
  8
0
  5
844
 10
456.030
 20
205.906
 30
0.000000
  70
    32
  0
VERTEX
  8
0
  5
845
 10
456.021
 20
205.908
 30
0.000000
  70
    32
  0
VERTEX
  8
0
  5
846
 10
456.012
 20
205.910
 30
0.000000
  70
    32
  0
VERTEX
  8
0
  5
847
 10
456.003
 20
205.912
 30
0.000000
  70
    32
  0
VERTEX
  8
0
  5
848
 10
455.995
 20
205.914
 30
0.000000
  70
    32
  0
VERTEX
  8
0
  5
849
 10
455.986
 20
205.916
 30
0.000000
  70
    32
  0
VERTEX
  8
0
  5
84A
 10
455.977
 20
205.918
 30
0.000000
  70
    32
  0
VERTEX
  8
0
  5
84B
 10
455.968
 20
205.920
 30
0.000000
  70
    32
  0
VERTEX
  8
0
  5
84C
 10
455.959
 20
205.922
 30
0.000000
  70
    32
  0
VERTEX
  8
0
  5
84D
 10
455.950
 20
205.924
 30
0.000000
  70
    32
  0
VERTEX
  8
0
  5
84E
 10
455.941
 20
205.926
 30
0.000000
  70
    32
  0
VERTEX
  8
0
  5
84F
 10
455.932
 20
205.928
 30
0.000000
  70
    32
  0
VERTEX
  8
0
  5
850
 10
455.923
 20
205.929
 30
0.000000
  70
    32
  0
VERTEX
  8
0
  5
851
 10
455.914
 20
205.931
 30
0.000000
  70
    32
  0
VERTEX
  8
0
  5
852
 10
455.905
 20
205.933
 30
0.000000
  70
    32
  0
VERTEX
  8
0
  5
853
 10
455.896
 20
205.935
 30
0.000000
  70
    32
  0
VERTEX
  8
0
  5
854
 10
455.887
 20
205.936
 30
0.000000
  70
    32
  0
VERTEX
  8
0
  5
855
 10
455.878
 20
205.938
 30
0.000000
  70
    32
  0
VERTEX
  8
0
  5
856
 10
455.868
 20
205.940
 30
0.000000
  70
    32
  0
VERTEX
  8
0
  5
857
 10
455.859
 20
205.942
 30
0.000000
  70
    32
  0
VERTEX
  8
0
  5
858
 10
455.850
 20
205.943
 30
0.000000
  70
    32
  0
VERTEX
  8
0
  5
859
 10
455.841
 20
205.945
 30
0.000000
  70
    32
  0
VERTEX
  8
0
  5
85A
 10
455.832
 20
205.947
 30
0.000000
  70
    32
  0
SEQEND
  8
0
  5
85B
  0
LINE
  5
2FC
  8
0
  6
CONTINUOUS
 10
457.01688389349999
 20
203.09039704369999
 30
0.0
 11
457.05223983109988
 21
203.1108075919
 31
0.0
  0
LINE
  5
2FD
  8
0
  6
CONTINUOUS
 10
455.45236653500001
 20
205.88216599879999
 30
0.0
 11
455.4170105975
 21
205.8617554505
 31
0.0
  0
LINE
  5
2FE
  8
0
  6
CONTINUOUS
 10
527.48867604559985
 20
149.72533064199999
 30
0.0
 11
527.6725838189999
 21
149.83149833979999
 31
0.0
  0
LINE
  5
2FF
  8
0
  6
CONTINUOUS
 10
573.5663437973999
 20
113.8199160651
 30
0.0
 11
573.5663437973999
 21
139.6741836308
 31
0.0
  0
LINE
  5
300
  8
0
  6
CONTINUOUS
 10
568.50051914569985
 20
142.47906535909999
 30
0.0
 11
568.32374472629999
 21
142.37701565899999
 31
0.0
  0
LINE
  5
301
  8
0
  6
CONTINUOUS
 10
444.47648424580001
 20
213.38116331090001
 30
0.0
 11
435.60229143610002
 21
208.25820084719999
 31
0.0
  0
LINE
  5
302
  8
0
  6
CONTINUOUS
 10
432.77386384769989
 20
206.6253843559
 30
0.0
 11
350.74947959029998
 21
159.2737152327
 31
0.0
  0
LINE
  5
303
  8
0
  6
CONTINUOUS
 10
331.018669536
 20
139.42925705120001
 30
0.0
 11
331.018669536
 21
113.8199117689
 31
0.0
  0
LINE
  5
304
  8
0
  6
CONTINUOUS
 10
347.92105200190002
 20
157.64089874140001
 30
0.0
 11
339.04685919220009
 21
152.51793627769999
 31
0.0
  0
LINE
  5
305
  8
0
  6
CONTINUOUS
 10
568.57964458540005
 20
142.51214313189999
 30
0.0
 11
457.69844058080002
 21
206.52249970509999
 31
0.0
  0
LINE
  5
306
  8
0
  6
CONTINUOUS
 10
446.73806833179992
 20
212.03470667920001
 30
0.0
 11
444.8160982826999
 21
213.14423637159999
 31
0.0
  0
LINE
  5
307
  8
0
  6
CONTINUOUS
 10
497.53772147680002
 20
167.01564867249999
 30
0.0
 11
497.53772147680002
 21
172.06334202639999
 31
0.0
  0
LINE
  5
308
  8
0
  6
CONTINUOUS
 10
498.79762907319991
 20
166.2883217831
 30
0.0
 11
497.53772411099999
 21
167.01564943610001
 31
0.0
  0
LINE
  5
309
  8
0
  6
CONTINUOUS
 10
528.12967429370008
 20
149.355292507
 30
0.0
 11
526.96298498949989
 21
150.02880790610001
 31
0.0
  0
LINE
  5
30A
  8
0
  6
CONTINUOUS
 10
321.86416330510002
 20
104.5002442254
 30
0.0
 11
452.29250666669992
 21
29.2055642951
 31
0.0
  0
LINE
  5
30B
  8
0
  6
CONTINUOUS
 10
452.29250666669992
 20
43.808213804499999
 30
0.0
 11
340.82726324549998
 21
108.15572915609999
 31
0.0
  0
LINE
  5
30C
  8
0
  6
CONTINUOUS
 10
452.29250666669992
 20
183.82980818920001
 30
0.0
 11
321.80202831370002
 21
108.49925849189999
 31
0.0
  0
LINE
  5
30D
  8
0
  6
CONTINUOUS
 10
340.57720599330003
 20
108.01136983569999
 30
0.0
 11
452.29250666669992
 21
172.50324016639999
 31
0.0
  0
LINE
  5
30E
  8
0
  6
CONTINUOUS
 10
452.29250666669992
 20
29.2055642951
 30
0.0
 11
582.72085002819995
 21
104.5002442254
 31
0.0
  0
LINE
  5
30F
  8
0
  6
CONTINUOUS
 10
563.75775008779988
 20
108.15572915609999
 30
0.0
 11
452.29250666669992
 21
43.808213804499999
 31
0.0
  0
LINE
  5
310
  8
0
  6
CONTINUOUS
 10
582.78298501960001
 20
108.49925849189999
 30
0.0
 11
452.29250666669992
 21
183.82980818920001
 31
0.0
  0
LINE
  5
311
  8
0
  6
CONTINUOUS
 10
452.29250666669992
 20
172.50324016639999
 30
0.0
 11
564.00780733999989
 21
108.01136983569999
 31
0.0
  0
ARC
  5
320
  8
0
  6
CONTINUOUS
 10
510.5689590305999
 20
161.88310981160001
 30
0.0
 40
2.8434004903733081
 50
3.2068317536999991
 51
11.289445844799999
  0
ARC
  5
321
  8
0
  6
CONTINUOUS
 10
512.20335587169996
 20
159.3827125748
 30
0.0
 40
2.9195314312390819
 50
65.632755569499992
 51
75.167162469999994
  0
ARC
  5
322
  8
0
  6
CONTINUOUS
 10
508.71481182399998
 20
161.98727459599999
 30
0.0
 40
4.2415331199843207
 50
357.05820878219998
 51
2.9417912177999992
  0
ARC
  5
323
  8
0
  6
CONTINUOUS
 10
510.90085989149998
 20
156.59892094750001
 30
0.0
 40
5.5621869365966372
 50
63.209439962599987
 51
68.374317419799993
  0
ARC
  5
324
  8
0
  6
CONTINUOUS
 10
507.85487645870001
 20
161.8751963517
 30
0.0
 40
5.561740058561182
 50
351.62753297490002
 51
356.79310351870009
  0
ARC
  5
325
  8
0
  6
CONTINUOUS
 10
511.42822917549989
 20
157.2883185794
 30
0.0
 40
4.2411734362080349
 50
57.060885963300002
 51
62.944490569399989
  0
ARC
  5
326
  8
0
  6
CONTINUOUS
 10
510.91638028979997
 20
161.61146742189999
 30
0.0
 40
2.919640921630843
 50
344.83557195880002
 51
354.37017965349997
  0
ARC
  5
327
  8
0
  6
CONTINUOUS
 10
512.26501812519984
 20
158.94618577049999
 30
0.0
 40
2.8430593328509879
 50
48.713383543199988
 51
56.796016420599997
  0
ARC
  5
328
  8
0
  6
CONTINUOUS
 10
511.69683629799999
 20
161.30019388829999
 30
0.0
 40
2.4537813758573122
 50
354.91045090739999
 51
5.0895490925999987
  0
ARC
  5
329
  8
0
  6
CONTINUOUS
 10
512.65248300350004
 20
160.17445761850001
 30
0.0
 40
2.0050646557526388
 50
42.068000659399999
 51
54.320498041599997
  0
ARC
  5
32A
  8
0
  6
CONTINUOUS
 10
511.82636814059993
 20
161.60460734029999
 30
0.0
 40
2.0054230696672151
 50
5.6819294165000001
 51
17.933513413499998
  0
ARC
  5
32B
  8
0
  6
CONTINUOUS
 10
512.32405504209999
 20
160.21448759770001
 30
0.0
 40
2.4534612921462391
 50
54.912887006499993
 51
65.092489526199998
  0
POLYLINE
  5
32C
  8
0
  6
CONTINUOUS
 66
     1
 10
0.0
 20
0.0
 30
0.0
 70
   128
  0
VERTEX
  5
47A
  8
0
  6
CONTINUOUS
 10
514.429513724
 20
160.9292507159
 30
0.0
  0
VERTEX
  5
47B
  8
0
  6
CONTINUOUS
 10
514.36554806109984
 20
161.38508741620001
 30
0.0
  0
VERTEX
  5
47C
  8
0
  6
CONTINUOUS
 10
514.18136633309985
 20
161.85979669829999
 30
0.0
  0
VERTEX
  5
47D
  8
0
  6
CONTINUOUS
 10
513.8991836335
 20
162.2961213557
 30
0.0
  0
VERTEX
  5
47E
  8
0
  6
CONTINUOUS
 10
513.55303525039994
 20
162.64143462070001
 30
0.0
  0
VERTEX
  5
47F
  8
0
  6
CONTINUOUS
 10
513.1846718354999
 20
162.85408629369999
 30
0.0
  0
VERTEX
  5
480
  8
0
  6
CONTINUOUS
 10
512.8385234525
 20
162.90842744490001
 30
0.0
  0
VERTEX
  5
481
  8
0
  6
CONTINUOUS
 10
512.5563407528
 20
162.79790399769999
 30
0.0
  0
VERTEX
  5
482
  8
0
  6
CONTINUOUS
 10
512.3721590248
 20
162.5358464123
 30
0.0
  0
VERTEX
  5
483
  8
0
  6
CONTINUOUS
 10
512.30819336199988
 20
162.1538628943
 30
0.0
  0
VERTEX
  5
484
  8
0
  6
CONTINUOUS
 10
512.3721590248
 20
161.69802619390001
 30
0.0
  0
VERTEX
  5
485
  8
0
  6
CONTINUOUS
 10
512.5563407528
 20
161.22331729209989
 30
0.0
  0
VERTEX
  5
486
  8
0
  6
CONTINUOUS
 10
512.8385234525
 20
160.78699225439999
 30
0.0
  0
VERTEX
  5
487
  8
0
  6
CONTINUOUS
 10
513.1846718354999
 20
160.44167936970001
 30
0.0
  0
VERTEX
  5
488
  8
0
  6
CONTINUOUS
 10
513.55303525039994
 20
160.2290276967
 30
0.0
  0
VERTEX
  5
489
  8
0
  6
CONTINUOUS
 10
513.8991836335
 20
160.1746861652
 30
0.0
  0
VERTEX
  5
48A
  8
0
  6
CONTINUOUS
 10
514.18136633309985
 20
160.2852099927
 30
0.0
  0
VERTEX
  5
48B
  8
0
  6
CONTINUOUS
 10
514.36554806109984
 20
160.5472671979
 30
0.0
  0
VERTEX
  5
48C
  8
0
  6
CONTINUOUS
 10
514.429513724
 20
160.9292507159
 30
0.0
  0
SEQEND
  5
48D
  8
0
  6
CONTINUOUS
  0
POLYLINE
  5
32D
  8
0
  6
CONTINUOUS
 66
     1
 10
0.0
 20
0.0
 30
0.0
 70
   128
  0
VERTEX
  5
48E
  8
0
  6
CONTINUOUS
 10
512.17697318269995
 20
162.5855030063
 30
0.0
  0
VERTEX
  5
48F
  8
0
  6
CONTINUOUS
 10
512.11439943599987
 20
162.54277670600001
 30
0.0
  0
VERTEX
  5
490
  8
0
  6
CONTINUOUS
 10
511.93021770799999
 20
162.28071912070001
 30
0.0
  0
VERTEX
  5
491
  8
0
  6
CONTINUOUS
 10
511.86625204519999
 20
161.8987356026
 30
0.0
  0
VERTEX
  5
492
  8
0
  6
CONTINUOUS
 10
511.93021770799999
 20
161.44289890229999
 30
0.0
  0
VERTEX
  5
493
  8
0
  6
CONTINUOUS
 10
512.11439943599987
 20
160.9681900004
 30
0.0
  0
VERTEX
  5
494
  8
0
  6
CONTINUOUS
 10
512.39658213569999
 20
160.5318649628
 30
0.0
  0
VERTEX
  5
495
  8
0
  6
CONTINUOUS
 10
512.74273051879993
 20
160.18655207800001
 30
0.0
  0
VERTEX
  5
496
  8
0
  6
CONTINUOUS
 10
513.11109393360005
 20
159.97390040510001
 30
0.0
  0
VERTEX
  5
497
  8
0
  6
CONTINUOUS
 10
513.45724231669988
 20
159.91955887360001
 30
0.0
  0
VERTEX
  5
498
  8
0
  6
CONTINUOUS
 10
513.67685126970002
 20
159.9873564008
 30
0.0
  0
SEQEND
  5
499
  8
0
  6
CONTINUOUS
  0
LINE
  5
32E
  8
0
  6
CONTINUOUS
 10
513.40729066620008
 20
161.5528844049
 30
0.0
 11
513.80445040079985
 21
161.32360897039999
 31
0.0
  0
LINE
  5
32F
  8
0
  6
CONTINUOUS
 10
513.80445040079985
 20
161.32360897039999
 30
0.0
 11
513.80445040079985
 21
161.32348805679999
 31
0.0
  0
LINE
  5
330
  8
0
  6
CONTINUOUS
 10
513.39786402339985
 20
161.28719313209999
 30
0.0
 11
513.39786402339985
 21
161.04430166489999
 31
0.0
  0
LINE
  5
331
  8
0
  6
CONTINUOUS
 10
512.95277518290004
 20
161.8152706084
 30
0.0
 11
513.16306864310002
 21
161.6938707779
 31
0.0
  0
LINE
  5
332
  8
0
  6
CONTINUOUS
 10
513.3978414991999
 20
162.02785022270001
 30
0.0
 11
513.39786402339985
 21
162.02783721969999
 31
0.0
  0
LINE
  5
333
  8
0
  6
CONTINUOUS
 10
513.39786402339985
 20
162.02783721969999
 30
0.0
 11
513.39786402339985
 21
161.5691453954999
 31
0.0
  0
LINE
  5
334
  8
0
  6
CONTINUOUS
 10
513.16306864310002
 20
161.6938707779
 30
0.0
 11
513.40790704330004
 21
162.04217121389999
 31
0.0
  0
LINE
  5
335
  8
0
  6
CONTINUOUS
 10
513.39786402339985
 20
161.28719313209999
 30
0.0
 11
513.82193825599995
 21
161.3250481197
 31
0.0
  0
LINE
  5
336
  8
0
  6
CONTINUOUS
 10
513.80445040079985
 20
161.32360897039999
 30
0.0
 11
514.14094306020002
 21
161.51787525029999
 31
0.0
  0
LINE
  5
337
  8
0
  6
CONTINUOUS
 10
513.40785109789999
 20
161.56409219650001
 30
0.0
 11
513.82193825599995
 21
161.80315608239999
 31
0.0
  0
LINE
  5
338
  8
0
  6
CONTINUOUS
 10
513.39786402339985
 20
162.02783721969999
 30
0.0
 11
513.73435665199997
 21
162.22210351730001
 31
0.0
  0
POLYLINE
  5
339
  8
0
  6
CONTINUOUS
 66
     1
 10
0.0
 20
0.0
 30
0.0
 70
   128
  0
VERTEX
  5
49A
  8
0
  6
CONTINUOUS
 10
455.1209342549999
 20
182.6947395899
 30
0.0
  0
VERTEX
  5
49B
  8
0
  6
CONTINUOUS
 10
455.18915946609991
 20
183.1021913623
 30
0.0
  0
VERTEX
  5
49C
  8
0
  6
CONTINUOUS
 10
455.38562173199989
 20
183.38171793270001
 30
0.0
  0
VERTEX
  5
49D
  8
0
  6
CONTINUOUS
 10
455.68661871900002
 20
183.4996087987
 30
0.0
  0
VERTEX
  5
49E
  8
0
  6
CONTINUOUS
 10
455.83183041720002
 20
183.4972360918
 30
0.0
  0
SEQEND
  5
49F
  8
0
  6
CONTINUOUS
  0
POLYLINE
  5
33A
  8
0
  6
CONTINUOUS
 66
     1
 10
0.0
 20
0.0
 30
0.0
 70
   128
  0
VERTEX
  5
4A0
  8
0
  6
CONTINUOUS
 10
455.20626054979999
 20
182.1477344713
 30
0.0
  0
VERTEX
  5
4A1
  8
0
  6
CONTINUOUS
 10
455.18915946609991
 20
182.20851666550001
 30
0.0
  0
VERTEX
  5
4A2
  8
0
  6
CONTINUOUS
 10
455.1209342549999
 20
182.6947395899
 30
0.0
  0
SEQEND
  5
4A3
  8
0
  6
CONTINUOUS
  0
POLYLINE
  5
33B
  8
0
  6
CONTINUOUS
 66
     1
 10
0.0
 20
0.0
 30
0.0
 70
   128
  0
VERTEX
  5
4A4
  8
0
  6
CONTINUOUS
 10
455.97996078469998
 20
182.56621791660001
 30
0.0
  0
VERTEX
  5
4A5
  8
0
  6
CONTINUOUS
 10
456.0249156669999
 20
182.801229503
 30
0.0
  0
VERTEX
  5
4A6
  8
0
  6
CONTINUOUS
 10
456.15292618260003
 20
182.9485659906
 30
0.0
  0
VERTEX
  5
4A7
  8
0
  6
CONTINUOUS
 10
456.34450995089992
 20
182.98579037490001
 30
0.0
  0
VERTEX
  5
4A8
  8
0
  6
CONTINUOUS
 10
456.57050135259999
 20
182.90723751259989
 30
0.0
  0
VERTEX
  5
4A9
  8
0
  6
CONTINUOUS
 10
456.79648748589989
 20
182.7248692977
 30
0.0
  0
VERTEX
  5
4AA
  8
0
  6
CONTINUOUS
 10
456.98807652260001
 20
182.46644396159999
 30
0.0
  0
VERTEX
  5
4AB
  8
0
  6
CONTINUOUS
 10
457.11608703820002
 20
182.17130967860001
 30
0.0
  0
VERTEX
  5
4AC
  8
0
  6
CONTINUOUS
 10
457.16103665209988
 20
181.88439733120001
 30
0.0
  0
VERTEX
  5
4AD
  8
0
  6
CONTINUOUS
 10
457.11608703820002
 20
181.64938270339999
 30
0.0
  0
VERTEX
  5
4AE
  8
0
  6
CONTINUOUS
 10
456.98807652260001
 20
181.50204621590001
 30
0.0
  0
VERTEX
  5
4AF
  8
0
  6
CONTINUOUS
 10
456.79648748589989
 20
181.46482487290001
 30
0.0
  0
VERTEX
  5
4B0
  8
0
  6
CONTINUOUS
 10
456.57050135259999
 20
181.54337469390001
 30
0.0
  0
VERTEX
  5
4B1
  8
0
  6
CONTINUOUS
 10
456.34450995089992
 20
181.72574595009999
 30
0.0
  0
VERTEX
  5
4B2
  8
0
  6
CONTINUOUS
 10
456.15292618260003
 20
181.98416824489999
 30
0.0
  0
VERTEX
  5
4B3
  8
0
  6
CONTINUOUS
 10
456.0249156669999
 20
182.27930252780001
 30
0.0
  0
VERTEX
  5
4B4
  8
0
  6
CONTINUOUS
 10
455.97996078469998
 20
182.56621791660001
 30
0.0
  0
SEQEND
  5
4B5
  8
0
  6
CONTINUOUS
  0
ARC
  5
33C
  8
0
  6
CONTINUOUS
 10
455.84060095169991
 20
182.77398429709999
 30
0.0
 40
0.7615709737595929
 50
123.7938221293
 51
187.5189936049
  0
POLYLINE
  5
33D
  8
0
  6
CONTINUOUS
 66
     1
 10
0.0
 20
0.0
 30
0.0
 70
   128
  0
VERTEX
  5
4B6
  8
0
  6
CONTINUOUS
 10
455.15702776239999
 20
182.17615498500001
 30
0.0
  0
VERTEX
  5
4B7
  8
0
  6
CONTINUOUS
 10
455.15380352849991
 20
182.18810611730001
 30
0.0
  0
VERTEX
  5
4B8
  8
0
  6
CONTINUOUS
 10
455.08557831749988
 20
182.6743290416
 30
0.0
  0
SEQEND
  5
4B9
  8
0
  6
CONTINUOUS
  0
POLYLINE
  5
33E
  8
0
  6
CONTINUOUS
 66
     1
 10
0.0
 20
0.0
 30
0.0
 70
   128
  0
VERTEX
  5
4BA
  8
0
  6
CONTINUOUS
 10
456.83566825000003
 20
182.07222851169999
 30
0.0
  0
VERTEX
  5
4BB
  8
0
  6
CONTINUOUS
 10
456.81547990949991
 20
182.20106119850001
 30
0.0
  0
VERTEX
  5
4BC
  8
0
  6
CONTINUOUS
 10
456.75800214489999
 20
182.33358167329999
 30
0.0
  0
VERTEX
  5
4BD
  8
0
  6
CONTINUOUS
 10
456.67197515869998
 20
182.44962175919991
 30
0.0
  0
VERTEX
  5
4BE
  8
0
  6
CONTINUOUS
 10
456.57050135259999
 20
182.53150952819999
 30
0.0
  0
VERTEX
  5
4BF
  8
0
  6
CONTINUOUS
 10
456.46902754640001
 20
182.56678092199999
 30
0.0
  0
VERTEX
  5
4C0
  8
0
  6
CONTINUOUS
 10
456.38300056029999
 20
182.55006548009999
 30
0.0
  0
VERTEX
  5
4C1
  8
0
  6
CONTINUOUS
 10
456.32552279559991
 20
182.48390741989999
 30
0.0
  0
VERTEX
  5
4C2
  8
0
  6
CONTINUOUS
 10
456.3053344551999
 20
182.37838369479999
 30
0.0
  0
VERTEX
  5
4C3
  8
0
  6
CONTINUOUS
 10
456.32552279559991
 20
182.24955100790001
 30
0.0
  0
VERTEX
  5
4C4
  8
0
  6
CONTINUOUS
 10
456.38300056029999
 20
182.11703053319999
 30
0.0
  0
VERTEX
  5
4C5
  8
0
  6
CONTINUOUS
 10
456.46902754640001
 20
182.0009919682
 30
0.0
  0
VERTEX
  5
4C6
  8
0
  6
CONTINUOUS
 10
456.57050135259999
 20
181.91910419920001
 30
0.0
  0
VERTEX
  5
4C7
  8
0
  6
CONTINUOUS
 10
456.67197515869998
 20
181.8838328054
 30
0.0
  0
VERTEX
  5
4C8
  8
0
  6
CONTINUOUS
 10
456.75800214489999
 20
181.90054672639999
 30
0.0
  0
VERTEX
  5
4C9
  8
0
  6
CONTINUOUS
 10
456.81547990949991
 20
181.96670478659999
 30
0.0
  0
VERTEX
  5
4CA
  8
0
  6
CONTINUOUS
 10
456.83566825000003
 20
182.07222851169999
 30
0.0
  0
SEQEND
  5
4CB
  8
0
  6
CONTINUOUS
  0
POLYLINE
  5
33F
  8
0
  6
CONTINUOUS
 66
     1
 10
0.0
 20
0.0
 30
0.0
 70
   128
  0
VERTEX
  5
4CC
  8
0
  6
CONTINUOUS
 10
456.45625705129987
 20
182.01492948410001
 30
0.0
  0
VERTEX
  5
4CD
  8
0
  6
CONTINUOUS
 10
456.40444803779991
 20
182.12947923169989
 30
0.0
  0
VERTEX
  5
4CE
  8
0
  6
CONTINUOUS
 10
456.33118627839991
 20
182.2315827516
 30
0.0
  0
SEQEND
  5
4CF
  8
0
  6
CONTINUOUS
  0
POLYLINE
  5
340
  8
0
  6
CONTINUOUS
 66
     1
 10
0.0
 20
0.0
 30
0.0
 70
   128
  0
VERTEX
  5
4D0
  8
0
  6
CONTINUOUS
 10
455.1209342549999
 20
205.14961217530001
 30
0.0
  0
VERTEX
  5
4D1
  8
0
  6
CONTINUOUS
 10
455.18915946609991
 20
205.55706394769999
 30
0.0
  0
VERTEX
  5
4D2
  8
0
  6
CONTINUOUS
 10
455.38562173199989
 20
205.83659089829999
 30
0.0
  0
VERTEX
  5
4D3
  8
0
  6
CONTINUOUS
 10
455.68661871900002
 20
205.95448138410001
 30
0.0
  0
VERTEX
  5
4D4
  8
0
  6
CONTINUOUS
 10
455.83183041720002
 20
205.9521090575
 30
0.0
  0
SEQEND
  5
4D5
  8
0
  6
CONTINUOUS
  0
POLYLINE
  5
341
  8
0
  6
CONTINUOUS
 66
     1
 10
0.0
 20
0.0
 30
0.0
 70
   128
  0
VERTEX
  5
4D6
  8
0
  6
CONTINUOUS
 10
457.30646435289998
 20
203.41358046889999
 30
0.0
  0
VERTEX
  5
4D7
  8
0
  6
CONTINUOUS
 10
457.11898463400001
 20
203.15638231220001
 30
0.0
  0
VERTEX
  5
4D8
  8
0
  6
CONTINUOUS
 10
456.817987647
 20
203.03849182639999
 30
0.0
  0
VERTEX
  5
4D9
  8
0
  6
CONTINUOUS
 10
456.44876544900001
 20
203.0964542637
 30
0.0
  0
VERTEX
  5
4DA
  8
0
  6
CONTINUOUS
 10
456.0558409171
 20
203.3232847678
 30
0.0
  0
VERTEX
  5
4DB
  8
0
  6
CONTINUOUS
 10
455.68661871900002
 20
203.69161720630001
 30
0.0
  0
VERTEX
  5
4DC
  8
0
  6
CONTINUOUS
 10
455.38562173199989
 20
204.15703141610001
 30
0.0
  0
VERTEX
  5
4DD
  8
0
  6
CONTINUOUS
 10
455.18915946609991
 20
204.6633888707
 30
0.0
  0
VERTEX
  5
4DE
  8
0
  6
CONTINUOUS
 10
455.1209342549999
 20
205.14961217530001
 30
0.0
  0
SEQEND
  5
4DF
  8
0
  6
CONTINUOUS
  0
POLYLINE
  5
342
  8
0
  6
CONTINUOUS
 66
     1
 10
0.0
 20
0.0
 30
0.0
 70
   128
  0
VERTEX
  5
4E0
  8
0
  6
CONTINUOUS
 10
455.97996078469998
 20
205.02109050199999
 30
0.0
  0
VERTEX
  5
4E1
  8
0
  6
CONTINUOUS
 10
456.0249156669999
 20
205.25610246869999
 30
0.0
  0
VERTEX
  5
4E2
  8
0
  6
CONTINUOUS
 10
456.15292618260003
 20
205.40343819570001
 30
0.0
  0
VERTEX
  5
4E3
  8
0
  6
CONTINUOUS
 10
456.34450995089992
 20
205.44066334050001
 30
0.0
  0
VERTEX
  5
4E4
  8
0
  6
CONTINUOUS
 10
456.57050135259999
 20
205.36211009799999
 30
0.0
  0
VERTEX
  5
4E5
  8
0
  6
CONTINUOUS
 10
456.79648748589989
 20
205.17974226339999
 30
0.0
  0
VERTEX
  5
4E6
  8
0
  6
CONTINUOUS
 10
456.98807652260001
 20
204.9213161667
 30
0.0
  0
VERTEX
  5
4E7
  8
0
  6
CONTINUOUS
 10
457.11608703820002
 20
204.6261826443
 30
0.0
  0
VERTEX
  5
4E8
  8
0
  6
CONTINUOUS
 10
457.16103665209988
 20
204.3392699167
 30
0.0
  0
VERTEX
  5
4E9
  8
0
  6
CONTINUOUS
 10
457.11608703820002
 20
204.10425452839999
 30
0.0
  0
VERTEX
  5
4EA
  8
0
  6
CONTINUOUS
 10
456.98807652260001
 20
203.95691918150001
 30
0.0
  0
VERTEX
  5
4EB
  8
0
  6
CONTINUOUS
 10
456.79648748589989
 20
203.91969669790001
 30
0.0
  0
VERTEX
  5
4EC
  8
0
  6
CONTINUOUS
 10
456.57050135259999
 20
203.9982468991
 30
0.0
  0
VERTEX
  5
4ED
  8
0
  6
CONTINUOUS
 10
456.34450995089992
 20
204.180617775
 30
0.0
  0
VERTEX
  5
4EE
  8
0
  6
CONTINUOUS
 10
456.15292618260003
 20
204.43904121049999
 30
0.0
  0
VERTEX
  5
4EF
  8
0
  6
CONTINUOUS
 10
456.0249156669999
 20
204.73417435280001
 30
0.0
  0
VERTEX
  5
4F0
  8
0
  6
CONTINUOUS
 10
455.97996078469998
 20
205.02109050199999
 30
0.0
  0
SEQEND
  5
4F1
  8
0
  6
CONTINUOUS
  0
ARC
  5
343
  8
0
  6
CONTINUOUS
 10
455.84059275049998
 20
205.22885993599999
 30
0.0
 40
0.7615632426667224
 50
123.7934689631
 51
187.5193020957
  0
POLYLINE
  5
344
  8
0
  6
CONTINUOUS
 66
     1
 10
0.0
 20
0.0
 30
0.0
 70
   128
  0
VERTEX
  5
4F2
  8
0
  6
CONTINUOUS
 10
457.01688389349999
 20
203.09039704369999
 30
0.0
  0
VERTEX
  5
4F3
  8
0
  6
CONTINUOUS
 10
456.78263170949998
 20
203.0180812781
 30
0.0
  0
VERTEX
  5
4F4
  8
0
  6
CONTINUOUS
 10
456.41340951149999
 20
203.0760437154
 30
0.0
  0
VERTEX
  5
4F5
  8
0
  6
CONTINUOUS
 10
456.0204849795
 20
203.30287421950001
 30
0.0
  0
VERTEX
  5
4F6
  8
0
  6
CONTINUOUS
 10
455.65126278150001
 20
203.67120665799999
 30
0.0
  0
VERTEX
  5
4F7
  8
0
  6
CONTINUOUS
 10
455.35026579449988
 20
204.13662086779999
 30
0.0
  0
VERTEX
  5
4F8
  8
0
  6
CONTINUOUS
 10
455.15380352849991
 20
204.64297832240001
 30
0.0
  0
VERTEX
  5
4F9
  8
0
  6
CONTINUOUS
 10
455.08557831749988
 20
205.12920162699999
 30
0.0
  0
SEQEND
  5
4FA
  8
0
  6
CONTINUOUS
  0
POLYLINE
  5
345
  8
0
  6
CONTINUOUS
 66
     1
 10
0.0
 20
0.0
 30
0.0
 70
   128
  0
VERTEX
  5
4FB
  8
0
  6
CONTINUOUS
 10
456.83566825000003
 20
204.5271010971
 30
0.0
  0
VERTEX
  5
4FC
  8
0
  6
CONTINUOUS
 10
456.81547990949991
 20
204.6559341642
 30
0.0
  0
VERTEX
  5
4FD
  8
0
  6
CONTINUOUS
 10
456.75800214489999
 20
204.78845463889999
 30
0.0
  0
VERTEX
  5
4FE
  8
0
  6
CONTINUOUS
 10
456.67197515869998
 20
204.9044935842
 30
0.0
  0
VERTEX
  5
4FF
  8
0
  6
CONTINUOUS
 10
456.57050135259999
 20
204.98638135319999
 30
0.0
  0
VERTEX
  5
500
  8
0
  6
CONTINUOUS
 10
456.46902754640001
 20
205.02165274699999
 30
0.0
  0
VERTEX
  5
501
  8
0
  6
CONTINUOUS
 10
456.38300056029999
 20
205.00493844569999
 30
0.0
  0
VERTEX
  5
502
  8
0
  6
CONTINUOUS
 10
456.32552279559991
 20
204.9387803855
 30
0.0
  0
VERTEX
  5
503
  8
0
  6
CONTINUOUS
 10
456.3053344551999
 20
204.8332562802
 30
0.0
  0
VERTEX
  5
504
  8
0
  6
CONTINUOUS
 10
456.32552279559991
 20
204.70442283290001
 30
0.0
  0
VERTEX
  5
505
  8
0
  6
CONTINUOUS
 10
456.38300056029999
 20
204.5719023581
 30
0.0
  0
VERTEX
  5
506
  8
0
  6
CONTINUOUS
 10
456.46902754640001
 20
204.45586379310001
 30
0.0
  0
VERTEX
  5
507
  8
0
  6
CONTINUOUS
 10
456.57050135259999
 20
204.3739756439
 30
0.0
  0
VERTEX
  5
508
  8
0
  6
CONTINUOUS
 10
456.67197515869998
 20
204.33870463029999
 30
0.0
  0
VERTEX
  5
509
  8
0
  6
CONTINUOUS
 10
456.75800214489999
 20
204.3554185513
 30
0.0
  0
VERTEX
  5
50A
  8
0
  6
CONTINUOUS
 10
456.81547990949991
 20
204.4215766115
 30
0.0
  0
VERTEX
  5
50B
  8
0
  6
CONTINUOUS
 10
456.83566825000003
 20
204.5271010971
 30
0.0
  0
SEQEND
  5
50C
  8
0
  6
CONTINUOUS
  0
POLYLINE
  5
346
  8
0
  6
CONTINUOUS
 66
     1
 10
0.0
 20
0.0
 30
0.0
 70
   128
  0
VERTEX
  5
50D
  8
0
  6
CONTINUOUS
 10
456.45625705129987
 20
204.46980206949999
 30
0.0
  0
VERTEX
  5
50E
  8
0
  6
CONTINUOUS
 10
456.40444803779991
 20
204.58435219730001
 30
0.0
  0
VERTEX
  5
50F
  8
0
  6
CONTINUOUS
 10
456.33118627839991
 20
204.68645495679999
 30
0.0
  0
SEQEND
  5
510
  8
0
  6
CONTINUOUS
  0
LINE
  5
347
  8
0
  6
CONTINUOUS
 10
527.77615706510005
 20
150.060421077
 30
0.0
 11
527.77615706510005
 21
154.51056854679999
 31
0.0
  0
ARC
  5
348
  8
0
  6
CONTINUOUS
 10
527.56061933620003
 20
150.0254582256
 30
0.0
 40
0.218355017211848
 50
230.79674631180001
 51
9.2138206057000005
  0
LINE
  5
349
  8
0
  6
CONTINUOUS
 10
527.42260295800008
 20
149.85625304569999
 30
0.0
 11
526.96298367240001
 21
150.1215856115
 31
0.0
  0
LINE
  5
34A
  8
0
  6
CONTINUOUS
 10
498.71406767759999
 20
166.4293376951
 30
0.0
 11
498.07767265559988
 21
166.79672072130001
 31
0.0
  0
ARC
  5
34B
  8
0
  6
CONTINUOUS
 10
498.49172934640001
 20
167.44402562440001
 30
0.0
 40
0.7684052191045319
 50
182.6055855649
 51
237.39447619980001
  0
LINE
  5
34C
  8
0
  6
CONTINUOUS
 10
497.72411854860002
 20
167.4090936357
 30
0.0
 11
497.72411854860002
 21
171.85924110549999
 31
0.0
  0
LINE
  5
34D
  8
0
  6
CONTINUOUS
 10
569.47777285379993
 20
138.84703115510001
 30
0.0
 11
569.47777285379993
 21
139.33695557039999
 31
0.0
  0
POLYLINE
  5
34E
  8
0
  6
CONTINUOUS
 66
     1
 10
0.0
 20
0.0
 30
0.0
 70
   128
  0
VERTEX
  5
511
  8
0
  6
CONTINUOUS
 10
570.64450298769987
 20
138.17349218550001
 30
0.0
  0
VERTEX
  5
512
  8
0
  6
CONTINUOUS
 10
570.60009601440004
 20
137.9413342874
 30
0.0
  0
VERTEX
  5
513
  8
0
  6
CONTINUOUS
 10
570.47363966379999
 20
137.79578959630001
 30
0.0
  0
VERTEX
  5
514
  8
0
  6
CONTINUOUS
 10
570.28437924059995
 20
137.75901904610001
 30
0.0
  0
VERTEX
  5
515
  8
0
  6
CONTINUOUS
 10
570.06113792070005
 20
137.8366155041
 30
0.0
  0
VERTEX
  5
516
  8
0
  6
CONTINUOUS
 10
569.83789660089985
 20
138.01676798759999
 30
0.0
  0
VERTEX
  5
517
  8
0
  6
CONTINUOUS
 10
569.6486361776
 20
138.27205397130001
 30
0.0
  0
VERTEX
  5
518
  8
0
  6
CONTINUOUS
 10
569.52217982699995
 20
138.56360205710001
 30
0.0
  0
VERTEX
  5
519
  8
0
  6
CONTINUOUS
 10
569.47777285379993
 20
138.84703115510001
 30
0.0
  0
SEQEND
  5
51A
  8
0
  6
CONTINUOUS
  0
LINE
  5
34F
  8
0
  6
CONTINUOUS
 10
570.64450298769987
 20
138.66341660079999
 30
0.0
 11
570.64450298769987
 21
138.17349218550001
 31
0.0
  0
POLYLINE
  5
350
  8
0
  6
CONTINUOUS
 66
     1
 10
0.0
 20
0.0
 30
0.0
 70
   128
  0
VERTEX
  5
51B
  8
0
  6
CONTINUOUS
 10
569.47777285379993
 20
139.33695557039999
 30
0.0
  0
VERTEX
  5
51C
  8
0
  6
CONTINUOUS
 10
569.52217982699995
 20
139.5691130882
 30
0.0
  0
VERTEX
  5
51D
  8
0
  6
CONTINUOUS
 10
569.6486361776
 20
139.71465815959999
 30
0.0
  0
VERTEX
  5
51E
  8
0
  6
CONTINUOUS
 10
569.83789660089985
 20
139.7514283296
 30
0.0
  0
VERTEX
  5
51F
  8
0
  6
CONTINUOUS
 10
570.06113792070005
 20
139.67383225180001
 30
0.0
  0
VERTEX
  5
520
  8
0
  6
CONTINUOUS
 10
570.28437924059995
 20
139.493679388
 30
0.0
  0
VERTEX
  5
521
  8
0
  6
CONTINUOUS
 10
570.47363966379999
 20
139.23839378459999
 30
0.0
  0
VERTEX
  5
522
  8
0
  6
CONTINUOUS
 10
570.60009601440004
 20
138.9468453186
 30
0.0
  0
VERTEX
  5
523
  8
0
  6
CONTINUOUS
 10
570.64450298769987
 20
138.66341660079999
 30
0.0
  0
SEQEND
  5
524
  8
0
  6
CONTINUOUS
  0
ARC
  5
351
  8
0
  6
CONTINUOUS
 10
568.7244473037
 20
142.0911469863
 30
0.0
 40
0.4367094611378057
 50
50.796548218600002
 51
189.21401869900001
  0
LINE
  5
352
  8
0
  6
CONTINUOUS
 10
569.00048086779998
 20
142.4295559473
 30
0.0
 11
573.41989403550008
 21
139.878283031
 31
0.0
  0
LINE
  5
353
  8
0
  6
CONTINUOUS
 10
568.29337265360004
 20
116.863933289
 30
0.0
 11
568.29337265360004
 21
142.02121988479999
 31
0.0
  0
LINE
  5
354
  8
0
  6
CONTINUOUS
 10
569.47777285379993
 20
116.39215894989999
 30
0.0
 11
569.47777285379993
 21
116.8820826048
 31
0.0
  0
LINE
  5
355
  8
0
  6
CONTINUOUS
 10
570.64450298769987
 20
115.71861998030001
 30
0.0
 11
570.61486848480001
 21
115.523762272
 31
0.0
  0
LINE
  5
356
  8
0
  6
CONTINUOUS
 10
569.50740735660008
 20
116.16308597299999
 30
0.0
 11
569.47777285379993
 21
116.39215894989999
 31
0.0
  0
LINE
  5
357
  8
0
  6
CONTINUOUS
 10
570.64450298769987
 20
116.2085436352
 30
0.0
 11
570.64450298769987
 21
115.71861998030001
 31
0.0
  0
POLYLINE
  5
358
  8
0
  6
CONTINUOUS
 66
     1
 10
0.0
 20
0.0
 30
0.0
 70
   128
  0
VERTEX
  5
525
  8
0
  6
CONTINUOUS
 10
569.47777285379993
 20
116.8820826048
 30
0.0
  0
VERTEX
  5
526
  8
0
  6
CONTINUOUS
 10
569.52217982699995
 20
117.1142408831
 30
0.0
  0
VERTEX
  5
527
  8
0
  6
CONTINUOUS
 10
569.6486361776
 20
117.2597855742
 30
0.0
  0
VERTEX
  5
528
  8
0
  6
CONTINUOUS
 10
569.83789660089985
 20
117.29655650460001
 30
0.0
  0
VERTEX
  5
529
  8
0
  6
CONTINUOUS
 10
570.06113792070005
 20
117.2189600466
 30
0.0
  0
VERTEX
  5
52A
  8
0
  6
CONTINUOUS
 10
570.28437924059995
 20
117.03880756309999
 30
0.0
  0
VERTEX
  5
52B
  8
0
  6
CONTINUOUS
 10
570.47363966379999
 20
116.7835211992
 30
0.0
  0
VERTEX
  5
52C
  8
0
  6
CONTINUOUS
 10
570.60009601440004
 20
116.49197311339999
 30
0.0
  0
VERTEX
  5
52D
  8
0
  6
CONTINUOUS
 10
570.64450298769987
 20
116.2085436352
 30
0.0
  0
SEQEND
  5
52E
  8
0
  6
CONTINUOUS
  0
LINE
  5
359
  8
0
  6
CONTINUOUS
 10
568.29337265360004
 20
142.02121988479999
 30
0.0
 11
568.11659823419996
 21
141.91917018469999
 31
0.0
  0
LINE
  5
35A
  8
0
  6
CONTINUOUS
 10
568.11659823419996
 20
116.9659857452
 30
0.0
 11
568.11659823419996
 21
141.91917018469999
 31
0.0
  0
ARC
  5
35B
  8
0
  6
CONTINUOUS
 10
573.31613581110003
 20
139.64924063219999
 30
0.0
 40
0.2514481846511253
 50
5.6929533446000002
 51
65.629054815000003
  0
LINE
  5
35C
  8
0
  6
CONTINUOUS
 10
570.4677285683
 20
115.61657028019999
 30
0.0
 11
570.64450298769987
 21
115.71861998030001
 31
0.0
  0
LINE
  5
35D
  8
0
  6
CONTINUOUS
 10
570.4677285683
 20
116.106493935
 30
0.0
 11
570.64450298769987
 21
116.2085436352
 31
0.0
  0
POLYLINE
  5
35E
  8
0
  6
CONTINUOUS
 66
     1
 10
0.0
 20
0.0
 30
0.0
 70
   128
  0
VERTEX
  5
52F
  8
0
  6
CONTINUOUS
 10
569.56986371769995
 20
117.1921879552
 30
0.0
  0
VERTEX
  5
530
  8
0
  6
CONTINUOUS
 10
569.66112218149999
 20
117.19450680449999
 30
0.0
  0
VERTEX
  5
531
  8
0
  6
CONTINUOUS
 10
569.88436350129984
 20
117.11691034650001
 30
0.0
  0
VERTEX
  5
532
  8
0
  6
CONTINUOUS
 10
570.10760482120008
 20
116.9367578629
 30
0.0
  0
VERTEX
  5
533
  8
0
  6
CONTINUOUS
 10
570.29686524440001
 20
116.6814714991
 30
0.0
  0
VERTEX
  5
534
  8
0
  6
CONTINUOUS
 10
570.42332159499995
 20
116.3899234133
 30
0.0
  0
VERTEX
  5
535
  8
0
  6
CONTINUOUS
 10
570.4677285683
 20
116.106493935
 30
0.0
  0
SEQEND
  5
536
  8
0
  6
CONTINUOUS
  0
LINE
  5
35F
  8
0
  6
CONTINUOUS
 10
570.4677285683
 20
116.106493935
 30
0.0
 11
570.4677285683
 21
115.61657028019999
 31
0.0
  0
LINE
  5
360
  8
0
  6
CONTINUOUS
 10
570.4677285683
 20
138.0714424853
 30
0.0
 11
570.64450298769987
 21
138.17349218550001
 31
0.0
  0
POLYLINE
  5
361
  8
0
  6
CONTINUOUS
 66
     1
 10
0.0
 20
0.0
 30
0.0
 70
   128
  0
VERTEX
  5
537
  8
0
  6
CONTINUOUS
 10
570.4677285683
 20
138.0714424853
 30
0.0
  0
VERTEX
  5
538
  8
0
  6
CONTINUOUS
 10
570.42332159499995
 20
137.8392845873
 30
0.0
  0
VERTEX
  5
539
  8
0
  6
CONTINUOUS
 10
570.37563770429995
 20
137.76134065150001
 30
0.0
  0
SEQEND
  5
53A
  8
0
  6
CONTINUOUS
  0
LINE
  5
362
  8
0
  6
CONTINUOUS
 10
570.4677285683
 20
138.56136690069999
 30
0.0
 11
570.64450298769987
 21
138.66341660079999
 31
0.0
  0
POLYLINE
  5
363
  8
0
  6
CONTINUOUS
 66
     1
 10
0.0
 20
0.0
 30
0.0
 70
   128
  0
VERTEX
  5
53B
  8
0
  6
CONTINUOUS
 10
569.56986371769995
 20
139.64705978009999
 30
0.0
  0
VERTEX
  5
53C
  8
0
  6
CONTINUOUS
 10
569.66112218149999
 20
139.64937862950001
 30
0.0
  0
VERTEX
  5
53D
  8
0
  6
CONTINUOUS
 10
569.88436350129984
 20
139.57178255170001
 30
0.0
  0
VERTEX
  5
53E
  8
0
  6
CONTINUOUS
 10
570.10760482120008
 20
139.39162968790001
 30
0.0
  0
VERTEX
  5
53F
  8
0
  6
CONTINUOUS
 10
570.29686524440001
 20
139.1363440845
 30
0.0
  0
VERTEX
  5
540
  8
0
  6
CONTINUOUS
 10
570.42332159499995
 20
138.8447956185
 30
0.0
  0
VERTEX
  5
541
  8
0
  6
CONTINUOUS
 10
570.4677285683
 20
138.56136690069999
 30
0.0
  0
SEQEND
  5
542
  8
0
  6
CONTINUOUS
  0
ARC
  5
364
  8
0
  6
CONTINUOUS
 10
568.5834821528
 20
141.98371752540001
 30
0.0
 40
0.471324678544946
 50
123.44111123179999
 51
187.87132365869999
  0
LINE
  5
365
  8
0
  6
CONTINUOUS
 10
570.4677285683
 20
138.56136690069999
 30
0.0
 11
570.4677285683
 21
138.0714424853
 31
0.0
  0
LINE
  5
366
  8
0
  6
CONTINUOUS
 10
432.67029323589992
 20
206.39646009809999
 30
0.0
 11
350.64590897839997
 21
159.0447909749
 31
0.0
  0
LINE
  5
367
  8
0
  6
CONTINUOUS
 10
432.67029323589992
 20
206.3148061556
 30
0.0
 11
432.67029323589992
 21
206.39646009809999
 31
0.0
  0
LINE
  5
368
  8
0
  6
CONTINUOUS
 10
432.67029323589992
 20
206.3148061556
 30
0.0
 11
435.49872082420001
 21
207.94762264689999
 31
0.0
  0
LINE
  5
369
  8
0
  6
CONTINUOUS
 10
435.49872082420001
 20
207.94762264689999
 30
0.0
 11
435.49872082420001
 21
208.0292765893
 31
0.0
  0
LINE
  5
36A
  8
0
  6
CONTINUOUS
 10
444.37291363389988
 20
213.1522390531
 30
0.0
 11
435.49872082420001
 21
208.0292765893
 31
0.0
  0
LINE
  5
36B
  8
0
  6
CONTINUOUS
 10
452.15108818480002
 20
209.47707570739999
 30
0.0
 11
444.37291363389988
 21
213.1522390531
 31
0.0
  0
LINE
  5
36C
  8
0
  6
CONTINUOUS
 10
338.94328858040001
 20
152.28901201990001
 30
0.0
 11
331.16511402949999
 21
139.6333594928
 31
0.0
  0
LINE
  5
36D
  8
0
  6
CONTINUOUS
 10
347.8174813901
 20
157.41197448360001
 30
0.0
 11
338.94328858040001
 21
152.28901201990001
 31
0.0
  0
LINE
  5
36E
  8
0
  6
CONTINUOUS
 10
347.8174813901
 20
157.33032054110001
 30
0.0
 11
347.8174813901
 21
157.41197448360001
 31
0.0
  0
LINE
  5
36F
  8
0
  6
CONTINUOUS
 10
350.64590897839997
 20
158.9631370324
 30
0.0
 11
347.8174813901
 21
157.33032054110001
 31
0.0
  0
LINE
  5
370
  8
0
  6
CONTINUOUS
 10
350.64590897839997
 20
158.9631370324
 30
0.0
 11
350.64590897839997
 21
159.0447909749
 31
0.0
  0
ARC
  5
371
  8
0
  6
CONTINUOUS
 10
452.50463672289987
 20
208.79473861139999
 30
0.0
 40
0.7684923430426658
 50
62.608867880200009
 51
117.3906392441
  0
LINE
  5
372
  8
0
  6
CONTINUOUS
 10
457.27760429839992
 20
206.92579974969999
 30
0.0
 11
452.85819113069988
 21
209.47707266610001
 31
0.0
  0
ARC
  5
373
  8
0
  6
CONTINUOUS
 10
456.44949598879998
 20
205.63119287169999
 30
0.0
 40
1.5368052384468109
 50
2.6054851013999989
 51
57.394576663300001
  0
LINE
  5
374
  8
0
  6
CONTINUOUS
 10
457.98471251260003
 20
180.54376732509999
 30
0.0
 11
457.98471251260003
 21
205.70105392080001
 31
0.0
  0
ARC
  5
375
  8
0
  6
CONTINUOUS
 10
444.58845052909999
 20
213.18720397850001
 30
0.0
 40
0.2183545263386313
 50
50.796358934300002
 51
189.2143928205
  0
LINE
  5
376
  8
0
  6
CONTINUOUS
 10
444.72646774099991
 20
213.15227222819999
 30
0.0
 11
444.72646774099991
 21
213.3564078448
 31
0.0
  0
POLYLINE
  5
377
  8
0
  6
CONTINUOUS
 66
     1
 10
0.0
 20
0.0
 30
0.0
 70
   128
  0
VERTEX
  5
543
  8
0
  6
CONTINUOUS
 10
444.72646774099991
 20
213.15227222819999
 30
0.0
  0
VERTEX
  5
544
  8
0
  6
CONTINUOUS
 10
444.69198108220002
 20
213.16825848490001
 30
0.0
  0
VERTEX
  5
545
  8
0
  6
CONTINUOUS
 10
444.65881678080001
 20
213.17578699750001
 30
0.0
  0
VERTEX
  5
546
  8
0
  6
CONTINUOUS
 10
444.6282550473
 20
213.17456586820001
 30
0.0
  0
VERTEX
  5
547
  8
0
  6
CONTINUOUS
 10
444.6014654567
 20
213.16464387650001
 30
0.0
  0
VERTEX
  5
548
  8
0
  6
CONTINUOUS
 10
444.57948060680002
 20
213.1464028716
 30
0.0
  0
VERTEX
  5
549
  8
0
  6
CONTINUOUS
 10
444.5631434346999
 20
213.12054103759999
 30
0.0
  0
VERTEX
  5
54A
  8
0
  6
CONTINUOUS
 10
444.55308614299992
 20
213.0880531192
 30
0.0
  0
VERTEX
  5
54B
  8
0
  6
CONTINUOUS
 10
444.55042562319989
 20
213.06836600619999
 30
0.0
  0
SEQEND
  5
54C
  8
0
  6
CONTINUOUS
  0
ARC
  5
378
  8
0
  6
CONTINUOUS
 10
435.7661085833999
 20
208.0461951979
 30
0.0
 40
0.2679224758820785
 50
127.6933267185
 51
183.62048858430001
  0
LINE
  5
379
  8
0
  6
CONTINUOUS
 10
444.72646774099991
 20
213.3564078448
 30
0.0
 11
448.26896304190001
 21
211.3113688375
 31
0.0
  0
LINE
  5
37A
  8
0
  6
CONTINUOUS
 10
444.72646774099991
 20
213.15227222819999
 30
0.0
 11
444.73103540569991
 21
213.1496353714
 31
0.0
  0
LINE
  5
37B
  8
0
  6
CONTINUOUS
 10
435.49871818999992
 20
207.9477053084
 30
0.0
 11
435.39262403559991
 21
207.88645845670001
 31
0.0
  0
ARC
  5
37C
  8
0
  6
CONTINUOUS
 10
432.88583013099992
 20
206.4314250235
 30
0.0
 40
0.2183545263385752
 50
50.796358934300002
 51
189.2143928205
  0
ARC
  5
37D
  8
0
  6
CONTINUOUS
 10
350.92044549029998
 20
159.05847532289999
 30
0.0
 40
0.2748773503666035
 50
128.46025309949999
 51
182.85356220329999
  0
ARC
  5
37E
  8
0
  6
CONTINUOUS
 10
331.26888864720001
 20
139.40431216179999
 30
0.0
 40
0.2514594423715865
 50
114.3738838811
 51
174.30686937839999
  0
LINE
  5
37F
  8
0
  6
CONTINUOUS
 10
350.5398095557
 20
158.90197132150001
 30
0.0
 11
350.64590371010001
 21
158.9632181732
 31
0.0
  0
ARC
  5
380
  8
0
  6
CONTINUOUS
 10
348.0330182852
 20
157.44693940900001
 30
0.0
 40
0.2183545263384551
 50
50.796358934200001
 51
189.2143928205
  0
ARC
  5
381
  8
0
  6
CONTINUOUS
 10
339.21067633920001
 20
152.30593062860001
 30
0.0
 40
0.267922475506543
 50
127.6933266759
 51
183.62048862699999
  0
ARC
  5
382
  8
0
  6
CONTINUOUS
 10
527.00608927070004
 20
155.1094432562
 30
0.0
 40
0.0436705274218094
 50
50.795615436999988
 51
189.2151363177999
  0
LINE
  5
383
  8
0
  6
CONTINUOUS
 10
526.96298235539984
 20
149.876588328
 30
0.0
 11
526.96298235539984
 21
155.10244977229999
 31
0.0
  0
LINE
  5
384
  8
0
  6
CONTINUOUS
 10
528.4479067074999
 20
149.01935974610001
 30
0.0
 11
526.96298235539984
 21
149.876588328
 31
0.0
  0
LINE
  5
385
  8
0
  6
CONTINUOUS
 10
528.4479067074999
 20
154.32687513280001
 30
0.0
 11
528.4479067074999
 21
149.01935974610001
 31
0.0
  0
LINE
  5
386
  8
0
  6
CONTINUOUS
 10
527.03369291339993
 20
155.1432833785
 30
0.0
 11
528.4479067074999
 21
154.32687513280001
 31
0.0
  0
POLYLINE
  5
387
  8
0
  6
CONTINUOUS
 66
     1
 10
0.0
 20
0.0
 30
0.0
 70
   128
  0
VERTEX
  5
54D
  8
0
  6
CONTINUOUS
 10
569.8490075638
 20
116.85153797069999
 30
0.0
  0
VERTEX
  5
54E
  8
0
  6
CONTINUOUS
 10
569.62576624389988
 20
116.9291329078
 30
0.0
  0
VERTEX
  5
54F
  8
0
  6
CONTINUOUS
 10
569.47836817799987
 20
116.9120618944
 30
0.0
  0
SEQEND
  5
550
  8
0
  6
CONTINUOUS
  0
ARC
  5
388
  8
0
  6
CONTINUOUS
 10
569.25934794729994
 20
115.85080382220001
 30
0.0
 40
1.1615366112714891
 50
349.85597760410002
 51
59.49225809619999
  0
POLYLINE
  5
389
  8
0
  6
CONTINUOUS
 66
     1
 10
0.0
 20
0.0
 30
0.0
 70
   128
  0
VERTEX
  5
551
  8
0
  6
CONTINUOUS
 10
569.8490075638
 20
139.30640979570001
 30
0.0
  0
VERTEX
  5
552
  8
0
  6
CONTINUOUS
 10
569.62576624389988
 20
139.3840058735
 30
0.0
  0
VERTEX
  5
553
  8
0
  6
CONTINUOUS
 10
569.47836817799987
 20
139.36693485999999
 30
0.0
  0
SEQEND
  5
554
  8
0
  6
CONTINUOUS
  0
POLYLINE
  5
38A
  8
0
  6
CONTINUOUS
 66
     1
 10
0.0
 20
0.0
 30
0.0
 70
   128
  0
VERTEX
  5
555
  8
0
  6
CONTINUOUS
 10
569.954980546
 20
137.90914864530001
 30
0.0
  0
VERTEX
  5
556
  8
0
  6
CONTINUOUS
 10
570.07224888359985
 20
137.8815210054
 30
0.0
  0
VERTEX
  5
557
  8
0
  6
CONTINUOUS
 10
570.26150930690005
 20
137.91829155560001
 30
0.0
  0
VERTEX
  5
558
  8
0
  6
CONTINUOUS
 10
570.38796565749999
 20
138.06383624669999
 30
0.0
  0
VERTEX
  5
559
  8
0
  6
CONTINUOUS
 10
570.43237263069989
 20
138.29599414469999
 30
0.0
  0
VERTEX
  5
55A
  8
0
  6
CONTINUOUS
 10
570.38796565749999
 20
138.5794228625
 30
0.0
  0
VERTEX
  5
55B
  8
0
  6
CONTINUOUS
 10
570.26150930690005
 20
138.8709709483
 30
0.0
  0
VERTEX
  5
55C
  8
0
  6
CONTINUOUS
 10
570.07224888359985
 20
139.1262569319
 30
0.0
  0
VERTEX
  5
55D
  8
0
  6
CONTINUOUS
 10
569.8490075638
 20
139.30640979570001
 30
0.0
  0
SEQEND
  5
55E
  8
0
  6
CONTINUOUS
  0
ARC
  5
38B
  8
0
  6
CONTINUOUS
 10
498.73732392459988
 20
171.30116715619999
 30
0.0
 40
0.153676962644282
 50
2.6048491797999991
 51
57.395150965799992
  0
LINE
  5
38C
  8
0
  6
CONTINUOUS
 10
497.40591774479998
 20
172.24703391969999
 30
0.0
 11
498.82013153899987
 21
171.43062567410001
 31
0.0
  0
LINE
  5
38D
  8
0
  6
CONTINUOUS
 10
497.40591774479998
 20
166.93951853300001
 30
0.0
 11
497.40591774479998
 21
172.24703391969999
 31
0.0
  0
LINE
  5
38E
  8
0
  6
CONTINUOUS
 10
498.8908420969999
 20
166.08228995109999
 30
0.0
 11
497.40591774479998
 21
166.93951853300001
 31
0.0
  0
LINE
  5
38F
  8
0
  6
CONTINUOUS
 10
498.8908420969999
 20
171.3081513953
 30
0.0
 11
498.8908420969999
 21
166.08228995109999
 31
0.0
  0
LINE
  5
390
  8
0
  6
CONTINUOUS
 10
570.23843390730008
 20
138.04166519250001
 30
0.0
 11
569.98936710600003
 21
137.89788198860001
 31
0.0
  0
LINE
  5
391
  8
0
  6
CONTINUOUS
 10
444.86788622289998
 20
212.918363387
 30
0.0
 11
444.86788622289998
 21
213.02977576329999
 31
0.0
  0
LINE
  5
392
  8
0
  6
CONTINUOUS
 10
348.87813844300001
 20
159.65709829959999
 30
0.0
 11
347.46392728299998
 21
159.6570952582
 31
0.0
  0
LINE
  5
393
  8
0
  6
CONTINUOUS
 10
348.87813844300001
 20
159.65709829959999
 30
0.0
 11
350.36307728320003
 21
158.799861354
 31
0.0
  0
LINE
  5
394
  8
0
  6
CONTINUOUS
 10
433.09456975479998
 20
206.55973536030001
 30
0.0
 11
431.60963091460002
 21
207.41697230599999
 31
0.0
  0
LINE
  5
395
  8
0
  6
CONTINUOUS
 10
431.60963618289998
 20
208.23337903090001
 30
0.0
 11
431.60963091460002
 21
207.41697230599999
 31
0.0
  0
LINE
  5
396
  8
0
  6
CONTINUOUS
 10
431.60963618289998
 20
208.23337903090001
 30
0.0
 11
432.31674176289999
 21
208.6415823934
 31
0.0
  0
LINE
  5
397
  8
0
  6
CONTINUOUS
 10
433.73095292300002
 20
208.64158543479999
 30
0.0
 11
432.31674176289999
 21
208.6415823934
 31
0.0
  0
LINE
  5
398
  8
0
  6
CONTINUOUS
 10
433.73095292300002
 20
208.64158543479999
 30
0.0
 11
435.21589176309988
 21
207.78434848910001
 31
0.0
  0
LINE
  5
399
  8
0
  6
CONTINUOUS
 10
348.24175527480003
 20
157.5752482252
 30
0.0
 11
346.75681643460001
 21
158.43248517079999
 31
0.0
  0
LINE
  5
39A
  8
0
  6
CONTINUOUS
 10
346.75682170300001
 20
159.2488918958
 30
0.0
 11
346.75681643460001
 21
158.43248517079999
 31
0.0
  0
LINE
  5
39B
  8
0
  6
CONTINUOUS
 10
346.75682170300001
 20
159.2488918958
 30
0.0
 11
347.46392728299998
 21
159.6570952582
 31
0.0
  0
ARC
  5
39C
  8
0
  6
CONTINUOUS
 10
444.76011754669992
 20
213.0472573099
 30
0.0
 40
0.1091773420732462
 50
350.78610097329999
 51
129.2016685648
  0
LINE
  5
39D
  8
0
  6
CONTINUOUS
 10
444.69111180350001
 20
213.1318616799
 30
0.0
 11
444.56730543599991
 21
213.06038978519999
 31
0.0
  0
LINE
  5
39E
  8
0
  6
CONTINUOUS
 10
432.31674176289999
 20
208.6415823934
 30
0.0
 11
432.31674176289999
 21
208.8457180101
 31
0.0
  0
LINE
  5
39F
  8
0
  6
CONTINUOUS
 10
433.73095292300002
 20
208.84572105140001
 30
0.0
 11
433.73095292300002
 21
208.64158543479999
 31
0.0
  0
LINE
  5
3A0
  8
0
  6
CONTINUOUS
 10
432.31674176289999
 20
208.8457180101
 30
0.0
 11
433.73095292300002
 21
208.84572105140001
 31
0.0
  0
LINE
  5
3A1
  8
0
  6
CONTINUOUS
 10
431.60963618289998
 20
208.43751464760001
 30
0.0
 11
431.60963618289998
 21
208.23337903090001
 31
0.0
  0
LINE
  5
3A2
  8
0
  6
CONTINUOUS
 10
432.31674176289999
 20
208.8457180101
 30
0.0
 11
431.60963618289998
 21
208.43751464760001
 31
0.0
  0
LINE
  5
3A3
  8
0
  6
CONTINUOUS
 10
435.39269779260002
 20
207.88641615750001
 30
0.0
 11
433.73095292300002
 21
208.84572105140001
 31
0.0
  0
POLYLINE
  5
3A4
  8
0
  6
CONTINUOUS
 10
497.40591930671638
 20
166.93951883299337
 30
0.0
 66
     1
 70
     8
  0
VERTEX
  8
0
  5
85C
 10
497.406
 20
166.940
 30
0.000000
  70
    32
  0
VERTEX
  8
0
  5
85D
 10
497.408
 20
166.941
 30
0.000000
  70
    32
  0
VERTEX
  8
0
  5
85E
 10
497.410
 20
166.942
 30
0.000000
  70
    32
  0
VERTEX
  8
0
  5
85F
 10
497.412
 20
166.943
 30
0.000000
  70
    32
  0
VERTEX
  8
0
  5
860
 10
497.414
 20
166.944
 30
0.000000
  70
    32
  0
VERTEX
  8
0
  5
861
 10
497.416
 20
166.945
 30
0.000000
  70
    32
  0
VERTEX
  8
0
  5
862
 10
497.417
 20
166.946
 30
0.000000
  70
    32
  0
VERTEX
  8
0
  5
863
 10
497.419
 20
166.947
 30
0.000000
  70
    32
  0
VERTEX
  8
0
  5
864
 10
497.421
 20
166.948
 30
0.000000
  70
    32
  0
VERTEX
  8
0
  5
865
 10
497.423
 20
166.949
 30
0.000000
  70
    32
  0
VERTEX
  8
0
  5
866
 10
497.425
 20
166.950
 30
0.000000
  70
    32
  0
VERTEX
  8
0
  5
867
 10
497.427
 20
166.951
 30
0.000000
  70
    32
  0
VERTEX
  8
0
  5
868
 10
497.428
 20
166.953
 30
0.000000
  70
    32
  0
VERTEX
  8
0
  5
869
 10
497.430
 20
166.954
 30
0.000000
  70
    32
  0
VERTEX
  8
0
  5
86A
 10
497.432
 20
166.955
 30
0.000000
  70
    32
  0
VERTEX
  8
0
  5
86B
 10
497.434
 20
166.956
 30
0.000000
  70
    32
  0
VERTEX
  8
0
  5
86C
 10
497.436
 20
166.957
 30
0.000000
  70
    32
  0
VERTEX
  8
0
  5
86D
 10
497.437
 20
166.958
 30
0.000000
  70
    32
  0
VERTEX
  8
0
  5
86E
 10
497.439
 20
166.959
 30
0.000000
  70
    32
  0
VERTEX
  8
0
  5
86F
 10
497.441
 20
166.960
 30
0.000000
  70
    32
  0
VERTEX
  8
0
  5
870
 10
497.442
 20
166.961
 30
0.000000
  70
    32
  0
VERTEX
  8
0
  5
871
 10
497.444
 20
166.962
 30
0.000000
  70
    32
  0
VERTEX
  8
0
  5
872
 10
497.446
 20
166.963
 30
0.000000
  70
    32
  0
VERTEX
  8
0
  5
873
 10
497.448
 20
166.964
 30
0.000000
  70
    32
  0
VERTEX
  8
0
  5
874
 10
497.449
 20
166.964
 30
0.000000
  70
    32
  0
VERTEX
  8
0
  5
875
 10
497.451
 20
166.965
 30
0.000000
  70
    32
  0
VERTEX
  8
0
  5
876
 10
497.452
 20
166.966
 30
0.000000
  70
    32
  0
VERTEX
  8
0
  5
877
 10
497.454
 20
166.967
 30
0.000000
  70
    32
  0
VERTEX
  8
0
  5
878
 10
497.456
 20
166.968
 30
0.000000
  70
    32
  0
VERTEX
  8
0
  5
879
 10
497.457
 20
166.969
 30
0.000000
  70
    32
  0
VERTEX
  8
0
  5
87A
 10
497.459
 20
166.970
 30
0.000000
  70
    32
  0
VERTEX
  8
0
  5
87B
 10
497.460
 20
166.971
 30
0.000000
  70
    32
  0
VERTEX
  8
0
  5
87C
 10
497.462
 20
166.972
 30
0.000000
  70
    32
  0
VERTEX
  8
0
  5
87D
 10
497.463
 20
166.973
 30
0.000000
  70
    32
  0
VERTEX
  8
0
  5
87E
 10
497.465
 20
166.974
 30
0.000000
  70
    32
  0
VERTEX
  8
0
  5
87F
 10
497.466
 20
166.974
 30
0.000000
  70
    32
  0
VERTEX
  8
0
  5
880
 10
497.468
 20
166.975
 30
0.000000
  70
    32
  0
VERTEX
  8
0
  5
881
 10
497.469
 20
166.976
 30
0.000000
  70
    32
  0
VERTEX
  8
0
  5
882
 10
497.471
 20
166.977
 30
0.000000
  70
    32
  0
VERTEX
  8
0
  5
883
 10
497.472
 20
166.978
 30
0.000000
  70
    32
  0
VERTEX
  8
0
  5
884
 10
497.474
 20
166.979
 30
0.000000
  70
    32
  0
VERTEX
  8
0
  5
885
 10
497.475
 20
166.979
 30
0.000000
  70
    32
  0
VERTEX
  8
0
  5
886
 10
497.477
 20
166.980
 30
0.000000
  70
    32
  0
VERTEX
  8
0
  5
887
 10
497.478
 20
166.981
 30
0.000000
  70
    32
  0
VERTEX
  8
0
  5
888
 10
497.479
 20
166.982
 30
0.000000
  70
    32
  0
VERTEX
  8
0
  5
889
 10
497.481
 20
166.983
 30
0.000000
  70
    32
  0
VERTEX
  8
0
  5
88A
 10
497.482
 20
166.983
 30
0.000000
  70
    32
  0
VERTEX
  8
0
  5
88B
 10
497.483
 20
166.984
 30
0.000000
  70
    32
  0
VERTEX
  8
0
  5
88C
 10
497.485
 20
166.985
 30
0.000000
  70
    32
  0
VERTEX
  8
0
  5
88D
 10
497.486
 20
166.986
 30
0.000000
  70
    32
  0
VERTEX
  8
0
  5
88E
 10
497.487
 20
166.986
 30
0.000000
  70
    32
  0
VERTEX
  8
0
  5
88F
 10
497.488
 20
166.987
 30
0.000000
  70
    32
  0
VERTEX
  8
0
  5
890
 10
497.490
 20
166.988
 30
0.000000
  70
    32
  0
VERTEX
  8
0
  5
891
 10
497.491
 20
166.989
 30
0.000000
  70
    32
  0
VERTEX
  8
0
  5
892
 10
497.492
 20
166.989
 30
0.000000
  70
    32
  0
VERTEX
  8
0
  5
893
 10
497.493
 20
166.990
 30
0.000000
  70
    32
  0
VERTEX
  8
0
  5
894
 10
497.495
 20
166.991
 30
0.000000
  70
    32
  0
VERTEX
  8
0
  5
895
 10
497.496
 20
166.991
 30
0.000000
  70
    32
  0
VERTEX
  8
0
  5
896
 10
497.497
 20
166.992
 30
0.000000
  70
    32
  0
VERTEX
  8
0
  5
897
 10
497.498
 20
166.993
 30
0.000000
  70
    32
  0
VERTEX
  8
0
  5
898
 10
497.499
 20
166.993
 30
0.000000
  70
    32
  0
VERTEX
  8
0
  5
899
 10
497.500
 20
166.994
 30
0.000000
  70
    32
  0
VERTEX
  8
0
  5
89A
 10
497.501
 20
166.995
 30
0.000000
  70
    32
  0
VERTEX
  8
0
  5
89B
 10
497.502
 20
166.995
 30
0.000000
  70
    32
  0
VERTEX
  8
0
  5
89C
 10
497.503
 20
166.996
 30
0.000000
  70
    32
  0
VERTEX
  8
0
  5
89D
 10
497.505
 20
166.996
 30
0.000000
  70
    32
  0
VERTEX
  8
0
  5
89E
 10
497.506
 20
166.997
 30
0.000000
  70
    32
  0
VERTEX
  8
0
  5
89F
 10
497.507
 20
166.998
 30
0.000000
  70
    32
  0
VERTEX
  8
0
  5
8A0
 10
497.508
 20
166.998
 30
0.000000
  70
    32
  0
VERTEX
  8
0
  5
8A1
 10
497.509
 20
166.999
 30
0.000000
  70
    32
  0
VERTEX
  8
0
  5
8A2
 10
497.510
 20
166.999
 30
0.000000
  70
    32
  0
VERTEX
  8
0
  5
8A3
 10
497.510
 20
167.000
 30
0.000000
  70
    32
  0
VERTEX
  8
0
  5
8A4
 10
497.511
 20
167.000
 30
0.000000
  70
    32
  0
VERTEX
  8
0
  5
8A5
 10
497.512
 20
167.001
 30
0.000000
  70
    32
  0
VERTEX
  8
0
  5
8A6
 10
497.513
 20
167.002
 30
0.000000
  70
    32
  0
VERTEX
  8
0
  5
8A7
 10
497.514
 20
167.002
 30
0.000000
  70
    32
  0
VERTEX
  8
0
  5
8A8
 10
497.515
 20
167.003
 30
0.000000
  70
    32
  0
VERTEX
  8
0
  5
8A9
 10
497.516
 20
167.003
 30
0.000000
  70
    32
  0
VERTEX
  8
0
  5
8AA
 10
497.517
 20
167.004
 30
0.000000
  70
    32
  0
VERTEX
  8
0
  5
8AB
 10
497.518
 20
167.004
 30
0.000000
  70
    32
  0
VERTEX
  8
0
  5
8AC
 10
497.518
 20
167.004
 30
0.000000
  70
    32
  0
VERTEX
  8
0
  5
8AD
 10
497.519
 20
167.005
 30
0.000000
  70
    32
  0
VERTEX
  8
0
  5
8AE
 10
497.520
 20
167.005
 30
0.000000
  70
    32
  0
VERTEX
  8
0
  5
8AF
 10
497.521
 20
167.006
 30
0.000000
  70
    32
  0
VERTEX
  8
0
  5
8B0
 10
497.521
 20
167.006
 30
0.000000
  70
    32
  0
VERTEX
  8
0
  5
8B1
 10
497.522
 20
167.007
 30
0.000000
  70
    32
  0
VERTEX
  8
0
  5
8B2
 10
497.523
 20
167.007
 30
0.000000
  70
    32
  0
VERTEX
  8
0
  5
8B3
 10
497.524
 20
167.007
 30
0.000000
  70
    32
  0
VERTEX
  8
0
  5
8B4
 10
497.524
 20
167.008
 30
0.000000
  70
    32
  0
VERTEX
  8
0
  5
8B5
 10
497.525
 20
167.008
 30
0.000000
  70
    32
  0
VERTEX
  8
0
  5
8B6
 10
497.526
 20
167.009
 30
0.000000
  70
    32
  0
VERTEX
  8
0
  5
8B7
 10
497.526
 20
167.009
 30
0.000000
  70
    32
  0
VERTEX
  8
0
  5
8B8
 10
497.527
 20
167.009
 30
0.000000
  70
    32
  0
VERTEX
  8
0
  5
8B9
 10
497.527
 20
167.010
 30
0.000000
  70
    32
  0
VERTEX
  8
0
  5
8BA
 10
497.528
 20
167.010
 30
0.000000
  70
    32
  0
VERTEX
  8
0
  5
8BB
 10
497.529
 20
167.010
 30
0.000000
  70
    32
  0
VERTEX
  8
0
  5
8BC
 10
497.529
 20
167.011
 30
0.000000
  70
    32
  0
VERTEX
  8
0
  5
8BD
 10
497.530
 20
167.011
 30
0.000000
  70
    32
  0
VERTEX
  8
0
  5
8BE
 10
497.530
 20
167.011
 30
0.000000
  70
    32
  0
VERTEX
  8
0
  5
8BF
 10
497.531
 20
167.012
 30
0.000000
  70
    32
  0
VERTEX
  8
0
  5
8C0
 10
497.531
 20
167.012
 30
0.000000
  70
    32
  0
VERTEX
  8
0
  5
8C1
 10
497.532
 20
167.012
 30
0.000000
  70
    32
  0
VERTEX
  8
0
  5
8C2
 10
497.532
 20
167.012
 30
0.000000
  70
    32
  0
VERTEX
  8
0
  5
8C3
 10
497.532
 20
167.013
 30
0.000000
  70
    32
  0
VERTEX
  8
0
  5
8C4
 10
497.533
 20
167.013
 30
0.000000
  70
    32
  0
VERTEX
  8
0
  5
8C5
 10
497.533
 20
167.013
 30
0.000000
  70
    32
  0
VERTEX
  8
0
  5
8C6
 10
497.534
 20
167.013
 30
0.000000
  70
    32
  0
VERTEX
  8
0
  5
8C7
 10
497.534
 20
167.013
 30
0.000000
  70
    32
  0
VERTEX
  8
0
  5
8C8
 10
497.534
 20
167.014
 30
0.000000
  70
    32
  0
VERTEX
  8
0
  5
8C9
 10
497.535
 20
167.014
 30
0.000000
  70
    32
  0
VERTEX
  8
0
  5
8CA
 10
497.535
 20
167.014
 30
0.000000
  70
    32
  0
VERTEX
  8
0
  5
8CB
 10
497.535
 20
167.014
 30
0.000000
  70
    32
  0
VERTEX
  8
0
  5
8CC
 10
497.536
 20
167.014
 30
0.000000
  70
    32
  0
VERTEX
  8
0
  5
8CD
 10
497.536
 20
167.015
 30
0.000000
  70
    32
  0
VERTEX
  8
0
  5
8CE
 10
497.536
 20
167.015
 30
0.000000
  70
    32
  0
VERTEX
  8
0
  5
8CF
 10
497.536
 20
167.015
 30
0.000000
  70
    32
  0
VERTEX
  8
0
  5
8D0
 10
497.537
 20
167.015
 30
0.000000
  70
    32
  0
VERTEX
  8
0
  5
8D1
 10
497.537
 20
167.015
 30
0.000000
  70
    32
  0
VERTEX
  8
0
  5
8D2
 10
497.537
 20
167.015
 30
0.000000
  70
    32
  0
VERTEX
  8
0
  5
8D3
 10
497.537
 20
167.015
 30
0.000000
  70
    32
  0
VERTEX
  8
0
  5
8D4
 10
497.537
 20
167.015
 30
0.000000
  70
    32
  0
VERTEX
  8
0
  5
8D5
 10
497.537
 20
167.015
 30
0.000000
  70
    32
  0
VERTEX
  8
0
  5
8D6
 10
497.537
 20
167.015
 30
0.000000
  70
    32
  0
VERTEX
  8
0
  5
8D7
 10
497.538
 20
167.016
 30
0.000000
  70
    32
  0
VERTEX
  8
0
  5
8D8
 10
497.538
 20
167.016
 30
0.000000
  70
    32
  0
VERTEX
  8
0
  5
8D9
 10
497.538
 20
167.016
 30
0.000000
  70
    32
  0
VERTEX
  8
0
  5
8DA
 10
497.538
 20
167.016
 30
0.000000
  70
    32
  0
VERTEX
  8
0
  5
8DB
 10
497.538
 20
167.016
 30
0.000000
  70
    32
  0
VERTEX
  8
0
  5
8DC
 10
497.538
 20
167.016
 30
0.000000
  70
    32
  0
SEQEND
  8
0
  5
8DD
  0
ARC
  5
3A5
  8
0
  6
CONTINUOUS
 10
497.31350564589991
 20
172.0415935675999
 30
0.0
 40
0.2252681386607046
 50
5.540236887499999
 51
65.780618419299998
  0
ARC
  5
3A6
  8
0
  6
CONTINUOUS
 10
498.6666539492
 20
166.10496429509999
 30
0.0
 40
0.2253318696460934
 50
354.22475513820001
 51
54.461186337700013
  0
LINE
  5
3A7
  8
0
  6
CONTINUOUS
 10
498.8908420969999
 20
171.3081513953
 30
0.0
 11
498.71406767759999
 21
171.2061016952
 31
0.0
  0
LINE
  5
3A8
  8
0
  6
CONTINUOUS
 10
498.71406767759999
 20
171.2061016952
 30
0.0
 11
498.71406767759999
 21
166.33655970140001
 31
0.0
  0
LINE
  5
3A9
  8
0
  6
CONTINUOUS
 10
498.64335711960001
 20
171.32857597399999
 30
0.0
 11
498.82013153899987
 21
171.43062567410001
 31
0.0
  0
LINE
  5
3AA
  8
0
  6
CONTINUOUS
 10
498.64335711960001
 20
171.32857597399999
 30
0.0
 11
497.5377227939
 21
171.96684508429999
 31
0.0
  0
ARC
  5
3AB
  8
0
  6
CONTINUOUS
 10
498.56054950529989
 20
171.1991174561
 30
0.0
 40
0.1536769626442993
 50
2.6048491797999991
 51
57.395150965799992
  0
POLYLINE
  5
3AC
  8
0
  6
CONTINUOUS
 10
528.44790700040687
 20
149.0193607782445
 30
0.0
 66
     1
 70
     8
  0
VERTEX
  8
0
  5
8DE
 10
528.448
 20
149.019
 30
0.000000
  70
    32
  0
VERTEX
  8
0
  5
8DF
 10
528.446
 20
149.023
 30
0.000000
  70
    32
  0
VERTEX
  8
0
  5
8E0
 10
528.444
 20
149.026
 30
0.000000
  70
    32
  0
VERTEX
  8
0
  5
8E1
 10
528.442
 20
149.029
 30
0.000000
  70
    32
  0
VERTEX
  8
0
  5
8E2
 10
528.440
 20
149.033
 30
0.000000
  70
    32
  0
VERTEX
  8
0
  5
8E3
 10
528.438
 20
149.036
 30
0.000000
  70
    32
  0
VERTEX
  8
0
  5
8E4
 10
528.436
 20
149.040
 30
0.000000
  70
    32
  0
VERTEX
  8
0
  5
8E5
 10
528.434
 20
149.043
 30
0.000000
  70
    32
  0
VERTEX
  8
0
  5
8E6
 10
528.432
 20
149.046
 30
0.000000
  70
    32
  0
VERTEX
  8
0
  5
8E7
 10
528.430
 20
149.050
 30
0.000000
  70
    32
  0
VERTEX
  8
0
  5
8E8
 10
528.428
 20
149.053
 30
0.000000
  70
    32
  0
VERTEX
  8
0
  5
8E9
 10
528.426
 20
149.056
 30
0.000000
  70
    32
  0
VERTEX
  8
0
  5
8EA
 10
528.424
 20
149.059
 30
0.000000
  70
    32
  0
VERTEX
  8
0
  5
8EB
 10
528.422
 20
149.063
 30
0.000000
  70
    32
  0
VERTEX
  8
0
  5
8EC
 10
528.419
 20
149.066
 30
0.000000
  70
    32
  0
VERTEX
  8
0
  5
8ED
 10
528.417
 20
149.069
 30
0.000000
  70
    32
  0
VERTEX
  8
0
  5
8EE
 10
528.415
 20
149.073
 30
0.000000
  70
    32
  0
VERTEX
  8
0
  5
8EF
 10
528.413
 20
149.076
 30
0.000000
  70
    32
  0
VERTEX
  8
0
  5
8F0
 10
528.411
 20
149.079
 30
0.000000
  70
    32
  0
VERTEX
  8
0
  5
8F1
 10
528.409
 20
149.082
 30
0.000000
  70
    32
  0
VERTEX
  8
0
  5
8F2
 10
528.407
 20
149.085
 30
0.000000
  70
    32
  0
VERTEX
  8
0
  5
8F3
 10
528.404
 20
149.089
 30
0.000000
  70
    32
  0
VERTEX
  8
0
  5
8F4
 10
528.402
 20
149.092
 30
0.000000
  70
    32
  0
VERTEX
  8
0
  5
8F5
 10
528.400
 20
149.095
 30
0.000000
  70
    32
  0
VERTEX
  8
0
  5
8F6
 10
528.398
 20
149.098
 30
0.000000
  70
    32
  0
VERTEX
  8
0
  5
8F7
 10
528.396
 20
149.101
 30
0.000000
  70
    32
  0
VERTEX
  8
0
  5
8F8
 10
528.393
 20
149.105
 30
0.000000
  70
    32
  0
VERTEX
  8
0
  5
8F9
 10
528.391
 20
149.108
 30
0.000000
  70
    32
  0
VERTEX
  8
0
  5
8FA
 10
528.389
 20
149.111
 30
0.000000
  70
    32
  0
VERTEX
  8
0
  5
8FB
 10
528.387
 20
149.114
 30
0.000000
  70
    32
  0
VERTEX
  8
0
  5
8FC
 10
528.384
 20
149.117
 30
0.000000
  70
    32
  0
VERTEX
  8
0
  5
8FD
 10
528.382
 20
149.120
 30
0.000000
  70
    32
  0
VERTEX
  8
0
  5
8FE
 10
528.380
 20
149.123
 30
0.000000
  70
    32
  0
VERTEX
  8
0
  5
8FF
 10
528.377
 20
149.126
 30
0.000000
  70
    32
  0
VERTEX
  8
0
  5
900
 10
528.375
 20
149.130
 30
0.000000
  70
    32
  0
VERTEX
  8
0
  5
901
 10
528.373
 20
149.133
 30
0.000000
  70
    32
  0
VERTEX
  8
0
  5
902
 10
528.370
 20
149.136
 30
0.000000
  70
    32
  0
VERTEX
  8
0
  5
903
 10
528.368
 20
149.139
 30
0.000000
  70
    32
  0
VERTEX
  8
0
  5
904
 10
528.366
 20
149.142
 30
0.000000
  70
    32
  0
VERTEX
  8
0
  5
905
 10
528.363
 20
149.145
 30
0.000000
  70
    32
  0
VERTEX
  8
0
  5
906
 10
528.361
 20
149.148
 30
0.000000
  70
    32
  0
VERTEX
  8
0
  5
907
 10
528.359
 20
149.151
 30
0.000000
  70
    32
  0
VERTEX
  8
0
  5
908
 10
528.356
 20
149.154
 30
0.000000
  70
    32
  0
VERTEX
  8
0
  5
909
 10
528.354
 20
149.157
 30
0.000000
  70
    32
  0
VERTEX
  8
0
  5
90A
 10
528.352
 20
149.160
 30
0.000000
  70
    32
  0
VERTEX
  8
0
  5
90B
 10
528.349
 20
149.163
 30
0.000000
  70
    32
  0
VERTEX
  8
0
  5
90C
 10
528.347
 20
149.166
 30
0.000000
  70
    32
  0
VERTEX
  8
0
  5
90D
 10
528.344
 20
149.169
 30
0.000000
  70
    32
  0
VERTEX
  8
0
  5
90E
 10
528.342
 20
149.171
 30
0.000000
  70
    32
  0
VERTEX
  8
0
  5
90F
 10
528.339
 20
149.174
 30
0.000000
  70
    32
  0
VERTEX
  8
0
  5
910
 10
528.337
 20
149.177
 30
0.000000
  70
    32
  0
VERTEX
  8
0
  5
911
 10
528.334
 20
149.180
 30
0.000000
  70
    32
  0
VERTEX
  8
0
  5
912
 10
528.332
 20
149.183
 30
0.000000
  70
    32
  0
VERTEX
  8
0
  5
913
 10
528.330
 20
149.186
 30
0.000000
  70
    32
  0
VERTEX
  8
0
  5
914
 10
528.327
 20
149.189
 30
0.000000
  70
    32
  0
VERTEX
  8
0
  5
915
 10
528.325
 20
149.191
 30
0.000000
  70
    32
  0
VERTEX
  8
0
  5
916
 10
528.322
 20
149.194
 30
0.000000
  70
    32
  0
VERTEX
  8
0
  5
917
 10
528.320
 20
149.197
 30
0.000000
  70
    32
  0
VERTEX
  8
0
  5
918
 10
528.317
 20
149.200
 30
0.000000
  70
    32
  0
VERTEX
  8
0
  5
919
 10
528.315
 20
149.203
 30
0.000000
  70
    32
  0
VERTEX
  8
0
  5
91A
 10
528.312
 20
149.205
 30
0.000000
  70
    32
  0
VERTEX
  8
0
  5
91B
 10
528.310
 20
149.208
 30
0.000000
  70
    32
  0
VERTEX
  8
0
  5
91C
 10
528.307
 20
149.211
 30
0.000000
  70
    32
  0
VERTEX
  8
0
  5
91D
 10
528.304
 20
149.214
 30
0.000000
  70
    32
  0
VERTEX
  8
0
  5
91E
 10
528.302
 20
149.216
 30
0.000000
  70
    32
  0
VERTEX
  8
0
  5
91F
 10
528.299
 20
149.219
 30
0.000000
  70
    32
  0
VERTEX
  8
0
  5
920
 10
528.297
 20
149.222
 30
0.000000
  70
    32
  0
VERTEX
  8
0
  5
921
 10
528.294
 20
149.224
 30
0.000000
  70
    32
  0
VERTEX
  8
0
  5
922
 10
528.292
 20
149.227
 30
0.000000
  70
    32
  0
VERTEX
  8
0
  5
923
 10
528.289
 20
149.230
 30
0.000000
  70
    32
  0
VERTEX
  8
0
  5
924
 10
528.286
 20
149.232
 30
0.000000
  70
    32
  0
VERTEX
  8
0
  5
925
 10
528.284
 20
149.235
 30
0.000000
  70
    32
  0
VERTEX
  8
0
  5
926
 10
528.281
 20
149.237
 30
0.000000
  70
    32
  0
VERTEX
  8
0
  5
927
 10
528.279
 20
149.240
 30
0.000000
  70
    32
  0
VERTEX
  8
0
  5
928
 10
528.276
 20
149.243
 30
0.000000
  70
    32
  0
VERTEX
  8
0
  5
929
 10
528.273
 20
149.245
 30
0.000000
  70
    32
  0
VERTEX
  8
0
  5
92A
 10
528.271
 20
149.248
 30
0.000000
  70
    32
  0
VERTEX
  8
0
  5
92B
 10
528.268
 20
149.250
 30
0.000000
  70
    32
  0
VERTEX
  8
0
  5
92C
 10
528.266
 20
149.253
 30
0.000000
  70
    32
  0
VERTEX
  8
0
  5
92D
 10
528.263
 20
149.255
 30
0.000000
  70
    32
  0
VERTEX
  8
0
  5
92E
 10
528.260
 20
149.257
 30
0.000000
  70
    32
  0
VERTEX
  8
0
  5
92F
 10
528.258
 20
149.260
 30
0.000000
  70
    32
  0
VERTEX
  8
0
  5
930
 10
528.255
 20
149.262
 30
0.000000
  70
    32
  0
VERTEX
  8
0
  5
931
 10
528.252
 20
149.265
 30
0.000000
  70
    32
  0
VERTEX
  8
0
  5
932
 10
528.250
 20
149.267
 30
0.000000
  70
    32
  0
VERTEX
  8
0
  5
933
 10
528.247
 20
149.270
 30
0.000000
  70
    32
  0
VERTEX
  8
0
  5
934
 10
528.244
 20
149.272
 30
0.000000
  70
    32
  0
VERTEX
  8
0
  5
935
 10
528.242
 20
149.274
 30
0.000000
  70
    32
  0
VERTEX
  8
0
  5
936
 10
528.239
 20
149.277
 30
0.000000
  70
    32
  0
VERTEX
  8
0
  5
937
 10
528.236
 20
149.279
 30
0.000000
  70
    32
  0
VERTEX
  8
0
  5
938
 10
528.234
 20
149.281
 30
0.000000
  70
    32
  0
VERTEX
  8
0
  5
939
 10
528.231
 20
149.283
 30
0.000000
  70
    32
  0
VERTEX
  8
0
  5
93A
 10
528.228
 20
149.286
 30
0.000000
  70
    32
  0
VERTEX
  8
0
  5
93B
 10
528.226
 20
149.288
 30
0.000000
  70
    32
  0
VERTEX
  8
0
  5
93C
 10
528.223
 20
149.290
 30
0.000000
  70
    32
  0
VERTEX
  8
0
  5
93D
 10
528.220
 20
149.292
 30
0.000000
  70
    32
  0
VERTEX
  8
0
  5
93E
 10
528.217
 20
149.295
 30
0.000000
  70
    32
  0
VERTEX
  8
0
  5
93F
 10
528.215
 20
149.297
 30
0.000000
  70
    32
  0
VERTEX
  8
0
  5
940
 10
528.212
 20
149.299
 30
0.000000
  70
    32
  0
VERTEX
  8
0
  5
941
 10
528.209
 20
149.301
 30
0.000000
  70
    32
  0
VERTEX
  8
0
  5
942
 10
528.207
 20
149.303
 30
0.000000
  70
    32
  0
VERTEX
  8
0
  5
943
 10
528.204
 20
149.305
 30
0.000000
  70
    32
  0
VERTEX
  8
0
  5
944
 10
528.201
 20
149.307
 30
0.000000
  70
    32
  0
VERTEX
  8
0
  5
945
 10
528.198
 20
149.309
 30
0.000000
  70
    32
  0
VERTEX
  8
0
  5
946
 10
528.196
 20
149.312
 30
0.000000
  70
    32
  0
VERTEX
  8
0
  5
947
 10
528.193
 20
149.314
 30
0.000000
  70
    32
  0
VERTEX
  8
0
  5
948
 10
528.190
 20
149.316
 30
0.000000
  70
    32
  0
VERTEX
  8
0
  5
949
 10
528.188
 20
149.318
 30
0.000000
  70
    32
  0
VERTEX
  8
0
  5
94A
 10
528.185
 20
149.320
 30
0.000000
  70
    32
  0
VERTEX
  8
0
  5
94B
 10
528.182
 20
149.322
 30
0.000000
  70
    32
  0
VERTEX
  8
0
  5
94C
 10
528.179
 20
149.323
 30
0.000000
  70
    32
  0
VERTEX
  8
0
  5
94D
 10
528.177
 20
149.325
 30
0.000000
  70
    32
  0
VERTEX
  8
0
  5
94E
 10
528.174
 20
149.327
 30
0.000000
  70
    32
  0
VERTEX
  8
0
  5
94F
 10
528.171
 20
149.329
 30
0.000000
  70
    32
  0
VERTEX
  8
0
  5
950
 10
528.168
 20
149.331
 30
0.000000
  70
    32
  0
VERTEX
  8
0
  5
951
 10
528.166
 20
149.333
 30
0.000000
  70
    32
  0
VERTEX
  8
0
  5
952
 10
528.163
 20
149.335
 30
0.000000
  70
    32
  0
VERTEX
  8
0
  5
953
 10
528.160
 20
149.337
 30
0.000000
  70
    32
  0
VERTEX
  8
0
  5
954
 10
528.157
 20
149.338
 30
0.000000
  70
    32
  0
VERTEX
  8
0
  5
955
 10
528.155
 20
149.340
 30
0.000000
  70
    32
  0
VERTEX
  8
0
  5
956
 10
528.152
 20
149.342
 30
0.000000
  70
    32
  0
VERTEX
  8
0
  5
957
 10
528.149
 20
149.344
 30
0.000000
  70
    32
  0
VERTEX
  8
0
  5
958
 10
528.146
 20
149.345
 30
0.000000
  70
    32
  0
VERTEX
  8
0
  5
959
 10
528.143
 20
149.347
 30
0.000000
  70
    32
  0
VERTEX
  8
0
  5
95A
 10
528.141
 20
149.349
 30
0.000000
  70
    32
  0
VERTEX
  8
0
  5
95B
 10
528.138
 20
149.350
 30
0.000000
  70
    32
  0
VERTEX
  8
0
  5
95C
 10
528.135
 20
149.352
 30
0.000000
  70
    32
  0
VERTEX
  8
0
  5
95D
 10
528.132
 20
149.354
 30
0.000000
  70
    32
  0
VERTEX
  8
0
  5
95E
 10
528.130
 20
149.355
 30
0.000000
  70
    32
  0
SEQEND
  8
0
  5
95F
  0
ARC
  5
3AD
  8
0
  6
CONTINUOUS
 10
528.12892048519996
 20
153.70734866710001
 30
0.0
 40
0.6968251228299809
 50
62.756642783300002
 51
101.82810885649999
  0
ARC
  5
3AE
  8
0
  6
CONTINUOUS
 10
528.08771458730007
 20
153.83046508570001
 30
0.0
 40
0.5680772002157316
 50
100.3054579691
 51
119.09170990769999
  0
LINE
  5
3AF
  8
0
  6
CONTINUOUS
 10
527.77615443089985
 20
154.30646458460001
 30
0.0
 11
527.81151036839992
 21
154.32687513280001
 31
0.0
  0
LINE
  5
3B0
  8
0
  6
CONTINUOUS
 10
527.9860878833
 20
154.38937806499999
 30
0.0
 11
526.96298367240001
 21
154.98000355420001
 31
0.0
  0
ARC
  5
3B1
  8
0
  6
CONTINUOUS
 10
569.11769996980001
 20
115.7437839279
 30
0.0
 40
1.1379079979464051
 50
359.76273791670002
 51
71.552310023000004
  0
LINE
  5
3B2
  8
0
  6
CONTINUOUS
 10
347.46392728299998
 20
159.6570952582
 30
0.0
 11
347.46392728299998
 21
159.8612308749
 31
0.0
  0
LINE
  5
3B3
  8
0
  6
CONTINUOUS
 10
348.87813844300001
 20
159.86123391629999
 30
0.0
 11
348.87813844300001
 21
159.65709829959999
 31
0.0
  0
LINE
  5
3B4
  8
0
  6
CONTINUOUS
 10
347.46392728299998
 20
159.8612308749
 30
0.0
 11
348.87813844300001
 21
159.86123391629999
 31
0.0
  0
LINE
  5
3B5
  8
0
  6
CONTINUOUS
 10
346.75682170300001
 20
159.4530275123999
 30
0.0
 11
346.75682170300001
 21
159.2488918958
 31
0.0
  0
LINE
  5
3B6
  8
0
  6
CONTINUOUS
 10
347.46392728299998
 20
159.8612308749
 30
0.0
 11
346.75682170300001
 21
159.4530275123999
 31
0.0
  0
LINE
  5
3B7
  8
0
  6
CONTINUOUS
 10
350.53988331269989
 20
158.9019290224
 30
0.0
 11
348.87813844300001
 21
159.86123391629999
 31
0.0
  0
ARC
  5
3B8
  8
0
  6
CONTINUOUS
 10
569.11770127760008
 20
138.1986566944
 30
0.0
 40
1.1379066909240709
 50
359.76272852480002
 51
71.552357486299996
  0
POLYLINE
  5
3B9
  8
0
  6
CONTINUOUS
 66
     1
 10
0.0
 20
0.0
 30
0.0
 70
   128
  0
VERTEX
  5
55F
  8
0
  6
CONTINUOUS
 10
570.16350734740001
 20
137.8838426108
 30
0.0
  0
VERTEX
  5
560
  8
0
  6
CONTINUOUS
 10
570.21119123810001
 20
137.9617865466
 30
0.0
  0
VERTEX
  5
561
  8
0
  6
CONTINUOUS
 10
570.25559821139996
 20
138.19394444459999
 30
0.0
  0
SEQEND
  5
562
  8
0
  6
CONTINUOUS
  0
LINE
  5
3BA
  8
0
  6
CONTINUOUS
 10
340.57207461450002
 20
108.0084663884
 30
0.0
 11
334.23757187069998
 21
104.49733925709999
 31
0.0
  0
POLYLINE
  5
3BB
  8
0
  6
CONTINUOUS
 10
333.99272536410001
 20
104.44046558122855
 30
0.0
 66
     1
 70
     8
  0
VERTEX
  8
0
  5
960
 10
333.993
 20
104.440
 30
0.000000
  70
    32
  0
VERTEX
  8
0
  5
961
 10
333.995
 20
104.440
 30
0.000000
  70
    32
  0
VERTEX
  8
0
  5
962
 10
333.997
 20
104.440
 30
0.000000
  70
    32
  0
VERTEX
  8
0
  5
963
 10
333.999
 20
104.440
 30
0.000000
  70
    32
  0
VERTEX
  8
0
  5
964
 10
334.001
 20
104.441
 30
0.000000
  70
    32
  0
VERTEX
  8
0
  5
965
 10
334.003
 20
104.441
 30
0.000000
  70
    32
  0
VERTEX
  8
0
  5
966
 10
334.005
 20
104.441
 30
0.000000
  70
    32
  0
VERTEX
  8
0
  5
967
 10
334.008
 20
104.441
 30
0.000000
  70
    32
  0
VERTEX
  8
0
  5
968
 10
334.010
 20
104.441
 30
0.000000
  70
    32
  0
VERTEX
  8
0
  5
969
 10
334.012
 20
104.441
 30
0.000000
  70
    32
  0
VERTEX
  8
0
  5
96A
 10
334.014
 20
104.441
 30
0.000000
  70
    32
  0
VERTEX
  8
0
  5
96B
 10
334.016
 20
104.441
 30
0.000000
  70
    32
  0
VERTEX
  8
0
  5
96C
 10
334.018
 20
104.441
 30
0.000000
  70
    32
  0
VERTEX
  8
0
  5
96D
 10
334.020
 20
104.441
 30
0.000000
  70
    32
  0
VERTEX
  8
0
  5
96E
 10
334.022
 20
104.441
 30
0.000000
  70
    32
  0
VERTEX
  8
0
  5
96F
 10
334.024
 20
104.441
 30
0.000000
  70
    32
  0
VERTEX
  8
0
  5
970
 10
334.026
 20
104.441
 30
0.000000
  70
    32
  0
VERTEX
  8
0
  5
971
 10
334.029
 20
104.442
 30
0.000000
  70
    32
  0
VERTEX
  8
0
  5
972
 10
334.031
 20
104.442
 30
0.000000
  70
    32
  0
VERTEX
  8
0
  5
973
 10
334.033
 20
104.442
 30
0.000000
  70
    32
  0
VERTEX
  8
0
  5
974
 10
334.035
 20
104.442
 30
0.000000
  70
    32
  0
VERTEX
  8
0
  5
975
 10
334.037
 20
104.442
 30
0.000000
  70
    32
  0
VERTEX
  8
0
  5
976
 10
334.039
 20
104.442
 30
0.000000
  70
    32
  0
VERTEX
  8
0
  5
977
 10
334.041
 20
104.442
 30
0.000000
  70
    32
  0
VERTEX
  8
0
  5
978
 10
334.043
 20
104.443
 30
0.000000
  70
    32
  0
VERTEX
  8
0
  5
979
 10
334.045
 20
104.443
 30
0.000000
  70
    32
  0
VERTEX
  8
0
  5
97A
 10
334.047
 20
104.443
 30
0.000000
  70
    32
  0
VERTEX
  8
0
  5
97B
 10
334.050
 20
104.443
 30
0.000000
  70
    32
  0
VERTEX
  8
0
  5
97C
 10
334.052
 20
104.443
 30
0.000000
  70
    32
  0
VERTEX
  8
0
  5
97D
 10
334.054
 20
104.444
 30
0.000000
  70
    32
  0
VERTEX
  8
0
  5
97E
 10
334.056
 20
104.444
 30
0.000000
  70
    32
  0
VERTEX
  8
0
  5
97F
 10
334.058
 20
104.444
 30
0.000000
  70
    32
  0
VERTEX
  8
0
  5
980
 10
334.060
 20
104.444
 30
0.000000
  70
    32
  0
VERTEX
  8
0
  5
981
 10
334.062
 20
104.444
 30
0.000000
  70
    32
  0
VERTEX
  8
0
  5
982
 10
334.064
 20
104.445
 30
0.000000
  70
    32
  0
VERTEX
  8
0
  5
983
 10
334.066
 20
104.445
 30
0.000000
  70
    32
  0
VERTEX
  8
0
  5
984
 10
334.068
 20
104.445
 30
0.000000
  70
    32
  0
VERTEX
  8
0
  5
985
 10
334.070
 20
104.445
 30
0.000000
  70
    32
  0
VERTEX
  8
0
  5
986
 10
334.072
 20
104.446
 30
0.000000
  70
    32
  0
VERTEX
  8
0
  5
987
 10
334.074
 20
104.446
 30
0.000000
  70
    32
  0
VERTEX
  8
0
  5
988
 10
334.076
 20
104.446
 30
0.000000
  70
    32
  0
VERTEX
  8
0
  5
989
 10
334.078
 20
104.447
 30
0.000000
  70
    32
  0
VERTEX
  8
0
  5
98A
 10
334.081
 20
104.447
 30
0.000000
  70
    32
  0
VERTEX
  8
0
  5
98B
 10
334.083
 20
104.447
 30
0.000000
  70
    32
  0
VERTEX
  8
0
  5
98C
 10
334.085
 20
104.447
 30
0.000000
  70
    32
  0
VERTEX
  8
0
  5
98D
 10
334.087
 20
104.448
 30
0.000000
  70
    32
  0
VERTEX
  8
0
  5
98E
 10
334.089
 20
104.448
 30
0.000000
  70
    32
  0
VERTEX
  8
0
  5
98F
 10
334.091
 20
104.448
 30
0.000000
  70
    32
  0
VERTEX
  8
0
  5
990
 10
334.093
 20
104.449
 30
0.000000
  70
    32
  0
VERTEX
  8
0
  5
991
 10
334.095
 20
104.449
 30
0.000000
  70
    32
  0
VERTEX
  8
0
  5
992
 10
334.097
 20
104.450
 30
0.000000
  70
    32
  0
VERTEX
  8
0
  5
993
 10
334.099
 20
104.450
 30
0.000000
  70
    32
  0
VERTEX
  8
0
  5
994
 10
334.101
 20
104.450
 30
0.000000
  70
    32
  0
VERTEX
  8
0
  5
995
 10
334.103
 20
104.451
 30
0.000000
  70
    32
  0
VERTEX
  8
0
  5
996
 10
334.105
 20
104.451
 30
0.000000
  70
    32
  0
VERTEX
  8
0
  5
997
 10
334.107
 20
104.451
 30
0.000000
  70
    32
  0
VERTEX
  8
0
  5
998
 10
334.109
 20
104.452
 30
0.000000
  70
    32
  0
VERTEX
  8
0
  5
999
 10
334.111
 20
104.452
 30
0.000000
  70
    32
  0
VERTEX
  8
0
  5
99A
 10
334.113
 20
104.453
 30
0.000000
  70
    32
  0
VERTEX
  8
0
  5
99B
 10
334.115
 20
104.453
 30
0.000000
  70
    32
  0
VERTEX
  8
0
  5
99C
 10
334.117
 20
104.453
 30
0.000000
  70
    32
  0
VERTEX
  8
0
  5
99D
 10
334.119
 20
104.454
 30
0.000000
  70
    32
  0
VERTEX
  8
0
  5
99E
 10
334.121
 20
104.454
 30
0.000000
  70
    32
  0
VERTEX
  8
0
  5
99F
 10
334.123
 20
104.455
 30
0.000000
  70
    32
  0
VERTEX
  8
0
  5
9A0
 10
334.125
 20
104.455
 30
0.000000
  70
    32
  0
VERTEX
  8
0
  5
9A1
 10
334.127
 20
104.456
 30
0.000000
  70
    32
  0
VERTEX
  8
0
  5
9A2
 10
334.129
 20
104.456
 30
0.000000
  70
    32
  0
VERTEX
  8
0
  5
9A3
 10
334.131
 20
104.457
 30
0.000000
  70
    32
  0
VERTEX
  8
0
  5
9A4
 10
334.132
 20
104.457
 30
0.000000
  70
    32
  0
VERTEX
  8
0
  5
9A5
 10
334.134
 20
104.458
 30
0.000000
  70
    32
  0
VERTEX
  8
0
  5
9A6
 10
334.136
 20
104.458
 30
0.000000
  70
    32
  0
VERTEX
  8
0
  5
9A7
 10
334.138
 20
104.459
 30
0.000000
  70
    32
  0
VERTEX
  8
0
  5
9A8
 10
334.140
 20
104.459
 30
0.000000
  70
    32
  0
VERTEX
  8
0
  5
9A9
 10
334.142
 20
104.460
 30
0.000000
  70
    32
  0
VERTEX
  8
0
  5
9AA
 10
334.144
 20
104.460
 30
0.000000
  70
    32
  0
VERTEX
  8
0
  5
9AB
 10
334.146
 20
104.461
 30
0.000000
  70
    32
  0
VERTEX
  8
0
  5
9AC
 10
334.148
 20
104.461
 30
0.000000
  70
    32
  0
VERTEX
  8
0
  5
9AD
 10
334.150
 20
104.462
 30
0.000000
  70
    32
  0
VERTEX
  8
0
  5
9AE
 10
334.152
 20
104.462
 30
0.000000
  70
    32
  0
VERTEX
  8
0
  5
9AF
 10
334.154
 20
104.463
 30
0.000000
  70
    32
  0
VERTEX
  8
0
  5
9B0
 10
334.155
 20
104.463
 30
0.000000
  70
    32
  0
VERTEX
  8
0
  5
9B1
 10
334.157
 20
104.464
 30
0.000000
  70
    32
  0
VERTEX
  8
0
  5
9B2
 10
334.159
 20
104.464
 30
0.000000
  70
    32
  0
VERTEX
  8
0
  5
9B3
 10
334.161
 20
104.465
 30
0.000000
  70
    32
  0
VERTEX
  8
0
  5
9B4
 10
334.163
 20
104.466
 30
0.000000
  70
    32
  0
VERTEX
  8
0
  5
9B5
 10
334.165
 20
104.466
 30
0.000000
  70
    32
  0
VERTEX
  8
0
  5
9B6
 10
334.167
 20
104.467
 30
0.000000
  70
    32
  0
VERTEX
  8
0
  5
9B7
 10
334.168
 20
104.467
 30
0.000000
  70
    32
  0
VERTEX
  8
0
  5
9B8
 10
334.170
 20
104.468
 30
0.000000
  70
    32
  0
VERTEX
  8
0
  5
9B9
 10
334.172
 20
104.469
 30
0.000000
  70
    32
  0
VERTEX
  8
0
  5
9BA
 10
334.174
 20
104.469
 30
0.000000
  70
    32
  0
VERTEX
  8
0
  5
9BB
 10
334.176
 20
104.470
 30
0.000000
  70
    32
  0
VERTEX
  8
0
  5
9BC
 10
334.177
 20
104.471
 30
0.000000
  70
    32
  0
VERTEX
  8
0
  5
9BD
 10
334.179
 20
104.471
 30
0.000000
  70
    32
  0
VERTEX
  8
0
  5
9BE
 10
334.181
 20
104.472
 30
0.000000
  70
    32
  0
VERTEX
  8
0
  5
9BF
 10
334.183
 20
104.472
 30
0.000000
  70
    32
  0
VERTEX
  8
0
  5
9C0
 10
334.185
 20
104.473
 30
0.000000
  70
    32
  0
VERTEX
  8
0
  5
9C1
 10
334.186
 20
104.474
 30
0.000000
  70
    32
  0
VERTEX
  8
0
  5
9C2
 10
334.188
 20
104.474
 30
0.000000
  70
    32
  0
VERTEX
  8
0
  5
9C3
 10
334.190
 20
104.475
 30
0.000000
  70
    32
  0
VERTEX
  8
0
  5
9C4
 10
334.192
 20
104.476
 30
0.000000
  70
    32
  0
VERTEX
  8
0
  5
9C5
 10
334.193
 20
104.477
 30
0.000000
  70
    32
  0
VERTEX
  8
0
  5
9C6
 10
334.195
 20
104.477
 30
0.000000
  70
    32
  0
VERTEX
  8
0
  5
9C7
 10
334.197
 20
104.478
 30
0.000000
  70
    32
  0
VERTEX
  8
0
  5
9C8
 10
334.199
 20
104.479
 30
0.000000
  70
    32
  0
VERTEX
  8
0
  5
9C9
 10
334.200
 20
104.479
 30
0.000000
  70
    32
  0
VERTEX
  8
0
  5
9CA
 10
334.202
 20
104.480
 30
0.000000
  70
    32
  0
VERTEX
  8
0
  5
9CB
 10
334.204
 20
104.481
 30
0.000000
  70
    32
  0
VERTEX
  8
0
  5
9CC
 10
334.205
 20
104.482
 30
0.000000
  70
    32
  0
VERTEX
  8
0
  5
9CD
 10
334.207
 20
104.482
 30
0.000000
  70
    32
  0
VERTEX
  8
0
  5
9CE
 10
334.209
 20
104.483
 30
0.000000
  70
    32
  0
VERTEX
  8
0
  5
9CF
 10
334.210
 20
104.484
 30
0.000000
  70
    32
  0
VERTEX
  8
0
  5
9D0
 10
334.212
 20
104.485
 30
0.000000
  70
    32
  0
VERTEX
  8
0
  5
9D1
 10
334.214
 20
104.485
 30
0.000000
  70
    32
  0
VERTEX
  8
0
  5
9D2
 10
334.215
 20
104.486
 30
0.000000
  70
    32
  0
VERTEX
  8
0
  5
9D3
 10
334.217
 20
104.487
 30
0.000000
  70
    32
  0
VERTEX
  8
0
  5
9D4
 10
334.219
 20
104.488
 30
0.000000
  70
    32
  0
VERTEX
  8
0
  5
9D5
 10
334.220
 20
104.488
 30
0.000000
  70
    32
  0
VERTEX
  8
0
  5
9D6
 10
334.222
 20
104.489
 30
0.000000
  70
    32
  0
VERTEX
  8
0
  5
9D7
 10
334.224
 20
104.490
 30
0.000000
  70
    32
  0
VERTEX
  8
0
  5
9D8
 10
334.225
 20
104.491
 30
0.000000
  70
    32
  0
VERTEX
  8
0
  5
9D9
 10
334.227
 20
104.492
 30
0.000000
  70
    32
  0
VERTEX
  8
0
  5
9DA
 10
334.228
 20
104.492
 30
0.000000
  70
    32
  0
VERTEX
  8
0
  5
9DB
 10
334.230
 20
104.493
 30
0.000000
  70
    32
  0
VERTEX
  8
0
  5
9DC
 10
334.231
 20
104.494
 30
0.000000
  70
    32
  0
VERTEX
  8
0
  5
9DD
 10
334.233
 20
104.495
 30
0.000000
  70
    32
  0
VERTEX
  8
0
  5
9DE
 10
334.235
 20
104.496
 30
0.000000
  70
    32
  0
VERTEX
  8
0
  5
9DF
 10
334.236
 20
104.496
 30
0.000000
  70
    32
  0
VERTEX
  8
0
  5
9E0
 10
334.238
 20
104.497
 30
0.000000
  70
    32
  0
SEQEND
  8
0
  5
9E1
  0
LINE
  5
3BC
  8
0
  6
CONTINUOUS
 10
322.11414680040002
 20
104.44046575839999
 30
0.0
 11
333.99273029099999
 21
104.44046575839999
 31
0.0
  0
POLYLINE
  5
3BD
  8
0
  6
CONTINUOUS
 10
321.76059485960673
 20
104.64460078419999
 30
0.0
 66
     1
 70
     8
  0
VERTEX
  8
0
  5
9E2
 10
321.761
 20
104.645
 30
0.000000
  70
    32
  0
VERTEX
  8
0
  5
9E3
 10
321.761
 20
104.642
 30
0.000000
  70
    32
  0
VERTEX
  8
0
  5
9E4
 10
321.761
 20
104.640
 30
0.000000
  70
    32
  0
VERTEX
  8
0
  5
9E5
 10
321.761
 20
104.637
 30
0.000000
  70
    32
  0
VERTEX
  8
0
  5
9E6
 10
321.761
 20
104.635
 30
0.000000
  70
    32
  0
VERTEX
  8
0
  5
9E7
 10
321.761
 20
104.632
 30
0.000000
  70
    32
  0
VERTEX
  8
0
  5
9E8
 10
321.762
 20
104.630
 30
0.000000
  70
    32
  0
VERTEX
  8
0
  5
9E9
 10
321.762
 20
104.627
 30
0.000000
  70
    32
  0
VERTEX
  8
0
  5
9EA
 10
321.762
 20
104.625
 30
0.000000
  70
    32
  0
VERTEX
  8
0
  5
9EB
 10
321.763
 20
104.622
 30
0.000000
  70
    32
  0
VERTEX
  8
0
  5
9EC
 10
321.763
 20
104.620
 30
0.000000
  70
    32
  0
VERTEX
  8
0
  5
9ED
 10
321.764
 20
104.617
 30
0.000000
  70
    32
  0
VERTEX
  8
0
  5
9EE
 10
321.764
 20
104.615
 30
0.000000
  70
    32
  0
VERTEX
  8
0
  5
9EF
 10
321.765
 20
104.612
 30
0.000000
  70
    32
  0
VERTEX
  8
0
  5
9F0
 10
321.766
 20
104.610
 30
0.000000
  70
    32
  0
VERTEX
  8
0
  5
9F1
 10
321.767
 20
104.607
 30
0.000000
  70
    32
  0
VERTEX
  8
0
  5
9F2
 10
321.767
 20
104.605
 30
0.000000
  70
    32
  0
VERTEX
  8
0
  5
9F3
 10
321.768
 20
104.602
 30
0.000000
  70
    32
  0
VERTEX
  8
0
  5
9F4
 10
321.769
 20
104.600
 30
0.000000
  70
    32
  0
VERTEX
  8
0
  5
9F5
 10
321.770
 20
104.597
 30
0.000000
  70
    32
  0
VERTEX
  8
0
  5
9F6
 10
321.771
 20
104.595
 30
0.000000
  70
    32
  0
VERTEX
  8
0
  5
9F7
 10
321.772
 20
104.593
 30
0.000000
  70
    32
  0
VERTEX
  8
0
  5
9F8
 10
321.773
 20
104.590
 30
0.000000
  70
    32
  0
VERTEX
  8
0
  5
9F9
 10
321.775
 20
104.588
 30
0.000000
  70
    32
  0
VERTEX
  8
0
  5
9FA
 10
321.776
 20
104.585
 30
0.000000
  70
    32
  0
VERTEX
  8
0
  5
9FB
 10
321.777
 20
104.583
 30
0.000000
  70
    32
  0
VERTEX
  8
0
  5
9FC
 10
321.778
 20
104.581
 30
0.000000
  70
    32
  0
VERTEX
  8
0
  5
9FD
 10
321.780
 20
104.578
 30
0.000000
  70
    32
  0
VERTEX
  8
0
  5
9FE
 10
321.781
 20
104.576
 30
0.000000
  70
    32
  0
VERTEX
  8
0
  5
9FF
 10
321.783
 20
104.573
 30
0.000000
  70
    32
  0
VERTEX
  8
0
  5
A00
 10
321.784
 20
104.571
 30
0.000000
  70
    32
  0
VERTEX
  8
0
  5
A01
 10
321.786
 20
104.569
 30
0.000000
  70
    32
  0
VERTEX
  8
0
  5
A02
 10
321.788
 20
104.566
 30
0.000000
  70
    32
  0
VERTEX
  8
0
  5
A03
 10
321.789
 20
104.564
 30
0.000000
  70
    32
  0
VERTEX
  8
0
  5
A04
 10
321.791
 20
104.562
 30
0.000000
  70
    32
  0
VERTEX
  8
0
  5
A05
 10
321.793
 20
104.560
 30
0.000000
  70
    32
  0
VERTEX
  8
0
  5
A06
 10
321.795
 20
104.557
 30
0.000000
  70
    32
  0
VERTEX
  8
0
  5
A07
 10
321.796
 20
104.555
 30
0.000000
  70
    32
  0
VERTEX
  8
0
  5
A08
 10
321.798
 20
104.553
 30
0.000000
  70
    32
  0
VERTEX
  8
0
  5
A09
 10
321.800
 20
104.551
 30
0.000000
  70
    32
  0
VERTEX
  8
0
  5
A0A
 10
321.802
 20
104.548
 30
0.000000
  70
    32
  0
VERTEX
  8
0
  5
A0B
 10
321.804
 20
104.546
 30
0.000000
  70
    32
  0
VERTEX
  8
0
  5
A0C
 10
321.807
 20
104.544
 30
0.000000
  70
    32
  0
VERTEX
  8
0
  5
A0D
 10
321.809
 20
104.542
 30
0.000000
  70
    32
  0
VERTEX
  8
0
  5
A0E
 10
321.811
 20
104.540
 30
0.000000
  70
    32
  0
VERTEX
  8
0
  5
A0F
 10
321.813
 20
104.538
 30
0.000000
  70
    32
  0
VERTEX
  8
0
  5
A10
 10
321.815
 20
104.535
 30
0.000000
  70
    32
  0
VERTEX
  8
0
  5
A11
 10
321.818
 20
104.533
 30
0.000000
  70
    32
  0
VERTEX
  8
0
  5
A12
 10
321.820
 20
104.531
 30
0.000000
  70
    32
  0
VERTEX
  8
0
  5
A13
 10
321.823
 20
104.529
 30
0.000000
  70
    32
  0
VERTEX
  8
0
  5
A14
 10
321.825
 20
104.527
 30
0.000000
  70
    32
  0
VERTEX
  8
0
  5
A15
 10
321.828
 20
104.525
 30
0.000000
  70
    32
  0
VERTEX
  8
0
  5
A16
 10
321.830
 20
104.523
 30
0.000000
  70
    32
  0
VERTEX
  8
0
  5
A17
 10
321.833
 20
104.521
 30
0.000000
  70
    32
  0
VERTEX
  8
0
  5
A18
 10
321.835
 20
104.519
 30
0.000000
  70
    32
  0
VERTEX
  8
0
  5
A19
 10
321.838
 20
104.517
 30
0.000000
  70
    32
  0
VERTEX
  8
0
  5
A1A
 10
321.841
 20
104.515
 30
0.000000
  70
    32
  0
VERTEX
  8
0
  5
A1B
 10
321.844
 20
104.513
 30
0.000000
  70
    32
  0
VERTEX
  8
0
  5
A1C
 10
321.846
 20
104.511
 30
0.000000
  70
    32
  0
VERTEX
  8
0
  5
A1D
 10
321.849
 20
104.509
 30
0.000000
  70
    32
  0
VERTEX
  8
0
  5
A1E
 10
321.852
 20
104.508
 30
0.000000
  70
    32
  0
VERTEX
  8
0
  5
A1F
 10
321.855
 20
104.506
 30
0.000000
  70
    32
  0
VERTEX
  8
0
  5
A20
 10
321.858
 20
104.504
 30
0.000000
  70
    32
  0
VERTEX
  8
0
  5
A21
 10
321.861
 20
104.502
 30
0.000000
  70
    32
  0
VERTEX
  8
0
  5
A22
 10
321.864
 20
104.500
 30
0.000000
  70
    32
  0
VERTEX
  8
0
  5
A23
 10
321.867
 20
104.498
 30
0.000000
  70
    32
  0
VERTEX
  8
0
  5
A24
 10
321.870
 20
104.497
 30
0.000000
  70
    32
  0
VERTEX
  8
0
  5
A25
 10
321.874
 20
104.495
 30
0.000000
  70
    32
  0
VERTEX
  8
0
  5
A26
 10
321.877
 20
104.493
 30
0.000000
  70
    32
  0
VERTEX
  8
0
  5
A27
 10
321.880
 20
104.492
 30
0.000000
  70
    32
  0
VERTEX
  8
0
  5
A28
 10
321.883
 20
104.490
 30
0.000000
  70
    32
  0
VERTEX
  8
0
  5
A29
 10
321.887
 20
104.488
 30
0.000000
  70
    32
  0
VERTEX
  8
0
  5
A2A
 10
321.890
 20
104.487
 30
0.000000
  70
    32
  0
VERTEX
  8
0
  5
A2B
 10
321.893
 20
104.485
 30
0.000000
  70
    32
  0
VERTEX
  8
0
  5
A2C
 10
321.897
 20
104.484
 30
0.000000
  70
    32
  0
VERTEX
  8
0
  5
A2D
 10
321.900
 20
104.482
 30
0.000000
  70
    32
  0
VERTEX
  8
0
  5
A2E
 10
321.904
 20
104.481
 30
0.000000
  70
    32
  0
VERTEX
  8
0
  5
A2F
 10
321.907
 20
104.479
 30
0.000000
  70
    32
  0
VERTEX
  8
0
  5
A30
 10
321.911
 20
104.478
 30
0.000000
  70
    32
  0
VERTEX
  8
0
  5
A31
 10
321.914
 20
104.476
 30
0.000000
  70
    32
  0
VERTEX
  8
0
  5
A32
 10
321.918
 20
104.475
 30
0.000000
  70
    32
  0
VERTEX
  8
0
  5
A33
 10
321.921
 20
104.473
 30
0.000000
  70
    32
  0
VERTEX
  8
0
  5
A34
 10
321.925
 20
104.472
 30
0.000000
  70
    32
  0
VERTEX
  8
0
  5
A35
 10
321.929
 20
104.471
 30
0.000000
  70
    32
  0
VERTEX
  8
0
  5
A36
 10
321.932
 20
104.470
 30
0.000000
  70
    32
  0
VERTEX
  8
0
  5
A37
 10
321.936
 20
104.468
 30
0.000000
  70
    32
  0
VERTEX
  8
0
  5
A38
 10
321.940
 20
104.467
 30
0.000000
  70
    32
  0
VERTEX
  8
0
  5
A39
 10
321.944
 20
104.466
 30
0.000000
  70
    32
  0
VERTEX
  8
0
  5
A3A
 10
321.947
 20
104.465
 30
0.000000
  70
    32
  0
VERTEX
  8
0
  5
A3B
 10
321.951
 20
104.463
 30
0.000000
  70
    32
  0
VERTEX
  8
0
  5
A3C
 10
321.955
 20
104.462
 30
0.000000
  70
    32
  0
VERTEX
  8
0
  5
A3D
 10
321.959
 20
104.461
 30
0.000000
  70
    32
  0
VERTEX
  8
0
  5
A3E
 10
321.963
 20
104.460
 30
0.000000
  70
    32
  0
VERTEX
  8
0
  5
A3F
 10
321.967
 20
104.459
 30
0.000000
  70
    32
  0
VERTEX
  8
0
  5
A40
 10
321.971
 20
104.458
 30
0.000000
  70
    32
  0
VERTEX
  8
0
  5
A41
 10
321.975
 20
104.457
 30
0.000000
  70
    32
  0
VERTEX
  8
0
  5
A42
 10
321.979
 20
104.456
 30
0.000000
  70
    32
  0
VERTEX
  8
0
  5
A43
 10
321.983
 20
104.455
 30
0.000000
  70
    32
  0
VERTEX
  8
0
  5
A44
 10
321.987
 20
104.454
 30
0.000000
  70
    32
  0
VERTEX
  8
0
  5
A45
 10
321.991
 20
104.453
 30
0.000000
  70
    32
  0
VERTEX
  8
0
  5
A46
 10
321.995
 20
104.452
 30
0.000000
  70
    32
  0
VERTEX
  8
0
  5
A47
 10
321.999
 20
104.452
 30
0.000000
  70
    32
  0
VERTEX
  8
0
  5
A48
 10
322.003
 20
104.451
 30
0.000000
  70
    32
  0
VERTEX
  8
0
  5
A49
 10
322.007
 20
104.450
 30
0.000000
  70
    32
  0
VERTEX
  8
0
  5
A4A
 10
322.012
 20
104.449
 30
0.000000
  70
    32
  0
VERTEX
  8
0
  5
A4B
 10
322.016
 20
104.449
 30
0.000000
  70
    32
  0
VERTEX
  8
0
  5
A4C
 10
322.020
 20
104.448
 30
0.000000
  70
    32
  0
VERTEX
  8
0
  5
A4D
 10
322.024
 20
104.447
 30
0.000000
  70
    32
  0
VERTEX
  8
0
  5
A4E
 10
322.028
 20
104.447
 30
0.000000
  70
    32
  0
VERTEX
  8
0
  5
A4F
 10
322.032
 20
104.446
 30
0.000000
  70
    32
  0
VERTEX
  8
0
  5
A50
 10
322.037
 20
104.445
 30
0.000000
  70
    32
  0
VERTEX
  8
0
  5
A51
 10
322.041
 20
104.445
 30
0.000000
  70
    32
  0
VERTEX
  8
0
  5
A52
 10
322.045
 20
104.444
 30
0.000000
  70
    32
  0
VERTEX
  8
0
  5
A53
 10
322.049
 20
104.444
 30
0.000000
  70
    32
  0
VERTEX
  8
0
  5
A54
 10
322.054
 20
104.443
 30
0.000000
  70
    32
  0
VERTEX
  8
0
  5
A55
 10
322.058
 20
104.443
 30
0.000000
  70
    32
  0
VERTEX
  8
0
  5
A56
 10
322.062
 20
104.443
 30
0.000000
  70
    32
  0
VERTEX
  8
0
  5
A57
 10
322.067
 20
104.442
 30
0.000000
  70
    32
  0
VERTEX
  8
0
  5
A58
 10
322.071
 20
104.442
 30
0.000000
  70
    32
  0
VERTEX
  8
0
  5
A59
 10
322.075
 20
104.442
 30
0.000000
  70
    32
  0
VERTEX
  8
0
  5
A5A
 10
322.079
 20
104.441
 30
0.000000
  70
    32
  0
VERTEX
  8
0
  5
A5B
 10
322.084
 20
104.441
 30
0.000000
  70
    32
  0
VERTEX
  8
0
  5
A5C
 10
322.088
 20
104.441
 30
0.000000
  70
    32
  0
VERTEX
  8
0
  5
A5D
 10
322.092
 20
104.441
 30
0.000000
  70
    32
  0
VERTEX
  8
0
  5
A5E
 10
322.097
 20
104.441
 30
0.000000
  70
    32
  0
VERTEX
  8
0
  5
A5F
 10
322.101
 20
104.441
 30
0.000000
  70
    32
  0
VERTEX
  8
0
  5
A60
 10
322.105
 20
104.441
 30
0.000000
  70
    32
  0
VERTEX
  8
0
  5
A61
 10
322.110
 20
104.440
 30
0.000000
  70
    32
  0
VERTEX
  8
0
  5
A62
 10
322.114
 20
104.440
 30
0.000000
  70
    32
  0
SEQEND
  8
0
  5
A63
  0
LINE
  5
3BE
  8
0
  6
CONTINUOUS
 10
321.76059796160001
 20
104.6446013751
 30
0.0
 11
321.76059796160001
 21
108.44151502370001
 31
0.0
  0
POLYLINE
  5
3BF
  8
0
  6
CONTINUOUS
 10
321.80202434263634
 20
108.49925840586633
 30
0.0
 66
     1
 70
     8
  0
VERTEX
  8
0
  5
A64
 10
321.802
 20
108.499
 30
0.000000
  70
    32
  0
VERTEX
  8
0
  5
A65
 10
321.801
 20
108.499
 30
0.000000
  70
    32
  0
VERTEX
  8
0
  5
A66
 10
321.801
 20
108.499
 30
0.000000
  70
    32
  0
VERTEX
  8
0
  5
A67
 10
321.800
 20
108.498
 30
0.000000
  70
    32
  0
VERTEX
  8
0
  5
A68
 10
321.800
 20
108.498
 30
0.000000
  70
    32
  0
VERTEX
  8
0
  5
A69
 10
321.799
 20
108.497
 30
0.000000
  70
    32
  0
VERTEX
  8
0
  5
A6A
 10
321.798
 20
108.497
 30
0.000000
  70
    32
  0
VERTEX
  8
0
  5
A6B
 10
321.798
 20
108.497
 30
0.000000
  70
    32
  0
VERTEX
  8
0
  5
A6C
 10
321.797
 20
108.496
 30
0.000000
  70
    32
  0
VERTEX
  8
0
  5
A6D
 10
321.797
 20
108.496
 30
0.000000
  70
    32
  0
VERTEX
  8
0
  5
A6E
 10
321.796
 20
108.496
 30
0.000000
  70
    32
  0
VERTEX
  8
0
  5
A6F
 10
321.796
 20
108.495
 30
0.000000
  70
    32
  0
VERTEX
  8
0
  5
A70
 10
321.795
 20
108.495
 30
0.000000
  70
    32
  0
VERTEX
  8
0
  5
A71
 10
321.794
 20
108.494
 30
0.000000
  70
    32
  0
VERTEX
  8
0
  5
A72
 10
321.794
 20
108.494
 30
0.000000
  70
    32
  0
VERTEX
  8
0
  5
A73
 10
321.793
 20
108.494
 30
0.000000
  70
    32
  0
VERTEX
  8
0
  5
A74
 10
321.793
 20
108.493
 30
0.000000
  70
    32
  0
VERTEX
  8
0
  5
A75
 10
321.792
 20
108.493
 30
0.000000
  70
    32
  0
VERTEX
  8
0
  5
A76
 10
321.792
 20
108.493
 30
0.000000
  70
    32
  0
VERTEX
  8
0
  5
A77
 10
321.791
 20
108.492
 30
0.000000
  70
    32
  0
VERTEX
  8
0
  5
A78
 10
321.791
 20
108.492
 30
0.000000
  70
    32
  0
VERTEX
  8
0
  5
A79
 10
321.790
 20
108.491
 30
0.000000
  70
    32
  0
VERTEX
  8
0
  5
A7A
 10
321.789
 20
108.491
 30
0.000000
  70
    32
  0
VERTEX
  8
0
  5
A7B
 10
321.789
 20
108.491
 30
0.000000
  70
    32
  0
VERTEX
  8
0
  5
A7C
 10
321.788
 20
108.490
 30
0.000000
  70
    32
  0
VERTEX
  8
0
  5
A7D
 10
321.788
 20
108.490
 30
0.000000
  70
    32
  0
VERTEX
  8
0
  5
A7E
 10
321.787
 20
108.489
 30
0.000000
  70
    32
  0
VERTEX
  8
0
  5
A7F
 10
321.787
 20
108.489
 30
0.000000
  70
    32
  0
VERTEX
  8
0
  5
A80
 10
321.786
 20
108.489
 30
0.000000
  70
    32
  0
VERTEX
  8
0
  5
A81
 10
321.786
 20
108.488
 30
0.000000
  70
    32
  0
VERTEX
  8
0
  5
A82
 10
321.785
 20
108.488
 30
0.000000
  70
    32
  0
VERTEX
  8
0
  5
A83
 10
321.785
 20
108.487
 30
0.000000
  70
    32
  0
VERTEX
  8
0
  5
A84
 10
321.784
 20
108.487
 30
0.000000
  70
    32
  0
VERTEX
  8
0
  5
A85
 10
321.784
 20
108.486
 30
0.000000
  70
    32
  0
VERTEX
  8
0
  5
A86
 10
321.783
 20
108.486
 30
0.000000
  70
    32
  0
VERTEX
  8
0
  5
A87
 10
321.783
 20
108.486
 30
0.000000
  70
    32
  0
VERTEX
  8
0
  5
A88
 10
321.783
 20
108.485
 30
0.000000
  70
    32
  0
VERTEX
  8
0
  5
A89
 10
321.782
 20
108.485
 30
0.000000
  70
    32
  0
VERTEX
  8
0
  5
A8A
 10
321.782
 20
108.484
 30
0.000000
  70
    32
  0
VERTEX
  8
0
  5
A8B
 10
321.781
 20
108.484
 30
0.000000
  70
    32
  0
VERTEX
  8
0
  5
A8C
 10
321.781
 20
108.483
 30
0.000000
  70
    32
  0
VERTEX
  8
0
  5
A8D
 10
321.780
 20
108.483
 30
0.000000
  70
    32
  0
VERTEX
  8
0
  5
A8E
 10
321.780
 20
108.483
 30
0.000000
  70
    32
  0
VERTEX
  8
0
  5
A8F
 10
321.779
 20
108.482
 30
0.000000
  70
    32
  0
VERTEX
  8
0
  5
A90
 10
321.779
 20
108.482
 30
0.000000
  70
    32
  0
VERTEX
  8
0
  5
A91
 10
321.779
 20
108.481
 30
0.000000
  70
    32
  0
VERTEX
  8
0
  5
A92
 10
321.778
 20
108.481
 30
0.000000
  70
    32
  0
VERTEX
  8
0
  5
A93
 10
321.778
 20
108.480
 30
0.000000
  70
    32
  0
VERTEX
  8
0
  5
A94
 10
321.777
 20
108.480
 30
0.000000
  70
    32
  0
VERTEX
  8
0
  5
A95
 10
321.777
 20
108.480
 30
0.000000
  70
    32
  0
VERTEX
  8
0
  5
A96
 10
321.776
 20
108.479
 30
0.000000
  70
    32
  0
VERTEX
  8
0
  5
A97
 10
321.776
 20
108.479
 30
0.000000
  70
    32
  0
VERTEX
  8
0
  5
A98
 10
321.776
 20
108.478
 30
0.000000
  70
    32
  0
VERTEX
  8
0
  5
A99
 10
321.775
 20
108.478
 30
0.000000
  70
    32
  0
VERTEX
  8
0
  5
A9A
 10
321.775
 20
108.477
 30
0.000000
  70
    32
  0
VERTEX
  8
0
  5
A9B
 10
321.775
 20
108.477
 30
0.000000
  70
    32
  0
VERTEX
  8
0
  5
A9C
 10
321.774
 20
108.476
 30
0.000000
  70
    32
  0
VERTEX
  8
0
  5
A9D
 10
321.774
 20
108.476
 30
0.000000
  70
    32
  0
VERTEX
  8
0
  5
A9E
 10
321.773
 20
108.476
 30
0.000000
  70
    32
  0
VERTEX
  8
0
  5
A9F
 10
321.773
 20
108.475
 30
0.000000
  70
    32
  0
VERTEX
  8
0
  5
AA0
 10
321.773
 20
108.475
 30
0.000000
  70
    32
  0
VERTEX
  8
0
  5
AA1
 10
321.772
 20
108.474
 30
0.000000
  70
    32
  0
VERTEX
  8
0
  5
AA2
 10
321.772
 20
108.474
 30
0.000000
  70
    32
  0
VERTEX
  8
0
  5
AA3
 10
321.772
 20
108.473
 30
0.000000
  70
    32
  0
VERTEX
  8
0
  5
AA4
 10
321.771
 20
108.473
 30
0.000000
  70
    32
  0
VERTEX
  8
0
  5
AA5
 10
321.771
 20
108.472
 30
0.000000
  70
    32
  0
VERTEX
  8
0
  5
AA6
 10
321.771
 20
108.472
 30
0.000000
  70
    32
  0
VERTEX
  8
0
  5
AA7
 10
321.770
 20
108.471
 30
0.000000
  70
    32
  0
VERTEX
  8
0
  5
AA8
 10
321.770
 20
108.471
 30
0.000000
  70
    32
  0
VERTEX
  8
0
  5
AA9
 10
321.770
 20
108.470
 30
0.000000
  70
    32
  0
VERTEX
  8
0
  5
AAA
 10
321.769
 20
108.470
 30
0.000000
  70
    32
  0
VERTEX
  8
0
  5
AAB
 10
321.769
 20
108.469
 30
0.000000
  70
    32
  0
VERTEX
  8
0
  5
AAC
 10
321.769
 20
108.469
 30
0.000000
  70
    32
  0
VERTEX
  8
0
  5
AAD
 10
321.769
 20
108.469
 30
0.000000
  70
    32
  0
VERTEX
  8
0
  5
AAE
 10
321.768
 20
108.468
 30
0.000000
  70
    32
  0
VERTEX
  8
0
  5
AAF
 10
321.768
 20
108.468
 30
0.000000
  70
    32
  0
VERTEX
  8
0
  5
AB0
 10
321.768
 20
108.467
 30
0.000000
  70
    32
  0
VERTEX
  8
0
  5
AB1
 10
321.767
 20
108.467
 30
0.000000
  70
    32
  0
VERTEX
  8
0
  5
AB2
 10
321.767
 20
108.466
 30
0.000000
  70
    32
  0
VERTEX
  8
0
  5
AB3
 10
321.767
 20
108.466
 30
0.000000
  70
    32
  0
VERTEX
  8
0
  5
AB4
 10
321.767
 20
108.465
 30
0.000000
  70
    32
  0
VERTEX
  8
0
  5
AB5
 10
321.766
 20
108.465
 30
0.000000
  70
    32
  0
VERTEX
  8
0
  5
AB6
 10
321.766
 20
108.464
 30
0.000000
  70
    32
  0
VERTEX
  8
0
  5
AB7
 10
321.766
 20
108.464
 30
0.000000
  70
    32
  0
VERTEX
  8
0
  5
AB8
 10
321.766
 20
108.463
 30
0.000000
  70
    32
  0
VERTEX
  8
0
  5
AB9
 10
321.765
 20
108.463
 30
0.000000
  70
    32
  0
VERTEX
  8
0
  5
ABA
 10
321.765
 20
108.462
 30
0.000000
  70
    32
  0
VERTEX
  8
0
  5
ABB
 10
321.765
 20
108.462
 30
0.000000
  70
    32
  0
VERTEX
  8
0
  5
ABC
 10
321.765
 20
108.461
 30
0.000000
  70
    32
  0
VERTEX
  8
0
  5
ABD
 10
321.765
 20
108.461
 30
0.000000
  70
    32
  0
VERTEX
  8
0
  5
ABE
 10
321.764
 20
108.460
 30
0.000000
  70
    32
  0
VERTEX
  8
0
  5
ABF
 10
321.764
 20
108.460
 30
0.000000
  70
    32
  0
VERTEX
  8
0
  5
AC0
 10
321.764
 20
108.459
 30
0.000000
  70
    32
  0
VERTEX
  8
0
  5
AC1
 10
321.764
 20
108.459
 30
0.000000
  70
    32
  0
VERTEX
  8
0
  5
AC2
 10
321.764
 20
108.458
 30
0.000000
  70
    32
  0
VERTEX
  8
0
  5
AC3
 10
321.763
 20
108.458
 30
0.000000
  70
    32
  0
VERTEX
  8
0
  5
AC4
 10
321.763
 20
108.457
 30
0.000000
  70
    32
  0
VERTEX
  8
0
  5
AC5
 10
321.763
 20
108.457
 30
0.000000
  70
    32
  0
VERTEX
  8
0
  5
AC6
 10
321.763
 20
108.456
 30
0.000000
  70
    32
  0
VERTEX
  8
0
  5
AC7
 10
321.763
 20
108.456
 30
0.000000
  70
    32
  0
VERTEX
  8
0
  5
AC8
 10
321.763
 20
108.455
 30
0.000000
  70
    32
  0
VERTEX
  8
0
  5
AC9
 10
321.763
 20
108.455
 30
0.000000
  70
    32
  0
VERTEX
  8
0
  5
ACA
 10
321.762
 20
108.454
 30
0.000000
  70
    32
  0
VERTEX
  8
0
  5
ACB
 10
321.762
 20
108.454
 30
0.000000
  70
    32
  0
VERTEX
  8
0
  5
ACC
 10
321.762
 20
108.453
 30
0.000000
  70
    32
  0
VERTEX
  8
0
  5
ACD
 10
321.762
 20
108.453
 30
0.000000
  70
    32
  0
VERTEX
  8
0
  5
ACE
 10
321.762
 20
108.453
 30
0.000000
  70
    32
  0
VERTEX
  8
0
  5
ACF
 10
321.762
 20
108.452
 30
0.000000
  70
    32
  0
VERTEX
  8
0
  5
AD0
 10
321.762
 20
108.452
 30
0.000000
  70
    32
  0
VERTEX
  8
0
  5
AD1
 10
321.762
 20
108.451
 30
0.000000
  70
    32
  0
VERTEX
  8
0
  5
AD2
 10
321.761
 20
108.451
 30
0.000000
  70
    32
  0
VERTEX
  8
0
  5
AD3
 10
321.761
 20
108.450
 30
0.000000
  70
    32
  0
VERTEX
  8
0
  5
AD4
 10
321.761
 20
108.450
 30
0.000000
  70
    32
  0
VERTEX
  8
0
  5
AD5
 10
321.761
 20
108.449
 30
0.000000
  70
    32
  0
VERTEX
  8
0
  5
AD6
 10
321.761
 20
108.449
 30
0.000000
  70
    32
  0
VERTEX
  8
0
  5
AD7
 10
321.761
 20
108.448
 30
0.000000
  70
    32
  0
VERTEX
  8
0
  5
AD8
 10
321.761
 20
108.448
 30
0.000000
  70
    32
  0
VERTEX
  8
0
  5
AD9
 10
321.761
 20
108.447
 30
0.000000
  70
    32
  0
VERTEX
  8
0
  5
ADA
 10
321.761
 20
108.447
 30
0.000000
  70
    32
  0
VERTEX
  8
0
  5
ADB
 10
321.761
 20
108.446
 30
0.000000
  70
    32
  0
VERTEX
  8
0
  5
ADC
 10
321.761
 20
108.446
 30
0.000000
  70
    32
  0
VERTEX
  8
0
  5
ADD
 10
321.761
 20
108.445
 30
0.000000
  70
    32
  0
VERTEX
  8
0
  5
ADE
 10
321.761
 20
108.445
 30
0.000000
  70
    32
  0
VERTEX
  8
0
  5
ADF
 10
321.761
 20
108.444
 30
0.000000
  70
    32
  0
VERTEX
  8
0
  5
AE0
 10
321.761
 20
108.444
 30
0.000000
  70
    32
  0
VERTEX
  8
0
  5
AE1
 10
321.761
 20
108.443
 30
0.000000
  70
    32
  0
VERTEX
  8
0
  5
AE2
 10
321.761
 20
108.443
 30
0.000000
  70
    32
  0
VERTEX
  8
0
  5
AE3
 10
321.761
 20
108.442
 30
0.000000
  70
    32
  0
VERTEX
  8
0
  5
AE4
 10
321.761
 20
108.442
 30
0.000000
  70
    32
  0
SEQEND
  8
0
  5
AE5
  0
LINE
  5
3C0
  8
0
  6
CONTINUOUS
 10
452.29250666669992
 20
36.147458514299998
 30
0.0
 11
333.99273029099999
 21
104.44046575839999
 31
0.0
  0
LINE
  5
3C1
  8
0
  6
CONTINUOUS
 10
452.29250666669992
 20
36.147458514299998
 30
0.0
 11
452.29250666669992
 21
29.290098228200002
 31
0.0
  0
LINE
  5
3C2
  8
0
  6
CONTINUOUS
 10
452.29250666669992
 20
29.290098228200002
 30
0.0
 11
322.11414680040002
 21
104.44046575839999
 31
0.0
  0
LINE
  5
3C3
  8
0
  6
CONTINUOUS
 10
452.29250666669992
 20
43.513633775800002
 30
0.0
 11
340.57207461450002
 21
108.0084663884
 31
0.0
  0
LINE
  5
3C4
  8
0
  6
CONTINUOUS
 10
452.29250666669992
 20
36.345676048400001
 30
0.0
 11
452.29250666669992
 21
43.513633775800002
 31
0.0
  0
LINE
  5
3C5
  8
0
  6
CONTINUOUS
 10
452.29250666669992
 20
36.345676048400001
 30
0.0
 11
334.23757187069998
 21
104.49733925709999
 31
0.0
  0
LINE
  5
3C6
  8
0
  6
CONTINUOUS
 10
452.29250666669992
 20
29.2055642951
 30
0.0
 11
452.29250666669992
 21
29.290098228200002
 31
0.0
  0
LINE
  5
3C7
  8
0
  6
CONTINUOUS
 10
452.29250666669992
 20
36.147458514299998
 30
0.0
 11
452.29250666669992
 21
36.345676048400001
 31
0.0
  0
LINE
  5
3C8
  8
0
  6
CONTINUOUS
 10
452.29250666669992
 20
43.513633775800002
 30
0.0
 11
452.29250666669992
 21
43.808213804499999
 31
0.0
  0
LINE
  5
3C9
  8
0
  6
CONTINUOUS
 10
322.11414680040002
 20
104.44046575839999
 30
0.0
 11
452.29250666669992
 21
179.5908332887
 31
0.0
  0
POLYLINE
  5
3CA
  8
0
  6
CONTINUOUS
 10
321.76059485960673
 20
104.64460078419999
 30
0.0
 66
     1
 70
     8
  0
VERTEX
  8
0
  5
AE6
 10
321.761
 20
104.645
 30
0.000000
  70
    32
  0
VERTEX
  8
0
  5
AE7
 10
321.761
 20
104.642
 30
0.000000
  70
    32
  0
VERTEX
  8
0
  5
AE8
 10
321.761
 20
104.640
 30
0.000000
  70
    32
  0
VERTEX
  8
0
  5
AE9
 10
321.761
 20
104.637
 30
0.000000
  70
    32
  0
VERTEX
  8
0
  5
AEA
 10
321.761
 20
104.635
 30
0.000000
  70
    32
  0
VERTEX
  8
0
  5
AEB
 10
321.761
 20
104.632
 30
0.000000
  70
    32
  0
VERTEX
  8
0
  5
AEC
 10
321.762
 20
104.630
 30
0.000000
  70
    32
  0
VERTEX
  8
0
  5
AED
 10
321.762
 20
104.627
 30
0.000000
  70
    32
  0
VERTEX
  8
0
  5
AEE
 10
321.762
 20
104.625
 30
0.000000
  70
    32
  0
VERTEX
  8
0
  5
AEF
 10
321.763
 20
104.622
 30
0.000000
  70
    32
  0
VERTEX
  8
0
  5
AF0
 10
321.763
 20
104.620
 30
0.000000
  70
    32
  0
VERTEX
  8
0
  5
AF1
 10
321.764
 20
104.617
 30
0.000000
  70
    32
  0
VERTEX
  8
0
  5
AF2
 10
321.764
 20
104.615
 30
0.000000
  70
    32
  0
VERTEX
  8
0
  5
AF3
 10
321.765
 20
104.612
 30
0.000000
  70
    32
  0
VERTEX
  8
0
  5
AF4
 10
321.766
 20
104.610
 30
0.000000
  70
    32
  0
VERTEX
  8
0
  5
AF5
 10
321.767
 20
104.607
 30
0.000000
  70
    32
  0
VERTEX
  8
0
  5
AF6
 10
321.767
 20
104.605
 30
0.000000
  70
    32
  0
VERTEX
  8
0
  5
AF7
 10
321.768
 20
104.602
 30
0.000000
  70
    32
  0
VERTEX
  8
0
  5
AF8
 10
321.769
 20
104.600
 30
0.000000
  70
    32
  0
VERTEX
  8
0
  5
AF9
 10
321.770
 20
104.597
 30
0.000000
  70
    32
  0
VERTEX
  8
0
  5
AFA
 10
321.771
 20
104.595
 30
0.000000
  70
    32
  0
VERTEX
  8
0
  5
AFB
 10
321.772
 20
104.593
 30
0.000000
  70
    32
  0
VERTEX
  8
0
  5
AFC
 10
321.773
 20
104.590
 30
0.000000
  70
    32
  0
VERTEX
  8
0
  5
AFD
 10
321.775
 20
104.588
 30
0.000000
  70
    32
  0
VERTEX
  8
0
  5
AFE
 10
321.776
 20
104.585
 30
0.000000
  70
    32
  0
VERTEX
  8
0
  5
AFF
 10
321.777
 20
104.583
 30
0.000000
  70
    32
  0
VERTEX
  8
0
  5
B00
 10
321.778
 20
104.581
 30
0.000000
  70
    32
  0
VERTEX
  8
0
  5
B01
 10
321.780
 20
104.578
 30
0.000000
  70
    32
  0
VERTEX
  8
0
  5
B02
 10
321.781
 20
104.576
 30
0.000000
  70
    32
  0
VERTEX
  8
0
  5
B03
 10
321.783
 20
104.573
 30
0.000000
  70
    32
  0
VERTEX
  8
0
  5
B04
 10
321.784
 20
104.571
 30
0.000000
  70
    32
  0
VERTEX
  8
0
  5
B05
 10
321.786
 20
104.569
 30
0.000000
  70
    32
  0
VERTEX
  8
0
  5
B06
 10
321.788
 20
104.566
 30
0.000000
  70
    32
  0
VERTEX
  8
0
  5
B07
 10
321.789
 20
104.564
 30
0.000000
  70
    32
  0
VERTEX
  8
0
  5
B08
 10
321.791
 20
104.562
 30
0.000000
  70
    32
  0
VERTEX
  8
0
  5
B09
 10
321.793
 20
104.560
 30
0.000000
  70
    32
  0
VERTEX
  8
0
  5
B0A
 10
321.795
 20
104.557
 30
0.000000
  70
    32
  0
VERTEX
  8
0
  5
B0B
 10
321.796
 20
104.555
 30
0.000000
  70
    32
  0
VERTEX
  8
0
  5
B0C
 10
321.798
 20
104.553
 30
0.000000
  70
    32
  0
VERTEX
  8
0
  5
B0D
 10
321.800
 20
104.551
 30
0.000000
  70
    32
  0
VERTEX
  8
0
  5
B0E
 10
321.802
 20
104.548
 30
0.000000
  70
    32
  0
VERTEX
  8
0
  5
B0F
 10
321.804
 20
104.546
 30
0.000000
  70
    32
  0
VERTEX
  8
0
  5
B10
 10
321.807
 20
104.544
 30
0.000000
  70
    32
  0
VERTEX
  8
0
  5
B11
 10
321.809
 20
104.542
 30
0.000000
  70
    32
  0
VERTEX
  8
0
  5
B12
 10
321.811
 20
104.540
 30
0.000000
  70
    32
  0
VERTEX
  8
0
  5
B13
 10
321.813
 20
104.538
 30
0.000000
  70
    32
  0
VERTEX
  8
0
  5
B14
 10
321.815
 20
104.535
 30
0.000000
  70
    32
  0
VERTEX
  8
0
  5
B15
 10
321.818
 20
104.533
 30
0.000000
  70
    32
  0
VERTEX
  8
0
  5
B16
 10
321.820
 20
104.531
 30
0.000000
  70
    32
  0
VERTEX
  8
0
  5
B17
 10
321.823
 20
104.529
 30
0.000000
  70
    32
  0
VERTEX
  8
0
  5
B18
 10
321.825
 20
104.527
 30
0.000000
  70
    32
  0
VERTEX
  8
0
  5
B19
 10
321.828
 20
104.525
 30
0.000000
  70
    32
  0
VERTEX
  8
0
  5
B1A
 10
321.830
 20
104.523
 30
0.000000
  70
    32
  0
VERTEX
  8
0
  5
B1B
 10
321.833
 20
104.521
 30
0.000000
  70
    32
  0
VERTEX
  8
0
  5
B1C
 10
321.835
 20
104.519
 30
0.000000
  70
    32
  0
VERTEX
  8
0
  5
B1D
 10
321.838
 20
104.517
 30
0.000000
  70
    32
  0
VERTEX
  8
0
  5
B1E
 10
321.841
 20
104.515
 30
0.000000
  70
    32
  0
VERTEX
  8
0
  5
B1F
 10
321.844
 20
104.513
 30
0.000000
  70
    32
  0
VERTEX
  8
0
  5
B20
 10
321.846
 20
104.511
 30
0.000000
  70
    32
  0
VERTEX
  8
0
  5
B21
 10
321.849
 20
104.509
 30
0.000000
  70
    32
  0
VERTEX
  8
0
  5
B22
 10
321.852
 20
104.508
 30
0.000000
  70
    32
  0
VERTEX
  8
0
  5
B23
 10
321.855
 20
104.506
 30
0.000000
  70
    32
  0
VERTEX
  8
0
  5
B24
 10
321.858
 20
104.504
 30
0.000000
  70
    32
  0
VERTEX
  8
0
  5
B25
 10
321.861
 20
104.502
 30
0.000000
  70
    32
  0
VERTEX
  8
0
  5
B26
 10
321.864
 20
104.500
 30
0.000000
  70
    32
  0
VERTEX
  8
0
  5
B27
 10
321.867
 20
104.498
 30
0.000000
  70
    32
  0
VERTEX
  8
0
  5
B28
 10
321.870
 20
104.497
 30
0.000000
  70
    32
  0
VERTEX
  8
0
  5
B29
 10
321.874
 20
104.495
 30
0.000000
  70
    32
  0
VERTEX
  8
0
  5
B2A
 10
321.877
 20
104.493
 30
0.000000
  70
    32
  0
VERTEX
  8
0
  5
B2B
 10
321.880
 20
104.492
 30
0.000000
  70
    32
  0
VERTEX
  8
0
  5
B2C
 10
321.883
 20
104.490
 30
0.000000
  70
    32
  0
VERTEX
  8
0
  5
B2D
 10
321.887
 20
104.488
 30
0.000000
  70
    32
  0
VERTEX
  8
0
  5
B2E
 10
321.890
 20
104.487
 30
0.000000
  70
    32
  0
VERTEX
  8
0
  5
B2F
 10
321.893
 20
104.485
 30
0.000000
  70
    32
  0
VERTEX
  8
0
  5
B30
 10
321.897
 20
104.484
 30
0.000000
  70
    32
  0
VERTEX
  8
0
  5
B31
 10
321.900
 20
104.482
 30
0.000000
  70
    32
  0
VERTEX
  8
0
  5
B32
 10
321.904
 20
104.481
 30
0.000000
  70
    32
  0
VERTEX
  8
0
  5
B33
 10
321.907
 20
104.479
 30
0.000000
  70
    32
  0
VERTEX
  8
0
  5
B34
 10
321.911
 20
104.478
 30
0.000000
  70
    32
  0
VERTEX
  8
0
  5
B35
 10
321.914
 20
104.476
 30
0.000000
  70
    32
  0
VERTEX
  8
0
  5
B36
 10
321.918
 20
104.475
 30
0.000000
  70
    32
  0
VERTEX
  8
0
  5
B37
 10
321.921
 20
104.473
 30
0.000000
  70
    32
  0
VERTEX
  8
0
  5
B38
 10
321.925
 20
104.472
 30
0.000000
  70
    32
  0
VERTEX
  8
0
  5
B39
 10
321.929
 20
104.471
 30
0.000000
  70
    32
  0
VERTEX
  8
0
  5
B3A
 10
321.932
 20
104.470
 30
0.000000
  70
    32
  0
VERTEX
  8
0
  5
B3B
 10
321.936
 20
104.468
 30
0.000000
  70
    32
  0
VERTEX
  8
0
  5
B3C
 10
321.940
 20
104.467
 30
0.000000
  70
    32
  0
VERTEX
  8
0
  5
B3D
 10
321.944
 20
104.466
 30
0.000000
  70
    32
  0
VERTEX
  8
0
  5
B3E
 10
321.947
 20
104.465
 30
0.000000
  70
    32
  0
VERTEX
  8
0
  5
B3F
 10
321.951
 20
104.463
 30
0.000000
  70
    32
  0
VERTEX
  8
0
  5
B40
 10
321.955
 20
104.462
 30
0.000000
  70
    32
  0
VERTEX
  8
0
  5
B41
 10
321.959
 20
104.461
 30
0.000000
  70
    32
  0
VERTEX
  8
0
  5
B42
 10
321.963
 20
104.460
 30
0.000000
  70
    32
  0
VERTEX
  8
0
  5
B43
 10
321.967
 20
104.459
 30
0.000000
  70
    32
  0
VERTEX
  8
0
  5
B44
 10
321.971
 20
104.458
 30
0.000000
  70
    32
  0
VERTEX
  8
0
  5
B45
 10
321.975
 20
104.457
 30
0.000000
  70
    32
  0
VERTEX
  8
0
  5
B46
 10
321.979
 20
104.456
 30
0.000000
  70
    32
  0
VERTEX
  8
0
  5
B47
 10
321.983
 20
104.455
 30
0.000000
  70
    32
  0
VERTEX
  8
0
  5
B48
 10
321.987
 20
104.454
 30
0.000000
  70
    32
  0
VERTEX
  8
0
  5
B49
 10
321.991
 20
104.453
 30
0.000000
  70
    32
  0
VERTEX
  8
0
  5
B4A
 10
321.995
 20
104.452
 30
0.000000
  70
    32
  0
VERTEX
  8
0
  5
B4B
 10
321.999
 20
104.452
 30
0.000000
  70
    32
  0
VERTEX
  8
0
  5
B4C
 10
322.003
 20
104.451
 30
0.000000
  70
    32
  0
VERTEX
  8
0
  5
B4D
 10
322.007
 20
104.450
 30
0.000000
  70
    32
  0
VERTEX
  8
0
  5
B4E
 10
322.012
 20
104.449
 30
0.000000
  70
    32
  0
VERTEX
  8
0
  5
B4F
 10
322.016
 20
104.449
 30
0.000000
  70
    32
  0
VERTEX
  8
0
  5
B50
 10
322.020
 20
104.448
 30
0.000000
  70
    32
  0
VERTEX
  8
0
  5
B51
 10
322.024
 20
104.447
 30
0.000000
  70
    32
  0
VERTEX
  8
0
  5
B52
 10
322.028
 20
104.447
 30
0.000000
  70
    32
  0
VERTEX
  8
0
  5
B53
 10
322.032
 20
104.446
 30
0.000000
  70
    32
  0
VERTEX
  8
0
  5
B54
 10
322.037
 20
104.445
 30
0.000000
  70
    32
  0
VERTEX
  8
0
  5
B55
 10
322.041
 20
104.445
 30
0.000000
  70
    32
  0
VERTEX
  8
0
  5
B56
 10
322.045
 20
104.444
 30
0.000000
  70
    32
  0
VERTEX
  8
0
  5
B57
 10
322.049
 20
104.444
 30
0.000000
  70
    32
  0
VERTEX
  8
0
  5
B58
 10
322.054
 20
104.443
 30
0.000000
  70
    32
  0
VERTEX
  8
0
  5
B59
 10
322.058
 20
104.443
 30
0.000000
  70
    32
  0
VERTEX
  8
0
  5
B5A
 10
322.062
 20
104.443
 30
0.000000
  70
    32
  0
VERTEX
  8
0
  5
B5B
 10
322.067
 20
104.442
 30
0.000000
  70
    32
  0
VERTEX
  8
0
  5
B5C
 10
322.071
 20
104.442
 30
0.000000
  70
    32
  0
VERTEX
  8
0
  5
B5D
 10
322.075
 20
104.442
 30
0.000000
  70
    32
  0
VERTEX
  8
0
  5
B5E
 10
322.079
 20
104.441
 30
0.000000
  70
    32
  0
VERTEX
  8
0
  5
B5F
 10
322.084
 20
104.441
 30
0.000000
  70
    32
  0
VERTEX
  8
0
  5
B60
 10
322.088
 20
104.441
 30
0.000000
  70
    32
  0
VERTEX
  8
0
  5
B61
 10
322.092
 20
104.441
 30
0.000000
  70
    32
  0
VERTEX
  8
0
  5
B62
 10
322.097
 20
104.441
 30
0.000000
  70
    32
  0
VERTEX
  8
0
  5
B63
 10
322.101
 20
104.441
 30
0.000000
  70
    32
  0
VERTEX
  8
0
  5
B64
 10
322.105
 20
104.441
 30
0.000000
  70
    32
  0
VERTEX
  8
0
  5
B65
 10
322.110
 20
104.440
 30
0.000000
  70
    32
  0
VERTEX
  8
0
  5
B66
 10
322.114
 20
104.440
 30
0.000000
  70
    32
  0
SEQEND
  8
0
  5
B67
  0
LINE
  5
3CB
  8
0
  6
CONTINUOUS
 10
321.76059796160001
 20
104.6446013751
 30
0.0
 11
452.29250666669992
 21
179.99906830559999
 31
0.0
  0
LINE
  5
3CC
  8
0
  6
CONTINUOUS
 10
452.29250666669992
 20
179.5908332887
 30
0.0
 11
452.29250666669992
 21
179.99906830559999
 31
0.0
  0
LINE
  5
3CD
  8
0
  6
CONTINUOUS
 10
321.76059796160001
 20
108.44151502370001
 30
0.0
 11
452.29250666669992
 21
183.7959819541
 31
0.0
  0
LINE
  5
3CE
  8
0
  6
CONTINUOUS
 10
452.29250666669992
 20
179.99906830559999
 30
0.0
 11
452.29250666669992
 21
183.7959819541
 31
0.0
  0
LINE
  5
3CF
  8
0
  6
CONTINUOUS
 10
333.99273029099999
 20
104.44046575839999
 30
0.0
 11
452.29250666669992
 21
172.73347300259999
 31
0.0
  0
LINE
  5
3D0
  8
0
  6
CONTINUOUS
 10
452.29250666669992
 20
179.5908332887
 30
0.0
 11
452.29250666669992
 21
172.73347300259999
 31
0.0
  0
POLYLINE
  5
3D1
  8
0
  6
CONTINUOUS
 10
321.8020243426364
 20
108.4992584058664
 30
0.0
 66
     1
 70
     8
  0
VERTEX
  8
0
  5
B68
 10
321.802
 20
108.499
 30
0.000000
  70
    32
  0
VERTEX
  8
0
  5
B69
 10
321.801
 20
108.499
 30
0.000000
  70
    32
  0
VERTEX
  8
0
  5
B6A
 10
321.801
 20
108.499
 30
0.000000
  70
    32
  0
VERTEX
  8
0
  5
B6B
 10
321.800
 20
108.498
 30
0.000000
  70
    32
  0
VERTEX
  8
0
  5
B6C
 10
321.800
 20
108.498
 30
0.000000
  70
    32
  0
VERTEX
  8
0
  5
B6D
 10
321.799
 20
108.497
 30
0.000000
  70
    32
  0
VERTEX
  8
0
  5
B6E
 10
321.798
 20
108.497
 30
0.000000
  70
    32
  0
VERTEX
  8
0
  5
B6F
 10
321.798
 20
108.497
 30
0.000000
  70
    32
  0
VERTEX
  8
0
  5
B70
 10
321.797
 20
108.496
 30
0.000000
  70
    32
  0
VERTEX
  8
0
  5
B71
 10
321.797
 20
108.496
 30
0.000000
  70
    32
  0
VERTEX
  8
0
  5
B72
 10
321.796
 20
108.496
 30
0.000000
  70
    32
  0
VERTEX
  8
0
  5
B73
 10
321.796
 20
108.495
 30
0.000000
  70
    32
  0
VERTEX
  8
0
  5
B74
 10
321.795
 20
108.495
 30
0.000000
  70
    32
  0
VERTEX
  8
0
  5
B75
 10
321.794
 20
108.494
 30
0.000000
  70
    32
  0
VERTEX
  8
0
  5
B76
 10
321.794
 20
108.494
 30
0.000000
  70
    32
  0
VERTEX
  8
0
  5
B77
 10
321.793
 20
108.494
 30
0.000000
  70
    32
  0
VERTEX
  8
0
  5
B78
 10
321.793
 20
108.493
 30
0.000000
  70
    32
  0
VERTEX
  8
0
  5
B79
 10
321.792
 20
108.493
 30
0.000000
  70
    32
  0
VERTEX
  8
0
  5
B7A
 10
321.792
 20
108.493
 30
0.000000
  70
    32
  0
VERTEX
  8
0
  5
B7B
 10
321.791
 20
108.492
 30
0.000000
  70
    32
  0
VERTEX
  8
0
  5
B7C
 10
321.791
 20
108.492
 30
0.000000
  70
    32
  0
VERTEX
  8
0
  5
B7D
 10
321.790
 20
108.491
 30
0.000000
  70
    32
  0
VERTEX
  8
0
  5
B7E
 10
321.789
 20
108.491
 30
0.000000
  70
    32
  0
VERTEX
  8
0
  5
B7F
 10
321.789
 20
108.491
 30
0.000000
  70
    32
  0
VERTEX
  8
0
  5
B80
 10
321.788
 20
108.490
 30
0.000000
  70
    32
  0
VERTEX
  8
0
  5
B81
 10
321.788
 20
108.490
 30
0.000000
  70
    32
  0
VERTEX
  8
0
  5
B82
 10
321.787
 20
108.489
 30
0.000000
  70
    32
  0
VERTEX
  8
0
  5
B83
 10
321.787
 20
108.489
 30
0.000000
  70
    32
  0
VERTEX
  8
0
  5
B84
 10
321.786
 20
108.489
 30
0.000000
  70
    32
  0
VERTEX
  8
0
  5
B85
 10
321.786
 20
108.488
 30
0.000000
  70
    32
  0
VERTEX
  8
0
  5
B86
 10
321.785
 20
108.488
 30
0.000000
  70
    32
  0
VERTEX
  8
0
  5
B87
 10
321.785
 20
108.487
 30
0.000000
  70
    32
  0
VERTEX
  8
0
  5
B88
 10
321.784
 20
108.487
 30
0.000000
  70
    32
  0
VERTEX
  8
0
  5
B89
 10
321.784
 20
108.486
 30
0.000000
  70
    32
  0
VERTEX
  8
0
  5
B8A
 10
321.783
 20
108.486
 30
0.000000
  70
    32
  0
VERTEX
  8
0
  5
B8B
 10
321.783
 20
108.486
 30
0.000000
  70
    32
  0
VERTEX
  8
0
  5
B8C
 10
321.783
 20
108.485
 30
0.000000
  70
    32
  0
VERTEX
  8
0
  5
B8D
 10
321.782
 20
108.485
 30
0.000000
  70
    32
  0
VERTEX
  8
0
  5
B8E
 10
321.782
 20
108.484
 30
0.000000
  70
    32
  0
VERTEX
  8
0
  5
B8F
 10
321.781
 20
108.484
 30
0.000000
  70
    32
  0
VERTEX
  8
0
  5
B90
 10
321.781
 20
108.483
 30
0.000000
  70
    32
  0
VERTEX
  8
0
  5
B91
 10
321.780
 20
108.483
 30
0.000000
  70
    32
  0
VERTEX
  8
0
  5
B92
 10
321.780
 20
108.483
 30
0.000000
  70
    32
  0
VERTEX
  8
0
  5
B93
 10
321.779
 20
108.482
 30
0.000000
  70
    32
  0
VERTEX
  8
0
  5
B94
 10
321.779
 20
108.482
 30
0.000000
  70
    32
  0
VERTEX
  8
0
  5
B95
 10
321.779
 20
108.481
 30
0.000000
  70
    32
  0
VERTEX
  8
0
  5
B96
 10
321.778
 20
108.481
 30
0.000000
  70
    32
  0
VERTEX
  8
0
  5
B97
 10
321.778
 20
108.480
 30
0.000000
  70
    32
  0
VERTEX
  8
0
  5
B98
 10
321.777
 20
108.480
 30
0.000000
  70
    32
  0
VERTEX
  8
0
  5
B99
 10
321.777
 20
108.480
 30
0.000000
  70
    32
  0
VERTEX
  8
0
  5
B9A
 10
321.776
 20
108.479
 30
0.000000
  70
    32
  0
VERTEX
  8
0
  5
B9B
 10
321.776
 20
108.479
 30
0.000000
  70
    32
  0
VERTEX
  8
0
  5
B9C
 10
321.776
 20
108.478
 30
0.000000
  70
    32
  0
VERTEX
  8
0
  5
B9D
 10
321.775
 20
108.478
 30
0.000000
  70
    32
  0
VERTEX
  8
0
  5
B9E
 10
321.775
 20
108.477
 30
0.000000
  70
    32
  0
VERTEX
  8
0
  5
B9F
 10
321.775
 20
108.477
 30
0.000000
  70
    32
  0
VERTEX
  8
0
  5
BA0
 10
321.774
 20
108.476
 30
0.000000
  70
    32
  0
VERTEX
  8
0
  5
BA1
 10
321.774
 20
108.476
 30
0.000000
  70
    32
  0
VERTEX
  8
0
  5
BA2
 10
321.773
 20
108.476
 30
0.000000
  70
    32
  0
VERTEX
  8
0
  5
BA3
 10
321.773
 20
108.475
 30
0.000000
  70
    32
  0
VERTEX
  8
0
  5
BA4
 10
321.773
 20
108.475
 30
0.000000
  70
    32
  0
VERTEX
  8
0
  5
BA5
 10
321.772
 20
108.474
 30
0.000000
  70
    32
  0
VERTEX
  8
0
  5
BA6
 10
321.772
 20
108.474
 30
0.000000
  70
    32
  0
VERTEX
  8
0
  5
BA7
 10
321.772
 20
108.473
 30
0.000000
  70
    32
  0
VERTEX
  8
0
  5
BA8
 10
321.771
 20
108.473
 30
0.000000
  70
    32
  0
VERTEX
  8
0
  5
BA9
 10
321.771
 20
108.472
 30
0.000000
  70
    32
  0
VERTEX
  8
0
  5
BAA
 10
321.771
 20
108.472
 30
0.000000
  70
    32
  0
VERTEX
  8
0
  5
BAB
 10
321.770
 20
108.471
 30
0.000000
  70
    32
  0
VERTEX
  8
0
  5
BAC
 10
321.770
 20
108.471
 30
0.000000
  70
    32
  0
VERTEX
  8
0
  5
BAD
 10
321.770
 20
108.470
 30
0.000000
  70
    32
  0
VERTEX
  8
0
  5
BAE
 10
321.769
 20
108.470
 30
0.000000
  70
    32
  0
VERTEX
  8
0
  5
BAF
 10
321.769
 20
108.469
 30
0.000000
  70
    32
  0
VERTEX
  8
0
  5
BB0
 10
321.769
 20
108.469
 30
0.000000
  70
    32
  0
VERTEX
  8
0
  5
BB1
 10
321.769
 20
108.469
 30
0.000000
  70
    32
  0
VERTEX
  8
0
  5
BB2
 10
321.768
 20
108.468
 30
0.000000
  70
    32
  0
VERTEX
  8
0
  5
BB3
 10
321.768
 20
108.468
 30
0.000000
  70
    32
  0
VERTEX
  8
0
  5
BB4
 10
321.768
 20
108.467
 30
0.000000
  70
    32
  0
VERTEX
  8
0
  5
BB5
 10
321.767
 20
108.467
 30
0.000000
  70
    32
  0
VERTEX
  8
0
  5
BB6
 10
321.767
 20
108.466
 30
0.000000
  70
    32
  0
VERTEX
  8
0
  5
BB7
 10
321.767
 20
108.466
 30
0.000000
  70
    32
  0
VERTEX
  8
0
  5
BB8
 10
321.767
 20
108.465
 30
0.000000
  70
    32
  0
VERTEX
  8
0
  5
BB9
 10
321.766
 20
108.465
 30
0.000000
  70
    32
  0
VERTEX
  8
0
  5
BBA
 10
321.766
 20
108.464
 30
0.000000
  70
    32
  0
VERTEX
  8
0
  5
BBB
 10
321.766
 20
108.464
 30
0.000000
  70
    32
  0
VERTEX
  8
0
  5
BBC
 10
321.766
 20
108.463
 30
0.000000
  70
    32
  0
VERTEX
  8
0
  5
BBD
 10
321.765
 20
108.463
 30
0.000000
  70
    32
  0
VERTEX
  8
0
  5
BBE
 10
321.765
 20
108.462
 30
0.000000
  70
    32
  0
VERTEX
  8
0
  5
BBF
 10
321.765
 20
108.462
 30
0.000000
  70
    32
  0
VERTEX
  8
0
  5
BC0
 10
321.765
 20
108.461
 30
0.000000
  70
    32
  0
VERTEX
  8
0
  5
BC1
 10
321.765
 20
108.461
 30
0.000000
  70
    32
  0
VERTEX
  8
0
  5
BC2
 10
321.764
 20
108.460
 30
0.000000
  70
    32
  0
VERTEX
  8
0
  5
BC3
 10
321.764
 20
108.460
 30
0.000000
  70
    32
  0
VERTEX
  8
0
  5
BC4
 10
321.764
 20
108.459
 30
0.000000
  70
    32
  0
VERTEX
  8
0
  5
BC5
 10
321.764
 20
108.459
 30
0.000000
  70
    32
  0
VERTEX
  8
0
  5
BC6
 10
321.764
 20
108.458
 30
0.000000
  70
    32
  0
VERTEX
  8
0
  5
BC7
 10
321.763
 20
108.458
 30
0.000000
  70
    32
  0
VERTEX
  8
0
  5
BC8
 10
321.763
 20
108.457
 30
0.000000
  70
    32
  0
VERTEX
  8
0
  5
BC9
 10
321.763
 20
108.457
 30
0.000000
  70
    32
  0
VERTEX
  8
0
  5
BCA
 10
321.763
 20
108.456
 30
0.000000
  70
    32
  0
VERTEX
  8
0
  5
BCB
 10
321.763
 20
108.456
 30
0.000000
  70
    32
  0
VERTEX
  8
0
  5
BCC
 10
321.763
 20
108.455
 30
0.000000
  70
    32
  0
VERTEX
  8
0
  5
BCD
 10
321.763
 20
108.455
 30
0.000000
  70
    32
  0
VERTEX
  8
0
  5
BCE
 10
321.762
 20
108.454
 30
0.000000
  70
    32
  0
VERTEX
  8
0
  5
BCF
 10
321.762
 20
108.454
 30
0.000000
  70
    32
  0
VERTEX
  8
0
  5
BD0
 10
321.762
 20
108.453
 30
0.000000
  70
    32
  0
VERTEX
  8
0
  5
BD1
 10
321.762
 20
108.453
 30
0.000000
  70
    32
  0
VERTEX
  8
0
  5
BD2
 10
321.762
 20
108.453
 30
0.000000
  70
    32
  0
VERTEX
  8
0
  5
BD3
 10
321.762
 20
108.452
 30
0.000000
  70
    32
  0
VERTEX
  8
0
  5
BD4
 10
321.762
 20
108.452
 30
0.000000
  70
    32
  0
VERTEX
  8
0
  5
BD5
 10
321.762
 20
108.451
 30
0.000000
  70
    32
  0
VERTEX
  8
0
  5
BD6
 10
321.761
 20
108.451
 30
0.000000
  70
    32
  0
VERTEX
  8
0
  5
BD7
 10
321.761
 20
108.450
 30
0.000000
  70
    32
  0
VERTEX
  8
0
  5
BD8
 10
321.761
 20
108.450
 30
0.000000
  70
    32
  0
VERTEX
  8
0
  5
BD9
 10
321.761
 20
108.449
 30
0.000000
  70
    32
  0
VERTEX
  8
0
  5
BDA
 10
321.761
 20
108.449
 30
0.000000
  70
    32
  0
VERTEX
  8
0
  5
BDB
 10
321.761
 20
108.448
 30
0.000000
  70
    32
  0
VERTEX
  8
0
  5
BDC
 10
321.761
 20
108.448
 30
0.000000
  70
    32
  0
VERTEX
  8
0
  5
BDD
 10
321.761
 20
108.447
 30
0.000000
  70
    32
  0
VERTEX
  8
0
  5
BDE
 10
321.761
 20
108.447
 30
0.000000
  70
    32
  0
VERTEX
  8
0
  5
BDF
 10
321.761
 20
108.446
 30
0.000000
  70
    32
  0
VERTEX
  8
0
  5
BE0
 10
321.761
 20
108.446
 30
0.000000
  70
    32
  0
VERTEX
  8
0
  5
BE1
 10
321.761
 20
108.445
 30
0.000000
  70
    32
  0
VERTEX
  8
0
  5
BE2
 10
321.761
 20
108.445
 30
0.000000
  70
    32
  0
VERTEX
  8
0
  5
BE3
 10
321.761
 20
108.444
 30
0.000000
  70
    32
  0
VERTEX
  8
0
  5
BE4
 10
321.761
 20
108.444
 30
0.000000
  70
    32
  0
VERTEX
  8
0
  5
BE5
 10
321.761
 20
108.443
 30
0.000000
  70
    32
  0
VERTEX
  8
0
  5
BE6
 10
321.761
 20
108.443
 30
0.000000
  70
    32
  0
VERTEX
  8
0
  5
BE7
 10
321.761
 20
108.442
 30
0.000000
  70
    32
  0
VERTEX
  8
0
  5
BE8
 10
321.761
 20
108.442
 30
0.000000
  70
    32
  0
SEQEND
  8
0
  5
BE9
  0
LINE
  5
3D2
  8
0
  6
CONTINUOUS
 10
452.29250666669992
 20
183.7959819541
 30
0.0
 11
452.29250666669992
 21
183.82980970919999
 31
0.0
  0
LINE
  5
3D3
  8
0
  6
CONTINUOUS
 10
334.23757187069998
 20
104.49733925709999
 30
0.0
 11
452.29250666669992
 21
172.6490024659
 31
0.0
  0
POLYLINE
  5
3D4
  8
0
  6
CONTINUOUS
 10
333.99272536410001
 20
104.44046558122855
 30
0.0
 66
     1
 70
     8
  0
VERTEX
  8
0
  5
BEA
 10
333.993
 20
104.440
 30
0.000000
  70
    32
  0
VERTEX
  8
0
  5
BEB
 10
333.995
 20
104.440
 30
0.000000
  70
    32
  0
VERTEX
  8
0
  5
BEC
 10
333.997
 20
104.440
 30
0.000000
  70
    32
  0
VERTEX
  8
0
  5
BED
 10
333.999
 20
104.440
 30
0.000000
  70
    32
  0
VERTEX
  8
0
  5
BEE
 10
334.001
 20
104.441
 30
0.000000
  70
    32
  0
VERTEX
  8
0
  5
BEF
 10
334.003
 20
104.441
 30
0.000000
  70
    32
  0
VERTEX
  8
0
  5
BF0
 10
334.005
 20
104.441
 30
0.000000
  70
    32
  0
VERTEX
  8
0
  5
BF1
 10
334.008
 20
104.441
 30
0.000000
  70
    32
  0
VERTEX
  8
0
  5
BF2
 10
334.010
 20
104.441
 30
0.000000
  70
    32
  0
VERTEX
  8
0
  5
BF3
 10
334.012
 20
104.441
 30
0.000000
  70
    32
  0
VERTEX
  8
0
  5
BF4
 10
334.014
 20
104.441
 30
0.000000
  70
    32
  0
VERTEX
  8
0
  5
BF5
 10
334.016
 20
104.441
 30
0.000000
  70
    32
  0
VERTEX
  8
0
  5
BF6
 10
334.018
 20
104.441
 30
0.000000
  70
    32
  0
VERTEX
  8
0
  5
BF7
 10
334.020
 20
104.441
 30
0.000000
  70
    32
  0
VERTEX
  8
0
  5
BF8
 10
334.022
 20
104.441
 30
0.000000
  70
    32
  0
VERTEX
  8
0
  5
BF9
 10
334.024
 20
104.441
 30
0.000000
  70
    32
  0
VERTEX
  8
0
  5
BFA
 10
334.026
 20
104.441
 30
0.000000
  70
    32
  0
VERTEX
  8
0
  5
BFB
 10
334.029
 20
104.442
 30
0.000000
  70
    32
  0
VERTEX
  8
0
  5
BFC
 10
334.031
 20
104.442
 30
0.000000
  70
    32
  0
VERTEX
  8
0
  5
BFD
 10
334.033
 20
104.442
 30
0.000000
  70
    32
  0
VERTEX
  8
0
  5
BFE
 10
334.035
 20
104.442
 30
0.000000
  70
    32
  0
VERTEX
  8
0
  5
BFF
 10
334.037
 20
104.442
 30
0.000000
  70
    32
  0
VERTEX
  8
0
  5
C00
 10
334.039
 20
104.442
 30
0.000000
  70
    32
  0
VERTEX
  8
0
  5
C01
 10
334.041
 20
104.442
 30
0.000000
  70
    32
  0
VERTEX
  8
0
  5
C02
 10
334.043
 20
104.443
 30
0.000000
  70
    32
  0
VERTEX
  8
0
  5
C03
 10
334.045
 20
104.443
 30
0.000000
  70
    32
  0
VERTEX
  8
0
  5
C04
 10
334.047
 20
104.443
 30
0.000000
  70
    32
  0
VERTEX
  8
0
  5
C05
 10
334.050
 20
104.443
 30
0.000000
  70
    32
  0
VERTEX
  8
0
  5
C06
 10
334.052
 20
104.443
 30
0.000000
  70
    32
  0
VERTEX
  8
0
  5
C07
 10
334.054
 20
104.444
 30
0.000000
  70
    32
  0
VERTEX
  8
0
  5
C08
 10
334.056
 20
104.444
 30
0.000000
  70
    32
  0
VERTEX
  8
0
  5
C09
 10
334.058
 20
104.444
 30
0.000000
  70
    32
  0
VERTEX
  8
0
  5
C0A
 10
334.060
 20
104.444
 30
0.000000
  70
    32
  0
VERTEX
  8
0
  5
C0B
 10
334.062
 20
104.444
 30
0.000000
  70
    32
  0
VERTEX
  8
0
  5
C0C
 10
334.064
 20
104.445
 30
0.000000
  70
    32
  0
VERTEX
  8
0
  5
C0D
 10
334.066
 20
104.445
 30
0.000000
  70
    32
  0
VERTEX
  8
0
  5
C0E
 10
334.068
 20
104.445
 30
0.000000
  70
    32
  0
VERTEX
  8
0
  5
C0F
 10
334.070
 20
104.445
 30
0.000000
  70
    32
  0
VERTEX
  8
0
  5
C10
 10
334.072
 20
104.446
 30
0.000000
  70
    32
  0
VERTEX
  8
0
  5
C11
 10
334.074
 20
104.446
 30
0.000000
  70
    32
  0
VERTEX
  8
0
  5
C12
 10
334.076
 20
104.446
 30
0.000000
  70
    32
  0
VERTEX
  8
0
  5
C13
 10
334.078
 20
104.447
 30
0.000000
  70
    32
  0
VERTEX
  8
0
  5
C14
 10
334.081
 20
104.447
 30
0.000000
  70
    32
  0
VERTEX
  8
0
  5
C15
 10
334.083
 20
104.447
 30
0.000000
  70
    32
  0
VERTEX
  8
0
  5
C16
 10
334.085
 20
104.447
 30
0.000000
  70
    32
  0
VERTEX
  8
0
  5
C17
 10
334.087
 20
104.448
 30
0.000000
  70
    32
  0
VERTEX
  8
0
  5
C18
 10
334.089
 20
104.448
 30
0.000000
  70
    32
  0
VERTEX
  8
0
  5
C19
 10
334.091
 20
104.448
 30
0.000000
  70
    32
  0
VERTEX
  8
0
  5
C1A
 10
334.093
 20
104.449
 30
0.000000
  70
    32
  0
VERTEX
  8
0
  5
C1B
 10
334.095
 20
104.449
 30
0.000000
  70
    32
  0
VERTEX
  8
0
  5
C1C
 10
334.097
 20
104.450
 30
0.000000
  70
    32
  0
VERTEX
  8
0
  5
C1D
 10
334.099
 20
104.450
 30
0.000000
  70
    32
  0
VERTEX
  8
0
  5
C1E
 10
334.101
 20
104.450
 30
0.000000
  70
    32
  0
VERTEX
  8
0
  5
C1F
 10
334.103
 20
104.451
 30
0.000000
  70
    32
  0
VERTEX
  8
0
  5
C20
 10
334.105
 20
104.451
 30
0.000000
  70
    32
  0
VERTEX
  8
0
  5
C21
 10
334.107
 20
104.451
 30
0.000000
  70
    32
  0
VERTEX
  8
0
  5
C22
 10
334.109
 20
104.452
 30
0.000000
  70
    32
  0
VERTEX
  8
0
  5
C23
 10
334.111
 20
104.452
 30
0.000000
  70
    32
  0
VERTEX
  8
0
  5
C24
 10
334.113
 20
104.453
 30
0.000000
  70
    32
  0
VERTEX
  8
0
  5
C25
 10
334.115
 20
104.453
 30
0.000000
  70
    32
  0
VERTEX
  8
0
  5
C26
 10
334.117
 20
104.453
 30
0.000000
  70
    32
  0
VERTEX
  8
0
  5
C27
 10
334.119
 20
104.454
 30
0.000000
  70
    32
  0
VERTEX
  8
0
  5
C28
 10
334.121
 20
104.454
 30
0.000000
  70
    32
  0
VERTEX
  8
0
  5
C29
 10
334.123
 20
104.455
 30
0.000000
  70
    32
  0
VERTEX
  8
0
  5
C2A
 10
334.125
 20
104.455
 30
0.000000
  70
    32
  0
VERTEX
  8
0
  5
C2B
 10
334.127
 20
104.456
 30
0.000000
  70
    32
  0
VERTEX
  8
0
  5
C2C
 10
334.129
 20
104.456
 30
0.000000
  70
    32
  0
VERTEX
  8
0
  5
C2D
 10
334.131
 20
104.457
 30
0.000000
  70
    32
  0
VERTEX
  8
0
  5
C2E
 10
334.132
 20
104.457
 30
0.000000
  70
    32
  0
VERTEX
  8
0
  5
C2F
 10
334.134
 20
104.458
 30
0.000000
  70
    32
  0
VERTEX
  8
0
  5
C30
 10
334.136
 20
104.458
 30
0.000000
  70
    32
  0
VERTEX
  8
0
  5
C31
 10
334.138
 20
104.459
 30
0.000000
  70
    32
  0
VERTEX
  8
0
  5
C32
 10
334.140
 20
104.459
 30
0.000000
  70
    32
  0
VERTEX
  8
0
  5
C33
 10
334.142
 20
104.460
 30
0.000000
  70
    32
  0
VERTEX
  8
0
  5
C34
 10
334.144
 20
104.460
 30
0.000000
  70
    32
  0
VERTEX
  8
0
  5
C35
 10
334.146
 20
104.461
 30
0.000000
  70
    32
  0
VERTEX
  8
0
  5
C36
 10
334.148
 20
104.461
 30
0.000000
  70
    32
  0
VERTEX
  8
0
  5
C37
 10
334.150
 20
104.462
 30
0.000000
  70
    32
  0
VERTEX
  8
0
  5
C38
 10
334.152
 20
104.462
 30
0.000000
  70
    32
  0
VERTEX
  8
0
  5
C39
 10
334.154
 20
104.463
 30
0.000000
  70
    32
  0
VERTEX
  8
0
  5
C3A
 10
334.155
 20
104.463
 30
0.000000
  70
    32
  0
VERTEX
  8
0
  5
C3B
 10
334.157
 20
104.464
 30
0.000000
  70
    32
  0
VERTEX
  8
0
  5
C3C
 10
334.159
 20
104.464
 30
0.000000
  70
    32
  0
VERTEX
  8
0
  5
C3D
 10
334.161
 20
104.465
 30
0.000000
  70
    32
  0
VERTEX
  8
0
  5
C3E
 10
334.163
 20
104.466
 30
0.000000
  70
    32
  0
VERTEX
  8
0
  5
C3F
 10
334.165
 20
104.466
 30
0.000000
  70
    32
  0
VERTEX
  8
0
  5
C40
 10
334.167
 20
104.467
 30
0.000000
  70
    32
  0
VERTEX
  8
0
  5
C41
 10
334.168
 20
104.467
 30
0.000000
  70
    32
  0
VERTEX
  8
0
  5
C42
 10
334.170
 20
104.468
 30
0.000000
  70
    32
  0
VERTEX
  8
0
  5
C43
 10
334.172
 20
104.469
 30
0.000000
  70
    32
  0
VERTEX
  8
0
  5
C44
 10
334.174
 20
104.469
 30
0.000000
  70
    32
  0
VERTEX
  8
0
  5
C45
 10
334.176
 20
104.470
 30
0.000000
  70
    32
  0
VERTEX
  8
0
  5
C46
 10
334.177
 20
104.471
 30
0.000000
  70
    32
  0
VERTEX
  8
0
  5
C47
 10
334.179
 20
104.471
 30
0.000000
  70
    32
  0
VERTEX
  8
0
  5
C48
 10
334.181
 20
104.472
 30
0.000000
  70
    32
  0
VERTEX
  8
0
  5
C49
 10
334.183
 20
104.472
 30
0.000000
  70
    32
  0
VERTEX
  8
0
  5
C4A
 10
334.185
 20
104.473
 30
0.000000
  70
    32
  0
VERTEX
  8
0
  5
C4B
 10
334.186
 20
104.474
 30
0.000000
  70
    32
  0
VERTEX
  8
0
  5
C4C
 10
334.188
 20
104.474
 30
0.000000
  70
    32
  0
VERTEX
  8
0
  5
C4D
 10
334.190
 20
104.475
 30
0.000000
  70
    32
  0
VERTEX
  8
0
  5
C4E
 10
334.192
 20
104.476
 30
0.000000
  70
    32
  0
VERTEX
  8
0
  5
C4F
 10
334.193
 20
104.477
 30
0.000000
  70
    32
  0
VERTEX
  8
0
  5
C50
 10
334.195
 20
104.477
 30
0.000000
  70
    32
  0
VERTEX
  8
0
  5
C51
 10
334.197
 20
104.478
 30
0.000000
  70
    32
  0
VERTEX
  8
0
  5
C52
 10
334.199
 20
104.479
 30
0.000000
  70
    32
  0
VERTEX
  8
0
  5
C53
 10
334.200
 20
104.479
 30
0.000000
  70
    32
  0
VERTEX
  8
0
  5
C54
 10
334.202
 20
104.480
 30
0.000000
  70
    32
  0
VERTEX
  8
0
  5
C55
 10
334.204
 20
104.481
 30
0.000000
  70
    32
  0
VERTEX
  8
0
  5
C56
 10
334.205
 20
104.482
 30
0.000000
  70
    32
  0
VERTEX
  8
0
  5
C57
 10
334.207
 20
104.482
 30
0.000000
  70
    32
  0
VERTEX
  8
0
  5
C58
 10
334.209
 20
104.483
 30
0.000000
  70
    32
  0
VERTEX
  8
0
  5
C59
 10
334.210
 20
104.484
 30
0.000000
  70
    32
  0
VERTEX
  8
0
  5
C5A
 10
334.212
 20
104.485
 30
0.000000
  70
    32
  0
VERTEX
  8
0
  5
C5B
 10
334.214
 20
104.485
 30
0.000000
  70
    32
  0
VERTEX
  8
0
  5
C5C
 10
334.215
 20
104.486
 30
0.000000
  70
    32
  0
VERTEX
  8
0
  5
C5D
 10
334.217
 20
104.487
 30
0.000000
  70
    32
  0
VERTEX
  8
0
  5
C5E
 10
334.219
 20
104.488
 30
0.000000
  70
    32
  0
VERTEX
  8
0
  5
C5F
 10
334.220
 20
104.488
 30
0.000000
  70
    32
  0
VERTEX
  8
0
  5
C60
 10
334.222
 20
104.489
 30
0.000000
  70
    32
  0
VERTEX
  8
0
  5
C61
 10
334.224
 20
104.490
 30
0.000000
  70
    32
  0
VERTEX
  8
0
  5
C62
 10
334.225
 20
104.491
 30
0.000000
  70
    32
  0
VERTEX
  8
0
  5
C63
 10
334.227
 20
104.492
 30
0.000000
  70
    32
  0
VERTEX
  8
0
  5
C64
 10
334.228
 20
104.492
 30
0.000000
  70
    32
  0
VERTEX
  8
0
  5
C65
 10
334.230
 20
104.493
 30
0.000000
  70
    32
  0
VERTEX
  8
0
  5
C66
 10
334.231
 20
104.494
 30
0.000000
  70
    32
  0
VERTEX
  8
0
  5
C67
 10
334.233
 20
104.495
 30
0.000000
  70
    32
  0
VERTEX
  8
0
  5
C68
 10
334.235
 20
104.496
 30
0.000000
  70
    32
  0
VERTEX
  8
0
  5
C69
 10
334.236
 20
104.496
 30
0.000000
  70
    32
  0
VERTEX
  8
0
  5
C6A
 10
334.238
 20
104.497
 30
0.000000
  70
    32
  0
SEQEND
  8
0
  5
C6B
  0
LINE
  5
3D5
  8
0
  6
CONTINUOUS
 10
452.29250666669992
 20
172.6490024659
 30
0.0
 11
452.29250666669992
 21
172.73347300259999
 31
0.0
  0
LINE
  5
3D6
  8
0
  6
CONTINUOUS
 10
340.57207461450002
 20
108.0084663884
 30
0.0
 11
452.29250666669992
 21
172.50329900099999
 31
0.0
  0
LINE
  5
3D7
  8
0
  6
CONTINUOUS
 10
452.29250666669992
 20
172.50329900099999
 30
0.0
 11
452.29250666669992
 21
172.6490024659
 31
0.0
  0
POLYLINE
  5
3D8
  8
0
  6
CONTINUOUS
 10
582.8244184737373
 20
108.4415155595
 30
0.0
 66
     1
 70
     8
  0
VERTEX
  8
0
  5
C6C
 10
582.824
 20
108.442
 30
0.000000
  70
    32
  0
VERTEX
  8
0
  5
C6D
 10
582.824
 20
108.442
 30
0.000000
  70
    32
  0
VERTEX
  8
0
  5
C6E
 10
582.824
 20
108.443
 30
0.000000
  70
    32
  0
VERTEX
  8
0
  5
C6F
 10
582.824
 20
108.443
 30
0.000000
  70
    32
  0
VERTEX
  8
0
  5
C70
 10
582.824
 20
108.444
 30
0.000000
  70
    32
  0
VERTEX
  8
0
  5
C71
 10
582.824
 20
108.444
 30
0.000000
  70
    32
  0
VERTEX
  8
0
  5
C72
 10
582.824
 20
108.445
 30
0.000000
  70
    32
  0
VERTEX
  8
0
  5
C73
 10
582.824
 20
108.445
 30
0.000000
  70
    32
  0
VERTEX
  8
0
  5
C74
 10
582.824
 20
108.446
 30
0.000000
  70
    32
  0
VERTEX
  8
0
  5
C75
 10
582.824
 20
108.446
 30
0.000000
  70
    32
  0
VERTEX
  8
0
  5
C76
 10
582.824
 20
108.447
 30
0.000000
  70
    32
  0
VERTEX
  8
0
  5
C77
 10
582.824
 20
108.447
 30
0.000000
  70
    32
  0
VERTEX
  8
0
  5
C78
 10
582.824
 20
108.448
 30
0.000000
  70
    32
  0
VERTEX
  8
0
  5
C79
 10
582.824
 20
108.448
 30
0.000000
  70
    32
  0
VERTEX
  8
0
  5
C7A
 10
582.824
 20
108.449
 30
0.000000
  70
    32
  0
VERTEX
  8
0
  5
C7B
 10
582.824
 20
108.449
 30
0.000000
  70
    32
  0
VERTEX
  8
0
  5
C7C
 10
582.824
 20
108.450
 30
0.000000
  70
    32
  0
VERTEX
  8
0
  5
C7D
 10
582.824
 20
108.450
 30
0.000000
  70
    32
  0
VERTEX
  8
0
  5
C7E
 10
582.824
 20
108.451
 30
0.000000
  70
    32
  0
VERTEX
  8
0
  5
C7F
 10
582.823
 20
108.451
 30
0.000000
  70
    32
  0
VERTEX
  8
0
  5
C80
 10
582.823
 20
108.452
 30
0.000000
  70
    32
  0
VERTEX
  8
0
  5
C81
 10
582.823
 20
108.452
 30
0.000000
  70
    32
  0
VERTEX
  8
0
  5
C82
 10
582.823
 20
108.453
 30
0.000000
  70
    32
  0
VERTEX
  8
0
  5
C83
 10
582.823
 20
108.453
 30
0.000000
  70
    32
  0
VERTEX
  8
0
  5
C84
 10
582.823
 20
108.453
 30
0.000000
  70
    32
  0
VERTEX
  8
0
  5
C85
 10
582.823
 20
108.454
 30
0.000000
  70
    32
  0
VERTEX
  8
0
  5
C86
 10
582.823
 20
108.454
 30
0.000000
  70
    32
  0
VERTEX
  8
0
  5
C87
 10
582.822
 20
108.455
 30
0.000000
  70
    32
  0
VERTEX
  8
0
  5
C88
 10
582.822
 20
108.455
 30
0.000000
  70
    32
  0
VERTEX
  8
0
  5
C89
 10
582.822
 20
108.456
 30
0.000000
  70
    32
  0
VERTEX
  8
0
  5
C8A
 10
582.822
 20
108.456
 30
0.000000
  70
    32
  0
VERTEX
  8
0
  5
C8B
 10
582.822
 20
108.457
 30
0.000000
  70
    32
  0
VERTEX
  8
0
  5
C8C
 10
582.822
 20
108.457
 30
0.000000
  70
    32
  0
VERTEX
  8
0
  5
C8D
 10
582.822
 20
108.458
 30
0.000000
  70
    32
  0
VERTEX
  8
0
  5
C8E
 10
582.821
 20
108.458
 30
0.000000
  70
    32
  0
VERTEX
  8
0
  5
C8F
 10
582.821
 20
108.459
 30
0.000000
  70
    32
  0
VERTEX
  8
0
  5
C90
 10
582.821
 20
108.459
 30
0.000000
  70
    32
  0
VERTEX
  8
0
  5
C91
 10
582.821
 20
108.460
 30
0.000000
  70
    32
  0
VERTEX
  8
0
  5
C92
 10
582.821
 20
108.460
 30
0.000000
  70
    32
  0
VERTEX
  8
0
  5
C93
 10
582.820
 20
108.461
 30
0.000000
  70
    32
  0
VERTEX
  8
0
  5
C94
 10
582.820
 20
108.461
 30
0.000000
  70
    32
  0
VERTEX
  8
0
  5
C95
 10
582.820
 20
108.462
 30
0.000000
  70
    32
  0
VERTEX
  8
0
  5
C96
 10
582.820
 20
108.462
 30
0.000000
  70
    32
  0
VERTEX
  8
0
  5
C97
 10
582.820
 20
108.463
 30
0.000000
  70
    32
  0
VERTEX
  8
0
  5
C98
 10
582.819
 20
108.463
 30
0.000000
  70
    32
  0
VERTEX
  8
0
  5
C99
 10
582.819
 20
108.464
 30
0.000000
  70
    32
  0
VERTEX
  8
0
  5
C9A
 10
582.819
 20
108.464
 30
0.000000
  70
    32
  0
VERTEX
  8
0
  5
C9B
 10
582.819
 20
108.465
 30
0.000000
  70
    32
  0
VERTEX
  8
0
  5
C9C
 10
582.818
 20
108.465
 30
0.000000
  70
    32
  0
VERTEX
  8
0
  5
C9D
 10
582.818
 20
108.466
 30
0.000000
  70
    32
  0
VERTEX
  8
0
  5
C9E
 10
582.818
 20
108.466
 30
0.000000
  70
    32
  0
VERTEX
  8
0
  5
C9F
 10
582.818
 20
108.467
 30
0.000000
  70
    32
  0
VERTEX
  8
0
  5
CA0
 10
582.817
 20
108.467
 30
0.000000
  70
    32
  0
VERTEX
  8
0
  5
CA1
 10
582.817
 20
108.468
 30
0.000000
  70
    32
  0
VERTEX
  8
0
  5
CA2
 10
582.817
 20
108.468
 30
0.000000
  70
    32
  0
VERTEX
  8
0
  5
CA3
 10
582.816
 20
108.469
 30
0.000000
  70
    32
  0
VERTEX
  8
0
  5
CA4
 10
582.816
 20
108.469
 30
0.000000
  70
    32
  0
VERTEX
  8
0
  5
CA5
 10
582.816
 20
108.469
 30
0.000000
  70
    32
  0
VERTEX
  8
0
  5
CA6
 10
582.816
 20
108.470
 30
0.000000
  70
    32
  0
VERTEX
  8
0
  5
CA7
 10
582.815
 20
108.470
 30
0.000000
  70
    32
  0
VERTEX
  8
0
  5
CA8
 10
582.815
 20
108.471
 30
0.000000
  70
    32
  0
VERTEX
  8
0
  5
CA9
 10
582.815
 20
108.471
 30
0.000000
  70
    32
  0
VERTEX
  8
0
  5
CAA
 10
582.814
 20
108.472
 30
0.000000
  70
    32
  0
VERTEX
  8
0
  5
CAB
 10
582.814
 20
108.472
 30
0.000000
  70
    32
  0
VERTEX
  8
0
  5
CAC
 10
582.814
 20
108.473
 30
0.000000
  70
    32
  0
VERTEX
  8
0
  5
CAD
 10
582.813
 20
108.473
 30
0.000000
  70
    32
  0
VERTEX
  8
0
  5
CAE
 10
582.813
 20
108.474
 30
0.000000
  70
    32
  0
VERTEX
  8
0
  5
CAF
 10
582.813
 20
108.474
 30
0.000000
  70
    32
  0
VERTEX
  8
0
  5
CB0
 10
582.812
 20
108.475
 30
0.000000
  70
    32
  0
VERTEX
  8
0
  5
CB1
 10
582.812
 20
108.475
 30
0.000000
  70
    32
  0
VERTEX
  8
0
  5
CB2
 10
582.812
 20
108.476
 30
0.000000
  70
    32
  0
VERTEX
  8
0
  5
CB3
 10
582.811
 20
108.476
 30
0.000000
  70
    32
  0
VERTEX
  8
0
  5
CB4
 10
582.811
 20
108.476
 30
0.000000
  70
    32
  0
VERTEX
  8
0
  5
CB5
 10
582.810
 20
108.477
 30
0.000000
  70
    32
  0
VERTEX
  8
0
  5
CB6
 10
582.810
 20
108.477
 30
0.000000
  70
    32
  0
VERTEX
  8
0
  5
CB7
 10
582.810
 20
108.478
 30
0.000000
  70
    32
  0
VERTEX
  8
0
  5
CB8
 10
582.809
 20
108.478
 30
0.000000
  70
    32
  0
VERTEX
  8
0
  5
CB9
 10
582.809
 20
108.479
 30
0.000000
  70
    32
  0
VERTEX
  8
0
  5
CBA
 10
582.809
 20
108.479
 30
0.000000
  70
    32
  0
VERTEX
  8
0
  5
CBB
 10
582.808
 20
108.480
 30
0.000000
  70
    32
  0
VERTEX
  8
0
  5
CBC
 10
582.808
 20
108.480
 30
0.000000
  70
    32
  0
VERTEX
  8
0
  5
CBD
 10
582.807
 20
108.480
 30
0.000000
  70
    32
  0
VERTEX
  8
0
  5
CBE
 10
582.807
 20
108.481
 30
0.000000
  70
    32
  0
VERTEX
  8
0
  5
CBF
 10
582.806
 20
108.481
 30
0.000000
  70
    32
  0
VERTEX
  8
0
  5
CC0
 10
582.806
 20
108.482
 30
0.000000
  70
    32
  0
VERTEX
  8
0
  5
CC1
 10
582.806
 20
108.482
 30
0.000000
  70
    32
  0
VERTEX
  8
0
  5
CC2
 10
582.805
 20
108.483
 30
0.000000
  70
    32
  0
VERTEX
  8
0
  5
CC3
 10
582.805
 20
108.483
 30
0.000000
  70
    32
  0
VERTEX
  8
0
  5
CC4
 10
582.804
 20
108.483
 30
0.000000
  70
    32
  0
VERTEX
  8
0
  5
CC5
 10
582.804
 20
108.484
 30
0.000000
  70
    32
  0
VERTEX
  8
0
  5
CC6
 10
582.803
 20
108.484
 30
0.000000
  70
    32
  0
VERTEX
  8
0
  5
CC7
 10
582.803
 20
108.485
 30
0.000000
  70
    32
  0
VERTEX
  8
0
  5
CC8
 10
582.802
 20
108.485
 30
0.000000
  70
    32
  0
VERTEX
  8
0
  5
CC9
 10
582.802
 20
108.486
 30
0.000000
  70
    32
  0
VERTEX
  8
0
  5
CCA
 10
582.802
 20
108.486
 30
0.000000
  70
    32
  0
VERTEX
  8
0
  5
CCB
 10
582.801
 20
108.486
 30
0.000000
  70
    32
  0
VERTEX
  8
0
  5
CCC
 10
582.801
 20
108.487
 30
0.000000
  70
    32
  0
VERTEX
  8
0
  5
CCD
 10
582.800
 20
108.487
 30
0.000000
  70
    32
  0
VERTEX
  8
0
  5
CCE
 10
582.800
 20
108.488
 30
0.000000
  70
    32
  0
VERTEX
  8
0
  5
CCF
 10
582.799
 20
108.488
 30
0.000000
  70
    32
  0
VERTEX
  8
0
  5
CD0
 10
582.799
 20
108.489
 30
0.000000
  70
    32
  0
VERTEX
  8
0
  5
CD1
 10
582.798
 20
108.489
 30
0.000000
  70
    32
  0
VERTEX
  8
0
  5
CD2
 10
582.798
 20
108.489
 30
0.000000
  70
    32
  0
VERTEX
  8
0
  5
CD3
 10
582.797
 20
108.490
 30
0.000000
  70
    32
  0
VERTEX
  8
0
  5
CD4
 10
582.797
 20
108.490
 30
0.000000
  70
    32
  0
VERTEX
  8
0
  5
CD5
 10
582.796
 20
108.491
 30
0.000000
  70
    32
  0
VERTEX
  8
0
  5
CD6
 10
582.796
 20
108.491
 30
0.000000
  70
    32
  0
VERTEX
  8
0
  5
CD7
 10
582.795
 20
108.491
 30
0.000000
  70
    32
  0
VERTEX
  8
0
  5
CD8
 10
582.794
 20
108.492
 30
0.000000
  70
    32
  0
VERTEX
  8
0
  5
CD9
 10
582.794
 20
108.492
 30
0.000000
  70
    32
  0
VERTEX
  8
0
  5
CDA
 10
582.793
 20
108.493
 30
0.000000
  70
    32
  0
VERTEX
  8
0
  5
CDB
 10
582.793
 20
108.493
 30
0.000000
  70
    32
  0
VERTEX
  8
0
  5
CDC
 10
582.792
 20
108.493
 30
0.000000
  70
    32
  0
VERTEX
  8
0
  5
CDD
 10
582.792
 20
108.494
 30
0.000000
  70
    32
  0
VERTEX
  8
0
  5
CDE
 10
582.791
 20
108.494
 30
0.000000
  70
    32
  0
VERTEX
  8
0
  5
CDF
 10
582.791
 20
108.494
 30
0.000000
  70
    32
  0
VERTEX
  8
0
  5
CE0
 10
582.790
 20
108.495
 30
0.000000
  70
    32
  0
VERTEX
  8
0
  5
CE1
 10
582.790
 20
108.495
 30
0.000000
  70
    32
  0
VERTEX
  8
0
  5
CE2
 10
582.789
 20
108.496
 30
0.000000
  70
    32
  0
VERTEX
  8
0
  5
CE3
 10
582.788
 20
108.496
 30
0.000000
  70
    32
  0
VERTEX
  8
0
  5
CE4
 10
582.788
 20
108.496
 30
0.000000
  70
    32
  0
VERTEX
  8
0
  5
CE5
 10
582.787
 20
108.497
 30
0.000000
  70
    32
  0
VERTEX
  8
0
  5
CE6
 10
582.787
 20
108.497
 30
0.000000
  70
    32
  0
VERTEX
  8
0
  5
CE7
 10
582.786
 20
108.497
 30
0.000000
  70
    32
  0
VERTEX
  8
0
  5
CE8
 10
582.785
 20
108.498
 30
0.000000
  70
    32
  0
VERTEX
  8
0
  5
CE9
 10
582.785
 20
108.498
 30
0.000000
  70
    32
  0
VERTEX
  8
0
  5
CEA
 10
582.784
 20
108.499
 30
0.000000
  70
    32
  0
VERTEX
  8
0
  5
CEB
 10
582.784
 20
108.499
 30
0.000000
  70
    32
  0
VERTEX
  8
0
  5
CEC
 10
582.783
 20
108.499
 30
0.000000
  70
    32
  0
SEQEND
  8
0
  5
CED
  0
LINE
  5
3D9
  8
0
  6
CONTINUOUS
 10
582.82441537169996
 20
104.6446013751
 30
0.0
 11
582.82441537169996
 21
108.44151502370001
 31
0.0
  0
POLYLINE
  5
3DA
  8
0
  6
CONTINUOUS
 10
582.47086508309985
 20
104.44046558122852
 30
0.0
 66
     1
 70
     8
  0
VERTEX
  8
0
  5
CEE
 10
582.471
 20
104.440
 30
0.000000
  70
    32
  0
VERTEX
  8
0
  5
CEF
 10
582.475
 20
104.440
 30
0.000000
  70
    32
  0
VERTEX
  8
0
  5
CF0
 10
582.480
 20
104.441
 30
0.000000
  70
    32
  0
VERTEX
  8
0
  5
CF1
 10
582.484
 20
104.441
 30
0.000000
  70
    32
  0
VERTEX
  8
0
  5
CF2
 10
582.488
 20
104.441
 30
0.000000
  70
    32
  0
VERTEX
  8
0
  5
CF3
 10
582.493
 20
104.441
 30
0.000000
  70
    32
  0
VERTEX
  8
0
  5
CF4
 10
582.497
 20
104.441
 30
0.000000
  70
    32
  0
VERTEX
  8
0
  5
CF5
 10
582.501
 20
104.441
 30
0.000000
  70
    32
  0
VERTEX
  8
0
  5
CF6
 10
582.506
 20
104.441
 30
0.000000
  70
    32
  0
VERTEX
  8
0
  5
CF7
 10
582.510
 20
104.442
 30
0.000000
  70
    32
  0
VERTEX
  8
0
  5
CF8
 10
582.514
 20
104.442
 30
0.000000
  70
    32
  0
VERTEX
  8
0
  5
CF9
 10
582.518
 20
104.442
 30
0.000000
  70
    32
  0
VERTEX
  8
0
  5
CFA
 10
582.523
 20
104.443
 30
0.000000
  70
    32
  0
VERTEX
  8
0
  5
CFB
 10
582.527
 20
104.443
 30
0.000000
  70
    32
  0
VERTEX
  8
0
  5
CFC
 10
582.531
 20
104.443
 30
0.000000
  70
    32
  0
VERTEX
  8
0
  5
CFD
 10
582.536
 20
104.444
 30
0.000000
  70
    32
  0
VERTEX
  8
0
  5
CFE
 10
582.540
 20
104.444
 30
0.000000
  70
    32
  0
VERTEX
  8
0
  5
CFF
 10
582.544
 20
104.445
 30
0.000000
  70
    32
  0
VERTEX
  8
0
  5
D00
 10
582.548
 20
104.445
 30
0.000000
  70
    32
  0
VERTEX
  8
0
  5
D01
 10
582.553
 20
104.446
 30
0.000000
  70
    32
  0
VERTEX
  8
0
  5
D02
 10
582.557
 20
104.447
 30
0.000000
  70
    32
  0
VERTEX
  8
0
  5
D03
 10
582.561
 20
104.447
 30
0.000000
  70
    32
  0
VERTEX
  8
0
  5
D04
 10
582.565
 20
104.448
 30
0.000000
  70
    32
  0
VERTEX
  8
0
  5
D05
 10
582.569
 20
104.449
 30
0.000000
  70
    32
  0
VERTEX
  8
0
  5
D06
 10
582.573
 20
104.449
 30
0.000000
  70
    32
  0
VERTEX
  8
0
  5
D07
 10
582.578
 20
104.450
 30
0.000000
  70
    32
  0
VERTEX
  8
0
  5
D08
 10
582.582
 20
104.451
 30
0.000000
  70
    32
  0
VERTEX
  8
0
  5
D09
 10
582.586
 20
104.452
 30
0.000000
  70
    32
  0
VERTEX
  8
0
  5
D0A
 10
582.590
 20
104.452
 30
0.000000
  70
    32
  0
VERTEX
  8
0
  5
D0B
 10
582.594
 20
104.453
 30
0.000000
  70
    32
  0
VERTEX
  8
0
  5
D0C
 10
582.598
 20
104.454
 30
0.000000
  70
    32
  0
VERTEX
  8
0
  5
D0D
 10
582.602
 20
104.455
 30
0.000000
  70
    32
  0
VERTEX
  8
0
  5
D0E
 10
582.606
 20
104.456
 30
0.000000
  70
    32
  0
VERTEX
  8
0
  5
D0F
 10
582.610
 20
104.457
 30
0.000000
  70
    32
  0
VERTEX
  8
0
  5
D10
 10
582.614
 20
104.458
 30
0.000000
  70
    32
  0
VERTEX
  8
0
  5
D11
 10
582.618
 20
104.459
 30
0.000000
  70
    32
  0
VERTEX
  8
0
  5
D12
 10
582.622
 20
104.460
 30
0.000000
  70
    32
  0
VERTEX
  8
0
  5
D13
 10
582.626
 20
104.461
 30
0.000000
  70
    32
  0
VERTEX
  8
0
  5
D14
 10
582.630
 20
104.462
 30
0.000000
  70
    32
  0
VERTEX
  8
0
  5
D15
 10
582.634
 20
104.463
 30
0.000000
  70
    32
  0
VERTEX
  8
0
  5
D16
 10
582.638
 20
104.465
 30
0.000000
  70
    32
  0
VERTEX
  8
0
  5
D17
 10
582.641
 20
104.466
 30
0.000000
  70
    32
  0
VERTEX
  8
0
  5
D18
 10
582.645
 20
104.467
 30
0.000000
  70
    32
  0
VERTEX
  8
0
  5
D19
 10
582.649
 20
104.468
 30
0.000000
  70
    32
  0
VERTEX
  8
0
  5
D1A
 10
582.653
 20
104.470
 30
0.000000
  70
    32
  0
VERTEX
  8
0
  5
D1B
 10
582.656
 20
104.471
 30
0.000000
  70
    32
  0
VERTEX
  8
0
  5
D1C
 10
582.660
 20
104.472
 30
0.000000
  70
    32
  0
VERTEX
  8
0
  5
D1D
 10
582.664
 20
104.473
 30
0.000000
  70
    32
  0
VERTEX
  8
0
  5
D1E
 10
582.667
 20
104.475
 30
0.000000
  70
    32
  0
VERTEX
  8
0
  5
D1F
 10
582.671
 20
104.476
 30
0.000000
  70
    32
  0
VERTEX
  8
0
  5
D20
 10
582.674
 20
104.478
 30
0.000000
  70
    32
  0
VERTEX
  8
0
  5
D21
 10
582.678
 20
104.479
 30
0.000000
  70
    32
  0
VERTEX
  8
0
  5
D22
 10
582.681
 20
104.481
 30
0.000000
  70
    32
  0
VERTEX
  8
0
  5
D23
 10
582.685
 20
104.482
 30
0.000000
  70
    32
  0
VERTEX
  8
0
  5
D24
 10
582.688
 20
104.484
 30
0.000000
  70
    32
  0
VERTEX
  8
0
  5
D25
 10
582.692
 20
104.485
 30
0.000000
  70
    32
  0
VERTEX
  8
0
  5
D26
 10
582.695
 20
104.487
 30
0.000000
  70
    32
  0
VERTEX
  8
0
  5
D27
 10
582.698
 20
104.488
 30
0.000000
  70
    32
  0
VERTEX
  8
0
  5
D28
 10
582.702
 20
104.490
 30
0.000000
  70
    32
  0
VERTEX
  8
0
  5
D29
 10
582.705
 20
104.492
 30
0.000000
  70
    32
  0
VERTEX
  8
0
  5
D2A
 10
582.708
 20
104.493
 30
0.000000
  70
    32
  0
VERTEX
  8
0
  5
D2B
 10
582.711
 20
104.495
 30
0.000000
  70
    32
  0
VERTEX
  8
0
  5
D2C
 10
582.715
 20
104.497
 30
0.000000
  70
    32
  0
VERTEX
  8
0
  5
D2D
 10
582.718
 20
104.498
 30
0.000000
  70
    32
  0
VERTEX
  8
0
  5
D2E
 10
582.721
 20
104.500
 30
0.000000
  70
    32
  0
VERTEX
  8
0
  5
D2F
 10
582.724
 20
104.502
 30
0.000000
  70
    32
  0
VERTEX
  8
0
  5
D30
 10
582.727
 20
104.504
 30
0.000000
  70
    32
  0
VERTEX
  8
0
  5
D31
 10
582.730
 20
104.506
 30
0.000000
  70
    32
  0
VERTEX
  8
0
  5
D32
 10
582.733
 20
104.508
 30
0.000000
  70
    32
  0
VERTEX
  8
0
  5
D33
 10
582.736
 20
104.509
 30
0.000000
  70
    32
  0
VERTEX
  8
0
  5
D34
 10
582.739
 20
104.511
 30
0.000000
  70
    32
  0
VERTEX
  8
0
  5
D35
 10
582.741
 20
104.513
 30
0.000000
  70
    32
  0
VERTEX
  8
0
  5
D36
 10
582.744
 20
104.515
 30
0.000000
  70
    32
  0
VERTEX
  8
0
  5
D37
 10
582.747
 20
104.517
 30
0.000000
  70
    32
  0
VERTEX
  8
0
  5
D38
 10
582.750
 20
104.519
 30
0.000000
  70
    32
  0
VERTEX
  8
0
  5
D39
 10
582.752
 20
104.521
 30
0.000000
  70
    32
  0
VERTEX
  8
0
  5
D3A
 10
582.755
 20
104.523
 30
0.000000
  70
    32
  0
VERTEX
  8
0
  5
D3B
 10
582.757
 20
104.525
 30
0.000000
  70
    32
  0
VERTEX
  8
0
  5
D3C
 10
582.760
 20
104.527
 30
0.000000
  70
    32
  0
VERTEX
  8
0
  5
D3D
 10
582.762
 20
104.529
 30
0.000000
  70
    32
  0
VERTEX
  8
0
  5
D3E
 10
582.765
 20
104.531
 30
0.000000
  70
    32
  0
VERTEX
  8
0
  5
D3F
 10
582.767
 20
104.533
 30
0.000000
  70
    32
  0
VERTEX
  8
0
  5
D40
 10
582.770
 20
104.535
 30
0.000000
  70
    32
  0
VERTEX
  8
0
  5
D41
 10
582.772
 20
104.538
 30
0.000000
  70
    32
  0
VERTEX
  8
0
  5
D42
 10
582.774
 20
104.540
 30
0.000000
  70
    32
  0
VERTEX
  8
0
  5
D43
 10
582.776
 20
104.542
 30
0.000000
  70
    32
  0
VERTEX
  8
0
  5
D44
 10
582.778
 20
104.544
 30
0.000000
  70
    32
  0
VERTEX
  8
0
  5
D45
 10
582.781
 20
104.546
 30
0.000000
  70
    32
  0
VERTEX
  8
0
  5
D46
 10
582.783
 20
104.548
 30
0.000000
  70
    32
  0
VERTEX
  8
0
  5
D47
 10
582.785
 20
104.551
 30
0.000000
  70
    32
  0
VERTEX
  8
0
  5
D48
 10
582.787
 20
104.553
 30
0.000000
  70
    32
  0
VERTEX
  8
0
  5
D49
 10
582.789
 20
104.555
 30
0.000000
  70
    32
  0
VERTEX
  8
0
  5
D4A
 10
582.790
 20
104.557
 30
0.000000
  70
    32
  0
VERTEX
  8
0
  5
D4B
 10
582.792
 20
104.560
 30
0.000000
  70
    32
  0
VERTEX
  8
0
  5
D4C
 10
582.794
 20
104.562
 30
0.000000
  70
    32
  0
VERTEX
  8
0
  5
D4D
 10
582.796
 20
104.564
 30
0.000000
  70
    32
  0
VERTEX
  8
0
  5
D4E
 10
582.798
 20
104.566
 30
0.000000
  70
    32
  0
VERTEX
  8
0
  5
D4F
 10
582.799
 20
104.569
 30
0.000000
  70
    32
  0
VERTEX
  8
0
  5
D50
 10
582.801
 20
104.571
 30
0.000000
  70
    32
  0
VERTEX
  8
0
  5
D51
 10
582.802
 20
104.573
 30
0.000000
  70
    32
  0
VERTEX
  8
0
  5
D52
 10
582.804
 20
104.576
 30
0.000000
  70
    32
  0
VERTEX
  8
0
  5
D53
 10
582.805
 20
104.578
 30
0.000000
  70
    32
  0
VERTEX
  8
0
  5
D54
 10
582.807
 20
104.581
 30
0.000000
  70
    32
  0
VERTEX
  8
0
  5
D55
 10
582.808
 20
104.583
 30
0.000000
  70
    32
  0
VERTEX
  8
0
  5
D56
 10
582.809
 20
104.585
 30
0.000000
  70
    32
  0
VERTEX
  8
0
  5
D57
 10
582.810
 20
104.588
 30
0.000000
  70
    32
  0
VERTEX
  8
0
  5
D58
 10
582.812
 20
104.590
 30
0.000000
  70
    32
  0
VERTEX
  8
0
  5
D59
 10
582.813
 20
104.593
 30
0.000000
  70
    32
  0
VERTEX
  8
0
  5
D5A
 10
582.814
 20
104.595
 30
0.000000
  70
    32
  0
VERTEX
  8
0
  5
D5B
 10
582.815
 20
104.597
 30
0.000000
  70
    32
  0
VERTEX
  8
0
  5
D5C
 10
582.816
 20
104.600
 30
0.000000
  70
    32
  0
VERTEX
  8
0
  5
D5D
 10
582.817
 20
104.602
 30
0.000000
  70
    32
  0
VERTEX
  8
0
  5
D5E
 10
582.818
 20
104.605
 30
0.000000
  70
    32
  0
VERTEX
  8
0
  5
D5F
 10
582.818
 20
104.607
 30
0.000000
  70
    32
  0
VERTEX
  8
0
  5
D60
 10
582.819
 20
104.610
 30
0.000000
  70
    32
  0
VERTEX
  8
0
  5
D61
 10
582.820
 20
104.612
 30
0.000000
  70
    32
  0
VERTEX
  8
0
  5
D62
 10
582.821
 20
104.615
 30
0.000000
  70
    32
  0
VERTEX
  8
0
  5
D63
 10
582.821
 20
104.617
 30
0.000000
  70
    32
  0
VERTEX
  8
0
  5
D64
 10
582.822
 20
104.620
 30
0.000000
  70
    32
  0
VERTEX
  8
0
  5
D65
 10
582.822
 20
104.622
 30
0.000000
  70
    32
  0
VERTEX
  8
0
  5
D66
 10
582.823
 20
104.625
 30
0.000000
  70
    32
  0
VERTEX
  8
0
  5
D67
 10
582.823
 20
104.627
 30
0.000000
  70
    32
  0
VERTEX
  8
0
  5
D68
 10
582.823
 20
104.630
 30
0.000000
  70
    32
  0
VERTEX
  8
0
  5
D69
 10
582.824
 20
104.632
 30
0.000000
  70
    32
  0
VERTEX
  8
0
  5
D6A
 10
582.824
 20
104.635
 30
0.000000
  70
    32
  0
VERTEX
  8
0
  5
D6B
 10
582.824
 20
104.637
 30
0.000000
  70
    32
  0
VERTEX
  8
0
  5
D6C
 10
582.824
 20
104.640
 30
0.000000
  70
    32
  0
VERTEX
  8
0
  5
D6D
 10
582.824
 20
104.642
 30
0.000000
  70
    32
  0
VERTEX
  8
0
  5
D6E
 10
582.824
 20
104.645
 30
0.000000
  70
    32
  0
SEQEND
  8
0
  5
D6F
  0
LINE
  5
3DB
  8
0
  6
CONTINUOUS
 10
570.59228304229987
 20
104.44046575839999
 30
0.0
 11
582.47086653300005
 21
104.44046575839999
 31
0.0
  0
POLYLINE
  5
3DC
  8
0
  6
CONTINUOUS
 10
570.34744099324985
 20
104.49734023700026
 30
0.0
 66
     1
 70
     8
  0
VERTEX
  8
0
  5
D70
 10
570.347
 20
104.497
 30
0.000000
  70
    32
  0
VERTEX
  8
0
  5
D71
 10
570.349
 20
104.496
 30
0.000000
  70
    32
  0
VERTEX
  8
0
  5
D72
 10
570.351
 20
104.496
 30
0.000000
  70
    32
  0
VERTEX
  8
0
  5
D73
 10
570.352
 20
104.495
 30
0.000000
  70
    32
  0
VERTEX
  8
0
  5
D74
 10
570.354
 20
104.494
 30
0.000000
  70
    32
  0
VERTEX
  8
0
  5
D75
 10
570.355
 20
104.493
 30
0.000000
  70
    32
  0
VERTEX
  8
0
  5
D76
 10
570.357
 20
104.492
 30
0.000000
  70
    32
  0
VERTEX
  8
0
  5
D77
 10
570.358
 20
104.492
 30
0.000000
  70
    32
  0
VERTEX
  8
0
  5
D78
 10
570.360
 20
104.491
 30
0.000000
  70
    32
  0
VERTEX
  8
0
  5
D79
 10
570.362
 20
104.490
 30
0.000000
  70
    32
  0
VERTEX
  8
0
  5
D7A
 10
570.363
 20
104.489
 30
0.000000
  70
    32
  0
VERTEX
  8
0
  5
D7B
 10
570.365
 20
104.488
 30
0.000000
  70
    32
  0
VERTEX
  8
0
  5
D7C
 10
570.366
 20
104.488
 30
0.000000
  70
    32
  0
VERTEX
  8
0
  5
D7D
 10
570.368
 20
104.487
 30
0.000000
  70
    32
  0
VERTEX
  8
0
  5
D7E
 10
570.370
 20
104.486
 30
0.000000
  70
    32
  0
VERTEX
  8
0
  5
D7F
 10
570.371
 20
104.485
 30
0.000000
  70
    32
  0
VERTEX
  8
0
  5
D80
 10
570.373
 20
104.485
 30
0.000000
  70
    32
  0
VERTEX
  8
0
  5
D81
 10
570.375
 20
104.484
 30
0.000000
  70
    32
  0
VERTEX
  8
0
  5
D82
 10
570.376
 20
104.483
 30
0.000000
  70
    32
  0
VERTEX
  8
0
  5
D83
 10
570.378
 20
104.482
 30
0.000000
  70
    32
  0
VERTEX
  8
0
  5
D84
 10
570.380
 20
104.482
 30
0.000000
  70
    32
  0
VERTEX
  8
0
  5
D85
 10
570.381
 20
104.481
 30
0.000000
  70
    32
  0
VERTEX
  8
0
  5
D86
 10
570.383
 20
104.480
 30
0.000000
  70
    32
  0
VERTEX
  8
0
  5
D87
 10
570.385
 20
104.479
 30
0.000000
  70
    32
  0
VERTEX
  8
0
  5
D88
 10
570.386
 20
104.479
 30
0.000000
  70
    32
  0
VERTEX
  8
0
  5
D89
 10
570.388
 20
104.478
 30
0.000000
  70
    32
  0
VERTEX
  8
0
  5
D8A
 10
570.390
 20
104.477
 30
0.000000
  70
    32
  0
VERTEX
  8
0
  5
D8B
 10
570.392
 20
104.477
 30
0.000000
  70
    32
  0
VERTEX
  8
0
  5
D8C
 10
570.393
 20
104.476
 30
0.000000
  70
    32
  0
VERTEX
  8
0
  5
D8D
 10
570.395
 20
104.475
 30
0.000000
  70
    32
  0
VERTEX
  8
0
  5
D8E
 10
570.397
 20
104.474
 30
0.000000
  70
    32
  0
VERTEX
  8
0
  5
D8F
 10
570.399
 20
104.474
 30
0.000000
  70
    32
  0
VERTEX
  8
0
  5
D90
 10
570.400
 20
104.473
 30
0.000000
  70
    32
  0
VERTEX
  8
0
  5
D91
 10
570.402
 20
104.472
 30
0.000000
  70
    32
  0
VERTEX
  8
0
  5
D92
 10
570.404
 20
104.472
 30
0.000000
  70
    32
  0
VERTEX
  8
0
  5
D93
 10
570.406
 20
104.471
 30
0.000000
  70
    32
  0
VERTEX
  8
0
  5
D94
 10
570.408
 20
104.471
 30
0.000000
  70
    32
  0
VERTEX
  8
0
  5
D95
 10
570.409
 20
104.470
 30
0.000000
  70
    32
  0
VERTEX
  8
0
  5
D96
 10
570.411
 20
104.469
 30
0.000000
  70
    32
  0
VERTEX
  8
0
  5
D97
 10
570.413
 20
104.469
 30
0.000000
  70
    32
  0
VERTEX
  8
0
  5
D98
 10
570.415
 20
104.468
 30
0.000000
  70
    32
  0
VERTEX
  8
0
  5
D99
 10
570.417
 20
104.467
 30
0.000000
  70
    32
  0
VERTEX
  8
0
  5
D9A
 10
570.418
 20
104.467
 30
0.000000
  70
    32
  0
VERTEX
  8
0
  5
D9B
 10
570.420
 20
104.466
 30
0.000000
  70
    32
  0
VERTEX
  8
0
  5
D9C
 10
570.422
 20
104.466
 30
0.000000
  70
    32
  0
VERTEX
  8
0
  5
D9D
 10
570.424
 20
104.465
 30
0.000000
  70
    32
  0
VERTEX
  8
0
  5
D9E
 10
570.426
 20
104.464
 30
0.000000
  70
    32
  0
VERTEX
  8
0
  5
D9F
 10
570.428
 20
104.464
 30
0.000000
  70
    32
  0
VERTEX
  8
0
  5
DA0
 10
570.430
 20
104.463
 30
0.000000
  70
    32
  0
VERTEX
  8
0
  5
DA1
 10
570.431
 20
104.463
 30
0.000000
  70
    32
  0
VERTEX
  8
0
  5
DA2
 10
570.433
 20
104.462
 30
0.000000
  70
    32
  0
VERTEX
  8
0
  5
DA3
 10
570.435
 20
104.462
 30
0.000000
  70
    32
  0
VERTEX
  8
0
  5
DA4
 10
570.437
 20
104.461
 30
0.000000
  70
    32
  0
VERTEX
  8
0
  5
DA5
 10
570.439
 20
104.461
 30
0.000000
  70
    32
  0
VERTEX
  8
0
  5
DA6
 10
570.441
 20
104.460
 30
0.000000
  70
    32
  0
VERTEX
  8
0
  5
DA7
 10
570.443
 20
104.460
 30
0.000000
  70
    32
  0
VERTEX
  8
0
  5
DA8
 10
570.445
 20
104.459
 30
0.000000
  70
    32
  0
VERTEX
  8
0
  5
DA9
 10
570.447
 20
104.459
 30
0.000000
  70
    32
  0
VERTEX
  8
0
  5
DAA
 10
570.449
 20
104.458
 30
0.000000
  70
    32
  0
VERTEX
  8
0
  5
DAB
 10
570.451
 20
104.458
 30
0.000000
  70
    32
  0
VERTEX
  8
0
  5
DAC
 10
570.453
 20
104.457
 30
0.000000
  70
    32
  0
VERTEX
  8
0
  5
DAD
 10
570.454
 20
104.457
 30
0.000000
  70
    32
  0
VERTEX
  8
0
  5
DAE
 10
570.456
 20
104.456
 30
0.000000
  70
    32
  0
VERTEX
  8
0
  5
DAF
 10
570.458
 20
104.456
 30
0.000000
  70
    32
  0
VERTEX
  8
0
  5
DB0
 10
570.460
 20
104.455
 30
0.000000
  70
    32
  0
VERTEX
  8
0
  5
DB1
 10
570.462
 20
104.455
 30
0.000000
  70
    32
  0
VERTEX
  8
0
  5
DB2
 10
570.464
 20
104.454
 30
0.000000
  70
    32
  0
VERTEX
  8
0
  5
DB3
 10
570.466
 20
104.454
 30
0.000000
  70
    32
  0
VERTEX
  8
0
  5
DB4
 10
570.468
 20
104.453
 30
0.000000
  70
    32
  0
VERTEX
  8
0
  5
DB5
 10
570.470
 20
104.453
 30
0.000000
  70
    32
  0
VERTEX
  8
0
  5
DB6
 10
570.472
 20
104.453
 30
0.000000
  70
    32
  0
VERTEX
  8
0
  5
DB7
 10
570.474
 20
104.452
 30
0.000000
  70
    32
  0
VERTEX
  8
0
  5
DB8
 10
570.476
 20
104.452
 30
0.000000
  70
    32
  0
VERTEX
  8
0
  5
DB9
 10
570.478
 20
104.451
 30
0.000000
  70
    32
  0
VERTEX
  8
0
  5
DBA
 10
570.480
 20
104.451
 30
0.000000
  70
    32
  0
VERTEX
  8
0
  5
DBB
 10
570.482
 20
104.451
 30
0.000000
  70
    32
  0
VERTEX
  8
0
  5
DBC
 10
570.484
 20
104.450
 30
0.000000
  70
    32
  0
VERTEX
  8
0
  5
DBD
 10
570.486
 20
104.450
 30
0.000000
  70
    32
  0
VERTEX
  8
0
  5
DBE
 10
570.488
 20
104.450
 30
0.000000
  70
    32
  0
VERTEX
  8
0
  5
DBF
 10
570.490
 20
104.449
 30
0.000000
  70
    32
  0
VERTEX
  8
0
  5
DC0
 10
570.492
 20
104.449
 30
0.000000
  70
    32
  0
VERTEX
  8
0
  5
DC1
 10
570.494
 20
104.448
 30
0.000000
  70
    32
  0
VERTEX
  8
0
  5
DC2
 10
570.496
 20
104.448
 30
0.000000
  70
    32
  0
VERTEX
  8
0
  5
DC3
 10
570.498
 20
104.448
 30
0.000000
  70
    32
  0
VERTEX
  8
0
  5
DC4
 10
570.500
 20
104.447
 30
0.000000
  70
    32
  0
VERTEX
  8
0
  5
DC5
 10
570.502
 20
104.447
 30
0.000000
  70
    32
  0
VERTEX
  8
0
  5
DC6
 10
570.504
 20
104.447
 30
0.000000
  70
    32
  0
VERTEX
  8
0
  5
DC7
 10
570.507
 20
104.447
 30
0.000000
  70
    32
  0
VERTEX
  8
0
  5
DC8
 10
570.509
 20
104.446
 30
0.000000
  70
    32
  0
VERTEX
  8
0
  5
DC9
 10
570.511
 20
104.446
 30
0.000000
  70
    32
  0
VERTEX
  8
0
  5
DCA
 10
570.513
 20
104.446
 30
0.000000
  70
    32
  0
VERTEX
  8
0
  5
DCB
 10
570.515
 20
104.445
 30
0.000000
  70
    32
  0
VERTEX
  8
0
  5
DCC
 10
570.517
 20
104.445
 30
0.000000
  70
    32
  0
VERTEX
  8
0
  5
DCD
 10
570.519
 20
104.445
 30
0.000000
  70
    32
  0
VERTEX
  8
0
  5
DCE
 10
570.521
 20
104.445
 30
0.000000
  70
    32
  0
VERTEX
  8
0
  5
DCF
 10
570.523
 20
104.444
 30
0.000000
  70
    32
  0
VERTEX
  8
0
  5
DD0
 10
570.525
 20
104.444
 30
0.000000
  70
    32
  0
VERTEX
  8
0
  5
DD1
 10
570.527
 20
104.444
 30
0.000000
  70
    32
  0
VERTEX
  8
0
  5
DD2
 10
570.529
 20
104.444
 30
0.000000
  70
    32
  0
VERTEX
  8
0
  5
DD3
 10
570.531
 20
104.444
 30
0.000000
  70
    32
  0
VERTEX
  8
0
  5
DD4
 10
570.533
 20
104.443
 30
0.000000
  70
    32
  0
VERTEX
  8
0
  5
DD5
 10
570.535
 20
104.443
 30
0.000000
  70
    32
  0
VERTEX
  8
0
  5
DD6
 10
570.538
 20
104.443
 30
0.000000
  70
    32
  0
VERTEX
  8
0
  5
DD7
 10
570.540
 20
104.443
 30
0.000000
  70
    32
  0
VERTEX
  8
0
  5
DD8
 10
570.542
 20
104.443
 30
0.000000
  70
    32
  0
VERTEX
  8
0
  5
DD9
 10
570.544
 20
104.442
 30
0.000000
  70
    32
  0
VERTEX
  8
0
  5
DDA
 10
570.546
 20
104.442
 30
0.000000
  70
    32
  0
VERTEX
  8
0
  5
DDB
 10
570.548
 20
104.442
 30
0.000000
  70
    32
  0
VERTEX
  8
0
  5
DDC
 10
570.550
 20
104.442
 30
0.000000
  70
    32
  0
VERTEX
  8
0
  5
DDD
 10
570.552
 20
104.442
 30
0.000000
  70
    32
  0
VERTEX
  8
0
  5
DDE
 10
570.554
 20
104.442
 30
0.000000
  70
    32
  0
VERTEX
  8
0
  5
DDF
 10
570.556
 20
104.442
 30
0.000000
  70
    32
  0
VERTEX
  8
0
  5
DE0
 10
570.559
 20
104.441
 30
0.000000
  70
    32
  0
VERTEX
  8
0
  5
DE1
 10
570.561
 20
104.441
 30
0.000000
  70
    32
  0
VERTEX
  8
0
  5
DE2
 10
570.563
 20
104.441
 30
0.000000
  70
    32
  0
VERTEX
  8
0
  5
DE3
 10
570.565
 20
104.441
 30
0.000000
  70
    32
  0
VERTEX
  8
0
  5
DE4
 10
570.567
 20
104.441
 30
0.000000
  70
    32
  0
VERTEX
  8
0
  5
DE5
 10
570.569
 20
104.441
 30
0.000000
  70
    32
  0
VERTEX
  8
0
  5
DE6
 10
570.571
 20
104.441
 30
0.000000
  70
    32
  0
VERTEX
  8
0
  5
DE7
 10
570.573
 20
104.441
 30
0.000000
  70
    32
  0
VERTEX
  8
0
  5
DE8
 10
570.575
 20
104.441
 30
0.000000
  70
    32
  0
VERTEX
  8
0
  5
DE9
 10
570.578
 20
104.441
 30
0.000000
  70
    32
  0
VERTEX
  8
0
  5
DEA
 10
570.580
 20
104.441
 30
0.000000
  70
    32
  0
VERTEX
  8
0
  5
DEB
 10
570.582
 20
104.441
 30
0.000000
  70
    32
  0
VERTEX
  8
0
  5
DEC
 10
570.584
 20
104.441
 30
0.000000
  70
    32
  0
VERTEX
  8
0
  5
DED
 10
570.586
 20
104.440
 30
0.000000
  70
    32
  0
VERTEX
  8
0
  5
DEE
 10
570.588
 20
104.440
 30
0.000000
  70
    32
  0
VERTEX
  8
0
  5
DEF
 10
570.590
 20
104.440
 30
0.000000
  70
    32
  0
VERTEX
  8
0
  5
DF0
 10
570.592
 20
104.440
 30
0.000000
  70
    32
  0
SEQEND
  8
0
  5
DF1
  0
LINE
  5
3DD
  8
0
  6
CONTINUOUS
 10
570.34744146260005
 20
104.49733925709999
 30
0.0
 11
564.01293871879989
 21
108.0084663884
 31
0.0
  0
LINE
  5
3DE
  8
0
  6
CONTINUOUS
 10
570.59228304229987
 20
104.44046575839999
 30
0.0
 11
452.29250666669992
 21
36.147458514299998
 31
0.0
  0
LINE
  5
3DF
  8
0
  6
CONTINUOUS
 10
582.47086653300005
 20
104.44046575839999
 30
0.0
 11
452.29250666669992
 21
29.290098228200002
 31
0.0
  0
LINE
  5
3E0
  8
0
  6
CONTINUOUS
 10
564.01293871879989
 20
108.0084663884
 30
0.0
 11
452.29250666669992
 21
43.513633775800002
 31
0.0
  0
LINE
  5
3E1
  8
0
  6
CONTINUOUS
 10
570.34744146260005
 20
104.49733925709999
 30
0.0
 11
452.29250666669992
 21
36.345676048400001
 31
0.0
  0
LINE
  5
3E2
  8
0
  6
CONTINUOUS
 10
452.29250666669992
 20
29.290098228200002
 30
0.0
 11
452.29250666669992
 21
29.2055642951
 31
0.0
  0
LINE
  5
3E3
  8
0
  6
CONTINUOUS
 10
452.29250666669992
 20
36.345676048400001
 30
0.0
 11
452.29250666669992
 21
36.147458514299998
 31
0.0
  0
LINE
  5
3E4
  8
0
  6
CONTINUOUS
 10
452.29250666669992
 20
43.808213804499999
 30
0.0
 11
452.29250666669992
 21
43.513633775800002
 31
0.0
  0
POLYLINE
  5
3E5
  8
0
  6
CONTINUOUS
 10
582.47086508309985
 20
104.44046558122845
 30
0.0
 66
     1
 70
     8
  0
VERTEX
  8
0
  5
DF2
 10
582.471
 20
104.440
 30
0.000000
  70
    32
  0
VERTEX
  8
0
  5
DF3
 10
582.475
 20
104.440
 30
0.000000
  70
    32
  0
VERTEX
  8
0
  5
DF4
 10
582.480
 20
104.441
 30
0.000000
  70
    32
  0
VERTEX
  8
0
  5
DF5
 10
582.484
 20
104.441
 30
0.000000
  70
    32
  0
VERTEX
  8
0
  5
DF6
 10
582.488
 20
104.441
 30
0.000000
  70
    32
  0
VERTEX
  8
0
  5
DF7
 10
582.493
 20
104.441
 30
0.000000
  70
    32
  0
VERTEX
  8
0
  5
DF8
 10
582.497
 20
104.441
 30
0.000000
  70
    32
  0
VERTEX
  8
0
  5
DF9
 10
582.501
 20
104.441
 30
0.000000
  70
    32
  0
VERTEX
  8
0
  5
DFA
 10
582.506
 20
104.441
 30
0.000000
  70
    32
  0
VERTEX
  8
0
  5
DFB
 10
582.510
 20
104.442
 30
0.000000
  70
    32
  0
VERTEX
  8
0
  5
DFC
 10
582.514
 20
104.442
 30
0.000000
  70
    32
  0
VERTEX
  8
0
  5
DFD
 10
582.518
 20
104.442
 30
0.000000
  70
    32
  0
VERTEX
  8
0
  5
DFE
 10
582.523
 20
104.443
 30
0.000000
  70
    32
  0
VERTEX
  8
0
  5
DFF
 10
582.527
 20
104.443
 30
0.000000
  70
    32
  0
VERTEX
  8
0
  5
E00
 10
582.531
 20
104.443
 30
0.000000
  70
    32
  0
VERTEX
  8
0
  5
E01
 10
582.536
 20
104.444
 30
0.000000
  70
    32
  0
VERTEX
  8
0
  5
E02
 10
582.540
 20
104.444
 30
0.000000
  70
    32
  0
VERTEX
  8
0
  5
E03
 10
582.544
 20
104.445
 30
0.000000
  70
    32
  0
VERTEX
  8
0
  5
E04
 10
582.548
 20
104.445
 30
0.000000
  70
    32
  0
VERTEX
  8
0
  5
E05
 10
582.553
 20
104.446
 30
0.000000
  70
    32
  0
VERTEX
  8
0
  5
E06
 10
582.557
 20
104.447
 30
0.000000
  70
    32
  0
VERTEX
  8
0
  5
E07
 10
582.561
 20
104.447
 30
0.000000
  70
    32
  0
VERTEX
  8
0
  5
E08
 10
582.565
 20
104.448
 30
0.000000
  70
    32
  0
VERTEX
  8
0
  5
E09
 10
582.569
 20
104.449
 30
0.000000
  70
    32
  0
VERTEX
  8
0
  5
E0A
 10
582.573
 20
104.449
 30
0.000000
  70
    32
  0
VERTEX
  8
0
  5
E0B
 10
582.578
 20
104.450
 30
0.000000
  70
    32
  0
VERTEX
  8
0
  5
E0C
 10
582.582
 20
104.451
 30
0.000000
  70
    32
  0
VERTEX
  8
0
  5
E0D
 10
582.586
 20
104.452
 30
0.000000
  70
    32
  0
VERTEX
  8
0
  5
E0E
 10
582.590
 20
104.452
 30
0.000000
  70
    32
  0
VERTEX
  8
0
  5
E0F
 10
582.594
 20
104.453
 30
0.000000
  70
    32
  0
VERTEX
  8
0
  5
E10
 10
582.598
 20
104.454
 30
0.000000
  70
    32
  0
VERTEX
  8
0
  5
E11
 10
582.602
 20
104.455
 30
0.000000
  70
    32
  0
VERTEX
  8
0
  5
E12
 10
582.606
 20
104.456
 30
0.000000
  70
    32
  0
VERTEX
  8
0
  5
E13
 10
582.610
 20
104.457
 30
0.000000
  70
    32
  0
VERTEX
  8
0
  5
E14
 10
582.614
 20
104.458
 30
0.000000
  70
    32
  0
VERTEX
  8
0
  5
E15
 10
582.618
 20
104.459
 30
0.000000
  70
    32
  0
VERTEX
  8
0
  5
E16
 10
582.622
 20
104.460
 30
0.000000
  70
    32
  0
VERTEX
  8
0
  5
E17
 10
582.626
 20
104.461
 30
0.000000
  70
    32
  0
VERTEX
  8
0
  5
E18
 10
582.630
 20
104.462
 30
0.000000
  70
    32
  0
VERTEX
  8
0
  5
E19
 10
582.634
 20
104.463
 30
0.000000
  70
    32
  0
VERTEX
  8
0
  5
E1A
 10
582.638
 20
104.465
 30
0.000000
  70
    32
  0
VERTEX
  8
0
  5
E1B
 10
582.641
 20
104.466
 30
0.000000
  70
    32
  0
VERTEX
  8
0
  5
E1C
 10
582.645
 20
104.467
 30
0.000000
  70
    32
  0
VERTEX
  8
0
  5
E1D
 10
582.649
 20
104.468
 30
0.000000
  70
    32
  0
VERTEX
  8
0
  5
E1E
 10
582.653
 20
104.470
 30
0.000000
  70
    32
  0
VERTEX
  8
0
  5
E1F
 10
582.656
 20
104.471
 30
0.000000
  70
    32
  0
VERTEX
  8
0
  5
E20
 10
582.660
 20
104.472
 30
0.000000
  70
    32
  0
VERTEX
  8
0
  5
E21
 10
582.664
 20
104.473
 30
0.000000
  70
    32
  0
VERTEX
  8
0
  5
E22
 10
582.667
 20
104.475
 30
0.000000
  70
    32
  0
VERTEX
  8
0
  5
E23
 10
582.671
 20
104.476
 30
0.000000
  70
    32
  0
VERTEX
  8
0
  5
E24
 10
582.674
 20
104.478
 30
0.000000
  70
    32
  0
VERTEX
  8
0
  5
E25
 10
582.678
 20
104.479
 30
0.000000
  70
    32
  0
VERTEX
  8
0
  5
E26
 10
582.681
 20
104.481
 30
0.000000
  70
    32
  0
VERTEX
  8
0
  5
E27
 10
582.685
 20
104.482
 30
0.000000
  70
    32
  0
VERTEX
  8
0
  5
E28
 10
582.688
 20
104.484
 30
0.000000
  70
    32
  0
VERTEX
  8
0
  5
E29
 10
582.692
 20
104.485
 30
0.000000
  70
    32
  0
VERTEX
  8
0
  5
E2A
 10
582.695
 20
104.487
 30
0.000000
  70
    32
  0
VERTEX
  8
0
  5
E2B
 10
582.698
 20
104.488
 30
0.000000
  70
    32
  0
VERTEX
  8
0
  5
E2C
 10
582.702
 20
104.490
 30
0.000000
  70
    32
  0
VERTEX
  8
0
  5
E2D
 10
582.705
 20
104.492
 30
0.000000
  70
    32
  0
VERTEX
  8
0
  5
E2E
 10
582.708
 20
104.493
 30
0.000000
  70
    32
  0
VERTEX
  8
0
  5
E2F
 10
582.711
 20
104.495
 30
0.000000
  70
    32
  0
VERTEX
  8
0
  5
E30
 10
582.715
 20
104.497
 30
0.000000
  70
    32
  0
VERTEX
  8
0
  5
E31
 10
582.718
 20
104.498
 30
0.000000
  70
    32
  0
VERTEX
  8
0
  5
E32
 10
582.721
 20
104.500
 30
0.000000
  70
    32
  0
VERTEX
  8
0
  5
E33
 10
582.724
 20
104.502
 30
0.000000
  70
    32
  0
VERTEX
  8
0
  5
E34
 10
582.727
 20
104.504
 30
0.000000
  70
    32
  0
VERTEX
  8
0
  5
E35
 10
582.730
 20
104.506
 30
0.000000
  70
    32
  0
VERTEX
  8
0
  5
E36
 10
582.733
 20
104.508
 30
0.000000
  70
    32
  0
VERTEX
  8
0
  5
E37
 10
582.736
 20
104.509
 30
0.000000
  70
    32
  0
VERTEX
  8
0
  5
E38
 10
582.739
 20
104.511
 30
0.000000
  70
    32
  0
VERTEX
  8
0
  5
E39
 10
582.741
 20
104.513
 30
0.000000
  70
    32
  0
VERTEX
  8
0
  5
E3A
 10
582.744
 20
104.515
 30
0.000000
  70
    32
  0
VERTEX
  8
0
  5
E3B
 10
582.747
 20
104.517
 30
0.000000
  70
    32
  0
VERTEX
  8
0
  5
E3C
 10
582.750
 20
104.519
 30
0.000000
  70
    32
  0
VERTEX
  8
0
  5
E3D
 10
582.752
 20
104.521
 30
0.000000
  70
    32
  0
VERTEX
  8
0
  5
E3E
 10
582.755
 20
104.523
 30
0.000000
  70
    32
  0
VERTEX
  8
0
  5
E3F
 10
582.757
 20
104.525
 30
0.000000
  70
    32
  0
VERTEX
  8
0
  5
E40
 10
582.760
 20
104.527
 30
0.000000
  70
    32
  0
VERTEX
  8
0
  5
E41
 10
582.762
 20
104.529
 30
0.000000
  70
    32
  0
VERTEX
  8
0
  5
E42
 10
582.765
 20
104.531
 30
0.000000
  70
    32
  0
VERTEX
  8
0
  5
E43
 10
582.767
 20
104.533
 30
0.000000
  70
    32
  0
VERTEX
  8
0
  5
E44
 10
582.770
 20
104.535
 30
0.000000
  70
    32
  0
VERTEX
  8
0
  5
E45
 10
582.772
 20
104.538
 30
0.000000
  70
    32
  0
VERTEX
  8
0
  5
E46
 10
582.774
 20
104.540
 30
0.000000
  70
    32
  0
VERTEX
  8
0
  5
E47
 10
582.776
 20
104.542
 30
0.000000
  70
    32
  0
VERTEX
  8
0
  5
E48
 10
582.778
 20
104.544
 30
0.000000
  70
    32
  0
VERTEX
  8
0
  5
E49
 10
582.781
 20
104.546
 30
0.000000
  70
    32
  0
VERTEX
  8
0
  5
E4A
 10
582.783
 20
104.548
 30
0.000000
  70
    32
  0
VERTEX
  8
0
  5
E4B
 10
582.785
 20
104.551
 30
0.000000
  70
    32
  0
VERTEX
  8
0
  5
E4C
 10
582.787
 20
104.553
 30
0.000000
  70
    32
  0
VERTEX
  8
0
  5
E4D
 10
582.789
 20
104.555
 30
0.000000
  70
    32
  0
VERTEX
  8
0
  5
E4E
 10
582.790
 20
104.557
 30
0.000000
  70
    32
  0
VERTEX
  8
0
  5
E4F
 10
582.792
 20
104.560
 30
0.000000
  70
    32
  0
VERTEX
  8
0
  5
E50
 10
582.794
 20
104.562
 30
0.000000
  70
    32
  0
VERTEX
  8
0
  5
E51
 10
582.796
 20
104.564
 30
0.000000
  70
    32
  0
VERTEX
  8
0
  5
E52
 10
582.798
 20
104.566
 30
0.000000
  70
    32
  0
VERTEX
  8
0
  5
E53
 10
582.799
 20
104.569
 30
0.000000
  70
    32
  0
VERTEX
  8
0
  5
E54
 10
582.801
 20
104.571
 30
0.000000
  70
    32
  0
VERTEX
  8
0
  5
E55
 10
582.802
 20
104.573
 30
0.000000
  70
    32
  0
VERTEX
  8
0
  5
E56
 10
582.804
 20
104.576
 30
0.000000
  70
    32
  0
VERTEX
  8
0
  5
E57
 10
582.805
 20
104.578
 30
0.000000
  70
    32
  0
VERTEX
  8
0
  5
E58
 10
582.807
 20
104.581
 30
0.000000
  70
    32
  0
VERTEX
  8
0
  5
E59
 10
582.808
 20
104.583
 30
0.000000
  70
    32
  0
VERTEX
  8
0
  5
E5A
 10
582.809
 20
104.585
 30
0.000000
  70
    32
  0
VERTEX
  8
0
  5
E5B
 10
582.810
 20
104.588
 30
0.000000
  70
    32
  0
VERTEX
  8
0
  5
E5C
 10
582.812
 20
104.590
 30
0.000000
  70
    32
  0
VERTEX
  8
0
  5
E5D
 10
582.813
 20
104.593
 30
0.000000
  70
    32
  0
VERTEX
  8
0
  5
E5E
 10
582.814
 20
104.595
 30
0.000000
  70
    32
  0
VERTEX
  8
0
  5
E5F
 10
582.815
 20
104.597
 30
0.000000
  70
    32
  0
VERTEX
  8
0
  5
E60
 10
582.816
 20
104.600
 30
0.000000
  70
    32
  0
VERTEX
  8
0
  5
E61
 10
582.817
 20
104.602
 30
0.000000
  70
    32
  0
VERTEX
  8
0
  5
E62
 10
582.818
 20
104.605
 30
0.000000
  70
    32
  0
VERTEX
  8
0
  5
E63
 10
582.818
 20
104.607
 30
0.000000
  70
    32
  0
VERTEX
  8
0
  5
E64
 10
582.819
 20
104.610
 30
0.000000
  70
    32
  0
VERTEX
  8
0
  5
E65
 10
582.820
 20
104.612
 30
0.000000
  70
    32
  0
VERTEX
  8
0
  5
E66
 10
582.821
 20
104.615
 30
0.000000
  70
    32
  0
VERTEX
  8
0
  5
E67
 10
582.821
 20
104.617
 30
0.000000
  70
    32
  0
VERTEX
  8
0
  5
E68
 10
582.822
 20
104.620
 30
0.000000
  70
    32
  0
VERTEX
  8
0
  5
E69
 10
582.822
 20
104.622
 30
0.000000
  70
    32
  0
VERTEX
  8
0
  5
E6A
 10
582.823
 20
104.625
 30
0.000000
  70
    32
  0
VERTEX
  8
0
  5
E6B
 10
582.823
 20
104.627
 30
0.000000
  70
    32
  0
VERTEX
  8
0
  5
E6C
 10
582.823
 20
104.630
 30
0.000000
  70
    32
  0
VERTEX
  8
0
  5
E6D
 10
582.824
 20
104.632
 30
0.000000
  70
    32
  0
VERTEX
  8
0
  5
E6E
 10
582.824
 20
104.635
 30
0.000000
  70
    32
  0
VERTEX
  8
0
  5
E6F
 10
582.824
 20
104.637
 30
0.000000
  70
    32
  0
VERTEX
  8
0
  5
E70
 10
582.824
 20
104.640
 30
0.000000
  70
    32
  0
VERTEX
  8
0
  5
E71
 10
582.824
 20
104.642
 30
0.000000
  70
    32
  0
VERTEX
  8
0
  5
E72
 10
582.824
 20
104.645
 30
0.000000
  70
    32
  0
SEQEND
  8
0
  5
E73
  0
LINE
  5
3E6
  8
0
  6
CONTINUOUS
 10
452.29250666669992
 20
179.5908332887
 30
0.0
 11
582.47086653300005
 21
104.44046575839999
 31
0.0
  0
LINE
  5
3E7
  8
0
  6
CONTINUOUS
 10
452.29250666669992
 20
179.99906830559999
 30
0.0
 11
582.82441537169996
 21
104.6446013751
 31
0.0
  0
LINE
  5
3E8
  8
0
  6
CONTINUOUS
 10
452.29250666669992
 20
179.99906830559999
 30
0.0
 11
452.29250666669992
 21
179.5908332887
 31
0.0
  0
LINE
  5
3E9
  8
0
  6
CONTINUOUS
 10
452.29250666669992
 20
183.7959819541
 30
0.0
 11
582.82441537169996
 21
108.44151502370001
 31
0.0
  0
LINE
  5
3EA
  8
0
  6
CONTINUOUS
 10
452.29250666669992
 20
172.73347300259999
 30
0.0
 11
570.59228304229987
 21
104.44046575839999
 31
0.0
  0
POLYLINE
  5
3EB
  8
0
  6
CONTINUOUS
 10
582.8244184737373
 20
108.4415155595
 30
0.0
 66
     1
 70
     8
  0
VERTEX
  8
0
  5
E74
 10
582.824
 20
108.442
 30
0.000000
  70
    32
  0
VERTEX
  8
0
  5
E75
 10
582.824
 20
108.442
 30
0.000000
  70
    32
  0
VERTEX
  8
0
  5
E76
 10
582.824
 20
108.443
 30
0.000000
  70
    32
  0
VERTEX
  8
0
  5
E77
 10
582.824
 20
108.443
 30
0.000000
  70
    32
  0
VERTEX
  8
0
  5
E78
 10
582.824
 20
108.444
 30
0.000000
  70
    32
  0
VERTEX
  8
0
  5
E79
 10
582.824
 20
108.444
 30
0.000000
  70
    32
  0
VERTEX
  8
0
  5
E7A
 10
582.824
 20
108.445
 30
0.000000
  70
    32
  0
VERTEX
  8
0
  5
E7B
 10
582.824
 20
108.445
 30
0.000000
  70
    32
  0
VERTEX
  8
0
  5
E7C
 10
582.824
 20
108.446
 30
0.000000
  70
    32
  0
VERTEX
  8
0
  5
E7D
 10
582.824
 20
108.446
 30
0.000000
  70
    32
  0
VERTEX
  8
0
  5
E7E
 10
582.824
 20
108.447
 30
0.000000
  70
    32
  0
VERTEX
  8
0
  5
E7F
 10
582.824
 20
108.447
 30
0.000000
  70
    32
  0
VERTEX
  8
0
  5
E80
 10
582.824
 20
108.448
 30
0.000000
  70
    32
  0
VERTEX
  8
0
  5
E81
 10
582.824
 20
108.448
 30
0.000000
  70
    32
  0
VERTEX
  8
0
  5
E82
 10
582.824
 20
108.449
 30
0.000000
  70
    32
  0
VERTEX
  8
0
  5
E83
 10
582.824
 20
108.449
 30
0.000000
  70
    32
  0
VERTEX
  8
0
  5
E84
 10
582.824
 20
108.450
 30
0.000000
  70
    32
  0
VERTEX
  8
0
  5
E85
 10
582.824
 20
108.450
 30
0.000000
  70
    32
  0
VERTEX
  8
0
  5
E86
 10
582.824
 20
108.451
 30
0.000000
  70
    32
  0
VERTEX
  8
0
  5
E87
 10
582.823
 20
108.451
 30
0.000000
  70
    32
  0
VERTEX
  8
0
  5
E88
 10
582.823
 20
108.452
 30
0.000000
  70
    32
  0
VERTEX
  8
0
  5
E89
 10
582.823
 20
108.452
 30
0.000000
  70
    32
  0
VERTEX
  8
0
  5
E8A
 10
582.823
 20
108.453
 30
0.000000
  70
    32
  0
VERTEX
  8
0
  5
E8B
 10
582.823
 20
108.453
 30
0.000000
  70
    32
  0
VERTEX
  8
0
  5
E8C
 10
582.823
 20
108.453
 30
0.000000
  70
    32
  0
VERTEX
  8
0
  5
E8D
 10
582.823
 20
108.454
 30
0.000000
  70
    32
  0
VERTEX
  8
0
  5
E8E
 10
582.823
 20
108.454
 30
0.000000
  70
    32
  0
VERTEX
  8
0
  5
E8F
 10
582.822
 20
108.455
 30
0.000000
  70
    32
  0
VERTEX
  8
0
  5
E90
 10
582.822
 20
108.455
 30
0.000000
  70
    32
  0
VERTEX
  8
0
  5
E91
 10
582.822
 20
108.456
 30
0.000000
  70
    32
  0
VERTEX
  8
0
  5
E92
 10
582.822
 20
108.456
 30
0.000000
  70
    32
  0
VERTEX
  8
0
  5
E93
 10
582.822
 20
108.457
 30
0.000000
  70
    32
  0
VERTEX
  8
0
  5
E94
 10
582.822
 20
108.457
 30
0.000000
  70
    32
  0
VERTEX
  8
0
  5
E95
 10
582.822
 20
108.458
 30
0.000000
  70
    32
  0
VERTEX
  8
0
  5
E96
 10
582.821
 20
108.458
 30
0.000000
  70
    32
  0
VERTEX
  8
0
  5
E97
 10
582.821
 20
108.459
 30
0.000000
  70
    32
  0
VERTEX
  8
0
  5
E98
 10
582.821
 20
108.459
 30
0.000000
  70
    32
  0
VERTEX
  8
0
  5
E99
 10
582.821
 20
108.460
 30
0.000000
  70
    32
  0
VERTEX
  8
0
  5
E9A
 10
582.821
 20
108.460
 30
0.000000
  70
    32
  0
VERTEX
  8
0
  5
E9B
 10
582.820
 20
108.461
 30
0.000000
  70
    32
  0
VERTEX
  8
0
  5
E9C
 10
582.820
 20
108.461
 30
0.000000
  70
    32
  0
VERTEX
  8
0
  5
E9D
 10
582.820
 20
108.462
 30
0.000000
  70
    32
  0
VERTEX
  8
0
  5
E9E
 10
582.820
 20
108.462
 30
0.000000
  70
    32
  0
VERTEX
  8
0
  5
E9F
 10
582.820
 20
108.463
 30
0.000000
  70
    32
  0
VERTEX
  8
0
  5
EA0
 10
582.819
 20
108.463
 30
0.000000
  70
    32
  0
VERTEX
  8
0
  5
EA1
 10
582.819
 20
108.464
 30
0.000000
  70
    32
  0
VERTEX
  8
0
  5
EA2
 10
582.819
 20
108.464
 30
0.000000
  70
    32
  0
VERTEX
  8
0
  5
EA3
 10
582.819
 20
108.465
 30
0.000000
  70
    32
  0
VERTEX
  8
0
  5
EA4
 10
582.818
 20
108.465
 30
0.000000
  70
    32
  0
VERTEX
  8
0
  5
EA5
 10
582.818
 20
108.466
 30
0.000000
  70
    32
  0
VERTEX
  8
0
  5
EA6
 10
582.818
 20
108.466
 30
0.000000
  70
    32
  0
VERTEX
  8
0
  5
EA7
 10
582.818
 20
108.467
 30
0.000000
  70
    32
  0
VERTEX
  8
0
  5
EA8
 10
582.817
 20
108.467
 30
0.000000
  70
    32
  0
VERTEX
  8
0
  5
EA9
 10
582.817
 20
108.468
 30
0.000000
  70
    32
  0
VERTEX
  8
0
  5
EAA
 10
582.817
 20
108.468
 30
0.000000
  70
    32
  0
VERTEX
  8
0
  5
EAB
 10
582.816
 20
108.469
 30
0.000000
  70
    32
  0
VERTEX
  8
0
  5
EAC
 10
582.816
 20
108.469
 30
0.000000
  70
    32
  0
VERTEX
  8
0
  5
EAD
 10
582.816
 20
108.469
 30
0.000000
  70
    32
  0
VERTEX
  8
0
  5
EAE
 10
582.816
 20
108.470
 30
0.000000
  70
    32
  0
VERTEX
  8
0
  5
EAF
 10
582.815
 20
108.470
 30
0.000000
  70
    32
  0
VERTEX
  8
0
  5
EB0
 10
582.815
 20
108.471
 30
0.000000
  70
    32
  0
VERTEX
  8
0
  5
EB1
 10
582.815
 20
108.471
 30
0.000000
  70
    32
  0
VERTEX
  8
0
  5
EB2
 10
582.814
 20
108.472
 30
0.000000
  70
    32
  0
VERTEX
  8
0
  5
EB3
 10
582.814
 20
108.472
 30
0.000000
  70
    32
  0
VERTEX
  8
0
  5
EB4
 10
582.814
 20
108.473
 30
0.000000
  70
    32
  0
VERTEX
  8
0
  5
EB5
 10
582.813
 20
108.473
 30
0.000000
  70
    32
  0
VERTEX
  8
0
  5
EB6
 10
582.813
 20
108.474
 30
0.000000
  70
    32
  0
VERTEX
  8
0
  5
EB7
 10
582.813
 20
108.474
 30
0.000000
  70
    32
  0
VERTEX
  8
0
  5
EB8
 10
582.812
 20
108.475
 30
0.000000
  70
    32
  0
VERTEX
  8
0
  5
EB9
 10
582.812
 20
108.475
 30
0.000000
  70
    32
  0
VERTEX
  8
0
  5
EBA
 10
582.812
 20
108.476
 30
0.000000
  70
    32
  0
VERTEX
  8
0
  5
EBB
 10
582.811
 20
108.476
 30
0.000000
  70
    32
  0
VERTEX
  8
0
  5
EBC
 10
582.811
 20
108.476
 30
0.000000
  70
    32
  0
VERTEX
  8
0
  5
EBD
 10
582.810
 20
108.477
 30
0.000000
  70
    32
  0
VERTEX
  8
0
  5
EBE
 10
582.810
 20
108.477
 30
0.000000
  70
    32
  0
VERTEX
  8
0
  5
EBF
 10
582.810
 20
108.478
 30
0.000000
  70
    32
  0
VERTEX
  8
0
  5
EC0
 10
582.809
 20
108.478
 30
0.000000
  70
    32
  0
VERTEX
  8
0
  5
EC1
 10
582.809
 20
108.479
 30
0.000000
  70
    32
  0
VERTEX
  8
0
  5
EC2
 10
582.809
 20
108.479
 30
0.000000
  70
    32
  0
VERTEX
  8
0
  5
EC3
 10
582.808
 20
108.480
 30
0.000000
  70
    32
  0
VERTEX
  8
0
  5
EC4
 10
582.808
 20
108.480
 30
0.000000
  70
    32
  0
VERTEX
  8
0
  5
EC5
 10
582.807
 20
108.480
 30
0.000000
  70
    32
  0
VERTEX
  8
0
  5
EC6
 10
582.807
 20
108.481
 30
0.000000
  70
    32
  0
VERTEX
  8
0
  5
EC7
 10
582.806
 20
108.481
 30
0.000000
  70
    32
  0
VERTEX
  8
0
  5
EC8
 10
582.806
 20
108.482
 30
0.000000
  70
    32
  0
VERTEX
  8
0
  5
EC9
 10
582.806
 20
108.482
 30
0.000000
  70
    32
  0
VERTEX
  8
0
  5
ECA
 10
582.805
 20
108.483
 30
0.000000
  70
    32
  0
VERTEX
  8
0
  5
ECB
 10
582.805
 20
108.483
 30
0.000000
  70
    32
  0
VERTEX
  8
0
  5
ECC
 10
582.804
 20
108.483
 30
0.000000
  70
    32
  0
VERTEX
  8
0
  5
ECD
 10
582.804
 20
108.484
 30
0.000000
  70
    32
  0
VERTEX
  8
0
  5
ECE
 10
582.803
 20
108.484
 30
0.000000
  70
    32
  0
VERTEX
  8
0
  5
ECF
 10
582.803
 20
108.485
 30
0.000000
  70
    32
  0
VERTEX
  8
0
  5
ED0
 10
582.802
 20
108.485
 30
0.000000
  70
    32
  0
VERTEX
  8
0
  5
ED1
 10
582.802
 20
108.486
 30
0.000000
  70
    32
  0
VERTEX
  8
0
  5
ED2
 10
582.802
 20
108.486
 30
0.000000
  70
    32
  0
VERTEX
  8
0
  5
ED3
 10
582.801
 20
108.486
 30
0.000000
  70
    32
  0
VERTEX
  8
0
  5
ED4
 10
582.801
 20
108.487
 30
0.000000
  70
    32
  0
VERTEX
  8
0
  5
ED5
 10
582.800
 20
108.487
 30
0.000000
  70
    32
  0
VERTEX
  8
0
  5
ED6
 10
582.800
 20
108.488
 30
0.000000
  70
    32
  0
VERTEX
  8
0
  5
ED7
 10
582.799
 20
108.488
 30
0.000000
  70
    32
  0
VERTEX
  8
0
  5
ED8
 10
582.799
 20
108.489
 30
0.000000
  70
    32
  0
VERTEX
  8
0
  5
ED9
 10
582.798
 20
108.489
 30
0.000000
  70
    32
  0
VERTEX
  8
0
  5
EDA
 10
582.798
 20
108.489
 30
0.000000
  70
    32
  0
VERTEX
  8
0
  5
EDB
 10
582.797
 20
108.490
 30
0.000000
  70
    32
  0
VERTEX
  8
0
  5
EDC
 10
582.797
 20
108.490
 30
0.000000
  70
    32
  0
VERTEX
  8
0
  5
EDD
 10
582.796
 20
108.491
 30
0.000000
  70
    32
  0
VERTEX
  8
0
  5
EDE
 10
582.796
 20
108.491
 30
0.000000
  70
    32
  0
VERTEX
  8
0
  5
EDF
 10
582.795
 20
108.491
 30
0.000000
  70
    32
  0
VERTEX
  8
0
  5
EE0
 10
582.794
 20
108.492
 30
0.000000
  70
    32
  0
VERTEX
  8
0
  5
EE1
 10
582.794
 20
108.492
 30
0.000000
  70
    32
  0
VERTEX
  8
0
  5
EE2
 10
582.793
 20
108.493
 30
0.000000
  70
    32
  0
VERTEX
  8
0
  5
EE3
 10
582.793
 20
108.493
 30
0.000000
  70
    32
  0
VERTEX
  8
0
  5
EE4
 10
582.792
 20
108.493
 30
0.000000
  70
    32
  0
VERTEX
  8
0
  5
EE5
 10
582.792
 20
108.494
 30
0.000000
  70
    32
  0
VERTEX
  8
0
  5
EE6
 10
582.791
 20
108.494
 30
0.000000
  70
    32
  0
VERTEX
  8
0
  5
EE7
 10
582.791
 20
108.494
 30
0.000000
  70
    32
  0
VERTEX
  8
0
  5
EE8
 10
582.790
 20
108.495
 30
0.000000
  70
    32
  0
VERTEX
  8
0
  5
EE9
 10
582.790
 20
108.495
 30
0.000000
  70
    32
  0
VERTEX
  8
0
  5
EEA
 10
582.789
 20
108.496
 30
0.000000
  70
    32
  0
VERTEX
  8
0
  5
EEB
 10
582.788
 20
108.496
 30
0.000000
  70
    32
  0
VERTEX
  8
0
  5
EEC
 10
582.788
 20
108.496
 30
0.000000
  70
    32
  0
VERTEX
  8
0
  5
EED
 10
582.787
 20
108.497
 30
0.000000
  70
    32
  0
VERTEX
  8
0
  5
EEE
 10
582.787
 20
108.497
 30
0.000000
  70
    32
  0
VERTEX
  8
0
  5
EEF
 10
582.786
 20
108.497
 30
0.000000
  70
    32
  0
VERTEX
  8
0
  5
EF0
 10
582.785
 20
108.498
 30
0.000000
  70
    32
  0
VERTEX
  8
0
  5
EF1
 10
582.785
 20
108.498
 30
0.000000
  70
    32
  0
VERTEX
  8
0
  5
EF2
 10
582.784
 20
108.499
 30
0.000000
  70
    32
  0
VERTEX
  8
0
  5
EF3
 10
582.784
 20
108.499
 30
0.000000
  70
    32
  0
VERTEX
  8
0
  5
EF4
 10
582.783
 20
108.499
 30
0.000000
  70
    32
  0
SEQEND
  8
0
  5
EF5
  0
LINE
  5
3EC
  8
0
  6
CONTINUOUS
 10
452.29250666669992
 20
183.82980818920001
 30
0.0
 11
452.29250666669992
 21
183.7959819541
 31
0.0
  0
POLYLINE
  5
3ED
  8
0
  6
CONTINUOUS
 10
570.34744099324973
 20
104.49734023700017
 30
0.0
 66
     1
 70
     8
  0
VERTEX
  8
0
  5
EF6
 10
570.347
 20
104.497
 30
0.000000
  70
    32
  0
VERTEX
  8
0
  5
EF7
 10
570.349
 20
104.496
 30
0.000000
  70
    32
  0
VERTEX
  8
0
  5
EF8
 10
570.351
 20
104.496
 30
0.000000
  70
    32
  0
VERTEX
  8
0
  5
EF9
 10
570.352
 20
104.495
 30
0.000000
  70
    32
  0
VERTEX
  8
0
  5
EFA
 10
570.354
 20
104.494
 30
0.000000
  70
    32
  0
VERTEX
  8
0
  5
EFB
 10
570.355
 20
104.493
 30
0.000000
  70
    32
  0
VERTEX
  8
0
  5
EFC
 10
570.357
 20
104.492
 30
0.000000
  70
    32
  0
VERTEX
  8
0
  5
EFD
 10
570.358
 20
104.492
 30
0.000000
  70
    32
  0
VERTEX
  8
0
  5
EFE
 10
570.360
 20
104.491
 30
0.000000
  70
    32
  0
VERTEX
  8
0
  5
EFF
 10
570.362
 20
104.490
 30
0.000000
  70
    32
  0
VERTEX
  8
0
  5
F00
 10
570.363
 20
104.489
 30
0.000000
  70
    32
  0
VERTEX
  8
0
  5
F01
 10
570.365
 20
104.488
 30
0.000000
  70
    32
  0
VERTEX
  8
0
  5
F02
 10
570.366
 20
104.488
 30
0.000000
  70
    32
  0
VERTEX
  8
0
  5
F03
 10
570.368
 20
104.487
 30
0.000000
  70
    32
  0
VERTEX
  8
0
  5
F04
 10
570.370
 20
104.486
 30
0.000000
  70
    32
  0
VERTEX
  8
0
  5
F05
 10
570.371
 20
104.485
 30
0.000000
  70
    32
  0
VERTEX
  8
0
  5
F06
 10
570.373
 20
104.485
 30
0.000000
  70
    32
  0
VERTEX
  8
0
  5
F07
 10
570.375
 20
104.484
 30
0.000000
  70
    32
  0
VERTEX
  8
0
  5
F08
 10
570.376
 20
104.483
 30
0.000000
  70
    32
  0
VERTEX
  8
0
  5
F09
 10
570.378
 20
104.482
 30
0.000000
  70
    32
  0
VERTEX
  8
0
  5
F0A
 10
570.380
 20
104.482
 30
0.000000
  70
    32
  0
VERTEX
  8
0
  5
F0B
 10
570.381
 20
104.481
 30
0.000000
  70
    32
  0
VERTEX
  8
0
  5
F0C
 10
570.383
 20
104.480
 30
0.000000
  70
    32
  0
VERTEX
  8
0
  5
F0D
 10
570.385
 20
104.479
 30
0.000000
  70
    32
  0
VERTEX
  8
0
  5
F0E
 10
570.386
 20
104.479
 30
0.000000
  70
    32
  0
VERTEX
  8
0
  5
F0F
 10
570.388
 20
104.478
 30
0.000000
  70
    32
  0
VERTEX
  8
0
  5
F10
 10
570.390
 20
104.477
 30
0.000000
  70
    32
  0
VERTEX
  8
0
  5
F11
 10
570.392
 20
104.477
 30
0.000000
  70
    32
  0
VERTEX
  8
0
  5
F12
 10
570.393
 20
104.476
 30
0.000000
  70
    32
  0
VERTEX
  8
0
  5
F13
 10
570.395
 20
104.475
 30
0.000000
  70
    32
  0
VERTEX
  8
0
  5
F14
 10
570.397
 20
104.474
 30
0.000000
  70
    32
  0
VERTEX
  8
0
  5
F15
 10
570.399
 20
104.474
 30
0.000000
  70
    32
  0
VERTEX
  8
0
  5
F16
 10
570.400
 20
104.473
 30
0.000000
  70
    32
  0
VERTEX
  8
0
  5
F17
 10
570.402
 20
104.472
 30
0.000000
  70
    32
  0
VERTEX
  8
0
  5
F18
 10
570.404
 20
104.472
 30
0.000000
  70
    32
  0
VERTEX
  8
0
  5
F19
 10
570.406
 20
104.471
 30
0.000000
  70
    32
  0
VERTEX
  8
0
  5
F1A
 10
570.408
 20
104.471
 30
0.000000
  70
    32
  0
VERTEX
  8
0
  5
F1B
 10
570.409
 20
104.470
 30
0.000000
  70
    32
  0
VERTEX
  8
0
  5
F1C
 10
570.411
 20
104.469
 30
0.000000
  70
    32
  0
VERTEX
  8
0
  5
F1D
 10
570.413
 20
104.469
 30
0.000000
  70
    32
  0
VERTEX
  8
0
  5
F1E
 10
570.415
 20
104.468
 30
0.000000
  70
    32
  0
VERTEX
  8
0
  5
F1F
 10
570.417
 20
104.467
 30
0.000000
  70
    32
  0
VERTEX
  8
0
  5
F20
 10
570.418
 20
104.467
 30
0.000000
  70
    32
  0
VERTEX
  8
0
  5
F21
 10
570.420
 20
104.466
 30
0.000000
  70
    32
  0
VERTEX
  8
0
  5
F22
 10
570.422
 20
104.466
 30
0.000000
  70
    32
  0
VERTEX
  8
0
  5
F23
 10
570.424
 20
104.465
 30
0.000000
  70
    32
  0
VERTEX
  8
0
  5
F24
 10
570.426
 20
104.464
 30
0.000000
  70
    32
  0
VERTEX
  8
0
  5
F25
 10
570.428
 20
104.464
 30
0.000000
  70
    32
  0
VERTEX
  8
0
  5
F26
 10
570.430
 20
104.463
 30
0.000000
  70
    32
  0
VERTEX
  8
0
  5
F27
 10
570.431
 20
104.463
 30
0.000000
  70
    32
  0
VERTEX
  8
0
  5
F28
 10
570.433
 20
104.462
 30
0.000000
  70
    32
  0
VERTEX
  8
0
  5
F29
 10
570.435
 20
104.462
 30
0.000000
  70
    32
  0
VERTEX
  8
0
  5
F2A
 10
570.437
 20
104.461
 30
0.000000
  70
    32
  0
VERTEX
  8
0
  5
F2B
 10
570.439
 20
104.461
 30
0.000000
  70
    32
  0
VERTEX
  8
0
  5
F2C
 10
570.441
 20
104.460
 30
0.000000
  70
    32
  0
VERTEX
  8
0
  5
F2D
 10
570.443
 20
104.460
 30
0.000000
  70
    32
  0
VERTEX
  8
0
  5
F2E
 10
570.445
 20
104.459
 30
0.000000
  70
    32
  0
VERTEX
  8
0
  5
F2F
 10
570.447
 20
104.459
 30
0.000000
  70
    32
  0
VERTEX
  8
0
  5
F30
 10
570.449
 20
104.458
 30
0.000000
  70
    32
  0
VERTEX
  8
0
  5
F31
 10
570.451
 20
104.458
 30
0.000000
  70
    32
  0
VERTEX
  8
0
  5
F32
 10
570.453
 20
104.457
 30
0.000000
  70
    32
  0
VERTEX
  8
0
  5
F33
 10
570.454
 20
104.457
 30
0.000000
  70
    32
  0
VERTEX
  8
0
  5
F34
 10
570.456
 20
104.456
 30
0.000000
  70
    32
  0
VERTEX
  8
0
  5
F35
 10
570.458
 20
104.456
 30
0.000000
  70
    32
  0
VERTEX
  8
0
  5
F36
 10
570.460
 20
104.455
 30
0.000000
  70
    32
  0
VERTEX
  8
0
  5
F37
 10
570.462
 20
104.455
 30
0.000000
  70
    32
  0
VERTEX
  8
0
  5
F38
 10
570.464
 20
104.454
 30
0.000000
  70
    32
  0
VERTEX
  8
0
  5
F39
 10
570.466
 20
104.454
 30
0.000000
  70
    32
  0
VERTEX
  8
0
  5
F3A
 10
570.468
 20
104.453
 30
0.000000
  70
    32
  0
VERTEX
  8
0
  5
F3B
 10
570.470
 20
104.453
 30
0.000000
  70
    32
  0
VERTEX
  8
0
  5
F3C
 10
570.472
 20
104.453
 30
0.000000
  70
    32
  0
VERTEX
  8
0
  5
F3D
 10
570.474
 20
104.452
 30
0.000000
  70
    32
  0
VERTEX
  8
0
  5
F3E
 10
570.476
 20
104.452
 30
0.000000
  70
    32
  0
VERTEX
  8
0
  5
F3F
 10
570.478
 20
104.451
 30
0.000000
  70
    32
  0
VERTEX
  8
0
  5
F40
 10
570.480
 20
104.451
 30
0.000000
  70
    32
  0
VERTEX
  8
0
  5
F41
 10
570.482
 20
104.451
 30
0.000000
  70
    32
  0
VERTEX
  8
0
  5
F42
 10
570.484
 20
104.450
 30
0.000000
  70
    32
  0
VERTEX
  8
0
  5
F43
 10
570.486
 20
104.450
 30
0.000000
  70
    32
  0
VERTEX
  8
0
  5
F44
 10
570.488
 20
104.450
 30
0.000000
  70
    32
  0
VERTEX
  8
0
  5
F45
 10
570.490
 20
104.449
 30
0.000000
  70
    32
  0
VERTEX
  8
0
  5
F46
 10
570.492
 20
104.449
 30
0.000000
  70
    32
  0
VERTEX
  8
0
  5
F47
 10
570.494
 20
104.448
 30
0.000000
  70
    32
  0
VERTEX
  8
0
  5
F48
 10
570.496
 20
104.448
 30
0.000000
  70
    32
  0
VERTEX
  8
0
  5
F49
 10
570.498
 20
104.448
 30
0.000000
  70
    32
  0
VERTEX
  8
0
  5
F4A
 10
570.500
 20
104.447
 30
0.000000
  70
    32
  0
VERTEX
  8
0
  5
F4B
 10
570.502
 20
104.447
 30
0.000000
  70
    32
  0
VERTEX
  8
0
  5
F4C
 10
570.504
 20
104.447
 30
0.000000
  70
    32
  0
VERTEX
  8
0
  5
F4D
 10
570.507
 20
104.447
 30
0.000000
  70
    32
  0
VERTEX
  8
0
  5
F4E
 10
570.509
 20
104.446
 30
0.000000
  70
    32
  0
VERTEX
  8
0
  5
F4F
 10
570.511
 20
104.446
 30
0.000000
  70
    32
  0
VERTEX
  8
0
  5
F50
 10
570.513
 20
104.446
 30
0.000000
  70
    32
  0
VERTEX
  8
0
  5
F51
 10
570.515
 20
104.445
 30
0.000000
  70
    32
  0
VERTEX
  8
0
  5
F52
 10
570.517
 20
104.445
 30
0.000000
  70
    32
  0
VERTEX
  8
0
  5
F53
 10
570.519
 20
104.445
 30
0.000000
  70
    32
  0
VERTEX
  8
0
  5
F54
 10
570.521
 20
104.445
 30
0.000000
  70
    32
  0
VERTEX
  8
0
  5
F55
 10
570.523
 20
104.444
 30
0.000000
  70
    32
  0
VERTEX
  8
0
  5
F56
 10
570.525
 20
104.444
 30
0.000000
  70
    32
  0
VERTEX
  8
0
  5
F57
 10
570.527
 20
104.444
 30
0.000000
  70
    32
  0
VERTEX
  8
0
  5
F58
 10
570.529
 20
104.444
 30
0.000000
  70
    32
  0
VERTEX
  8
0
  5
F59
 10
570.531
 20
104.444
 30
0.000000
  70
    32
  0
VERTEX
  8
0
  5
F5A
 10
570.533
 20
104.443
 30
0.000000
  70
    32
  0
VERTEX
  8
0
  5
F5B
 10
570.535
 20
104.443
 30
0.000000
  70
    32
  0
VERTEX
  8
0
  5
F5C
 10
570.538
 20
104.443
 30
0.000000
  70
    32
  0
VERTEX
  8
0
  5
F5D
 10
570.540
 20
104.443
 30
0.000000
  70
    32
  0
VERTEX
  8
0
  5
F5E
 10
570.542
 20
104.443
 30
0.000000
  70
    32
  0
VERTEX
  8
0
  5
F5F
 10
570.544
 20
104.442
 30
0.000000
  70
    32
  0
VERTEX
  8
0
  5
F60
 10
570.546
 20
104.442
 30
0.000000
  70
    32
  0
VERTEX
  8
0
  5
F61
 10
570.548
 20
104.442
 30
0.000000
  70
    32
  0
VERTEX
  8
0
  5
F62
 10
570.550
 20
104.442
 30
0.000000
  70
    32
  0
VERTEX
  8
0
  5
F63
 10
570.552
 20
104.442
 30
0.000000
  70
    32
  0
VERTEX
  8
0
  5
F64
 10
570.554
 20
104.442
 30
0.000000
  70
    32
  0
VERTEX
  8
0
  5
F65
 10
570.556
 20
104.442
 30
0.000000
  70
    32
  0
VERTEX
  8
0
  5
F66
 10
570.559
 20
104.441
 30
0.000000
  70
    32
  0
VERTEX
  8
0
  5
F67
 10
570.561
 20
104.441
 30
0.000000
  70
    32
  0
VERTEX
  8
0
  5
F68
 10
570.563
 20
104.441
 30
0.000000
  70
    32
  0
VERTEX
  8
0
  5
F69
 10
570.565
 20
104.441
 30
0.000000
  70
    32
  0
VERTEX
  8
0
  5
F6A
 10
570.567
 20
104.441
 30
0.000000
  70
    32
  0
VERTEX
  8
0
  5
F6B
 10
570.569
 20
104.441
 30
0.000000
  70
    32
  0
VERTEX
  8
0
  5
F6C
 10
570.571
 20
104.441
 30
0.000000
  70
    32
  0
VERTEX
  8
0
  5
F6D
 10
570.573
 20
104.441
 30
0.000000
  70
    32
  0
VERTEX
  8
0
  5
F6E
 10
570.575
 20
104.441
 30
0.000000
  70
    32
  0
VERTEX
  8
0
  5
F6F
 10
570.578
 20
104.441
 30
0.000000
  70
    32
  0
VERTEX
  8
0
  5
F70
 10
570.580
 20
104.441
 30
0.000000
  70
    32
  0
VERTEX
  8
0
  5
F71
 10
570.582
 20
104.441
 30
0.000000
  70
    32
  0
VERTEX
  8
0
  5
F72
 10
570.584
 20
104.441
 30
0.000000
  70
    32
  0
VERTEX
  8
0
  5
F73
 10
570.586
 20
104.440
 30
0.000000
  70
    32
  0
VERTEX
  8
0
  5
F74
 10
570.588
 20
104.440
 30
0.000000
  70
    32
  0
VERTEX
  8
0
  5
F75
 10
570.590
 20
104.440
 30
0.000000
  70
    32
  0
VERTEX
  8
0
  5
F76
 10
570.592
 20
104.440
 30
0.000000
  70
    32
  0
SEQEND
  8
0
  5
F77
  0
LINE
  5
3EE
  8
0
  6
CONTINUOUS
 10
452.29250666669992
 20
172.6490024659
 30
0.0
 11
570.34744146260005
 21
104.49733925709999
 31
0.0
  0
LINE
  5
3EF
  8
0
  6
CONTINUOUS
 10
452.29250666669992
 20
172.73347300259999
 30
0.0
 11
452.29250666669992
 21
172.6490024659
 31
0.0
  0
LINE
  5
3F0
  8
0
  6
CONTINUOUS
 10
452.29250666669992
 20
172.50329900099999
 30
0.0
 11
564.01293871879989
 21
108.0084663884
 31
0.0
  0
LINE
  5
3F1
  8
0
  6
CONTINUOUS
 10
497.53771884269997
 20
167.30148737600001
 30
0.0
 11
497.72411854860002
 21
167.4090936357
 31
0.0
  0
LINE
  5
3F2
  8
0
  6
CONTINUOUS
 10
498.07767265559988
 20
166.79672072130001
 30
0.0
 11
497.99731442059999
 21
166.75033089959999
 31
0.0
  0
LINE
  5
3F3
  8
0
  6
CONTINUOUS
 10
497.72411854860002
 20
171.85924110549999
 30
0.0
 11
497.53771884269997
 21
171.7516348458
 31
0.0
  0
LINE
  5
3F4
  8
0
  6
CONTINUOUS
 10
527.34224472289986
 20
149.80986322410001
 30
0.0
 11
527.42260295800008
 21
149.85625304569999
 31
0.0
  0
LINE
  5
3F5
  8
0
  6
CONTINUOUS
 10
497.53772015969997
 20
171.91493022110001
 30
0.0
 11
497.58268557870002
 21
171.94088820499999
 31
0.0
  0
LINE
  5
3F6
  8
0
  6
CONTINUOUS
 10
573.41989403550008
 20
139.878283031
 30
0.0
 11
573.41989403550008
 21
113.90445548949999
 31
0.0
  0
LINE
  5
3F7
  8
0
  6
CONTINUOUS
 10
452.15108818480002
 20
183.74817044930001
 30
0.0
 11
452.15108818480002
 21
209.47707570739999
 31
0.0
  0
LINE
  5
3F8
  8
0
  6
CONTINUOUS
 10
331.16511402949999
 20
139.6333594928
 30
0.0
 11
331.16511402949999
 21
113.9044542347
 31
0.0
  0
LINE
  5
3F9
  8
0
  6
CONTINUOUS
 10
452.85819113069988
 20
183.5032451246
 30
0.0
 11
452.85819113069988
 21
209.47707266610001
 31
0.0
  0
LINE
  5
3FA
  8
0
  6
CONTINUOUS
 10
444.56730543599991
 20
213.06038978519999
 30
0.0
 11
444.72646774099991
 21
213.15227222819999
 31
0.0
  0
LINE
  5
3FB
  8
0
  6
CONTINUOUS
 10
568.4954878655999
 20
142.47616170539999
 30
0.0
 11
457.7825498853
 21
206.38938037029999
 31
0.0
  0
LINE
  5
3FC
  8
0
  6
CONTINUOUS
 10
444.76176045829999
 20
212.96851066350001
 30
0.0
 11
444.86788622289998
 21
213.02977576329999
 31
0.0
  0
LINE
  5
3FD
  8
0
  6
CONTINUOUS
 10
445.93107735500001
 20
212.41600858710001
 30
0.0
 11
444.86788622289998
 21
213.02977576329999
 31
0.0
  0
LINE
  5
3FE
  8
0
  6
CONTINUOUS
 10
444.69111180350001
 20
213.0018909671
 30
0.0
 11
444.69111180350001
 21
213.1318616799
 31
0.0
  0
LINE
  5
3FF
  8
0
  6
CONTINUOUS
 10
527.81151036839992
 20
149.53896122579999
 30
0.0
 11
527.81151036839992
 21
154.32687513280001
 31
0.0
  0
LINE
  5
400
  8
0
  6
CONTINUOUS
 10
527.74079849340001
 20
149.90286836589999
 30
0.0
 11
527.74079849340001
 21
149.5797803833
 31
0.0
  0
LINE
  5
401
  8
0
  6
CONTINUOUS
 10
527.03369291339993
 20
155.1432833785
 30
0.0
 11
526.96298103829986
 21
155.10246228189999
 31
0.0
  0
ENDSEC
  0
EOF
