  0
SECTION
  2
HEADER
  9
$ACADVER
  1
AC1009
  9
$INSBASE
 10
0.0
 20
0.0
 30
0.0
  9
$EXTMIN
 10
0.0788435654
 20
0.2147801566
 30
0.0
  9
$EXTMAX
 10
1189.0788435653999
 20
841.2147801566
 30
0.0
  9
$LIMMIN
 10
0.0
 20
0.0
  9
$LIMMAX
 10
1189.0
 20
841.0
  9
$ORTHOMODE
 70
     0
  9
$REGENMODE
 70
     1
  9
$FILLMODE
 70
     1
  9
$QTEXTMODE
 70
     0
  9
$MIRRTEXT
 70
     1
  9
$DRAGMODE
 70
     2
  9
$LTSCALE
 40
1.0
  9
$OSMODE
 70
    37
  9
$ATTMODE
 70
     1
  9
$TEXTSIZE
 40
2.5
  9
$TRACEWID
 40
1.0
  9
$TEXTSTYLE
  7
STANDARD
  9
$CLAYER
  8
0
  9
$CELTYPE
  6
BYLAYER
  9
$CECOLOR
 62
   256
  9
$DIMSCALE
 40
1.0
  9
$DIMASZ
 40
6.0
  9
$DIMEXO
 40
1.0
  9
$DIMDLI
 40
3.75
  9
$DIMRND
 40
0.0
  9
$DIMDLE
 40
0.0
  9
$DIMEXE
 40
1.0
  9
$DIMTP
 40
0.0
  9
$DIMTM
 40
0.0
  9
$DIMTXT
 40
3.5
  9
$DIMCEN
 40
2.5
  9
$DIMTSZ
 40
0.0
  9
$DIMTOL
 70
     0
  9
$DIMLIM
 70
     0
  9
$DIMTIH
 70
     1
  9
$DIMTOH
 70
     1
  9
$DIMSE1
 70
     0
  9
$DIMSE2
 70
     0
  9
$DIMTAD
 70
     1
  9
$DIMZIN
 70
     0
  9
$DIMBLK
  1

  9
$DIMASO
 70
     1
  9
$DIMSHO
 70
     1
  9
$DIMPOST
  1

  9
$DIMAPOST
  1

  9
$DIMALT
 70
     0
  9
$DIMALTD
 70
     3
  9
$DIMALTF
 40
0.0393700787
  9
$DIMLFAC
 40
2.0
  9
$DIMTOFL
 70
     1
  9
$DIMTVP
 40
0.0
  9
$DIMTIX
 70
     0
  9
$DIMSOXD
 70
     0
  9
$DIMSAH
 70
     0
  9
$DIMBLK1
  1

  9
$DIMBLK2
  1

  9
$DIMSTYLE
  2
ISO-25
  9
$DIMCLRD
 70
     0
  9
$DIMCLRE
 70
     0
  9
$DIMCLRT
 70
     0
  9
$DIMTFAC
 40
1.0
  9
$DIMGAP
 40
1.524
  9
$LUNITS
 70
     2
  9
$LUPREC
 70
     2
  9
$SKETCHINC
 40
1.0
  9
$FILLETRAD
 40
10.0
  9
$AUNITS
 70
     0
  9
$AUPREC
 70
     2
  9
$MENU
  1
.
  9
$ELEVATION
 40
0.0
  9
$PELEVATION
 40
0.0
  9
$THICKNESS
 40
0.0
  9
$LIMCHECK
 70
     0
  9
$BLIPMODE
 70
     0
  9
$CHAMFERA
 40
10.0
  9
$CHAMFERB
 40
10.0
  9
$SKPOLY
 70
     0
  9
$TDCREATE
 40
2456911.4946241551
  9
$TDUPDATE
 40
2456911.5010041092
  9
$TDINDWG
 40
0.0008411227
  9
$TDUSRTIMER
 40
0.0008410995
  9
$USRTIMER
 70
     1
  9
$ANGBASE
 50
0.0
  9
$ANGDIR
 70
     0
  9
$PDMODE
 70
     0
  9
$PDSIZE
 40
-1.0
  9
$PLINEWID
 40
0.0
  9
$COORDS
 70
     1
  9
$SPLFRAME
 70
     0
  9
$SPLINETYPE
 70
     6
  9
$SPLINESEGS
 70
     8
  9
$ATTDIA
 70
     0
  9
$ATTREQ
 70
     1
  9
$HANDLING
 70
     1
  9
$HANDSEED
  5
7FFC
  9
$SURFTAB1
 70
     6
  9
$SURFTAB2
 70
     6
  9
$SURFTYPE
 70
     6
  9
$SURFU
 70
     6
  9
$SURFV
 70
     6
  9
$UCSNAME
  2

  9
$UCSORG
 10
0.0
 20
0.0
 30
0.0
  9
$UCSXDIR
 10
1.0
 20
0.0
 30
0.0
  9
$UCSYDIR
 10
0.0
 20
1.0
 30
0.0
  9
$PUCSNAME
  2

  9
$PUCSORG
 10
0.0
 20
0.0
 30
0.0
  9
$PUCSXDIR
 10
1.0
 20
0.0
 30
0.0
  9
$PUCSYDIR
 10
0.0
 20
1.0
 30
0.0
  9
$USERI1
 70
     0
  9
$USERI2
 70
     0
  9
$USERI3
 70
     0
  9
$USERI4
 70
     0
  9
$USERI5
 70
     0
  9
$USERR1
 40
0.0
  9
$USERR2
 40
0.0
  9
$USERR3
 40
0.0
  9
$USERR4
 40
0.0
  9
$USERR5
 40
0.0
  9
$WORLDVIEW
 70
     1
  9
$SHADEDGE
 70
     3
  9
$SHADEDIF
 70
    70
  9
$TILEMODE
 70
     1
  9
$MAXACTVP
 70
    64
  9
$PLIMCHECK
 70
     0
  9
$PEXTMIN
 10
1.0000000000000000E+020
 20
1.0000000000000000E+020
 30
1.0000000000000000E+020
  9
$PEXTMAX
 10
-1.0000000000000000E+020
 20
-1.0000000000000000E+020
 30
-1.0000000000000000E+020
  9
$PLIMMIN
 10
0.0
 20
0.0
  9
$PLIMMAX
 10
420.0
 20
297.0
  9
$UNITMODE
 70
     0
  9
$VISRETAIN
 70
     1
  9
$PLINEGEN
 70
     0
  9
$PSLTSCALE
 70
     1
  0
ENDSEC
  0
SECTION
  2
TABLES
  0
TABLE
  2
VPORT
 70
     1
  0
VPORT
  2
*ACTIVE
 70
     0
 10
0.0
 20
0.0
 11
1.0
 21
1.0
 12
599.31676703651146
 22
442.75615968045372
 13
0.0
 23
0.0
 14
10.0
 24
10.0
 15
10.0
 25
10.0
 16
0.0
 26
0.0
 36
1.0
 17
0.0
 27
0.0
 37
0.0
 40
477.32565998549711
 41
1.911550468262226
 42
50.0
 43
0.0
 44
0.0
 50
0.0
 51
0.0
 71
     0
 72
  2000
 73
     1
 74
     3
 75
     0
 76
     0
 77
     0
 78
     0
  0
ENDTAB
  0
TABLE
  2
LTYPE
 70
     6
  0
LTYPE
  2
CONTINUOUS
 70
     0
  3
Solid line
 72
    65
 73
     0
 40
0.0
  0
LTYPE
  2
HIDDEN
 70
     0
  3
Hidden __ __ __ __ __ __ __ __ __ __ __ __ __ __
 72
    65
 73
     2
 40
1.905
 49
1.27
 49
-0.635
  0
LTYPE
  2
PHANTOM
 70
     0
  3
Phantom ______  __  __  ______  __  __  ______
 72
    65
 73
     6
 40
12.699999999999999
 49
6.3499999999999988
 49
-1.27
 49
1.27
 49
-1.27
 49
1.27
 49
-1.27
  0
LTYPE
  2
CENTER
 70
     0
  3
Center ____ _ ____ _ ____ _ ____ _ ____ _ ____
 72
    65
 73
     4
 40
10.16
 49
6.3499999999999988
 49
-1.27
 49
1.27
 49
-1.27
  0
LTYPE
  2
CENTERX2
 70
     0
  3
Center (2x) ________  __  ________  __  _____
 72
    65
 73
     4
 40
20.32
 49
12.699999999999999
 49
-2.54
 49
2.54
 49
-2.54
  0
LTYPE
  2
DOT2
 70
     0
  3
Dot (.5x) ........................................
 72
    65
 73
     2
 40
0.635
 49
0.0
 49
-0.635
  0
ENDTAB
  0
TABLE
  2
LAYER
 70
     2
  0
LAYER
  2
0
 70
     0
 62
     7
  6
CONTINUOUS
  0
LAYER
  2
FORMAT
 70
     0
 62
     7
  6
CONTINUOUS
  0
ENDTAB
  0
TABLE
  2
STYLE
 70
     3
  0
STYLE
  2
STANDARD
 70
     0
 40
0.0
 41
1.0
 50
0.0
 71
     0
 42
2.5
  3
txt
  4
bigfont
  0
STYLE
  2
SLDTEXTSTYLE0
 70
     0
 40
0.0
 41
0.75
 50
0.0
 71
     0
 42
0.2
  3
TXT
  4
bigfont
  0
STYLE
  2
SLDTEXTSTYLE1
 70
     0
 40
0.0
 41
0.6785714286
 50
0.0
 71
     0
 42
0.2
  3
TXT
  4
bigfont
  0
ENDTAB
  0
TABLE
  2
VIEW
 70
     0
  0
ENDTAB
  0
TABLE
  2
UCS
 70
     0
  0
ENDTAB
  0
TABLE
  2
APPID
 70
     3
  0
APPID
  2
ACAD
 70
     0
  0
APPID
  2
ACAD_NAV_VCDISPLAY
 70
     0
  0
APPID
  2
ACAD_MLEADERVER
 70
     0
  0
ENDTAB
  0
TABLE
  2
DIMSTYLE
 70
     1
  0
DIMSTYLE
  2
ISO-25
 70
     0
  3

  4

  5

  6

  7

 40
1.0
 41
2.5
 42
0.625
 43
3.75
 44
1.25
 45
0.0
 46
0.0
 47
0.0
 48
0.0
140
2.5
141
2.5
142
0.0
143
0.0393700787
144
1.0
145
0.0
146
1.0
147
0.625
 71
     0
 72
     0
 73
     0
 74
     0
 75
     0
 76
     0
 77
     1
 78
     8
170
     0
171
     3
172
     1
173
     0
174
     0
175
     0
176
     0
177
     0
178
     0
  0
ENDTAB
  0
ENDSEC
  0
SECTION
  2
BLOCKS
  0
BLOCK
  8
0
  2
$MODEL_SPACE
 70
     0
 10
0.0
 20
0.0
 30
0.0
  3
$MODEL_SPACE
  1

  0
ENDBLK
  5
21
  8
0
  0
BLOCK
 67
     1
  8
0
  2
$PAPER_SPACE
 70
     0
 10
0.0
 20
0.0
 30
0.0
  3
$PAPER_SPACE
  1

  0
ENDBLK
  5
1D
 67
     1
  8
0
  0
BLOCK
  8
0
  2
SW_NOTE_0
 70
     0
 10
0.0
 20
0.0
 30
0.0
  3
SW_NOTE_0
  1

  0
INSERT
  5
9D
  8
0
  2
*U2
 10
0.0
 20
0.0
 30
0.0
  0
INSERT
  5
9E
  8
0
  2
*U3
 10
0.0
 20
0.0
 30
0.0
  0
INSERT
  5
9F
  8
0
  2
*U4
 10
0.0
 20
0.0
 30
0.0
  0
INSERT
  5
A0
  8
0
  2
*U5
 10
0.0
 20
0.0
 30
0.0
  0
INSERT
  5
A1
  8
0
  2
*U6
 10
0.0
 20
0.0
 30
0.0
  0
INSERT
  5
A2
  8
0
  2
*U7
 10
0.0
 20
0.0
 30
0.0
  0
ENDBLK
  5
9C
  8
0
  0
BLOCK
  8
0
  2
*U2
 70
     1
 10
0.0
 20
0.0
 30
0.0
  3
*U2
  1

  0
TEXT
  5
70BA
  8
0
 62
     0
 10
0.0
 20
0.4336016097
 30
0.0
 40
1.5
  1
指示なき場合：
 41
0.75
  7
SLDTEXTSTYLE0
  0
ENDBLK
  5
70BC
  8
0
  0
BLOCK
  8
0
  2
*U3
 70
     1
 10
0.0
 20
0.0
 30
0.0
  3
*U3
  1

  0
TEXT
  5
70BE
  8
0
 62
     0
 10
0.0
 20
-2.0663983345000001
 30
0.0
 40
1.5
  1
寸法はミリメータとする
 41
0.75
  7
SLDTEXTSTYLE0
  0
ENDBLK
  5
70C0
  8
0
  0
BLOCK
  8
0
  2
*U4
 70
     1
 10
0.0
 20
0.0
 30
0.0
  3
*U4
  1

  0
TEXT
  5
70C2
  8
0
 62
     0
 10
-0.0000000000000001
 20
-4.5663982786000004
 30
0.0
 40
1.5
  1
表面粗さ：
 41
0.75
  7
SLDTEXTSTYLE0
  0
ENDBLK
  5
70C4
  8
0
  0
BLOCK
  8
0
  2
*U5
 70
     1
 10
0.0
 20
0.0
 30
0.0
  3
*U5
  1

  0
TEXT
  5
70C6
  8
0
 62
     0
 10
0.0
 20
-7.0663982227000002
 30
0.0
 40
1.5
  1
　公差　：
 41
0.75
  7
SLDTEXTSTYLE0
  0
ENDBLK
  5
70C8
  8
0
  0
BLOCK
  8
0
  2
*U6
 70
     1
 10
0.0
 20
0.0
 30
0.0
  3
*U6
  1

  0
TEXT
  5
70CA
  8
0
 62
     0
 10
0.0
 20
-9.5663981667999991
 30
0.0
 40
1.5
  1
　寸法　：
 41
0.75
  7
SLDTEXTSTYLE0
  0
ENDBLK
  5
70CC
  8
0
  0
BLOCK
  8
0
  2
*U7
 70
     1
 10
0.0
 20
0.0
 30
0.0
  3
*U7
  1

  0
TEXT
  5
70CE
  8
0
 62
     0
 10
0.0
 20
-12.0663981109
 30
0.0
 40
1.5
  1
　角度　：
 41
0.75
  7
SLDTEXTSTYLE0
  0
ENDBLK
  5
70D0
  8
0
  0
ENDSEC
  0
SECTION
  2
ENTITIES
  0
LINE
  5
6F3F
  8
0
  6
CONTINUOUS
 10
391.69753684360001
 20
553.83993698929987
 30
0.0
 11
172.81871084240001
 21
427.48388030299998
 31
0.0
  0
LINE
  5
6F40
  8
0
  6
CONTINUOUS
 10
191.59388852199999
 20
426.99599164680001
 30
0.0
 11
391.69753684360001
 21
542.51336896639998
 31
0.0
  0
LINE
  5
6F41
  8
0
  6
CONTINUOUS
 10
610.57636284490002
 20
427.48388030299998
 30
0.0
 11
391.69753684360001
 21
553.83993698929987
 31
0.0
  0
LINE
  5
6F42
  8
0
  6
CONTINUOUS
 10
391.69753684360001
 20
542.51336896639998
 30
0.0
 11
591.80118516530001
 21
426.99599164680001
 31
0.0
  0
LINE
  5
6F43
  8
0
  6
CONTINUOUS
 10
391.69753684360001
 20
297.16468520000001
 30
0.0
 11
610.51421731679989
 21
423.48486603650002
 31
0.0
  0
LINE
  5
6F45
  8
0
  6
CONTINUOUS
 10
172.8808563705
 20
423.48486603650002
 30
0.0
 11
391.69753684360001
 21
297.16468520000001
 31
0.0
  0
POLYLINE
  8
0
  5
7254
  66
     1
 10
0.000000
 20
0.000000
 30
0.000000
  70
     8
  0
VERTEX
  8
0
  5
7255
 10
598.936
 20
434.232
 30
0.000000
  70
    32
  0
VERTEX
  8
0
  5
7256
 10
598.940
 20
434.240
 30
0.000000
  70
    32
  0
VERTEX
  8
0
  5
7257
 10
598.945
 20
434.248
 30
0.000000
  70
    32
  0
VERTEX
  8
0
  5
7258
 10
598.949
 20
434.256
 30
0.000000
  70
    32
  0
VERTEX
  8
0
  5
7259
 10
598.954
 20
434.264
 30
0.000000
  70
    32
  0
VERTEX
  8
0
  5
725A
 10
598.958
 20
434.272
 30
0.000000
  70
    32
  0
VERTEX
  8
0
  5
725B
 10
598.962
 20
434.280
 30
0.000000
  70
    32
  0
VERTEX
  8
0
  5
725C
 10
598.966
 20
434.289
 30
0.000000
  70
    32
  0
VERTEX
  8
0
  5
725D
 10
598.970
 20
434.297
 30
0.000000
  70
    32
  0
VERTEX
  8
0
  5
725E
 10
598.974
 20
434.305
 30
0.000000
  70
    32
  0
VERTEX
  8
0
  5
725F
 10
598.978
 20
434.313
 30
0.000000
  70
    32
  0
VERTEX
  8
0
  5
7260
 10
598.982
 20
434.322
 30
0.000000
  70
    32
  0
VERTEX
  8
0
  5
7261
 10
598.986
 20
434.330
 30
0.000000
  70
    32
  0
VERTEX
  8
0
  5
7262
 10
598.989
 20
434.338
 30
0.000000
  70
    32
  0
VERTEX
  8
0
  5
7263
 10
598.992
 20
434.347
 30
0.000000
  70
    32
  0
VERTEX
  8
0
  5
7264
 10
598.996
 20
434.355
 30
0.000000
  70
    32
  0
VERTEX
  8
0
  5
7265
 10
598.999
 20
434.364
 30
0.000000
  70
    32
  0
VERTEX
  8
0
  5
7266
 10
599.002
 20
434.372
 30
0.000000
  70
    32
  0
VERTEX
  8
0
  5
7267
 10
599.005
 20
434.381
 30
0.000000
  70
    32
  0
VERTEX
  8
0
  5
7268
 10
599.008
 20
434.390
 30
0.000000
  70
    32
  0
VERTEX
  8
0
  5
7269
 10
599.010
 20
434.398
 30
0.000000
  70
    32
  0
VERTEX
  8
0
  5
726A
 10
599.013
 20
434.407
 30
0.000000
  70
    32
  0
VERTEX
  8
0
  5
726B
 10
599.015
 20
434.416
 30
0.000000
  70
    32
  0
VERTEX
  8
0
  5
726C
 10
599.018
 20
434.425
 30
0.000000
  70
    32
  0
VERTEX
  8
0
  5
726D
 10
599.020
 20
434.434
 30
0.000000
  70
    32
  0
VERTEX
  8
0
  5
726E
 10
599.022
 20
434.443
 30
0.000000
  70
    32
  0
VERTEX
  8
0
  5
726F
 10
599.024
 20
434.452
 30
0.000000
  70
    32
  0
VERTEX
  8
0
  5
7270
 10
599.026
 20
434.460
 30
0.000000
  70
    32
  0
VERTEX
  8
0
  5
7271
 10
599.028
 20
434.469
 30
0.000000
  70
    32
  0
VERTEX
  8
0
  5
7272
 10
599.030
 20
434.478
 30
0.000000
  70
    32
  0
VERTEX
  8
0
  5
7273
 10
599.032
 20
434.487
 30
0.000000
  70
    32
  0
VERTEX
  8
0
  5
7274
 10
599.033
 20
434.497
 30
0.000000
  70
    32
  0
VERTEX
  8
0
  5
7275
 10
599.035
 20
434.506
 30
0.000000
  70
    32
  0
VERTEX
  8
0
  5
7276
 10
599.037
 20
434.515
 30
0.000000
  70
    32
  0
VERTEX
  8
0
  5
7277
 10
599.038
 20
434.524
 30
0.000000
  70
    32
  0
VERTEX
  8
0
  5
7278
 10
599.039
 20
434.533
 30
0.000000
  70
    32
  0
VERTEX
  8
0
  5
7279
 10
599.041
 20
434.542
 30
0.000000
  70
    32
  0
VERTEX
  8
0
  5
727A
 10
599.042
 20
434.551
 30
0.000000
  70
    32
  0
VERTEX
  8
0
  5
727B
 10
599.043
 20
434.561
 30
0.000000
  70
    32
  0
VERTEX
  8
0
  5
727C
 10
599.044
 20
434.570
 30
0.000000
  70
    32
  0
VERTEX
  8
0
  5
727D
 10
599.045
 20
434.579
 30
0.000000
  70
    32
  0
VERTEX
  8
0
  5
727E
 10
599.046
 20
434.588
 30
0.000000
  70
    32
  0
VERTEX
  8
0
  5
727F
 10
599.047
 20
434.598
 30
0.000000
  70
    32
  0
VERTEX
  8
0
  5
7280
 10
599.047
 20
434.607
 30
0.000000
  70
    32
  0
VERTEX
  8
0
  5
7281
 10
599.048
 20
434.616
 30
0.000000
  70
    32
  0
VERTEX
  8
0
  5
7282
 10
599.049
 20
434.625
 30
0.000000
  70
    32
  0
VERTEX
  8
0
  5
7283
 10
599.049
 20
434.635
 30
0.000000
  70
    32
  0
VERTEX
  8
0
  5
7284
 10
599.050
 20
434.644
 30
0.000000
  70
    32
  0
VERTEX
  8
0
  5
7285
 10
599.050
 20
434.653
 30
0.000000
  70
    32
  0
VERTEX
  8
0
  5
7286
 10
599.051
 20
434.663
 30
0.000000
  70
    32
  0
VERTEX
  8
0
  5
7287
 10
599.051
 20
434.672
 30
0.000000
  70
    32
  0
VERTEX
  8
0
  5
7288
 10
599.052
 20
434.681
 30
0.000000
  70
    32
  0
VERTEX
  8
0
  5
7289
 10
599.052
 20
434.691
 30
0.000000
  70
    32
  0
VERTEX
  8
0
  5
728A
 10
599.052
 20
434.700
 30
0.000000
  70
    32
  0
VERTEX
  8
0
  5
728B
 10
599.053
 20
434.709
 30
0.000000
  70
    32
  0
VERTEX
  8
0
  5
728C
 10
599.053
 20
434.719
 30
0.000000
  70
    32
  0
VERTEX
  8
0
  5
728D
 10
599.053
 20
434.728
 30
0.000000
  70
    32
  0
VERTEX
  8
0
  5
728E
 10
599.053
 20
434.737
 30
0.000000
  70
    32
  0
VERTEX
  8
0
  5
728F
 10
599.053
 20
434.747
 30
0.000000
  70
    32
  0
VERTEX
  8
0
  5
7290
 10
599.053
 20
434.756
 30
0.000000
  70
    32
  0
VERTEX
  8
0
  5
7291
 10
599.054
 20
434.765
 30
0.000000
  70
    32
  0
VERTEX
  8
0
  5
7292
 10
599.054
 20
434.775
 30
0.000000
  70
    32
  0
VERTEX
  8
0
  5
7293
 10
599.053
 20
434.784
 30
0.000000
  70
    32
  0
VERTEX
  8
0
  5
7294
 10
599.053
 20
434.793
 30
0.000000
  70
    32
  0
VERTEX
  8
0
  5
7295
 10
599.053
 20
434.803
 30
0.000000
  70
    32
  0
VERTEX
  8
0
  5
7296
 10
599.053
 20
434.812
 30
0.000000
  70
    32
  0
VERTEX
  8
0
  5
7297
 10
599.053
 20
434.821
 30
0.000000
  70
    32
  0
VERTEX
  8
0
  5
7298
 10
599.053
 20
434.830
 30
0.000000
  70
    32
  0
VERTEX
  8
0
  5
7299
 10
599.052
 20
434.840
 30
0.000000
  70
    32
  0
VERTEX
  8
0
  5
729A
 10
599.052
 20
434.849
 30
0.000000
  70
    32
  0
VERTEX
  8
0
  5
729B
 10
599.052
 20
434.858
 30
0.000000
  70
    32
  0
VERTEX
  8
0
  5
729C
 10
599.051
 20
434.868
 30
0.000000
  70
    32
  0
VERTEX
  8
0
  5
729D
 10
599.051
 20
434.877
 30
0.000000
  70
    32
  0
VERTEX
  8
0
  5
729E
 10
599.050
 20
434.886
 30
0.000000
  70
    32
  0
VERTEX
  8
0
  5
729F
 10
599.050
 20
434.896
 30
0.000000
  70
    32
  0
VERTEX
  8
0
  5
72A0
 10
599.049
 20
434.905
 30
0.000000
  70
    32
  0
VERTEX
  8
0
  5
72A1
 10
599.049
 20
434.914
 30
0.000000
  70
    32
  0
VERTEX
  8
0
  5
72A2
 10
599.048
 20
434.923
 30
0.000000
  70
    32
  0
VERTEX
  8
0
  5
72A3
 10
599.047
 20
434.933
 30
0.000000
  70
    32
  0
VERTEX
  8
0
  5
72A4
 10
599.047
 20
434.942
 30
0.000000
  70
    32
  0
VERTEX
  8
0
  5
72A5
 10
599.046
 20
434.951
 30
0.000000
  70
    32
  0
VERTEX
  8
0
  5
72A6
 10
599.045
 20
434.961
 30
0.000000
  70
    32
  0
VERTEX
  8
0
  5
72A7
 10
599.044
 20
434.970
 30
0.000000
  70
    32
  0
VERTEX
  8
0
  5
72A8
 10
599.043
 20
434.979
 30
0.000000
  70
    32
  0
VERTEX
  8
0
  5
72A9
 10
599.042
 20
434.988
 30
0.000000
  70
    32
  0
VERTEX
  8
0
  5
72AA
 10
599.041
 20
434.998
 30
0.000000
  70
    32
  0
VERTEX
  8
0
  5
72AB
 10
599.040
 20
435.007
 30
0.000000
  70
    32
  0
VERTEX
  8
0
  5
72AC
 10
599.039
 20
435.016
 30
0.000000
  70
    32
  0
VERTEX
  8
0
  5
72AD
 10
599.038
 20
435.026
 30
0.000000
  70
    32
  0
VERTEX
  8
0
  5
72AE
 10
599.037
 20
435.035
 30
0.000000
  70
    32
  0
VERTEX
  8
0
  5
72AF
 10
599.036
 20
435.044
 30
0.000000
  70
    32
  0
VERTEX
  8
0
  5
72B0
 10
599.034
 20
435.053
 30
0.000000
  70
    32
  0
VERTEX
  8
0
  5
72B1
 10
599.033
 20
435.063
 30
0.000000
  70
    32
  0
VERTEX
  8
0
  5
72B2
 10
599.032
 20
435.072
 30
0.000000
  70
    32
  0
VERTEX
  8
0
  5
72B3
 10
599.030
 20
435.081
 30
0.000000
  70
    32
  0
VERTEX
  8
0
  5
72B4
 10
599.029
 20
435.091
 30
0.000000
  70
    32
  0
VERTEX
  8
0
  5
72B5
 10
599.027
 20
435.100
 30
0.000000
  70
    32
  0
VERTEX
  8
0
  5
72B6
 10
599.026
 20
435.109
 30
0.000000
  70
    32
  0
VERTEX
  8
0
  5
72B7
 10
599.024
 20
435.118
 30
0.000000
  70
    32
  0
VERTEX
  8
0
  5
72B8
 10
599.022
 20
435.128
 30
0.000000
  70
    32
  0
VERTEX
  8
0
  5
72B9
 10
599.021
 20
435.137
 30
0.000000
  70
    32
  0
VERTEX
  8
0
  5
72BA
 10
599.019
 20
435.146
 30
0.000000
  70
    32
  0
VERTEX
  8
0
  5
72BB
 10
599.017
 20
435.155
 30
0.000000
  70
    32
  0
VERTEX
  8
0
  5
72BC
 10
599.015
 20
435.165
 30
0.000000
  70
    32
  0
VERTEX
  8
0
  5
72BD
 10
599.013
 20
435.174
 30
0.000000
  70
    32
  0
VERTEX
  8
0
  5
72BE
 10
599.011
 20
435.183
 30
0.000000
  70
    32
  0
VERTEX
  8
0
  5
72BF
 10
599.009
 20
435.193
 30
0.000000
  70
    32
  0
VERTEX
  8
0
  5
72C0
 10
599.007
 20
435.202
 30
0.000000
  70
    32
  0
VERTEX
  8
0
  5
72C1
 10
599.005
 20
435.211
 30
0.000000
  70
    32
  0
VERTEX
  8
0
  5
72C2
 10
599.003
 20
435.220
 30
0.000000
  70
    32
  0
VERTEX
  8
0
  5
72C3
 10
599.001
 20
435.230
 30
0.000000
  70
    32
  0
VERTEX
  8
0
  5
72C4
 10
598.998
 20
435.239
 30
0.000000
  70
    32
  0
VERTEX
  8
0
  5
72C5
 10
598.996
 20
435.248
 30
0.000000
  70
    32
  0
VERTEX
  8
0
  5
72C6
 10
598.994
 20
435.257
 30
0.000000
  70
    32
  0
VERTEX
  8
0
  5
72C7
 10
598.991
 20
435.267
 30
0.000000
  70
    32
  0
VERTEX
  8
0
  5
72C8
 10
598.989
 20
435.276
 30
0.000000
  70
    32
  0
VERTEX
  8
0
  5
72C9
 10
598.986
 20
435.285
 30
0.000000
  70
    32
  0
VERTEX
  8
0
  5
72CA
 10
598.984
 20
435.294
 30
0.000000
  70
    32
  0
VERTEX
  8
0
  5
72CB
 10
598.981
 20
435.304
 30
0.000000
  70
    32
  0
VERTEX
  8
0
  5
72CC
 10
598.978
 20
435.313
 30
0.000000
  70
    32
  0
VERTEX
  8
0
  5
72CD
 10
598.976
 20
435.322
 30
0.000000
  70
    32
  0
VERTEX
  8
0
  5
72CE
 10
598.973
 20
435.331
 30
0.000000
  70
    32
  0
VERTEX
  8
0
  5
72CF
 10
598.970
 20
435.340
 30
0.000000
  70
    32
  0
VERTEX
  8
0
  5
72D0
 10
598.967
 20
435.350
 30
0.000000
  70
    32
  0
VERTEX
  8
0
  5
72D1
 10
598.964
 20
435.359
 30
0.000000
  70
    32
  0
VERTEX
  8
0
  5
72D2
 10
598.962
 20
435.368
 30
0.000000
  70
    32
  0
VERTEX
  8
0
  5
72D3
 10
598.959
 20
435.377
 30
0.000000
  70
    32
  0
VERTEX
  8
0
  5
72D4
 10
598.956
 20
435.386
 30
0.000000
  70
    32
  0
VERTEX
  8
0
  5
72D5
 10
598.953
 20
435.395
 30
0.000000
  70
    32
  0
VERTEX
  8
0
  5
72D6
 10
598.949
 20
435.405
 30
0.000000
  70
    32
  0
VERTEX
  8
0
  5
72D7
 10
598.946
 20
435.414
 30
0.000000
  70
    32
  0
VERTEX
  8
0
  5
72D8
 10
598.943
 20
435.423
 30
0.000000
  70
    32
  0
VERTEX
  8
0
  5
72D9
 10
598.940
 20
435.432
 30
0.000000
  70
    32
  0
VERTEX
  8
0
  5
72DA
 10
598.937
 20
435.441
 30
0.000000
  70
    32
  0
VERTEX
  8
0
  5
72DB
 10
598.933
 20
435.450
 30
0.000000
  70
    32
  0
VERTEX
  8
0
  5
72DC
 10
598.930
 20
435.459
 30
0.000000
  70
    32
  0
VERTEX
  8
0
  5
72DD
 10
598.927
 20
435.468
 30
0.000000
  70
    32
  0
VERTEX
  8
0
  5
72DE
 10
598.923
 20
435.478
 30
0.000000
  70
    32
  0
VERTEX
  8
0
  5
72DF
 10
598.920
 20
435.487
 30
0.000000
  70
    32
  0
VERTEX
  8
0
  5
72E0
 10
598.916
 20
435.496
 30
0.000000
  70
    32
  0
VERTEX
  8
0
  5
72E1
 10
598.913
 20
435.505
 30
0.000000
  70
    32
  0
VERTEX
  8
0
  5
72E2
 10
598.909
 20
435.514
 30
0.000000
  70
    32
  0
VERTEX
  8
0
  5
72E3
 10
598.905
 20
435.523
 30
0.000000
  70
    32
  0
VERTEX
  8
0
  5
72E4
 10
598.902
 20
435.532
 30
0.000000
  70
    32
  0
VERTEX
  8
0
  5
72E5
 10
598.898
 20
435.541
 30
0.000000
  70
    32
  0
VERTEX
  8
0
  5
72E6
 10
598.894
 20
435.550
 30
0.000000
  70
    32
  0
VERTEX
  8
0
  5
72E7
 10
598.890
 20
435.559
 30
0.000000
  70
    32
  0
VERTEX
  8
0
  5
72E8
 10
598.887
 20
435.568
 30
0.000000
  70
    32
  0
VERTEX
  8
0
  5
72E9
 10
598.883
 20
435.577
 30
0.000000
  70
    32
  0
VERTEX
  8
0
  5
72EA
 10
598.879
 20
435.586
 30
0.000000
  70
    32
  0
VERTEX
  8
0
  5
72EB
 10
598.875
 20
435.594
 30
0.000000
  70
    32
  0
VERTEX
  8
0
  5
72EC
 10
598.871
 20
435.603
 30
0.000000
  70
    32
  0
VERTEX
  8
0
  5
72ED
 10
598.867
 20
435.612
 30
0.000000
  70
    32
  0
VERTEX
  8
0
  5
72EE
 10
598.863
 20
435.621
 30
0.000000
  70
    32
  0
VERTEX
  8
0
  5
72EF
 10
598.859
 20
435.630
 30
0.000000
  70
    32
  0
VERTEX
  8
0
  5
72F0
 10
598.854
 20
435.639
 30
0.000000
  70
    32
  0
VERTEX
  8
0
  5
72F1
 10
598.850
 20
435.648
 30
0.000000
  70
    32
  0
VERTEX
  8
0
  5
72F2
 10
598.846
 20
435.657
 30
0.000000
  70
    32
  0
VERTEX
  8
0
  5
72F3
 10
598.842
 20
435.665
 30
0.000000
  70
    32
  0
VERTEX
  8
0
  5
72F4
 10
598.837
 20
435.674
 30
0.000000
  70
    32
  0
VERTEX
  8
0
  5
72F5
 10
598.833
 20
435.683
 30
0.000000
  70
    32
  0
VERTEX
  8
0
  5
72F6
 10
598.829
 20
435.692
 30
0.000000
  70
    32
  0
VERTEX
  8
0
  5
72F7
 10
598.824
 20
435.700
 30
0.000000
  70
    32
  0
VERTEX
  8
0
  5
72F8
 10
598.820
 20
435.709
 30
0.000000
  70
    32
  0
VERTEX
  8
0
  5
72F9
 10
598.815
 20
435.718
 30
0.000000
  70
    32
  0
VERTEX
  8
0
  5
72FA
 10
598.811
 20
435.727
 30
0.000000
  70
    32
  0
VERTEX
  8
0
  5
72FB
 10
598.806
 20
435.735
 30
0.000000
  70
    32
  0
VERTEX
  8
0
  5
72FC
 10
598.802
 20
435.744
 30
0.000000
  70
    32
  0
VERTEX
  8
0
  5
72FD
 10
598.797
 20
435.752
 30
0.000000
  70
    32
  0
VERTEX
  8
0
  5
72FE
 10
598.792
 20
435.761
 30
0.000000
  70
    32
  0
VERTEX
  8
0
  5
72FF
 10
598.788
 20
435.770
 30
0.000000
  70
    32
  0
VERTEX
  8
0
  5
7300
 10
598.783
 20
435.778
 30
0.000000
  70
    32
  0
VERTEX
  8
0
  5
7301
 10
598.778
 20
435.787
 30
0.000000
  70
    32
  0
VERTEX
  8
0
  5
7302
 10
598.773
 20
435.795
 30
0.000000
  70
    32
  0
VERTEX
  8
0
  5
7303
 10
598.769
 20
435.804
 30
0.000000
  70
    32
  0
VERTEX
  8
0
  5
7304
 10
598.764
 20
435.812
 30
0.000000
  70
    32
  0
VERTEX
  8
0
  5
7305
 10
598.759
 20
435.821
 30
0.000000
  70
    32
  0
VERTEX
  8
0
  5
7306
 10
598.754
 20
435.829
 30
0.000000
  70
    32
  0
VERTEX
  8
0
  5
7307
 10
598.749
 20
435.838
 30
0.000000
  70
    32
  0
VERTEX
  8
0
  5
7308
 10
598.744
 20
435.846
 30
0.000000
  70
    32
  0
VERTEX
  8
0
  5
7309
 10
598.739
 20
435.854
 30
0.000000
  70
    32
  0
VERTEX
  8
0
  5
730A
 10
598.734
 20
435.863
 30
0.000000
  70
    32
  0
VERTEX
  8
0
  5
730B
 10
598.729
 20
435.871
 30
0.000000
  70
    32
  0
VERTEX
  8
0
  5
730C
 10
598.723
 20
435.879
 30
0.000000
  70
    32
  0
VERTEX
  8
0
  5
730D
 10
598.718
 20
435.888
 30
0.000000
  70
    32
  0
VERTEX
  8
0
  5
730E
 10
598.713
 20
435.896
 30
0.000000
  70
    32
  0
VERTEX
  8
0
  5
730F
 10
598.708
 20
435.904
 30
0.000000
  70
    32
  0
VERTEX
  8
0
  5
7310
 10
598.702
 20
435.912
 30
0.000000
  70
    32
  0
VERTEX
  8
0
  5
7311
 10
598.697
 20
435.921
 30
0.000000
  70
    32
  0
VERTEX
  8
0
  5
7312
 10
598.692
 20
435.929
 30
0.000000
  70
    32
  0
VERTEX
  8
0
  5
7313
 10
598.686
 20
435.937
 30
0.000000
  70
    32
  0
VERTEX
  8
0
  5
7314
 10
598.681
 20
435.945
 30
0.000000
  70
    32
  0
VERTEX
  8
0
  5
7315
 10
598.675
 20
435.953
 30
0.000000
  70
    32
  0
VERTEX
  8
0
  5
7316
 10
598.670
 20
435.961
 30
0.000000
  70
    32
  0
VERTEX
  8
0
  5
7317
 10
598.664
 20
435.969
 30
0.000000
  70
    32
  0
VERTEX
  8
0
  5
7318
 10
598.659
 20
435.977
 30
0.000000
  70
    32
  0
VERTEX
  8
0
  5
7319
 10
598.653
 20
435.985
 30
0.000000
  70
    32
  0
VERTEX
  8
0
  5
731A
 10
598.648
 20
435.993
 30
0.000000
  70
    32
  0
VERTEX
  8
0
  5
731B
 10
598.642
 20
436.001
 30
0.000000
  70
    32
  0
VERTEX
  8
0
  5
731C
 10
598.636
 20
436.009
 30
0.000000
  70
    32
  0
VERTEX
  8
0
  5
731D
 10
598.631
 20
436.017
 30
0.000000
  70
    32
  0
VERTEX
  8
0
  5
731E
 10
598.625
 20
436.025
 30
0.000000
  70
    32
  0
VERTEX
  8
0
  5
731F
 10
598.619
 20
436.032
 30
0.000000
  70
    32
  0
VERTEX
  8
0
  5
7320
 10
598.613
 20
436.040
 30
0.000000
  70
    32
  0
VERTEX
  8
0
  5
7321
 10
598.607
 20
436.048
 30
0.000000
  70
    32
  0
VERTEX
  8
0
  5
7322
 10
598.601
 20
436.056
 30
0.000000
  70
    32
  0
VERTEX
  8
0
  5
7323
 10
598.596
 20
436.063
 30
0.000000
  70
    32
  0
VERTEX
  8
0
  5
7324
 10
598.590
 20
436.071
 30
0.000000
  70
    32
  0
VERTEX
  8
0
  5
7325
 10
598.584
 20
436.079
 30
0.000000
  70
    32
  0
VERTEX
  8
0
  5
7326
 10
598.578
 20
436.086
 30
0.000000
  70
    32
  0
VERTEX
  8
0
  5
7327
 10
598.572
 20
436.094
 30
0.000000
  70
    32
  0
VERTEX
  8
0
  5
7328
 10
598.565
 20
436.101
 30
0.000000
  70
    32
  0
VERTEX
  8
0
  5
7329
 10
598.559
 20
436.109
 30
0.000000
  70
    32
  0
VERTEX
  8
0
  5
732A
 10
598.553
 20
436.116
 30
0.000000
  70
    32
  0
VERTEX
  8
0
  5
732B
 10
598.547
 20
436.124
 30
0.000000
  70
    32
  0
VERTEX
  8
0
  5
732C
 10
598.541
 20
436.131
 30
0.000000
  70
    32
  0
VERTEX
  8
0
  5
732D
 10
598.535
 20
436.139
 30
0.000000
  70
    32
  0
VERTEX
  8
0
  5
732E
 10
598.528
 20
436.146
 30
0.000000
  70
    32
  0
VERTEX
  8
0
  5
732F
 10
598.522
 20
436.153
 30
0.000000
  70
    32
  0
VERTEX
  8
0
  5
7330
 10
598.516
 20
436.161
 30
0.000000
  70
    32
  0
VERTEX
  8
0
  5
7331
 10
598.509
 20
436.168
 30
0.000000
  70
    32
  0
VERTEX
  8
0
  5
7332
 10
598.503
 20
436.175
 30
0.000000
  70
    32
  0
VERTEX
  8
0
  5
7333
 10
598.497
 20
436.182
 30
0.000000
  70
    32
  0
VERTEX
  8
0
  5
7334
 10
598.490
 20
436.190
 30
0.000000
  70
    32
  0
VERTEX
  8
0
  5
7335
 10
598.484
 20
436.197
 30
0.000000
  70
    32
  0
VERTEX
  8
0
  5
7336
 10
598.477
 20
436.204
 30
0.000000
  70
    32
  0
VERTEX
  8
0
  5
7337
 10
598.471
 20
436.211
 30
0.000000
  70
    32
  0
VERTEX
  8
0
  5
7338
 10
598.464
 20
436.218
 30
0.000000
  70
    32
  0
VERTEX
  8
0
  5
7339
 10
598.458
 20
436.225
 30
0.000000
  70
    32
  0
VERTEX
  8
0
  5
733A
 10
598.451
 20
436.232
 30
0.000000
  70
    32
  0
VERTEX
  8
0
  5
733B
 10
598.444
 20
436.239
 30
0.000000
  70
    32
  0
VERTEX
  8
0
  5
733C
 10
598.438
 20
436.246
 30
0.000000
  70
    32
  0
VERTEX
  8
0
  5
733D
 10
598.431
 20
436.253
 30
0.000000
  70
    32
  0
VERTEX
  8
0
  5
733E
 10
598.424
 20
436.259
 30
0.000000
  70
    32
  0
VERTEX
  8
0
  5
733F
 10
598.418
 20
436.266
 30
0.000000
  70
    32
  0
VERTEX
  8
0
  5
7340
 10
598.411
 20
436.273
 30
0.000000
  70
    32
  0
VERTEX
  8
0
  5
7341
 10
598.404
 20
436.280
 30
0.000000
  70
    32
  0
VERTEX
  8
0
  5
7342
 10
598.397
 20
436.287
 30
0.000000
  70
    32
  0
VERTEX
  8
0
  5
7343
 10
598.390
 20
436.293
 30
0.000000
  70
    32
  0
VERTEX
  8
0
  5
7344
 10
598.384
 20
436.300
 30
0.000000
  70
    32
  0
VERTEX
  8
0
  5
7345
 10
598.377
 20
436.306
 30
0.000000
  70
    32
  0
VERTEX
  8
0
  5
7346
 10
598.370
 20
436.313
 30
0.000000
  70
    32
  0
VERTEX
  8
0
  5
7347
 10
598.363
 20
436.320
 30
0.000000
  70
    32
  0
VERTEX
  8
0
  5
7348
 10
598.356
 20
436.326
 30
0.000000
  70
    32
  0
VERTEX
  8
0
  5
7349
 10
598.349
 20
436.333
 30
0.000000
  70
    32
  0
VERTEX
  8
0
  5
734A
 10
598.342
 20
436.339
 30
0.000000
  70
    32
  0
VERTEX
  8
0
  5
734B
 10
598.335
 20
436.345
 30
0.000000
  70
    32
  0
VERTEX
  8
0
  5
734C
 10
598.328
 20
436.352
 30
0.000000
  70
    32
  0
VERTEX
  8
0
  5
734D
 10
598.321
 20
436.358
 30
0.000000
  70
    32
  0
VERTEX
  8
0
  5
734E
 10
598.314
 20
436.365
 30
0.000000
  70
    32
  0
VERTEX
  8
0
  5
734F
 10
598.306
 20
436.371
 30
0.000000
  70
    32
  0
VERTEX
  8
0
  5
7350
 10
598.299
 20
436.377
 30
0.000000
  70
    32
  0
VERTEX
  8
0
  5
7351
 10
598.292
 20
436.383
 30
0.000000
  70
    32
  0
VERTEX
  8
0
  5
7352
 10
598.285
 20
436.389
 30
0.000000
  70
    32
  0
VERTEX
  8
0
  5
7353
 10
598.278
 20
436.396
 30
0.000000
  70
    32
  0
VERTEX
  8
0
  5
7354
 10
598.270
 20
436.402
 30
0.000000
  70
    32
  0
VERTEX
  8
0
  5
7355
 10
598.263
 20
436.408
 30
0.000000
  70
    32
  0
VERTEX
  8
0
  5
7356
 10
598.256
 20
436.414
 30
0.000000
  70
    32
  0
VERTEX
  8
0
  5
7357
 10
598.248
 20
436.420
 30
0.000000
  70
    32
  0
VERTEX
  8
0
  5
7358
 10
598.241
 20
436.426
 30
0.000000
  70
    32
  0
VERTEX
  8
0
  5
7359
 10
598.234
 20
436.432
 30
0.000000
  70
    32
  0
VERTEX
  8
0
  5
735A
 10
598.226
 20
436.437
 30
0.000000
  70
    32
  0
VERTEX
  8
0
  5
735B
 10
598.219
 20
436.443
 30
0.000000
  70
    32
  0
VERTEX
  8
0
  5
735C
 10
598.211
 20
436.449
 30
0.000000
  70
    32
  0
VERTEX
  8
0
  5
735D
 10
598.204
 20
436.455
 30
0.000000
  70
    32
  0
VERTEX
  8
0
  5
735E
 10
598.196
 20
436.461
 30
0.000000
  70
    32
  0
VERTEX
  8
0
  5
735F
 10
598.189
 20
436.466
 30
0.000000
  70
    32
  0
VERTEX
  8
0
  5
7360
 10
598.181
 20
436.472
 30
0.000000
  70
    32
  0
VERTEX
  8
0
  5
7361
 10
598.174
 20
436.478
 30
0.000000
  70
    32
  0
VERTEX
  8
0
  5
7362
 10
598.166
 20
436.483
 30
0.000000
  70
    32
  0
VERTEX
  8
0
  5
7363
 10
598.158
 20
436.489
 30
0.000000
  70
    32
  0
VERTEX
  8
0
  5
7364
 10
598.151
 20
436.494
 30
0.000000
  70
    32
  0
VERTEX
  8
0
  5
7365
 10
598.143
 20
436.500
 30
0.000000
  70
    32
  0
VERTEX
  8
0
  5
7366
 10
598.135
 20
436.505
 30
0.000000
  70
    32
  0
VERTEX
  8
0
  5
7367
 10
598.128
 20
436.510
 30
0.000000
  70
    32
  0
VERTEX
  8
0
  5
7368
 10
598.120
 20
436.516
 30
0.000000
  70
    32
  0
VERTEX
  8
0
  5
7369
 10
598.112
 20
436.521
 30
0.000000
  70
    32
  0
VERTEX
  8
0
  5
736A
 10
598.104
 20
436.526
 30
0.000000
  70
    32
  0
VERTEX
  8
0
  5
736B
 10
598.097
 20
436.531
 30
0.000000
  70
    32
  0
VERTEX
  8
0
  5
736C
 10
598.089
 20
436.536
 30
0.000000
  70
    32
  0
VERTEX
  8
0
  5
736D
 10
598.081
 20
436.541
 30
0.000000
  70
    32
  0
VERTEX
  8
0
  5
736E
 10
598.073
 20
436.546
 30
0.000000
  70
    32
  0
VERTEX
  8
0
  5
736F
 10
598.065
 20
436.551
 30
0.000000
  70
    32
  0
VERTEX
  8
0
  5
7370
 10
598.057
 20
436.556
 30
0.000000
  70
    32
  0
VERTEX
  8
0
  5
7371
 10
598.049
 20
436.561
 30
0.000000
  70
    32
  0
VERTEX
  8
0
  5
7372
 10
598.041
 20
436.566
 30
0.000000
  70
    32
  0
VERTEX
  8
0
  5
7373
 10
598.033
 20
436.571
 30
0.000000
  70
    32
  0
VERTEX
  8
0
  5
7374
 10
598.025
 20
436.575
 30
0.000000
  70
    32
  0
VERTEX
  8
0
  5
7375
 10
598.017
 20
436.580
 30
0.000000
  70
    32
  0
VERTEX
  8
0
  5
7376
 10
598.009
 20
436.585
 30
0.000000
  70
    32
  0
VERTEX
  8
0
  5
7377
 10
598.001
 20
436.589
 30
0.000000
  70
    32
  0
VERTEX
  8
0
  5
7378
 10
597.993
 20
436.594
 30
0.000000
  70
    32
  0
VERTEX
  8
0
  5
7379
 10
597.985
 20
436.598
 30
0.000000
  70
    32
  0
VERTEX
  8
0
  5
737A
 10
597.977
 20
436.602
 30
0.000000
  70
    32
  0
VERTEX
  8
0
  5
737B
 10
597.968
 20
436.607
 30
0.000000
  70
    32
  0
VERTEX
  8
0
  5
737C
 10
597.960
 20
436.611
 30
0.000000
  70
    32
  0
VERTEX
  8
0
  5
737D
 10
597.952
 20
436.615
 30
0.000000
  70
    32
  0
VERTEX
  8
0
  5
737E
 10
597.944
 20
436.619
 30
0.000000
  70
    32
  0
VERTEX
  8
0
  5
737F
 10
597.935
 20
436.623
 30
0.000000
  70
    32
  0
VERTEX
  8
0
  5
7380
 10
597.927
 20
436.627
 30
0.000000
  70
    32
  0
VERTEX
  8
0
  5
7381
 10
597.919
 20
436.631
 30
0.000000
  70
    32
  0
VERTEX
  8
0
  5
7382
 10
597.910
 20
436.635
 30
0.000000
  70
    32
  0
VERTEX
  8
0
  5
7383
 10
597.902
 20
436.638
 30
0.000000
  70
    32
  0
VERTEX
  8
0
  5
7384
 10
597.894
 20
436.642
 30
0.000000
  70
    32
  0
VERTEX
  8
0
  5
7385
 10
597.885
 20
436.646
 30
0.000000
  70
    32
  0
VERTEX
  8
0
  5
7386
 10
597.877
 20
436.649
 30
0.000000
  70
    32
  0
VERTEX
  8
0
  5
7387
 10
597.868
 20
436.653
 30
0.000000
  70
    32
  0
VERTEX
  8
0
  5
7388
 10
597.860
 20
436.656
 30
0.000000
  70
    32
  0
VERTEX
  8
0
  5
7389
 10
597.851
 20
436.660
 30
0.000000
  70
    32
  0
VERTEX
  8
0
  5
738A
 10
597.843
 20
436.663
 30
0.000000
  70
    32
  0
VERTEX
  8
0
  5
738B
 10
597.834
 20
436.666
 30
0.000000
  70
    32
  0
VERTEX
  8
0
  5
738C
 10
597.826
 20
436.669
 30
0.000000
  70
    32
  0
VERTEX
  8
0
  5
738D
 10
597.817
 20
436.672
 30
0.000000
  70
    32
  0
VERTEX
  8
0
  5
738E
 10
597.808
 20
436.675
 30
0.000000
  70
    32
  0
VERTEX
  8
0
  5
738F
 10
597.800
 20
436.678
 30
0.000000
  70
    32
  0
VERTEX
  8
0
  5
7390
 10
597.791
 20
436.681
 30
0.000000
  70
    32
  0
VERTEX
  8
0
  5
7391
 10
597.782
 20
436.684
 30
0.000000
  70
    32
  0
VERTEX
  8
0
  5
7392
 10
597.774
 20
436.686
 30
0.000000
  70
    32
  0
VERTEX
  8
0
  5
7393
 10
597.765
 20
436.689
 30
0.000000
  70
    32
  0
VERTEX
  8
0
  5
7394
 10
597.756
 20
436.692
 30
0.000000
  70
    32
  0
VERTEX
  8
0
  5
7395
 10
597.747
 20
436.694
 30
0.000000
  70
    32
  0
VERTEX
  8
0
  5
7396
 10
597.739
 20
436.697
 30
0.000000
  70
    32
  0
VERTEX
  8
0
  5
7397
 10
597.730
 20
436.699
 30
0.000000
  70
    32
  0
VERTEX
  8
0
  5
7398
 10
597.721
 20
436.702
 30
0.000000
  70
    32
  0
VERTEX
  8
0
  5
7399
 10
597.712
 20
436.704
 30
0.000000
  70
    32
  0
VERTEX
  8
0
  5
739A
 10
597.703
 20
436.706
 30
0.000000
  70
    32
  0
VERTEX
  8
0
  5
739B
 10
597.695
 20
436.709
 30
0.000000
  70
    32
  0
VERTEX
  8
0
  5
739C
 10
597.686
 20
436.711
 30
0.000000
  70
    32
  0
VERTEX
  8
0
  5
739D
 10
597.677
 20
436.713
 30
0.000000
  70
    32
  0
VERTEX
  8
0
  5
739E
 10
597.668
 20
436.715
 30
0.000000
  70
    32
  0
VERTEX
  8
0
  5
739F
 10
597.659
 20
436.717
 30
0.000000
  70
    32
  0
VERTEX
  8
0
  5
73A0
 10
597.650
 20
436.719
 30
0.000000
  70
    32
  0
VERTEX
  8
0
  5
73A1
 10
597.641
 20
436.721
 30
0.000000
  70
    32
  0
VERTEX
  8
0
  5
73A2
 10
597.632
 20
436.723
 30
0.000000
  70
    32
  0
VERTEX
  8
0
  5
73A3
 10
597.623
 20
436.725
 30
0.000000
  70
    32
  0
VERTEX
  8
0
  5
73A4
 10
597.614
 20
436.727
 30
0.000000
  70
    32
  0
VERTEX
  8
0
  5
73A5
 10
597.605
 20
436.729
 30
0.000000
  70
    32
  0
VERTEX
  8
0
  5
73A6
 10
597.596
 20
436.731
 30
0.000000
  70
    32
  0
VERTEX
  8
0
  5
73A7
 10
597.587
 20
436.733
 30
0.000000
  70
    32
  0
VERTEX
  8
0
  5
73A8
 10
597.578
 20
436.735
 30
0.000000
  70
    32
  0
VERTEX
  8
0
  5
73A9
 10
597.569
 20
436.737
 30
0.000000
  70
    32
  0
VERTEX
  8
0
  5
73AA
 10
597.560
 20
436.738
 30
0.000000
  70
    32
  0
VERTEX
  8
0
  5
73AB
 10
597.551
 20
436.740
 30
0.000000
  70
    32
  0
VERTEX
  8
0
  5
73AC
 10
597.542
 20
436.742
 30
0.000000
  70
    32
  0
VERTEX
  8
0
  5
73AD
 10
597.533
 20
436.744
 30
0.000000
  70
    32
  0
VERTEX
  8
0
  5
73AE
 10
597.524
 20
436.745
 30
0.000000
  70
    32
  0
VERTEX
  8
0
  5
73AF
 10
597.515
 20
436.747
 30
0.000000
  70
    32
  0
VERTEX
  8
0
  5
73B0
 10
597.506
 20
436.749
 30
0.000000
  70
    32
  0
VERTEX
  8
0
  5
73B1
 10
597.497
 20
436.751
 30
0.000000
  70
    32
  0
VERTEX
  8
0
  5
73B2
 10
597.488
 20
436.752
 30
0.000000
  70
    32
  0
VERTEX
  8
0
  5
73B3
 10
597.479
 20
436.754
 30
0.000000
  70
    32
  0
VERTEX
  8
0
  5
73B4
 10
597.470
 20
436.756
 30
0.000000
  70
    32
  0
SEQEND
  8
0
  5
73B5
  0
LINE
  5
6F47
  8
0
  6
CONTINUOUS
 10
597.08994030389988
 20
436.69106057449989
 30
0.0
 11
597.05458963470005
 21
436.67065306749993
 31
0.0
  0
POLYLINE
  8
0
  5
73B6
  66
     1
 10
0.000000
 20
0.000000
 30
0.000000
  70
     8
  0
VERTEX
  8
0
  5
73B7
 10
396.703
 20
550.978
 30
0.000000
  70
    32
  0
VERTEX
  8
0
  5
73B8
 10
396.708
 20
550.986
 30
0.000000
  70
    32
  0
VERTEX
  8
0
  5
73B9
 10
396.712
 20
550.994
 30
0.000000
  70
    32
  0
VERTEX
  8
0
  5
73BA
 10
396.717
 20
551.002
 30
0.000000
  70
    32
  0
VERTEX
  8
0
  5
73BB
 10
396.721
 20
551.011
 30
0.000000
  70
    32
  0
VERTEX
  8
0
  5
73BC
 10
396.725
 20
551.019
 30
0.000000
  70
    32
  0
VERTEX
  8
0
  5
73BD
 10
396.730
 20
551.027
 30
0.000000
  70
    32
  0
VERTEX
  8
0
  5
73BE
 10
396.734
 20
551.035
 30
0.000000
  70
    32
  0
VERTEX
  8
0
  5
73BF
 10
396.738
 20
551.043
 30
0.000000
  70
    32
  0
VERTEX
  8
0
  5
73C0
 10
396.742
 20
551.051
 30
0.000000
  70
    32
  0
VERTEX
  8
0
  5
73C1
 10
396.746
 20
551.060
 30
0.000000
  70
    32
  0
VERTEX
  8
0
  5
73C2
 10
396.749
 20
551.068
 30
0.000000
  70
    32
  0
VERTEX
  8
0
  5
73C3
 10
396.753
 20
551.076
 30
0.000000
  70
    32
  0
VERTEX
  8
0
  5
73C4
 10
396.757
 20
551.085
 30
0.000000
  70
    32
  0
VERTEX
  8
0
  5
73C5
 10
396.760
 20
551.093
 30
0.000000
  70
    32
  0
VERTEX
  8
0
  5
73C6
 10
396.763
 20
551.102
 30
0.000000
  70
    32
  0
VERTEX
  8
0
  5
73C7
 10
396.766
 20
551.110
 30
0.000000
  70
    32
  0
VERTEX
  8
0
  5
73C8
 10
396.769
 20
551.119
 30
0.000000
  70
    32
  0
VERTEX
  8
0
  5
73C9
 10
396.772
 20
551.127
 30
0.000000
  70
    32
  0
VERTEX
  8
0
  5
73CA
 10
396.775
 20
551.136
 30
0.000000
  70
    32
  0
VERTEX
  8
0
  5
73CB
 10
396.778
 20
551.145
 30
0.000000
  70
    32
  0
VERTEX
  8
0
  5
73CC
 10
396.780
 20
551.154
 30
0.000000
  70
    32
  0
VERTEX
  8
0
  5
73CD
 10
396.783
 20
551.162
 30
0.000000
  70
    32
  0
VERTEX
  8
0
  5
73CE
 10
396.785
 20
551.171
 30
0.000000
  70
    32
  0
VERTEX
  8
0
  5
73CF
 10
396.788
 20
551.180
 30
0.000000
  70
    32
  0
VERTEX
  8
0
  5
73D0
 10
396.790
 20
551.189
 30
0.000000
  70
    32
  0
VERTEX
  8
0
  5
73D1
 10
396.792
 20
551.198
 30
0.000000
  70
    32
  0
VERTEX
  8
0
  5
73D2
 10
396.794
 20
551.207
 30
0.000000
  70
    32
  0
VERTEX
  8
0
  5
73D3
 10
396.796
 20
551.216
 30
0.000000
  70
    32
  0
VERTEX
  8
0
  5
73D4
 10
396.798
 20
551.225
 30
0.000000
  70
    32
  0
VERTEX
  8
0
  5
73D5
 10
396.799
 20
551.234
 30
0.000000
  70
    32
  0
VERTEX
  8
0
  5
73D6
 10
396.801
 20
551.243
 30
0.000000
  70
    32
  0
VERTEX
  8
0
  5
73D7
 10
396.803
 20
551.252
 30
0.000000
  70
    32
  0
VERTEX
  8
0
  5
73D8
 10
396.804
 20
551.261
 30
0.000000
  70
    32
  0
VERTEX
  8
0
  5
73D9
 10
396.805
 20
551.270
 30
0.000000
  70
    32
  0
VERTEX
  8
0
  5
73DA
 10
396.807
 20
551.279
 30
0.000000
  70
    32
  0
VERTEX
  8
0
  5
73DB
 10
396.808
 20
551.289
 30
0.000000
  70
    32
  0
VERTEX
  8
0
  5
73DC
 10
396.809
 20
551.298
 30
0.000000
  70
    32
  0
VERTEX
  8
0
  5
73DD
 10
396.810
 20
551.307
 30
0.000000
  70
    32
  0
VERTEX
  8
0
  5
73DE
 10
396.811
 20
551.316
 30
0.000000
  70
    32
  0
VERTEX
  8
0
  5
73DF
 10
396.812
 20
551.325
 30
0.000000
  70
    32
  0
VERTEX
  8
0
  5
73E0
 10
396.813
 20
551.335
 30
0.000000
  70
    32
  0
VERTEX
  8
0
  5
73E1
 10
396.814
 20
551.344
 30
0.000000
  70
    32
  0
VERTEX
  8
0
  5
73E2
 10
396.815
 20
551.353
 30
0.000000
  70
    32
  0
VERTEX
  8
0
  5
73E3
 10
396.816
 20
551.363
 30
0.000000
  70
    32
  0
VERTEX
  8
0
  5
73E4
 10
396.816
 20
551.372
 30
0.000000
  70
    32
  0
VERTEX
  8
0
  5
73E5
 10
396.817
 20
551.381
 30
0.000000
  70
    32
  0
VERTEX
  8
0
  5
73E6
 10
396.817
 20
551.390
 30
0.000000
  70
    32
  0
VERTEX
  8
0
  5
73E7
 10
396.818
 20
551.400
 30
0.000000
  70
    32
  0
VERTEX
  8
0
  5
73E8
 10
396.818
 20
551.409
 30
0.000000
  70
    32
  0
VERTEX
  8
0
  5
73E9
 10
396.819
 20
551.418
 30
0.000000
  70
    32
  0
VERTEX
  8
0
  5
73EA
 10
396.819
 20
551.428
 30
0.000000
  70
    32
  0
VERTEX
  8
0
  5
73EB
 10
396.820
 20
551.437
 30
0.000000
  70
    32
  0
VERTEX
  8
0
  5
73EC
 10
396.820
 20
551.446
 30
0.000000
  70
    32
  0
VERTEX
  8
0
  5
73ED
 10
396.820
 20
551.456
 30
0.000000
  70
    32
  0
VERTEX
  8
0
  5
73EE
 10
396.820
 20
551.465
 30
0.000000
  70
    32
  0
VERTEX
  8
0
  5
73EF
 10
396.821
 20
551.474
 30
0.000000
  70
    32
  0
VERTEX
  8
0
  5
73F0
 10
396.821
 20
551.484
 30
0.000000
  70
    32
  0
VERTEX
  8
0
  5
73F1
 10
396.821
 20
551.493
 30
0.000000
  70
    32
  0
VERTEX
  8
0
  5
73F2
 10
396.821
 20
551.502
 30
0.000000
  70
    32
  0
VERTEX
  8
0
  5
73F3
 10
396.821
 20
551.512
 30
0.000000
  70
    32
  0
VERTEX
  8
0
  5
73F4
 10
396.821
 20
551.521
 30
0.000000
  70
    32
  0
VERTEX
  8
0
  5
73F5
 10
396.821
 20
551.530
 30
0.000000
  70
    32
  0
VERTEX
  8
0
  5
73F6
 10
396.821
 20
551.540
 30
0.000000
  70
    32
  0
VERTEX
  8
0
  5
73F7
 10
396.821
 20
551.549
 30
0.000000
  70
    32
  0
VERTEX
  8
0
  5
73F8
 10
396.821
 20
551.558
 30
0.000000
  70
    32
  0
VERTEX
  8
0
  5
73F9
 10
396.820
 20
551.568
 30
0.000000
  70
    32
  0
VERTEX
  8
0
  5
73FA
 10
396.820
 20
551.577
 30
0.000000
  70
    32
  0
VERTEX
  8
0
  5
73FB
 10
396.820
 20
551.586
 30
0.000000
  70
    32
  0
VERTEX
  8
0
  5
73FC
 10
396.820
 20
551.595
 30
0.000000
  70
    32
  0
VERTEX
  8
0
  5
73FD
 10
396.819
 20
551.605
 30
0.000000
  70
    32
  0
VERTEX
  8
0
  5
73FE
 10
396.819
 20
551.614
 30
0.000000
  70
    32
  0
VERTEX
  8
0
  5
73FF
 10
396.818
 20
551.623
 30
0.000000
  70
    32
  0
VERTEX
  8
0
  5
7400
 10
396.818
 20
551.633
 30
0.000000
  70
    32
  0
VERTEX
  8
0
  5
7401
 10
396.817
 20
551.642
 30
0.000000
  70
    32
  0
VERTEX
  8
0
  5
7402
 10
396.817
 20
551.651
 30
0.000000
  70
    32
  0
VERTEX
  8
0
  5
7403
 10
396.816
 20
551.661
 30
0.000000
  70
    32
  0
VERTEX
  8
0
  5
7404
 10
396.816
 20
551.670
 30
0.000000
  70
    32
  0
VERTEX
  8
0
  5
7405
 10
396.815
 20
551.679
 30
0.000000
  70
    32
  0
VERTEX
  8
0
  5
7406
 10
396.814
 20
551.688
 30
0.000000
  70
    32
  0
VERTEX
  8
0
  5
7407
 10
396.813
 20
551.698
 30
0.000000
  70
    32
  0
VERTEX
  8
0
  5
7408
 10
396.813
 20
551.707
 30
0.000000
  70
    32
  0
VERTEX
  8
0
  5
7409
 10
396.812
 20
551.716
 30
0.000000
  70
    32
  0
VERTEX
  8
0
  5
740A
 10
396.811
 20
551.726
 30
0.000000
  70
    32
  0
VERTEX
  8
0
  5
740B
 10
396.810
 20
551.735
 30
0.000000
  70
    32
  0
VERTEX
  8
0
  5
740C
 10
396.809
 20
551.744
 30
0.000000
  70
    32
  0
VERTEX
  8
0
  5
740D
 10
396.808
 20
551.753
 30
0.000000
  70
    32
  0
VERTEX
  8
0
  5
740E
 10
396.807
 20
551.763
 30
0.000000
  70
    32
  0
VERTEX
  8
0
  5
740F
 10
396.806
 20
551.772
 30
0.000000
  70
    32
  0
VERTEX
  8
0
  5
7410
 10
396.804
 20
551.781
 30
0.000000
  70
    32
  0
VERTEX
  8
0
  5
7411
 10
396.803
 20
551.790
 30
0.000000
  70
    32
  0
VERTEX
  8
0
  5
7412
 10
396.802
 20
551.800
 30
0.000000
  70
    32
  0
VERTEX
  8
0
  5
7413
 10
396.800
 20
551.809
 30
0.000000
  70
    32
  0
VERTEX
  8
0
  5
7414
 10
396.799
 20
551.818
 30
0.000000
  70
    32
  0
VERTEX
  8
0
  5
7415
 10
396.798
 20
551.828
 30
0.000000
  70
    32
  0
VERTEX
  8
0
  5
7416
 10
396.796
 20
551.837
 30
0.000000
  70
    32
  0
VERTEX
  8
0
  5
7417
 10
396.795
 20
551.846
 30
0.000000
  70
    32
  0
VERTEX
  8
0
  5
7418
 10
396.793
 20
551.855
 30
0.000000
  70
    32
  0
VERTEX
  8
0
  5
7419
 10
396.791
 20
551.865
 30
0.000000
  70
    32
  0
VERTEX
  8
0
  5
741A
 10
396.790
 20
551.874
 30
0.000000
  70
    32
  0
VERTEX
  8
0
  5
741B
 10
396.788
 20
551.883
 30
0.000000
  70
    32
  0
VERTEX
  8
0
  5
741C
 10
396.786
 20
551.893
 30
0.000000
  70
    32
  0
VERTEX
  8
0
  5
741D
 10
396.784
 20
551.902
 30
0.000000
  70
    32
  0
VERTEX
  8
0
  5
741E
 10
396.783
 20
551.911
 30
0.000000
  70
    32
  0
VERTEX
  8
0
  5
741F
 10
396.781
 20
551.920
 30
0.000000
  70
    32
  0
VERTEX
  8
0
  5
7420
 10
396.779
 20
551.930
 30
0.000000
  70
    32
  0
VERTEX
  8
0
  5
7421
 10
396.777
 20
551.939
 30
0.000000
  70
    32
  0
VERTEX
  8
0
  5
7422
 10
396.775
 20
551.948
 30
0.000000
  70
    32
  0
VERTEX
  8
0
  5
7423
 10
396.772
 20
551.957
 30
0.000000
  70
    32
  0
VERTEX
  8
0
  5
7424
 10
396.770
 20
551.967
 30
0.000000
  70
    32
  0
VERTEX
  8
0
  5
7425
 10
396.768
 20
551.976
 30
0.000000
  70
    32
  0
VERTEX
  8
0
  5
7426
 10
396.766
 20
551.985
 30
0.000000
  70
    32
  0
VERTEX
  8
0
  5
7427
 10
396.763
 20
551.994
 30
0.000000
  70
    32
  0
VERTEX
  8
0
  5
7428
 10
396.761
 20
552.004
 30
0.000000
  70
    32
  0
VERTEX
  8
0
  5
7429
 10
396.759
 20
552.013
 30
0.000000
  70
    32
  0
VERTEX
  8
0
  5
742A
 10
396.756
 20
552.022
 30
0.000000
  70
    32
  0
VERTEX
  8
0
  5
742B
 10
396.754
 20
552.031
 30
0.000000
  70
    32
  0
VERTEX
  8
0
  5
742C
 10
396.751
 20
552.041
 30
0.000000
  70
    32
  0
VERTEX
  8
0
  5
742D
 10
396.748
 20
552.050
 30
0.000000
  70
    32
  0
VERTEX
  8
0
  5
742E
 10
396.746
 20
552.059
 30
0.000000
  70
    32
  0
VERTEX
  8
0
  5
742F
 10
396.743
 20
552.068
 30
0.000000
  70
    32
  0
VERTEX
  8
0
  5
7430
 10
396.740
 20
552.078
 30
0.000000
  70
    32
  0
VERTEX
  8
0
  5
7431
 10
396.738
 20
552.087
 30
0.000000
  70
    32
  0
VERTEX
  8
0
  5
7432
 10
396.735
 20
552.096
 30
0.000000
  70
    32
  0
VERTEX
  8
0
  5
7433
 10
396.732
 20
552.105
 30
0.000000
  70
    32
  0
VERTEX
  8
0
  5
7434
 10
396.729
 20
552.114
 30
0.000000
  70
    32
  0
VERTEX
  8
0
  5
7435
 10
396.726
 20
552.123
 30
0.000000
  70
    32
  0
VERTEX
  8
0
  5
7436
 10
396.723
 20
552.133
 30
0.000000
  70
    32
  0
VERTEX
  8
0
  5
7437
 10
396.720
 20
552.142
 30
0.000000
  70
    32
  0
VERTEX
  8
0
  5
7438
 10
396.717
 20
552.151
 30
0.000000
  70
    32
  0
VERTEX
  8
0
  5
7439
 10
396.714
 20
552.160
 30
0.000000
  70
    32
  0
VERTEX
  8
0
  5
743A
 10
396.711
 20
552.169
 30
0.000000
  70
    32
  0
VERTEX
  8
0
  5
743B
 10
396.707
 20
552.178
 30
0.000000
  70
    32
  0
VERTEX
  8
0
  5
743C
 10
396.704
 20
552.187
 30
0.000000
  70
    32
  0
VERTEX
  8
0
  5
743D
 10
396.701
 20
552.197
 30
0.000000
  70
    32
  0
VERTEX
  8
0
  5
743E
 10
396.697
 20
552.206
 30
0.000000
  70
    32
  0
VERTEX
  8
0
  5
743F
 10
396.694
 20
552.215
 30
0.000000
  70
    32
  0
VERTEX
  8
0
  5
7440
 10
396.691
 20
552.224
 30
0.000000
  70
    32
  0
VERTEX
  8
0
  5
7441
 10
396.687
 20
552.233
 30
0.000000
  70
    32
  0
VERTEX
  8
0
  5
7442
 10
396.684
 20
552.242
 30
0.000000
  70
    32
  0
VERTEX
  8
0
  5
7443
 10
396.680
 20
552.251
 30
0.000000
  70
    32
  0
VERTEX
  8
0
  5
7444
 10
396.676
 20
552.260
 30
0.000000
  70
    32
  0
VERTEX
  8
0
  5
7445
 10
396.673
 20
552.269
 30
0.000000
  70
    32
  0
VERTEX
  8
0
  5
7446
 10
396.669
 20
552.278
 30
0.000000
  70
    32
  0
VERTEX
  8
0
  5
7447
 10
396.665
 20
552.287
 30
0.000000
  70
    32
  0
VERTEX
  8
0
  5
7448
 10
396.662
 20
552.296
 30
0.000000
  70
    32
  0
VERTEX
  8
0
  5
7449
 10
396.658
 20
552.305
 30
0.000000
  70
    32
  0
VERTEX
  8
0
  5
744A
 10
396.654
 20
552.314
 30
0.000000
  70
    32
  0
VERTEX
  8
0
  5
744B
 10
396.650
 20
552.323
 30
0.000000
  70
    32
  0
VERTEX
  8
0
  5
744C
 10
396.646
 20
552.332
 30
0.000000
  70
    32
  0
VERTEX
  8
0
  5
744D
 10
396.642
 20
552.341
 30
0.000000
  70
    32
  0
VERTEX
  8
0
  5
744E
 10
396.638
 20
552.350
 30
0.000000
  70
    32
  0
VERTEX
  8
0
  5
744F
 10
396.634
 20
552.359
 30
0.000000
  70
    32
  0
VERTEX
  8
0
  5
7450
 10
396.630
 20
552.368
 30
0.000000
  70
    32
  0
VERTEX
  8
0
  5
7451
 10
396.626
 20
552.376
 30
0.000000
  70
    32
  0
VERTEX
  8
0
  5
7452
 10
396.622
 20
552.385
 30
0.000000
  70
    32
  0
VERTEX
  8
0
  5
7453
 10
396.618
 20
552.394
 30
0.000000
  70
    32
  0
VERTEX
  8
0
  5
7454
 10
396.613
 20
552.403
 30
0.000000
  70
    32
  0
VERTEX
  8
0
  5
7455
 10
396.609
 20
552.412
 30
0.000000
  70
    32
  0
VERTEX
  8
0
  5
7456
 10
396.605
 20
552.421
 30
0.000000
  70
    32
  0
VERTEX
  8
0
  5
7457
 10
396.601
 20
552.429
 30
0.000000
  70
    32
  0
VERTEX
  8
0
  5
7458
 10
396.596
 20
552.438
 30
0.000000
  70
    32
  0
VERTEX
  8
0
  5
7459
 10
396.592
 20
552.447
 30
0.000000
  70
    32
  0
VERTEX
  8
0
  5
745A
 10
396.587
 20
552.455
 30
0.000000
  70
    32
  0
VERTEX
  8
0
  5
745B
 10
396.583
 20
552.464
 30
0.000000
  70
    32
  0
VERTEX
  8
0
  5
745C
 10
396.578
 20
552.473
 30
0.000000
  70
    32
  0
VERTEX
  8
0
  5
745D
 10
396.574
 20
552.482
 30
0.000000
  70
    32
  0
VERTEX
  8
0
  5
745E
 10
396.569
 20
552.490
 30
0.000000
  70
    32
  0
VERTEX
  8
0
  5
745F
 10
396.565
 20
552.499
 30
0.000000
  70
    32
  0
VERTEX
  8
0
  5
7460
 10
396.560
 20
552.507
 30
0.000000
  70
    32
  0
VERTEX
  8
0
  5
7461
 10
396.555
 20
552.516
 30
0.000000
  70
    32
  0
VERTEX
  8
0
  5
7462
 10
396.550
 20
552.525
 30
0.000000
  70
    32
  0
VERTEX
  8
0
  5
7463
 10
396.546
 20
552.533
 30
0.000000
  70
    32
  0
VERTEX
  8
0
  5
7464
 10
396.541
 20
552.542
 30
0.000000
  70
    32
  0
VERTEX
  8
0
  5
7465
 10
396.536
 20
552.550
 30
0.000000
  70
    32
  0
VERTEX
  8
0
  5
7466
 10
396.531
 20
552.559
 30
0.000000
  70
    32
  0
VERTEX
  8
0
  5
7467
 10
396.526
 20
552.567
 30
0.000000
  70
    32
  0
VERTEX
  8
0
  5
7468
 10
396.521
 20
552.576
 30
0.000000
  70
    32
  0
VERTEX
  8
0
  5
7469
 10
396.516
 20
552.584
 30
0.000000
  70
    32
  0
VERTEX
  8
0
  5
746A
 10
396.511
 20
552.592
 30
0.000000
  70
    32
  0
VERTEX
  8
0
  5
746B
 10
396.506
 20
552.601
 30
0.000000
  70
    32
  0
VERTEX
  8
0
  5
746C
 10
396.501
 20
552.609
 30
0.000000
  70
    32
  0
VERTEX
  8
0
  5
746D
 10
396.496
 20
552.617
 30
0.000000
  70
    32
  0
VERTEX
  8
0
  5
746E
 10
396.491
 20
552.626
 30
0.000000
  70
    32
  0
VERTEX
  8
0
  5
746F
 10
396.486
 20
552.634
 30
0.000000
  70
    32
  0
VERTEX
  8
0
  5
7470
 10
396.480
 20
552.642
 30
0.000000
  70
    32
  0
VERTEX
  8
0
  5
7471
 10
396.475
 20
552.651
 30
0.000000
  70
    32
  0
VERTEX
  8
0
  5
7472
 10
396.470
 20
552.659
 30
0.000000
  70
    32
  0
VERTEX
  8
0
  5
7473
 10
396.465
 20
552.667
 30
0.000000
  70
    32
  0
VERTEX
  8
0
  5
7474
 10
396.459
 20
552.675
 30
0.000000
  70
    32
  0
VERTEX
  8
0
  5
7475
 10
396.454
 20
552.683
 30
0.000000
  70
    32
  0
VERTEX
  8
0
  5
7476
 10
396.448
 20
552.691
 30
0.000000
  70
    32
  0
VERTEX
  8
0
  5
7477
 10
396.443
 20
552.699
 30
0.000000
  70
    32
  0
VERTEX
  8
0
  5
7478
 10
396.437
 20
552.708
 30
0.000000
  70
    32
  0
VERTEX
  8
0
  5
7479
 10
396.432
 20
552.716
 30
0.000000
  70
    32
  0
VERTEX
  8
0
  5
747A
 10
396.426
 20
552.724
 30
0.000000
  70
    32
  0
VERTEX
  8
0
  5
747B
 10
396.421
 20
552.732
 30
0.000000
  70
    32
  0
VERTEX
  8
0
  5
747C
 10
396.415
 20
552.740
 30
0.000000
  70
    32
  0
VERTEX
  8
0
  5
747D
 10
396.409
 20
552.747
 30
0.000000
  70
    32
  0
VERTEX
  8
0
  5
747E
 10
396.404
 20
552.755
 30
0.000000
  70
    32
  0
VERTEX
  8
0
  5
747F
 10
396.398
 20
552.763
 30
0.000000
  70
    32
  0
VERTEX
  8
0
  5
7480
 10
396.392
 20
552.771
 30
0.000000
  70
    32
  0
VERTEX
  8
0
  5
7481
 10
396.386
 20
552.779
 30
0.000000
  70
    32
  0
VERTEX
  8
0
  5
7482
 10
396.381
 20
552.787
 30
0.000000
  70
    32
  0
VERTEX
  8
0
  5
7483
 10
396.375
 20
552.794
 30
0.000000
  70
    32
  0
VERTEX
  8
0
  5
7484
 10
396.369
 20
552.802
 30
0.000000
  70
    32
  0
VERTEX
  8
0
  5
7485
 10
396.363
 20
552.810
 30
0.000000
  70
    32
  0
VERTEX
  8
0
  5
7486
 10
396.357
 20
552.817
 30
0.000000
  70
    32
  0
VERTEX
  8
0
  5
7487
 10
396.351
 20
552.825
 30
0.000000
  70
    32
  0
VERTEX
  8
0
  5
7488
 10
396.345
 20
552.833
 30
0.000000
  70
    32
  0
VERTEX
  8
0
  5
7489
 10
396.339
 20
552.840
 30
0.000000
  70
    32
  0
VERTEX
  8
0
  5
748A
 10
396.333
 20
552.848
 30
0.000000
  70
    32
  0
VERTEX
  8
0
  5
748B
 10
396.327
 20
552.855
 30
0.000000
  70
    32
  0
VERTEX
  8
0
  5
748C
 10
396.321
 20
552.863
 30
0.000000
  70
    32
  0
VERTEX
  8
0
  5
748D
 10
396.315
 20
552.870
 30
0.000000
  70
    32
  0
VERTEX
  8
0
  5
748E
 10
396.308
 20
552.878
 30
0.000000
  70
    32
  0
VERTEX
  8
0
  5
748F
 10
396.302
 20
552.885
 30
0.000000
  70
    32
  0
VERTEX
  8
0
  5
7490
 10
396.296
 20
552.892
 30
0.000000
  70
    32
  0
VERTEX
  8
0
  5
7491
 10
396.290
 20
552.900
 30
0.000000
  70
    32
  0
VERTEX
  8
0
  5
7492
 10
396.283
 20
552.907
 30
0.000000
  70
    32
  0
VERTEX
  8
0
  5
7493
 10
396.277
 20
552.914
 30
0.000000
  70
    32
  0
VERTEX
  8
0
  5
7494
 10
396.271
 20
552.922
 30
0.000000
  70
    32
  0
VERTEX
  8
0
  5
7495
 10
396.264
 20
552.929
 30
0.000000
  70
    32
  0
VERTEX
  8
0
  5
7496
 10
396.258
 20
552.936
 30
0.000000
  70
    32
  0
VERTEX
  8
0
  5
7497
 10
396.251
 20
552.943
 30
0.000000
  70
    32
  0
VERTEX
  8
0
  5
7498
 10
396.245
 20
552.950
 30
0.000000
  70
    32
  0
VERTEX
  8
0
  5
7499
 10
396.238
 20
552.957
 30
0.000000
  70
    32
  0
VERTEX
  8
0
  5
749A
 10
396.232
 20
552.964
 30
0.000000
  70
    32
  0
VERTEX
  8
0
  5
749B
 10
396.225
 20
552.971
 30
0.000000
  70
    32
  0
VERTEX
  8
0
  5
749C
 10
396.219
 20
552.978
 30
0.000000
  70
    32
  0
VERTEX
  8
0
  5
749D
 10
396.212
 20
552.985
 30
0.000000
  70
    32
  0
VERTEX
  8
0
  5
749E
 10
396.205
 20
552.992
 30
0.000000
  70
    32
  0
VERTEX
  8
0
  5
749F
 10
396.199
 20
552.999
 30
0.000000
  70
    32
  0
VERTEX
  8
0
  5
74A0
 10
396.192
 20
553.006
 30
0.000000
  70
    32
  0
VERTEX
  8
0
  5
74A1
 10
396.185
 20
553.013
 30
0.000000
  70
    32
  0
VERTEX
  8
0
  5
74A2
 10
396.178
 20
553.019
 30
0.000000
  70
    32
  0
VERTEX
  8
0
  5
74A3
 10
396.172
 20
553.026
 30
0.000000
  70
    32
  0
VERTEX
  8
0
  5
74A4
 10
396.165
 20
553.033
 30
0.000000
  70
    32
  0
VERTEX
  8
0
  5
74A5
 10
396.158
 20
553.040
 30
0.000000
  70
    32
  0
VERTEX
  8
0
  5
74A6
 10
396.151
 20
553.046
 30
0.000000
  70
    32
  0
VERTEX
  8
0
  5
74A7
 10
396.144
 20
553.053
 30
0.000000
  70
    32
  0
VERTEX
  8
0
  5
74A8
 10
396.137
 20
553.059
 30
0.000000
  70
    32
  0
VERTEX
  8
0
  5
74A9
 10
396.130
 20
553.066
 30
0.000000
  70
    32
  0
VERTEX
  8
0
  5
74AA
 10
396.123
 20
553.072
 30
0.000000
  70
    32
  0
VERTEX
  8
0
  5
74AB
 10
396.116
 20
553.079
 30
0.000000
  70
    32
  0
VERTEX
  8
0
  5
74AC
 10
396.109
 20
553.085
 30
0.000000
  70
    32
  0
VERTEX
  8
0
  5
74AD
 10
396.102
 20
553.092
 30
0.000000
  70
    32
  0
VERTEX
  8
0
  5
74AE
 10
396.095
 20
553.098
 30
0.000000
  70
    32
  0
VERTEX
  8
0
  5
74AF
 10
396.088
 20
553.105
 30
0.000000
  70
    32
  0
VERTEX
  8
0
  5
74B0
 10
396.081
 20
553.111
 30
0.000000
  70
    32
  0
VERTEX
  8
0
  5
74B1
 10
396.074
 20
553.117
 30
0.000000
  70
    32
  0
VERTEX
  8
0
  5
74B2
 10
396.067
 20
553.123
 30
0.000000
  70
    32
  0
VERTEX
  8
0
  5
74B3
 10
396.059
 20
553.130
 30
0.000000
  70
    32
  0
VERTEX
  8
0
  5
74B4
 10
396.052
 20
553.136
 30
0.000000
  70
    32
  0
VERTEX
  8
0
  5
74B5
 10
396.045
 20
553.142
 30
0.000000
  70
    32
  0
VERTEX
  8
0
  5
74B6
 10
396.038
 20
553.148
 30
0.000000
  70
    32
  0
VERTEX
  8
0
  5
74B7
 10
396.030
 20
553.154
 30
0.000000
  70
    32
  0
VERTEX
  8
0
  5
74B8
 10
396.023
 20
553.160
 30
0.000000
  70
    32
  0
VERTEX
  8
0
  5
74B9
 10
396.016
 20
553.166
 30
0.000000
  70
    32
  0
VERTEX
  8
0
  5
74BA
 10
396.008
 20
553.172
 30
0.000000
  70
    32
  0
VERTEX
  8
0
  5
74BB
 10
396.001
 20
553.178
 30
0.000000
  70
    32
  0
VERTEX
  8
0
  5
74BC
 10
395.994
 20
553.184
 30
0.000000
  70
    32
  0
VERTEX
  8
0
  5
74BD
 10
395.986
 20
553.190
 30
0.000000
  70
    32
  0
VERTEX
  8
0
  5
74BE
 10
395.979
 20
553.196
 30
0.000000
  70
    32
  0
VERTEX
  8
0
  5
74BF
 10
395.971
 20
553.201
 30
0.000000
  70
    32
  0
VERTEX
  8
0
  5
74C0
 10
395.964
 20
553.207
 30
0.000000
  70
    32
  0
VERTEX
  8
0
  5
74C1
 10
395.956
 20
553.213
 30
0.000000
  70
    32
  0
VERTEX
  8
0
  5
74C2
 10
395.949
 20
553.218
 30
0.000000
  70
    32
  0
VERTEX
  8
0
  5
74C3
 10
395.941
 20
553.224
 30
0.000000
  70
    32
  0
VERTEX
  8
0
  5
74C4
 10
395.933
 20
553.230
 30
0.000000
  70
    32
  0
VERTEX
  8
0
  5
74C5
 10
395.926
 20
553.235
 30
0.000000
  70
    32
  0
VERTEX
  8
0
  5
74C6
 10
395.918
 20
553.241
 30
0.000000
  70
    32
  0
VERTEX
  8
0
  5
74C7
 10
395.910
 20
553.246
 30
0.000000
  70
    32
  0
VERTEX
  8
0
  5
74C8
 10
395.903
 20
553.251
 30
0.000000
  70
    32
  0
VERTEX
  8
0
  5
74C9
 10
395.895
 20
553.257
 30
0.000000
  70
    32
  0
VERTEX
  8
0
  5
74CA
 10
395.887
 20
553.262
 30
0.000000
  70
    32
  0
VERTEX
  8
0
  5
74CB
 10
395.880
 20
553.267
 30
0.000000
  70
    32
  0
VERTEX
  8
0
  5
74CC
 10
395.872
 20
553.272
 30
0.000000
  70
    32
  0
VERTEX
  8
0
  5
74CD
 10
395.864
 20
553.278
 30
0.000000
  70
    32
  0
VERTEX
  8
0
  5
74CE
 10
395.856
 20
553.283
 30
0.000000
  70
    32
  0
VERTEX
  8
0
  5
74CF
 10
395.848
 20
553.288
 30
0.000000
  70
    32
  0
VERTEX
  8
0
  5
74D0
 10
395.840
 20
553.293
 30
0.000000
  70
    32
  0
VERTEX
  8
0
  5
74D1
 10
395.832
 20
553.298
 30
0.000000
  70
    32
  0
VERTEX
  8
0
  5
74D2
 10
395.825
 20
553.303
 30
0.000000
  70
    32
  0
VERTEX
  8
0
  5
74D3
 10
395.817
 20
553.308
 30
0.000000
  70
    32
  0
VERTEX
  8
0
  5
74D4
 10
395.809
 20
553.312
 30
0.000000
  70
    32
  0
VERTEX
  8
0
  5
74D5
 10
395.801
 20
553.317
 30
0.000000
  70
    32
  0
VERTEX
  8
0
  5
74D6
 10
395.793
 20
553.322
 30
0.000000
  70
    32
  0
VERTEX
  8
0
  5
74D7
 10
395.785
 20
553.326
 30
0.000000
  70
    32
  0
VERTEX
  8
0
  5
74D8
 10
395.777
 20
553.331
 30
0.000000
  70
    32
  0
VERTEX
  8
0
  5
74D9
 10
395.768
 20
553.335
 30
0.000000
  70
    32
  0
VERTEX
  8
0
  5
74DA
 10
395.760
 20
553.340
 30
0.000000
  70
    32
  0
VERTEX
  8
0
  5
74DB
 10
395.752
 20
553.344
 30
0.000000
  70
    32
  0
VERTEX
  8
0
  5
74DC
 10
395.744
 20
553.349
 30
0.000000
  70
    32
  0
VERTEX
  8
0
  5
74DD
 10
395.736
 20
553.353
 30
0.000000
  70
    32
  0
VERTEX
  8
0
  5
74DE
 10
395.728
 20
553.357
 30
0.000000
  70
    32
  0
VERTEX
  8
0
  5
74DF
 10
395.719
 20
553.361
 30
0.000000
  70
    32
  0
VERTEX
  8
0
  5
74E0
 10
395.711
 20
553.365
 30
0.000000
  70
    32
  0
VERTEX
  8
0
  5
74E1
 10
395.703
 20
553.369
 30
0.000000
  70
    32
  0
VERTEX
  8
0
  5
74E2
 10
395.695
 20
553.373
 30
0.000000
  70
    32
  0
VERTEX
  8
0
  5
74E3
 10
395.686
 20
553.377
 30
0.000000
  70
    32
  0
VERTEX
  8
0
  5
74E4
 10
395.678
 20
553.381
 30
0.000000
  70
    32
  0
VERTEX
  8
0
  5
74E5
 10
395.670
 20
553.385
 30
0.000000
  70
    32
  0
VERTEX
  8
0
  5
74E6
 10
395.661
 20
553.388
 30
0.000000
  70
    32
  0
VERTEX
  8
0
  5
74E7
 10
395.653
 20
553.392
 30
0.000000
  70
    32
  0
VERTEX
  8
0
  5
74E8
 10
395.644
 20
553.396
 30
0.000000
  70
    32
  0
VERTEX
  8
0
  5
74E9
 10
395.636
 20
553.399
 30
0.000000
  70
    32
  0
VERTEX
  8
0
  5
74EA
 10
395.627
 20
553.403
 30
0.000000
  70
    32
  0
VERTEX
  8
0
  5
74EB
 10
395.619
 20
553.406
 30
0.000000
  70
    32
  0
VERTEX
  8
0
  5
74EC
 10
395.610
 20
553.409
 30
0.000000
  70
    32
  0
VERTEX
  8
0
  5
74ED
 10
395.602
 20
553.412
 30
0.000000
  70
    32
  0
VERTEX
  8
0
  5
74EE
 10
395.593
 20
553.415
 30
0.000000
  70
    32
  0
VERTEX
  8
0
  5
74EF
 10
395.584
 20
553.419
 30
0.000000
  70
    32
  0
VERTEX
  8
0
  5
74F0
 10
395.576
 20
553.422
 30
0.000000
  70
    32
  0
VERTEX
  8
0
  5
74F1
 10
395.567
 20
553.424
 30
0.000000
  70
    32
  0
VERTEX
  8
0
  5
74F2
 10
395.559
 20
553.427
 30
0.000000
  70
    32
  0
VERTEX
  8
0
  5
74F3
 10
395.550
 20
553.430
 30
0.000000
  70
    32
  0
VERTEX
  8
0
  5
74F4
 10
395.541
 20
553.433
 30
0.000000
  70
    32
  0
VERTEX
  8
0
  5
74F5
 10
395.532
 20
553.436
 30
0.000000
  70
    32
  0
VERTEX
  8
0
  5
74F6
 10
395.524
 20
553.438
 30
0.000000
  70
    32
  0
VERTEX
  8
0
  5
74F7
 10
395.515
 20
553.441
 30
0.000000
  70
    32
  0
VERTEX
  8
0
  5
74F8
 10
395.506
 20
553.443
 30
0.000000
  70
    32
  0
VERTEX
  8
0
  5
74F9
 10
395.497
 20
553.446
 30
0.000000
  70
    32
  0
VERTEX
  8
0
  5
74FA
 10
395.489
 20
553.448
 30
0.000000
  70
    32
  0
VERTEX
  8
0
  5
74FB
 10
395.480
 20
553.450
 30
0.000000
  70
    32
  0
VERTEX
  8
0
  5
74FC
 10
395.471
 20
553.453
 30
0.000000
  70
    32
  0
VERTEX
  8
0
  5
74FD
 10
395.462
 20
553.455
 30
0.000000
  70
    32
  0
VERTEX
  8
0
  5
74FE
 10
395.453
 20
553.457
 30
0.000000
  70
    32
  0
VERTEX
  8
0
  5
74FF
 10
395.444
 20
553.459
 30
0.000000
  70
    32
  0
VERTEX
  8
0
  5
7500
 10
395.435
 20
553.462
 30
0.000000
  70
    32
  0
VERTEX
  8
0
  5
7501
 10
395.426
 20
553.464
 30
0.000000
  70
    32
  0
VERTEX
  8
0
  5
7502
 10
395.417
 20
553.466
 30
0.000000
  70
    32
  0
VERTEX
  8
0
  5
7503
 10
395.409
 20
553.468
 30
0.000000
  70
    32
  0
VERTEX
  8
0
  5
7504
 10
395.400
 20
553.470
 30
0.000000
  70
    32
  0
VERTEX
  8
0
  5
7505
 10
395.391
 20
553.472
 30
0.000000
  70
    32
  0
VERTEX
  8
0
  5
7506
 10
395.382
 20
553.474
 30
0.000000
  70
    32
  0
VERTEX
  8
0
  5
7507
 10
395.373
 20
553.476
 30
0.000000
  70
    32
  0
VERTEX
  8
0
  5
7508
 10
395.364
 20
553.477
 30
0.000000
  70
    32
  0
VERTEX
  8
0
  5
7509
 10
395.355
 20
553.479
 30
0.000000
  70
    32
  0
VERTEX
  8
0
  5
750A
 10
395.346
 20
553.481
 30
0.000000
  70
    32
  0
VERTEX
  8
0
  5
750B
 10
395.337
 20
553.483
 30
0.000000
  70
    32
  0
VERTEX
  8
0
  5
750C
 10
395.328
 20
553.485
 30
0.000000
  70
    32
  0
VERTEX
  8
0
  5
750D
 10
395.319
 20
553.487
 30
0.000000
  70
    32
  0
VERTEX
  8
0
  5
750E
 10
395.310
 20
553.488
 30
0.000000
  70
    32
  0
VERTEX
  8
0
  5
750F
 10
395.301
 20
553.490
 30
0.000000
  70
    32
  0
VERTEX
  8
0
  5
7510
 10
395.292
 20
553.492
 30
0.000000
  70
    32
  0
VERTEX
  8
0
  5
7511
 10
395.283
 20
553.493
 30
0.000000
  70
    32
  0
VERTEX
  8
0
  5
7512
 10
395.273
 20
553.495
 30
0.000000
  70
    32
  0
VERTEX
  8
0
  5
7513
 10
395.264
 20
553.497
 30
0.000000
  70
    32
  0
VERTEX
  8
0
  5
7514
 10
395.255
 20
553.499
 30
0.000000
  70
    32
  0
VERTEX
  8
0
  5
7515
 10
395.246
 20
553.500
 30
0.000000
  70
    32
  0
VERTEX
  8
0
  5
7516
 10
395.237
 20
553.502
 30
0.000000
  70
    32
  0
SEQEND
  8
0
  5
7517
  0
LINE
  5
6F49
  8
0
  6
CONTINUOUS
 10
394.85740198029998
 20
553.43741993249989
 30
0.0
 11
394.82205131109998
 21
553.41701242559986
 31
0.0
  0
POLYLINE
  8
0
  5
7518
  66
     1
 10
0.000000
 20
0.000000
 30
0.000000
  70
     8
  0
VERTEX
  8
0
  5
7519
 10
396.703
 20
573.433
 30
0.000000
  70
    32
  0
VERTEX
  8
0
  5
751A
 10
396.708
 20
573.441
 30
0.000000
  70
    32
  0
VERTEX
  8
0
  5
751B
 10
396.712
 20
573.449
 30
0.000000
  70
    32
  0
VERTEX
  8
0
  5
751C
 10
396.717
 20
573.457
 30
0.000000
  70
    32
  0
VERTEX
  8
0
  5
751D
 10
396.721
 20
573.465
 30
0.000000
  70
    32
  0
VERTEX
  8
0
  5
751E
 10
396.725
 20
573.474
 30
0.000000
  70
    32
  0
VERTEX
  8
0
  5
751F
 10
396.730
 20
573.482
 30
0.000000
  70
    32
  0
VERTEX
  8
0
  5
7520
 10
396.734
 20
573.490
 30
0.000000
  70
    32
  0
VERTEX
  8
0
  5
7521
 10
396.738
 20
573.498
 30
0.000000
  70
    32
  0
VERTEX
  8
0
  5
7522
 10
396.742
 20
573.506
 30
0.000000
  70
    32
  0
VERTEX
  8
0
  5
7523
 10
396.746
 20
573.515
 30
0.000000
  70
    32
  0
VERTEX
  8
0
  5
7524
 10
396.749
 20
573.523
 30
0.000000
  70
    32
  0
VERTEX
  8
0
  5
7525
 10
396.753
 20
573.531
 30
0.000000
  70
    32
  0
VERTEX
  8
0
  5
7526
 10
396.757
 20
573.540
 30
0.000000
  70
    32
  0
VERTEX
  8
0
  5
7527
 10
396.760
 20
573.548
 30
0.000000
  70
    32
  0
VERTEX
  8
0
  5
7528
 10
396.763
 20
573.557
 30
0.000000
  70
    32
  0
VERTEX
  8
0
  5
7529
 10
396.766
 20
573.565
 30
0.000000
  70
    32
  0
VERTEX
  8
0
  5
752A
 10
396.769
 20
573.574
 30
0.000000
  70
    32
  0
VERTEX
  8
0
  5
752B
 10
396.772
 20
573.582
 30
0.000000
  70
    32
  0
VERTEX
  8
0
  5
752C
 10
396.775
 20
573.591
 30
0.000000
  70
    32
  0
VERTEX
  8
0
  5
752D
 10
396.778
 20
573.600
 30
0.000000
  70
    32
  0
VERTEX
  8
0
  5
752E
 10
396.780
 20
573.608
 30
0.000000
  70
    32
  0
VERTEX
  8
0
  5
752F
 10
396.783
 20
573.617
 30
0.000000
  70
    32
  0
VERTEX
  8
0
  5
7530
 10
396.785
 20
573.626
 30
0.000000
  70
    32
  0
VERTEX
  8
0
  5
7531
 10
396.788
 20
573.635
 30
0.000000
  70
    32
  0
VERTEX
  8
0
  5
7532
 10
396.790
 20
573.644
 30
0.000000
  70
    32
  0
VERTEX
  8
0
  5
7533
 10
396.792
 20
573.653
 30
0.000000
  70
    32
  0
VERTEX
  8
0
  5
7534
 10
396.794
 20
573.662
 30
0.000000
  70
    32
  0
VERTEX
  8
0
  5
7535
 10
396.796
 20
573.671
 30
0.000000
  70
    32
  0
VERTEX
  8
0
  5
7536
 10
396.798
 20
573.680
 30
0.000000
  70
    32
  0
VERTEX
  8
0
  5
7537
 10
396.799
 20
573.689
 30
0.000000
  70
    32
  0
VERTEX
  8
0
  5
7538
 10
396.801
 20
573.698
 30
0.000000
  70
    32
  0
VERTEX
  8
0
  5
7539
 10
396.803
 20
573.707
 30
0.000000
  70
    32
  0
VERTEX
  8
0
  5
753A
 10
396.804
 20
573.716
 30
0.000000
  70
    32
  0
VERTEX
  8
0
  5
753B
 10
396.805
 20
573.725
 30
0.000000
  70
    32
  0
VERTEX
  8
0
  5
753C
 10
396.807
 20
573.734
 30
0.000000
  70
    32
  0
VERTEX
  8
0
  5
753D
 10
396.808
 20
573.743
 30
0.000000
  70
    32
  0
VERTEX
  8
0
  5
753E
 10
396.809
 20
573.753
 30
0.000000
  70
    32
  0
VERTEX
  8
0
  5
753F
 10
396.810
 20
573.762
 30
0.000000
  70
    32
  0
VERTEX
  8
0
  5
7540
 10
396.811
 20
573.771
 30
0.000000
  70
    32
  0
VERTEX
  8
0
  5
7541
 10
396.812
 20
573.780
 30
0.000000
  70
    32
  0
VERTEX
  8
0
  5
7542
 10
396.813
 20
573.790
 30
0.000000
  70
    32
  0
VERTEX
  8
0
  5
7543
 10
396.814
 20
573.799
 30
0.000000
  70
    32
  0
VERTEX
  8
0
  5
7544
 10
396.815
 20
573.808
 30
0.000000
  70
    32
  0
VERTEX
  8
0
  5
7545
 10
396.816
 20
573.817
 30
0.000000
  70
    32
  0
VERTEX
  8
0
  5
7546
 10
396.816
 20
573.827
 30
0.000000
  70
    32
  0
VERTEX
  8
0
  5
7547
 10
396.817
 20
573.836
 30
0.000000
  70
    32
  0
VERTEX
  8
0
  5
7548
 10
396.817
 20
573.845
 30
0.000000
  70
    32
  0
VERTEX
  8
0
  5
7549
 10
396.818
 20
573.855
 30
0.000000
  70
    32
  0
VERTEX
  8
0
  5
754A
 10
396.818
 20
573.864
 30
0.000000
  70
    32
  0
VERTEX
  8
0
  5
754B
 10
396.819
 20
573.873
 30
0.000000
  70
    32
  0
VERTEX
  8
0
  5
754C
 10
396.819
 20
573.883
 30
0.000000
  70
    32
  0
VERTEX
  8
0
  5
754D
 10
396.820
 20
573.892
 30
0.000000
  70
    32
  0
VERTEX
  8
0
  5
754E
 10
396.820
 20
573.901
 30
0.000000
  70
    32
  0
VERTEX
  8
0
  5
754F
 10
396.820
 20
573.911
 30
0.000000
  70
    32
  0
VERTEX
  8
0
  5
7550
 10
396.820
 20
573.920
 30
0.000000
  70
    32
  0
VERTEX
  8
0
  5
7551
 10
396.821
 20
573.929
 30
0.000000
  70
    32
  0
VERTEX
  8
0
  5
7552
 10
396.821
 20
573.939
 30
0.000000
  70
    32
  0
VERTEX
  8
0
  5
7553
 10
396.821
 20
573.948
 30
0.000000
  70
    32
  0
VERTEX
  8
0
  5
7554
 10
396.821
 20
573.957
 30
0.000000
  70
    32
  0
VERTEX
  8
0
  5
7555
 10
396.821
 20
573.967
 30
0.000000
  70
    32
  0
VERTEX
  8
0
  5
7556
 10
396.821
 20
573.976
 30
0.000000
  70
    32
  0
VERTEX
  8
0
  5
7557
 10
396.821
 20
573.985
 30
0.000000
  70
    32
  0
VERTEX
  8
0
  5
7558
 10
396.821
 20
573.994
 30
0.000000
  70
    32
  0
VERTEX
  8
0
  5
7559
 10
396.821
 20
574.004
 30
0.000000
  70
    32
  0
VERTEX
  8
0
  5
755A
 10
396.821
 20
574.013
 30
0.000000
  70
    32
  0
VERTEX
  8
0
  5
755B
 10
396.820
 20
574.022
 30
0.000000
  70
    32
  0
VERTEX
  8
0
  5
755C
 10
396.820
 20
574.032
 30
0.000000
  70
    32
  0
VERTEX
  8
0
  5
755D
 10
396.820
 20
574.041
 30
0.000000
  70
    32
  0
VERTEX
  8
0
  5
755E
 10
396.820
 20
574.050
 30
0.000000
  70
    32
  0
VERTEX
  8
0
  5
755F
 10
396.819
 20
574.060
 30
0.000000
  70
    32
  0
VERTEX
  8
0
  5
7560
 10
396.819
 20
574.069
 30
0.000000
  70
    32
  0
VERTEX
  8
0
  5
7561
 10
396.818
 20
574.078
 30
0.000000
  70
    32
  0
VERTEX
  8
0
  5
7562
 10
396.818
 20
574.087
 30
0.000000
  70
    32
  0
VERTEX
  8
0
  5
7563
 10
396.817
 20
574.097
 30
0.000000
  70
    32
  0
VERTEX
  8
0
  5
7564
 10
396.817
 20
574.106
 30
0.000000
  70
    32
  0
VERTEX
  8
0
  5
7565
 10
396.816
 20
574.115
 30
0.000000
  70
    32
  0
VERTEX
  8
0
  5
7566
 10
396.816
 20
574.125
 30
0.000000
  70
    32
  0
VERTEX
  8
0
  5
7567
 10
396.815
 20
574.134
 30
0.000000
  70
    32
  0
VERTEX
  8
0
  5
7568
 10
396.814
 20
574.143
 30
0.000000
  70
    32
  0
VERTEX
  8
0
  5
7569
 10
396.813
 20
574.153
 30
0.000000
  70
    32
  0
VERTEX
  8
0
  5
756A
 10
396.813
 20
574.162
 30
0.000000
  70
    32
  0
VERTEX
  8
0
  5
756B
 10
396.812
 20
574.171
 30
0.000000
  70
    32
  0
VERTEX
  8
0
  5
756C
 10
396.811
 20
574.180
 30
0.000000
  70
    32
  0
VERTEX
  8
0
  5
756D
 10
396.810
 20
574.190
 30
0.000000
  70
    32
  0
VERTEX
  8
0
  5
756E
 10
396.809
 20
574.199
 30
0.000000
  70
    32
  0
VERTEX
  8
0
  5
756F
 10
396.808
 20
574.208
 30
0.000000
  70
    32
  0
VERTEX
  8
0
  5
7570
 10
396.807
 20
574.218
 30
0.000000
  70
    32
  0
VERTEX
  8
0
  5
7571
 10
396.806
 20
574.227
 30
0.000000
  70
    32
  0
VERTEX
  8
0
  5
7572
 10
396.804
 20
574.236
 30
0.000000
  70
    32
  0
VERTEX
  8
0
  5
7573
 10
396.803
 20
574.245
 30
0.000000
  70
    32
  0
VERTEX
  8
0
  5
7574
 10
396.802
 20
574.255
 30
0.000000
  70
    32
  0
VERTEX
  8
0
  5
7575
 10
396.800
 20
574.264
 30
0.000000
  70
    32
  0
VERTEX
  8
0
  5
7576
 10
396.799
 20
574.273
 30
0.000000
  70
    32
  0
VERTEX
  8
0
  5
7577
 10
396.798
 20
574.282
 30
0.000000
  70
    32
  0
VERTEX
  8
0
  5
7578
 10
396.796
 20
574.292
 30
0.000000
  70
    32
  0
VERTEX
  8
0
  5
7579
 10
396.795
 20
574.301
 30
0.000000
  70
    32
  0
VERTEX
  8
0
  5
757A
 10
396.793
 20
574.310
 30
0.000000
  70
    32
  0
VERTEX
  8
0
  5
757B
 10
396.791
 20
574.320
 30
0.000000
  70
    32
  0
VERTEX
  8
0
  5
757C
 10
396.790
 20
574.329
 30
0.000000
  70
    32
  0
VERTEX
  8
0
  5
757D
 10
396.788
 20
574.338
 30
0.000000
  70
    32
  0
VERTEX
  8
0
  5
757E
 10
396.786
 20
574.347
 30
0.000000
  70
    32
  0
VERTEX
  8
0
  5
757F
 10
396.784
 20
574.357
 30
0.000000
  70
    32
  0
VERTEX
  8
0
  5
7580
 10
396.783
 20
574.366
 30
0.000000
  70
    32
  0
VERTEX
  8
0
  5
7581
 10
396.781
 20
574.375
 30
0.000000
  70
    32
  0
VERTEX
  8
0
  5
7582
 10
396.779
 20
574.384
 30
0.000000
  70
    32
  0
VERTEX
  8
0
  5
7583
 10
396.777
 20
574.394
 30
0.000000
  70
    32
  0
VERTEX
  8
0
  5
7584
 10
396.775
 20
574.403
 30
0.000000
  70
    32
  0
VERTEX
  8
0
  5
7585
 10
396.772
 20
574.412
 30
0.000000
  70
    32
  0
VERTEX
  8
0
  5
7586
 10
396.770
 20
574.422
 30
0.000000
  70
    32
  0
VERTEX
  8
0
  5
7587
 10
396.768
 20
574.431
 30
0.000000
  70
    32
  0
VERTEX
  8
0
  5
7588
 10
396.766
 20
574.440
 30
0.000000
  70
    32
  0
VERTEX
  8
0
  5
7589
 10
396.763
 20
574.449
 30
0.000000
  70
    32
  0
VERTEX
  8
0
  5
758A
 10
396.761
 20
574.459
 30
0.000000
  70
    32
  0
VERTEX
  8
0
  5
758B
 10
396.759
 20
574.468
 30
0.000000
  70
    32
  0
VERTEX
  8
0
  5
758C
 10
396.756
 20
574.477
 30
0.000000
  70
    32
  0
VERTEX
  8
0
  5
758D
 10
396.754
 20
574.486
 30
0.000000
  70
    32
  0
VERTEX
  8
0
  5
758E
 10
396.751
 20
574.496
 30
0.000000
  70
    32
  0
VERTEX
  8
0
  5
758F
 10
396.748
 20
574.505
 30
0.000000
  70
    32
  0
VERTEX
  8
0
  5
7590
 10
396.746
 20
574.514
 30
0.000000
  70
    32
  0
VERTEX
  8
0
  5
7591
 10
396.743
 20
574.523
 30
0.000000
  70
    32
  0
VERTEX
  8
0
  5
7592
 10
396.740
 20
574.532
 30
0.000000
  70
    32
  0
VERTEX
  8
0
  5
7593
 10
396.738
 20
574.542
 30
0.000000
  70
    32
  0
VERTEX
  8
0
  5
7594
 10
396.735
 20
574.551
 30
0.000000
  70
    32
  0
VERTEX
  8
0
  5
7595
 10
396.732
 20
574.560
 30
0.000000
  70
    32
  0
VERTEX
  8
0
  5
7596
 10
396.729
 20
574.569
 30
0.000000
  70
    32
  0
VERTEX
  8
0
  5
7597
 10
396.726
 20
574.578
 30
0.000000
  70
    32
  0
VERTEX
  8
0
  5
7598
 10
396.723
 20
574.588
 30
0.000000
  70
    32
  0
VERTEX
  8
0
  5
7599
 10
396.720
 20
574.597
 30
0.000000
  70
    32
  0
VERTEX
  8
0
  5
759A
 10
396.717
 20
574.606
 30
0.000000
  70
    32
  0
VERTEX
  8
0
  5
759B
 10
396.714
 20
574.615
 30
0.000000
  70
    32
  0
VERTEX
  8
0
  5
759C
 10
396.711
 20
574.624
 30
0.000000
  70
    32
  0
VERTEX
  8
0
  5
759D
 10
396.707
 20
574.633
 30
0.000000
  70
    32
  0
VERTEX
  8
0
  5
759E
 10
396.704
 20
574.642
 30
0.000000
  70
    32
  0
VERTEX
  8
0
  5
759F
 10
396.701
 20
574.651
 30
0.000000
  70
    32
  0
VERTEX
  8
0
  5
75A0
 10
396.697
 20
574.661
 30
0.000000
  70
    32
  0
VERTEX
  8
0
  5
75A1
 10
396.694
 20
574.670
 30
0.000000
  70
    32
  0
VERTEX
  8
0
  5
75A2
 10
396.691
 20
574.679
 30
0.000000
  70
    32
  0
VERTEX
  8
0
  5
75A3
 10
396.687
 20
574.688
 30
0.000000
  70
    32
  0
VERTEX
  8
0
  5
75A4
 10
396.684
 20
574.697
 30
0.000000
  70
    32
  0
VERTEX
  8
0
  5
75A5
 10
396.680
 20
574.706
 30
0.000000
  70
    32
  0
VERTEX
  8
0
  5
75A6
 10
396.676
 20
574.715
 30
0.000000
  70
    32
  0
VERTEX
  8
0
  5
75A7
 10
396.673
 20
574.724
 30
0.000000
  70
    32
  0
VERTEX
  8
0
  5
75A8
 10
396.669
 20
574.733
 30
0.000000
  70
    32
  0
VERTEX
  8
0
  5
75A9
 10
396.665
 20
574.742
 30
0.000000
  70
    32
  0
VERTEX
  8
0
  5
75AA
 10
396.662
 20
574.751
 30
0.000000
  70
    32
  0
VERTEX
  8
0
  5
75AB
 10
396.658
 20
574.760
 30
0.000000
  70
    32
  0
VERTEX
  8
0
  5
75AC
 10
396.654
 20
574.769
 30
0.000000
  70
    32
  0
VERTEX
  8
0
  5
75AD
 10
396.650
 20
574.778
 30
0.000000
  70
    32
  0
VERTEX
  8
0
  5
75AE
 10
396.646
 20
574.787
 30
0.000000
  70
    32
  0
VERTEX
  8
0
  5
75AF
 10
396.642
 20
574.796
 30
0.000000
  70
    32
  0
VERTEX
  8
0
  5
75B0
 10
396.638
 20
574.805
 30
0.000000
  70
    32
  0
VERTEX
  8
0
  5
75B1
 10
396.634
 20
574.814
 30
0.000000
  70
    32
  0
VERTEX
  8
0
  5
75B2
 10
396.630
 20
574.822
 30
0.000000
  70
    32
  0
VERTEX
  8
0
  5
75B3
 10
396.626
 20
574.831
 30
0.000000
  70
    32
  0
VERTEX
  8
0
  5
75B4
 10
396.622
 20
574.840
 30
0.000000
  70
    32
  0
VERTEX
  8
0
  5
75B5
 10
396.618
 20
574.849
 30
0.000000
  70
    32
  0
VERTEX
  8
0
  5
75B6
 10
396.613
 20
574.858
 30
0.000000
  70
    32
  0
VERTEX
  8
0
  5
75B7
 10
396.609
 20
574.867
 30
0.000000
  70
    32
  0
VERTEX
  8
0
  5
75B8
 10
396.605
 20
574.875
 30
0.000000
  70
    32
  0
VERTEX
  8
0
  5
75B9
 10
396.601
 20
574.884
 30
0.000000
  70
    32
  0
VERTEX
  8
0
  5
75BA
 10
396.596
 20
574.893
 30
0.000000
  70
    32
  0
VERTEX
  8
0
  5
75BB
 10
396.592
 20
574.902
 30
0.000000
  70
    32
  0
VERTEX
  8
0
  5
75BC
 10
396.587
 20
574.910
 30
0.000000
  70
    32
  0
VERTEX
  8
0
  5
75BD
 10
396.583
 20
574.919
 30
0.000000
  70
    32
  0
VERTEX
  8
0
  5
75BE
 10
396.578
 20
574.928
 30
0.000000
  70
    32
  0
VERTEX
  8
0
  5
75BF
 10
396.574
 20
574.936
 30
0.000000
  70
    32
  0
VERTEX
  8
0
  5
75C0
 10
396.569
 20
574.945
 30
0.000000
  70
    32
  0
VERTEX
  8
0
  5
75C1
 10
396.565
 20
574.954
 30
0.000000
  70
    32
  0
VERTEX
  8
0
  5
75C2
 10
396.560
 20
574.962
 30
0.000000
  70
    32
  0
VERTEX
  8
0
  5
75C3
 10
396.555
 20
574.971
 30
0.000000
  70
    32
  0
VERTEX
  8
0
  5
75C4
 10
396.550
 20
574.979
 30
0.000000
  70
    32
  0
VERTEX
  8
0
  5
75C5
 10
396.546
 20
574.988
 30
0.000000
  70
    32
  0
VERTEX
  8
0
  5
75C6
 10
396.541
 20
574.997
 30
0.000000
  70
    32
  0
VERTEX
  8
0
  5
75C7
 10
396.536
 20
575.005
 30
0.000000
  70
    32
  0
VERTEX
  8
0
  5
75C8
 10
396.531
 20
575.014
 30
0.000000
  70
    32
  0
VERTEX
  8
0
  5
75C9
 10
396.526
 20
575.022
 30
0.000000
  70
    32
  0
VERTEX
  8
0
  5
75CA
 10
396.521
 20
575.030
 30
0.000000
  70
    32
  0
VERTEX
  8
0
  5
75CB
 10
396.516
 20
575.039
 30
0.000000
  70
    32
  0
VERTEX
  8
0
  5
75CC
 10
396.511
 20
575.047
 30
0.000000
  70
    32
  0
VERTEX
  8
0
  5
75CD
 10
396.506
 20
575.056
 30
0.000000
  70
    32
  0
VERTEX
  8
0
  5
75CE
 10
396.501
 20
575.064
 30
0.000000
  70
    32
  0
VERTEX
  8
0
  5
75CF
 10
396.496
 20
575.072
 30
0.000000
  70
    32
  0
VERTEX
  8
0
  5
75D0
 10
396.491
 20
575.081
 30
0.000000
  70
    32
  0
VERTEX
  8
0
  5
75D1
 10
396.486
 20
575.089
 30
0.000000
  70
    32
  0
VERTEX
  8
0
  5
75D2
 10
396.480
 20
575.097
 30
0.000000
  70
    32
  0
VERTEX
  8
0
  5
75D3
 10
396.475
 20
575.105
 30
0.000000
  70
    32
  0
VERTEX
  8
0
  5
75D4
 10
396.470
 20
575.114
 30
0.000000
  70
    32
  0
VERTEX
  8
0
  5
75D5
 10
396.465
 20
575.122
 30
0.000000
  70
    32
  0
VERTEX
  8
0
  5
75D6
 10
396.459
 20
575.130
 30
0.000000
  70
    32
  0
VERTEX
  8
0
  5
75D7
 10
396.454
 20
575.138
 30
0.000000
  70
    32
  0
VERTEX
  8
0
  5
75D8
 10
396.448
 20
575.146
 30
0.000000
  70
    32
  0
VERTEX
  8
0
  5
75D9
 10
396.443
 20
575.154
 30
0.000000
  70
    32
  0
VERTEX
  8
0
  5
75DA
 10
396.437
 20
575.162
 30
0.000000
  70
    32
  0
VERTEX
  8
0
  5
75DB
 10
396.432
 20
575.170
 30
0.000000
  70
    32
  0
VERTEX
  8
0
  5
75DC
 10
396.426
 20
575.178
 30
0.000000
  70
    32
  0
VERTEX
  8
0
  5
75DD
 10
396.421
 20
575.186
 30
0.000000
  70
    32
  0
VERTEX
  8
0
  5
75DE
 10
396.415
 20
575.194
 30
0.000000
  70
    32
  0
VERTEX
  8
0
  5
75DF
 10
396.409
 20
575.202
 30
0.000000
  70
    32
  0
VERTEX
  8
0
  5
75E0
 10
396.404
 20
575.210
 30
0.000000
  70
    32
  0
VERTEX
  8
0
  5
75E1
 10
396.398
 20
575.218
 30
0.000000
  70
    32
  0
VERTEX
  8
0
  5
75E2
 10
396.392
 20
575.226
 30
0.000000
  70
    32
  0
VERTEX
  8
0
  5
75E3
 10
396.386
 20
575.234
 30
0.000000
  70
    32
  0
VERTEX
  8
0
  5
75E4
 10
396.381
 20
575.241
 30
0.000000
  70
    32
  0
VERTEX
  8
0
  5
75E5
 10
396.375
 20
575.249
 30
0.000000
  70
    32
  0
VERTEX
  8
0
  5
75E6
 10
396.369
 20
575.257
 30
0.000000
  70
    32
  0
VERTEX
  8
0
  5
75E7
 10
396.363
 20
575.265
 30
0.000000
  70
    32
  0
VERTEX
  8
0
  5
75E8
 10
396.357
 20
575.272
 30
0.000000
  70
    32
  0
VERTEX
  8
0
  5
75E9
 10
396.351
 20
575.280
 30
0.000000
  70
    32
  0
VERTEX
  8
0
  5
75EA
 10
396.345
 20
575.288
 30
0.000000
  70
    32
  0
VERTEX
  8
0
  5
75EB
 10
396.339
 20
575.295
 30
0.000000
  70
    32
  0
VERTEX
  8
0
  5
75EC
 10
396.333
 20
575.303
 30
0.000000
  70
    32
  0
VERTEX
  8
0
  5
75ED
 10
396.327
 20
575.310
 30
0.000000
  70
    32
  0
VERTEX
  8
0
  5
75EE
 10
396.321
 20
575.318
 30
0.000000
  70
    32
  0
VERTEX
  8
0
  5
75EF
 10
396.315
 20
575.325
 30
0.000000
  70
    32
  0
VERTEX
  8
0
  5
75F0
 10
396.308
 20
575.333
 30
0.000000
  70
    32
  0
VERTEX
  8
0
  5
75F1
 10
396.302
 20
575.340
 30
0.000000
  70
    32
  0
VERTEX
  8
0
  5
75F2
 10
396.296
 20
575.347
 30
0.000000
  70
    32
  0
VERTEX
  8
0
  5
75F3
 10
396.290
 20
575.355
 30
0.000000
  70
    32
  0
VERTEX
  8
0
  5
75F4
 10
396.283
 20
575.362
 30
0.000000
  70
    32
  0
VERTEX
  8
0
  5
75F5
 10
396.277
 20
575.369
 30
0.000000
  70
    32
  0
VERTEX
  8
0
  5
75F6
 10
396.271
 20
575.376
 30
0.000000
  70
    32
  0
VERTEX
  8
0
  5
75F7
 10
396.264
 20
575.384
 30
0.000000
  70
    32
  0
VERTEX
  8
0
  5
75F8
 10
396.258
 20
575.391
 30
0.000000
  70
    32
  0
VERTEX
  8
0
  5
75F9
 10
396.251
 20
575.398
 30
0.000000
  70
    32
  0
VERTEX
  8
0
  5
75FA
 10
396.245
 20
575.405
 30
0.000000
  70
    32
  0
VERTEX
  8
0
  5
75FB
 10
396.238
 20
575.412
 30
0.000000
  70
    32
  0
VERTEX
  8
0
  5
75FC
 10
396.232
 20
575.419
 30
0.000000
  70
    32
  0
VERTEX
  8
0
  5
75FD
 10
396.225
 20
575.426
 30
0.000000
  70
    32
  0
VERTEX
  8
0
  5
75FE
 10
396.219
 20
575.433
 30
0.000000
  70
    32
  0
VERTEX
  8
0
  5
75FF
 10
396.212
 20
575.440
 30
0.000000
  70
    32
  0
VERTEX
  8
0
  5
7600
 10
396.205
 20
575.447
 30
0.000000
  70
    32
  0
VERTEX
  8
0
  5
7601
 10
396.199
 20
575.454
 30
0.000000
  70
    32
  0
VERTEX
  8
0
  5
7602
 10
396.192
 20
575.461
 30
0.000000
  70
    32
  0
VERTEX
  8
0
  5
7603
 10
396.185
 20
575.468
 30
0.000000
  70
    32
  0
VERTEX
  8
0
  5
7604
 10
396.178
 20
575.474
 30
0.000000
  70
    32
  0
VERTEX
  8
0
  5
7605
 10
396.172
 20
575.481
 30
0.000000
  70
    32
  0
VERTEX
  8
0
  5
7606
 10
396.165
 20
575.488
 30
0.000000
  70
    32
  0
VERTEX
  8
0
  5
7607
 10
396.158
 20
575.494
 30
0.000000
  70
    32
  0
VERTEX
  8
0
  5
7608
 10
396.151
 20
575.501
 30
0.000000
  70
    32
  0
VERTEX
  8
0
  5
7609
 10
396.144
 20
575.508
 30
0.000000
  70
    32
  0
VERTEX
  8
0
  5
760A
 10
396.137
 20
575.514
 30
0.000000
  70
    32
  0
VERTEX
  8
0
  5
760B
 10
396.130
 20
575.521
 30
0.000000
  70
    32
  0
VERTEX
  8
0
  5
760C
 10
396.123
 20
575.527
 30
0.000000
  70
    32
  0
VERTEX
  8
0
  5
760D
 10
396.116
 20
575.534
 30
0.000000
  70
    32
  0
VERTEX
  8
0
  5
760E
 10
396.109
 20
575.540
 30
0.000000
  70
    32
  0
VERTEX
  8
0
  5
760F
 10
396.102
 20
575.547
 30
0.000000
  70
    32
  0
VERTEX
  8
0
  5
7610
 10
396.095
 20
575.553
 30
0.000000
  70
    32
  0
VERTEX
  8
0
  5
7611
 10
396.088
 20
575.559
 30
0.000000
  70
    32
  0
VERTEX
  8
0
  5
7612
 10
396.081
 20
575.566
 30
0.000000
  70
    32
  0
VERTEX
  8
0
  5
7613
 10
396.074
 20
575.572
 30
0.000000
  70
    32
  0
VERTEX
  8
0
  5
7614
 10
396.067
 20
575.578
 30
0.000000
  70
    32
  0
VERTEX
  8
0
  5
7615
 10
396.059
 20
575.584
 30
0.000000
  70
    32
  0
VERTEX
  8
0
  5
7616
 10
396.052
 20
575.591
 30
0.000000
  70
    32
  0
VERTEX
  8
0
  5
7617
 10
396.045
 20
575.597
 30
0.000000
  70
    32
  0
VERTEX
  8
0
  5
7618
 10
396.038
 20
575.603
 30
0.000000
  70
    32
  0
VERTEX
  8
0
  5
7619
 10
396.030
 20
575.609
 30
0.000000
  70
    32
  0
VERTEX
  8
0
  5
761A
 10
396.023
 20
575.615
 30
0.000000
  70
    32
  0
VERTEX
  8
0
  5
761B
 10
396.016
 20
575.621
 30
0.000000
  70
    32
  0
VERTEX
  8
0
  5
761C
 10
396.008
 20
575.627
 30
0.000000
  70
    32
  0
VERTEX
  8
0
  5
761D
 10
396.001
 20
575.633
 30
0.000000
  70
    32
  0
VERTEX
  8
0
  5
761E
 10
395.994
 20
575.639
 30
0.000000
  70
    32
  0
VERTEX
  8
0
  5
761F
 10
395.986
 20
575.645
 30
0.000000
  70
    32
  0
VERTEX
  8
0
  5
7620
 10
395.979
 20
575.650
 30
0.000000
  70
    32
  0
VERTEX
  8
0
  5
7621
 10
395.971
 20
575.656
 30
0.000000
  70
    32
  0
VERTEX
  8
0
  5
7622
 10
395.964
 20
575.662
 30
0.000000
  70
    32
  0
VERTEX
  8
0
  5
7623
 10
395.956
 20
575.668
 30
0.000000
  70
    32
  0
VERTEX
  8
0
  5
7624
 10
395.949
 20
575.673
 30
0.000000
  70
    32
  0
VERTEX
  8
0
  5
7625
 10
395.941
 20
575.679
 30
0.000000
  70
    32
  0
VERTEX
  8
0
  5
7626
 10
395.933
 20
575.684
 30
0.000000
  70
    32
  0
VERTEX
  8
0
  5
7627
 10
395.926
 20
575.690
 30
0.000000
  70
    32
  0
VERTEX
  8
0
  5
7628
 10
395.918
 20
575.695
 30
0.000000
  70
    32
  0
VERTEX
  8
0
  5
7629
 10
395.910
 20
575.701
 30
0.000000
  70
    32
  0
VERTEX
  8
0
  5
762A
 10
395.903
 20
575.706
 30
0.000000
  70
    32
  0
VERTEX
  8
0
  5
762B
 10
395.895
 20
575.712
 30
0.000000
  70
    32
  0
VERTEX
  8
0
  5
762C
 10
395.887
 20
575.717
 30
0.000000
  70
    32
  0
VERTEX
  8
0
  5
762D
 10
395.880
 20
575.722
 30
0.000000
  70
    32
  0
VERTEX
  8
0
  5
762E
 10
395.872
 20
575.727
 30
0.000000
  70
    32
  0
VERTEX
  8
0
  5
762F
 10
395.864
 20
575.733
 30
0.000000
  70
    32
  0
VERTEX
  8
0
  5
7630
 10
395.856
 20
575.738
 30
0.000000
  70
    32
  0
VERTEX
  8
0
  5
7631
 10
395.848
 20
575.743
 30
0.000000
  70
    32
  0
VERTEX
  8
0
  5
7632
 10
395.840
 20
575.748
 30
0.000000
  70
    32
  0
VERTEX
  8
0
  5
7633
 10
395.832
 20
575.753
 30
0.000000
  70
    32
  0
VERTEX
  8
0
  5
7634
 10
395.825
 20
575.758
 30
0.000000
  70
    32
  0
VERTEX
  8
0
  5
7635
 10
395.817
 20
575.762
 30
0.000000
  70
    32
  0
VERTEX
  8
0
  5
7636
 10
395.809
 20
575.767
 30
0.000000
  70
    32
  0
VERTEX
  8
0
  5
7637
 10
395.801
 20
575.772
 30
0.000000
  70
    32
  0
VERTEX
  8
0
  5
7638
 10
395.793
 20
575.777
 30
0.000000
  70
    32
  0
VERTEX
  8
0
  5
7639
 10
395.785
 20
575.781
 30
0.000000
  70
    32
  0
VERTEX
  8
0
  5
763A
 10
395.777
 20
575.786
 30
0.000000
  70
    32
  0
VERTEX
  8
0
  5
763B
 10
395.768
 20
575.790
 30
0.000000
  70
    32
  0
VERTEX
  8
0
  5
763C
 10
395.760
 20
575.795
 30
0.000000
  70
    32
  0
VERTEX
  8
0
  5
763D
 10
395.752
 20
575.799
 30
0.000000
  70
    32
  0
VERTEX
  8
0
  5
763E
 10
395.744
 20
575.803
 30
0.000000
  70
    32
  0
VERTEX
  8
0
  5
763F
 10
395.736
 20
575.808
 30
0.000000
  70
    32
  0
VERTEX
  8
0
  5
7640
 10
395.728
 20
575.812
 30
0.000000
  70
    32
  0
VERTEX
  8
0
  5
7641
 10
395.719
 20
575.816
 30
0.000000
  70
    32
  0
VERTEX
  8
0
  5
7642
 10
395.711
 20
575.820
 30
0.000000
  70
    32
  0
VERTEX
  8
0
  5
7643
 10
395.703
 20
575.824
 30
0.000000
  70
    32
  0
VERTEX
  8
0
  5
7644
 10
395.695
 20
575.828
 30
0.000000
  70
    32
  0
VERTEX
  8
0
  5
7645
 10
395.686
 20
575.832
 30
0.000000
  70
    32
  0
VERTEX
  8
0
  5
7646
 10
395.678
 20
575.836
 30
0.000000
  70
    32
  0
VERTEX
  8
0
  5
7647
 10
395.670
 20
575.840
 30
0.000000
  70
    32
  0
VERTEX
  8
0
  5
7648
 10
395.661
 20
575.843
 30
0.000000
  70
    32
  0
VERTEX
  8
0
  5
7649
 10
395.653
 20
575.847
 30
0.000000
  70
    32
  0
VERTEX
  8
0
  5
764A
 10
395.644
 20
575.851
 30
0.000000
  70
    32
  0
VERTEX
  8
0
  5
764B
 10
395.636
 20
575.854
 30
0.000000
  70
    32
  0
VERTEX
  8
0
  5
764C
 10
395.627
 20
575.857
 30
0.000000
  70
    32
  0
VERTEX
  8
0
  5
764D
 10
395.619
 20
575.861
 30
0.000000
  70
    32
  0
VERTEX
  8
0
  5
764E
 10
395.610
 20
575.864
 30
0.000000
  70
    32
  0
VERTEX
  8
0
  5
764F
 10
395.602
 20
575.867
 30
0.000000
  70
    32
  0
VERTEX
  8
0
  5
7650
 10
395.593
 20
575.870
 30
0.000000
  70
    32
  0
VERTEX
  8
0
  5
7651
 10
395.584
 20
575.873
 30
0.000000
  70
    32
  0
VERTEX
  8
0
  5
7652
 10
395.576
 20
575.876
 30
0.000000
  70
    32
  0
VERTEX
  8
0
  5
7653
 10
395.567
 20
575.879
 30
0.000000
  70
    32
  0
VERTEX
  8
0
  5
7654
 10
395.559
 20
575.882
 30
0.000000
  70
    32
  0
VERTEX
  8
0
  5
7655
 10
395.550
 20
575.885
 30
0.000000
  70
    32
  0
VERTEX
  8
0
  5
7656
 10
395.541
 20
575.888
 30
0.000000
  70
    32
  0
VERTEX
  8
0
  5
7657
 10
395.532
 20
575.890
 30
0.000000
  70
    32
  0
VERTEX
  8
0
  5
7658
 10
395.524
 20
575.893
 30
0.000000
  70
    32
  0
VERTEX
  8
0
  5
7659
 10
395.515
 20
575.896
 30
0.000000
  70
    32
  0
VERTEX
  8
0
  5
765A
 10
395.506
 20
575.898
 30
0.000000
  70
    32
  0
VERTEX
  8
0
  5
765B
 10
395.497
 20
575.901
 30
0.000000
  70
    32
  0
VERTEX
  8
0
  5
765C
 10
395.489
 20
575.903
 30
0.000000
  70
    32
  0
VERTEX
  8
0
  5
765D
 10
395.480
 20
575.905
 30
0.000000
  70
    32
  0
VERTEX
  8
0
  5
765E
 10
395.471
 20
575.908
 30
0.000000
  70
    32
  0
VERTEX
  8
0
  5
765F
 10
395.462
 20
575.910
 30
0.000000
  70
    32
  0
VERTEX
  8
0
  5
7660
 10
395.453
 20
575.912
 30
0.000000
  70
    32
  0
VERTEX
  8
0
  5
7661
 10
395.444
 20
575.914
 30
0.000000
  70
    32
  0
VERTEX
  8
0
  5
7662
 10
395.435
 20
575.916
 30
0.000000
  70
    32
  0
VERTEX
  8
0
  5
7663
 10
395.426
 20
575.919
 30
0.000000
  70
    32
  0
VERTEX
  8
0
  5
7664
 10
395.417
 20
575.921
 30
0.000000
  70
    32
  0
VERTEX
  8
0
  5
7665
 10
395.409
 20
575.923
 30
0.000000
  70
    32
  0
VERTEX
  8
0
  5
7666
 10
395.400
 20
575.925
 30
0.000000
  70
    32
  0
VERTEX
  8
0
  5
7667
 10
395.391
 20
575.927
 30
0.000000
  70
    32
  0
VERTEX
  8
0
  5
7668
 10
395.382
 20
575.929
 30
0.000000
  70
    32
  0
VERTEX
  8
0
  5
7669
 10
395.373
 20
575.930
 30
0.000000
  70
    32
  0
VERTEX
  8
0
  5
766A
 10
395.364
 20
575.932
 30
0.000000
  70
    32
  0
VERTEX
  8
0
  5
766B
 10
395.355
 20
575.934
 30
0.000000
  70
    32
  0
VERTEX
  8
0
  5
766C
 10
395.346
 20
575.936
 30
0.000000
  70
    32
  0
VERTEX
  8
0
  5
766D
 10
395.337
 20
575.938
 30
0.000000
  70
    32
  0
VERTEX
  8
0
  5
766E
 10
395.328
 20
575.940
 30
0.000000
  70
    32
  0
VERTEX
  8
0
  5
766F
 10
395.319
 20
575.941
 30
0.000000
  70
    32
  0
VERTEX
  8
0
  5
7670
 10
395.310
 20
575.943
 30
0.000000
  70
    32
  0
VERTEX
  8
0
  5
7671
 10
395.301
 20
575.945
 30
0.000000
  70
    32
  0
VERTEX
  8
0
  5
7672
 10
395.292
 20
575.947
 30
0.000000
  70
    32
  0
VERTEX
  8
0
  5
7673
 10
395.283
 20
575.948
 30
0.000000
  70
    32
  0
VERTEX
  8
0
  5
7674
 10
395.273
 20
575.950
 30
0.000000
  70
    32
  0
VERTEX
  8
0
  5
7675
 10
395.264
 20
575.952
 30
0.000000
  70
    32
  0
VERTEX
  8
0
  5
7676
 10
395.255
 20
575.953
 30
0.000000
  70
    32
  0
VERTEX
  8
0
  5
7677
 10
395.246
 20
575.955
 30
0.000000
  70
    32
  0
VERTEX
  8
0
  5
7678
 10
395.237
 20
575.957
 30
0.000000
  70
    32
  0
SEQEND
  8
0
  5
7679
  0
LINE
  5
6F4B
  8
0
  6
CONTINUOUS
 10
396.42191407050001
 20
573.10053230660003
 30
0.0
 11
396.45726473970001
 21
573.12093981359999
 31
0.0
  0
LINE
  5
6F4C
  8
0
  6
CONTINUOUS
 10
394.85740198029998
 20
575.89229213769988
 30
0.0
 11
394.82205131109998
 21
575.87188463070004
 31
0.0
  0
POLYLINE
  8
0
  5
767A
  66
     1
 10
0.000000
 20
0.000000
 30
0.000000
  70
     8
  0
VERTEX
  8
0
  5
767B
 10
598.936
 20
456.687
 30
0.000000
  70
    32
  0
VERTEX
  8
0
  5
767C
 10
598.940
 20
456.695
 30
0.000000
  70
    32
  0
VERTEX
  8
0
  5
767D
 10
598.945
 20
456.703
 30
0.000000
  70
    32
  0
VERTEX
  8
0
  5
767E
 10
598.949
 20
456.711
 30
0.000000
  70
    32
  0
VERTEX
  8
0
  5
767F
 10
598.954
 20
456.719
 30
0.000000
  70
    32
  0
VERTEX
  8
0
  5
7680
 10
598.958
 20
456.727
 30
0.000000
  70
    32
  0
VERTEX
  8
0
  5
7681
 10
598.962
 20
456.735
 30
0.000000
  70
    32
  0
VERTEX
  8
0
  5
7682
 10
598.966
 20
456.743
 30
0.000000
  70
    32
  0
VERTEX
  8
0
  5
7683
 10
598.970
 20
456.752
 30
0.000000
  70
    32
  0
VERTEX
  8
0
  5
7684
 10
598.974
 20
456.760
 30
0.000000
  70
    32
  0
VERTEX
  8
0
  5
7685
 10
598.978
 20
456.768
 30
0.000000
  70
    32
  0
VERTEX
  8
0
  5
7686
 10
598.982
 20
456.776
 30
0.000000
  70
    32
  0
VERTEX
  8
0
  5
7687
 10
598.986
 20
456.785
 30
0.000000
  70
    32
  0
VERTEX
  8
0
  5
7688
 10
598.989
 20
456.793
 30
0.000000
  70
    32
  0
VERTEX
  8
0
  5
7689
 10
598.992
 20
456.802
 30
0.000000
  70
    32
  0
VERTEX
  8
0
  5
768A
 10
598.996
 20
456.810
 30
0.000000
  70
    32
  0
VERTEX
  8
0
  5
768B
 10
598.999
 20
456.819
 30
0.000000
  70
    32
  0
VERTEX
  8
0
  5
768C
 10
599.002
 20
456.827
 30
0.000000
  70
    32
  0
VERTEX
  8
0
  5
768D
 10
599.005
 20
456.836
 30
0.000000
  70
    32
  0
VERTEX
  8
0
  5
768E
 10
599.008
 20
456.845
 30
0.000000
  70
    32
  0
VERTEX
  8
0
  5
768F
 10
599.010
 20
456.853
 30
0.000000
  70
    32
  0
VERTEX
  8
0
  5
7690
 10
599.013
 20
456.862
 30
0.000000
  70
    32
  0
VERTEX
  8
0
  5
7691
 10
599.015
 20
456.871
 30
0.000000
  70
    32
  0
VERTEX
  8
0
  5
7692
 10
599.018
 20
456.880
 30
0.000000
  70
    32
  0
VERTEX
  8
0
  5
7693
 10
599.020
 20
456.889
 30
0.000000
  70
    32
  0
VERTEX
  8
0
  5
7694
 10
599.022
 20
456.897
 30
0.000000
  70
    32
  0
VERTEX
  8
0
  5
7695
 10
599.024
 20
456.906
 30
0.000000
  70
    32
  0
VERTEX
  8
0
  5
7696
 10
599.026
 20
456.915
 30
0.000000
  70
    32
  0
VERTEX
  8
0
  5
7697
 10
599.028
 20
456.924
 30
0.000000
  70
    32
  0
VERTEX
  8
0
  5
7698
 10
599.030
 20
456.933
 30
0.000000
  70
    32
  0
VERTEX
  8
0
  5
7699
 10
599.032
 20
456.942
 30
0.000000
  70
    32
  0
VERTEX
  8
0
  5
769A
 10
599.033
 20
456.951
 30
0.000000
  70
    32
  0
VERTEX
  8
0
  5
769B
 10
599.035
 20
456.961
 30
0.000000
  70
    32
  0
VERTEX
  8
0
  5
769C
 10
599.037
 20
456.970
 30
0.000000
  70
    32
  0
VERTEX
  8
0
  5
769D
 10
599.038
 20
456.979
 30
0.000000
  70
    32
  0
VERTEX
  8
0
  5
769E
 10
599.039
 20
456.988
 30
0.000000
  70
    32
  0
VERTEX
  8
0
  5
769F
 10
599.041
 20
456.997
 30
0.000000
  70
    32
  0
VERTEX
  8
0
  5
76A0
 10
599.042
 20
457.006
 30
0.000000
  70
    32
  0
VERTEX
  8
0
  5
76A1
 10
599.043
 20
457.015
 30
0.000000
  70
    32
  0
VERTEX
  8
0
  5
76A2
 10
599.044
 20
457.025
 30
0.000000
  70
    32
  0
VERTEX
  8
0
  5
76A3
 10
599.045
 20
457.034
 30
0.000000
  70
    32
  0
VERTEX
  8
0
  5
76A4
 10
599.046
 20
457.043
 30
0.000000
  70
    32
  0
VERTEX
  8
0
  5
76A5
 10
599.047
 20
457.052
 30
0.000000
  70
    32
  0
VERTEX
  8
0
  5
76A6
 10
599.047
 20
457.062
 30
0.000000
  70
    32
  0
VERTEX
  8
0
  5
76A7
 10
599.048
 20
457.071
 30
0.000000
  70
    32
  0
VERTEX
  8
0
  5
76A8
 10
599.049
 20
457.080
 30
0.000000
  70
    32
  0
VERTEX
  8
0
  5
76A9
 10
599.049
 20
457.090
 30
0.000000
  70
    32
  0
VERTEX
  8
0
  5
76AA
 10
599.050
 20
457.099
 30
0.000000
  70
    32
  0
VERTEX
  8
0
  5
76AB
 10
599.050
 20
457.108
 30
0.000000
  70
    32
  0
VERTEX
  8
0
  5
76AC
 10
599.051
 20
457.118
 30
0.000000
  70
    32
  0
VERTEX
  8
0
  5
76AD
 10
599.051
 20
457.127
 30
0.000000
  70
    32
  0
VERTEX
  8
0
  5
76AE
 10
599.052
 20
457.136
 30
0.000000
  70
    32
  0
VERTEX
  8
0
  5
76AF
 10
599.052
 20
457.146
 30
0.000000
  70
    32
  0
VERTEX
  8
0
  5
76B0
 10
599.052
 20
457.155
 30
0.000000
  70
    32
  0
VERTEX
  8
0
  5
76B1
 10
599.053
 20
457.164
 30
0.000000
  70
    32
  0
VERTEX
  8
0
  5
76B2
 10
599.053
 20
457.174
 30
0.000000
  70
    32
  0
VERTEX
  8
0
  5
76B3
 10
599.053
 20
457.183
 30
0.000000
  70
    32
  0
VERTEX
  8
0
  5
76B4
 10
599.053
 20
457.192
 30
0.000000
  70
    32
  0
VERTEX
  8
0
  5
76B5
 10
599.053
 20
457.202
 30
0.000000
  70
    32
  0
VERTEX
  8
0
  5
76B6
 10
599.053
 20
457.211
 30
0.000000
  70
    32
  0
VERTEX
  8
0
  5
76B7
 10
599.054
 20
457.220
 30
0.000000
  70
    32
  0
VERTEX
  8
0
  5
76B8
 10
599.054
 20
457.229
 30
0.000000
  70
    32
  0
VERTEX
  8
0
  5
76B9
 10
599.053
 20
457.239
 30
0.000000
  70
    32
  0
VERTEX
  8
0
  5
76BA
 10
599.053
 20
457.248
 30
0.000000
  70
    32
  0
VERTEX
  8
0
  5
76BB
 10
599.053
 20
457.257
 30
0.000000
  70
    32
  0
VERTEX
  8
0
  5
76BC
 10
599.053
 20
457.267
 30
0.000000
  70
    32
  0
VERTEX
  8
0
  5
76BD
 10
599.053
 20
457.276
 30
0.000000
  70
    32
  0
VERTEX
  8
0
  5
76BE
 10
599.053
 20
457.285
 30
0.000000
  70
    32
  0
VERTEX
  8
0
  5
76BF
 10
599.052
 20
457.295
 30
0.000000
  70
    32
  0
VERTEX
  8
0
  5
76C0
 10
599.052
 20
457.304
 30
0.000000
  70
    32
  0
VERTEX
  8
0
  5
76C1
 10
599.052
 20
457.313
 30
0.000000
  70
    32
  0
VERTEX
  8
0
  5
76C2
 10
599.051
 20
457.323
 30
0.000000
  70
    32
  0
VERTEX
  8
0
  5
76C3
 10
599.051
 20
457.332
 30
0.000000
  70
    32
  0
VERTEX
  8
0
  5
76C4
 10
599.050
 20
457.341
 30
0.000000
  70
    32
  0
VERTEX
  8
0
  5
76C5
 10
599.050
 20
457.350
 30
0.000000
  70
    32
  0
VERTEX
  8
0
  5
76C6
 10
599.049
 20
457.360
 30
0.000000
  70
    32
  0
VERTEX
  8
0
  5
76C7
 10
599.049
 20
457.369
 30
0.000000
  70
    32
  0
VERTEX
  8
0
  5
76C8
 10
599.048
 20
457.378
 30
0.000000
  70
    32
  0
VERTEX
  8
0
  5
76C9
 10
599.047
 20
457.388
 30
0.000000
  70
    32
  0
VERTEX
  8
0
  5
76CA
 10
599.047
 20
457.397
 30
0.000000
  70
    32
  0
VERTEX
  8
0
  5
76CB
 10
599.046
 20
457.406
 30
0.000000
  70
    32
  0
VERTEX
  8
0
  5
76CC
 10
599.045
 20
457.415
 30
0.000000
  70
    32
  0
VERTEX
  8
0
  5
76CD
 10
599.044
 20
457.425
 30
0.000000
  70
    32
  0
VERTEX
  8
0
  5
76CE
 10
599.043
 20
457.434
 30
0.000000
  70
    32
  0
VERTEX
  8
0
  5
76CF
 10
599.042
 20
457.443
 30
0.000000
  70
    32
  0
VERTEX
  8
0
  5
76D0
 10
599.041
 20
457.453
 30
0.000000
  70
    32
  0
VERTEX
  8
0
  5
76D1
 10
599.040
 20
457.462
 30
0.000000
  70
    32
  0
VERTEX
  8
0
  5
76D2
 10
599.039
 20
457.471
 30
0.000000
  70
    32
  0
VERTEX
  8
0
  5
76D3
 10
599.038
 20
457.480
 30
0.000000
  70
    32
  0
VERTEX
  8
0
  5
76D4
 10
599.037
 20
457.490
 30
0.000000
  70
    32
  0
VERTEX
  8
0
  5
76D5
 10
599.036
 20
457.499
 30
0.000000
  70
    32
  0
VERTEX
  8
0
  5
76D6
 10
599.034
 20
457.508
 30
0.000000
  70
    32
  0
VERTEX
  8
0
  5
76D7
 10
599.033
 20
457.518
 30
0.000000
  70
    32
  0
VERTEX
  8
0
  5
76D8
 10
599.032
 20
457.527
 30
0.000000
  70
    32
  0
VERTEX
  8
0
  5
76D9
 10
599.030
 20
457.536
 30
0.000000
  70
    32
  0
VERTEX
  8
0
  5
76DA
 10
599.029
 20
457.545
 30
0.000000
  70
    32
  0
VERTEX
  8
0
  5
76DB
 10
599.027
 20
457.555
 30
0.000000
  70
    32
  0
VERTEX
  8
0
  5
76DC
 10
599.026
 20
457.564
 30
0.000000
  70
    32
  0
VERTEX
  8
0
  5
76DD
 10
599.024
 20
457.573
 30
0.000000
  70
    32
  0
VERTEX
  8
0
  5
76DE
 10
599.022
 20
457.583
 30
0.000000
  70
    32
  0
VERTEX
  8
0
  5
76DF
 10
599.021
 20
457.592
 30
0.000000
  70
    32
  0
VERTEX
  8
0
  5
76E0
 10
599.019
 20
457.601
 30
0.000000
  70
    32
  0
VERTEX
  8
0
  5
76E1
 10
599.017
 20
457.610
 30
0.000000
  70
    32
  0
VERTEX
  8
0
  5
76E2
 10
599.015
 20
457.620
 30
0.000000
  70
    32
  0
VERTEX
  8
0
  5
76E3
 10
599.013
 20
457.629
 30
0.000000
  70
    32
  0
VERTEX
  8
0
  5
76E4
 10
599.011
 20
457.638
 30
0.000000
  70
    32
  0
VERTEX
  8
0
  5
76E5
 10
599.009
 20
457.647
 30
0.000000
  70
    32
  0
VERTEX
  8
0
  5
76E6
 10
599.007
 20
457.657
 30
0.000000
  70
    32
  0
VERTEX
  8
0
  5
76E7
 10
599.005
 20
457.666
 30
0.000000
  70
    32
  0
VERTEX
  8
0
  5
76E8
 10
599.003
 20
457.675
 30
0.000000
  70
    32
  0
VERTEX
  8
0
  5
76E9
 10
599.001
 20
457.684
 30
0.000000
  70
    32
  0
VERTEX
  8
0
  5
76EA
 10
598.998
 20
457.694
 30
0.000000
  70
    32
  0
VERTEX
  8
0
  5
76EB
 10
598.996
 20
457.703
 30
0.000000
  70
    32
  0
VERTEX
  8
0
  5
76EC
 10
598.994
 20
457.712
 30
0.000000
  70
    32
  0
VERTEX
  8
0
  5
76ED
 10
598.991
 20
457.721
 30
0.000000
  70
    32
  0
VERTEX
  8
0
  5
76EE
 10
598.989
 20
457.731
 30
0.000000
  70
    32
  0
VERTEX
  8
0
  5
76EF
 10
598.986
 20
457.740
 30
0.000000
  70
    32
  0
VERTEX
  8
0
  5
76F0
 10
598.984
 20
457.749
 30
0.000000
  70
    32
  0
VERTEX
  8
0
  5
76F1
 10
598.981
 20
457.758
 30
0.000000
  70
    32
  0
VERTEX
  8
0
  5
76F2
 10
598.978
 20
457.768
 30
0.000000
  70
    32
  0
VERTEX
  8
0
  5
76F3
 10
598.976
 20
457.777
 30
0.000000
  70
    32
  0
VERTEX
  8
0
  5
76F4
 10
598.973
 20
457.786
 30
0.000000
  70
    32
  0
VERTEX
  8
0
  5
76F5
 10
598.970
 20
457.795
 30
0.000000
  70
    32
  0
VERTEX
  8
0
  5
76F6
 10
598.967
 20
457.804
 30
0.000000
  70
    32
  0
VERTEX
  8
0
  5
76F7
 10
598.964
 20
457.814
 30
0.000000
  70
    32
  0
VERTEX
  8
0
  5
76F8
 10
598.962
 20
457.823
 30
0.000000
  70
    32
  0
VERTEX
  8
0
  5
76F9
 10
598.959
 20
457.832
 30
0.000000
  70
    32
  0
VERTEX
  8
0
  5
76FA
 10
598.956
 20
457.841
 30
0.000000
  70
    32
  0
VERTEX
  8
0
  5
76FB
 10
598.953
 20
457.850
 30
0.000000
  70
    32
  0
VERTEX
  8
0
  5
76FC
 10
598.949
 20
457.859
 30
0.000000
  70
    32
  0
VERTEX
  8
0
  5
76FD
 10
598.946
 20
457.869
 30
0.000000
  70
    32
  0
VERTEX
  8
0
  5
76FE
 10
598.943
 20
457.878
 30
0.000000
  70
    32
  0
VERTEX
  8
0
  5
76FF
 10
598.940
 20
457.887
 30
0.000000
  70
    32
  0
VERTEX
  8
0
  5
7700
 10
598.937
 20
457.896
 30
0.000000
  70
    32
  0
VERTEX
  8
0
  5
7701
 10
598.933
 20
457.905
 30
0.000000
  70
    32
  0
VERTEX
  8
0
  5
7702
 10
598.930
 20
457.914
 30
0.000000
  70
    32
  0
VERTEX
  8
0
  5
7703
 10
598.927
 20
457.923
 30
0.000000
  70
    32
  0
VERTEX
  8
0
  5
7704
 10
598.923
 20
457.932
 30
0.000000
  70
    32
  0
VERTEX
  8
0
  5
7705
 10
598.920
 20
457.941
 30
0.000000
  70
    32
  0
VERTEX
  8
0
  5
7706
 10
598.916
 20
457.951
 30
0.000000
  70
    32
  0
VERTEX
  8
0
  5
7707
 10
598.913
 20
457.960
 30
0.000000
  70
    32
  0
VERTEX
  8
0
  5
7708
 10
598.909
 20
457.969
 30
0.000000
  70
    32
  0
VERTEX
  8
0
  5
7709
 10
598.905
 20
457.978
 30
0.000000
  70
    32
  0
VERTEX
  8
0
  5
770A
 10
598.902
 20
457.987
 30
0.000000
  70
    32
  0
VERTEX
  8
0
  5
770B
 10
598.898
 20
457.996
 30
0.000000
  70
    32
  0
VERTEX
  8
0
  5
770C
 10
598.894
 20
458.005
 30
0.000000
  70
    32
  0
VERTEX
  8
0
  5
770D
 10
598.890
 20
458.014
 30
0.000000
  70
    32
  0
VERTEX
  8
0
  5
770E
 10
598.887
 20
458.023
 30
0.000000
  70
    32
  0
VERTEX
  8
0
  5
770F
 10
598.883
 20
458.032
 30
0.000000
  70
    32
  0
VERTEX
  8
0
  5
7710
 10
598.879
 20
458.040
 30
0.000000
  70
    32
  0
VERTEX
  8
0
  5
7711
 10
598.875
 20
458.049
 30
0.000000
  70
    32
  0
VERTEX
  8
0
  5
7712
 10
598.871
 20
458.058
 30
0.000000
  70
    32
  0
VERTEX
  8
0
  5
7713
 10
598.867
 20
458.067
 30
0.000000
  70
    32
  0
VERTEX
  8
0
  5
7714
 10
598.863
 20
458.076
 30
0.000000
  70
    32
  0
VERTEX
  8
0
  5
7715
 10
598.859
 20
458.085
 30
0.000000
  70
    32
  0
VERTEX
  8
0
  5
7716
 10
598.854
 20
458.094
 30
0.000000
  70
    32
  0
VERTEX
  8
0
  5
7717
 10
598.850
 20
458.103
 30
0.000000
  70
    32
  0
VERTEX
  8
0
  5
7718
 10
598.846
 20
458.111
 30
0.000000
  70
    32
  0
VERTEX
  8
0
  5
7719
 10
598.842
 20
458.120
 30
0.000000
  70
    32
  0
VERTEX
  8
0
  5
771A
 10
598.837
 20
458.129
 30
0.000000
  70
    32
  0
VERTEX
  8
0
  5
771B
 10
598.833
 20
458.138
 30
0.000000
  70
    32
  0
VERTEX
  8
0
  5
771C
 10
598.829
 20
458.147
 30
0.000000
  70
    32
  0
VERTEX
  8
0
  5
771D
 10
598.824
 20
458.155
 30
0.000000
  70
    32
  0
VERTEX
  8
0
  5
771E
 10
598.820
 20
458.164
 30
0.000000
  70
    32
  0
VERTEX
  8
0
  5
771F
 10
598.815
 20
458.173
 30
0.000000
  70
    32
  0
VERTEX
  8
0
  5
7720
 10
598.811
 20
458.181
 30
0.000000
  70
    32
  0
VERTEX
  8
0
  5
7721
 10
598.806
 20
458.190
 30
0.000000
  70
    32
  0
VERTEX
  8
0
  5
7722
 10
598.802
 20
458.199
 30
0.000000
  70
    32
  0
VERTEX
  8
0
  5
7723
 10
598.797
 20
458.207
 30
0.000000
  70
    32
  0
VERTEX
  8
0
  5
7724
 10
598.792
 20
458.216
 30
0.000000
  70
    32
  0
VERTEX
  8
0
  5
7725
 10
598.788
 20
458.225
 30
0.000000
  70
    32
  0
VERTEX
  8
0
  5
7726
 10
598.783
 20
458.233
 30
0.000000
  70
    32
  0
VERTEX
  8
0
  5
7727
 10
598.778
 20
458.242
 30
0.000000
  70
    32
  0
VERTEX
  8
0
  5
7728
 10
598.773
 20
458.250
 30
0.000000
  70
    32
  0
VERTEX
  8
0
  5
7729
 10
598.769
 20
458.259
 30
0.000000
  70
    32
  0
VERTEX
  8
0
  5
772A
 10
598.764
 20
458.267
 30
0.000000
  70
    32
  0
VERTEX
  8
0
  5
772B
 10
598.759
 20
458.276
 30
0.000000
  70
    32
  0
VERTEX
  8
0
  5
772C
 10
598.754
 20
458.284
 30
0.000000
  70
    32
  0
VERTEX
  8
0
  5
772D
 10
598.749
 20
458.293
 30
0.000000
  70
    32
  0
VERTEX
  8
0
  5
772E
 10
598.744
 20
458.301
 30
0.000000
  70
    32
  0
VERTEX
  8
0
  5
772F
 10
598.739
 20
458.309
 30
0.000000
  70
    32
  0
VERTEX
  8
0
  5
7730
 10
598.734
 20
458.318
 30
0.000000
  70
    32
  0
VERTEX
  8
0
  5
7731
 10
598.729
 20
458.326
 30
0.000000
  70
    32
  0
VERTEX
  8
0
  5
7732
 10
598.723
 20
458.334
 30
0.000000
  70
    32
  0
VERTEX
  8
0
  5
7733
 10
598.718
 20
458.343
 30
0.000000
  70
    32
  0
VERTEX
  8
0
  5
7734
 10
598.713
 20
458.351
 30
0.000000
  70
    32
  0
VERTEX
  8
0
  5
7735
 10
598.708
 20
458.359
 30
0.000000
  70
    32
  0
VERTEX
  8
0
  5
7736
 10
598.702
 20
458.367
 30
0.000000
  70
    32
  0
VERTEX
  8
0
  5
7737
 10
598.697
 20
458.375
 30
0.000000
  70
    32
  0
VERTEX
  8
0
  5
7738
 10
598.692
 20
458.384
 30
0.000000
  70
    32
  0
VERTEX
  8
0
  5
7739
 10
598.686
 20
458.392
 30
0.000000
  70
    32
  0
VERTEX
  8
0
  5
773A
 10
598.681
 20
458.400
 30
0.000000
  70
    32
  0
VERTEX
  8
0
  5
773B
 10
598.675
 20
458.408
 30
0.000000
  70
    32
  0
VERTEX
  8
0
  5
773C
 10
598.670
 20
458.416
 30
0.000000
  70
    32
  0
VERTEX
  8
0
  5
773D
 10
598.664
 20
458.424
 30
0.000000
  70
    32
  0
VERTEX
  8
0
  5
773E
 10
598.659
 20
458.432
 30
0.000000
  70
    32
  0
VERTEX
  8
0
  5
773F
 10
598.653
 20
458.440
 30
0.000000
  70
    32
  0
VERTEX
  8
0
  5
7740
 10
598.648
 20
458.448
 30
0.000000
  70
    32
  0
VERTEX
  8
0
  5
7741
 10
598.642
 20
458.456
 30
0.000000
  70
    32
  0
VERTEX
  8
0
  5
7742
 10
598.636
 20
458.464
 30
0.000000
  70
    32
  0
VERTEX
  8
0
  5
7743
 10
598.631
 20
458.472
 30
0.000000
  70
    32
  0
VERTEX
  8
0
  5
7744
 10
598.625
 20
458.480
 30
0.000000
  70
    32
  0
VERTEX
  8
0
  5
7745
 10
598.619
 20
458.487
 30
0.000000
  70
    32
  0
VERTEX
  8
0
  5
7746
 10
598.613
 20
458.495
 30
0.000000
  70
    32
  0
VERTEX
  8
0
  5
7747
 10
598.607
 20
458.503
 30
0.000000
  70
    32
  0
VERTEX
  8
0
  5
7748
 10
598.601
 20
458.511
 30
0.000000
  70
    32
  0
VERTEX
  8
0
  5
7749
 10
598.596
 20
458.518
 30
0.000000
  70
    32
  0
VERTEX
  8
0
  5
774A
 10
598.590
 20
458.526
 30
0.000000
  70
    32
  0
VERTEX
  8
0
  5
774B
 10
598.584
 20
458.534
 30
0.000000
  70
    32
  0
VERTEX
  8
0
  5
774C
 10
598.578
 20
458.541
 30
0.000000
  70
    32
  0
VERTEX
  8
0
  5
774D
 10
598.572
 20
458.549
 30
0.000000
  70
    32
  0
VERTEX
  8
0
  5
774E
 10
598.565
 20
458.556
 30
0.000000
  70
    32
  0
VERTEX
  8
0
  5
774F
 10
598.559
 20
458.564
 30
0.000000
  70
    32
  0
VERTEX
  8
0
  5
7750
 10
598.553
 20
458.571
 30
0.000000
  70
    32
  0
VERTEX
  8
0
  5
7751
 10
598.547
 20
458.579
 30
0.000000
  70
    32
  0
VERTEX
  8
0
  5
7752
 10
598.541
 20
458.586
 30
0.000000
  70
    32
  0
VERTEX
  8
0
  5
7753
 10
598.535
 20
458.594
 30
0.000000
  70
    32
  0
VERTEX
  8
0
  5
7754
 10
598.528
 20
458.601
 30
0.000000
  70
    32
  0
VERTEX
  8
0
  5
7755
 10
598.522
 20
458.608
 30
0.000000
  70
    32
  0
VERTEX
  8
0
  5
7756
 10
598.516
 20
458.616
 30
0.000000
  70
    32
  0
VERTEX
  8
0
  5
7757
 10
598.509
 20
458.623
 30
0.000000
  70
    32
  0
VERTEX
  8
0
  5
7758
 10
598.503
 20
458.630
 30
0.000000
  70
    32
  0
VERTEX
  8
0
  5
7759
 10
598.497
 20
458.637
 30
0.000000
  70
    32
  0
VERTEX
  8
0
  5
775A
 10
598.490
 20
458.644
 30
0.000000
  70
    32
  0
VERTEX
  8
0
  5
775B
 10
598.484
 20
458.652
 30
0.000000
  70
    32
  0
VERTEX
  8
0
  5
775C
 10
598.477
 20
458.659
 30
0.000000
  70
    32
  0
VERTEX
  8
0
  5
775D
 10
598.471
 20
458.666
 30
0.000000
  70
    32
  0
VERTEX
  8
0
  5
775E
 10
598.464
 20
458.673
 30
0.000000
  70
    32
  0
VERTEX
  8
0
  5
775F
 10
598.458
 20
458.680
 30
0.000000
  70
    32
  0
VERTEX
  8
0
  5
7760
 10
598.451
 20
458.687
 30
0.000000
  70
    32
  0
VERTEX
  8
0
  5
7761
 10
598.444
 20
458.694
 30
0.000000
  70
    32
  0
VERTEX
  8
0
  5
7762
 10
598.438
 20
458.701
 30
0.000000
  70
    32
  0
VERTEX
  8
0
  5
7763
 10
598.431
 20
458.708
 30
0.000000
  70
    32
  0
VERTEX
  8
0
  5
7764
 10
598.424
 20
458.714
 30
0.000000
  70
    32
  0
VERTEX
  8
0
  5
7765
 10
598.418
 20
458.721
 30
0.000000
  70
    32
  0
VERTEX
  8
0
  5
7766
 10
598.411
 20
458.728
 30
0.000000
  70
    32
  0
VERTEX
  8
0
  5
7767
 10
598.404
 20
458.735
 30
0.000000
  70
    32
  0
VERTEX
  8
0
  5
7768
 10
598.397
 20
458.741
 30
0.000000
  70
    32
  0
VERTEX
  8
0
  5
7769
 10
598.390
 20
458.748
 30
0.000000
  70
    32
  0
VERTEX
  8
0
  5
776A
 10
598.384
 20
458.755
 30
0.000000
  70
    32
  0
VERTEX
  8
0
  5
776B
 10
598.377
 20
458.761
 30
0.000000
  70
    32
  0
VERTEX
  8
0
  5
776C
 10
598.370
 20
458.768
 30
0.000000
  70
    32
  0
VERTEX
  8
0
  5
776D
 10
598.363
 20
458.774
 30
0.000000
  70
    32
  0
VERTEX
  8
0
  5
776E
 10
598.356
 20
458.781
 30
0.000000
  70
    32
  0
VERTEX
  8
0
  5
776F
 10
598.349
 20
458.787
 30
0.000000
  70
    32
  0
VERTEX
  8
0
  5
7770
 10
598.342
 20
458.794
 30
0.000000
  70
    32
  0
VERTEX
  8
0
  5
7771
 10
598.335
 20
458.800
 30
0.000000
  70
    32
  0
VERTEX
  8
0
  5
7772
 10
598.328
 20
458.807
 30
0.000000
  70
    32
  0
VERTEX
  8
0
  5
7773
 10
598.321
 20
458.813
 30
0.000000
  70
    32
  0
VERTEX
  8
0
  5
7774
 10
598.314
 20
458.819
 30
0.000000
  70
    32
  0
VERTEX
  8
0
  5
7775
 10
598.306
 20
458.826
 30
0.000000
  70
    32
  0
VERTEX
  8
0
  5
7776
 10
598.299
 20
458.832
 30
0.000000
  70
    32
  0
VERTEX
  8
0
  5
7777
 10
598.292
 20
458.838
 30
0.000000
  70
    32
  0
VERTEX
  8
0
  5
7778
 10
598.285
 20
458.844
 30
0.000000
  70
    32
  0
VERTEX
  8
0
  5
7779
 10
598.278
 20
458.850
 30
0.000000
  70
    32
  0
VERTEX
  8
0
  5
777A
 10
598.270
 20
458.856
 30
0.000000
  70
    32
  0
VERTEX
  8
0
  5
777B
 10
598.263
 20
458.863
 30
0.000000
  70
    32
  0
VERTEX
  8
0
  5
777C
 10
598.256
 20
458.869
 30
0.000000
  70
    32
  0
VERTEX
  8
0
  5
777D
 10
598.248
 20
458.875
 30
0.000000
  70
    32
  0
VERTEX
  8
0
  5
777E
 10
598.241
 20
458.881
 30
0.000000
  70
    32
  0
VERTEX
  8
0
  5
777F
 10
598.234
 20
458.886
 30
0.000000
  70
    32
  0
VERTEX
  8
0
  5
7780
 10
598.226
 20
458.892
 30
0.000000
  70
    32
  0
VERTEX
  8
0
  5
7781
 10
598.219
 20
458.898
 30
0.000000
  70
    32
  0
VERTEX
  8
0
  5
7782
 10
598.211
 20
458.904
 30
0.000000
  70
    32
  0
VERTEX
  8
0
  5
7783
 10
598.204
 20
458.910
 30
0.000000
  70
    32
  0
VERTEX
  8
0
  5
7784
 10
598.196
 20
458.916
 30
0.000000
  70
    32
  0
VERTEX
  8
0
  5
7785
 10
598.189
 20
458.921
 30
0.000000
  70
    32
  0
VERTEX
  8
0
  5
7786
 10
598.181
 20
458.927
 30
0.000000
  70
    32
  0
VERTEX
  8
0
  5
7787
 10
598.174
 20
458.932
 30
0.000000
  70
    32
  0
VERTEX
  8
0
  5
7788
 10
598.166
 20
458.938
 30
0.000000
  70
    32
  0
VERTEX
  8
0
  5
7789
 10
598.158
 20
458.944
 30
0.000000
  70
    32
  0
VERTEX
  8
0
  5
778A
 10
598.151
 20
458.949
 30
0.000000
  70
    32
  0
VERTEX
  8
0
  5
778B
 10
598.143
 20
458.955
 30
0.000000
  70
    32
  0
VERTEX
  8
0
  5
778C
 10
598.135
 20
458.960
 30
0.000000
  70
    32
  0
VERTEX
  8
0
  5
778D
 10
598.128
 20
458.965
 30
0.000000
  70
    32
  0
VERTEX
  8
0
  5
778E
 10
598.120
 20
458.971
 30
0.000000
  70
    32
  0
VERTEX
  8
0
  5
778F
 10
598.112
 20
458.976
 30
0.000000
  70
    32
  0
VERTEX
  8
0
  5
7790
 10
598.104
 20
458.981
 30
0.000000
  70
    32
  0
VERTEX
  8
0
  5
7791
 10
598.097
 20
458.986
 30
0.000000
  70
    32
  0
VERTEX
  8
0
  5
7792
 10
598.089
 20
458.991
 30
0.000000
  70
    32
  0
VERTEX
  8
0
  5
7793
 10
598.081
 20
458.996
 30
0.000000
  70
    32
  0
VERTEX
  8
0
  5
7794
 10
598.073
 20
459.001
 30
0.000000
  70
    32
  0
VERTEX
  8
0
  5
7795
 10
598.065
 20
459.006
 30
0.000000
  70
    32
  0
VERTEX
  8
0
  5
7796
 10
598.057
 20
459.011
 30
0.000000
  70
    32
  0
VERTEX
  8
0
  5
7797
 10
598.049
 20
459.016
 30
0.000000
  70
    32
  0
VERTEX
  8
0
  5
7798
 10
598.041
 20
459.021
 30
0.000000
  70
    32
  0
VERTEX
  8
0
  5
7799
 10
598.033
 20
459.026
 30
0.000000
  70
    32
  0
VERTEX
  8
0
  5
779A
 10
598.025
 20
459.030
 30
0.000000
  70
    32
  0
VERTEX
  8
0
  5
779B
 10
598.017
 20
459.035
 30
0.000000
  70
    32
  0
VERTEX
  8
0
  5
779C
 10
598.009
 20
459.039
 30
0.000000
  70
    32
  0
VERTEX
  8
0
  5
779D
 10
598.001
 20
459.044
 30
0.000000
  70
    32
  0
VERTEX
  8
0
  5
779E
 10
597.993
 20
459.048
 30
0.000000
  70
    32
  0
VERTEX
  8
0
  5
779F
 10
597.985
 20
459.053
 30
0.000000
  70
    32
  0
VERTEX
  8
0
  5
77A0
 10
597.977
 20
459.057
 30
0.000000
  70
    32
  0
VERTEX
  8
0
  5
77A1
 10
597.968
 20
459.061
 30
0.000000
  70
    32
  0
VERTEX
  8
0
  5
77A2
 10
597.960
 20
459.066
 30
0.000000
  70
    32
  0
VERTEX
  8
0
  5
77A3
 10
597.952
 20
459.070
 30
0.000000
  70
    32
  0
VERTEX
  8
0
  5
77A4
 10
597.944
 20
459.074
 30
0.000000
  70
    32
  0
VERTEX
  8
0
  5
77A5
 10
597.935
 20
459.078
 30
0.000000
  70
    32
  0
VERTEX
  8
0
  5
77A6
 10
597.927
 20
459.082
 30
0.000000
  70
    32
  0
VERTEX
  8
0
  5
77A7
 10
597.919
 20
459.086
 30
0.000000
  70
    32
  0
VERTEX
  8
0
  5
77A8
 10
597.910
 20
459.090
 30
0.000000
  70
    32
  0
VERTEX
  8
0
  5
77A9
 10
597.902
 20
459.093
 30
0.000000
  70
    32
  0
VERTEX
  8
0
  5
77AA
 10
597.894
 20
459.097
 30
0.000000
  70
    32
  0
VERTEX
  8
0
  5
77AB
 10
597.885
 20
459.101
 30
0.000000
  70
    32
  0
VERTEX
  8
0
  5
77AC
 10
597.877
 20
459.104
 30
0.000000
  70
    32
  0
VERTEX
  8
0
  5
77AD
 10
597.868
 20
459.108
 30
0.000000
  70
    32
  0
VERTEX
  8
0
  5
77AE
 10
597.860
 20
459.111
 30
0.000000
  70
    32
  0
VERTEX
  8
0
  5
77AF
 10
597.851
 20
459.114
 30
0.000000
  70
    32
  0
VERTEX
  8
0
  5
77B0
 10
597.843
 20
459.118
 30
0.000000
  70
    32
  0
VERTEX
  8
0
  5
77B1
 10
597.834
 20
459.121
 30
0.000000
  70
    32
  0
VERTEX
  8
0
  5
77B2
 10
597.826
 20
459.124
 30
0.000000
  70
    32
  0
VERTEX
  8
0
  5
77B3
 10
597.817
 20
459.127
 30
0.000000
  70
    32
  0
VERTEX
  8
0
  5
77B4
 10
597.808
 20
459.130
 30
0.000000
  70
    32
  0
VERTEX
  8
0
  5
77B5
 10
597.800
 20
459.133
 30
0.000000
  70
    32
  0
VERTEX
  8
0
  5
77B6
 10
597.791
 20
459.136
 30
0.000000
  70
    32
  0
VERTEX
  8
0
  5
77B7
 10
597.782
 20
459.139
 30
0.000000
  70
    32
  0
VERTEX
  8
0
  5
77B8
 10
597.774
 20
459.141
 30
0.000000
  70
    32
  0
VERTEX
  8
0
  5
77B9
 10
597.765
 20
459.144
 30
0.000000
  70
    32
  0
VERTEX
  8
0
  5
77BA
 10
597.756
 20
459.147
 30
0.000000
  70
    32
  0
VERTEX
  8
0
  5
77BB
 10
597.747
 20
459.149
 30
0.000000
  70
    32
  0
VERTEX
  8
0
  5
77BC
 10
597.739
 20
459.152
 30
0.000000
  70
    32
  0
VERTEX
  8
0
  5
77BD
 10
597.730
 20
459.154
 30
0.000000
  70
    32
  0
VERTEX
  8
0
  5
77BE
 10
597.721
 20
459.157
 30
0.000000
  70
    32
  0
VERTEX
  8
0
  5
77BF
 10
597.712
 20
459.159
 30
0.000000
  70
    32
  0
VERTEX
  8
0
  5
77C0
 10
597.703
 20
459.161
 30
0.000000
  70
    32
  0
VERTEX
  8
0
  5
77C1
 10
597.695
 20
459.164
 30
0.000000
  70
    32
  0
VERTEX
  8
0
  5
77C2
 10
597.686
 20
459.166
 30
0.000000
  70
    32
  0
VERTEX
  8
0
  5
77C3
 10
597.677
 20
459.168
 30
0.000000
  70
    32
  0
VERTEX
  8
0
  5
77C4
 10
597.668
 20
459.170
 30
0.000000
  70
    32
  0
VERTEX
  8
0
  5
77C5
 10
597.659
 20
459.172
 30
0.000000
  70
    32
  0
VERTEX
  8
0
  5
77C6
 10
597.650
 20
459.174
 30
0.000000
  70
    32
  0
VERTEX
  8
0
  5
77C7
 10
597.641
 20
459.176
 30
0.000000
  70
    32
  0
VERTEX
  8
0
  5
77C8
 10
597.632
 20
459.178
 30
0.000000
  70
    32
  0
VERTEX
  8
0
  5
77C9
 10
597.623
 20
459.180
 30
0.000000
  70
    32
  0
VERTEX
  8
0
  5
77CA
 10
597.614
 20
459.182
 30
0.000000
  70
    32
  0
VERTEX
  8
0
  5
77CB
 10
597.605
 20
459.184
 30
0.000000
  70
    32
  0
VERTEX
  8
0
  5
77CC
 10
597.596
 20
459.186
 30
0.000000
  70
    32
  0
VERTEX
  8
0
  5
77CD
 10
597.587
 20
459.188
 30
0.000000
  70
    32
  0
VERTEX
  8
0
  5
77CE
 10
597.578
 20
459.190
 30
0.000000
  70
    32
  0
VERTEX
  8
0
  5
77CF
 10
597.569
 20
459.191
 30
0.000000
  70
    32
  0
VERTEX
  8
0
  5
77D0
 10
597.560
 20
459.193
 30
0.000000
  70
    32
  0
VERTEX
  8
0
  5
77D1
 10
597.551
 20
459.195
 30
0.000000
  70
    32
  0
VERTEX
  8
0
  5
77D2
 10
597.542
 20
459.197
 30
0.000000
  70
    32
  0
VERTEX
  8
0
  5
77D3
 10
597.533
 20
459.199
 30
0.000000
  70
    32
  0
VERTEX
  8
0
  5
77D4
 10
597.524
 20
459.200
 30
0.000000
  70
    32
  0
VERTEX
  8
0
  5
77D5
 10
597.515
 20
459.202
 30
0.000000
  70
    32
  0
VERTEX
  8
0
  5
77D6
 10
597.506
 20
459.204
 30
0.000000
  70
    32
  0
VERTEX
  8
0
  5
77D7
 10
597.497
 20
459.205
 30
0.000000
  70
    32
  0
VERTEX
  8
0
  5
77D8
 10
597.488
 20
459.207
 30
0.000000
  70
    32
  0
VERTEX
  8
0
  5
77D9
 10
597.479
 20
459.209
 30
0.000000
  70
    32
  0
VERTEX
  8
0
  5
77DA
 10
597.470
 20
459.211
 30
0.000000
  70
    32
  0
SEQEND
  8
0
  5
77DB
  0
LINE
  5
6F4E
  8
0
  6
CONTINUOUS
 10
598.65445239400003
 20
456.35417294860002
 30
0.0
 11
598.68980306319997
 21
456.37458045549999
 31
0.0
  0
LINE
  5
6F4F
  8
0
  6
CONTINUOUS
 10
597.08994030389988
 20
459.1459327796
 30
0.0
 11
597.05458963470005
 21
459.12552527269992
 31
0.0
  0
LINE
  5
6F50
  8
0
  6
CONTINUOUS
 10
567.65641996010004
 20
461.56638372539987
 30
0.0
 11
567.84032773360002
 21
461.67255142319988
 31
0.0
  0
LINE
  5
6F51
  8
0
  6
CONTINUOUS
 10
454.5193374991
 20
526.87903121140005
 30
0.0
 11
454.70324527259999
 21
526.98519890919999
 31
0.0
  0
LINE
  5
6F52
  8
0
  6
CONTINUOUS
 10
383.88151969109998
 20
583.39128906960002
 30
0.0
 11
330.81315305729998
 21
552.75557311139994
 31
0.0
  0
LINE
  5
6F53
  8
0
  6
CONTINUOUS
 10
327.98472546890002
 20
551.12275662009995
 30
0.0
 11
245.96034121150001
 21
503.77108749690001
 31
0.0
  0
LINE
  5
6F54
  8
0
  6
CONTINUOUS
 10
243.13191362309999
 20
502.13827100569989
 30
0.0
 11
190.06354698920001
 21
471.50255504749992
 31
0.0
  0
LINE
  5
6F55
  8
0
  6
CONTINUOUS
 10
182.0353520646
 20
458.41387962279998
 30
0.0
 11
182.0353520646
 21
432.80453357999988
 31
0.0
  0
LINE
  5
6F56
  8
0
  6
CONTINUOUS
 10
601.35972162270002
 20
432.8045378761999
 30
0.0
 11
601.35972162270002
 21
458.6588062022999
 31
0.0
  0
LINE
  5
6F57
  8
0
  6
CONTINUOUS
 10
596.29390223929988
 20
461.46369097209993
 30
0.0
 11
596.11712781999995
 21
461.36164127199987
 31
0.0
  0
LINE
  5
6F58
  8
0
  6
CONTINUOUS
 10
596.37302241069995
 20
461.49676570349988
 30
0.0
 11
397.10347075779998
 21
576.53262926559989
 31
0.0
  0
LINE
  5
6F59
  8
0
  6
CONTINUOUS
 10
386.14309850879999
 20
582.04484156199987
 30
0.0
 11
384.22112845970003
 21
583.15437125430003
 31
0.0
  0
LINE
  5
6F5A
  8
0
  6
CONTINUOUS
 10
424.56838029620002
 20
544.16935000199999
 30
0.0
 11
424.56838029620002
 21
549.21704373620003
 31
0.0
  0
LINE
  5
6F5B
  8
0
  6
CONTINUOUS
 10
425.8282865754
 20
543.44201855080007
 30
0.0
 11
424.56838029620002
 21
544.16934696409987
 31
0.0
  0
LINE
  5
6F5C
  8
0
  6
CONTINUOUS
 10
455.16033047879989
 20
526.50899003500001
 30
0.0
 11
453.99364249180002
 21
527.1825046736999
 31
0.0
  0
LINE
  5
6F5D
  8
0
  6
CONTINUOUS
 10
537.7054680256
 20
478.85669947469989
 30
0.0
 11
537.7054680256
 21
483.90439320889988
 31
0.0
  0
LINE
  5
6F5E
  8
0
  6
CONTINUOUS
 10
538.96537167060001
 20
478.12936954409997
 30
0.0
 11
537.70546539140003
 21
478.85669795749999
 31
0.0
  0
LINE
  5
6F5F
  8
0
  6
CONTINUOUS
 10
568.2974155741
 20
461.19634102830003
 30
0.0
 11
567.13072758700002
 21
461.86985566710001
 31
0.0
  0
LINE
  5
6F60
  8
0
  6
CONTINUOUS
 10
391.69753684360001
 20
549.60096208870004
 30
0.0
 11
391.69753684360001
 21
550.00919710559992
 31
0.0
  0
LINE
  5
6F61
  8
0
  6
CONTINUOUS
 10
173.13082932899999
 20
423.42508756949991
 30
0.0
 11
391.69753684360001
 21
549.60096208870004
 31
0.0
  0
POLYLINE
  5
6F62
  8
0
  6
CONTINUOUS
 10
172.77727738830671
 20
423.62922300899999
 30
0.0
 66
     1
 70
     8
  0
VERTEX
  8
0
  5
77DC
 10
172.777
 20
423.629
 30
0.000000
  70
    32
  0
VERTEX
  8
0
  5
77DD
 10
172.777
 20
423.627
 30
0.000000
  70
    32
  0
VERTEX
  8
0
  5
77DE
 10
172.777
 20
423.624
 30
0.000000
  70
    32
  0
VERTEX
  8
0
  5
77DF
 10
172.778
 20
423.622
 30
0.000000
  70
    32
  0
VERTEX
  8
0
  5
77E0
 10
172.778
 20
423.619
 30
0.000000
  70
    32
  0
VERTEX
  8
0
  5
77E1
 10
172.778
 20
423.617
 30
0.000000
  70
    32
  0
VERTEX
  8
0
  5
77E2
 10
172.778
 20
423.614
 30
0.000000
  70
    32
  0
VERTEX
  8
0
  5
77E3
 10
172.779
 20
423.612
 30
0.000000
  70
    32
  0
VERTEX
  8
0
  5
77E4
 10
172.779
 20
423.609
 30
0.000000
  70
    32
  0
VERTEX
  8
0
  5
77E5
 10
172.779
 20
423.607
 30
0.000000
  70
    32
  0
VERTEX
  8
0
  5
77E6
 10
172.780
 20
423.604
 30
0.000000
  70
    32
  0
VERTEX
  8
0
  5
77E7
 10
172.780
 20
423.602
 30
0.000000
  70
    32
  0
VERTEX
  8
0
  5
77E8
 10
172.781
 20
423.599
 30
0.000000
  70
    32
  0
VERTEX
  8
0
  5
77E9
 10
172.782
 20
423.597
 30
0.000000
  70
    32
  0
VERTEX
  8
0
  5
77EA
 10
172.782
 20
423.594
 30
0.000000
  70
    32
  0
VERTEX
  8
0
  5
77EB
 10
172.783
 20
423.592
 30
0.000000
  70
    32
  0
VERTEX
  8
0
  5
77EC
 10
172.784
 20
423.589
 30
0.000000
  70
    32
  0
VERTEX
  8
0
  5
77ED
 10
172.785
 20
423.587
 30
0.000000
  70
    32
  0
VERTEX
  8
0
  5
77EE
 10
172.786
 20
423.584
 30
0.000000
  70
    32
  0
VERTEX
  8
0
  5
77EF
 10
172.787
 20
423.582
 30
0.000000
  70
    32
  0
VERTEX
  8
0
  5
77F0
 10
172.788
 20
423.580
 30
0.000000
  70
    32
  0
VERTEX
  8
0
  5
77F1
 10
172.789
 20
423.577
 30
0.000000
  70
    32
  0
VERTEX
  8
0
  5
77F2
 10
172.790
 20
423.575
 30
0.000000
  70
    32
  0
VERTEX
  8
0
  5
77F3
 10
172.791
 20
423.572
 30
0.000000
  70
    32
  0
VERTEX
  8
0
  5
77F4
 10
172.793
 20
423.570
 30
0.000000
  70
    32
  0
VERTEX
  8
0
  5
77F5
 10
172.794
 20
423.568
 30
0.000000
  70
    32
  0
VERTEX
  8
0
  5
77F6
 10
172.795
 20
423.565
 30
0.000000
  70
    32
  0
VERTEX
  8
0
  5
77F7
 10
172.797
 20
423.563
 30
0.000000
  70
    32
  0
VERTEX
  8
0
  5
77F8
 10
172.798
 20
423.560
 30
0.000000
  70
    32
  0
VERTEX
  8
0
  5
77F9
 10
172.799
 20
423.558
 30
0.000000
  70
    32
  0
VERTEX
  8
0
  5
77FA
 10
172.801
 20
423.556
 30
0.000000
  70
    32
  0
VERTEX
  8
0
  5
77FB
 10
172.803
 20
423.553
 30
0.000000
  70
    32
  0
VERTEX
  8
0
  5
77FC
 10
172.804
 20
423.551
 30
0.000000
  70
    32
  0
VERTEX
  8
0
  5
77FD
 10
172.806
 20
423.549
 30
0.000000
  70
    32
  0
VERTEX
  8
0
  5
77FE
 10
172.808
 20
423.546
 30
0.000000
  70
    32
  0
VERTEX
  8
0
  5
77FF
 10
172.809
 20
423.544
 30
0.000000
  70
    32
  0
VERTEX
  8
0
  5
7800
 10
172.811
 20
423.542
 30
0.000000
  70
    32
  0
VERTEX
  8
0
  5
7801
 10
172.813
 20
423.540
 30
0.000000
  70
    32
  0
VERTEX
  8
0
  5
7802
 10
172.815
 20
423.537
 30
0.000000
  70
    32
  0
VERTEX
  8
0
  5
7803
 10
172.817
 20
423.535
 30
0.000000
  70
    32
  0
VERTEX
  8
0
  5
7804
 10
172.819
 20
423.533
 30
0.000000
  70
    32
  0
VERTEX
  8
0
  5
7805
 10
172.821
 20
423.531
 30
0.000000
  70
    32
  0
VERTEX
  8
0
  5
7806
 10
172.823
 20
423.529
 30
0.000000
  70
    32
  0
VERTEX
  8
0
  5
7807
 10
172.825
 20
423.526
 30
0.000000
  70
    32
  0
VERTEX
  8
0
  5
7808
 10
172.828
 20
423.524
 30
0.000000
  70
    32
  0
VERTEX
  8
0
  5
7809
 10
172.830
 20
423.522
 30
0.000000
  70
    32
  0
VERTEX
  8
0
  5
780A
 10
172.832
 20
423.520
 30
0.000000
  70
    32
  0
VERTEX
  8
0
  5
780B
 10
172.834
 20
423.518
 30
0.000000
  70
    32
  0
VERTEX
  8
0
  5
780C
 10
172.837
 20
423.516
 30
0.000000
  70
    32
  0
VERTEX
  8
0
  5
780D
 10
172.839
 20
423.514
 30
0.000000
  70
    32
  0
VERTEX
  8
0
  5
780E
 10
172.842
 20
423.512
 30
0.000000
  70
    32
  0
VERTEX
  8
0
  5
780F
 10
172.844
 20
423.510
 30
0.000000
  70
    32
  0
VERTEX
  8
0
  5
7810
 10
172.847
 20
423.508
 30
0.000000
  70
    32
  0
VERTEX
  8
0
  5
7811
 10
172.849
 20
423.506
 30
0.000000
  70
    32
  0
VERTEX
  8
0
  5
7812
 10
172.852
 20
423.504
 30
0.000000
  70
    32
  0
VERTEX
  8
0
  5
7813
 10
172.855
 20
423.502
 30
0.000000
  70
    32
  0
VERTEX
  8
0
  5
7814
 10
172.858
 20
423.500
 30
0.000000
  70
    32
  0
VERTEX
  8
0
  5
7815
 10
172.860
 20
423.498
 30
0.000000
  70
    32
  0
VERTEX
  8
0
  5
7816
 10
172.863
 20
423.496
 30
0.000000
  70
    32
  0
VERTEX
  8
0
  5
7817
 10
172.866
 20
423.494
 30
0.000000
  70
    32
  0
VERTEX
  8
0
  5
7818
 10
172.869
 20
423.492
 30
0.000000
  70
    32
  0
VERTEX
  8
0
  5
7819
 10
172.872
 20
423.490
 30
0.000000
  70
    32
  0
VERTEX
  8
0
  5
781A
 10
172.875
 20
423.488
 30
0.000000
  70
    32
  0
VERTEX
  8
0
  5
781B
 10
172.878
 20
423.487
 30
0.000000
  70
    32
  0
VERTEX
  8
0
  5
781C
 10
172.881
 20
423.485
 30
0.000000
  70
    32
  0
VERTEX
  8
0
  5
781D
 10
172.884
 20
423.483
 30
0.000000
  70
    32
  0
VERTEX
  8
0
  5
781E
 10
172.887
 20
423.481
 30
0.000000
  70
    32
  0
VERTEX
  8
0
  5
781F
 10
172.890
 20
423.480
 30
0.000000
  70
    32
  0
VERTEX
  8
0
  5
7820
 10
172.893
 20
423.478
 30
0.000000
  70
    32
  0
VERTEX
  8
0
  5
7821
 10
172.897
 20
423.476
 30
0.000000
  70
    32
  0
VERTEX
  8
0
  5
7822
 10
172.900
 20
423.475
 30
0.000000
  70
    32
  0
VERTEX
  8
0
  5
7823
 10
172.903
 20
423.473
 30
0.000000
  70
    32
  0
VERTEX
  8
0
  5
7824
 10
172.907
 20
423.471
 30
0.000000
  70
    32
  0
VERTEX
  8
0
  5
7825
 10
172.910
 20
423.470
 30
0.000000
  70
    32
  0
VERTEX
  8
0
  5
7826
 10
172.913
 20
423.468
 30
0.000000
  70
    32
  0
VERTEX
  8
0
  5
7827
 10
172.917
 20
423.467
 30
0.000000
  70
    32
  0
VERTEX
  8
0
  5
7828
 10
172.920
 20
423.465
 30
0.000000
  70
    32
  0
VERTEX
  8
0
  5
7829
 10
172.924
 20
423.464
 30
0.000000
  70
    32
  0
VERTEX
  8
0
  5
782A
 10
172.927
 20
423.462
 30
0.000000
  70
    32
  0
VERTEX
  8
0
  5
782B
 10
172.931
 20
423.461
 30
0.000000
  70
    32
  0
VERTEX
  8
0
  5
782C
 10
172.934
 20
423.459
 30
0.000000
  70
    32
  0
VERTEX
  8
0
  5
782D
 10
172.938
 20
423.458
 30
0.000000
  70
    32
  0
VERTEX
  8
0
  5
782E
 10
172.942
 20
423.457
 30
0.000000
  70
    32
  0
VERTEX
  8
0
  5
782F
 10
172.945
 20
423.455
 30
0.000000
  70
    32
  0
VERTEX
  8
0
  5
7830
 10
172.949
 20
423.454
 30
0.000000
  70
    32
  0
VERTEX
  8
0
  5
7831
 10
172.953
 20
423.453
 30
0.000000
  70
    32
  0
VERTEX
  8
0
  5
7832
 10
172.957
 20
423.452
 30
0.000000
  70
    32
  0
VERTEX
  8
0
  5
7833
 10
172.960
 20
423.450
 30
0.000000
  70
    32
  0
VERTEX
  8
0
  5
7834
 10
172.964
 20
423.449
 30
0.000000
  70
    32
  0
VERTEX
  8
0
  5
7835
 10
172.968
 20
423.448
 30
0.000000
  70
    32
  0
VERTEX
  8
0
  5
7836
 10
172.972
 20
423.447
 30
0.000000
  70
    32
  0
VERTEX
  8
0
  5
7837
 10
172.976
 20
423.446
 30
0.000000
  70
    32
  0
VERTEX
  8
0
  5
7838
 10
172.980
 20
423.445
 30
0.000000
  70
    32
  0
VERTEX
  8
0
  5
7839
 10
172.984
 20
423.444
 30
0.000000
  70
    32
  0
VERTEX
  8
0
  5
783A
 10
172.988
 20
423.443
 30
0.000000
  70
    32
  0
VERTEX
  8
0
  5
783B
 10
172.992
 20
423.442
 30
0.000000
  70
    32
  0
VERTEX
  8
0
  5
783C
 10
172.996
 20
423.441
 30
0.000000
  70
    32
  0
VERTEX
  8
0
  5
783D
 10
173.000
 20
423.440
 30
0.000000
  70
    32
  0
VERTEX
  8
0
  5
783E
 10
173.004
 20
423.439
 30
0.000000
  70
    32
  0
VERTEX
  8
0
  5
783F
 10
173.008
 20
423.438
 30
0.000000
  70
    32
  0
VERTEX
  8
0
  5
7840
 10
173.012
 20
423.437
 30
0.000000
  70
    32
  0
VERTEX
  8
0
  5
7841
 10
173.016
 20
423.436
 30
0.000000
  70
    32
  0
VERTEX
  8
0
  5
7842
 10
173.020
 20
423.435
 30
0.000000
  70
    32
  0
VERTEX
  8
0
  5
7843
 10
173.024
 20
423.435
 30
0.000000
  70
    32
  0
VERTEX
  8
0
  5
7844
 10
173.028
 20
423.434
 30
0.000000
  70
    32
  0
VERTEX
  8
0
  5
7845
 10
173.032
 20
423.433
 30
0.000000
  70
    32
  0
VERTEX
  8
0
  5
7846
 10
173.037
 20
423.432
 30
0.000000
  70
    32
  0
VERTEX
  8
0
  5
7847
 10
173.041
 20
423.432
 30
0.000000
  70
    32
  0
VERTEX
  8
0
  5
7848
 10
173.045
 20
423.431
 30
0.000000
  70
    32
  0
VERTEX
  8
0
  5
7849
 10
173.049
 20
423.431
 30
0.000000
  70
    32
  0
VERTEX
  8
0
  5
784A
 10
173.053
 20
423.430
 30
0.000000
  70
    32
  0
VERTEX
  8
0
  5
784B
 10
173.058
 20
423.430
 30
0.000000
  70
    32
  0
VERTEX
  8
0
  5
784C
 10
173.062
 20
423.429
 30
0.000000
  70
    32
  0
VERTEX
  8
0
  5
784D
 10
173.066
 20
423.429
 30
0.000000
  70
    32
  0
VERTEX
  8
0
  5
784E
 10
173.070
 20
423.428
 30
0.000000
  70
    32
  0
VERTEX
  8
0
  5
784F
 10
173.075
 20
423.428
 30
0.000000
  70
    32
  0
VERTEX
  8
0
  5
7850
 10
173.079
 20
423.427
 30
0.000000
  70
    32
  0
VERTEX
  8
0
  5
7851
 10
173.083
 20
423.427
 30
0.000000
  70
    32
  0
VERTEX
  8
0
  5
7852
 10
173.088
 20
423.427
 30
0.000000
  70
    32
  0
VERTEX
  8
0
  5
7853
 10
173.092
 20
423.426
 30
0.000000
  70
    32
  0
VERTEX
  8
0
  5
7854
 10
173.096
 20
423.426
 30
0.000000
  70
    32
  0
VERTEX
  8
0
  5
7855
 10
173.100
 20
423.426
 30
0.000000
  70
    32
  0
VERTEX
  8
0
  5
7856
 10
173.105
 20
423.426
 30
0.000000
  70
    32
  0
VERTEX
  8
0
  5
7857
 10
173.109
 20
423.425
 30
0.000000
  70
    32
  0
VERTEX
  8
0
  5
7858
 10
173.113
 20
423.425
 30
0.000000
  70
    32
  0
VERTEX
  8
0
  5
7859
 10
173.118
 20
423.425
 30
0.000000
  70
    32
  0
VERTEX
  8
0
  5
785A
 10
173.122
 20
423.425
 30
0.000000
  70
    32
  0
VERTEX
  8
0
  5
785B
 10
173.126
 20
423.425
 30
0.000000
  70
    32
  0
VERTEX
  8
0
  5
785C
 10
173.131
 20
423.425
 30
0.000000
  70
    32
  0
SEQEND
  8
0
  5
785D
  0
LINE
  5
6F63
  8
0
  6
CONTINUOUS
 10
172.7772804903
 20
423.62922318620002
 30
0.0
 11
391.69753684360001
 21
550.00919710559992
 31
0.0
  0
LINE
  5
6F64
  8
0
  6
CONTINUOUS
 10
172.7772804903
 20
423.62922318620002
 30
0.0
 11
172.7772804903
 21
427.4261383557
 31
0.0
  0
LINE
  5
6F65
  8
0
  6
CONTINUOUS
 10
172.7772804903
 20
427.4261383557
 30
0.0
 11
391.69753684360001
 21
553.80611227510008
 31
0.0
  0
LINE
  5
6F66
  8
0
  6
CONTINUOUS
 10
391.69753684360001
 20
550.00919710559992
 30
0.0
 11
391.69753684360001
 21
553.80611227510008
 31
0.0
  0
LINE
  5
6F67
  8
0
  6
CONTINUOUS
 10
185.00941281959999
 20
423.42508756949991
 30
0.0
 11
391.69753684360001
 21
542.74360180259987
 31
0.0
  0
LINE
  5
6F68
  8
0
  6
CONTINUOUS
 10
185.00941281959999
 20
423.42508756949991
 30
0.0
 11
173.13082932899999
 21
423.42508756949991
 31
0.0
  0
LINE
  5
6F69
  8
0
  6
CONTINUOUS
 10
391.69753684360001
 20
549.60096208870004
 30
0.0
 11
391.69753684360001
 21
542.74360180259987
 31
0.0
  0
POLYLINE
  5
6F6A
  8
0
  6
CONTINUOUS
 10
172.81870687123646
 20
427.48388063066636
 30
0.0
 66
     1
 70
     8
  0
VERTEX
  8
0
  5
785E
 10
172.819
 20
427.484
 30
0.000000
  70
    32
  0
VERTEX
  8
0
  5
785F
 10
172.818
 20
427.484
 30
0.000000
  70
    32
  0
VERTEX
  8
0
  5
7860
 10
172.817
 20
427.483
 30
0.000000
  70
    32
  0
VERTEX
  8
0
  5
7861
 10
172.817
 20
427.483
 30
0.000000
  70
    32
  0
VERTEX
  8
0
  5
7862
 10
172.816
 20
427.482
 30
0.000000
  70
    32
  0
VERTEX
  8
0
  5
7863
 10
172.816
 20
427.482
 30
0.000000
  70
    32
  0
VERTEX
  8
0
  5
7864
 10
172.815
 20
427.482
 30
0.000000
  70
    32
  0
VERTEX
  8
0
  5
7865
 10
172.815
 20
427.481
 30
0.000000
  70
    32
  0
VERTEX
  8
0
  5
7866
 10
172.814
 20
427.481
 30
0.000000
  70
    32
  0
VERTEX
  8
0
  5
7867
 10
172.813
 20
427.481
 30
0.000000
  70
    32
  0
VERTEX
  8
0
  5
7868
 10
172.813
 20
427.480
 30
0.000000
  70
    32
  0
VERTEX
  8
0
  5
7869
 10
172.812
 20
427.480
 30
0.000000
  70
    32
  0
VERTEX
  8
0
  5
786A
 10
172.812
 20
427.479
 30
0.000000
  70
    32
  0
VERTEX
  8
0
  5
786B
 10
172.811
 20
427.479
 30
0.000000
  70
    32
  0
VERTEX
  8
0
  5
786C
 10
172.810
 20
427.479
 30
0.000000
  70
    32
  0
VERTEX
  8
0
  5
786D
 10
172.810
 20
427.478
 30
0.000000
  70
    32
  0
VERTEX
  8
0
  5
786E
 10
172.809
 20
427.478
 30
0.000000
  70
    32
  0
VERTEX
  8
0
  5
786F
 10
172.809
 20
427.478
 30
0.000000
  70
    32
  0
VERTEX
  8
0
  5
7870
 10
172.808
 20
427.477
 30
0.000000
  70
    32
  0
VERTEX
  8
0
  5
7871
 10
172.808
 20
427.477
 30
0.000000
  70
    32
  0
VERTEX
  8
0
  5
7872
 10
172.807
 20
427.476
 30
0.000000
  70
    32
  0
VERTEX
  8
0
  5
7873
 10
172.807
 20
427.476
 30
0.000000
  70
    32
  0
VERTEX
  8
0
  5
7874
 10
172.806
 20
427.476
 30
0.000000
  70
    32
  0
VERTEX
  8
0
  5
7875
 10
172.806
 20
427.475
 30
0.000000
  70
    32
  0
VERTEX
  8
0
  5
7876
 10
172.805
 20
427.475
 30
0.000000
  70
    32
  0
VERTEX
  8
0
  5
7877
 10
172.805
 20
427.474
 30
0.000000
  70
    32
  0
VERTEX
  8
0
  5
7878
 10
172.804
 20
427.474
 30
0.000000
  70
    32
  0
VERTEX
  8
0
  5
7879
 10
172.804
 20
427.474
 30
0.000000
  70
    32
  0
VERTEX
  8
0
  5
787A
 10
172.803
 20
427.473
 30
0.000000
  70
    32
  0
VERTEX
  8
0
  5
787B
 10
172.803
 20
427.473
 30
0.000000
  70
    32
  0
VERTEX
  8
0
  5
787C
 10
172.802
 20
427.472
 30
0.000000
  70
    32
  0
VERTEX
  8
0
  5
787D
 10
172.802
 20
427.472
 30
0.000000
  70
    32
  0
VERTEX
  8
0
  5
787E
 10
172.801
 20
427.472
 30
0.000000
  70
    32
  0
VERTEX
  8
0
  5
787F
 10
172.801
 20
427.471
 30
0.000000
  70
    32
  0
VERTEX
  8
0
  5
7880
 10
172.800
 20
427.471
 30
0.000000
  70
    32
  0
VERTEX
  8
0
  5
7881
 10
172.800
 20
427.470
 30
0.000000
  70
    32
  0
VERTEX
  8
0
  5
7882
 10
172.799
 20
427.470
 30
0.000000
  70
    32
  0
VERTEX
  8
0
  5
7883
 10
172.799
 20
427.469
 30
0.000000
  70
    32
  0
VERTEX
  8
0
  5
7884
 10
172.798
 20
427.469
 30
0.000000
  70
    32
  0
VERTEX
  8
0
  5
7885
 10
172.798
 20
427.469
 30
0.000000
  70
    32
  0
VERTEX
  8
0
  5
7886
 10
172.797
 20
427.468
 30
0.000000
  70
    32
  0
VERTEX
  8
0
  5
7887
 10
172.797
 20
427.468
 30
0.000000
  70
    32
  0
VERTEX
  8
0
  5
7888
 10
172.797
 20
427.467
 30
0.000000
  70
    32
  0
VERTEX
  8
0
  5
7889
 10
172.796
 20
427.467
 30
0.000000
  70
    32
  0
VERTEX
  8
0
  5
788A
 10
172.796
 20
427.466
 30
0.000000
  70
    32
  0
VERTEX
  8
0
  5
788B
 10
172.795
 20
427.466
 30
0.000000
  70
    32
  0
VERTEX
  8
0
  5
788C
 10
172.795
 20
427.466
 30
0.000000
  70
    32
  0
VERTEX
  8
0
  5
788D
 10
172.794
 20
427.465
 30
0.000000
  70
    32
  0
VERTEX
  8
0
  5
788E
 10
172.794
 20
427.465
 30
0.000000
  70
    32
  0
VERTEX
  8
0
  5
788F
 10
172.794
 20
427.464
 30
0.000000
  70
    32
  0
VERTEX
  8
0
  5
7890
 10
172.793
 20
427.464
 30
0.000000
  70
    32
  0
VERTEX
  8
0
  5
7891
 10
172.793
 20
427.463
 30
0.000000
  70
    32
  0
VERTEX
  8
0
  5
7892
 10
172.792
 20
427.463
 30
0.000000
  70
    32
  0
VERTEX
  8
0
  5
7893
 10
172.792
 20
427.462
 30
0.000000
  70
    32
  0
VERTEX
  8
0
  5
7894
 10
172.792
 20
427.462
 30
0.000000
  70
    32
  0
VERTEX
  8
0
  5
7895
 10
172.791
 20
427.462
 30
0.000000
  70
    32
  0
VERTEX
  8
0
  5
7896
 10
172.791
 20
427.461
 30
0.000000
  70
    32
  0
VERTEX
  8
0
  5
7897
 10
172.790
 20
427.461
 30
0.000000
  70
    32
  0
VERTEX
  8
0
  5
7898
 10
172.790
 20
427.460
 30
0.000000
  70
    32
  0
VERTEX
  8
0
  5
7899
 10
172.790
 20
427.460
 30
0.000000
  70
    32
  0
VERTEX
  8
0
  5
789A
 10
172.789
 20
427.459
 30
0.000000
  70
    32
  0
VERTEX
  8
0
  5
789B
 10
172.789
 20
427.459
 30
0.000000
  70
    32
  0
VERTEX
  8
0
  5
789C
 10
172.789
 20
427.458
 30
0.000000
  70
    32
  0
VERTEX
  8
0
  5
789D
 10
172.788
 20
427.458
 30
0.000000
  70
    32
  0
VERTEX
  8
0
  5
789E
 10
172.788
 20
427.457
 30
0.000000
  70
    32
  0
VERTEX
  8
0
  5
789F
 10
172.788
 20
427.457
 30
0.000000
  70
    32
  0
VERTEX
  8
0
  5
78A0
 10
172.787
 20
427.456
 30
0.000000
  70
    32
  0
VERTEX
  8
0
  5
78A1
 10
172.787
 20
427.456
 30
0.000000
  70
    32
  0
VERTEX
  8
0
  5
78A2
 10
172.787
 20
427.456
 30
0.000000
  70
    32
  0
VERTEX
  8
0
  5
78A3
 10
172.786
 20
427.455
 30
0.000000
  70
    32
  0
VERTEX
  8
0
  5
78A4
 10
172.786
 20
427.455
 30
0.000000
  70
    32
  0
VERTEX
  8
0
  5
78A5
 10
172.786
 20
427.454
 30
0.000000
  70
    32
  0
VERTEX
  8
0
  5
78A6
 10
172.786
 20
427.454
 30
0.000000
  70
    32
  0
VERTEX
  8
0
  5
78A7
 10
172.785
 20
427.453
 30
0.000000
  70
    32
  0
VERTEX
  8
0
  5
78A8
 10
172.785
 20
427.453
 30
0.000000
  70
    32
  0
VERTEX
  8
0
  5
78A9
 10
172.785
 20
427.452
 30
0.000000
  70
    32
  0
VERTEX
  8
0
  5
78AA
 10
172.784
 20
427.452
 30
0.000000
  70
    32
  0
VERTEX
  8
0
  5
78AB
 10
172.784
 20
427.451
 30
0.000000
  70
    32
  0
VERTEX
  8
0
  5
78AC
 10
172.784
 20
427.451
 30
0.000000
  70
    32
  0
VERTEX
  8
0
  5
78AD
 10
172.784
 20
427.450
 30
0.000000
  70
    32
  0
VERTEX
  8
0
  5
78AE
 10
172.783
 20
427.450
 30
0.000000
  70
    32
  0
VERTEX
  8
0
  5
78AF
 10
172.783
 20
427.449
 30
0.000000
  70
    32
  0
VERTEX
  8
0
  5
78B0
 10
172.783
 20
427.449
 30
0.000000
  70
    32
  0
VERTEX
  8
0
  5
78B1
 10
172.783
 20
427.448
 30
0.000000
  70
    32
  0
VERTEX
  8
0
  5
78B2
 10
172.782
 20
427.448
 30
0.000000
  70
    32
  0
VERTEX
  8
0
  5
78B3
 10
172.782
 20
427.447
 30
0.000000
  70
    32
  0
VERTEX
  8
0
  5
78B4
 10
172.782
 20
427.447
 30
0.000000
  70
    32
  0
VERTEX
  8
0
  5
78B5
 10
172.782
 20
427.446
 30
0.000000
  70
    32
  0
VERTEX
  8
0
  5
78B6
 10
172.782
 20
427.446
 30
0.000000
  70
    32
  0
VERTEX
  8
0
  5
78B7
 10
172.781
 20
427.445
 30
0.000000
  70
    32
  0
VERTEX
  8
0
  5
78B8
 10
172.781
 20
427.445
 30
0.000000
  70
    32
  0
VERTEX
  8
0
  5
78B9
 10
172.781
 20
427.445
 30
0.000000
  70
    32
  0
VERTEX
  8
0
  5
78BA
 10
172.781
 20
427.444
 30
0.000000
  70
    32
  0
VERTEX
  8
0
  5
78BB
 10
172.781
 20
427.444
 30
0.000000
  70
    32
  0
VERTEX
  8
0
  5
78BC
 10
172.780
 20
427.443
 30
0.000000
  70
    32
  0
VERTEX
  8
0
  5
78BD
 10
172.780
 20
427.443
 30
0.000000
  70
    32
  0
VERTEX
  8
0
  5
78BE
 10
172.780
 20
427.442
 30
0.000000
  70
    32
  0
VERTEX
  8
0
  5
78BF
 10
172.780
 20
427.442
 30
0.000000
  70
    32
  0
VERTEX
  8
0
  5
78C0
 10
172.780
 20
427.441
 30
0.000000
  70
    32
  0
VERTEX
  8
0
  5
78C1
 10
172.780
 20
427.441
 30
0.000000
  70
    32
  0
VERTEX
  8
0
  5
78C2
 10
172.779
 20
427.440
 30
0.000000
  70
    32
  0
VERTEX
  8
0
  5
78C3
 10
172.779
 20
427.440
 30
0.000000
  70
    32
  0
VERTEX
  8
0
  5
78C4
 10
172.779
 20
427.439
 30
0.000000
  70
    32
  0
VERTEX
  8
0
  5
78C5
 10
172.779
 20
427.439
 30
0.000000
  70
    32
  0
VERTEX
  8
0
  5
78C6
 10
172.779
 20
427.438
 30
0.000000
  70
    32
  0
VERTEX
  8
0
  5
78C7
 10
172.779
 20
427.438
 30
0.000000
  70
    32
  0
VERTEX
  8
0
  5
78C8
 10
172.779
 20
427.437
 30
0.000000
  70
    32
  0
VERTEX
  8
0
  5
78C9
 10
172.778
 20
427.437
 30
0.000000
  70
    32
  0
VERTEX
  8
0
  5
78CA
 10
172.778
 20
427.436
 30
0.000000
  70
    32
  0
VERTEX
  8
0
  5
78CB
 10
172.778
 20
427.436
 30
0.000000
  70
    32
  0
VERTEX
  8
0
  5
78CC
 10
172.778
 20
427.435
 30
0.000000
  70
    32
  0
VERTEX
  8
0
  5
78CD
 10
172.778
 20
427.435
 30
0.000000
  70
    32
  0
VERTEX
  8
0
  5
78CE
 10
172.778
 20
427.434
 30
0.000000
  70
    32
  0
VERTEX
  8
0
  5
78CF
 10
172.778
 20
427.434
 30
0.000000
  70
    32
  0
VERTEX
  8
0
  5
78D0
 10
172.778
 20
427.433
 30
0.000000
  70
    32
  0
VERTEX
  8
0
  5
78D1
 10
172.778
 20
427.433
 30
0.000000
  70
    32
  0
VERTEX
  8
0
  5
78D2
 10
172.778
 20
427.432
 30
0.000000
  70
    32
  0
VERTEX
  8
0
  5
78D3
 10
172.778
 20
427.432
 30
0.000000
  70
    32
  0
VERTEX
  8
0
  5
78D4
 10
172.778
 20
427.431
 30
0.000000
  70
    32
  0
VERTEX
  8
0
  5
78D5
 10
172.777
 20
427.431
 30
0.000000
  70
    32
  0
VERTEX
  8
0
  5
78D6
 10
172.777
 20
427.430
 30
0.000000
  70
    32
  0
VERTEX
  8
0
  5
78D7
 10
172.777
 20
427.430
 30
0.000000
  70
    32
  0
VERTEX
  8
0
  5
78D8
 10
172.777
 20
427.429
 30
0.000000
  70
    32
  0
VERTEX
  8
0
  5
78D9
 10
172.777
 20
427.429
 30
0.000000
  70
    32
  0
VERTEX
  8
0
  5
78DA
 10
172.777
 20
427.428
 30
0.000000
  70
    32
  0
VERTEX
  8
0
  5
78DB
 10
172.777
 20
427.428
 30
0.000000
  70
    32
  0
VERTEX
  8
0
  5
78DC
 10
172.777
 20
427.427
 30
0.000000
  70
    32
  0
VERTEX
  8
0
  5
78DD
 10
172.777
 20
427.427
 30
0.000000
  70
    32
  0
VERTEX
  8
0
  5
78DE
 10
172.777
 20
427.426
 30
0.000000
  70
    32
  0
SEQEND
  8
0
  5
78DF
  0
LINE
  5
6F6B
  8
0
  6
CONTINUOUS
 10
391.69753684360001
 20
553.80611227510008
 30
0.0
 11
391.69753684360001
 21
553.83993698929987
 31
0.0
  0
LINE
  5
6F6C
  8
0
  6
CONTINUOUS
 10
185.25426493609999
 20
423.48196106819989
 30
0.0
 11
391.69753684360001
 21
542.65912518319988
 31
0.0
  0
POLYLINE
  5
6F6D
  8
0
  6
CONTINUOUS
 10
185.0094078928
 20
423.4250878060285
 30
0.0
 66
     1
 70
     8
  0
VERTEX
  8
0
  5
78E0
 10
185.009
 20
423.425
 30
0.000000
  70
    32
  0
VERTEX
  8
0
  5
78E1
 10
185.012
 20
423.425
 30
0.000000
  70
    32
  0
VERTEX
  8
0
  5
78E2
 10
185.014
 20
423.425
 30
0.000000
  70
    32
  0
VERTEX
  8
0
  5
78E3
 10
185.016
 20
423.425
 30
0.000000
  70
    32
  0
VERTEX
  8
0
  5
78E4
 10
185.018
 20
423.425
 30
0.000000
  70
    32
  0
VERTEX
  8
0
  5
78E5
 10
185.020
 20
423.425
 30
0.000000
  70
    32
  0
VERTEX
  8
0
  5
78E6
 10
185.022
 20
423.425
 30
0.000000
  70
    32
  0
VERTEX
  8
0
  5
78E7
 10
185.024
 20
423.425
 30
0.000000
  70
    32
  0
VERTEX
  8
0
  5
78E8
 10
185.026
 20
423.425
 30
0.000000
  70
    32
  0
VERTEX
  8
0
  5
78E9
 10
185.028
 20
423.425
 30
0.000000
  70
    32
  0
VERTEX
  8
0
  5
78EA
 10
185.031
 20
423.425
 30
0.000000
  70
    32
  0
VERTEX
  8
0
  5
78EB
 10
185.033
 20
423.426
 30
0.000000
  70
    32
  0
VERTEX
  8
0
  5
78EC
 10
185.035
 20
423.426
 30
0.000000
  70
    32
  0
VERTEX
  8
0
  5
78ED
 10
185.037
 20
423.426
 30
0.000000
  70
    32
  0
VERTEX
  8
0
  5
78EE
 10
185.039
 20
423.426
 30
0.000000
  70
    32
  0
VERTEX
  8
0
  5
78EF
 10
185.041
 20
423.426
 30
0.000000
  70
    32
  0
VERTEX
  8
0
  5
78F0
 10
185.043
 20
423.426
 30
0.000000
  70
    32
  0
VERTEX
  8
0
  5
78F1
 10
185.045
 20
423.426
 30
0.000000
  70
    32
  0
VERTEX
  8
0
  5
78F2
 10
185.047
 20
423.426
 30
0.000000
  70
    32
  0
VERTEX
  8
0
  5
78F3
 10
185.049
 20
423.426
 30
0.000000
  70
    32
  0
VERTEX
  8
0
  5
78F4
 10
185.052
 20
423.427
 30
0.000000
  70
    32
  0
VERTEX
  8
0
  5
78F5
 10
185.054
 20
423.427
 30
0.000000
  70
    32
  0
VERTEX
  8
0
  5
78F6
 10
185.056
 20
423.427
 30
0.000000
  70
    32
  0
VERTEX
  8
0
  5
78F7
 10
185.058
 20
423.427
 30
0.000000
  70
    32
  0
VERTEX
  8
0
  5
78F8
 10
185.060
 20
423.427
 30
0.000000
  70
    32
  0
VERTEX
  8
0
  5
78F9
 10
185.062
 20
423.427
 30
0.000000
  70
    32
  0
VERTEX
  8
0
  5
78FA
 10
185.064
 20
423.428
 30
0.000000
  70
    32
  0
VERTEX
  8
0
  5
78FB
 10
185.066
 20
423.428
 30
0.000000
  70
    32
  0
VERTEX
  8
0
  5
78FC
 10
185.068
 20
423.428
 30
0.000000
  70
    32
  0
VERTEX
  8
0
  5
78FD
 10
185.070
 20
423.428
 30
0.000000
  70
    32
  0
VERTEX
  8
0
  5
78FE
 10
185.072
 20
423.428
 30
0.000000
  70
    32
  0
VERTEX
  8
0
  5
78FF
 10
185.075
 20
423.429
 30
0.000000
  70
    32
  0
VERTEX
  8
0
  5
7900
 10
185.077
 20
423.429
 30
0.000000
  70
    32
  0
VERTEX
  8
0
  5
7901
 10
185.079
 20
423.429
 30
0.000000
  70
    32
  0
VERTEX
  8
0
  5
7902
 10
185.081
 20
423.429
 30
0.000000
  70
    32
  0
VERTEX
  8
0
  5
7903
 10
185.083
 20
423.430
 30
0.000000
  70
    32
  0
VERTEX
  8
0
  5
7904
 10
185.085
 20
423.430
 30
0.000000
  70
    32
  0
VERTEX
  8
0
  5
7905
 10
185.087
 20
423.430
 30
0.000000
  70
    32
  0
VERTEX
  8
0
  5
7906
 10
185.089
 20
423.430
 30
0.000000
  70
    32
  0
VERTEX
  8
0
  5
7907
 10
185.091
 20
423.431
 30
0.000000
  70
    32
  0
VERTEX
  8
0
  5
7908
 10
185.093
 20
423.431
 30
0.000000
  70
    32
  0
VERTEX
  8
0
  5
7909
 10
185.095
 20
423.431
 30
0.000000
  70
    32
  0
VERTEX
  8
0
  5
790A
 10
185.097
 20
423.431
 30
0.000000
  70
    32
  0
VERTEX
  8
0
  5
790B
 10
185.099
 20
423.432
 30
0.000000
  70
    32
  0
VERTEX
  8
0
  5
790C
 10
185.101
 20
423.432
 30
0.000000
  70
    32
  0
VERTEX
  8
0
  5
790D
 10
185.103
 20
423.432
 30
0.000000
  70
    32
  0
VERTEX
  8
0
  5
790E
 10
185.105
 20
423.433
 30
0.000000
  70
    32
  0
VERTEX
  8
0
  5
790F
 10
185.107
 20
423.433
 30
0.000000
  70
    32
  0
VERTEX
  8
0
  5
7910
 10
185.109
 20
423.433
 30
0.000000
  70
    32
  0
VERTEX
  8
0
  5
7911
 10
185.111
 20
423.434
 30
0.000000
  70
    32
  0
VERTEX
  8
0
  5
7912
 10
185.113
 20
423.434
 30
0.000000
  70
    32
  0
VERTEX
  8
0
  5
7913
 10
185.116
 20
423.434
 30
0.000000
  70
    32
  0
VERTEX
  8
0
  5
7914
 10
185.118
 20
423.435
 30
0.000000
  70
    32
  0
VERTEX
  8
0
  5
7915
 10
185.120
 20
423.435
 30
0.000000
  70
    32
  0
VERTEX
  8
0
  5
7916
 10
185.122
 20
423.436
 30
0.000000
  70
    32
  0
VERTEX
  8
0
  5
7917
 10
185.124
 20
423.436
 30
0.000000
  70
    32
  0
VERTEX
  8
0
  5
7918
 10
185.126
 20
423.436
 30
0.000000
  70
    32
  0
VERTEX
  8
0
  5
7919
 10
185.128
 20
423.437
 30
0.000000
  70
    32
  0
VERTEX
  8
0
  5
791A
 10
185.130
 20
423.437
 30
0.000000
  70
    32
  0
VERTEX
  8
0
  5
791B
 10
185.132
 20
423.438
 30
0.000000
  70
    32
  0
VERTEX
  8
0
  5
791C
 10
185.133
 20
423.438
 30
0.000000
  70
    32
  0
VERTEX
  8
0
  5
791D
 10
185.135
 20
423.439
 30
0.000000
  70
    32
  0
VERTEX
  8
0
  5
791E
 10
185.137
 20
423.439
 30
0.000000
  70
    32
  0
VERTEX
  8
0
  5
791F
 10
185.139
 20
423.439
 30
0.000000
  70
    32
  0
VERTEX
  8
0
  5
7920
 10
185.141
 20
423.440
 30
0.000000
  70
    32
  0
VERTEX
  8
0
  5
7921
 10
185.143
 20
423.440
 30
0.000000
  70
    32
  0
VERTEX
  8
0
  5
7922
 10
185.145
 20
423.441
 30
0.000000
  70
    32
  0
VERTEX
  8
0
  5
7923
 10
185.147
 20
423.441
 30
0.000000
  70
    32
  0
VERTEX
  8
0
  5
7924
 10
185.149
 20
423.442
 30
0.000000
  70
    32
  0
VERTEX
  8
0
  5
7925
 10
185.151
 20
423.442
 30
0.000000
  70
    32
  0
VERTEX
  8
0
  5
7926
 10
185.153
 20
423.443
 30
0.000000
  70
    32
  0
VERTEX
  8
0
  5
7927
 10
185.155
 20
423.443
 30
0.000000
  70
    32
  0
VERTEX
  8
0
  5
7928
 10
185.157
 20
423.444
 30
0.000000
  70
    32
  0
VERTEX
  8
0
  5
7929
 10
185.159
 20
423.444
 30
0.000000
  70
    32
  0
VERTEX
  8
0
  5
792A
 10
185.161
 20
423.445
 30
0.000000
  70
    32
  0
VERTEX
  8
0
  5
792B
 10
185.163
 20
423.445
 30
0.000000
  70
    32
  0
VERTEX
  8
0
  5
792C
 10
185.165
 20
423.446
 30
0.000000
  70
    32
  0
VERTEX
  8
0
  5
792D
 10
185.166
 20
423.446
 30
0.000000
  70
    32
  0
VERTEX
  8
0
  5
792E
 10
185.168
 20
423.447
 30
0.000000
  70
    32
  0
VERTEX
  8
0
  5
792F
 10
185.170
 20
423.447
 30
0.000000
  70
    32
  0
VERTEX
  8
0
  5
7930
 10
185.172
 20
423.448
 30
0.000000
  70
    32
  0
VERTEX
  8
0
  5
7931
 10
185.174
 20
423.449
 30
0.000000
  70
    32
  0
VERTEX
  8
0
  5
7932
 10
185.176
 20
423.449
 30
0.000000
  70
    32
  0
VERTEX
  8
0
  5
7933
 10
185.178
 20
423.450
 30
0.000000
  70
    32
  0
VERTEX
  8
0
  5
7934
 10
185.180
 20
423.450
 30
0.000000
  70
    32
  0
VERTEX
  8
0
  5
7935
 10
185.181
 20
423.451
 30
0.000000
  70
    32
  0
VERTEX
  8
0
  5
7936
 10
185.183
 20
423.451
 30
0.000000
  70
    32
  0
VERTEX
  8
0
  5
7937
 10
185.185
 20
423.452
 30
0.000000
  70
    32
  0
VERTEX
  8
0
  5
7938
 10
185.187
 20
423.453
 30
0.000000
  70
    32
  0
VERTEX
  8
0
  5
7939
 10
185.189
 20
423.453
 30
0.000000
  70
    32
  0
VERTEX
  8
0
  5
793A
 10
185.191
 20
423.454
 30
0.000000
  70
    32
  0
VERTEX
  8
0
  5
793B
 10
185.192
 20
423.455
 30
0.000000
  70
    32
  0
VERTEX
  8
0
  5
793C
 10
185.194
 20
423.455
 30
0.000000
  70
    32
  0
VERTEX
  8
0
  5
793D
 10
185.196
 20
423.456
 30
0.000000
  70
    32
  0
VERTEX
  8
0
  5
793E
 10
185.198
 20
423.456
 30
0.000000
  70
    32
  0
VERTEX
  8
0
  5
793F
 10
185.200
 20
423.457
 30
0.000000
  70
    32
  0
VERTEX
  8
0
  5
7940
 10
185.201
 20
423.458
 30
0.000000
  70
    32
  0
VERTEX
  8
0
  5
7941
 10
185.203
 20
423.458
 30
0.000000
  70
    32
  0
VERTEX
  8
0
  5
7942
 10
185.205
 20
423.459
 30
0.000000
  70
    32
  0
VERTEX
  8
0
  5
7943
 10
185.207
 20
423.460
 30
0.000000
  70
    32
  0
VERTEX
  8
0
  5
7944
 10
185.208
 20
423.460
 30
0.000000
  70
    32
  0
VERTEX
  8
0
  5
7945
 10
185.210
 20
423.461
 30
0.000000
  70
    32
  0
VERTEX
  8
0
  5
7946
 10
185.212
 20
423.462
 30
0.000000
  70
    32
  0
VERTEX
  8
0
  5
7947
 10
185.214
 20
423.463
 30
0.000000
  70
    32
  0
VERTEX
  8
0
  5
7948
 10
185.215
 20
423.463
 30
0.000000
  70
    32
  0
VERTEX
  8
0
  5
7949
 10
185.217
 20
423.464
 30
0.000000
  70
    32
  0
VERTEX
  8
0
  5
794A
 10
185.219
 20
423.465
 30
0.000000
  70
    32
  0
VERTEX
  8
0
  5
794B
 10
185.220
 20
423.465
 30
0.000000
  70
    32
  0
VERTEX
  8
0
  5
794C
 10
185.222
 20
423.466
 30
0.000000
  70
    32
  0
VERTEX
  8
0
  5
794D
 10
185.224
 20
423.467
 30
0.000000
  70
    32
  0
VERTEX
  8
0
  5
794E
 10
185.225
 20
423.468
 30
0.000000
  70
    32
  0
VERTEX
  8
0
  5
794F
 10
185.227
 20
423.468
 30
0.000000
  70
    32
  0
VERTEX
  8
0
  5
7950
 10
185.229
 20
423.469
 30
0.000000
  70
    32
  0
VERTEX
  8
0
  5
7951
 10
185.230
 20
423.470
 30
0.000000
  70
    32
  0
VERTEX
  8
0
  5
7952
 10
185.232
 20
423.471
 30
0.000000
  70
    32
  0
VERTEX
  8
0
  5
7953
 10
185.234
 20
423.471
 30
0.000000
  70
    32
  0
VERTEX
  8
0
  5
7954
 10
185.235
 20
423.472
 30
0.000000
  70
    32
  0
VERTEX
  8
0
  5
7955
 10
185.237
 20
423.473
 30
0.000000
  70
    32
  0
VERTEX
  8
0
  5
7956
 10
185.239
 20
423.474
 30
0.000000
  70
    32
  0
VERTEX
  8
0
  5
7957
 10
185.240
 20
423.475
 30
0.000000
  70
    32
  0
VERTEX
  8
0
  5
7958
 10
185.242
 20
423.475
 30
0.000000
  70
    32
  0
VERTEX
  8
0
  5
7959
 10
185.243
 20
423.476
 30
0.000000
  70
    32
  0
VERTEX
  8
0
  5
795A
 10
185.245
 20
423.477
 30
0.000000
  70
    32
  0
VERTEX
  8
0
  5
795B
 10
185.247
 20
423.478
 30
0.000000
  70
    32
  0
VERTEX
  8
0
  5
795C
 10
185.248
 20
423.479
 30
0.000000
  70
    32
  0
VERTEX
  8
0
  5
795D
 10
185.250
 20
423.479
 30
0.000000
  70
    32
  0
VERTEX
  8
0
  5
795E
 10
185.251
 20
423.480
 30
0.000000
  70
    32
  0
VERTEX
  8
0
  5
795F
 10
185.253
 20
423.481
 30
0.000000
  70
    32
  0
VERTEX
  8
0
  5
7960
 10
185.254
 20
423.482
 30
0.000000
  70
    32
  0
SEQEND
  8
0
  5
7961
  0
LINE
  5
6F6E
  8
0
  6
CONTINUOUS
 10
391.69753684360001
 20
542.65912518319988
 30
0.0
 11
391.69753684360001
 21
542.74360180259987
 31
0.0
  0
LINE
  5
6F6F
  8
0
  6
CONTINUOUS
 10
191.58874660640001
 20
426.99308819949999
 30
0.0
 11
391.69753684360001
 21
542.51343388379985
 31
0.0
  0
LINE
  5
6F70
  8
0
  6
CONTINUOUS
 10
185.25426493609999
 20
423.48196106819989
 30
0.0
 11
191.58874660640001
 21
426.99308819949999
 31
0.0
  0
LINE
  5
6F71
  8
0
  6
CONTINUOUS
 10
391.69753684360001
 20
542.51343388379985
 30
0.0
 11
391.69753684360001
 21
542.65912518319988
 31
0.0
  0
POLYLINE
  5
6F72
  8
0
  6
CONTINUOUS
 10
610.26424290839998
 20
423.42508780602856
 30
0.0
 66
     1
 70
     8
  0
VERTEX
  8
0
  5
7962
 10
610.264
 20
423.425
 30
0.000000
  70
    32
  0
VERTEX
  8
0
  5
7963
 10
610.269
 20
423.425
 30
0.000000
  70
    32
  0
VERTEX
  8
0
  5
7964
 10
610.273
 20
423.425
 30
0.000000
  70
    32
  0
VERTEX
  8
0
  5
7965
 10
610.277
 20
423.425
 30
0.000000
  70
    32
  0
VERTEX
  8
0
  5
7966
 10
610.282
 20
423.425
 30
0.000000
  70
    32
  0
VERTEX
  8
0
  5
7967
 10
610.286
 20
423.425
 30
0.000000
  70
    32
  0
VERTEX
  8
0
  5
7968
 10
610.290
 20
423.426
 30
0.000000
  70
    32
  0
VERTEX
  8
0
  5
7969
 10
610.295
 20
423.426
 30
0.000000
  70
    32
  0
VERTEX
  8
0
  5
796A
 10
610.299
 20
423.426
 30
0.000000
  70
    32
  0
VERTEX
  8
0
  5
796B
 10
610.303
 20
423.426
 30
0.000000
  70
    32
  0
VERTEX
  8
0
  5
796C
 10
610.308
 20
423.427
 30
0.000000
  70
    32
  0
VERTEX
  8
0
  5
796D
 10
610.312
 20
423.427
 30
0.000000
  70
    32
  0
VERTEX
  8
0
  5
796E
 10
610.316
 20
423.427
 30
0.000000
  70
    32
  0
VERTEX
  8
0
  5
796F
 10
610.320
 20
423.428
 30
0.000000
  70
    32
  0
VERTEX
  8
0
  5
7970
 10
610.325
 20
423.428
 30
0.000000
  70
    32
  0
VERTEX
  8
0
  5
7971
 10
610.329
 20
423.429
 30
0.000000
  70
    32
  0
VERTEX
  8
0
  5
7972
 10
610.333
 20
423.429
 30
0.000000
  70
    32
  0
VERTEX
  8
0
  5
7973
 10
610.337
 20
423.430
 30
0.000000
  70
    32
  0
VERTEX
  8
0
  5
7974
 10
610.342
 20
423.430
 30
0.000000
  70
    32
  0
VERTEX
  8
0
  5
7975
 10
610.346
 20
423.431
 30
0.000000
  70
    32
  0
VERTEX
  8
0
  5
7976
 10
610.350
 20
423.431
 30
0.000000
  70
    32
  0
VERTEX
  8
0
  5
7977
 10
610.354
 20
423.432
 30
0.000000
  70
    32
  0
VERTEX
  8
0
  5
7978
 10
610.359
 20
423.432
 30
0.000000
  70
    32
  0
VERTEX
  8
0
  5
7979
 10
610.363
 20
423.433
 30
0.000000
  70
    32
  0
VERTEX
  8
0
  5
797A
 10
610.367
 20
423.434
 30
0.000000
  70
    32
  0
VERTEX
  8
0
  5
797B
 10
610.371
 20
423.435
 30
0.000000
  70
    32
  0
VERTEX
  8
0
  5
797C
 10
610.375
 20
423.435
 30
0.000000
  70
    32
  0
VERTEX
  8
0
  5
797D
 10
610.379
 20
423.436
 30
0.000000
  70
    32
  0
VERTEX
  8
0
  5
797E
 10
610.383
 20
423.437
 30
0.000000
  70
    32
  0
VERTEX
  8
0
  5
797F
 10
610.387
 20
423.438
 30
0.000000
  70
    32
  0
VERTEX
  8
0
  5
7980
 10
610.391
 20
423.439
 30
0.000000
  70
    32
  0
VERTEX
  8
0
  5
7981
 10
610.396
 20
423.440
 30
0.000000
  70
    32
  0
VERTEX
  8
0
  5
7982
 10
610.400
 20
423.441
 30
0.000000
  70
    32
  0
VERTEX
  8
0
  5
7983
 10
610.404
 20
423.442
 30
0.000000
  70
    32
  0
VERTEX
  8
0
  5
7984
 10
610.408
 20
423.443
 30
0.000000
  70
    32
  0
VERTEX
  8
0
  5
7985
 10
610.411
 20
423.444
 30
0.000000
  70
    32
  0
VERTEX
  8
0
  5
7986
 10
610.415
 20
423.445
 30
0.000000
  70
    32
  0
VERTEX
  8
0
  5
7987
 10
610.419
 20
423.446
 30
0.000000
  70
    32
  0
VERTEX
  8
0
  5
7988
 10
610.423
 20
423.447
 30
0.000000
  70
    32
  0
VERTEX
  8
0
  5
7989
 10
610.427
 20
423.448
 30
0.000000
  70
    32
  0
VERTEX
  8
0
  5
798A
 10
610.431
 20
423.449
 30
0.000000
  70
    32
  0
VERTEX
  8
0
  5
798B
 10
610.435
 20
423.450
 30
0.000000
  70
    32
  0
VERTEX
  8
0
  5
798C
 10
610.439
 20
423.452
 30
0.000000
  70
    32
  0
VERTEX
  8
0
  5
798D
 10
610.442
 20
423.453
 30
0.000000
  70
    32
  0
VERTEX
  8
0
  5
798E
 10
610.446
 20
423.454
 30
0.000000
  70
    32
  0
VERTEX
  8
0
  5
798F
 10
610.450
 20
423.455
 30
0.000000
  70
    32
  0
VERTEX
  8
0
  5
7990
 10
610.453
 20
423.457
 30
0.000000
  70
    32
  0
VERTEX
  8
0
  5
7991
 10
610.457
 20
423.458
 30
0.000000
  70
    32
  0
VERTEX
  8
0
  5
7992
 10
610.461
 20
423.459
 30
0.000000
  70
    32
  0
VERTEX
  8
0
  5
7993
 10
610.464
 20
423.461
 30
0.000000
  70
    32
  0
VERTEX
  8
0
  5
7994
 10
610.468
 20
423.462
 30
0.000000
  70
    32
  0
VERTEX
  8
0
  5
7995
 10
610.471
 20
423.464
 30
0.000000
  70
    32
  0
VERTEX
  8
0
  5
7996
 10
610.475
 20
423.465
 30
0.000000
  70
    32
  0
VERTEX
  8
0
  5
7997
 10
610.478
 20
423.467
 30
0.000000
  70
    32
  0
VERTEX
  8
0
  5
7998
 10
610.482
 20
423.468
 30
0.000000
  70
    32
  0
VERTEX
  8
0
  5
7999
 10
610.485
 20
423.470
 30
0.000000
  70
    32
  0
VERTEX
  8
0
  5
799A
 10
610.489
 20
423.471
 30
0.000000
  70
    32
  0
VERTEX
  8
0
  5
799B
 10
610.492
 20
423.473
 30
0.000000
  70
    32
  0
VERTEX
  8
0
  5
799C
 10
610.495
 20
423.475
 30
0.000000
  70
    32
  0
VERTEX
  8
0
  5
799D
 10
610.498
 20
423.476
 30
0.000000
  70
    32
  0
VERTEX
  8
0
  5
799E
 10
610.502
 20
423.478
 30
0.000000
  70
    32
  0
VERTEX
  8
0
  5
799F
 10
610.505
 20
423.480
 30
0.000000
  70
    32
  0
VERTEX
  8
0
  5
79A0
 10
610.508
 20
423.481
 30
0.000000
  70
    32
  0
VERTEX
  8
0
  5
79A1
 10
610.511
 20
423.483
 30
0.000000
  70
    32
  0
VERTEX
  8
0
  5
79A2
 10
610.514
 20
423.485
 30
0.000000
  70
    32
  0
VERTEX
  8
0
  5
79A3
 10
610.517
 20
423.487
 30
0.000000
  70
    32
  0
VERTEX
  8
0
  5
79A4
 10
610.520
 20
423.488
 30
0.000000
  70
    32
  0
VERTEX
  8
0
  5
79A5
 10
610.523
 20
423.490
 30
0.000000
  70
    32
  0
VERTEX
  8
0
  5
79A6
 10
610.526
 20
423.492
 30
0.000000
  70
    32
  0
VERTEX
  8
0
  5
79A7
 10
610.529
 20
423.494
 30
0.000000
  70
    32
  0
VERTEX
  8
0
  5
79A8
 10
610.532
 20
423.496
 30
0.000000
  70
    32
  0
VERTEX
  8
0
  5
79A9
 10
610.535
 20
423.498
 30
0.000000
  70
    32
  0
VERTEX
  8
0
  5
79AA
 10
610.538
 20
423.500
 30
0.000000
  70
    32
  0
VERTEX
  8
0
  5
79AB
 10
610.540
 20
423.502
 30
0.000000
  70
    32
  0
VERTEX
  8
0
  5
79AC
 10
610.543
 20
423.504
 30
0.000000
  70
    32
  0
VERTEX
  8
0
  5
79AD
 10
610.546
 20
423.506
 30
0.000000
  70
    32
  0
VERTEX
  8
0
  5
79AE
 10
610.548
 20
423.508
 30
0.000000
  70
    32
  0
VERTEX
  8
0
  5
79AF
 10
610.551
 20
423.510
 30
0.000000
  70
    32
  0
VERTEX
  8
0
  5
79B0
 10
610.553
 20
423.512
 30
0.000000
  70
    32
  0
VERTEX
  8
0
  5
79B1
 10
610.556
 20
423.514
 30
0.000000
  70
    32
  0
VERTEX
  8
0
  5
79B2
 10
610.558
 20
423.516
 30
0.000000
  70
    32
  0
VERTEX
  8
0
  5
79B3
 10
610.561
 20
423.518
 30
0.000000
  70
    32
  0
VERTEX
  8
0
  5
79B4
 10
610.563
 20
423.520
 30
0.000000
  70
    32
  0
VERTEX
  8
0
  5
79B5
 10
610.565
 20
423.522
 30
0.000000
  70
    32
  0
VERTEX
  8
0
  5
79B6
 10
610.567
 20
423.524
 30
0.000000
  70
    32
  0
VERTEX
  8
0
  5
79B7
 10
610.570
 20
423.526
 30
0.000000
  70
    32
  0
VERTEX
  8
0
  5
79B8
 10
610.572
 20
423.529
 30
0.000000
  70
    32
  0
VERTEX
  8
0
  5
79B9
 10
610.574
 20
423.531
 30
0.000000
  70
    32
  0
VERTEX
  8
0
  5
79BA
 10
610.576
 20
423.533
 30
0.000000
  70
    32
  0
VERTEX
  8
0
  5
79BB
 10
610.578
 20
423.535
 30
0.000000
  70
    32
  0
VERTEX
  8
0
  5
79BC
 10
610.580
 20
423.537
 30
0.000000
  70
    32
  0
VERTEX
  8
0
  5
79BD
 10
610.582
 20
423.540
 30
0.000000
  70
    32
  0
VERTEX
  8
0
  5
79BE
 10
610.584
 20
423.542
 30
0.000000
  70
    32
  0
VERTEX
  8
0
  5
79BF
 10
610.586
 20
423.544
 30
0.000000
  70
    32
  0
VERTEX
  8
0
  5
79C0
 10
610.587
 20
423.546
 30
0.000000
  70
    32
  0
VERTEX
  8
0
  5
79C1
 10
610.589
 20
423.549
 30
0.000000
  70
    32
  0
VERTEX
  8
0
  5
79C2
 10
610.591
 20
423.551
 30
0.000000
  70
    32
  0
VERTEX
  8
0
  5
79C3
 10
610.593
 20
423.553
 30
0.000000
  70
    32
  0
VERTEX
  8
0
  5
79C4
 10
610.594
 20
423.556
 30
0.000000
  70
    32
  0
VERTEX
  8
0
  5
79C5
 10
610.596
 20
423.558
 30
0.000000
  70
    32
  0
VERTEX
  8
0
  5
79C6
 10
610.597
 20
423.560
 30
0.000000
  70
    32
  0
VERTEX
  8
0
  5
79C7
 10
610.599
 20
423.563
 30
0.000000
  70
    32
  0
VERTEX
  8
0
  5
79C8
 10
610.600
 20
423.565
 30
0.000000
  70
    32
  0
VERTEX
  8
0
  5
79C9
 10
610.601
 20
423.568
 30
0.000000
  70
    32
  0
VERTEX
  8
0
  5
79CA
 10
610.603
 20
423.570
 30
0.000000
  70
    32
  0
VERTEX
  8
0
  5
79CB
 10
610.604
 20
423.572
 30
0.000000
  70
    32
  0
VERTEX
  8
0
  5
79CC
 10
610.605
 20
423.575
 30
0.000000
  70
    32
  0
VERTEX
  8
0
  5
79CD
 10
610.606
 20
423.577
 30
0.000000
  70
    32
  0
VERTEX
  8
0
  5
79CE
 10
610.607
 20
423.580
 30
0.000000
  70
    32
  0
VERTEX
  8
0
  5
79CF
 10
610.608
 20
423.582
 30
0.000000
  70
    32
  0
VERTEX
  8
0
  5
79D0
 10
610.609
 20
423.584
 30
0.000000
  70
    32
  0
VERTEX
  8
0
  5
79D1
 10
610.610
 20
423.587
 30
0.000000
  70
    32
  0
VERTEX
  8
0
  5
79D2
 10
610.611
 20
423.589
 30
0.000000
  70
    32
  0
VERTEX
  8
0
  5
79D3
 10
610.612
 20
423.592
 30
0.000000
  70
    32
  0
VERTEX
  8
0
  5
79D4
 10
610.613
 20
423.594
 30
0.000000
  70
    32
  0
VERTEX
  8
0
  5
79D5
 10
610.613
 20
423.597
 30
0.000000
  70
    32
  0
VERTEX
  8
0
  5
79D6
 10
610.614
 20
423.599
 30
0.000000
  70
    32
  0
VERTEX
  8
0
  5
79D7
 10
610.615
 20
423.602
 30
0.000000
  70
    32
  0
VERTEX
  8
0
  5
79D8
 10
610.615
 20
423.604
 30
0.000000
  70
    32
  0
VERTEX
  8
0
  5
79D9
 10
610.616
 20
423.607
 30
0.000000
  70
    32
  0
VERTEX
  8
0
  5
79DA
 10
610.616
 20
423.609
 30
0.000000
  70
    32
  0
VERTEX
  8
0
  5
79DB
 10
610.616
 20
423.612
 30
0.000000
  70
    32
  0
VERTEX
  8
0
  5
79DC
 10
610.617
 20
423.614
 30
0.000000
  70
    32
  0
VERTEX
  8
0
  5
79DD
 10
610.617
 20
423.617
 30
0.000000
  70
    32
  0
VERTEX
  8
0
  5
79DE
 10
610.617
 20
423.619
 30
0.000000
  70
    32
  0
VERTEX
  8
0
  5
79DF
 10
610.618
 20
423.622
 30
0.000000
  70
    32
  0
VERTEX
  8
0
  5
79E0
 10
610.618
 20
423.624
 30
0.000000
  70
    32
  0
VERTEX
  8
0
  5
79E1
 10
610.618
 20
423.627
 30
0.000000
  70
    32
  0
VERTEX
  8
0
  5
79E2
 10
610.618
 20
423.629
 30
0.000000
  70
    32
  0
SEQEND
  8
0
  5
79E3
  0
LINE
  5
6F73
  8
0
  6
CONTINUOUS
 10
391.69753684360001
 20
549.60096208870004
 30
0.0
 11
610.26424435829995
 21
423.42508756949991
 31
0.0
  0
LINE
  5
6F74
  8
0
  6
CONTINUOUS
 10
391.69753684360001
 20
550.00919710559992
 30
0.0
 11
610.61779319699986
 21
423.62922318620002
 31
0.0
  0
LINE
  5
6F75
  8
0
  6
CONTINUOUS
 10
391.69753684360001
 20
550.00919710559992
 30
0.0
 11
391.69753684360001
 21
549.60096208870004
 31
0.0
  0
LINE
  5
6F76
  8
0
  6
CONTINUOUS
 10
391.69753684360001
 20
553.80611227510008
 30
0.0
 11
610.61779319699986
 21
427.4261383557
 31
0.0
  0
LINE
  5
6F77
  8
0
  6
CONTINUOUS
 10
610.61779319699986
 20
423.62922318620002
 30
0.0
 11
610.61779319699986
 21
427.4261383557
 31
0.0
  0
LINE
  5
6F78
  8
0
  6
CONTINUOUS
 10
610.26424435829995
 20
423.42508756949991
 30
0.0
 11
598.38566086759988
 21
423.42508756949991
 31
0.0
  0
LINE
  5
6F79
  8
0
  6
CONTINUOUS
 10
391.69753684360001
 20
542.74360180259987
 30
0.0
 11
598.38566086759988
 21
423.42508756949991
 31
0.0
  0
POLYLINE
  5
6F7A
  8
0
  6
CONTINUOUS
 10
610.61779629903731
 20
427.42613778430001
 30
0.0
 66
     1
 70
     8
  0
VERTEX
  8
0
  5
79E4
 10
610.618
 20
427.426
 30
0.000000
  70
    32
  0
VERTEX
  8
0
  5
79E5
 10
610.618
 20
427.427
 30
0.000000
  70
    32
  0
VERTEX
  8
0
  5
79E6
 10
610.618
 20
427.427
 30
0.000000
  70
    32
  0
VERTEX
  8
0
  5
79E7
 10
610.618
 20
427.428
 30
0.000000
  70
    32
  0
VERTEX
  8
0
  5
79E8
 10
610.618
 20
427.428
 30
0.000000
  70
    32
  0
VERTEX
  8
0
  5
79E9
 10
610.618
 20
427.429
 30
0.000000
  70
    32
  0
VERTEX
  8
0
  5
79EA
 10
610.618
 20
427.429
 30
0.000000
  70
    32
  0
VERTEX
  8
0
  5
79EB
 10
610.618
 20
427.430
 30
0.000000
  70
    32
  0
VERTEX
  8
0
  5
79EC
 10
610.618
 20
427.430
 30
0.000000
  70
    32
  0
VERTEX
  8
0
  5
79ED
 10
610.618
 20
427.431
 30
0.000000
  70
    32
  0
VERTEX
  8
0
  5
79EE
 10
610.618
 20
427.431
 30
0.000000
  70
    32
  0
VERTEX
  8
0
  5
79EF
 10
610.617
 20
427.432
 30
0.000000
  70
    32
  0
VERTEX
  8
0
  5
79F0
 10
610.617
 20
427.432
 30
0.000000
  70
    32
  0
VERTEX
  8
0
  5
79F1
 10
610.617
 20
427.433
 30
0.000000
  70
    32
  0
VERTEX
  8
0
  5
79F2
 10
610.617
 20
427.433
 30
0.000000
  70
    32
  0
VERTEX
  8
0
  5
79F3
 10
610.617
 20
427.434
 30
0.000000
  70
    32
  0
VERTEX
  8
0
  5
79F4
 10
610.617
 20
427.434
 30
0.000000
  70
    32
  0
VERTEX
  8
0
  5
79F5
 10
610.617
 20
427.435
 30
0.000000
  70
    32
  0
VERTEX
  8
0
  5
79F6
 10
610.617
 20
427.435
 30
0.000000
  70
    32
  0
VERTEX
  8
0
  5
79F7
 10
610.617
 20
427.436
 30
0.000000
  70
    32
  0
VERTEX
  8
0
  5
79F8
 10
610.617
 20
427.436
 30
0.000000
  70
    32
  0
VERTEX
  8
0
  5
79F9
 10
610.617
 20
427.437
 30
0.000000
  70
    32
  0
VERTEX
  8
0
  5
79FA
 10
610.617
 20
427.437
 30
0.000000
  70
    32
  0
VERTEX
  8
0
  5
79FB
 10
610.616
 20
427.438
 30
0.000000
  70
    32
  0
VERTEX
  8
0
  5
79FC
 10
610.616
 20
427.438
 30
0.000000
  70
    32
  0
VERTEX
  8
0
  5
79FD
 10
610.616
 20
427.439
 30
0.000000
  70
    32
  0
VERTEX
  8
0
  5
79FE
 10
610.616
 20
427.439
 30
0.000000
  70
    32
  0
VERTEX
  8
0
  5
79FF
 10
610.616
 20
427.440
 30
0.000000
  70
    32
  0
VERTEX
  8
0
  5
7A00
 10
610.616
 20
427.440
 30
0.000000
  70
    32
  0
VERTEX
  8
0
  5
7A01
 10
610.616
 20
427.441
 30
0.000000
  70
    32
  0
VERTEX
  8
0
  5
7A02
 10
610.615
 20
427.441
 30
0.000000
  70
    32
  0
VERTEX
  8
0
  5
7A03
 10
610.615
 20
427.442
 30
0.000000
  70
    32
  0
VERTEX
  8
0
  5
7A04
 10
610.615
 20
427.442
 30
0.000000
  70
    32
  0
VERTEX
  8
0
  5
7A05
 10
610.615
 20
427.443
 30
0.000000
  70
    32
  0
VERTEX
  8
0
  5
7A06
 10
610.615
 20
427.443
 30
0.000000
  70
    32
  0
VERTEX
  8
0
  5
7A07
 10
610.615
 20
427.444
 30
0.000000
  70
    32
  0
VERTEX
  8
0
  5
7A08
 10
610.614
 20
427.444
 30
0.000000
  70
    32
  0
VERTEX
  8
0
  5
7A09
 10
610.614
 20
427.445
 30
0.000000
  70
    32
  0
VERTEX
  8
0
  5
7A0A
 10
610.614
 20
427.445
 30
0.000000
  70
    32
  0
VERTEX
  8
0
  5
7A0B
 10
610.614
 20
427.445
 30
0.000000
  70
    32
  0
VERTEX
  8
0
  5
7A0C
 10
610.614
 20
427.446
 30
0.000000
  70
    32
  0
VERTEX
  8
0
  5
7A0D
 10
610.613
 20
427.446
 30
0.000000
  70
    32
  0
VERTEX
  8
0
  5
7A0E
 10
610.613
 20
427.447
 30
0.000000
  70
    32
  0
VERTEX
  8
0
  5
7A0F
 10
610.613
 20
427.447
 30
0.000000
  70
    32
  0
VERTEX
  8
0
  5
7A10
 10
610.613
 20
427.448
 30
0.000000
  70
    32
  0
VERTEX
  8
0
  5
7A11
 10
610.612
 20
427.448
 30
0.000000
  70
    32
  0
VERTEX
  8
0
  5
7A12
 10
610.612
 20
427.449
 30
0.000000
  70
    32
  0
VERTEX
  8
0
  5
7A13
 10
610.612
 20
427.449
 30
0.000000
  70
    32
  0
VERTEX
  8
0
  5
7A14
 10
610.612
 20
427.450
 30
0.000000
  70
    32
  0
VERTEX
  8
0
  5
7A15
 10
610.611
 20
427.450
 30
0.000000
  70
    32
  0
VERTEX
  8
0
  5
7A16
 10
610.611
 20
427.451
 30
0.000000
  70
    32
  0
VERTEX
  8
0
  5
7A17
 10
610.611
 20
427.451
 30
0.000000
  70
    32
  0
VERTEX
  8
0
  5
7A18
 10
610.611
 20
427.452
 30
0.000000
  70
    32
  0
VERTEX
  8
0
  5
7A19
 10
610.610
 20
427.452
 30
0.000000
  70
    32
  0
VERTEX
  8
0
  5
7A1A
 10
610.610
 20
427.453
 30
0.000000
  70
    32
  0
VERTEX
  8
0
  5
7A1B
 10
610.610
 20
427.453
 30
0.000000
  70
    32
  0
VERTEX
  8
0
  5
7A1C
 10
610.610
 20
427.454
 30
0.000000
  70
    32
  0
VERTEX
  8
0
  5
7A1D
 10
610.609
 20
427.454
 30
0.000000
  70
    32
  0
VERTEX
  8
0
  5
7A1E
 10
610.609
 20
427.455
 30
0.000000
  70
    32
  0
VERTEX
  8
0
  5
7A1F
 10
610.609
 20
427.455
 30
0.000000
  70
    32
  0
VERTEX
  8
0
  5
7A20
 10
610.608
 20
427.456
 30
0.000000
  70
    32
  0
VERTEX
  8
0
  5
7A21
 10
610.608
 20
427.456
 30
0.000000
  70
    32
  0
VERTEX
  8
0
  5
7A22
 10
610.608
 20
427.456
 30
0.000000
  70
    32
  0
VERTEX
  8
0
  5
7A23
 10
610.607
 20
427.457
 30
0.000000
  70
    32
  0
VERTEX
  8
0
  5
7A24
 10
610.607
 20
427.457
 30
0.000000
  70
    32
  0
VERTEX
  8
0
  5
7A25
 10
610.607
 20
427.458
 30
0.000000
  70
    32
  0
VERTEX
  8
0
  5
7A26
 10
610.606
 20
427.458
 30
0.000000
  70
    32
  0
VERTEX
  8
0
  5
7A27
 10
610.606
 20
427.459
 30
0.000000
  70
    32
  0
VERTEX
  8
0
  5
7A28
 10
610.606
 20
427.459
 30
0.000000
  70
    32
  0
VERTEX
  8
0
  5
7A29
 10
610.605
 20
427.460
 30
0.000000
  70
    32
  0
VERTEX
  8
0
  5
7A2A
 10
610.605
 20
427.460
 30
0.000000
  70
    32
  0
VERTEX
  8
0
  5
7A2B
 10
610.605
 20
427.461
 30
0.000000
  70
    32
  0
VERTEX
  8
0
  5
7A2C
 10
610.604
 20
427.461
 30
0.000000
  70
    32
  0
VERTEX
  8
0
  5
7A2D
 10
610.604
 20
427.462
 30
0.000000
  70
    32
  0
VERTEX
  8
0
  5
7A2E
 10
610.603
 20
427.462
 30
0.000000
  70
    32
  0
VERTEX
  8
0
  5
7A2F
 10
610.603
 20
427.462
 30
0.000000
  70
    32
  0
VERTEX
  8
0
  5
7A30
 10
610.603
 20
427.463
 30
0.000000
  70
    32
  0
VERTEX
  8
0
  5
7A31
 10
610.602
 20
427.463
 30
0.000000
  70
    32
  0
VERTEX
  8
0
  5
7A32
 10
610.602
 20
427.464
 30
0.000000
  70
    32
  0
VERTEX
  8
0
  5
7A33
 10
610.602
 20
427.464
 30
0.000000
  70
    32
  0
VERTEX
  8
0
  5
7A34
 10
610.601
 20
427.465
 30
0.000000
  70
    32
  0
VERTEX
  8
0
  5
7A35
 10
610.601
 20
427.465
 30
0.000000
  70
    32
  0
VERTEX
  8
0
  5
7A36
 10
610.600
 20
427.466
 30
0.000000
  70
    32
  0
VERTEX
  8
0
  5
7A37
 10
610.600
 20
427.466
 30
0.000000
  70
    32
  0
VERTEX
  8
0
  5
7A38
 10
610.599
 20
427.466
 30
0.000000
  70
    32
  0
VERTEX
  8
0
  5
7A39
 10
610.599
 20
427.467
 30
0.000000
  70
    32
  0
VERTEX
  8
0
  5
7A3A
 10
610.599
 20
427.467
 30
0.000000
  70
    32
  0
VERTEX
  8
0
  5
7A3B
 10
610.598
 20
427.468
 30
0.000000
  70
    32
  0
VERTEX
  8
0
  5
7A3C
 10
610.598
 20
427.468
 30
0.000000
  70
    32
  0
VERTEX
  8
0
  5
7A3D
 10
610.597
 20
427.469
 30
0.000000
  70
    32
  0
VERTEX
  8
0
  5
7A3E
 10
610.597
 20
427.469
 30
0.000000
  70
    32
  0
VERTEX
  8
0
  5
7A3F
 10
610.596
 20
427.469
 30
0.000000
  70
    32
  0
VERTEX
  8
0
  5
7A40
 10
610.596
 20
427.470
 30
0.000000
  70
    32
  0
VERTEX
  8
0
  5
7A41
 10
610.595
 20
427.470
 30
0.000000
  70
    32
  0
VERTEX
  8
0
  5
7A42
 10
610.595
 20
427.471
 30
0.000000
  70
    32
  0
VERTEX
  8
0
  5
7A43
 10
610.594
 20
427.471
 30
0.000000
  70
    32
  0
VERTEX
  8
0
  5
7A44
 10
610.594
 20
427.472
 30
0.000000
  70
    32
  0
VERTEX
  8
0
  5
7A45
 10
610.593
 20
427.472
 30
0.000000
  70
    32
  0
VERTEX
  8
0
  5
7A46
 10
610.593
 20
427.472
 30
0.000000
  70
    32
  0
VERTEX
  8
0
  5
7A47
 10
610.592
 20
427.473
 30
0.000000
  70
    32
  0
VERTEX
  8
0
  5
7A48
 10
610.592
 20
427.473
 30
0.000000
  70
    32
  0
VERTEX
  8
0
  5
7A49
 10
610.591
 20
427.474
 30
0.000000
  70
    32
  0
VERTEX
  8
0
  5
7A4A
 10
610.591
 20
427.474
 30
0.000000
  70
    32
  0
VERTEX
  8
0
  5
7A4B
 10
610.590
 20
427.474
 30
0.000000
  70
    32
  0
VERTEX
  8
0
  5
7A4C
 10
610.590
 20
427.475
 30
0.000000
  70
    32
  0
VERTEX
  8
0
  5
7A4D
 10
610.589
 20
427.475
 30
0.000000
  70
    32
  0
VERTEX
  8
0
  5
7A4E
 10
610.589
 20
427.476
 30
0.000000
  70
    32
  0
VERTEX
  8
0
  5
7A4F
 10
610.588
 20
427.476
 30
0.000000
  70
    32
  0
VERTEX
  8
0
  5
7A50
 10
610.588
 20
427.476
 30
0.000000
  70
    32
  0
VERTEX
  8
0
  5
7A51
 10
610.587
 20
427.477
 30
0.000000
  70
    32
  0
VERTEX
  8
0
  5
7A52
 10
610.587
 20
427.477
 30
0.000000
  70
    32
  0
VERTEX
  8
0
  5
7A53
 10
610.586
 20
427.478
 30
0.000000
  70
    32
  0
VERTEX
  8
0
  5
7A54
 10
610.586
 20
427.478
 30
0.000000
  70
    32
  0
VERTEX
  8
0
  5
7A55
 10
610.585
 20
427.478
 30
0.000000
  70
    32
  0
VERTEX
  8
0
  5
7A56
 10
610.585
 20
427.479
 30
0.000000
  70
    32
  0
VERTEX
  8
0
  5
7A57
 10
610.584
 20
427.479
 30
0.000000
  70
    32
  0
VERTEX
  8
0
  5
7A58
 10
610.583
 20
427.479
 30
0.000000
  70
    32
  0
VERTEX
  8
0
  5
7A59
 10
610.583
 20
427.480
 30
0.000000
  70
    32
  0
VERTEX
  8
0
  5
7A5A
 10
610.582
 20
427.480
 30
0.000000
  70
    32
  0
VERTEX
  8
0
  5
7A5B
 10
610.582
 20
427.481
 30
0.000000
  70
    32
  0
VERTEX
  8
0
  5
7A5C
 10
610.581
 20
427.481
 30
0.000000
  70
    32
  0
VERTEX
  8
0
  5
7A5D
 10
610.581
 20
427.481
 30
0.000000
  70
    32
  0
VERTEX
  8
0
  5
7A5E
 10
610.580
 20
427.482
 30
0.000000
  70
    32
  0
VERTEX
  8
0
  5
7A5F
 10
610.579
 20
427.482
 30
0.000000
  70
    32
  0
VERTEX
  8
0
  5
7A60
 10
610.579
 20
427.482
 30
0.000000
  70
    32
  0
VERTEX
  8
0
  5
7A61
 10
610.578
 20
427.483
 30
0.000000
  70
    32
  0
VERTEX
  8
0
  5
7A62
 10
610.578
 20
427.483
 30
0.000000
  70
    32
  0
VERTEX
  8
0
  5
7A63
 10
610.577
 20
427.484
 30
0.000000
  70
    32
  0
VERTEX
  8
0
  5
7A64
 10
610.576
 20
427.484
 30
0.000000
  70
    32
  0
SEQEND
  8
0
  5
7A65
  0
LINE
  5
6F7B
  8
0
  6
CONTINUOUS
 10
391.69753684360001
 20
553.83993698929987
 30
0.0
 11
391.69753684360001
 21
553.80611227510008
 31
0.0
  0
POLYLINE
  5
6F7C
  8
0
  6
CONTINUOUS
 10
598.14081881854975
 20
423.48196246180026
 30
0.0
 66
     1
 70
     8
  0
VERTEX
  8
0
  5
7A66
 10
598.141
 20
423.482
 30
0.000000
  70
    32
  0
VERTEX
  8
0
  5
7A67
 10
598.142
 20
423.481
 30
0.000000
  70
    32
  0
VERTEX
  8
0
  5
7A68
 10
598.144
 20
423.480
 30
0.000000
  70
    32
  0
VERTEX
  8
0
  5
7A69
 10
598.145
 20
423.479
 30
0.000000
  70
    32
  0
VERTEX
  8
0
  5
7A6A
 10
598.147
 20
423.479
 30
0.000000
  70
    32
  0
VERTEX
  8
0
  5
7A6B
 10
598.149
 20
423.478
 30
0.000000
  70
    32
  0
VERTEX
  8
0
  5
7A6C
 10
598.150
 20
423.477
 30
0.000000
  70
    32
  0
VERTEX
  8
0
  5
7A6D
 10
598.152
 20
423.476
 30
0.000000
  70
    32
  0
VERTEX
  8
0
  5
7A6E
 10
598.153
 20
423.475
 30
0.000000
  70
    32
  0
VERTEX
  8
0
  5
7A6F
 10
598.155
 20
423.475
 30
0.000000
  70
    32
  0
VERTEX
  8
0
  5
7A70
 10
598.156
 20
423.474
 30
0.000000
  70
    32
  0
VERTEX
  8
0
  5
7A71
 10
598.158
 20
423.473
 30
0.000000
  70
    32
  0
VERTEX
  8
0
  5
7A72
 10
598.160
 20
423.472
 30
0.000000
  70
    32
  0
VERTEX
  8
0
  5
7A73
 10
598.161
 20
423.471
 30
0.000000
  70
    32
  0
VERTEX
  8
0
  5
7A74
 10
598.163
 20
423.471
 30
0.000000
  70
    32
  0
VERTEX
  8
0
  5
7A75
 10
598.165
 20
423.470
 30
0.000000
  70
    32
  0
VERTEX
  8
0
  5
7A76
 10
598.166
 20
423.469
 30
0.000000
  70
    32
  0
VERTEX
  8
0
  5
7A77
 10
598.168
 20
423.468
 30
0.000000
  70
    32
  0
VERTEX
  8
0
  5
7A78
 10
598.170
 20
423.468
 30
0.000000
  70
    32
  0
VERTEX
  8
0
  5
7A79
 10
598.171
 20
423.467
 30
0.000000
  70
    32
  0
VERTEX
  8
0
  5
7A7A
 10
598.173
 20
423.466
 30
0.000000
  70
    32
  0
VERTEX
  8
0
  5
7A7B
 10
598.175
 20
423.465
 30
0.000000
  70
    32
  0
VERTEX
  8
0
  5
7A7C
 10
598.176
 20
423.465
 30
0.000000
  70
    32
  0
VERTEX
  8
0
  5
7A7D
 10
598.178
 20
423.464
 30
0.000000
  70
    32
  0
VERTEX
  8
0
  5
7A7E
 10
598.180
 20
423.463
 30
0.000000
  70
    32
  0
VERTEX
  8
0
  5
7A7F
 10
598.182
 20
423.463
 30
0.000000
  70
    32
  0
VERTEX
  8
0
  5
7A80
 10
598.183
 20
423.462
 30
0.000000
  70
    32
  0
VERTEX
  8
0
  5
7A81
 10
598.185
 20
423.461
 30
0.000000
  70
    32
  0
VERTEX
  8
0
  5
7A82
 10
598.187
 20
423.460
 30
0.000000
  70
    32
  0
VERTEX
  8
0
  5
7A83
 10
598.188
 20
423.460
 30
0.000000
  70
    32
  0
VERTEX
  8
0
  5
7A84
 10
598.190
 20
423.459
 30
0.000000
  70
    32
  0
VERTEX
  8
0
  5
7A85
 10
598.192
 20
423.458
 30
0.000000
  70
    32
  0
VERTEX
  8
0
  5
7A86
 10
598.194
 20
423.458
 30
0.000000
  70
    32
  0
VERTEX
  8
0
  5
7A87
 10
598.196
 20
423.457
 30
0.000000
  70
    32
  0
VERTEX
  8
0
  5
7A88
 10
598.197
 20
423.456
 30
0.000000
  70
    32
  0
VERTEX
  8
0
  5
7A89
 10
598.199
 20
423.456
 30
0.000000
  70
    32
  0
VERTEX
  8
0
  5
7A8A
 10
598.201
 20
423.455
 30
0.000000
  70
    32
  0
VERTEX
  8
0
  5
7A8B
 10
598.203
 20
423.455
 30
0.000000
  70
    32
  0
VERTEX
  8
0
  5
7A8C
 10
598.205
 20
423.454
 30
0.000000
  70
    32
  0
VERTEX
  8
0
  5
7A8D
 10
598.206
 20
423.453
 30
0.000000
  70
    32
  0
VERTEX
  8
0
  5
7A8E
 10
598.208
 20
423.453
 30
0.000000
  70
    32
  0
VERTEX
  8
0
  5
7A8F
 10
598.210
 20
423.452
 30
0.000000
  70
    32
  0
VERTEX
  8
0
  5
7A90
 10
598.212
 20
423.451
 30
0.000000
  70
    32
  0
VERTEX
  8
0
  5
7A91
 10
598.214
 20
423.451
 30
0.000000
  70
    32
  0
VERTEX
  8
0
  5
7A92
 10
598.216
 20
423.450
 30
0.000000
  70
    32
  0
VERTEX
  8
0
  5
7A93
 10
598.217
 20
423.450
 30
0.000000
  70
    32
  0
VERTEX
  8
0
  5
7A94
 10
598.219
 20
423.449
 30
0.000000
  70
    32
  0
VERTEX
  8
0
  5
7A95
 10
598.221
 20
423.449
 30
0.000000
  70
    32
  0
VERTEX
  8
0
  5
7A96
 10
598.223
 20
423.448
 30
0.000000
  70
    32
  0
VERTEX
  8
0
  5
7A97
 10
598.225
 20
423.447
 30
0.000000
  70
    32
  0
VERTEX
  8
0
  5
7A98
 10
598.227
 20
423.447
 30
0.000000
  70
    32
  0
VERTEX
  8
0
  5
7A99
 10
598.229
 20
423.446
 30
0.000000
  70
    32
  0
VERTEX
  8
0
  5
7A9A
 10
598.231
 20
423.446
 30
0.000000
  70
    32
  0
VERTEX
  8
0
  5
7A9B
 10
598.232
 20
423.445
 30
0.000000
  70
    32
  0
VERTEX
  8
0
  5
7A9C
 10
598.234
 20
423.445
 30
0.000000
  70
    32
  0
VERTEX
  8
0
  5
7A9D
 10
598.236
 20
423.444
 30
0.000000
  70
    32
  0
VERTEX
  8
0
  5
7A9E
 10
598.238
 20
423.444
 30
0.000000
  70
    32
  0
VERTEX
  8
0
  5
7A9F
 10
598.240
 20
423.443
 30
0.000000
  70
    32
  0
VERTEX
  8
0
  5
7AA0
 10
598.242
 20
423.443
 30
0.000000
  70
    32
  0
VERTEX
  8
0
  5
7AA1
 10
598.244
 20
423.442
 30
0.000000
  70
    32
  0
VERTEX
  8
0
  5
7AA2
 10
598.246
 20
423.442
 30
0.000000
  70
    32
  0
VERTEX
  8
0
  5
7AA3
 10
598.248
 20
423.441
 30
0.000000
  70
    32
  0
VERTEX
  8
0
  5
7AA4
 10
598.250
 20
423.441
 30
0.000000
  70
    32
  0
VERTEX
  8
0
  5
7AA5
 10
598.252
 20
423.440
 30
0.000000
  70
    32
  0
VERTEX
  8
0
  5
7AA6
 10
598.254
 20
423.440
 30
0.000000
  70
    32
  0
VERTEX
  8
0
  5
7AA7
 10
598.256
 20
423.439
 30
0.000000
  70
    32
  0
VERTEX
  8
0
  5
7AA8
 10
598.258
 20
423.439
 30
0.000000
  70
    32
  0
VERTEX
  8
0
  5
7AA9
 10
598.260
 20
423.439
 30
0.000000
  70
    32
  0
VERTEX
  8
0
  5
7AAA
 10
598.262
 20
423.438
 30
0.000000
  70
    32
  0
VERTEX
  8
0
  5
7AAB
 10
598.264
 20
423.438
 30
0.000000
  70
    32
  0
VERTEX
  8
0
  5
7AAC
 10
598.266
 20
423.437
 30
0.000000
  70
    32
  0
VERTEX
  8
0
  5
7AAD
 10
598.268
 20
423.437
 30
0.000000
  70
    32
  0
VERTEX
  8
0
  5
7AAE
 10
598.270
 20
423.436
 30
0.000000
  70
    32
  0
VERTEX
  8
0
  5
7AAF
 10
598.272
 20
423.436
 30
0.000000
  70
    32
  0
VERTEX
  8
0
  5
7AB0
 10
598.274
 20
423.436
 30
0.000000
  70
    32
  0
VERTEX
  8
0
  5
7AB1
 10
598.276
 20
423.435
 30
0.000000
  70
    32
  0
VERTEX
  8
0
  5
7AB2
 10
598.278
 20
423.435
 30
0.000000
  70
    32
  0
VERTEX
  8
0
  5
7AB3
 10
598.280
 20
423.434
 30
0.000000
  70
    32
  0
VERTEX
  8
0
  5
7AB4
 10
598.282
 20
423.434
 30
0.000000
  70
    32
  0
VERTEX
  8
0
  5
7AB5
 10
598.284
 20
423.434
 30
0.000000
  70
    32
  0
VERTEX
  8
0
  5
7AB6
 10
598.286
 20
423.433
 30
0.000000
  70
    32
  0
VERTEX
  8
0
  5
7AB7
 10
598.288
 20
423.433
 30
0.000000
  70
    32
  0
VERTEX
  8
0
  5
7AB8
 10
598.290
 20
423.433
 30
0.000000
  70
    32
  0
VERTEX
  8
0
  5
7AB9
 10
598.292
 20
423.432
 30
0.000000
  70
    32
  0
VERTEX
  8
0
  5
7ABA
 10
598.294
 20
423.432
 30
0.000000
  70
    32
  0
VERTEX
  8
0
  5
7ABB
 10
598.296
 20
423.432
 30
0.000000
  70
    32
  0
VERTEX
  8
0
  5
7ABC
 10
598.298
 20
423.431
 30
0.000000
  70
    32
  0
VERTEX
  8
0
  5
7ABD
 10
598.300
 20
423.431
 30
0.000000
  70
    32
  0
VERTEX
  8
0
  5
7ABE
 10
598.302
 20
423.431
 30
0.000000
  70
    32
  0
VERTEX
  8
0
  5
7ABF
 10
598.304
 20
423.431
 30
0.000000
  70
    32
  0
VERTEX
  8
0
  5
7AC0
 10
598.306
 20
423.430
 30
0.000000
  70
    32
  0
VERTEX
  8
0
  5
7AC1
 10
598.308
 20
423.430
 30
0.000000
  70
    32
  0
VERTEX
  8
0
  5
7AC2
 10
598.310
 20
423.430
 30
0.000000
  70
    32
  0
VERTEX
  8
0
  5
7AC3
 10
598.312
 20
423.430
 30
0.000000
  70
    32
  0
VERTEX
  8
0
  5
7AC4
 10
598.314
 20
423.429
 30
0.000000
  70
    32
  0
VERTEX
  8
0
  5
7AC5
 10
598.316
 20
423.429
 30
0.000000
  70
    32
  0
VERTEX
  8
0
  5
7AC6
 10
598.318
 20
423.429
 30
0.000000
  70
    32
  0
VERTEX
  8
0
  5
7AC7
 10
598.321
 20
423.429
 30
0.000000
  70
    32
  0
VERTEX
  8
0
  5
7AC8
 10
598.323
 20
423.428
 30
0.000000
  70
    32
  0
VERTEX
  8
0
  5
7AC9
 10
598.325
 20
423.428
 30
0.000000
  70
    32
  0
VERTEX
  8
0
  5
7ACA
 10
598.327
 20
423.428
 30
0.000000
  70
    32
  0
VERTEX
  8
0
  5
7ACB
 10
598.329
 20
423.428
 30
0.000000
  70
    32
  0
VERTEX
  8
0
  5
7ACC
 10
598.331
 20
423.428
 30
0.000000
  70
    32
  0
VERTEX
  8
0
  5
7ACD
 10
598.333
 20
423.427
 30
0.000000
  70
    32
  0
VERTEX
  8
0
  5
7ACE
 10
598.335
 20
423.427
 30
0.000000
  70
    32
  0
VERTEX
  8
0
  5
7ACF
 10
598.337
 20
423.427
 30
0.000000
  70
    32
  0
VERTEX
  8
0
  5
7AD0
 10
598.339
 20
423.427
 30
0.000000
  70
    32
  0
VERTEX
  8
0
  5
7AD1
 10
598.341
 20
423.427
 30
0.000000
  70
    32
  0
VERTEX
  8
0
  5
7AD2
 10
598.344
 20
423.427
 30
0.000000
  70
    32
  0
VERTEX
  8
0
  5
7AD3
 10
598.346
 20
423.426
 30
0.000000
  70
    32
  0
VERTEX
  8
0
  5
7AD4
 10
598.348
 20
423.426
 30
0.000000
  70
    32
  0
VERTEX
  8
0
  5
7AD5
 10
598.350
 20
423.426
 30
0.000000
  70
    32
  0
VERTEX
  8
0
  5
7AD6
 10
598.352
 20
423.426
 30
0.000000
  70
    32
  0
VERTEX
  8
0
  5
7AD7
 10
598.354
 20
423.426
 30
0.000000
  70
    32
  0
VERTEX
  8
0
  5
7AD8
 10
598.356
 20
423.426
 30
0.000000
  70
    32
  0
VERTEX
  8
0
  5
7AD9
 10
598.358
 20
423.426
 30
0.000000
  70
    32
  0
VERTEX
  8
0
  5
7ADA
 10
598.360
 20
423.426
 30
0.000000
  70
    32
  0
VERTEX
  8
0
  5
7ADB
 10
598.362
 20
423.426
 30
0.000000
  70
    32
  0
VERTEX
  8
0
  5
7ADC
 10
598.365
 20
423.425
 30
0.000000
  70
    32
  0
VERTEX
  8
0
  5
7ADD
 10
598.367
 20
423.425
 30
0.000000
  70
    32
  0
VERTEX
  8
0
  5
7ADE
 10
598.369
 20
423.425
 30
0.000000
  70
    32
  0
VERTEX
  8
0
  5
7ADF
 10
598.371
 20
423.425
 30
0.000000
  70
    32
  0
VERTEX
  8
0
  5
7AE0
 10
598.373
 20
423.425
 30
0.000000
  70
    32
  0
VERTEX
  8
0
  5
7AE1
 10
598.375
 20
423.425
 30
0.000000
  70
    32
  0
VERTEX
  8
0
  5
7AE2
 10
598.377
 20
423.425
 30
0.000000
  70
    32
  0
VERTEX
  8
0
  5
7AE3
 10
598.379
 20
423.425
 30
0.000000
  70
    32
  0
VERTEX
  8
0
  5
7AE4
 10
598.381
 20
423.425
 30
0.000000
  70
    32
  0
VERTEX
  8
0
  5
7AE5
 10
598.384
 20
423.425
 30
0.000000
  70
    32
  0
VERTEX
  8
0
  5
7AE6
 10
598.386
 20
423.425
 30
0.000000
  70
    32
  0
SEQEND
  8
0
  5
7AE7
  0
LINE
  5
6F7D
  8
0
  6
CONTINUOUS
 10
391.69753684360001
 20
542.65912518319988
 30
0.0
 11
598.14080875119998
 21
423.48196106819989
 31
0.0
  0
LINE
  5
6F7E
  8
0
  6
CONTINUOUS
 10
391.69753684360001
 20
542.74360180259987
 30
0.0
 11
391.69753684360001
 21
542.65912518319988
 31
0.0
  0
LINE
  5
6F7F
  8
0
  6
CONTINUOUS
 10
591.80632708079997
 20
426.99308819949999
 30
0.0
 11
598.14080875119998
 21
423.48196106819989
 31
0.0
  0
LINE
  5
6F80
  8
0
  6
CONTINUOUS
 10
391.69753684360001
 20
542.51343388379985
 30
0.0
 11
591.80632708079997
 21
426.99308819949999
 31
0.0
  0
POLYLINE
  5
6F81
  8
0
  6
CONTINUOUS
 10
610.61779629903731
 20
427.42613778430001
 30
0.0
 66
     1
 70
     8
  0
VERTEX
  8
0
  5
7AE8
 10
610.618
 20
427.426
 30
0.000000
  70
    32
  0
VERTEX
  8
0
  5
7AE9
 10
610.618
 20
427.427
 30
0.000000
  70
    32
  0
VERTEX
  8
0
  5
7AEA
 10
610.618
 20
427.427
 30
0.000000
  70
    32
  0
VERTEX
  8
0
  5
7AEB
 10
610.618
 20
427.428
 30
0.000000
  70
    32
  0
VERTEX
  8
0
  5
7AEC
 10
610.618
 20
427.428
 30
0.000000
  70
    32
  0
VERTEX
  8
0
  5
7AED
 10
610.618
 20
427.429
 30
0.000000
  70
    32
  0
VERTEX
  8
0
  5
7AEE
 10
610.618
 20
427.429
 30
0.000000
  70
    32
  0
VERTEX
  8
0
  5
7AEF
 10
610.618
 20
427.430
 30
0.000000
  70
    32
  0
VERTEX
  8
0
  5
7AF0
 10
610.618
 20
427.430
 30
0.000000
  70
    32
  0
VERTEX
  8
0
  5
7AF1
 10
610.618
 20
427.431
 30
0.000000
  70
    32
  0
VERTEX
  8
0
  5
7AF2
 10
610.618
 20
427.431
 30
0.000000
  70
    32
  0
VERTEX
  8
0
  5
7AF3
 10
610.617
 20
427.432
 30
0.000000
  70
    32
  0
VERTEX
  8
0
  5
7AF4
 10
610.617
 20
427.432
 30
0.000000
  70
    32
  0
VERTEX
  8
0
  5
7AF5
 10
610.617
 20
427.433
 30
0.000000
  70
    32
  0
VERTEX
  8
0
  5
7AF6
 10
610.617
 20
427.433
 30
0.000000
  70
    32
  0
VERTEX
  8
0
  5
7AF7
 10
610.617
 20
427.434
 30
0.000000
  70
    32
  0
VERTEX
  8
0
  5
7AF8
 10
610.617
 20
427.434
 30
0.000000
  70
    32
  0
VERTEX
  8
0
  5
7AF9
 10
610.617
 20
427.435
 30
0.000000
  70
    32
  0
VERTEX
  8
0
  5
7AFA
 10
610.617
 20
427.435
 30
0.000000
  70
    32
  0
VERTEX
  8
0
  5
7AFB
 10
610.617
 20
427.436
 30
0.000000
  70
    32
  0
VERTEX
  8
0
  5
7AFC
 10
610.617
 20
427.436
 30
0.000000
  70
    32
  0
VERTEX
  8
0
  5
7AFD
 10
610.617
 20
427.437
 30
0.000000
  70
    32
  0
VERTEX
  8
0
  5
7AFE
 10
610.617
 20
427.437
 30
0.000000
  70
    32
  0
VERTEX
  8
0
  5
7AFF
 10
610.616
 20
427.438
 30
0.000000
  70
    32
  0
VERTEX
  8
0
  5
7B00
 10
610.616
 20
427.438
 30
0.000000
  70
    32
  0
VERTEX
  8
0
  5
7B01
 10
610.616
 20
427.439
 30
0.000000
  70
    32
  0
VERTEX
  8
0
  5
7B02
 10
610.616
 20
427.439
 30
0.000000
  70
    32
  0
VERTEX
  8
0
  5
7B03
 10
610.616
 20
427.440
 30
0.000000
  70
    32
  0
VERTEX
  8
0
  5
7B04
 10
610.616
 20
427.440
 30
0.000000
  70
    32
  0
VERTEX
  8
0
  5
7B05
 10
610.616
 20
427.441
 30
0.000000
  70
    32
  0
VERTEX
  8
0
  5
7B06
 10
610.615
 20
427.441
 30
0.000000
  70
    32
  0
VERTEX
  8
0
  5
7B07
 10
610.615
 20
427.442
 30
0.000000
  70
    32
  0
VERTEX
  8
0
  5
7B08
 10
610.615
 20
427.442
 30
0.000000
  70
    32
  0
VERTEX
  8
0
  5
7B09
 10
610.615
 20
427.443
 30
0.000000
  70
    32
  0
VERTEX
  8
0
  5
7B0A
 10
610.615
 20
427.443
 30
0.000000
  70
    32
  0
VERTEX
  8
0
  5
7B0B
 10
610.615
 20
427.444
 30
0.000000
  70
    32
  0
VERTEX
  8
0
  5
7B0C
 10
610.614
 20
427.444
 30
0.000000
  70
    32
  0
VERTEX
  8
0
  5
7B0D
 10
610.614
 20
427.445
 30
0.000000
  70
    32
  0
VERTEX
  8
0
  5
7B0E
 10
610.614
 20
427.445
 30
0.000000
  70
    32
  0
VERTEX
  8
0
  5
7B0F
 10
610.614
 20
427.445
 30
0.000000
  70
    32
  0
VERTEX
  8
0
  5
7B10
 10
610.614
 20
427.446
 30
0.000000
  70
    32
  0
VERTEX
  8
0
  5
7B11
 10
610.613
 20
427.446
 30
0.000000
  70
    32
  0
VERTEX
  8
0
  5
7B12
 10
610.613
 20
427.447
 30
0.000000
  70
    32
  0
VERTEX
  8
0
  5
7B13
 10
610.613
 20
427.447
 30
0.000000
  70
    32
  0
VERTEX
  8
0
  5
7B14
 10
610.613
 20
427.448
 30
0.000000
  70
    32
  0
VERTEX
  8
0
  5
7B15
 10
610.612
 20
427.448
 30
0.000000
  70
    32
  0
VERTEX
  8
0
  5
7B16
 10
610.612
 20
427.449
 30
0.000000
  70
    32
  0
VERTEX
  8
0
  5
7B17
 10
610.612
 20
427.449
 30
0.000000
  70
    32
  0
VERTEX
  8
0
  5
7B18
 10
610.612
 20
427.450
 30
0.000000
  70
    32
  0
VERTEX
  8
0
  5
7B19
 10
610.611
 20
427.450
 30
0.000000
  70
    32
  0
VERTEX
  8
0
  5
7B1A
 10
610.611
 20
427.451
 30
0.000000
  70
    32
  0
VERTEX
  8
0
  5
7B1B
 10
610.611
 20
427.451
 30
0.000000
  70
    32
  0
VERTEX
  8
0
  5
7B1C
 10
610.611
 20
427.452
 30
0.000000
  70
    32
  0
VERTEX
  8
0
  5
7B1D
 10
610.610
 20
427.452
 30
0.000000
  70
    32
  0
VERTEX
  8
0
  5
7B1E
 10
610.610
 20
427.453
 30
0.000000
  70
    32
  0
VERTEX
  8
0
  5
7B1F
 10
610.610
 20
427.453
 30
0.000000
  70
    32
  0
VERTEX
  8
0
  5
7B20
 10
610.610
 20
427.454
 30
0.000000
  70
    32
  0
VERTEX
  8
0
  5
7B21
 10
610.609
 20
427.454
 30
0.000000
  70
    32
  0
VERTEX
  8
0
  5
7B22
 10
610.609
 20
427.455
 30
0.000000
  70
    32
  0
VERTEX
  8
0
  5
7B23
 10
610.609
 20
427.455
 30
0.000000
  70
    32
  0
VERTEX
  8
0
  5
7B24
 10
610.608
 20
427.456
 30
0.000000
  70
    32
  0
VERTEX
  8
0
  5
7B25
 10
610.608
 20
427.456
 30
0.000000
  70
    32
  0
VERTEX
  8
0
  5
7B26
 10
610.608
 20
427.456
 30
0.000000
  70
    32
  0
VERTEX
  8
0
  5
7B27
 10
610.607
 20
427.457
 30
0.000000
  70
    32
  0
VERTEX
  8
0
  5
7B28
 10
610.607
 20
427.457
 30
0.000000
  70
    32
  0
VERTEX
  8
0
  5
7B29
 10
610.607
 20
427.458
 30
0.000000
  70
    32
  0
VERTEX
  8
0
  5
7B2A
 10
610.606
 20
427.458
 30
0.000000
  70
    32
  0
VERTEX
  8
0
  5
7B2B
 10
610.606
 20
427.459
 30
0.000000
  70
    32
  0
VERTEX
  8
0
  5
7B2C
 10
610.606
 20
427.459
 30
0.000000
  70
    32
  0
VERTEX
  8
0
  5
7B2D
 10
610.605
 20
427.460
 30
0.000000
  70
    32
  0
VERTEX
  8
0
  5
7B2E
 10
610.605
 20
427.460
 30
0.000000
  70
    32
  0
VERTEX
  8
0
  5
7B2F
 10
610.605
 20
427.461
 30
0.000000
  70
    32
  0
VERTEX
  8
0
  5
7B30
 10
610.604
 20
427.461
 30
0.000000
  70
    32
  0
VERTEX
  8
0
  5
7B31
 10
610.604
 20
427.462
 30
0.000000
  70
    32
  0
VERTEX
  8
0
  5
7B32
 10
610.603
 20
427.462
 30
0.000000
  70
    32
  0
VERTEX
  8
0
  5
7B33
 10
610.603
 20
427.462
 30
0.000000
  70
    32
  0
VERTEX
  8
0
  5
7B34
 10
610.603
 20
427.463
 30
0.000000
  70
    32
  0
VERTEX
  8
0
  5
7B35
 10
610.602
 20
427.463
 30
0.000000
  70
    32
  0
VERTEX
  8
0
  5
7B36
 10
610.602
 20
427.464
 30
0.000000
  70
    32
  0
VERTEX
  8
0
  5
7B37
 10
610.602
 20
427.464
 30
0.000000
  70
    32
  0
VERTEX
  8
0
  5
7B38
 10
610.601
 20
427.465
 30
0.000000
  70
    32
  0
VERTEX
  8
0
  5
7B39
 10
610.601
 20
427.465
 30
0.000000
  70
    32
  0
VERTEX
  8
0
  5
7B3A
 10
610.600
 20
427.466
 30
0.000000
  70
    32
  0
VERTEX
  8
0
  5
7B3B
 10
610.600
 20
427.466
 30
0.000000
  70
    32
  0
VERTEX
  8
0
  5
7B3C
 10
610.599
 20
427.466
 30
0.000000
  70
    32
  0
VERTEX
  8
0
  5
7B3D
 10
610.599
 20
427.467
 30
0.000000
  70
    32
  0
VERTEX
  8
0
  5
7B3E
 10
610.599
 20
427.467
 30
0.000000
  70
    32
  0
VERTEX
  8
0
  5
7B3F
 10
610.598
 20
427.468
 30
0.000000
  70
    32
  0
VERTEX
  8
0
  5
7B40
 10
610.598
 20
427.468
 30
0.000000
  70
    32
  0
VERTEX
  8
0
  5
7B41
 10
610.597
 20
427.469
 30
0.000000
  70
    32
  0
VERTEX
  8
0
  5
7B42
 10
610.597
 20
427.469
 30
0.000000
  70
    32
  0
VERTEX
  8
0
  5
7B43
 10
610.596
 20
427.469
 30
0.000000
  70
    32
  0
VERTEX
  8
0
  5
7B44
 10
610.596
 20
427.470
 30
0.000000
  70
    32
  0
VERTEX
  8
0
  5
7B45
 10
610.595
 20
427.470
 30
0.000000
  70
    32
  0
VERTEX
  8
0
  5
7B46
 10
610.595
 20
427.471
 30
0.000000
  70
    32
  0
VERTEX
  8
0
  5
7B47
 10
610.594
 20
427.471
 30
0.000000
  70
    32
  0
VERTEX
  8
0
  5
7B48
 10
610.594
 20
427.472
 30
0.000000
  70
    32
  0
VERTEX
  8
0
  5
7B49
 10
610.593
 20
427.472
 30
0.000000
  70
    32
  0
VERTEX
  8
0
  5
7B4A
 10
610.593
 20
427.472
 30
0.000000
  70
    32
  0
VERTEX
  8
0
  5
7B4B
 10
610.592
 20
427.473
 30
0.000000
  70
    32
  0
VERTEX
  8
0
  5
7B4C
 10
610.592
 20
427.473
 30
0.000000
  70
    32
  0
VERTEX
  8
0
  5
7B4D
 10
610.591
 20
427.474
 30
0.000000
  70
    32
  0
VERTEX
  8
0
  5
7B4E
 10
610.591
 20
427.474
 30
0.000000
  70
    32
  0
VERTEX
  8
0
  5
7B4F
 10
610.590
 20
427.474
 30
0.000000
  70
    32
  0
VERTEX
  8
0
  5
7B50
 10
610.590
 20
427.475
 30
0.000000
  70
    32
  0
VERTEX
  8
0
  5
7B51
 10
610.589
 20
427.475
 30
0.000000
  70
    32
  0
VERTEX
  8
0
  5
7B52
 10
610.589
 20
427.476
 30
0.000000
  70
    32
  0
VERTEX
  8
0
  5
7B53
 10
610.588
 20
427.476
 30
0.000000
  70
    32
  0
VERTEX
  8
0
  5
7B54
 10
610.588
 20
427.476
 30
0.000000
  70
    32
  0
VERTEX
  8
0
  5
7B55
 10
610.587
 20
427.477
 30
0.000000
  70
    32
  0
VERTEX
  8
0
  5
7B56
 10
610.587
 20
427.477
 30
0.000000
  70
    32
  0
VERTEX
  8
0
  5
7B57
 10
610.586
 20
427.478
 30
0.000000
  70
    32
  0
VERTEX
  8
0
  5
7B58
 10
610.586
 20
427.478
 30
0.000000
  70
    32
  0
VERTEX
  8
0
  5
7B59
 10
610.585
 20
427.478
 30
0.000000
  70
    32
  0
VERTEX
  8
0
  5
7B5A
 10
610.585
 20
427.479
 30
0.000000
  70
    32
  0
VERTEX
  8
0
  5
7B5B
 10
610.584
 20
427.479
 30
0.000000
  70
    32
  0
VERTEX
  8
0
  5
7B5C
 10
610.583
 20
427.479
 30
0.000000
  70
    32
  0
VERTEX
  8
0
  5
7B5D
 10
610.583
 20
427.480
 30
0.000000
  70
    32
  0
VERTEX
  8
0
  5
7B5E
 10
610.582
 20
427.480
 30
0.000000
  70
    32
  0
VERTEX
  8
0
  5
7B5F
 10
610.582
 20
427.481
 30
0.000000
  70
    32
  0
VERTEX
  8
0
  5
7B60
 10
610.581
 20
427.481
 30
0.000000
  70
    32
  0
VERTEX
  8
0
  5
7B61
 10
610.581
 20
427.481
 30
0.000000
  70
    32
  0
VERTEX
  8
0
  5
7B62
 10
610.580
 20
427.482
 30
0.000000
  70
    32
  0
VERTEX
  8
0
  5
7B63
 10
610.579
 20
427.482
 30
0.000000
  70
    32
  0
VERTEX
  8
0
  5
7B64
 10
610.579
 20
427.482
 30
0.000000
  70
    32
  0
VERTEX
  8
0
  5
7B65
 10
610.578
 20
427.483
 30
0.000000
  70
    32
  0
VERTEX
  8
0
  5
7B66
 10
610.578
 20
427.483
 30
0.000000
  70
    32
  0
VERTEX
  8
0
  5
7B67
 10
610.577
 20
427.484
 30
0.000000
  70
    32
  0
VERTEX
  8
0
  5
7B68
 10
610.576
 20
427.484
 30
0.000000
  70
    32
  0
SEQEND
  8
0
  5
7B69
  0
POLYLINE
  5
6F82
  8
0
  6
CONTINUOUS
 10
610.26424290839986
 20
423.42508780602856
 30
0.0
 66
     1
 70
     8
  0
VERTEX
  8
0
  5
7B6A
 10
610.264
 20
423.425
 30
0.000000
  70
    32
  0
VERTEX
  8
0
  5
7B6B
 10
610.269
 20
423.425
 30
0.000000
  70
    32
  0
VERTEX
  8
0
  5
7B6C
 10
610.273
 20
423.425
 30
0.000000
  70
    32
  0
VERTEX
  8
0
  5
7B6D
 10
610.277
 20
423.425
 30
0.000000
  70
    32
  0
VERTEX
  8
0
  5
7B6E
 10
610.282
 20
423.425
 30
0.000000
  70
    32
  0
VERTEX
  8
0
  5
7B6F
 10
610.286
 20
423.425
 30
0.000000
  70
    32
  0
VERTEX
  8
0
  5
7B70
 10
610.290
 20
423.426
 30
0.000000
  70
    32
  0
VERTEX
  8
0
  5
7B71
 10
610.295
 20
423.426
 30
0.000000
  70
    32
  0
VERTEX
  8
0
  5
7B72
 10
610.299
 20
423.426
 30
0.000000
  70
    32
  0
VERTEX
  8
0
  5
7B73
 10
610.303
 20
423.426
 30
0.000000
  70
    32
  0
VERTEX
  8
0
  5
7B74
 10
610.308
 20
423.427
 30
0.000000
  70
    32
  0
VERTEX
  8
0
  5
7B75
 10
610.312
 20
423.427
 30
0.000000
  70
    32
  0
VERTEX
  8
0
  5
7B76
 10
610.316
 20
423.427
 30
0.000000
  70
    32
  0
VERTEX
  8
0
  5
7B77
 10
610.320
 20
423.428
 30
0.000000
  70
    32
  0
VERTEX
  8
0
  5
7B78
 10
610.325
 20
423.428
 30
0.000000
  70
    32
  0
VERTEX
  8
0
  5
7B79
 10
610.329
 20
423.429
 30
0.000000
  70
    32
  0
VERTEX
  8
0
  5
7B7A
 10
610.333
 20
423.429
 30
0.000000
  70
    32
  0
VERTEX
  8
0
  5
7B7B
 10
610.337
 20
423.430
 30
0.000000
  70
    32
  0
VERTEX
  8
0
  5
7B7C
 10
610.342
 20
423.430
 30
0.000000
  70
    32
  0
VERTEX
  8
0
  5
7B7D
 10
610.346
 20
423.431
 30
0.000000
  70
    32
  0
VERTEX
  8
0
  5
7B7E
 10
610.350
 20
423.431
 30
0.000000
  70
    32
  0
VERTEX
  8
0
  5
7B7F
 10
610.354
 20
423.432
 30
0.000000
  70
    32
  0
VERTEX
  8
0
  5
7B80
 10
610.359
 20
423.432
 30
0.000000
  70
    32
  0
VERTEX
  8
0
  5
7B81
 10
610.363
 20
423.433
 30
0.000000
  70
    32
  0
VERTEX
  8
0
  5
7B82
 10
610.367
 20
423.434
 30
0.000000
  70
    32
  0
VERTEX
  8
0
  5
7B83
 10
610.371
 20
423.435
 30
0.000000
  70
    32
  0
VERTEX
  8
0
  5
7B84
 10
610.375
 20
423.435
 30
0.000000
  70
    32
  0
VERTEX
  8
0
  5
7B85
 10
610.379
 20
423.436
 30
0.000000
  70
    32
  0
VERTEX
  8
0
  5
7B86
 10
610.383
 20
423.437
 30
0.000000
  70
    32
  0
VERTEX
  8
0
  5
7B87
 10
610.387
 20
423.438
 30
0.000000
  70
    32
  0
VERTEX
  8
0
  5
7B88
 10
610.391
 20
423.439
 30
0.000000
  70
    32
  0
VERTEX
  8
0
  5
7B89
 10
610.396
 20
423.440
 30
0.000000
  70
    32
  0
VERTEX
  8
0
  5
7B8A
 10
610.400
 20
423.441
 30
0.000000
  70
    32
  0
VERTEX
  8
0
  5
7B8B
 10
610.404
 20
423.442
 30
0.000000
  70
    32
  0
VERTEX
  8
0
  5
7B8C
 10
610.408
 20
423.443
 30
0.000000
  70
    32
  0
VERTEX
  8
0
  5
7B8D
 10
610.411
 20
423.444
 30
0.000000
  70
    32
  0
VERTEX
  8
0
  5
7B8E
 10
610.415
 20
423.445
 30
0.000000
  70
    32
  0
VERTEX
  8
0
  5
7B8F
 10
610.419
 20
423.446
 30
0.000000
  70
    32
  0
VERTEX
  8
0
  5
7B90
 10
610.423
 20
423.447
 30
0.000000
  70
    32
  0
VERTEX
  8
0
  5
7B91
 10
610.427
 20
423.448
 30
0.000000
  70
    32
  0
VERTEX
  8
0
  5
7B92
 10
610.431
 20
423.449
 30
0.000000
  70
    32
  0
VERTEX
  8
0
  5
7B93
 10
610.435
 20
423.450
 30
0.000000
  70
    32
  0
VERTEX
  8
0
  5
7B94
 10
610.439
 20
423.452
 30
0.000000
  70
    32
  0
VERTEX
  8
0
  5
7B95
 10
610.442
 20
423.453
 30
0.000000
  70
    32
  0
VERTEX
  8
0
  5
7B96
 10
610.446
 20
423.454
 30
0.000000
  70
    32
  0
VERTEX
  8
0
  5
7B97
 10
610.450
 20
423.455
 30
0.000000
  70
    32
  0
VERTEX
  8
0
  5
7B98
 10
610.453
 20
423.457
 30
0.000000
  70
    32
  0
VERTEX
  8
0
  5
7B99
 10
610.457
 20
423.458
 30
0.000000
  70
    32
  0
VERTEX
  8
0
  5
7B9A
 10
610.461
 20
423.459
 30
0.000000
  70
    32
  0
VERTEX
  8
0
  5
7B9B
 10
610.464
 20
423.461
 30
0.000000
  70
    32
  0
VERTEX
  8
0
  5
7B9C
 10
610.468
 20
423.462
 30
0.000000
  70
    32
  0
VERTEX
  8
0
  5
7B9D
 10
610.471
 20
423.464
 30
0.000000
  70
    32
  0
VERTEX
  8
0
  5
7B9E
 10
610.475
 20
423.465
 30
0.000000
  70
    32
  0
VERTEX
  8
0
  5
7B9F
 10
610.478
 20
423.467
 30
0.000000
  70
    32
  0
VERTEX
  8
0
  5
7BA0
 10
610.482
 20
423.468
 30
0.000000
  70
    32
  0
VERTEX
  8
0
  5
7BA1
 10
610.485
 20
423.470
 30
0.000000
  70
    32
  0
VERTEX
  8
0
  5
7BA2
 10
610.489
 20
423.471
 30
0.000000
  70
    32
  0
VERTEX
  8
0
  5
7BA3
 10
610.492
 20
423.473
 30
0.000000
  70
    32
  0
VERTEX
  8
0
  5
7BA4
 10
610.495
 20
423.475
 30
0.000000
  70
    32
  0
VERTEX
  8
0
  5
7BA5
 10
610.498
 20
423.476
 30
0.000000
  70
    32
  0
VERTEX
  8
0
  5
7BA6
 10
610.502
 20
423.478
 30
0.000000
  70
    32
  0
VERTEX
  8
0
  5
7BA7
 10
610.505
 20
423.480
 30
0.000000
  70
    32
  0
VERTEX
  8
0
  5
7BA8
 10
610.508
 20
423.481
 30
0.000000
  70
    32
  0
VERTEX
  8
0
  5
7BA9
 10
610.511
 20
423.483
 30
0.000000
  70
    32
  0
VERTEX
  8
0
  5
7BAA
 10
610.514
 20
423.485
 30
0.000000
  70
    32
  0
VERTEX
  8
0
  5
7BAB
 10
610.517
 20
423.487
 30
0.000000
  70
    32
  0
VERTEX
  8
0
  5
7BAC
 10
610.520
 20
423.488
 30
0.000000
  70
    32
  0
VERTEX
  8
0
  5
7BAD
 10
610.523
 20
423.490
 30
0.000000
  70
    32
  0
VERTEX
  8
0
  5
7BAE
 10
610.526
 20
423.492
 30
0.000000
  70
    32
  0
VERTEX
  8
0
  5
7BAF
 10
610.529
 20
423.494
 30
0.000000
  70
    32
  0
VERTEX
  8
0
  5
7BB0
 10
610.532
 20
423.496
 30
0.000000
  70
    32
  0
VERTEX
  8
0
  5
7BB1
 10
610.535
 20
423.498
 30
0.000000
  70
    32
  0
VERTEX
  8
0
  5
7BB2
 10
610.538
 20
423.500
 30
0.000000
  70
    32
  0
VERTEX
  8
0
  5
7BB3
 10
610.540
 20
423.502
 30
0.000000
  70
    32
  0
VERTEX
  8
0
  5
7BB4
 10
610.543
 20
423.504
 30
0.000000
  70
    32
  0
VERTEX
  8
0
  5
7BB5
 10
610.546
 20
423.506
 30
0.000000
  70
    32
  0
VERTEX
  8
0
  5
7BB6
 10
610.548
 20
423.508
 30
0.000000
  70
    32
  0
VERTEX
  8
0
  5
7BB7
 10
610.551
 20
423.510
 30
0.000000
  70
    32
  0
VERTEX
  8
0
  5
7BB8
 10
610.553
 20
423.512
 30
0.000000
  70
    32
  0
VERTEX
  8
0
  5
7BB9
 10
610.556
 20
423.514
 30
0.000000
  70
    32
  0
VERTEX
  8
0
  5
7BBA
 10
610.558
 20
423.516
 30
0.000000
  70
    32
  0
VERTEX
  8
0
  5
7BBB
 10
610.561
 20
423.518
 30
0.000000
  70
    32
  0
VERTEX
  8
0
  5
7BBC
 10
610.563
 20
423.520
 30
0.000000
  70
    32
  0
VERTEX
  8
0
  5
7BBD
 10
610.565
 20
423.522
 30
0.000000
  70
    32
  0
VERTEX
  8
0
  5
7BBE
 10
610.567
 20
423.524
 30
0.000000
  70
    32
  0
VERTEX
  8
0
  5
7BBF
 10
610.570
 20
423.526
 30
0.000000
  70
    32
  0
VERTEX
  8
0
  5
7BC0
 10
610.572
 20
423.529
 30
0.000000
  70
    32
  0
VERTEX
  8
0
  5
7BC1
 10
610.574
 20
423.531
 30
0.000000
  70
    32
  0
VERTEX
  8
0
  5
7BC2
 10
610.576
 20
423.533
 30
0.000000
  70
    32
  0
VERTEX
  8
0
  5
7BC3
 10
610.578
 20
423.535
 30
0.000000
  70
    32
  0
VERTEX
  8
0
  5
7BC4
 10
610.580
 20
423.537
 30
0.000000
  70
    32
  0
VERTEX
  8
0
  5
7BC5
 10
610.582
 20
423.540
 30
0.000000
  70
    32
  0
VERTEX
  8
0
  5
7BC6
 10
610.584
 20
423.542
 30
0.000000
  70
    32
  0
VERTEX
  8
0
  5
7BC7
 10
610.586
 20
423.544
 30
0.000000
  70
    32
  0
VERTEX
  8
0
  5
7BC8
 10
610.587
 20
423.546
 30
0.000000
  70
    32
  0
VERTEX
  8
0
  5
7BC9
 10
610.589
 20
423.549
 30
0.000000
  70
    32
  0
VERTEX
  8
0
  5
7BCA
 10
610.591
 20
423.551
 30
0.000000
  70
    32
  0
VERTEX
  8
0
  5
7BCB
 10
610.593
 20
423.553
 30
0.000000
  70
    32
  0
VERTEX
  8
0
  5
7BCC
 10
610.594
 20
423.556
 30
0.000000
  70
    32
  0
VERTEX
  8
0
  5
7BCD
 10
610.596
 20
423.558
 30
0.000000
  70
    32
  0
VERTEX
  8
0
  5
7BCE
 10
610.597
 20
423.560
 30
0.000000
  70
    32
  0
VERTEX
  8
0
  5
7BCF
 10
610.599
 20
423.563
 30
0.000000
  70
    32
  0
VERTEX
  8
0
  5
7BD0
 10
610.600
 20
423.565
 30
0.000000
  70
    32
  0
VERTEX
  8
0
  5
7BD1
 10
610.601
 20
423.568
 30
0.000000
  70
    32
  0
VERTEX
  8
0
  5
7BD2
 10
610.603
 20
423.570
 30
0.000000
  70
    32
  0
VERTEX
  8
0
  5
7BD3
 10
610.604
 20
423.572
 30
0.000000
  70
    32
  0
VERTEX
  8
0
  5
7BD4
 10
610.605
 20
423.575
 30
0.000000
  70
    32
  0
VERTEX
  8
0
  5
7BD5
 10
610.606
 20
423.577
 30
0.000000
  70
    32
  0
VERTEX
  8
0
  5
7BD6
 10
610.607
 20
423.580
 30
0.000000
  70
    32
  0
VERTEX
  8
0
  5
7BD7
 10
610.608
 20
423.582
 30
0.000000
  70
    32
  0
VERTEX
  8
0
  5
7BD8
 10
610.609
 20
423.584
 30
0.000000
  70
    32
  0
VERTEX
  8
0
  5
7BD9
 10
610.610
 20
423.587
 30
0.000000
  70
    32
  0
VERTEX
  8
0
  5
7BDA
 10
610.611
 20
423.589
 30
0.000000
  70
    32
  0
VERTEX
  8
0
  5
7BDB
 10
610.612
 20
423.592
 30
0.000000
  70
    32
  0
VERTEX
  8
0
  5
7BDC
 10
610.613
 20
423.594
 30
0.000000
  70
    32
  0
VERTEX
  8
0
  5
7BDD
 10
610.613
 20
423.597
 30
0.000000
  70
    32
  0
VERTEX
  8
0
  5
7BDE
 10
610.614
 20
423.599
 30
0.000000
  70
    32
  0
VERTEX
  8
0
  5
7BDF
 10
610.615
 20
423.602
 30
0.000000
  70
    32
  0
VERTEX
  8
0
  5
7BE0
 10
610.615
 20
423.604
 30
0.000000
  70
    32
  0
VERTEX
  8
0
  5
7BE1
 10
610.616
 20
423.607
 30
0.000000
  70
    32
  0
VERTEX
  8
0
  5
7BE2
 10
610.616
 20
423.609
 30
0.000000
  70
    32
  0
VERTEX
  8
0
  5
7BE3
 10
610.616
 20
423.612
 30
0.000000
  70
    32
  0
VERTEX
  8
0
  5
7BE4
 10
610.617
 20
423.614
 30
0.000000
  70
    32
  0
VERTEX
  8
0
  5
7BE5
 10
610.617
 20
423.617
 30
0.000000
  70
    32
  0
VERTEX
  8
0
  5
7BE6
 10
610.617
 20
423.619
 30
0.000000
  70
    32
  0
VERTEX
  8
0
  5
7BE7
 10
610.618
 20
423.622
 30
0.000000
  70
    32
  0
VERTEX
  8
0
  5
7BE8
 10
610.618
 20
423.624
 30
0.000000
  70
    32
  0
VERTEX
  8
0
  5
7BE9
 10
610.618
 20
423.627
 30
0.000000
  70
    32
  0
VERTEX
  8
0
  5
7BEA
 10
610.618
 20
423.629
 30
0.000000
  70
    32
  0
SEQEND
  8
0
  5
7BEB
  0
POLYLINE
  5
6F83
  8
0
  6
CONTINUOUS
 10
598.14081881854963
 20
423.48196246180038
 30
0.0
 66
     1
 70
     8
  0
VERTEX
  8
0
  5
7BEC
 10
598.141
 20
423.482
 30
0.000000
  70
    32
  0
VERTEX
  8
0
  5
7BED
 10
598.142
 20
423.481
 30
0.000000
  70
    32
  0
VERTEX
  8
0
  5
7BEE
 10
598.144
 20
423.480
 30
0.000000
  70
    32
  0
VERTEX
  8
0
  5
7BEF
 10
598.145
 20
423.479
 30
0.000000
  70
    32
  0
VERTEX
  8
0
  5
7BF0
 10
598.147
 20
423.479
 30
0.000000
  70
    32
  0
VERTEX
  8
0
  5
7BF1
 10
598.149
 20
423.478
 30
0.000000
  70
    32
  0
VERTEX
  8
0
  5
7BF2
 10
598.150
 20
423.477
 30
0.000000
  70
    32
  0
VERTEX
  8
0
  5
7BF3
 10
598.152
 20
423.476
 30
0.000000
  70
    32
  0
VERTEX
  8
0
  5
7BF4
 10
598.153
 20
423.475
 30
0.000000
  70
    32
  0
VERTEX
  8
0
  5
7BF5
 10
598.155
 20
423.475
 30
0.000000
  70
    32
  0
VERTEX
  8
0
  5
7BF6
 10
598.156
 20
423.474
 30
0.000000
  70
    32
  0
VERTEX
  8
0
  5
7BF7
 10
598.158
 20
423.473
 30
0.000000
  70
    32
  0
VERTEX
  8
0
  5
7BF8
 10
598.160
 20
423.472
 30
0.000000
  70
    32
  0
VERTEX
  8
0
  5
7BF9
 10
598.161
 20
423.471
 30
0.000000
  70
    32
  0
VERTEX
  8
0
  5
7BFA
 10
598.163
 20
423.471
 30
0.000000
  70
    32
  0
VERTEX
  8
0
  5
7BFB
 10
598.165
 20
423.470
 30
0.000000
  70
    32
  0
VERTEX
  8
0
  5
7BFC
 10
598.166
 20
423.469
 30
0.000000
  70
    32
  0
VERTEX
  8
0
  5
7BFD
 10
598.168
 20
423.468
 30
0.000000
  70
    32
  0
VERTEX
  8
0
  5
7BFE
 10
598.170
 20
423.468
 30
0.000000
  70
    32
  0
VERTEX
  8
0
  5
7BFF
 10
598.171
 20
423.467
 30
0.000000
  70
    32
  0
VERTEX
  8
0
  5
7C00
 10
598.173
 20
423.466
 30
0.000000
  70
    32
  0
VERTEX
  8
0
  5
7C01
 10
598.175
 20
423.465
 30
0.000000
  70
    32
  0
VERTEX
  8
0
  5
7C02
 10
598.176
 20
423.465
 30
0.000000
  70
    32
  0
VERTEX
  8
0
  5
7C03
 10
598.178
 20
423.464
 30
0.000000
  70
    32
  0
VERTEX
  8
0
  5
7C04
 10
598.180
 20
423.463
 30
0.000000
  70
    32
  0
VERTEX
  8
0
  5
7C05
 10
598.182
 20
423.463
 30
0.000000
  70
    32
  0
VERTEX
  8
0
  5
7C06
 10
598.183
 20
423.462
 30
0.000000
  70
    32
  0
VERTEX
  8
0
  5
7C07
 10
598.185
 20
423.461
 30
0.000000
  70
    32
  0
VERTEX
  8
0
  5
7C08
 10
598.187
 20
423.460
 30
0.000000
  70
    32
  0
VERTEX
  8
0
  5
7C09
 10
598.188
 20
423.460
 30
0.000000
  70
    32
  0
VERTEX
  8
0
  5
7C0A
 10
598.190
 20
423.459
 30
0.000000
  70
    32
  0
VERTEX
  8
0
  5
7C0B
 10
598.192
 20
423.458
 30
0.000000
  70
    32
  0
VERTEX
  8
0
  5
7C0C
 10
598.194
 20
423.458
 30
0.000000
  70
    32
  0
VERTEX
  8
0
  5
7C0D
 10
598.196
 20
423.457
 30
0.000000
  70
    32
  0
VERTEX
  8
0
  5
7C0E
 10
598.197
 20
423.456
 30
0.000000
  70
    32
  0
VERTEX
  8
0
  5
7C0F
 10
598.199
 20
423.456
 30
0.000000
  70
    32
  0
VERTEX
  8
0
  5
7C10
 10
598.201
 20
423.455
 30
0.000000
  70
    32
  0
VERTEX
  8
0
  5
7C11
 10
598.203
 20
423.455
 30
0.000000
  70
    32
  0
VERTEX
  8
0
  5
7C12
 10
598.205
 20
423.454
 30
0.000000
  70
    32
  0
VERTEX
  8
0
  5
7C13
 10
598.206
 20
423.453
 30
0.000000
  70
    32
  0
VERTEX
  8
0
  5
7C14
 10
598.208
 20
423.453
 30
0.000000
  70
    32
  0
VERTEX
  8
0
  5
7C15
 10
598.210
 20
423.452
 30
0.000000
  70
    32
  0
VERTEX
  8
0
  5
7C16
 10
598.212
 20
423.451
 30
0.000000
  70
    32
  0
VERTEX
  8
0
  5
7C17
 10
598.214
 20
423.451
 30
0.000000
  70
    32
  0
VERTEX
  8
0
  5
7C18
 10
598.216
 20
423.450
 30
0.000000
  70
    32
  0
VERTEX
  8
0
  5
7C19
 10
598.217
 20
423.450
 30
0.000000
  70
    32
  0
VERTEX
  8
0
  5
7C1A
 10
598.219
 20
423.449
 30
0.000000
  70
    32
  0
VERTEX
  8
0
  5
7C1B
 10
598.221
 20
423.449
 30
0.000000
  70
    32
  0
VERTEX
  8
0
  5
7C1C
 10
598.223
 20
423.448
 30
0.000000
  70
    32
  0
VERTEX
  8
0
  5
7C1D
 10
598.225
 20
423.447
 30
0.000000
  70
    32
  0
VERTEX
  8
0
  5
7C1E
 10
598.227
 20
423.447
 30
0.000000
  70
    32
  0
VERTEX
  8
0
  5
7C1F
 10
598.229
 20
423.446
 30
0.000000
  70
    32
  0
VERTEX
  8
0
  5
7C20
 10
598.231
 20
423.446
 30
0.000000
  70
    32
  0
VERTEX
  8
0
  5
7C21
 10
598.232
 20
423.445
 30
0.000000
  70
    32
  0
VERTEX
  8
0
  5
7C22
 10
598.234
 20
423.445
 30
0.000000
  70
    32
  0
VERTEX
  8
0
  5
7C23
 10
598.236
 20
423.444
 30
0.000000
  70
    32
  0
VERTEX
  8
0
  5
7C24
 10
598.238
 20
423.444
 30
0.000000
  70
    32
  0
VERTEX
  8
0
  5
7C25
 10
598.240
 20
423.443
 30
0.000000
  70
    32
  0
VERTEX
  8
0
  5
7C26
 10
598.242
 20
423.443
 30
0.000000
  70
    32
  0
VERTEX
  8
0
  5
7C27
 10
598.244
 20
423.442
 30
0.000000
  70
    32
  0
VERTEX
  8
0
  5
7C28
 10
598.246
 20
423.442
 30
0.000000
  70
    32
  0
VERTEX
  8
0
  5
7C29
 10
598.248
 20
423.441
 30
0.000000
  70
    32
  0
VERTEX
  8
0
  5
7C2A
 10
598.250
 20
423.441
 30
0.000000
  70
    32
  0
VERTEX
  8
0
  5
7C2B
 10
598.252
 20
423.440
 30
0.000000
  70
    32
  0
VERTEX
  8
0
  5
7C2C
 10
598.254
 20
423.440
 30
0.000000
  70
    32
  0
VERTEX
  8
0
  5
7C2D
 10
598.256
 20
423.439
 30
0.000000
  70
    32
  0
VERTEX
  8
0
  5
7C2E
 10
598.258
 20
423.439
 30
0.000000
  70
    32
  0
VERTEX
  8
0
  5
7C2F
 10
598.260
 20
423.439
 30
0.000000
  70
    32
  0
VERTEX
  8
0
  5
7C30
 10
598.262
 20
423.438
 30
0.000000
  70
    32
  0
VERTEX
  8
0
  5
7C31
 10
598.264
 20
423.438
 30
0.000000
  70
    32
  0
VERTEX
  8
0
  5
7C32
 10
598.266
 20
423.437
 30
0.000000
  70
    32
  0
VERTEX
  8
0
  5
7C33
 10
598.268
 20
423.437
 30
0.000000
  70
    32
  0
VERTEX
  8
0
  5
7C34
 10
598.270
 20
423.436
 30
0.000000
  70
    32
  0
VERTEX
  8
0
  5
7C35
 10
598.272
 20
423.436
 30
0.000000
  70
    32
  0
VERTEX
  8
0
  5
7C36
 10
598.274
 20
423.436
 30
0.000000
  70
    32
  0
VERTEX
  8
0
  5
7C37
 10
598.276
 20
423.435
 30
0.000000
  70
    32
  0
VERTEX
  8
0
  5
7C38
 10
598.278
 20
423.435
 30
0.000000
  70
    32
  0
VERTEX
  8
0
  5
7C39
 10
598.280
 20
423.434
 30
0.000000
  70
    32
  0
VERTEX
  8
0
  5
7C3A
 10
598.282
 20
423.434
 30
0.000000
  70
    32
  0
VERTEX
  8
0
  5
7C3B
 10
598.284
 20
423.434
 30
0.000000
  70
    32
  0
VERTEX
  8
0
  5
7C3C
 10
598.286
 20
423.433
 30
0.000000
  70
    32
  0
VERTEX
  8
0
  5
7C3D
 10
598.288
 20
423.433
 30
0.000000
  70
    32
  0
VERTEX
  8
0
  5
7C3E
 10
598.290
 20
423.433
 30
0.000000
  70
    32
  0
VERTEX
  8
0
  5
7C3F
 10
598.292
 20
423.432
 30
0.000000
  70
    32
  0
VERTEX
  8
0
  5
7C40
 10
598.294
 20
423.432
 30
0.000000
  70
    32
  0
VERTEX
  8
0
  5
7C41
 10
598.296
 20
423.432
 30
0.000000
  70
    32
  0
VERTEX
  8
0
  5
7C42
 10
598.298
 20
423.431
 30
0.000000
  70
    32
  0
VERTEX
  8
0
  5
7C43
 10
598.300
 20
423.431
 30
0.000000
  70
    32
  0
VERTEX
  8
0
  5
7C44
 10
598.302
 20
423.431
 30
0.000000
  70
    32
  0
VERTEX
  8
0
  5
7C45
 10
598.304
 20
423.431
 30
0.000000
  70
    32
  0
VERTEX
  8
0
  5
7C46
 10
598.306
 20
423.430
 30
0.000000
  70
    32
  0
VERTEX
  8
0
  5
7C47
 10
598.308
 20
423.430
 30
0.000000
  70
    32
  0
VERTEX
  8
0
  5
7C48
 10
598.310
 20
423.430
 30
0.000000
  70
    32
  0
VERTEX
  8
0
  5
7C49
 10
598.312
 20
423.430
 30
0.000000
  70
    32
  0
VERTEX
  8
0
  5
7C4A
 10
598.314
 20
423.429
 30
0.000000
  70
    32
  0
VERTEX
  8
0
  5
7C4B
 10
598.316
 20
423.429
 30
0.000000
  70
    32
  0
VERTEX
  8
0
  5
7C4C
 10
598.318
 20
423.429
 30
0.000000
  70
    32
  0
VERTEX
  8
0
  5
7C4D
 10
598.321
 20
423.429
 30
0.000000
  70
    32
  0
VERTEX
  8
0
  5
7C4E
 10
598.323
 20
423.428
 30
0.000000
  70
    32
  0
VERTEX
  8
0
  5
7C4F
 10
598.325
 20
423.428
 30
0.000000
  70
    32
  0
VERTEX
  8
0
  5
7C50
 10
598.327
 20
423.428
 30
0.000000
  70
    32
  0
VERTEX
  8
0
  5
7C51
 10
598.329
 20
423.428
 30
0.000000
  70
    32
  0
VERTEX
  8
0
  5
7C52
 10
598.331
 20
423.428
 30
0.000000
  70
    32
  0
VERTEX
  8
0
  5
7C53
 10
598.333
 20
423.427
 30
0.000000
  70
    32
  0
VERTEX
  8
0
  5
7C54
 10
598.335
 20
423.427
 30
0.000000
  70
    32
  0
VERTEX
  8
0
  5
7C55
 10
598.337
 20
423.427
 30
0.000000
  70
    32
  0
VERTEX
  8
0
  5
7C56
 10
598.339
 20
423.427
 30
0.000000
  70
    32
  0
VERTEX
  8
0
  5
7C57
 10
598.341
 20
423.427
 30
0.000000
  70
    32
  0
VERTEX
  8
0
  5
7C58
 10
598.344
 20
423.427
 30
0.000000
  70
    32
  0
VERTEX
  8
0
  5
7C59
 10
598.346
 20
423.426
 30
0.000000
  70
    32
  0
VERTEX
  8
0
  5
7C5A
 10
598.348
 20
423.426
 30
0.000000
  70
    32
  0
VERTEX
  8
0
  5
7C5B
 10
598.350
 20
423.426
 30
0.000000
  70
    32
  0
VERTEX
  8
0
  5
7C5C
 10
598.352
 20
423.426
 30
0.000000
  70
    32
  0
VERTEX
  8
0
  5
7C5D
 10
598.354
 20
423.426
 30
0.000000
  70
    32
  0
VERTEX
  8
0
  5
7C5E
 10
598.356
 20
423.426
 30
0.000000
  70
    32
  0
VERTEX
  8
0
  5
7C5F
 10
598.358
 20
423.426
 30
0.000000
  70
    32
  0
VERTEX
  8
0
  5
7C60
 10
598.360
 20
423.426
 30
0.000000
  70
    32
  0
VERTEX
  8
0
  5
7C61
 10
598.362
 20
423.426
 30
0.000000
  70
    32
  0
VERTEX
  8
0
  5
7C62
 10
598.365
 20
423.425
 30
0.000000
  70
    32
  0
VERTEX
  8
0
  5
7C63
 10
598.367
 20
423.425
 30
0.000000
  70
    32
  0
VERTEX
  8
0
  5
7C64
 10
598.369
 20
423.425
 30
0.000000
  70
    32
  0
VERTEX
  8
0
  5
7C65
 10
598.371
 20
423.425
 30
0.000000
  70
    32
  0
VERTEX
  8
0
  5
7C66
 10
598.373
 20
423.425
 30
0.000000
  70
    32
  0
VERTEX
  8
0
  5
7C67
 10
598.375
 20
423.425
 30
0.000000
  70
    32
  0
VERTEX
  8
0
  5
7C68
 10
598.377
 20
423.425
 30
0.000000
  70
    32
  0
VERTEX
  8
0
  5
7C69
 10
598.379
 20
423.425
 30
0.000000
  70
    32
  0
VERTEX
  8
0
  5
7C6A
 10
598.381
 20
423.425
 30
0.000000
  70
    32
  0
VERTEX
  8
0
  5
7C6B
 10
598.384
 20
423.425
 30
0.000000
  70
    32
  0
VERTEX
  8
0
  5
7C6C
 10
598.386
 20
423.425
 30
0.000000
  70
    32
  0
SEQEND
  8
0
  5
7C6D
  0
LINE
  5
6F84
  8
0
  6
CONTINUOUS
 10
391.69753684360001
 20
297.24921305039999
 30
0.0
 11
391.69753684360001
 21
304.10657333649999
 31
0.0
  0
LINE
  5
6F85
  8
0
  6
CONTINUOUS
 10
598.38566086759988
 20
423.42508756949991
 30
0.0
 11
391.69753684360001
 21
304.10657333649999
 31
0.0
  0
LINE
  5
6F86
  8
0
  6
CONTINUOUS
 10
610.26424435829995
 20
423.42508756949991
 30
0.0
 11
391.69753684360001
 21
297.24921305039999
 31
0.0
  0
LINE
  5
6F87
  8
0
  6
CONTINUOUS
 10
391.69753684360001
 20
311.47274251530001
 30
0.0
 11
391.69753684360001
 21
304.30479695330001
 31
0.0
  0
LINE
  5
6F88
  8
0
  6
CONTINUOUS
 10
591.80632708079997
 20
426.99308819949999
 30
0.0
 11
391.69753684360001
 21
311.47274251530001
 31
0.0
  0
LINE
  5
6F89
  8
0
  6
CONTINUOUS
 10
598.14080875119998
 20
423.48196106819989
 30
0.0
 11
391.69753684360001
 21
304.30479695330001
 31
0.0
  0
LINE
  5
6F8A
  8
0
  6
CONTINUOUS
 10
391.69753684360001
 20
297.24921305039999
 30
0.0
 11
391.69753684360001
 21
297.16468520000001
 31
0.0
  0
LINE
  5
6F8B
  8
0
  6
CONTINUOUS
 10
391.69753684360001
 20
304.30479695330001
 30
0.0
 11
391.69753684360001
 21
304.10657333649999
 31
0.0
  0
LINE
  5
6F8C
  8
0
  6
CONTINUOUS
 10
391.69753684360001
 20
311.76732862670002
 30
0.0
 11
391.69753684360001
 21
311.47274251530001
 31
0.0
  0
POLYLINE
  5
6F8D
  8
0
  6
CONTINUOUS
 10
185.0094078928
 20
423.4250878060285
 30
0.0
 66
     1
 70
     8
  0
VERTEX
  8
0
  5
7C6E
 10
185.009
 20
423.425
 30
0.000000
  70
    32
  0
VERTEX
  8
0
  5
7C6F
 10
185.012
 20
423.425
 30
0.000000
  70
    32
  0
VERTEX
  8
0
  5
7C70
 10
185.014
 20
423.425
 30
0.000000
  70
    32
  0
VERTEX
  8
0
  5
7C71
 10
185.016
 20
423.425
 30
0.000000
  70
    32
  0
VERTEX
  8
0
  5
7C72
 10
185.018
 20
423.425
 30
0.000000
  70
    32
  0
VERTEX
  8
0
  5
7C73
 10
185.020
 20
423.425
 30
0.000000
  70
    32
  0
VERTEX
  8
0
  5
7C74
 10
185.022
 20
423.425
 30
0.000000
  70
    32
  0
VERTEX
  8
0
  5
7C75
 10
185.024
 20
423.425
 30
0.000000
  70
    32
  0
VERTEX
  8
0
  5
7C76
 10
185.026
 20
423.425
 30
0.000000
  70
    32
  0
VERTEX
  8
0
  5
7C77
 10
185.028
 20
423.425
 30
0.000000
  70
    32
  0
VERTEX
  8
0
  5
7C78
 10
185.031
 20
423.425
 30
0.000000
  70
    32
  0
VERTEX
  8
0
  5
7C79
 10
185.033
 20
423.426
 30
0.000000
  70
    32
  0
VERTEX
  8
0
  5
7C7A
 10
185.035
 20
423.426
 30
0.000000
  70
    32
  0
VERTEX
  8
0
  5
7C7B
 10
185.037
 20
423.426
 30
0.000000
  70
    32
  0
VERTEX
  8
0
  5
7C7C
 10
185.039
 20
423.426
 30
0.000000
  70
    32
  0
VERTEX
  8
0
  5
7C7D
 10
185.041
 20
423.426
 30
0.000000
  70
    32
  0
VERTEX
  8
0
  5
7C7E
 10
185.043
 20
423.426
 30
0.000000
  70
    32
  0
VERTEX
  8
0
  5
7C7F
 10
185.045
 20
423.426
 30
0.000000
  70
    32
  0
VERTEX
  8
0
  5
7C80
 10
185.047
 20
423.426
 30
0.000000
  70
    32
  0
VERTEX
  8
0
  5
7C81
 10
185.049
 20
423.426
 30
0.000000
  70
    32
  0
VERTEX
  8
0
  5
7C82
 10
185.052
 20
423.427
 30
0.000000
  70
    32
  0
VERTEX
  8
0
  5
7C83
 10
185.054
 20
423.427
 30
0.000000
  70
    32
  0
VERTEX
  8
0
  5
7C84
 10
185.056
 20
423.427
 30
0.000000
  70
    32
  0
VERTEX
  8
0
  5
7C85
 10
185.058
 20
423.427
 30
0.000000
  70
    32
  0
VERTEX
  8
0
  5
7C86
 10
185.060
 20
423.427
 30
0.000000
  70
    32
  0
VERTEX
  8
0
  5
7C87
 10
185.062
 20
423.427
 30
0.000000
  70
    32
  0
VERTEX
  8
0
  5
7C88
 10
185.064
 20
423.428
 30
0.000000
  70
    32
  0
VERTEX
  8
0
  5
7C89
 10
185.066
 20
423.428
 30
0.000000
  70
    32
  0
VERTEX
  8
0
  5
7C8A
 10
185.068
 20
423.428
 30
0.000000
  70
    32
  0
VERTEX
  8
0
  5
7C8B
 10
185.070
 20
423.428
 30
0.000000
  70
    32
  0
VERTEX
  8
0
  5
7C8C
 10
185.072
 20
423.428
 30
0.000000
  70
    32
  0
VERTEX
  8
0
  5
7C8D
 10
185.075
 20
423.429
 30
0.000000
  70
    32
  0
VERTEX
  8
0
  5
7C8E
 10
185.077
 20
423.429
 30
0.000000
  70
    32
  0
VERTEX
  8
0
  5
7C8F
 10
185.079
 20
423.429
 30
0.000000
  70
    32
  0
VERTEX
  8
0
  5
7C90
 10
185.081
 20
423.429
 30
0.000000
  70
    32
  0
VERTEX
  8
0
  5
7C91
 10
185.083
 20
423.430
 30
0.000000
  70
    32
  0
VERTEX
  8
0
  5
7C92
 10
185.085
 20
423.430
 30
0.000000
  70
    32
  0
VERTEX
  8
0
  5
7C93
 10
185.087
 20
423.430
 30
0.000000
  70
    32
  0
VERTEX
  8
0
  5
7C94
 10
185.089
 20
423.430
 30
0.000000
  70
    32
  0
VERTEX
  8
0
  5
7C95
 10
185.091
 20
423.431
 30
0.000000
  70
    32
  0
VERTEX
  8
0
  5
7C96
 10
185.093
 20
423.431
 30
0.000000
  70
    32
  0
VERTEX
  8
0
  5
7C97
 10
185.095
 20
423.431
 30
0.000000
  70
    32
  0
VERTEX
  8
0
  5
7C98
 10
185.097
 20
423.431
 30
0.000000
  70
    32
  0
VERTEX
  8
0
  5
7C99
 10
185.099
 20
423.432
 30
0.000000
  70
    32
  0
VERTEX
  8
0
  5
7C9A
 10
185.101
 20
423.432
 30
0.000000
  70
    32
  0
VERTEX
  8
0
  5
7C9B
 10
185.103
 20
423.432
 30
0.000000
  70
    32
  0
VERTEX
  8
0
  5
7C9C
 10
185.105
 20
423.433
 30
0.000000
  70
    32
  0
VERTEX
  8
0
  5
7C9D
 10
185.107
 20
423.433
 30
0.000000
  70
    32
  0
VERTEX
  8
0
  5
7C9E
 10
185.109
 20
423.433
 30
0.000000
  70
    32
  0
VERTEX
  8
0
  5
7C9F
 10
185.111
 20
423.434
 30
0.000000
  70
    32
  0
VERTEX
  8
0
  5
7CA0
 10
185.113
 20
423.434
 30
0.000000
  70
    32
  0
VERTEX
  8
0
  5
7CA1
 10
185.116
 20
423.434
 30
0.000000
  70
    32
  0
VERTEX
  8
0
  5
7CA2
 10
185.118
 20
423.435
 30
0.000000
  70
    32
  0
VERTEX
  8
0
  5
7CA3
 10
185.120
 20
423.435
 30
0.000000
  70
    32
  0
VERTEX
  8
0
  5
7CA4
 10
185.122
 20
423.436
 30
0.000000
  70
    32
  0
VERTEX
  8
0
  5
7CA5
 10
185.124
 20
423.436
 30
0.000000
  70
    32
  0
VERTEX
  8
0
  5
7CA6
 10
185.126
 20
423.436
 30
0.000000
  70
    32
  0
VERTEX
  8
0
  5
7CA7
 10
185.128
 20
423.437
 30
0.000000
  70
    32
  0
VERTEX
  8
0
  5
7CA8
 10
185.130
 20
423.437
 30
0.000000
  70
    32
  0
VERTEX
  8
0
  5
7CA9
 10
185.132
 20
423.438
 30
0.000000
  70
    32
  0
VERTEX
  8
0
  5
7CAA
 10
185.133
 20
423.438
 30
0.000000
  70
    32
  0
VERTEX
  8
0
  5
7CAB
 10
185.135
 20
423.439
 30
0.000000
  70
    32
  0
VERTEX
  8
0
  5
7CAC
 10
185.137
 20
423.439
 30
0.000000
  70
    32
  0
VERTEX
  8
0
  5
7CAD
 10
185.139
 20
423.439
 30
0.000000
  70
    32
  0
VERTEX
  8
0
  5
7CAE
 10
185.141
 20
423.440
 30
0.000000
  70
    32
  0
VERTEX
  8
0
  5
7CAF
 10
185.143
 20
423.440
 30
0.000000
  70
    32
  0
VERTEX
  8
0
  5
7CB0
 10
185.145
 20
423.441
 30
0.000000
  70
    32
  0
VERTEX
  8
0
  5
7CB1
 10
185.147
 20
423.441
 30
0.000000
  70
    32
  0
VERTEX
  8
0
  5
7CB2
 10
185.149
 20
423.442
 30
0.000000
  70
    32
  0
VERTEX
  8
0
  5
7CB3
 10
185.151
 20
423.442
 30
0.000000
  70
    32
  0
VERTEX
  8
0
  5
7CB4
 10
185.153
 20
423.443
 30
0.000000
  70
    32
  0
VERTEX
  8
0
  5
7CB5
 10
185.155
 20
423.443
 30
0.000000
  70
    32
  0
VERTEX
  8
0
  5
7CB6
 10
185.157
 20
423.444
 30
0.000000
  70
    32
  0
VERTEX
  8
0
  5
7CB7
 10
185.159
 20
423.444
 30
0.000000
  70
    32
  0
VERTEX
  8
0
  5
7CB8
 10
185.161
 20
423.445
 30
0.000000
  70
    32
  0
VERTEX
  8
0
  5
7CB9
 10
185.163
 20
423.445
 30
0.000000
  70
    32
  0
VERTEX
  8
0
  5
7CBA
 10
185.165
 20
423.446
 30
0.000000
  70
    32
  0
VERTEX
  8
0
  5
7CBB
 10
185.166
 20
423.446
 30
0.000000
  70
    32
  0
VERTEX
  8
0
  5
7CBC
 10
185.168
 20
423.447
 30
0.000000
  70
    32
  0
VERTEX
  8
0
  5
7CBD
 10
185.170
 20
423.447
 30
0.000000
  70
    32
  0
VERTEX
  8
0
  5
7CBE
 10
185.172
 20
423.448
 30
0.000000
  70
    32
  0
VERTEX
  8
0
  5
7CBF
 10
185.174
 20
423.449
 30
0.000000
  70
    32
  0
VERTEX
  8
0
  5
7CC0
 10
185.176
 20
423.449
 30
0.000000
  70
    32
  0
VERTEX
  8
0
  5
7CC1
 10
185.178
 20
423.450
 30
0.000000
  70
    32
  0
VERTEX
  8
0
  5
7CC2
 10
185.180
 20
423.450
 30
0.000000
  70
    32
  0
VERTEX
  8
0
  5
7CC3
 10
185.181
 20
423.451
 30
0.000000
  70
    32
  0
VERTEX
  8
0
  5
7CC4
 10
185.183
 20
423.451
 30
0.000000
  70
    32
  0
VERTEX
  8
0
  5
7CC5
 10
185.185
 20
423.452
 30
0.000000
  70
    32
  0
VERTEX
  8
0
  5
7CC6
 10
185.187
 20
423.453
 30
0.000000
  70
    32
  0
VERTEX
  8
0
  5
7CC7
 10
185.189
 20
423.453
 30
0.000000
  70
    32
  0
VERTEX
  8
0
  5
7CC8
 10
185.191
 20
423.454
 30
0.000000
  70
    32
  0
VERTEX
  8
0
  5
7CC9
 10
185.192
 20
423.455
 30
0.000000
  70
    32
  0
VERTEX
  8
0
  5
7CCA
 10
185.194
 20
423.455
 30
0.000000
  70
    32
  0
VERTEX
  8
0
  5
7CCB
 10
185.196
 20
423.456
 30
0.000000
  70
    32
  0
VERTEX
  8
0
  5
7CCC
 10
185.198
 20
423.456
 30
0.000000
  70
    32
  0
VERTEX
  8
0
  5
7CCD
 10
185.200
 20
423.457
 30
0.000000
  70
    32
  0
VERTEX
  8
0
  5
7CCE
 10
185.201
 20
423.458
 30
0.000000
  70
    32
  0
VERTEX
  8
0
  5
7CCF
 10
185.203
 20
423.458
 30
0.000000
  70
    32
  0
VERTEX
  8
0
  5
7CD0
 10
185.205
 20
423.459
 30
0.000000
  70
    32
  0
VERTEX
  8
0
  5
7CD1
 10
185.207
 20
423.460
 30
0.000000
  70
    32
  0
VERTEX
  8
0
  5
7CD2
 10
185.208
 20
423.460
 30
0.000000
  70
    32
  0
VERTEX
  8
0
  5
7CD3
 10
185.210
 20
423.461
 30
0.000000
  70
    32
  0
VERTEX
  8
0
  5
7CD4
 10
185.212
 20
423.462
 30
0.000000
  70
    32
  0
VERTEX
  8
0
  5
7CD5
 10
185.214
 20
423.463
 30
0.000000
  70
    32
  0
VERTEX
  8
0
  5
7CD6
 10
185.215
 20
423.463
 30
0.000000
  70
    32
  0
VERTEX
  8
0
  5
7CD7
 10
185.217
 20
423.464
 30
0.000000
  70
    32
  0
VERTEX
  8
0
  5
7CD8
 10
185.219
 20
423.465
 30
0.000000
  70
    32
  0
VERTEX
  8
0
  5
7CD9
 10
185.220
 20
423.465
 30
0.000000
  70
    32
  0
VERTEX
  8
0
  5
7CDA
 10
185.222
 20
423.466
 30
0.000000
  70
    32
  0
VERTEX
  8
0
  5
7CDB
 10
185.224
 20
423.467
 30
0.000000
  70
    32
  0
VERTEX
  8
0
  5
7CDC
 10
185.225
 20
423.468
 30
0.000000
  70
    32
  0
VERTEX
  8
0
  5
7CDD
 10
185.227
 20
423.468
 30
0.000000
  70
    32
  0
VERTEX
  8
0
  5
7CDE
 10
185.229
 20
423.469
 30
0.000000
  70
    32
  0
VERTEX
  8
0
  5
7CDF
 10
185.230
 20
423.470
 30
0.000000
  70
    32
  0
VERTEX
  8
0
  5
7CE0
 10
185.232
 20
423.471
 30
0.000000
  70
    32
  0
VERTEX
  8
0
  5
7CE1
 10
185.234
 20
423.471
 30
0.000000
  70
    32
  0
VERTEX
  8
0
  5
7CE2
 10
185.235
 20
423.472
 30
0.000000
  70
    32
  0
VERTEX
  8
0
  5
7CE3
 10
185.237
 20
423.473
 30
0.000000
  70
    32
  0
VERTEX
  8
0
  5
7CE4
 10
185.239
 20
423.474
 30
0.000000
  70
    32
  0
VERTEX
  8
0
  5
7CE5
 10
185.240
 20
423.475
 30
0.000000
  70
    32
  0
VERTEX
  8
0
  5
7CE6
 10
185.242
 20
423.475
 30
0.000000
  70
    32
  0
VERTEX
  8
0
  5
7CE7
 10
185.243
 20
423.476
 30
0.000000
  70
    32
  0
VERTEX
  8
0
  5
7CE8
 10
185.245
 20
423.477
 30
0.000000
  70
    32
  0
VERTEX
  8
0
  5
7CE9
 10
185.247
 20
423.478
 30
0.000000
  70
    32
  0
VERTEX
  8
0
  5
7CEA
 10
185.248
 20
423.479
 30
0.000000
  70
    32
  0
VERTEX
  8
0
  5
7CEB
 10
185.250
 20
423.479
 30
0.000000
  70
    32
  0
VERTEX
  8
0
  5
7CEC
 10
185.251
 20
423.480
 30
0.000000
  70
    32
  0
VERTEX
  8
0
  5
7CED
 10
185.253
 20
423.481
 30
0.000000
  70
    32
  0
VERTEX
  8
0
  5
7CEE
 10
185.254
 20
423.482
 30
0.000000
  70
    32
  0
SEQEND
  8
0
  5
7CEF
  0
POLYLINE
  5
6F8E
  8
0
  6
CONTINUOUS
 10
172.77727738830671
 20
423.62922300900004
 30
0.0
 66
     1
 70
     8
  0
VERTEX
  8
0
  5
7CF0
 10
172.777
 20
423.629
 30
0.000000
  70
    32
  0
VERTEX
  8
0
  5
7CF1
 10
172.777
 20
423.627
 30
0.000000
  70
    32
  0
VERTEX
  8
0
  5
7CF2
 10
172.777
 20
423.624
 30
0.000000
  70
    32
  0
VERTEX
  8
0
  5
7CF3
 10
172.778
 20
423.622
 30
0.000000
  70
    32
  0
VERTEX
  8
0
  5
7CF4
 10
172.778
 20
423.619
 30
0.000000
  70
    32
  0
VERTEX
  8
0
  5
7CF5
 10
172.778
 20
423.617
 30
0.000000
  70
    32
  0
VERTEX
  8
0
  5
7CF6
 10
172.778
 20
423.614
 30
0.000000
  70
    32
  0
VERTEX
  8
0
  5
7CF7
 10
172.779
 20
423.612
 30
0.000000
  70
    32
  0
VERTEX
  8
0
  5
7CF8
 10
172.779
 20
423.609
 30
0.000000
  70
    32
  0
VERTEX
  8
0
  5
7CF9
 10
172.779
 20
423.607
 30
0.000000
  70
    32
  0
VERTEX
  8
0
  5
7CFA
 10
172.780
 20
423.604
 30
0.000000
  70
    32
  0
VERTEX
  8
0
  5
7CFB
 10
172.780
 20
423.602
 30
0.000000
  70
    32
  0
VERTEX
  8
0
  5
7CFC
 10
172.781
 20
423.599
 30
0.000000
  70
    32
  0
VERTEX
  8
0
  5
7CFD
 10
172.782
 20
423.597
 30
0.000000
  70
    32
  0
VERTEX
  8
0
  5
7CFE
 10
172.782
 20
423.594
 30
0.000000
  70
    32
  0
VERTEX
  8
0
  5
7CFF
 10
172.783
 20
423.592
 30
0.000000
  70
    32
  0
VERTEX
  8
0
  5
7D00
 10
172.784
 20
423.589
 30
0.000000
  70
    32
  0
VERTEX
  8
0
  5
7D01
 10
172.785
 20
423.587
 30
0.000000
  70
    32
  0
VERTEX
  8
0
  5
7D02
 10
172.786
 20
423.584
 30
0.000000
  70
    32
  0
VERTEX
  8
0
  5
7D03
 10
172.787
 20
423.582
 30
0.000000
  70
    32
  0
VERTEX
  8
0
  5
7D04
 10
172.788
 20
423.580
 30
0.000000
  70
    32
  0
VERTEX
  8
0
  5
7D05
 10
172.789
 20
423.577
 30
0.000000
  70
    32
  0
VERTEX
  8
0
  5
7D06
 10
172.790
 20
423.575
 30
0.000000
  70
    32
  0
VERTEX
  8
0
  5
7D07
 10
172.791
 20
423.572
 30
0.000000
  70
    32
  0
VERTEX
  8
0
  5
7D08
 10
172.793
 20
423.570
 30
0.000000
  70
    32
  0
VERTEX
  8
0
  5
7D09
 10
172.794
 20
423.568
 30
0.000000
  70
    32
  0
VERTEX
  8
0
  5
7D0A
 10
172.795
 20
423.565
 30
0.000000
  70
    32
  0
VERTEX
  8
0
  5
7D0B
 10
172.797
 20
423.563
 30
0.000000
  70
    32
  0
VERTEX
  8
0
  5
7D0C
 10
172.798
 20
423.560
 30
0.000000
  70
    32
  0
VERTEX
  8
0
  5
7D0D
 10
172.799
 20
423.558
 30
0.000000
  70
    32
  0
VERTEX
  8
0
  5
7D0E
 10
172.801
 20
423.556
 30
0.000000
  70
    32
  0
VERTEX
  8
0
  5
7D0F
 10
172.803
 20
423.553
 30
0.000000
  70
    32
  0
VERTEX
  8
0
  5
7D10
 10
172.804
 20
423.551
 30
0.000000
  70
    32
  0
VERTEX
  8
0
  5
7D11
 10
172.806
 20
423.549
 30
0.000000
  70
    32
  0
VERTEX
  8
0
  5
7D12
 10
172.808
 20
423.546
 30
0.000000
  70
    32
  0
VERTEX
  8
0
  5
7D13
 10
172.809
 20
423.544
 30
0.000000
  70
    32
  0
VERTEX
  8
0
  5
7D14
 10
172.811
 20
423.542
 30
0.000000
  70
    32
  0
VERTEX
  8
0
  5
7D15
 10
172.813
 20
423.540
 30
0.000000
  70
    32
  0
VERTEX
  8
0
  5
7D16
 10
172.815
 20
423.537
 30
0.000000
  70
    32
  0
VERTEX
  8
0
  5
7D17
 10
172.817
 20
423.535
 30
0.000000
  70
    32
  0
VERTEX
  8
0
  5
7D18
 10
172.819
 20
423.533
 30
0.000000
  70
    32
  0
VERTEX
  8
0
  5
7D19
 10
172.821
 20
423.531
 30
0.000000
  70
    32
  0
VERTEX
  8
0
  5
7D1A
 10
172.823
 20
423.529
 30
0.000000
  70
    32
  0
VERTEX
  8
0
  5
7D1B
 10
172.825
 20
423.526
 30
0.000000
  70
    32
  0
VERTEX
  8
0
  5
7D1C
 10
172.828
 20
423.524
 30
0.000000
  70
    32
  0
VERTEX
  8
0
  5
7D1D
 10
172.830
 20
423.522
 30
0.000000
  70
    32
  0
VERTEX
  8
0
  5
7D1E
 10
172.832
 20
423.520
 30
0.000000
  70
    32
  0
VERTEX
  8
0
  5
7D1F
 10
172.834
 20
423.518
 30
0.000000
  70
    32
  0
VERTEX
  8
0
  5
7D20
 10
172.837
 20
423.516
 30
0.000000
  70
    32
  0
VERTEX
  8
0
  5
7D21
 10
172.839
 20
423.514
 30
0.000000
  70
    32
  0
VERTEX
  8
0
  5
7D22
 10
172.842
 20
423.512
 30
0.000000
  70
    32
  0
VERTEX
  8
0
  5
7D23
 10
172.844
 20
423.510
 30
0.000000
  70
    32
  0
VERTEX
  8
0
  5
7D24
 10
172.847
 20
423.508
 30
0.000000
  70
    32
  0
VERTEX
  8
0
  5
7D25
 10
172.849
 20
423.506
 30
0.000000
  70
    32
  0
VERTEX
  8
0
  5
7D26
 10
172.852
 20
423.504
 30
0.000000
  70
    32
  0
VERTEX
  8
0
  5
7D27
 10
172.855
 20
423.502
 30
0.000000
  70
    32
  0
VERTEX
  8
0
  5
7D28
 10
172.858
 20
423.500
 30
0.000000
  70
    32
  0
VERTEX
  8
0
  5
7D29
 10
172.860
 20
423.498
 30
0.000000
  70
    32
  0
VERTEX
  8
0
  5
7D2A
 10
172.863
 20
423.496
 30
0.000000
  70
    32
  0
VERTEX
  8
0
  5
7D2B
 10
172.866
 20
423.494
 30
0.000000
  70
    32
  0
VERTEX
  8
0
  5
7D2C
 10
172.869
 20
423.492
 30
0.000000
  70
    32
  0
VERTEX
  8
0
  5
7D2D
 10
172.872
 20
423.490
 30
0.000000
  70
    32
  0
VERTEX
  8
0
  5
7D2E
 10
172.875
 20
423.488
 30
0.000000
  70
    32
  0
VERTEX
  8
0
  5
7D2F
 10
172.878
 20
423.487
 30
0.000000
  70
    32
  0
VERTEX
  8
0
  5
7D30
 10
172.881
 20
423.485
 30
0.000000
  70
    32
  0
VERTEX
  8
0
  5
7D31
 10
172.884
 20
423.483
 30
0.000000
  70
    32
  0
VERTEX
  8
0
  5
7D32
 10
172.887
 20
423.481
 30
0.000000
  70
    32
  0
VERTEX
  8
0
  5
7D33
 10
172.890
 20
423.480
 30
0.000000
  70
    32
  0
VERTEX
  8
0
  5
7D34
 10
172.893
 20
423.478
 30
0.000000
  70
    32
  0
VERTEX
  8
0
  5
7D35
 10
172.897
 20
423.476
 30
0.000000
  70
    32
  0
VERTEX
  8
0
  5
7D36
 10
172.900
 20
423.475
 30
0.000000
  70
    32
  0
VERTEX
  8
0
  5
7D37
 10
172.903
 20
423.473
 30
0.000000
  70
    32
  0
VERTEX
  8
0
  5
7D38
 10
172.907
 20
423.471
 30
0.000000
  70
    32
  0
VERTEX
  8
0
  5
7D39
 10
172.910
 20
423.470
 30
0.000000
  70
    32
  0
VERTEX
  8
0
  5
7D3A
 10
172.913
 20
423.468
 30
0.000000
  70
    32
  0
VERTEX
  8
0
  5
7D3B
 10
172.917
 20
423.467
 30
0.000000
  70
    32
  0
VERTEX
  8
0
  5
7D3C
 10
172.920
 20
423.465
 30
0.000000
  70
    32
  0
VERTEX
  8
0
  5
7D3D
 10
172.924
 20
423.464
 30
0.000000
  70
    32
  0
VERTEX
  8
0
  5
7D3E
 10
172.927
 20
423.462
 30
0.000000
  70
    32
  0
VERTEX
  8
0
  5
7D3F
 10
172.931
 20
423.461
 30
0.000000
  70
    32
  0
VERTEX
  8
0
  5
7D40
 10
172.934
 20
423.459
 30
0.000000
  70
    32
  0
VERTEX
  8
0
  5
7D41
 10
172.938
 20
423.458
 30
0.000000
  70
    32
  0
VERTEX
  8
0
  5
7D42
 10
172.942
 20
423.457
 30
0.000000
  70
    32
  0
VERTEX
  8
0
  5
7D43
 10
172.945
 20
423.455
 30
0.000000
  70
    32
  0
VERTEX
  8
0
  5
7D44
 10
172.949
 20
423.454
 30
0.000000
  70
    32
  0
VERTEX
  8
0
  5
7D45
 10
172.953
 20
423.453
 30
0.000000
  70
    32
  0
VERTEX
  8
0
  5
7D46
 10
172.957
 20
423.452
 30
0.000000
  70
    32
  0
VERTEX
  8
0
  5
7D47
 10
172.960
 20
423.450
 30
0.000000
  70
    32
  0
VERTEX
  8
0
  5
7D48
 10
172.964
 20
423.449
 30
0.000000
  70
    32
  0
VERTEX
  8
0
  5
7D49
 10
172.968
 20
423.448
 30
0.000000
  70
    32
  0
VERTEX
  8
0
  5
7D4A
 10
172.972
 20
423.447
 30
0.000000
  70
    32
  0
VERTEX
  8
0
  5
7D4B
 10
172.976
 20
423.446
 30
0.000000
  70
    32
  0
VERTEX
  8
0
  5
7D4C
 10
172.980
 20
423.445
 30
0.000000
  70
    32
  0
VERTEX
  8
0
  5
7D4D
 10
172.984
 20
423.444
 30
0.000000
  70
    32
  0
VERTEX
  8
0
  5
7D4E
 10
172.988
 20
423.443
 30
0.000000
  70
    32
  0
VERTEX
  8
0
  5
7D4F
 10
172.992
 20
423.442
 30
0.000000
  70
    32
  0
VERTEX
  8
0
  5
7D50
 10
172.996
 20
423.441
 30
0.000000
  70
    32
  0
VERTEX
  8
0
  5
7D51
 10
173.000
 20
423.440
 30
0.000000
  70
    32
  0
VERTEX
  8
0
  5
7D52
 10
173.004
 20
423.439
 30
0.000000
  70
    32
  0
VERTEX
  8
0
  5
7D53
 10
173.008
 20
423.438
 30
0.000000
  70
    32
  0
VERTEX
  8
0
  5
7D54
 10
173.012
 20
423.437
 30
0.000000
  70
    32
  0
VERTEX
  8
0
  5
7D55
 10
173.016
 20
423.436
 30
0.000000
  70
    32
  0
VERTEX
  8
0
  5
7D56
 10
173.020
 20
423.435
 30
0.000000
  70
    32
  0
VERTEX
  8
0
  5
7D57
 10
173.024
 20
423.435
 30
0.000000
  70
    32
  0
VERTEX
  8
0
  5
7D58
 10
173.028
 20
423.434
 30
0.000000
  70
    32
  0
VERTEX
  8
0
  5
7D59
 10
173.032
 20
423.433
 30
0.000000
  70
    32
  0
VERTEX
  8
0
  5
7D5A
 10
173.037
 20
423.432
 30
0.000000
  70
    32
  0
VERTEX
  8
0
  5
7D5B
 10
173.041
 20
423.432
 30
0.000000
  70
    32
  0
VERTEX
  8
0
  5
7D5C
 10
173.045
 20
423.431
 30
0.000000
  70
    32
  0
VERTEX
  8
0
  5
7D5D
 10
173.049
 20
423.431
 30
0.000000
  70
    32
  0
VERTEX
  8
0
  5
7D5E
 10
173.053
 20
423.430
 30
0.000000
  70
    32
  0
VERTEX
  8
0
  5
7D5F
 10
173.058
 20
423.430
 30
0.000000
  70
    32
  0
VERTEX
  8
0
  5
7D60
 10
173.062
 20
423.429
 30
0.000000
  70
    32
  0
VERTEX
  8
0
  5
7D61
 10
173.066
 20
423.429
 30
0.000000
  70
    32
  0
VERTEX
  8
0
  5
7D62
 10
173.070
 20
423.428
 30
0.000000
  70
    32
  0
VERTEX
  8
0
  5
7D63
 10
173.075
 20
423.428
 30
0.000000
  70
    32
  0
VERTEX
  8
0
  5
7D64
 10
173.079
 20
423.427
 30
0.000000
  70
    32
  0
VERTEX
  8
0
  5
7D65
 10
173.083
 20
423.427
 30
0.000000
  70
    32
  0
VERTEX
  8
0
  5
7D66
 10
173.088
 20
423.427
 30
0.000000
  70
    32
  0
VERTEX
  8
0
  5
7D67
 10
173.092
 20
423.426
 30
0.000000
  70
    32
  0
VERTEX
  8
0
  5
7D68
 10
173.096
 20
423.426
 30
0.000000
  70
    32
  0
VERTEX
  8
0
  5
7D69
 10
173.100
 20
423.426
 30
0.000000
  70
    32
  0
VERTEX
  8
0
  5
7D6A
 10
173.105
 20
423.426
 30
0.000000
  70
    32
  0
VERTEX
  8
0
  5
7D6B
 10
173.109
 20
423.425
 30
0.000000
  70
    32
  0
VERTEX
  8
0
  5
7D6C
 10
173.113
 20
423.425
 30
0.000000
  70
    32
  0
VERTEX
  8
0
  5
7D6D
 10
173.118
 20
423.425
 30
0.000000
  70
    32
  0
VERTEX
  8
0
  5
7D6E
 10
173.122
 20
423.425
 30
0.000000
  70
    32
  0
VERTEX
  8
0
  5
7D6F
 10
173.126
 20
423.425
 30
0.000000
  70
    32
  0
VERTEX
  8
0
  5
7D70
 10
173.131
 20
423.425
 30
0.000000
  70
    32
  0
SEQEND
  8
0
  5
7D71
  0
POLYLINE
  5
6F8F
  8
0
  6
CONTINUOUS
 10
172.81870687123643
 20
427.48388063066631
 30
0.0
 66
     1
 70
     8
  0
VERTEX
  8
0
  5
7D72
 10
172.819
 20
427.484
 30
0.000000
  70
    32
  0
VERTEX
  8
0
  5
7D73
 10
172.818
 20
427.484
 30
0.000000
  70
    32
  0
VERTEX
  8
0
  5
7D74
 10
172.817
 20
427.483
 30
0.000000
  70
    32
  0
VERTEX
  8
0
  5
7D75
 10
172.817
 20
427.483
 30
0.000000
  70
    32
  0
VERTEX
  8
0
  5
7D76
 10
172.816
 20
427.482
 30
0.000000
  70
    32
  0
VERTEX
  8
0
  5
7D77
 10
172.816
 20
427.482
 30
0.000000
  70
    32
  0
VERTEX
  8
0
  5
7D78
 10
172.815
 20
427.482
 30
0.000000
  70
    32
  0
VERTEX
  8
0
  5
7D79
 10
172.815
 20
427.481
 30
0.000000
  70
    32
  0
VERTEX
  8
0
  5
7D7A
 10
172.814
 20
427.481
 30
0.000000
  70
    32
  0
VERTEX
  8
0
  5
7D7B
 10
172.813
 20
427.481
 30
0.000000
  70
    32
  0
VERTEX
  8
0
  5
7D7C
 10
172.813
 20
427.480
 30
0.000000
  70
    32
  0
VERTEX
  8
0
  5
7D7D
 10
172.812
 20
427.480
 30
0.000000
  70
    32
  0
VERTEX
  8
0
  5
7D7E
 10
172.812
 20
427.479
 30
0.000000
  70
    32
  0
VERTEX
  8
0
  5
7D7F
 10
172.811
 20
427.479
 30
0.000000
  70
    32
  0
VERTEX
  8
0
  5
7D80
 10
172.810
 20
427.479
 30
0.000000
  70
    32
  0
VERTEX
  8
0
  5
7D81
 10
172.810
 20
427.478
 30
0.000000
  70
    32
  0
VERTEX
  8
0
  5
7D82
 10
172.809
 20
427.478
 30
0.000000
  70
    32
  0
VERTEX
  8
0
  5
7D83
 10
172.809
 20
427.478
 30
0.000000
  70
    32
  0
VERTEX
  8
0
  5
7D84
 10
172.808
 20
427.477
 30
0.000000
  70
    32
  0
VERTEX
  8
0
  5
7D85
 10
172.808
 20
427.477
 30
0.000000
  70
    32
  0
VERTEX
  8
0
  5
7D86
 10
172.807
 20
427.476
 30
0.000000
  70
    32
  0
VERTEX
  8
0
  5
7D87
 10
172.807
 20
427.476
 30
0.000000
  70
    32
  0
VERTEX
  8
0
  5
7D88
 10
172.806
 20
427.476
 30
0.000000
  70
    32
  0
VERTEX
  8
0
  5
7D89
 10
172.806
 20
427.475
 30
0.000000
  70
    32
  0
VERTEX
  8
0
  5
7D8A
 10
172.805
 20
427.475
 30
0.000000
  70
    32
  0
VERTEX
  8
0
  5
7D8B
 10
172.805
 20
427.474
 30
0.000000
  70
    32
  0
VERTEX
  8
0
  5
7D8C
 10
172.804
 20
427.474
 30
0.000000
  70
    32
  0
VERTEX
  8
0
  5
7D8D
 10
172.804
 20
427.474
 30
0.000000
  70
    32
  0
VERTEX
  8
0
  5
7D8E
 10
172.803
 20
427.473
 30
0.000000
  70
    32
  0
VERTEX
  8
0
  5
7D8F
 10
172.803
 20
427.473
 30
0.000000
  70
    32
  0
VERTEX
  8
0
  5
7D90
 10
172.802
 20
427.472
 30
0.000000
  70
    32
  0
VERTEX
  8
0
  5
7D91
 10
172.802
 20
427.472
 30
0.000000
  70
    32
  0
VERTEX
  8
0
  5
7D92
 10
172.801
 20
427.472
 30
0.000000
  70
    32
  0
VERTEX
  8
0
  5
7D93
 10
172.801
 20
427.471
 30
0.000000
  70
    32
  0
VERTEX
  8
0
  5
7D94
 10
172.800
 20
427.471
 30
0.000000
  70
    32
  0
VERTEX
  8
0
  5
7D95
 10
172.800
 20
427.470
 30
0.000000
  70
    32
  0
VERTEX
  8
0
  5
7D96
 10
172.799
 20
427.470
 30
0.000000
  70
    32
  0
VERTEX
  8
0
  5
7D97
 10
172.799
 20
427.469
 30
0.000000
  70
    32
  0
VERTEX
  8
0
  5
7D98
 10
172.798
 20
427.469
 30
0.000000
  70
    32
  0
VERTEX
  8
0
  5
7D99
 10
172.798
 20
427.469
 30
0.000000
  70
    32
  0
VERTEX
  8
0
  5
7D9A
 10
172.797
 20
427.468
 30
0.000000
  70
    32
  0
VERTEX
  8
0
  5
7D9B
 10
172.797
 20
427.468
 30
0.000000
  70
    32
  0
VERTEX
  8
0
  5
7D9C
 10
172.797
 20
427.467
 30
0.000000
  70
    32
  0
VERTEX
  8
0
  5
7D9D
 10
172.796
 20
427.467
 30
0.000000
  70
    32
  0
VERTEX
  8
0
  5
7D9E
 10
172.796
 20
427.466
 30
0.000000
  70
    32
  0
VERTEX
  8
0
  5
7D9F
 10
172.795
 20
427.466
 30
0.000000
  70
    32
  0
VERTEX
  8
0
  5
7DA0
 10
172.795
 20
427.466
 30
0.000000
  70
    32
  0
VERTEX
  8
0
  5
7DA1
 10
172.794
 20
427.465
 30
0.000000
  70
    32
  0
VERTEX
  8
0
  5
7DA2
 10
172.794
 20
427.465
 30
0.000000
  70
    32
  0
VERTEX
  8
0
  5
7DA3
 10
172.794
 20
427.464
 30
0.000000
  70
    32
  0
VERTEX
  8
0
  5
7DA4
 10
172.793
 20
427.464
 30
0.000000
  70
    32
  0
VERTEX
  8
0
  5
7DA5
 10
172.793
 20
427.463
 30
0.000000
  70
    32
  0
VERTEX
  8
0
  5
7DA6
 10
172.792
 20
427.463
 30
0.000000
  70
    32
  0
VERTEX
  8
0
  5
7DA7
 10
172.792
 20
427.462
 30
0.000000
  70
    32
  0
VERTEX
  8
0
  5
7DA8
 10
172.792
 20
427.462
 30
0.000000
  70
    32
  0
VERTEX
  8
0
  5
7DA9
 10
172.791
 20
427.462
 30
0.000000
  70
    32
  0
VERTEX
  8
0
  5
7DAA
 10
172.791
 20
427.461
 30
0.000000
  70
    32
  0
VERTEX
  8
0
  5
7DAB
 10
172.790
 20
427.461
 30
0.000000
  70
    32
  0
VERTEX
  8
0
  5
7DAC
 10
172.790
 20
427.460
 30
0.000000
  70
    32
  0
VERTEX
  8
0
  5
7DAD
 10
172.790
 20
427.460
 30
0.000000
  70
    32
  0
VERTEX
  8
0
  5
7DAE
 10
172.789
 20
427.459
 30
0.000000
  70
    32
  0
VERTEX
  8
0
  5
7DAF
 10
172.789
 20
427.459
 30
0.000000
  70
    32
  0
VERTEX
  8
0
  5
7DB0
 10
172.789
 20
427.458
 30
0.000000
  70
    32
  0
VERTEX
  8
0
  5
7DB1
 10
172.788
 20
427.458
 30
0.000000
  70
    32
  0
VERTEX
  8
0
  5
7DB2
 10
172.788
 20
427.457
 30
0.000000
  70
    32
  0
VERTEX
  8
0
  5
7DB3
 10
172.788
 20
427.457
 30
0.000000
  70
    32
  0
VERTEX
  8
0
  5
7DB4
 10
172.787
 20
427.456
 30
0.000000
  70
    32
  0
VERTEX
  8
0
  5
7DB5
 10
172.787
 20
427.456
 30
0.000000
  70
    32
  0
VERTEX
  8
0
  5
7DB6
 10
172.787
 20
427.456
 30
0.000000
  70
    32
  0
VERTEX
  8
0
  5
7DB7
 10
172.786
 20
427.455
 30
0.000000
  70
    32
  0
VERTEX
  8
0
  5
7DB8
 10
172.786
 20
427.455
 30
0.000000
  70
    32
  0
VERTEX
  8
0
  5
7DB9
 10
172.786
 20
427.454
 30
0.000000
  70
    32
  0
VERTEX
  8
0
  5
7DBA
 10
172.786
 20
427.454
 30
0.000000
  70
    32
  0
VERTEX
  8
0
  5
7DBB
 10
172.785
 20
427.453
 30
0.000000
  70
    32
  0
VERTEX
  8
0
  5
7DBC
 10
172.785
 20
427.453
 30
0.000000
  70
    32
  0
VERTEX
  8
0
  5
7DBD
 10
172.785
 20
427.452
 30
0.000000
  70
    32
  0
VERTEX
  8
0
  5
7DBE
 10
172.784
 20
427.452
 30
0.000000
  70
    32
  0
VERTEX
  8
0
  5
7DBF
 10
172.784
 20
427.451
 30
0.000000
  70
    32
  0
VERTEX
  8
0
  5
7DC0
 10
172.784
 20
427.451
 30
0.000000
  70
    32
  0
VERTEX
  8
0
  5
7DC1
 10
172.784
 20
427.450
 30
0.000000
  70
    32
  0
VERTEX
  8
0
  5
7DC2
 10
172.783
 20
427.450
 30
0.000000
  70
    32
  0
VERTEX
  8
0
  5
7DC3
 10
172.783
 20
427.449
 30
0.000000
  70
    32
  0
VERTEX
  8
0
  5
7DC4
 10
172.783
 20
427.449
 30
0.000000
  70
    32
  0
VERTEX
  8
0
  5
7DC5
 10
172.783
 20
427.448
 30
0.000000
  70
    32
  0
VERTEX
  8
0
  5
7DC6
 10
172.782
 20
427.448
 30
0.000000
  70
    32
  0
VERTEX
  8
0
  5
7DC7
 10
172.782
 20
427.447
 30
0.000000
  70
    32
  0
VERTEX
  8
0
  5
7DC8
 10
172.782
 20
427.447
 30
0.000000
  70
    32
  0
VERTEX
  8
0
  5
7DC9
 10
172.782
 20
427.446
 30
0.000000
  70
    32
  0
VERTEX
  8
0
  5
7DCA
 10
172.782
 20
427.446
 30
0.000000
  70
    32
  0
VERTEX
  8
0
  5
7DCB
 10
172.781
 20
427.445
 30
0.000000
  70
    32
  0
VERTEX
  8
0
  5
7DCC
 10
172.781
 20
427.445
 30
0.000000
  70
    32
  0
VERTEX
  8
0
  5
7DCD
 10
172.781
 20
427.445
 30
0.000000
  70
    32
  0
VERTEX
  8
0
  5
7DCE
 10
172.781
 20
427.444
 30
0.000000
  70
    32
  0
VERTEX
  8
0
  5
7DCF
 10
172.781
 20
427.444
 30
0.000000
  70
    32
  0
VERTEX
  8
0
  5
7DD0
 10
172.780
 20
427.443
 30
0.000000
  70
    32
  0
VERTEX
  8
0
  5
7DD1
 10
172.780
 20
427.443
 30
0.000000
  70
    32
  0
VERTEX
  8
0
  5
7DD2
 10
172.780
 20
427.442
 30
0.000000
  70
    32
  0
VERTEX
  8
0
  5
7DD3
 10
172.780
 20
427.442
 30
0.000000
  70
    32
  0
VERTEX
  8
0
  5
7DD4
 10
172.780
 20
427.441
 30
0.000000
  70
    32
  0
VERTEX
  8
0
  5
7DD5
 10
172.780
 20
427.441
 30
0.000000
  70
    32
  0
VERTEX
  8
0
  5
7DD6
 10
172.779
 20
427.440
 30
0.000000
  70
    32
  0
VERTEX
  8
0
  5
7DD7
 10
172.779
 20
427.440
 30
0.000000
  70
    32
  0
VERTEX
  8
0
  5
7DD8
 10
172.779
 20
427.439
 30
0.000000
  70
    32
  0
VERTEX
  8
0
  5
7DD9
 10
172.779
 20
427.439
 30
0.000000
  70
    32
  0
VERTEX
  8
0
  5
7DDA
 10
172.779
 20
427.438
 30
0.000000
  70
    32
  0
VERTEX
  8
0
  5
7DDB
 10
172.779
 20
427.438
 30
0.000000
  70
    32
  0
VERTEX
  8
0
  5
7DDC
 10
172.779
 20
427.437
 30
0.000000
  70
    32
  0
VERTEX
  8
0
  5
7DDD
 10
172.778
 20
427.437
 30
0.000000
  70
    32
  0
VERTEX
  8
0
  5
7DDE
 10
172.778
 20
427.436
 30
0.000000
  70
    32
  0
VERTEX
  8
0
  5
7DDF
 10
172.778
 20
427.436
 30
0.000000
  70
    32
  0
VERTEX
  8
0
  5
7DE0
 10
172.778
 20
427.435
 30
0.000000
  70
    32
  0
VERTEX
  8
0
  5
7DE1
 10
172.778
 20
427.435
 30
0.000000
  70
    32
  0
VERTEX
  8
0
  5
7DE2
 10
172.778
 20
427.434
 30
0.000000
  70
    32
  0
VERTEX
  8
0
  5
7DE3
 10
172.778
 20
427.434
 30
0.000000
  70
    32
  0
VERTEX
  8
0
  5
7DE4
 10
172.778
 20
427.433
 30
0.000000
  70
    32
  0
VERTEX
  8
0
  5
7DE5
 10
172.778
 20
427.433
 30
0.000000
  70
    32
  0
VERTEX
  8
0
  5
7DE6
 10
172.778
 20
427.432
 30
0.000000
  70
    32
  0
VERTEX
  8
0
  5
7DE7
 10
172.778
 20
427.432
 30
0.000000
  70
    32
  0
VERTEX
  8
0
  5
7DE8
 10
172.778
 20
427.431
 30
0.000000
  70
    32
  0
VERTEX
  8
0
  5
7DE9
 10
172.777
 20
427.431
 30
0.000000
  70
    32
  0
VERTEX
  8
0
  5
7DEA
 10
172.777
 20
427.430
 30
0.000000
  70
    32
  0
VERTEX
  8
0
  5
7DEB
 10
172.777
 20
427.430
 30
0.000000
  70
    32
  0
VERTEX
  8
0
  5
7DEC
 10
172.777
 20
427.429
 30
0.000000
  70
    32
  0
VERTEX
  8
0
  5
7DED
 10
172.777
 20
427.429
 30
0.000000
  70
    32
  0
VERTEX
  8
0
  5
7DEE
 10
172.777
 20
427.428
 30
0.000000
  70
    32
  0
VERTEX
  8
0
  5
7DEF
 10
172.777
 20
427.428
 30
0.000000
  70
    32
  0
VERTEX
  8
0
  5
7DF0
 10
172.777
 20
427.427
 30
0.000000
  70
    32
  0
VERTEX
  8
0
  5
7DF1
 10
172.777
 20
427.427
 30
0.000000
  70
    32
  0
VERTEX
  8
0
  5
7DF2
 10
172.777
 20
427.426
 30
0.000000
  70
    32
  0
SEQEND
  8
0
  5
7DF3
  0
LINE
  5
6F90
  8
0
  6
CONTINUOUS
 10
391.69753684360001
 20
304.10657333649999
 30
0.0
 11
185.00941281959999
 21
423.42508756949991
 31
0.0
  0
LINE
  5
6F91
  8
0
  6
CONTINUOUS
 10
391.69753684360001
 20
297.24921305039999
 30
0.0
 11
173.13082932899999
 21
423.42508756949991
 31
0.0
  0
LINE
  5
6F92
  8
0
  6
CONTINUOUS
 10
391.69753684360001
 20
311.47274251530001
 30
0.0
 11
191.58874660640001
 21
426.99308819949999
 31
0.0
  0
LINE
  5
6F93
  8
0
  6
CONTINUOUS
 10
391.69753684360001
 20
304.30479695330001
 30
0.0
 11
185.25426493609999
 21
423.48196106819989
 31
0.0
  0
LINE
  5
6F94
  8
0
  6
CONTINUOUS
 10
391.69753684360001
 20
297.16468520000001
 30
0.0
 11
391.69753684360001
 21
297.24921305039999
 31
0.0
  0
LINE
  5
6F95
  8
0
  6
CONTINUOUS
 10
391.69753684360001
 20
304.10657333649999
 30
0.0
 11
391.69753684360001
 21
304.30479695330001
 31
0.0
  0
LINE
  5
6F96
  8
0
  6
CONTINUOUS
 10
391.69753684360001
 20
311.47274251530001
 30
0.0
 11
391.69753684360001
 21
311.76732862670002
 31
0.0
  0
POLYLINE
  5
6F97
  8
0
  6
CONTINUOUS
 66
     1
 10
0.0
 20
0.0
 30
0.0
 70
   128
  0
VERTEX
  5
70D1
  8
0
  6
CONTINUOUS
 10
596.75849748719986
 20
435.95851207330003
 30
0.0
  0
VERTEX
  5
70D2
  8
0
  6
CONTINUOUS
 10
596.82673323489985
 20
436.36595776299998
 30
0.0
  0
VERTEX
  5
70D3
  8
0
  6
CONTINUOUS
 10
597.02319023250004
 20
436.6454888955999
 30
0.0
  0
VERTEX
  5
70D4
  8
0
  6
CONTINUOUS
 10
597.32418195119999
 20
436.76338280300001
 30
0.0
  0
VERTEX
  5
70D5
  8
0
  6
CONTINUOUS
 10
597.4693989177
 20
436.76100705480002
 30
0.0
  0
SEQEND
  5
70D6
  8
0
  6
CONTINUOUS
  0
POLYLINE
  5
6F98
  8
0
  6
CONTINUOUS
 66
     1
 10
0.0
 20
0.0
 30
0.0
 70
   128
  0
VERTEX
  5
70D7
  8
0
  6
CONTINUOUS
 10
596.84383431870003
 20
435.41150087189999
 30
0.0
  0
VERTEX
  5
70D8
  8
0
  6
CONTINUOUS
 10
596.82673323489985
 20
435.47228306620002
 30
0.0
  0
VERTEX
  5
70D9
  8
0
  6
CONTINUOUS
 10
596.75849748719986
 20
435.95851207330003
 30
0.0
  0
SEQEND
  5
70DA
  8
0
  6
CONTINUOUS
  0
POLYLINE
  5
6F99
  8
0
  6
CONTINUOUS
 66
     1
 10
0.0
 20
0.0
 30
0.0
 70
   128
  0
VERTEX
  5
70DB
  8
0
  6
CONTINUOUS
 10
597.61753455350004
 20
435.8299843172
 30
0.0
  0
VERTEX
  5
70DC
  8
0
  6
CONTINUOUS
 10
597.6624841675
 20
436.06500046589991
 30
0.0
  0
VERTEX
  5
70DD
  8
0
  6
CONTINUOUS
 10
597.79049468309995
 20
436.21233543260001
 30
0.0
  0
VERTEX
  5
70DE
  8
0
  6
CONTINUOUS
 10
597.98208371969986
 20
436.24955829639993
 30
0.0
  0
VERTEX
  5
70DF
  8
0
  6
CONTINUOUS
 10
598.20807512140004
 20
436.17100543409998
 30
0.0
  0
VERTEX
  5
70E0
  8
0
  6
CONTINUOUS
 10
598.43405598640004
 20
435.98864026069992
 30
0.0
  0
VERTEX
  5
70E1
  8
0
  6
CONTINUOUS
 10
598.62564502309999
 20
435.73021340359998
 30
0.0
  0
VERTEX
  5
70E2
  8
0
  6
CONTINUOUS
 10
598.75365553869995
 20
435.43508064149989
 30
0.0
  0
VERTEX
  5
70E3
  8
0
  6
CONTINUOUS
 10
598.79860515259986
 20
435.14816677319999
 30
0.0
  0
VERTEX
  5
70E4
  8
0
  6
CONTINUOUS
 10
598.75365553869995
 20
434.91315214539998
 30
0.0
  0
VERTEX
  5
70E5
  8
0
  6
CONTINUOUS
 10
598.62564502309999
 20
434.76581717879992
 30
0.0
  0
VERTEX
  5
70E6
  8
0
  6
CONTINUOUS
 10
598.43405598640004
 20
434.72859431490002
 30
0.0
  0
VERTEX
  5
70E7
  8
0
  6
CONTINUOUS
 10
598.20807512140004
 20
434.80714109449991
 30
0.0
  0
VERTEX
  5
70E8
  8
0
  6
CONTINUOUS
 10
597.98208371969986
 20
434.98951235070001
 30
0.0
  0
VERTEX
  5
70E9
  8
0
  6
CONTINUOUS
 10
597.79049468309995
 20
435.24793920780002
 30
0.0
  0
VERTEX
  5
70EA
  8
0
  6
CONTINUOUS
 10
597.6624841675
 20
435.5430719698
 30
0.0
  0
VERTEX
  5
70EB
  8
0
  6
CONTINUOUS
 10
597.61753455350004
 20
435.8299843172
 30
0.0
  0
SEQEND
  5
70EC
  8
0
  6
CONTINUOUS
  0
ARC
  5
6F9A
  8
0
  6
CONTINUOUS
 10
597.47814754770002
 20
436.03775838460001
 30
0.0
 40
0.7615490695283274
 50
123.7919881623
 51
187.51910205409999
  0
POLYLINE
  5
6F9B
  8
0
  6
CONTINUOUS
 66
     1
 10
0.0
 20
0.0
 30
0.0
 70
   128
  0
VERTEX
  5
70ED
  8
0
  6
CONTINUOUS
 10
596.79460679960005
 20
435.43992442699988
 30
0.0
  0
VERTEX
  5
70EE
  8
0
  6
CONTINUOUS
 10
596.79138256569991
 20
435.4518755592
 30
0.0
  0
VERTEX
  5
70EF
  8
0
  6
CONTINUOUS
 10
596.72314681800003
 20
435.9381045662999
 30
0.0
  0
SEQEND
  5
70F0
  8
0
  6
CONTINUOUS
  0
POLYLINE
  5
6F9C
  8
0
  6
CONTINUOUS
 66
     1
 10
0.0
 20
0.0
 30
0.0
 70
   128
  0
VERTEX
  5
70F1
  8
0
  6
CONTINUOUS
 10
598.4732314821
 20
435.33600099509999
 30
0.0
  0
VERTEX
  5
70F2
  8
0
  6
CONTINUOUS
 10
598.4530536783999
 20
435.46482912009998
 30
0.0
  0
VERTEX
  5
70F3
  8
0
  6
CONTINUOUS
 10
598.39556537700003
 20
435.59735567759998
 30
0.0
  0
VERTEX
  5
70F4
  8
0
  6
CONTINUOUS
 10
598.30954365920002
 20
435.71339120120001
 30
0.0
  0
VERTEX
  5
70F5
  8
0
  6
CONTINUOUS
 10
598.20807512140004
 20
435.79527592889991
 30
0.0
  0
VERTEX
  5
70F6
  8
0
  6
CONTINUOUS
 10
598.10659604689999
 20
435.83055036399998
 30
0.0
  0
VERTEX
  5
70F7
  8
0
  6
CONTINUOUS
 10
598.02057432909999
 20
435.81383340169998
 30
0.0
  0
VERTEX
  5
70F8
  8
0
  6
CONTINUOUS
 10
597.96308602779993
 20
435.74768142409999
 30
0.0
  0
VERTEX
  5
70F9
  8
0
  6
CONTINUOUS
 10
597.94290822400001
 20
435.64215009539998
 30
0.0
  0
VERTEX
  5
70FA
  8
0
  6
CONTINUOUS
 10
597.96308602779993
 20
435.5133234912999
 30
0.0
  0
VERTEX
  5
70FB
  8
0
  6
CONTINUOUS
 10
598.02057432909999
 20
435.3807969337999
 30
0.0
  0
VERTEX
  5
70FC
  8
0
  6
CONTINUOUS
 10
598.10659604689999
 20
435.26476141019992
 30
0.0
  0
VERTEX
  5
70FD
  8
0
  6
CONTINUOUS
 10
598.20807512140004
 20
435.18287059980003
 30
0.0
  0
VERTEX
  5
70FE
  8
0
  6
CONTINUOUS
 10
598.30954365920002
 20
435.1476022473999
 30
0.0
  0
VERTEX
  5
70FF
  8
0
  6
CONTINUOUS
 10
598.39556537700003
 20
435.1643192096999
 30
0.0
  0
VERTEX
  5
7100
  8
0
  6
CONTINUOUS
 10
598.4530536783999
 20
435.23047118720001
 30
0.0
  0
VERTEX
  5
7101
  8
0
  6
CONTINUOUS
 10
598.4732314821
 20
435.33600099509999
 30
0.0
  0
SEQEND
  5
7102
  8
0
  6
CONTINUOUS
  0
POLYLINE
  5
6F9D
  8
0
  6
CONTINUOUS
 66
     1
 10
0.0
 20
0.0
 30
0.0
 70
   128
  0
VERTEX
  5
7103
  8
0
  6
CONTINUOUS
 10
598.09383608860003
 20
435.27869892609999
 30
0.0
  0
VERTEX
  5
7104
  8
0
  6
CONTINUOUS
 10
598.0420165383
 20
435.39325627730011
 30
0.0
  0
VERTEX
  5
7105
  8
0
  6
CONTINUOUS
 10
597.96876531559985
 20
435.49535219360001
 30
0.0
  0
SEQEND
  5
7106
  8
0
  6
CONTINUOUS
  0
POLYLINE
  5
6F9E
  8
0
  6
CONTINUOUS
 66
     1
 10
0.0
 20
0.0
 30
0.0
 70
   128
  0
VERTEX
  5
7107
  8
0
  6
CONTINUOUS
 10
394.52595916360002
 20
552.70487143129992
 30
0.0
  0
VERTEX
  5
7108
  8
0
  6
CONTINUOUS
 10
394.5941949114
 20
553.11231712099993
 30
0.0
  0
VERTEX
  5
7109
  8
0
  6
CONTINUOUS
 10
394.79065190900002
 20
553.39184825359985
 30
0.0
  0
VERTEX
  5
710A
  8
0
  6
CONTINUOUS
 10
395.09164362760009
 20
553.50974216099985
 30
0.0
  0
VERTEX
  5
710B
  8
0
  6
CONTINUOUS
 10
395.23686059419998
 20
553.50736641280002
 30
0.0
  0
SEQEND
  5
710C
  8
0
  6
CONTINUOUS
  0
POLYLINE
  5
6F9F
  8
0
  6
CONTINUOUS
 66
     1
 10
0.0
 20
0.0
 30
0.0
 70
   128
  0
VERTEX
  5
710D
  8
0
  6
CONTINUOUS
 10
394.61128545849999
 20
552.15786631269998
 30
0.0
  0
VERTEX
  5
710E
  8
0
  6
CONTINUOUS
 10
394.5941949114
 20
552.21864242419997
 30
0.0
  0
VERTEX
  5
710F
  8
0
  6
CONTINUOUS
 10
394.52595916360002
 20
552.70487143129992
 30
0.0
  0
SEQEND
  5
7110
  8
0
  6
CONTINUOUS
  0
POLYLINE
  5
6FA0
  8
0
  6
CONTINUOUS
 66
     1
 10
0.0
 20
0.0
 30
0.0
 70
   128
  0
VERTEX
  5
7111
  8
0
  6
CONTINUOUS
 10
395.38499623000001
 20
552.5763436753
 30
0.0
  0
VERTEX
  5
7112
  8
0
  6
CONTINUOUS
 10
395.42994584389999
 20
552.81135982399996
 30
0.0
  0
VERTEX
  5
7113
  8
0
  6
CONTINUOUS
 10
395.55795635959998
 20
552.95869479060002
 30
0.0
  0
VERTEX
  5
7114
  8
0
  6
CONTINUOUS
 10
395.74954539620001
 20
552.99591765449986
 30
0.0
  0
VERTEX
  5
7115
  8
0
  6
CONTINUOUS
 10
395.9755262612
 20
552.91737087490003
 30
0.0
  0
VERTEX
  5
7116
  8
0
  6
CONTINUOUS
 10
396.20151766290002
 20
552.73499961870004
 30
0.0
  0
VERTEX
  5
7117
  8
0
  6
CONTINUOUS
 10
396.39310669949998
 20
552.47657276159987
 30
0.0
  0
VERTEX
  5
7118
  8
0
  6
CONTINUOUS
 10
396.52111721519998
 20
552.18143999959989
 30
0.0
  0
VERTEX
  5
7119
  8
0
  6
CONTINUOUS
 10
396.56606682910001
 20
551.89452613129993
 30
0.0
  0
VERTEX
  5
711A
  8
0
  6
CONTINUOUS
 10
396.52111721519998
 20
551.65951150349986
 30
0.0
  0
VERTEX
  5
711B
  8
0
  6
CONTINUOUS
 10
396.39310669949998
 20
551.51217653690003
 30
0.0
  0
VERTEX
  5
711C
  8
0
  6
CONTINUOUS
 10
396.20151766290002
 20
551.47495367300007
 30
0.0
  0
VERTEX
  5
711D
  8
0
  6
CONTINUOUS
 10
395.9755262612
 20
551.55350653530002
 30
0.0
  0
VERTEX
  5
711E
  8
0
  6
CONTINUOUS
 10
395.74954539620001
 20
551.7358717088
 30
0.0
  0
VERTEX
  5
711F
  8
0
  6
CONTINUOUS
 10
395.55795635959998
 20
551.99429856589995
 30
0.0
  0
VERTEX
  5
7120
  8
0
  6
CONTINUOUS
 10
395.42994584389999
 20
552.28943132790005
 30
0.0
  0
VERTEX
  5
7121
  8
0
  6
CONTINUOUS
 10
395.38499623000001
 20
552.5763436753
 30
0.0
  0
SEQEND
  5
7122
  8
0
  6
CONTINUOUS
  0
ARC
  5
6FA1
  8
0
  6
CONTINUOUS
 10
395.24560922410012
 20
552.78411774269989
 30
0.0
 40
0.7615490695287532
 50
123.7919881623
 51
187.51910205409999
  0
POLYLINE
  5
6FA2
  8
0
  6
CONTINUOUS
 66
     1
 10
0.0
 20
0.0
 30
0.0
 70
   128
  0
VERTEX
  5
7123
  8
0
  6
CONTINUOUS
 10
394.55977147290002
 20
552.19475664699985
 30
0.0
  0
VERTEX
  5
7124
  8
0
  6
CONTINUOUS
 10
394.5588442422
 20
552.19823491730006
 30
0.0
  0
VERTEX
  5
7125
  8
0
  6
CONTINUOUS
 10
394.4906084944999
 20
552.68446392440001
 30
0.0
  0
SEQEND
  5
7126
  8
0
  6
CONTINUOUS
  0
POLYLINE
  5
6FA3
  8
0
  6
CONTINUOUS
 66
     1
 10
0.0
 20
0.0
 30
0.0
 70
   128
  0
VERTEX
  5
7127
  8
0
  6
CONTINUOUS
 10
396.24069315859998
 20
552.08236035309994
 30
0.0
  0
VERTEX
  5
7128
  8
0
  6
CONTINUOUS
 10
396.22051535489999
 20
552.21118847820003
 30
0.0
  0
VERTEX
  5
7129
  8
0
  6
CONTINUOUS
 10
396.1630270535
 20
552.34371503559998
 30
0.0
  0
VERTEX
  5
712A
  8
0
  6
CONTINUOUS
 10
396.07700533569999
 20
552.45975055930001
 30
0.0
  0
VERTEX
  5
712B
  8
0
  6
CONTINUOUS
 10
395.9755262612
 20
552.54164136960003
 30
0.0
  0
VERTEX
  5
712C
  8
0
  6
CONTINUOUS
 10
395.87405772340003
 20
552.57690972199987
 30
0.0
  0
VERTEX
  5
712D
  8
0
  6
CONTINUOUS
 10
395.78803600560002
 20
552.56019275970004
 30
0.0
  0
VERTEX
  5
712E
  8
0
  6
CONTINUOUS
 10
395.73054770419998
 20
552.49404078220005
 30
0.0
  0
VERTEX
  5
712F
  8
0
  6
CONTINUOUS
 10
395.7103699005001
 20
552.38850945339993
 30
0.0
  0
VERTEX
  5
7130
  8
0
  6
CONTINUOUS
 10
395.73054770419998
 20
552.25968284930002
 30
0.0
  0
VERTEX
  5
7131
  8
0
  6
CONTINUOUS
 10
395.78803600560002
 20
552.12715629189995
 30
0.0
  0
VERTEX
  5
7132
  8
0
  6
CONTINUOUS
 10
395.87405772340003
 20
552.01112076820004
 30
0.0
  0
VERTEX
  5
7133
  8
0
  6
CONTINUOUS
 10
395.9755262612
 20
551.92923604060002
 30
0.0
  0
VERTEX
  5
7134
  8
0
  6
CONTINUOUS
 10
396.07700533569999
 20
551.89396160540002
 30
0.0
  0
VERTEX
  5
7135
  8
0
  6
CONTINUOUS
 10
396.1630270535
 20
551.91067856779989
 30
0.0
  0
VERTEX
  5
7136
  8
0
  6
CONTINUOUS
 10
396.22051535489999
 20
551.97683054529989
 30
0.0
  0
VERTEX
  5
7137
  8
0
  6
CONTINUOUS
 10
396.24069315859998
 20
552.08236035309994
 30
0.0
  0
SEQEND
  5
7138
  8
0
  6
CONTINUOUS
  0
POLYLINE
  5
6FA4
  8
0
  6
CONTINUOUS
 66
     1
 10
0.0
 20
0.0
 30
0.0
 70
   128
  0
VERTEX
  5
7139
  8
0
  6
CONTINUOUS
 10
395.86129776500002
 20
552.02505828410006
 30
0.0
  0
VERTEX
  5
713A
  8
0
  6
CONTINUOUS
 10
395.80947821479998
 20
552.13961563539999
 30
0.0
  0
VERTEX
  5
713B
  8
0
  6
CONTINUOUS
 10
395.7362269921
 20
552.24171155160002
 30
0.0
  0
SEQEND
  5
713C
  8
0
  6
CONTINUOUS
  0
POLYLINE
  5
6FA5
  8
0
  6
CONTINUOUS
 66
     1
 10
0.0
 20
0.0
 30
0.0
 70
   128
  0
VERTEX
  5
713D
  8
0
  6
CONTINUOUS
 10
394.52595916360002
 20
575.15974439699994
 30
0.0
  0
VERTEX
  5
713E
  8
0
  6
CONTINUOUS
 10
394.5941949114
 20
575.56719008669995
 30
0.0
  0
VERTEX
  5
713F
  8
0
  6
CONTINUOUS
 10
394.79065190900002
 20
575.8467200785999
 30
0.0
  0
VERTEX
  5
7140
  8
0
  6
CONTINUOUS
 10
395.09164362760009
 20
575.96461360579985
 30
0.0
  0
VERTEX
  5
7141
  8
0
  6
CONTINUOUS
 10
395.23686059419998
 20
575.96223823769992
 30
0.0
  0
SEQEND
  5
7142
  8
0
  6
CONTINUOUS
  0
POLYLINE
  5
6FA6
  8
0
  6
CONTINUOUS
 66
     1
 10
0.0
 20
0.0
 30
0.0
 70
   128
  0
VERTEX
  5
7143
  8
0
  6
CONTINUOUS
 10
396.71149452989999
 20
573.42370964919985
 30
0.0
  0
VERTEX
  5
7144
  8
0
  6
CONTINUOUS
 10
396.52401481099997
 20
573.16651149250004
 30
0.0
  0
VERTEX
  5
7145
  8
0
  6
CONTINUOUS
 10
396.22302309240001
 20
573.04861796529997
 30
0.0
  0
VERTEX
  5
7146
  8
0
  6
CONTINUOUS
 10
395.85379562600002
 20
573.10658344399985
 30
0.0
  0
VERTEX
  5
7147
  8
0
  6
CONTINUOUS
 10
395.46087109400003
 20
573.33341394809997
 30
0.0
  0
VERTEX
  5
7148
  8
0
  6
CONTINUOUS
 10
395.09164362760009
 20
573.70174942790004
 30
0.0
  0
VERTEX
  5
7149
  8
0
  6
CONTINUOUS
 10
394.79065190900002
 20
574.16716059639998
 30
0.0
  0
VERTEX
  5
714A
  8
0
  6
CONTINUOUS
 10
394.5941949114
 20
574.67351538989999
 30
0.0
  0
VERTEX
  5
714B
  8
0
  6
CONTINUOUS
 10
394.52595916360002
 20
575.15974439699994
 30
0.0
  0
SEQEND
  5
714C
  8
0
  6
CONTINUOUS
  0
POLYLINE
  5
6FA7
  8
0
  6
CONTINUOUS
 66
     1
 10
0.0
 20
0.0
 30
0.0
 70
   128
  0
VERTEX
  5
714D
  8
0
  6
CONTINUOUS
 10
395.38499623000001
 20
575.03121664089986
 30
0.0
  0
VERTEX
  5
714E
  8
0
  6
CONTINUOUS
 10
395.42994584389999
 20
575.26623164889997
 30
0.0
  0
VERTEX
  5
714F
  8
0
  6
CONTINUOUS
 10
395.55795635959998
 20
575.41356737599995
 30
0.0
  0
VERTEX
  5
7150
  8
0
  6
CONTINUOUS
 10
395.74954539620001
 20
575.45078947939999
 30
0.0
  0
VERTEX
  5
7151
  8
0
  6
CONTINUOUS
 10
395.9755262612
 20
575.37224231959988
 30
0.0
  0
VERTEX
  5
7152
  8
0
  6
CONTINUOUS
 10
396.20151766290002
 20
575.18987144369987
 30
0.0
  0
VERTEX
  5
7153
  8
0
  6
CONTINUOUS
 10
396.39310669949998
 20
574.93144534700002
 30
0.0
  0
VERTEX
  5
7154
  8
0
  6
CONTINUOUS
 10
396.52111721519998
 20
574.63631182450001
 30
0.0
  0
VERTEX
  5
7155
  8
0
  6
CONTINUOUS
 10
396.56606682910001
 20
574.34939909690002
 30
0.0
  0
VERTEX
  5
7156
  8
0
  6
CONTINUOUS
 10
396.52111721519998
 20
574.11438408890001
 30
0.0
  0
VERTEX
  5
7157
  8
0
  6
CONTINUOUS
 10
396.39310669949998
 20
573.96704836180004
 30
0.0
  0
VERTEX
  5
7158
  8
0
  6
CONTINUOUS
 10
396.20151766290002
 20
573.92982587819995
 30
0.0
  0
VERTEX
  5
7159
  8
0
  6
CONTINUOUS
 10
395.9755262612
 20
574.00837912069994
 30
0.0
  0
VERTEX
  5
715A
  8
0
  6
CONTINUOUS
 10
395.74954539620001
 20
574.19074391389995
 30
0.0
  0
VERTEX
  5
715B
  8
0
  6
CONTINUOUS
 10
395.55795635959998
 20
574.44917039079985
 30
0.0
  0
VERTEX
  5
715C
  8
0
  6
CONTINUOUS
 10
395.42994584389999
 20
574.74430391329986
 30
0.0
  0
VERTEX
  5
715D
  8
0
  6
CONTINUOUS
 10
395.38499623000001
 20
575.03121664089986
 30
0.0
  0
SEQEND
  5
715E
  8
0
  6
CONTINUOUS
  0
ARC
  5
6FA8
  8
0
  6
CONTINUOUS
 10
395.24561026999999
 20
575.23898957810002
 30
0.0
 40
0.7615499585591907
 50
123.79203808600001
 51
187.51900745340001
  0
POLYLINE
  5
6FA9
  8
0
  6
CONTINUOUS
 66
     1
 10
0.0
 20
0.0
 30
0.0
 70
   128
  0
VERTEX
  5
715F
  8
0
  6
CONTINUOUS
 10
396.42191407050001
 20
573.10053230660003
 30
0.0
  0
VERTEX
  5
7160
  8
0
  6
CONTINUOUS
 10
396.18767242320001
 20
573.0282104582999
 30
0.0
  0
VERTEX
  5
7161
  8
0
  6
CONTINUOUS
 10
395.81844495680002
 20
573.08617593699989
 30
0.0
  0
VERTEX
  5
7162
  8
0
  6
CONTINUOUS
 10
395.42552042480003
 20
573.31300644110001
 30
0.0
  0
VERTEX
  5
7163
  8
0
  6
CONTINUOUS
 10
395.05629295850002
 20
573.68134192100001
 30
0.0
  0
VERTEX
  5
7164
  8
0
  6
CONTINUOUS
 10
394.75530123980002
 20
574.14675308939991
 30
0.0
  0
VERTEX
  5
7165
  8
0
  6
CONTINUOUS
 10
394.5588442422
 20
574.65310788290003
 30
0.0
  0
VERTEX
  5
7166
  8
0
  6
CONTINUOUS
 10
394.4906084944999
 20
575.13933688999987
 30
0.0
  0
SEQEND
  5
7167
  8
0
  6
CONTINUOUS
  0
POLYLINE
  5
6FAA
  8
0
  6
CONTINUOUS
 66
     1
 10
0.0
 20
0.0
 30
0.0
 70
   128
  0
VERTEX
  5
7168
  8
0
  6
CONTINUOUS
 10
396.24069315859998
 20
574.53723331870003
 30
0.0
  0
VERTEX
  5
7169
  8
0
  6
CONTINUOUS
 10
396.22051535489999
 20
574.66606030309993
 30
0.0
  0
VERTEX
  5
716A
  8
0
  6
CONTINUOUS
 10
396.1630270535
 20
574.79858686059993
 30
0.0
  0
VERTEX
  5
716B
  8
0
  6
CONTINUOUS
 10
396.07700533569999
 20
574.91462276440006
 30
0.0
  0
VERTEX
  5
716C
  8
0
  6
CONTINUOUS
 10
395.9755262612
 20
574.99651357479991
 30
0.0
  0
VERTEX
  5
716D
  8
0
  6
CONTINUOUS
 10
395.87405772340003
 20
575.03178192719986
 30
0.0
  0
VERTEX
  5
716E
  8
0
  6
CONTINUOUS
 10
395.78803600560002
 20
575.01506458469987
 30
0.0
  0
VERTEX
  5
716F
  8
0
  6
CONTINUOUS
 10
395.73054770419998
 20
574.94891260709994
 30
0.0
  0
VERTEX
  5
7170
  8
0
  6
CONTINUOUS
 10
395.7103699005001
 20
574.84338241910007
 30
0.0
  0
VERTEX
  5
7171
  8
0
  6
CONTINUOUS
 10
395.73054770419998
 20
574.71455505450001
 30
0.0
  0
VERTEX
  5
7172
  8
0
  6
CONTINUOUS
 10
395.78803600560002
 20
574.58202849700001
 30
0.0
  0
VERTEX
  5
7173
  8
0
  6
CONTINUOUS
 10
395.87405772340003
 20
574.46599297339992
 30
0.0
  0
VERTEX
  5
7174
  8
0
  6
CONTINUOUS
 10
395.9755262612
 20
574.38410786550003
 30
0.0
  0
VERTEX
  5
7175
  8
0
  6
CONTINUOUS
 10
396.07700533569999
 20
574.34883381060001
 30
0.0
  0
VERTEX
  5
7176
  8
0
  6
CONTINUOUS
 10
396.1630270535
 20
574.36555077289995
 30
0.0
  0
VERTEX
  5
7177
  8
0
  6
CONTINUOUS
 10
396.22051535489999
 20
574.43170275049988
 30
0.0
  0
VERTEX
  5
7178
  8
0
  6
CONTINUOUS
 10
396.24069315859998
 20
574.53723331870003
 30
0.0
  0
SEQEND
  5
7179
  8
0
  6
CONTINUOUS
  0
POLYLINE
  5
6FAB
  8
0
  6
CONTINUOUS
 66
     1
 10
0.0
 20
0.0
 30
0.0
 70
   128
  0
VERTEX
  5
717A
  8
0
  6
CONTINUOUS
 10
395.86129776500002
 20
574.47993124980007
 30
0.0
  0
VERTEX
  5
717B
  8
0
  6
CONTINUOUS
 10
395.80947821479998
 20
574.5944874603
 30
0.0
  0
VERTEX
  5
717C
  8
0
  6
CONTINUOUS
 10
395.7362269921
 20
574.69658413699995
 30
0.0
  0
SEQEND
  5
717D
  8
0
  6
CONTINUOUS
  0
POLYLINE
  5
6FAC
  8
0
  6
CONTINUOUS
 66
     1
 10
0.0
 20
0.0
 30
0.0
 70
   128
  0
VERTEX
  5
717E
  8
0
  6
CONTINUOUS
 10
596.75849748719986
 20
458.4133850389
 30
0.0
  0
VERTEX
  5
717F
  8
0
  6
CONTINUOUS
 10
596.82673323489985
 20
458.82083072860001
 30
0.0
  0
VERTEX
  5
7180
  8
0
  6
CONTINUOUS
 10
597.02319023250004
 20
459.10036072050002
 30
0.0
  0
VERTEX
  5
7181
  8
0
  6
CONTINUOUS
 10
597.32418195119999
 20
459.21825424769992
 30
0.0
  0
VERTEX
  5
7182
  8
0
  6
CONTINUOUS
 10
597.4693989177
 20
459.21587887970003
 30
0.0
  0
SEQEND
  5
7183
  8
0
  6
CONTINUOUS
  0
POLYLINE
  5
6FAD
  8
0
  6
CONTINUOUS
 66
     1
 10
0.0
 20
0.0
 30
0.0
 70
   128
  0
VERTEX
  5
7184
  8
0
  6
CONTINUOUS
 10
598.94403285340002
 20
456.67735029120001
 30
0.0
  0
VERTEX
  5
7185
  8
0
  6
CONTINUOUS
 10
598.7565531345
 20
456.42015213439998
 30
0.0
  0
VERTEX
  5
7186
  8
0
  6
CONTINUOUS
 10
598.45556141589987
 20
456.30225860719997
 30
0.0
  0
VERTEX
  5
7187
  8
0
  6
CONTINUOUS
 10
598.08633394949993
 20
456.36022408589992
 30
0.0
  0
VERTEX
  5
7188
  8
0
  6
CONTINUOUS
 10
597.69340941760004
 20
456.58705458999998
 30
0.0
  0
VERTEX
  5
7189
  8
0
  6
CONTINUOUS
 10
597.32418195119999
 20
456.95539006989992
 30
0.0
  0
VERTEX
  5
718A
  8
0
  6
CONTINUOUS
 10
597.02319023250004
 20
457.42080123829999
 30
0.0
  0
VERTEX
  5
718B
  8
0
  6
CONTINUOUS
 10
596.82673323489985
 20
457.9271560318
 30
0.0
  0
VERTEX
  5
718C
  8
0
  6
CONTINUOUS
 10
596.75849748719986
 20
458.4133850389
 30
0.0
  0
SEQEND
  5
718D
  8
0
  6
CONTINUOUS
  0
POLYLINE
  5
6FAE
  8
0
  6
CONTINUOUS
 66
     1
 10
0.0
 20
0.0
 30
0.0
 70
   128
  0
VERTEX
  5
718E
  8
0
  6
CONTINUOUS
 10
597.61753455350004
 20
458.28485728290002
 30
0.0
  0
VERTEX
  5
718F
  8
0
  6
CONTINUOUS
 10
597.6624841675
 20
458.51987229089991
 30
0.0
  0
VERTEX
  5
7190
  8
0
  6
CONTINUOUS
 10
597.79049468309995
 20
458.667208018
 30
0.0
  0
VERTEX
  5
7191
  8
0
  6
CONTINUOUS
 10
597.98208371969986
 20
458.70443012139998
 30
0.0
  0
VERTEX
  5
7192
  8
0
  6
CONTINUOUS
 10
598.20807512140004
 20
458.62587687889999
 30
0.0
  0
VERTEX
  5
7193
  8
0
  6
CONTINUOUS
 10
598.43405598640004
 20
458.44351208559988
 30
0.0
  0
VERTEX
  5
7194
  8
0
  6
CONTINUOUS
 10
598.62564502309999
 20
458.18508598900002
 30
0.0
  0
VERTEX
  5
7195
  8
0
  6
CONTINUOUS
 10
598.75365553869995
 20
457.88995246650001
 30
0.0
  0
VERTEX
  5
7196
  8
0
  6
CONTINUOUS
 10
598.79860515259986
 20
457.60303973890001
 30
0.0
  0
VERTEX
  5
7197
  8
0
  6
CONTINUOUS
 10
598.75365553869995
 20
457.36802473080002
 30
0.0
  0
VERTEX
  5
7198
  8
0
  6
CONTINUOUS
 10
598.62564502309999
 20
457.22068900379998
 30
0.0
  0
VERTEX
  5
7199
  8
0
  6
CONTINUOUS
 10
598.43405598640004
 20
457.18346652010001
 30
0.0
  0
VERTEX
  5
719A
  8
0
  6
CONTINUOUS
 10
598.20807512140004
 20
457.26201367989989
 30
0.0
  0
VERTEX
  5
719B
  8
0
  6
CONTINUOUS
 10
597.98208371969986
 20
457.44438455589989
 30
0.0
  0
VERTEX
  5
719C
  8
0
  6
CONTINUOUS
 10
597.79049468309995
 20
457.70281103280001
 30
0.0
  0
VERTEX
  5
719D
  8
0
  6
CONTINUOUS
 10
597.6624841675
 20
457.99794455519992
 30
0.0
  0
VERTEX
  5
719E
  8
0
  6
CONTINUOUS
 10
597.61753455350004
 20
458.28485728290002
 30
0.0
  0
SEQEND
  5
719F
  8
0
  6
CONTINUOUS
  0
ARC
  5
6FAF
  8
0
  6
CONTINUOUS
 10
597.47814859360005
 20
458.49263022000002
 30
0.0
 40
0.7615499585591491
 50
123.79203808600001
 51
187.51900745340001
  0
POLYLINE
  5
6FB0
  8
0
  6
CONTINUOUS
 66
     1
 10
0.0
 20
0.0
 30
0.0
 70
   128
  0
VERTEX
  5
71A0
  8
0
  6
CONTINUOUS
 10
598.65445239400003
 20
456.35417294860002
 30
0.0
  0
VERTEX
  5
71A1
  8
0
  6
CONTINUOUS
 10
598.42021074670004
 20
456.28185110029989
 30
0.0
  0
VERTEX
  5
71A2
  8
0
  6
CONTINUOUS
 10
598.05098328029999
 20
456.33981657899989
 30
0.0
  0
VERTEX
  5
71A3
  8
0
  6
CONTINUOUS
 10
597.65805874839998
 20
456.56664708309989
 30
0.0
  0
VERTEX
  5
71A4
  8
0
  6
CONTINUOUS
 10
597.28883128199993
 20
456.93498256299989
 30
0.0
  0
VERTEX
  5
71A5
  8
0
  6
CONTINUOUS
 10
596.9878395633998
 20
457.40039373140002
 30
0.0
  0
VERTEX
  5
71A6
  8
0
  6
CONTINUOUS
 10
596.79138256569991
 20
457.90674852489991
 30
0.0
  0
VERTEX
  5
71A7
  8
0
  6
CONTINUOUS
 10
596.72314681800003
 20
458.39297753199992
 30
0.0
  0
SEQEND
  5
71A8
  8
0
  6
CONTINUOUS
  0
POLYLINE
  5
6FB1
  8
0
  6
CONTINUOUS
 66
     1
 10
0.0
 20
0.0
 30
0.0
 70
   128
  0
VERTEX
  5
71A9
  8
0
  6
CONTINUOUS
 10
598.4732314821
 20
457.79087396069991
 30
0.0
  0
VERTEX
  5
71AA
  8
0
  6
CONTINUOUS
 10
598.4530536783999
 20
457.91970094509998
 30
0.0
  0
VERTEX
  5
71AB
  8
0
  6
CONTINUOUS
 10
598.39556537700003
 20
458.05222750249999
 30
0.0
  0
VERTEX
  5
71AC
  8
0
  6
CONTINUOUS
 10
598.30954365920002
 20
458.1682634064
 30
0.0
  0
VERTEX
  5
71AD
  8
0
  6
CONTINUOUS
 10
598.20807512140004
 20
458.25014813400003
 30
0.0
  0
VERTEX
  5
71AE
  8
0
  6
CONTINUOUS
 10
598.10659604689999
 20
458.28542256919991
 30
0.0
  0
VERTEX
  5
71AF
  8
0
  6
CONTINUOUS
 10
598.02057432909999
 20
458.26870522659999
 30
0.0
  0
VERTEX
  5
71B0
  8
0
  6
CONTINUOUS
 10
597.96308602779993
 20
458.20255324909999
 30
0.0
  0
VERTEX
  5
71B1
  8
0
  6
CONTINUOUS
 10
597.94290822400001
 20
458.0970230609999
 30
0.0
  0
VERTEX
  5
71B2
  8
0
  6
CONTINUOUS
 10
597.96308602779993
 20
457.96819569640002
 30
0.0
  0
VERTEX
  5
71B3
  8
0
  6
CONTINUOUS
 10
598.02057432909999
 20
457.83566913899989
 30
0.0
  0
VERTEX
  5
71B4
  8
0
  6
CONTINUOUS
 10
598.10659604689999
 20
457.71963361529998
 30
0.0
  0
VERTEX
  5
71B5
  8
0
  6
CONTINUOUS
 10
598.20807512140004
 20
457.63774242469998
 30
0.0
  0
VERTEX
  5
71B6
  8
0
  6
CONTINUOUS
 10
598.30954365920002
 20
457.60247445260001
 30
0.0
  0
VERTEX
  5
71B7
  8
0
  6
CONTINUOUS
 10
598.39556537700003
 20
457.61919141489989
 30
0.0
  0
VERTEX
  5
71B8
  8
0
  6
CONTINUOUS
 10
598.4530536783999
 20
457.68534339239989
 30
0.0
  0
VERTEX
  5
71B9
  8
0
  6
CONTINUOUS
 10
598.4732314821
 20
457.79087396069991
 30
0.0
  0
SEQEND
  5
71BA
  8
0
  6
CONTINUOUS
  0
POLYLINE
  5
6FB2
  8
0
  6
CONTINUOUS
 66
     1
 10
0.0
 20
0.0
 30
0.0
 70
   128
  0
VERTEX
  5
71BB
  8
0
  6
CONTINUOUS
 10
598.09383608860003
 20
457.73357189169991
 30
0.0
  0
VERTEX
  5
71BC
  8
0
  6
CONTINUOUS
 10
598.0420165383
 20
457.8481281023
 30
0.0
  0
VERTEX
  5
71BD
  8
0
  6
CONTINUOUS
 10
597.96876531559985
 20
457.95022477899988
 30
0.0
  0
SEQEND
  5
71BE
  8
0
  6
CONTINUOUS
  0
LINE
  5
6FB3
  8
0
  6
CONTINUOUS
 10
567.94390361379988
 20
461.90147263969999
 30
0.0
 11
567.94390361379988
 21
466.35161972930001
 31
0.0
  0
ARC
  5
6FB4
  8
0
  6
CONTINUOUS
 10
567.7283671022999
 20
461.8665076801999
 30
0.0
 40
0.218354153121684
 50
230.79614914920001
 51
9.2144177684000006
  0
LINE
  5
6FB5
  8
0
  6
CONTINUOUS
 10
567.59034950670002
 20
461.69730460839992
 30
0.0
 11
567.13073285539986
 21
461.96263565359999
 31
0.0
  0
LINE
  5
6FB6
  8
0
  6
CONTINUOUS
 10
538.88181554350001
 20
478.27038849740001
 30
0.0
 11
538.24541920440004
 21
478.63777228399999
 31
0.0
  0
ARC
  5
6FB7
  8
0
  6
CONTINUOUS
 10
538.6594779239
 20
479.28507835839991
 30
0.0
 40
0.7684072990322554
 50
182.60566593600001
 51
237.3943958287
  0
LINE
  5
6FB8
  8
0
  6
CONTINUOUS
 10
537.89186509729996
 20
479.25014519839999
 30
0.0
 11
537.89186509729996
 21
483.7002922879999
 31
0.0
  0
POLYLINE
  5
6FB9
  8
0
  6
CONTINUOUS
 66
     1
 10
0.0
 20
0.0
 30
0.0
 70
   128
  0
VERTEX
  5
71BF
  8
0
  6
CONTINUOUS
 10
553.35982435519986
 20
472.77030446449987
 30
0.0
  0
VERTEX
  5
71C0
  8
0
  6
CONTINUOUS
 10
553.32618590180005
 20
472.59442563319999
 30
0.0
  0
VERTEX
  5
71C1
  8
0
  6
CONTINUOUS
 10
553.23038611510003
 20
472.4841643538
 30
0.0
  0
VERTEX
  5
71C2
  8
0
  6
CONTINUOUS
 10
553.09104863389985
 20
472.45593430369991
 30
0.0
  0
SEQEND
  5
71C3
  8
0
  6
CONTINUOUS
  0
POLYLINE
  5
6FBA
  8
0
  6
CONTINUOUS
 66
     1
 10
0.0
 20
0.0
 30
0.0
 70
   128
  0
VERTEX
  5
71C4
  8
0
  6
CONTINUOUS
 10
552.51130819599985
 20
473.46018218029991
 30
0.0
  0
VERTEX
  5
71C5
  8
0
  6
CONTINUOUS
 10
552.60538523019989
 20
473.5666964973999
 30
0.0
  0
VERTEX
  5
71C6
  8
0
  6
CONTINUOUS
 10
552.74875827209996
 20
473.59455620039989
 30
0.0
  0
VERTEX
  5
71C7
  8
0
  6
CONTINUOUS
 10
552.91788303849989
 20
473.53576965709988
 30
0.0
  0
VERTEX
  5
71C8
  8
0
  6
CONTINUOUS
 10
553.08700780480001
 20
473.39928890160002
 30
0.0
  0
VERTEX
  5
71C9
  8
0
  6
CONTINUOUS
 10
553.23038611510003
 20
473.2058911664999
 30
0.0
  0
VERTEX
  5
71CA
  8
0
  6
CONTINUOUS
 10
553.32618590180005
 20
472.98502142749999
 30
0.0
  0
VERTEX
  5
71CB
  8
0
  6
CONTINUOUS
 10
553.35982435519986
 20
472.77030446449987
 30
0.0
  0
SEQEND
  5
71CC
  8
0
  6
CONTINUOUS
  0
LINE
  5
6FBB
  8
0
  6
CONTINUOUS
 10
454.80681851859993
 20
527.21412164640003
 30
0.0
 11
454.80681851859993
 21
531.6642687358999
 31
0.0
  0
ARC
  5
6FBC
  8
0
  6
CONTINUOUS
 10
454.59128046670003
 20
527.17915935439999
 30
0.0
 40
0.2183552465273681
 50
230.79690478559999
 51
9.2136621319999996
  0
LINE
  5
6FBD
  8
0
  6
CONTINUOUS
 10
454.45326441150002
 20
527.00995361510002
 30
0.0
 11
453.99364512599999
 21
527.2752861808998
 31
0.0
  0
LINE
  5
6FBE
  8
0
  6
CONTINUOUS
 10
425.74473044829989
 20
543.58303750410005
 30
0.0
 11
425.10833410919992
 21
543.95042129059993
 31
0.0
  0
ARC
  5
6FBF
  8
0
  6
CONTINUOUS
 10
425.5223824807
 20
544.59772139070003
 30
0.0
 40
0.7683966902140309
 50
182.6052559924
 51
237.3948057723
  0
LINE
  5
6FC0
  8
0
  6
CONTINUOUS
 10
424.75478000210001
 20
544.56279420509986
 30
0.0
 11
424.75478000210001
 21
549.01294129469989
 31
0.0
  0
POLYLINE
  5
6FC1
  8
0
  6
CONTINUOUS
 66
     1
 10
0.0
 20
0.0
 30
0.0
 70
   128
  0
VERTEX
  5
71CD
  8
0
  6
CONTINUOUS
 10
440.2227418942
 20
538.08295195050005
 30
0.0
  0
VERTEX
  5
71CE
  8
0
  6
CONTINUOUS
 10
440.18909817239989
 20
537.90707616049997
 30
0.0
  0
VERTEX
  5
71CF
  8
0
  6
CONTINUOUS
 10
440.0932983857
 20
537.79681488109998
 30
0.0
  0
VERTEX
  5
71D0
  8
0
  6
CONTINUOUS
 10
439.95396090449998
 20
537.76858483110004
 30
0.0
  0
SEQEND
  5
71D1
  8
0
  6
CONTINUOUS
  0
POLYLINE
  5
6FC2
  8
0
  6
CONTINUOUS
 66
     1
 10
0.0
 20
0.0
 30
0.0
 70
   128
  0
VERTEX
  5
71D2
  8
0
  6
CONTINUOUS
 10
439.37422573489999
 20
538.77282928599993
 30
0.0
  0
VERTEX
  5
71D3
  8
0
  6
CONTINUOUS
 10
439.46829750080002
 20
538.8793470247
 30
0.0
  0
VERTEX
  5
71D4
  8
0
  6
CONTINUOUS
 10
439.61167581109987
 20
538.90720368639995
 30
0.0
  0
VERTEX
  5
71D5
  8
0
  6
CONTINUOUS
 10
439.78080057739999
 20
538.84841714309994
 30
0.0
  0
VERTEX
  5
71D6
  8
0
  6
CONTINUOUS
 10
439.94992534379992
 20
538.71193638750003
 30
0.0
  0
VERTEX
  5
71D7
  8
0
  6
CONTINUOUS
 10
440.0932983857
 20
538.51854169379988
 30
0.0
  0
VERTEX
  5
71D8
  8
0
  6
CONTINUOUS
 10
440.18909817239989
 20
538.29767195479997
 30
0.0
  0
VERTEX
  5
71D9
  8
0
  6
CONTINUOUS
 10
440.2227418942
 20
538.08295195050005
 30
0.0
  0
SEQEND
  5
71DA
  8
0
  6
CONTINUOUS
  0
LINE
  5
6FC3
  8
0
  6
CONTINUOUS
 10
327.8811495887
 20
550.89383540359995
 30
0.0
 11
245.85676533130001
 21
503.54216628040001
 31
0.0
  0
LINE
  5
6FC4
  8
0
  6
CONTINUOUS
 10
327.8811495887
 20
550.81218146109995
 30
0.0
 11
327.8811495887
 21
550.89383540359995
 31
0.0
  0
LINE
  5
6FC5
  8
0
  6
CONTINUOUS
 10
327.8811495887
 20
550.81218146109995
 30
0.0
 11
330.70957717700003
 21
552.44499795239994
 31
0.0
  0
LINE
  5
6FC6
  8
0
  6
CONTINUOUS
 10
330.70957717700003
 20
552.44499795239994
 30
0.0
 11
330.70957717700003
 21
552.52665189489994
 31
0.0
  0
LINE
  5
6FC7
  8
0
  6
CONTINUOUS
 10
383.77794381090001
 20
583.16236785310002
 30
0.0
 11
330.70957717700003
 21
552.52665189489994
 31
0.0
  0
LINE
  5
6FC8
  8
0
  6
CONTINUOUS
 10
391.55611309350002
 20
579.48720222659995
 30
0.0
 11
383.77794381090001
 21
583.16236785310002
 31
0.0
  0
LINE
  5
6FC9
  8
0
  6
CONTINUOUS
 10
189.95997110900001
 20
471.27363383099998
 30
0.0
 11
182.18180182649999
 21
458.61798510569992
 31
0.0
  0
LINE
  5
6FCA
  8
0
  6
CONTINUOUS
 10
243.02833774289999
 20
501.90934978920001
 30
0.0
 11
189.95997110900001
 21
471.27363383099998
 31
0.0
  0
LINE
  5
6FCB
  8
0
  6
CONTINUOUS
 10
243.02833774289999
 20
501.82769584670001
 30
0.0
 11
243.02833774289999
 21
501.90934978920001
 31
0.0
  0
LINE
  5
6FCC
  8
0
  6
CONTINUOUS
 10
245.85676533130001
 20
503.460512338
 30
0.0
 11
243.02833774289999
 21
501.82769584670001
 31
0.0
  0
LINE
  5
6FCD
  8
0
  6
CONTINUOUS
 10
245.85676533130001
 20
503.460512338
 30
0.0
 11
245.85676533130001
 21
503.54216628040001
 31
0.0
  0
ARC
  5
6FCE
  8
0
  6
CONTINUOUS
 10
391.90967307030002
 20
578.80485020139997
 30
0.0
 40
0.7685108609890534
 50
62.610101353800012
 51
117.3908843903
  0
LINE
  5
6FCF
  8
0
  6
CONTINUOUS
 10
396.68264501210001
 20
576.93592931019998
 30
0.0
 11
392.26322130760002
 21
579.48720830929994
 31
0.0
  0
ARC
  5
6FD0
  8
0
  6
CONTINUOUS
 10
395.85450616399999
 20
575.64130480079996
 30
0.0
 40
1.536836546975539
 50
2.606089995
 51
57.393971769700002
  0
LINE
  5
6FD1
  8
0
  6
CONTINUOUS
 10
397.38975322629989
 20
550.55389612509998
 30
0.0
 11
397.38975322629989
 21
575.71118348129994
 31
0.0
  0
ARC
  5
6FD2
  8
0
  6
CONTINUOUS
 10
383.99348032569998
 20
583.19733239640004
 30
0.0
 40
0.2183540896809195
 50
50.79792062500001
 51
189.214309837
  0
LINE
  5
6FD3
  8
0
  6
CONTINUOUS
 10
384.13149264959998
 20
583.16240406949987
 30
0.0
 11
384.13149264959998
 21
583.36653968619999
 31
0.0
  0
POLYLINE
  5
6FD4
  8
0
  6
CONTINUOUS
 66
     1
 10
0.0
 20
0.0
 30
0.0
 70
   128
  0
VERTEX
  5
71DB
  8
0
  6
CONTINUOUS
 10
384.13149264959998
 20
583.16240406949987
 30
0.0
  0
VERTEX
  5
71DC
  8
0
  6
CONTINUOUS
 10
384.0970059908999
 20
583.17839032630002
 30
0.0
  0
VERTEX
  5
71DD
  8
0
  6
CONTINUOUS
 10
384.06384695780002
 20
583.18591731840002
 30
0.0
  0
VERTEX
  5
71DE
  8
0
  6
CONTINUOUS
 10
384.03327995590001
 20
583.18469770959985
 30
0.0
  0
VERTEX
  5
71DF
  8
0
  6
CONTINUOUS
 10
384.00649563370001
 20
583.17477419750003
 30
0.0
  0
VERTEX
  5
71E0
  8
0
  6
CONTINUOUS
 10
383.98451605220009
 20
583.15652863029993
 30
0.0
  0
VERTEX
  5
71E1
  8
0
  6
CONTINUOUS
 10
383.96817361170002
 20
583.13066983760007
 30
0.0
  0
VERTEX
  5
71E2
  8
0
  6
CONTINUOUS
 10
383.9581110516001
 20
583.09818496059995
 30
0.0
  0
VERTEX
  5
71E3
  8
0
  6
CONTINUOUS
 10
383.95545580010003
 20
583.07849480619996
 30
0.0
  0
SEQEND
  5
71E4
  8
0
  6
CONTINUOUS
  0
ARC
  5
6FD5
  8
0
  6
CONTINUOUS
 10
330.94161057619999
 20
552.55956007060001
 30
0.0
 40
0.2343553847423818
 50
123.2389057596
 51
188.0721487152
  0
LINE
  5
6FD6
  8
0
  6
CONTINUOUS
 10
384.13149264959998
 20
583.16240406949987
 30
0.0
 11
384.13606558269998
 21
583.15976417149989
 31
0.0
  0
LINE
  5
6FD7
  8
0
  6
CONTINUOUS
 10
384.13149264959998
 20
583.36653968619999
 30
0.0
 11
387.67399848730003
 21
581.32149459619995
 31
0.0
  0
LINE
  5
6FD8
  8
0
  6
CONTINUOUS
 10
330.70957454289999
 20
552.4450806138999
 30
0.0
 11
330.60348038839999
 21
552.38383376230001
 31
0.0
  0
ARC
  5
6FD9
  8
0
  6
CONTINUOUS
 10
328.09668610339997
 20
550.92879994700002
 30
0.0
 40
0.2183540896810076
 50
50.79792062500001
 51
189.214309837
  0
ARC
  5
6FDA
  8
0
  6
CONTINUOUS
 10
246.09595242789999
 20
503.5718377508
 30
0.0
 40
0.2410204625087997
 50
124.2395645886
 51
187.0714898862
  0
LINE
  5
6FDB
  8
0
  6
CONTINUOUS
 10
245.7506659085
 20
503.39934662709999
 30
0.0
 11
245.85676006290001
 21
503.46059347879992
 31
0.0
  0
ARC
  5
6FDC
  8
0
  6
CONTINUOUS
 10
243.2438742576
 20
501.94431433250003
 30
0.0
 40
0.218354089680895
 50
50.79792062500001
 51
189.214309837
  0
ARC
  5
6FDD
  8
0
  6
CONTINUOUS
 10
190.19200450829999
 20
471.30654200660001
 30
0.0
 40
0.2343553848402411
 50
123.2389057747999
 51
188.07214870000001
  0
ARC
  5
6FDE
  8
0
  6
CONTINUOUS
 10
182.2855946171
 20
458.38891864829998
 30
0.0
 40
0.2514843639656912
 50
114.37585686289999
 51
174.30375258309999
  0
ARC
  5
6FDF
  8
0
  6
CONTINUOUS
 10
596.51782979160009
 20
461.07576756629987
 30
0.0
 40
0.4367127708480142
 50
50.79769182399999
 51
189.21287509349989
  0
LINE
  5
6FE0
  8
0
  6
CONTINUOUS
 10
596.79385869309988
 20
461.41418460160003
 30
0.0
 11
601.21328239750005
 21
458.86290560259988
 31
0.0
  0
LINE
  5
6FE1
  8
0
  6
CONTINUOUS
 10
596.08675047889994
 20
435.84856118290003
 30
0.0
 11
596.08675047889994
 21
461.00584853909999
 31
0.0
  0
LINE
  5
6FE2
  8
0
  6
CONTINUOUS
 10
596.08675047889994
 20
461.00584853909999
 30
0.0
 11
595.90997605949985
 21
460.90379883899988
 31
0.0
  0
LINE
  5
6FE3
  8
0
  6
CONTINUOUS
 10
595.90997605949985
 20
435.95061363910003
 30
0.0
 11
595.90997605949985
 21
460.90379883899988
 31
0.0
  0
ARC
  5
6FE4
  8
0
  6
CONTINUOUS
 10
601.10949128560003
 20
458.63385252410001
 30
0.0
 40
0.2514714847602199
 50
5.6948694579999994
 51
65.623233418300003
  0
ARC
  5
6FE5
  8
0
  6
CONTINUOUS
 10
596.3797411930999
 20
460.96703696660001
 30
0.0
 40
0.4740024699733488
 50
123.64418869079999
 51
187.66686578400001
  0
POLYLINE
  5
6FE6
  8
0
  6
CONTINUOUS
 66
     1
 10
0.0
 20
0.0
 30
0.0
 70
   128
  0
VERTEX
  5
71E5
  8
0
  6
CONTINUOUS
 10
440.54093479540001
 20
538.10336249879992
 30
0.0
  0
VERTEX
  5
71E6
  8
0
  6
CONTINUOUS
 10
440.49653309050001
 20
538.38678817519985
 30
0.0
  0
VERTEX
  5
71E7
  8
0
  6
CONTINUOUS
 10
440.3700714714999
 20
538.67833968260004
 30
0.0
  0
VERTEX
  5
71E8
  8
0
  6
CONTINUOUS
 10
440.18081631659999
 20
538.93362262480002
 30
0.0
  0
VERTEX
  5
71E9
  8
0
  6
CONTINUOUS
 10
439.95757499680002
 20
539.11377510839986
 30
0.0
  0
VERTEX
  5
71EA
  8
0
  6
CONTINUOUS
 10
439.73432840859999
 20
539.19137460779996
 30
0.0
  0
VERTEX
  5
71EB
  8
0
  6
CONTINUOUS
 10
439.54507325370002
 20
539.15460101619999
 30
0.0
  0
VERTEX
  5
71EC
  8
0
  6
CONTINUOUS
 10
439.41861690309997
 20
539.00905594480002
 30
0.0
  0
VERTEX
  5
71ED
  8
0
  6
CONTINUOUS
 10
439.37420992979997
 20
538.77689842699999
 30
0.0
  0
VERTEX
  5
71EE
  8
0
  6
CONTINUOUS
 10
439.41861690309997
 20
538.49346970919987
 30
0.0
  0
VERTEX
  5
71EF
  8
0
  6
CONTINUOUS
 10
439.54507325370002
 20
538.20192162349997
 30
0.0
  0
VERTEX
  5
71F0
  8
0
  6
CONTINUOUS
 10
439.73432840859999
 20
537.94663830100001
 30
0.0
  0
VERTEX
  5
71F1
  8
0
  6
CONTINUOUS
 10
439.95757499680002
 20
537.76648277610002
 30
0.0
  0
VERTEX
  5
71F2
  8
0
  6
CONTINUOUS
 10
440.18081631659999
 20
537.68888631799996
 30
0.0
  0
VERTEX
  5
71F3
  8
0
  6
CONTINUOUS
 10
440.3700714714999
 20
537.72566028979998
 30
0.0
  0
VERTEX
  5
71F4
  8
0
  6
CONTINUOUS
 10
440.49653309050001
 20
537.87120193960004
 30
0.0
  0
VERTEX
  5
71F5
  8
0
  6
CONTINUOUS
 10
440.54093479540001
 20
538.10336249879992
 30
0.0
  0
SEQEND
  5
71F6
  8
0
  6
CONTINUOUS
  0
ARC
  5
6FE7
  8
0
  6
CONTINUOUS
 10
425.76797671370002
 20
548.45486073530003
 30
0.0
 40
0.1536871998590166
 50
2.6068586361000001
 51
57.393757696199998
  0
LINE
  5
6FE8
  8
0
  6
CONTINUOUS
 10
424.43658183249988
 20
549.40073258819984
 30
0.0
 11
425.85079299249992
 21
548.58432586319998
 31
0.0
  0
LINE
  5
6FE9
  8
0
  6
CONTINUOUS
 10
424.43658183249988
 20
544.09321758160002
 30
0.0
 11
424.43658183249988
 21
549.40073258819984
 31
0.0
  0
LINE
  5
6FEA
  8
0
  6
CONTINUOUS
 10
425.92150486759999
 20
543.23598976009987
 30
0.0
 11
424.43658183249988
 21
544.09321758160002
 31
0.0
  0
LINE
  5
6FEB
  8
0
  6
CONTINUOUS
 10
425.92150486759999
 20
548.46185082409988
 30
0.0
 11
425.92150486759999
 21
543.23598976009987
 31
0.0
  0
ARC
  5
6FEC
  8
0
  6
CONTINUOUS
 10
538.90506060049995
 20
483.14221103099999
 30
0.0
 40
0.1536884386802215
 50
2.6070979631999989
 51
57.393518369100001
  0
LINE
  5
6FED
  8
0
  6
CONTINUOUS
 10
537.57366429360002
 20
484.0880851021999
 30
0.0
 11
538.98787808769987
 21
483.27167685659998
 31
0.0
  0
LINE
  5
6FEE
  8
0
  6
CONTINUOUS
 10
537.57366429360002
 20
478.7805700957
 30
0.0
 11
537.57366429360002
 21
484.0880851021999
 31
0.0
  0
LINE
  5
6FEF
  8
0
  6
CONTINUOUS
 10
539.05858996279994
 20
477.92334075339988
 30
0.0
 11
537.57366429360002
 21
478.7805700957
 31
0.0
  0
LINE
  5
6FF0
  8
0
  6
CONTINUOUS
 10
539.05858996279994
 20
483.1492018175
 30
0.0
 11
539.05858996279994
 21
477.92334075339988
 31
0.0
  0
ARC
  5
6FF1
  8
0
  6
CONTINUOUS
 10
567.17383626519995
 20
466.95049240650002
 30
0.0
 40
0.0436718204510015
 50
50.797753945499998
 51
189.21114944920001
  0
LINE
  5
6FF2
  8
0
  6
CONTINUOUS
 10
567.13072758700002
 20
461.71764065100001
 30
0.0
 11
567.13072758700002
 21
466.94350171510001
 31
0.0
  0
LINE
  5
6FF3
  8
0
  6
CONTINUOUS
 10
568.61565062210002
 20
460.86041282949998
 30
0.0
 11
567.13072758700002
 21
461.71764065100001
 31
0.0
  0
LINE
  5
6FF4
  8
0
  6
CONTINUOUS
 10
568.61565062210002
 20
466.16792783599999
 30
0.0
 11
568.61565062210002
 21
460.86041282949998
 31
0.0
  0
LINE
  5
6FF5
  8
0
  6
CONTINUOUS
 10
567.20143946209987
 20
466.98433456099991
 30
0.0
 11
568.61565062210002
 21
466.16792783599999
 31
0.0
  0
ARC
  5
6FF6
  8
0
  6
CONTINUOUS
 10
454.03675130430003
 20
532.26314118050004
 30
0.0
 40
0.0436719157915227
 50
50.798083342099993
 51
189.2108200529
  0
LINE
  5
6FF7
  8
0
  6
CONTINUOUS
 10
453.99364249180002
 20
527.0302896577
 30
0.0
 11
453.99364249180002
 21
532.25615072170001
 31
0.0
  0
LINE
  5
6FF8
  8
0
  6
CONTINUOUS
 10
455.47856816109999
 20
526.17306031539988
 30
0.0
 11
453.99364249180002
 21
527.0302896577
 31
0.0
  0
LINE
  5
6FF9
  8
0
  6
CONTINUOUS
 10
455.47856816109999
 20
531.48057532199994
 30
0.0
 11
455.47856816109999
 21
526.17306031539988
 31
0.0
  0
LINE
  5
6FFA
  8
0
  6
CONTINUOUS
 10
454.06435436689998
 20
532.29698356760002
 30
0.0
 11
455.47856816109999
 21
531.48057532199994
 31
0.0
  0
POLYLINE
  5
6FFB
  8
0
  6
CONTINUOUS
 66
     1
 10
0.0
 20
0.0
 30
0.0
 70
   128
  0
VERTEX
  5
71F7
  8
0
  6
CONTINUOUS
 10
553.67802252479999
 20
472.79071197140001
 30
0.0
  0
VERTEX
  5
71F8
  8
0
  6
CONTINUOUS
 10
553.63361555150004
 20
473.07414068920002
 30
0.0
  0
VERTEX
  5
71F9
  8
0
  6
CONTINUOUS
 10
553.50715920089999
 20
473.36568915520002
 30
0.0
  0
VERTEX
  5
71FA
  8
0
  6
CONTINUOUS
 10
553.31790404599985
 20
473.62097209749999
 30
0.0
  0
VERTEX
  5
71FB
  8
0
  6
CONTINUOUS
 10
553.09465745779994
 20
473.80112762239992
 30
0.0
  0
VERTEX
  5
71FC
  8
0
  6
CONTINUOUS
 10
552.87141613799997
 20
473.87872408039999
 30
0.0
  0
VERTEX
  5
71FD
  8
0
  6
CONTINUOUS
 10
552.68216098309995
 20
473.84195048890001
 30
0.0
  0
VERTEX
  5
71FE
  8
0
  6
CONTINUOUS
 10
552.55569936409995
 20
473.69640845890001
 30
0.0
  0
VERTEX
  5
71FF
  8
0
  6
CONTINUOUS
 10
552.51129765919995
 20
473.46424789970001
 30
0.0
  0
VERTEX
  5
7200
  8
0
  6
CONTINUOUS
 10
552.55569936409995
 20
473.18082222330003
 30
0.0
  0
VERTEX
  5
7201
  8
0
  6
CONTINUOUS
 10
552.68216098309995
 20
472.8892710961
 30
0.0
  0
VERTEX
  5
7202
  8
0
  6
CONTINUOUS
 10
552.87141613799997
 20
472.63398777359993
 30
0.0
  0
VERTEX
  5
7203
  8
0
  6
CONTINUOUS
 10
553.09465745779994
 20
472.4538352900999
 30
0.0
  0
VERTEX
  5
7204
  8
0
  6
CONTINUOUS
 10
553.31790404599985
 20
472.37623579069992
 30
0.0
  0
VERTEX
  5
7205
  8
0
  6
CONTINUOUS
 10
553.50715920089999
 20
472.4130097625
 30
0.0
  0
VERTEX
  5
7206
  8
0
  6
CONTINUOUS
 10
553.63361555150004
 20
472.55855445359992
 30
0.0
  0
VERTEX
  5
7207
  8
0
  6
CONTINUOUS
 10
553.67802252479999
 20
472.79071197140001
 30
0.0
  0
SEQEND
  5
7208
  8
0
  6
CONTINUOUS
  0
LINE
  5
6FFC
  8
0
  6
CONTINUOUS
 10
384.27291639980001
 20
582.92849826969984
 30
0.0
 11
384.27291639980001
 21
583.03991064609988
 31
0.0
  0
LINE
  5
6FFD
  8
0
  6
CONTINUOUS
 10
244.08899479580001
 20
504.15447360519988
 30
0.0
 11
242.67477836739999
 21
504.15447360519988
 31
0.0
  0
LINE
  5
6FFE
  8
0
  6
CONTINUOUS
 10
244.08899479580001
 20
504.15447360519988
 30
0.0
 11
245.57393363599999
 21
503.29723665959989
 31
0.0
  0
LINE
  5
6FFF
  8
0
  6
CONTINUOUS
 10
328.3054261076
 20
551.05711066589993
 30
0.0
 11
326.82048726739998
 21
551.91434761150003
 31
0.0
  0
LINE
  5
7000
  8
0
  6
CONTINUOUS
 10
326.82048726739998
 20
552.73075737789986
 30
0.0
 11
326.82048726739998
 21
551.91434761150003
 31
0.0
  0
LINE
  5
7001
  8
0
  6
CONTINUOUS
 10
326.82048726739998
 20
552.73075737789986
 30
0.0
 11
327.5275928474
 21
553.13896074030004
 31
0.0
  0
LINE
  5
7002
  8
0
  6
CONTINUOUS
 10
328.94180927579998
 20
553.13896074030004
 30
0.0
 11
327.5275928474
 21
553.13896074030004
 31
0.0
  0
LINE
  5
7003
  8
0
  6
CONTINUOUS
 10
328.94180927579998
 20
553.13896074030004
 30
0.0
 11
330.42674811590001
 21
552.28172379470004
 31
0.0
  0
LINE
  5
7004
  8
0
  6
CONTINUOUS
 10
243.45261162759999
 20
502.0726235308
 30
0.0
 11
241.96767278740001
 21
502.92986047639999
 31
0.0
  0
LINE
  5
7005
  8
0
  6
CONTINUOUS
 10
241.96767278740001
 20
503.74627024269989
 30
0.0
 11
241.96767278740001
 21
502.92986047639999
 31
0.0
  0
LINE
  5
7006
  8
0
  6
CONTINUOUS
 10
241.96767278740001
 20
503.74627024269989
 30
0.0
 11
242.67477836739999
 21
504.15447360519988
 31
0.0
  0
ARC
  5
7007
  8
0
  6
CONTINUOUS
 10
384.16514266690001
 20
583.05738551720003
 30
0.0
 40
0.1091812650057711
 50
350.78998376750002
 51
129.20370046720001
  0
LINE
  5
7008
  8
0
  6
CONTINUOUS
 10
384.09613144370002
 20
583.14199047989985
 30
0.0
 11
383.97232507619998
 21
583.07051858529985
 31
0.0
  0
POLYLINE
  5
7009
  8
0
  6
CONTINUOUS
 10
424.43658081311867
 20
544.09321902521026
 30
0.0
 66
     1
 70
     8
  0
VERTEX
  8
0
  5
7DF4
 10
424.437
 20
544.093
 30
0.000000
  70
    32
  0
VERTEX
  8
0
  5
7DF5
 10
424.439
 20
544.094
 30
0.000000
  70
    32
  0
VERTEX
  8
0
  5
7DF6
 10
424.440
 20
544.095
 30
0.000000
  70
    32
  0
VERTEX
  8
0
  5
7DF7
 10
424.442
 20
544.097
 30
0.000000
  70
    32
  0
VERTEX
  8
0
  5
7DF8
 10
424.444
 20
544.098
 30
0.000000
  70
    32
  0
VERTEX
  8
0
  5
7DF9
 10
424.446
 20
544.099
 30
0.000000
  70
    32
  0
VERTEX
  8
0
  5
7DFA
 10
424.448
 20
544.100
 30
0.000000
  70
    32
  0
VERTEX
  8
0
  5
7DFB
 10
424.450
 20
544.101
 30
0.000000
  70
    32
  0
VERTEX
  8
0
  5
7DFC
 10
424.452
 20
544.102
 30
0.000000
  70
    32
  0
VERTEX
  8
0
  5
7DFD
 10
424.454
 20
544.103
 30
0.000000
  70
    32
  0
VERTEX
  8
0
  5
7DFE
 10
424.455
 20
544.104
 30
0.000000
  70
    32
  0
VERTEX
  8
0
  5
7DFF
 10
424.457
 20
544.105
 30
0.000000
  70
    32
  0
VERTEX
  8
0
  5
7E00
 10
424.459
 20
544.106
 30
0.000000
  70
    32
  0
VERTEX
  8
0
  5
7E01
 10
424.461
 20
544.107
 30
0.000000
  70
    32
  0
VERTEX
  8
0
  5
7E02
 10
424.463
 20
544.108
 30
0.000000
  70
    32
  0
VERTEX
  8
0
  5
7E03
 10
424.464
 20
544.109
 30
0.000000
  70
    32
  0
VERTEX
  8
0
  5
7E04
 10
424.466
 20
544.110
 30
0.000000
  70
    32
  0
VERTEX
  8
0
  5
7E05
 10
424.468
 20
544.111
 30
0.000000
  70
    32
  0
VERTEX
  8
0
  5
7E06
 10
424.470
 20
544.112
 30
0.000000
  70
    32
  0
VERTEX
  8
0
  5
7E07
 10
424.471
 20
544.113
 30
0.000000
  70
    32
  0
VERTEX
  8
0
  5
7E08
 10
424.473
 20
544.114
 30
0.000000
  70
    32
  0
VERTEX
  8
0
  5
7E09
 10
424.475
 20
544.115
 30
0.000000
  70
    32
  0
VERTEX
  8
0
  5
7E0A
 10
424.477
 20
544.116
 30
0.000000
  70
    32
  0
VERTEX
  8
0
  5
7E0B
 10
424.478
 20
544.117
 30
0.000000
  70
    32
  0
VERTEX
  8
0
  5
7E0C
 10
424.480
 20
544.118
 30
0.000000
  70
    32
  0
VERTEX
  8
0
  5
7E0D
 10
424.481
 20
544.119
 30
0.000000
  70
    32
  0
VERTEX
  8
0
  5
7E0E
 10
424.483
 20
544.120
 30
0.000000
  70
    32
  0
VERTEX
  8
0
  5
7E0F
 10
424.485
 20
544.121
 30
0.000000
  70
    32
  0
VERTEX
  8
0
  5
7E10
 10
424.486
 20
544.122
 30
0.000000
  70
    32
  0
VERTEX
  8
0
  5
7E11
 10
424.488
 20
544.123
 30
0.000000
  70
    32
  0
VERTEX
  8
0
  5
7E12
 10
424.489
 20
544.124
 30
0.000000
  70
    32
  0
VERTEX
  8
0
  5
7E13
 10
424.491
 20
544.125
 30
0.000000
  70
    32
  0
VERTEX
  8
0
  5
7E14
 10
424.493
 20
544.126
 30
0.000000
  70
    32
  0
VERTEX
  8
0
  5
7E15
 10
424.494
 20
544.126
 30
0.000000
  70
    32
  0
VERTEX
  8
0
  5
7E16
 10
424.496
 20
544.127
 30
0.000000
  70
    32
  0
VERTEX
  8
0
  5
7E17
 10
424.497
 20
544.128
 30
0.000000
  70
    32
  0
VERTEX
  8
0
  5
7E18
 10
424.499
 20
544.129
 30
0.000000
  70
    32
  0
VERTEX
  8
0
  5
7E19
 10
424.500
 20
544.130
 30
0.000000
  70
    32
  0
VERTEX
  8
0
  5
7E1A
 10
424.501
 20
544.131
 30
0.000000
  70
    32
  0
VERTEX
  8
0
  5
7E1B
 10
424.503
 20
544.132
 30
0.000000
  70
    32
  0
VERTEX
  8
0
  5
7E1C
 10
424.504
 20
544.132
 30
0.000000
  70
    32
  0
VERTEX
  8
0
  5
7E1D
 10
424.506
 20
544.133
 30
0.000000
  70
    32
  0
VERTEX
  8
0
  5
7E1E
 10
424.507
 20
544.134
 30
0.000000
  70
    32
  0
VERTEX
  8
0
  5
7E1F
 10
424.509
 20
544.135
 30
0.000000
  70
    32
  0
VERTEX
  8
0
  5
7E20
 10
424.510
 20
544.136
 30
0.000000
  70
    32
  0
VERTEX
  8
0
  5
7E21
 10
424.511
 20
544.136
 30
0.000000
  70
    32
  0
VERTEX
  8
0
  5
7E22
 10
424.513
 20
544.137
 30
0.000000
  70
    32
  0
VERTEX
  8
0
  5
7E23
 10
424.514
 20
544.138
 30
0.000000
  70
    32
  0
VERTEX
  8
0
  5
7E24
 10
424.515
 20
544.139
 30
0.000000
  70
    32
  0
VERTEX
  8
0
  5
7E25
 10
424.517
 20
544.139
 30
0.000000
  70
    32
  0
VERTEX
  8
0
  5
7E26
 10
424.518
 20
544.140
 30
0.000000
  70
    32
  0
VERTEX
  8
0
  5
7E27
 10
424.519
 20
544.141
 30
0.000000
  70
    32
  0
VERTEX
  8
0
  5
7E28
 10
424.520
 20
544.142
 30
0.000000
  70
    32
  0
VERTEX
  8
0
  5
7E29
 10
424.522
 20
544.142
 30
0.000000
  70
    32
  0
VERTEX
  8
0
  5
7E2A
 10
424.523
 20
544.143
 30
0.000000
  70
    32
  0
VERTEX
  8
0
  5
7E2B
 10
424.524
 20
544.144
 30
0.000000
  70
    32
  0
VERTEX
  8
0
  5
7E2C
 10
424.525
 20
544.144
 30
0.000000
  70
    32
  0
VERTEX
  8
0
  5
7E2D
 10
424.526
 20
544.145
 30
0.000000
  70
    32
  0
VERTEX
  8
0
  5
7E2E
 10
424.528
 20
544.146
 30
0.000000
  70
    32
  0
VERTEX
  8
0
  5
7E2F
 10
424.529
 20
544.146
 30
0.000000
  70
    32
  0
VERTEX
  8
0
  5
7E30
 10
424.530
 20
544.147
 30
0.000000
  70
    32
  0
VERTEX
  8
0
  5
7E31
 10
424.531
 20
544.148
 30
0.000000
  70
    32
  0
VERTEX
  8
0
  5
7E32
 10
424.532
 20
544.148
 30
0.000000
  70
    32
  0
VERTEX
  8
0
  5
7E33
 10
424.533
 20
544.149
 30
0.000000
  70
    32
  0
VERTEX
  8
0
  5
7E34
 10
424.534
 20
544.150
 30
0.000000
  70
    32
  0
VERTEX
  8
0
  5
7E35
 10
424.535
 20
544.150
 30
0.000000
  70
    32
  0
VERTEX
  8
0
  5
7E36
 10
424.536
 20
544.151
 30
0.000000
  70
    32
  0
VERTEX
  8
0
  5
7E37
 10
424.537
 20
544.151
 30
0.000000
  70
    32
  0
VERTEX
  8
0
  5
7E38
 10
424.538
 20
544.152
 30
0.000000
  70
    32
  0
VERTEX
  8
0
  5
7E39
 10
424.539
 20
544.152
 30
0.000000
  70
    32
  0
VERTEX
  8
0
  5
7E3A
 10
424.540
 20
544.153
 30
0.000000
  70
    32
  0
VERTEX
  8
0
  5
7E3B
 10
424.541
 20
544.154
 30
0.000000
  70
    32
  0
VERTEX
  8
0
  5
7E3C
 10
424.542
 20
544.154
 30
0.000000
  70
    32
  0
VERTEX
  8
0
  5
7E3D
 10
424.543
 20
544.155
 30
0.000000
  70
    32
  0
VERTEX
  8
0
  5
7E3E
 10
424.544
 20
544.155
 30
0.000000
  70
    32
  0
VERTEX
  8
0
  5
7E3F
 10
424.545
 20
544.156
 30
0.000000
  70
    32
  0
VERTEX
  8
0
  5
7E40
 10
424.546
 20
544.156
 30
0.000000
  70
    32
  0
VERTEX
  8
0
  5
7E41
 10
424.547
 20
544.157
 30
0.000000
  70
    32
  0
VERTEX
  8
0
  5
7E42
 10
424.547
 20
544.157
 30
0.000000
  70
    32
  0
VERTEX
  8
0
  5
7E43
 10
424.548
 20
544.158
 30
0.000000
  70
    32
  0
VERTEX
  8
0
  5
7E44
 10
424.549
 20
544.158
 30
0.000000
  70
    32
  0
VERTEX
  8
0
  5
7E45
 10
424.550
 20
544.159
 30
0.000000
  70
    32
  0
VERTEX
  8
0
  5
7E46
 10
424.551
 20
544.159
 30
0.000000
  70
    32
  0
VERTEX
  8
0
  5
7E47
 10
424.551
 20
544.159
 30
0.000000
  70
    32
  0
VERTEX
  8
0
  5
7E48
 10
424.552
 20
544.160
 30
0.000000
  70
    32
  0
VERTEX
  8
0
  5
7E49
 10
424.553
 20
544.160
 30
0.000000
  70
    32
  0
VERTEX
  8
0
  5
7E4A
 10
424.554
 20
544.161
 30
0.000000
  70
    32
  0
VERTEX
  8
0
  5
7E4B
 10
424.554
 20
544.161
 30
0.000000
  70
    32
  0
VERTEX
  8
0
  5
7E4C
 10
424.555
 20
544.162
 30
0.000000
  70
    32
  0
VERTEX
  8
0
  5
7E4D
 10
424.556
 20
544.162
 30
0.000000
  70
    32
  0
VERTEX
  8
0
  5
7E4E
 10
424.556
 20
544.162
 30
0.000000
  70
    32
  0
VERTEX
  8
0
  5
7E4F
 10
424.557
 20
544.163
 30
0.000000
  70
    32
  0
VERTEX
  8
0
  5
7E50
 10
424.557
 20
544.163
 30
0.000000
  70
    32
  0
VERTEX
  8
0
  5
7E51
 10
424.558
 20
544.163
 30
0.000000
  70
    32
  0
VERTEX
  8
0
  5
7E52
 10
424.559
 20
544.164
 30
0.000000
  70
    32
  0
VERTEX
  8
0
  5
7E53
 10
424.559
 20
544.164
 30
0.000000
  70
    32
  0
VERTEX
  8
0
  5
7E54
 10
424.560
 20
544.164
 30
0.000000
  70
    32
  0
VERTEX
  8
0
  5
7E55
 10
424.560
 20
544.165
 30
0.000000
  70
    32
  0
VERTEX
  8
0
  5
7E56
 10
424.561
 20
544.165
 30
0.000000
  70
    32
  0
VERTEX
  8
0
  5
7E57
 10
424.561
 20
544.165
 30
0.000000
  70
    32
  0
VERTEX
  8
0
  5
7E58
 10
424.562
 20
544.166
 30
0.000000
  70
    32
  0
VERTEX
  8
0
  5
7E59
 10
424.562
 20
544.166
 30
0.000000
  70
    32
  0
VERTEX
  8
0
  5
7E5A
 10
424.563
 20
544.166
 30
0.000000
  70
    32
  0
VERTEX
  8
0
  5
7E5B
 10
424.563
 20
544.166
 30
0.000000
  70
    32
  0
VERTEX
  8
0
  5
7E5C
 10
424.564
 20
544.167
 30
0.000000
  70
    32
  0
VERTEX
  8
0
  5
7E5D
 10
424.564
 20
544.167
 30
0.000000
  70
    32
  0
VERTEX
  8
0
  5
7E5E
 10
424.564
 20
544.167
 30
0.000000
  70
    32
  0
VERTEX
  8
0
  5
7E5F
 10
424.565
 20
544.167
 30
0.000000
  70
    32
  0
VERTEX
  8
0
  5
7E60
 10
424.565
 20
544.167
 30
0.000000
  70
    32
  0
VERTEX
  8
0
  5
7E61
 10
424.565
 20
544.168
 30
0.000000
  70
    32
  0
VERTEX
  8
0
  5
7E62
 10
424.566
 20
544.168
 30
0.000000
  70
    32
  0
VERTEX
  8
0
  5
7E63
 10
424.566
 20
544.168
 30
0.000000
  70
    32
  0
VERTEX
  8
0
  5
7E64
 10
424.566
 20
544.168
 30
0.000000
  70
    32
  0
VERTEX
  8
0
  5
7E65
 10
424.566
 20
544.168
 30
0.000000
  70
    32
  0
VERTEX
  8
0
  5
7E66
 10
424.567
 20
544.168
 30
0.000000
  70
    32
  0
VERTEX
  8
0
  5
7E67
 10
424.567
 20
544.169
 30
0.000000
  70
    32
  0
VERTEX
  8
0
  5
7E68
 10
424.567
 20
544.169
 30
0.000000
  70
    32
  0
VERTEX
  8
0
  5
7E69
 10
424.567
 20
544.169
 30
0.000000
  70
    32
  0
VERTEX
  8
0
  5
7E6A
 10
424.568
 20
544.169
 30
0.000000
  70
    32
  0
VERTEX
  8
0
  5
7E6B
 10
424.568
 20
544.169
 30
0.000000
  70
    32
  0
VERTEX
  8
0
  5
7E6C
 10
424.568
 20
544.169
 30
0.000000
  70
    32
  0
VERTEX
  8
0
  5
7E6D
 10
424.568
 20
544.169
 30
0.000000
  70
    32
  0
VERTEX
  8
0
  5
7E6E
 10
424.568
 20
544.169
 30
0.000000
  70
    32
  0
VERTEX
  8
0
  5
7E6F
 10
424.568
 20
544.169
 30
0.000000
  70
    32
  0
VERTEX
  8
0
  5
7E70
 10
424.568
 20
544.169
 30
0.000000
  70
    32
  0
VERTEX
  8
0
  5
7E71
 10
424.568
 20
544.169
 30
0.000000
  70
    32
  0
VERTEX
  8
0
  5
7E72
 10
424.568
 20
544.169
 30
0.000000
  70
    32
  0
VERTEX
  8
0
  5
7E73
 10
424.568
 20
544.169
 30
0.000000
  70
    32
  0
VERTEX
  8
0
  5
7E74
 10
424.568
 20
544.169
 30
0.000000
  70
    32
  0
SEQEND
  8
0
  5
7E75
  0
ARC
  5
700A
  8
0
  6
CONTINUOUS
 10
424.34420661619998
 20
549.19532477019982
 30
0.0
 40
0.2252233386489959
 50
5.5338043619999997
 51
65.785780031800002
  0
ARC
  5
700B
  8
0
  6
CONTINUOUS
 10
425.69736538900003
 20
543.25868006890005
 30
0.0
 40
0.2252850549420503
 50
354.21946996719998
 51
54.469539098699997
  0
LINE
  5
700C
  8
0
  6
CONTINUOUS
 10
425.92150486759999
 20
548.46185082409988
 30
0.0
 11
425.74473044829989
 21
548.35980112399989
 31
0.0
  0
LINE
  5
700D
  8
0
  6
CONTINUOUS
 10
425.74473044829989
 20
548.35980112399989
 30
0.0
 11
425.74473044829989
 21
543.49025951040005
 31
0.0
  0
LINE
  5
700E
  8
0
  6
CONTINUOUS
 10
425.67401857319999
 20
548.48227616309998
 30
0.0
 11
425.85079299249992
 21
548.58432586319998
 31
0.0
  0
LINE
  5
700F
  8
0
  6
CONTINUOUS
 10
425.67401857319999
 20
548.48227616309998
 30
0.0
 11
424.56838556449992
 21
549.12054451300003
 31
0.0
  0
ARC
  5
7010
  8
0
  6
CONTINUOUS
 10
425.59120229429988
 20
548.35281103509999
 30
0.0
 40
0.1536871998589568
 50
2.6068586362000001
 51
57.393757696199998
  0
POLYLINE
  5
7011
  8
0
  6
CONTINUOUS
 66
     1
 10
0.0
 20
0.0
 30
0.0
 70
   128
  0
VERTEX
  5
7209
  8
0
  6
CONTINUOUS
 10
440.27207478039998
 20
537.69120830370002
 30
0.0
  0
VERTEX
  5
720A
  8
0
  6
CONTINUOUS
 10
440.31975867109998
 20
537.76915223949993
 30
0.0
  0
VERTEX
  5
720B
  8
0
  6
CONTINUOUS
 10
440.36416037599992
 20
538.00131279870004
 30
0.0
  0
VERTEX
  5
720C
  8
0
  6
CONTINUOUS
 10
440.31975867109998
 20
538.28473847509986
 30
0.0
  0
VERTEX
  5
720D
  8
0
  6
CONTINUOUS
 10
440.19329705220002
 20
538.57628998250004
 30
0.0
  0
VERTEX
  5
720E
  8
0
  6
CONTINUOUS
 10
440.0040418973
 20
538.83157292470003
 30
0.0
  0
VERTEX
  5
720F
  8
0
  6
CONTINUOUS
 10
439.78080057739999
 20
539.01172540829998
 30
0.0
  0
VERTEX
  5
7210
  8
0
  6
CONTINUOUS
 10
439.5575539891999
 20
539.08932490769996
 30
0.0
  0
VERTEX
  5
7211
  8
0
  6
CONTINUOUS
 10
439.46630079379997
 20
539.08700301699992
 30
0.0
  0
SEQEND
  5
7212
  8
0
  6
CONTINUOUS
  0
POLYLINE
  5
7012
  8
0
  6
CONTINUOUS
 10
455.4785685066069
 20
526.17306097034452
 30
0.0
 66
     1
 70
     8
  0
VERTEX
  8
0
  5
7E76
 10
455.479
 20
526.173
 30
0.000000
  70
    32
  0
VERTEX
  8
0
  5
7E77
 10
455.477
 20
526.176
 30
0.000000
  70
    32
  0
VERTEX
  8
0
  5
7E78
 10
455.475
 20
526.180
 30
0.000000
  70
    32
  0
VERTEX
  8
0
  5
7E79
 10
455.473
 20
526.183
 30
0.000000
  70
    32
  0
VERTEX
  8
0
  5
7E7A
 10
455.471
 20
526.187
 30
0.000000
  70
    32
  0
VERTEX
  8
0
  5
7E7B
 10
455.469
 20
526.190
 30
0.000000
  70
    32
  0
VERTEX
  8
0
  5
7E7C
 10
455.467
 20
526.193
 30
0.000000
  70
    32
  0
VERTEX
  8
0
  5
7E7D
 10
455.465
 20
526.197
 30
0.000000
  70
    32
  0
VERTEX
  8
0
  5
7E7E
 10
455.463
 20
526.200
 30
0.000000
  70
    32
  0
VERTEX
  8
0
  5
7E7F
 10
455.461
 20
526.203
 30
0.000000
  70
    32
  0
VERTEX
  8
0
  5
7E80
 10
455.458
 20
526.207
 30
0.000000
  70
    32
  0
VERTEX
  8
0
  5
7E81
 10
455.456
 20
526.210
 30
0.000000
  70
    32
  0
VERTEX
  8
0
  5
7E82
 10
455.454
 20
526.213
 30
0.000000
  70
    32
  0
VERTEX
  8
0
  5
7E83
 10
455.452
 20
526.216
 30
0.000000
  70
    32
  0
VERTEX
  8
0
  5
7E84
 10
455.450
 20
526.220
 30
0.000000
  70
    32
  0
VERTEX
  8
0
  5
7E85
 10
455.448
 20
526.223
 30
0.000000
  70
    32
  0
VERTEX
  8
0
  5
7E86
 10
455.446
 20
526.226
 30
0.000000
  70
    32
  0
VERTEX
  8
0
  5
7E87
 10
455.444
 20
526.229
 30
0.000000
  70
    32
  0
VERTEX
  8
0
  5
7E88
 10
455.442
 20
526.233
 30
0.000000
  70
    32
  0
VERTEX
  8
0
  5
7E89
 10
455.439
 20
526.236
 30
0.000000
  70
    32
  0
VERTEX
  8
0
  5
7E8A
 10
455.437
 20
526.239
 30
0.000000
  70
    32
  0
VERTEX
  8
0
  5
7E8B
 10
455.435
 20
526.242
 30
0.000000
  70
    32
  0
VERTEX
  8
0
  5
7E8C
 10
455.433
 20
526.246
 30
0.000000
  70
    32
  0
VERTEX
  8
0
  5
7E8D
 10
455.431
 20
526.249
 30
0.000000
  70
    32
  0
VERTEX
  8
0
  5
7E8E
 10
455.428
 20
526.252
 30
0.000000
  70
    32
  0
VERTEX
  8
0
  5
7E8F
 10
455.426
 20
526.255
 30
0.000000
  70
    32
  0
VERTEX
  8
0
  5
7E90
 10
455.424
 20
526.258
 30
0.000000
  70
    32
  0
VERTEX
  8
0
  5
7E91
 10
455.422
 20
526.261
 30
0.000000
  70
    32
  0
VERTEX
  8
0
  5
7E92
 10
455.419
 20
526.265
 30
0.000000
  70
    32
  0
VERTEX
  8
0
  5
7E93
 10
455.417
 20
526.268
 30
0.000000
  70
    32
  0
VERTEX
  8
0
  5
7E94
 10
455.415
 20
526.271
 30
0.000000
  70
    32
  0
VERTEX
  8
0
  5
7E95
 10
455.413
 20
526.274
 30
0.000000
  70
    32
  0
VERTEX
  8
0
  5
7E96
 10
455.410
 20
526.277
 30
0.000000
  70
    32
  0
VERTEX
  8
0
  5
7E97
 10
455.408
 20
526.280
 30
0.000000
  70
    32
  0
VERTEX
  8
0
  5
7E98
 10
455.406
 20
526.283
 30
0.000000
  70
    32
  0
VERTEX
  8
0
  5
7E99
 10
455.403
 20
526.286
 30
0.000000
  70
    32
  0
VERTEX
  8
0
  5
7E9A
 10
455.401
 20
526.289
 30
0.000000
  70
    32
  0
VERTEX
  8
0
  5
7E9B
 10
455.399
 20
526.292
 30
0.000000
  70
    32
  0
VERTEX
  8
0
  5
7E9C
 10
455.396
 20
526.295
 30
0.000000
  70
    32
  0
VERTEX
  8
0
  5
7E9D
 10
455.394
 20
526.298
 30
0.000000
  70
    32
  0
VERTEX
  8
0
  5
7E9E
 10
455.392
 20
526.301
 30
0.000000
  70
    32
  0
VERTEX
  8
0
  5
7E9F
 10
455.389
 20
526.304
 30
0.000000
  70
    32
  0
VERTEX
  8
0
  5
7EA0
 10
455.387
 20
526.307
 30
0.000000
  70
    32
  0
VERTEX
  8
0
  5
7EA1
 10
455.385
 20
526.310
 30
0.000000
  70
    32
  0
VERTEX
  8
0
  5
7EA2
 10
455.382
 20
526.313
 30
0.000000
  70
    32
  0
VERTEX
  8
0
  5
7EA3
 10
455.380
 20
526.316
 30
0.000000
  70
    32
  0
VERTEX
  8
0
  5
7EA4
 10
455.377
 20
526.319
 30
0.000000
  70
    32
  0
VERTEX
  8
0
  5
7EA5
 10
455.375
 20
526.322
 30
0.000000
  70
    32
  0
VERTEX
  8
0
  5
7EA6
 10
455.372
 20
526.325
 30
0.000000
  70
    32
  0
VERTEX
  8
0
  5
7EA7
 10
455.370
 20
526.328
 30
0.000000
  70
    32
  0
VERTEX
  8
0
  5
7EA8
 10
455.368
 20
526.331
 30
0.000000
  70
    32
  0
VERTEX
  8
0
  5
7EA9
 10
455.365
 20
526.334
 30
0.000000
  70
    32
  0
VERTEX
  8
0
  5
7EAA
 10
455.363
 20
526.337
 30
0.000000
  70
    32
  0
VERTEX
  8
0
  5
7EAB
 10
455.360
 20
526.340
 30
0.000000
  70
    32
  0
VERTEX
  8
0
  5
7EAC
 10
455.358
 20
526.342
 30
0.000000
  70
    32
  0
VERTEX
  8
0
  5
7EAD
 10
455.355
 20
526.345
 30
0.000000
  70
    32
  0
VERTEX
  8
0
  5
7EAE
 10
455.353
 20
526.348
 30
0.000000
  70
    32
  0
VERTEX
  8
0
  5
7EAF
 10
455.350
 20
526.351
 30
0.000000
  70
    32
  0
VERTEX
  8
0
  5
7EB0
 10
455.348
 20
526.354
 30
0.000000
  70
    32
  0
VERTEX
  8
0
  5
7EB1
 10
455.345
 20
526.356
 30
0.000000
  70
    32
  0
VERTEX
  8
0
  5
7EB2
 10
455.343
 20
526.359
 30
0.000000
  70
    32
  0
VERTEX
  8
0
  5
7EB3
 10
455.340
 20
526.362
 30
0.000000
  70
    32
  0
VERTEX
  8
0
  5
7EB4
 10
455.338
 20
526.365
 30
0.000000
  70
    32
  0
VERTEX
  8
0
  5
7EB5
 10
455.335
 20
526.367
 30
0.000000
  70
    32
  0
VERTEX
  8
0
  5
7EB6
 10
455.333
 20
526.370
 30
0.000000
  70
    32
  0
VERTEX
  8
0
  5
7EB7
 10
455.330
 20
526.373
 30
0.000000
  70
    32
  0
VERTEX
  8
0
  5
7EB8
 10
455.327
 20
526.375
 30
0.000000
  70
    32
  0
VERTEX
  8
0
  5
7EB9
 10
455.325
 20
526.378
 30
0.000000
  70
    32
  0
VERTEX
  8
0
  5
7EBA
 10
455.322
 20
526.381
 30
0.000000
  70
    32
  0
VERTEX
  8
0
  5
7EBB
 10
455.320
 20
526.383
 30
0.000000
  70
    32
  0
VERTEX
  8
0
  5
7EBC
 10
455.317
 20
526.386
 30
0.000000
  70
    32
  0
VERTEX
  8
0
  5
7EBD
 10
455.315
 20
526.389
 30
0.000000
  70
    32
  0
VERTEX
  8
0
  5
7EBE
 10
455.312
 20
526.391
 30
0.000000
  70
    32
  0
VERTEX
  8
0
  5
7EBF
 10
455.309
 20
526.394
 30
0.000000
  70
    32
  0
VERTEX
  8
0
  5
7EC0
 10
455.307
 20
526.396
 30
0.000000
  70
    32
  0
VERTEX
  8
0
  5
7EC1
 10
455.304
 20
526.399
 30
0.000000
  70
    32
  0
VERTEX
  8
0
  5
7EC2
 10
455.302
 20
526.401
 30
0.000000
  70
    32
  0
VERTEX
  8
0
  5
7EC3
 10
455.299
 20
526.404
 30
0.000000
  70
    32
  0
VERTEX
  8
0
  5
7EC4
 10
455.296
 20
526.406
 30
0.000000
  70
    32
  0
VERTEX
  8
0
  5
7EC5
 10
455.294
 20
526.409
 30
0.000000
  70
    32
  0
VERTEX
  8
0
  5
7EC6
 10
455.291
 20
526.411
 30
0.000000
  70
    32
  0
VERTEX
  8
0
  5
7EC7
 10
455.288
 20
526.414
 30
0.000000
  70
    32
  0
VERTEX
  8
0
  5
7EC8
 10
455.286
 20
526.416
 30
0.000000
  70
    32
  0
VERTEX
  8
0
  5
7EC9
 10
455.283
 20
526.418
 30
0.000000
  70
    32
  0
VERTEX
  8
0
  5
7ECA
 10
455.280
 20
526.421
 30
0.000000
  70
    32
  0
VERTEX
  8
0
  5
7ECB
 10
455.278
 20
526.423
 30
0.000000
  70
    32
  0
VERTEX
  8
0
  5
7ECC
 10
455.275
 20
526.426
 30
0.000000
  70
    32
  0
VERTEX
  8
0
  5
7ECD
 10
455.272
 20
526.428
 30
0.000000
  70
    32
  0
VERTEX
  8
0
  5
7ECE
 10
455.270
 20
526.430
 30
0.000000
  70
    32
  0
VERTEX
  8
0
  5
7ECF
 10
455.267
 20
526.433
 30
0.000000
  70
    32
  0
VERTEX
  8
0
  5
7ED0
 10
455.264
 20
526.435
 30
0.000000
  70
    32
  0
VERTEX
  8
0
  5
7ED1
 10
455.262
 20
526.437
 30
0.000000
  70
    32
  0
VERTEX
  8
0
  5
7ED2
 10
455.259
 20
526.439
 30
0.000000
  70
    32
  0
VERTEX
  8
0
  5
7ED3
 10
455.256
 20
526.442
 30
0.000000
  70
    32
  0
VERTEX
  8
0
  5
7ED4
 10
455.254
 20
526.444
 30
0.000000
  70
    32
  0
VERTEX
  8
0
  5
7ED5
 10
455.251
 20
526.446
 30
0.000000
  70
    32
  0
VERTEX
  8
0
  5
7ED6
 10
455.248
 20
526.448
 30
0.000000
  70
    32
  0
VERTEX
  8
0
  5
7ED7
 10
455.245
 20
526.450
 30
0.000000
  70
    32
  0
VERTEX
  8
0
  5
7ED8
 10
455.243
 20
526.453
 30
0.000000
  70
    32
  0
VERTEX
  8
0
  5
7ED9
 10
455.240
 20
526.455
 30
0.000000
  70
    32
  0
VERTEX
  8
0
  5
7EDA
 10
455.237
 20
526.457
 30
0.000000
  70
    32
  0
VERTEX
  8
0
  5
7EDB
 10
455.235
 20
526.459
 30
0.000000
  70
    32
  0
VERTEX
  8
0
  5
7EDC
 10
455.232
 20
526.461
 30
0.000000
  70
    32
  0
VERTEX
  8
0
  5
7EDD
 10
455.229
 20
526.463
 30
0.000000
  70
    32
  0
VERTEX
  8
0
  5
7EDE
 10
455.226
 20
526.465
 30
0.000000
  70
    32
  0
VERTEX
  8
0
  5
7EDF
 10
455.224
 20
526.467
 30
0.000000
  70
    32
  0
VERTEX
  8
0
  5
7EE0
 10
455.221
 20
526.469
 30
0.000000
  70
    32
  0
VERTEX
  8
0
  5
7EE1
 10
455.218
 20
526.471
 30
0.000000
  70
    32
  0
VERTEX
  8
0
  5
7EE2
 10
455.215
 20
526.473
 30
0.000000
  70
    32
  0
VERTEX
  8
0
  5
7EE3
 10
455.213
 20
526.475
 30
0.000000
  70
    32
  0
VERTEX
  8
0
  5
7EE4
 10
455.210
 20
526.477
 30
0.000000
  70
    32
  0
VERTEX
  8
0
  5
7EE5
 10
455.207
 20
526.479
 30
0.000000
  70
    32
  0
VERTEX
  8
0
  5
7EE6
 10
455.204
 20
526.481
 30
0.000000
  70
    32
  0
VERTEX
  8
0
  5
7EE7
 10
455.202
 20
526.483
 30
0.000000
  70
    32
  0
VERTEX
  8
0
  5
7EE8
 10
455.199
 20
526.485
 30
0.000000
  70
    32
  0
VERTEX
  8
0
  5
7EE9
 10
455.196
 20
526.487
 30
0.000000
  70
    32
  0
VERTEX
  8
0
  5
7EEA
 10
455.193
 20
526.488
 30
0.000000
  70
    32
  0
VERTEX
  8
0
  5
7EEB
 10
455.191
 20
526.490
 30
0.000000
  70
    32
  0
VERTEX
  8
0
  5
7EEC
 10
455.188
 20
526.492
 30
0.000000
  70
    32
  0
VERTEX
  8
0
  5
7EED
 10
455.185
 20
526.494
 30
0.000000
  70
    32
  0
VERTEX
  8
0
  5
7EEE
 10
455.182
 20
526.496
 30
0.000000
  70
    32
  0
VERTEX
  8
0
  5
7EEF
 10
455.180
 20
526.497
 30
0.000000
  70
    32
  0
VERTEX
  8
0
  5
7EF0
 10
455.177
 20
526.499
 30
0.000000
  70
    32
  0
VERTEX
  8
0
  5
7EF1
 10
455.174
 20
526.501
 30
0.000000
  70
    32
  0
VERTEX
  8
0
  5
7EF2
 10
455.171
 20
526.502
 30
0.000000
  70
    32
  0
VERTEX
  8
0
  5
7EF3
 10
455.169
 20
526.504
 30
0.000000
  70
    32
  0
VERTEX
  8
0
  5
7EF4
 10
455.166
 20
526.506
 30
0.000000
  70
    32
  0
VERTEX
  8
0
  5
7EF5
 10
455.163
 20
526.507
 30
0.000000
  70
    32
  0
VERTEX
  8
0
  5
7EF6
 10
455.160
 20
526.509
 30
0.000000
  70
    32
  0
SEQEND
  8
0
  5
7EF7
  0
ARC
  5
7013
  8
0
  6
CONTINUOUS
 10
455.15957505709991
 20
530.86099800969987
 30
0.0
 40
0.6968734793776477
 50
62.758053471099991
 51
101.82669816870001
  0
ARC
  5
7014
  8
0
  6
CONTINUOUS
 10
455.11839803939989
 20
530.98410383049986
 30
0.0
 40
0.5681415888662991
 50
100.3065321504
 51
119.0906357264
  0
LINE
  5
7015
  8
0
  6
CONTINUOUS
 10
454.80682115280001
 20
531.46016781499986
 30
0.0
 11
454.8421718219999
 21
531.48057532199994
 31
0.0
  0
LINE
  5
7016
  8
0
  6
CONTINUOUS
 10
455.01674933689998
 20
531.54307825419994
 30
0.0
 11
453.99364512599999
 21
532.13370374329986
 31
0.0
  0
LINE
  5
7017
  8
0
  6
CONTINUOUS
 10
327.5275928474
 20
553.13896074030004
 30
0.0
 11
327.5275928474
 21
553.34309635699981
 31
0.0
  0
LINE
  5
7018
  8
0
  6
CONTINUOUS
 10
328.94180927579998
 20
553.34309635699981
 30
0.0
 11
328.94180927579998
 21
553.13896074030004
 31
0.0
  0
LINE
  5
7019
  8
0
  6
CONTINUOUS
 10
327.5275928474
 20
553.34309635699981
 30
0.0
 11
328.94180927579998
 21
553.34309635699981
 31
0.0
  0
LINE
  5
701A
  8
0
  6
CONTINUOUS
 10
326.82048726739998
 20
552.93489299449993
 30
0.0
 11
326.82048726739998
 21
552.73075737789986
 31
0.0
  0
LINE
  5
701B
  8
0
  6
CONTINUOUS
 10
327.5275928474
 20
553.34309635699981
 30
0.0
 11
326.82048726739998
 21
552.93489299449993
 31
0.0
  0
LINE
  5
701C
  8
0
  6
CONTINUOUS
 10
330.60355414539998
 20
552.38379146310001
 30
0.0
 11
328.94180927579998
 21
553.34309635699981
 31
0.0
  0
POLYLINE
  5
701D
  8
0
  6
CONTINUOUS
 10
537.57366580287737
 20
478.78057007932858
 30
0.0
 66
     1
 70
     8
  0
VERTEX
  8
0
  5
7EF8
 10
537.574
 20
478.781
 30
0.000000
  70
    32
  0
VERTEX
  8
0
  5
7EF9
 10
537.576
 20
478.782
 30
0.000000
  70
    32
  0
VERTEX
  8
0
  5
7EFA
 10
537.578
 20
478.783
 30
0.000000
  70
    32
  0
VERTEX
  8
0
  5
7EFB
 10
537.579
 20
478.784
 30
0.000000
  70
    32
  0
VERTEX
  8
0
  5
7EFC
 10
537.581
 20
478.785
 30
0.000000
  70
    32
  0
VERTEX
  8
0
  5
7EFD
 10
537.583
 20
478.786
 30
0.000000
  70
    32
  0
VERTEX
  8
0
  5
7EFE
 10
537.585
 20
478.787
 30
0.000000
  70
    32
  0
VERTEX
  8
0
  5
7EFF
 10
537.587
 20
478.788
 30
0.000000
  70
    32
  0
VERTEX
  8
0
  5
7F00
 10
537.589
 20
478.789
 30
0.000000
  70
    32
  0
VERTEX
  8
0
  5
7F01
 10
537.591
 20
478.790
 30
0.000000
  70
    32
  0
VERTEX
  8
0
  5
7F02
 10
537.593
 20
478.791
 30
0.000000
  70
    32
  0
VERTEX
  8
0
  5
7F03
 10
537.594
 20
478.793
 30
0.000000
  70
    32
  0
VERTEX
  8
0
  5
7F04
 10
537.596
 20
478.794
 30
0.000000
  70
    32
  0
VERTEX
  8
0
  5
7F05
 10
537.598
 20
478.795
 30
0.000000
  70
    32
  0
VERTEX
  8
0
  5
7F06
 10
537.600
 20
478.796
 30
0.000000
  70
    32
  0
VERTEX
  8
0
  5
7F07
 10
537.602
 20
478.797
 30
0.000000
  70
    32
  0
VERTEX
  8
0
  5
7F08
 10
537.603
 20
478.798
 30
0.000000
  70
    32
  0
VERTEX
  8
0
  5
7F09
 10
537.605
 20
478.799
 30
0.000000
  70
    32
  0
VERTEX
  8
0
  5
7F0A
 10
537.607
 20
478.800
 30
0.000000
  70
    32
  0
VERTEX
  8
0
  5
7F0B
 10
537.609
 20
478.801
 30
0.000000
  70
    32
  0
VERTEX
  8
0
  5
7F0C
 10
537.610
 20
478.802
 30
0.000000
  70
    32
  0
VERTEX
  8
0
  5
7F0D
 10
537.612
 20
478.803
 30
0.000000
  70
    32
  0
VERTEX
  8
0
  5
7F0E
 10
537.614
 20
478.804
 30
0.000000
  70
    32
  0
VERTEX
  8
0
  5
7F0F
 10
537.615
 20
478.805
 30
0.000000
  70
    32
  0
VERTEX
  8
0
  5
7F10
 10
537.617
 20
478.806
 30
0.000000
  70
    32
  0
VERTEX
  8
0
  5
7F11
 10
537.619
 20
478.806
 30
0.000000
  70
    32
  0
VERTEX
  8
0
  5
7F12
 10
537.620
 20
478.807
 30
0.000000
  70
    32
  0
VERTEX
  8
0
  5
7F13
 10
537.622
 20
478.808
 30
0.000000
  70
    32
  0
VERTEX
  8
0
  5
7F14
 10
537.623
 20
478.809
 30
0.000000
  70
    32
  0
VERTEX
  8
0
  5
7F15
 10
537.625
 20
478.810
 30
0.000000
  70
    32
  0
VERTEX
  8
0
  5
7F16
 10
537.627
 20
478.811
 30
0.000000
  70
    32
  0
VERTEX
  8
0
  5
7F17
 10
537.628
 20
478.812
 30
0.000000
  70
    32
  0
VERTEX
  8
0
  5
7F18
 10
537.630
 20
478.813
 30
0.000000
  70
    32
  0
VERTEX
  8
0
  5
7F19
 10
537.631
 20
478.814
 30
0.000000
  70
    32
  0
VERTEX
  8
0
  5
7F1A
 10
537.633
 20
478.815
 30
0.000000
  70
    32
  0
VERTEX
  8
0
  5
7F1B
 10
537.634
 20
478.816
 30
0.000000
  70
    32
  0
VERTEX
  8
0
  5
7F1C
 10
537.636
 20
478.816
 30
0.000000
  70
    32
  0
VERTEX
  8
0
  5
7F1D
 10
537.637
 20
478.817
 30
0.000000
  70
    32
  0
VERTEX
  8
0
  5
7F1E
 10
537.639
 20
478.818
 30
0.000000
  70
    32
  0
VERTEX
  8
0
  5
7F1F
 10
537.640
 20
478.819
 30
0.000000
  70
    32
  0
VERTEX
  8
0
  5
7F20
 10
537.641
 20
478.820
 30
0.000000
  70
    32
  0
VERTEX
  8
0
  5
7F21
 10
537.643
 20
478.821
 30
0.000000
  70
    32
  0
VERTEX
  8
0
  5
7F22
 10
537.644
 20
478.821
 30
0.000000
  70
    32
  0
VERTEX
  8
0
  5
7F23
 10
537.646
 20
478.822
 30
0.000000
  70
    32
  0
VERTEX
  8
0
  5
7F24
 10
537.647
 20
478.823
 30
0.000000
  70
    32
  0
VERTEX
  8
0
  5
7F25
 10
537.648
 20
478.824
 30
0.000000
  70
    32
  0
VERTEX
  8
0
  5
7F26
 10
537.650
 20
478.824
 30
0.000000
  70
    32
  0
VERTEX
  8
0
  5
7F27
 10
537.651
 20
478.825
 30
0.000000
  70
    32
  0
VERTEX
  8
0
  5
7F28
 10
537.652
 20
478.826
 30
0.000000
  70
    32
  0
VERTEX
  8
0
  5
7F29
 10
537.654
 20
478.827
 30
0.000000
  70
    32
  0
VERTEX
  8
0
  5
7F2A
 10
537.655
 20
478.827
 30
0.000000
  70
    32
  0
VERTEX
  8
0
  5
7F2B
 10
537.656
 20
478.828
 30
0.000000
  70
    32
  0
VERTEX
  8
0
  5
7F2C
 10
537.657
 20
478.829
 30
0.000000
  70
    32
  0
VERTEX
  8
0
  5
7F2D
 10
537.659
 20
478.830
 30
0.000000
  70
    32
  0
VERTEX
  8
0
  5
7F2E
 10
537.660
 20
478.830
 30
0.000000
  70
    32
  0
VERTEX
  8
0
  5
7F2F
 10
537.661
 20
478.831
 30
0.000000
  70
    32
  0
VERTEX
  8
0
  5
7F30
 10
537.662
 20
478.832
 30
0.000000
  70
    32
  0
VERTEX
  8
0
  5
7F31
 10
537.663
 20
478.832
 30
0.000000
  70
    32
  0
VERTEX
  8
0
  5
7F32
 10
537.665
 20
478.833
 30
0.000000
  70
    32
  0
VERTEX
  8
0
  5
7F33
 10
537.666
 20
478.834
 30
0.000000
  70
    32
  0
VERTEX
  8
0
  5
7F34
 10
537.667
 20
478.834
 30
0.000000
  70
    32
  0
VERTEX
  8
0
  5
7F35
 10
537.668
 20
478.835
 30
0.000000
  70
    32
  0
VERTEX
  8
0
  5
7F36
 10
537.669
 20
478.836
 30
0.000000
  70
    32
  0
VERTEX
  8
0
  5
7F37
 10
537.670
 20
478.836
 30
0.000000
  70
    32
  0
VERTEX
  8
0
  5
7F38
 10
537.671
 20
478.837
 30
0.000000
  70
    32
  0
VERTEX
  8
0
  5
7F39
 10
537.672
 20
478.838
 30
0.000000
  70
    32
  0
VERTEX
  8
0
  5
7F3A
 10
537.673
 20
478.838
 30
0.000000
  70
    32
  0
VERTEX
  8
0
  5
7F3B
 10
537.674
 20
478.839
 30
0.000000
  70
    32
  0
VERTEX
  8
0
  5
7F3C
 10
537.675
 20
478.839
 30
0.000000
  70
    32
  0
VERTEX
  8
0
  5
7F3D
 10
537.676
 20
478.840
 30
0.000000
  70
    32
  0
VERTEX
  8
0
  5
7F3E
 10
537.677
 20
478.840
 30
0.000000
  70
    32
  0
VERTEX
  8
0
  5
7F3F
 10
537.678
 20
478.841
 30
0.000000
  70
    32
  0
VERTEX
  8
0
  5
7F40
 10
537.679
 20
478.841
 30
0.000000
  70
    32
  0
VERTEX
  8
0
  5
7F41
 10
537.680
 20
478.842
 30
0.000000
  70
    32
  0
VERTEX
  8
0
  5
7F42
 10
537.681
 20
478.843
 30
0.000000
  70
    32
  0
VERTEX
  8
0
  5
7F43
 10
537.682
 20
478.843
 30
0.000000
  70
    32
  0
VERTEX
  8
0
  5
7F44
 10
537.683
 20
478.844
 30
0.000000
  70
    32
  0
VERTEX
  8
0
  5
7F45
 10
537.684
 20
478.844
 30
0.000000
  70
    32
  0
VERTEX
  8
0
  5
7F46
 10
537.684
 20
478.845
 30
0.000000
  70
    32
  0
VERTEX
  8
0
  5
7F47
 10
537.685
 20
478.845
 30
0.000000
  70
    32
  0
VERTEX
  8
0
  5
7F48
 10
537.686
 20
478.845
 30
0.000000
  70
    32
  0
VERTEX
  8
0
  5
7F49
 10
537.687
 20
478.846
 30
0.000000
  70
    32
  0
VERTEX
  8
0
  5
7F4A
 10
537.688
 20
478.846
 30
0.000000
  70
    32
  0
VERTEX
  8
0
  5
7F4B
 10
537.688
 20
478.847
 30
0.000000
  70
    32
  0
VERTEX
  8
0
  5
7F4C
 10
537.689
 20
478.847
 30
0.000000
  70
    32
  0
VERTEX
  8
0
  5
7F4D
 10
537.690
 20
478.848
 30
0.000000
  70
    32
  0
VERTEX
  8
0
  5
7F4E
 10
537.691
 20
478.848
 30
0.000000
  70
    32
  0
VERTEX
  8
0
  5
7F4F
 10
537.691
 20
478.849
 30
0.000000
  70
    32
  0
VERTEX
  8
0
  5
7F50
 10
537.692
 20
478.849
 30
0.000000
  70
    32
  0
VERTEX
  8
0
  5
7F51
 10
537.693
 20
478.849
 30
0.000000
  70
    32
  0
VERTEX
  8
0
  5
7F52
 10
537.693
 20
478.850
 30
0.000000
  70
    32
  0
VERTEX
  8
0
  5
7F53
 10
537.694
 20
478.850
 30
0.000000
  70
    32
  0
VERTEX
  8
0
  5
7F54
 10
537.695
 20
478.850
 30
0.000000
  70
    32
  0
VERTEX
  8
0
  5
7F55
 10
537.695
 20
478.851
 30
0.000000
  70
    32
  0
VERTEX
  8
0
  5
7F56
 10
537.696
 20
478.851
 30
0.000000
  70
    32
  0
VERTEX
  8
0
  5
7F57
 10
537.696
 20
478.851
 30
0.000000
  70
    32
  0
VERTEX
  8
0
  5
7F58
 10
537.697
 20
478.852
 30
0.000000
  70
    32
  0
VERTEX
  8
0
  5
7F59
 10
537.697
 20
478.852
 30
0.000000
  70
    32
  0
VERTEX
  8
0
  5
7F5A
 10
537.698
 20
478.852
 30
0.000000
  70
    32
  0
VERTEX
  8
0
  5
7F5B
 10
537.698
 20
478.853
 30
0.000000
  70
    32
  0
VERTEX
  8
0
  5
7F5C
 10
537.699
 20
478.853
 30
0.000000
  70
    32
  0
VERTEX
  8
0
  5
7F5D
 10
537.699
 20
478.853
 30
0.000000
  70
    32
  0
VERTEX
  8
0
  5
7F5E
 10
537.700
 20
478.853
 30
0.000000
  70
    32
  0
VERTEX
  8
0
  5
7F5F
 10
537.700
 20
478.854
 30
0.000000
  70
    32
  0
VERTEX
  8
0
  5
7F60
 10
537.701
 20
478.854
 30
0.000000
  70
    32
  0
VERTEX
  8
0
  5
7F61
 10
537.701
 20
478.854
 30
0.000000
  70
    32
  0
VERTEX
  8
0
  5
7F62
 10
537.701
 20
478.854
 30
0.000000
  70
    32
  0
VERTEX
  8
0
  5
7F63
 10
537.702
 20
478.855
 30
0.000000
  70
    32
  0
VERTEX
  8
0
  5
7F64
 10
537.702
 20
478.855
 30
0.000000
  70
    32
  0
VERTEX
  8
0
  5
7F65
 10
537.702
 20
478.855
 30
0.000000
  70
    32
  0
VERTEX
  8
0
  5
7F66
 10
537.703
 20
478.855
 30
0.000000
  70
    32
  0
VERTEX
  8
0
  5
7F67
 10
537.703
 20
478.855
 30
0.000000
  70
    32
  0
VERTEX
  8
0
  5
7F68
 10
537.703
 20
478.855
 30
0.000000
  70
    32
  0
VERTEX
  8
0
  5
7F69
 10
537.704
 20
478.856
 30
0.000000
  70
    32
  0
VERTEX
  8
0
  5
7F6A
 10
537.704
 20
478.856
 30
0.000000
  70
    32
  0
VERTEX
  8
0
  5
7F6B
 10
537.704
 20
478.856
 30
0.000000
  70
    32
  0
VERTEX
  8
0
  5
7F6C
 10
537.704
 20
478.856
 30
0.000000
  70
    32
  0
VERTEX
  8
0
  5
7F6D
 10
537.704
 20
478.856
 30
0.000000
  70
    32
  0
VERTEX
  8
0
  5
7F6E
 10
537.705
 20
478.856
 30
0.000000
  70
    32
  0
VERTEX
  8
0
  5
7F6F
 10
537.705
 20
478.856
 30
0.000000
  70
    32
  0
VERTEX
  8
0
  5
7F70
 10
537.705
 20
478.856
 30
0.000000
  70
    32
  0
VERTEX
  8
0
  5
7F71
 10
537.705
 20
478.856
 30
0.000000
  70
    32
  0
VERTEX
  8
0
  5
7F72
 10
537.705
 20
478.857
 30
0.000000
  70
    32
  0
VERTEX
  8
0
  5
7F73
 10
537.705
 20
478.857
 30
0.000000
  70
    32
  0
VERTEX
  8
0
  5
7F74
 10
537.705
 20
478.857
 30
0.000000
  70
    32
  0
VERTEX
  8
0
  5
7F75
 10
537.705
 20
478.857
 30
0.000000
  70
    32
  0
VERTEX
  8
0
  5
7F76
 10
537.705
 20
478.857
 30
0.000000
  70
    32
  0
VERTEX
  8
0
  5
7F77
 10
537.705
 20
478.857
 30
0.000000
  70
    32
  0
VERTEX
  8
0
  5
7F78
 10
537.705
 20
478.857
 30
0.000000
  70
    32
  0
SEQEND
  8
0
  5
7F79
  0
ARC
  5
701E
  8
0
  6
CONTINUOUS
 10
537.48126344679986
 20
483.88265282380002
 30
0.0
 40
0.22525615967277
 50
5.5384691785999989
 51
65.782386128100001
  0
ARC
  5
701F
  8
0
  6
CONTINUOUS
 10
538.83445048420003
 20
477.94603106220001
 30
0.0
 40
0.2252850549416134
 50
354.2194699671
 51
54.469539098699997
  0
LINE
  5
7020
  8
0
  6
CONTINUOUS
 10
539.05858996279994
 20
483.1492018175
 30
0.0
 11
538.88181554350001
 21
483.0471521174
 31
0.0
  0
LINE
  5
7021
  8
0
  6
CONTINUOUS
 10
538.88181554350001
 20
483.0471521174
 30
0.0
 11
538.88181554350001
 21
478.1776105038
 31
0.0
  0
LINE
  5
7022
  8
0
  6
CONTINUOUS
 10
538.81110366839994
 20
483.16962715639988
 30
0.0
 11
538.98787808769987
 21
483.27167685659998
 31
0.0
  0
LINE
  5
7023
  8
0
  6
CONTINUOUS
 10
538.81110366839994
 20
483.16962715639988
 30
0.0
 11
537.7054680256
 21
483.8078970270999
 31
0.0
  0
ARC
  5
7024
  8
0
  6
CONTINUOUS
 10
538.72828618120002
 20
483.04016133089999
 30
0.0
 40
0.1536884386805145
 50
2.6070979633000002
 51
57.393518368999999
  0
POLYLINE
  5
7025
  8
0
  6
CONTINUOUS
 66
     1
 10
0.0
 20
0.0
 30
0.0
 70
   128
  0
VERTEX
  5
7213
  8
0
  6
CONTINUOUS
 10
553.50124810540001
 20
472.6886622712999
 30
0.0
  0
VERTEX
  5
7214
  8
0
  6
CONTINUOUS
 10
553.45684113219988
 20
472.97209098910002
 30
0.0
  0
VERTEX
  5
7215
  8
0
  6
CONTINUOUS
 10
553.33038478159995
 20
473.26363945510002
 30
0.0
  0
VERTEX
  5
7216
  8
0
  6
CONTINUOUS
 10
553.14112962670004
 20
473.51892239739999
 30
0.0
  0
VERTEX
  5
7217
  8
0
  6
CONTINUOUS
 10
552.91788303849989
 20
473.69907792229998
 30
0.0
  0
VERTEX
  5
7218
  8
0
  6
CONTINUOUS
 10
552.6946417186
 20
473.77667438029999
 30
0.0
  0
VERTEX
  5
7219
  8
0
  6
CONTINUOUS
 10
552.6033832549
 20
473.77435553099991
 30
0.0
  0
SEQEND
  5
721A
  8
0
  6
CONTINUOUS
  0
POLYLINE
  5
7026
  8
0
  6
CONTINUOUS
 66
     1
 10
0.0
 20
0.0
 30
0.0
 70
   128
  0
VERTEX
  5
721B
  8
0
  6
CONTINUOUS
 10
553.40916250980001
 20
472.37855777639987
 30
0.0
  0
VERTEX
  5
721C
  8
0
  6
CONTINUOUS
 10
553.45684113219988
 20
472.45650475349998
 30
0.0
  0
VERTEX
  5
721D
  8
0
  6
CONTINUOUS
 10
553.50124810540001
 20
472.6886622712999
 30
0.0
  0
SEQEND
  5
721E
  8
0
  6
CONTINUOUS
  0
LINE
  5
7027
  8
0
  6
CONTINUOUS
 10
242.67477836739999
 20
504.15447360519988
 30
0.0
 11
242.67477836739999
 21
504.3586092217999
 31
0.0
  0
LINE
  5
7028
  8
0
  6
CONTINUOUS
 10
244.08899479580001
 20
504.3586092217999
 30
0.0
 11
244.08899479580001
 21
504.15447360519988
 31
0.0
  0
LINE
  5
7029
  8
0
  6
CONTINUOUS
 10
242.67477836739999
 20
504.3586092217999
 30
0.0
 11
244.08899479580001
 21
504.3586092217999
 31
0.0
  0
LINE
  5
702A
  8
0
  6
CONTINUOUS
 10
241.96767278740001
 20
503.95040585939989
 30
0.0
 11
241.96767278740001
 21
503.74627024269989
 31
0.0
  0
LINE
  5
702B
  8
0
  6
CONTINUOUS
 10
242.67477836739999
 20
504.3586092217999
 30
0.0
 11
241.96767278740001
 21
503.95040585939989
 31
0.0
  0
LINE
  5
702C
  8
0
  6
CONTINUOUS
 10
245.75073966549999
 20
503.39930432800003
 30
0.0
 11
244.08899479580001
 21
504.3586092217999
 31
0.0
  0
POLYLINE
  5
702D
  8
0
  6
CONTINUOUS
 10
568.61565349650687
 20
460.86041202454453
 30
0.0
 66
     1
 70
     8
  0
VERTEX
  8
0
  5
7F7A
 10
568.616
 20
460.860
 30
0.000000
  70
    32
  0
VERTEX
  8
0
  5
7F7B
 10
568.614
 20
460.864
 30
0.000000
  70
    32
  0
VERTEX
  8
0
  5
7F7C
 10
568.612
 20
460.867
 30
0.000000
  70
    32
  0
VERTEX
  8
0
  5
7F7D
 10
568.610
 20
460.871
 30
0.000000
  70
    32
  0
VERTEX
  8
0
  5
7F7E
 10
568.608
 20
460.874
 30
0.000000
  70
    32
  0
VERTEX
  8
0
  5
7F7F
 10
568.606
 20
460.877
 30
0.000000
  70
    32
  0
VERTEX
  8
0
  5
7F80
 10
568.604
 20
460.881
 30
0.000000
  70
    32
  0
VERTEX
  8
0
  5
7F81
 10
568.602
 20
460.884
 30
0.000000
  70
    32
  0
VERTEX
  8
0
  5
7F82
 10
568.600
 20
460.887
 30
0.000000
  70
    32
  0
VERTEX
  8
0
  5
7F83
 10
568.598
 20
460.891
 30
0.000000
  70
    32
  0
VERTEX
  8
0
  5
7F84
 10
568.596
 20
460.894
 30
0.000000
  70
    32
  0
VERTEX
  8
0
  5
7F85
 10
568.593
 20
460.897
 30
0.000000
  70
    32
  0
VERTEX
  8
0
  5
7F86
 10
568.591
 20
460.900
 30
0.000000
  70
    32
  0
VERTEX
  8
0
  5
7F87
 10
568.589
 20
460.904
 30
0.000000
  70
    32
  0
VERTEX
  8
0
  5
7F88
 10
568.587
 20
460.907
 30
0.000000
  70
    32
  0
VERTEX
  8
0
  5
7F89
 10
568.585
 20
460.910
 30
0.000000
  70
    32
  0
VERTEX
  8
0
  5
7F8A
 10
568.583
 20
460.914
 30
0.000000
  70
    32
  0
VERTEX
  8
0
  5
7F8B
 10
568.581
 20
460.917
 30
0.000000
  70
    32
  0
VERTEX
  8
0
  5
7F8C
 10
568.579
 20
460.920
 30
0.000000
  70
    32
  0
VERTEX
  8
0
  5
7F8D
 10
568.576
 20
460.923
 30
0.000000
  70
    32
  0
VERTEX
  8
0
  5
7F8E
 10
568.574
 20
460.927
 30
0.000000
  70
    32
  0
VERTEX
  8
0
  5
7F8F
 10
568.572
 20
460.930
 30
0.000000
  70
    32
  0
VERTEX
  8
0
  5
7F90
 10
568.570
 20
460.933
 30
0.000000
  70
    32
  0
VERTEX
  8
0
  5
7F91
 10
568.568
 20
460.936
 30
0.000000
  70
    32
  0
VERTEX
  8
0
  5
7F92
 10
568.566
 20
460.939
 30
0.000000
  70
    32
  0
VERTEX
  8
0
  5
7F93
 10
568.563
 20
460.942
 30
0.000000
  70
    32
  0
VERTEX
  8
0
  5
7F94
 10
568.561
 20
460.946
 30
0.000000
  70
    32
  0
VERTEX
  8
0
  5
7F95
 10
568.559
 20
460.949
 30
0.000000
  70
    32
  0
VERTEX
  8
0
  5
7F96
 10
568.557
 20
460.952
 30
0.000000
  70
    32
  0
VERTEX
  8
0
  5
7F97
 10
568.554
 20
460.955
 30
0.000000
  70
    32
  0
VERTEX
  8
0
  5
7F98
 10
568.552
 20
460.958
 30
0.000000
  70
    32
  0
VERTEX
  8
0
  5
7F99
 10
568.550
 20
460.961
 30
0.000000
  70
    32
  0
VERTEX
  8
0
  5
7F9A
 10
568.547
 20
460.964
 30
0.000000
  70
    32
  0
VERTEX
  8
0
  5
7F9B
 10
568.545
 20
460.968
 30
0.000000
  70
    32
  0
VERTEX
  8
0
  5
7F9C
 10
568.543
 20
460.971
 30
0.000000
  70
    32
  0
VERTEX
  8
0
  5
7F9D
 10
568.541
 20
460.974
 30
0.000000
  70
    32
  0
VERTEX
  8
0
  5
7F9E
 10
568.538
 20
460.977
 30
0.000000
  70
    32
  0
VERTEX
  8
0
  5
7F9F
 10
568.536
 20
460.980
 30
0.000000
  70
    32
  0
VERTEX
  8
0
  5
7FA0
 10
568.534
 20
460.983
 30
0.000000
  70
    32
  0
VERTEX
  8
0
  5
7FA1
 10
568.531
 20
460.986
 30
0.000000
  70
    32
  0
VERTEX
  8
0
  5
7FA2
 10
568.529
 20
460.989
 30
0.000000
  70
    32
  0
VERTEX
  8
0
  5
7FA3
 10
568.526
 20
460.992
 30
0.000000
  70
    32
  0
VERTEX
  8
0
  5
7FA4
 10
568.524
 20
460.995
 30
0.000000
  70
    32
  0
VERTEX
  8
0
  5
7FA5
 10
568.522
 20
460.998
 30
0.000000
  70
    32
  0
VERTEX
  8
0
  5
7FA6
 10
568.519
 20
461.001
 30
0.000000
  70
    32
  0
VERTEX
  8
0
  5
7FA7
 10
568.517
 20
461.004
 30
0.000000
  70
    32
  0
VERTEX
  8
0
  5
7FA8
 10
568.514
 20
461.007
 30
0.000000
  70
    32
  0
VERTEX
  8
0
  5
7FA9
 10
568.512
 20
461.010
 30
0.000000
  70
    32
  0
VERTEX
  8
0
  5
7FAA
 10
568.510
 20
461.013
 30
0.000000
  70
    32
  0
VERTEX
  8
0
  5
7FAB
 10
568.507
 20
461.015
 30
0.000000
  70
    32
  0
VERTEX
  8
0
  5
7FAC
 10
568.505
 20
461.018
 30
0.000000
  70
    32
  0
VERTEX
  8
0
  5
7FAD
 10
568.502
 20
461.021
 30
0.000000
  70
    32
  0
VERTEX
  8
0
  5
7FAE
 10
568.500
 20
461.024
 30
0.000000
  70
    32
  0
VERTEX
  8
0
  5
7FAF
 10
568.497
 20
461.027
 30
0.000000
  70
    32
  0
VERTEX
  8
0
  5
7FB0
 10
568.495
 20
461.030
 30
0.000000
  70
    32
  0
VERTEX
  8
0
  5
7FB1
 10
568.492
 20
461.033
 30
0.000000
  70
    32
  0
VERTEX
  8
0
  5
7FB2
 10
568.490
 20
461.035
 30
0.000000
  70
    32
  0
VERTEX
  8
0
  5
7FB3
 10
568.487
 20
461.038
 30
0.000000
  70
    32
  0
VERTEX
  8
0
  5
7FB4
 10
568.485
 20
461.041
 30
0.000000
  70
    32
  0
VERTEX
  8
0
  5
7FB5
 10
568.482
 20
461.044
 30
0.000000
  70
    32
  0
VERTEX
  8
0
  5
7FB6
 10
568.480
 20
461.046
 30
0.000000
  70
    32
  0
VERTEX
  8
0
  5
7FB7
 10
568.477
 20
461.049
 30
0.000000
  70
    32
  0
VERTEX
  8
0
  5
7FB8
 10
568.475
 20
461.052
 30
0.000000
  70
    32
  0
VERTEX
  8
0
  5
7FB9
 10
568.472
 20
461.055
 30
0.000000
  70
    32
  0
VERTEX
  8
0
  5
7FBA
 10
568.470
 20
461.057
 30
0.000000
  70
    32
  0
VERTEX
  8
0
  5
7FBB
 10
568.467
 20
461.060
 30
0.000000
  70
    32
  0
VERTEX
  8
0
  5
7FBC
 10
568.465
 20
461.063
 30
0.000000
  70
    32
  0
VERTEX
  8
0
  5
7FBD
 10
568.462
 20
461.065
 30
0.000000
  70
    32
  0
VERTEX
  8
0
  5
7FBE
 10
568.459
 20
461.068
 30
0.000000
  70
    32
  0
VERTEX
  8
0
  5
7FBF
 10
568.457
 20
461.071
 30
0.000000
  70
    32
  0
VERTEX
  8
0
  5
7FC0
 10
568.454
 20
461.073
 30
0.000000
  70
    32
  0
VERTEX
  8
0
  5
7FC1
 10
568.452
 20
461.076
 30
0.000000
  70
    32
  0
VERTEX
  8
0
  5
7FC2
 10
568.449
 20
461.078
 30
0.000000
  70
    32
  0
VERTEX
  8
0
  5
7FC3
 10
568.446
 20
461.081
 30
0.000000
  70
    32
  0
VERTEX
  8
0
  5
7FC4
 10
568.444
 20
461.084
 30
0.000000
  70
    32
  0
VERTEX
  8
0
  5
7FC5
 10
568.441
 20
461.086
 30
0.000000
  70
    32
  0
VERTEX
  8
0
  5
7FC6
 10
568.439
 20
461.089
 30
0.000000
  70
    32
  0
VERTEX
  8
0
  5
7FC7
 10
568.436
 20
461.091
 30
0.000000
  70
    32
  0
VERTEX
  8
0
  5
7FC8
 10
568.433
 20
461.094
 30
0.000000
  70
    32
  0
VERTEX
  8
0
  5
7FC9
 10
568.431
 20
461.096
 30
0.000000
  70
    32
  0
VERTEX
  8
0
  5
7FCA
 10
568.428
 20
461.099
 30
0.000000
  70
    32
  0
VERTEX
  8
0
  5
7FCB
 10
568.425
 20
461.101
 30
0.000000
  70
    32
  0
VERTEX
  8
0
  5
7FCC
 10
568.423
 20
461.103
 30
0.000000
  70
    32
  0
VERTEX
  8
0
  5
7FCD
 10
568.420
 20
461.106
 30
0.000000
  70
    32
  0
VERTEX
  8
0
  5
7FCE
 10
568.417
 20
461.108
 30
0.000000
  70
    32
  0
VERTEX
  8
0
  5
7FCF
 10
568.415
 20
461.111
 30
0.000000
  70
    32
  0
VERTEX
  8
0
  5
7FD0
 10
568.412
 20
461.113
 30
0.000000
  70
    32
  0
VERTEX
  8
0
  5
7FD1
 10
568.409
 20
461.115
 30
0.000000
  70
    32
  0
VERTEX
  8
0
  5
7FD2
 10
568.407
 20
461.118
 30
0.000000
  70
    32
  0
VERTEX
  8
0
  5
7FD3
 10
568.404
 20
461.120
 30
0.000000
  70
    32
  0
VERTEX
  8
0
  5
7FD4
 10
568.401
 20
461.122
 30
0.000000
  70
    32
  0
VERTEX
  8
0
  5
7FD5
 10
568.399
 20
461.125
 30
0.000000
  70
    32
  0
VERTEX
  8
0
  5
7FD6
 10
568.396
 20
461.127
 30
0.000000
  70
    32
  0
VERTEX
  8
0
  5
7FD7
 10
568.393
 20
461.129
 30
0.000000
  70
    32
  0
VERTEX
  8
0
  5
7FD8
 10
568.391
 20
461.131
 30
0.000000
  70
    32
  0
VERTEX
  8
0
  5
7FD9
 10
568.388
 20
461.133
 30
0.000000
  70
    32
  0
VERTEX
  8
0
  5
7FDA
 10
568.385
 20
461.136
 30
0.000000
  70
    32
  0
VERTEX
  8
0
  5
7FDB
 10
568.383
 20
461.138
 30
0.000000
  70
    32
  0
VERTEX
  8
0
  5
7FDC
 10
568.380
 20
461.140
 30
0.000000
  70
    32
  0
VERTEX
  8
0
  5
7FDD
 10
568.377
 20
461.142
 30
0.000000
  70
    32
  0
VERTEX
  8
0
  5
7FDE
 10
568.374
 20
461.144
 30
0.000000
  70
    32
  0
VERTEX
  8
0
  5
7FDF
 10
568.372
 20
461.146
 30
0.000000
  70
    32
  0
VERTEX
  8
0
  5
7FE0
 10
568.369
 20
461.148
 30
0.000000
  70
    32
  0
VERTEX
  8
0
  5
7FE1
 10
568.366
 20
461.151
 30
0.000000
  70
    32
  0
VERTEX
  8
0
  5
7FE2
 10
568.363
 20
461.153
 30
0.000000
  70
    32
  0
VERTEX
  8
0
  5
7FE3
 10
568.361
 20
461.155
 30
0.000000
  70
    32
  0
VERTEX
  8
0
  5
7FE4
 10
568.358
 20
461.157
 30
0.000000
  70
    32
  0
VERTEX
  8
0
  5
7FE5
 10
568.355
 20
461.159
 30
0.000000
  70
    32
  0
VERTEX
  8
0
  5
7FE6
 10
568.353
 20
461.161
 30
0.000000
  70
    32
  0
VERTEX
  8
0
  5
7FE7
 10
568.350
 20
461.163
 30
0.000000
  70
    32
  0
VERTEX
  8
0
  5
7FE8
 10
568.347
 20
461.165
 30
0.000000
  70
    32
  0
VERTEX
  8
0
  5
7FE9
 10
568.344
 20
461.166
 30
0.000000
  70
    32
  0
VERTEX
  8
0
  5
7FEA
 10
568.342
 20
461.168
 30
0.000000
  70
    32
  0
VERTEX
  8
0
  5
7FEB
 10
568.339
 20
461.170
 30
0.000000
  70
    32
  0
VERTEX
  8
0
  5
7FEC
 10
568.336
 20
461.172
 30
0.000000
  70
    32
  0
VERTEX
  8
0
  5
7FED
 10
568.333
 20
461.174
 30
0.000000
  70
    32
  0
VERTEX
  8
0
  5
7FEE
 10
568.331
 20
461.176
 30
0.000000
  70
    32
  0
VERTEX
  8
0
  5
7FEF
 10
568.328
 20
461.178
 30
0.000000
  70
    32
  0
VERTEX
  8
0
  5
7FF0
 10
568.325
 20
461.179
 30
0.000000
  70
    32
  0
VERTEX
  8
0
  5
7FF1
 10
568.322
 20
461.181
 30
0.000000
  70
    32
  0
VERTEX
  8
0
  5
7FF2
 10
568.320
 20
461.183
 30
0.000000
  70
    32
  0
VERTEX
  8
0
  5
7FF3
 10
568.317
 20
461.185
 30
0.000000
  70
    32
  0
VERTEX
  8
0
  5
7FF4
 10
568.314
 20
461.186
 30
0.000000
  70
    32
  0
VERTEX
  8
0
  5
7FF5
 10
568.311
 20
461.188
 30
0.000000
  70
    32
  0
VERTEX
  8
0
  5
7FF6
 10
568.308
 20
461.190
 30
0.000000
  70
    32
  0
VERTEX
  8
0
  5
7FF7
 10
568.306
 20
461.191
 30
0.000000
  70
    32
  0
VERTEX
  8
0
  5
7FF8
 10
568.303
 20
461.193
 30
0.000000
  70
    32
  0
VERTEX
  8
0
  5
7FF9
 10
568.300
 20
461.195
 30
0.000000
  70
    32
  0
VERTEX
  8
0
  5
7FFA
 10
568.297
 20
461.196
 30
0.000000
  70
    32
  0
SEQEND
  8
0
  5
7FFB
  0
ARC
  5
702E
  8
0
  6
CONTINUOUS
 10
568.29665200140005
 20
465.54830976220001
 30
0.0
 40
0.6969122450844776
 50
62.759184218599998
 51
101.82556742120001
  0
ARC
  5
702F
  8
0
  6
CONTINUOUS
 10
568.25554509279993
 20
465.67127593099991
 30
0.0
 40
0.5683306487849917
 50
100.30968476859999
 51
119.08748310830001
  0
LINE
  5
7030
  8
0
  6
CONTINUOUS
 10
567.94390361379988
 20
466.14752032910002
 30
0.0
 11
567.97925428300005
 21
466.16792783599999
 31
0.0
  0
LINE
  5
7031
  8
0
  6
CONTINUOUS
 10
568.15383179790001
 20
466.23043076819988
 30
0.0
 11
567.13073285539986
 21
466.82105321599988
 31
0.0
  0
LINE
  5
7040
  8
0
  6
CONTINUOUS
 10
537.70547065979997
 20
479.14254198010002
 30
0.0
 11
537.89186509729996
 21
479.25014519839999
 31
0.0
  0
LINE
  5
7041
  8
0
  6
CONTINUOUS
 10
538.24541920440004
 20
478.63777228399999
 30
0.0
 11
538.16506623769988
 21
478.59138550370011
 31
0.0
  0
LINE
  5
7042
  8
0
  6
CONTINUOUS
 10
537.89186509729996
 20
483.7002922879999
 30
0.0
 11
537.70547065979997
 21
483.5926890696
 31
0.0
  0
LINE
  5
7043
  8
0
  6
CONTINUOUS
 10
567.50999653999997
 20
461.65091782820002
 30
0.0
 11
567.59034950670002
 21
461.69730460839992
 31
0.0
  0
LINE
  5
7044
  8
0
  6
CONTINUOUS
 10
537.70547065979997
 20
483.7559855854999
 30
0.0
 11
537.75043081039996
 21
483.78194052800001
 31
0.0
  0
LINE
  5
7045
  8
0
  6
CONTINUOUS
 10
424.56838556449992
 20
544.45519098670002
 30
0.0
 11
424.75478000210001
 21
544.56279420509986
 31
0.0
  0
LINE
  5
7046
  8
0
  6
CONTINUOUS
 10
425.10833410919992
 20
543.95042129059993
 30
0.0
 11
425.02798114249993
 21
543.90403451029988
 31
0.0
  0
LINE
  5
7047
  8
0
  6
CONTINUOUS
 10
424.75478000210001
 20
549.01294129469989
 30
0.0
 11
424.56838556449992
 21
548.90533807629993
 31
0.0
  0
LINE
  5
7048
  8
0
  6
CONTINUOUS
 10
454.37291144480002
 20
526.96356683480008
 30
0.0
 11
454.45326441150002
 21
527.00995361510002
 31
0.0
  0
LINE
  5
7049
  8
0
  6
CONTINUOUS
 10
424.56838556449992
 20
549.06863459210001
 30
0.0
 11
424.6133457151999
 21
549.09458953470005
 31
0.0
  0
LINE
  5
704A
  8
0
  6
CONTINUOUS
 10
391.55611309350002
 20
553.75829620800005
 30
0.0
 11
391.55611309350002
 21
579.48720222659995
 31
0.0
  0
LINE
  5
704B
  8
0
  6
CONTINUOUS
 10
182.18180182649999
 20
458.61798510569992
 30
0.0
 11
182.18180182649999
 21
432.8890790872
 31
0.0
  0
LINE
  5
704C
  8
0
  6
CONTINUOUS
 10
392.26322130760002
 20
553.51338000730004
 30
0.0
 11
392.26322130760002
 21
579.48720830929994
 31
0.0
  0
LINE
  5
704D
  8
0
  6
CONTINUOUS
 10
383.97232507619998
 20
583.07051858529985
 30
0.0
 11
384.13149264959998
 21
583.16240406949987
 31
0.0
  0
LINE
  5
704E
  8
0
  6
CONTINUOUS
 10
601.21328239750005
 20
458.86290560259988
 30
0.0
 11
601.21328239750005
 21
432.88907730059998
 31
0.0
  0
LINE
  5
704F
  8
0
  6
CONTINUOUS
 10
596.28886569089991
 20
461.46078427689997
 30
0.0
 11
397.18758533070002
 21
576.39950688940007
 31
0.0
  0
LINE
  5
7050
  8
0
  6
CONTINUOUS
 10
385.33611280039997
 20
582.42614042849993
 30
0.0
 11
384.27291639980001
 21
583.03991064609988
 31
0.0
  0
LINE
  5
7051
  8
0
  6
CONTINUOUS
 10
384.16678009859999
 20
582.97863946350003
 30
0.0
 11
384.27291639980001
 21
583.03991064609988
 31
0.0
  0
LINE
  5
7052
  8
0
  6
CONTINUOUS
 10
384.09613144370002
 20
583.01201976719994
 30
0.0
 11
384.09613144370002
 21
583.14199047989985
 31
0.0
  0
LINE
  5
7053
  8
0
  6
CONTINUOUS
 10
454.8421718219999
 20
526.6926610347
 30
0.0
 11
454.8421718219999
 21
531.48057532199994
 31
0.0
  0
LINE
  5
7054
  8
0
  6
CONTINUOUS
 10
454.77145994689999
 20
527.05656817479996
 30
0.0
 11
454.77145994689999
 21
526.73348095270001
 31
0.0
  0
LINE
  5
7055
  8
0
  6
CONTINUOUS
 10
454.06435436689998
 20
532.29698356760002
 30
0.0
 11
453.99364249180002
 21
532.25616247100004
 31
0.0
  0
LINE
  5
7056
  8
0
  6
CONTINUOUS
 10
567.97925428300005
 20
461.38001354869999
 30
0.0
 11
567.97925428300005
 21
466.16792783599999
 31
0.0
  0
LINE
  5
7057
  8
0
  6
CONTINUOUS
 10
567.90854240789997
 20
461.74392068880002
 30
0.0
 11
567.90854240789997
 21
461.4208334667
 31
0.0
  0
LINE
  5
7058
  8
0
  6
CONTINUOUS
 10
567.20143946209987
 20
466.98433456099991
 30
0.0
 11
567.13072758700002
 21
466.94351346439998
 31
0.0
  0
ENDSEC
  0
EOF
