  0
SECTION
  2
HEADER
  9
$ACADVER
  1
AC1018
  9
$ACADMAINTVER
 70
   104
  9
$DWGCODEPAGE
  3
ANSI_932
  9
$INSBASE
 10
0.0
 20
0.0
 30
0.0
  9
$EXTMIN
 10
4.201880669449195
 20
6.380353777977703
 30
-0.0000000349181948
  9
$EXTMAX
 10
54.20777897765109
 20
30.26676451425992
 30
0.0000000814935746
  9
$LIMMIN
 10
-0.3681664206488904
 20
0.0864007142055528
  9
$LIMMAX
 10
59.30721266304622
 20
34.29637232512297
  9
$ORTHOMODE
 70
     0
  9
$REGENMODE
 70
     1
  9
$FILLMODE
 70
     1
  9
$QTEXTMODE
 70
     0
  9
$MIRRTEXT
 70
     0
  9
$LTSCALE
 40
1.0
  9
$ATTMODE
 70
     1
  9
$TEXTSIZE
 40
2.5
  9
$TRACEWID
 40
1.0
  9
$TEXTSTYLE
  7
Standard
  9
$CLAYER
  8
0
  9
$CELTYPE
  6
ByLayer
  9
$CECOLOR
 62
   256
  9
$CELTSCALE
 40
1.0
  9
$DISPSILH
 70
     0
  9
$DIMSCALE
 40
1.0
  9
$DIMASZ
 40
2.5
  9
$DIMEXO
 40
0.625
  9
$DIMDLI
 40
3.75
  9
$DIMRND
 40
0.0
  9
$DIMDLE
 40
0.0
  9
$DIMEXE
 40
1.25
  9
$DIMTP
 40
0.0
  9
$DIMTM
 40
0.0
  9
$DIMTXT
 40
2.5
  9
$DIMCEN
 40
2.5
  9
$DIMTSZ
 40
0.0
  9
$DIMTOL
 70
     0
  9
$DIMLIM
 70
     0
  9
$DIMTIH
 70
     0
  9
$DIMTOH
 70
     0
  9
$DIMSE1
 70
     0
  9
$DIMSE2
 70
     0
  9
$DIMTAD
 70
     1
  9
$DIMZIN
 70
     8
  9
$DIMBLK
  1

  9
$DIMASO
 70
     1
  9
$DIMSHO
 70
     1
  9
$DIMPOST
  1

  9
$DIMAPOST
  1

  9
$DIMALT
 70
     0
  9
$DIMALTD
 70
     3
  9
$DIMALTF
 40
0.03937007874016
  9
$DIMLFAC
 40
1.0
  9
$DIMTOFL
 70
     1
  9
$DIMTVP
 40
0.0
  9
$DIMTIX
 70
     0
  9
$DIMSOXD
 70
     0
  9
$DIMSAH
 70
     0
  9
$DIMBLK1
  1

  9
$DIMBLK2
  1

  9
$DIMSTYLE
  2
ISO-25
  9
$DIMCLRD
 70
     0
  9
$DIMCLRE
 70
     0
  9
$DIMCLRT
 70
     0
  9
$DIMTFAC
 40
1.0
  9
$DIMGAP
 40
0.625
  9
$DIMJUST
 70
     0
  9
$DIMSD1
 70
     0
  9
$DIMSD2
 70
     0
  9
$DIMTOLJ
 70
     0
  9
$DIMTZIN
 70
     8
  9
$DIMALTZ
 70
     0
  9
$DIMALTTZ
 70
     0
  9
$DIMUPT
 70
     0
  9
$DIMDEC
 70
     2
  9
$DIMTDEC
 70
     2
  9
$DIMALTU
 70
     2
  9
$DIMALTTD
 70
     3
  9
$DIMTXSTY
  7
Standard
  9
$DIMAUNIT
 70
     0
  9
$DIMADEC
 70
     0
  9
$DIMALTRND
 40
0.0
  9
$DIMAZIN
 70
     0
  9
$DIMDSEP
 70
    44
  9
$DIMATFIT
 70
     3
  9
$DIMFRAC
 70
     0
  9
$DIMLDRBLK
  1

  9
$DIMLUNIT
 70
     2
  9
$DIMLWD
 70
    -2
  9
$DIMLWE
 70
    -2
  9
$DIMTMOVE
 70
     0
  9
$LUNITS
 70
     2
  9
$LUPREC
 70
     4
  9
$SKETCHINC
 40
1.0
  9
$FILLETRAD
 40
0.0
  9
$AUNITS
 70
     0
  9
$AUPREC
 70
     0
  9
$MENU
  1
.
  9
$ELEVATION
 40
0.0
  9
$PELEVATION
 40
0.0
  9
$THICKNESS
 40
0.0
  9
$LIMCHECK
 70
     0
  9
$CHAMFERA
 40
0.0
  9
$CHAMFERB
 40
0.0
  9
$CHAMFERC
 40
0.0
  9
$CHAMFERD
 40
0.0
  9
$SKPOLY
 70
     0
  9
$TDCREATE
 40
2458197.649120370
  9
$TDUCREATE
 40
2458197.315787037
  9
$TDUPDATE
 40
2458939.693923611
  9
$TDUUPDATE
 40
2458939.360590278
  9
$TDINDWG
 40
0.0552662037
  9
$TDUSRTIMER
 40
0.0552662037
  9
$USRTIMER
 70
     1
  9
$ANGBASE
 50
0.0
  9
$ANGDIR
 70
     0
  9
$PDMODE
 70
     0
  9
$PDSIZE
 40
0.0
  9
$PLINEWID
 40
0.0
  9
$SPLFRAME
 70
     0
  9
$SPLINETYPE
 70
     6
  9
$SPLINESEGS
 70
     8
  9
$HANDSEED
  5
3FC
  9
$SURFTAB1
 70
     6
  9
$SURFTAB2
 70
     6
  9
$SURFTYPE
 70
     6
  9
$SURFU
 70
     6
  9
$SURFV
 70
     6
  9
$UCSBASE
  2

  9
$UCSNAME
  2

  9
$UCSORG
 10
0.0
 20
0.0
 30
0.0
  9
$UCSXDIR
 10
1.0
 20
0.0
 30
0.0
  9
$UCSYDIR
 10
0.0
 20
1.0
 30
0.0
  9
$UCSORTHOREF
  2

  9
$UCSORTHOVIEW
 70
     0
  9
$UCSORGTOP
 10
0.0
 20
0.0
 30
0.0
  9
$UCSORGBOTTOM
 10
0.0
 20
0.0
 30
0.0
  9
$UCSORGLEFT
 10
0.0
 20
0.0
 30
0.0
  9
$UCSORGRIGHT
 10
0.0
 20
0.0
 30
0.0
  9
$UCSORGFRONT
 10
0.0
 20
0.0
 30
0.0
  9
$UCSORGBACK
 10
0.0
 20
0.0
 30
0.0
  9
$PUCSBASE
  2

  9
$PUCSNAME
  2

  9
$PUCSORG
 10
0.0
 20
0.0
 30
0.0
  9
$PUCSXDIR
 10
1.0
 20
0.0
 30
0.0
  9
$PUCSYDIR
 10
0.0
 20
1.0
 30
0.0
  9
$PUCSORTHOREF
  2

  9
$PUCSORTHOVIEW
 70
     0
  9
$PUCSORGTOP
 10
0.0
 20
0.0
 30
0.0
  9
$PUCSORGBOTTOM
 10
0.0
 20
0.0
 30
0.0
  9
$PUCSORGLEFT
 10
0.0
 20
0.0
 30
0.0
  9
$PUCSORGRIGHT
 10
0.0
 20
0.0
 30
0.0
  9
$PUCSORGFRONT
 10
0.0
 20
0.0
 30
0.0
  9
$PUCSORGBACK
 10
0.0
 20
0.0
 30
0.0
  9
$USERI1
 70
     0
  9
$USERI2
 70
     0
  9
$USERI3
 70
     0
  9
$USERI4
 70
     0
  9
$USERI5
 70
     0
  9
$USERR1
 40
0.0
  9
$USERR2
 40
0.0
  9
$USERR3
 40
0.0
  9
$USERR4
 40
0.0
  9
$USERR5
 40
0.0
  9
$WORLDVIEW
 70
     1
  9
$SHADEDGE
 70
     3
  9
$SHADEDIF
 70
    70
  9
$TILEMODE
 70
     1
  9
$MAXACTVP
 70
    64
  9
$PINSBASE
 10
0.0
 20
0.0
 30
0.0
  9
$PLIMCHECK
 70
     0
  9
$PEXTMIN
 10
0.0
 20
0.0
 30
0.0
  9
$PEXTMAX
 10
0.0
 20
0.0
 30
0.0
  9
$PLIMMIN
 10
0.0
 20
0.0
  9
$PLIMMAX
 10
12.0
 20
9.0
  9
$UNITMODE
 70
     0
  9
$VISRETAIN
 70
     1
  9
$PLINEGEN
 70
     0
  9
$PSLTSCALE
 70
     1
  9
$TREEDEPTH
 70
  3020
  9
$CMLSTYLE
  2
Standard
  9
$CMLJUST
 70
     0
  9
$CMLSCALE
 40
20.0
  9
$PROXYGRAPHICS
 70
     1
  9
$MEASUREMENT
 70
     1
  9
$CELWEIGHT
370
    -1
  9
$ENDCAPS
280
     0
  9
$JOINSTYLE
280
     0
  9
$LWDISPLAY
290
     0
  9
$INSUNITS
 70
     4
  9
$HYPERLINKBASE
  1

  9
$STYLESHEET
  1

  9
$XEDIT
290
     1
  9
$CEPSNTYPE
380
     0
  9
$PSTYLEMODE
290
     1
  9
$FINGERPRINTGUID
  2
{2B735965-0BC0-6844-AFF8-5FE7552466BC}
  9
$VERSIONGUID
  2
{E01EFBAC-737B-4B4C-87A8-8F3EB5DAE2E7}
  9
$EXTNAMES
290
     1
  9
$PSVPSCALE
 40
0.0
  9
$OLESTARTUP
290
     0
  9
$SORTENTS
280
   127
  9
$INDEXCTL
280
     0
  9
$HIDETEXT
280
     1
  9
$XCLIPFRAME
290
     0
  9
$HALOGAP
280
     0
  9
$OBSCOLOR
 70
   257
  9
$OBSLTYPE
280
     0
  9
$INTERSECTIONDISPLAY
280
     0
  9
$INTERSECTIONCOLOR
 70
   257
  9
$DIMASSOC
280
     2
  9
$PROJECTNAME
  1

  0
ENDSEC
  0
SECTION
  2
CLASSES
  0
CLASS
  1
ACDBDICTIONARYWDFLT
  2
AcDbDictionaryWithDefault
  3
ObjectDBX Classes
 90
        0
 91
        1
280
     0
281
     0
  0
CLASS
  1
DICTIONARYVAR
  2
AcDbDictionaryVar
  3
ObjectDBX Classes
 90
        0
 91
       12
280
     0
281
     0
  0
CLASS
  1
TABLESTYLE
  2
AcDbTableStyle
  3
ObjectDBX Classes
 90
     4095
 91
        1
280
     0
281
     0
  0
CLASS
  1
MATERIAL
  2
AcDbMaterial
  3
ObjectDBX Classes
 90
     1153
 91
        3
280
     0
281
     0
  0
CLASS
  1
VISUALSTYLE
  2
AcDbVisualStyle
  3
ObjectDBX Classes
 90
     4095
 91
        3
280
     0
281
     0
  0
CLASS
  1
SCALE
  2
AcDbScale
  3
ObjectDBX Classes
 90
     1153
 91
       17
280
     0
281
     0
  0
CLASS
  1
MLEADERSTYLE
  2
AcDbMLeaderStyle
  3
ACDB_MLEADERSTYLE_CLASS
 90
     4095
 91
        0
280
     0
281
     0
  0
CLASS
  1
CELLSTYLEMAP
  2
AcDbCellStyleMap
  3
ObjectDBX Classes
 90
     1152
 91
        1
280
     0
281
     0
  0
CLASS
  1
EXACXREFPANELOBJECT
  2
ExAcXREFPanelObject
  3
EXAC_ESW
 90
     1025
 91
        0
280
     1
281
     0
  0
CLASS
  1
NPOCOLLECTION
  2
AcDbImpNonPersistentObjectsCollection
  3
ObjectDBX Classes
 90
     1153
 91
        0
280
     0
281
     0
  0
CLASS
  1
LAYER_INDEX
  2
AcDbLayerIndex
  3
ObjectDBX Classes
 90
        0
 91
        0
280
     0
281
     0
  0
CLASS
  1
SPATIAL_INDEX
  2
AcDbSpatialIndex
  3
ObjectDBX Classes
 90
        0
 91
        0
280
     0
281
     0
  0
CLASS
  1
IDBUFFER
  2
AcDbIdBuffer
  3
ObjectDBX Classes
 90
        0
 91
        0
280
     0
281
     0
  0
CLASS
  1
ACDBSECTIONVIEWSTYLE
  2
AcDbSectionViewStyle
  3
ObjectDBX Classes
 90
     1025
 91
        0
280
     0
281
     0
  0
CLASS
  1
ACDBDETAILVIEWSTYLE
  2
AcDbDetailViewStyle
  3
ObjectDBX Classes
 90
     1025
 91
        0
280
     0
281
     0
  0
CLASS
  1
SORTENTSTABLE
  2
AcDbSortentsTable
  3
ObjectDBX Classes
 90
        0
 91
        2
280
     0
281
     0
  0
CLASS
  1
DIMASSOC
  2
AcDbDimAssoc
  3
"AcDbDimAssoc|Product Desc:     AcDim ARX App For Dimension|Company:          Autodesk, Inc.|WEB Address:      www.autodesk.com"
 90
        0
 91
        0
280
     0
281
     0
  0
ENDSEC
  0
SECTION
  2
TABLES
  0
TABLE
  2
VPORT
  5
2A
330
0
100
AcDbSymbolTable
 70
     1
  0
VPORT
  5
2B
330
2A
100
AcDbSymbolTableRecord
100
AcDbViewportTableRecord
  2
*Active
 70
     0
 10
0.0
 20
0.0
 11
1.0
 21
1.0
 12
29.46952312119866
 22
17.19138651966426
 13
0.0
 23
0.0
 14
10.0
 24
10.0
 15
10.0
 25
10.0
 16
0.0
 26
0.0
 36
1.0
 17
0.0
 27
0.0
 37
0.0
 40
34.51863300891066
 41
2.396084337349397
 42
50.0
 43
0.0
 44
0.0
 50
0.0
 51
0.0
 71
     0
 72
  1000
 73
     1
 74
     3
 75
     0
 76
     0
 77
     0
 78
     0
281
     0
 65
     1
110
0.0
120
0.0
130
0.0
111
1.0
121
0.0
131
0.0
112
0.0
122
1.0
132
0.0
 79
     0
146
0.0
1001
ACAD_NAV_VCDISPLAY
1070
     3
  0
ENDTAB
  0
TABLE
  2
LTYPE
  5
25
330
0
100
AcDbSymbolTable
 70
     1
  0
LTYPE
  5
26
330
25
100
AcDbSymbolTableRecord
100
AcDbLinetypeTableRecord
  2
ByBlock
 70
     0
  3

 72
    65
 73
     0
 40
0.0
  0
LTYPE
  5
27
330
25
100
AcDbSymbolTableRecord
100
AcDbLinetypeTableRecord
  2
ByLayer
 70
     0
  3

 72
    65
 73
     0
 40
0.0
  0
LTYPE
  5
15
330
25
100
AcDbSymbolTableRecord
100
AcDbLinetypeTableRecord
  2
Continuous
 70
     0
  3
Solid line
 72
    65
 73
     0
 40
0.0
  0
ENDTAB
  0
TABLE
  2
LAYER
  5
1F
102
{ACAD_XDICTIONARY
360
20
102
}
330
0
100
AcDbSymbolTable
 70
     1
  0
LAYER
  5
6
102
{ACAD_XDICTIONARY
360
7
102
}
330
1F
100
AcDbSymbolTableRecord
100
AcDbLayerTableRecord
  2
0
 70
     0
 62
     7
  6
Continuous
370
    -3
390
8
  0
ENDTAB
  0
TABLE
  2
STYLE
  5
22
330
0
100
AcDbSymbolTable
 70
     1
  0
STYLE
  5
23
330
22
100
AcDbSymbolTableRecord
100
AcDbTextStyleTableRecord
  2
Standard
 70
     0
 40
0.0
 41
1.0
 50
0.0
 71
     0
 42
2.5
  3
arial.ttf
  4

1001
ACAD
1000
Arial
1071
       34
  0
ENDTAB
  0
TABLE
  2
VIEW
  5
28
330
0
100
AcDbSymbolTable
 70
     0
  0
ENDTAB
  0
TABLE
  2
UCS
  5
29
330
0
100
AcDbSymbolTable
 70
     0
  0
ENDTAB
  0
TABLE
  2
APPID
  5
2F
330
0
100
AcDbSymbolTable
 70
     3
  0
APPID
  5
14
330
2F
100
AcDbSymbolTableRecord
100
AcDbRegAppTableRecord
  2
ACAD
 70
     0
  0
APPID
  5
1A
330
2F
100
AcDbSymbolTableRecord
100
AcDbRegAppTableRecord
  2
ACAD_PSEXT
 70
     0
  0
APPID
  5
2E
330
2F
100
AcDbSymbolTableRecord
100
AcDbRegAppTableRecord
  2
ACAD_NAV_VCDISPLAY
 70
     0
  0
ENDTAB
  0
TABLE
  2
DIMSTYLE
  5
30
330
0
100
AcDbSymbolTable
 70
     1
100
AcDbDimStyleTable
 71
     1
340
31
  0
DIMSTYLE
105
31
330
30
100
AcDbSymbolTableRecord
100
AcDbDimStyleTableRecord
  2
ISO-25
 70
     0
 41
2.5
 42
0.625
 43
3.75
 44
1.25
 73
     0
 74
     0
 77
     1
 78
     8
140
2.5
141
2.5
143
0.03937007874016
147
0.625
171
     3
172
     1
271
     2
272
     2
274
     3
278
    44
283
     0
284
     8
340
23
  0
ENDTAB
  0
TABLE
  2
BLOCK_RECORD
  5
1
330
0
100
AcDbSymbolTable
 70
     0
  0
BLOCK_RECORD
  5
2
102
{ACAD_XDICTIONARY
360
3
102
}
330
1
100
AcDbSymbolTableRecord
100
AcDbBlockTableRecord
  2
*Model_Space
340
17
  0
BLOCK_RECORD
  5
1B
330
1
100
AcDbSymbolTableRecord
100
AcDbBlockTableRecord
  2
*Paper_Space
340
1E
  0
ENDTAB
  0
ENDSEC
  0
SECTION
  2
BLOCKS
  0
BLOCK
  5
5
330
2
100
AcDbEntity
  8
0
100
AcDbBlockBegin
  2
*Model_Space
 70
     0
 10
0.0
 20
0.0
 30
0.0
  3
*Model_Space
  1

  0
ENDBLK
  5
16
330
2
100
AcDbEntity
  8
0
100
AcDbBlockEnd
  0
BLOCK
  5
1C
330
1B
100
AcDbEntity
 67
     1
  8
0
100
AcDbBlockBegin
  2
*Paper_Space
 70
     0
 10
0.0
 20
0.0
 30
0.0
  3
*Paper_Space
  1

  0
ENDBLK
  5
1D
330
1B
100
AcDbEntity
 67
     1
  8
0
100
AcDbBlockEnd
  0
ENDSEC
  0
SECTION
  2
ENTITIES
  0
LINE
  5
58
330
2
100
AcDbEntity
  8
0
100
AcDbLine
 10
54.17056740755711
 20
27.21384639276625
 30
0.0
 11
52.09421929536644
 21
27.7658533300908
 31
0.0
  0
LINE
  5
59
330
2
100
AcDbEntity
  8
0
100
AcDbLine
 10
54.13113387044903
 20
26.88084726787157
 30
0.0
 11
54.14424699229378
 21
26.89755326388875
 31
0.0
  0
LINE
  5
5A
330
2
100
AcDbEntity
  8
0
100
AcDbLine
 10
43.4543900037501
 20
16.85418559786458
 30
0.0
 11
43.47069524307713
 21
16.86417852691482
 31
0.0
  0
LINE
  5
5B
330
2
100
AcDbEntity
  8
0
100
AcDbLine
 10
43.4543900037501
 20
16.85418559786458
 30
0.0
 11
43.47069524307713
 21
16.86417852691482
 31
0.0
  0
SPLINE
  5
5C
330
2
100
AcDbEntity
  8
0
100
AcDbSpline
210
0.0
220
0.0
230
1.0
 70
     8
 71
     3
 72
    11
 73
     7
 74
     0
 42
0.000000001
 43
0.0000000001
 40
0.0
 40
0.0
 40
0.0
 40
0.0
 40
0.1879885624648552
 40
0.5137236428205281
 40
0.8123536238117871
 40
1.0
 40
1.0
 40
1.0
 40
1.0
 10
49.88383412879188
 20
29.57557051987038
 30
0.0
 10
49.86568086847872
 20
29.59029591027293
 30
0.0
 10
49.8160727492671
 20
29.63053655630138
 30
0.0
 10
49.7337806025985
 20
29.67108247204262
 30
0.0
 10
49.64620114958067
 20
29.69064759947096
 30
0.0
 10
49.59629884852642
 20
29.68320296390627
 30
0.0
 10
49.57267589469074
 20
29.67637723272929
 30
0.0
  0
LINE
  5
5D
330
2
100
AcDbEntity
  8
0
100
AcDbLine
 10
49.5652155861088
 20
29.67439932683843
 30
0.0
 11
49.5143017429086
 21
29.65970176629676
 31
0.0
  0
LINE
  5
5E
330
2
100
AcDbEntity
  8
0
100
AcDbLine
 10
50.40459276711302
 20
29.12458030981083
 30
0.0
 11
49.88383412879929
 21
29.5755705198736
 31
0.0
  0
LINE
  5
5F
330
2
100
AcDbEntity
  8
0
100
AcDbLine
 10
44.85433413236212
 20
28.53190711882967
 30
0.0
 11
44.85433413236212
 21
23.89780543161091
 31
0.0
  0
SPLINE
  5
60
330
2
100
AcDbEntity
  8
0
100
AcDbSpline
210
0.0
220
0.0
230
1.0
 70
     8
 71
     3
 72
    11
 73
     7
 74
     0
 42
0.000000001
 43
0.0000000001
 40
0.0110196401012384
 40
0.0110196401012384
 40
0.0110196401012384
 40
0.0110196401012384
 40
0.0615143395052973
 40
0.4379840391955325
 40
0.7831269054152804
 40
1.0
 40
1.0
 40
1.0
 40
1.0
 10
45.67781870457324
 20
29.62791533551045
 30
0.0
 10
45.67358359753694
 20
29.63124059308506
 30
0.0
 10
45.63773567563661
 20
29.65913307286734
 30
0.0
 10
45.56971448380561
 20
29.69039632990197
 30
0.0
 10
45.48224594280887
 20
29.71062713844011
 30
0.0
 10
45.426723375385
 20
29.700925547834
 30
0.0
 10
45.40870709979667
 20
29.69627521747809
 30
0.0
  0
LINE
  5
61
330
2
100
AcDbEntity
  8
0
100
AcDbLine
 10
45.40870709979667
 20
29.69627521747809
 30
0.0
 11
45.32487602642623
 21
29.67225097079823
 31
0.0
  0
SPLINE
  5
62
330
2
100
AcDbEntity
  8
0
100
AcDbSpline
210
0.0
220
0.0
230
1.0
 70
     8
 71
     3
 72
    13
 73
     9
 74
     0
 42
0.000000001
 43
0.0000000001
 40
0.0181171659346276
 40
0.0181171659346276
 40
0.0181171659346276
 40
0.0181171659346276
 40
0.0682809439348186
 40
0.2399574246621085
 40
0.4120069133787162
 40
0.59762435081823
 40
0.7970291527534074
 40
1.0
 40
1.0
 40
1.0
 40
1.0
 10
45.11544176000866
 20
29.06536680846597
 30
0.0
 10
45.1061726529815
 20
29.06401219478818
 30
0.0
 10
45.06551212426679
 20
29.05694239683202
 30
0.0
 10
45.00309546082212
 20
29.0124505908667
 30
0.0
 10
44.93828409360423
 20
28.93417858396435
 30
0.0
 10
44.89123925181719
 20
28.82718121312749
 30
0.0
 10
44.86019845834241
 20
28.69383264291427
 30
0.0
 10
44.85630042311359
 20
28.58620025674519
 30
0.0
 10
44.85433413237362
 20
28.53190711883701
 30
0.0
  0
LINE
  5
63
330
2
100
AcDbEntity
  8
0
100
AcDbLine
 10
47.03153204200208
 20
29.7034910126926
 30
0.0
 11
47.03153204200208
 21
24.5662332361651
 31
0.0
  0
LINE
  5
64
330
2
100
AcDbEntity
  8
0
100
AcDbLine
 10
47.36102055746342
 20
30.26003473172221
 30
0.0
 11
47.28505899004471
 21
30.23810705165296
 31
0.0
  0
SPLINE
  5
65
330
2
100
AcDbEntity
  8
0
100
AcDbSpline
210
0.0
220
0.0
230
1.0
 70
     8
 71
     3
 72
    13
 73
     9
 74
     0
 42
0.000000001
 43
0.0000000001
 40
0.0
 40
0.0
 40
0.0
 40
0.0
 40
0.0682809439348204
 40
0.2399574246621068
 40
0.4120069133787155
 40
0.597624350818233
 40
0.7970291527534074
 40
1.0
 40
1.0
 40
1.0
 40
1.0
 10
47.28464979265138
 20
30.23798839090968
 30
0.0
 10
47.26756849600008
 20
30.23386100401195
 30
0.0
 10
47.2420478488825
 20
30.2246623864205
 30
0.0
 10
47.18029337046153
 20
30.18403448472235
 30
0.0
 10
47.11548200324363
 20
30.10576247781996
 30
0.0
 10
47.06843716145661
 20
29.99876510698309
 30
0.0
 10
47.03739636798182
 20
29.86541653676989
 30
0.0
 10
47.03349833275298
 20
29.75778415060081
 30
0.0
 10
47.03153204201303
 20
29.70349101269265
 30
0.0
  0
SPLINE
  5
66
330
2
100
AcDbEntity
  8
0
100
AcDbSpline
210
0.0
220
0.0
230
1.0
 70
     8
 71
     3
 72
    11
 73
     7
 74
     0
 42
0.000000001
 43
0.0000000001
 40
0.0
 40
0.0
 40
0.0
 40
0.0
 40
0.1879885624648556
 40
0.5137236428205357
 40
0.8123536238117877
 40
1.0
 40
1.0
 40
1.0
 40
1.0
 10
48.83770711822545
 20
29.95243090710553
 30
0.0
 10
48.81955385791224
 20
29.96715629750804
 30
0.0
 10
48.76994573870062
 20
30.00739694353652
 30
0.0
 10
48.68765359203207
 20
30.04794285927771
 30
0.0
 10
48.60007413901419
 20
30.06750798670605
 30
0.0
 10
48.54731771185835
 20
30.05738113658242
 30
0.0
 10
48.52654888410427
 20
30.05323761995003
 30
0.0
  0
LINE
  5
67
330
2
100
AcDbEntity
  8
0
100
AcDbLine
 10
48.51908857554582
 20
30.05125971408267
 30
0.0
 11
48.44271781073381
 21
30.02921337327015
 31
0.0
  0
LINE
  5
68
330
2
100
AcDbEntity
  8
0
100
AcDbLine
 10
50.94051764608924
 20
25.27697989523437
 30
0.0
 11
50.94051764608924
 21
27.35280533865608
 31
0.0
  0
LINE
  5
69
330
2
100
AcDbEntity
  8
0
100
AcDbLine
 10
49.36058077589255
 20
29.49960903659549
 30
0.0
 11
48.8377071182363
 21
29.95243090709432
 31
0.0
  0
SPLINE
  5
6A
330
2
100
AcDbEntity
  8
0
100
AcDbSpline
210
0.0
220
0.0
230
1.0
 70
     8
 71
     3
 72
    12
 73
     8
 74
     0
 42
0.000000001
 43
0.0000000001
 40
0.0
 40
0.0
 40
0.0
 40
0.0
 40
0.7487659313928449
 40
1.0
 40
1.0
 40
1.0
 40
1.190250455941468
 40
1.190250455941468
 40
1.190250455941468
 40
1.190250455941468
 10
50.8603326885211
 20
27.85952719669614
 30
0.0
 10
50.84979897485911
 20
27.89813722736449
 30
0.0
 10
50.83573087530981
 20
27.94970211440003
 30
0.0
 10
50.81547398171059
 20
27.99714096865944
 30
0.0
 10
50.81038475991429
 20
28.00905922502508
 30
0.0
 10
50.80653087667108
 20
28.01808448867726
 30
0.0
 10
50.80267699342787
 20
28.02710975232945
 30
0.0
 10
50.79882311018466
 20
28.03613501598164
 30
0.0
  0
SPLINE
  5
6B
330
2
100
AcDbEntity
  8
0
100
AcDbSpline
210
0.0
220
0.0
230
1.0
 70
     8
 71
     3
 72
    11
 73
     7
 74
     0
 42
0.000000001
 43
0.0000000001
 40
0.0
 40
0.0
 40
0.0
 40
0.0
 40
0.1823962175757965
 40
0.5301358133834352
 40
0.8763538617703105
 40
1.0
 40
1.0
 40
1.0
 40
1.0
 10
50.94051764609823
 20
27.35280533866117
 30
0.0
 10
50.93999383346147
 20
27.38189745435381
 30
0.0
 10
50.93847136856662
 20
27.46645388113023
 30
0.0
 10
50.92023855054291
 20
27.61540059894953
 30
0.0
 10
50.8926976180462
 20
27.75853757707886
 30
0.0
 10
50.86707528150105
 20
27.83848800673732
 30
0.0
 10
50.8603326885211
 20
27.85952719669614
 30
0.0
  0
LINE
  5
6C
330
2
100
AcDbEntity
  8
0
100
AcDbLine
 10
45.64898187634847
 20
29.37226828180906
 30
0.0
 11
45.64898187634847
 21
24.26129507729397
 31
0.0
  0
SPLINE
  5
6D
330
2
100
AcDbEntity
  8
0
100
AcDbSpline
210
0.0
220
0.0
230
1.0
 70
     8
 71
     3
 72
    11
 73
     7
 74
     0
 42
0.000000001
 43
0.0000000001
 40
0.0
 40
0.0
 40
0.0
 40
0.0
 40
0.1879885624648551
 40
0.513723642820528
 40
0.8123536238117898
 40
1.0
 40
1.0
 40
1.0
 40
1.0
 10
46.98483501523829
 20
30.028518921921
 30
0.0
 10
46.96668175492507
 20
30.04324431232355
 30
0.0
 10
46.91707363571349
 20
30.08348495835199
 30
0.0
 10
46.83478148904492
 20
30.12403087409321
 30
0.0
 10
46.74720203602705
 20
30.14359600152156
 30
0.0
 10
46.68963359068332
 20
30.13315893402821
 30
0.0
 10
46.67367678111685
 20
30.129325634762
 30
0.0
  0
LINE
  5
6E
330
2
100
AcDbEntity
  8
0
100
AcDbLine
 10
46.67367678111685
 20
30.129325634762
 30
0.0
 11
46.58984570774638
 21
30.10530138808212
 31
0.0
  0
LINE
  5
6F
330
2
100
AcDbEntity
  8
0
100
AcDbLine
 10
45.97846805189307
 20
29.92881186099357
 30
0.0
 11
45.90250882439111
 21
29.90688432076943
 31
0.0
  0
SPLINE
  5
70
330
2
100
AcDbEntity
  8
0
100
AcDbSpline
210
0.0
220
0.0
230
1.0
 70
     8
 71
     3
 72
    11
 73
     7
 74
     0
 42
0.000000001
 43
0.0000000001
 40
0.0
 40
0.0
 40
0.0
 40
0.0
 40
0.4120069133787161
 40
0.59762435081823
 40
0.7970291527534075
 40
1.0
 40
1.0
 40
1.0
 40
1.0
 10
45.90209962699775
 20
29.90676566004967
 30
0.0
 10
45.79774320480819
 20
29.85281175384964
 30
0.0
 10
45.73293183759029
 20
29.77453974694728
 30
0.0
 10
45.68588699580327
 20
29.6675423761104
 30
0.0
 10
45.65484620232847
 20
29.53419380589719
 30
0.0
 10
45.65094816709968
 20
29.4265614197281
 30
0.0
 10
45.64898187635968
 20
29.37226828181995
 30
0.0
  0
LINE
  5
71
330
2
100
AcDbEntity
  8
0
100
AcDbLine
 10
47.06384581056035
 20
29.96009356599891
 30
0.0
 11
46.98483501524889
 21
30.0285189219298
 31
0.0
  0
LINE
  5
72
330
2
100
AcDbEntity
  8
0
100
AcDbLine
 10
51.83637211439631
 20
22.37052725789578
 30
0.0
 11
51.83637211439631
 21
22.64731653479532
 31
0.0
  0
LINE
  5
73
330
2
100
AcDbEntity
  8
0
100
AcDbLine
 10
42.90663432224343
 20
19.97541682482233
 30
0.0
 11
42.91896291567923
 21
19.85353536759745
 31
0.0
  0
LINE
  5
74
330
2
100
AcDbEntity
  8
0
100
AcDbLine
 10
52.87588886279564
 20
19.85353536759745
 30
0.0
 11
52.88821745623141
 21
19.97541682482233
 31
0.0
  0
LINE
  5
75
330
2
100
AcDbEntity
  8
0
100
AcDbLine
 10
49.06198234169811
 20
22.52554902512352
 30
0.0
 11
49.02956280218068
 21
24.16852824898503
 31
0.0
  0
LINE
  5
76
330
2
100
AcDbEntity
  8
0
100
AcDbLine
 10
51.88068057173074
 20
21.61038180851644
 30
0.0
 11
51.8347002796069
 21
22.39920886153998
 31
0.0
  0
SPLINE
  5
77
330
2
100
AcDbEntity
  8
0
100
AcDbSpline
210
0.0
220
0.0
230
1.0
 70
     8
 71
     3
 72
    12
 73
     8
 74
     0
 42
0.000000001
 43
0.0000000001
 40
0.0
 40
0.0
 40
0.0
 40
0.0
 40
0.2173037781485778
 40
0.4484641525182564
 40
0.6939659859330961
 40
0.9509535695026848
 40
1.0
 40
1.0
 40
1.0
 40
1.0
 10
49.02943468871981
 20
24.1686278035546
 30
0.0
 10
49.02792802156078
 20
24.18076313958198
 30
0.0
 10
49.02481861308031
 20
24.20580763366948
 30
0.0
 10
49.00256141641415
 20
24.24075504990476
 30
0.0
 10
48.96875798642156
 20
24.26821419656143
 30
0.0
 10
48.93747781905182
 20
24.28215772868533
 30
0.0
 10
48.91966831570844
 20
24.28302698834181
 30
0.0
 10
48.91681408210114
 20
24.283166299926
 30
0.0
  0
ARC
  5
78
330
2
100
AcDbEntity
  8
0
100
AcDbCircle
 10
48.68527341018141
 20
24.27522125326034
 30
0.0
 40
0.035274145300033
100
AcDbArc
 50
84.27299274209991
 51
106.1021137519974
  0
ARC
  5
79
330
2
100
AcDbEntity
  8
0
100
AcDbCircle
 10
48.68527341018141
 20
24.27522125326034
 30
0.0
 40
0.0352741453000362
100
AcDbArc
 50
106.1021137519974
 51
133.239577152698
  0
LINE
  5
7A
330
2
100
AcDbEntity
  8
0
100
AcDbLine
 10
48.66110884005904
 20
24.3009183129522
 30
0.0
 11
48.6245417503817
 21
24.26653196629506
 31
0.0
  0
LINE
  5
7B
330
2
100
AcDbEntity
  8
0
100
AcDbLine
 10
43.93931252420513
 20
22.78565193540931
 30
0.0
 11
43.92755790006822
 21
21.61917684417113
 31
0.0
  0
LWPOLYLINE
  5
7C
330
2
100
AcDbEntity
  8
0
100
AcDbPolyline
 90
       17
 70
   128
 43
0.0
 10
52.7531271540664
 20
26.21856454683072
 10
52.86231718077752
 20
26.20808662652543
 10
52.97461806356962
 20
26.23105901136147
 10
53.07293301101299
 20
26.28398436401429
 10
53.14229446362848
 20
26.35880527927429
 10
53.17214276901142
 20
26.44413095108014
 10
53.15793379321952
 20
26.52697131936782
 10
53.10183072403646
 20
26.59471468899475
 10
53.01237474515467
 20
26.63704774607844
 10
52.90318471844354
 20
26.6475256663602
 10
52.79088383567497
 20
26.62455328152416
 10
52.69256888820809
 20
26.57162792889485
 10
52.62320743559258
 20
26.49680701361133
 10
52.59335913020969
 20
26.4114813418055
 10
52.60756810600153
 20
26.32864097351781
 10
52.66367117518466
 20
26.26089760389089
 10
52.7531271540664
 20
26.21856454683072
  0
ARC
  5
7D
330
2
100
AcDbEntity
  8
0
100
AcDbCircle
 10
52.42991256546178
 20
27.26790389716717
 30
0.0
 40
0.3658213374898688
100
AcDbArc
 50
255.3679853916022
 51
323.9708142282997
  0
LWPOLYLINE
  5
7E
330
2
100
AcDbEntity
  8
0
100
AcDbPolyline
 90
        7
 70
   128
 43
0.0
 10
52.3068804882397
 20
27.28739195909811
 10
52.27694415824954
 20
27.26701019605453
 10
52.20758270563404
 20
27.192189280771
 10
52.17773440025113
 20
27.10686360896515
 10
52.19194337604303
 20
27.0240232406775
 10
52.24804644522611
 20
26.95627987105055
 10
52.3375024241079
 20
26.91394681399038
  0
LWPOLYLINE
  5
7F
330
2
100
AcDbEntity
  8
0
100
AcDbPolyline
 90
       17
 70
   128
 43
0.0
 10
51.71530820549618
 20
25.90958713579118
 10
51.82449823220725
 20
25.89910921548589
 10
51.93679911499939
 20
25.92208160034545
 10
52.03511406244276
 20
25.97500695297474
 10
52.10447551505826
 20
26.04982786825829
 10
52.13432382044114
 20
26.13515354006411
 10
52.12011484464927
 20
26.21799390832827
 10
52.06401177546618
 20
26.28573727797874
 10
51.97455579658439
 20
26.32807033503889
 10
51.86536576987331
 20
26.33854825534417
 10
51.7530648871047
 20
26.31557587050814
 10
51.65474993963786
 20
26.26265051785534
 10
51.5853884870223
 20
26.1878296025953
 10
51.55554018163941
 20
26.10250393078947
 10
51.56974915743131
 20
26.0196635625018
 10
51.62585222661438
 20
25.95192019287488
 10
51.71530820549618
 20
25.90958713579118
  0
LINE
  5
80
330
2
100
AcDbEntity
  8
0
100
AcDbLine
 10
53.44655343012699
 20
26.06920803408038
 30
0.0
 11
53.87648058123982
 21
26.76320595663104
 31
0.0
  0
ARC
  5
81
330
2
100
AcDbEntity
  8
0
100
AcDbCircle
 10
51.44785333864385
 20
27.35866868332705
 30
0.0
 40
2.378552253300624
100
AcDbArc
 50
300.3553043191004
 51
327.1719294457005
  0
LINE
  5
82
330
2
100
AcDbEntity
  8
0
100
AcDbLine
 10
52.64988034802373
 20
25.3061965421234
 30
0.0
 11
52.62071386802416
 21
25.28851703044368
 31
0.0
  0
ARC
  5
83
330
2
100
AcDbEntity
  8
0
100
AcDbCircle
 10
52.92122062035735
 20
24.77539899514276
 30
0.0
 40
0.5946380633248515
100
AcDbArc
 50
120.3553043191005
 51
147.1719294457004
  0
LINE
  5
84
330
2
100
AcDbEntity
  8
0
100
AcDbLine
 10
52.42154559748069
 20
25.09776415744856
 30
0.0
 11
52.03041455179302
 21
24.46639176689173
 31
0.0
  0
LINE
  5
85
330
2
100
AcDbEntity
  8
0
100
AcDbLine
 10
50.68078827886671
 20
24.82519627616797
 30
0.0
 11
51.07191932457792
 21
25.45656866672479
 31
0.0
  0
ARC
  5
86
330
2
100
AcDbEntity
  8
0
100
AcDbCircle
 10
50.75712880992664
 20
25.66140617840604
 30
0.0
 40
0.3755682019424777
100
AcDbArc
 50
326.9475216872014
 51
3.49463895799891
  0
LINE
  5
87
330
2
100
AcDbEntity
  8
0
100
AcDbLine
 10
51.13199864512267
 20
25.68429899297737
 30
0.0
 11
51.12988803571021
 21
25.71029366639458
 31
0.0
  0
ARC
  5
88
330
2
100
AcDbEntity
  8
0
100
AcDbCircle
 10
52.62936737654142
 20
25.80186492465648
 30
0.0
 40
1.502272807770082
100
AcDbArc
 50
146.9475216872014
 51
183.4946389579987
  0
LINE
  5
89
330
2
100
AcDbEntity
  8
0
100
AcDbLine
 10
51.37020531793631
 20
26.62121497140493
 30
0.0
 11
52.03600581879769
 21
27.69596487553625
 31
0.0
  0
ARC
  5
8A
330
2
100
AcDbEntity
  8
0
100
AcDbCircle
 10
52.87033318740359
 20
27.8151145936228
 30
0.0
 40
0.7739836609809841
100
AcDbArc
 50
191.6417270303014
 51
255.7339633375997
  0
ARC
  5
8B
330
2
100
AcDbEntity
  8
0
100
AcDbCircle
 10
52.88663842673061
 20
27.83578735968765
 30
0.0
 40
0.7739836609809814
100
AcDbArc
 50
191.6417270303014
 51
255.7339633375997
  0
LINE
  5
8C
330
2
100
AcDbEntity
  8
0
100
AcDbLine
 10
52.12560239571945
 20
27.70771201341778
 30
0.0
 11
52.12857673192201
 21
27.67960421608242
 31
0.0
  0
LINE
  5
8D
330
2
100
AcDbEntity
  8
0
100
AcDbLine
 10
54.20195050791011
 20
27.15570507609323
 30
0.0
 11
54.20492484411271
 21
27.12759727875786
 31
0.0
  0
LWPOLYLINE
  5
8E
330
2
100
AcDbEntity
  8
0
100
AcDbPolyline
 90
        9
 70
   128
 43
0.0
 10
53.73408389669132
 20
26.80966835731902
 10
53.83442571724128
 20
26.79150613424634
 10
53.92905738807487
 20
26.79156303461738
 10
54.0143422671659
 20
26.80983687181139
 10
54.08700290440659
 20
26.84562539248202
 10
54.14424699229378
 20
26.89755326388875
 10
54.18387467260675
 20
26.9636249270301
 10
54.20436307583493
 20
27.04130128494007
 10
54.20492484411271
 20
27.12759727875786
  0
LINE
  5
8F
330
2
100
AcDbEntity
  8
0
100
AcDbLine
 10
52.695909840596
 20
27.08567182599305
 30
0.0
 11
53.73408389669132
 21
26.80966835731902
 31
0.0
  0
LWPOLYLINE
  5
90
330
2
100
AcDbEntity
  8
0
100
AcDbPolyline
 90
        9
 70
   128
 43
0.0
 10
52.03032365685807
 20
27.71931533004906
 10
52.0454962898238
 20
27.74046668330087
 10
52.06111693152543
 20
27.75581830207715
 10
52.07644503876696
 20
27.7646423970901
 10
52.0907539369236
 20
27.76652063574232
 10
52.10336526989479
 20
27.76136397454466
 10
52.11368115982462
 20
27.74941688039672
 10
52.12121255112394
 20
27.73124574098427
 10
52.12560239571945
 20
27.70771201341778
  0
LWPOLYLINE
  5
91
330
2
100
AcDbEntity
  8
0
100
AcDbPolyline
 90
        9
 70
   128
 43
0.0
 10
52.03600581879769
 20
27.69596487553625
 10
52.04767707493786
 20
27.71223514725033
 10
52.05969295315174
 20
27.72404408477598
 10
52.07148380489411
 20
27.73083185017778
 10
52.08249064962636
 20
27.73227664913921
 10
52.09219167498883
 20
27.72830998667766
 10
52.10012697493479
 20
27.71911991427066
 10
52.10592035286826
 20
27.70514211471539
 10
52.10929715639242
 20
27.68703924735293
  0
LINE
  5
92
330
2
100
AcDbEntity
  8
0
100
AcDbLine
 10
52.10929715639242
 20
27.68703924735293
 30
0.0
 11
52.11227149259498
 21
27.65893145001756
 31
0.0
  0
LINE
  5
93
330
2
100
AcDbEntity
  8
0
100
AcDbLine
 10
51.36452315599669
 20
26.64456542594123
 30
0.0
 11
52.03032365685807
 21
27.71931533004906
 31
0.0
  0
LINE
  5
94
330
2
100
AcDbEntity
  8
0
100
AcDbLine
 10
52.67960460126893
 20
27.06499905990468
 30
0.0
 11
53.7177786573643
 21
26.78899559125416
 31
0.0
  0
ARC
  5
95
330
2
100
AcDbEntity
  8
0
100
AcDbCircle
 10
54.14210142535671
 20
27.16094070025238
 30
0.0
 40
0.060077653445337
100
AcDbArc
 50
355.0004675268012
 51
61.71746438580026
  0
ARC
  5
96
330
2
100
AcDbEntity
  8
0
100
AcDbCircle
 10
53.85643359545499
 20
27.14104022510188
 30
0.0
 40
0.3783657173555182
100
AcDbArc
 50
248.5026954316003
 51
316.5535892207999
  0
ARC
  5
97
330
2
100
AcDbEntity
  8
0
100
AcDbCircle
 10
52.6236852146018
 20
25.82521537916929
 30
0.0
 40
1.502272807770004
100
AcDbArc
 50
146.9475216872014
 51
183.4946389579987
  0
ARC
  5
98
330
2
100
AcDbEntity
  8
0
100
AcDbCircle
 10
50.45589818714556
 20
24.96216933475664
 30
0.0
 40
0.2633195247837774
100
AcDbArc
 50
318.3509298990999
 51
328.6557989829991
  0
LINE
  5
99
330
2
100
AcDbEntity
  8
0
100
AcDbLine
 10
50.02020621163901
 20
24.08899261850772
 30
0.0
 11
50.65265822679089
 21
24.78717602365306
 31
0.0
  0
ARC
  5
9A
330
2
100
AcDbEntity
  8
0
100
AcDbCircle
 10
53.10766547882451
 20
21.57246277276282
 30
0.0
 40
3.983130325649416
100
AcDbArc
 50
140.8171722486008
 51
165.0903628424006
  0
LINE
  5
9B
330
2
100
AcDbEntity
  8
0
100
AcDbLine
 10
49.23250753873438
 20
22.50938634526703
 30
0.0
 11
49.25863593521362
 21
22.59730362066236
 31
0.0
  0
LINE
  5
9C
330
2
100
AcDbEntity
  8
0
100
AcDbLine
 10
49.21810416642228
 20
22.51137139080951
 30
0.0
 11
49.24545681527836
 21
22.60340805155884
 31
0.0
  0
ARC
  5
9D
330
2
100
AcDbEntity
  8
0
100
AcDbCircle
 10
53.15370219803442
 20
21.56280042138537
 30
0.0
 40
4.044409253736312
100
AcDbArc
 50
140.8171722486008
 51
165.0903628424006
  0
LINE
  5
9E
330
2
100
AcDbEntity
  8
0
100
AcDbLine
 10
50.01874355749315
 20
24.11804611090482
 30
0.0
 11
50.65119557264503
 21
24.81622951605015
 31
0.0
  0
ARC
  5
9F
330
2
100
AcDbEntity
  8
0
100
AcDbCircle
 10
50.48394953895826
 20
24.96497383048819
 30
0.0
 40
0.2238215960678117
100
AcDbArc
 50
318.3509298990999
 51
328.6557989829991
  0
LINE
  5
A0
330
2
100
AcDbEntity
  8
0
100
AcDbLine
 10
50.67510611692709
 20
24.84854673068077
 30
0.0
 11
51.06623716261477
 21
25.4799191212376
 31
0.0
  0
ARC
  5
A1
330
2
100
AcDbEntity
  8
0
100
AcDbCircle
 10
50.75144664796348
 20
25.68475663294234
 30
0.0
 40
0.3755682019422022
100
AcDbArc
 50
326.9475216872014
 51
3.494638958100064
  0
LINE
  5
A2
330
2
100
AcDbEntity
  8
0
100
AcDbLine
 10
51.12631648318305
 20
25.70764944749019
 30
0.0
 11
51.12420587374707
 21
25.7336441209074
 31
0.0
  0
LINE
  5
A3
330
2
100
AcDbEntity
  8
0
100
AcDbLine
 10
52.0022844997172
 20
24.4283715143768
 30
0.0
 11
51.36983248454178
 21
23.73018810923148
 31
0.0
  0
ARC
  5
A4
330
2
100
AcDbEntity
  8
0
100
AcDbCircle
 10
51.80552446007186
 20
24.60336482550391
 30
0.0
 40
0.2633195247864314
100
AcDbArc
 50
318.3509298991993
 51
328.6557989829991
  0
ARC
  5
A5
330
2
100
AcDbEntity
  8
0
100
AcDbCircle
 10
54.45729175175081
 20
21.21365826351009
 30
0.0
 40
3.98313032564918
100
AcDbArc
 50
140.8171722486008
 51
165.0903628424006
  0
LINE
  5
A6
330
2
100
AcDbEntity
  8
0
100
AcDbLine
 10
50.60826220813987
 20
22.23849911140964
 30
0.0
 11
50.59798721413702
 21
22.20392563583496
 31
0.0
  0
ARC
  5
A7
330
2
100
AcDbEntity
  8
0
100
AcDbCircle
 10
43.75057845293373
 20
18.42120069041791
 30
0.0
 40
0.0686878310476661
100
AcDbArc
 50
286.5283089823
 51
309.2417313695012
  0
LINE
  5
A8
330
2
100
AcDbEntity
  8
0
100
AcDbLine
 10
43.79402993290356
 20
18.36800306806634
 30
0.0
 11
43.92779170056015
 21
18.47190859847811
 31
0.0
  0
LINE
  5
A9
330
2
100
AcDbEntity
  8
0
100
AcDbLine
 10
43.79256727875769
 20
18.33619872332932
 30
0.0
 11
43.94923369750728
 21
18.45789648211786
 31
0.0
  0
ARC
  5
AA
330
2
100
AcDbEntity
  8
0
100
AcDbCircle
 10
43.7414478905731
 20
18.39878416139551
 30
0.0
 40
0.0808092129966473
100
AcDbArc
 50
286.5283089821989
 51
309.2417313696032
  0
LINE
  5
AB
330
2
100
AcDbEntity
  8
0
100
AcDbLine
 10
43.37330618097068
 20
18.21707592390723
 30
0.0
 11
43.76443722668183
 21
18.32131404242996
 31
0.0
  0
LINE
  5
AC
330
2
100
AcDbEntity
  8
0
100
AcDbLine
 10
43.37898834293381
 20
18.25111297080973
 30
0.0
 11
43.77011938862145
 21
18.35535108930894
 31
0.0
  0
LWPOLYLINE
  5
AD
330
2
100
AcDbEntity
  8
0
100
AcDbPolyline
 90
       17
 70
   128
 43
0.0
 10
43.04172462440845
 20
17.96290359633962
 10
42.93253459769736
 20
17.98667948037272
 10
42.82023371490524
 20
18.00157649236074
 10
42.72191876746189
 20
18.00532669724017
 10
42.65255731484638
 20
17.99735916029981
 10
42.62270900946347
 20
17.97888686683714
 10
42.63691798525535
 20
17.95272205605821
 10
42.69302105443844
 20
17.92284808325533
 10
42.78247703332023
 20
17.89381298994649
 10
42.89166706003133
 20
17.87003710588988
 10
43.00396794279992
 20
17.85514009390186
 10
43.10228289026679
 20
17.85138988904594
 10
43.17164434288229
 20
17.85935742596279
 10
43.20149264826521
 20
17.87782971942545
 10
43.18728367247335
 20
17.90399453020439
 10
43.13118060329027
 20
17.93386850300725
 10
43.04172462440845
 20
17.96290359633962
  0
LWPOLYLINE
  5
AE
330
2
100
AcDbEntity
  8
0
100
AcDbPolyline
 90
       17
 70
   128
 43
0.0
 10
43.45734935436697
 20
17.68679244059133
 10
43.34815932765586
 20
17.71056832464794
 10
43.23585844486375
 20
17.72546533663598
 10
43.13754349742041
 20
17.7292155414919
 10
43.06818204480491
 20
17.72124800457503
 10
43.03833373942199
 20
17.70277571111237
 10
43.05254271521387
 20
17.67661090033343
 10
43.10864578439693
 20
17.64673692753056
 10
43.19810176327876
 20
17.61770183419819
 10
43.30729178998986
 20
17.59392595016511
 10
43.41959267278196
 20
17.57902893817707
 10
43.51790762022531
 20
17.57527873329766
 10
43.58726907284082
 20
17.58324627023802
 10
43.6171173782237
 20
17.60171856370067
 10
43.60290840243187
 20
17.62788337447962
 10
43.54680533324879
 20
17.65775734728249
 10
43.45734935436697
 20
17.68679244059133
  0
LWPOLYLINE
  5
AF
330
2
100
AcDbEntity
  8
0
100
AcDbPolyline
 90
       17
 70
   128
 43
0.0
 10
44.07954357297873
 20
17.85260989592075
 10
43.97035354626758
 20
17.87638577997735
 10
43.8580526634755
 20
17.89128279196538
 10
43.75973771600861
 20
17.89503299684481
 10
43.69037626339311
 20
17.88706545990445
 10
43.66052795803374
 20
17.8685931664418
 10
43.67473693382561
 20
17.84242835566284
 10
43.73084000300866
 20
17.81255438285998
 10
43.82029598189048
 20
17.78351928955112
 10
43.92948600860158
 20
17.75974340549452
 10
44.04178689137018
 20
17.74484639350649
 10
44.14010183883704
 20
17.74109618862706
 10
44.20946329145254
 20
17.74906372556744
 10
44.23931159683545
 20
17.76753601903009
 10
44.22510262104359
 20
17.79370082980902
 10
44.16899955186052
 20
17.82357480261189
 10
44.07954357297873
 20
17.85260989592075
  0
LINE
  5
B0
330
2
100
AcDbEntity
  8
0
100
AcDbLine
 10
42.34829834834789
 20
18.13734536859704
 30
0.0
 11
41.68249784748653
 21
17.95990665009188
 31
0.0
  0
ARC
  5
B1
330
2
100
AcDbEntity
  8
0
100
AcDbCircle
 10
42.99437147172083
 20
15.09649546104922
 30
0.0
 40
3.108726208759527
100
AcDbArc
 50
87.22326120880063
 51
101.9949616139971
  0
LINE
  5
B2
330
2
100
AcDbEntity
  8
0
100
AcDbLine
 10
43.14497143045114
 20
18.20157167484487
 30
0.0
 11
43.17413791045074
 21
18.20101934736291
 31
0.0
  0
ARC
  5
B3
330
2
100
AcDbEntity
  8
0
100
AcDbCircle
 10
43.21178790013918
 20
18.97728840079419
 30
0.0
 40
0.7771815521886502
100
AcDbArc
 50
267.2232612088005
 51
281.9949616139971
  0
LWPOLYLINE
  5
B4
330
2
100
AcDbEntity
  8
0
100
AcDbPolyline
 90
        9
 70
   128
 43
0.0
 10
44.66285313335218
 20
17.80523738482922
 10
44.66180219851291
 20
17.81348168031495
 10
44.66323584315466
 20
17.82132682772918
 10
44.66714792821226
 20
17.82873923289303
 10
44.67352170150022
 20
17.83568715481365
 10
44.68232986955461
 20
17.8421408413721
 10
44.69353471448434
 20
17.84807265692166
 10
44.70708825536226
 20
17.85345720047976
 10
44.72293245389698
 20
17.8582714146545
  0
LINE
  5
B5
330
2
100
AcDbEntity
  8
0
100
AcDbLine
 10
44.66285313335218
 20
17.80523738482922
 30
0.0
 11
44.66496374276466
 21
17.7974745505972
 31
0.0
  0
LWPOLYLINE
  5
B6
330
2
100
AcDbEntity
  8
0
100
AcDbPolyline
 90
        9
 70
   128
 43
0.0
 10
44.42464646053858
 20
17.5853384312725
 10
44.48802325465378
 20
17.60459528792444
 10
44.54223741821256
 20
17.62613346222737
 10
44.58705679788447
 20
17.64986072437858
 10
44.62228947014903
 20
17.67567547063588
 10
44.64778456332445
 20
17.70346715824783
 10
44.66343290350779
 20
17.73311677899728
 10
44.66916748212186
 20
17.76449736860716
 10
44.66496374276466
 20
17.7974745505972
  0
LINE
  5
B7
330
2
100
AcDbEntity
  8
0
100
AcDbLine
 10
44.42464646053858
 20
17.5853384312725
 30
0.0
 11
43.75884595965366
 21
17.40789971276733
 31
0.0
  0
LINE
  5
B8
330
2
100
AcDbEntity
  8
0
100
AcDbLine
 10
45.03089498761073
 20
17.94034476433674
 30
0.0
 11
44.72293245389698
 21
17.8582714146545
 31
0.0
  0
ARC
  5
B9
330
2
100
AcDbEntity
  8
0
100
AcDbCircle
 10
43.21747006207881
 20
19.0113254476967
 30
0.0
 40
0.777181552190066
100
AcDbArc
 50
267.2232612088005
 51
281.9949616139971
  0
ARC
  5
BA
330
2
100
AcDbEntity
  8
0
100
AcDbCircle
 10
43.00005363368396
 20
15.13053250792822
 30
0.0
 40
3.108726208759251
100
AcDbArc
 50
87.22326120880063
 51
101.9949616139971
  0
LINE
  5
BB
330
2
100
AcDbEntity
  8
0
100
AcDbLine
 10
43.15065359239075
 20
18.23560872172386
 30
0.0
 11
43.17982007241385
 21
18.23505639424191
 31
0.0
  0
LINE
  5
BC
330
2
100
AcDbEntity
  8
0
100
AcDbLine
 10
44.6703458501727
 20
17.83261519993019
 30
0.0
 11
44.67064590472783
 21
17.83151159747618
 31
0.0
  0
ARC
  5
BD
330
2
100
AcDbEntity
  8
0
100
AcDbCircle
 10
41.78857792802495
 20
17.81524990608039
 30
0.0
 40
0.1793838261460866
100
AcDbArc
 50
126.2534432112989
 51
180.6739060975005
  0
LINE
  5
BE
330
2
100
AcDbEntity
  8
0
100
AcDbLine
 10
41.60920650989178
 20
17.81314006364541
 30
0.0
 11
41.60623217368923
 21
17.77943835348582
 31
0.0
  0
LINE
  5
BF
330
2
100
AcDbEntity
  8
0
100
AcDbLine
 10
41.59290127056476
 20
17.80314713457167
 30
0.0
 11
41.58992693436218
 21
17.76944542443557
 31
0.0
  0
ARC
  5
C0
330
2
100
AcDbEntity
  8
0
100
AcDbCircle
 10
41.82608411414729
 20
17.80588992975594
 30
0.0
 40
0.2331989739899563
100
AcDbArc
 50
126.2534432112989
 51
180.6739060975005
  0
LINE
  5
C1
330
2
100
AcDbEntity
  8
0
100
AcDbLine
 10
42.35398051028751
 20
18.17138241549956
 30
0.0
 11
41.68818000942613
 21
17.99394369697086
 31
0.0
  0
ARC
  5
C2
330
2
100
AcDbEntity
  8
0
100
AcDbCircle
 10
43.23907883346822
 20
17.244989576527
 30
0.0
 40
0.4438488788592406
100
AcDbArc
 50
253.7997625147028
 51
357.7328520977005
  0
LINE
  5
C3
330
2
100
AcDbEntity
  8
0
100
AcDbLine
 10
43.11524717718242
 20
16.81876481401534
 30
0.0
 11
42.07707312108707
 21
17.09476828268937
 31
0.0
  0
ARC
  5
C4
330
2
100
AcDbEntity
  8
0
100
AcDbCircle
 10
42.26893187592795
 20
17.73093908712007
 30
0.0
 40
0.6644720266541706
100
AcDbArc
 50
175.814306090499
 51
253.2175441970012
  0
LINE
  5
C5
330
2
100
AcDbEntity
  8
0
100
AcDbLine
 10
43.68555462208248
 20
17.26113312629736
 30
0.0
 11
43.68258028585639
 21
17.22743141616126
 31
0.0
  0
LINE
  5
C6
330
2
100
AcDbEntity
  8
0
100
AcDbLine
 10
42.07707312108707
 20
17.09476828268937
 30
0.0
 11
42.06076788176004
 21
17.08477535363914
 31
0.0
  0
ARC
  5
C7
330
2
100
AcDbEntity
  8
0
100
AcDbCircle
 10
42.25262663660093
 20
17.72094615806983
 30
0.0
 40
0.6644720266541447
100
AcDbArc
 50
175.814306090499
 51
253.2175441970012
  0
ARC
  5
C8
330
2
100
AcDbEntity
  8
0
100
AcDbCircle
 10
43.86492604021564
 20
17.26324296873232
 30
0.0
 40
0.1793838261460007
100
AcDbArc
 50
126.2534432112989
 51
180.6739060976013
  0
LINE
  5
C9
330
2
100
AcDbEntity
  8
0
100
AcDbLine
 10
43.0989419378554
 20
16.8087718849651
 30
0.0
 11
43.11524717718242
 21
16.81876481401534
 31
0.0
  0
LINE
  5
CA
330
2
100
AcDbEntity
  8
0
100
AcDbLine
 10
43.0989419378554
 20
16.8087718849651
 30
0.0
 11
42.06076788176004
 21
17.08477535363914
 31
0.0
  0
ARC
  5
CB
330
2
100
AcDbEntity
  8
0
100
AcDbCircle
 10
43.22422674134055
 20
17.24191474195636
 30
0.0
 40
0.4508980112503535
100
AcDbArc
 50
253.8677029904977
 51
300.6941592651001
  0
ARC
  5
CC
330
2
100
AcDbEntity
  8
0
100
AcDbCircle
 10
49.02180391082739
 20
28.00812301735236
 30
0.0
 40
1.777239968870672
100
AcDbArc
 50
0.2625890343905759
 51
38.91724509402115
  0
LINE
  5
CD
330
2
100
AcDbEntity
  8
0
100
AcDbLine
 10
49.30486747649102
 20
29.16327110976591
 30
0.0
 11
49.30486747649102
 21
24.3838564929409
 31
0.0
  0
LWPOLYLINE
  5
CE
330
2
100
AcDbEntity
  8
0
100
AcDbPolyline
 90
        7
 70
   128
 43
0.0
 10
49.5143017429086
 20
29.65970176629676
 10
49.51389254551529
 20
29.659583105577
 10
49.44262158258895
 20
29.61999693505515
 10
49.38413101493372
 20
29.5472063236651
 10
49.34066860223637
 20
29.44400857377606
 10
49.31390458063862
 20
29.31436951707287
 10
49.30486747649102
 20
29.16327110976591
  0
LINE
  5
CF
330
2
100
AcDbEntity
  8
0
100
AcDbLine
 10
45.11544176000863
 20
24.04021572416121
 30
0.0
 11
45.11544176000863
 21
29.17582031424389
 31
0.0
  0
LWPOLYLINE
  5
D0
330
2
100
AcDbEntity
  8
0
100
AcDbPolyline
 90
        7
 70
   128
 43
0.0
 10
45.11544176000863
 20
29.17582031424389
 10
45.12447886415622
 20
29.32691872155083
 10
45.15124288575401
 20
29.45655777827754
 10
45.19470529845132
 20
29.55975552814308
 10
45.25319586610661
 20
29.63254613953312
 10
45.32446682903292
 20
29.67213231005494
 10
45.32487602642623
 20
29.67225097079823
  0
LWPOLYLINE
  5
D1
330
2
100
AcDbEntity
  8
0
100
AcDbPolyline
 90
        4
 70
   128
 43
0.0
 10
47.62231742579647
 20
30.17103348160664
 10
47.53056216757485
 20
30.23484314260757
 10
47.44233301248456
 20
30.26489518705622
 10
47.36102055746342
 20
30.26003473172221
  0
LINE
  5
D2
330
2
100
AcDbEntity
  8
0
100
AcDbLine
 10
48.23752360637795
 20
29.63824930064176
 30
0.0
 11
47.62231742579647
 21
30.17103348160664
 31
0.0
  0
LINE
  5
D3
330
2
100
AcDbEntity
  8
0
100
AcDbLine
 10
48.23328354431625
 20
24.60743949546202
 30
0.0
 11
48.23328354431625
 21
29.53278271671582
 31
0.0
  0
LWPOLYLINE
  5
D4
330
2
100
AcDbEntity
  8
0
100
AcDbPolyline
 90
        7
 70
   128
 43
0.0
 10
48.23328354431625
 20
29.53278271671582
 10
48.24232064846386
 20
29.68388112402278
 10
48.26908467006159
 20
29.81352018074948
 10
48.31254708275888
 20
29.91671793063853
 10
48.37103765041417
 20
29.98950854200503
 10
48.4423086133405
 20
30.02909471255038
 10
48.44271781073381
 20
30.02921337327015
  0
LINE
  5
D5
330
2
100
AcDbEntity
  8
0
100
AcDbLine
 10
46.38041144132881
 20
24.46224609168327
 30
0.0
 11
46.38041144132881
 21
29.60887073155129
 31
0.0
  0
LWPOLYLINE
  5
D6
330
2
100
AcDbEntity
  8
0
100
AcDbPolyline
 90
        4
 70
   128
 43
0.0
 10
46.23976726014287
 20
29.83981075072311
 10
46.14801200192123
 20
29.90362041172403
 10
46.05978284683093
 20
29.93367245617266
 10
45.97846805189308
 20
29.92881186099357
  0
LINE
  5
D7
330
2
100
AcDbEntity
  8
0
100
AcDbLine
 10
46.38465150339055
 20
29.71433731545372
 30
0.0
 11
46.23976726014287
 21
29.83981075072311
 31
0.0
  0
LWPOLYLINE
  5
D8
330
2
100
AcDbEntity
  8
0
100
AcDbPolyline
 90
        7
 70
   128
 43
0.0
 10
46.38041144132881
 20
29.60887073155129
 10
46.38944854547642
 20
29.75996913885827
 10
46.41621256707415
 20
29.88960819556144
 10
46.45967497977149
 20
29.9928059454505
 10
46.51816554742677
 20
30.06559655684053
 10
46.58943651035307
 20
30.10518272736237
 10
46.58984570774638
 20
30.10530138808212
  0
LINE
  5
D9
330
2
100
AcDbEntity
  8
0
100
AcDbLine
 10
49.86602529669417
 20
23.92918698084216
 30
0.0
 11
49.02989929932536
 21
24.15147502027814
 31
0.0
  0
ARC
  5
DA
330
2
100
AcDbEntity
  8
0
100
AcDbCircle
 10
50.34859614782574
 20
22.18213231933565
 30
0.0
 40
1.5018747336778
100
AcDbArc
 50
8.310471656299917
 51
57.34671224929034
  0
ELLIPSE
  5
DB
330
2
100
AcDbEntity
  8
0
100
AcDbEllipse
 10
47.89742588922567
 20
22.4894836208489
 30
0.0
 11
3.934309770842209
 21
-0.5432330654065988
 31
0.0
210
0.0
220
0.0
230
1.0
 40
0.3517094056999999
 41
3.36429286100832
 42
3.373254865492306
  0
LINE
  5
DC
330
2
100
AcDbEntity
  8
0
100
AcDbLine
 10
44.01807705956161
 20
22.98861919462241
 30
0.0
 11
44.01807705956161
 21
22.71368444128498
 31
0.0
  0
LINE
  5
DD
330
2
100
AcDbEntity
  8
0
100
AcDbLine
 10
48.52260464379424
 20
24.59182475602657
 30
0.0
 11
48.52260464379424
 21
24.28391172932989
 31
0.0
  0
LWPOLYLINE
  5
DE
330
2
100
AcDbEntity
  8
0
100
AcDbPolyline
 90
       16
 70
   128
 43
0.0
 10
44.01807705956161
 20
22.98861919462241
 10
44.10961327672274
 20
23.18763426016989
 10
44.24187273172353
 20
23.38084030358293
 10
44.41343348694071
 20
23.56616014301634
 10
44.62245107161439
 20
23.74160138217205
 10
44.86667831210229
 20
23.90527783075888
 10
45.14348949140063
 20
24.05542978322255
 10
45.44990857857225
 20
24.1904429374925
 10
45.78264122441892
 20
24.30886575061403
 10
46.13811017949786
 20
24.40942504438282
 10
46.51249375349906
 20
24.49103969352413
 10
46.90176690266381
 20
24.55283224894684
 10
47.30174450370612
 20
24.59413837127289
 10
47.70812634833696
 20
24.61451397333423
 10
48.11654337553427
 20
24.61373999452852
 10
48.52260464379424
 20
24.59182475602657
  0
LINE
  5
DF
330
2
100
AcDbEntity
  8
0
100
AcDbLine
 10
50.07424352130957
 20
24.17931424316369
 30
0.0
 11
48.52260464379424
 21
24.59182475602657
 31
0.0
  0
ARC
  5
E0
330
2
100
AcDbEntity
  8
0
100
AcDbCircle
 10
50.50955824799223
 20
22.57169729910013
 30
0.0
 40
1.328967006700986
100
AcDbArc
 50
3.261935338999381
 51
53.74271724209947
  0
LWPOLYLINE
  5
E1
330
2
100
AcDbEntity
  8
0
100
AcDbPolyline
 90
       60
 70
   128
 43
0.0
 10
46.31389351060693
 20
18.19863834088551
 10
45.97248907304208
 20
18.29213503460603
 10
45.6528949387821
 20
18.40324658473195
 10
45.35873223703655
 20
18.53071405297276
 10
45.09333394880089
 20
18.67309318201325
 10
44.85970714270917
 20
18.82877075940129
 10
44.66049890380772
 20
18.99598289599836
 10
44.49796634107804
 20
19.1728350114638
 10
44.37395101337589
 20
19.35732330068864
 10
44.28985806392766
 20
19.54735743762291
 10
44.24664029946257
 20
19.74078425953625
 10
44.24478739448985
 20
19.93541216329865
 10
44.28432034319314
 20
20.1290359369678
 10
44.36479122147102
 20
20.31946174580665
 10
44.48528826208693
 20
20.50453198931511
 10
44.64444618543184
 20
20.68214974769432
 10
44.84046166864765
 20
20.8503025407707
 10
45.07111377798799
 20
21.0070851302146
 10
45.33378913289942
 20
21.15072110661189
 10
45.62551151662054
 20
21.27958301696164
 10
45.94297559800644
 20
21.39221080435331
 10
46.28258438213549
 20
21.48732835095291
 10
46.64048996582192
 20
21.56385793692218
 10
47.01263713575371
 20
21.62093245148119
 10
47.39480931579483
 20
21.65790521758076
 10
47.78267634245232
 20
21.67435731902452
 10
48.17184352733207
 20
21.6701023468873
 10
48.55790145073378
 20
21.64518851175442
 10
48.93647592209278
 20
21.59989809727823
 10
49.30327754140028
 20
21.53474426198889
 10
49.65415029973282
 20
21.45046522486889
 10
49.98511866856649
 20
21.34801590107712
 10
50.29243264399038
 20
21.22855708238093
 10
50.57261023589626
 20
21.09344228495582
 10
50.8224769201815
 20
20.94420241343338
 10
51.03920160751322
 20
20.78252841519318
 10
51.22032872057738
 20
20.6102521212107
 10
51.36380601677291
 20
20.42932549077371
 10
51.46800784104556
 20
20.24179849487546
 10
51.5317535450827
 20
20.04979588931867
 10
51.5543208645623
 20
19.85549314034659
 10
51.53545410273136
 20
19.66109177575219
 10
51.47536702758902
 20
19.46879444067231
 10
51.37474044965799
 20
19.28077994073001
 10
51.23471450830479
 20
19.09917855532991
 10
51.05687575338399
 20
18.92604790078355
 10
50.84323916903972
 20
18.7633496165448
 10
50.59622534314995
 20
18.61292713920624
 10
50.31863304106732
 20
18.47648481552532
 10
50.01360749449156
 20
18.35556859157017
 10
49.68460476475303
 20
18.25154849644886
 10
49.33535258420831
 20
18.16560311940469
 10
48.96980811965996
 20
18.09870625594178
 10
48.59211313593194
 20
18.05161587418996
 10
48.20654706813392
 20
18.02486552703791
 10
47.81747853384493
 20
18.01875830661498
 10
47.42931583502163
 20
18.03336341011795
 10
47.04645701018476
 20
18.0685153559254
 10
46.67324000277523
 20
18.12381585844224
 10
46.31389351060693
 20
18.19863834088551
  0
LWPOLYLINE
  5
E2
330
2
100
AcDbEntity
  8
0
100
AcDbPolyline
 90
       20
 70
   128
 43
0.0
 10
50.09131776691663
 20
21.09188782095772
 10
49.93498218265916
 20
20.95321593803769
 10
49.74378344529049
 20
20.82593335654864
 10
49.52099301823754
 20
20.71221791675434
 10
49.27042290748196
 20
20.61401532139096
 10
48.99636043707833
 20
20.53300584404629
 10
48.70349489186637
 20
20.47057557936744
 10
48.39683728252333
 20
20.42779272646563
 10
48.08163460580437
 20
20.40538931182958
 10
47.76328006685754
 20
20.40374866411137
 10
47.44722080013114
 20
20.4228988552283
 10
47.13886466729815
 20
20.46251222011729
 10
46.84348772727044
 20
20.52191096311339
 10
46.56614396143035
 20
20.60007875524214
 10
46.31157879845229
 20
20.69567812390293
 10
46.0841479188872
 20
20.80707333744115
 10
45.88774272811341
 20
20.93235839280721
 10
45.7257237734476
 20
21.06938962803253
 10
45.60086324406637
 20
21.21582240063851
 10
45.57279683341533
 20
21.2582854898152
  0
LWPOLYLINE
  5
E3
330
2
100
AcDbEntity
  8
0
100
AcDbPolyline
 90
        3
 70
   128
 43
0.0
 10
50.22205494505953
 20
21.2582854898152
 10
50.21011525288526
 20
21.23957629095981
 10
50.09131776691663
 20
21.09188782095772
  0
LWPOLYLINE
  5
E4
330
2
100
AcDbEntity
  8
0
100
AcDbPolyline
 90
       70
 70
   128
 43
0.0
 10
43.58043973812864
 20
18.7332245923352
 10
43.37167844798713
 20
18.93467009296167
 10
43.20041892646915
 20
19.14477281275737
 10
43.06808028390463
 20
19.36179177438756
 10
42.97575911995969
 20
19.58392869040195
 10
42.92422043687548
 20
19.8093428643741
 10
42.91389130042235
 20
20.03616644344194
 10
42.94485730107988
 20
20.26251989601473
 10
43.01686184479126
 20
20.48652758608427
 10
43.12930827924211
 20
20.70633331538959
 10
43.28126483788424
 20
20.92011570442579
 10
43.47147236078797
 20
21.1261032850045
 10
43.69835472852239
 20
21.32258917911907
 10
43.96003192233735
 20
21.50794524281865
 10
44.25433560258977
 20
21.68063555736946
 10
44.57882707631161
 20
21.83922915642501
 10
44.93081750494464
 20
21.98241188347723
 10
45.30739018492505
 20
22.10899728136118
 10
45.70542471646969
 20
22.21793642362982
 10
46.12162286006522
 20
22.30832660619746
 10
46.55253586682918
 20
22.37941882757492
 10
46.99459305588203
 20
22.43062399519088
 10
47.4441314021123
 20
22.46151780695729
 10
47.89742588922567
 20
22.47184426697288
 10
48.3507203763626
 20
22.46151780695729
 10
48.80025872259285
 20
22.43062399519088
 10
49.24231591164567
 20
22.37941882757492
 10
49.67322891840967
 20
22.30832660619746
 10
50.08942706200517
 20
22.21793642362982
 10
50.48746159354979
 20
22.10899728136118
 10
50.86403427353022
 20
21.98241188347723
 10
51.2160247021633
 20
21.83922915642501
 10
51.54051617588513
 20
21.68063555736946
 10
51.83481985613752
 20
21.50794524281865
 10
52.09649704995251
 20
21.32258917911907
 10
52.32337941768693
 20
21.1261032850045
 10
52.51358694059065
 20
20.92011570442579
 10
52.66554349923276
 20
20.70633331538959
 10
52.77798993368357
 20
20.48652758608427
 10
52.84999447739502
 20
20.26251989601473
 10
52.8809604780525
 20
20.03616644344194
 10
52.87063134159939
 20
19.8093428643741
 10
52.8190926585152
 20
19.58392869040195
 10
52.72677149457021
 20
19.36179177438756
 10
52.59443285200574
 20
19.14477281275737
 10
52.42317333048776
 20
18.93467009296167
 10
52.21441204034624
 20
18.7332245923352
 10
51.96987884337434
 20
18.54210555172431
 10
51.6916000186621
 20
18.362896643695
 10
51.38188147217373
 20
18.19708284968078
 10
51.04328962935478
 20
18.04603815504387
 10
50.67863016881989
 20
17.91101416363934
 10
50.29092477375191
 20
17.79312972681664
 10
49.88338609309047
 20
17.6933616721278
 10
49.45939112074603
 20
17.61253670913398
 10
49.02245321257336
 20
17.55132457888423
 10
48.57619297370232
 20
17.51023250437532
 10
48.1243082569601
 20
17.48960098751972
 10
47.67054352149125
 20
17.48960098751972
 10
47.21865880477259
 20
17.51023250437532
 10
46.77239856590154
 20
17.55132457888423
 10
46.33546065772887
 20
17.61253670913398
 10
45.91146568536092
 20
17.6933616721278
 10
45.50392700472296
 20
17.79312972681664
 10
45.11622160963148
 20
17.91101416363934
 10
44.7515621491201
 20
18.04603815504387
 10
44.41297030630113
 20
18.19708284968078
 10
44.10325175981278
 20
18.362896643695
 10
43.82497293510051
 20
18.54210555172431
 10
43.58043973812864
 20
18.7332245923352
  0
LWPOLYLINE
  5
E5
330
2
100
AcDbEntity
  8
0
100
AcDbPolyline
 90
       37
 70
   128
 43
0.0
 10
42.90663432224343
 20
19.97541682482233
 10
42.9015501477212
 20
20.15850016560458
 10
42.93259283211305
 20
20.38541415658675
 10
43.00477568684061
 20
20.60997657604888
 10
43.11750058202598
 20
20.83032662906204
 10
43.2698334436746
 20
21.04463842571048
 10
43.46051199371633
 20
21.25113611092494
 10
43.68795620965972
 20
21.44810857986851
 10
43.95028141706119
 20
21.63392365663797
 10
44.24531390668266
 20
21.80704161895896
 10
44.57060894638728
 20
21.96602795691495
 10
44.92347103898697
 20
22.10956525958163
 10
45.30097625811333
 20
22.23646413171654
 10
45.69999647659376
 20
22.3456730492845
 10
46.11722528723372
 20
22.43628707280672
 10
46.54920540071571
 20
22.50755534591481
 10
46.99235729375502
 20
22.55888731728698
 10
47.44300887023501
 20
22.58985763401835
 10
47.89742588922567
 20
22.60020966633129
 10
48.35184290823988
 20
22.58985763401835
 10
48.80249448471985
 20
22.55888731728698
 10
49.24564637775918
 20
22.50755534591481
 10
49.67762649124113
 20
22.43628707280672
 10
50.09485530188111
 20
22.3456730492845
 10
50.49387552036156
 20
22.23646413171654
 10
50.87138073946441
 20
22.10956525958163
 10
51.2242428320876
 20
21.96602795691495
 10
51.54953787179221
 20
21.80704161895896
 10
51.84457036139018
 20
21.63392365663797
 10
52.10689556881517
 20
21.44810857986851
 10
52.33433978475855
 20
21.25113611092494
 10
52.52501833480028
 20
21.04463842571048
 10
52.6773511964489
 20
20.83032662906204
 10
52.79007609163428
 20
20.60997657604888
 10
52.8622589463618
 20
20.38541415658675
 10
52.89330163075368
 20
20.15850016560458
 10
52.88821745623141
 20
19.97541682482233
  0
SPLINE
  5
E6
330
2
100
AcDbEntity
  8
0
100
AcDbSpline
210
0.0
220
0.0
230
1.0
 70
     8
 71
     3
 72
     9
 73
     5
 74
     0
 42
0.000000001
 43
0.0000000001
 40
0.0
 40
0.0
 40
0.0
 40
0.0
 40
0.7445075494353719
 40
0.9839912645060252
 40
0.9839912645060252
 40
0.9839912645060252
 40
0.9839912645060252
 10
44.01255308829119
 20
22.66704905221836
 30
0.0
 10
43.99711083042769
 20
22.41042906870546
 30
0.0
 10
43.97670130354846
 20
22.07126283423831
 30
0.0
 10
43.95122272542271
 20
21.71656795203459
 30
0.0
 10
43.94500293738151
 20
21.63018470559845
 30
0.0
  0
LWPOLYLINE
  5
E7
330
2
100
AcDbEntity
  8
0
100
AcDbPolyline
 90
       16
 70
   128
 43
0.0
 10
44.01255308828917
 20
22.66704905222056
 10
44.10372190403897
 20
22.87171729237923
 10
44.23789289516823
 20
23.07037922396656
 10
44.41354521440965
 20
23.26078298564152
 10
44.62868781768769
 20
23.44077032362688
 10
44.88088203289311
 20
23.60830105581047
 10
45.16726920267848
 20
23.76147619747478
 10
45.48460308766442
 20
23.89855948652115
 10
45.82928666299328
 20
24.01799706432636
 10
46.19741289124365
 20
24.11843508896993
 10
46.58480900914312
 20
24.19873508108649
 10
46.98708382645808
 20
24.25798682884123
 10
47.39967750082286
 20
24.29551870521762
 10
47.81791322409823
 20
24.31090528104814
 10
48.23705023477909
 20
24.3039721472956
 10
48.63465303168507
 20
24.27604024346762
  0
SPLINE
  5
E8
330
2
100
AcDbEntity
  8
0
100
AcDbSpline
210
0.0
220
0.0
230
1.0
 70
     8
 71
     3
 72
    10
 73
     6
 74
     0
 42
0.000000001
 43
0.0000000001
 40
0.0
 40
0.0
 40
0.0
 40
0.0
 40
0.4841217781620541
 40
0.9680720828120428
 40
1.0
 40
1.0
 40
1.0
 40
1.0
 10
48.61692630509788
 20
24.24904549365529
 30
0.0
 10
48.61732133665019
 20
24.25215028347922
 30
0.0
 10
48.6181112598366
 20
24.25835876342603
 30
0.0
 10
48.62148466849113
 20
24.26435720528377
 30
0.0
 10
48.62442638735161
 20
24.26632221013448
 30
0.0
 10
48.62460845155242
 20
24.26644382509997
 30
0.0
  0
LWPOLYLINE
  5
E9
330
2
100
AcDbEntity
  8
0
100
AcDbPolyline
 90
        3
 70
   128
 43
0.0
 10
48.61692630509755
 20
24.24904549364538
 10
48.61891108878829
 20
24.00512308865265
 10
48.63063845007916
 20
22.56370328754978
  0
ELLIPSE
  5
EA
330
2
100
AcDbEntity
  8
0
100
AcDbEllipse
 10
49.72680603901732
 20
23.81824957726677
 30
0.0
 11
-0.0406335713547085
 21
0.042488922884812
 31
0.0
210
0.0
220
0.0
230
1.0
 40
0.7602689299000002
 41
3.835360514067845
 42
5.388703548342451
  0
LINE
  5
EB
330
2
100
AcDbEntity
  8
0
100
AcDbLine
 10
49.77877042857089
 20
23.80232570666622
 30
0.0
 11
49.77870263220451
 21
23.80533612178197
 31
0.0
  0
LINE
  5
EC
330
2
100
AcDbEntity
  8
0
100
AcDbLine
 10
49.03182988358635
 20
24.05363557360456
 30
0.0
 11
49.72656517445457
 21
23.86893692028864
 31
0.0
  0
ARC
  5
ED
330
2
100
AcDbEntity
  8
0
100
AcDbCircle
 10
48.48458935334516
 20
21.62450109636147
 30
0.0
 40
2.693569913849079
100
AcDbArc
 50
80.76609024302749
 51
85.65213992180778
  0
LWPOLYLINE
  5
EE
330
2
100
AcDbEntity
  8
0
100
AcDbPolyline
 90
        5
 70
   128
 43
0.0
 10
44.01807705956161
 20
22.84023226016396
 10
43.99722909725819
 20
22.83551861459983
 10
43.96324819428444
 20
22.82061838854928
 10
43.94325807283318
 20
22.80035041037443
 10
43.93931252420513
 20
22.78565193540931
  0
LINE
  5
EF
330
2
100
AcDbEntity
  8
0
100
AcDbLine
 10
50.79902521490311
 20
25.04857968123932
 30
0.0
 11
50.79902521490311
 21
28.01626815646313
 31
0.0
  0
LWPOLYLINE
  5
F0
330
2
100
AcDbEntity
  8
0
100
AcDbPolyline
 90
        2
 70
   128
 43
0.0
 10
49.56480638871544
 20
29.67428066611868
 10
49.57267589469074
 20
29.67637723272929
  0
LWPOLYLINE
  5
F1
330
2
100
AcDbEntity
  8
0
100
AcDbPolyline
 90
        2
 70
   128
 43
0.0
 10
48.51867937815249
 20
30.05114105336291
 10
48.52654888410427
 20
30.05323761995003
  0
LWPOLYLINE
  5
F2
330
2
100
AcDbEntity
  8
0
100
AcDbPolyline
 90
        2
 70
   128
 43
0.0
 10
45.90250882439111
 20
29.90688432076943
 10
45.90209962699775
 20
29.90676566004967
  0
POLYLINE
  5
F3
330
2
100
AcDbEntity
  8
0
100
AcDb2dPolyline
 66
     1
 10
0.0
 20
0.0
 30
0.0
 70
     2
  0
VERTEX
  5
F4
330
F3
100
AcDbEntity
  8
0
100
AcDbVertex
100
AcDb2dVertex
 10
35.01679852709
 20
20.48786930904978
 30
0.0
 42
-0.0586552717493011
  0
VERTEX
  5
F5
330
F3
100
AcDbEntity
  8
0
100
AcDbVertex
100
AcDb2dVertex
 10
37.77688841682517
 20
20.58897544276003
 30
0.0
 42
-0.0673598873385097
 70
     1
  0
VERTEX
  5
F6
330
F3
100
AcDbEntity
  8
0
100
AcDbVertex
100
AcDb2dVertex
 10
39.97108907789991
 20
20.10963763317426
 30
0.0
 42
-0.011450306815309
  0
VERTEX
  5
F7
330
F3
100
AcDbEntity
  8
0
100
AcDbVertex
100
AcDb2dVertex
 10
41.28377859460645
 20
19.5967237919133
 30
0.0
 42
-0.0314694829932428
 70
     1
  0
VERTEX
  5
F8
330
F3
100
AcDbEntity
  8
0
100
AcDbVertex
100
AcDb2dVertex
 10
41.7440475159824
 20
19.36965109682033
 30
0.0
 42
-0.0818384679004543
  0
VERTEX
  5
F9
330
F3
100
AcDbEntity
  8
0
100
AcDbVertex
100
AcDb2dVertex
 10
42.19521772151026
 20
19.00140468015516
 30
0.0
 42
-0.0499084419776045
 70
     1
  0
VERTEX
  5
FA
330
F3
100
AcDbEntity
  8
0
100
AcDbVertex
100
AcDb2dVertex
 10
42.75024392161999
 20
18.229205603075
 30
0.0
  0
SEQEND
  5
FB
330
F3
100
AcDbEntity
  8
0
  0
POLYLINE
  5
FC
330
2
100
AcDbEntity
  8
0
100
AcDb2dPolyline
 66
     1
 10
0.0
 20
0.0
 30
0.0
  0
VERTEX
  5
FD
330
FC
100
AcDbEntity
  8
0
100
AcDbVertex
100
AcDb2dVertex
 10
34.97646152764272
 20
20.24338558720268
 30
0.0
 42
-0.0603306809364986
  0
VERTEX
  5
FE
330
FC
100
AcDbEntity
  8
0
100
AcDbVertex
100
AcDb2dVertex
 10
37.75796405361476
 20
20.35457716735672
 30
0.0
 42
-0.0673598873385097
  0
VERTEX
  5
FF
330
FC
100
AcDbEntity
  8
0
100
AcDbVertex
100
AcDb2dVertex
 10
39.89054251541704
 20
19.88870113934142
 30
0.0
 42
-0.0114503068153089
  0
VERTEX
  5
100
330
FC
100
AcDbEntity
  8
0
100
AcDbVertex
100
AcDb2dVertex
 10
41.19320131006978
 20
19.3797066530488
 30
0.0
 42
-0.0314694829932429
  0
VERTEX
  5
101
330
FC
100
AcDbEntity
  8
0
100
AcDbVertex
100
AcDb2dVertex
 10
41.62694978021379
 20
19.16571776626149
 30
0.0
 42
-0.081838467900454
  0
VERTEX
  5
102
330
FC
100
AcDbEntity
  8
0
100
AcDbVertex
100
AcDb2dVertex
 10
42.01887905991682
 20
18.84582396328319
 30
0.0
 42
-0.0443687761746195
  0
VERTEX
  5
103
330
FC
100
AcDbEntity
  8
0
100
AcDbVertex
100
AcDb2dVertex
 10
42.49543605817834
 20
18.19802992107081
 30
0.0
 42
-0.0499084419776047
  0
SEQEND
  5
104
330
FC
100
AcDbEntity
  8
0
  0
POLYLINE
  5
105
330
2
100
AcDbEntity
  8
0
100
AcDb2dPolyline
 66
     1
 10
0.0
 20
0.0
 30
0.0
 70
     2
  0
VERTEX
  5
106
330
105
100
AcDbEntity
  8
0
100
AcDbVertex
100
AcDb2dVertex
 10
43.37898813559893
 20
18.25111322804081
 30
0.0
 42
-0.0488455962787705
  0
VERTEX
  5
107
330
105
100
AcDbEntity
  8
0
100
AcDbVertex
100
AcDb2dVertex
 10
42.77296384277902
 20
18.8676830888363
 30
0.0
 42
-0.0597583052236917
 70
     1
  0
VERTEX
  5
108
330
105
100
AcDbEntity
  8
0
100
AcDbVertex
100
AcDb2dVertex
 10
42.39728105303948
 20
19.46719337959779
 30
0.0
 42
-0.0048941852910339
  0
VERTEX
  5
109
330
105
100
AcDbEntity
  8
0
100
AcDbVertex
100
AcDb2dVertex
 10
42.22453350494032
 20
19.84324361311202
 30
0.0
 42
-0.021488261389958
 70
     1
  0
VERTEX
  5
10A
330
105
100
AcDbEntity
  8
0
100
AcDbVertex
100
AcDb2dVertex
 10
42.18974451212836
 20
19.93088714027258
 30
0.0
 42
-0.0429133047917358
  0
VERTEX
  5
10B
330
105
100
AcDbEntity
  8
0
100
AcDbVertex
100
AcDb2dVertex
 10
42.04184638790766
 20
20.51223799804432
 30
0.0
 42
-0.0165742420476657
 70
     1
  0
VERTEX
  5
10C
330
105
100
AcDbEntity
  8
0
100
AcDbVertex
100
AcDb2dVertex
 10
41.84051179262638
 20
22.04983783014698
 30
0.0
 42
-0.0135478280119832
  0
VERTEX
  5
10D
330
105
100
AcDbEntity
  8
0
100
AcDbVertex
100
AcDb2dVertex
 10
41.80342693797469
 20
22.57905443792883
 30
0.0
 42
-0.0065323148410047
 70
     1
  0
VERTEX
  5
10E
330
105
100
AcDbEntity
  8
0
100
AcDbVertex
100
AcDb2dVertex
 10
41.77064591435136
 20
23.67868210561612
 30
0.0
 42
-0.0630061926651922
  0
VERTEX
  5
10F
330
105
100
AcDbEntity
  8
0
100
AcDbVertex
100
AcDb2dVertex
 10
41.94215182997258
 20
25.24432679394939
 30
0.0
 42
-0.1013177687733093
 70
     1
  0
VERTEX
  5
110
330
105
100
AcDbEntity
  8
0
100
AcDbVertex
100
AcDb2dVertex
 10
42.35918737742918
 20
26.13733681994844
 30
0.0
 42
-0.1072686604705578
  0
VERTEX
  5
111
330
105
100
AcDbEntity
  8
0
100
AcDbVertex
100
AcDb2dVertex
 10
42.81259524641076
 20
26.53358791198084
 30
0.0
 42
-0.0617534728423686
 70
     1
  0
VERTEX
  5
112
330
105
100
AcDbEntity
  8
0
100
AcDbVertex
100
AcDb2dVertex
 10
43.77612127721937
 20
26.91972761452408
 30
0.0
 42
-0.055592915443311
  0
VERTEX
  5
113
330
105
100
AcDbEntity
  8
0
100
AcDbVertex
100
AcDb2dVertex
 10
44.26617829530778
 20
26.99215765659108
 30
0.0
 42
-0.0467035193712873
 70
     1
  0
VERTEX
  5
114
330
105
100
AcDbEntity
  8
0
100
AcDbVertex
100
AcDb2dVertex
 10
44.85433398656279
 20
26.95819881295746
 30
0.0
  0
SEQEND
  5
115
330
105
100
AcDbEntity
  8
0
  0
POLYLINE
  5
116
330
2
100
AcDbEntity
  8
0
100
AcDb2dPolyline
 66
     1
 10
0.0
 20
0.0
 30
0.0
  0
VERTEX
  5
117
330
116
100
AcDbEntity
  8
0
100
AcDbVertex
100
AcDb2dVertex
 10
43.66096246230431
 20
18.32626044872666
 30
0.0
 42
-0.0588834903819056
  0
VERTEX
  5
118
330
116
100
AcDbEntity
  8
0
100
AcDbVertex
100
AcDb2dVertex
 10
42.95594286198415
 20
19.01539687142169
 30
0.0
 42
-0.059758305223691
  0
VERTEX
  5
119
330
116
100
AcDbEntity
  8
0
100
AcDbVertex
100
AcDb2dVertex
 10
42.61000225841743
 20
19.56744492231669
 30
0.0
 42
-0.0048941852910339
  0
VERTEX
  5
11A
330
116
100
AcDbEntity
  8
0
100
AcDbVertex
100
AcDb2dVertex
 10
42.43917640717628
 20
19.93931185736936
 30
0.0
 42
-0.0214882613899575
  0
VERTEX
  5
11B
330
116
100
AcDbEntity
  8
0
100
AcDbVertex
100
AcDb2dVertex
 10
42.41184119171551
 20
20.00817716518735
 30
0.0
 42
-0.0429133047917362
  0
VERTEX
  5
11C
330
116
100
AcDbEntity
  8
0
100
AcDbVertex
100
AcDb2dVertex
 10
42.27387707520357
 20
20.55047990160508
 30
0.0
 42
-0.0165742420476656
  0
VERTEX
  5
11D
330
116
100
AcDbEntity
  8
0
100
AcDbVertex
100
AcDb2dVertex
 10
42.07456607293555
 20
22.07262547820308
 30
0.0
 42
-0.0135478280119832
  0
VERTEX
  5
11E
330
116
100
AcDbEntity
  8
0
100
AcDbVertex
100
AcDb2dVertex
 10
42.03837188378811
 20
22.58913191140664
 30
0.0
 42
-0.0065323148410048
  0
VERTEX
  5
11F
330
116
100
AcDbEntity
  8
0
100
AcDbVertex
100
AcDb2dVertex
 10
42.00577394727747
 20
23.68261798763452
 30
0.0
 42
-0.0630061926651915
  0
VERTEX
  5
120
330
116
100
AcDbEntity
  8
0
100
AcDbVertex
100
AcDb2dVertex
 10
42.17085174948524
 20
25.18958165855029
 30
0.0
 42
-0.1013177687733092
  0
VERTEX
  5
121
330
116
100
AcDbEntity
  8
0
100
AcDbVertex
100
AcDb2dVertex
 10
42.54797077628182
 20
25.99711730863634
 30
0.0
 42
-0.1072686604705569
  0
VERTEX
  5
122
330
116
100
AcDbEntity
  8
0
100
AcDbVertex
100
AcDb2dVertex
 10
42.92626681196055
 20
26.32772519505421
 30
0.0
 42
-0.0617534728423686
  0
VERTEX
  5
123
330
116
100
AcDbEntity
  8
0
100
AcDbVertex
100
AcDb2dVertex
 10
43.83607838770847
 20
26.69233845924891
 30
0.0
 42
-0.0555929154433105
  0
VERTEX
  5
124
330
116
100
AcDbEntity
  8
0
100
AcDbVertex
100
AcDb2dVertex
 10
44.2745636269174
 20
26.75714623293522
 30
0.0
 42
-0.0497717933022909
  0
VERTEX
  5
125
330
116
100
AcDbEntity
  8
0
100
AcDbVertex
100
AcDb2dVertex
 10
44.85433413236214
 20
26.72010886769202
 30
0.0
 42
-0.046703519371287
  0
SEQEND
  5
126
330
116
100
AcDbEntity
  8
0
  0
ELLIPSE
  5
127
330
2
100
AcDbEntity
  8
0
100
AcDbEllipse
 10
35.20215092532777
 20
18.26095123858762
 30
0.0
 11
0.2497902055303942
 21
0.0
 31
0.0
210
0.0
220
0.0
230
1.0
 40
0.6171303644892952
 41
2.053477493091673
 42
7.380107028926092
  0
POLYLINE
  5
128
330
2
100
AcDbEntity
  8
0
100
AcDb2dPolyline
 66
     1
 10
0.0
 20
0.0
 30
0.0
 70
     2
  0
VERTEX
  5
129
330
128
100
AcDbEntity
  8
0
100
AcDbVertex
100
AcDb2dVertex
 10
35.39529771095329
 20
17.99047006874939
 30
0.0
 42
0.0880096562533022
  0
VERTEX
  5
12A
330
128
100
AcDbEntity
  8
0
100
AcDbVertex
100
AcDb2dVertex
 10
37.55476605942006
 20
16.39272272625454
 30
0.0
 42
0.1052464360854266
 70
     1
  0
VERTEX
  5
12B
330
128
100
AcDbEntity
  8
0
100
AcDbVertex
100
AcDb2dVertex
 10
39.73750690343376
 20
15.83141152172623
 30
0.0
 42
0.0272445652114519
  0
VERTEX
  5
12C
330
128
100
AcDbEntity
  8
0
100
AcDbVertex
100
AcDb2dVertex
 10
41.37182591927433
 20
15.85182759493565
 30
0.0
 42
0.0519632746712641
 70
     1
  0
VERTEX
  5
12D
330
128
100
AcDbEntity
  8
0
100
AcDbVertex
100
AcDb2dVertex
 10
42.21795596746006
 20
15.99776876507052
 30
0.0
 42
0.0852429863494019
  0
VERTEX
  5
12E
330
128
100
AcDbEntity
  8
0
100
AcDbVertex
100
AcDb2dVertex
 10
42.99438155873983
 20
16.36777058110906
 30
0.0
 42
0.0614300481464292
 70
     1
  0
VERTEX
  5
12F
330
128
100
AcDbEntity
  8
0
100
AcDbVertex
100
AcDb2dVertex
 10
43.87468719767986
 20
17.16752430337914
 30
0.0
  0
SEQEND
  5
130
330
128
100
AcDbEntity
  8
0
  0
ELLIPSE
  5
131
330
2
100
AcDbEntity
  8
0
100
AcDbEllipse
 10
43.6706460665395
 20
17.479531095702
 30
0.0
 11
-0.2094259802808708
 21
0.1409851659522773
 31
0.0
210
0.0
220
0.0
230
1.0
 40
0.4166265049422468
 41
5.360526688532011
 42
10.17506547030871
  0
ELLIPSE
  5
132
330
2
100
AcDbEntity
  8
0
100
AcDbEllipse
 10
43.87442768314875
 20
17.26800743713173
 30
0.0
 11
-0.0028669063888258
 21
0.1007359170533522
 31
0.0
210
0.0
220
0.0
230
1.0
 40
0.5558262378430172
 41
0.0
 42
6.283185307179584
  0
ELLIPSE
  5
133
330
2
100
AcDbEntity
  8
0
100
AcDbEllipse
 10
35.36325677109434
 20
18.06989856078686
 30
0.0
 11
-0.0289789432489217
 21
0.0808940370524694
 31
0.0
210
0.0
220
0.0
230
0.9999999999999998
 40
0.5293258385647972
 41
0.0
 42
6.283185307179584
  0
POLYLINE
  5
134
330
2
100
AcDbEntity
  8
0
100
AcDb2dPolyline
 66
     1
 10
0.0
 20
0.0
 30
0.0
 70
     2
  0
VERTEX
  5
135
330
134
100
AcDbEntity
  8
0
100
AcDbVertex
100
AcDb2dVertex
 10
43.78327143251911
 20
18.36105346339501
 30
0.0
 42
-0.0218393142536468
  0
VERTEX
  5
136
330
134
100
AcDbEntity
  8
0
100
AcDbVertex
100
AcDb2dVertex
 10
43.54804631277509
 20
18.51110935257291
 30
0.0
 42
-0.0343968148298645
 70
     1
  0
VERTEX
  5
137
330
134
100
AcDbEntity
  8
0
100
AcDbVertex
100
AcDb2dVertex
 10
43.41023230400572
 20
18.62261752372109
 30
0.0
 42
-0.0059965664963173
  0
VERTEX
  5
138
330
134
100
AcDbEntity
  8
0
100
AcDbVertex
100
AcDb2dVertex
 10
43.18572659278771
 20
18.8364429441152
 30
0.0
 42
-0.0241183618853061
 70
     1
  0
VERTEX
  5
139
330
134
100
AcDbEntity
  8
0
100
AcDbVertex
100
AcDb2dVertex
 10
43.13317968664051
 20
18.89290035359355
 30
0.0
 42
-0.0277437468749824
  0
VERTEX
  5
13A
330
134
100
AcDbEntity
  8
0
100
AcDbVertex
100
AcDb2dVertex
 10
43.03820542939586
 20
19.01891805940656
 30
0.0
 42
-0.019152459699147
 70
     1
  0
VERTEX
  5
13B
330
134
100
AcDbEntity
  8
0
100
AcDbVertex
100
AcDb2dVertex
 10
42.91837383339019
 20
19.21346580105473
 30
0.0
 42
-0.0274890521344218
  0
VERTEX
  5
13C
330
134
100
AcDbEntity
  8
0
100
AcDbVertex
100
AcDb2dVertex
 10
42.81012956563204
 20
19.43260359146511
 30
0.0
 42
-0.0242781119376193
 70
     1
  0
VERTEX
  5
13D
330
134
100
AcDbEntity
  8
0
100
AcDbVertex
100
AcDb2dVertex
 10
42.71387859016601
 20
19.69201633471787
 30
0.0
 42
-0.0309058680573905
  0
VERTEX
  5
13E
330
134
100
AcDbEntity
  8
0
100
AcDbVertex
100
AcDb2dVertex
 10
42.64978244250126
 20
19.94843167822687
 30
0.0
 42
-0.0198968455354462
 70
     1
  0
VERTEX
  5
13F
330
134
100
AcDbEntity
  8
0
100
AcDbVertex
100
AcDb2dVertex
 10
42.59115666000336
 20
20.35453877345713
 30
0.0
 42
-0.0259011632680318
  0
VERTEX
  5
140
330
134
100
AcDbEntity
  8
0
100
AcDbVertex
100
AcDb2dVertex
 10
42.58155015340936
 20
20.53985982979495
 30
0.0
 42
-0.0053073994048922
 70
     1
  0
VERTEX
  5
141
330
134
100
AcDbEntity
  8
0
100
AcDbVertex
100
AcDb2dVertex
 10
42.59115666000336
 20
21.44484504575051
 30
0.0
 42
-0.038929241233674
  0
VERTEX
  5
142
330
134
100
AcDbEntity
  8
0
100
AcDbVertex
100
AcDb2dVertex
 10
42.67836218217833
 20
22.32239574512572
 30
0.0
 42
-0.0315179927272688
 70
     1
  0
VERTEX
  5
143
330
134
100
AcDbEntity
  8
0
100
AcDbVertex
100
AcDb2dVertex
 10
42.93701850094345
 20
23.37989433083055
 30
0.0
 42
-0.1777444106017377
  0
VERTEX
  5
144
330
134
100
AcDbEntity
  8
0
100
AcDbVertex
100
AcDb2dVertex
 10
43.34307009422905
 20
23.90883653380026
 30
0.0
 42
-0.1335130311276947
 70
     1
  0
VERTEX
  5
145
330
134
100
AcDbEntity
  8
0
100
AcDbVertex
100
AcDb2dVertex
 10
44.85433413236212
 20
24.37436049496881
 30
0.0
 42
-0.0952204189020359
  0
SEQEND
  5
146
330
134
100
AcDbEntity
  8
0
  0
POLYLINE
  5
147
330
2
100
AcDbEntity
  8
0
100
AcDb2dPolyline
 66
     1
 10
0.0
 20
0.0
 30
0.0
  0
VERTEX
  5
148
330
147
100
AcDbEntity
  8
0
100
AcDbVertex
100
AcDb2dVertex
 10
43.81928509341139
 20
18.38762116144365
 30
0.0
 42
-0.0232572043299564
  0
VERTEX
  5
149
330
147
100
AcDbEntity
  8
0
100
AcDbVertex
100
AcDb2dVertex
 10
43.57157007031737
 20
18.54465861772044
 30
0.0
 42
-0.0343968148298637
  0
VERTEX
  5
14A
330
147
100
AcDbEntity
  8
0
100
AcDbVertex
100
AcDb2dVertex
 10
43.43813353186347
 20
18.65262488689877
 30
0.0
 42
-0.0059965664963174
  0
VERTEX
  5
14B
330
147
100
AcDbEntity
  8
0
100
AcDbVertex
100
AcDb2dVertex
 10
43.21433948181685
 20
18.86577250160001
 30
0.0
 42
-0.0241183618853074
  0
VERTEX
  5
14C
330
147
100
AcDbEntity
  8
0
100
AcDbVertex
100
AcDb2dVertex
 10
43.16448416910577
 20
18.91933801117571
 30
0.0
 42
-0.0277437468749829
  0
VERTEX
  5
14D
330
147
100
AcDbEntity
  8
0
100
AcDbVertex
100
AcDb2dVertex
 10
43.07224459645908
 20
19.04172716869407
 30
0.0
 42
-0.0191524596991465
  0
VERTEX
  5
14E
330
147
100
AcDbEntity
  8
0
100
AcDbVertex
100
AcDb2dVertex
 10
42.95405866504381
 20
19.23360315814793
 30
0.0
 42
-0.0274890521344221
  0
VERTEX
  5
14F
330
147
100
AcDbEntity
  8
0
100
AcDbVertex
100
AcDb2dVertex
 10
42.84780821578702
 20
19.4487045132817
 30
0.0
 42
-0.0242781119376193
  0
VERTEX
  5
150
330
147
100
AcDbEntity
  8
0
100
AcDbVertex
100
AcDb2dVertex
 10
42.75294061691802
 20
19.70438882140696
 30
0.0
 42
-0.0309058680573906
  0
VERTEX
  5
151
330
147
100
AcDbEntity
  8
0
100
AcDbVertex
100
AcDb2dVertex
 10
42.69007170464341
 20
19.95589463453719
 30
0.0
 42
-0.0198968455354461
  0
VERTEX
  5
152
330
147
100
AcDbEntity
  8
0
100
AcDbVertex
100
AcDb2dVertex
 10
42.63191167617728
 20
20.35877540153984
 30
0.0
 42
-0.0259011632680318
  0
VERTEX
  5
153
330
147
100
AcDbEntity
  8
0
100
AcDbVertex
100
AcDb2dVertex
 10
42.62252478410749
 20
20.53985982979495
 30
0.0
 42
-0.0053073994048922
  0
VERTEX
  5
154
330
147
100
AcDbEntity
  8
0
100
AcDbVertex
100
AcDb2dVertex
 10
42.63212205767437
 20
21.4439752443339
 30
0.0
 42
-0.0389292412336741
  0
VERTEX
  5
155
330
147
100
AcDbEntity
  8
0
100
AcDbVertex
100
AcDb2dVertex
 10
42.7186975933572
 20
22.31518637858762
 30
0.0
 42
-0.0315179927272688
  0
VERTEX
  5
156
330
147
100
AcDbEntity
  8
0
100
AcDbVertex
100
AcDb2dVertex
 10
42.97612780478653
 20
23.36767210870205
 30
0.0
 42
-0.1777444106017369
  0
VERTEX
  5
157
330
147
100
AcDbEntity
  8
0
100
AcDbVertex
100
AcDb2dVertex
 10
43.3649832625412
 20
23.87421380404982
 30
0.0
 42
-0.1333959999668982
  0
VERTEX
  5
158
330
147
100
AcDbEntity
  8
0
100
AcDbVertex
100
AcDb2dVertex
 10
44.85433413236212
 20
24.33336274329477
 30
0.0
 42
-0.0985740322038722
  0
SEQEND
  5
159
330
147
100
AcDbEntity
  8
0
  0
POLYLINE
  5
15A
330
2
100
AcDbEntity
  8
0
100
AcDb2dPolyline
 66
     1
 10
0.0
 20
0.0
 30
0.0
  0
VERTEX
  5
15B
330
15A
100
AcDbEntity
  8
0
100
AcDbVertex
100
AcDb2dVertex
 10
35.25695030750184
 20
17.92496112725568
 30
0.0
 42
-0.140431352309824
  0
VERTEX
  5
15C
330
15A
100
AcDbEntity
  8
0
100
AcDbVertex
100
AcDb2dVertex
 10
35.06989414861275
 20
17.9370842037941
 30
0.0
 42
-0.1464093172914803
  0
VERTEX
  5
15D
330
15A
100
AcDbEntity
  8
0
100
AcDbVertex
100
AcDb2dVertex
 10
34.97410953169156
 20
18.00758602514006
 30
0.0
 42
-0.031911303659213
  0
VERTEX
  5
15E
330
15A
100
AcDbEntity
  8
0
100
AcDbVertex
100
AcDb2dVertex
 10
34.91714818729939
 20
18.09419985671649
 30
0.0
 42
-0.0660890035132398
  0
VERTEX
  5
15F
330
15A
100
AcDbEntity
  8
0
100
AcDbVertex
100
AcDb2dVertex
 10
34.89824257647813
 20
18.14072838547923
 30
0.0
 42
-0.0360069354738484
  0
VERTEX
  5
160
330
15A
100
AcDbEntity
  8
0
100
AcDbVertex
100
AcDb2dVertex
 10
34.86087458269917
 20
18.34380185813628
 30
0.0
 42
-0.0273003078104753
  0
VERTEX
  5
161
330
15A
100
AcDbEntity
  8
0
100
AcDbVertex
100
AcDb2dVertex
 10
34.84580145920663
 20
18.61556883535245
 30
0.0
 42
-0.0014826684145109
  0
VERTEX
  5
162
330
15A
100
AcDbEntity
  8
0
100
AcDbVertex
100
AcDb2dVertex
 10
34.84660322212375
 20
18.98922019396459
 30
0.0
 42
-0.0025506127775922
  0
VERTEX
  5
163
330
15A
100
AcDbEntity
  8
0
100
AcDbVertex
100
AcDb2dVertex
 10
34.84882134110731
 20
19.20641342899766
 30
0.0
 42
-0.0018144405403504
  0
VERTEX
  5
164
330
15A
100
AcDbEntity
  8
0
100
AcDbVertex
100
AcDb2dVertex
 10
34.85174864527822
 20
19.36093216844549
 30
0.0
 42
-0.0007140255589696
  0
VERTEX
  5
165
330
15A
100
AcDbEntity
  8
0
100
AcDbVertex
100
AcDb2dVertex
 10
34.86117283540574
 20
19.75354254131776
 30
0.0
 42
-0.0213702727696047
  0
VERTEX
  5
166
330
15A
100
AcDbEntity
  8
0
100
AcDbVertex
100
AcDb2dVertex
 10
34.89212176033509
 20
20.20689263141854
 30
0.0
 42
-0.0598989219417819
  0
VERTEX
  5
167
330
15A
100
AcDbEntity
  8
0
100
AcDbVertex
100
AcDb2dVertex
 10
34.92928410047776
 20
20.365216238508
 30
0.0
 42
-0.0608786226021745
  0
VERTEX
  5
168
330
15A
100
AcDbEntity
  8
0
100
AcDbVertex
100
AcDb2dVertex
 10
34.95100100935392
 20
20.40777771543031
 30
0.0
 42
-0.0360776436672317
  0
VERTEX
  5
169
330
15A
100
AcDbEntity
  8
0
100
AcDbVertex
100
AcDb2dVertex
 10
35.00066886309549
 20
20.47104677107267
 30
0.0
 42
-0.0757818336882323
  0
VERTEX
  5
16A
330
15A
100
AcDbEntity
  8
0
100
AcDbVertex
100
AcDb2dVertex
 10
35.10278331966534
 20
20.55393642620251
 30
0.0
 42
-0.067141599442933
  0
VERTEX
  5
16B
330
15A
100
AcDbEntity
  8
0
100
AcDbVertex
100
AcDb2dVertex
 10
35.23954575943153
 20
20.61119490015955
 30
0.0
 42
-0.0478185630672815
  0
VERTEX
  5
16C
330
15A
100
AcDbEntity
  8
0
100
AcDbVertex
100
AcDb2dVertex
 10
35.5158749522128
 20
20.6577335099464
 30
0.0
 42
-0.0165378206647022
  0
VERTEX
  5
16D
330
15A
100
AcDbEntity
  8
0
100
AcDbVertex
100
AcDb2dVertex
 10
36.32390622318176
 20
20.68862708523594
 30
0.0
 42
-0.003214330272172
  0
VERTEX
  5
16E
330
15A
100
AcDbEntity
  8
0
100
AcDbVertex
100
AcDb2dVertex
 10
37.08648047045826
 20
20.68764585393747
 30
0.0
 42
-0.0089959631516532
  0
VERTEX
  5
16F
330
15A
100
AcDbEntity
  8
0
100
AcDbVertex
100
AcDb2dVertex
 10
37.35888383488101
 20
20.68064168834175
 30
0.0
 42
-0.0136795676844653
  0
VERTEX
  5
170
330
15A
100
AcDbEntity
  8
0
100
AcDbVertex
100
AcDb2dVertex
 10
37.88707744459364
 20
20.64304723844424
 30
0.0
 42
-0.0148808110540049
  0
VERTEX
  5
171
330
15A
100
AcDbEntity
  8
0
100
AcDbVertex
100
AcDb2dVertex
 10
38.36988487092443
 20
20.58082346965996
 30
0.0
 42
-0.0157545217365838
  0
VERTEX
  5
172
330
15A
100
AcDbEntity
  8
0
100
AcDbVertex
100
AcDb2dVertex
 10
38.92664614128957
 20
20.47407143898786
 30
0.0
 42
-0.0192142976299121
  0
VERTEX
  5
173
330
15A
100
AcDbEntity
  8
0
100
AcDbVertex
100
AcDb2dVertex
 10
39.37597810812135
 20
20.35484314028793
 30
0.0
 42
-0.0044399277784729
  0
VERTEX
  5
174
330
15A
100
AcDbEntity
  8
0
100
AcDbVertex
100
AcDb2dVertex
 10
39.74306954118249
 20
20.23859911509913
 30
0.0
 42
-0.011822496659233
  0
VERTEX
  5
175
330
15A
100
AcDbEntity
  8
0
100
AcDbVertex
100
AcDb2dVertex
 10
39.8794542742625
 20
20.19047813557198
 30
0.0
 42
-0.0019464705613524
  0
VERTEX
  5
176
330
15A
100
AcDbEntity
  8
0
100
AcDbVertex
100
AcDb2dVertex
 10
40.03323513822148
 20
20.13140947641888
 30
0.0
 42
-0.0006915624935536
  0
VERTEX
  5
177
330
15A
100
AcDbEntity
  8
0
100
AcDbVertex
100
AcDb2dVertex
 10
40.46518186443885
 20
19.96287417163646
 30
0.0
 42
-0.0025869934724771
  0
VERTEX
  5
178
330
15A
100
AcDbEntity
  8
0
100
AcDbVertex
100
AcDb2dVertex
 10
41.31481096506639
 20
19.62493338055803
 30
0.0
 42
-0.016206233204635
  0
VERTEX
  5
179
330
15A
100
AcDbEntity
  8
0
100
AcDbVertex
100
AcDb2dVertex
 10
41.44834827414763
 20
19.56591493233851
 30
0.0
 42
-0.014381738385334
  0
VERTEX
  5
17A
330
15A
100
AcDbEntity
  8
0
100
AcDbVertex
100
AcDb2dVertex
 10
41.52750681807304
 20
19.52497332681744
 30
0.0
 42
-0.0059598337410936
  0
VERTEX
  5
17B
330
15A
100
AcDbEntity
  8
0
100
AcDbVertex
100
AcDb2dVertex
 10
41.7143170630566
 20
19.41850800317889
 30
0.0
 42
-0.0041890655417465
  0
VERTEX
  5
17C
330
15A
100
AcDbEntity
  8
0
100
AcDbVertex
100
AcDb2dVertex
 10
41.79925144012183
 20
19.36779196005808
 30
0.0
 42
-0.0039028169218749
  0
VERTEX
  5
17D
330
15A
100
AcDbEntity
  8
0
100
AcDbVertex
100
AcDb2dVertex
 10
41.88952217357329
 20
19.31188815083775
 30
0.0
 42
-0.0279871645229435
  0
VERTEX
  5
17E
330
15A
100
AcDbEntity
  8
0
100
AcDbVertex
100
AcDb2dVertex
 10
42.04921625235493
 20
19.19830286764542
 30
0.0
 42
-0.0355566708235577
  0
VERTEX
  5
17F
330
15A
100
AcDbEntity
  8
0
100
AcDbVertex
100
AcDb2dVertex
 10
42.16262750621961
 20
19.09364243135742
 30
0.0
 42
-0.0072531525995857
  0
VERTEX
  5
180
330
15A
100
AcDbEntity
  8
0
100
AcDbVertex
100
AcDb2dVertex
 10
42.24455344244872
 20
19.00390329947549
 30
0.0
 42
-0.0093084219315826
  0
VERTEX
  5
181
330
15A
100
AcDbEntity
  8
0
100
AcDbVertex
100
AcDb2dVertex
 10
42.30604181844978
 20
18.93190013550388
 30
0.0
 42
-0.0012227726203102
  0
VERTEX
  5
182
330
15A
100
AcDbEntity
  8
0
100
AcDbVertex
100
AcDb2dVertex
 10
42.35335281388789
 20
18.87407578014164
 30
0.0
 42
-0.0007986422688353
  0
VERTEX
  5
183
330
15A
100
AcDbEntity
  8
0
100
AcDbVertex
100
AcDb2dVertex
 10
42.42543041157408
 20
18.78525093075893
 30
0.0
 42
-0.0055985934759021
  0
VERTEX
  5
184
330
15A
100
AcDbEntity
  8
0
100
AcDbVertex
100
AcDb2dVertex
 10
42.46168325601509
 20
18.73938769904374
 30
0.0
 42
-0.0011125570844872
  0
VERTEX
  5
185
330
15A
100
AcDbEntity
  8
0
100
AcDbVertex
100
AcDb2dVertex
 10
42.64099481475173
 20
18.50617467658003
 30
0.0
 42
-0.0386465022707797
  0
VERTEX
  5
186
330
15A
100
AcDbEntity
  8
0
100
AcDbVertex
100
AcDb2dVertex
 10
42.69644378140394
 20
18.42079701168771
 30
0.0
 42
-0.0186550838773084
  0
VERTEX
  5
187
330
15A
100
AcDbEntity
  8
0
100
AcDbVertex
100
AcDb2dVertex
 10
42.79023540917121
 20
18.23216997121901
 30
0.0
  0
SEQEND
  5
188
330
15A
100
AcDbEntity
  8
0
  0
POLYLINE
  5
189
330
2
100
AcDbEntity
  8
0
100
AcDb2dPolyline
 66
     1
 10
0.0
 20
0.0
 30
0.0
  0
VERTEX
  5
18A
330
189
100
AcDbEntity
  8
0
100
AcDbVertex
100
AcDb2dVertex
 10
35.29454379326138
 20
17.89240421357088
 30
0.0
 42
-0.1604413511802042
  0
VERTEX
  5
18B
330
189
100
AcDbEntity
  8
0
100
AcDbVertex
100
AcDb2dVertex
 10
35.05608459552454
 20
17.89850679324918
 30
0.0
 42
-0.1464093172914807
  0
VERTEX
  5
18C
330
189
100
AcDbEntity
  8
0
100
AcDbVertex
100
AcDb2dVertex
 10
34.94137985571067
 20
17.98293468296499
 30
0.0
 42
-0.031911303659214
  0
VERTEX
  5
18D
330
189
100
AcDbEntity
  8
0
100
AcDbVertex
100
AcDb2dVertex
 10
34.88154757709283
 20
18.07391397705183
 30
0.0
 42
-0.0660890035132383
  0
VERTEX
  5
18E
330
189
100
AcDbEntity
  8
0
100
AcDbVertex
100
AcDb2dVertex
 10
34.85858219489866
 20
18.1304339941024
 30
0.0
 42
-0.0360069354738485
  0
VERTEX
  5
18F
330
189
100
AcDbEntity
  8
0
100
AcDbVertex
100
AcDb2dVertex
 10
34.82014757031996
 20
18.33930398936191
 30
0.0
 42
-0.0273003078104755
  0
VERTEX
  5
190
330
189
100
AcDbEntity
  8
0
100
AcDbVertex
100
AcDb2dVertex
 10
34.80482684227028
 20
18.61553525309906
 30
0.0
 42
-0.0014826684145108
  0
VERTEX
  5
191
330
189
100
AcDbEntity
  8
0
100
AcDbVertex
100
AcDb2dVertex
 10
34.80562912661799
 20
18.98942961778049
 30
0.0
 42
-0.0025506127775922
  0
VERTEX
  5
192
330
189
100
AcDbEntity
  8
0
100
AcDbVertex
100
AcDb2dVertex
 10
34.80785151466534
 20
19.20704086996177
 30
0.0
 42
-0.0018144405403504
  0
VERTEX
  5
193
330
189
100
AcDbEntity
  8
0
100
AcDbVertex
100
AcDb2dVertex
 10
34.81078445164656
 20
19.36185693920377
 30
0.0
 42
-0.0007140255589697
  0
VERTEX
  5
194
330
189
100
AcDbEntity
  8
0
100
AcDbVertex
100
AcDb2dVertex
 10
34.82021145008872
 20
19.75458430605027
 30
0.0
 42
-0.0213702727696045
  0
VERTEX
  5
195
330
189
100
AcDbEntity
  8
0
100
AcDbVertex
100
AcDb2dVertex
 10
34.85139882046306
 20
20.21142722390612
 30
0.0
 42
-0.0598989219417823
  0
VERTEX
  5
196
330
189
100
AcDbEntity
  8
0
100
AcDbVertex
100
AcDb2dVertex
 10
34.89079653445408
 20
20.37927424769923
 30
0.0
 42
-0.0608786226021762
  0
VERTEX
  5
197
330
189
100
AcDbEntity
  8
0
100
AcDbVertex
100
AcDb2dVertex
 10
34.91703167464682
 20
20.43069069560327
 30
0.0
 42
-0.0360776436672334
  0
VERTEX
  5
198
330
189
100
AcDbEntity
  8
0
100
AcDbVertex
100
AcDb2dVertex
 10
34.9703460260737
 20
20.49860481737129
 30
0.0
 42
-0.0757818336882313
  0
VERTEX
  5
199
330
189
100
AcDbEntity
  8
0
100
AcDbVertex
100
AcDb2dVertex
 10
35.08204878556046
 20
20.58927761260452
 30
0.0
 42
-0.0671415994429316
  0
VERTEX
  5
19A
330
189
100
AcDbEntity
  8
0
100
AcDbVertex
100
AcDb2dVertex
 10
35.22891634928985
 20
20.65076680939943
 30
0.0
 42
-0.047818563067282
  0
VERTEX
  5
19B
330
189
100
AcDbEntity
  8
0
100
AcDbVertex
100
AcDb2dVertex
 10
35.51295646065934
 20
20.6986040710864
 30
0.0
 42
-0.0165378206647023
  0
VERTEX
  5
19C
330
189
100
AcDbEntity
  8
0
100
AcDbVertex
100
AcDb2dVertex
 10
36.32369553650541
 20
20.72960117426757
 30
0.0
 42
-0.003214330272172
  0
VERTEX
  5
19D
330
189
100
AcDbEntity
  8
0
100
AcDbVertex
100
AcDb2dVertex
 10
37.0867966018861
 20
20.72861926509359
 30
0.0
 42
-0.0089959631516534
  0
VERTEX
  5
19E
330
189
100
AcDbEntity
  8
0
100
AcDbVertex
100
AcDb2dVertex
 10
37.36067378495536
 20
20.72157720396792
 30
0.0
 42
-0.0136795676844651
  0
VERTEX
  5
19F
330
189
100
AcDbEntity
  8
0
100
AcDbVertex
100
AcDb2dVertex
 10
37.89110337958157
 20
20.68382360670235
 30
0.0
 42
-0.014880811054005
  0
VERTEX
  5
1A0
330
189
100
AcDbEntity
  8
0
100
AcDbVertex
100
AcDb2dVertex
 10
38.37632920702546
 20
20.62128815664831
 30
0.0
 42
-0.0157545217365838
  0
VERTEX
  5
1A1
330
189
100
AcDbEntity
  8
0
100
AcDbVertex
100
AcDb2dVertex
 10
38.93562579678599
 20
20.51405001009808
 30
0.0
 42
-0.0192142976299119
  0
VERTEX
  5
1A2
330
189
100
AcDbEntity
  8
0
100
AcDbVertex
100
AcDb2dVertex
 10
39.38800050124474
 20
20.39401433409709
 30
0.0
 42
-0.0044399277784728
  0
VERTEX
  5
1A3
330
189
100
AcDbEntity
  8
0
100
AcDbVertex
100
AcDb2dVertex
 10
39.75578566635141
 20
20.27755063010864
 30
0.0
 42
-0.0118224966592331
  0
VERTEX
  5
1A4
330
189
100
AcDbEntity
  8
0
100
AcDbVertex
100
AcDb2dVertex
 10
39.89399742901801
 20
20.22878501498816
 30
0.0
 42
-0.0019464705613525
  0
VERTEX
  5
1A5
330
189
100
AcDbEntity
  8
0
100
AcDbVertex
100
AcDb2dVertex
 10
40.0480761016399
 20
20.16960196475966
 30
0.0
 42
-0.0006915624935536
  0
VERTEX
  5
1A6
330
189
100
AcDbEntity
  8
0
100
AcDbVertex
100
AcDb2dVertex
 10
40.48012842089294
 20
20.00102546009458
 30
0.0
 42
-0.002586993472477
  0
VERTEX
  5
1A7
330
189
100
AcDbEntity
  8
0
100
AcDbVertex
100
AcDb2dVertex
 10
41.33015150189883
 20
19.66292796294209
 30
0.0
 42
-0.0162062332046352
  0
VERTEX
  5
1A8
330
189
100
AcDbEntity
  8
0
100
AcDbVertex
100
AcDb2dVertex
 10
41.4661176517921
 20
19.60283605879716
 30
0.0
 42
-0.0143817383853333
  0
VERTEX
  5
1A9
330
189
100
AcDbEntity
  8
0
100
AcDbVertex
100
AcDb2dVertex
 10
41.54736944778504
 20
19.56081180197713
 30
0.0
 42
-0.0059598337410936
  0
VERTEX
  5
1AA
330
189
100
AcDbEntity
  8
0
100
AcDbVertex
100
AcDb2dVertex
 10
41.73502832344449
 20
19.45386283388125
 30
0.0
 42
-0.0041890655417466
  0
VERTEX
  5
1AB
330
189
100
AcDbEntity
  8
0
100
AcDbVertex
100
AcDb2dVertex
 10
41.82055217666291
 20
19.4027948025663
 30
0.0
 42
-0.0039028169218747
  0
VERTEX
  5
1AC
330
189
100
AcDbEntity
  8
0
100
AcDbVertex
100
AcDb2dVertex
 10
41.91136672834899
 20
19.34655421187012
 30
0.0
 42
-0.0279871645229441
  0
VERTEX
  5
1AD
330
189
100
AcDbEntity
  8
0
100
AcDbVertex
100
AcDb2dVertex
 10
42.07479584943778
 20
19.23031231271913
 30
0.0
 42
-0.0355566708235577
  0
VERTEX
  5
1AE
330
189
100
AcDbEntity
  8
0
100
AcDbVertex
100
AcDb2dVertex
 10
42.19248440500507
 20
19.12170461152511
 30
0.0
 42
-0.0072531525995856
  0
VERTEX
  5
1AF
330
189
100
AcDbEntity
  8
0
100
AcDbVertex
100
AcDb2dVertex
 10
42.27521180542648
 20
19.03108758060212
 30
0.0
 42
-0.009308421931583
  0
VERTEX
  5
1B0
330
189
100
AcDbEntity
  8
0
100
AcDbVertex
100
AcDb2dVertex
 10
42.33769084150593
 20
18.95792434923724
 30
0.0
 42
-0.0012227726203104
  0
VERTEX
  5
1B1
330
189
100
AcDbEntity
  8
0
100
AcDbVertex
100
AcDb2dVertex
 10
42.3851287445922
 20
18.89994488504928
 30
0.0
 42
-0.0007986422688354
  0
VERTEX
  5
1B2
330
189
100
AcDbEntity
  8
0
100
AcDbVertex
100
AcDb2dVertex
 10
42.45728882062294
 20
18.81101839345366
 30
0.0
 42
-0.0055985934759025
  0
VERTEX
  5
1B3
330
189
100
AcDbEntity
  8
0
100
AcDbVertex
100
AcDb2dVertex
 10
42.49411066887721
 20
18.76443531880925
 30
0.0
 42
-0.0011125570844871
  0
VERTEX
  5
1B4
330
189
100
AcDbEntity
  8
0
100
AcDbVertex
100
AcDb2dVertex
 10
42.6735333737232
 20
18.53107773946208
 30
0.0
 42
-0.0386465022707779
  0
VERTEX
  5
1B5
330
189
100
AcDbEntity
  8
0
100
AcDbVertex
100
AcDb2dVertex
 10
42.73242717376933
 20
18.44039588499019
 30
0.0
 42
-0.0200148067068128
  0
VERTEX
  5
1B6
330
189
100
AcDbEntity
  8
0
100
AcDbVertex
100
AcDb2dVertex
 10
42.83395122716403
 20
18.23481803467587
 30
0.0
 42
-0.0186550653561878
  0
SEQEND
  5
1B7
330
189
100
AcDbEntity
  8
0
  0
ELLIPSE
  5
1B8
330
2
100
AcDbEntity
  8
0
100
AcDbEllipse
 10
36.31022737751789
 20
20.56243626495646
 30
0.0
 11
0.050154510394871
 21
0.2063465500617771
 31
0.0
210
0.0
220
0.0
230
1.0
 40
0.5990817304346671
 41
5.790206389109433
 42
10.09668287260925
  0
ELLIPSE
  5
1B9
330
2
100
AcDbEntity
  8
0
100
AcDbEllipse
 10
36.31022737751789
 20
20.56243626495646
 30
0.0
 11
0.050154510394871
 21
0.2063465500617771
 31
0.0
210
0.0
220
0.0
230
1.0
 40
0.5990817304346671
 41
11.42526399616216
 42
11.79291214271248
  0
ELLIPSE
  5
1BA
330
2
100
AcDbEntity
  8
0
100
AcDbEllipse
 10
38.06917081717872
 20
20.50209364515015
 30
0.0
 11
0.050154510394871
 21
0.2063465500617771
 31
0.0
210
0.0
220
0.0
230
1.0
 40
0.5990817304346671
 41
5.643445939596632
 42
10.07078199827907
  0
ELLIPSE
  5
1BB
330
2
100
AcDbEntity
  8
0
100
AcDbEllipse
 10
38.06917081717872
 20
20.50209364515015
 30
0.0
 11
0.050154510394871
 21
0.2063465500617771
 31
0.0
210
0.0
220
0.0
230
1.0
 40
0.5990817304346671
 41
11.34076676328964
 42
11.66418511205984
  0
ELLIPSE
  5
1BC
330
2
100
AcDbEntity
  8
0
100
AcDbEllipse
 10
39.82056527633206
 20
20.07969510159087
 30
0.0
 11
0.050154510394871
 21
0.2063465500617771
 31
0.0
210
0.0
220
0.0
230
1.0
 40
0.5990817304346671
 41
5.536593985268075
 42
10.10259306787276
  0
ELLIPSE
  5
1BD
330
2
100
AcDbEntity
  8
0
100
AcDbEllipse
 10
39.82056527633206
 20
20.07969510159087
 30
0.0
 11
0.050154510394871
 21
0.2063465500617771
 31
0.0
210
0.0
220
0.0
230
1.0
 40
0.5990817304346671
 41
11.31498564901198
 42
11.54986508292695
  0
ELLIPSE
  5
1BE
330
2
100
AcDbEntity
  8
0
100
AcDbEllipse
 10
41.54176309849967
 20
19.40084028297562
 30
0.0
 11
0.050154510394871
 21
0.2063465500617771
 31
0.0
210
0.0
220
0.0
230
1.0
 40
0.5990817304346671
 41
5.299767657730858
 42
9.921751780704795
  0
ELLIPSE
  5
1BF
330
2
100
AcDbEntity
  8
0
100
AcDbEllipse
 10
41.54176309849967
 20
19.40084028297562
 30
0.0
 11
0.050154510394871
 21
0.2063465500617771
 31
0.0
210
0.0
220
0.0
230
1.0
 40
0.5990817304346671
 41
11.18291168813883
 42
11.33587204171408
  0
SPLINE
  5
1C0
330
2
100
AcDbEntity
  8
0
100
AcDbSpline
210
0.0
220
0.0
230
1.0
 70
     8
 71
     3
 72
    12
 73
     8
 74
     0
 42
0.000000001
 43
0.0000000001
 40
0.0
 40
0.0
 40
0.0
 40
0.0
 40
0.0561527116454317
 40
0.2973809050237443
 40
0.5349953206127607
 40
0.7911384943783137
 40
1.0
 40
1.0
 40
1.0
 40
1.0
 10
6.332359010628453
 20
11.25301075621896
 30
0.0
 10
6.33711235791521
 20
11.25183337323625
 30
0.0
 10
6.362285758746658
 20
11.24559803380746
 30
0.0
 10
6.409494654189628
 20
11.26211773721006
 30
0.0
 10
6.462620934554002
 20
11.30040713411449
 30
0.0
 10
6.503488976942813
 20
11.35600189806848
 30
0.0
 10
6.521189617897483
 20
11.40189109873618
 30
0.0
 10
6.529140037934411
 20
11.42250269248589
 30
0.0
  0
SPLINE
  5
1C1
330
2
100
AcDbEntity
  8
0
100
AcDbSpline
210
0.0
220
0.0
230
1.0
 70
     8
 71
     3
 72
    14
 73
    10
 74
     0
 42
0.000000001
 43
0.0000000001
 40
0.0
 40
0.0
 40
0.0
 40
0.0
 40
0.0895666099134426
 40
0.2574446574809165
 40
0.4265404418782642
 40
0.5984839071749279
 40
0.7563954180467296
 40
0.9018621575732323
 40
1.0
 40
1.0
 40
1.0
 40
1.0
 10
6.529140037934411
 20
11.42250269248589
 30
0.0
 10
6.533585692751548
 20
11.43777346424491
 30
0.0
 10
6.546364004700461
 20
11.48166681477786
 30
0.0
 10
6.5540535692299
 20
11.56095874335691
 30
0.0
 10
6.54510818478271
 20
11.65276278591282
 30
0.0
 10
6.517799245898684
 20
11.73253616468265
 30
0.0
 10
6.475438043696557
 20
11.79108763510737
 30
0.0
 10
6.426847298470297
 20
11.82679977764215
 30
0.0
 10
6.391979906544146
 20
11.82981276154388
 30
0.0
 10
6.377933329147125
 20
11.83102656358739
 30
0.0
  0
LINE
  5
1C2
330
2
100
AcDbEntity
  8
0
100
AcDbLine
 10
6.191804276612914
 20
11.25960239438724
 30
0.0
 11
6.335918317589738
 21
11.25029929620719
 31
0.0
  0
LINE
  5
1C3
330
2
100
AcDbEntity
  8
0
100
AcDbLine
 10
6.379844845259286
 20
11.83368478568834
 30
0.0
 11
6.235961469715657
 21
11.84606716830059
 31
0.0
  0
LINE
  5
1C4
330
2
100
AcDbEntity
  8
0
100
AcDbLine
 10
5.981333455858249
 20
11.95092647927995
 30
0.0
 11
5.713286029647488
 21
11.96822868638287
 31
0.0
  0
SPLINE
  5
1C5
330
2
100
AcDbEntity
  8
0
100
AcDbSpline
210
0.0
220
0.0
230
1.0
 70
     8
 71
     3
 72
    12
 73
     8
 74
     0
 42
0.000000001
 43
0.0000000001
 40
0.0
 40
0.0
 40
0.0
 40
0.0
 40
0.0561526623884076
 40
0.2973808932933741
 40
0.5349958086800302
 40
0.7911384618867823
 40
1.0
 40
1.0
 40
1.0
 40
1.0
 10
6.680769046990443
 20
12.31083611056508
 30
0.0
 10
6.685522394493973
 20
12.30965869317121
 30
0.0
 10
6.710695817562563
 20
12.30342316627943
 30
0.0
 10
6.75790476834688
 20
12.31994301651631
 30
0.0
 10
6.811030832969714
 20
12.35823256896159
 30
0.0
 10
6.851899071612539
 20
12.41382718665238
 30
0.0
 10
6.869599665719904
 20
12.45971635009146
 30
0.0
 10
6.877550074296401
 20
12.48032795195982
 30
0.0
  0
SPLINE
  5
1C6
330
2
100
AcDbEntity
  8
0
100
AcDbSpline
210
0.0
220
0.0
230
1.0
 70
     8
 71
     3
 72
    14
 73
    10
 74
     0
 42
0.000000001
 43
0.0000000001
 40
0.0
 40
0.0
 40
0.0
 40
0.0
 40
0.0895670159676381
 40
0.2574451310446296
 40
0.4265406876876749
 40
0.5984844361673513
 40
0.7563960547221375
 40
0.9018622010086328
 40
1.0
 40
1.0
 40
1.0
 40
1.0
 10
6.877550074296401
 20
12.48032795195982
 30
0.0
 10
6.881995725915329
 20
12.49559878462706
 30
0.0
 10
6.89477399424603
 20
12.53949219197918
 30
0.0
 10
6.902463680770225
 20
12.6187841752337
 30
0.0
 10
6.893517969818029
 20
12.71058802595386
 30
0.0
 10
6.866210082485025
 20
12.79036184877654
 30
0.0
 10
6.823845592071626
 20
12.84891227250475
 30
0.0
 10
6.775257622524001
 20
12.88462507967632
 30
0.0
 10
6.74039004726
 20
12.88763816661697
 30
0.0
 10
6.726343365509138
 20
12.88885201280566
 30
0.0
  0
LINE
  5
1C7
330
2
100
AcDbEntity
  8
0
100
AcDbLine
 10
6.54021279501116
 20
12.31742721566346
 30
0.0
 11
6.684328353956153
 21
12.30812474542484
 31
0.0
  0
LINE
  5
1C8
330
2
100
AcDbEntity
  8
0
100
AcDbLine
 10
6.728254881625725
 20
12.89151004516143
 30
0.0
 11
6.584371506082118
 21
12.90389242777369
 31
0.0
  0
LINE
  5
1C9
330
2
100
AcDbEntity
  8
0
100
AcDbLine
 10
6.329743492224687
 20
13.00875173875304
 30
0.0
 11
6.061696066002141
 21
13.02605394585597
 31
0.0
  0
LINE
  5
1CA
330
2
100
AcDbEntity
  8
0
100
AcDbLine
 10
6.613069006420042
 20
13.37666527269023
 30
0.0
 11
6.498450888707269
 21
13.38367350314384
 31
0.0
  0
LINE
  5
1CB
330
2
100
AcDbEntity
  8
0
100
AcDbLine
 10
6.588348919350429
 20
9.030404399850441
 30
0.0
 11
6.637793252954651
 21
9.180526119638784
 31
0.0
  0
LINE
  5
1CC
330
2
100
AcDbEntity
  8
0
100
AcDbLine
 10
7.937350457378354
 20
8.219175970860339
 30
0.0
 11
7.976269294114425
 21
8.337338732535158
 31
0.0
  0
LINE
  5
1CD
330
2
100
AcDbEntity
  8
0
100
AcDbLine
 10
7.855106150746317
 20
7.579660463369149
 30
0.0
 11
8.213813639318585
 21
7.548790729346103
 31
0.0
  0
LINE
  5
1CE
330
2
100
AcDbEntity
  8
0
100
AcDbLine
 10
8.66646857076139
 20
7.167362469030269
 30
0.0
 11
8.781589948052094
 21
7.157072228717148
 31
0.0
  0
SPLINE
  5
1CF
330
2
100
AcDbEntity
  8
0
100
AcDbSpline
210
0.0
220
0.0
230
1.0
 70
     8
 71
     3
 72
     9
 73
     5
 74
     0
 42
0.000000001
 43
0.0000000001
 40
0.0
 40
0.0
 40
0.0
 40
0.0
 40
0.6184372295390216
 40
1.0
 40
1.0
 40
1.0
 40
1.0
 10
8.097803862654151
 20
12.65506376215909
 30
0.0
 10
8.080581612559512
 20
12.66791381903072
 30
0.0
 10
8.052733596185225
 20
12.68869209087116
 30
0.0
 10
8.01828396933039
 20
12.69120179944552
 30
0.0
 10
8.005139274266309
 20
12.6921594108022
 30
0.0
  0
LINE
  5
1D0
330
2
100
AcDbEntity
  8
0
100
AcDbLine
 10
8.005810410070383
 20
12.69477378254688
 30
0.0
 11
6.890465819635997
 21
12.79447166093724
 31
0.0
  0
LINE
  5
1D1
330
2
100
AcDbEntity
  8
0
100
AcDbLine
 10
9.001634737597955
 20
11.87232326373873
 30
0.0
 11
8.09780386264919
 21
12.65506376216103
 31
0.0
  0
SPLINE
  5
1D2
330
2
100
AcDbEntity
  8
0
100
AcDbSpline
210
0.0
220
0.0
230
1.0
 70
     8
 71
     3
 72
     9
 73
     5
 74
     0
 42
0.000000001
 43
0.0000000001
 40
0.0
 40
0.0
 40
0.0
 40
0.0
 40
0.4962257895678297
 40
1.0
 40
1.0
 40
1.0
 40
1.0
 10
7.558104095797306
 20
8.946986567025314
 30
0.0
 10
7.565689263035761
 20
8.953375036022727
 30
0.0
 10
7.580974980541589
 20
8.966249153272778
 30
0.0
 10
7.591927311885076
 20
8.981236822760195
 30
0.0
 10
7.597444813959997
 20
8.98878722412245
 30
0.0
  0
SPLINE
  5
1D3
330
2
100
AcDbEntity
  8
0
100
AcDbSpline
210
0.0
220
0.0
230
1.0
 70
     8
 71
     3
 72
    10
 73
     6
 74
     0
 42
0.000000001
 43
0.0000000001
 40
0.0
 40
0.0
 40
0.0
 40
0.0
 40
0.4246994035048667
 40
0.9248441483348596
 40
1.0
 40
1.0
 40
1.0
 40
1.0
 10
7.494313321195133
 20
8.914557889478546
 30
0.0
 10
7.503577954912751
 20
8.917170829960703
 30
0.0
 10
7.523753029823406
 20
8.922860884373132
 30
0.0
 10
7.54580840881454
 20
8.935612863000473
 30
0.0
 10
7.556683412168731
 20
8.945672412303693
 30
0.0
 10
7.558104095797306
 20
8.946986567025344
 30
0.0
  0
LINE
  5
1D4
330
2
100
AcDbEntity
  8
0
100
AcDbLine
 10
7.597444813960416
 20
8.988787224117896
 30
0.0
 11
7.626897920781495
 21
9.028037854699027
 31
0.0
  0
LINE
  5
1D5
330
2
100
AcDbEntity
  8
0
100
AcDbLine
 10
7.473955219002331
 20
8.910820837332945
 30
0.0
 11
7.494313321189636
 21
8.914557889481411
 31
0.0
  0
SPLINE
  5
1D6
330
2
100
AcDbEntity
  8
0
100
AcDbSpline
210
0.0
220
0.0
230
1.0
 70
     8
 71
     2
 72
     6
 73
     3
 74
     0
 42
0.000000001
 43
0.0000000001
 40
0.0
 40
0.0
 40
0.0
 40
1.0
 40
1.0
 40
1.0
 10
7.470955666151134
 20
8.910162067877937
 30
0.0
 10
7.472467599791419
 20
8.910496232694503
 30
0.0
 10
7.473955219003985
 20
8.910820837333032
 30
0.0
  0
SPLINE
  5
1D7
330
2
100
AcDbEntity
  8
0
100
AcDbSpline
210
0.0
220
0.0
230
1.0
 70
     8
 71
     3
 72
    12
 73
     8
 74
     0
 42
0.000000001
 43
0.0000000001
 40
0.0
 40
0.0
 40
0.0
 40
0.0
 40
0.067366168286369
 40
0.3069842954474938
 40
0.5348031355017388
 40
0.7837831707209901
 40
1.0
 40
1.0
 40
1.0
 40
1.0
 10
8.879764058708303
 20
7.721643032844459
 30
0.0
 10
8.885389281200051
 20
7.720618781656062
 30
0.0
 10
8.9110231417459
 20
7.715951319672708
 30
0.0
 10
8.956309157441152
 20
7.731092060567533
 30
0.0
 10
9.006306592826856
 20
7.764275618422221
 30
0.0
 10
9.043353609574046
 20
7.810930798469565
 30
0.0
 10
9.058281222569977
 20
7.848742862151482
 30
0.0
 10
9.065219362950962
 20
7.866317366929429
 30
0.0
  0
LINE
  5
1D8
330
2
100
AcDbEntity
  8
0
100
AcDbLine
 10
8.290059621189088
 20
7.755333106724227
 30
0.0
 11
8.879228364104795
 21
7.719310513740506
 31
0.0
  0
LINE
  5
1D9
330
2
100
AcDbEntity
  8
0
100
AcDbLine
 10
9.379401221784849
 20
8.412806338824879
 30
0.0
 11
9.539453988285664
 21
8.543323745813191
 31
0.0
  0
SPLINE
  5
1DA
330
2
100
AcDbEntity
  8
0
100
AcDbSpline
210
0.0
220
0.0
230
1.0
 70
     8
 71
     3
 72
    11
 73
     7
 74
     0
 42
0.000000001
 43
0.0000000001
 40
0.0
 40
0.0
 40
0.0
 40
0.0
 40
0.1430693510064041
 40
0.4273942590745158
 40
0.7122227007896443
 40
1.0
 40
1.0
 40
1.0
 40
1.0
 10
9.125374383867937
 20
8.048955287748619
 30
0.0
 10
9.132280809643388
 20
8.068210079162975
 30
0.0
 10
9.152912529200268
 20
8.125730346447875
 30
0.0
 10
9.203804614010348
 20
8.219892251819226
 30
0.0
 10
9.282238634272074
 20
8.325723300559014
 30
0.0
 10
9.346902688325467
 20
8.383679170585718
 30
0.0
 10
9.379401221786526
 20
8.412806338823202
 30
0.0
  0
LINE
  5
1DB
330
2
100
AcDbEntity
  8
0
100
AcDbLine
 10
9.065219362949378
 20
7.866317366929283
 30
0.0
 11
9.125374383869358
 21
8.048955287751653
 31
0.0
  0
LINE
  5
1DC
330
2
100
AcDbEntity
  8
0
100
AcDbLine
 10
9.288786452380705
 20
12.72648146707033
 30
0.0
 11
8.602419014690322
 21
10.6425656092508
 31
0.0
  0
LINE
  5
1DD
330
2
100
AcDbEntity
  8
0
100
AcDbLine
 10
9.250536578030704
 20
13.45696699235939
 30
0.0
 11
8.828890133787806
 21
13.61560240006206
 31
0.0
  0
LINE
  5
1DE
330
2
100
AcDbEntity
  8
0
100
AcDbLine
 10
9.720222233244857
 20
13.2921392247001
 30
0.0
 11
9.604233575117088
 21
13.39258834918787
 31
0.0
  0
LINE
  5
1DF
330
2
100
AcDbEntity
  8
0
100
AcDbLine
 10
9.57341945864403
 20
13.40496955318662
 30
0.0
 11
9.422979536912407
 21
13.41629637588082
 31
0.0
  0
LINE
  5
1E0
330
2
100
AcDbEntity
  8
0
100
AcDbLine
 10
8.014614181469781
 20
13.68201916071474
 30
0.0
 11
7.998935228906087
 21
13.63441690220489
 31
0.0
  0
LINE
  5
1E1
330
2
100
AcDbEntity
  8
0
100
AcDbLine
 10
8.00829579230179
 20
13.61117627209917
 30
0.0
 11
7.754923372454278
 21
13.63025386806725
 31
0.0
  0
LINE
  5
1E2
330
2
100
AcDbEntity
  8
0
100
AcDbLine
 10
7.544418514201801
 20
13.73911511448396
 30
0.0
 11
6.90475094828962
 21
13.78727906800069
 31
0.0
  0
LINE
  5
1E3
330
2
100
AcDbEntity
  8
0
100
AcDbLine
 10
7.754963419529406
 20
13.63021989003002
 30
0.0
 11
7.692531203070871
 21
13.68330508352351
 31
0.0
  0
LINE
  5
1E4
330
2
100
AcDbEntity
  8
0
100
AcDbLine
 10
4.204363075834935
 20
8.909905987791892
 30
0.0
 11
4.204363075834935
 21
8.864065296084051
 31
0.0
  0
LINE
  5
1E5
330
2
100
AcDbEntity
  8
0
100
AcDbLine
 10
6.321842505334574
 20
13.43638227670512
 30
0.0
 11
6.018154263948897
 21
13.25852841950065
 31
0.0
  0
LINE
  5
1E6
330
2
100
AcDbEntity
  8
0
100
AcDbLine
 10
12.48999822337508
 20
13.16957632236144
 30
0.0
 11
12.72931134817966
 21
13.15155756178402
 31
0.0
  0
LINE
  5
1E7
330
2
100
AcDbEntity
  8
0
100
AcDbLine
 10
12.76131273676741
 20
14.1926400365551
 30
0.0
 11
12.57599176360059
 21
14.35313270717375
 31
0.0
  0
LINE
  5
1E8
330
2
100
AcDbEntity
  8
0
100
AcDbLine
 10
11.75472003261669
 20
11.52143307362609
 30
0.0
 11
11.83499886464183
 21
11.55814510606891
 31
0.0
  0
SPLINE
  5
1E9
330
2
100
AcDbEntity
  8
0
100
AcDbSpline
210
0.0
220
0.0
230
1.0
 70
     8
 71
     3
 72
    10
 73
     6
 74
     0
 42
0.000000001
 43
0.0000000001
 40
0.0
 40
0.0
 40
0.0
 40
0.0
 40
0.223414656091903
 40
0.6496074072459033
 40
1.0
 40
1.0
 40
1.0
 40
1.0
 10
11.87521061893348
 20
11.62100403404384
 30
0.0
 10
11.88102851550536
 20
11.63349151893454
 30
0.0
 10
11.89794481264446
 20
11.66980051864285
 30
0.0
 10
11.94276238537977
 20
11.71161120734139
 30
0.0
 10
11.97408489963857
 20
11.72949060056003
 30
0.0
 10
11.98821750858981
 20
11.73755772028601
 30
0.0
  0
LINE
  5
1EA
330
2
100
AcDbEntity
  8
0
100
AcDbLine
 10
11.86304491525951
 20
11.59758105642889
 30
0.0
 11
11.87521061893285
 21
11.6210040340487
 31
0.0
  0
LINE
  5
1EB
330
2
100
AcDbEntity
  8
0
100
AcDbLine
 10
10.66749802204404
 20
14.56813910139825
 30
0.0
 11
10.61841192570723
 21
14.4191080117697
 31
0.0
  0
LINE
  5
1EC
330
2
100
AcDbEntity
  8
0
100
AcDbLine
 10
12.03106636621291
 20
11.0214088673637
 30
0.0
 11
12.06047317527936
 21
10.99594182366335
 31
0.0
  0
SPLINE
  5
1ED
330
2
100
AcDbEntity
  8
0
100
AcDbSpline
210
0.0
220
0.0
230
1.0
 70
     8
 71
     3
 72
    12
 73
     8
 74
     0
 42
0.000000001
 43
0.0000000001
 40
0.0
 40
0.0
 40
0.0
 40
0.0
 40
0.0606925764686208
 40
0.3204610155387727
 40
0.5571976569296279
 40
0.7857352886232667
 40
1.0
 40
1.0
 40
1.0
 40
1.0
 10
16.8999290143728
 20
14.87653807251509
 30
0.0
 10
16.8952291575309
 20
14.87038555214277
 30
0.0
 10
16.87041358725734
 20
14.83789981762052
 30
0.0
 10
16.84881122409734
 20
14.76945449228257
 30
0.0
 10
16.84037494415889
 20
14.68178727201636
 30
0.0
 10
16.85669569339357
 20
14.60055340528559
 30
0.0
 10
16.88652778124873
 20
14.55763606713739
 30
0.0
 10
16.90096303389379
 20
14.53686907885177
 30
0.0
  0
SPLINE
  5
1EE
330
2
100
AcDbEntity
  8
0
100
AcDbSpline
210
0.0
220
0.0
230
1.0
 70
     8
 71
     3
 72
    13
 73
     9
 74
     0
 42
0.000000001
 43
0.0000000001
 40
0.0
 40
0.0
 40
0.0
 40
0.0
 40
0.1303754809643037
 40
0.303283450701318
 40
0.4791018037484784
 40
0.6622248062783119
 40
0.8520685611530565
 40
1.0
 40
1.0
 40
1.0
 40
1.0
 10
17.31275752060538
 20
15.00531581180351
 30
0.0
 10
17.29557982415947
 20
15.01586874285849
 30
0.0
 10
17.255620538758
 20
15.04041729540609
 30
0.0
 10
17.17977324608844
 20
15.04931198775289
 30
0.0
 10
17.09598475753838
 20
15.03696980864098
 30
0.0
 10
17.01434913179477
 20
14.99890978961075
 30
0.0
 10
16.94473439292103
 20
14.94442226239689
 30
0.0
 10
16.91357536727859
 20
14.89721352804893
 30
0.0
 10
16.8999290143728
 20
14.87653807251509
 30
0.0
  0
LINE
  5
1EF
330
2
100
AcDbEntity
  8
0
100
AcDbLine
 10
17.38470224781742
 20
14.95950134990817
 30
0.0
 11
17.31275752060538
 21
15.00531581180351
 31
0.0
  0
LINE
  5
1F0
330
2
100
AcDbEntity
  8
0
100
AcDbLine
 10
16.90498414579518
 20
14.53148862822357
 30
0.0
 11
16.93282087190738
 21
14.50006377886329
 31
0.0
  0
SPLINE
  5
1F1
330
2
100
AcDbEntity
  8
0
100
AcDbSpline
210
0.0
220
0.0
230
1.0
 70
     8
 71
     3
 72
    12
 73
     8
 74
     0
 42
0.000000001
 43
0.0000000001
 40
0.0
 40
0.0
 40
0.0
 40
0.0
 40
0.0606937166279216
 40
0.3204616990037354
 40
0.5571981577917608
 40
0.7857356728127672
 40
1.0
 40
1.0
 40
1.0
 40
1.0
 10
31.05960981921418
 20
18.96408583467223
 30
0.0
 10
31.05490975471635
 20
18.95793326991633
 30
0.0
 10
31.03009350127059
 20
18.92544784202609
 30
0.0
 10
31.00849186401583
 20
18.85700202163629
 30
0.0
 10
31.00005524085502
 20
18.76933490528491
 30
0.0
 10
31.01637640948194
 20
18.68810119615154
 30
0.0
 10
31.04620830784754
 20
18.6451837555665
 30
0.0
 10
31.06064345924651
 20
18.62441673145999
 30
0.0
  0
SPLINE
  5
1F2
330
2
100
AcDbEntity
  8
0
100
AcDbSpline
210
0.0
220
0.0
230
1.0
 70
     8
 71
     3
 72
    13
 73
     9
 74
     0
 42
0.000000001
 43
0.0000000001
 40
0.0
 40
0.0
 40
0.0
 40
0.0
 40
0.1303755812226645
 40
0.3032836839253981
 40
0.4791021721763542
 40
0.6622244685674682
 40
0.8520687492924226
 40
1.0
 40
1.0
 40
1.0
 40
1.0
 10
31.47243794595807
 20
19.09286346441171
 30
0.0
 10
31.45526024935321
 20
19.10341639604878
 30
0.0
 10
31.41530096358189
 20
19.12796494995036
 30
0.0
 10
31.33945367440541
 20
19.13685962950917
 30
0.0
 10
31.25566530490724
 20
19.12451752269496
 30
0.0
 10
31.17402979391819
 20
19.08645738843685
 30
0.0
 10
31.10441503649591
 20
19.03197009753681
 30
0.0
 10
31.07325610144541
 20
18.98476127977239
 30
0.0
 10
31.05960981921418
 20
18.96408583467223
 30
0.0
  0
LINE
  5
1F3
330
2
100
AcDbEntity
  8
0
100
AcDbLine
 10
31.06466476089503
 20
18.61903633560235
 30
0.0
 11
31.0925012972627
 21
18.58761143146304
 31
0.0
  0
LINE
  5
1F4
330
2
100
AcDbEntity
  8
0
100
AcDbLine
 10
31.0925012972627
 20
18.58761143146304
 30
0.0
 11
31.16202377390135
 21
18.52234674972748
 31
0.0
  0
LINE
  5
1F5
330
2
100
AcDbEntity
  8
0
100
AcDbLine
 10
31.58555187842671
 20
19.01139498672288
 30
0.0
 11
31.51795622289721
 21
19.06609118438622
 31
0.0
  0
LINE
  5
1F6
330
2
100
AcDbEntity
  8
0
100
AcDbLine
 10
16.93282087190738
 20
14.50006377886329
 30
0.0
 11
17.00234353829056
 21
14.43479915189499
 31
0.0
  0
LINE
  5
1F7
330
2
100
AcDbEntity
  8
0
100
AcDbLine
 10
17.4258718325605
 20
14.92384744365763
 30
0.0
 11
17.38470224781742
 21
14.95950134990817
 31
0.0
  0
LINE
  5
1F8
330
2
100
AcDbEntity
  8
0
100
AcDbLine
 10
35.12604702209268
 20
19.73479268104268
 30
0.0
 11
35.07511281610017
 21
19.72008924227401
 31
0.0
  0
LINE
  5
1F9
330
2
100
AcDbEntity
  8
0
100
AcDbLine
 10
38.38098893207074
 20
20.26274476990662
 30
0.0
 11
38.35662489229497
 21
20.28384464729119
 31
0.0
  0
LINE
  5
1FA
330
2
100
AcDbEntity
  8
0
100
AcDbLine
 10
38.03270813540643
 20
20.56436478746733
 30
0.0
 11
37.94921413222697
 21
20.63667271528419
 31
0.0
  0
LINE
  5
1FB
330
2
100
AcDbEntity
  8
0
100
AcDbLine
 10
37.89524202316478
 20
20.68341393282772
 30
0.0
 11
35.08742522030762
 21
23.1150546132678
 31
0.0
  0
LINE
  5
1FC
330
2
100
AcDbEntity
  8
0
100
AcDbLine
 10
34.98167691033279
 20
23.11239874268031
 30
0.0
 11
12.7744086353416
 21
16.70171258441308
 31
0.0
  0
LINE
  5
1FD
330
2
100
AcDbEntity
  8
0
100
AcDbLine
 10
35.1036134870778
 20
18.06853308155806
 30
0.0
 11
38.22073615268627
 21
15.36902566642982
 31
0.0
  0
LINE
  5
1FE
330
2
100
AcDbEntity
  8
0
100
AcDbLine
 10
39.18683858945573
 20
15.69120169845375
 30
0.0
 11
39.18683858945573
 21
15.74213580363969
 31
0.0
  0
LINE
  5
1FF
330
2
100
AcDbEntity
  8
0
100
AcDbLine
 10
16.06595149791869
 20
9.898823084758204
 30
0.0
 11
37.41937413264658
 21
16.06302523790436
 31
0.0
  0
LINE
  5
200
330
2
100
AcDbEntity
  8
0
100
AcDbLine
 10
8.830520275596168
 20
10.6530680990826
 30
0.0
 11
8.89121480101639
 21
10.60050509821294
 31
0.0
  0
LINE
  5
201
330
2
100
AcDbEntity
  8
0
100
AcDbLine
 10
9.49344546869187
 20
12.87914953256436
 30
0.0
 11
9.476023904302305
 21
12.8262581146456
 31
0.0
  0
LINE
  5
202
330
2
100
AcDbEntity
  8
0
100
AcDbLine
 10
13.81262478867979
 20
9.872111507893176
 30
0.0
 11
12.85537684335418
 21
9.944187675049022
 31
0.0
  0
LINE
  5
203
330
2
100
AcDbEntity
  8
0
100
AcDbLine
 10
13.87646042375979
 20
9.740824170021181
 30
0.0
 11
13.89388047018119
 21
9.793715339475873
 31
0.0
  0
ARC
  5
204
330
2
100
AcDbEntity
  8
0
100
AcDbCircle
 10
9.661204273968211
 20
13.4479048849462
 30
0.0
 40
0.0288938702021934
100
AcDbArc
 50
99.61106931520486
 51
162.1753033699033
  0
LINE
  5
205
330
2
100
AcDbEntity
  8
0
100
AcDbLine
 10
9.857088680186318
 20
13.49894239819586
 30
0.0
 11
9.80511088043927
 21
13.49310310943453
 31
0.0
  0
LINE
  5
206
330
2
100
AcDbEntity
  8
0
100
AcDbLine
 10
9.800007517234895
 20
13.49252966294566
 30
0.0
 11
9.656380175539371
 21
13.47639319499137
 31
0.0
  0
LINE
  5
207
330
2
100
AcDbEntity
  8
0
100
AcDbLine
 10
9.633697380678034
 20
13.45674946272828
 30
0.0
 11
9.610715548767204
 21
13.38697472127807
 31
0.0
  0
LINE
  5
208
330
2
100
AcDbEntity
  8
0
100
AcDbLine
 10
7.75786307304936
 20
7.623280723076157
 30
0.0
 11
6.828970257219342
 21
8.427725498975885
 31
0.0
  0
LINE
  5
209
330
2
100
AcDbEntity
  8
0
100
AcDbLine
 10
7.48131270816312
 20
8.401172385172166
 30
0.0
 11
6.828970257219342
 21
8.427725498975885
 31
0.0
  0
ELLIPSE
  5
20A
330
2
100
AcDbEntity
  8
0
100
AcDbEllipse
 10
7.461240102044354
 20
8.416606865189978
 30
0.0
 11
0.0334366069273154
 21
-0.011283100889802
 31
0.0
210
0.0
220
0.0
230
1.0
 40
0.3166888303999999
 41
5.458480189693617
 42
6.942010053889517
  0
LINE
  5
20B
330
2
100
AcDbEntity
  8
0
100
AcDbLine
 10
7.169319686125725
 20
8.691768596257769
 30
0.0
 11
7.489865829432268
 21
8.41416749306588
 31
0.0
  0
ELLIPSE
  5
20C
330
2
100
AcDbEntity
  8
0
100
AcDbEllipse
 10
7.14069394749264
 20
8.694207978121385
 30
0.0
 11
0.033436606927302
 21
-0.011283100889802
 31
0.0
210
0.0
220
0.0
230
1.0
 40
0.3166888303999999
 41
0.6588247467100106
 42
2.142354610904445
  0
LINE
  5
20D
330
2
100
AcDbEntity
  8
0
100
AcDbLine
 10
6.398905539047053
 20
8.800172470177534
 30
0.0
 11
7.125612654403568
 21
8.709217667855416
 31
0.0
  0
LINE
  5
20E
330
2
100
AcDbEntity
  8
0
100
AcDbLine
 10
6.398905539047053
 20
8.800172470177534
 30
0.0
 11
5.470012688987509
 21
9.604617275731062
 31
0.0
  0
LINE
  5
20F
330
2
100
AcDbEntity
  8
0
100
AcDbLine
 10
5.521375282388108
 20
9.969919648171657
 30
0.0
 11
6.572287788017302
 21
9.059802721132919
 31
0.0
  0
ELLIPSE
  5
210
330
2
100
AcDbEntity
  8
0
100
AcDbEllipse
 10
6.476866303460166
 20
9.067933290741702
 30
0.0
 11
0.1114553564243601
 21
-0.0376103362993377
 31
0.0
210
0.0
220
0.0
230
1.0
 40
0.3166888304
 41
5.458480189693979
 42
6.942010053889137
  0
LINE
  5
211
330
2
100
AcDbEntity
  8
0
100
AcDbLine
 10
6.396558273346654
 20
9.022476822800483
 30
0.0
 11
6.543772839065018
 21
9.016484403927837
 31
0.0
  0
ELLIPSE
  5
212
330
2
100
AcDbEntity
  8
0
100
AcDbEllipse
 10
6.430010912054913
 20
8.996752199535572
 30
0.0
 11
0.0557276782121768
 21
-0.0188051681496789
 31
0.0
210
0.0
220
0.0
230
1.0
 40
0.3166888304
 41
2.316887536104295
 42
3.800417400299778
  0
LINE
  5
213
330
2
100
AcDbEntity
  8
0
100
AcDbLine
 10
6.387220923210749
 20
8.996555835132319
 30
0.0
 11
6.382300039886428
 21
9.000817445087761
 31
0.0
  0
ELLIPSE
  5
214
330
2
100
AcDbEntity
  8
0
100
AcDbEllipse
 10
6.434931779923028
 20
8.992490602954372
 30
0.0
 11
0.0557276782121768
 21
-0.0188051681496789
 31
0.0
210
0.0
220
0.0
230
1.0
 40
0.3166888304
 41
3.800417400299803
 42
5.283947264494716
  0
LINE
  5
215
330
2
100
AcDbEntity
  8
0
100
AcDbLine
 10
6.46006899373024
 20
8.967474925526037
 30
0.0
 11
7.035095027046621
 21
8.895504090239743
 31
0.0
  0
ELLIPSE
  5
216
330
2
100
AcDbEntity
  8
0
100
AcDbEllipse
 10
7.135642027587506
 20
8.795440912828698
 30
0.0
 11
0.2229107128487203
 21
-0.0752206725986955
 31
0.0
210
0.0
220
0.0
230
1.0
 40
0.3166888304
 41
0.6588247467096388
 42
2.14235461090486
  0
LINE
  5
217
330
2
100
AcDbEntity
  8
0
100
AcDbLine
 10
7.326484245839875
 20
8.779179599169843
 30
0.0
 11
7.905228181020261
 21
8.277972649007539
 31
0.0
  0
ELLIPSE
  5
218
330
2
100
AcDbEntity
  8
0
100
AcDbEllipse
 10
7.714385967872943
 20
8.294233958255354
 30
0.0
 11
0.2229107128487203
 21
-0.0752206725986888
 31
0.0
210
0.0
220
0.0
230
1.0
 40
0.3166888304
 41
5.458480189694113
 42
6.942010053889237
  0
LINE
  5
219
330
2
100
AcDbEntity
  8
0
100
AcDbLine
 10
7.848198269412161
 20
8.191336026454205
 30
0.0
 11
7.33201535029043
 21
8.212347230013316
 31
0.0
  0
ELLIPSE
  5
21A
330
2
100
AcDbEntity
  8
0
100
AcDbEllipse
 10
7.365467982764448
 20
8.186622612147498
 30
0.0
 11
0.0557276782121834
 21
-0.0188051681496789
 31
0.0
210
0.0
220
0.0
230
0.9999999999999998
 40
0.3166888304
 41
2.316887536104025
 42
3.800417400300071
  0
LINE
  5
21B
330
2
100
AcDbEntity
  8
0
100
AcDbLine
 10
7.322677972759133
 20
8.186426266058806
 30
0.0
 11
7.317757116830203
 21
8.19068785231234
 31
0.0
  0
ELLIPSE
  5
21C
330
2
100
AcDbEntity
  8
0
100
AcDbEllipse
 10
7.370388850632539
 20
8.182361015566293
 30
0.0
 11
0.0557276782121768
 21
-0.0188051681496789
 31
0.0
210
0.0
220
0.0
230
1.0
 40
0.3166888304
 41
3.800417400300069
 42
5.283947264494716
  0
LINE
  5
21D
330
2
100
AcDbEntity
  8
0
100
AcDbLine
 10
7.559522547077377
 20
8.136819352897523
 30
0.0
 11
7.395526043290385
 21
8.157345356464311
 31
0.0
  0
ELLIPSE
  5
21E
330
2
100
AcDbEntity
  8
0
100
AcDbEllipse
 10
7.609795704529041
 20
8.086787648723205
 30
0.0
 11
0.1114553564243601
 21
-0.0376103362993444
 31
0.0
210
0.0
220
0.0
230
1.0
 40
0.3166888304
 41
0.6588247467096168
 42
2.142354610904783
  0
LINE
  5
21F
330
2
100
AcDbEntity
  8
0
100
AcDbLine
 10
7.70521717015995
 20
8.078657095499879
 30
0.0
 11
8.756129730568165
 21
7.168540121033776
 31
0.0
  0
LINE
  5
220
330
2
100
AcDbEntity
  8
0
100
AcDbLine
 10
8.213813639318585
 20
7.548790729346103
 30
0.0
 11
8.641008353289247
 21
7.178830361346939
 31
0.0
  0
ELLIPSE
  5
221
330
2
100
AcDbEntity
  8
0
100
AcDbEllipse
 10
6.604792582993536
 20
13.25932450034195
 30
0.0
 11
0.0088269963742394
 21
0.1173033526146395
 31
0.0
210
0.0
220
0.0
230
0.9999999999999998
 40
0.5778770211000002
 41
5.877920137287945
 42
7.448640311660927
  0
LINE
  5
222
330
2
100
AcDbEntity
  8
0
100
AcDbLine
 10
7.345522300859419
 20
12.75379536938979
 30
0.0
 11
6.63963114903434
 21
13.3651150391778
 31
0.0
  0
LINE
  5
223
330
2
100
AcDbEntity
  8
0
100
AcDbLine
 10
5.973926054375953
 20
10.10115554500286
 30
0.0
 11
6.352813582218354
 21
11.25151453688761
 31
0.0
  0
LINE
  5
224
330
2
100
AcDbEntity
  8
0
100
AcDbLine
 10
6.51185271647751
 20
11.73438338780277
 30
0.0
 11
6.701223618584769
 21
12.30933998610526
 31
0.0
  0
ARC
  5
225
330
2
100
AcDbEntity
  8
0
100
AcDbCircle
 10
6.359538673665761
 20
9.948843828905635
 30
0.0
 40
0.4146033658973916
100
AcDbArc
 50
158.446657245201
 51
209.5566189156483
  0
ELLIPSE
  5
226
330
2
100
AcDbEntity
  8
0
100
AcDbEllipse
 10
5.556221309809058
 20
10.0757021511358
 30
0.0
 11
0.0088371918284573
 21
0.1172960753533387
 31
0.0
210
0.0
220
0.0
230
1.0
 40
0.5779408021000001
 41
1.165636268090271
 42
2.736356442463288
  0
LINE
  5
227
330
2
100
AcDbEntity
  8
0
100
AcDbLine
 10
6.545979601612368
 20
13.31026870881655
 30
0.0
 11
5.49740240274233
 21
10.12663006256362
 31
0.0
  0
LWPOLYLINE
  5
228
330
2
100
AcDbEntity
  8
0
100
AcDbPolyline
 90
        7
 70
   128
 43
0.0
 10
6.414210486325225
 20
12.73807392573855
 10
6.393287957131814
 20
12.63994537500595
 10
6.392621711288772
 20
12.53829384966611
 10
6.412295855106688
 20
12.44538068295279
 10
6.449934319883317
 20
12.372411871897
 10
6.500998692955828
 20
12.32818882758926
 10
6.54021279501116
 20
12.31742721566346
  0
LWPOLYLINE
  5
229
330
2
100
AcDbEntity
  8
0
100
AcDbPolyline
 90
        5
 70
   128
 43
0.0
 10
6.584371506082118
 20
12.90389242777369
 10
6.563160804105773
 20
12.90343228147274
 10
6.504598182644808
 20
12.87827238823355
 10
6.45286919123192
 20
12.82084406076384
 10
6.414210486325225
 20
12.73807392573855
  0
LWPOLYLINE
  5
22A
330
2
100
AcDbEntity
  8
0
100
AcDbPolyline
 90
        7
 70
   128
 43
0.0
 10
6.065801967915193
 20
11.68024910446234
 10
6.044877920777138
 20
11.58212011553285
 10
6.044211674934096
 20
11.48046859019302
 10
6.063885818752035
 20
11.3875554234797
 10
6.101524283516879
 20
11.31458651754574
 10
6.15258865658939
 20
11.27036347323797
 10
6.191804276612914
 20
11.25960239438724
  0
LWPOLYLINE
  5
22B
330
2
100
AcDbEntity
  8
0
100
AcDbPolyline
 90
        5
 70
   128
 43
0.0
 10
6.235961469715657
 20
11.84606716830059
 10
6.214750767751074
 20
11.84560683225509
 10
6.156189664234776
 20
11.82044737721277
 10
6.104459154865505
 20
11.76301880129073
 10
6.065801967915193
 20
11.68024910446234
  0
LINE
  5
22C
330
2
100
AcDbEntity
  8
0
100
AcDbLine
 10
6.333697624856287
 20
11.93088499553759
 30
0.0
 11
6.434737233660991
 21
12.23765671579824
 31
0.0
  0
ELLIPSE
  5
22D
330
2
100
AcDbEntity
  8
0
100
AcDbEllipse
 10
6.351343097556936
 20
11.91560661743709
 30
0.0
 11
0.0026511575485405
 21
0.0351888226059976
 31
0.0
210
0.0
220
0.0
230
1.0
 40
0.5779408021000001
 41
1.165636268090297
 42
2.73635644246337
  0
LINE
  5
22E
330
2
100
AcDbEntity
  8
0
100
AcDbLine
 10
6.340888393321342
 20
11.88387165934859
 30
0.0
 11
6.407409573173548
 21
11.82626262770011
 31
0.0
  0
LINE
  5
22F
330
2
100
AcDbEntity
  8
0
100
AcDbLine
 10
6.445539241695544
 20
11.81145268636246
 30
0.0
 11
6.562815641827117
 21
12.16752194564082
 31
0.0
  0
LINE
  5
230
330
2
100
AcDbEntity
  8
0
100
AcDbLine
 10
6.462831754254532
 20
12.25411053223935
 30
0.0
 11
6.562815641827117
 21
12.16752194564082
 31
0.0
  0
ELLIPSE
  5
231
330
2
100
AcDbEntity
  8
0
100
AcDbEllipse
 10
6.452381138507687
 20
12.22237352350758
 30
0.0
 11
0.0026480989122658
 21
0.0351910057843898
 31
0.0
210
0.0
220
0.0
230
1.0
 40
0.5778770211000001
 41
5.877920137287437
 42
7.448640311660861
  0
LINE
  5
232
330
2
100
AcDbEntity
  8
0
100
AcDbLine
 10
6.255846470945923
 20
12.78439030202766
 30
0.0
 11
5.907436434579484
 21
11.72656485281
 31
0.0
  0
LINE
  5
233
330
2
100
AcDbEntity
  8
0
100
AcDbLine
 10
6.431359965943189
 20
13.31727650107328
 30
0.0
 11
6.255846470945923
 21
12.78439030202766
 31
0.0
  0
LINE
  5
234
330
2
100
AcDbEntity
  8
0
100
AcDbLine
 10
5.907436434579484
 20
11.72656485281
 30
0.0
 11
5.717517190889644
 21
11.14993845866794
 31
0.0
  0
LWPOLYLINE
  5
235
330
2
100
AcDbEntity
  8
0
100
AcDbPolyline
 90
       17
 70
   128
 43
0.0
 10
6.521141294535389
 20
11.4372978395528
 10
6.538737483055918
 20
11.52543306389656
 10
6.535864401630741
 20
11.61555736300668
 10
6.512960067718634
 20
11.69395008399216
 10
6.473509917770802
 20
11.74867650687696
 10
6.423522127338801
 20
11.77140561241859
 10
6.370604686479922
 20
11.75867647454861
 10
6.322815329878641
 20
11.71242713378293
 10
6.287428832739155
 20
11.63969876864449
 10
6.26983264421865
 20
11.55156354430075
 10
6.272705725643779
 20
11.46143943493517
 10
6.295610169113977
 20
11.38304652421691
 10
6.335060319050024
 20
11.32832010132034
 10
6.385048109493787
 20
11.3055909957787
 10
6.437965440794622
 20
11.31832032339325
 10
6.485754797395903
 20
11.36456947441435
 10
6.521141294535389
 20
11.4372978395528
  0
ARC
  5
236
330
2
100
AcDbEntity
  8
0
100
AcDbCircle
 10
5.935030844877122
 20
9.980479091564699
 30
0.0
 40
0.5979247359876964
100
AcDbArc
 50
158.4462968151012
 51
218.9476879695018
  0
LWPOLYLINE
  5
237
330
2
100
AcDbEntity
  8
0
100
AcDbPolyline
 90
       10
 70
   128
 43
0.0
 10
5.713286029647488
 20
11.96822868638287
 10
5.665910697164568
 20
11.96244476786021
 10
5.599567609624608
 20
11.92359119327527
 10
5.541718755459784
 20
11.85233309203538
 10
5.498027371023141
 20
11.75564634923518
 10
5.472770223826174
 20
11.64299508867326
 10
5.468419372294558
 20
11.52540654785115
 10
5.485401613739135
 20
11.41439112159466
 10
5.52205372613218
 20
11.32081532608865
 10
5.5747882281294
 20
11.25383958213765
  0
LWPOLYLINE
  5
238
330
2
100
AcDbEntity
  8
0
100
AcDbPolyline
 90
        3
 70
   128
 43
0.0
 10
5.979762702887316
 20
9.77208884828985
 10
5.993466798775245
 20
9.750332927782066
 10
6.018665217945465
 20
9.72241705600712
  0
LINE
  5
239
330
2
100
AcDbEntity
  8
0
100
AcDbLine
 10
5.717517190889644
 20
11.14993845866794
 30
0.0
 11
5.692415409651442
 21
11.1519714547636
 31
0.0
  0
LINE
  5
23A
330
2
100
AcDbEntity
  8
0
100
AcDbLine
 10
5.378916810008825
 20
10.20014058143556
 30
0.0
 11
5.692415409651442
 21
11.1519714547636
 31
0.0
  0
LWPOLYLINE
  5
23B
330
2
100
AcDbEntity
  8
0
100
AcDbPolyline
 90
       17
 70
   128
 43
0.0
 10
6.869551330901828
 20
12.49512328877048
 10
6.887147519422333
 20
12.58325832336968
 10
6.884274437997203
 20
12.67338262247977
 10
6.861370104073287
 20
12.75177534346525
 10
6.82191995413724
 20
12.80650176635006
 10
6.77193216370524
 20
12.8292308718917
 10
6.719014722846337
 20
12.81650173402173
 10
6.671225366245056
 20
12.77025239325605
 10
6.63583886910557
 20
12.69752421787392
 10
6.618242680585065
 20
12.6093889935184
 10
6.621115762010242
 20
12.51926469440829
 10
6.644020205480392
 20
12.4408718785564
 10
6.68347035541644
 20
12.38614545567161
 10
6.73345814584844
 20
12.36341635012994
 10
6.78637547716106
 20
12.37614558286633
 10
6.834164833762342
 20
12.42239492363202
 10
6.869551330901828
 20
12.49512328877048
  0
LINE
  5
23C
330
2
100
AcDbEntity
  8
0
100
AcDbLine
 10
6.018665217945465
 20
9.72241705600712
 30
0.0
 11
6.638278751814388
 21
9.185815995150782
 31
0.0
  0
LINE
  5
23D
330
2
100
AcDbEntity
  8
0
100
AcDbLine
 10
5.5747882281294
 20
11.25383958213765
 30
0.0
 11
5.692415409651442
 21
11.1519714547636
 31
0.0
  0
LWPOLYLINE
  5
23E
330
2
100
AcDbEntity
  8
0
100
AcDbPolyline
 90
       10
 70
   128
 43
0.0
 10
6.061696066002141
 20
13.02605394585597
 10
6.014320733531007
 20
13.02027021707788
 10
5.947977645991023
 20
12.98141645274836
 10
5.890128791826223
 20
12.91015854125302
 10
5.846437407377817
 20
12.81347179845286
 10
5.821180260192589
 20
12.70082053789092
 10
5.816829408660973
 20
12.58323180732427
 10
5.833811650093788
 20
12.47221638106778
 10
5.870463762498595
 20
12.37864077530632
 10
5.923198264484053
 20
12.31166484161077
  0
LINE
  5
23F
330
2
100
AcDbEntity
  8
0
100
AcDbLine
 10
6.562815641827117
 20
12.16752194564082
 30
0.0
 11
6.415565845623381
 21
12.17944768213979
 31
0.0
  0
LINE
  5
240
330
2
100
AcDbEntity
  8
0
100
AcDbLine
 10
6.065927227256082
 20
12.20776371814107
 30
0.0
 11
6.040825446006095
 21
12.20979671423669
 31
0.0
  0
LINE
  5
241
330
2
100
AcDbEntity
  8
0
100
AcDbLine
 10
5.923198264484053
 20
12.31166484161077
 30
0.0
 11
6.040825446006095
 21
12.20979671423669
 31
0.0
  0
ELLIPSE
  5
242
330
2
100
AcDbEntity
  8
0
100
AcDbEllipse
 10
6.490173869204575
 20
13.26633245611233
 30
0.0
 11
0.0088269963742394
 21
0.1173033526146395
 31
0.0
210
0.0
220
0.0
230
0.9999999999999998
 40
0.5778770211000002
 41
0.0081150858514489
 42
1.165455004481329
  0
ELLIPSE
  5
243
330
2
100
AcDbEntity
  8
0
100
AcDbEllipse
 10
7.188360237243042
 20
8.955501439706416
 30
0.0
 11
0.2086311988762865
 21
-0.1181653741973359
 31
0.0
210
0.0
220
0.0
230
1.0
 40
0.165794471
 41
0.6896272446617182
 42
2.173157108856921
  0
ARC
  5
244
330
2
100
AcDbEntity
  8
0
100
AcDbCircle
 10
6.96113957028011
 20
12.70942962725111
 30
0.0
 40
0.11216277166282
100
AcDbArc
 50
51.27721473400346
 51
145.8445444761025
  0
LINE
  5
245
330
2
100
AcDbEntity
  8
0
100
AcDbLine
 10
7.086295634072709
 20
9.050954881605417
 30
0.0
 11
7.070290883949353
 21
9.057755845689666
 31
0.0
  0
LINE
  5
246
330
2
100
AcDbEntity
  8
0
100
AcDbLine
 10
6.616080942393237
 20
9.114604693908857
 30
0.0
 11
7.070290883949353
 21
9.057755845689666
 31
0.0
  0
LINE
  5
247
330
2
100
AcDbEntity
  8
0
100
AcDbLine
 10
7.940525178203487
 20
8.385139885187426
 30
0.0
 11
7.361781243023078
 21
8.886346835337969
 31
0.0
  0
LINE
  5
248
330
2
100
AcDbEntity
  8
0
100
AcDbLine
 10
7.050687570463538
 20
12.78014972005257
 30
0.0
 11
7.031303324855969
 21
12.79693696918074
 31
0.0
  0
ELLIPSE
  5
249
330
2
100
AcDbEntity
  8
0
100
AcDbEllipse
 10
7.767104177528478
 20
8.454294485144853
 30
0.0
 11
0.2086311988762865
 21
-0.1181653741973228
 31
0.0
210
0.0
220
0.0
230
1.0
 40
0.165794471
 41
0.0331063377241576
 42
0.689627244661631
  0
LINE
  5
24A
330
2
100
AcDbEntity
  8
0
100
AcDbLine
 10
6.929757885564648
 20
8.733730915824986
 30
0.0
 11
6.828970257219342
 21
8.427725498975885
 31
0.0
  0
LINE
  5
24B
330
2
100
AcDbEntity
  8
0
100
AcDbLine
 10
7.783567663742952
 20
8.193966702750397
 30
0.0
 11
8.306515602019056
 21
7.741080503352216
 31
0.0
  0
LINE
  5
24C
330
2
100
AcDbEntity
  8
0
100
AcDbLine
 10
8.849779650487446
 20
7.223386202942721
 30
0.0
 11
9.051146947407703
 21
7.83476561252851
 31
0.0
  0
ELLIPSE
  5
24D
330
2
100
AcDbEntity
  8
0
100
AcDbEllipse
 10
8.790966804954003
 20
7.274330377564222
 30
0.0
 11
0.0088269963742327
 21
0.1173033526146396
 31
0.0
210
0.0
220
0.0
230
1.0
 40
0.5778770211000001
 41
2.736327483698102
 42
4.30704765807106
  0
ARC
  5
24E
330
2
100
AcDbEntity
  8
0
100
AcDbCircle
 10
8.375724237086821
 20
7.819779813258001
 30
0.0
 40
0.1048017965007469
100
AcDbArc
 50
228.671413037403
 51
314.9203592104976
  0
ARC
  5
24F
330
2
100
AcDbEntity
  8
0
100
AcDbCircle
 10
7.87100028373629
 20
7.745296020484824
 30
0.0
 40
0.1663963979312926
100
AcDbArc
 50
227.1621517868024
 51
264.5187678972941
  0
ELLIPSE
  5
250
330
2
100
AcDbEntity
  8
0
100
AcDbEllipse
 10
8.67584599623826
 20
7.284620682031256
 30
0.0
 11
0.0088269963742394
 21
0.1173033526146395
 31
0.0
210
0.0
220
0.0
230
0.9999999999999998
 40
0.5778770211000002
 41
2.736327483698255
 42
3.133477567738518
  0
LINE
  5
251
330
2
100
AcDbEntity
  8
0
100
AcDbLine
 10
7.337081869586732
 20
10.81546455214539
 30
0.0
 11
6.951588375599088
 21
10.50606465153337
 31
0.0
  0
ELLIPSE
  5
252
330
2
100
AcDbEntity
  8
0
100
AcDbEllipse
 10
6.70592355195921
 20
9.925272930980433
 30
0.0
 11
0.0088371918284573
 21
0.1172960753533387
 31
0.0
210
0.0
220
0.0
230
1.0
 40
0.5779408021000001
 41
1.16563626809024
 42
2.736356442463259
  0
ELLIPSE
  5
253
330
2
100
AcDbEntity
  8
0
100
AcDbEllipse
 10
7.100463238001998
 20
11.20074002437295
 30
0.0
 11
0.3873373880488715
 21
0.442581258024825
 31
0.0
210
0.0
220
0.0
230
1.0
 40
0.7540258493000001
 41
4.482373612415839
 42
5.224320880421761
  0
ELLIPSE
  5
254
330
2
100
AcDbEntity
  8
0
100
AcDbEllipse
 10
7.188962914779427
 20
10.12013363705046
 30
0.0
 11
0.3885154989617625
 21
0.4415532250172968
 31
0.0
210
0.0
220
0.0
230
1.0
 40
0.7560319662000003
 41
1.342801356481428
 42
2.084748624487349
  0
LINE
  5
255
330
2
100
AcDbEntity
  8
0
100
AcDbLine
 10
6.707259541668633
 20
10.15883867149314
 30
0.0
 11
6.647104520748653
 21
9.976200750682519
 31
0.0
  0
LINE
  5
256
330
2
100
AcDbEntity
  8
0
100
AcDbLine
 10
7.973652878301491
 20
8.691426882075171
 30
0.0
 11
9.021067385146512
 21
7.784339310852978
 31
0.0
  0
LINE
  5
257
330
2
100
AcDbEntity
  8
0
100
AcDbLine
 10
6.671077290848148
 20
9.819490431156962
 30
0.0
 11
7.596522033447606
 21
9.018031774255691
 31
0.0
  0
LINE
  5
258
330
2
100
AcDbEntity
  8
0
100
AcDbLine
 10
8.022873248721756
 20
12.5040923608927
 30
0.0
 11
7.581140884493839
 21
11.16292424975247
 31
0.0
  0
ELLIPSE
  5
259
330
2
100
AcDbEntity
  8
0
100
AcDbEllipse
 10
8.081686305537301
 20
12.45314808715848
 30
0.0
 11
0.0088269963742394
 21
0.1173033526146395
 31
0.0
210
0.0
220
0.0
230
0.9999999999999998
 40
0.5778770211000002
 41
5.877920137287912
 42
7.44864031166087
  0
LINE
  5
25A
330
2
100
AcDbEntity
  8
0
100
AcDbLine
 10
8.502964739403852
 20
12.22427188335737
 30
0.0
 11
8.116524796131987
 21
12.55893869126572
 31
0.0
  0
LINE
  5
25B
330
2
100
AcDbEntity
  8
0
100
AcDbLine
 10
7.980968125885945
 20
8.762076972176265
 30
0.0
 11
7.662780913458668
 21
9.03763518129047
 31
0.0
  0
LINE
  5
25C
330
2
100
AcDbEntity
  8
0
100
AcDbLine
 10
7.783790383524518
 20
8.613211283794848
 30
0.0
 11
7.980968125885945
 21
8.762076972176265
 31
0.0
  0
LINE
  5
25D
330
2
100
AcDbEntity
  8
0
100
AcDbLine
 10
7.465603171097263
 20
8.888769492920786
 30
0.0
 11
7.783790383524518
 21
8.613211283794848
 31
0.0
  0
ELLIPSE
  5
25E
330
2
100
AcDbEntity
  8
0
100
AcDbEllipse
 10
7.910169716258788
 20
8.652425886318948
 30
0.0
 11
0.069382631217861
 21
0.1106989237729516
 31
0.0
210
0.0
220
0.0
230
1.0
 40
0.2945542466
 41
5.171606599400139
 42
6.237537654344468
  0
ELLIPSE
  5
25F
330
2
100
AcDbEntity
  8
0
100
AcDbEllipse
 10
7.899265706839781
 20
8.644193546841439
 30
0.0
 11
0.118975904580314
 21
0.0255021672174164
 31
0.0
210
0.0
220
0.0
230
1.0
 40
0.2601647544
 41
3.335243632973681
 42
4.401174687917908
  0
ELLIPSE
  5
260
330
2
100
AcDbEntity
  8
0
100
AcDbEllipse
 10
7.907582735823917
 20
8.66264656211055
 30
0.0
 11
-0.0311956806811425
 21
0.0582344096609245
 31
0.0
210
0.0
220
0.0
230
0.9999999999999998
 40
0.8730488701000002
 41
2.500405314970203
 42
4.062474995505384
  0
LINE
  5
261
330
2
100
AcDbEntity
  8
0
100
AcDbLine
 10
7.966936753628285
 20
8.649090985227264
 30
0.0
 11
7.970152277624885
 21
8.68317322026133
 31
0.0
  0
LINE
  5
262
330
2
100
AcDbEntity
  8
0
100
AcDbLine
 10
7.86914909972714
 20
8.606917850605281
 30
0.0
 11
7.90217136674937
 21
8.599687414283682
 31
0.0
  0
LINE
  5
263
330
2
100
AcDbEntity
  8
0
100
AcDbLine
 10
9.51569241957595
 20
12.03212263107766
 30
0.0
 11
9.366891888763257
 21
11.58034318005732
 31
0.0
  0
LWPOLYLINE
  5
264
330
2
100
AcDbEntity
  8
0
100
AcDbPolyline
 90
        9
 70
   128
 43
0.0
 10
9.51569241957595
 20
12.03212263107766
 10
9.588253683035677
 20
12.00903767129124
 10
9.638441814366739
 20
11.95507765587108
 10
9.658615430364406
 20
11.87845727573407
 10
9.645703708949433
 20
11.79084145787555
 10
9.601672401270496
 20
11.70556888150029
 10
9.533224794642796
 20
11.63562162811679
 10
9.450780129091228
 20
11.59164790771531
 10
9.366891888763257
 20
11.58034318005732
  0
ARC
  5
265
330
2
100
AcDbEntity
  8
0
100
AcDbCircle
 10
10.15859674254824
 20
12.5948760854167
 30
0.0
 40
0.0786626326082859
100
AcDbArc
 50
333.6487475794996
 51
82.98636861719842
  0
LINE
  5
266
330
2
100
AcDbEntity
  8
0
100
AcDbLine
 10
10.22908552008463
 20
12.55995987128477
 30
0.0
 11
9.706376352360656
 21
10.97293319209598
 31
0.0
  0
ARC
  5
267
330
2
100
AcDbEntity
  8
0
100
AcDbCircle
 10
9.565267637492462
 20
11.01989754101965
 30
0.0
 40
0.1487189277884052
100
AcDbArc
 50
287.7679507352964
 51
341.5913261540976
  0
LINE
  5
268
330
2
100
AcDbEntity
  8
0
100
AcDbLine
 10
9.610651102443521
 20
10.87827247052945
 30
0.0
 11
8.82525079187329
 21
10.65154693015962
 31
0.0
  0
ARC
  5
269
330
2
100
AcDbEntity
  8
0
100
AcDbCircle
 10
8.768624944364871
 20
10.84153976517594
 30
0.0
 40
0.1982517691239233
100
AcDbArc
 50
266.2240578526988
 51
286.5962675312973
  0
LINE
  5
26A
330
2
100
AcDbEntity
  8
0
100
AcDbLine
 10
8.755569088195974
 20
10.64371835939622
 30
0.0
 11
8.639456190696925
 21
10.65246125268347
 31
0.0
  0
LINE
  5
26B
330
2
100
AcDbEntity
  8
0
100
AcDbLine
 10
10.16820188099024
 20
12.67295009570921
 30
0.0
 11
9.325823628375571
 21
12.73637707492073
 31
0.0
  0
LWPOLYLINE
  5
26C
330
2
100
AcDbEntity
  8
0
100
AcDbPolyline
 90
        6
 70
   128
 43
0.0
 10
9.288786452380705
 20
12.72648146707033
 10
9.290500465229236
 20
12.72950175685004
 10
9.29553407472037
 20
12.73317123812987
 10
9.303314688480439
 20
12.735593770075
 10
9.313542056628623
 20
12.7366762899403
 10
9.325823628375571
 20
12.73637707492073
  0
LWPOLYLINE
  5
26D
330
2
100
AcDbEntity
  8
0
100
AcDbPolyline
 90
        9
 70
   128
 43
0.0
 10
8.639456190696925
 20
10.65246125268347
 10
8.627174618949979
 20
10.652760432109
 10
8.616947250801795
 20
10.65167794782596
 10
8.609166637029987
 20
10.64925540402401
 10
8.604133027550592
 20
10.64558605319282
 10
8.602038159274734
 20
10.64081052321744
 10
8.602964035984346
 20
10.6351128481753
 10
8.606874133964559
 20
10.62871147435507
 10
8.6136187076759
 20
10.62185276329077
  0
LINE
  5
26E
330
2
100
AcDbEntity
  8
0
100
AcDbLine
 10
11.89541949314062
 20
7.779729912916687
 30
0.0
 11
11.88925429824965
 21
7.785069128305277
 31
0.0
  0
LINE
  5
26F
330
2
100
AcDbEntity
  8
0
100
AcDbLine
 10
8.77213061970967
 20
10.48457742064759
 30
0.0
 11
8.6136187076759
 21
10.62185276329077
 31
0.0
  0
LINE
  5
270
330
2
100
AcDbEntity
  8
0
100
AcDbLine
 10
8.091592676530098
 20
13.27351481962655
 30
0.0
 11
7.973965385461774
 21
13.37538304187876
 31
0.0
  0
LINE
  5
271
330
2
100
AcDbEntity
  8
0
100
AcDbLine
 10
8.426629533295404
 20
13.24828826842397
 30
0.0
 11
8.091592676530098
 21
13.27351481962655
 31
0.0
  0
LINE
  5
272
330
2
100
AcDbEntity
  8
0
100
AcDbLine
 10
8.30900224222708
 20
13.35015649066442
 30
0.0
 11
8.426629533295404
 21
13.24828826842397
 31
0.0
  0
LINE
  5
273
330
2
100
AcDbEntity
  8
0
100
AcDbLine
 10
7.973965385461774
 20
13.37538304187876
 30
0.0
 11
8.30900224222708
 21
13.35015649066442
 31
0.0
  0
LINE
  5
274
330
2
100
AcDbEntity
  8
0
100
AcDbLine
 10
8.405111464435508
 20
6.478684785000391
 30
0.0
 11
8.63688946284344
 21
7.182397194482279
 31
0.0
  0
LINE
  5
275
330
2
100
AcDbEntity
  8
0
100
AcDbLine
 10
6.916072007329813
 20
8.692181594748644
 30
0.0
 11
6.857678365561056
 21
8.742751971943746
 31
0.0
  0
LINE
  5
276
330
2
100
AcDbEntity
  8
0
100
AcDbLine
 10
5.808841703584485
 20
12.95912167554485
 30
0.0
 11
4.715589584302818
 21
9.639842426458994
 31
0.0
  0
ARC
  5
277
330
2
100
AcDbEntity
  8
0
100
AcDbCircle
 10
9.567996182842973
 20
13.34974182372479
 30
0.0
 40
0.0550635354665921
100
AcDbArc
 50
333.6488063391017
 51
82.98770571809859
  0
ARC
  5
278
330
2
100
AcDbEntity
  8
0
100
AcDbCircle
 10
9.573221109210003
 20
13.4027696533084
 30
0.0
 40
0.0022088236623828
100
AcDbArc
 50
47.32038030139992
 51
84.84797494359916
  0
ARC
  5
279
330
2
100
AcDbEntity
  8
0
100
AcDbCircle
 10
8.604374458761014
 20
13.03502384280414
 30
0.0
 40
0.6221581329182781
100
AcDbArc
 50
68.87912926580189
 51
84.59496622089586
  0
ARC
  5
27A
330
2
100
AcDbEntity
  8
0
100
AcDbCircle
 10
9.485883277859736
 20
14.06684272422036
 30
0.0
 40
0.6540296550141216
100
AcDbArc
 50
248.8786432781024
 51
264.5952845953946
  0
ARC
  5
27B
330
2
100
AcDbEntity
  8
0
100
AcDbCircle
 10
8.306337911239271
 20
6.51155721920366
 30
0.0
 40
0.1041000083613524
100
AcDbArc
 50
287.7674011091983
 51
341.5922464560007
  0
LINE
  5
27C
330
2
100
AcDbEntity
  8
0
100
AcDbLine
 10
4.651959827264958
 20
9.60471729075688
 30
0.0
 11
8.338104396671347
 21
6.412422451617297
 31
0.0
  0
ARC
  5
27D
330
2
100
AcDbEntity
  8
0
100
AcDbCircle
 10
4.680314458487493
 20
9.651581399433784
 30
0.0
 40
0.0371771164534353
100
AcDbArc
 50
287.7671483982983
 51
341.5934186932962
  0
LINE
  5
27E
330
2
100
AcDbEntity
  8
0
100
AcDbLine
 10
5.953113078259646
 20
7.965035255853964
 30
0.0
 11
5.749376254289615
 21
7.906221500767627
 31
0.0
  0
LWPOLYLINE
  5
27F
330
2
100
AcDbEntity
  8
0
100
AcDbPolyline
 90
        9
 70
   128
 43
0.0
 10
5.749376254289615
 20
7.906221500767627
 10
5.680364917773854
 20
7.875960634098536
 10
5.639765495472073
 20
7.834797584938391
 10
5.63376163989974
 20
7.788999856815088
 10
5.663268225640763
 20
7.745539973494561
 10
5.723789658758879
 20
7.711033305422505
 10
5.80611557854448
 20
7.690734187077799
 10
5.897711782218349
 20
7.687732728048061
 10
5.984630809042634
 20
7.702485080000399
  0
LINE
  5
280
330
2
100
AcDbEntity
  8
0
100
AcDbLine
 10
5.984630809042634
 20
7.702485080000399
 30
0.0
 11
6.188367633012641
 21
7.761298835074951
 31
0.0
  0
LWPOLYLINE
  5
281
330
2
100
AcDbEntity
  8
0
100
AcDbPolyline
 90
        9
 70
   128
 43
0.0
 10
6.188367633012641
 20
7.761298835074951
 10
6.257380487484811
 20
7.791560139952689
 10
6.297978391830183
 20
7.832722750904164
 10
6.303982247390755
 20
7.878520479039275
 10
6.274477179617901
 20
7.921980800544895
 10
6.213954228531616
 20
7.956487030420067
 10
6.131628308757776
 20
7.976786148764791
 10
6.040033623040338
 20
7.979788045991378
 10
5.953113078259646
 20
7.965035255853964
  0
LINE
  5
282
330
2
100
AcDbEntity
  8
0
100
AcDbLine
 10
8.283958957830989
 20
6.39679200977556
 30
0.0
 11
8.338104396671347
 21
6.412422451617297
 31
0.0
  0
ARC
  5
283
330
2
100
AcDbEntity
  8
0
100
AcDbCircle
 10
8.165988445016431
 20
6.827085752951119
 30
0.0
 40
0.446172329163945
100
AcDbArc
 50
262.2008268917985
 51
285.3316431664956
  0
LINE
  5
284
330
2
100
AcDbEntity
  8
0
100
AcDbLine
 10
6.927897691894639
 20
6.542801990550437
 30
0.0
 11
8.105442291539082
 21
6.385040607503347
 31
0.0
  0
ARC
  5
285
330
2
100
AcDbEntity
  8
0
100
AcDbCircle
 10
6.952889581783249
 20
6.821511590155519
 30
0.0
 40
0.2798278675807165
100
AcDbArc
 50
233.1444269821983
 51
264.8759916605966
  0
LINE
  5
286
330
2
100
AcDbEntity
  8
0
100
AcDbLine
 10
6.785048834726305
 20
6.597607326913511
 30
0.0
 11
4.23588086263204
 21
8.80525154925516
 31
0.0
  0
ARC
  5
287
330
2
100
AcDbEntity
  8
0
100
AcDbCircle
 10
4.280679634754832
 20
8.867110760663813
 30
0.0
 40
0.07637730042284
100
AcDbArc
 50
182.2852148176458
 51
234.087742797233
  0
LINE
  5
288
330
2
100
AcDbEntity
  8
0
100
AcDbLine
 10
4.691659030807607
 20
9.616177463686643
 30
0.0
 11
4.637513591955488
 21
9.600547021833154
 31
0.0
  0
ARC
  5
289
330
2
100
AcDbEntity
  8
0
100
AcDbCircle
 10
4.672596384418897
 20
9.426885406375051
 30
0.0
 40
0.1771698592075385
100
AcDbArc
 50
101.4210714680947
 51
144.7560980463016
  0
LWPOLYLINE
  5
28A
330
2
100
AcDbEntity
  8
0
100
AcDbPolyline
 90
        6
 70
   128
 43
0.0
 10
8.067523163092834
 20
13.69615534065953
 10
8.049977875045208
 20
13.69658272808289
 10
8.035367302172513
 20
13.69503636600896
 10
8.024253503349729
 20
13.69157579194009
 10
8.017062183306878
 20
13.68633369970775
 10
8.014614181469781
 20
13.68201916071474
  0
LINE
  5
28B
330
2
100
AcDbEntity
  8
0
100
AcDbLine
 10
4.527901233030648
 20
9.529122738971537
 30
0.0
 11
4.212379664111573
 21
8.940350278758641
 31
0.0
  0
ARC
  5
28C
330
2
100
AcDbEntity
  8
0
100
AcDbCircle
 10
7.521820010949315
 20
13.45228781296432
 30
0.0
 40
0.2872477857393807
100
AcDbArc
 50
53.53729464470135
 51
85.22747148609594
  0
LWPOLYLINE
  5
28D
330
2
100
AcDbEntity
  8
0
100
AcDbPolyline
 90
        3
 70
   128
 43
0.0
 10
6.650031005684495
 20
13.73659056685266
 10
6.649506993362271
 20
13.7358451448226
 10
6.649061714136865
 20
13.73485276113594
  0
ARC
  5
28E
330
2
100
AcDbEntity
  8
0
100
AcDbCircle
 10
6.845575837672198
 20
13.33102144487809
 30
0.0
 40
0.4596776614180726
100
AcDbArc
 50
82.44019616819915
 51
109.3018013701049
  0
ARC
  5
28F
330
2
100
AcDbEntity
  8
0
100
AcDbCircle
 10
6.325035604658834
 20
12.82112280014541
 30
0.0
 40
0.5343218441346652
100
AcDbArc
 50
125.0532852855032
 51
165.0326126333972
  0
ARC
  5
290
330
2
100
AcDbEntity
  8
0
100
AcDbCircle
 10
4.268145844078683
 20
8.909388323507656
 30
0.0
 40
0.0637848689089158
100
AcDbArc
 50
150.9605160887979
 51
179.5349946651982
  0
LINE
  5
291
330
2
100
AcDbEntity
  8
0
100
AcDbLine
 10
6.649061714136865
 20
13.73485276113594
 30
0.0
 11
6.529371179778688
 21
13.59306328330205
 31
0.0
  0
ARC
  5
292
330
2
100
AcDbEntity
  8
0
100
AcDbCircle
 10
6.492695346070112
 20
13.64695436529453
 30
0.0
 40
0.0651871574549705
100
AcDbArc
 50
257.791471990795
 51
304.2374325905998
  0
ARC
  5
293
330
2
100
AcDbEntity
  8
0
100
AcDbCircle
 10
6.260464246176129
 20
13.52386492645825
 30
0.0
 40
0.1068667614609418
100
AcDbArc
 50
305.0536892742006
 51
345.0319929205987
  0
LINE
  5
294
330
2
100
AcDbEntity
  8
0
100
AcDbLine
 10
6.478910199992731
 20
13.58324145259394
 30
0.0
 11
6.456667611951236
 21
13.58491620161206
 31
0.0
  0
ARC
  5
295
330
2
100
AcDbEntity
  8
0
100
AcDbCircle
 10
6.458266814607019
 20
13.49455664353556
 30
0.0
 40
0.0903737084828526
100
AcDbArc
 50
91.01392702580042
 51
163.0906939452
  0
LINE
  5
296
330
2
100
AcDbEntity
  8
0
100
AcDbLine
 10
6.371800290934101
 20
13.52084252318702
 30
0.0
 11
6.363705039313577
 21
13.49626341677837
 31
0.0
  0
ARC
  5
297
330
2
100
AcDbEntity
  8
0
100
AcDbCircle
 10
12.93634510352269
 20
8.093403823798199
 30
0.0
 40
0.1341874933179176
100
AcDbArc
 50
286.6490829758958
 51
308.1274944216982
  0
LINE
  5
298
330
2
100
AcDbEntity
  8
0
100
AcDbLine
 10
12.18939074681245
 20
7.738116267296192
 30
0.0
 11
12.97479105738268
 21
7.96484180765427
 31
0.0
  0
ARC
  5
299
330
2
100
AcDbEntity
  8
0
100
AcDbCircle
 10
12.13276489930403
 20
7.928109102300774
 30
0.0
 40
0.1982517691242614
100
AcDbArc
 50
266.2240578526988
 51
286.5962675312973
  0
LINE
  5
29A
330
2
100
AcDbEntity
  8
0
100
AcDbLine
 10
12.00359614563608
 20
7.739030589808278
 30
0.0
 11
12.11970904313513
 21
7.730287696532795
 31
0.0
  0
ARC
  5
29B
330
2
100
AcDbEntity
  8
0
100
AcDbCircle
 10
12.02120419659643
 20
7.949945437516648
 30
0.0
 40
0.2116485682508727
100
AcDbArc
 50
233.5365937102001
 51
265.2277757242001
  0
ARC
  5
29C
330
2
100
AcDbEntity
  8
0
100
AcDbCircle
 10
11.03363353638215
 20
14.29841774253794
 30
0.0
 40
0.0288951463198743
100
AcDbArc
 50
99.612606725806
 51
162.1737659591983
  0
LINE
  5
29D
330
2
100
AcDbEntity
  8
0
100
AcDbLine
 10
11.23608363647298
 20
14.35019438919314
 30
0.0
 11
11.02880846043544
 21
14.3269071813344
 31
0.0
  0
LINE
  5
29E
330
2
100
AcDbEntity
  8
0
100
AcDbLine
 10
12.69109923828878
 20
14.240638178729
 30
0.0
 11
11.23608363647298
 21
14.35019438919314
 31
0.0
  0
ARC
  5
29F
330
2
100
AcDbEntity
  8
0
100
AcDbCircle
 10
12.68918027693982
 20
14.22502438058161
 30
0.0
 40
0.015731277919512
100
AcDbArc
 50
333.6434646951036
 51
82.99339176569528
  0
LINE
  5
2A0
330
2
100
AcDbEntity
  8
0
100
AcDbLine
 10
12.61269081389784
 20
13.94300603637896
 30
0.0
 11
12.70327626970364
 21
14.21804039225004
 31
0.0
  0
LINE
  5
2A1
330
2
100
AcDbEntity
  8
0
100
AcDbLine
 10
11.32997823319792
 20
14.03958793186342
 30
0.0
 11
12.61269081389784
 21
13.94300603637896
 31
0.0
  0
LINE
  5
2A2
330
2
100
AcDbEntity
  8
0
100
AcDbLine
 10
9.779905281453308
 20
13.47334369588992
 30
0.0
 11
9.650992991184763
 21
13.08194824409478
 31
0.0
  0
ARC
  5
2A3
330
2
100
AcDbEntity
  8
0
100
AcDbCircle
 10
9.806510007198475
 20
13.46525640333056
 30
0.0
 40
0.027806756964149
100
AcDbArc
 50
91.01248601779753
 51
163.0918007758025
  0
LINE
  5
2A4
330
2
100
AcDbEntity
  8
0
100
AcDbLine
 10
9.806018653605992
 20
13.49305881877912
 30
0.0
 11
9.935246678432861
 21
13.48332839650623
 31
0.0
  0
LINE
  5
2A5
330
2
100
AcDbEntity
  8
0
100
AcDbLine
 10
9.935246678432861
 20
13.48332839650623
 30
0.0
 11
10.82166838234253
 21
13.74722294222425
 31
0.0
  0
LINE
  5
2A6
330
2
100
AcDbEntity
  8
0
100
AcDbLine
 10
11.00612566557408
 20
14.30726344907131
 30
0.0
 11
10.82166838234253
 21
13.74722294222425
 31
0.0
  0
LINE
  5
2A7
330
2
100
AcDbEntity
  8
0
100
AcDbLine
 10
11.02296179593837
 20
12.87793739179777
 30
0.0
 11
11.33951907399712
 21
13.83905462593317
 31
0.0
  0
LINE
  5
2A8
330
2
100
AcDbEntity
  8
0
100
AcDbLine
 10
12.62223165469706
 20
13.7424727304487
 30
0.0
 11
12.54259216915758
 21
13.50067647344596
 31
0.0
  0
LINE
  5
2A9
330
2
100
AcDbEntity
  8
0
100
AcDbLine
 10
12.30328056230936
 20
13.51869548248749
 30
0.0
 11
12.06636125183369
 21
12.79937416202435
 31
0.0
  0
LINE
  5
2AA
330
2
100
AcDbEntity
  8
0
100
AcDbLine
 10
12.06636125183369
 20
12.79937416202435
 30
0.0
 11
11.02296179593837
 21
12.87793739179777
 31
0.0
  0
ARC
  5
2AB
330
2
100
AcDbEntity
  8
0
100
AcDbCircle
 10
12.73394345018812
 20
13.21558110190204
 30
0.0
 40
0.063960997850761
100
AcDbArc
 50
226.9690139197038
 51
295.3354855813973
  0
LINE
  5
2AC
330
2
100
AcDbEntity
  8
0
100
AcDbLine
 10
12.57855103497898
 20
13.26560131273918
 30
0.0
 11
12.69029686289813
 21
13.16882658699815
 31
0.0
  0
ARC
  5
2AD
330
2
100
AcDbEntity
  8
0
100
AcDbCircle
 10
12.76211578963231
 20
13.41396860891214
 30
0.0
 40
0.2360272732586846
100
AcDbArc
 50
158.4468754029983
 51
218.9470807937993
  0
ARC
  5
2AE
330
2
100
AcDbEntity
  8
0
100
AcDbCircle
 10
12.53658280510009
 20
13.77189569391533
 30
0.0
 40
0.0905617812048235
100
AcDbArc
 50
341.040857485101
 51
24.40699054409913
  0
ARC
  5
2AF
330
2
100
AcDbEntity
  8
0
100
AcDbCircle
 10
12.78396387373064
 20
13.88415904338977
 30
0.0
 40
0.1811006063176131
100
AcDbArc
 50
161.038005870899
 51
204.4098498788015
  0
LINE
  5
2B0
330
2
100
AcDbEntity
  8
0
100
AcDbLine
 10
12.06636125183369
 20
12.79937416202435
 30
0.0
 11
12.14761029987447
 21
12.72901042238372
 31
0.0
  0
LINE
  5
2B1
330
2
100
AcDbEntity
  8
0
100
AcDbLine
 10
9.773635638320666
 20
12.90775922387337
 30
0.0
 11
9.662979822288864
 21
13.00358997163209
 31
0.0
  0
LINE
  5
2B2
330
2
100
AcDbEntity
  8
0
100
AcDbLine
 10
9.662979822288864
 20
13.00358997163209
 30
0.0
 11
10.99355502794735
 21
12.90340439992763
 31
0.0
  0
LINE
  5
2B3
330
2
100
AcDbEntity
  8
0
100
AcDbLine
 10
10.99355502794735
 20
12.90340439992763
 30
0.0
 11
11.02296179593837
 21
12.87793739179777
 31
0.0
  0
ARC
  5
2B4
330
2
100
AcDbEntity
  8
0
100
AcDbCircle
 10
12.10757021694053
 20
12.68987843779709
 30
0.0
 40
0.0559867882596904
100
AcDbArc
 50
6.368136345500285
 51
44.34285004420252
  0
ARC
  5
2B5
330
2
100
AcDbEntity
  8
0
100
AcDbCircle
 10
12.52279824869999
 20
13.43198682996856
 30
0.0
 40
0.236022043590138
100
AcDbArc
 50
158.4461682942994
 51
218.9478017275996
  0
LINE
  5
2B6
330
2
100
AcDbEntity
  8
0
100
AcDbLine
 10
12.4509852560617
 20
13.18684578577245
 30
0.0
 11
12.33923942813081
 21
13.28362051151349
 31
0.0
  0
ARC
  5
2B7
330
2
100
AcDbEntity
  8
0
100
AcDbCircle
 10
12.4959533328415
 20
13.23573063513911
 30
0.0
 40
0.0664218068587846
100
AcDbArc
 50
227.3897431828974
 51
264.8561861738975
  0
ARC
  5
2B8
330
2
100
AcDbEntity
  8
0
100
AcDbCircle
 10
11.50125129303073
 20
13.98074093888596
 30
0.0
 40
0.1811006063176535
100
AcDbArc
 50
161.038005870899
 51
204.4098498788015
  0
ARC
  5
2B9
330
2
100
AcDbEntity
  8
0
100
AcDbCircle
 10
9.733678494658356
 20
12.86868175724522
 30
0.0
 40
0.0558893704397818
100
AcDbArc
 50
6.491114374099128
 51
44.36230848149711
  0
ARC
  5
2BA
330
2
100
AcDbEntity
  8
0
100
AcDbCircle
 10
11.25387764691625
 20
13.86847794254038
 30
0.0
 40
0.0905548761401042
100
AcDbArc
 50
341.0391203478996
 51
24.40872768130246
  0
ELLIPSE
  5
2BB
330
2
100
AcDbEntity
  8
0
100
AcDbEllipse
 10
12.80263288071312
 20
14.94810735074958
 30
0.0
 11
0.2840415202784803
 21
1.013104792204135
 31
0.0
210
0.0
220
0.0
230
0.9999999999999998
 40
0.033449368
 41
2.272263534317461
 42
2.34174625460599
  0
SPLINE
  5
2BC
330
2
100
AcDbEntity
  8
0
100
AcDbSpline
210
0.0
220
0.0
230
1.0
 70
     8
 71
     3
 72
    11
 73
     7
 74
     0
 42
0.000000001
 43
0.0000000001
 40
0.0
 40
0.0
 40
0.0
 40
0.0
 40
0.2517137385180087
 40
0.5017633876615959
 40
0.7884835531649208
 40
1.0
 40
1.0
 40
1.0
 40
1.0
 10
12.57020076699246
 20
14.35715863285419
 30
0.0
 10
12.57407351901032
 20
14.35435922436229
 30
0.0
 10
12.58179342013088
 20
14.34877891437753
 30
0.0
 10
12.59070133835963
 20
14.33382593753591
 30
0.0
 10
12.59565361201314
 20
14.3173748454327
 30
0.0
 10
12.59410207385781
 20
14.30627937093666
 30
0.0
 10
12.59344339918478
 20
14.30156900786174
 30
0.0
  0
ARC
  5
2BD
330
2
100
AcDbEntity
  8
0
100
AcDbCircle
 10
9.724161925340938
 20
13.05304526085218
 30
0.0
 40
0.0786706766581065
100
AcDbArc
 50
158.4451304928032
 51
218.9496259357009
  0
LINE
  5
2BE
330
2
100
AcDbEntity
  8
0
100
AcDbLine
 10
12.30172318139491
 20
14.43554748518826
 30
0.0
 11
11.7760327509379
 21
14.47512943395338
 31
0.0
  0
LINE
  5
2BF
330
2
100
AcDbEntity
  8
0
100
AcDbLine
 10
12.30172318139491
 20
14.43554748518826
 30
0.0
 11
12.56295708786877
 21
14.36013601305576
 31
0.0
  0
ARC
  5
2C0
330
2
100
AcDbEntity
  8
0
100
AcDbCircle
 10
12.55317829628543
 20
14.32604487873049
 30
0.0
 40
0.0354659019989946
100
AcDbArc
 50
61.31673829750337
 51
73.99485028310235
  0
ELLIPSE
  5
2C1
330
2
100
AcDbEntity
  8
0
100
AcDbEllipse
 10
11.05461106864068
 20
14.3304908526255
 30
0.0
 11
0.0545844837210316
 21
-0.0222437224747891
 31
0.0
210
0.0
220
0.0
230
1.0
 40
0.2713924154
 41
1.896947681047104
 42
2.246013531439856
  0
LINE
  5
2C2
330
2
100
AcDbEntity
  8
0
100
AcDbLine
 10
11.09843881723256
 20
14.33473001155761
 30
0.0
 11
11.0428412216712
 21
14.35165084701414
 31
0.0
  0
LINE
  5
2C3
330
2
100
AcDbEntity
  8
0
100
AcDbLine
 10
10.62671881387961
 20
14.40524807809647
 30
0.0
 11
10.85655817313114
 21
14.20620135420212
 31
0.0
  0
ELLIPSE
  5
2C4
330
2
100
AcDbEntity
  8
0
100
AcDbEllipse
 10
10.67309968493125
 20
14.39714514278026
 30
0.0
 11
0.0545844837202359
 21
-0.0222437224744614
 31
0.0
210
0.0
220
0.0
230
1.0
 40
0.2713924154
 41
2.246013531444893
 42
3.816809858235645
  0
LINE
  5
2C5
330
2
100
AcDbEntity
  8
0
100
AcDbLine
 10
10.64369303766113
 20
14.42261229225104
 30
0.0
 11
11.02520359096906
 21
14.35595784369939
 31
0.0
  0
LINE
  5
2C6
330
2
100
AcDbEntity
  8
0
100
AcDbLine
 10
9.861667553195875
 20
13.51284283024473
 30
0.0
 11
9.853962415904
 21
13.48944877503025
 31
0.0
  0
LINE
  5
2C7
330
2
100
AcDbEntity
  8
0
100
AcDbLine
 10
9.859219092506531
 20
13.51302724958679
 30
0.0
 11
9.861667553195875
 21
13.51284283024473
 31
0.0
  0
LWPOLYLINE
  5
2C8
330
2
100
AcDbEntity
  8
0
100
AcDbPolyline
 90
        9
 70
   128
 43
0.0
 10
9.853626947947551
 20
13.52560998593122
 10
9.852857344985148
 20
13.52337823862206
 10
9.852527948842611
 20
13.5211568753073
 10
9.852652421115891
 20
13.51904471191727
 10
9.853224689991098
 20
13.5171358165574
 10
9.854220468177311
 20
13.51551558358047
 10
9.855594217040847
 20
13.5142564417909
 10
9.857285218407378
 20
13.51341429442001
 10
9.859219092506531
 20
13.51302724958679
  0
LINE
  5
2C9
330
2
100
AcDbEntity
  8
0
100
AcDbLine
 10
10.11569117555819
 20
14.11559279892912
 30
0.0
 11
9.853626947947551
 21
13.52560998593122
 31
0.0
  0
ARC
  5
2CA
330
2
100
AcDbEntity
  8
0
100
AcDbCircle
 10
10.15389592795733
 20
14.10008499779819
 30
0.0
 40
0.0412322083042171
100
AcDbArc
 50
90.72684154310021
 51
157.907132855501
  0
LINE
  5
2CB
330
2
100
AcDbEntity
  8
0
100
AcDbLine
 10
10.32917023184968
 20
14.1280773925594
 30
0.0
 11
10.15337287934356
 21
14.14131388842378
 31
0.0
  0
LINE
  5
2CC
330
2
100
AcDbEntity
  8
0
100
AcDbLine
 10
10.97880468733906
 20
14.2243106735224
 30
0.0
 11
10.32917023184968
 21
14.1280773925594
 31
0.0
  0
ARC
  5
2CD
330
2
100
AcDbEntity
  8
0
100
AcDbCircle
 10
11.65565320420172
 20
14.99656681408563
 30
0.0
 40
0.5351524798350919
100
AcDbArc
 50
248.3883789471973
 51
282.999607963604
  0
SPLINE
  5
2CE
330
2
100
AcDbEntity
  8
0
100
AcDbSpline
210
0.0
220
0.0
230
1.0
 70
     8
 71
     3
 72
     9
 73
     5
 74
     0
 42
0.000000001
 43
0.0000000001
 40
0.0
 40
0.0
 40
0.0
 40
0.0
 40
0.3637854744933605
 40
1.0
 40
1.0
 40
1.0
 40
1.0
 10
11.49562911292803
 20
11.87125321980024
 30
0.0
 10
11.49380336902648
 20
11.88110629010843
 30
0.0
 10
11.48878463125496
 20
11.90819112718699
 30
0.0
 10
11.48269265463921
 20
11.9344890306919
 30
0.0
 10
11.47881685062724
 20
11.9512201388921
 30
0.0
  0
SPLINE
  5
2CF
330
2
100
AcDbEntity
  8
0
100
AcDbSpline
210
0.0
220
0.0
230
1.0
 70
     8
 71
     3
 72
     9
 73
     5
 74
     0
 42
0.000000001
 43
0.0000000001
 40
0.0
 40
0.0
 40
0.0
 40
0.0
 40
0.4931078804754943
 40
1.0
 40
1.0
 40
1.0
 40
1.0
 10
11.82109374829123
 20
11.84674739660023
 30
0.0
 10
11.81178650162232
 20
11.83050441713277
 30
0.0
 10
11.79291183537302
 20
11.79756440519903
 30
0.0
 10
11.78243826771432
 20
11.7606711937385
 30
0.0
 10
11.77712929880485
 20
11.74197031558519
 30
0.0
  0
SPLINE
  5
2D0
330
2
100
AcDbEntity
  8
0
100
AcDbSpline
210
0.0
220
0.0
230
1.0
 70
     8
 71
     3
 72
     9
 73
     5
 74
     0
 42
0.000000001
 43
0.0000000001
 40
0.0
 40
0.0
 40
0.0
 40
0.0
 40
0.3964137364449641
 40
1.0
 40
1.0
 40
1.0
 40
1.0
 10
11.77712929880485
 20
11.74197031558519
 30
0.0
 10
11.76968691782636
 20
11.73328000966979
 30
0.0
 10
11.75091264162391
 20
11.71135769690299
 30
0.0
 10
11.73040897121052
 20
11.69252244860959
 30
0.0
 10
11.71803323739652
 20
11.68115375146905
 30
0.0
  0
LINE
  5
2D1
330
2
100
AcDbEntity
  8
0
100
AcDbLine
 10
11.49409699220761
 20
11.69801483127522
 30
0.0
 11
11.50546400864634
 21
11.76242562752035
 31
0.0
  0
SPLINE
  5
2D2
330
2
100
AcDbEntity
  8
0
100
AcDbSpline
210
0.0
220
0.0
230
1.0
 70
     8
 71
     3
 72
     9
 73
     5
 74
     0
 42
0.000000001
 43
0.0000000001
 40
0.0
 40
0.0
 40
0.0
 40
0.0
 40
0.3822979274184181
 40
1.0
 40
1.0
 40
1.0
 40
1.0
 10
11.50546400865195
 20
11.76242562752495
 30
0.0
 10
11.50615504185787
 20
11.77677296214014
 30
0.0
 10
11.50796261955146
 20
11.81430216014568
 30
0.0
 10
11.50033852928635
 20
11.84950707248389
 30
0.0
 10
11.49562911292803
 20
11.87125321980024
 30
0.0
  0
LINE
  5
2D3
330
2
100
AcDbEntity
  8
0
100
AcDbLine
 10
11.47881685062729
 20
11.95122013889284
 30
0.0
 11
11.48259535321483
 21
11.9873445307051
 31
0.0
  0
ARC
  5
2D4
330
2
100
AcDbEntity
  8
0
100
AcDbCircle
 10
11.6165737909481
 20
11.59320662613422
 30
0.0
 40
0.4162870519233294
100
AcDbArc
 50
62.61379871470026
 51
108.7743259455003
  0
LINE
  5
2D5
330
2
100
AcDbEntity
  8
0
100
AcDbLine
 10
11.71751367283456
 20
11.58613793145179
 30
0.0
 11
11.71482841123822
 21
11.58420238181097
 31
0.0
  0
LWPOLYLINE
  5
2D6
330
2
100
AcDbEntity
  8
0
100
AcDbPolyline
 90
        9
 70
   128
 43
0.0
 10
11.53557467621693
 20
11.59769977491712
 10
11.53617456035267
 20
11.60914192490526
 10
11.54605040523342
 20
11.6173442264004
 10
11.56439650759311
 20
11.62163881945454
 10
11.58972323732031
 20
11.62167702194584
 10
11.61996730576813
 20
11.61745502629128
 10
11.65267001496927
 20
11.60931643310277
 10
11.68517242525256
 20
11.59792355417928
 10
11.71482841123822
 20
11.58420238181097
  0
LINE
  5
2D7
330
2
100
AcDbEntity
  8
0
100
AcDbLine
 10
11.53557467621693
 20
11.59769977491712
 30
0.0
 11
11.53426316348418
 21
11.59993604026624
 31
0.0
  0
LINE
  5
2D8
330
2
100
AcDbEntity
  8
0
100
AcDbLine
 10
11.53426316348418
 20
11.59993604026624
 30
0.0
 11
11.49409699220761
 21
11.69801483127522
 31
0.0
  0
LINE
  5
2D9
330
2
100
AcDbEntity
  8
0
100
AcDbLine
 10
11.71803323739908
 20
11.68115375147259
 30
0.0
 11
11.71751367283456
 21
11.58613793145179
 31
0.0
  0
LINE
  5
2DA
330
2
100
AcDbEntity
  8
0
100
AcDbLine
 10
11.45854952060578
 20
14.4990345894151
 30
0.0
 11
11.22481943264519
 21
14.516633251743
 31
0.0
  0
LINE
  5
2DB
330
2
100
AcDbEntity
  8
0
100
AcDbLine
 10
11.716139923971
 20
11.58410377596295
 30
0.0
 11
11.76613148433357
 21
11.54080981471958
 31
0.0
  0
LINE
  5
2DC
330
2
100
AcDbEntity
  8
0
100
AcDbLine
 10
11.716139923971
 20
11.58410377596295
 30
0.0
 11
11.71751367283456
 21
11.58613793145179
 31
0.0
  0
LINE
  5
2DD
330
2
100
AcDbEntity
  8
0
100
AcDbLine
 10
11.83737790036263
 20
11.9486744487475
 30
0.0
 11
11.80805998857737
 21
11.96283880237646
 31
0.0
  0
LINE
  5
2DE
330
2
100
AcDbEntity
  8
0
100
AcDbLine
 10
11.83737790036263
 20
11.9486744487475
 30
0.0
 11
11.8210937482868
 21
11.8467473966033
 31
0.0
  0
LWPOLYLINE
  5
2DF
330
2
100
AcDbEntity
  8
0
100
AcDbPolyline
 90
        9
 70
   128
 43
0.0
 10
11.76481997160075
 20
11.54090842056759
 10
11.76422008746508
 20
11.52946627057944
 10
11.75434424258431
 20
11.5212639690843
 10
11.73599814022461
 20
11.51696937603016
 10
11.7106729284538
 20
11.51693151685757
 10
11.68042734204959
 20
11.52115316919343
 10
11.64772463284845
 20
11.52929176238192
 10
11.61522222256517
 20
11.54068464130544
 10
11.58556623657951
 20
11.55440581367373
  0
LINE
  5
2E0
330
2
100
AcDbEntity
  8
0
100
AcDbLine
 10
11.58425472384671
 20
11.55450441952174
 30
0.0
 11
11.58556623657951
 21
11.55440581367373
 31
0.0
  0
LINE
  5
2E1
330
2
100
AcDbEntity
  8
0
100
AcDbLine
 10
11.53426316348418
 20
11.59779838076513
 30
0.0
 11
11.58425472384671
 21
11.55450441952174
 31
0.0
  0
LINE
  5
2E2
330
2
100
AcDbEntity
  8
0
100
AcDbLine
 10
11.53426316348418
 20
11.59779838076513
 30
0.0
 11
11.53557467621693
 21
11.59769977491712
 31
0.0
  0
LINE
  5
2E3
330
2
100
AcDbEntity
  8
0
100
AcDbLine
 10
11.71482841123822
 20
11.58420238181097
 30
0.0
 11
11.716139923971
 21
11.58410377596295
 31
0.0
  0
LINE
  5
2E4
330
2
100
AcDbEntity
  8
0
100
AcDbLine
 10
11.76481997160075
 20
11.54090842056759
 30
0.0
 11
11.76613148433357
 21
11.54080981471958
 31
0.0
  0
LINE
  5
2E5
330
2
100
AcDbEntity
  8
0
100
AcDbLine
 10
11.22481943264519
 20
14.516633251743
 30
0.0
 11
11.10579686873403
 21
14.54279473906067
 31
0.0
  0
LWPOLYLINE
  5
2E6
330
2
100
AcDbEntity
  8
0
100
AcDbPolyline
 90
        3
 70
   128
 43
0.0
 10
11.84835714032651
 20
11.56828994081836
 10
11.83719692841718
 20
11.55921553837931
 10
11.83499886464183
 20
11.55814510606891
  0
LINE
  5
2E7
330
2
100
AcDbEntity
  8
0
100
AcDbLine
 10
12.00720390541624
 20
11.75097844034423
 30
0.0
 11
11.99094259848566
 21
11.73915895833605
 31
0.0
  0
ARC
  5
2E8
330
2
100
AcDbEntity
  8
0
100
AcDbCircle
 10
11.07695768080699
 20
14.41464467830075
 30
0.0
 40
0.1313550030782659
100
AcDbArc
 50
77.31730820779789
 51
85.32930291050599
  0
LINE
  5
2E9
330
2
100
AcDbEntity
  8
0
100
AcDbLine
 10
11.08765375916849
 20
14.54556347275665
 30
0.0
 11
10.69395251284968
 21
14.57520738111518
 31
0.0
  0
LINE
  5
2EA
330
2
100
AcDbEntity
  8
0
100
AcDbLine
 10
11.53426316348418
 20
11.59993604026624
 30
0.0
 11
11.53426316348418
 21
11.59779838076513
 31
0.0
  0
SPLINE
  5
2EB
330
2
100
AcDbEntity
  8
0
100
AcDbSpline
210
0.0
220
0.0
230
1.0
 70
     8
 71
     3
 72
     9
 73
     5
 74
     0
 42
0.000000001
 43
0.0000000001
 40
0.0
 40
0.0
 40
0.0
 40
0.0
 40
0.690265050481048
 40
1.0
 40
1.0
 40
1.0
 40
1.0
 10
12.02361723426413
 20
11.7761607516477
 30
0.0
 10
12.01823703915167
 20
11.78352784225665
 30
0.0
 10
12.01044264899856
 20
11.79420068539687
 30
0.0
 10
12.00250953339184
 20
11.80457953335128
 30
0.0
 10
12.00005237022985
 20
11.80779422529851
 30
0.0
  0
LINE
  5
2EC
330
2
100
AcDbEntity
  8
0
100
AcDbLine
 10
12.00720390541624
 20
11.75097844034423
 30
0.0
 11
12.02361723426807
 21
11.77616075164761
 31
0.0
  0
LWPOLYLINE
  5
2ED
330
2
100
AcDbEntity
  8
0
100
AcDbPolyline
 90
        6
 70
   128
 43
0.0
 10
10.69395251284968
 20
14.57520738111518
 10
10.68517910984767
 20
14.5754205711116
 10
10.67787387819033
 20
14.57464753237422
 10
10.67231697877306
 20
14.5729171504675
 10
10.6687212639785
 20
14.57029605692403
 10
10.66749802204404
 20
14.56813910139825
  0
ARC
  5
2EE
330
2
100
AcDbEntity
  8
0
100
AcDbCircle
 10
12.05383874921566
 20
11.04757620305048
 30
0.0
 40
0.0346411639838489
100
AcDbArc
 50
206.3093621142003
 51
267.2019584731027
  0
ARC
  5
2EF
330
2
100
AcDbEntity
  8
0
100
AcDbCircle
 10
12.36063723551499
 20
11.18689962276703
 30
0.0
 40
0.3715756741317175
100
AcDbArc
 50
168.1565985804006
 51
204.5995217088999
  0
LINE
  5
2F0
330
2
100
AcDbEntity
  8
0
100
AcDbLine
 10
12.08165068367475
 20
11.52026242707943
 30
0.0
 11
11.99697158902985
 21
11.2631608788211
 31
0.0
  0
LINE
  5
2F1
330
2
100
AcDbEntity
  8
0
100
AcDbLine
 10
12.56174783124054
 20
11.22063595171817
 30
0.0
 11
12.64642692588547
 21
11.47773749997649
 31
0.0
  0
ARC
  5
2F2
330
2
100
AcDbEntity
  8
0
100
AcDbCircle
 10
12.00417839817301
 20
11.49001595464778
 30
0.0
 40
0.6192327984464292
100
AcDbArc
 50
308.3912028774006
 51
334.2132946608995
  0
ARC
  5
2F3
330
2
100
AcDbEntity
  8
0
100
AcDbCircle
 10
12.35038606581769
 20
11.05006375048238
 30
0.0
 40
0.0594281041898844
100
AcDbArc
 50
268.1090752518053
 51
310.1931445754964
  0
LINE
  5
2F4
330
2
100
AcDbEntity
  8
0
100
AcDbLine
 10
12.05214771901871
 20
11.01297633803233
 30
0.0
 11
12.34842512427178
 21
10.99066800756754
 31
0.0
  0
ARC
  5
2F5
330
2
100
AcDbEntity
  8
0
100
AcDbCircle
 10
12.12955064512911
 20
11.39401149572216
 30
0.0
 40
0.3680630481491696
100
AcDbArc
 50
305.8579809468014
 51
16.63386199700259
  0
ARC
  5
2F6
330
2
100
AcDbEntity
  8
0
100
AcDbCircle
 10
12.47495758336507
 20
11.22311614365797
 30
0.0
 40
0.3691559402575295
100
AcDbArc
 50
126.1985519929017
 51
197.444354774502
  0
ARC
  5
2F7
330
2
100
AcDbEntity
  8
0
100
AcDbCircle
 10
12.13540010931992
 20
11.11815876077608
 30
0.0
 40
0.0138512307889595
100
AcDbArc
 50
204.3362626065003
 51
267.2102901677989
  0
LINE
  5
2F8
330
2
100
AcDbEntity
  8
0
100
AcDbLine
 10
12.16942185175348
 20
11.10171125704954
 30
0.0
 11
12.13472596457033
 21
11.10432394515992
 31
0.0
  0
LINE
  5
2F9
330
2
100
AcDbEntity
  8
0
100
AcDbLine
 10
12.32856117101314
 20
11.0897290911718
 30
0.0
 11
12.16942185175348
 21
11.10171125704954
 31
0.0
  0
ARC
  5
2FA
330
2
100
AcDbEntity
  8
0
100
AcDbCircle
 10
12.32930119091025
 20
11.11369237556168
 30
0.0
 40
0.023974708094118
100
AcDbArc
 50
268.2311879515014
 51
311.3935721910017
  0
ARC
  5
2FB
330
2
100
AcDbEntity
  8
0
100
AcDbCircle
 10
12.03358520723947
 20
11.46454891093567
 30
0.0
 40
0.61923279844648
100
AcDbArc
 50
308.3912028774006
 51
334.2132946608995
  0
ARC
  5
2FC
330
2
100
AcDbEntity
  8
0
100
AcDbCircle
 10
12.37979287489589
 20
11.02459670677028
 30
0.0
 40
0.0594281041898844
100
AcDbArc
 50
268.1090752518053
 51
310.1931445754964
  0
LINE
  5
2FD
330
2
100
AcDbEntity
  8
0
100
AcDbLine
 10
12.59115464030701
 20
11.19516890801782
 30
0.0
 11
12.67583373496367
 21
11.45227045627615
 31
0.0
  0
LINE
  5
2FE
330
2
100
AcDbEntity
  8
0
100
AcDbLine
 10
12.08155452809692
 20
10.98750929433198
 30
0.0
 11
12.37783193333822
 21
10.96520096386719
 31
0.0
  0
ARC
  5
2FF
330
2
100
AcDbEntity
  8
0
100
AcDbCircle
 10
12.08372592614614
 20
11.02350578959992
 30
0.0
 40
0.0360619278541578
100
AcDbArc
 50
229.8492770627059
 51
266.5479592276051
  0
ARC
  5
300
330
2
100
AcDbEntity
  8
0
100
AcDbCircle
 10
12.51193507321198
 20
11.19407805960061
 30
0.0
 40
0.3774595770571898
100
AcDbArc
 50
124.0986910639988
 51
193.8826501117001
  0
LINE
  5
301
330
2
100
AcDbEntity
  8
0
100
AcDbLine
 10
12.31599198287739
 20
11.51188704144133
 30
0.0
 11
12.48221104215506
 21
11.49937113364335
 31
0.0
  0
ARC
  5
302
330
2
100
AcDbEntity
  8
0
100
AcDbCircle
 10
12.31516627714072
 20
11.48832771249944
 30
0.0
 40
0.0235737941360149
100
AcDbArc
 50
87.99272310400047
 51
129.0223704635005
  0
LINE
  5
303
330
2
100
AcDbEntity
  8
0
100
AcDbLine
 10
16.90498414579518
 20
14.53148862822357
 30
0.0
 11
16.90160593794143
 21
14.53541480399334
 31
0.0
  0
LINE
  5
304
330
2
100
AcDbEntity
  8
0
100
AcDbLine
 10
31.06466476089503
 20
18.61903633560235
 30
0.0
 11
31.06128655304129
 21
18.6229625113721
 31
0.0
  0
LWPOLYLINE
  5
305
330
2
100
AcDbEntity
  8
0
100
AcDbPolyline
 90
       12
 70
   128
 43
0.0
 10
31.16202377390135
 20
18.52234674972748
 10
31.16768403667218
 20
18.51764184350719
 10
31.24045724454963
 20
18.48200803885166
 10
31.32767872331957
 20
18.47724344462494
 10
31.41989711874129
 20
18.50386460233537
 10
31.50711878726751
 20
18.55898659558396
 10
31.57989180538866
 20
18.63663597662444
 10
31.63033039922266
 20
18.72839837450613
 10
31.65296879391762
 20
18.82432993917621
 10
31.64535321592497
 20
18.91403474127682
 10
31.60830981203662
 20
18.98779225364705
 10
31.58555187842671
 20
19.01139498672288
  0
LWPOLYLINE
  5
306
330
2
100
AcDbEntity
  8
0
100
AcDbPolyline
 90
       12
 70
   128
 43
0.0
 10
17.00234353829056
 20
14.43479915189499
 10
17.00800323182777
 20
14.43009408134942
 10
17.08077700893886
 20
14.39446044101918
 10
17.1679979184869
 20
14.38969568246715
 10
17.26021669338594
 20
14.41631694972385
 10
17.34743836191223
 20
14.47143894298423
 10
17.42021138003333
 20
14.54908832401292
 10
17.47064997386736
 20
14.64085072189462
 10
17.49328798907322
 20
14.73678217701841
 10
17.48567317005877
 20
14.82648719822338
 10
17.44862900719217
 20
14.90024449150103
 10
17.4258718325605
 20
14.92384744365763
  0
LWPOLYLINE
  5
307
330
2
100
AcDbEntity
  8
0
100
AcDbPolyline
 90
       19
 70
   128
 43
0.0
 10
31.01793857915443
 20
18.68630542411337
 10
31.02087828788929
 20
18.61425389810657
 10
31.04946896186794
 20
18.5251366021062
 10
31.10433391116777
 20
18.45560299244623
 10
31.18102856488122
 20
18.41128659192505
 10
31.27333936578217
 20
18.39577750638666
 10
31.37378811078085
 20
18.41033226740087
 10
31.47423647627864
 20
18.45377150679405
 10
31.56654746692419
 20
18.52257631286375
 10
31.64324212063761
 20
18.61117239235391
 10
31.69810706993744
 20
18.712382295265
 10
31.72669774391609
 20
18.81800642457632
 10
31.72669774391609
 20
18.91948794789006
 10
31.69810706993744
 20
19.0086052438904
 10
31.64324212063761
 20
19.07813875867222
 10
31.56654746692419
 20
19.12245534893797
 10
31.47423647627864
 20
19.13796428484272
 10
31.37378811078085
 20
19.12340972824115
 10
31.37378811078085
 20
19.12340972824115
  0
LWPOLYLINE
  5
308
330
2
100
AcDbEntity
  8
0
100
AcDbPolyline
 90
       19
 70
   128
 43
0.0
 10
16.85825777432174
 20
14.59875766195557
 10
16.86119805227853
 20
14.52670630027409
 10
16.88978872625719
 20
14.43758900427372
 10
16.94465367556876
 20
14.36805539461374
 10
17.02134832927042
 20
14.32373899409255
 10
17.11365894042686
 20
14.30822985377514
 10
17.21410730593642
 20
14.32278450524309
 10
17.314555671446
 20
14.36622374463627
 10
17.40686704156886
 20
14.43502866025223
 10
17.4835616952823
 20
14.52362473974242
 10
17.53842664459385
 20
14.62483464265348
 10
17.56701731856075
 20
14.73045877196479
 10
17.56701731856075
 20
14.8319402952903
 10
17.53842664459385
 20
14.92105759127891
 10
17.4835616952823
 20
14.99059110607249
 10
17.40686704156886
 20
15.03490769633822
 10
17.314555671446
 20
15.05041652268492
 10
17.21410730593642
 20
15.03586196608338
 10
17.21410730593642
 20
15.03586196608338
  0
ARC
  5
309
330
2
100
AcDbEntity
  8
0
100
AcDbCircle
 10
34.99372131773977
 20
18.15858249461831
 30
0.0
 40
0.7166727498028754
100
AcDbArc
 50
8.749285570099772
 51
43.73463283130393
  0
LINE
  5
30A
330
2
100
AcDbEntity
  8
0
100
AcDbLine
 10
35.51155278682795
 20
18.65403218926688
 30
0.0
 11
35.15867091362297
 21
18.95963685599997
 31
0.0
  0
ARC
  5
30B
330
2
100
AcDbEntity
  8
0
100
AcDbCircle
 10
35.32284914362859
 20
19.11054894306957
 30
0.0
 40
0.2229998861715468
100
AcDbArc
 50
179.5143540286995
 51
222.5891186933021
  0
LINE
  5
30C
330
2
100
AcDbEntity
  8
0
100
AcDbLine
 10
35.09985726808296
 20
19.67271422197389
 30
0.0
 11
35.09985726808296
 21
19.11243909450016
 31
0.0
  0
LWPOLYLINE
  5
30D
330
2
100
AcDbEntity
  8
0
100
AcDbPolyline
 90
        9
 70
   128
 43
0.0
 10
35.15867091362297
 20
19.7236484279664
 10
35.14719697741714
 20
19.73162774580671
 10
35.13616397566167
 20
19.73538572691692
 10
35.12599586274568
 20
19.73477797586928
 10
35.11708339970076
 20
19.72982773633026
 10
35.10976925560149
 20
19.7207251321176
 10
35.10433420435777
 20
19.70782043123933
 10
35.10098737488441
 20
19.69160905612107
 10
35.09985726808296
 20
19.67271422197389
  0
LINE
  5
30E
330
2
100
AcDbEntity
  8
0
100
AcDbLine
 10
35.15867091362297
 20
19.7236484279664
 30
0.0
 11
35.27629820469132
 21
19.62178020572594
 31
0.0
  0
LWPOLYLINE
  5
30F
330
2
100
AcDbEntity
  8
0
100
AcDbPolyline
 90
       11
 70
   128
 43
0.0
 10
35.27629820469132
 20
19.62178020572594
 10
35.34667331603076
 20
19.57563400786859
 10
35.41295852748302
 20
19.561770718701
 10
35.47130155080198
 20
19.5809960874463
 10
35.51831162738637
 20
19.63219270983681
 10
35.55125671639134
 20
19.71238530006349
 10
35.56822234064298
 20
19.81691316843277
 10
35.56822234064298
 20
19.93970165055422
 10
35.55125671639134
 20
20.07361484209841
 10
35.51831162738637
 20
20.21087000033391
 10
35.4818279798688
 20
20.31379427946458
  0
LWPOLYLINE
  5
310
330
2
100
AcDbEntity
  8
0
100
AcDbPolyline
 90
        3
 70
   128
 43
0.0
 10
35.36515425388426
 20
20.53657026964879
 10
35.34667331603076
 20
20.56471497810376
 10
35.29146973063435
 20
20.62413258006405
  0
LINE
  5
311
330
2
100
AcDbEntity
  8
0
100
AcDbLine
 10
35.25624013625617
 20
20.65783303523837
 30
0.0
 11
35.15867091362297
 21
20.74233046067341
 31
0.0
  0
ARC
  5
312
330
2
100
AcDbEntity
  8
0
100
AcDbCircle
 10
35.32284961916037
 20
20.89324273193554
 30
0.0
 40
0.2230003609285383
100
AcDbArc
 50
179.5143780159997
 51
222.5890708546962
  0
LINE
  5
313
330
2
100
AcDbEntity
  8
0
100
AcDbLine
 10
35.09985726808296
 20
23.08529928768695
 30
0.0
 11
35.09985726808296
 21
20.89513279403996
 31
0.0
  0
LINE
  5
314
330
2
100
AcDbEntity
  8
0
100
AcDbLine
 10
38.39342097984604
 20
20.23298944431403
 30
0.0
 11
38.39342097984604
 21
16.46077447604245
 31
0.0
  0
ARC
  5
315
330
2
100
AcDbEntity
  8
0
100
AcDbCircle
 10
35.2719149376361
 20
19.09584550430095
 30
0.0
 40
0.2229998861715333
100
AcDbArc
 50
179.5143540286995
 51
222.5891186933021
  0
LINE
  5
316
330
2
100
AcDbEntity
  8
0
100
AcDbLine
 10
35.04892306209044
 20
19.65801078319347
 30
0.0
 11
35.04892306209044
 21
19.09773565571976
 31
0.0
  0
LINE
  5
317
330
2
100
AcDbEntity
  8
0
100
AcDbLine
 10
35.10773670763046
 20
18.94493341723134
 30
0.0
 11
35.46061858083546
 21
18.63932875049824
 31
0.0
  0
ARC
  5
318
330
2
100
AcDbEntity
  8
0
100
AcDbCircle
 10
12.83594673172093
 20
12.94956948726624
 30
0.0
 40
0.0746897899583427
100
AcDbArc
 50
177.7639509146009
 51
291.3846800218012
  0
LINE
  5
319
330
2
100
AcDbEntity
  8
0
100
AcDbLine
 10
12.76131381311574
 20
12.95248362242072
 30
0.0
 11
12.76131381311574
 21
16.67067326000053
 31
0.0
  0
LINE
  5
31A
330
2
100
AcDbEntity
  8
0
100
AcDbLine
 10
34.96858208810693
 20
20.8911929246208
 30
0.0
 11
34.96858208810693
 21
23.08135941826778
 31
0.0
  0
ARC
  5
31B
330
2
100
AcDbEntity
  8
0
100
AcDbCircle
 10
34.82383817506245
 20
20.89835094601801
 30
0.0
 40
0.144920797790691
100
AcDbArc
 50
287.2087967792047
 51
357.1688579939023
  0
LINE
  5
31C
330
2
100
AcDbEntity
  8
0
100
AcDbLine
 10
34.86671367611016
 20
20.7599178248313
 30
0.0
 11
34.15363631014805
 21
20.55407012023192
 31
0.0
  0
ARC
  5
31D
330
2
100
AcDbEntity
  8
0
100
AcDbCircle
 10
34.19651158301061
 20
20.41563717610953
 30
0.0
 40
0.1449205611424643
100
AcDbArc
 50
107.2087313155043
 51
177.1689234576016
  0
LINE
  5
31E
330
2
100
AcDbEntity
  8
0
100
AcDbLine
 10
34.05176789815128
 20
20.42279502044242
 30
0.0
 11
34.05176789815128
 21
19.09850832101405
 31
0.0
  0
ARC
  5
31F
330
2
100
AcDbEntity
  8
0
100
AcDbCircle
 10
33.90702548110218
 20
19.10566517312565
 30
0.0
 40
0.1449192458863639
100
AcDbArc
 50
287.2085247059974
 51
357.1692905096019
  0
LINE
  5
320
330
2
100
AcDbEntity
  8
0
100
AcDbLine
 10
33.94989986565537
 20
18.96723333077084
 30
0.0
 11
12.86318070714431
 21
12.88002183952068
 31
0.0
  0
LINE
  5
321
330
2
100
AcDbEntity
  8
0
100
AcDbLine
 10
31.81066738825632
 20
20.13238371209991
 30
0.0
 11
30.99572198978654
 21
19.89712923950954
 31
0.0
  0
LINE
  5
322
330
2
100
AcDbEntity
  8
0
100
AcDbLine
 10
31.81066738825632
 20
20.43798837883304
 30
0.0
 11
31.81066738825632
 21
20.13238371209991
 31
0.0
  0
LINE
  5
323
330
2
100
AcDbEntity
  8
0
100
AcDbLine
 10
31.81066738825632
 20
20.43798837883304
 30
0.0
 11
30.99572198978654
 21
20.20273390624268
 31
0.0
  0
LINE
  5
324
330
2
100
AcDbEntity
  8
0
100
AcDbLine
 10
30.99572198978654
 20
20.20273390624268
 30
0.0
 11
30.99572198978654
 21
19.89712923950954
 31
0.0
  0
LINE
  5
325
330
2
100
AcDbEntity
  8
0
100
AcDbLine
 10
17.65098696291276
 20
16.04483605948842
 30
0.0
 11
16.83604118495385
 21
15.80958147735177
 31
0.0
  0
LINE
  5
326
330
2
100
AcDbEntity
  8
0
100
AcDbLine
 10
17.65098696291276
 20
16.35044072622152
 30
0.0
 11
17.65098696291276
 21
16.04483605948842
 31
0.0
  0
LINE
  5
327
330
2
100
AcDbEntity
  8
0
100
AcDbLine
 10
17.65098696291276
 20
16.35044072622152
 30
0.0
 11
16.83604118495385
 21
16.11518614408489
 31
0.0
  0
LINE
  5
328
330
2
100
AcDbEntity
  8
0
100
AcDbLine
 10
16.83604118495385
 20
16.11518614408489
 30
0.0
 11
16.83604118495385
 21
15.80958147735177
 31
0.0
  0
LWPOLYLINE
  5
329
330
2
100
AcDbEntity
  8
0
100
AcDbPolyline
 90
        7
 70
   128
 43
0.0
 10
35.07511281610017
 20
19.72008924227401
 10
35.07506165675319
 20
19.72007453708888
 10
35.06614919370829
 20
19.71512429756163
 10
35.05883504960902
 20
19.70602169334899
 10
35.05339999836528
 20
19.69311699247069
 10
35.05005316889192
 20
19.67690561735245
 10
35.04892306209044
 20
19.65801078319347
  0
ARC
  5
32A
330
2
100
AcDbEntity
  8
0
100
AcDbCircle
 10
34.90438731233501
 20
18.12494906946279
 30
0.0
 40
0.7576144668071532
100
AcDbArc
 50
9.722545797200911
 51
42.76137260430018
  0
ARC
  5
32B
330
2
100
AcDbEntity
  8
0
100
AcDbCircle
 10
35.06254013727565
 20
23.08675521303282
 30
0.0
 40
0.0373455214265134
100
AcDbArc
 50
357.7657421884997
 51
111.3844477884984
  0
ARC
  5
32C
330
2
100
AcDbEntity
  8
0
100
AcDbCircle
 10
38.35518771727811
 20
20.23449001131503
 30
0.0
 40
0.0382626981269268
100
AcDbArc
 50
357.7524269360998
 51
47.59881152089817
  0
LWPOLYLINE
  5
32D
330
2
100
AcDbEntity
  8
0
100
AcDbPolyline
 90
        7
 70
   128
 43
0.0
 10
12.76131381311574
 20
16.67067326000053
 10
12.7618788665106
 20
16.68012043989637
 10
12.76355222646827
 20
16.68822641206645
 10
12.76626980686325
 20
16.6946785727669
 10
12.76992687891291
 20
16.69922987487324
 10
12.77438311043533
 20
16.70170508950915
 10
12.7744086353416
 20
16.70171258441308
  0
LWPOLYLINE
  5
32E
330
2
100
AcDbEntity
  8
0
100
AcDbPolyline
 90
        9
 70
   128
 43
0.0
 10
34.99798885609795
 20
23.10682623664132
 10
34.99225188799503
 20
23.11081589556735
 10
34.98673544189041
 20
23.11269512330608
 10
34.9816513854383
 20
23.11239124777641
 10
34.97719515391587
 20
23.10991603314051
 10
34.9735380818662
 20
23.10536473103416
 10
34.97082050145946
 20
23.09891257033369
 10
34.96914714150179
 20
23.09080659816362
 10
34.96858208810693
 20
23.08135941826778
  0
LINE
  5
32F
330
2
100
AcDbEntity
  8
0
100
AcDbLine
 10
34.99798885609795
 20
23.10682623664132
 30
0.0
 11
35.04892306209044
 21
23.12152967542171
 31
0.0
  0
ARC
  5
330
330
2
100
AcDbEntity
  8
0
100
AcDbCircle
 10
36.06709089670663
 20
17.92635397184375
 30
0.0
 40
0.3802923718684401
100
AcDbArc
 50
57.13646885050109
 51
107.6021069080993
  0
LINE
  5
331
330
2
100
AcDbEntity
  8
0
100
AcDbLine
 10
36.27345271919856
 20
18.24578641590641
 30
0.0
 11
39.15532080265862
 21
15.75001544527087
 31
0.0
  0
LWPOLYLINE
  5
332
330
2
100
AcDbEntity
  8
0
100
AcDbPolyline
 90
        9
 70
   128
 43
0.0
 10
39.06921126975694
 20
15.58933346794409
 10
39.10669880564017
 20
15.60276493076443
 10
39.13822409683371
 20
15.61959479652371
 10
39.16257758984166
 20
15.6391765045969
 10
39.17882276015727
 20
15.66075762657955
 10
39.18633488201195
 20
15.68350851462167
 10
39.18482595602881
 20
15.70655504963655
 10
39.17435397983988
 20
15.72901180312212
 10
39.15532080265862
 20
15.75001544527087
  0
LINE
  5
333
330
2
100
AcDbEntity
  8
0
100
AcDbLine
 10
39.06921126975694
 20
15.58933346794409
 30
0.0
 11
38.27463947778394
 21
15.35996034894487
 31
0.0
  0
LINE
  5
334
330
2
100
AcDbEntity
  8
0
100
AcDbLine
 10
35.95208860414845
 20
18.28884088306055
 30
0.0
 11
35.15751681217547
 21
18.05946776407311
 31
0.0
  0
LWPOLYLINE
  5
335
330
2
100
AcDbEntity
  8
0
100
AcDbPolyline
 90
        9
 70
   128
 43
0.0
 10
37.03648397658924
 20
16.93803153358626
 10
36.96747188109528
 20
16.90777044781286
 10
36.92687321778346
 20
16.86660761775703
 10
36.92086936221111
 20
16.8208098896337
 10
36.95037518896216
 20
16.77734978722065
 10
37.01089738107024
 20
16.74284333824114
 10
37.0932233008441
 20
16.72254421989643
 10
37.18481874555151
 20
16.71954254177414
 10
37.27173853134224
 20
16.73429511281903
  0
LINE
  5
336
330
2
100
AcDbEntity
  8
0
100
AcDbLine
 10
37.27173853134224
 20
16.73429511281903
 30
0.0
 11
37.47547535532401
 21
16.79310886790534
 31
0.0
  0
LWPOLYLINE
  5
337
330
2
100
AcDbEntity
  8
0
100
AcDbPolyline
 90
        9
 70
   128
 43
0.0
 10
37.47547535532401
 20
16.79310886790534
 10
37.54448820979617
 20
16.82337017277133
 10
37.58508611414157
 20
16.86453278373459
 10
37.59108996970212
 20
16.9103305118579
 10
37.56158414295106
 20
16.95379061427095
 10
37.501061950843
 20
16.98829706325046
 10
37.41873603106915
 20
17.00859618159519
 10
37.32714134533994
 20
17.01159807882178
 10
37.24022080057101
 20
16.99684528867258
  0
LINE
  5
338
330
2
100
AcDbEntity
  8
0
100
AcDbLine
 10
37.24022080057101
 20
16.99684528867258
 30
0.0
 11
37.03648397658924
 21
16.93803153358626
 31
0.0
  0
ARC
  5
339
330
2
100
AcDbEntity
  8
0
100
AcDbCircle
 10
36.06709089670663
 20
17.97728807704145
 30
0.0
 40
0.3802923718684968
100
AcDbArc
 50
57.13646885050109
 51
107.6021069080993
  0
LINE
  5
33A
330
2
100
AcDbEntity
  8
0
100
AcDbLine
 10
35.95208860414845
 20
18.33977498825825
 30
0.0
 11
35.15751681217547
 21
18.11040186927079
 31
0.0
  0
LINE
  5
33B
330
2
100
AcDbEntity
  8
0
100
AcDbLine
 10
39.15532080265862
 20
15.80094955045679
 30
0.0
 11
36.27345271919856
 21
18.29672052109234
 31
0.0
  0
ARC
  5
33C
330
2
100
AcDbEntity
  8
0
100
AcDbCircle
 10
35.13845268096594
 20
18.10815124543112
 30
0.0
 40
0.0522830991494575
100
AcDbArc
 50
177.7643096007017
 51
291.3849844367995
  0
ARC
  5
33D
330
2
100
AcDbEntity
  8
0
100
AcDbCircle
 10
35.15207009547055
 20
18.12431135407922
 30
0.0
 40
0.0149378877551237
100
AcDbArc
 50
177.7636323203018
 51
291.3844626885017
  0
ARC
  5
33E
330
2
100
AcDbEntity
  8
0
100
AcDbCircle
 10
38.25578759534093
 20
15.41265514663285
 30
0.0
 40
0.0559654819950564
100
AcDbArc
 50
231.2219891423968
 51
289.6849767793948
  0
LINE
  5
33F
330
2
100
AcDbEntity
  8
0
100
AcDbLine
 10
35.13714358516776
 20
18.12489426136483
 30
0.0
 11
35.13714358516776
 21
18.91946631423511
 31
0.0
  0
LWPOLYLINE
  5
340
330
2
100
AcDbEntity
  8
0
100
AcDbPolyline
 90
       13
 70
   128
 43
0.0
 10
35.60077943025763
 20
18.23836077112827
 10
35.59878542056848
 20
18.25023644113172
 10
35.57325317925905
 20
18.34894461404374
 10
35.53413555559783
 20
18.43967356399356
 10
35.48615071259856
 20
18.51148002456599
 10
35.43508633952605
 20
18.55570306887372
 10
35.38710149652677
 20
18.56700879436389
 10
35.34798387286553
 20
18.54403355607329
 10
35.32245174110239
 20
18.48954842745724
 10
35.31358452177611
 20
18.41012520300931
 10
35.32245174110239
 20
18.31534355158538
 10
35.34798387286553
 20
18.21663544981434
 10
35.36569892136809
 20
18.17049892892913
  0
LINE
  5
341
330
2
100
AcDbEntity
  8
0
100
AcDbLine
 10
35.08620937917525
 20
18.11019082259618
 30
0.0
 11
35.08620937917525
 21
18.97064561325733
 31
0.0
  0
LINE
  5
342
330
2
100
AcDbEntity
  8
0
100
AcDbLine
 10
12.83279499789569
 20
12.68449183336729
 30
0.0
 11
34.98822423483677
 21
19.08360898305805
 31
0.0
  0
ARC
  5
343
330
2
100
AcDbEntity
  8
0
100
AcDbCircle
 10
35.02105977311718
 20
19.16472543886207
 30
0.0
 40
0.0445998487020077
100
AcDbArc
 50
179.5141860577003
 51
222.5891435567023
  0
LINE
  5
344
330
2
100
AcDbEntity
  8
0
100
AcDbLine
 10
34.33584531663917
 20
20.57271331887349
 30
0.0
 11
34.33584531663917
 21
20.31804266838829
 31
0.0
  0
LINE
  5
345
330
2
100
AcDbEntity
  8
0
100
AcDbLine
 10
34.33584531663917
 20
20.31804266838829
 30
0.0
 11
34.69238437910936
 21
20.42096663023428
 31
0.0
  0
LINE
  5
346
330
2
100
AcDbEntity
  8
0
100
AcDbLine
 10
34.69238437910936
 20
20.42096663023428
 30
0.0
 11
34.69238437910936
 21
20.67563728071942
 31
0.0
  0
LINE
  5
347
330
2
100
AcDbEntity
  8
0
100
AcDbLine
 10
34.69238437910936
 20
19.70788926427211
 30
0.0
 11
34.69238437910936
 21
19.91162570875302
 31
0.0
  0
LINE
  5
348
330
2
100
AcDbEntity
  8
0
100
AcDbLine
 10
34.69238437910936
 20
19.91162570875302
 30
0.0
 11
34.33584531663917
 21
19.80870174690706
 31
0.0
  0
LINE
  5
349
330
2
100
AcDbEntity
  8
0
100
AcDbLine
 10
34.33584531663917
 20
19.80870174690706
 30
0.0
 11
34.33584531663917
 21
19.60496530241441
 31
0.0
  0
LINE
  5
34A
330
2
100
AcDbEntity
  8
0
100
AcDbLine
 10
34.33584531663917
 20
19.60496530241441
 30
0.0
 11
34.69238437910936
 21
19.70788926427211
 31
0.0
  0
LINE
  5
34B
330
2
100
AcDbEntity
  8
0
100
AcDbLine
 10
34.97646152764271
 20
19.16510359880165
 30
0.0
 11
34.97646152764271
 21
20.44254839244292
 31
0.0
  0
LINE
  5
34C
330
2
100
AcDbEntity
  8
0
100
AcDbLine
 10
34.97646152764271
 20
20.5052077177058
 30
0.0
 11
34.96858208810167
 21
20.89119292461637
 31
0.0
  0
LINE
  5
34D
330
2
100
AcDbEntity
  8
0
100
AcDbLine
 10
34.98822423483677
 20
19.08360898305805
 30
0.0
 11
35.03527517318275
 21
19.04286167518621
 31
0.0
  0
LINE
  5
34E
330
2
100
AcDbEntity
  8
0
100
AcDbLine
 10
35.03527517318275
 20
19.04286167518621
 30
0.0
 11
35.0547490121191
 21
19.04848328825866
 31
0.0
  0
LINE
  5
34F
330
2
100
AcDbEntity
  8
0
100
AcDbLine
 10
15.99606376978077
 20
9.947371540559384
 30
0.0
 11
16.04311470812677
 21
9.906624232687558
 31
0.0
  0
LINE
  5
350
330
2
100
AcDbEntity
  8
0
100
AcDbLine
 10
15.99606376978077
 20
9.947371540559384
 30
0.0
 11
15.84685339125304
 21
9.90429821446002
 31
0.0
  0
LINE
  5
351
330
2
100
AcDbEntity
  8
0
100
AcDbLine
 10
35.03527517318275
 20
19.09379578631232
 30
0.0
 11
34.98822423483677
 21
19.13454309418414
 31
0.0
  0
LINE
  5
352
330
2
100
AcDbEntity
  8
0
100
AcDbLine
 10
35.03527517318275
 20
19.09379578631232
 30
0.0
 11
35.03527517318275
 21
19.04286167518621
 31
0.0
  0
LINE
  5
353
330
2
100
AcDbEntity
  8
0
100
AcDbLine
 10
35.03527517318275
 20
19.09379578631232
 30
0.0
 11
35.04892310255421
 21
19.09773560415194
 31
0.0
  0
ARC
  5
354
330
2
100
AcDbEntity
  8
0
100
AcDbCircle
 10
39.10868537776868
 20
15.7381060924629
 30
0.0
 40
0.0782570320699875
100
AcDbArc
 50
2.951652952597925
 51
53.42130466590287
  0
ARC
  5
355
330
2
100
AcDbEntity
  8
0
100
AcDbCircle
 10
16.06173762842655
 20
9.923813917953999
 30
0.0
 40
0.0253436074779519
100
AcDbArc
 50
222.7082226247986
 51
279.5709915193965
  0
LINE
  5
356
330
2
100
AcDbEntity
  8
0
100
AcDbLine
 10
12.72973072564457
 20
12.65473974070257
 30
0.0
 11
12.83483086287732
 21
12.68507953696489
 31
0.0
  0
ARC
  5
357
330
2
100
AcDbEntity
  8
0
100
AcDbCircle
 10
12.72406666974709
 20
12.67374554061863
 30
0.0
 40
0.0198318420590685
100
AcDbArc
 50
266.2273906944031
 51
286.5949634005968
  0
LINE
  5
358
330
2
100
AcDbEntity
  8
0
100
AcDbLine
 10
15.82246441547274
 20
9.901558088833994
 30
0.0
 11
12.63679395299528
 21
12.66042963742422
 31
0.0
  0
ARC
  5
359
330
2
100
AcDbEntity
  8
0
100
AcDbCircle
 10
15.82703276485259
 20
9.970805954761239
 30
0.0
 40
0.0693983915659839
100
AcDbArc
 50
266.2256106961
 51
286.5951008250991
  0
LINE
  5
35A
330
2
100
AcDbEntity
  8
0
100
AcDbLine
 10
10.32032093303826
 20
12.83484888395812
 30
0.0
 11
12.72276179629743
 21
12.65395667342865
 31
0.0
  0
LINE
  5
35B
330
2
100
AcDbEntity
  8
0
100
AcDbLine
 10
12.68399926729113
 20
10.13786928601711
 30
0.0
 11
15.82246441547274
 21
9.901558088833994
 31
0.0
  0
LINE
  5
35C
330
2
100
AcDbEntity
  8
0
100
AcDbLine
 10
9.542384364543384
 20
12.72007108705925
 30
0.0
 11
9.543868924095988
 21
12.72457781713399
 31
0.0
  0
LINE
  5
35D
330
2
100
AcDbEntity
  8
0
100
AcDbLine
 10
10.53052374697064
 20
12.62703454698191
 30
0.0
 11
9.976758747069823
 21
10.94572205877129
 31
0.0
  0
ARC
  5
35E
330
2
100
AcDbEntity
  8
0
100
AcDbCircle
 10
9.835655706211868
 20
10.99268058667416
 30
0.0
 40
0.1487117059416807
100
AcDbArc
 50
287.767160910703
 51
341.5927637648011
  0
LINE
  5
35F
330
2
100
AcDbEntity
  8
0
100
AcDbLine
 10
9.881035015109116
 20
10.85106176797935
 30
0.0
 11
8.968220635407158
 21
10.58755495406138
 31
0.0
  0
LINE
  5
360
330
2
100
AcDbEntity
  8
0
100
AcDbLine
 10
10.26576735338399
 20
11.34686430016838
 30
0.0
 11
10.19956935540203
 21
11.14587753908219
 31
0.0
  0
ARC
  5
361
330
2
100
AcDbEntity
  8
0
100
AcDbCircle
 10
10.24347830501676
 20
11.12853627393776
 30
0.0
 40
0.0472092716866885
100
AcDbArc
 50
158.4491067601987
 51
218.9439832005031
  0
LINE
  5
362
330
2
100
AcDbEntity
  8
0
100
AcDbLine
 10
10.20676078115652
 20
11.09886240032581
 30
0.0
 11
10.5243544232213
 21
10.82381823822198
 31
0.0
  0
LWPOLYLINE
  5
363
330
2
100
AcDbEntity
  8
0
100
AcDbPolyline
 90
        9
 70
   128
 43
0.0
 10
10.5243544232213
 20
10.82381823822198
 10
10.52799850299763
 20
10.82144736404587
 10
10.53190345265565
 20
10.82038684229189
 10
10.53591931658532
 20
10.82067753610958
 10
10.53989241911999
 20
10.82230847815563
 10
10.54367142881045
 20
10.82521745109612
 10
10.54710826627223
 20
10.82929172408268
 10
10.55007353430756
 20
10.83437544802602
 10
10.55245117383972
 20
10.84027291978815
  0
LINE
  5
364
330
2
100
AcDbEntity
  8
0
100
AcDbLine
 10
10.55245117383972
 20
10.84027291978815
 30
0.0
 11
10.61864917182168
 21
11.04125968086258
 31
0.0
  0
ARC
  5
365
330
2
100
AcDbEntity
  8
0
100
AcDbCircle
 10
10.47230020482337
 20
11.09906537720496
 30
0.0
 40
0.1573515766398919
100
AcDbArc
 50
338.4467067232994
 51
38.94685972649911
  0
LINE
  5
366
330
2
100
AcDbEntity
  8
0
100
AcDbLine
 10
10.59467713710436
 20
11.19797647424028
 30
0.0
 11
10.359422609735
 21
11.40171287129387
 31
0.0
  0
LWPOLYLINE
  5
367
330
2
100
AcDbEntity
  8
0
100
AcDbPolyline
 90
        9
 70
   128
 43
0.0
 10
10.359422609735
 20
11.40171287129387
 10
10.34727920079363
 20
11.40961720295998
 10
10.33426217766882
 20
11.41315201871653
 10
10.32087453792368
 20
11.41218252207399
 10
10.30762988737223
 20
11.40674572485335
 10
10.29503618778965
 20
11.3970500563813
 10
10.28357800244015
 20
11.38346859378187
 10
10.27369480589018
 20
11.36652290225953
 10
10.26576735338399
 20
11.34686430016838
  0
LINE
  5
368
330
2
100
AcDbEntity
  8
0
100
AcDbLine
 10
12.65788589515019
 20
10.1181541631279
 30
0.0
 11
12.56033150998553
 21
9.821963228352476
 31
0.0
  0
LINE
  5
369
330
2
100
AcDbEntity
  8
0
100
AcDbLine
 10
12.60738244833151
 20
9.781215920480651
 30
0.0
 11
12.56033150998553
 21
9.821963228352476
 31
0.0
  0
LINE
  5
36A
330
2
100
AcDbEntity
  8
0
100
AcDbLine
 10
12.60738244833151
 20
9.781215920480651
 30
0.0
 11
12.4148724162121
 21
9.196724889971509
 31
0.0
  0
LWPOLYLINE
  5
36B
330
2
100
AcDbEntity
  8
0
100
AcDbPolyline
 90
        9
 70
   128
 43
0.0
 10
12.35259647110521
 20
9.145346617431965
 10
12.357804278399
 20
9.158674847864924
 10
12.36414620539575
 20
9.170538619963917
 10
12.37145117433257
 20
9.180616707506169
 10
12.37951827865265
 20
9.188635342814929
 10
12.38813144635032
 20
9.194377984045882
 10
12.3970548078913
 20
9.197688531763636
 10
12.40605063032543
 20
9.198478213877779
 10
12.4148724162121
 20
9.196724889971509
  0
LINE
  5
36C
330
2
100
AcDbEntity
  8
0
100
AcDbLine
 10
12.35259647110521
 20
9.145346617431965
 30
0.0
 11
12.26897690873368
 21
8.891468248694213
 31
0.0
  0
ARC
  5
36D
330
2
100
AcDbEntity
  8
0
100
AcDbCircle
 10
12.40153652063325
 20
8.844693015322585
 30
0.0
 40
0.1405701716788159
100
AcDbArc
 50
160.564005555002
 51
207.8755931542001
  0
LINE
  5
36E
330
2
100
AcDbEntity
  8
0
100
AcDbLine
 10
12.27727742590718
 20
8.778968966907868
 30
0.0
 11
12.00314697755899
 21
7.946667184213431
 31
0.0
  0
LINE
  5
36F
330
2
100
AcDbEntity
  8
0
100
AcDbLine
 10
12.00314697755899
 20
7.946667184213431
 30
0.0
 11
11.95609603922475
 21
7.987414492085227
 31
0.0
  0
LINE
  5
370
330
2
100
AcDbEntity
  8
0
100
AcDbLine
 10
11.95609603922475
 20
7.987414492085227
 30
0.0
 11
11.89129455941732
 21
7.790663762645429
 31
0.0
  0
LINE
  5
371
330
2
100
AcDbEntity
  8
0
100
AcDbLine
 10
8.827539266921045
 20
10.65220755600206
 30
0.0
 11
8.774171893820611
 21
10.49017117777365
 31
0.0
  0
LINE
  5
372
330
2
100
AcDbEntity
  8
0
100
AcDbLine
 10
10.29811181693087
 20
10.06806038243124
 30
0.0
 11
10.36430981491283
 21
10.26904719094475
 31
0.0
  0
ARC
  5
373
330
2
100
AcDbEntity
  8
0
100
AcDbCircle
 10
10.32040564817586
 20
10.28638911496658
 30
0.0
 40
0.0472050652589941
100
AcDbArc
 50
338.4462305090011
 51
38.94700718389577
  0
LINE
  5
374
330
2
100
AcDbEntity
  8
0
100
AcDbLine
 10
10.35711833438736
 20
10.31606228226032
 30
0.0
 11
10.03952469231452
 21
10.59110644437766
 31
0.0
  0
LWPOLYLINE
  5
375
330
2
100
AcDbEntity
  8
0
100
AcDbPolyline
 90
        9
 70
   128
 43
0.0
 10
10.03952469231452
 20
10.59110644437766
 10
10.0358821304946
 20
10.593477851617
 10
10.03197718083657
 20
10.59453837337102
 10
10.02796137168595
 20
10.59424763211424
 10
10.02398672381125
 20
10.59261627559673
 10
10.02020923207721
 20
10.58970774084136
 10
10.01677087664725
 20
10.58563302965794
 10
10.01380712656829
 20
10.58054964904508
 10
10.01142799648688
 20
10.57465181023879
  0
LINE
  5
376
330
2
100
AcDbEntity
  8
0
100
AcDbLine
 10
10.01142799648688
 20
10.57465181023879
 30
0.0
 11
9.945229998493161
 21
10.37366500172529
 31
0.0
  0
ARC
  5
377
330
2
100
AcDbEntity
  8
0
100
AcDbCircle
 10
10.09157742652682
 20
10.3158605019228
 30
0.0
 40
0.1573497057137605
100
AcDbArc
 50
158.4469060871017
 51
218.9477876243987
  0
LINE
  5
378
330
2
100
AcDbEntity
  8
0
100
AcDbLine
 10
9.969203551166891
 20
10.21694859911713
 30
0.0
 11
10.20445807853626
 21
10.01321220206355
 31
0.0
  0
LWPOLYLINE
  5
379
330
2
100
AcDbEntity
  8
0
100
AcDbPolyline
 90
        9
 70
   128
 43
0.0
 10
10.20445807853626
 20
10.01321220206355
 10
10.21660146008223
 20
10.00530803641657
 10
10.22961693786703
 20
10.00177275874949
 10
10.24300463239118
 20
10.00274220795296
 10
10.25624928294262
 20
10.00817905261266
 10
10.26884447309797
 20
10.01787504068977
 10
10.28030268583115
 20
10.03145652700285
 10
10.29018430964567
 20
10.04840187520648
 10
10.29811181693087
 20
10.06806038243124
  0
ARC
  5
37A
330
2
100
AcDbEntity
  8
0
100
AcDbCircle
 10
10.28699377746853
 20
12.53429979455018
 30
0.0
 40
0.3023738210548728
100
AcDbArc
 50
53.53777866930066
 51
85.22706836749945
  0
LINE
  5
37B
330
2
100
AcDbEntity
  8
0
100
AcDbLine
 10
9.492022799492913
 20
12.79666797410117
 30
0.0
 11
9.539073628280869
 21
12.75592076109576
 31
0.0
  0
ARC
  5
37C
330
2
100
AcDbEntity
  8
0
100
AcDbCircle
 10
8.941289713628165
 20
10.66284093295117
 30
0.0
 40
0.0799578211682077
100
AcDbArc
 50
231.2247871519014
 51
289.6828904016977
  0
LINE
  5
37D
330
2
100
AcDbEntity
  8
0
100
AcDbLine
 10
9.546354450314924
 20
12.8932859022537
 30
0.0
 11
10.31215341376271
 21
12.83562506790759
 31
0.0
  0
LINE
  5
37E
330
2
100
AcDbEntity
  8
0
100
AcDbLine
 10
10.51374313800783
 20
12.7367363913478
 30
0.0
 11
10.46669230921989
 21
12.77748360434146
 31
0.0
  0
ARC
  5
37F
330
2
100
AcDbEntity
  8
0
100
AcDbCircle
 10
10.42807780861837
 20
12.66749819225325
 30
0.0
 40
0.1101475232207692
100
AcDbArc
 50
338.4471897567032
 51
38.94655127819965
  0
ARC
  5
380
330
2
100
AcDbEntity
  8
0
100
AcDbCircle
 10
9.514599736349738
 20
12.73613809322765
 30
0.0
 40
0.0314694349235954
100
AcDbArc
 50
338.4477632986979
 51
38.94920519329829
  0
ARC
  5
381
330
2
100
AcDbEntity
  8
0
100
AcDbCircle
 10
8.675394296587015
 20
10.52304777365334
 30
0.0
 40
0.1041051596784596
100
AcDbArc
 50
287.7679525381047
 51
341.5907760378
  0
ARC
  5
382
330
2
100
AcDbEntity
  8
0
100
AcDbCircle
 10
11.79251696218372
 20
7.823540358525093
 30
0.0
 40
0.1041051596783711
100
AcDbArc
 50
287.7679525381047
 51
341.5907760378996
  0
LINE
  5
383
330
2
100
AcDbEntity
  8
0
100
AcDbLine
 10
11.82428597370851
 20
7.724400991077213
 30
0.0
 11
8.707163308100067
 21
10.42390840620546
 31
0.0
  0
ARC
  5
384
330
2
100
AcDbEntity
  8
0
100
AcDbCircle
 10
10.90860433054388
 20
7.855746110864567
 30
0.0
 40
0.3802870418139823
100
AcDbArc
 50
237.1360984817977
 51
287.6022525421955
  0
LINE
  5
385
330
2
100
AcDbEntity
  8
0
100
AcDbLine
 10
10.70224333552454
 20
7.536319477800848
 30
0.0
 11
7.820375252064482
 21
10.03209044844815
 31
0.0
  0
LWPOLYLINE
  5
386
330
2
100
AcDbEntity
  8
0
100
AcDbPolyline
 90
        9
 70
   128
 43
0.0
 10
7.906483267009758
 20
10.19277198757807
 10
7.868997249094695
 20
10.17934096294281
 10
7.837471957889388
 20
10.16251109718354
 10
7.813117705914997
 20
10.14292917001782
 10
7.796872535587607
 20
10.12134804803515
 10
7.789361172711149
 20
10.09859737908558
 10
7.790868580737859
 20
10.07555040587384
 10
7.801342074883176
 20
10.05309409058513
 10
7.820375252064482
 20
10.03209044844815
  0
LINE
  5
387
330
2
100
AcDbEntity
  8
0
100
AcDbLine
 10
7.906483267009758
 20
10.19277198757807
 30
0.0
 11
8.707163308100067
 21
10.42390840620546
 31
0.0
  0
LINE
  5
388
330
2
100
AcDbEntity
  8
0
100
AcDbLine
 10
11.82428597370851
 20
7.724400991077213
 30
0.0
 11
11.02360593261822
 21
7.493264572449854
 31
0.0
  0
LWPOLYLINE
  5
389
330
2
100
AcDbEntity
  8
0
100
AcDbPolyline
 90
        9
 70
   128
 43
0.0
 10
9.703956005424435
 20
9.047810342691361
 10
9.790876550205151
 20
9.06256313284058
 10
9.882472753878996
 20
9.059561673810835
 10
9.964797155696427
 20
9.039262117269238
 10
10.02532010678269
 20
9.00475588739405
 10
10.05482517455557
 20
8.961295565888452
 10
10.0488228369514
 20
8.915498275950243
 10
10.00822341464962
 20
8.874335226790092
 10
9.939210560177453
 20
8.844073921924128
  0
LINE
  5
38A
330
2
100
AcDbEntity
  8
0
100
AcDbLine
 10
9.500220699399072
 20
8.988997025813695
 30
0.0
 11
9.703956005424435
 21
9.047810342691361
 31
0.0
  0
LWPOLYLINE
  5
38B
330
2
100
AcDbEntity
  8
0
100
AcDbPolyline
 90
        9
 70
   128
 43
0.0
 10
9.735475254152067
 20
8.785260605034681
 10
9.64855470938316
 20
8.77050781489725
 10
9.556958505709292
 20
8.773509273926952
 10
9.474634103880099
 20
8.793808830468567
 10
9.414111152805551
 20
8.828315060343733
 10
9.384606085020982
 20
8.871775381849371
 10
9.390608422636885
 20
8.91757267178758
 10
9.431207844926904
 20
8.958735720935944
 10
9.500220699399072
 20
8.988997025813695
  0
LINE
  5
38C
330
2
100
AcDbEntity
  8
0
100
AcDbLine
 10
9.939210560177453
 20
8.844073921924128
 30
0.0
 11
9.735475254152067
 21
8.785260605034681
 31
0.0
  0
LWPOLYLINE
  5
38D
330
2
100
AcDbEntity
  8
0
100
AcDbPolyline
 90
        6
 70
   128
 43
0.0
 10
9.49344546869187
 20
12.87914953256436
 10
9.495893360982707
 20
12.88346435616827
 10
9.503084790571863
 20
12.88870635353423
 10
9.514200107351033
 20
12.89216717604366
 10
9.528810570677467
 20
12.89371363299575
 10
9.546354450314924
 20
12.8932859022537
  0
ARC
  5
38E
330
2
100
AcDbEntity
  8
0
100
AcDbCircle
 10
12.68449205486591
 20
10.11006497121744
 30
0.0
 40
0.0278086813964029
100
AcDbArc
 50
91.01537091239794
 51
163.0889158813018
  0
LINE
  5
38F
330
2
100
AcDbEntity
  8
0
100
AcDbLine
 10
10.359422609735
 20
11.40171287129387
 30
0.0
 11
10.31155998477643
 21
11.40531673725846
 31
0.0
  0
LINE
  5
390
330
2
100
AcDbEntity
  8
0
100
AcDbLine
 10
10.31155998477643
 20
11.40531673725846
 30
0.0
 11
10.30891271317774
 21
11.40747453503079
 31
0.0
  0
ARC
  5
391
330
2
100
AcDbEntity
  8
0
100
AcDbCircle
 10
12.30533155665973
 20
8.87586717738243
 30
0.0
 40
0.1112308915961338
100
AcDbArc
 50
271.0145916048981
 51
343.0899246265999
  0
LINE
  5
392
330
2
100
AcDbEntity
  8
0
100
AcDbLine
 10
12.49537114141193
 20
9.097391424056848
 30
0.0
 11
12.41175309698505
 21
8.843513398637798
 31
0.0
  0
ARC
  5
393
330
2
100
AcDbEntity
  8
0
100
AcDbCircle
 10
12.438980999383
 20
9.125324942792653
 30
0.0
 40
0.0629295605178019
100
AcDbArc
 50
333.6479453033983
 51
82.98683627679997
  0
LINE
  5
394
330
2
100
AcDbEntity
  8
0
100
AcDbLine
 10
12.63828959833112
 20
9.769587471466669
 30
0.0
 11
12.76273151245659
 21
9.760217460636628
 31
0.0
  0
LINE
  5
395
330
2
100
AcDbEntity
  8
0
100
AcDbLine
 10
12.80802575831004
 20
9.897735076769059
 30
0.0
 11
12.76273151245659
 21
9.760217460636628
 31
0.0
  0
ARC
  5
396
330
2
100
AcDbEntity
  8
0
100
AcDbCircle
 10
12.65823942572704
 20
8.653462466276851
 30
0.0
 40
0.0235982944370488
100
AcDbArc
 50
153.6475781335009
 51
262.9889434904
  0
LINE
  5
397
330
2
100
AcDbEntity
  8
0
100
AcDbLine
 10
12.83723575774226
 20
8.616346067985105
 30
0.0
 11
12.6553589972554
 21
8.63004062535994
 31
0.0
  0
ARC
  5
398
330
2
100
AcDbEntity
  8
0
100
AcDbCircle
 10
12.83477490244379
 20
8.755361845981928
 30
0.0
 40
0.1390375573001953
100
AcDbArc
 50
271.0141431409009
 51
343.090327202499
  0
LINE
  5
399
330
2
100
AcDbEntity
  8
0
100
AcDbLine
 10
13.10716602584849
 20
9.13805129786019
 30
0.0
 11
12.96780110052571
 21
8.714920864733384
 31
0.0
  0
ARC
  5
39A
330
2
100
AcDbEntity
  8
0
100
AcDbCircle
 10
13.03667625658478
 20
9.172966912057745
 30
0.0
 40
0.0786632549898603
100
AcDbArc
 50
333.6494597713008
 51
82.98569660479946
  0
LINE
  5
39B
330
2
100
AcDbEntity
  8
0
100
AcDbLine
 10
12.86440410829909
 20
9.2647355940235
 30
0.0
 11
13.04628238674231
 21
9.251041427418218
 31
0.0
  0
ARC
  5
39C
330
2
100
AcDbEntity
  8
0
100
AcDbCircle
 10
12.86514258550914
 20
9.223030949934129
 30
0.0
 40
0.0417111817996311
100
AcDbArc
 50
91.01444831259716
 51
163.090321184198
  0
LINE
  5
39D
330
2
100
AcDbEntity
  8
0
100
AcDbLine
 10
12.63709345013695
 20
8.663937542251796
 30
0.0
 11
12.82523480906002
 21
9.235163223666297
 31
0.0
  0
LINE
  5
39E
330
2
100
AcDbEntity
  8
0
100
AcDbLine
 10
13.24091558129568
 20
8.118879318394579
 30
0.0
 11
13.79468058118472
 21
9.800191806616982
 31
0.0
  0
ARC
  5
39F
330
2
100
AcDbEntity
  8
0
100
AcDbCircle
 10
13.09981254042594
 20
8.165837846297456
 30
0.0
 40
0.1487117059416675
100
AcDbArc
 50
287.767160910703
 51
341.5927637648011
  0
LINE
  5
3A0
330
2
100
AcDbEntity
  8
0
100
AcDbLine
 10
13.14519184932317
 20
8.024219027614428
 30
0.0
 11
13.01919411755187
 21
7.987846615435437
 31
0.0
  0
SPLINE
  5
3A1
330
2
100
AcDbEntity
  8
0
100
AcDbSpline
210
0.0
220
0.0
230
1.0
 70
     8
 71
     3
 72
    11
 73
     7
 74
     0
 42
0.000000001
 43
0.0000000001
 40
0.0
 40
0.0
 40
0.0
 40
0.0
 40
0.2500008980131977
 40
0.4999945491153201
 40
0.7499934820642217
 40
1.0
 40
1.0
 40
1.0
 40
1.0
 10
12.27727742590227
 20
8.778968966903804
 30
0.0
 10
12.27903325604331
 20
8.77738868254174
 30
0.0
 10
12.28254486542813
 20
8.774228159626176
 30
0.0
 10
12.29063826479159
 20
8.769855242135754
 30
0.0
 10
12.29946567170173
 20
8.766351356007843
 30
0.0
 10
12.30468928172198
 20
8.765219607578389
 30
0.0
 10
12.30730112635266
 20
8.764653724779472
 30
0.0
  0
ARC
  5
3A2
330
2
100
AcDbEntity
  8
0
100
AcDbCircle
 10
12.86313438024323
 20
9.888920317465101
 30
0.0
 40
0.0558091407676239
100
AcDbArc
 50
97.9900534627003
 51
170.9123793011017
  0
LWPOLYLINE
  5
3A3
330
2
100
AcDbEntity
  8
0
100
AcDbPolyline
 90
        9
 70
   128
 43
0.0
 10
13.81341069976944
 20
9.8111613338147
 10
13.81098228870742
 20
9.812742240359995
 10
13.80837945840934
 20
9.813449369302224
 10
13.80570228881654
 20
9.813255510171664
 10
13.80305306607546
 20
9.812168053607404
 10
13.8005336532392
 20
9.810228801554085
 10
13.79824297076166
 20
9.807512733998695
 10
13.79626514996101
 20
9.804123197709429
 10
13.79468058118472
 20
9.800191806616982
  0
LINE
  5
3A4
330
2
100
AcDbEntity
  8
0
100
AcDbLine
 10
13.81341069976944
 20
9.8111613338147
 30
0.0
 11
13.8604615285574
 21
9.770414120821049
 31
0.0
  0
LINE
  5
3A5
330
2
100
AcDbEntity
  8
0
100
AcDbLine
 10
13.83083226415905
 20
9.864052941478025
 30
0.0
 11
13.87788309294698
 21
9.823305728484378
 31
0.0
  0
LWPOLYLINE
  5
3A6
330
2
100
AcDbEntity
  8
0
100
AcDbPolyline
 90
        9
 70
   128
 43
0.0
 10
13.82355144213674
 20
9.726687800331855
 10
13.84109532177419
 20
9.726260069589784
 10
13.85570578510063
 20
9.727806526530105
 10
13.8668211018798
 20
9.731267349051304
 10
13.87401253146895
 20
9.736509346417243
 10
13.87700386801323
 20
9.743331095499225
 10
13.87568239422665
 20
9.751471162733892
 10
13.87009733135879
 20
9.760616068630632
 10
13.8604615285574
 20
9.770414120821049
  0
LINE
  5
3A7
330
2
100
AcDbEntity
  8
0
100
AcDbLine
 10
13.77175579692448
 20
9.730587922025559
 30
0.0
 11
13.82355144213674
 21
9.726687800331855
 31
0.0
  0
LWPOLYLINE
  5
3A8
330
2
100
AcDbEntity
  8
0
100
AcDbPolyline
 90
        5
 70
   128
 43
0.0
 10
13.87788309294698
 20
9.823305728484378
 10
13.88751737779194
 20
9.81350723809707
 10
13.89310244065983
 20
9.80436233220033
 10
13.89442543240279
 20
9.796222703162548
 10
13.89388047018119
 20
9.793715339475873
  0
ARC
  5
3A9
330
2
100
AcDbEntity
  8
0
100
AcDbCircle
 10
12.64332358781717
 20
9.829855409262572
 30
0.0
 40
0.0604778089636979
100
AcDbArc
 50
233.5382219833978
 51
265.2253486921048
  0
SPLINE
  5
3AA
330
2
100
AcDbEntity
  8
0
100
AcDbSpline
210
0.0
220
0.0
230
1.0
 70
     8
 71
     3
 72
    11
 73
     7
 74
     0
 42
0.000000001
 43
0.0000000001
 40
0.0
 40
0.0
 40
0.0
 40
0.0
 40
0.2499849550576336
 40
0.5000043246191953
 40
0.7500107420831888
 40
1.0
 40
1.0
 40
1.0
 40
1.0
 10
12.44666453371565
 20
9.187783672265204
 30
0.0
 10
12.44390542250405
 20
9.187901814059916
 30
0.0
 10
12.43838682024424
 20
9.188138113913474
 30
0.0
 10
12.42911704876279
 20
9.190298143919086
 30
0.0
 10
12.4205796382937
 20
9.193326564468504
 30
0.0
 10
12.41677478004634
 20
9.195592140724727
 30
0.0
 10
12.41487241621289
 20
9.196724889976255
 30
0.0
  0
LINE
  5
3AB
330
2
100
AcDbEntity
  8
0
100
AcDbLine
 10
6.462831754254532
 20
12.25411053223935
 30
0.0
 11
6.447117352207046
 21
12.25551513299539
 31
0.0
  0
LINE
  5
3AC
330
2
100
AcDbEntity
  8
0
100
AcDbLine
 10
8.985686802223218
 20
11.80622231398446
 30
0.0
 11
8.502964739403852
 21
12.22427188335737
 31
0.0
  0
ARC
  5
3AD
330
2
100
AcDbEntity
  8
0
100
AcDbCircle
 10
7.572334573851017
 20
9.002632824849214
 30
0.0
 40
0.0286733472881117
100
AcDbArc
 50
331.1040592006984
 51
32.48287448140393
  0
ELLIPSE
  5
3AE
330
2
100
AcDbEntity
  8
0
100
AcDbEllipse
 10
7.591982508595435
 20
8.927984091316162
 30
0.0
 11
0.069382631217861
 21
0.1106989237729516
 31
0.0
210
0.0
220
0.0
230
1.0
 40
0.2945542466
 41
6.237537654344557
 42
6.941786914968744
  0
ELLIPSE
  5
3AF
330
2
100
AcDbEntity
  8
0
100
AcDbEllipse
 10
7.581078499176404
 20
8.919751751838678
 30
0.0
 11
0.1189759045803074
 21
0.0255021672174231
 31
0.0
210
0.0
220
0.0
230
1.0
 40
0.2601647544
 41
2.693902237372129
 42
3.335243632973141
  0
LINE
  5
3B0
330
2
100
AcDbEntity
  8
0
100
AcDbLine
 10
9.61733807676175
 20
13.3253006608645
 30
0.0
 11
9.421007353045865
 21
12.72921022572614
 31
0.0
  0
LINE
  5
3B1
330
2
100
AcDbEntity
  8
0
100
AcDbLine
 10
6.405578086993966
 20
13.56798215114334
 30
0.0
 11
7.345742769631405
 21
12.75377565223597
 31
0.0
  0
LINE
  5
3B2
330
2
100
AcDbEntity
  8
0
100
AcDbLine
 10
12.12277966224851
 20
11.11245079178321
 30
0.0
 11
12.13150086654895
 21
11.1048980073099
 31
0.0
  0
LINE
  5
3B3
330
2
100
AcDbEntity
  8
0
100
AcDbLine
 10
12.65788589515019
 20
10.1181541631279
 30
0.0
 11
10.35971353667817
 21
12.10842980784232
 31
0.0
  0
LINE
  5
3B4
330
2
100
AcDbEntity
  8
0
100
AcDbLine
 10
31.47243794595807
 20
19.09286346441171
 30
0.0
 11
31.51795622289721
 21
19.06609118438622
 31
0.0
  0
LINE
  5
3B5
330
2
100
AcDbEntity
  8
0
100
AcDbLine
 10
6.650031005684495
 20
13.73659056685266
 30
0.0
 11
6.693632114647467
 21
13.76486088227421
 31
0.0
  0
LINE
  5
3B6
330
2
100
AcDbEntity
  8
0
100
AcDbLine
 10
7.998935228906087
 20
13.63441690220489
 30
0.0
 11
8.00829579230179
 21
13.61117627209917
 31
0.0
  0
ARC
  5
3B7
330
2
100
AcDbEntity
  8
0
100
AcDbCircle
 10
9.511387004418867
 20
12.8262581146456
 30
0.0
 40
0.0353631001165609
100
AcDbArc
 50
179.9999999999999
 51
236.7986991297097
  0
LINE
  5
3B8
330
2
100
AcDbEntity
  8
0
100
AcDbLine
 10
34.69238437910936
 20
20.67563728071942
 30
0.0
 11
34.33584531663917
 21
20.57271331887349
 31
0.0
  0
ARC
  5
3B9
330
2
100
AcDbEntity
  8
0
100
AcDbCircle
 10
13.81262478867979
 20
9.847513295533094
 30
0.0
 40
0.0245982123600832
100
AcDbArc
 50
42.25196494832273
 51
89.99999999999939
  0
ARC
  5
3BA
330
2
100
AcDbEntity
  8
0
100
AcDbCircle
 10
11.82649410374822
 20
11.59758105642889
 30
0.0
 40
0.036550811511282
100
AcDbArc
 50
306.7378456754327
 51
0.0
  0
ARC
  5
3BB
330
2
100
AcDbEntity
  8
0
100
AcDbCircle
 10
11.56386472876737
 20
11.46848838155078
 30
0.0
 40
0.5526193212021769
100
AcDbArc
 50
37.87897658188858
 51
60.33423412112778
  0
LINE
  5
3BC
330
2
100
AcDbEntity
  8
0
100
AcDbLine
 10
11.16658368682137
 20
12.03077408997376
 30
0.0
 11
11.24686251884652
 21
12.06748612241658
 31
0.0
  0
SPLINE
  5
3BD
330
2
100
AcDbEntity
  8
0
100
AcDbSpline
210
0.0
220
0.0
230
1.0
 70
     8
 71
     3
 72
    10
 73
     6
 74
     0
 42
0.000000001
 43
0.0000000001
 40
0.0
 40
0.0
 40
0.0
 40
0.0
 40
0.223414656091903
 40
0.6496074072459033
 40
1.0
 40
1.0
 40
1.0
 40
1.0
 10
11.28707427313817
 20
12.13034505039151
 30
0.0
 10
11.29289216971005
 20
12.14283253528221
 30
0.0
 10
11.30980846684915
 20
12.17914153499052
 30
0.0
 10
11.35462603958445
 20
12.22095222368906
 30
0.0
 10
11.38594855384325
 20
12.2388316169077
 30
0.0
 10
11.4000811627945
 20
12.24689873663368
 30
0.0
  0
LINE
  5
3BE
330
2
100
AcDbEntity
  8
0
100
AcDbLine
 10
11.27490856946419
 20
12.10692207277656
 30
0.0
 11
11.28707427313754
 21
12.13034505039637
 31
0.0
  0
SPLINE
  5
3BF
330
2
100
AcDbEntity
  8
0
100
AcDbSpline
210
0.0
220
0.0
230
1.0
 70
     8
 71
     3
 72
     9
 73
     5
 74
     0
 42
0.000000001
 43
0.0000000001
 40
0.0
 40
0.0
 40
0.0
 40
0.0
 40
0.3637854744933605
 40
1.0
 40
1.0
 40
1.0
 40
1.0
 10
10.90749276713272
 20
12.38059423614791
 30
0.0
 10
10.90566702323117
 20
12.3904473064561
 30
0.0
 10
10.90064828545965
 20
12.41753214353465
 30
0.0
 10
10.8945563088439
 20
12.44383004703957
 30
0.0
 10
10.89068050483193
 20
12.46056115523977
 30
0.0
  0
SPLINE
  5
3C0
330
2
100
AcDbEntity
  8
0
100
AcDbSpline
210
0.0
220
0.0
230
1.0
 70
     8
 71
     3
 72
     9
 73
     5
 74
     0
 42
0.000000001
 43
0.0000000001
 40
0.0
 40
0.0
 40
0.0
 40
0.0
 40
0.4931078804754943
 40
1.0
 40
1.0
 40
1.0
 40
1.0
 10
11.23295740249592
 20
12.35608841294789
 30
0.0
 10
11.22365015582701
 20
12.33984543348044
 30
0.0
 10
11.2047754895777
 20
12.3069054215467
 30
0.0
 10
11.19430192191901
 20
12.27001221008617
 30
0.0
 10
11.18899295300953
 20
12.25131133193287
 30
0.0
  0
SPLINE
  5
3C1
330
2
100
AcDbEntity
  8
0
100
AcDbSpline
210
0.0
220
0.0
230
1.0
 70
     8
 71
     3
 72
     9
 73
     5
 74
     0
 42
0.000000001
 43
0.0000000001
 40
0.0
 40
0.0
 40
0.0
 40
0.0
 40
0.3964137364449641
 40
1.0
 40
1.0
 40
1.0
 40
1.0
 10
11.18899295300953
 20
12.25131133193287
 30
0.0
 10
11.18155057203105
 20
12.24262102601747
 30
0.0
 10
11.1627762958286
 20
12.22069871325066
 30
0.0
 10
11.14227262541521
 20
12.20186346495726
 30
0.0
 10
11.12989689160121
 20
12.19049476781673
 30
0.0
  0
LINE
  5
3C2
330
2
100
AcDbEntity
  8
0
100
AcDbLine
 10
10.9059606464123
 20
12.20735584762288
 30
0.0
 11
10.91732766285102
 21
12.27176664386802
 31
0.0
  0
SPLINE
  5
3C3
330
2
100
AcDbEntity
  8
0
100
AcDbSpline
210
0.0
220
0.0
230
1.0
 70
     8
 71
     3
 72
     9
 73
     5
 74
     0
 42
0.000000001
 43
0.0000000001
 40
0.0
 40
0.0
 40
0.0
 40
0.0
 40
0.3822979274184181
 40
1.0
 40
1.0
 40
1.0
 40
1.0
 10
10.91732766285664
 20
12.27176664387262
 30
0.0
 10
10.91801869606255
 20
12.28611397848781
 30
0.0
 10
10.91982627375615
 20
12.32364317649335
 30
0.0
 10
10.91220218349104
 20
12.35884808883156
 30
0.0
 10
10.90749276713272
 20
12.38059423614791
 30
0.0
  0
LINE
  5
3C4
330
2
100
AcDbEntity
  8
0
100
AcDbLine
 10
10.89068050483198
 20
12.46056115524051
 30
0.0
 11
10.89445900741951
 21
12.49668554705277
 31
0.0
  0
ARC
  5
3C5
330
2
100
AcDbEntity
  8
0
100
AcDbCircle
 10
11.02843744515279
 20
12.10254764248189
 30
0.0
 40
0.4162870519233294
100
AcDbArc
 50
62.61379871470026
 51
108.7743259455003
  0
LINE
  5
3C6
330
2
100
AcDbEntity
  8
0
100
AcDbLine
 10
11.12937732703924
 20
12.09547894779946
 30
0.0
 11
11.12669206544291
 21
12.09354339815864
 31
0.0
  0
LWPOLYLINE
  5
3C7
330
2
100
AcDbEntity
  8
0
100
AcDbPolyline
 90
        9
 70
   128
 43
0.0
 10
10.94743833042162
 20
12.10704079126479
 10
10.94803821455736
 20
12.11848294125293
 10
10.95791405943811
 20
12.12668524274807
 10
10.9762601617978
 20
12.13097983580221
 10
11.001586891525
 20
12.13101803829351
 10
11.03183095997282
 20
12.12679604263895
 10
11.06453366917396
 20
12.11865744945044
 10
11.09703607945724
 20
12.10726457052695
 10
11.12669206544291
 20
12.09354339815864
  0
LINE
  5
3C8
330
2
100
AcDbEntity
  8
0
100
AcDbLine
 10
10.94743833042162
 20
12.10704079126479
 30
0.0
 11
10.94612681768887
 21
12.10927705661391
 31
0.0
  0
LINE
  5
3C9
330
2
100
AcDbEntity
  8
0
100
AcDbLine
 10
10.94612681768887
 20
12.10927705661391
 30
0.0
 11
10.9059606464123
 21
12.20735584762288
 31
0.0
  0
LINE
  5
3CA
330
2
100
AcDbEntity
  8
0
100
AcDbLine
 10
11.12989689160377
 20
12.19049476782025
 30
0.0
 11
11.12937732703924
 21
12.09547894779946
 31
0.0
  0
LINE
  5
3CB
330
2
100
AcDbEntity
  8
0
100
AcDbLine
 10
11.12800357817568
 20
12.09344479231061
 30
0.0
 11
11.17799513853826
 21
12.05015083106725
 31
0.0
  0
LINE
  5
3CC
330
2
100
AcDbEntity
  8
0
100
AcDbLine
 10
11.12800357817568
 20
12.09344479231061
 30
0.0
 11
11.12937732703924
 21
12.09547894779946
 31
0.0
  0
LINE
  5
3CD
330
2
100
AcDbEntity
  8
0
100
AcDbLine
 10
11.24924155456732
 20
12.45801546509517
 30
0.0
 11
11.21992364278206
 21
12.47217981872413
 31
0.0
  0
LINE
  5
3CE
330
2
100
AcDbEntity
  8
0
100
AcDbLine
 10
11.24924155456732
 20
12.45801546509517
 30
0.0
 11
11.23295740249149
 21
12.35608841295097
 31
0.0
  0
LWPOLYLINE
  5
3CF
330
2
100
AcDbEntity
  8
0
100
AcDbPolyline
 90
        9
 70
   128
 43
0.0
 10
11.17668362580544
 20
12.05024943691526
 10
11.17608374166977
 20
12.03880728692711
 10
11.166207896789
 20
12.03060498543197
 10
11.1478617944293
 20
12.02631039237783
 10
11.12253658265849
 20
12.02627253320524
 10
11.09229099625428
 20
12.0304941855411
 10
11.05958828705314
 20
12.03863277872959
 10
11.02708587676986
 20
12.05002565765311
 10
10.9974298907842
 20
12.0637468300214
  0
LINE
  5
3D0
330
2
100
AcDbEntity
  8
0
100
AcDbLine
 10
10.9961183780514
 20
12.06384543586941
 30
0.0
 11
10.9974298907842
 21
12.0637468300214
 31
0.0
  0
LINE
  5
3D1
330
2
100
AcDbEntity
  8
0
100
AcDbLine
 10
10.94612681768887
 20
12.1071393971128
 30
0.0
 11
10.9961183780514
 21
12.06384543586941
 31
0.0
  0
LINE
  5
3D2
330
2
100
AcDbEntity
  8
0
100
AcDbLine
 10
10.94612681768887
 20
12.1071393971128
 30
0.0
 11
10.94743833042162
 21
12.10704079126479
 31
0.0
  0
LINE
  5
3D3
330
2
100
AcDbEntity
  8
0
100
AcDbLine
 10
11.12669206544291
 20
12.09354339815864
 30
0.0
 11
11.12800357817568
 21
12.09344479231061
 31
0.0
  0
LINE
  5
3D4
330
2
100
AcDbEntity
  8
0
100
AcDbLine
 10
11.17668362580544
 20
12.05024943691526
 30
0.0
 11
11.17799513853826
 21
12.05015083106725
 31
0.0
  0
LWPOLYLINE
  5
3D5
330
2
100
AcDbEntity
  8
0
100
AcDbPolyline
 90
        3
 70
   128
 43
0.0
 10
11.2602207945312
 20
12.07763095716603
 10
11.24906058262186
 20
12.06855655472697
 10
11.24686251884652
 20
12.06748612241658
  0
LINE
  5
3D6
330
2
100
AcDbEntity
  8
0
100
AcDbLine
 10
11.41906755962093
 20
12.2603194566919
 30
0.0
 11
11.40280625269035
 21
12.24849997468371
 31
0.0
  0
LINE
  5
3D7
330
2
100
AcDbEntity
  8
0
100
AcDbLine
 10
10.94612681768887
 20
12.10927705661391
 30
0.0
 11
10.94612681768887
 21
12.1071393971128
 31
0.0
  0
SPLINE
  5
3D8
330
2
100
AcDbEntity
  8
0
100
AcDbSpline
210
0.0
220
0.0
230
1.0
 70
     8
 71
     3
 72
     9
 73
     5
 74
     0
 42
0.000000001
 43
0.0000000001
 40
0.0
 40
0.0
 40
0.0
 40
0.0
 40
0.690265050481048
 40
1.0
 40
1.0
 40
1.0
 40
1.0
 10
11.43548088846882
 20
12.28550176799537
 30
0.0
 10
11.43010069335635
 20
12.29286885860432
 30
0.0
 10
11.42230630320324
 20
12.30354170174454
 30
0.0
 10
11.41437318759653
 20
12.31392054969895
 30
0.0
 10
11.41191602443453
 20
12.31713524164618
 30
0.0
  0
LINE
  5
3D9
330
2
100
AcDbEntity
  8
0
100
AcDbLine
 10
11.41906755962093
 20
12.2603194566919
 30
0.0
 11
11.43548088847275
 21
12.28550176799528
 31
0.0
  0
ARC
  5
3DA
330
2
100
AcDbEntity
  8
0
100
AcDbCircle
 10
11.23835775795291
 20
12.10692207277656
 30
0.0
 40
0.036550811511282
100
AcDbArc
 50
306.7378456754327
 51
0.0
  0
ARC
  5
3DB
330
2
100
AcDbEntity
  8
0
100
AcDbCircle
 10
10.97572838297206
 20
11.97782939789845
 30
0.0
 40
0.5526193212021769
100
AcDbArc
 50
37.87897658188858
 51
60.33423412112778
  0
LINE
  5
3DC
330
2
100
AcDbEntity
  8
0
100
AcDbLine
 10
8.067523163092834
 20
13.69615534065953
 30
0.0
 11
8.662979128793667
 21
13.65441566952348
 31
0.0
  0
ENDSEC
  0
SECTION
  2
OBJECTS
  0
DICTIONARY
  5
A
330
0
100
AcDbDictionary
281
     1
  3
ACAD_COLOR
350
3E
  3
ACAD_GROUP
350
33
  3
ACAD_LAYOUT
350
18
  3
ACAD_MATERIAL
350
C
  3
ACAD_MLEADERSTYLE
350
41
  3
ACAD_MLINESTYLE
350
34
  3
ACAD_PLOTSETTINGS
350
35
  3
ACAD_PLOTSTYLENAME
350
9
  3
ACAD_SCALELIST
350
3F
  3
ACAD_TABLESTYLE
350
40
  3
ACAD_VISUALSTYLE
350
2D
  3
ACDB_RECOMPOSE_DATA
350
3EC
  3
AcDbVariableDictionary
350
3DE
  3
AcDsDecomposeData
350
3F2
  0
DICTIONARY
  5
20
330
1F
100
AcDbDictionary
280
     1
281
     1
  3
ACAD_LAYERSTATES
360
21
  0
DICTIONARY
  5
7
330
6
100
AcDbDictionary
280
     1
281
     1
  0
DICTIONARY
  5
3
330
2
100
AcDbDictionary
280
     1
281
     1
  3
ACAD_SORTENTS
360
3DD
  0
DICTIONARY
  5
3E
102
{ACAD_REACTORS
330
A
102
}
330
A
100
AcDbDictionary
281
     1
  0
DICTIONARY
  5
33
102
{ACAD_REACTORS
330
A
102
}
330
A
100
AcDbDictionary
281
     1
  0
DICTIONARY
  5
18
102
{ACAD_REACTORS
330
A
102
}
330
A
100
AcDbDictionary
281
     1
  3
Model
350
17
  3
レイアウト1
350
1E
  0
DICTIONARY
  5
C
102
{ACAD_REACTORS
330
A
102
}
330
A
100
AcDbDictionary
281
     1
  3
ByBlock
350
3A
  3
ByLayer
350
36
  3
Global
350
B
  0
DICTIONARY
  5
41
102
{ACAD_REACTORS
330
A
102
}
330
A
100
AcDbDictionary
281
     1
  0
DICTIONARY
  5
34
102
{ACAD_REACTORS
330
A
102
}
330
A
100
AcDbDictionary
281
     1
  3
Standard
350
42
  0
DICTIONARY
  5
35
102
{ACAD_REACTORS
330
A
102
}
330
A
100
AcDbDictionary
281
     1
  0
ACDBDICTIONARYWDFLT
  5
9
102
{ACAD_REACTORS
330
A
102
}
330
A
100
AcDbDictionary
281
     1
  3
Normal
350
8
100
AcDbDictionaryWithDefault
340
8
  0
DICTIONARY
  5
3F
102
{ACAD_REACTORS
330
A
102
}
330
A
100
AcDbDictionary
281
     1
  3
A0
350
47
  3
A1
350
48
  3
A2
350
49
  3
A3
350
4A
  3
A4
350
4B
  3
A5
350
4C
  3
A6
350
4D
  3
A7
350
4E
  3
A8
350
4F
  3
A9
350
50
  3
B0
350
51
  3
B1
350
52
  3
B2
350
53
  3
B3
350
54
  3
B4
350
55
  3
B5
350
56
  3
B6
350
57
  0
DICTIONARY
  5
40
102
{ACAD_REACTORS
330
A
102
}
330
A
100
AcDbDictionary
281
     1
  3
Standard
350
43
  0
DICTIONARY
  5
2D
102
{ACAD_REACTORS
330
A
102
}
330
A
100
AcDbDictionary
281
     1
  3
2dWireframe
350
2C
  3
Realistic
350
45
  3
Wireframe
350
46
  0
XRECORD
  5
3EC
102
{ACAD_REACTORS
330
A
102
}
330
A
100
AcDbXrecord
280
     1
 90
        1
330
43
  0
DICTIONARY
  5
3DE
102
{ACAD_REACTORS
330
A
102
}
330
A
100
AcDbDictionary
281
     1
  3
CANNOSCALE
350
3E4
  3
CMLEADERSTYLE
350
3E0
  3
CTABLESTYLE
350
3DF
  3
CVIEWDETAILSTYLE
350
3E1
  3
CVIEWSECTIONSTYLE
350
3E2
  3
LAYEREVAL
350
3E6
  3
LAYERNOTIFY
350
3E7
  3
LIGHTINGUNITS
350
3E5
  3
MSLTSCALE
350
3E3
  3
PSOLHEIGHT
350
3E9
  3
PSOLWIDTH
350
3E8
  3
XCLIPFRAME
350
3EA
  0
DICTIONARY
  5
3F2
102
{ACAD_REACTORS
330
A
102
}
330
A
100
AcDbDictionary
281
     1
  3
AcDsRecords
350
3F4
  3
AcDsSchemas
350
3F3
1001
ACAD
1070
     2
  0
DICTIONARY
  5
21
102
{ACAD_REACTORS
330
20
102
}
330
20
100
AcDbDictionary
281
     1
  0
SORTENTSTABLE
  5
3DD
102
{ACAD_REACTORS
330
3
102
}
330
3
100
AcDbSortentsTable
330
2
  0
LAYOUT
  5
17
102
{ACAD_XDICTIONARY
360
19
102
}
102
{ACAD_REACTORS
330
18
102
}
330
18
100
AcDbPlotSettings
  1

  2
none_device
  4
ISO_A4_(210.00_x_297.00_MM)
  6

 40
7.5
 41
20.0
 42
7.5
 43
20.0
 44
210.0
 45
297.0
 46
11.54999923706054
 47
-13.65000009536743
 48
0.0
 49
0.0
140
0.0
141
0.0
142
1.0
143
8.704084754739808
 70
 11952
 72
     1
 73
     0
 74
     0
  7

 75
     0
147
0.1148885871608098
 76
     0
 77
     2
 78
   300
148
0.0
149
0.0
100
AcDbLayout
  1
Model
 70
     1
 71
     0
 10
0.0
 20
0.0
 11
12.0
 21
9.0
 12
0.0
 22
0.0
 32
0.0
 14
0.0
 24
0.0
 34
0.0
 15
0.0
 25
0.0
 35
0.0
146
0.0
 13
0.0
 23
0.0
 33
0.0
 16
1.0
 26
0.0
 36
0.0
 17
0.0
 27
1.0
 37
0.0
 76
     0
330
2
331
2B
1001
ACAD_PSEXT
1000
None
1000
None
1000
Not applicable
1000
The layout will not be plotted unless a new plotter configuration name is selected.
1070
     0
  0
LAYOUT
  5
1E
102
{ACAD_REACTORS
330
18
102
}
330
18
100
AcDbPlotSettings
  1

  2
C:\Documents and Settings\basas\Application Data\Autodesk\AutoCAD 2005\R16.1\enu\plotters\Default Windows System Printer.pc3
  4

  6

 40
0.0
 41
0.0
 42
0.0
 43
0.0
 44
0.0
 45
0.0
 46
0.0
 47
0.0
 48
0.0
 49
0.0
140
0.0
141
0.0
142
1.0
143
1.0
 70
   688
 72
     0
 73
     0
 74
     5
  7

 75
    16
147
1.0
 76
     0
 77
     2
 78
   300
148
0.0
149
0.0
100
AcDbLayout
  1
レイアウト1
 70
     1
 71
     1
 10
0.0
 20
0.0
 11
12.0
 21
9.0
 12
0.0
 22
0.0
 32
0.0
 14
0.0
 24
0.0
 34
0.0
 15
0.0
 25
0.0
 35
0.0
146
0.0
 13
0.0
 23
0.0
 33
0.0
 16
1.0
 26
0.0
 36
0.0
 17
0.0
 27
1.0
 37
0.0
 76
     0
330
1B
  0
MATERIAL
  5
3A
102
{ACAD_XDICTIONARY
360
3B
102
}
102
{ACAD_REACTORS
330
C
102
}
330
C
100
AcDbMaterial
  1
ByBlock
  0
MATERIAL
  5
36
102
{ACAD_XDICTIONARY
360
37
102
}
102
{ACAD_REACTORS
330
C
102
}
330
C
100
AcDbMaterial
  1
ByLayer
  0
MATERIAL
  5
B
102
{ACAD_XDICTIONARY
360
D
102
}
102
{ACAD_REACTORS
330
C
102
}
330
C
100
AcDbMaterial
  1
Global
 43
0.0007999999797903
 43
0.0
 43
0.0
 43
0.0
 43
0.0
 43
0.0007999999797903
 43
0.0
 43
0.0
 43
0.0
 43
0.0
 43
1.0
 43
0.0
 43
0.0
 43
0.0
 43
0.0
 43
1.0
 49
0.0007999999797903
 49
0.0
 49
0.0
 49
0.0
 49
0.0
 49
0.0007999999797903
 49
0.0
 49
0.0
 49
0.0
 49
0.0
 49
1.0
 49
0.0
 49
0.0
 49
0.0
 49
0.0
 49
1.0
142
0.0007999999797903
142
0.0
142
0.0
142
0.0
142
0.0
142
0.0007999999797903
142
0.0
142
0.0
142
0.0
142
0.0
142
1.0
142
0.0
142
0.0
142
0.0
142
0.0
142
1.0
144
0.0007999999797903
144
0.0
144
0.0
144
0.0
144
0.0
144
0.0007999999797903
144
0.0
144
0.0
144
0.0
144
0.0
144
1.0
144
0.0
144
0.0
144
0.0
144
0.0
144
1.0
1001
ACAD
1070
    -1
1070
     3
1070
     0
1000

1071
        0
1070
     0
  0
MLINESTYLE
  5
42
102
{ACAD_REACTORS
330
34
102
}
330
34
100
AcDbMlineStyle
  2
STANDARD
 70
     0
  3

 62
   256
 51
90.0
 52
90.0
 71
     2
 49
0.5
 62
   256
  6
BYLAYER
 49
-0.5
 62
   256
  6
BYLAYER
  0
ACDBPLACEHOLDER
  5
8
102
{ACAD_REACTORS
330
9
102
}
330
9
  0
SCALE
  5
47
102
{ACAD_REACTORS
330
3F
102
}
330
3F
100
AcDbScale
 70
     0
300
1:1
140
1.0
141
1.0
290
     1
  0
SCALE
  5
48
102
{ACAD_REACTORS
330
3F
102
}
330
3F
100
AcDbScale
 70
     0
300
1:2
140
1.0
141
2.0
290
     0
  0
SCALE
  5
49
102
{ACAD_REACTORS
330
3F
102
}
330
3F
100
AcDbScale
 70
     0
300
1:4
140
1.0
141
4.0
290
     0
  0
SCALE
  5
4A
102
{ACAD_REACTORS
330
3F
102
}
330
3F
100
AcDbScale
 70
     0
300
1:5
140
1.0
141
5.0
290
     0
  0
SCALE
  5
4B
102
{ACAD_REACTORS
330
3F
102
}
330
3F
100
AcDbScale
 70
     0
300
1:8
140
1.0
141
8.0
290
     0
  0
SCALE
  5
4C
102
{ACAD_REACTORS
330
3F
102
}
330
3F
100
AcDbScale
 70
     0
300
1:10
140
1.0
141
10.0
290
     0
  0
SCALE
  5
4D
102
{ACAD_REACTORS
330
3F
102
}
330
3F
100
AcDbScale
 70
     0
300
1:16
140
1.0
141
16.0
290
     0
  0
SCALE
  5
4E
102
{ACAD_REACTORS
330
3F
102
}
330
3F
100
AcDbScale
 70
     0
300
1:20
140
1.0
141
20.0
290
     0
  0
SCALE
  5
4F
102
{ACAD_REACTORS
330
3F
102
}
330
3F
100
AcDbScale
 70
     0
300
1:30
140
1.0
141
30.0
290
     0
  0
SCALE
  5
50
102
{ACAD_REACTORS
330
3F
102
}
330
3F
100
AcDbScale
 70
     0
300
1:40
140
1.0
141
40.0
290
     0
  0
SCALE
  5
51
102
{ACAD_REACTORS
330
3F
102
}
330
3F
100
AcDbScale
 70
     0
300
1:50
140
1.0
141
50.0
290
     0
  0
SCALE
  5
52
102
{ACAD_REACTORS
330
3F
102
}
330
3F
100
AcDbScale
 70
     0
300
1:100
140
1.0
141
100.0
290
     0
  0
SCALE
  5
53
102
{ACAD_REACTORS
330
3F
102
}
330
3F
100
AcDbScale
 70
     0
300
2:1
140
2.0
141
1.0
290
     0
  0
SCALE
  5
54
102
{ACAD_REACTORS
330
3F
102
}
330
3F
100
AcDbScale
 70
     0
300
4:1
140
4.0
141
1.0
290
     0
  0
SCALE
  5
55
102
{ACAD_REACTORS
330
3F
102
}
330
3F
100
AcDbScale
 70
     0
300
8:1
140
8.0
141
1.0
290
     0
  0
SCALE
  5
56
102
{ACAD_REACTORS
330
3F
102
}
330
3F
100
AcDbScale
 70
     0
300
10:1
140
10.0
141
1.0
290
     0
  0
SCALE
  5
57
102
{ACAD_REACTORS
330
3F
102
}
330
3F
100
AcDbScale
 70
     0
300
100:1
140
100.0
141
1.0
290
     0
  0
TABLESTYLE
  5
43
102
{ACAD_XDICTIONARY
360
44
102
}
102
{ACAD_REACTORS
330
40
102
}
330
40
100
AcDbTableStyle
  3
Standard
 70
     0
 71
     0
 40
1.5
 41
1.5
280
     0
281
     0
  7
Standard
140
4.5
170
     2
 62
     0
 63
     7
283
     0
274
    -2
284
     1
 64
     0
275
    -2
285
     1
 65
     0
276
    -2
286
     1
 66
     0
277
    -2
287
     1
 67
     0
278
    -2
288
     1
 68
     0
279
    -2
289
     1
 69
     0
  7
Standard
140
6.0
170
     5
 62
     0
 63
     7
283
     0
274
    -2
284
     1
 64
     0
275
    -2
285
     1
 65
     0
276
    -2
286
     1
 66
     0
277
    -2
287
     1
 67
     0
278
    -2
288
     1
 68
     0
279
    -2
289
     1
 69
     0
  7
Standard
140
4.5
170
     5
 62
     0
 63
     7
283
     0
274
    -2
284
     1
 64
     0
275
    -2
285
     1
 65
     0
276
    -2
286
     1
 66
     0
277
    -2
287
     1
 67
     0
278
    -2
288
     1
 68
     0
279
    -2
289
     1
 69
     0
  0
VISUALSTYLE
  5
2C
102
{ACAD_XDICTIONARY
360
3F5
102
}
102
{ACAD_REACTORS
330
2D
102
}
330
2D
100
AcDbVisualStyle
  2

 70
     4
 71
     0
 72
     2
 73
     1
 90
        0
 40
-0.6
 41
-30.0
 62
     5
 63
     7
421
 16777215
 74
     1
 91
        4
 64
     7
 65
   257
 75
     1
175
     1
 42
1.0
 92
        0
 66
   257
 43
1.0
 76
     1
 77
     6
 78
     2
 67
     7
 79
     5
170
     0
171
     0
290
     0
174
     0
 93
        1
 44
0.0
173
     0
291
     0
 45
0.0
1001
ACAD
1000
AcDbSavedByObjectVersion
1070
     0
  0
VISUALSTYLE
  5
45
102
{ACAD_XDICTIONARY
360
3F8
102
}
102
{ACAD_REACTORS
330
2D
102
}
330
2D
100
AcDbVisualStyle
  2

 70
     8
 71
     2
 72
     3
 73
     0
 90
        2
 40
-0.6
 41
30.0
 62
     5
 63
     7
421
 16777215
 74
     0
 91
        0
 64
     7
 65
   257
 75
     1
175
     1
 42
1.0
 92
        8
 66
   257
 43
1.0
 76
     1
 77
     6
 78
     2
 67
     7
 79
     3
170
     0
171
     0
290
     0
174
     0
 93
       13
 44
0.0
173
     0
291
     0
 45
0.0
1001
ACAD
1000
AcDbSavedByObjectVersion
1070
     0
  0
VISUALSTYLE
  5
46
102
{ACAD_XDICTIONARY
360
3FA
102
}
102
{ACAD_REACTORS
330
2D
102
}
330
2D
100
AcDbVisualStyle
  2

 70
     5
 71
     0
 72
     2
 73
     0
 90
        0
 40
-0.6
 41
-30.0
 62
     5
 63
     7
421
 16777215
 74
     1
 91
        4
 64
     7
 65
   257
 75
     1
175
     1
 42
1.0
 92
        0
 66
   257
 43
1.0
 76
     1
 77
     6
 78
     2
 67
     7
 79
     3
170
     0
171
     0
290
     0
174
     0
 93
        1
 44
0.0
173
     0
291
     0
 45
0.0
1001
ACAD
1000
AcDbSavedByObjectVersion
1070
     0
  0
DICTIONARYVAR
  5
3E4
102
{ACAD_REACTORS
330
3DE
102
}
330
3DE
100
DictionaryVariables
280
     0
  1
1:1
  0
DICTIONARYVAR
  5
3E0
102
{ACAD_REACTORS
330
3DE
102
}
330
3DE
100
DictionaryVariables
280
     0
  1
STANDARD
  0
DICTIONARYVAR
  5
3DF
102
{ACAD_REACTORS
330
3DE
102
}
330
3DE
100
DictionaryVariables
280
     0
  1
STANDARD
  0
DICTIONARYVAR
  5
3E1
102
{ACAD_REACTORS
330
3DE
102
}
330
3DE
100
DictionaryVariables
280
     0
  1

  0
DICTIONARYVAR
  5
3E2
102
{ACAD_REACTORS
330
3DE
102
}
330
3DE
100
DictionaryVariables
280
     0
  1

  0
DICTIONARYVAR
  5
3E6
102
{ACAD_REACTORS
330
3DE
102
}
330
3DE
100
DictionaryVariables
280
     0
  1
0
  0
DICTIONARYVAR
  5
3E7
102
{ACAD_REACTORS
330
3DE
102
}
330
3DE
100
DictionaryVariables
280
     0
  1
0
  0
DICTIONARYVAR
  5
3E5
102
{ACAD_REACTORS
330
3DE
102
}
330
3DE
100
DictionaryVariables
280
     0
  1
2
  0
DICTIONARYVAR
  5
3E3
102
{ACAD_REACTORS
330
3DE
102
}
330
3DE
100
DictionaryVariables
280
     0
  1
1
  0
DICTIONARYVAR
  5
3E9
102
{ACAD_REACTORS
330
3DE
102
}
330
3DE
100
DictionaryVariables
280
     0
  1
80.000000
  0
DICTIONARYVAR
  5
3E8
102
{ACAD_REACTORS
330
3DE
102
}
330
3DE
100
DictionaryVariables
280
     0
  1
5.000000
  0
DICTIONARYVAR
  5
3EA
102
{ACAD_REACTORS
330
3DE
102
}
330
3DE
100
DictionaryVariables
280
     0
  1
2
  0
DICTIONARY
  5
3F4
102
{ACAD_REACTORS
330
3F2
102
}
330
3F2
100
AcDbDictionary
281
     1
  0
DICTIONARY
  5
3F3
102
{ACAD_REACTORS
330
3F2
102
}
330
3F2
100
AcDbDictionary
281
     1
  3
2069412172496
350
3ED
  3
2069412172512
350
3EE
  3
2069412172528
350
3EF
  3
2069412172544
350
3F0
  3
2069412172560
350
3F1
  0
DICTIONARY
  5
19
330
17
100
AcDbDictionary
280
     1
281
     1
  0
DICTIONARY
  5
3B
330
3A
100
AcDbDictionary
280
     1
281
     1
  3
ACAD_XREC_ROUNDTRIP
360
3C
  3
FBXASSET
360
3D
  0
DICTIONARY
  5
37
330
36
100
AcDbDictionary
280
     1
281
     1
  3
ACAD_XREC_ROUNDTRIP
360
38
  3
FBXASSET
360
39
  0
DICTIONARY
  5
D
330
B
100
AcDbDictionary
280
     1
281
     1
  3
ACAD_XREC_ROUNDTRIP
360
E
  3
BUMPTILE
360
F
  3
DIFFUSETILE
360
10
  3
FBXASSET
360
11
  3
OPACITYTILE
360
12
  3
REFLECTIONTILE
360
13
  0
DICTIONARY
  5
44
330
43
100
AcDbDictionary
280
     1
281
     1
  3
ACAD_ROUNDTRIP_2008_TABLESTYLE_CELLSTYLEMAP
360
3EB
  3
ACAD_XREC_ROUNDTRIP
360
3F7
  0
DICTIONARY
  5
3F5
330
2C
100
AcDbDictionary
280
     1
281
     1
  3
ACAD_XREC_ROUNDTRIP
360
3F6
  0
DICTIONARY
  5
3F8
330
45
100
AcDbDictionary
280
     1
281
     1
  3
ACAD_XREC_ROUNDTRIP
360
3F9
  0
DICTIONARY
  5
3FA
330
46
100
AcDbDictionary
280
     1
281
     1
  3
ACAD_XREC_ROUNDTRIP
360
3FB
  0
XRECORD
  5
3ED
102
{ACAD_REACTORS
330
3F3
102
}
330
3F3
100
AcDbXrecord
280
     1
  1
AcDb_Thumbnail_Schema
102
{ATTRRECORD
341
3EE
  2
AcDbDs::TreatedAsObjectData
280
     1
291
     1
102
ATTRRECORD}
102
{ATTRRECORD
341
3EF
  2
AcDbDs::Legacy
280
     1
291
     1
102
ATTRRECORD}
  2
AcDbDs::ID
280
    10
 91
        8
102
{ATTRRECORD
341
3F0
  2
AcDs:Indexable
280
     1
291
     1
102
ATTRRECORD}
102
{ATTRRECORD
341
3F1
  2
AcDbDs::HandleAttribute
280
     7
282
     1
102
ATTRRECORD}
  2
Thumbnail_Data
280
    15
 91
        0
  0
XRECORD
  5
3EE
102
{ACAD_REACTORS
330
3F3
102
}
330
3F3
100
AcDbXrecord
280
     1
  1
AcDbDs::TreatedAsObjectDataSchema
  2
AcDbDs::TreatedAsObjectData
280
     1
 91
        0
  0
XRECORD
  5
3EF
102
{ACAD_REACTORS
330
3F3
102
}
330
3F3
100
AcDbXrecord
280
     1
  1
AcDbDs::LegacySchema
  2
AcDbDs::Legacy
280
     1
 91
        0
  0
XRECORD
  5
3F0
102
{ACAD_REACTORS
330
3F3
102
}
330
3F3
100
AcDbXrecord
280
     1
  1
AcDbDs::IndexedPropertySchema
  2
AcDs:Indexable
280
     1
 91
        0
  0
XRECORD
  5
3F1
102
{ACAD_REACTORS
330
3F3
102
}
330
3F3
100
AcDbXrecord
280
     1
  1
AcDbDs::HandleAttributeSchema
  2
AcDbDs::HandleAttribute
280
     7
 91
        1
284
     1
  0
XRECORD
  5
3C
102
{ACAD_REACTORS
330
3B
102
}
330
3B
100
AcDbXrecord
280
     1
102
MATERIAL
148
0.0
149
0.0
149
0.0
 93
        0
 94
      127
282
     0
 72
     1
 77
     1
171
     1
175
     1
179
     1
273
     0
  0
XRECORD
  5
3D
102
{ACAD_REACTORS
330
3B
102
}
330
3B
100
AcDbXrecord
280
     1
 70
     1
 90
429727718
  1
D62C5603-E3A1-4AEA-B7FB-FE5D8D0755AF
310
504B03040A0000080000CC70623B3DEE336E79000000790000001B0000006175746F6465736B2D64657369676E2D7061636B6167652E786D6C3C3F786D6C2076657273696F6E3D22312E302220656E636F64696E673D227574662D3822203F3E3C666F726D6174733E3C666F726D61743E687474703A2F2F736368656D612E
310
6175746F6465736B2E636F6D2F64657369676E2D7061636B6167652F323030393C2F666F726D61743E3C2F666F726D6174733E504B0304140006080800CC70623BD486FD9CA0000000F4000000130000005B436F6E74656E745F54797065735D2E786D6C7D8EC10E82300C865F65E91D8A1E8C310C0EEA1BF002731658846E
310
D98AC1B77784ABF1D8FE5FBFBF75BBCE937A534CCEB38643598122B6FEE978D0B0485F9C41B54DDD7D022595594E1A469170414C76A4D9A4D207E29CF43ECE46F218070CC6BECC4078ACAA135ACF422C856C0E68EA1BF5669944DDD7BCDE7B1F8E415D77AECB980613C2E4AC91FC167A2B244592486606FC29C8FD7F045B9A
310
EF7053A7E60B504B0304140006080800CC70623B853B8169EB0000007C01000008000000636F72652E786D6C8D90416EC3201045AF62CDB6C206821CC7C244919D9CA01740401C94182C03558F5F9C3852BBEB6A467FFE9B197D7EFC9E1EC5975982F5AE035262288C535E5B377690E21535501C055FBC8FBF6C503839990E
310
5619041F179FE64D52DE45E362569DD7661365082642A11EB9E920A89B99642953CC8E702F67A9EE7234257977194EC9EAE275C4EABCCF5EAD5940D4AC6F0E35A568B8F43562CD7046CD199FD07E60174276A7BE677B5EADB0E0D14EEFFB6A31321A0D82627C4084204C3F096B71DD52F6819B16635EADF63F509AF53FA164
310
5DDCD1EDDD17164090FCC8732078B56691CB33A85CD7DCC40F504B0304140006080800CC70623B55019EA25F0000007C00000007000000636E782E786D6C4DCB3B0E80201045D1AD90E915ED2CF8AC45050C11660C8261F98AB1B07AC9C97D42D718D865D3E909258CFD00CCE24AC6E326A164D74DC0B4128928FF32603847
310
2BA13128B1252AC747C6BAB984FC68F0B87FE8960A5C09FE86CFB69FBA01504B0304140006080800CC70623BDBABAAF470010000D40300000C0000006662782F636F72652E786D6CC553D16E823014FD95A6AF4B694182CC941A83FA05FB810A9511A125A5257EFE2E82712ECEB8A7F100CD39F7F69E734AF9FADC366850B6
310
AF8DCE7018308C942E4C59EB2AC3DE1D498AD15A706B8CFB56869196ADCAF00863C12B6B7C374385D14E6907A836A59A41D9F7CA615434B0C8705F7CAA5606D23BA8E84F41278B93AC54100640439DE0BDB320004D43C63716C7C399D30917DCFBBA9CD9BA8469F5B156168B24CED3F7248AC8769F27244EB73B92EED8862C
310
B7F13E0C179B3C8F979C8ECD82BBBABDAA2BAC924E9558448CBD9330242CFA08E3154B5651FCC6D215639C8EE5774DBE2B5F6CF2B5768B68963BB5F5588420E442FC700B1139D4CB01F450C1E918227C2E09DF070D8140C84E1E9AAB8F1340832A9CB13130A5F1376A908D57309505ECF2A0DF179C4E9D30F5B239B87E3823
310
7A79C6F31DE1A8A5AEC08474B03C7837EAE4938639B44E5932B833D2C6B6B279CDC613877FA26EE21F4A2A4C63EC7F29A2F301D1F9F7A0E37D145F504B0304140006080800CC70623B9C113CC27E0000009D0000000B0000006662782F636E782E786D6C4DCCDF0A83201C86E15B91DFB94BFB330DD428C8FB886521330DA7
310
6397BF1A1DECE883878F57749FCDA1B7892F1BBC047A23808C7F84D9FA55424E0BE6803A256208E9EF06C84F9B91703228B1C690F78B66B34CD9A5439DF5CF0BFBF65E35BCA1B8D6A5C6F540381E886698B5741C695F9503EBA150A2F8958E3DC3EA0B504B0304140006080800CC70623B7DF2F77C2A010000120200003100
310
00006662782F41393633353835312D344632462D344230382D423046372D3739314545314133324237412F636F72652E786D6C8D51DB8EC22014FC15C2939B0D2DB4B45643319AE817EC0F6041255A68B86CFCFC856D4D76DF7CE190393373060EDB3DC707F856CE6B6B7A480A0C81328395DA5C7B18C3057510EC3873D686
310
3F34088C18550F330C39BB3A1BA7051AAC09CA84841A2BD5020AEF55806078A44B0FFD7053A328440C89E1EFC52486BBB8AA8214A99D789CF9E05200300FC927E4FB4D5B375D43103D5527440FB843077C5AA3F5861C8F645F5787F59E95B390B318B55CE45AA638FAA2957BD7248B390B7A7CC51F9C124149C82B8C378810
310
84AB2F42B7B8DD56F413775B8C5999E9FF4471926F8AA236A1AE96B8B3CC434E5839373893369E1FAF30EA395917409EB7F26AF8801C171837A4A6AC9C89E9F9C9B1A58BA30FD6A5EF5DDDCF894B9AD9B6A59C957943A9FCAE2FD5BC4DFE03504B0304140006080800CC70623BAD7543B64E01000033030000300000006662
310
782F41393633353835312D344632462D344230382D423046372D3739314545314133324237412F636E782E786D6CD593CD6EC32010845F0571AD6CE3D48AD20813A9873E410FBD12D82434182C7EAAE6EDBB2424CD25871E7B41D6EC30B3FA84F9E67BB2E40B4234DE8DB46F1925E094D7C6ED479AD3AE5951B2113C789FEE
310
6C943839C1488B4C05DF079FE72A69D8C96C13AAD6B8631503449F83828872B949AC57D26200B826A308D316B4064D6E46FCDA41C05550DC9E483A00797BFD207EFB092A45DE9514C1BBD22178396BD39D891265658C238DEA00936C654E5E433CB65A26D9F6EDB5EBC14EBF49A45CB856E66048291F6939A9A81BB5C89177
310
38143CA680F4AA299D66A042CEB3354A2684DC9D8D178FE0D9B8B41CAAD720F880EE7EF93C0C18769E099ECC04D5A102C8049A8A05632F4DDF376CF1DE0F6BB65C2F8627B65A33C6BB62177CEBBDAD973006829F89F22E814B54F4BC2BE347F8AA8F681390B50FA73F804400B5F542E796F19FF974E7F78DB802FE05E20750
310
4B0304140006080800CC70623BE75B7789680500003C100000340000006662782F41393633353835312D344632462D344230382D423046372D3739314545314133324237412F6F626A656374732E786D6CAD575B8F9B3818FD2B887D06C22499CB8AA1CA655245D5B455A356FB305264C061D8018C6C3393D95FBFC7600890
310
A4CD5EF210B0B1BFEBF98E3F7B1FF6596ABC522E1296DF9BAE3D320D9A872C4AF2F8DE2CE5CEBA358D0FBEC719939D65A691938CDE9B6ADAF4BD98B3B2D05311DD91329583D9D5FC0F438434A7A611A644887B5384CF34233629258BA878B12322891DEFF6B66BD70BFB62634E8AE781D082709A4B588AF91C528CDA28B73F
310
1C998EEF39EABBEFA97FBD6A7C7E9553F9D3D79FE442923C3C523610337627CB87ABE99D359D4CC6D6E4FACAB5E6ABF9D2726FC6A3C5F56271377BB88362213924694B38DD99FE47C48627A1E7D49F5A8BB5E1A74C0A599ED3B0F21F1E56366B89112D681E218F0915D0D6F17AD41FBA2A369DCF6335D62ABBD39779D5DDD1
310
11D4D8DE3CBB96B2E04FB8202E41051754A1AA8E8F76B4C6DFE810B580B1547F4B84911149794252234D024EF8BBE963A95AE27B3D310A9D5C215C7960FAEE415ED75694C6AFB17BCACA5D99A60A9AA65F217B0BFC53292ACB92BF283FAD0D3621576592CB5BED907C2FA8E9DF794E35E97BEA31BED21FEB401ABB94C44839
310
DCACBF0E1C5DA8DA5B2F4DFFD32AD86F543D9E565E7056502E157C00AD2671CD534549AB752FCA9CDA00677A313F04E51B22FF19E57B300579E3C97EB29F682D92935CEC18CF901B7B54FD8C51F362B56FC72FE0B3C1EAE335EDCCBF5AEC39ADB17DC238973F804BA5E6F6BFE7AF1FB32E523BE9F3BD571418E3631DCA4D48
310
5250CF639223210A9446CA30052EDF057BD35F8329C1ECD84552BF0DC8D18BE7BCE23BFE6BD960AB4A7DE79923A103BEBD80F911CBAA2C60DB19B01CF164A5583B772EE6D3FFA56666CBCDA74DC97724A48F9A58967497E489C4D979006FD7A05E227A1EBDD0F737C623387A9C844D3709995625106D157315F8B8392CD4E0
310
A0B9A720C4BE9829CEF37EA1E13111214D53925356365ADA634861B52519DD27A00AEB808EAF0628E6F435519D446F45CF2C9CF5214F0A15B2F6D06B79DA3EE3CBF7F56780D2F4E7EF73A0F5E5B02A38D07DC852C6B7C1FBB6664213E0C39E3EBA7FF4E1AD23EA2829407C85E586727488B751B2DB9502BC7B228A3FD68B6E
310
A65A22397E690AA8D158D7E404EC8CDA235CC3B7D1898680131CEC2CDF2638C65196279577750F15884AEE19F94199155B92B13297978469D4F8D358DF0AEF7631E28DC8F0D9F437D5D39A83B2231A1D52D543813A824EF8D44BCFF2FA6A31BD1E8DAD87F1CCB526B3879935BF59CDADD5C37479BB1CDD4CA7B3556B516589
310
EF352754B706114D9C885EC9131DE6EFEB43D99AFE2391C2F958179413D7CFEF6B1B6DB1E7600F00DE6E5C67454A339A4BA2E0FBA85ED26F045D454F463DBFCE484C2F90F2E5E3666003662ED8F755951A7D1BECD5B30B550B2785C8E7320B7292A4838DDA71BBC863ED7613CAF659337A3354231D4FF4A182A54904C2898C
310
98B28C4AD0CE056CCF332A80986E571EE9DBC305BB5FEB7E509220A58D25CF042D712A806AC0AD0C657FDEF80D2D9CEAA2EE4D1C76F60BFE74219A06527D6F82DF6412526107381E55E353090704D085B52408A8913C4ED159D79BDA71BB4BC506F4831350EB6F975CD22D69BF7AC49B91A2C0A9DDA3D5CA36AD20FC478E37
310
E61844E2352865EBCB61A275A65283CAAA9DD27703B4102F5AF51EF5F573B75CBB5AD38BC845F7A49F82A0966A49C2E3EA5EA0ECD326CD965F1DB402C6FA8B51A4658C5C5E2EC9E214602E55810345408596591009A82E7E7FFACA19EEA299B14A0081A705CB3296EBC14CDF658DCD336EA6D1136881AAEB87B81AB9EE53D5
310
F5EB8BC8362082DA24122F98680A4E7930C01A0079749CEA14382A0783E5EBA5A10F8C098456A03D6A4AEB6BB881E2513747552A5DB22C7EDAF83BD5528081A365F7FF06504B0304140006080000CC70623B000000000000000000000000350000006662782F41393633353835312D344632462D344230382D423046372D37
310
39314545314133324237412F76657274696365732E62696E504B0304140006080800CC70623BF270F1330600000004000000360000006662782F41393633353835312D344632462D344230382D423046372D3739314545314133324237412F747269616E676C65732E62696E636660600000504B0304140006080000CC7062
310
3B000000000000000000000000370000006662782F41393633353835312D344632462D344230382D423046372D3739314545314133324237412F617474726962757465732E62696E504B0304140006080800CC70623B08DA0BD19000000041010000360000006662782F41393633353835312D344632462D344230382D4230
310
46372D3739314545314133324237412F6469726563746F72792E786D6C858F410AC3201045AF22B36F53E9A60B35CBEEBAE80D244E44489C6234F4F835464A48035D0DF398FF9F8AF63D0E6CC63039F212F8F9020C7D47C6792B21C5FE7403D62A1188E2E60C98D7234A5830286103A55745067B9D86B8A3CF9C7F90C11DE6
310
07FB144396D7B6A82D282E9A152AD114D5EF2CB866EEE831B8EEA07A7BB5A8D7D61A2BAAEB7FD5F70921FF497D00504B0304140006080800CC70623BEDD1DC58FD000000A00100003B0000006662782F41393633353835312D344632462D344230382D423046372D3739314545314133324237412F7265736F75726365732F
310
636F72652E786D6C8D504B6E833010BD0A9A6D65B00922041947112427E8052C33A156828DFCA97AFC9A40A576D7CDCCE87D344F8F9FBFE667F689CE6B6B3A6039850C8DB2A336530731DC4903D95970676DF82583CCC8193B5861107C72362E3BA4AC096842428D1D7107A5F7182053CF7474E0D507CE32973124857FE48B
310
540F3961CEF244279DE03EB81420DB9EAC1384436FA353E879B1B182C7A8C75DA3C7F453DF353A1075D537A7BA6464B8F535A99AE14A9A2BBD90E350DD183B5CFABE3AF262350B1EF4FC9351399401471025A527C218A1E53BAB5A5AB765F5469B96525EACF23FA6B88CFF34456DC2A1DCE36E360F82A5202F42F062ED2BAD
310
579969AFDD8A6F504B010214000A0000080000CC70623B3DEE336E79000000790000001B00000000000000000000000000000000006175746F6465736B2D64657369676E2D7061636B6167652E786D6C504B01021400140006080800CC70623BD486FD9CA0000000F40000001300000000000000000000000000B20000005B
310
436F6E74656E745F54797065735D2E786D6C504B01021400140006080800CC70623B853B8169EB0000007C010000080000000000000000000000000083010000636F72652E786D6C504B01021400140006080800CC70623B55019EA25F0000007C000000070000000000000000000000000094020000636E782E786D6C504B
310
01021400140006080800CC70623BDBABAAF470010000D40300000C00000000000000000000000000180300006662782F636F72652E786D6C504B01021400140006080800CC70623B9C113CC27E0000009D0000000B00000000000000000000000000B20400006662782F636E782E786D6C504B01021400140006080800CC70
310
623B7DF2F77C2A010000120200003100000000000000000000000000590500006662782F41393633353835312D344632462D344230382D423046372D3739314545314133324237412F636F72652E786D6C504B01021400140006080800CC70623BAD7543B64E010000330300003000000000000000000000000000D2060000
310
6662782F41393633353835312D344632462D344230382D423046372D3739314545314133324237412F636E782E786D6C504B01021400140006080800CC70623BE75B7789680500003C10000034000000000000000000000000006E0800006662782F41393633353835312D344632462D344230382D423046372D3739314545
310
314133324237412F6F626A656374732E786D6C504B01021400140006080000CC70623B0000000000000000000000003500000000000000000000000000280E00006662782F41393633353835312D344632462D344230382D423046372D3739314545314133324237412F76657274696365732E62696E504B01021400140006
310
080800CC70623BF270F133060000000400000036000000000000000000000000007B0E00006662782F41393633353835312D344632462D344230382D423046372D3739314545314133324237412F747269616E676C65732E62696E504B01021400140006080000CC70623B0000000000000000000000003700000000000000
310
000000000000D50E00006662782F41393633353835312D344632462D344230382D423046372D3739314545314133324237412F617474726962757465732E62696E504B01021400140006080800CC70623B08DA0BD1900000004101000036000000000000000000000000002A0F00006662782F41393633353835312D344632
310
462D344230382D423046372D3739314545314133324237412F6469726563746F72792E786D6C504B01021400140006080800CC70623BEDD1DC58FD000000A00100003B000000000000000000000000000E1000006662782F41393633353835312D344632462D344230382D423046372D3739314545314133324237412F7265
310
736F75726365732F636F72652E786D6C504B0506000000000E000E0080040000641100000000
  0
XRECORD
  5
38
102
{ACAD_REACTORS
330
37
102
}
330
37
100
AcDbXrecord
280
     1
102
MATERIAL
148
0.0
149
0.0
149
0.0
 93
        0
 94
      127
282
     0
 72
     1
 77
     1
171
     1
175
     1
179
     1
273
     0
  0
XRECORD
  5
39
102
{ACAD_REACTORS
330
37
102
}
330
37
100
AcDbXrecord
280
     1
 70
     1
 90
429727718
  1
30362254-06B7-45E0-A893-8CFA70E3D6BC
310
504B03040A0000080000CC70623B3DEE336E79000000790000001B0000006175746F6465736B2D64657369676E2D7061636B6167652E786D6C3C3F786D6C2076657273696F6E3D22312E302220656E636F64696E673D227574662D3822203F3E3C666F726D6174733E3C666F726D61743E687474703A2F2F736368656D612E
310
6175746F6465736B2E636F6D2F64657369676E2D7061636B6167652F323030393C2F666F726D61743E3C2F666F726D6174733E504B0304140006080800CC70623BD486FD9CA0000000F4000000130000005B436F6E74656E745F54797065735D2E786D6C7D8EC10E82300C865F65E91D8A1E8C310C0EEA1BF002731658846E
310
D98AC1B77784ABF1D8FE5FBFBF75BBCE937A534CCEB38643598122B6FEE978D0B0485F9C41B54DDD7D022595594E1A469170414C76A4D9A4D207E29CF43ECE46F218070CC6BECC4078ACAA135ACF422C856C0E68EA1BF5669944DDD7BCDE7B1F8E415D77AECB980613C2E4AC91FC167A2B244592486606FC29C8FD7F045B9A
310
EF7053A7E60B504B0304140006080800CC70623B1EC5D7A3EB0000007C01000008000000636F72652E786D6C8D90416EC3201045AF82665B6103C6756C6122AB4D4ED00B204C5C94182C03558F5F9C3852BBEB6A467FFE9B197D71FC9E6FE8CBACC17AD7032D0820E3B41FAD9B7A48F1820F808E52ACDEC75F36404ECDA687
310
4D0629A6D5A76597B477D1B89855E747B38B2A041301E95B6E7A08FAD3CCAA50296647B8168BD2573599823EBB0CA76447F43862C7BCCF5EAC59410E4DDD9C7973C2755553CCCFA4C603E3040F1565ED3B1FDE4E432BCA0D9622DAF9795FAF464533826484B498524CD807E51D79ED187F21878E10516EF63F505AC67F42C9
310
BA58B1FDDD071640D2FCC87D2045B96591CB3DA85CB7DCE40F504B0304140006080800CC70623B55019EA25F0000007C00000007000000636E782E786D6C4DCB3B0E80201045D1AD90E915ED2CF8AC45050C11660C8261F98AB1B07AC9C97D42D718D865D3E909258CFD00CCE24AC6E326A164D74DC0B4128928FF32603847
310
2BA13128B1252AC747C6BAB984FC68F0B87FE8960A5C09FE86CFB69FBA01504B0304140006080800CC70623B8C9102E971010000D40300000C0000006662782F636F72652E786D6CC5535B6E833010BC8AE5DF0A6C08340F1947A84D4ED00B38C6A128602363A31CBFCB234A53A551FA553EC09AD9F5CE8C31DB9E9B1AF5CA
310
7695D1198E428A91D2D214952E33ECDD315861B4E5CC1AE3BE9561A445A3323CC098B3D21ADFCE9034DA29ED00D5A6503328BA4E398C640D8B0C77F253352214DE4145770A5B214FA2546114020D759C75CE8200340D19DE981F0F6746269C33EFAB6266AB02A655C74A59CCF365BADC27CB5D902ED22848F6340DF238A141
310
BE88E2F57B92BFEDF23523433367AE6A2EEAA455C2A902F398D2751045018D3FA264435F3771F242571B4A1919CA6F9A7C5B3CD9E42BED16F12C776AEB308F40C848FC700B1139D4891EF410CEC810227CC6846F8386402064270EF5C5C709A05E49676C024C61FC95EA45ED154CA5211D1FF4FB8291A913A68E9B83EBBB33
310
E2A7673CDE118E5AE8124C0807CB8377834E366998436B950D7A7746DAD846D4CFD978E0F04FD455FC5D49D2D4C6FE9722321F10997F0F32DC47FE05504B0304140006080800CC70623BFFEA85907E0000009D0000000B0000006662782F636E782E786D6C4DCCD10A83201886E15B91FFDC95D95A811AB6F23E625948A6C3
310
E9D8E5AF46073BFAE0E1E365ED67B3E8ADC3CB78C7815C7240DA3DFC64DCC221C519D7805AC182F7F1EF06C88D9BE6703008B6049F9E274D7A1E938DBB5AE3D6131B2589BA0D3D965551E0B2EA732C9B9A624AAEB41E3A557677029960D9AFB4EF11165F504B0304140006080800CC70623B4FEEA4082C0100001202000031
310
0000006662782F39464131463745442D413632322D343644302D413938332D3331353338454246344243312F636F72652E786D6C8D515B6EC32010BC0AE2AB55850DD871ED0813254D72825EC00192A2C460F1A872FC42ED48ED5F7E00CDCECCCEB26C731F6FE05B39AFADE921293004CA082BB5B9F43086336A21D870E6AC
310
0D7F68109861543DCC30E4ECE26C9C164858139409093556AA051CBC570102714B8F1E7AF1A5C6A11862480C7F2DA6415C878B2A4891CA89C7990F2E050073937C42DE1DB7E4F87ED8A36D4329AA9B3D46DBAEAD504556557BD81DEBDD0761E52CE42C462D17B996298E3E6BE59E35C962CE821E1FF18553435012728A7187
310
0841987E927A8D9B35ADDF70BBC6989599FE4F1427F9A4286A132ABAC49D651EF234CD5CE04CDA78BA3DC2A8FB645D00B9DF8B57E215725C60BCA2A463E54C4CE327C7A65E1C7DB02E7DEFCBF594B864C5CA6CDBD49C957943E9FA5D5FBAF336F90F504B0304140006080800CC70623BAD7543B64E01000033030000300000
310
006662782F39464131463745442D413632322D343644302D413938332D3331353338454246344243312F636E782E786D6CD593CD6EC32010845F0571AD6CE3D48AD20813A9873E410FBD12D82434182C7EAAE6EDBB2424CD25871E7B41D6EC30B3FA84F9E67BB2E40B4234DE8DB46F1925E094D7C6ED479AD3AE5951B2113C
310
789FEE6C943839C1488B4C05DF079FE72A69D8C96C13AAD6B8631503449F83828872B949AC57D26200B826A308D316B4064D6E46FCDA41C05550DC9E483A00797BFD207EFB092A45DE9514C1BBD22178396BD39D891265658C238DEA00936C654E5E433CB65A26D9F6EDB5EBC14EBF49A45CB856E66048291F6939A9A81BB5
310
C8917738143CA680F4AA299D66A042CEB3354A2684DC9D8D178FE0D9B8B41CAAD720F880EE7EF93C0C18769E099ECC04D5A102C8049A8A05632F4DDF376CF1DE0F6BB65C2F8627B65A33C6BB62177CEBBDAD973006829F89F22E814B54F4BC2BE347F8AA8F681390B50FA73F804400B5F542E796F19FF974E7F78DB802FE05
310
E207504B0304140006080800CC70623B16AB87BA640500003C100000340000006662782F39464131463745442D413632322D343644302D413938332D3331353338454246344243312F6F626A656374732E786D6CAD575B6FA33818FD2B887DE6924B3BED8A326A92B68A663B534DD4D13E548A0C38942D60649B369D5FBFC7
310
600890A493BDE42160637FD7F31D7FF63E6FB3D478A55C242CBF3247B66B1A340F5994E4F19559CA8D75611A9F7D8F33263BCB4C232719BD32D5B4E97B316765A1A722BA21652A07B3B7B33F0D11D29C9A46981221AE4C113ED38CD8A4942CA2E2C58E882476BCD9DA23BB5ED8171B73523C0F841684D35CC252CCE79062D4
310
468DFA43D7747CCF51DF7D4FFDEB5593E3AB9CCA9FBEFE241792E4E19EB28198C968BAB8199F5D5A67D3E9C49A9E8F47D6EC76B6B0469F26EEFC7C3EBFBCBEB98462213924694B38DD98FE1D62C393D073EA4FADC5DAF04326852CCF6958F90F0F2B9BB5C48816348F90C7840A68EB78EDF68723159BCEE7891A6B95DDE9D3
310
BCEAEEE8086A6C6F9E5D4B59F0175C10A7A0820BAA5055C7473B5AE3CFDD452D602CD5DF12616444529E90D448938013FE6EFA58AA96F85E4F8C42275708571E98FE6827AF6B2B4AE3D7D83D64E5A64C53054DD3AF90BD06FEA9149565C94FCA0F6B834DC85599E4F2423B24DF0B6AFA979E534DFA9E7A4CC6FA631D486393
310
921829879BF5D781A373557BCB85E97FB90DB62B558F8795179C15944B051F40AB495CF35451D26A4727654E6D8033BD98EF82F21D91FF8AF2DD9982BCF1643BDD4EB516C9492E368C67C88DED563FC36D5EACF66DFF057C3658BDBFA69DF9578B3DA735B64F18C7F20770A9D45CFCF7FCF563D6456A277DBEF78A02637CA2
310
43B90A490AEAB94F72244481D24819A6C0E59B606BFA4B3025981DBB48EAB701D97BF19C577CC77F2D1B6C55A9EF3C732474C0B727303F625995056C3B02963D9EAC146BE78EC5FCEC7FA999EBC5EACBAAE41B12D27B4D2C0BBA49F244E2ECDC81B76B502F113D8F5EE8FB1BE3111CDD4FC2AA9B844CAB1288B68AB90A7CDC
310
1C166AB0D3DC5310625FCC14E779BFD0709F8890A629C9292B1B2DED31A4B0DA928CEE135085754027E3018A397D4D5427D15BD1330B677DC8934285AC3DF45A9EB68FF8F2B8FC0A509AFEECFD0FF2DE25CC6047F7214B195F07EFEB9A094D800F7BFAE8FED187B78EA8A3A400F115961BCAD1215E47C966530AF0EE8128FE
310
58CEBB996A8964FFA529A046635D9353B0336A8F700DDF46271A024E70B0B37C9DE01847591E54DED53D54202AB947E4076556AC49C6CA5C9E1226B7F1A7B1BE15DEED62C41B91E1B3E9AFAAA735036547343A925075041DF0A9979E893B391F8FCFA6967B3EFB644DCF6E5CEBFAE272625DCC6FAF3FB93793C5F90CE1EF57
310
407342756B10D1C489E8953CD1617E5CEECAD6F4EF8914CE5D5D504E5C3F1F9736DA62CFC11E00BCDDB8CC8A9466349744C1F75EBDA4DF09BA8A9E8C7A7E9991989E20E5DBDD6A6003664ED8F7A04A8DBE0DF6EAD9B9AA858342E47399053949D2C146EDB85DE4B176BB0965FBAC19BD19AA918E27FA50C1D22402E144464C
310
59462568E704B6E71915404CB72B8FF4EDE184DDAF753F284990D2C6926782963815403548A70C657FDEF80D2D9CEAA2AE4C1C76F60BFE74219A06527D6582DF6412526107381E55E353090704D085B52408D0933C4ED159D79BDA71BB4BC506F4831350EB6F979CD22D69BF7AC49B91A2C0A9DDA3D5CA36AD20FC478E37E6
310
1844E2352865EBCB6EA275A652E3836BE04EFB400BF1A2556F515F1FBB35B2AB35BD889C744FFA1004B5544B121E57F70215746DD2F5E2C1412B602CBF19455AC6C8E5E9922C4E01E65215385004546899059180EAFCF7A707CE7017CD8CDB0410789AB32C63B91E5CEBBBACB17AC6CD347A022D5075FD106377347AAABA7E
310
7D11590744509B44E205134DC1290F06580320F78E537D3D73540E06CB970B431F185308AD40BBD794D6D77003C5A36E8EAA54BA64597CD8F83BD552A080A365F7FF06504B0304140006080000CC70623B000000000000000000000000350000006662782F39464131463745442D413632322D343644302D413938332D3331
310
353338454246344243312F76657274696365732E62696E504B0304140006080800CC70623BF270F1330600000004000000360000006662782F39464131463745442D413632322D343644302D413938332D3331353338454246344243312F747269616E676C65732E62696E636660600000504B0304140006080000CC70623B
310
000000000000000000000000370000006662782F39464131463745442D413632322D343644302D413938332D3331353338454246344243312F617474726962757465732E62696E504B0304140006080800CC70623B08DA0BD19000000041010000360000006662782F39464131463745442D413632322D343644302D413938
310
332D3331353338454246344243312F6469726563746F72792E786D6C858F410AC3201045AF22B36F53E9A60B35CBEEBAE80D244E44489C6234F4F835464A48035D0DF398FF9F8AF63D0E6CC63039F212F8F9020C7D47C6792B21C5FE7403D62A1188E2E60C98D7234A5830286103A55745067B9D86B8A3CF9C7F90C11DE607
310
FB144396D7B6A82D282E9A152AD114D5EF2CB866EEE831B8EEA07A7BB5A8D7D61A2BAAEB7FD5F70921FF497D00504B0304140006080800CC70623B0D6EF93BFE000000A00100003B0000006662782F39464131463745442D413632322D343644302D413938332D3331353338454246344243312F7265736F75726365732F63
310
6F72652E786D6C8D50596E833010BD0A9ADFCA60B334011947A8694ED00B586642AC041B79A97AFC9A40A5F6AF3F33A3B7689E1E3F7DCD8FEC139DD7D6F4C0720A191A65476DA61E62B892236427C19DB5E1970C322367EC618541F0C9D9B8EC90B226A009093576C41D94DE63804C3DD2D18357379C652E63480A7FCF17A9
310
EE72C29CE5894E3AC17D702940B63D59270887DE46A7D0F36263058F518FBB468FE9A7BE6A7420864373B8D4873369AA8691FA421B3294352543C5CAF65C0F6FEF43CB8BD52C78D0F34F46E550061C419494B6843142CB0F5677F4B52BEB177AEC28E5C52AFF638ACBF84F53D42654E51E77B379102C05791282176B5F693D
310
CB4C7BED567C03504B010214000A0000080000CC70623B3DEE336E79000000790000001B00000000000000000000000000000000006175746F6465736B2D64657369676E2D7061636B6167652E786D6C504B01021400140006080800CC70623BD486FD9CA0000000F40000001300000000000000000000000000B20000005B
310
436F6E74656E745F54797065735D2E786D6C504B01021400140006080800CC70623B1EC5D7A3EB0000007C010000080000000000000000000000000083010000636F72652E786D6C504B01021400140006080800CC70623B55019EA25F0000007C000000070000000000000000000000000094020000636E782E786D6C504B
310
01021400140006080800CC70623B8C9102E971010000D40300000C00000000000000000000000000180300006662782F636F72652E786D6C504B01021400140006080800CC70623BFFEA85907E0000009D0000000B00000000000000000000000000B30400006662782F636E782E786D6C504B01021400140006080800CC70
310
623B4FEEA4082C0100001202000031000000000000000000000000005A0500006662782F39464131463745442D413632322D343644302D413938332D3331353338454246344243312F636F72652E786D6C504B01021400140006080800CC70623BAD7543B64E010000330300003000000000000000000000000000D5060000
310
6662782F39464131463745442D413632322D343644302D413938332D3331353338454246344243312F636E782E786D6C504B01021400140006080800CC70623B16AB87BA640500003C1000003400000000000000000000000000710800006662782F39464131463745442D413632322D343644302D413938332D3331353338
310
454246344243312F6F626A656374732E786D6C504B01021400140006080000CC70623B0000000000000000000000003500000000000000000000000000270E00006662782F39464131463745442D413632322D343644302D413938332D3331353338454246344243312F76657274696365732E62696E504B01021400140006
310
080800CC70623BF270F133060000000400000036000000000000000000000000007A0E00006662782F39464131463745442D413632322D343644302D413938332D3331353338454246344243312F747269616E676C65732E62696E504B01021400140006080000CC70623B0000000000000000000000003700000000000000
310
000000000000D40E00006662782F39464131463745442D413632322D343644302D413938332D3331353338454246344243312F617474726962757465732E62696E504B01021400140006080800CC70623B08DA0BD190000000410100003600000000000000000000000000290F00006662782F39464131463745442D413632
310
322D343644302D413938332D3331353338454246344243312F6469726563746F72792E786D6C504B01021400140006080800CC70623B0D6EF93BFE000000A00100003B000000000000000000000000000D1000006662782F39464131463745442D413632322D343644302D413938332D3331353338454246344243312F7265
310
736F75726365732F636F72652E786D6C504B0506000000000E000E0080040000641100000000
  0
XRECORD
  5
E
102
{ACAD_REACTORS
330
D
102
}
330
D
100
AcDbXrecord
280
     1
102
MATERIAL
148
0.0
149
0.0
149
0.0
 93
        0
 94
      127
282
     0
 72
     1
 77
     1
171
     1
175
     1
179
     1
273
     0
  0
XRECORD
  5
F
102
{ACAD_REACTORS
330
D
102
}
330
D
100
AcDbXrecord
280
     1
270
     1
271
     1
  0
XRECORD
  5
10
102
{ACAD_REACTORS
330
D
102
}
330
D
100
AcDbXrecord
280
     1
270
     1
271
     1
  0
XRECORD
  5
11
102
{ACAD_REACTORS
330
D
102
}
330
D
100
AcDbXrecord
280
     1
 70
     0
 90
1673772943
  1
ECE7A1D2-D628-4531-984C-D00F80459256
310
504B03040A0000080000CC70623B3DEE336E79000000790000001B0000006175746F6465736B2D64657369676E2D7061636B6167652E786D6C3C3F786D6C2076657273696F6E3D22312E302220656E636F64696E673D227574662D3822203F3E3C666F726D6174733E3C666F726D61743E687474703A2F2F736368656D612E
310
6175746F6465736B2E636F6D2F64657369676E2D7061636B6167652F323030393C2F666F726D61743E3C2F666F726D6174733E504B0304140006080800CC70623BD486FD9CA0000000F4000000130000005B436F6E74656E745F54797065735D2E786D6C7D8EC10E82300C865F65E91D8A1E8C310C0EEA1BF002731658846E
310
D98AC1B77784ABF1D8FE5FBFBF75BBCE937A534CCEB38643598122B6FEE978D0B0485F9C41B54DDD7D022595594E1A469170414C76A4D9A4D207E29CF43ECE46F218070CC6BECC4078ACAA135ACF422C856C0E68EA1BF5669944DDD7BCDE7B1F8E415D77AECB980613C2E4AC91FC167A2B244592486606FC29C8FD7F045B9A
310
EF7053A7E60B504B0304140006080800CC70623BD9DDAED0EC0000007C01000008000000636F72652E786D6C8D90416EC3201045AF82665B61836D9CD8C2444DD39CA01740405C94182C03558F5F9C3852BBEB6A467FFE9B197D7EF89E6EE8CB2CC17A37002D0820E394D7D68D03A478C17B4007C117EFE32F1B20272733C0
310
2A83E0E3E2D3BC49CABB685CCCAAF3DA6CA20CC14440EA969B0182FA34932C648AD911AEC52CD5558EA6A0CF2EC329598D1E47ACCEFBECC59A050463A7EA5833865FEBDD0E37353BE3EE8DBDE3F6786A48D375FBF6CC78B9C282473B3DEFABC5C86834888A900E538A49F5419B9EB47DD5BC907D4F082F57FB1F28CDFA9F50
310
B22ED6D5F6EE030B20687EE43E10BC5CB3C8E51E54AE6B6EE207504B0304140006080800CC70623B55019EA25F0000007C00000007000000636E782E786D6C4DCB3B0E80201045D1AD90E915ED2CF8AC45050C11660C8261F98AB1B07AC9C97D42D718D865D3E909258CFD00CCE24AC6E326A164D74DC0B4128928FF326038
310
472BA13128B1252AC747C6BAB984FC68F0B87FE8960A5C09FE86CFB69FBA01504B0304140006080800CC70623BA24EB22D72010000D40300000C0000006662782F636F72652E786D6CC5535B6E833010BC8AE5DF0A6C5E49888CA3A6694ED00B38E05014B091B1518EDFE511A5A9D228FD2A1F60CDEC7A67C6986DCE4D8D7A
310
69BA4AAB0C073EC548AA5C17952A33ECECD15B61B4E1CC686DBF9561A44423333CC098B3D268D7CE50AE9595CA02AA74216750749DB418E5352C32DCE59FB211BE70162ABA93DF8AFC244AE9073ED050C759670D0840D390E18DF9F1706664C23973AE2A66B62A605A75ACA4C13C4976E1364A12EF355A2EBD384AF65EFA96
310
BC7B8BED2EA6719AAE16FB8491A199335B351775B991C2CA02F390D2D40B028F861F41BCA68B7518BFD0D59A524686F29B26D7164F36B94AD9289CE54E6D1DE6010819891F6E21228B3AD1831EC219194284CF98F06DD01008846CC5A1BEF83801D4CBDC6A1303536877A57A513B0953A94FC707FDBE6064EA84A9E3E6E0FA
310
EE8CF0E9198F7784A316AA0413C2C2F2E0ECA0934D1AE6D05A69BCDE9E91D2A611F573361E38FC1375157F5752AE6B6DFE4B11990F88CCBF0719EE23FF02504B0304140006080800CC70623B408A7D3B7C0000009D0000000B0000006662782F636E782E786D6C4DCCD10A83201886E15B91FFDC552A92A0064DBC8F581632
310
D3703A76F9ABD1C18E3E78F878E5F0D9027ABBFCF2292AE86E2D20171F69F6715550CB827B40839639A5F2770314A7CD293819B45C73AAFB45B35BA61ACAA1C1C7E7855C58C15BC331339661262CC762340413D68D77DA5B42298546CBE6573AF60CEB2F504B0304140006080800CC70623B449FB9BD290100001202000031
310
0000006662782F36394639363044362D344446342D343946362D394244322D3234314243333846323333332F636F72652E786D6C8D515B6EC32010BC0AE22B55850D98B871848994463E412FE002495162B07854397EA176A4F62F3F2C9A9D991D587EB84F37F0AD7D30CEF6905418026DA553C65E7A98E219ED203808EE9D
310
8B7F6810D871D23D2C3014FCE25D9A57483A1BB58D19B54EE9151C43D0110279CB971E06F9A5A7B11A53CC8C70ADE6515EC78BAE4895DB992778883E0700CB907242D17643D7E2538BD869608875438BBAE38922CAC8F1BDD90DB4691A5E2F42C153326A951B95E398B3D1FE599322163C9AE9115F7A3D46ADA0A018778810
310
84E907617BDCEE297BC5BB3DC6BC2EF47FA234AB2745C9D8D8D035EE220B50105E2F0DC1954B9FB747187D9F9D8FA0CCDB042D5FA0C015C65B42DF78BD10F3F3B363CB56C7109DCFDFBBB97E662ED92EB62D13BC2E1BCAE5777DB9966D8A1F504B0304140006080800CC70623BAD7543B64E01000033030000300000006662
310
782F36394639363044362D344446342D343946362D394244322D3234314243333846323333332F636E782E786D6CD593CD6EC32010845F0571AD6CE3D48AD20813A9873E410FBD12D82434182C7EAAE6EDBB2424CD25871E7B41D6EC30B3FA84F9E67BB2E40B4234DE8DB46F1925E094D7C6ED479AD3AE5951B2113C789FEE
310
6C943839C1488B4C05DF079FE72A69D8C96C13AAD6B8631503449F83828872B949AC57D26200B826A308D316B4064D6E46FCDA41C05550DC9E483A00797BFD207EFB092A45DE9514C1BBD22178396BD39D891265658C238DEA00936C654E5E433CB65A26D9F6EDB5EBC14EBF49A45CB856E66048291F6939A9A81BB5C89177
310
38143CA680F4AA299D66A042CEB3354A2684DC9D8D178FE0D9B8B41CAAD720F880EE7EF93C0C18769E099ECC04D5A102C8049A8A05632F4DDF376CF1DE0F6BB65C2F8627B65A33C6BB62177CEBBDAD973006829F89F22E814B54F4BC2BE347F8AA8F681390B50FA73F804400B5F542E796F19FF974E7F78DB802FE05E20750
310
4B0304140006080800CC70623B8D05915C650500003B100000340000006662782F36394639363044362D344446342D343946362D394244322D3234314243333846323333332F6F626A656374732E786D6CAD575B6FA33814FE2B887D06429276DA1565D4266D158D3A339A6846FB502932E050B66023DB74D2FDF5FB190C01
310
9276B2973C046C8ECFF53B17071F77456EBD502133CEAE6CDF9DD81665314F32965ED995DA3A17B6F5310C04E7AA47665B8C14F4CAD6DB7618A48257A5D94AE89654B91AEDDEDDFC61C998326A5B714EA4BCB265FC440BE2924AF184CA6737218AB8E976E7FA6E4338649B0A523E8D98964450A6A029F619B8588D52FE7039
310
B1BD30F0F4F730D0FF866AF6369557DB33949F31A9088B0F848DD8CCFCF9F2767A76E99CCDE733677E3EF59D9BBB9BA5E37F984D16E78BC5E5F5ED25044B25C0C96822E8D60EEFE11B91C581D77CEA34368A1F5329E68CD1B8B61F16D63A1B8E092D294B10C78C4A48EB593D192E7DED9BDEE7995E1B91FDEDD3ACEA9FE831
310
6A756F9F7D4D79F4274C90A7A04248AA51D5F8C718DAE06FB2F75AC4796EBE65D22A88A22223B995679120E2D50E41AA49C260C046A35368846B0BECD0DFF3EBEB8AD4F835768F69B9ADF25C43D30E6B646F807FAA64AD59F61715C7A54127C4AACA98BA3006A9D792DAE165E0D59B61A01FB3A9F9D838D2DAE62445C86166
310
F37564E842E7DE6A69879FEEA2DD5AE7E371E1A5E025154AC307D06A03D73EB5978C58FFA4C8E9033066E0F3BD53BEC1F39F91BE7B55103791EDE6BBB991A2046172CB4581D8B893FA674DDA17A77B3B7C413D1B511FD2743BFF8A38F03A658705E3ADF8015C3A3417FF3D7E439FF591DA0B5F18BC20C1B8981957AE6392A3
310
F43C640C01D1A0B4728E2DD4F26DB4B3C3152A252A3B4E913CEC1C72F012782FF88EFF8637AA552DBEF76408E8A8DE9E50F9E1CB3A2DA0DB1B6039A893B56063DC5B3E3FFB5F72E67AB9FEB4AEC496C4F4C1149625DD662C53E89D7BF0F6151A046260D1337DFDC94502430F83B0EE07A130A224BCAD7DAE1D9FB6CD422FF6
310
920702629C4BB9AE79C12F243C6432A6794E18E5552BA56B431AAB5D91317302B2B071E86C3A42B1A02F999E24061403B5D0EB639195DA655DD3EBEAB4FB862DDF579F014AD0E73C22F99E28DA57FB98E75C6CA2D74D53086D600F4786E0FE3144B771A8A7B900F03594DB8A633CBC49B2EDB69228BB479CF863B5E807AAAB
310
23872F6DFEB4129B949CA33823F58830E86D65621E10047D9DB34D862E8EAC3C2ABC2F7B2C40D67CDFE01F5545B92105AF983AC54D93D69E56FB8E797F88913F898A9FEC705D3F9D1B54EC8426FB500D40A03BD0119B06E1B95DDC7EB8F6975367793EBD70E66733DFB9BC982F9CE564727731999F5D4ECFCE3B8D6A4DC2A0
310
6D50FD148437D110834A64C6CDDF57FBACB5C307A2A477DFE4939736CFEF2B175371E0E10CF0DD1D5C15654E0BCA14D1E87DD02FF93782A162C0A3D95F1524A52770F972BF1EE9809D13CE7DD599467F8ECE9ADD85CE85A34CD45355448C64F9E8A031DC2D596ACC6E5DD93D9B82DE2EF5CAF81363A8E47996A0DE24564A79
310
4115AACE09C55E14540231FDA13C319787134EBF34E3A022514E5B4D9E0826E25C02D5805B15ABE1BEF51B26383D445DD9E875EE33FE4C22DA16427D65A3BCA92CA6D28DD01DF5DC53330704308475351050232CCD31583787BA75774AFB06E5070DD0C8EF484E19968C5D83BA5B90B244D31E54D55A372320FE4786B7EA58
310
44E135AA5467CB7EA333A61683CC6A8C3257034C10CF46F40EF9F5BE59BE5BD30C3C72D235E95D10345C1D45445A5F0BB47E46A5EBE5570F9380B5FA629579952296A773720405982B9DE04011506178964401AA8BDF1FBF0A8EAB6861DD6580C0E38217056766716DAEB2D6FA0917D3E4116581EADB879C4E7CFFB11EFACD
310
3D641311495D92C8676CB409A72D18610D803CE8A626049E8EC1887CB5B44CC39883690DDA8399B4B9855B481E7D71D4A9D22F96E5BB73BF5793020C02137BF837504B0304140006080000CC70623B000000000000000000000000350000006662782F36394639363044362D344446342D343946362D394244322D32343142
310
43333846323333332F76657274696365732E62696E504B0304140006080800CC70623BF270F1330600000004000000360000006662782F36394639363044362D344446342D343946362D394244322D3234314243333846323333332F747269616E676C65732E62696E636660600000504B0304140006080000CC70623B0000
310
00000000000000000000370000006662782F36394639363044362D344446342D343946362D394244322D3234314243333846323333332F617474726962757465732E62696E504B0304140006080800CC70623B08DA0BD19000000041010000360000006662782F36394639363044362D344446342D343946362D394244322D
310
3234314243333846323333332F6469726563746F72792E786D6C858F410AC3201045AF22B36F53E9A60B35CBEEBAE80D244E44489C6234F4F835464A48035D0DF398FF9F8AF63D0E6CC63039F212F8F9020C7D47C6792B21C5FE7403D62A1188E2E60C98D7234A5830286103A55745067B9D86B8A3CF9C7F90C11DE607FB14
310
4396D7B6A82D282E9A152AD114D5EF2CB866EEE831B8EEA07A7BB5A8D7D61A2BAAEB7FD5F70921FF497D00504B0304140006080800CC70623BCA768048FE000000A00100003B0000006662782F36394639363044362D344446342D343946362D394244322D3234314243333846323333332F7265736F75726365732F636F72
310
652E786D6C8D50596E833010BD0A9ADFCA60D600328E9AA639412F609909B1126CE4A5EAF16B0295DABFFECC8CDEA2797AECF8353F924FB44E193D409E5248504B332A3D0D10FC95B4901C39B3C6F85F3248B49871801506CE266BC2B243D2688FDA47549B11775038871E12F988C7004EDE7016A9083E2ADC3D5D84BC8B09
310
D33C8D74D471E6BC8D0192EDC93A815B742658898E651BCB59086ADC356A8C3FD555A1055ED7E7E254D615792D0F075295F585746FF53B694EE78A565DD736979A65AB9933AFE69F8CD2A2F038022F28ED489E135A7CE4554F9BBEA85E68DB53CAB255FEC71496F19FA6A0B42F8B3DEE6673C0F318E4497096AD7DC5F52C33
310
EEB55BFE0D504B010214000A0000080000CC70623B3DEE336E79000000790000001B00000000000000000000000000000000006175746F6465736B2D64657369676E2D7061636B6167652E786D6C504B01021400140006080800CC70623BD486FD9CA0000000F40000001300000000000000000000000000B20000005B436F
310
6E74656E745F54797065735D2E786D6C504B01021400140006080800CC70623BD9DDAED0EC0000007C010000080000000000000000000000000083010000636F72652E786D6C504B01021400140006080800CC70623B55019EA25F0000007C000000070000000000000000000000000095020000636E782E786D6C504B0102
310
1400140006080800CC70623BA24EB22D72010000D40300000C00000000000000000000000000190300006662782F636F72652E786D6C504B01021400140006080800CC70623B408A7D3B7C0000009D0000000B00000000000000000000000000B50400006662782F636E782E786D6C504B01021400140006080800CC70623B
310
449FB9BD290100001202000031000000000000000000000000005A0500006662782F36394639363044362D344446342D343946362D394244322D3234314243333846323333332F636F72652E786D6C504B01021400140006080800CC70623BAD7543B64E010000330300003000000000000000000000000000D20600006662
310
782F36394639363044362D344446342D343946362D394244322D3234314243333846323333332F636E782E786D6C504B01021400140006080800CC70623B8D05915C650500003B10000034000000000000000000000000006E0800006662782F36394639363044362D344446342D343946362D394244322D32343142433338
310
46323333332F6F626A656374732E786D6C504B01021400140006080000CC70623B0000000000000000000000003500000000000000000000000000250E00006662782F36394639363044362D344446342D343946362D394244322D3234314243333846323333332F76657274696365732E62696E504B010214001400060808
310
00CC70623BF270F13306000000040000003600000000000000000000000000780E00006662782F36394639363044362D344446342D343946362D394244322D3234314243333846323333332F747269616E676C65732E62696E504B01021400140006080000CC70623B00000000000000000000000037000000000000000000
310
00000000D20E00006662782F36394639363044362D344446342D343946362D394244322D3234314243333846323333332F617474726962757465732E62696E504B01021400140006080800CC70623B08DA0BD190000000410100003600000000000000000000000000270F00006662782F36394639363044362D344446342D
310
343946362D394244322D3234314243333846323333332F6469726563746F72792E786D6C504B01021400140006080800CC70623BCA768048FE000000A00100003B000000000000000000000000000B1000006662782F36394639363044362D344446342D343946362D394244322D3234314243333846323333332F7265736F
310
75726365732F636F72652E786D6C504B0506000000000E000E0080040000621100000000
  0
XRECORD
  5
12
102
{ACAD_REACTORS
330
D
102
}
330
D
100
AcDbXrecord
280
     1
270
     1
271
     1
  0
XRECORD
  5
13
102
{ACAD_REACTORS
330
D
102
}
330
D
100
AcDbXrecord
280
     1
270
     1
271
     1
  0
CELLSTYLEMAP
  5
3EB
102
{ACAD_REACTORS
330
44
102
}
330
44
100
AcDbCellStyleMap
 90
        3
300
CELLSTYLE
  1
TABLEFORMAT_BEGIN
 90
        5
170
     1
 91
        0
 92
    32768
 62
   257
 93
        1
300
CONTENTFORMAT
  1
CONTENTFORMAT_BEGIN
 90
        0
 91
        0
 92
      512
 93
        0
300

 40
0.0
140
1.0
 94
        5
 62
     0
340
23
144
6.0
309
CONTENTFORMAT_END
171
     1
301
MARGIN
  1
CELLMARGIN_BEGIN
 40
1.5
 40
1.5
 40
1.5
 40
1.5
 40
0.18
 40
0.18
309
CELLMARGIN_END
 94
        6
 95
        1
302
GRIDFORMAT
  1
GRIDFORMAT_BEGIN
 90
        0
 91
        1
 62
     0
 92
       -2
340
26
 93
        0
 40
1.125
309
GRIDFORMAT_END
 95
        2
302
GRIDFORMAT
  1
GRIDFORMAT_BEGIN
 90
        0
 91
        1
 62
     0
 92
       -2
340
26
 93
        0
 40
1.125
309
GRIDFORMAT_END
 95
        4
302
GRIDFORMAT
  1
GRIDFORMAT_BEGIN
 90
        0
 91
        1
 62
     0
 92
       -2
340
26
 93
        0
 40
1.125
309
GRIDFORMAT_END
 95
        8
302
GRIDFORMAT
  1
GRIDFORMAT_BEGIN
 90
        0
 91
        1
 62
     0
 92
       -2
340
26
 93
        0
 40
1.125
309
GRIDFORMAT_END
 95
       16
302
GRIDFORMAT
  1
GRIDFORMAT_BEGIN
 90
        0
 91
        1
 62
     0
 92
       -2
340
26
 93
        0
 40
1.125
309
GRIDFORMAT_END
 95
       32
302
GRIDFORMAT
  1
GRIDFORMAT_BEGIN
 90
        0
 91
        1
 62
     0
 92
       -2
340
26
 93
        0
 40
1.125
309
GRIDFORMAT_END
309
TABLEFORMAT_END
  1
CELLSTYLE_BEGIN
 90
        1
 91
        1
300
_TITLE
309
CELLSTYLE_END
300
CELLSTYLE
  1
TABLEFORMAT_BEGIN
 90
        5
170
     1
 91
        0
 92
        0
 62
   257
 93
        1
300
CONTENTFORMAT
  1
CONTENTFORMAT_BEGIN
 90
        0
 91
        0
 92
      512
 93
        0
300

 40
0.0
140
1.0
 94
        5
 62
     0
340
23
144
4.5
309
CONTENTFORMAT_END
171
     1
301
MARGIN
  1
CELLMARGIN_BEGIN
 40
1.5
 40
1.5
 40
1.5
 40
1.5
 40
0.18
 40
0.18
309
CELLMARGIN_END
 94
        6
 95
        1
302
GRIDFORMAT
  1
GRIDFORMAT_BEGIN
 90
        0
 91
        1
 62
     0
 92
       -2
340
26
 93
        0
 40
1.125
309
GRIDFORMAT_END
 95
        2
302
GRIDFORMAT
  1
GRIDFORMAT_BEGIN
 90
        0
 91
        1
 62
     0
 92
       -2
340
26
 93
        0
 40
1.125
309
GRIDFORMAT_END
 95
        4
302
GRIDFORMAT
  1
GRIDFORMAT_BEGIN
 90
        0
 91
        1
 62
     0
 92
       -2
340
26
 93
        0
 40
1.125
309
GRIDFORMAT_END
 95
        8
302
GRIDFORMAT
  1
GRIDFORMAT_BEGIN
 90
        0
 91
        1
 62
     0
 92
       -2
340
26
 93
        0
 40
1.125
309
GRIDFORMAT_END
 95
       16
302
GRIDFORMAT
  1
GRIDFORMAT_BEGIN
 90
        0
 91
        1
 62
     0
 92
       -2
340
26
 93
        0
 40
1.125
309
GRIDFORMAT_END
 95
       32
302
GRIDFORMAT
  1
GRIDFORMAT_BEGIN
 90
        0
 91
        1
 62
     0
 92
       -2
340
26
 93
        0
 40
1.125
309
GRIDFORMAT_END
309
TABLEFORMAT_END
  1
CELLSTYLE_BEGIN
 90
        2
 91
        1
300
_HEADER
309
CELLSTYLE_END
300
CELLSTYLE
  1
TABLEFORMAT_BEGIN
 90
        5
170
     1
 91
        0
 92
        0
 62
   257
 93
        1
300
CONTENTFORMAT
  1
CONTENTFORMAT_BEGIN
 90
        0
 91
        0
 92
      512
 93
        0
300

 40
0.0
140
1.0
 94
        2
 62
     0
340
23
144
4.5
309
CONTENTFORMAT_END
171
     1
301
MARGIN
  1
CELLMARGIN_BEGIN
 40
1.5
 40
1.5
 40
1.5
 40
1.5
 40
0.18
 40
0.18
309
CELLMARGIN_END
 94
        6
 95
        1
302
GRIDFORMAT
  1
GRIDFORMAT_BEGIN
 90
        0
 91
        1
 62
     0
 92
       -2
340
26
 93
        0
 40
1.125
309
GRIDFORMAT_END
 95
        2
302
GRIDFORMAT
  1
GRIDFORMAT_BEGIN
 90
        0
 91
        1
 62
     0
 92
       -2
340
26
 93
        0
 40
1.125
309
GRIDFORMAT_END
 95
        4
302
GRIDFORMAT
  1
GRIDFORMAT_BEGIN
 90
        0
 91
        1
 62
     0
 92
       -2
340
26
 93
        0
 40
1.125
309
GRIDFORMAT_END
 95
        8
302
GRIDFORMAT
  1
GRIDFORMAT_BEGIN
 90
        0
 91
        1
 62
     0
 92
       -2
340
26
 93
        0
 40
1.125
309
GRIDFORMAT_END
 95
       16
302
GRIDFORMAT
  1
GRIDFORMAT_BEGIN
 90
        0
 91
        1
 62
     0
 92
       -2
340
26
 93
        0
 40
1.125
309
GRIDFORMAT_END
 95
       32
302
GRIDFORMAT
  1
GRIDFORMAT_BEGIN
 90
        0
 91
        1
 62
     0
 92
       -2
340
26
 93
        0
 40
1.125
309
GRIDFORMAT_END
309
TABLEFORMAT_END
  1
CELLSTYLE_BEGIN
 90
        3
 91
        2
300
_DATA
309
CELLSTYLE_END
  0
XRECORD
  5
3F7
102
{ACAD_REACTORS
330
44
102
}
330
44
100
AcDbXrecord
280
     1
102
ACAD_ROUNDTRIP_PRE2007_TABLESTYLE
 90
      512
 91
        0
  1

 92
      512
 93
        0
  2

 94
      512
 95
        0
  3

  0
XRECORD
  5
3F6
102
{ACAD_REACTORS
330
3F5
102
}
330
3F5
100
AcDbXrecord
280
     1
102
RTVSPost2010Prop28
280
     1
102
RTVSPost2010PropOp28
 70
     1
102
RTVSPost2010Prop29
280
     1
102
RTVSPost2010PropOp29
 70
     1
102
RTVSPost2010Prop30
280
     0
102
RTVSPost2010PropOp30
 70
     1
102
RTVSPost2010Prop31
280
     0
102
RTVSPost2010PropOp31
 70
     1
102
RTVSPost2010Prop32
280
     0
102
RTVSPost2010PropOp32
 70
     1
102
RTVSPost2010Prop33
280
     0
102
RTVSPost2010PropOp33
 70
     1
102
RTVSPost2010Prop34
280
     0
102
RTVSPost2010PropOp34
 70
     1
102
RTVSPost2010Prop35
280
     0
102
RTVSPost2010PropOp35
 70
     1
102
RTVSPost2010Prop36
280
     0
102
RTVSPost2010PropOp36
 70
     1
102
RTVSPost2010Prop37
 90
       50
102
RTVSPost2010PropOp37
 70
     1
102
RTVSPost2010Prop38
140
0.0
102
RTVSPost2010PropOp38
 70
     1
102
RTVSPost2010Prop39
140
1.0
102
RTVSPost2010PropOp39
 70
     1
102
RTVSPost2010Prop40
 90
        0
102
RTVSPost2010PropOp40
 70
     1
102
RTVSPost2010Prop41ColorIndex
 90
       18
102
RTVSPost2010Prop41ColorRGB
 90
        0
102
RTVSPost2010PropOp41
 70
     1
102
RTVSPost2010Prop42
 90
       50
102
RTVSPost2010PropOp42
 70
     1
102
RTVSPost2010Prop43
 90
        3
102
RTVSPost2010PropOp43
 70
     1
102
RTVSPost2010Prop44ColorIndex
 90
        5
102
RTVSPost2010Prop44ColorRGB
 90
      255
102
RTVSPost2010PropOp44
 70
     1
102
RTVSPost2010Prop45
280
     0
102
RTVSPost2010PropOp45
 70
     1
102
RTVSPost2010Prop46
 90
       50
102
RTVSPost2010PropOp46
 70
     1
102
RTVSPost2010Prop47
 90
       50
102
RTVSPost2010PropOp47
 70
     1
102
RTVSPost2010Prop48
 90
       50
102
RTVSPost2010PropOp48
 70
     1
102
RTVSPost2010Prop49
280
     0
102
RTVSPost2010PropOp49
 70
     1
102
RTVSPost2010Prop50
 90
       50
102
RTVSPost2010PropOp50
 70
     1
102
RTVSPost2010Prop51ColorIndex
 90
      256
102
RTVSPost2010Prop51ColorRGB
 90
-16777216
102
RTVSPost2010PropOp51
 70
     0
102
RTVSPost2010Prop52
140
1.0
102
RTVSPost2010PropOp52
 70
     0
102
RTVSPost2010Prop53
 90
        2
102
RTVSPost2010PropOp53
 70
     1
102
RTVSPost2010Prop54
  1
strokes_ogs.tif
102
RTVSPost2010PropOp54
 70
     1
102
RTVSPost2010Prop55
280
     0
102
RTVSPost2010PropOp55
 70
     1
102
RTVSPost2010Prop56
140
1.0
102
RTVSPost2010PropOp56
 70
     1
102
RTVSPost2010Prop57
140
1.0
102
RTVSPost2010PropOp57
 70
     1
102
RTVSPropertyOp0
 70
     1
102
RTVSPropertyOp1
 70
     1
102
RTVSPropertyOp2
 70
     1
102
RTVSPropertyOp3
 70
     1
102
RTVSPropertyOp4
 70
     1
102
RTVSPropertyOp5
 70
     1
102
RTVSPropertyOp6
 70
     1
102
RTVSPropertyOp7
 70
     1
102
RTVSPropertyOp8
 70
     1
102
RTVSPropertyOp9
 70
     1
102
RTVSPropertyOp10
 70
     1
102
RTVSPropertyOp11
 70
     1
102
RTVSPropertyOp12
 70
     1
102
RTVSPropertyOp13
 70
     1
102
RTVSPropertyOp14
 70
     1
102
RTVSPropertyOp15
 70
     1
102
RTVSPropertyOp16
 70
     1
102
RTVSPropertyOp17
 70
     1
102
RTVSPropertyOp18
 70
     1
102
RTVSPropertyOp19
 70
     1
102
RTVSPropertyOp20
 70
     1
102
RTVSPropertyOp21
 70
     1
102
RTVSPropertyOp22
 70
     1
102
RTVSPropertyOp23
 70
     1
102
RTVSPropertyOp24
 70
     1
102
RTVSPropertyOp25
 70
     1
102
RTVSPropertyOp26
 70
     1
102
RTVSPropertyOp27
 70
     1
102
RTVSPropertyOp28
 70
     1
102
RTVSPropertyOp29
 70
     1
102
RTVSPropertyOp30
 70
     1
102
RTVSPropertyOp31
 70
     1
102
RTVSPropertyOp32
 70
     1
102
RTVSPropertyOp33
 70
     1
102
RTVSPropertyOp34
 70
     1
102
RTVSPropertyOp35
 70
     1
102
RTVSPropertyOp36
 70
     1
102
RTVSPropertyOp37
 70
     1
102
RTVSPropertyOp38
 70
     1
102
RTVSPropertyOp39
 70
     1
102
RTVSPropertyOp40
 70
     1
102
RTVSPropertyOp41
 70
     1
102
RTVSPropertyOp42
 70
     1
102
RTVSPropertyOp43
 70
     1
102
RTVSPropertyOp44
 70
     1
102
RTVSPropertyOp45
 70
     1
102
RTVSPropertyOp46
 70
     1
102
RTVSPropertyOp47
 70
     1
102
RTVSPropertyOp48
 70
     1
102
RTVSPropertyOp49
 70
     1
102
RTVSPropertyOp50
 70
     1
102
RTVSPropertyOp51
 70
     0
102
RTVSPropertyOp52
 70
     0
102
RTVSPropertyOp53
 70
     1
102
RTVSPropertyOp54
 70
     1
102
RTVSPropertyOp55
 70
     1
102
RTVSPropertyOp56
 70
     1
102
RTVSPropertyOp57
 70
     1
102
RTVSPropertyOp58
 70
     1
102
RTVSPropertyOp59
 70
     1
102
RTVSPropertyOp60
 70
     1
102
RTVSPropertyOp61
 70
     1
102
RTVSPropertyOp62
 70
     1
  0
XRECORD
  5
3F9
102
{ACAD_REACTORS
330
3F8
102
}
330
3F8
100
AcDbXrecord
280
     1
102
RTVSPost2010Prop28
280
     0
102
RTVSPost2010PropOp28
 70
     1
102
RTVSPost2010Prop29
280
     1
102
RTVSPost2010PropOp29
 70
     1
102
RTVSPost2010Prop30
280
     1
102
RTVSPost2010PropOp30
 70
     1
102
RTVSPost2010Prop31
280
     0
102
RTVSPost2010PropOp31
 70
     1
102
RTVSPost2010Prop32
280
     0
102
RTVSPost2010PropOp32
 70
     1
102
RTVSPost2010Prop33
280
     0
102
RTVSPost2010PropOp33
 70
     1
102
RTVSPost2010Prop34
280
     0
102
RTVSPost2010PropOp34
 70
     1
102
RTVSPost2010Prop35
280
     0
102
RTVSPost2010PropOp35
 70
     1
102
RTVSPost2010Prop36
280
     0
102
RTVSPost2010PropOp36
 70
     1
102
RTVSPost2010Prop37
 90
       50
102
RTVSPost2010PropOp37
 70
     1
102
RTVSPost2010Prop38
140
0.0
102
RTVSPost2010PropOp38
 70
     1
102
RTVSPost2010Prop39
140
1.0
102
RTVSPost2010PropOp39
 70
     1
102
RTVSPost2010Prop40
 90
        0
102
RTVSPost2010PropOp40
 70
     1
102
RTVSPost2010Prop41ColorIndex
 90
       18
102
RTVSPost2010Prop41ColorRGB
 90
        0
102
RTVSPost2010PropOp41
 70
     1
102
RTVSPost2010Prop42
 90
       50
102
RTVSPost2010PropOp42
 70
     1
102
RTVSPost2010Prop43
 90
        3
102
RTVSPost2010PropOp43
 70
     1
102
RTVSPost2010Prop44ColorIndex
 90
        5
102
RTVSPost2010Prop44ColorRGB
 90
      255
102
RTVSPost2010PropOp44
 70
     1
102
RTVSPost2010Prop45
280
     0
102
RTVSPost2010PropOp45
 70
     1
102
RTVSPost2010Prop46
 90
       50
102
RTVSPost2010PropOp46
 70
     1
102
RTVSPost2010Prop47
 90
       50
102
RTVSPost2010PropOp47
 70
     1
102
RTVSPost2010Prop48
 90
       50
102
RTVSPost2010PropOp48
 70
     1
102
RTVSPost2010Prop49
280
     0
102
RTVSPost2010PropOp49
 70
     1
102
RTVSPost2010Prop50
 90
       50
102
RTVSPost2010PropOp50
 70
     1
102
RTVSPost2010Prop51ColorIndex
 90
      256
102
RTVSPost2010Prop51ColorRGB
 90
-16777216
102
RTVSPost2010PropOp51
 70
     0
102
RTVSPost2010Prop52
140
1.0
102
RTVSPost2010PropOp52
 70
     0
102
RTVSPost2010Prop53
 90
        2
102
RTVSPost2010PropOp53
 70
     1
102
RTVSPost2010Prop54
  1
strokes_ogs.tif
102
RTVSPost2010PropOp54
 70
     1
102
RTVSPost2010Prop55
280
     0
102
RTVSPost2010PropOp55
 70
     1
102
RTVSPost2010Prop56
140
1.0
102
RTVSPost2010PropOp56
 70
     1
102
RTVSPost2010Prop57
140
1.0
102
RTVSPost2010PropOp57
 70
     1
102
RTVSPropertyOp0
 70
     1
102
RTVSPropertyOp1
 70
     1
102
RTVSPropertyOp2
 70
     1
102
RTVSPropertyOp3
 70
     1
102
RTVSPropertyOp4
 70
     1
102
RTVSPropertyOp5
 70
     1
102
RTVSPropertyOp6
 70
     1
102
RTVSPropertyOp7
 70
     1
102
RTVSPropertyOp8
 70
     1
102
RTVSPropertyOp9
 70
     1
102
RTVSPropertyOp10
 70
     1
102
RTVSPropertyOp11
 70
     1
102
RTVSPropertyOp12
 70
     1
102
RTVSPropertyOp13
 70
     1
102
RTVSPropertyOp14
 70
     1
102
RTVSPropertyOp15
 70
     1
102
RTVSPropertyOp16
 70
     1
102
RTVSPropertyOp17
 70
     1
102
RTVSPropertyOp18
 70
     1
102
RTVSPropertyOp19
 70
     1
102
RTVSPropertyOp20
 70
     1
102
RTVSPropertyOp21
 70
     1
102
RTVSPropertyOp22
 70
     1
102
RTVSPropertyOp23
 70
     1
102
RTVSPropertyOp24
 70
     1
102
RTVSPropertyOp25
 70
     1
102
RTVSPropertyOp26
 70
     1
102
RTVSPropertyOp27
 70
     1
102
RTVSPropertyOp28
 70
     1
102
RTVSPropertyOp29
 70
     1
102
RTVSPropertyOp30
 70
     1
102
RTVSPropertyOp31
 70
     1
102
RTVSPropertyOp32
 70
     1
102
RTVSPropertyOp33
 70
     1
102
RTVSPropertyOp34
 70
     1
102
RTVSPropertyOp35
 70
     1
102
RTVSPropertyOp36
 70
     1
102
RTVSPropertyOp37
 70
     1
102
RTVSPropertyOp38
 70
     1
102
RTVSPropertyOp39
 70
     1
102
RTVSPropertyOp40
 70
     1
102
RTVSPropertyOp41
 70
     1
102
RTVSPropertyOp42
 70
     1
102
RTVSPropertyOp43
 70
     1
102
RTVSPropertyOp44
 70
     1
102
RTVSPropertyOp45
 70
     1
102
RTVSPropertyOp46
 70
     1
102
RTVSPropertyOp47
 70
     1
102
RTVSPropertyOp48
 70
     1
102
RTVSPropertyOp49
 70
     1
102
RTVSPropertyOp50
 70
     1
102
RTVSPropertyOp51
 70
     0
102
RTVSPropertyOp52
 70
     0
102
RTVSPropertyOp53
 70
     1
102
RTVSPropertyOp54
 70
     1
102
RTVSPropertyOp55
 70
     1
102
RTVSPropertyOp56
 70
     1
102
RTVSPropertyOp57
 70
     1
102
RTVSPropertyOp58
 70
     1
102
RTVSPropertyOp59
 70
     1
102
RTVSPropertyOp60
 70
     1
102
RTVSPropertyOp61
 70
     1
102
RTVSPropertyOp62
 70
     1
  0
XRECORD
  5
3FB
102
{ACAD_REACTORS
330
3FA
102
}
330
3FA
100
AcDbXrecord
280
     1
102
RTVSPost2010Prop28
280
     0
102
RTVSPost2010PropOp28
 70
     1
102
RTVSPost2010Prop29
280
     1
102
RTVSPost2010PropOp29
 70
     1
102
RTVSPost2010Prop30
280
     1
102
RTVSPost2010PropOp30
 70
     1
102
RTVSPost2010Prop31
280
     0
102
RTVSPost2010PropOp31
 70
     1
102
RTVSPost2010Prop32
280
     0
102
RTVSPost2010PropOp32
 70
     1
102
RTVSPost2010Prop33
280
     0
102
RTVSPost2010PropOp33
 70
     1
102
RTVSPost2010Prop34
280
     0
102
RTVSPost2010PropOp34
 70
     1
102
RTVSPost2010Prop35
280
     0
102
RTVSPost2010PropOp35
 70
     1
102
RTVSPost2010Prop36
280
     0
102
RTVSPost2010PropOp36
 70
     1
102
RTVSPost2010Prop37
 90
       50
102
RTVSPost2010PropOp37
 70
     1
102
RTVSPost2010Prop38
140
0.0
102
RTVSPost2010PropOp38
 70
     1
102
RTVSPost2010Prop39
140
1.0
102
RTVSPost2010PropOp39
 70
     1
102
RTVSPost2010Prop40
 90
        0
102
RTVSPost2010PropOp40
 70
     1
102
RTVSPost2010Prop41ColorIndex
 90
       18
102
RTVSPost2010Prop41ColorRGB
 90
        0
102
RTVSPost2010PropOp41
 70
     1
102
RTVSPost2010Prop42
 90
       50
102
RTVSPost2010PropOp42
 70
     1
102
RTVSPost2010Prop43
 90
        3
102
RTVSPost2010PropOp43
 70
     1
102
RTVSPost2010Prop44ColorIndex
 90
        5
102
RTVSPost2010Prop44ColorRGB
 90
      255
102
RTVSPost2010PropOp44
 70
     1
102
RTVSPost2010Prop45
280
     0
102
RTVSPost2010PropOp45
 70
     1
102
RTVSPost2010Prop46
 90
       50
102
RTVSPost2010PropOp46
 70
     1
102
RTVSPost2010Prop47
 90
       50
102
RTVSPost2010PropOp47
 70
     1
102
RTVSPost2010Prop48
 90
       50
102
RTVSPost2010PropOp48
 70
     1
102
RTVSPost2010Prop49
280
     0
102
RTVSPost2010PropOp49
 70
     1
102
RTVSPost2010Prop50
 90
       50
102
RTVSPost2010PropOp50
 70
     1
102
RTVSPost2010Prop51ColorIndex
 90
      256
102
RTVSPost2010Prop51ColorRGB
 90
-16777216
102
RTVSPost2010PropOp51
 70
     0
102
RTVSPost2010Prop52
140
1.0
102
RTVSPost2010PropOp52
 70
     0
102
RTVSPost2010Prop53
 90
        2
102
RTVSPost2010PropOp53
 70
     1
102
RTVSPost2010Prop54
  1
strokes_ogs.tif
102
RTVSPost2010PropOp54
 70
     1
102
RTVSPost2010Prop55
280
     0
102
RTVSPost2010PropOp55
 70
     1
102
RTVSPost2010Prop56
140
1.0
102
RTVSPost2010PropOp56
 70
     1
102
RTVSPost2010Prop57
140
1.0
102
RTVSPost2010PropOp57
 70
     1
102
RTVSPropertyOp0
 70
     1
102
RTVSPropertyOp1
 70
     1
102
RTVSPropertyOp2
 70
     1
102
RTVSPropertyOp3
 70
     1
102
RTVSPropertyOp4
 70
     1
102
RTVSPropertyOp5
 70
     1
102
RTVSPropertyOp6
 70
     1
102
RTVSPropertyOp7
 70
     1
102
RTVSPropertyOp8
 70
     1
102
RTVSPropertyOp9
 70
     1
102
RTVSPropertyOp10
 70
     1
102
RTVSPropertyOp11
 70
     1
102
RTVSPropertyOp12
 70
     1
102
RTVSPropertyOp13
 70
     1
102
RTVSPropertyOp14
 70
     1
102
RTVSPropertyOp15
 70
     1
102
RTVSPropertyOp16
 70
     1
102
RTVSPropertyOp17
 70
     1
102
RTVSPropertyOp18
 70
     1
102
RTVSPropertyOp19
 70
     1
102
RTVSPropertyOp20
 70
     1
102
RTVSPropertyOp21
 70
     1
102
RTVSPropertyOp22
 70
     1
102
RTVSPropertyOp23
 70
     1
102
RTVSPropertyOp24
 70
     1
102
RTVSPropertyOp25
 70
     1
102
RTVSPropertyOp26
 70
     1
102
RTVSPropertyOp27
 70
     1
102
RTVSPropertyOp28
 70
     1
102
RTVSPropertyOp29
 70
     1
102
RTVSPropertyOp30
 70
     1
102
RTVSPropertyOp31
 70
     1
102
RTVSPropertyOp32
 70
     1
102
RTVSPropertyOp33
 70
     1
102
RTVSPropertyOp34
 70
     1
102
RTVSPropertyOp35
 70
     1
102
RTVSPropertyOp36
 70
     1
102
RTVSPropertyOp37
 70
     1
102
RTVSPropertyOp38
 70
     1
102
RTVSPropertyOp39
 70
     1
102
RTVSPropertyOp40
 70
     1
102
RTVSPropertyOp41
 70
     1
102
RTVSPropertyOp42
 70
     1
102
RTVSPropertyOp43
 70
     1
102
RTVSPropertyOp44
 70
     1
102
RTVSPropertyOp45
 70
     1
102
RTVSPropertyOp46
 70
     1
102
RTVSPropertyOp47
 70
     1
102
RTVSPropertyOp48
 70
     1
102
RTVSPropertyOp49
 70
     1
102
RTVSPropertyOp50
 70
     1
102
RTVSPropertyOp51
 70
     0
102
RTVSPropertyOp52
 70
     0
102
RTVSPropertyOp53
 70
     1
102
RTVSPropertyOp54
 70
     1
102
RTVSPropertyOp55
 70
     1
102
RTVSPropertyOp56
 70
     1
102
RTVSPropertyOp57
 70
     1
102
RTVSPropertyOp58
 70
     1
102
RTVSPropertyOp59
 70
     1
102
RTVSPropertyOp60
 70
     1
102
RTVSPropertyOp61
 70
     1
102
RTVSPropertyOp62
 70
     1
  0
ENDSEC
  0
EOF
