  0
SECTION
  2
HEADER
  9
$ACADVER
  1
AC1015
  9
$ACADMAINTVER
 70
     6
  9
$DWGCODEPAGE
  3
ANSI_932
  9
$INSBASE
 10
0.0
 20
0.0
 30
0.0
  9
$EXTMIN
 10
1.000000000000000E+20
 20
1.000000000000000E+20
 30
1.000000000000000E+20
  9
$EXTMAX
 10
-1.000000000000000E+20
 20
-1.000000000000000E+20
 30
-1.000000000000000E+20
  9
$LIMMIN
 10
0.0
 20
0.0
  9
$LIMMAX
 10
12.0
 20
9.0
  9
$ORTHOMODE
 70
     0
  9
$REGENMODE
 70
     1
  9
$FILLMODE
 70
     1
  9
$QTEXTMODE
 70
     0
  9
$MIRRTEXT
 70
     1
  9
$LTSCALE
 40
1.0
  9
$ATTMODE
 70
     1
  9
$TEXTSIZE
 40
0.2
  9
$TRACEWID
 40
0.05
  9
$TEXTSTYLE
  7
Standard
  9
$CLAYER
  8
0
  9
$CELTYPE
  6
ByLayer
  9
$CECOLOR
 62
   256
  9
$CELTSCALE
 40
1.0
  9
$DISPSILH
 70
     0
  9
$DIMSCALE
 40
1.0
  9
$DIMASZ
 40
0.18
  9
$DIMEXO
 40
0.0625
  9
$DIMDLI
 40
0.38
  9
$DIMRND
 40
0.0
  9
$DIMDLE
 40
0.0
  9
$DIMEXE
 40
0.18
  9
$DIMTP
 40
0.0
  9
$DIMTM
 40
0.0
  9
$DIMTXT
 40
0.18
  9
$DIMCEN
 40
0.09
  9
$DIMTSZ
 40
0.0
  9
$DIMTOL
 70
     0
  9
$DIMLIM
 70
     0
  9
$DIMTIH
 70
     1
  9
$DIMTOH
 70
     1
  9
$DIMSE1
 70
     0
  9
$DIMSE2
 70
     0
  9
$DIMTAD
 70
     0
  9
$DIMZIN
 70
     0
  9
$DIMBLK
  1

  9
$DIMASO
 70
     1
  9
$DIMSHO
 70
     1
  9
$DIMPOST
  1

  9
$DIMAPOST
  1

  9
$DIMALT
 70
     0
  9
$DIMALTD
 70
     2
  9
$DIMALTF
 40
25.4
  9
$DIMLFAC
 40
1.0
  9
$DIMTOFL
 70
     0
  9
$DIMTVP
 40
0.0
  9
$DIMTIX
 70
     0
  9
$DIMSOXD
 70
     0
  9
$DIMSAH
 70
     0
  9
$DIMBLK1
  1

  9
$DIMBLK2
  1

  9
$DIMSTYLE
  2
Standard
  9
$DIMCLRD
 70
     0
  9
$DIMCLRE
 70
     0
  9
$DIMCLRT
 70
     0
  9
$DIMTFAC
 40
1.0
  9
$DIMGAP
 40
0.09
  9
$DIMJUST
 70
     0
  9
$DIMSD1
 70
     0
  9
$DIMSD2
 70
     0
  9
$DIMTOLJ
 70
     1
  9
$DIMTZIN
 70
     0
  9
$DIMALTZ
 70
     0
  9
$DIMALTTZ
 70
     0
  9
$DIMUPT
 70
     0
  9
$DIMDEC
 70
     4
  9
$DIMTDEC
 70
     4
  9
$DIMALTU
 70
     2
  9
$DIMALTTD
 70
     2
  9
$DIMTXSTY
  7
Standard
  9
$DIMAUNIT
 70
     0
  9
$DIMADEC
 70
     0
  9
$DIMALTRND
 40
0.0
  9
$DIMAZIN
 70
     0
  9
$DIMDSEP
 70
    46
  9
$DIMATFIT
 70
     3
  9
$DIMFRAC
 70
     0
  9
$DIMLDRBLK
  1

  9
$DIMLUNIT
 70
     2
  9
$DIMLWD
 70
    -2
  9
$DIMLWE
 70
    -2
  9
$DIMTMOVE
 70
     0
  9
$LUNITS
 70
     2
  9
$LUPREC
 70
     4
  9
$SKETCHINC
 40
0.1
  9
$FILLETRAD
 40
0.5
  9
$AUNITS
 70
     0
  9
$AUPREC
 70
     0
  9
$MENU
  1
.
  9
$ELEVATION
 40
0.0
  9
$PELEVATION
 40
0.0
  9
$THICKNESS
 40
0.0
  9
$LIMCHECK
 70
     0
  9
$CHAMFERA
 40
0.5
  9
$CHAMFERB
 40
0.5
  9
$CHAMFERC
 40
1.0
  9
$CHAMFERD
 40
0.0
  9
$SKPOLY
 70
     0
  9
$TDCREATE
 40
2456191.589654086
  9
$TDUCREATE
 40
2456191.214654086
  9
$TDUPDATE
 40
2456191.589654097
  9
$TDUUPDATE
 40
2456191.214654097
  9
$TDINDWG
 40
0.0000000116
  9
$TDUSRTIMER
 40
0.0000000116
  9
$USRTIMER
 70
     1
  9
$ANGBASE
 50
0.0
  9
$ANGDIR
 70
     0
  9
$PDMODE
 70
     0
  9
$PDSIZE
 40
0.0
  9
$PLINEWID
 40
0.0
  9
$SPLFRAME
 70
     0
  9
$SPLINETYPE
 70
     6
  9
$SPLINESEGS
 70
     8
  9
$HANDSEED
  5
3EA
  9
$SURFTAB1
 70
     6
  9
$SURFTAB2
 70
     6
  9
$SURFTYPE
 70
     6
  9
$SURFU
 70
     6
  9
$SURFV
 70
     6
  9
$UCSBASE
  2

  9
$UCSNAME
  2

  9
$UCSORG
 10
0.0
 20
0.0
 30
0.0
  9
$UCSXDIR
 10
1.0
 20
0.0
 30
0.0
  9
$UCSYDIR
 10
0.0
 20
1.0
 30
0.0
  9
$UCSORTHOREF
  2

  9
$UCSORTHOVIEW
 70
     0
  9
$UCSORGTOP
 10
0.0
 20
0.0
 30
0.0
  9
$UCSORGBOTTOM
 10
0.0
 20
0.0
 30
0.0
  9
$UCSORGLEFT
 10
0.0
 20
0.0
 30
0.0
  9
$UCSORGRIGHT
 10
0.0
 20
0.0
 30
0.0
  9
$UCSORGFRONT
 10
0.0
 20
0.0
 30
0.0
  9
$UCSORGBACK
 10
0.0
 20
0.0
 30
0.0
  9
$PUCSBASE
  2

  9
$PUCSNAME
  2

  9
$PUCSORG
 10
0.0
 20
0.0
 30
0.0
  9
$PUCSXDIR
 10
1.0
 20
0.0
 30
0.0
  9
$PUCSYDIR
 10
0.0
 20
1.0
 30
0.0
  9
$PUCSORTHOREF
  2

  9
$PUCSORTHOVIEW
 70
     0
  9
$PUCSORGTOP
 10
0.0
 20
0.0
 30
0.0
  9
$PUCSORGBOTTOM
 10
0.0
 20
0.0
 30
0.0
  9
$PUCSORGLEFT
 10
0.0
 20
0.0
 30
0.0
  9
$PUCSORGRIGHT
 10
0.0
 20
0.0
 30
0.0
  9
$PUCSORGFRONT
 10
0.0
 20
0.0
 30
0.0
  9
$PUCSORGBACK
 10
0.0
 20
0.0
 30
0.0
  9
$USERI1
 70
     0
  9
$USERI2
 70
     0
  9
$USERI3
 70
     0
  9
$USERI4
 70
     0
  9
$USERI5
 70
     0
  9
$USERR1
 40
0.0
  9
$USERR2
 40
0.0
  9
$USERR3
 40
0.0
  9
$USERR4
 40
0.0
  9
$USERR5
 40
0.0
  9
$WORLDVIEW
 70
     1
  9
$SHADEDGE
 70
     3
  9
$SHADEDIF
 70
    70
  9
$TILEMODE
 70
     1
  9
$MAXACTVP
 70
    64
  9
$PINSBASE
 10
0.0
 20
0.0
 30
0.0
  9
$PLIMCHECK
 70
     0
  9
$PEXTMIN
 10
1.000000000000000E+20
 20
1.000000000000000E+20
 30
1.000000000000000E+20
  9
$PEXTMAX
 10
-1.000000000000000E+20
 20
-1.000000000000000E+20
 30
-1.000000000000000E+20
  9
$PLIMMIN
 10
0.0
 20
0.0
  9
$PLIMMAX
 10
12.0
 20
9.0
  9
$UNITMODE
 70
     0
  9
$VISRETAIN
 70
     1
  9
$PLINEGEN
 70
     0
  9
$PSLTSCALE
 70
     1
  9
$TREEDEPTH
 70
  3020
  9
$CMLSTYLE
  2
Standard
  9
$CMLJUST
 70
     0
  9
$CMLSCALE
 40
1.0
  9
$PROXYGRAPHICS
 70
     1
  9
$MEASUREMENT
 70
     0
  9
$CELWEIGHT
370
    -1
  9
$ENDCAPS
280
     0
  9
$JOINSTYLE
280
     0
  9
$LWDISPLAY
290
     1
  9
$INSUNITS
 70
     1
  9
$HYPERLINKBASE
  1

  9
$STYLESHEET
  1

  9
$XEDIT
290
     1
  9
$CEPSNTYPE
380
     0
  9
$PSTYLEMODE
290
     1
  9
$FINGERPRINTGUID
  2
{8F835D05-5C54-47AA-8514-AEB075B241E3}
  9
$VERSIONGUID
  2
{FAEB1C32-E019-11D5-929B-00C0DF256EC4}
  9
$EXTNAMES
290
     1
  9
$PSVPSCALE
 40
0.0
  9
$OLESTARTUP
290
     0
  0
ENDSEC
  0
SECTION
  2
CLASSES
  0
CLASS
  1
ACDBDICTIONARYWDFLT
  2
AcDbDictionaryWithDefault
  3
ObjectDBX Classes
 90
        0
280
     0
281
     0
  0
CLASS
  1
VISUALSTYLE
  2
AcDbVisualStyle
  3
ObjectDBX Classes
 90
     4095
280
     0
281
     0
  0
CLASS
  1
ACDBPLACEHOLDER
  2
AcDbPlaceHolder
  3
ObjectDBX Classes
 90
        0
280
     0
281
     0
  0
CLASS
  1
LAYOUT
  2
AcDbLayout
  3
ObjectDBX Classes
 90
        0
280
     0
281
     0
  0
ENDSEC
  0
SECTION
  2
TABLES
  0
TABLE
  2
VPORT
  5
8
330
0
100
AcDbSymbolTable
 70
     1
  0
VPORT
  5
29
330
8
100
AcDbSymbolTableRecord
100
AcDbViewportTableRecord
  2
*Active
 70
     0
 10
0.0
 20
0.0
 11
1.0
 21
1.0
 12
0.0
 22
0.0
 13
0.0
 23
0.0
 14
0.5
 24
0.5
 15
0.5
 25
0.5
 16
0.0
 26
0.0
 36
1.0
 17
105.0008259828644
 27
148.4999796178229
 37
0.0
 40
210.0016519657287
 41
1.414274394775308
 42
50.0
 43
0.0
 44
0.0
 50
0.0
 51
0.0
 71
     0
 72
   100
 73
     1
 74
     3
 75
     0
 76
     0
 77
     0
 78
     0
281
     0
 65
     1
110
0.0
120
0.0
130
0.0
111
1.0
121
0.0
131
0.0
112
0.0
122
1.0
132
0.0
 79
     0
146
0.0
  0
ENDTAB
  0
TABLE
  2
LTYPE
  5
5
330
0
100
AcDbSymbolTable
 70
     1
  0
LTYPE
  5
14
330
5
100
AcDbSymbolTableRecord
100
AcDbLinetypeTableRecord
  2
ByBlock
 70
     0
  3

 72
    65
 73
     0
 40
0.0
  0
LTYPE
  5
15
330
5
100
AcDbSymbolTableRecord
100
AcDbLinetypeTableRecord
  2
ByLayer
 70
     0
  3

 72
    65
 73
     0
 40
0.0
  0
LTYPE
  5
16
330
5
100
AcDbSymbolTableRecord
100
AcDbLinetypeTableRecord
  2
Continuous
 70
     0
  3
Solid line
 72
    65
 73
     0
 40
0.0
  0
ENDTAB
  0
TABLE
  2
LAYER
  5
2
330
0
100
AcDbSymbolTable
 70
     3
  0
LAYER
  5
10
330
2
100
AcDbSymbolTableRecord
100
AcDbLayerTableRecord
  2
0
 70
     0
 62
     7
  6
Continuous
370
    -3
390
F
  0
LAYER
  5
3B
330
2
100
AcDbSymbolTableRecord
100
AcDbLayerTableRecord
  2
\U+56F3\U+67A0
 70
     0
 62
     7
  6
Continuous
370
    -3
390
F
  0
LAYER
  5
3C
330
2
100
AcDbSymbolTableRecord
100
AcDbLayerTableRecord
  2
FORMAT
 70
     0
 62
     7
  6
Continuous
370
    -3
390
F
  0
ENDTAB
  0
TABLE
  2
STYLE
  5
3
330
0
100
AcDbSymbolTable
 70
     1
  0
STYLE
  5
11
330
3
100
AcDbSymbolTableRecord
100
AcDbTextStyleTableRecord
  2
Standard
 70
     0
 40
0.0
 41
1.0
 50
0.0
 71
     0
 42
0.2
  3
txt
  4

  0
ENDTAB
  0
TABLE
  2
VIEW
  5
6
330
0
100
AcDbSymbolTable
 70
     0
  0
ENDTAB
  0
TABLE
  2
UCS
  5
7
330
0
100
AcDbSymbolTable
 70
     0
  0
ENDTAB
  0
TABLE
  2
APPID
  5
9
330
0
100
AcDbSymbolTable
 70
     1
  0
APPID
  5
12
330
9
100
AcDbSymbolTableRecord
100
AcDbRegAppTableRecord
  2
ACAD
 70
     0
  0
ENDTAB
  0
TABLE
  2
DIMSTYLE
  5
A
330
0
100
AcDbSymbolTable
 70
     1
100
AcDbDimStyleTable
  0
DIMSTYLE
105
27
330
A
100
AcDbSymbolTableRecord
100
AcDbDimStyleTableRecord
  2
Standard
 70
     0
340
11
  0
ENDTAB
  0
TABLE
  2
BLOCK_RECORD
  5
1
330
0
100
AcDbSymbolTable
 70
    94
  0
BLOCK_RECORD
  5
1F
330
1
100
AcDbSymbolTableRecord
100
AcDbBlockTableRecord
  2
*Model_Space
340
22
  0
BLOCK_RECORD
  5
1B
330
1
100
AcDbSymbolTableRecord
100
AcDbBlockTableRecord
  2
*Paper_Space
340
1E
  0
BLOCK_RECORD
  5
23
330
1
100
AcDbSymbolTableRecord
100
AcDbBlockTableRecord
  2
*Paper_Space0
340
26
  0
BLOCK_RECORD
  5
3D
330
1
100
AcDbSymbolTableRecord
100
AcDbBlockTableRecord
  2
block 2
340
0
102
{BLKREFS
331
3E
102
}
  0
BLOCK_RECORD
  5
41
330
1
100
AcDbSymbolTableRecord
100
AcDbBlockTableRecord
  2
block 3
340
0
102
{BLKREFS
331
42
102
}
  0
BLOCK_RECORD
  5
49
330
1
100
AcDbSymbolTableRecord
100
AcDbBlockTableRecord
  2
block 4
340
0
102
{BLKREFS
331
4A
102
}
  0
BLOCK_RECORD
  5
51
330
1
100
AcDbSymbolTableRecord
100
AcDbBlockTableRecord
  2
block 5
340
0
102
{BLKREFS
331
52
102
}
  0
BLOCK_RECORD
  5
59
330
1
100
AcDbSymbolTableRecord
100
AcDbBlockTableRecord
  2
block 6
340
0
102
{BLKREFS
331
5A
102
}
  0
BLOCK_RECORD
  5
61
330
1
100
AcDbSymbolTableRecord
100
AcDbBlockTableRecord
  2
block 7
340
0
102
{BLKREFS
331
62
102
}
  0
BLOCK_RECORD
  5
69
330
1
100
AcDbSymbolTableRecord
100
AcDbBlockTableRecord
  2
block 8
340
0
102
{BLKREFS
331
6A
102
}
  0
BLOCK_RECORD
  5
71
330
1
100
AcDbSymbolTableRecord
100
AcDbBlockTableRecord
  2
block 9
340
0
102
{BLKREFS
331
72
102
}
  0
BLOCK_RECORD
  5
79
330
1
100
AcDbSymbolTableRecord
100
AcDbBlockTableRecord
  2
block 10
340
0
102
{BLKREFS
331
7A
102
}
  0
BLOCK_RECORD
  5
81
330
1
100
AcDbSymbolTableRecord
100
AcDbBlockTableRecord
  2
block 11
340
0
102
{BLKREFS
331
82
102
}
  0
BLOCK_RECORD
  5
89
330
1
100
AcDbSymbolTableRecord
100
AcDbBlockTableRecord
  2
block 12
340
0
102
{BLKREFS
331
8A
102
}
  0
BLOCK_RECORD
  5
91
330
1
100
AcDbSymbolTableRecord
100
AcDbBlockTableRecord
  2
block 13
340
0
102
{BLKREFS
331
92
102
}
  0
BLOCK_RECORD
  5
99
330
1
100
AcDbSymbolTableRecord
100
AcDbBlockTableRecord
  2
block 14
340
0
102
{BLKREFS
331
9A
102
}
  0
BLOCK_RECORD
  5
A1
330
1
100
AcDbSymbolTableRecord
100
AcDbBlockTableRecord
  2
block 15
340
0
102
{BLKREFS
331
A2
102
}
  0
BLOCK_RECORD
  5
A9
330
1
100
AcDbSymbolTableRecord
100
AcDbBlockTableRecord
  2
block 16
340
0
102
{BLKREFS
331
AA
102
}
  0
BLOCK_RECORD
  5
B1
330
1
100
AcDbSymbolTableRecord
100
AcDbBlockTableRecord
  2
block 17
340
0
102
{BLKREFS
331
B2
102
}
  0
BLOCK_RECORD
  5
B9
330
1
100
AcDbSymbolTableRecord
100
AcDbBlockTableRecord
  2
block 18
340
0
102
{BLKREFS
331
BA
102
}
  0
BLOCK_RECORD
  5
C1
330
1
100
AcDbSymbolTableRecord
100
AcDbBlockTableRecord
  2
block 19
340
0
102
{BLKREFS
331
C2
102
}
  0
BLOCK_RECORD
  5
C9
330
1
100
AcDbSymbolTableRecord
100
AcDbBlockTableRecord
  2
block 20
340
0
102
{BLKREFS
331
CA
102
}
  0
BLOCK_RECORD
  5
D1
330
1
100
AcDbSymbolTableRecord
100
AcDbBlockTableRecord
  2
block 21
340
0
102
{BLKREFS
331
D2
102
}
  0
BLOCK_RECORD
  5
D9
330
1
100
AcDbSymbolTableRecord
100
AcDbBlockTableRecord
  2
block 22
340
0
102
{BLKREFS
331
DA
102
}
  0
BLOCK_RECORD
  5
E1
330
1
100
AcDbSymbolTableRecord
100
AcDbBlockTableRecord
  2
block 23
340
0
102
{BLKREFS
331
E2
102
}
  0
BLOCK_RECORD
  5
E9
330
1
100
AcDbSymbolTableRecord
100
AcDbBlockTableRecord
  2
block 24
340
0
102
{BLKREFS
331
EA
102
}
  0
BLOCK_RECORD
  5
F1
330
1
100
AcDbSymbolTableRecord
100
AcDbBlockTableRecord
  2
block 25
340
0
102
{BLKREFS
331
F2
102
}
  0
BLOCK_RECORD
  5
F9
330
1
100
AcDbSymbolTableRecord
100
AcDbBlockTableRecord
  2
block 26
340
0
102
{BLKREFS
331
FA
102
}
  0
BLOCK_RECORD
  5
101
330
1
100
AcDbSymbolTableRecord
100
AcDbBlockTableRecord
  2
block 27
340
0
102
{BLKREFS
331
102
102
}
  0
BLOCK_RECORD
  5
110
330
1
100
AcDbSymbolTableRecord
100
AcDbBlockTableRecord
  2
block 28
340
0
102
{BLKREFS
331
111
102
}
  0
BLOCK_RECORD
  5
125
330
1
100
AcDbSymbolTableRecord
100
AcDbBlockTableRecord
  2
block 29
340
0
102
{BLKREFS
331
126
102
}
  0
BLOCK_RECORD
  5
12D
330
1
100
AcDbSymbolTableRecord
100
AcDbBlockTableRecord
  2
block 30
340
0
102
{BLKREFS
331
12E
102
}
  0
BLOCK_RECORD
  5
142
330
1
100
AcDbSymbolTableRecord
100
AcDbBlockTableRecord
  2
block 31
340
0
102
{BLKREFS
331
143
102
}
  0
BLOCK_RECORD
  5
147
330
1
100
AcDbSymbolTableRecord
100
AcDbBlockTableRecord
  2
block 32
340
0
102
{BLKREFS
331
148
102
}
  0
BLOCK_RECORD
  5
154
330
1
100
AcDbSymbolTableRecord
100
AcDbBlockTableRecord
  2
block 33
340
0
102
{BLKREFS
331
155
102
}
  0
BLOCK_RECORD
  5
159
330
1
100
AcDbSymbolTableRecord
100
AcDbBlockTableRecord
  2
block 34
340
0
102
{BLKREFS
331
15A
102
}
  0
BLOCK_RECORD
  5
161
330
1
100
AcDbSymbolTableRecord
100
AcDbBlockTableRecord
  2
block 35
340
0
102
{BLKREFS
331
162
102
}
  0
BLOCK_RECORD
  5
169
330
1
100
AcDbSymbolTableRecord
100
AcDbBlockTableRecord
  2
block 36
340
0
102
{BLKREFS
331
16A
102
}
  0
BLOCK_RECORD
  5
16E
330
1
100
AcDbSymbolTableRecord
100
AcDbBlockTableRecord
  2
block 37
340
0
102
{BLKREFS
331
16F
102
}
  0
BLOCK_RECORD
  5
17B
330
1
100
AcDbSymbolTableRecord
100
AcDbBlockTableRecord
  2
block 38
340
0
102
{BLKREFS
331
17C
102
}
  0
BLOCK_RECORD
  5
183
330
1
100
AcDbSymbolTableRecord
100
AcDbBlockTableRecord
  2
block 39
340
0
102
{BLKREFS
331
184
102
}
  0
BLOCK_RECORD
  5
18B
330
1
100
AcDbSymbolTableRecord
100
AcDbBlockTableRecord
  2
block 40
340
0
102
{BLKREFS
331
18C
102
}
  0
BLOCK_RECORD
  5
194
330
1
100
AcDbSymbolTableRecord
100
AcDbBlockTableRecord
  2
block 41
340
0
102
{BLKREFS
331
195
102
}
  0
BLOCK_RECORD
  5
1A1
330
1
100
AcDbSymbolTableRecord
100
AcDbBlockTableRecord
  2
block 42
340
0
102
{BLKREFS
331
1A2
102
}
  0
BLOCK_RECORD
  5
1A6
330
1
100
AcDbSymbolTableRecord
100
AcDbBlockTableRecord
  2
block 43
340
0
102
{BLKREFS
331
1A7
102
}
  0
BLOCK_RECORD
  5
1BD
330
1
100
AcDbSymbolTableRecord
100
AcDbBlockTableRecord
  2
block 44
340
0
102
{BLKREFS
331
1BE
102
}
  0
BLOCK_RECORD
  5
1CC
330
1
100
AcDbSymbolTableRecord
100
AcDbBlockTableRecord
  2
block 45
340
0
102
{BLKREFS
331
1CD
102
}
  0
BLOCK_RECORD
  5
1D1
330
1
100
AcDbSymbolTableRecord
100
AcDbBlockTableRecord
  2
block 46
340
0
102
{BLKREFS
331
1D2
102
}
  0
BLOCK_RECORD
  5
1E8
330
1
100
AcDbSymbolTableRecord
100
AcDbBlockTableRecord
  2
block 47
340
0
102
{BLKREFS
331
1E9
102
}
  0
BLOCK_RECORD
  5
1F7
330
1
100
AcDbSymbolTableRecord
100
AcDbBlockTableRecord
  2
block 48
340
0
102
{BLKREFS
331
1F8
102
}
  0
BLOCK_RECORD
  5
202
330
1
100
AcDbSymbolTableRecord
100
AcDbBlockTableRecord
  2
block 49
340
0
102
{BLKREFS
331
203
102
}
  0
BLOCK_RECORD
  5
20A
330
1
100
AcDbSymbolTableRecord
100
AcDbBlockTableRecord
  2
block 50
340
0
102
{BLKREFS
331
20B
102
}
  0
BLOCK_RECORD
  5
212
330
1
100
AcDbSymbolTableRecord
100
AcDbBlockTableRecord
  2
block 51
340
0
102
{BLKREFS
331
213
102
}
  0
BLOCK_RECORD
  5
21A
330
1
100
AcDbSymbolTableRecord
100
AcDbBlockTableRecord
  2
block 52
340
0
102
{BLKREFS
331
21B
102
}
  0
BLOCK_RECORD
  5
222
330
1
100
AcDbSymbolTableRecord
100
AcDbBlockTableRecord
  2
block 53
340
0
102
{BLKREFS
331
223
102
}
  0
BLOCK_RECORD
  5
227
330
1
100
AcDbSymbolTableRecord
100
AcDbBlockTableRecord
  2
block 54
340
0
102
{BLKREFS
331
228
102
}
  0
BLOCK_RECORD
  5
22C
330
1
100
AcDbSymbolTableRecord
100
AcDbBlockTableRecord
  2
block 55
340
0
102
{BLKREFS
331
22D
102
}
  0
BLOCK_RECORD
  5
23D
330
1
100
AcDbSymbolTableRecord
100
AcDbBlockTableRecord
  2
block 56
340
0
102
{BLKREFS
331
23E
102
}
  0
BLOCK_RECORD
  5
245
330
1
100
AcDbSymbolTableRecord
100
AcDbBlockTableRecord
  2
block 57
340
0
102
{BLKREFS
331
246
102
}
  0
BLOCK_RECORD
  5
25C
330
1
100
AcDbSymbolTableRecord
100
AcDbBlockTableRecord
  2
block 58
340
0
102
{BLKREFS
331
25D
102
}
  0
BLOCK_RECORD
  5
265
330
1
100
AcDbSymbolTableRecord
100
AcDbBlockTableRecord
  2
block 59
340
0
102
{BLKREFS
331
266
102
}
  0
BLOCK_RECORD
  5
26D
330
1
100
AcDbSymbolTableRecord
100
AcDbBlockTableRecord
  2
block 60
340
0
102
{BLKREFS
331
26E
102
}
  0
BLOCK_RECORD
  5
275
330
1
100
AcDbSymbolTableRecord
100
AcDbBlockTableRecord
  2
block 61
340
0
102
{BLKREFS
331
276
102
}
  0
BLOCK_RECORD
  5
27D
330
1
100
AcDbSymbolTableRecord
100
AcDbBlockTableRecord
  2
block 62
340
0
102
{BLKREFS
331
27E
102
}
  0
BLOCK_RECORD
  5
285
330
1
100
AcDbSymbolTableRecord
100
AcDbBlockTableRecord
  2
block 63
340
0
102
{BLKREFS
331
286
102
}
  0
BLOCK_RECORD
  5
28A
330
1
100
AcDbSymbolTableRecord
100
AcDbBlockTableRecord
  2
block 64
340
0
102
{BLKREFS
331
28B
102
}
  0
BLOCK_RECORD
  5
294
330
1
100
AcDbSymbolTableRecord
100
AcDbBlockTableRecord
  2
block 65
340
0
102
{BLKREFS
331
295
102
}
  0
BLOCK_RECORD
  5
29C
330
1
100
AcDbSymbolTableRecord
100
AcDbBlockTableRecord
  2
block 66
340
0
102
{BLKREFS
331
29D
102
}
  0
BLOCK_RECORD
  5
2A6
330
1
100
AcDbSymbolTableRecord
100
AcDbBlockTableRecord
  2
block 67
340
0
102
{BLKREFS
331
2A7
102
}
  0
BLOCK_RECORD
  5
2AE
330
1
100
AcDbSymbolTableRecord
100
AcDbBlockTableRecord
  2
block 68
340
0
102
{BLKREFS
331
2AF
102
}
  0
BLOCK_RECORD
  5
2B6
330
1
100
AcDbSymbolTableRecord
100
AcDbBlockTableRecord
  2
block 69
340
0
102
{BLKREFS
331
2B7
102
}
  0
BLOCK_RECORD
  5
2CF
330
1
100
AcDbSymbolTableRecord
100
AcDbBlockTableRecord
  2
block 70
340
0
102
{BLKREFS
331
2D0
102
}
  0
BLOCK_RECORD
  5
2D7
330
1
100
AcDbSymbolTableRecord
100
AcDbBlockTableRecord
  2
block 71
340
0
102
{BLKREFS
331
2D8
102
}
  0
BLOCK_RECORD
  5
2F1
330
1
100
AcDbSymbolTableRecord
100
AcDbBlockTableRecord
  2
block 72
340
0
102
{BLKREFS
331
2F2
102
}
  0
BLOCK_RECORD
  5
2F9
330
1
100
AcDbSymbolTableRecord
100
AcDbBlockTableRecord
  2
block 73
340
0
102
{BLKREFS
331
2FA
102
}
  0
BLOCK_RECORD
  5
301
330
1
100
AcDbSymbolTableRecord
100
AcDbBlockTableRecord
  2
block 74
340
0
102
{BLKREFS
331
302
102
}
  0
BLOCK_RECORD
  5
317
330
1
100
AcDbSymbolTableRecord
100
AcDbBlockTableRecord
  2
block 75
340
0
102
{BLKREFS
331
318
102
}
  0
BLOCK_RECORD
  5
31F
330
1
100
AcDbSymbolTableRecord
100
AcDbBlockTableRecord
  2
block 76
340
0
102
{BLKREFS
331
320
102
}
  0
BLOCK_RECORD
  5
324
330
1
100
AcDbSymbolTableRecord
100
AcDbBlockTableRecord
  2
block 77
340
0
102
{BLKREFS
331
325
102
}
  0
BLOCK_RECORD
  5
32C
330
1
100
AcDbSymbolTableRecord
100
AcDbBlockTableRecord
  2
block 78
340
0
102
{BLKREFS
331
32D
102
}
  0
BLOCK_RECORD
  5
334
330
1
100
AcDbSymbolTableRecord
100
AcDbBlockTableRecord
  2
block 79
340
0
102
{BLKREFS
331
335
102
}
  0
BLOCK_RECORD
  5
342
330
1
100
AcDbSymbolTableRecord
100
AcDbBlockTableRecord
  2
block 80
340
0
102
{BLKREFS
331
343
102
}
  0
BLOCK_RECORD
  5
347
330
1
100
AcDbSymbolTableRecord
100
AcDbBlockTableRecord
  2
block 81
340
0
102
{BLKREFS
331
348
102
}
  0
BLOCK_RECORD
  5
34F
330
1
100
AcDbSymbolTableRecord
100
AcDbBlockTableRecord
  2
block 82
340
0
102
{BLKREFS
331
350
102
}
  0
BLOCK_RECORD
  5
357
330
1
100
AcDbSymbolTableRecord
100
AcDbBlockTableRecord
  2
block 83
340
0
102
{BLKREFS
331
358
102
}
  0
BLOCK_RECORD
  5
36D
330
1
100
AcDbSymbolTableRecord
100
AcDbBlockTableRecord
  2
block 84
340
0
102
{BLKREFS
331
36E
102
}
  0
BLOCK_RECORD
  5
383
330
1
100
AcDbSymbolTableRecord
100
AcDbBlockTableRecord
  2
block 85
340
0
102
{BLKREFS
331
384
102
}
  0
BLOCK_RECORD
  5
398
330
1
100
AcDbSymbolTableRecord
100
AcDbBlockTableRecord
  2
block 86
340
0
102
{BLKREFS
331
399
102
}
  0
BLOCK_RECORD
  5
3A0
330
1
100
AcDbSymbolTableRecord
100
AcDbBlockTableRecord
  2
block 87
340
0
102
{BLKREFS
331
3A1
102
}
  0
BLOCK_RECORD
  5
3B4
330
1
100
AcDbSymbolTableRecord
100
AcDbBlockTableRecord
  2
block 88
340
0
102
{BLKREFS
331
3B5
102
}
  0
BLOCK_RECORD
  5
3BC
330
1
100
AcDbSymbolTableRecord
100
AcDbBlockTableRecord
  2
block 89
340
0
102
{BLKREFS
331
3BD
102
}
  0
BLOCK_RECORD
  5
3C1
330
1
100
AcDbSymbolTableRecord
100
AcDbBlockTableRecord
  2
block 90
340
0
102
{BLKREFS
331
3C2
102
}
  0
BLOCK_RECORD
  5
3C9
330
1
100
AcDbSymbolTableRecord
100
AcDbBlockTableRecord
  2
block 91
340
0
102
{BLKREFS
331
3CA
102
}
  0
BLOCK_RECORD
  5
3D1
330
1
100
AcDbSymbolTableRecord
100
AcDbBlockTableRecord
  2
block 92
340
0
102
{BLKREFS
331
3D2
102
}
  0
BLOCK_RECORD
  5
3D9
330
1
100
AcDbSymbolTableRecord
100
AcDbBlockTableRecord
  2
block 93
340
0
102
{BLKREFS
331
3DA
102
}
  0
BLOCK_RECORD
  5
3E1
330
1
100
AcDbSymbolTableRecord
100
AcDbBlockTableRecord
  2
block 94
340
0
102
{BLKREFS
331
3E2
102
}
  0
ENDTAB
  0
ENDSEC
  0
SECTION
  2
BLOCKS
  0
BLOCK
  5
20
330
1F
100
AcDbEntity
  8
0
100
AcDbBlockBegin
  2
*Model_Space
 70
     0
 71
     0
 10
0.0
 20
0.0
 30
0.0
  3
*Model_Space
  1

  0
ENDBLK
  5
21
330
1F
100
AcDbEntity
  8
0
100
AcDbBlockEnd
  0
BLOCK
  5
1C
330
1B
100
AcDbEntity
 67
     1
  8
0
100
AcDbBlockBegin
  2
*Paper_Space
 70
     0
 71
     0
 10
0.0
 20
0.0
 30
0.0
  3
*Paper_Space
  1

  0
ENDBLK
  5
1D
330
1B
100
AcDbEntity
 67
     1
  8
0
100
AcDbBlockEnd
  0
BLOCK
  5
24
330
23
100
AcDbEntity
  8
0
100
AcDbBlockBegin
  2
*Paper_Space0
 70
     0
 71
     0
 10
0.0
 20
0.0
 30
0.0
  3
*Paper_Space0
  1

  0
ENDBLK
  5
25
330
23
100
AcDbEntity
  8
0
100
AcDbBlockEnd
  0
BLOCK
  5
3F
330
3D
100
AcDbEntity
  8
0
100
AcDbBlockBegin
  2
block 2
 70
     0
 71
     0
 10
0.0
 20
0.0
 30
0.0
  3
block 2
  1

  0
INSERT
  5
42
330
3D
100
AcDbEntity
  8
FORMAT
100
AcDbBlockReference
  2
block 3
 10
0.0
 20
0.0
 30
0.0
  0
INSERT
  5
4A
330
3D
100
AcDbEntity
  8
FORMAT
100
AcDbBlockReference
  2
block 4
 10
0.0
 20
0.0
 30
0.0
  0
INSERT
  5
52
330
3D
100
AcDbEntity
  8
FORMAT
100
AcDbBlockReference
  2
block 5
 10
0.0
 20
0.0
 30
0.0
  0
INSERT
  5
5A
330
3D
100
AcDbEntity
  8
FORMAT
100
AcDbBlockReference
  2
block 6
 10
0.0
 20
0.0
 30
0.0
  0
INSERT
  5
62
330
3D
100
AcDbEntity
  8
FORMAT
100
AcDbBlockReference
  2
block 7
 10
0.0
 20
0.0
 30
0.0
  0
INSERT
  5
6A
330
3D
100
AcDbEntity
  8
FORMAT
100
AcDbBlockReference
  2
block 8
 10
0.0
 20
0.0
 30
0.0
  0
INSERT
  5
72
330
3D
100
AcDbEntity
  8
FORMAT
100
AcDbBlockReference
  2
block 9
 10
0.0
 20
0.0
 30
0.0
  0
INSERT
  5
7A
330
3D
100
AcDbEntity
  8
FORMAT
100
AcDbBlockReference
  2
block 10
 10
0.0
 20
0.0
 30
0.0
  0
INSERT
  5
82
330
3D
100
AcDbEntity
  8
FORMAT
100
AcDbBlockReference
  2
block 11
 10
0.0
 20
0.0
 30
0.0
  0
INSERT
  5
8A
330
3D
100
AcDbEntity
  8
FORMAT
100
AcDbBlockReference
  2
block 12
 10
0.0
 20
0.0
 30
0.0
  0
INSERT
  5
92
330
3D
100
AcDbEntity
  8
FORMAT
100
AcDbBlockReference
  2
block 13
 10
0.0
 20
0.0
 30
0.0
  0
INSERT
  5
9A
330
3D
100
AcDbEntity
  8
FORMAT
100
AcDbBlockReference
  2
block 14
 10
0.0
 20
0.0
 30
0.0
  0
INSERT
  5
A2
330
3D
100
AcDbEntity
  8
FORMAT
100
AcDbBlockReference
  2
block 15
 10
0.0
 20
0.0
 30
0.0
  0
INSERT
  5
AA
330
3D
100
AcDbEntity
  8
FORMAT
100
AcDbBlockReference
  2
block 16
 10
0.0
 20
0.0
 30
0.0
  0
INSERT
  5
B2
330
3D
100
AcDbEntity
  8
FORMAT
100
AcDbBlockReference
  2
block 17
 10
0.0
 20
0.0
 30
0.0
  0
INSERT
  5
BA
330
3D
100
AcDbEntity
  8
FORMAT
100
AcDbBlockReference
  2
block 18
 10
0.0
 20
0.0
 30
0.0
  0
INSERT
  5
C2
330
3D
100
AcDbEntity
  8
FORMAT
100
AcDbBlockReference
  2
block 19
 10
0.0
 20
0.0
 30
0.0
  0
INSERT
  5
CA
330
3D
100
AcDbEntity
  8
FORMAT
100
AcDbBlockReference
  2
block 20
 10
0.0
 20
0.0
 30
0.0
  0
INSERT
  5
D2
330
3D
100
AcDbEntity
  8
FORMAT
100
AcDbBlockReference
  2
block 21
 10
0.0
 20
0.0
 30
0.0
  0
INSERT
  5
DA
330
3D
100
AcDbEntity
  8
FORMAT
100
AcDbBlockReference
  2
block 22
 10
0.0
 20
0.0
 30
0.0
  0
INSERT
  5
E2
330
3D
100
AcDbEntity
  8
FORMAT
100
AcDbBlockReference
  2
block 23
 10
0.0
 20
0.0
 30
0.0
  0
INSERT
  5
EA
330
3D
100
AcDbEntity
  8
FORMAT
100
AcDbBlockReference
  2
block 24
 10
0.0
 20
0.0
 30
0.0
  0
INSERT
  5
F2
330
3D
100
AcDbEntity
  8
FORMAT
100
AcDbBlockReference
  2
block 25
 10
0.0
 20
0.0
 30
0.0
  0
INSERT
  5
FA
330
3D
100
AcDbEntity
  8
FORMAT
100
AcDbBlockReference
  2
block 26
 10
0.0
 20
0.0
 30
0.0
  0
INSERT
  5
102
330
3D
100
AcDbEntity
  8
FORMAT
100
AcDbBlockReference
  2
block 27
 10
0.0
 20
0.0
 30
0.0
  0
INSERT
  5
111
330
3D
100
AcDbEntity
  8
FORMAT
100
AcDbBlockReference
  2
block 28
 10
0.0
 20
0.0
 30
0.0
  0
INSERT
  5
126
330
3D
100
AcDbEntity
  8
FORMAT
100
AcDbBlockReference
  2
block 29
 10
0.0
 20
0.0
 30
0.0
  0
INSERT
  5
12E
330
3D
100
AcDbEntity
  8
FORMAT
100
AcDbBlockReference
  2
block 30
 10
0.0
 20
0.0
 30
0.0
  0
INSERT
  5
143
330
3D
100
AcDbEntity
  8
FORMAT
100
AcDbBlockReference
  2
block 31
 10
0.0
 20
0.0
 30
0.0
  0
INSERT
  5
148
330
3D
100
AcDbEntity
  8
FORMAT
100
AcDbBlockReference
  2
block 32
 10
0.0
 20
0.0
 30
0.0
  0
INSERT
  5
155
330
3D
100
AcDbEntity
  8
FORMAT
100
AcDbBlockReference
  2
block 33
 10
0.0
 20
0.0
 30
0.0
  0
INSERT
  5
15A
330
3D
100
AcDbEntity
  8
FORMAT
100
AcDbBlockReference
  2
block 34
 10
0.0
 20
0.0
 30
0.0
  0
INSERT
  5
162
330
3D
100
AcDbEntity
  8
FORMAT
100
AcDbBlockReference
  2
block 35
 10
0.0
 20
0.0
 30
0.0
  0
INSERT
  5
16A
330
3D
100
AcDbEntity
  8
FORMAT
100
AcDbBlockReference
  2
block 36
 10
0.0
 20
0.0
 30
0.0
  0
INSERT
  5
16F
330
3D
100
AcDbEntity
  8
FORMAT
100
AcDbBlockReference
  2
block 37
 10
0.0
 20
0.0
 30
0.0
  0
INSERT
  5
17C
330
3D
100
AcDbEntity
  8
FORMAT
100
AcDbBlockReference
  2
block 38
 10
0.0
 20
0.0
 30
0.0
  0
INSERT
  5
184
330
3D
100
AcDbEntity
  8
FORMAT
100
AcDbBlockReference
  2
block 39
 10
0.0
 20
0.0
 30
0.0
  0
INSERT
  5
18C
330
3D
100
AcDbEntity
  8
FORMAT
100
AcDbBlockReference
  2
block 40
 10
0.0
 20
0.0
 30
0.0
  0
INSERT
  5
195
330
3D
100
AcDbEntity
  8
FORMAT
100
AcDbBlockReference
  2
block 41
 10
0.0
 20
0.0
 30
0.0
  0
INSERT
  5
1A2
330
3D
100
AcDbEntity
  8
FORMAT
100
AcDbBlockReference
  2
block 42
 10
0.0
 20
0.0
 30
0.0
  0
INSERT
  5
1A7
330
3D
100
AcDbEntity
  8
FORMAT
100
AcDbBlockReference
  2
block 43
 10
0.0
 20
0.0
 30
0.0
  0
INSERT
  5
1BE
330
3D
100
AcDbEntity
  8
FORMAT
100
AcDbBlockReference
  2
block 44
 10
0.0
 20
0.0
 30
0.0
  0
INSERT
  5
1CD
330
3D
100
AcDbEntity
  8
FORMAT
100
AcDbBlockReference
  2
block 45
 10
0.0
 20
0.0
 30
0.0
  0
INSERT
  5
1D2
330
3D
100
AcDbEntity
  8
FORMAT
100
AcDbBlockReference
  2
block 46
 10
0.0
 20
0.0
 30
0.0
  0
INSERT
  5
1E9
330
3D
100
AcDbEntity
  8
FORMAT
100
AcDbBlockReference
  2
block 47
 10
0.0
 20
0.0
 30
0.0
  0
INSERT
  5
1F8
330
3D
100
AcDbEntity
  8
FORMAT
100
AcDbBlockReference
  2
block 48
 10
0.0
 20
0.0
 30
0.0
  0
INSERT
  5
203
330
3D
100
AcDbEntity
  8
FORMAT
100
AcDbBlockReference
  2
block 49
 10
0.0
 20
0.0
 30
0.0
  0
INSERT
  5
20B
330
3D
100
AcDbEntity
  8
FORMAT
100
AcDbBlockReference
  2
block 50
 10
0.0
 20
0.0
 30
0.0
  0
INSERT
  5
213
330
3D
100
AcDbEntity
  8
FORMAT
100
AcDbBlockReference
  2
block 51
 10
0.0
 20
0.0
 30
0.0
  0
INSERT
  5
21B
330
3D
100
AcDbEntity
  8
FORMAT
100
AcDbBlockReference
  2
block 52
 10
0.0
 20
0.0
 30
0.0
  0
INSERT
  5
223
330
3D
100
AcDbEntity
  8
FORMAT
100
AcDbBlockReference
  2
block 53
 10
0.0
 20
0.0
 30
0.0
  0
INSERT
  5
228
330
3D
100
AcDbEntity
  8
FORMAT
100
AcDbBlockReference
  2
block 54
 10
0.0
 20
0.0
 30
0.0
  0
INSERT
  5
22D
330
3D
100
AcDbEntity
  8
FORMAT
100
AcDbBlockReference
  2
block 55
 10
0.0
 20
0.0
 30
0.0
  0
INSERT
  5
23E
330
3D
100
AcDbEntity
  8
FORMAT
100
AcDbBlockReference
  2
block 56
 10
0.0
 20
0.0
 30
0.0
  0
INSERT
  5
246
330
3D
100
AcDbEntity
  8
FORMAT
100
AcDbBlockReference
  2
block 57
 10
0.0
 20
0.0
 30
0.0
  0
INSERT
  5
25D
330
3D
100
AcDbEntity
  8
FORMAT
100
AcDbBlockReference
  2
block 58
 10
0.0
 20
0.0
 30
0.0
  0
INSERT
  5
266
330
3D
100
AcDbEntity
  8
FORMAT
100
AcDbBlockReference
  2
block 59
 10
0.0
 20
0.0
 30
0.0
  0
INSERT
  5
26E
330
3D
100
AcDbEntity
  8
FORMAT
100
AcDbBlockReference
  2
block 60
 10
0.0
 20
0.0
 30
0.0
  0
INSERT
  5
276
330
3D
100
AcDbEntity
  8
FORMAT
100
AcDbBlockReference
  2
block 61
 10
0.0
 20
0.0
 30
0.0
  0
INSERT
  5
27E
330
3D
100
AcDbEntity
  8
FORMAT
100
AcDbBlockReference
  2
block 62
 10
0.0
 20
0.0
 30
0.0
  0
INSERT
  5
286
330
3D
100
AcDbEntity
  8
FORMAT
100
AcDbBlockReference
  2
block 63
 10
0.0
 20
0.0
 30
0.0
  0
INSERT
  5
28B
330
3D
100
AcDbEntity
  8
FORMAT
100
AcDbBlockReference
  2
block 64
 10
0.0
 20
0.0
 30
0.0
  0
INSERT
  5
295
330
3D
100
AcDbEntity
  8
FORMAT
100
AcDbBlockReference
  2
block 65
 10
0.0
 20
0.0
 30
0.0
  0
INSERT
  5
29D
330
3D
100
AcDbEntity
  8
FORMAT
100
AcDbBlockReference
  2
block 66
 10
0.0
 20
0.0
 30
0.0
  0
INSERT
  5
2A7
330
3D
100
AcDbEntity
  8
FORMAT
100
AcDbBlockReference
  2
block 67
 10
0.0
 20
0.0
 30
0.0
  0
INSERT
  5
2AF
330
3D
100
AcDbEntity
  8
FORMAT
100
AcDbBlockReference
  2
block 68
 10
0.0
 20
0.0
 30
0.0
  0
INSERT
  5
2B7
330
3D
100
AcDbEntity
  8
FORMAT
100
AcDbBlockReference
  2
block 69
 10
0.0
 20
0.0
 30
0.0
  0
INSERT
  5
2D0
330
3D
100
AcDbEntity
  8
FORMAT
100
AcDbBlockReference
  2
block 70
 10
0.0
 20
0.0
 30
0.0
  0
INSERT
  5
2D8
330
3D
100
AcDbEntity
  8
FORMAT
100
AcDbBlockReference
  2
block 71
 10
0.0
 20
0.0
 30
0.0
  0
INSERT
  5
2F2
330
3D
100
AcDbEntity
  8
FORMAT
100
AcDbBlockReference
  2
block 72
 10
0.0
 20
0.0
 30
0.0
  0
INSERT
  5
2FA
330
3D
100
AcDbEntity
  8
FORMAT
100
AcDbBlockReference
  2
block 73
 10
0.0
 20
0.0
 30
0.0
  0
INSERT
  5
302
330
3D
100
AcDbEntity
  8
FORMAT
100
AcDbBlockReference
  2
block 74
 10
0.0
 20
0.0
 30
0.0
  0
INSERT
  5
318
330
3D
100
AcDbEntity
  8
FORMAT
100
AcDbBlockReference
  2
block 75
 10
0.0
 20
0.0
 30
0.0
  0
INSERT
  5
320
330
3D
100
AcDbEntity
  8
FORMAT
100
AcDbBlockReference
  2
block 76
 10
0.0
 20
0.0
 30
0.0
  0
INSERT
  5
325
330
3D
100
AcDbEntity
  8
FORMAT
100
AcDbBlockReference
  2
block 77
 10
0.0
 20
0.0
 30
0.0
  0
INSERT
  5
32D
330
3D
100
AcDbEntity
  8
FORMAT
100
AcDbBlockReference
  2
block 78
 10
0.0
 20
0.0
 30
0.0
  0
INSERT
  5
335
330
3D
100
AcDbEntity
  8
FORMAT
100
AcDbBlockReference
  2
block 79
 10
0.0
 20
0.0
 30
0.0
  0
INSERT
  5
343
330
3D
100
AcDbEntity
  8
FORMAT
100
AcDbBlockReference
  2
block 80
 10
0.0
 20
0.0
 30
0.0
  0
INSERT
  5
348
330
3D
100
AcDbEntity
  8
FORMAT
100
AcDbBlockReference
  2
block 81
 10
0.0
 20
0.0
 30
0.0
  0
INSERT
  5
350
330
3D
100
AcDbEntity
  8
FORMAT
100
AcDbBlockReference
  2
block 82
 10
0.0
 20
0.0
 30
0.0
  0
INSERT
  5
358
330
3D
100
AcDbEntity
  8
FORMAT
100
AcDbBlockReference
  2
block 83
 10
0.0
 20
0.0
 30
0.0
  0
INSERT
  5
36E
330
3D
100
AcDbEntity
  8
FORMAT
100
AcDbBlockReference
  2
block 84
 10
0.0
 20
0.0
 30
0.0
  0
INSERT
  5
384
330
3D
100
AcDbEntity
  8
FORMAT
100
AcDbBlockReference
  2
block 85
 10
0.0
 20
0.0
 30
0.0
  0
INSERT
  5
399
330
3D
100
AcDbEntity
  8
FORMAT
100
AcDbBlockReference
  2
block 86
 10
0.0
 20
0.0
 30
0.0
  0
INSERT
  5
3A1
330
3D
100
AcDbEntity
  8
FORMAT
100
AcDbBlockReference
  2
block 87
 10
0.0
 20
0.0
 30
0.0
  0
INSERT
  5
3B5
330
3D
100
AcDbEntity
  8
FORMAT
100
AcDbBlockReference
  2
block 88
 10
0.0
 20
0.0
 30
0.0
  0
INSERT
  5
3BD
330
3D
100
AcDbEntity
  8
FORMAT
100
AcDbBlockReference
  2
block 89
 10
0.0
 20
0.0
 30
0.0
  0
INSERT
  5
3C2
330
3D
100
AcDbEntity
  8
FORMAT
100
AcDbBlockReference
  2
block 90
 10
0.0
 20
0.0
 30
0.0
  0
INSERT
  5
3CA
330
3D
100
AcDbEntity
  8
FORMAT
100
AcDbBlockReference
  2
block 91
 10
0.0
 20
0.0
 30
0.0
  0
INSERT
  5
3D2
330
3D
100
AcDbEntity
  8
FORMAT
100
AcDbBlockReference
  2
block 92
 10
0.0
 20
0.0
 30
0.0
  0
INSERT
  5
3DA
330
3D
100
AcDbEntity
  8
FORMAT
100
AcDbBlockReference
  2
block 93
 10
0.0
 20
0.0
 30
0.0
  0
INSERT
  5
3E2
330
3D
100
AcDbEntity
  8
FORMAT
100
AcDbBlockReference
  2
block 94
 10
0.0
 20
0.0
 30
0.0
  0
ENDBLK
  5
40
330
3D
100
AcDbEntity
  8
0
100
AcDbBlockEnd
  0
BLOCK
  5
43
330
41
100
AcDbEntity
  8
0
100
AcDbBlockBegin
  2
block 3
 70
     0
 71
     0
 10
0.0
 20
0.0
 30
0.0
  3
block 3
  1

  0
POLYLINE
  5
45
330
41
100
AcDbEntity
  8
FORMAT
 62
     7
370
     9
100
AcDb2dPolyline
 66
     1
 10
0.0
 20
0.0
 30
0.0
  0
VERTEX
  5
46
330
45
100
AcDbEntity
  8
FORMAT
 62
     7
370
     9
100
AcDbVertex
100
AcDb2dVertex
 10
127.9236300678455
 20
126.5204426767032
 30
0.0
  0
VERTEX
  5
47
330
45
100
AcDbEntity
  8
FORMAT
 62
     7
370
     9
100
AcDbVertex
100
AcDb2dVertex
 10
69.13014728089455
 20
160.4613511426104
 30
0.0
  0
SEQEND
  5
48
330
45
100
AcDbEntity
  8
FORMAT
370
     9
  0
ENDBLK
  5
44
330
41
100
AcDbEntity
  8
0
100
AcDbBlockEnd
  0
BLOCK
  5
4B
330
49
100
AcDbEntity
  8
0
100
AcDbBlockBegin
  2
block 4
 70
     0
 71
     0
 10
0.0
 20
0.0
 30
0.0
  3
block 4
  1

  0
POLYLINE
  5
4D
330
49
100
AcDbEntity
  8
FORMAT
 62
     7
370
     9
100
AcDb2dPolyline
 66
     1
 10
0.0
 20
0.0
 30
0.0
  0
VERTEX
  5
4E
330
4D
100
AcDbEntity
  8
FORMAT
 62
     7
370
     9
100
AcDbVertex
100
AcDb2dVertex
 10
66.65105656970877
 20
158.0027587495618
 30
0.0
  0
VERTEX
  5
4F
330
4D
100
AcDbEntity
  8
FORMAT
 62
     7
370
     9
100
AcDbVertex
100
AcDb2dVertex
 10
125.4452283757568
 20
124.0613335193319
 30
0.0
  0
SEQEND
  5
50
330
4D
100
AcDbEntity
  8
FORMAT
370
     9
  0
ENDBLK
  5
4C
330
49
100
AcDbEntity
  8
0
100
AcDbBlockEnd
  0
BLOCK
  5
53
330
51
100
AcDbEntity
  8
0
100
AcDbBlockBegin
  2
block 5
 70
     0
 71
     0
 10
0.0
 20
0.0
 30
0.0
  3
block 5
  1

  0
POLYLINE
  5
55
330
51
100
AcDbEntity
  8
FORMAT
 62
     7
370
     9
100
AcDb2dPolyline
 66
     1
 10
0.0
 20
0.0
 30
0.0
  0
VERTEX
  5
56
330
55
100
AcDbEntity
  8
FORMAT
 62
     7
370
     9
100
AcDbVertex
100
AcDb2dVertex
 10
67.00882973585196
 20
156.9132473023516
 30
0.0
  0
VERTEX
  5
57
330
55
100
AcDbEntity
  8
FORMAT
 62
     7
370
     9
100
AcDbVertex
100
AcDb2dVertex
 10
125.9130723426537
 20
122.9086045699673
 30
0.0
  0
SEQEND
  5
58
330
55
100
AcDbEntity
  8
FORMAT
370
     9
  0
ENDBLK
  5
54
330
51
100
AcDbEntity
  8
0
100
AcDbBlockEnd
  0
BLOCK
  5
5B
330
59
100
AcDbEntity
  8
0
100
AcDbBlockBegin
  2
block 6
 70
     0
 71
     0
 10
0.0
 20
0.0
 30
0.0
  3
block 6
  1

  0
POLYLINE
  5
5D
330
59
100
AcDbEntity
  8
FORMAT
 62
     7
370
     9
100
AcDb2dPolyline
 66
     1
 10
0.0
 20
0.0
 30
0.0
  0
VERTEX
  5
5E
330
5D
100
AcDbEntity
  8
FORMAT
 62
     7
370
     9
100
AcDbVertex
100
AcDb2dVertex
 10
125.51688636185
 20
124.076491939467
 30
0.0
  0
VERTEX
  5
5F
330
5D
100
AcDbEntity
  8
FORMAT
 62
     7
370
     9
100
AcDbVertex
100
AcDb2dVertex
 10
125.5010389226178
 20
124.0868272259227
 30
0.0
  0
SEQEND
  5
60
330
5D
100
AcDbEntity
  8
FORMAT
370
     9
  0
ENDBLK
  5
5C
330
59
100
AcDbEntity
  8
0
100
AcDbBlockEnd
  0
BLOCK
  5
63
330
61
100
AcDbEntity
  8
0
100
AcDbBlockBegin
  2
block 7
 70
     0
 71
     0
 10
0.0
 20
0.0
 30
0.0
  3
block 7
  1

  0
POLYLINE
  5
65
330
61
100
AcDbEntity
  8
FORMAT
 62
     7
370
     9
100
AcDb2dPolyline
 66
     1
 10
0.0
 20
0.0
 30
0.0
  0
VERTEX
  5
66
330
65
100
AcDbEntity
  8
FORMAT
 62
     7
370
     9
100
AcDbVertex
100
AcDb2dVertex
 10
64.3252726076166
 20
160.2470662034278
 30
0.0
  0
VERTEX
  5
67
330
65
100
AcDbEntity
  8
FORMAT
 62
     7
370
     9
100
AcDbVertex
100
AcDb2dVertex
 10
64.17282713239429
 20
160.3361219217215
 30
0.0
  0
SEQEND
  5
68
330
65
100
AcDbEntity
  8
FORMAT
370
     9
  0
ENDBLK
  5
64
330
61
100
AcDbEntity
  8
0
100
AcDbBlockEnd
  0
BLOCK
  5
6B
330
69
100
AcDbEntity
  8
0
100
AcDbBlockBegin
  2
block 8
 70
     0
 71
     0
 10
0.0
 20
0.0
 30
0.0
  3
block 8
  1

  0
POLYLINE
  5
6D
330
69
100
AcDbEntity
  8
FORMAT
 62
     7
370
     9
100
AcDb2dPolyline
 66
     1
 10
0.0
 20
0.0
 30
0.0
  0
VERTEX
  5
6E
330
6D
100
AcDbEntity
  8
FORMAT
 62
     7
370
     9
100
AcDbVertex
100
AcDb2dVertex
 10
63.99316540283851
 20
160.0245130350807
 30
0.0
  0
VERTEX
  5
6F
330
6D
100
AcDbEntity
  8
FORMAT
 62
     7
370
     9
100
AcDbVertex
100
AcDb2dVertex
 10
64.21640759028271
 20
159.894805190061
 30
0.0
  0
SEQEND
  5
70
330
6D
100
AcDbEntity
  8
FORMAT
370
     9
  0
ENDBLK
  5
6C
330
69
100
AcDbEntity
  8
0
100
AcDbBlockEnd
  0
BLOCK
  5
73
330
71
100
AcDbEntity
  8
0
100
AcDbBlockBegin
  2
block 9
 70
     0
 71
     0
 10
0.0
 20
0.0
 30
0.0
  3
block 9
  1

  0
POLYLINE
  5
75
330
71
100
AcDbEntity
  8
FORMAT
 62
     7
370
     9
100
AcDb2dPolyline
 66
     1
 10
0.0
 20
0.0
 30
0.0
  0
VERTEX
  5
76
330
75
100
AcDbEntity
  8
FORMAT
 62
     7
370
     9
100
AcDbVertex
100
AcDb2dVertex
 10
64.08101533771239
 20
160.3266479091371
 30
0.0
  0
VERTEX
  5
77
330
75
100
AcDbEntity
  8
FORMAT
 62
     7
370
     9
100
AcDbVertex
100
AcDb2dVertex
 10
64.02692733859396
 20
160.2947807758985
 30
0.0
  0
SEQEND
  5
78
330
75
100
AcDbEntity
  8
FORMAT
370
     9
  0
ENDBLK
  5
74
330
71
100
AcDbEntity
  8
0
100
AcDbBlockEnd
  0
BLOCK
  5
7B
330
79
100
AcDbEntity
  8
0
100
AcDbBlockBegin
  2
block 10
 70
     0
 71
     0
 10
0.0
 20
0.0
 30
0.0
  3
block 10
  1

  0
POLYLINE
  5
7D
330
79
100
AcDbEntity
  8
FORMAT
 62
     7
370
     9
100
AcDb2dPolyline
 66
     1
 10
0.0
 20
0.0
 30
0.0
  0
VERTEX
  5
7E
330
7D
100
AcDbEntity
  8
FORMAT
 62
     7
370
     9
100
AcDbVertex
100
AcDb2dVertex
 10
63.95475258817798
 20
160.1707573384296
 30
0.0
  0
VERTEX
  5
7F
330
7D
100
AcDbEntity
  8
FORMAT
 62
     7
370
     9
100
AcDbVertex
100
AcDb2dVertex
 10
63.95475258817798
 20
160.1068508171782
 30
0.0
  0
SEQEND
  5
80
330
7D
100
AcDbEntity
  8
FORMAT
370
     9
  0
ENDBLK
  5
7C
330
79
100
AcDbEntity
  8
0
100
AcDbBlockEnd
  0
BLOCK
  5
83
330
81
100
AcDbEntity
  8
0
100
AcDbBlockBegin
  2
block 11
 70
     0
 71
     0
 10
0.0
 20
0.0
 30
0.0
  3
block 11
  1

  0
POLYLINE
  5
85
330
81
100
AcDbEntity
  8
FORMAT
 62
     7
370
     9
100
AcDb2dPolyline
 66
     1
 10
0.0
 20
0.0
 30
0.0
  0
VERTEX
  5
86
330
85
100
AcDbEntity
  8
FORMAT
 62
     7
370
     9
100
AcDbVertex
100
AcDb2dVertex
 10
130.9070827580719
 20
123.0732801341622
 30
0.0
  0
VERTEX
  5
87
330
85
100
AcDbEntity
  8
FORMAT
 62
     7
370
     9
100
AcDbVertex
100
AcDb2dVertex
 10
130.9615152667388
 20
123.1056640317236
 30
0.0
  0
SEQEND
  5
88
330
85
100
AcDbEntity
  8
FORMAT
370
     9
  0
ENDBLK
  5
84
330
81
100
AcDbEntity
  8
0
100
AcDbBlockEnd
  0
BLOCK
  5
8B
330
89
100
AcDbEntity
  8
0
100
AcDbBlockBegin
  2
block 12
 70
     0
 71
     0
 10
0.0
 20
0.0
 30
0.0
  3
block 12
  1

  0
POLYLINE
  5
8D
330
89
100
AcDbEntity
  8
FORMAT
 62
     7
370
     9
100
AcDb2dPolyline
 66
     1
 10
0.0
 20
0.0
 30
0.0
  0
VERTEX
  5
8E
330
8D
100
AcDbEntity
  8
FORMAT
 62
     7
370
     9
100
AcDbVertex
100
AcDb2dVertex
 10
131.0335177623805
 20
123.2303764882896
 30
0.0
  0
VERTEX
  5
8F
330
8D
100
AcDbEntity
  8
FORMAT
 62
     7
370
     9
100
AcDbVertex
100
AcDb2dVertex
 10
131.0335177623805
 20
123.2937662452182
 30
0.0
  0
SEQEND
  5
90
330
8D
100
AcDbEntity
  8
FORMAT
370
     9
  0
ENDBLK
  5
8C
330
89
100
AcDbEntity
  8
0
100
AcDbBlockEnd
  0
BLOCK
  5
93
330
91
100
AcDbEntity
  8
0
100
AcDbBlockBegin
  2
block 13
 70
     0
 71
     0
 10
0.0
 20
0.0
 30
0.0
  3
block 13
  1

  0
POLYLINE
  5
95
330
91
100
AcDbEntity
  8
FORMAT
 62
     7
370
     9
100
AcDb2dPolyline
 66
     1
 10
0.0
 20
0.0
 30
0.0
  0
VERTEX
  5
96
330
95
100
AcDbEntity
  8
FORMAT
 62
     7
370
     9
100
AcDbVertex
100
AcDb2dVertex
 10
130.0554551541181
 20
123.5046060889155
 30
0.0
  0
VERTEX
  5
97
330
95
100
AcDbEntity
  8
FORMAT
 62
     7
370
     9
100
AcDbVertex
100
AcDb2dVertex
 10
130.8161322372613
 20
123.0657009240947
 30
0.0
  0
SEQEND
  5
98
330
95
100
AcDbEntity
  8
FORMAT
370
     9
  0
ENDBLK
  5
94
330
91
100
AcDbEntity
  8
0
100
AcDbBlockEnd
  0
BLOCK
  5
9B
330
99
100
AcDbEntity
  8
0
100
AcDbBlockBegin
  2
block 14
 70
     0
 71
     0
 10
0.0
 20
0.0
 30
0.0
  3
block 14
  1

  0
POLYLINE
  5
9D
330
99
100
AcDbEntity
  8
FORMAT
 62
     7
370
     9
100
AcDb2dPolyline
 66
     1
 10
0.0
 20
0.0
 30
0.0
  0
VERTEX
  5
9E
330
9D
100
AcDbEntity
  8
FORMAT
 62
     7
370
     9
100
AcDbVertex
100
AcDb2dVertex
 10
130.9952772024942
 20
123.3764485368642
 30
0.0
  0
VERTEX
  5
9F
330
9D
100
AcDbEntity
  8
FORMAT
 62
     7
370
     9
100
AcDbVertex
100
AcDb2dVertex
 10
130.2352891384481
 20
123.8160427207821
 30
0.0
  0
SEQEND
  5
A0
330
9D
100
AcDbEntity
  8
FORMAT
370
     9
  0
ENDBLK
  5
9C
330
99
100
AcDbEntity
  8
0
100
AcDbBlockEnd
  0
BLOCK
  5
A3
330
A1
100
AcDbEntity
  8
0
100
AcDbBlockBegin
  2
block 15
 70
     0
 71
     0
 10
0.0
 20
0.0
 30
0.0
  3
block 15
  1

  0
POLYLINE
  5
A5
330
A1
100
AcDbEntity
  8
FORMAT
 62
     7
370
     9
100
AcDb2dPolyline
 66
     1
 10
0.0
 20
0.0
 30
0.0
  0
VERTEX
  5
A6
330
A5
100
AcDbEntity
  8
FORMAT
 62
     7
370
     9
100
AcDbVertex
100
AcDb2dVertex
 10
129.5045843860266
 20
122.2664387715167
 30
0.0
  0
VERTEX
  5
A7
330
A5
100
AcDbEntity
  8
FORMAT
 62
     7
370
     9
100
AcDbVertex
100
AcDb2dVertex
 10
129.5600504233392
 20
122.2967556117869
 30
0.0
  0
SEQEND
  5
A8
330
A5
100
AcDbEntity
  8
FORMAT
370
     9
  0
ENDBLK
  5
A4
330
A1
100
AcDbEntity
  8
0
100
AcDbBlockEnd
  0
BLOCK
  5
AB
330
A9
100
AcDbEntity
  8
0
100
AcDbBlockBegin
  2
block 16
 70
     0
 71
     0
 10
0.0
 20
0.0
 30
0.0
  3
block 16
  1

  0
POLYLINE
  5
AD
330
A9
100
AcDbEntity
  8
FORMAT
 62
     7
370
     9
100
AcDb2dPolyline
 66
     1
 10
0.0
 20
0.0
 30
0.0
  0
VERTEX
  5
AE
330
AD
100
AcDbEntity
  8
FORMAT
 62
     7
370
     9
100
AcDbVertex
100
AcDb2dVertex
 10
129.6323974285294
 20
122.4228461065471
 30
0.0
  0
VERTEX
  5
AF
330
AD
100
AcDbEntity
  8
FORMAT
 62
     7
370
     9
100
AcDbVertex
100
AcDb2dVertex
 10
129.6323974285294
 20
122.4855468443786
 30
0.0
  0
SEQEND
  5
B0
330
AD
100
AcDbEntity
  8
FORMAT
370
     9
  0
ENDBLK
  5
AC
330
A9
100
AcDbEntity
  8
0
100
AcDbBlockEnd
  0
BLOCK
  5
B3
330
B1
100
AcDbEntity
  8
0
100
AcDbBlockBegin
  2
block 17
 70
     0
 71
     0
 10
0.0
 20
0.0
 30
0.0
  3
block 17
  1

  0
POLYLINE
  5
B5
330
B1
100
AcDbEntity
  8
FORMAT
 62
     7
370
     9
100
AcDb2dPolyline
 66
     1
 10
0.0
 20
0.0
 30
0.0
  0
VERTEX
  5
B6
330
B5
100
AcDbEntity
  8
FORMAT
 62
     7
370
     9
100
AcDbVertex
100
AcDb2dVertex
 10
128.654334820267
 20
122.6956976689789
 30
0.0
  0
VERTEX
  5
B7
330
B5
100
AcDbEntity
  8
FORMAT
 62
     7
370
     9
100
AcDbVertex
100
AcDb2dVertex
 10
129.4167344511528
 20
122.2554144659639
 30
0.0
  0
SEQEND
  5
B8
330
B5
100
AcDbEntity
  8
FORMAT
370
     9
  0
ENDBLK
  5
B4
330
B1
100
AcDbEntity
  8
0
100
AcDbBlockEnd
  0
BLOCK
  5
BB
330
B9
100
AcDbEntity
  8
0
100
AcDbBlockBegin
  2
block 18
 70
     0
 71
     0
 10
0.0
 20
0.0
 30
0.0
  3
block 18
  1

  0
POLYLINE
  5
BD
330
B9
100
AcDbEntity
  8
FORMAT
 62
     7
370
     9
100
AcDb2dPolyline
 66
     1
 10
0.0
 20
0.0
 30
0.0
  0
VERTEX
  5
BE
330
BD
100
AcDbEntity
  8
FORMAT
 62
     7
370
     9
100
AcDbVertex
100
AcDb2dVertex
 10
129.5955349068372
 20
122.5675401169276
 30
0.0
  0
VERTEX
  5
BF
330
BD
100
AcDbEntity
  8
FORMAT
 62
     7
370
     9
100
AcDbVertex
100
AcDb2dVertex
 10
128.834168804597
 20
123.0057562626513
 30
0.0
  0
SEQEND
  5
C0
330
BD
100
AcDbEntity
  8
FORMAT
370
     9
  0
ENDBLK
  5
BC
330
B9
100
AcDbEntity
  8
0
100
AcDbBlockEnd
  0
BLOCK
  5
C3
330
C1
100
AcDbEntity
  8
0
100
AcDbBlockBegin
  2
block 19
 70
     0
 71
     0
 10
0.0
 20
0.0
 30
0.0
  3
block 19
  1

  0
POLYLINE
  5
C5
330
C1
100
AcDbEntity
  8
FORMAT
 62
     7
370
     9
100
AcDb2dPolyline
 66
     1
 10
0.0
 20
0.0
 30
0.0
  0
VERTEX
  5
C6
330
C5
100
AcDbEntity
  8
FORMAT
 62
     7
370
     9
100
AcDbVertex
100
AcDb2dVertex
 10
64.58089869262214
 20
158.3136786171056
 30
0.0
  0
VERTEX
  5
C7
330
C5
100
AcDbEntity
  8
FORMAT
 62
     7
370
     9
100
AcDbVertex
100
AcDb2dVertex
 10
66.98643661519783
 20
156.9249606270014
 30
0.0
  0
SEQEND
  5
C8
330
C5
100
AcDbEntity
  8
FORMAT
370
     9
  0
ENDBLK
  5
C4
330
C1
100
AcDbEntity
  8
0
100
AcDbBlockEnd
  0
BLOCK
  5
CB
330
C9
100
AcDbEntity
  8
0
100
AcDbBlockBegin
  2
block 20
 70
     0
 71
     0
 10
0.0
 20
0.0
 30
0.0
  3
block 20
  1

  0
POLYLINE
  5
CD
330
C9
100
AcDbEntity
  8
FORMAT
 62
     7
370
     9
100
AcDb2dPolyline
 66
     1
 10
0.0
 20
0.0
 30
0.0
  0
VERTEX
  5
CE
330
CD
100
AcDbEntity
  8
FORMAT
 62
     7
370
     9
100
AcDbVertex
100
AcDb2dVertex
 10
129.3736707575871
 20
121.6091145529311
 30
0.0
  0
VERTEX
  5
CF
330
CD
100
AcDbEntity
  8
FORMAT
 62
     7
370
     9
100
AcDbVertex
100
AcDb2dVertex
 10
129.4842583226637
 20
121.6738823480538
 30
0.0
  0
SEQEND
  5
D0
330
CD
100
AcDbEntity
  8
FORMAT
370
     9
  0
ENDBLK
  5
CC
330
C9
100
AcDbEntity
  8
0
100
AcDbBlockEnd
  0
BLOCK
  5
D3
330
D1
100
AcDbEntity
  8
0
100
AcDbBlockBegin
  2
block 21
 70
     0
 71
     0
 10
0.0
 20
0.0
 30
0.0
  3
block 21
  1

  0
POLYLINE
  5
D5
330
D1
100
AcDbEntity
  8
FORMAT
 62
     7
370
     9
100
AcDb2dPolyline
 66
     1
 10
0.0
 20
0.0
 30
0.0
  0
VERTEX
  5
D6
330
D5
100
AcDbEntity
  8
FORMAT
 62
     7
370
     9
100
AcDbVertex
100
AcDb2dVertex
 10
125.9347764442108
 20
122.8955132071233
 30
0.0
  0
VERTEX
  5
D7
330
D5
100
AcDbEntity
  8
FORMAT
 62
     7
370
     9
100
AcDbVertex
100
AcDb2dVertex
 10
128.3401421120122
 20
121.5078287456647
 30
0.0
  0
SEQEND
  5
D8
330
D5
100
AcDbEntity
  8
FORMAT
370
     9
  0
ENDBLK
  5
D4
330
D1
100
AcDbEntity
  8
0
100
AcDbBlockEnd
  0
BLOCK
  5
DB
330
D9
100
AcDbEntity
  8
0
100
AcDbBlockBegin
  2
block 22
 70
     0
 71
     0
 10
0.0
 20
0.0
 30
0.0
  3
block 22
  1

  0
POLYLINE
  5
DD
330
D9
100
AcDbEntity
  8
FORMAT
 62
     7
370
     9
100
AcDb2dPolyline
 66
     1
 10
0.0
 20
0.0
 30
0.0
  0
VERTEX
  5
DE
330
DD
100
AcDbEntity
  8
FORMAT
 62
     7
370
     9
100
AcDbVertex
100
AcDb2dVertex
 10
130.405821364968
 20
125.0879719739363
 30
0.0
  0
VERTEX
  5
DF
330
DD
100
AcDbEntity
  8
FORMAT
 62
     7
370
     9
100
AcDbVertex
100
AcDb2dVertex
 10
128.0018337353607
 20
126.475656435395
 30
0.0
  0
SEQEND
  5
E0
330
DD
100
AcDbEntity
  8
FORMAT
370
     9
  0
ENDBLK
  5
DC
330
D9
100
AcDbEntity
  8
0
100
AcDbBlockEnd
  0
BLOCK
  5
E3
330
E1
100
AcDbEntity
  8
0
100
AcDbBlockBegin
  2
block 23
 70
     0
 71
     0
 10
0.0
 20
0.0
 30
0.0
  3
block 23
  1

  0
POLYLINE
  5
E5
330
E1
100
AcDbEntity
  8
FORMAT
 62
     7
370
     9
100
AcDb2dPolyline
 66
     1
 10
0.0
 20
0.0
 30
0.0
  0
VERTEX
  5
E6
330
E5
100
AcDbEntity
  8
FORMAT
 62
     7
370
     9
100
AcDbVertex
100
AcDb2dVertex
 10
69.05211586815363
 20
160.5059651291444
 30
0.0
  0
VERTEX
  5
E7
330
E5
100
AcDbEntity
  8
FORMAT
 62
     7
370
     9
100
AcDbVertex
100
AcDb2dVertex
 10
66.6481282385463
 20
161.8939941001515
 30
0.0
  0
SEQEND
  5
E8
330
E5
100
AcDbEntity
  8
FORMAT
370
     9
  0
ENDBLK
  5
E4
330
E1
100
AcDbEntity
  8
0
100
AcDbBlockEnd
  0
BLOCK
  5
EB
330
E9
100
AcDbEntity
  8
0
100
AcDbBlockBegin
  2
block 24
 70
     0
 71
     0
 10
0.0
 20
0.0
 30
0.0
  3
block 24
  1

  0
POLYLINE
  5
ED
330
E9
100
AcDbEntity
  8
FORMAT
 62
     7
370
     9
100
AcDb2dPolyline
 66
     1
 10
0.0
 20
0.0
 30
0.0
  0
VERTEX
  5
EE
330
ED
100
AcDbEntity
  8
FORMAT
 62
     7
370
     9
100
AcDbVertex
100
AcDb2dVertex
 10
65.61442733819709
 20
161.7918470190139
 30
0.0
  0
VERTEX
  5
EF
330
ED
100
AcDbEntity
  8
FORMAT
 62
     7
370
     9
100
AcDbVertex
100
AcDb2dVertex
 10
65.50470104699188
 20
161.7279404977625
 30
0.0
  0
SEQEND
  5
F0
330
ED
100
AcDbEntity
  8
FORMAT
370
     9
  0
ENDBLK
  5
EC
330
E9
100
AcDbEntity
  8
0
100
AcDbBlockEnd
  0
BLOCK
  5
F3
330
F1
100
AcDbEntity
  8
0
100
AcDbBlockBegin
  2
block 25
 70
     0
 71
     0
 10
0.0
 20
0.0
 30
0.0
  3
block 25
  1

  0
POLYLINE
  5
F5
330
F1
100
AcDbEntity
  8
FORMAT
 62
     7
370
     9
100
AcDb2dPolyline
 66
     1
 10
0.0
 20
0.0
 30
0.0
  0
VERTEX
  5
F6
330
F5
100
AcDbEntity
  8
FORMAT
 62
     7
370
     9
100
AcDbVertex
100
AcDb2dVertex
 10
125.5068955849427
 20
124.0895833023109
 30
0.0
  0
VERTEX
  5
F7
330
F5
100
AcDbEntity
  8
FORMAT
 62
     7
370
     9
100
AcDbVertex
100
AcDb2dVertex
 10
125.5068955849427
 20
124.0820040922434
 30
0.0
  0
SEQEND
  5
F8
330
F5
100
AcDbEntity
  8
FORMAT
370
     9
  0
ENDBLK
  5
F4
330
F1
100
AcDbEntity
  8
0
100
AcDbBlockEnd
  0
BLOCK
  5
FB
330
F9
100
AcDbEntity
  8
0
100
AcDbBlockBegin
  2
block 26
 70
     0
 71
     0
 10
0.0
 20
0.0
 30
0.0
  3
block 26
  1

  0
POLYLINE
  5
FD
330
F9
100
AcDbEntity
  8
FORMAT
 62
     7
370
     9
100
AcDb2dPolyline
 66
     1
 10
0.0
 20
0.0
 30
0.0
  0
VERTEX
  5
FE
330
FD
100
AcDbEntity
  8
FORMAT
 62
     7
370
     9
100
AcDbVertex
100
AcDb2dVertex
 10
125.4596977767948
 20
124.062711557526
 30
0.0
  0
VERTEX
  5
FF
330
FD
100
AcDbEntity
  8
FORMAT
 62
     7
370
     9
100
AcDbVertex
100
AcDb2dVertex
 10
125.5068955849427
 20
124.0895833023109
 30
0.0
  0
SEQEND
  5
100
330
FD
100
AcDbEntity
  8
FORMAT
370
     9
  0
ENDBLK
  5
FC
330
F9
100
AcDbEntity
  8
0
100
AcDbBlockEnd
  0
BLOCK
  5
103
330
101
100
AcDbEntity
  8
0
100
AcDbBlockBegin
  2
block 27
 70
     0
 71
     0
 10
0.0
 20
0.0
 30
0.0
  3
block 27
  1

  0
POLYLINE
  5
105
330
101
100
AcDbEntity
  8
FORMAT
 62
     7
370
     9
100
AcDb2dPolyline
 66
     1
 10
0.0
 20
0.0
 30
0.0
  0
VERTEX
  5
106
330
105
100
AcDbEntity
  8
FORMAT
 62
     7
370
     9
100
AcDbVertex
100
AcDb2dVertex
 10
125.4393717134318
 20
124.0792480158552
 30
0.0
  0
VERTEX
  5
107
330
105
100
AcDbEntity
  8
FORMAT
 62
     7
370
     9
100
AcDbVertex
100
AcDb2dVertex
 10
125.4393717134318
 20
124.0730468439817
 30
0.0
  0
VERTEX
  5
108
330
105
100
AcDbEntity
  8
FORMAT
 62
     7
370
     9
100
AcDbVertex
100
AcDb2dVertex
 10
125.4393717134318
 20
124.0689127293994
 30
0.0
  0
VERTEX
  5
109
330
105
100
AcDbEntity
  8
FORMAT
 62
     7
370
     9
100
AcDbVertex
100
AcDb2dVertex
 10
125.4407497516259
 20
124.0640895957201
 30
0.0
  0
VERTEX
  5
10A
330
105
100
AcDbEntity
  8
FORMAT
 62
     7
370
     9
100
AcDbVertex
100
AcDb2dVertex
 10
125.4452283757568
 20
124.062711557526
 30
0.0
  0
VERTEX
  5
10B
330
105
100
AcDbEntity
  8
FORMAT
 62
     7
370
     9
100
AcDbVertex
100
AcDb2dVertex
 10
125.4483289616935
 20
124.0613335193319
 30
0.0
  0
VERTEX
  5
10C
330
105
100
AcDbEntity
  8
FORMAT
 62
     7
370
     9
100
AcDbVertex
100
AcDb2dVertex
 10
125.4521185667273
 20
124.0599554811378
 30
0.0
  0
VERTEX
  5
10D
330
105
100
AcDbEntity
  8
FORMAT
 62
     7
370
     9
100
AcDbVertex
100
AcDb2dVertex
 10
125.4565971908581
 20
124.0613335193319
 30
0.0
  0
VERTEX
  5
10E
330
105
100
AcDbEntity
  8
FORMAT
 62
     7
370
     9
100
AcDbVertex
100
AcDb2dVertex
 10
125.4596977767948
 20
124.062711557526
 30
0.0
  0
SEQEND
  5
10F
330
105
100
AcDbEntity
  8
FORMAT
370
     9
  0
ENDBLK
  5
104
330
101
100
AcDbEntity
  8
0
100
AcDbBlockEnd
  0
BLOCK
  5
112
330
110
100
AcDbEntity
  8
0
100
AcDbBlockBegin
  2
block 28
 70
     0
 71
     0
 10
0.0
 20
0.0
 30
0.0
  3
block 28
  1

  0
POLYLINE
  5
114
330
110
100
AcDbEntity
  8
FORMAT
 62
     7
370
     9
100
AcDb2dPolyline
 66
     1
 10
0.0
 20
0.0
 30
0.0
  0
VERTEX
  5
115
330
114
100
AcDbEntity
  8
FORMAT
 62
     7
370
     9
100
AcDbVertex
100
AcDb2dVertex
 10
127.9622151372803
 20
126.4963270083065
 30
0.0
  0
VERTEX
  5
116
330
114
100
AcDbEntity
  8
FORMAT
 62
     7
370
     9
100
AcDbVertex
100
AcDb2dVertex
 10
127.9108832145501
 20
126.5273328676737
 30
0.0
  0
VERTEX
  5
117
330
114
100
AcDbEntity
  8
FORMAT
 62
     7
370
     9
100
AcDbVertex
100
AcDb2dVertex
 10
127.7176133578275
 20
126.5989908537669
 30
0.0
  0
VERTEX
  5
118
330
114
100
AcDbEntity
  8
FORMAT
 62
     7
370
     9
100
AcDbVertex
100
AcDb2dVertex
 10
127.4991943040627
 20
126.6155273120961
 30
0.0
  0
VERTEX
  5
119
330
114
100
AcDbEntity
  8
FORMAT
 62
     7
370
     9
100
AcDbVertex
100
AcDb2dVertex
 10
127.2621717346775
 20
126.5769422426613
 30
0.0
  0
VERTEX
  5
11A
330
114
100
AcDbEntity
  8
FORMAT
 62
     7
370
     9
100
AcDbVertex
100
AcDb2dVertex
 10
127.0172254456763
 20
126.4846136836566
 30
0.0
  0
VERTEX
  5
11B
330
114
100
AcDbEntity
  8
FORMAT
 62
     7
370
     9
100
AcDbVertex
100
AcDb2dVertex
 10
126.7653889657045
 20
126.3392306541791
 30
0.0
  0
VERTEX
  5
11C
330
114
100
AcDbEntity
  8
FORMAT
 62
     7
370
     9
100
AcDbVertex
100
AcDb2dVertex
 10
126.5194091480576
 20
126.1476833451992
 30
0.0
  0
VERTEX
  5
11D
330
114
100
AcDbEntity
  8
FORMAT
 62
     7
370
     9
100
AcDbVertex
100
AcDb2dVertex
 10
126.283420107318
 20
125.9141058712993
 30
0.0
  0
VERTEX
  5
11E
330
114
100
AcDbEntity
  8
FORMAT
 62
     7
370
     9
100
AcDbVertex
100
AcDb2dVertex
 10
126.0639675249076
 20
125.6453884234498
 30
0.0
  0
VERTEX
  5
11F
330
114
100
AcDbEntity
  8
FORMAT
 62
     7
370
     9
100
AcDbVertex
100
AcDb2dVertex
 10
125.8717311968307
 20
125.3497992308153
 30
0.0
  0
VERTEX
  5
120
330
114
100
AcDbEntity
  8
FORMAT
 62
     7
370
     9
100
AcDbVertex
100
AcDb2dVertex
 10
125.7070556326357
 20
125.0362955416576
 30
0.0
  0
VERTEX
  5
121
330
114
100
AcDbEntity
  8
FORMAT
 62
     7
370
     9
100
AcDbVertex
100
AcDb2dVertex
 10
125.5775200423903
 20
124.7131455851412
 30
0.0
  0
VERTEX
  5
122
330
114
100
AcDbEntity
  8
FORMAT
 62
     7
370
     9
100
AcDbVertex
100
AcDb2dVertex
 10
125.4876030502253
 20
124.3913736668188
 30
0.0
  0
VERTEX
  5
123
330
114
100
AcDbEntity
  8
FORMAT
 62
     7
370
     9
100
AcDbVertex
100
AcDb2dVertex
 10
125.4393717134318
 20
124.0792480158552
 30
0.0
  0
SEQEND
  5
124
330
114
100
AcDbEntity
  8
FORMAT
370
     9
  0
ENDBLK
  5
113
330
110
100
AcDbEntity
  8
0
100
AcDbBlockEnd
  0
BLOCK
  5
127
330
125
100
AcDbEntity
  8
0
100
AcDbBlockBegin
  2
block 29
 70
     0
 71
     0
 10
0.0
 20
0.0
 30
0.0
  3
block 29
  1

  0
POLYLINE
  5
129
330
125
100
AcDbEntity
  8
FORMAT
 62
     7
370
     9
100
AcDb2dPolyline
 66
     1
 10
0.0
 20
0.0
 30
0.0
  0
VERTEX
  5
12A
330
129
100
AcDbEntity
  8
FORMAT
 62
     7
370
     9
100
AcDbVertex
100
AcDb2dVertex
 10
66.64364961441548
 20
158.0205009913109
 30
0.0
  0
VERTEX
  5
12B
330
129
100
AcDbEntity
  8
FORMAT
 62
     7
370
     9
100
AcDbVertex
100
AcDb2dVertex
 10
125.4393717134318
 20
124.0792480158552
 30
0.0
  0
SEQEND
  5
12C
330
129
100
AcDbEntity
  8
FORMAT
370
     9
  0
ENDBLK
  5
128
330
125
100
AcDbEntity
  8
0
100
AcDbBlockEnd
  0
BLOCK
  5
12F
330
12D
100
AcDbEntity
  8
0
100
AcDbBlockBegin
  2
block 30
 70
     0
 71
     0
 10
0.0
 20
0.0
 30
0.0
  3
block 30
  1

  0
POLYLINE
  5
131
330
12D
100
AcDbEntity
  8
FORMAT
 62
     7
370
     9
100
AcDb2dPolyline
 66
     1
 10
0.0
 20
0.0
 30
0.0
  0
VERTEX
  5
132
330
131
100
AcDbEntity
  8
FORMAT
 62
     7
370
     9
100
AcDbVertex
100
AcDb2dVertex
 10
69.13014728089455
 20
160.4613511426104
 30
0.0
  0
VERTEX
  5
133
330
131
100
AcDbEntity
  8
FORMAT
 62
     7
370
     9
100
AcDbVertex
100
AcDb2dVertex
 10
69.11671140850207
 20
160.4684135883551
 30
0.0
  0
VERTEX
  5
134
330
131
100
AcDbEntity
  8
FORMAT
 62
     7
370
     9
100
AcDbVertex
100
AcDb2dVertex
 10
68.92430282565087
 20
160.539899319674
 30
0.0
  0
VERTEX
  5
135
330
131
100
AcDbEntity
  8
FORMAT
 62
     7
370
     9
100
AcDbVertex
100
AcDb2dVertex
 10
68.70553926233751
 20
160.5567802875518
 30
0.0
  0
VERTEX
  5
136
330
131
100
AcDbEntity
  8
FORMAT
 62
     7
370
     9
100
AcDbVertex
100
AcDb2dVertex
 10
68.46868894772658
 20
160.5176784537942
 30
0.0
  0
VERTEX
  5
137
330
131
100
AcDbEntity
  8
FORMAT
 62
     7
370
     9
100
AcDbVertex
100
AcDb2dVertex
 10
68.22133109188565
 20
160.4251776400152
 30
0.0
  0
VERTEX
  5
138
330
131
100
AcDbEntity
  8
FORMAT
 62
     7
370
     9
100
AcDbVertex
100
AcDb2dVertex
 10
67.97190617875356
 20
160.2801391200862
 30
0.0
  0
VERTEX
  5
139
330
131
100
AcDbEntity
  8
FORMAT
 62
     7
370
     9
100
AcDbVertex
100
AcDb2dVertex
 10
67.72454832291261
 20
160.0884195563321
 30
0.0
  0
VERTEX
  5
13A
330
131
100
AcDbEntity
  8
FORMAT
 62
     7
370
     9
100
AcDbVertex
100
AcDb2dVertex
 10
67.48924830127005
 20
159.8546698276579
 30
0.0
  0
VERTEX
  5
13B
330
131
100
AcDbEntity
  8
FORMAT
 62
     7
370
     9
100
AcDbVertex
100
AcDb2dVertex
 10
67.27048473795669
 20
159.5862968893569
 30
0.0
  0
VERTEX
  5
13C
330
131
100
AcDbEntity
  8
FORMAT
 62
     7
370
     9
100
AcDbVertex
100
AcDb2dVertex
 10
67.07807615510548
 20
159.2908799514967
 30
0.0
  0
VERTEX
  5
13D
330
131
100
AcDbEntity
  8
FORMAT
 62
     7
370
     9
100
AcDbVertex
100
AcDb2dVertex
 10
66.91271157181349
 20
158.977376262339
 30
0.0
  0
VERTEX
  5
13E
330
131
100
AcDbEntity
  8
FORMAT
 62
     7
370
     9
100
AcDbVertex
100
AcDb2dVertex
 10
66.78334823634236
 20
158.6542263058226
 30
0.0
  0
VERTEX
  5
13F
330
131
100
AcDbEntity
  8
FORMAT
 62
     7
370
     9
100
AcDbVertex
100
AcDb2dVertex
 10
66.69394800850013
 20
158.3321098779517
 30
0.0
  0
VERTEX
  5
140
330
131
100
AcDbEntity
  8
FORMAT
 62
     7
370
     9
100
AcDbVertex
100
AcDb2dVertex
 10
66.64364961441548
 20
158.0205009913109
 30
0.0
  0
SEQEND
  5
141
330
131
100
AcDbEntity
  8
FORMAT
370
     9
  0
ENDBLK
  5
130
330
12D
100
AcDbEntity
  8
0
100
AcDbBlockEnd
  0
BLOCK
  5
144
330
142
100
AcDbEntity
  8
0
100
AcDbBlockBegin
  2
block 31
 70
     0
 71
     0
 10
0.0
 20
0.0
 30
0.0
  3
block 31
  1

  0
SPLINE
  5
146
330
142
100
AcDbEntity
  8
FORMAT
 62
     7
370
     9
100
AcDbSpline
210
0.0
220
0.0
230
1.0
 70
     8
 71
     3
 72
     8
 73
     4
 74
     0
 42
0.0000000001
 43
0.0000000001
 40
0.0
 40
0.0
 40
0.0
 40
0.0
 40
1.0
 40
1.0
 40
1.0
 40
1.0
 10
66.64364961441548
 20
158.0205009913109
 30
0.0
 10
66.64209932144712
 20
158.0137830551146
 30
0.0
 10
66.64502765260958
 20
158.0074096284669
 30
0.0
 10
66.65105656970877
 20
158.0027587495618
 30
0.0
  0
ENDBLK
  5
145
330
142
100
AcDbEntity
  8
0
100
AcDbBlockEnd
  0
BLOCK
  5
149
330
147
100
AcDbEntity
  8
0
100
AcDbBlockBegin
  2
block 32
 70
     0
 71
     0
 10
0.0
 20
0.0
 30
0.0
  3
block 32
  1

  0
POLYLINE
  5
14B
330
147
100
AcDbEntity
  8
FORMAT
 62
     7
370
     9
100
AcDb2dPolyline
 66
     1
 10
0.0
 20
0.0
 30
0.0
  0
VERTEX
  5
14C
330
14B
100
AcDbEntity
  8
FORMAT
 62
     7
370
     9
100
AcDbVertex
100
AcDb2dVertex
 10
125.4889810884194
 20
123.993809647821
 30
0.0
  0
VERTEX
  5
14D
330
14B
100
AcDbEntity
  8
FORMAT
 62
     7
370
     9
100
AcDbVertex
100
AcDb2dVertex
 10
125.4889810884194
 20
123.7147569135158
 30
0.0
  0
VERTEX
  5
14E
330
14B
100
AcDbEntity
  8
FORMAT
 62
     7
370
     9
100
AcDbVertex
100
AcDb2dVertex
 10
125.5303222342424
 20
123.4632649430925
 30
0.0
  0
VERTEX
  5
14F
330
14B
100
AcDbEntity
  8
FORMAT
 62
     7
370
     9
100
AcDbVertex
100
AcDb2dVertex
 10
125.6085259017576
 20
123.2455349084247
 30
0.0
  0
VERTEX
  5
150
330
14B
100
AcDbEntity
  8
FORMAT
 62
     7
370
     9
100
AcDbVertex
100
AcDb2dVertex
 10
125.724281110062
 20
123.0677679813858
 30
0.0
  0
VERTEX
  5
151
330
14B
100
AcDbEntity
  8
FORMAT
 62
     7
370
     9
100
AcDbVertex
100
AcDb2dVertex
 10
125.8717311968307
 20
122.9334092574611
 30
0.0
  0
VERTEX
  5
152
330
14B
100
AcDbEntity
  8
FORMAT
 62
     7
370
     9
100
AcDbVertex
100
AcDb2dVertex
 10
125.9130723426537
 20
122.9086045699673
 30
0.0
  0
SEQEND
  5
153
330
14B
100
AcDbEntity
  8
FORMAT
370
     9
  0
ENDBLK
  5
14A
330
147
100
AcDbEntity
  8
0
100
AcDbBlockEnd
  0
BLOCK
  5
156
330
154
100
AcDbEntity
  8
0
100
AcDbBlockBegin
  2
block 33
 70
     0
 71
     0
 10
0.0
 20
0.0
 30
0.0
  3
block 33
  1

  0
SPLINE
  5
158
330
154
100
AcDbEntity
  8
FORMAT
 62
     7
370
     9
100
AcDbSpline
210
0.0
220
0.0
230
1.0
 70
     8
 71
     3
 72
     8
 73
     4
 74
     0
 42
0.0000000001
 43
0.0000000001
 40
0.0
 40
0.0
 40
0.0
 40
0.0
 40
1.0
 40
1.0
 40
1.0
 40
1.0
 10
125.5113742090736
 20
124.0289496217706
 30
0.0
 10
125.4996608844237
 20
124.0220594308
 30
0.0
 10
125.4903591266135
 20
124.0069010106649
 30
0.0
 10
125.4889810884194
 20
123.993809647821
 30
0.0
  0
ENDBLK
  5
157
330
154
100
AcDbEntity
  8
0
100
AcDbBlockEnd
  0
BLOCK
  5
15B
330
159
100
AcDbEntity
  8
0
100
AcDbBlockBegin
  2
block 34
 70
     0
 71
     0
 10
0.0
 20
0.0
 30
0.0
  3
block 34
  1

  0
POLYLINE
  5
15D
330
159
100
AcDbEntity
  8
FORMAT
 62
     7
370
     9
100
AcDb2dPolyline
 66
     1
 10
0.0
 20
0.0
 30
0.0
  0
VERTEX
  5
15E
330
15D
100
AcDbEntity
  8
FORMAT
 62
     7
370
     9
100
AcDbVertex
100
AcDb2dVertex
 10
125.5130967568162
 20
124.0303276599646
 30
0.0
  0
VERTEX
  5
15F
330
15D
100
AcDbEntity
  8
FORMAT
 62
     7
370
     9
100
AcDbVertex
100
AcDb2dVertex
 10
125.5113742090736
 20
124.0289496217706
 30
0.0
  0
SEQEND
  5
160
330
15D
100
AcDbEntity
  8
FORMAT
370
     9
  0
ENDBLK
  5
15C
330
159
100
AcDbEntity
  8
0
100
AcDbBlockEnd
  0
BLOCK
  5
163
330
161
100
AcDbEntity
  8
0
100
AcDbBlockBegin
  2
block 35
 70
     0
 71
     0
 10
0.0
 20
0.0
 30
0.0
  3
block 35
  1

  0
POLYLINE
  5
165
330
161
100
AcDbEntity
  8
FORMAT
 62
     7
370
     9
100
AcDb2dPolyline
 66
     1
 10
0.0
 20
0.0
 30
0.0
  0
VERTEX
  5
166
330
165
100
AcDbEntity
  8
FORMAT
 62
     7
370
     9
100
AcDbVertex
100
AcDb2dVertex
 10
125.4889810884194
 20
123.993809647821
 30
0.0
  0
VERTEX
  5
167
330
165
100
AcDbEntity
  8
FORMAT
 62
     7
370
     9
100
AcDbVertex
100
AcDb2dVertex
 10
66.58491073639198
 20
157.9975911063339
 30
0.0
  0
SEQEND
  5
168
330
165
100
AcDbEntity
  8
FORMAT
370
     9
  0
ENDBLK
  5
164
330
161
100
AcDbEntity
  8
0
100
AcDbBlockEnd
  0
BLOCK
  5
16B
330
169
100
AcDbEntity
  8
0
100
AcDbBlockBegin
  2
block 36
 70
     0
 71
     0
 10
0.0
 20
0.0
 30
0.0
  3
block 36
  1

  0
SPLINE
  5
16D
330
169
100
AcDbEntity
  8
FORMAT
 62
     7
370
     9
100
AcDbSpline
210
0.0
220
0.0
230
1.0
 70
     8
 71
     3
 72
     8
 73
     4
 74
     0
 42
0.0000000001
 43
0.0000000001
 40
0.0
 40
0.0
 40
0.0
 40
0.0
 40
1.0
 40
1.0
 40
1.0
 40
1.0
 10
66.60747611182036
 20
158.0344536280261
 30
0.0
 10
66.59541827762199
 20
158.0261853988615
 30
0.0
 10
66.58646102936034
 20
158.0122327621463
 30
0.0
 10
66.58491073639198
 20
157.9975911063339
 30
0.0
  0
ENDBLK
  5
16C
330
169
100
AcDbEntity
  8
0
100
AcDbBlockEnd
  0
BLOCK
  5
170
330
16E
100
AcDbEntity
  8
0
100
AcDbBlockBegin
  2
block 37
 70
     0
 71
     0
 10
0.0
 20
0.0
 30
0.0
  3
block 37
  1

  0
POLYLINE
  5
172
330
16E
100
AcDbEntity
  8
FORMAT
 62
     7
370
     9
100
AcDb2dPolyline
 66
     1
 10
0.0
 20
0.0
 30
0.0
  0
VERTEX
  5
173
330
172
100
AcDbEntity
  8
FORMAT
 62
     7
370
     9
100
AcDbVertex
100
AcDb2dVertex
 10
66.58491073639198
 20
157.9975911063339
 30
0.0
  0
VERTEX
  5
174
330
172
100
AcDbEntity
  8
FORMAT
 62
     7
370
     9
100
AcDbVertex
100
AcDb2dVertex
 10
66.58491073639198
 20
157.7197441554486
 30
0.0
  0
VERTEX
  5
175
330
172
100
AcDbEntity
  8
FORMAT
 62
     7
370
     9
100
AcDbVertex
100
AcDb2dVertex
 10
66.62625188221497
 20
157.4684244397996
 30
0.0
  0
VERTEX
  5
176
330
172
100
AcDbEntity
  8
FORMAT
 62
     7
370
     9
100
AcDbVertex
100
AcDb2dVertex
 10
66.70445554973014
 20
157.2506944051318
 30
0.0
  0
VERTEX
  5
177
330
172
100
AcDbEntity
  8
FORMAT
 62
     7
370
     9
100
AcDbVertex
100
AcDb2dVertex
 10
66.81866046506617
 20
157.0722384589958
 30
0.0
  0
VERTEX
  5
178
330
172
100
AcDbEntity
  8
FORMAT
 62
     7
370
     9
100
AcDbVertex
100
AcDb2dVertex
 10
66.96748859002896
 20
156.9383964993939
 30
0.0
  0
VERTEX
  5
179
330
172
100
AcDbEntity
  8
FORMAT
 62
     7
370
     9
100
AcDbVertex
100
AcDb2dVertex
 10
67.00882973585196
 20
156.9132473023516
 30
0.0
  0
SEQEND
  5
17A
330
172
100
AcDbEntity
  8
FORMAT
370
     9
  0
ENDBLK
  5
171
330
16E
100
AcDbEntity
  8
0
100
AcDbBlockEnd
  0
BLOCK
  5
17D
330
17B
100
AcDbEntity
  8
0
100
AcDbBlockBegin
  2
block 38
 70
     0
 71
     0
 10
0.0
 20
0.0
 30
0.0
  3
block 38
  1

  0
POLYLINE
  5
17F
330
17B
100
AcDbEntity
  8
FORMAT
 62
     7
370
     9
100
AcDb2dPolyline
 66
     1
 10
0.0
 20
0.0
 30
0.0
  0
VERTEX
  5
180
330
17F
100
AcDbEntity
  8
FORMAT
 62
     7
370
     9
100
AcDbVertex
100
AcDb2dVertex
 10
66.64657794557795
 20
158.0565022391317
 30
0.0
  0
VERTEX
  5
181
330
17F
100
AcDbEntity
  8
FORMAT
 62
     7
370
     9
100
AcDbVertex
100
AcDb2dVertex
 10
66.60747611182036
 20
158.0344536280261
 30
0.0
  0
SEQEND
  5
182
330
17F
100
AcDbEntity
  8
FORMAT
370
     9
  0
ENDBLK
  5
17E
330
17B
100
AcDbEntity
  8
0
100
AcDbBlockEnd
  0
BLOCK
  5
185
330
183
100
AcDbEntity
  8
0
100
AcDbBlockBegin
  2
block 39
 70
     0
 71
     0
 10
0.0
 20
0.0
 30
0.0
  3
block 39
  1

  0
POLYLINE
  5
187
330
183
100
AcDbEntity
  8
FORMAT
 62
     7
370
     9
100
AcDb2dPolyline
 66
     1
 10
0.0
 20
0.0
 30
0.0
  0
VERTEX
  5
188
330
187
100
AcDbEntity
  8
FORMAT
 62
     7
370
     9
100
AcDbVertex
100
AcDb2dVertex
 10
66.64657794557795
 20
158.0565022391317
 30
0.0
  0
VERTEX
  5
189
330
187
100
AcDbEntity
  8
FORMAT
 62
     7
370
     9
100
AcDbVertex
100
AcDb2dVertex
 10
66.6481282385463
 20
158.0580525321001
 30
0.0
  0
SEQEND
  5
18A
330
187
100
AcDbEntity
  8
FORMAT
370
     9
  0
ENDBLK
  5
186
330
183
100
AcDbEntity
  8
0
100
AcDbBlockEnd
  0
BLOCK
  5
18D
330
18B
100
AcDbEntity
  8
0
100
AcDbBlockBegin
  2
block 40
 70
     0
 71
     0
 10
0.0
 20
0.0
 30
0.0
  3
block 40
  1

  0
POLYLINE
  5
18F
330
18B
100
AcDbEntity
  8
FORMAT
 62
     7
370
     9
100
AcDb2dPolyline
 66
     1
 10
0.0
 20
0.0
 30
0.0
  0
VERTEX
  5
190
330
18F
100
AcDbEntity
  8
FORMAT
 62
     7
370
     9
100
AcDbVertex
100
AcDb2dVertex
 10
63.95475258817798
 20
160.1068508171782
 30
0.0
  0
VERTEX
  5
191
330
18F
100
AcDbEntity
  8
FORMAT
 62
     7
370
     9
100
AcDbVertex
100
AcDb2dVertex
 10
63.96526012940799
 20
160.0560356587707
 30
0.0
  0
VERTEX
  5
192
330
18F
100
AcDbEntity
  8
FORMAT
 62
     7
370
     9
100
AcDbVertex
100
AcDb2dVertex
 10
63.99316540283851
 20
160.0245130350807
 30
0.0
  0
SEQEND
  5
193
330
18F
100
AcDbEntity
  8
FORMAT
370
     9
  0
ENDBLK
  5
18E
330
18B
100
AcDbEntity
  8
0
100
AcDbBlockEnd
  0
BLOCK
  5
196
330
194
100
AcDbEntity
  8
0
100
AcDbBlockBegin
  2
block 41
 70
     0
 71
     0
 10
0.0
 20
0.0
 30
0.0
  3
block 41
  1

  0
POLYLINE
  5
198
330
194
100
AcDbEntity
  8
FORMAT
 62
     7
370
     9
100
AcDb2dPolyline
 66
     1
 10
0.0
 20
0.0
 30
0.0
  0
VERTEX
  5
199
330
198
100
AcDbEntity
  8
FORMAT
 62
     7
370
     9
100
AcDbVertex
100
AcDb2dVertex
 10
64.17282713239429
 20
160.3361219217215
 30
0.0
  0
VERTEX
  5
19A
330
198
100
AcDbEntity
  8
FORMAT
 62
     7
370
     9
100
AcDbVertex
100
AcDb2dVertex
 10
64.12993569360293
 20
160.3443901508861
 30
0.0
  0
VERTEX
  5
19B
330
198
100
AcDbEntity
  8
FORMAT
 62
     7
370
     9
100
AcDbVertex
100
AcDb2dVertex
 10
64.08101533771239
 20
160.3266479091371
 30
0.0
  0
VERTEX
  5
19C
330
198
100
AcDbEntity
  8
FORMAT
 62
     7
370
     9
100
AcDbVertex
100
AcDb2dVertex
 10
64.03295625569315
 20
160.2875460753795
 30
0.0
  0
VERTEX
  5
19D
330
198
100
AcDbEntity
  8
FORMAT
 62
     7
370
     9
100
AcDbVertex
100
AcDb2dVertex
 10
63.99316540283851
 20
160.2324245476155
 30
0.0
  0
VERTEX
  5
19E
330
198
100
AcDbEntity
  8
FORMAT
 62
     7
370
     9
100
AcDbVertex
100
AcDb2dVertex
 10
63.96526012940799
 20
160.1685180263641
 30
0.0
  0
VERTEX
  5
19F
330
198
100
AcDbEntity
  8
FORMAT
 62
     7
370
     9
100
AcDbVertex
100
AcDb2dVertex
 10
63.95475258817798
 20
160.1068508171782
 30
0.0
  0
SEQEND
  5
1A0
330
198
100
AcDbEntity
  8
FORMAT
370
     9
  0
ENDBLK
  5
197
330
194
100
AcDbEntity
  8
0
100
AcDbBlockEnd
  0
BLOCK
  5
1A3
330
1A1
100
AcDbEntity
  8
0
100
AcDbBlockBegin
  2
block 42
 70
     0
 71
     0
 10
0.0
 20
0.0
 30
0.0
  3
block 42
  1

  0
SPLINE
  5
1A5
330
1A1
100
AcDbEntity
  8
FORMAT
 62
     7
370
     9
100
AcDbSpline
210
0.0
220
0.0
230
1.0
 70
     8
 71
     3
 72
     8
 73
     4
 74
     0
 42
0.0000000001
 43
0.0000000001
 40
0.0
 40
0.0
 40
0.0
 40
0.0
 40
1.0
 40
1.0
 40
1.0
 40
1.0
 10
64.02692733859396
 20
160.2947807758985
 30
0.0
 10
63.98403589980261
 20
160.2677367763393
 30
0.0
 10
63.95768091934045
 20
160.2214002420627
 30
0.0
 10
63.95475258817798
 20
160.1707573384296
 30
0.0
  0
ENDBLK
  5
1A4
330
1A1
100
AcDbEntity
  8
0
100
AcDbBlockEnd
  0
BLOCK
  5
1A8
330
1A6
100
AcDbEntity
  8
0
100
AcDbBlockBegin
  2
block 43
 70
     0
 71
     0
 10
0.0
 20
0.0
 30
0.0
  3
block 43
  1

  0
POLYLINE
  5
1AA
330
1A6
100
AcDbEntity
  8
FORMAT
 62
     7
370
     9
100
AcDb2dPolyline
 66
     1
 10
0.0
 20
0.0
 30
0.0
  0
VERTEX
  5
1AB
330
1AA
100
AcDbEntity
  8
FORMAT
 62
     7
370
     9
100
AcDbVertex
100
AcDb2dVertex
 10
130.8898572806456
 20
123.1483832157407
 30
0.0
  0
VERTEX
  5
1AC
330
1AA
100
AcDbEntity
  8
FORMAT
 62
     7
370
     9
100
AcDbVertex
100
AcDb2dVertex
 10
130.895369433422
 20
123.1194444136646
 30
0.0
  0
VERTEX
  5
1AD
330
1AA
100
AcDbEntity
  8
FORMAT
 62
     7
370
     9
100
AcDbVertex
100
AcDb2dVertex
 10
130.9119058917512
 20
123.1015299171413
 30
0.0
  0
VERTEX
  5
1AE
330
1AA
100
AcDbEntity
  8
FORMAT
 62
     7
370
     9
100
AcDbVertex
100
AcDb2dVertex
 10
130.9336099933083
 20
123.0967067834619
 30
0.0
  0
VERTEX
  5
1AF
330
1AA
100
AcDbEntity
  8
FORMAT
 62
     7
370
     9
100
AcDbVertex
100
AcDb2dVertex
 10
130.9615152667388
 20
123.1056640317236
 30
0.0
  0
VERTEX
  5
1B0
330
1AA
100
AcDbEntity
  8
FORMAT
 62
     7
370
     9
100
AcDbVertex
100
AcDb2dVertex
 10
130.9883870115237
 20
123.1277126428292
 30
0.0
  0
VERTEX
  5
1B1
330
1AA
100
AcDbEntity
  8
FORMAT
 62
     7
370
     9
100
AcDbVertex
100
AcDb2dVertex
 10
131.0118136608234
 20
123.1600965403905
 30
0.0
  0
VERTEX
  5
1B2
330
1AA
100
AcDbEntity
  8
FORMAT
 62
     7
370
     9
100
AcDbVertex
100
AcDb2dVertex
 10
131.0276611000556
 20
123.1952365143401
 30
0.0
  0
VERTEX
  5
1B3
330
1AA
100
AcDbEntity
  8
FORMAT
 62
     7
370
     9
100
AcDbVertex
100
AcDb2dVertex
 10
131.0335177623805
 20
123.2303764882896
 30
0.0
  0
VERTEX
  5
1B4
330
1AA
100
AcDbEntity
  8
FORMAT
 62
     7
370
     9
100
AcDbVertex
100
AcDb2dVertex
 10
131.0276611000556
 20
123.2586262712687
 30
0.0
  0
VERTEX
  5
1B5
330
1AA
100
AcDbEntity
  8
FORMAT
 62
     7
370
     9
100
AcDbVertex
100
AcDb2dVertex
 10
131.0118136608234
 20
123.276540767792
 30
0.0
  0
VERTEX
  5
1B6
330
1AA
100
AcDbEntity
  8
FORMAT
 62
     7
370
     9
100
AcDbVertex
100
AcDb2dVertex
 10
130.9883870115237
 20
123.2813639014713
 30
0.0
  0
VERTEX
  5
1B7
330
1AA
100
AcDbEntity
  8
FORMAT
 62
     7
370
     9
100
AcDbVertex
100
AcDb2dVertex
 10
130.9615152667388
 20
123.2717176341126
 30
0.0
  0
VERTEX
  5
1B8
330
1AA
100
AcDbEntity
  8
FORMAT
 62
     7
370
     9
100
AcDbVertex
100
AcDb2dVertex
 10
130.9336099933083
 20
123.2503580421041
 30
0.0
  0
VERTEX
  5
1B9
330
1AA
100
AcDbEntity
  8
FORMAT
 62
     7
370
     9
100
AcDbVertex
100
AcDb2dVertex
 10
130.9119058917512
 20
123.2179741445427
 30
0.0
  0
VERTEX
  5
1BA
330
1AA
100
AcDbEntity
  8
FORMAT
 62
     7
370
     9
100
AcDbVertex
100
AcDb2dVertex
 10
130.895369433422
 20
123.1828341705932
 30
0.0
  0
VERTEX
  5
1BB
330
1AA
100
AcDbEntity
  8
FORMAT
 62
     7
370
     9
100
AcDbVertex
100
AcDb2dVertex
 10
130.8898572806456
 20
123.1483832157407
 30
0.0
  0
SEQEND
  5
1BC
330
1AA
100
AcDbEntity
  8
FORMAT
370
     9
  0
ENDBLK
  5
1A9
330
1A6
100
AcDbEntity
  8
0
100
AcDbBlockEnd
  0
BLOCK
  5
1BF
330
1BD
100
AcDbEntity
  8
0
100
AcDbBlockBegin
  2
block 44
 70
     0
 71
     0
 10
0.0
 20
0.0
 30
0.0
  3
block 44
  1

  0
POLYLINE
  5
1C1
330
1BD
100
AcDbEntity
  8
FORMAT
 62
     7
370
     9
100
AcDb2dPolyline
 66
     1
 10
0.0
 20
0.0
 30
0.0
  0
VERTEX
  5
1C2
330
1C1
100
AcDbEntity
  8
FORMAT
 62
     7
370
     9
100
AcDbVertex
100
AcDb2dVertex
 10
130.7796142251176
 20
123.1483832157407
 30
0.0
  0
VERTEX
  5
1C3
330
1C1
100
AcDbEntity
  8
FORMAT
 62
     7
370
     9
100
AcDbVertex
100
AcDb2dVertex
 10
130.7885714733792
 20
123.2090168962811
 30
0.0
  0
VERTEX
  5
1C4
330
1C1
100
AcDbEntity
  8
FORMAT
 62
     7
370
     9
100
AcDbVertex
100
AcDb2dVertex
 10
130.8161322372613
 20
123.2717176341126
 30
0.0
  0
VERTEX
  5
1C5
330
1C1
100
AcDbEntity
  8
FORMAT
 62
     7
370
     9
100
AcDbVertex
100
AcDb2dVertex
 10
130.8567843639872
 20
123.3275281809737
 30
0.0
  0
VERTEX
  5
1C6
330
1C1
100
AcDbEntity
  8
FORMAT
 62
     7
370
     9
100
AcDbVertex
100
AcDb2dVertex
 10
130.9057047198777
 20
123.3674912886026
 30
0.0
  0
VERTEX
  5
1C7
330
1C1
100
AcDbEntity
  8
FORMAT
 62
     7
370
     9
100
AcDbVertex
100
AcDb2dVertex
 10
130.9560031139624
 20
123.3840277469318
 30
0.0
  0
VERTEX
  5
1C8
330
1C1
100
AcDbEntity
  8
FORMAT
 62
     7
370
     9
100
AcDbVertex
100
AcDb2dVertex
 10
130.9952772024942
 20
123.3764485368642
 30
0.0
  0
VERTEX
  5
1C9
330
1C1
100
AcDbEntity
  8
FORMAT
 62
     7
370
     9
100
AcDbVertex
100
AcDb2dVertex
 10
131.0238714950218
 20
123.3440646393029
 30
0.0
  0
VERTEX
  5
1CA
330
1C1
100
AcDbEntity
  8
FORMAT
 62
     7
370
     9
100
AcDbVertex
100
AcDb2dVertex
 10
131.0335177623805
 20
123.2937662452182
 30
0.0
  0
SEQEND
  5
1CB
330
1C1
100
AcDbEntity
  8
FORMAT
370
     9
  0
ENDBLK
  5
1C0
330
1BD
100
AcDbEntity
  8
0
100
AcDbBlockEnd
  0
BLOCK
  5
1CE
330
1CC
100
AcDbEntity
  8
0
100
AcDbBlockBegin
  2
block 45
 70
     0
 71
     0
 10
0.0
 20
0.0
 30
0.0
  3
block 45
  1

  0
SPLINE
  5
1D0
330
1CC
100
AcDbEntity
  8
FORMAT
 62
     7
370
     9
100
AcDbSpline
210
0.0
220
0.0
230
1.0
 70
     8
 71
     3
 72
    17
 73
    13
 74
     0
 42
0.0000000001
 43
0.0000000001
 40
0.0
 40
0.0
 40
0.0
 40
0.0
 40
1.0
 40
1.0
 40
1.0
 40
2.0
 40
2.0
 40
2.0
 40
3.0
 40
3.0
 40
3.0
 40
4.0
 40
4.0
 40
4.0
 40
4.0
 10
130.9070827580719
 20
123.0732801341622
 30
0.0
 10
130.9057047198777
 20
123.0732801341622
 30
0.0
 10
130.8567843639872
 20
123.056743675833
 30
0.0
 10
130.8567843639872
 20
123.056743675833
 30
0.0
 10
130.8567843639872
 20
123.056743675833
 30
0.0
 10
130.8161322372613
 20
123.0657009240947
 30
0.0
 10
130.8161322372613
 20
123.0657009240947
 30
0.0
 10
130.8161322372613
 20
123.0657009240947
 30
0.0
 10
130.7885714733792
 20
123.0967067834619
 30
0.0
 10
130.7885714733792
 20
123.0967067834619
 30
0.0
 10
130.7885714733792
 20
123.0967067834619
 30
0.0
 10
130.7796142251176
 20
123.1483832157407
 30
0.0
 10
130.7796142251176
 20
123.1483832157407
 30
0.0
  0
ENDBLK
  5
1CF
330
1CC
100
AcDbEntity
  8
0
100
AcDbBlockEnd
  0
BLOCK
  5
1D3
330
1D1
100
AcDbEntity
  8
0
100
AcDbBlockBegin
  2
block 46
 70
     0
 71
     0
 10
0.0
 20
0.0
 30
0.0
  3
block 46
  1

  0
POLYLINE
  5
1D5
330
1D1
100
AcDbEntity
  8
FORMAT
 62
     7
370
     9
100
AcDb2dPolyline
 66
     1
 10
0.0
 20
0.0
 30
0.0
  0
VERTEX
  5
1D6
330
1D5
100
AcDbEntity
  8
FORMAT
 62
     7
370
     9
100
AcDbVertex
100
AcDb2dVertex
 10
129.4887369467945
 20
122.3380967576099
 30
0.0
  0
VERTEX
  5
1D7
330
1D5
100
AcDbEntity
  8
FORMAT
 62
     7
370
     9
100
AcDbVertex
100
AcDb2dVertex
 10
129.4939045900224
 20
122.3105359937279
 30
0.0
  0
VERTEX
  5
1D8
330
1D5
100
AcDbEntity
  8
FORMAT
 62
     7
370
     9
100
AcDbVertex
100
AcDb2dVertex
 10
129.5090630101575
 20
122.2926214972046
 30
0.0
  0
VERTEX
  5
1D9
330
1D5
100
AcDbEntity
  8
FORMAT
 62
     7
370
     9
100
AcDbVertex
100
AcDb2dVertex
 10
129.5324896594572
 20
122.2884873826223
 30
0.0
  0
VERTEX
  5
1DA
330
1D5
100
AcDbEntity
  8
FORMAT
 62
     7
370
     9
100
AcDbVertex
100
AcDb2dVertex
 10
129.5600504233392
 20
122.2967556117869
 30
0.0
  0
VERTEX
  5
1DB
330
1D5
100
AcDbEntity
  8
FORMAT
 62
     7
370
     9
100
AcDbVertex
100
AcDb2dVertex
 10
129.5879556967697
 20
122.3194932419896
 30
0.0
  0
VERTEX
  5
1DC
330
1D5
100
AcDbEntity
  8
FORMAT
 62
     7
370
     9
100
AcDbVertex
100
AcDb2dVertex
 10
129.6120713651664
 20
122.3504991013568
 30
0.0
  0
VERTEX
  5
1DD
330
1D5
100
AcDbEntity
  8
FORMAT
 62
     7
370
     9
100
AcDbVertex
100
AcDb2dVertex
 10
129.626196256656
 20
122.3870171135005
 30
0.0
  0
VERTEX
  5
1DE
330
1D5
100
AcDbEntity
  8
FORMAT
 62
     7
370
     9
100
AcDbVertex
100
AcDb2dVertex
 10
129.6323974285294
 20
122.4228461065471
 30
0.0
  0
VERTEX
  5
1DF
330
1D5
100
AcDbEntity
  8
FORMAT
 62
     7
370
     9
100
AcDbVertex
100
AcDb2dVertex
 10
129.626196256656
 20
122.4504068704291
 30
0.0
  0
VERTEX
  5
1E0
330
1D5
100
AcDbEntity
  8
FORMAT
 62
     7
370
     9
100
AcDbVertex
100
AcDb2dVertex
 10
129.6120713651664
 20
122.4676323478553
 30
0.0
  0
VERTEX
  5
1E1
330
1D5
100
AcDbEntity
  8
FORMAT
 62
     7
370
     9
100
AcDbVertex
100
AcDb2dVertex
 10
129.5879556967697
 20
122.4724554815347
 30
0.0
  0
VERTEX
  5
1E2
330
1D5
100
AcDbEntity
  8
FORMAT
 62
     7
370
     9
100
AcDbVertex
100
AcDb2dVertex
 10
129.5600504233392
 20
122.463498233273
 30
0.0
  0
VERTEX
  5
1E3
330
1D5
100
AcDbEntity
  8
FORMAT
 62
     7
370
     9
100
AcDbVertex
100
AcDb2dVertex
 10
129.5324896594572
 20
122.4414496221674
 30
0.0
  0
VERTEX
  5
1E4
330
1D5
100
AcDbEntity
  8
FORMAT
 62
     7
370
     9
100
AcDbVertex
100
AcDb2dVertex
 10
129.5090630101575
 20
122.4090657246061
 30
0.0
  0
VERTEX
  5
1E5
330
1D5
100
AcDbEntity
  8
FORMAT
 62
     7
370
     9
100
AcDbVertex
100
AcDb2dVertex
 10
129.4939045900224
 20
122.3739257506565
 30
0.0
  0
VERTEX
  5
1E6
330
1D5
100
AcDbEntity
  8
FORMAT
 62
     7
370
     9
100
AcDbVertex
100
AcDb2dVertex
 10
129.4887369467945
 20
122.3380967576099
 30
0.0
  0
SEQEND
  5
1E7
330
1D5
100
AcDbEntity
  8
FORMAT
370
     9
  0
ENDBLK
  5
1D4
330
1D1
100
AcDbEntity
  8
0
100
AcDbBlockEnd
  0
BLOCK
  5
1EA
330
1E8
100
AcDbEntity
  8
0
100
AcDbBlockBegin
  2
block 47
 70
     0
 71
     0
 10
0.0
 20
0.0
 30
0.0
  3
block 47
  1

  0
POLYLINE
  5
1EC
330
1E8
100
AcDbEntity
  8
FORMAT
 62
     7
370
     9
100
AcDb2dPolyline
 66
     1
 10
0.0
 20
0.0
 30
0.0
  0
VERTEX
  5
1ED
330
1EC
100
AcDbEntity
  8
FORMAT
 62
     7
370
     9
100
AcDbVertex
100
AcDb2dVertex
 10
129.378149381718
 20
122.3380967576099
 30
0.0
  0
VERTEX
  5
1EE
330
1EC
100
AcDbEntity
  8
FORMAT
 62
     7
370
     9
100
AcDbVertex
100
AcDb2dVertex
 10
129.3881401586252
 20
122.4001084763444
 30
0.0
  0
VERTEX
  5
1EF
330
1EC
100
AcDbEntity
  8
FORMAT
 62
     7
370
     9
100
AcDbVertex
100
AcDb2dVertex
 10
129.4167344511528
 20
122.463498233273
 30
0.0
  0
VERTEX
  5
1F0
330
1EC
100
AcDbEntity
  8
FORMAT
 62
     7
370
     9
100
AcDbVertex
100
AcDb2dVertex
 10
129.4570420683302
 20
122.5193087801341
 30
0.0
  0
VERTEX
  5
1F1
330
1EC
100
AcDbEntity
  8
FORMAT
 62
     7
370
     9
100
AcDbVertex
100
AcDb2dVertex
 10
129.5045843860266
 20
122.5585828686659
 30
0.0
  0
VERTEX
  5
1F2
330
1EC
100
AcDbEntity
  8
FORMAT
 62
     7
370
     9
100
AcDbVertex
100
AcDb2dVertex
 10
129.5535047419172
 20
122.5751193269951
 30
0.0
  0
VERTEX
  5
1F3
330
1EC
100
AcDbEntity
  8
FORMAT
 62
     7
370
     9
100
AcDbVertex
100
AcDb2dVertex
 10
129.5955349068372
 20
122.5675401169276
 30
0.0
  0
VERTEX
  5
1F4
330
1EC
100
AcDbEntity
  8
FORMAT
 62
     7
370
     9
100
AcDbVertex
100
AcDb2dVertex
 10
129.6224066516222
 20
122.5351562193662
 30
0.0
  0
VERTEX
  5
1F5
330
1EC
100
AcDbEntity
  8
FORMAT
 62
     7
370
     9
100
AcDbVertex
100
AcDb2dVertex
 10
129.6323974285294
 20
122.4855468443786
 30
0.0
  0
SEQEND
  5
1F6
330
1EC
100
AcDbEntity
  8
FORMAT
370
     9
  0
ENDBLK
  5
1EB
330
1E8
100
AcDbEntity
  8
0
100
AcDbBlockEnd
  0
BLOCK
  5
1F9
330
1F7
100
AcDbEntity
  8
0
100
AcDbBlockBegin
  2
block 48
 70
     0
 71
     0
 10
0.0
 20
0.0
 30
0.0
  3
block 48
  1

  0
POLYLINE
  5
1FB
330
1F7
100
AcDbEntity
  8
FORMAT
 62
     7
370
     9
100
AcDb2dPolyline
 66
     1
 10
0.0
 20
0.0
 30
0.0
  0
VERTEX
  5
1FC
330
1FB
100
AcDbEntity
  8
FORMAT
 62
     7
370
     9
100
AcDbVertex
100
AcDb2dVertex
 10
129.5045843860266
 20
122.2664387715167
 30
0.0
  0
VERTEX
  5
1FD
330
1FB
100
AcDbEntity
  8
FORMAT
 62
     7
370
     9
100
AcDbVertex
100
AcDb2dVertex
 10
129.4570420683302
 20
122.2492132940905
 30
0.0
  0
VERTEX
  5
1FE
330
1FB
100
AcDbEntity
  8
FORMAT
 62
     7
370
     9
100
AcDbVertex
100
AcDb2dVertex
 10
129.4167344511528
 20
122.2554144659639
 30
0.0
  0
VERTEX
  5
1FF
330
1FB
100
AcDbEntity
  8
FORMAT
 62
     7
370
     9
100
AcDbVertex
100
AcDb2dVertex
 10
129.3881401586252
 20
122.2884873826223
 30
0.0
  0
VERTEX
  5
200
330
1FB
100
AcDbEntity
  8
FORMAT
 62
     7
370
     9
100
AcDbVertex
100
AcDb2dVertex
 10
129.378149381718
 20
122.3380967576099
 30
0.0
  0
SEQEND
  5
201
330
1FB
100
AcDbEntity
  8
FORMAT
370
     9
  0
ENDBLK
  5
1FA
330
1F7
100
AcDbEntity
  8
0
100
AcDbBlockEnd
  0
BLOCK
  5
204
330
202
100
AcDbEntity
  8
0
100
AcDbBlockBegin
  2
block 49
 70
     0
 71
     0
 10
0.0
 20
0.0
 30
0.0
  3
block 49
  1

  0
POLYLINE
  5
206
330
202
100
AcDbEntity
  8
FORMAT
 62
     7
370
     9
100
AcDb2dPolyline
 66
     1
 10
0.0
 20
0.0
 30
0.0
  0
VERTEX
  5
207
330
206
100
AcDbEntity
  8
FORMAT
 62
     7
370
     9
100
AcDbVertex
100
AcDb2dVertex
 10
66.58043211226115
 20
157.8844197196435
 30
0.0
  0
VERTEX
  5
208
330
206
100
AcDbEntity
  8
FORMAT
 62
     7
370
     9
100
AcDbVertex
100
AcDb2dVertex
 10
66.58043211226115
 20
157.8844197196435
 30
0.0
  0
SEQEND
  5
209
330
206
100
AcDbEntity
  8
FORMAT
370
     9
  0
ENDBLK
  5
205
330
202
100
AcDbEntity
  8
0
100
AcDbBlockEnd
  0
BLOCK
  5
20C
330
20A
100
AcDbEntity
  8
0
100
AcDbBlockBegin
  2
block 50
 70
     0
 71
     0
 10
0.0
 20
0.0
 30
0.0
  3
block 50
  1

  0
POLYLINE
  5
20E
330
20A
100
AcDbEntity
  8
FORMAT
 62
     7
370
     9
100
AcDb2dPolyline
 66
     1
 10
0.0
 20
0.0
 30
0.0
  0
VERTEX
  5
20F
330
20E
100
AcDbEntity
  8
FORMAT
 62
     7
370
     9
100
AcDbVertex
100
AcDb2dVertex
 10
66.58043211226115
 20
157.8844197196435
 30
0.0
  0
VERTEX
  5
210
330
20E
100
AcDbEntity
  8
FORMAT
 62
     7
370
     9
100
AcDbVertex
100
AcDb2dVertex
 10
66.5585557559298
 20
157.8720173758966
 30
0.0
  0
SEQEND
  5
211
330
20E
100
AcDbEntity
  8
FORMAT
370
     9
  0
ENDBLK
  5
20D
330
20A
100
AcDbEntity
  8
0
100
AcDbBlockEnd
  0
BLOCK
  5
214
330
212
100
AcDbEntity
  8
0
100
AcDbBlockBegin
  2
block 51
 70
     0
 71
     0
 10
0.0
 20
0.0
 30
0.0
  3
block 51
  1

  0
POLYLINE
  5
216
330
212
100
AcDbEntity
  8
FORMAT
 62
     7
370
     9
100
AcDb2dPolyline
 66
     1
 10
0.0
 20
0.0
 30
0.0
  0
VERTEX
  5
217
330
216
100
AcDbEntity
  8
FORMAT
 62
     7
370
     9
100
AcDbVertex
100
AcDb2dVertex
 10
64.15319008812837
 20
159.2600463469037
 30
0.0
  0
VERTEX
  5
218
330
216
100
AcDbEntity
  8
FORMAT
 62
     7
370
     9
100
AcDbVertex
100
AcDb2dVertex
 10
66.5585557559298
 20
157.8720173758966
 30
0.0
  0
SEQEND
  5
219
330
216
100
AcDbEntity
  8
FORMAT
370
     9
  0
ENDBLK
  5
215
330
212
100
AcDbEntity
  8
0
100
AcDbBlockEnd
  0
BLOCK
  5
21C
330
21A
100
AcDbEntity
  8
0
100
AcDbBlockBegin
  2
block 52
 70
     0
 71
     0
 10
0.0
 20
0.0
 30
0.0
  3
block 52
  1

  0
POLYLINE
  5
21E
330
21A
100
AcDbEntity
  8
FORMAT
 62
     7
370
     9
100
AcDb2dPolyline
 66
     1
 10
0.0
 20
0.0
 30
0.0
  0
VERTEX
  5
21F
330
21E
100
AcDbEntity
  8
FORMAT
 62
     7
370
     9
100
AcDbVertex
100
AcDb2dVertex
 10
64.15319008812837
 20
159.3871703703095
 30
0.0
  0
VERTEX
  5
220
330
21E
100
AcDbEntity
  8
FORMAT
 62
     7
370
     9
100
AcDbVertex
100
AcDb2dVertex
 10
64.15319008812837
 20
159.2600463469037
 30
0.0
  0
SEQEND
  5
221
330
21E
100
AcDbEntity
  8
FORMAT
370
     9
  0
ENDBLK
  5
21D
330
21A
100
AcDbEntity
  8
0
100
AcDbBlockEnd
  0
BLOCK
  5
224
330
222
100
AcDbEntity
  8
0
100
AcDbBlockBegin
  2
block 53
 70
     0
 71
     0
 10
0.0
 20
0.0
 30
0.0
  3
block 53
  1

  0
SPLINE
  5
226
330
222
100
AcDbEntity
  8
FORMAT
 62
     7
370
     9
100
AcDbSpline
210
0.0
220
0.0
230
1.0
 70
     8
 71
     3
 72
     8
 73
     4
 74
     0
 42
0.0000000001
 43
0.0000000001
 40
0.0
 40
0.0
 40
0.0
 40
0.0
 40
1.0
 40
1.0
 40
1.0
 40
1.0
 10
64.15319008812837
 20
159.2600463469037
 30
0.0
 10
64.11339923527373
 20
158.8902153465622
 30
0.0
 10
64.27652450650032
 20
158.5274467919654
 30
0.0
 10
64.58089869262214
 20
158.3136786171056
 30
0.0
  0
ENDBLK
  5
225
330
222
100
AcDbEntity
  8
0
100
AcDbBlockEnd
  0
BLOCK
  5
229
330
227
100
AcDbEntity
  8
0
100
AcDbBlockBegin
  2
block 54
 70
     0
 71
     0
 10
0.0
 20
0.0
 30
0.0
  3
block 54
  1

  0
SPLINE
  5
22B
330
227
100
AcDbEntity
  8
FORMAT
 62
     7
370
     9
100
AcDbSpline
210
0.0
220
0.0
230
1.0
 70
     8
 71
     3
 72
     8
 73
     4
 74
     0
 42
0.0000000001
 43
0.0000000001
 40
0.0
 40
0.0
 40
0.0
 40
0.0
 40
1.0
 40
1.0
 40
1.0
 40
1.0
 10
66.5585557559298
 20
157.8720173758966
 30
0.0
 10
66.51876490307518
 20
157.502186375555
 30
0.0
 10
66.68189017430176
 20
157.139934585281
 30
0.0
 10
66.98643661519783
 20
156.9249606270014
 30
0.0
  0
ENDBLK
  5
22A
330
227
100
AcDbEntity
  8
0
100
AcDbBlockEnd
  0
BLOCK
  5
22E
330
22C
100
AcDbEntity
  8
0
100
AcDbBlockBegin
  2
block 55
 70
     0
 71
     0
 10
0.0
 20
0.0
 30
0.0
  3
block 55
  1

  0
POLYLINE
  5
230
330
22C
100
AcDbEntity
  8
FORMAT
 62
     7
370
     9
100
AcDb2dPolyline
 66
     1
 10
0.0
 20
0.0
 30
0.0
  0
VERTEX
  5
231
330
230
100
AcDbEntity
  8
FORMAT
 62
     7
370
     9
100
AcDbVertex
100
AcDb2dVertex
 10
129.3736707575871
 20
121.6091145529311
 30
0.0
  0
VERTEX
  5
232
330
230
100
AcDbEntity
  8
FORMAT
 62
     7
370
     9
100
AcDbVertex
100
AcDb2dVertex
 10
129.2534369251519
 20
121.5464138150995
 30
0.0
  0
VERTEX
  5
233
330
230
100
AcDbEntity
  8
FORMAT
 62
     7
370
     9
100
AcDbVertex
100
AcDb2dVertex
 10
129.0136582793785
 20
121.4533962369978
 30
0.0
  0
VERTEX
  5
234
330
230
100
AcDbEntity
  8
FORMAT
 62
     7
370
     9
100
AcDbVertex
100
AcDb2dVertex
 10
128.7859374678035
 20
121.4120550911748
 30
0.0
  0
VERTEX
  5
235
330
230
100
AcDbEntity
  8
FORMAT
 62
     7
370
     9
100
AcDbVertex
100
AcDb2dVertex
 10
128.5740640954607
 20
121.4230793967276
 30
0.0
  0
VERTEX
  5
236
330
230
100
AcDbEntity
  8
FORMAT
 62
     7
370
     9
100
AcDbVertex
100
AcDb2dVertex
 10
128.3828612960293
 20
121.484402096365
 30
0.0
  0
VERTEX
  5
237
330
230
100
AcDbEntity
  8
FORMAT
 62
     7
370
     9
100
AcDbVertex
100
AcDb2dVertex
 10
128.219908279577
 20
121.593956132796
 30
0.0
  0
VERTEX
  5
238
330
230
100
AcDbEntity
  8
FORMAT
 62
     7
370
     9
100
AcDbVertex
100
AcDb2dVertex
 10
128.0876166129434
 20
121.7517415060204
 30
0.0
  0
VERTEX
  5
239
330
230
100
AcDbEntity
  8
FORMAT
 62
     7
370
     9
100
AcDbVertex
100
AcDb2dVertex
 10
127.9897759011623
 20
121.9522460632619
 30
0.0
  0
VERTEX
  5
23A
330
230
100
AcDbEntity
  8
FORMAT
 62
     7
370
     9
100
AcDbVertex
100
AcDb2dVertex
 10
127.931209277913
 20
122.187201575356
 30
0.0
  0
VERTEX
  5
23B
330
230
100
AcDbEntity
  8
FORMAT
 62
     7
370
     9
100
AcDbVertex
100
AcDb2dVertex
 10
127.9108832145501
 20
122.4531629468173
 30
0.0
  0
SEQEND
  5
23C
330
230
100
AcDbEntity
  8
FORMAT
370
     9
  0
ENDBLK
  5
22F
330
22C
100
AcDbEntity
  8
0
100
AcDbBlockEnd
  0
BLOCK
  5
23F
330
23D
100
AcDbEntity
  8
0
100
AcDbBlockBegin
  2
block 56
 70
     0
 71
     0
 10
0.0
 20
0.0
 30
0.0
  3
block 56
  1

  0
POLYLINE
  5
241
330
23D
100
AcDbEntity
  8
FORMAT
 62
     7
370
     9
100
AcDb2dPolyline
 66
     1
 10
0.0
 20
0.0
 30
0.0
  0
VERTEX
  5
242
330
241
100
AcDbEntity
  8
FORMAT
 62
     7
370
     9
100
AcDbVertex
100
AcDb2dVertex
 10
127.9108832145501
 20
122.4531629468173
 30
0.0
  0
VERTEX
  5
243
330
241
100
AcDbEntity
  8
FORMAT
 62
     7
370
     9
100
AcDbVertex
100
AcDb2dVertex
 10
128.1310248160575
 20
122.4531629468173
 30
0.0
  0
SEQEND
  5
244
330
241
100
AcDbEntity
  8
FORMAT
370
     9
  0
ENDBLK
  5
240
330
23D
100
AcDbEntity
  8
0
100
AcDbBlockEnd
  0
BLOCK
  5
247
330
245
100
AcDbEntity
  8
0
100
AcDbBlockBegin
  2
block 57
 70
     0
 71
     0
 10
0.0
 20
0.0
 30
0.0
  3
block 57
  1

  0
POLYLINE
  5
249
330
245
100
AcDbEntity
  8
FORMAT
 62
     7
370
     9
100
AcDb2dPolyline
 66
     1
 10
0.0
 20
0.0
 30
0.0
  0
VERTEX
  5
24A
330
249
100
AcDbEntity
  8
FORMAT
 62
     7
370
     9
100
AcDbVertex
100
AcDb2dVertex
 10
128.1310248160575
 20
122.4531629468173
 30
0.0
  0
VERTEX
  5
24B
330
249
100
AcDbEntity
  8
FORMAT
 62
     7
370
     9
100
AcDbVertex
100
AcDb2dVertex
 10
128.1537624462602
 20
122.1940917663265
 30
0.0
  0
VERTEX
  5
24C
330
249
100
AcDbEntity
  8
FORMAT
 62
     7
370
     9
100
AcDbVertex
100
AcDb2dVertex
 10
128.214051617252
 20
121.9660264452029
 30
0.0
  0
VERTEX
  5
24D
330
249
100
AcDbEntity
  8
FORMAT
 62
     7
370
     9
100
AcDbVertex
100
AcDb2dVertex
 10
128.3139593863243
 20
121.7786132508053
 30
0.0
  0
VERTEX
  5
24E
330
249
100
AcDbEntity
  8
FORMAT
 62
     7
370
     9
100
AcDbVertex
100
AcDb2dVertex
 10
128.4490071293461
 20
121.6325412022308
 30
0.0
  0
VERTEX
  5
24F
330
249
100
AcDbEntity
  8
FORMAT
 62
     7
370
     9
100
AcDbVertex
100
AcDb2dVertex
 10
128.6154052412837
 20
121.5367675477408
 30
0.0
  0
VERTEX
  5
250
330
249
100
AcDbEntity
  8
FORMAT
 62
     7
370
     9
100
AcDbVertex
100
AcDb2dVertex
 10
128.8076415693606
 20
121.4912922873355
 30
0.0
  0
VERTEX
  5
251
330
249
100
AcDbEntity
  8
FORMAT
 62
     7
370
     9
100
AcDbVertex
100
AcDb2dVertex
 10
129.0212374894461
 20
121.5002495355972
 30
0.0
  0
VERTEX
  5
252
330
249
100
AcDbEntity
  8
FORMAT
 62
     7
370
     9
100
AcDbVertex
100
AcDb2dVertex
 10
129.2489583010211
 20
121.5615722352346
 30
0.0
  0
VERTEX
  5
253
330
249
100
AcDbEntity
  8
FORMAT
 62
     7
370
     9
100
AcDbVertex
100
AcDb2dVertex
 10
129.4842583226637
 20
121.6738823480538
 30
0.0
  0
VERTEX
  5
254
330
249
100
AcDbEntity
  8
FORMAT
 62
     7
370
     9
100
AcDbVertex
100
AcDb2dVertex
 10
129.7181803061121
 20
121.8323567403752
 30
0.0
  0
VERTEX
  5
255
330
249
100
AcDbEntity
  8
FORMAT
 62
     7
370
     9
100
AcDbVertex
100
AcDb2dVertex
 10
129.9459011176871
 20
122.0342393358109
 30
0.0
  0
VERTEX
  5
256
330
249
100
AcDbEntity
  8
FORMAT
 62
     7
370
     9
100
AcDbVertex
100
AcDb2dVertex
 10
130.158463509127
 20
122.2719509242931
 30
0.0
  0
VERTEX
  5
257
330
249
100
AcDbEntity
  8
FORMAT
 62
     7
370
     9
100
AcDbVertex
100
AcDb2dVertex
 10
130.3517333658496
 20
122.5399793530456
 30
0.0
  0
VERTEX
  5
258
330
249
100
AcDbEntity
  8
FORMAT
 62
     7
370
     9
100
AcDbVertex
100
AcDb2dVertex
 10
130.5195095159812
 20
122.8279893356125
 30
0.0
  0
VERTEX
  5
259
330
249
100
AcDbEntity
  8
FORMAT
 62
     7
370
     9
100
AcDbVertex
100
AcDb2dVertex
 10
130.6531792208089
 20
123.1290906810233
 30
0.0
  0
VERTEX
  5
25A
330
249
100
AcDbEntity
  8
FORMAT
 62
     7
370
     9
100
AcDbVertex
100
AcDb2dVertex
 10
130.6628254881676
 20
123.1545843876141
 30
0.0
  0
SEQEND
  5
25B
330
249
100
AcDbEntity
  8
FORMAT
370
     9
  0
ENDBLK
  5
248
330
245
100
AcDbEntity
  8
0
100
AcDbBlockEnd
  0
BLOCK
  5
25E
330
25C
100
AcDbEntity
  8
0
100
AcDbBlockBegin
  2
block 58
 70
     0
 71
     0
 10
0.0
 20
0.0
 30
0.0
  3
block 58
  1

  0
POLYLINE
  5
260
330
25C
100
AcDbEntity
  8
FORMAT
 62
     7
370
     9
100
AcDb2dPolyline
 66
     1
 10
0.0
 20
0.0
 30
0.0
  0
VERTEX
  5
261
330
260
100
AcDbEntity
  8
FORMAT
 62
     7
370
     9
100
AcDbVertex
100
AcDb2dVertex
 10
130.7720350150501
 20
123.5059841271096
 30
0.0
  0
VERTEX
  5
262
330
260
100
AcDbEntity
  8
FORMAT
 62
     7
370
     9
100
AcDbVertex
100
AcDb2dVertex
 10
130.8147541990672
 20
123.7306043527479
 30
0.0
  0
VERTEX
  5
263
330
260
100
AcDbEntity
  8
FORMAT
 62
     7
370
     9
100
AcDbVertex
100
AcDb2dVertex
 10
130.8350802624301
 20
124.0131021825384
 30
0.0
  0
SEQEND
  5
264
330
260
100
AcDbEntity
  8
FORMAT
370
     9
  0
ENDBLK
  5
25F
330
25C
100
AcDbEntity
  8
0
100
AcDbBlockEnd
  0
BLOCK
  5
267
330
265
100
AcDbEntity
  8
0
100
AcDbBlockBegin
  2
block 59
 70
     0
 71
     0
 10
0.0
 20
0.0
 30
0.0
  3
block 59
  1

  0
POLYLINE
  5
269
330
265
100
AcDbEntity
  8
FORMAT
 62
     7
370
     9
100
AcDb2dPolyline
 66
     1
 10
0.0
 20
0.0
 30
0.0
  0
VERTEX
  5
26A
330
269
100
AcDbEntity
  8
FORMAT
 62
     7
370
     9
100
AcDbVertex
100
AcDb2dVertex
 10
130.8350802624301
 20
124.0131021825384
 30
0.0
  0
VERTEX
  5
26B
330
269
100
AcDbEntity
  8
FORMAT
 62
     7
370
     9
100
AcDbVertex
100
AcDb2dVertex
 10
130.8350802624301
 20
124.1412597345897
 30
0.0
  0
SEQEND
  5
26C
330
269
100
AcDbEntity
  8
FORMAT
370
     9
  0
ENDBLK
  5
268
330
265
100
AcDbEntity
  8
0
100
AcDbBlockEnd
  0
BLOCK
  5
26F
330
26D
100
AcDbEntity
  8
0
100
AcDbBlockBegin
  2
block 60
 70
     0
 71
     0
 10
0.0
 20
0.0
 30
0.0
  3
block 60
  1

  0
POLYLINE
  5
271
330
26D
100
AcDbEntity
  8
FORMAT
 62
     7
370
     9
100
AcDb2dPolyline
 66
     1
 10
0.0
 20
0.0
 30
0.0
  0
VERTEX
  5
272
330
271
100
AcDbEntity
  8
FORMAT
 62
     7
370
     9
100
AcDbVertex
100
AcDb2dVertex
 10
128.1310248160575
 20
122.4531629468173
 30
0.0
  0
VERTEX
  5
273
330
271
100
AcDbEntity
  8
FORMAT
 62
     7
370
     9
100
AcDbVertex
100
AcDb2dVertex
 10
128.6460665911024
 20
122.7501301776458
 30
0.0
  0
SEQEND
  5
274
330
271
100
AcDbEntity
  8
FORMAT
370
     9
  0
ENDBLK
  5
270
330
26D
100
AcDbEntity
  8
0
100
AcDbBlockEnd
  0
BLOCK
  5
277
330
275
100
AcDbEntity
  8
0
100
AcDbBlockBegin
  2
block 61
 70
     0
 71
     0
 10
0.0
 20
0.0
 30
0.0
  3
block 61
  1

  0
POLYLINE
  5
279
330
275
100
AcDbEntity
  8
FORMAT
 62
     7
370
     9
100
AcDb2dPolyline
 66
     1
 10
0.0
 20
0.0
 30
0.0
  0
VERTEX
  5
27A
330
279
100
AcDbEntity
  8
FORMAT
 62
     7
370
     9
100
AcDbVertex
100
AcDb2dVertex
 10
127.9108832145501
 20
122.4531629468173
 30
0.0
  0
VERTEX
  5
27B
330
279
100
AcDbEntity
  8
FORMAT
 62
     7
370
     9
100
AcDbVertex
100
AcDb2dVertex
 10
125.5068955849427
 20
123.8408474082759
 30
0.0
  0
SEQEND
  5
27C
330
279
100
AcDbEntity
  8
FORMAT
370
     9
  0
ENDBLK
  5
278
330
275
100
AcDbEntity
  8
0
100
AcDbBlockEnd
  0
BLOCK
  5
27F
330
27D
100
AcDbEntity
  8
0
100
AcDbBlockBegin
  2
block 62
 70
     0
 71
     0
 10
0.0
 20
0.0
 30
0.0
  3
block 62
  1

  0
POLYLINE
  5
281
330
27D
100
AcDbEntity
  8
FORMAT
 62
     7
370
     9
100
AcDb2dPolyline
 66
     1
 10
0.0
 20
0.0
 30
0.0
  0
VERTEX
  5
282
330
281
100
AcDbEntity
  8
FORMAT
 62
     7
370
     9
100
AcDbVertex
100
AcDb2dVertex
 10
125.5068955849427
 20
123.8670301339638
 30
0.0
  0
VERTEX
  5
283
330
281
100
AcDbEntity
  8
FORMAT
 62
     7
370
     9
100
AcDbVertex
100
AcDb2dVertex
 10
125.5068955849427
 20
123.8670301339638
 30
0.0
  0
SEQEND
  5
284
330
281
100
AcDbEntity
  8
FORMAT
370
     9
  0
ENDBLK
  5
280
330
27D
100
AcDbEntity
  8
0
100
AcDbBlockEnd
  0
BLOCK
  5
287
330
285
100
AcDbEntity
  8
0
100
AcDbBlockBegin
  2
block 63
 70
     0
 71
     0
 10
0.0
 20
0.0
 30
0.0
  3
block 63
  1

  0
SPLINE
  5
289
330
285
100
AcDbEntity
  8
FORMAT
 62
     7
370
     9
100
AcDbSpline
210
0.0
220
0.0
230
1.0
 70
     8
 71
     3
 72
     8
 73
     4
 74
     0
 42
0.0000000001
 43
0.0000000001
 40
0.0
 40
0.0
 40
0.0
 40
0.0
 40
1.0
 40
1.0
 40
1.0
 40
1.0
 10
125.5068955849427
 20
123.8408474082759
 30
0.0
 10
125.4731336491873
 20
123.4736002295483
 30
0.0
 10
125.6347086274455
 20
123.1132432417911
 30
0.0
 10
125.9347764442108
 20
122.8955132071233
 30
0.0
  0
ENDBLK
  5
288
330
285
100
AcDbEntity
  8
0
100
AcDbBlockEnd
  0
BLOCK
  5
28C
330
28A
100
AcDbEntity
  8
0
100
AcDbBlockBegin
  2
block 64
 70
     0
 71
     0
 10
0.0
 20
0.0
 30
0.0
  3
block 64
  1

  0
POLYLINE
  5
28E
330
28A
100
AcDbEntity
  8
FORMAT
 62
     7
370
     9
100
AcDb2dPolyline
 66
     1
 10
0.0
 20
0.0
 30
0.0
  0
VERTEX
  5
28F
330
28E
100
AcDbEntity
  8
FORMAT
 62
     7
370
     9
100
AcDbVertex
100
AcDb2dVertex
 10
130.0458088867594
 20
123.5583495784854
 30
0.0
  0
VERTEX
  5
290
330
28E
100
AcDbEntity
  8
FORMAT
 62
     7
370
     9
100
AcDbVertex
100
AcDb2dVertex
 10
130.0554551541181
 20
123.5046060889155
 30
0.0
  0
VERTEX
  5
291
330
28E
100
AcDbEntity
  8
FORMAT
 62
     7
370
     9
100
AcDbVertex
100
AcDb2dVertex
 10
130.0871500325824
 20
123.4687770958689
 30
0.0
  0
VERTEX
  5
292
330
28E
100
AcDbEntity
  8
FORMAT
 62
     7
370
     9
100
AcDbVertex
100
AcDb2dVertex
 10
130.1305582356965
 20
123.4598198476073
 30
0.0
  0
SEQEND
  5
293
330
28E
100
AcDbEntity
  8
FORMAT
370
     9
  0
ENDBLK
  5
28D
330
28A
100
AcDbEntity
  8
0
100
AcDbBlockEnd
  0
BLOCK
  5
296
330
294
100
AcDbEntity
  8
0
100
AcDbBlockBegin
  2
block 65
 70
     0
 71
     0
 10
0.0
 20
0.0
 30
0.0
  3
block 65
  1

  0
POLYLINE
  5
298
330
294
100
AcDbEntity
  8
FORMAT
 62
     7
370
     9
100
AcDb2dPolyline
 66
     1
 10
0.0
 20
0.0
 30
0.0
  0
VERTEX
  5
299
330
298
100
AcDbEntity
  8
FORMAT
 62
     7
370
     9
100
AcDbVertex
100
AcDb2dVertex
 10
130.3631021809509
 20
123.7409396392037
 30
0.0
  0
VERTEX
  5
29A
330
298
100
AcDbEntity
  8
FORMAT
 62
     7
370
     9
100
AcDbVertex
100
AcDb2dVertex
 10
130.8350802624301
 20
124.0131021825384
 30
0.0
  0
SEQEND
  5
29B
330
298
100
AcDbEntity
  8
FORMAT
370
     9
  0
ENDBLK
  5
297
330
294
100
AcDbEntity
  8
0
100
AcDbBlockEnd
  0
BLOCK
  5
29E
330
29C
100
AcDbEntity
  8
0
100
AcDbBlockBegin
  2
block 66
 70
     0
 71
     0
 10
0.0
 20
0.0
 30
0.0
  3
block 66
  1

  0
POLYLINE
  5
2A0
330
29C
100
AcDbEntity
  8
FORMAT
 62
     7
370
     9
100
AcDb2dPolyline
 66
     1
 10
0.0
 20
0.0
 30
0.0
  0
VERTEX
  5
2A1
330
2A0
100
AcDbEntity
  8
FORMAT
 62
     7
370
     9
100
AcDbVertex
100
AcDb2dVertex
 10
128.6460665911024
 20
122.7501301776458
 30
0.0
  0
VERTEX
  5
2A2
330
2A0
100
AcDbEntity
  8
FORMAT
 62
     7
370
     9
100
AcDbVertex
100
AcDb2dVertex
 10
128.654334820267
 20
122.6936306116877
 30
0.0
  0
VERTEX
  5
2A3
330
2A0
100
AcDbEntity
  8
FORMAT
 62
     7
370
     9
100
AcDbVertex
100
AcDb2dVertex
 10
128.6860296987313
 20
122.6598686759323
 30
0.0
  0
VERTEX
  5
2A4
330
2A0
100
AcDbEntity
  8
FORMAT
 62
     7
370
     9
100
AcDbVertex
100
AcDb2dVertex
 10
128.7294379018454
 20
122.6516004467677
 30
0.0
  0
SEQEND
  5
2A5
330
2A0
100
AcDbEntity
  8
FORMAT
370
     9
  0
ENDBLK
  5
29F
330
29C
100
AcDbEntity
  8
0
100
AcDbBlockEnd
  0
BLOCK
  5
2A8
330
2A6
100
AcDbEntity
  8
0
100
AcDbBlockBegin
  2
block 67
 70
     0
 71
     0
 10
0.0
 20
0.0
 30
0.0
  3
block 67
  1

  0
POLYLINE
  5
2AA
330
2A6
100
AcDbEntity
  8
FORMAT
 62
     7
370
     9
100
AcDb2dPolyline
 66
     1
 10
0.0
 20
0.0
 30
0.0
  0
VERTEX
  5
2AB
330
2AA
100
AcDbEntity
  8
FORMAT
 62
     7
370
     9
100
AcDbVertex
100
AcDb2dVertex
 10
128.9619818470998
 20
122.932031219267
 30
0.0
  0
VERTEX
  5
2AC
330
2AA
100
AcDbEntity
  8
FORMAT
 62
     7
370
     9
100
AcDbVertex
100
AcDb2dVertex
 10
130.0458088867594
 20
123.5583495784854
 30
0.0
  0
SEQEND
  5
2AD
330
2AA
100
AcDbEntity
  8
FORMAT
370
     9
  0
ENDBLK
  5
2A9
330
2A6
100
AcDbEntity
  8
0
100
AcDbBlockEnd
  0
BLOCK
  5
2B0
330
2AE
100
AcDbEntity
  8
0
100
AcDbBlockBegin
  2
block 68
 70
     0
 71
     0
 10
0.0
 20
0.0
 30
0.0
  3
block 68
  1

  0
POLYLINE
  5
2B2
330
2AE
100
AcDbEntity
  8
FORMAT
 62
     7
370
     9
100
AcDb2dPolyline
 66
     1
 10
0.0
 20
0.0
 30
0.0
  0
VERTEX
  5
2B3
330
2B2
100
AcDbEntity
  8
FORMAT
 62
     7
370
     9
100
AcDbVertex
100
AcDb2dVertex
 10
125.5068955849427
 20
123.8670301339638
 30
0.0
  0
VERTEX
  5
2B4
330
2B2
100
AcDbEntity
  8
FORMAT
 62
     7
370
     9
100
AcDbVertex
100
AcDb2dVertex
 10
125.5068955849427
 20
123.8408474082759
 30
0.0
  0
SEQEND
  5
2B5
330
2B2
100
AcDbEntity
  8
FORMAT
370
     9
  0
ENDBLK
  5
2B1
330
2AE
100
AcDbEntity
  8
0
100
AcDbBlockEnd
  0
BLOCK
  5
2B8
330
2B6
100
AcDbEntity
  8
0
100
AcDbBlockBegin
  2
block 69
 70
     0
 71
     0
 10
0.0
 20
0.0
 30
0.0
  3
block 69
  1

  0
POLYLINE
  5
2BA
330
2B6
100
AcDbEntity
  8
FORMAT
 62
     7
370
     9
100
AcDb2dPolyline
 66
     1
 10
0.0
 20
0.0
 30
0.0
  0
VERTEX
  5
2BB
330
2BA
100
AcDbEntity
  8
FORMAT
 62
     7
370
     9
100
AcDbVertex
100
AcDb2dVertex
 10
130.8350802624301
 20
124.0131021825384
 30
0.0
  0
VERTEX
  5
2BC
330
2BA
100
AcDbEntity
  8
FORMAT
 62
     7
370
     9
100
AcDbVertex
100
AcDb2dVertex
 10
130.8147541990672
 20
124.2735514012233
 30
0.0
  0
VERTEX
  5
2BD
330
2BA
100
AcDbEntity
  8
FORMAT
 62
     7
370
     9
100
AcDbVertex
100
AcDb2dVertex
 10
130.7530869898812
 20
124.5009277032498
 30
0.0
  0
VERTEX
  5
2BE
330
2BA
100
AcDbEntity
  8
FORMAT
 62
     7
370
     9
100
AcDbVertex
100
AcDb2dVertex
 10
130.6531792208089
 20
124.6897189358415
 30
0.0
  0
VERTEX
  5
2BF
330
2BA
100
AcDbEntity
  8
FORMAT
 62
     7
370
     9
100
AcDbVertex
100
AcDb2dVertex
 10
130.5195095159812
 20
124.835101965319
 30
0.0
  0
VERTEX
  5
2C0
330
2BA
100
AcDbEntity
  8
FORMAT
 62
     7
370
     9
100
AcDbVertex
100
AcDb2dVertex
 10
130.3517333658496
 20
124.9301866007119
 30
0.0
  0
VERTEX
  5
2C1
330
2BA
100
AcDbEntity
  8
FORMAT
 62
     7
370
     9
100
AcDbVertex
100
AcDb2dVertex
 10
130.158463509127
 20
124.9742838229231
 30
0.0
  0
VERTEX
  5
2C2
330
2BA
100
AcDbEntity
  8
FORMAT
 62
     7
370
     9
100
AcDbVertex
100
AcDb2dVertex
 10
129.9459011176871
 20
124.9653265746614
 30
0.0
  0
VERTEX
  5
2C3
330
2BA
100
AcDbEntity
  8
FORMAT
 62
     7
370
     9
100
AcDbVertex
100
AcDb2dVertex
 10
129.7181803061121
 20
124.9053819132181
 30
0.0
  0
VERTEX
  5
2C4
330
2BA
100
AcDbEntity
  8
FORMAT
 62
     7
370
     9
100
AcDbVertex
100
AcDb2dVertex
 10
129.4842583226637
 20
124.793760819496
 30
0.0
  0
VERTEX
  5
2C5
330
2BA
100
AcDbEntity
  8
FORMAT
 62
     7
370
     9
100
AcDbVertex
100
AcDb2dVertex
 10
129.2489583010211
 20
124.6345974080775
 30
0.0
  0
VERTEX
  5
2C6
330
2BA
100
AcDbEntity
  8
FORMAT
 62
     7
370
     9
100
AcDbVertex
100
AcDb2dVertex
 10
129.0212374894461
 20
124.4334038317389
 30
0.0
  0
VERTEX
  5
2C7
330
2BA
100
AcDbEntity
  8
FORMAT
 62
     7
370
     9
100
AcDbVertex
100
AcDb2dVertex
 10
128.8076415693606
 20
124.1950032241596
 30
0.0
  0
VERTEX
  5
2C8
330
2BA
100
AcDbEntity
  8
FORMAT
 62
     7
370
     9
100
AcDbVertex
100
AcDb2dVertex
 10
128.6154052412837
 20
123.9276638145042
 30
0.0
  0
VERTEX
  5
2C9
330
2BA
100
AcDbEntity
  8
FORMAT
 62
     7
370
     9
100
AcDbVertex
100
AcDb2dVertex
 10
128.4490071293461
 20
123.6396538319373
 30
0.0
  0
VERTEX
  5
2CA
330
2BA
100
AcDbEntity
  8
FORMAT
 62
     7
370
     9
100
AcDbVertex
100
AcDb2dVertex
 10
128.3139593863243
 20
123.3378634674294
 30
0.0
  0
VERTEX
  5
2CB
330
2BA
100
AcDbEntity
  8
FORMAT
 62
     7
370
     9
100
AcDbVertex
100
AcDb2dVertex
 10
128.214051617252
 20
123.0340060456304
 30
0.0
  0
VERTEX
  5
2CC
330
2BA
100
AcDbEntity
  8
FORMAT
 62
     7
370
     9
100
AcDbVertex
100
AcDb2dVertex
 10
128.1537624462602
 20
122.7370388148019
 30
0.0
  0
VERTEX
  5
2CD
330
2BA
100
AcDbEntity
  8
FORMAT
 62
     7
370
     9
100
AcDbVertex
100
AcDb2dVertex
 10
128.1310248160575
 20
122.4531629468173
 30
0.0
  0
SEQEND
  5
2CE
330
2BA
100
AcDbEntity
  8
FORMAT
370
     9
  0
ENDBLK
  5
2B9
330
2B6
100
AcDbEntity
  8
0
100
AcDbBlockEnd
  0
BLOCK
  5
2D1
330
2CF
100
AcDbEntity
  8
0
100
AcDbBlockBegin
  2
block 70
 70
     0
 71
     0
 10
0.0
 20
0.0
 30
0.0
  3
block 70
  1

  0
POLYLINE
  5
2D3
330
2CF
100
AcDbEntity
  8
FORMAT
 62
     7
370
     9
100
AcDb2dPolyline
 66
     1
 10
0.0
 20
0.0
 30
0.0
  0
VERTEX
  5
2D4
330
2D3
100
AcDbEntity
  8
FORMAT
 62
     7
370
     9
100
AcDbVertex
100
AcDb2dVertex
 10
128.1310248160575
 20
122.4531629468173
 30
0.0
  0
VERTEX
  5
2D5
330
2D3
100
AcDbEntity
  8
FORMAT
 62
     7
370
     9
100
AcDbVertex
100
AcDb2dVertex
 10
127.9108832145501
 20
122.4531629468173
 30
0.0
  0
SEQEND
  5
2D6
330
2D3
100
AcDbEntity
  8
FORMAT
370
     9
  0
ENDBLK
  5
2D2
330
2CF
100
AcDbEntity
  8
0
100
AcDbBlockEnd
  0
BLOCK
  5
2D9
330
2D7
100
AcDbEntity
  8
0
100
AcDbBlockBegin
  2
block 71
 70
     0
 71
     0
 10
0.0
 20
0.0
 30
0.0
  3
block 71
  1

  0
POLYLINE
  5
2DB
330
2D7
100
AcDbEntity
  8
FORMAT
 62
     7
370
     9
100
AcDb2dPolyline
 66
     1
 10
0.0
 20
0.0
 30
0.0
  0
VERTEX
  5
2DC
330
2DB
100
AcDbEntity
  8
FORMAT
 62
     7
370
     9
100
AcDbVertex
100
AcDb2dVertex
 10
127.9108832145501
 20
122.4531629468173
 30
0.0
  0
VERTEX
  5
2DD
330
2DB
100
AcDbEntity
  8
FORMAT
 62
     7
370
     9
100
AcDbVertex
100
AcDb2dVertex
 10
127.931209277913
 20
122.7425509675783
 30
0.0
  0
VERTEX
  5
2DE
330
2DB
100
AcDbEntity
  8
FORMAT
 62
     7
370
     9
100
AcDbVertex
100
AcDb2dVertex
 10
127.9897759011623
 20
123.0470974084743
 30
0.0
  0
VERTEX
  5
2DF
330
2DB
100
AcDbEntity
  8
FORMAT
 62
     7
370
     9
100
AcDbVertex
100
AcDb2dVertex
 10
128.0876166129434
 20
123.3585340403409
 30
0.0
  0
VERTEX
  5
2E0
330
2DB
100
AcDbEntity
  8
FORMAT
 62
     7
370
     9
100
AcDbVertex
100
AcDb2dVertex
 10
128.219908279577
 20
123.6672145958193
 30
0.0
  0
VERTEX
  5
2E1
330
2DB
100
AcDbEntity
  8
FORMAT
 62
     7
370
     9
100
AcDbVertex
100
AcDb2dVertex
 10
128.3828612960293
 20
123.9676269221331
 30
0.0
  0
VERTEX
  5
2E2
330
2DB
100
AcDbEntity
  8
FORMAT
 62
     7
370
     9
100
AcDbVertex
100
AcDb2dVertex
 10
128.5740640954607
 20
124.2487467137295
 30
0.0
  0
VERTEX
  5
2E3
330
2DB
100
AcDbEntity
  8
FORMAT
 62
     7
370
     9
100
AcDbVertex
100
AcDb2dVertex
 10
128.7859374678035
 20
124.504372798735
 30
0.0
  0
VERTEX
  5
2E4
330
2DB
100
AcDbEntity
  8
FORMAT
 62
     7
370
     9
100
AcDbVertex
100
AcDb2dVertex
 10
129.0136582793785
 20
124.7255479288881
 30
0.0
  0
VERTEX
  5
2E5
330
2DB
100
AcDbEntity
  8
FORMAT
 62
     7
370
     9
100
AcDbVertex
100
AcDb2dVertex
 10
129.2534369251519
 20
124.9102050468975
 30
0.0
  0
VERTEX
  5
2E6
330
2DB
100
AcDbEntity
  8
FORMAT
 62
     7
370
     9
100
AcDbVertex
100
AcDb2dVertex
 10
129.4925265518283
 20
125.0480088663074
 30
0.0
  0
VERTEX
  5
2E7
330
2DB
100
AcDbEntity
  8
FORMAT
 62
     7
370
     9
100
AcDbVertex
100
AcDb2dVertex
 10
129.7323051976016
 20
125.1410264444092
 30
0.0
  0
VERTEX
  5
2E8
330
2DB
100
AcDbEntity
  8
FORMAT
 62
     7
370
     9
100
AcDbVertex
100
AcDb2dVertex
 10
129.9600260091767
 20
125.1823675902322
 30
0.0
  0
VERTEX
  5
2E9
330
2DB
100
AcDbEntity
  8
FORMAT
 62
     7
370
     9
100
AcDbVertex
100
AcDb2dVertex
 10
130.1718993815195
 20
125.1713432846794
 30
0.0
  0
VERTEX
  5
2EA
330
2DB
100
AcDbEntity
  8
FORMAT
 62
     7
370
     9
100
AcDbVertex
100
AcDb2dVertex
 10
130.3631021809509
 20
125.110020585042
 30
0.0
  0
VERTEX
  5
2EB
330
2DB
100
AcDbEntity
  8
FORMAT
 62
     7
370
     9
100
AcDbVertex
100
AcDb2dVertex
 10
130.5260551974032
 20
124.9990885104169
 30
0.0
  0
VERTEX
  5
2EC
330
2DB
100
AcDbEntity
  8
FORMAT
 62
     7
370
     9
100
AcDbVertex
100
AcDb2dVertex
 10
130.6583468640368
 20
124.8419921562895
 30
0.0
  0
VERTEX
  5
2ED
330
2DB
100
AcDbEntity
  8
FORMAT
 62
     7
370
     9
100
AcDbVertex
100
AcDb2dVertex
 10
130.7561875758179
 20
124.6435546563391
 30
0.0
  0
VERTEX
  5
2EE
330
2DB
100
AcDbEntity
  8
FORMAT
 62
     7
370
     9
100
AcDbVertex
100
AcDb2dVertex
 10
130.8147541990672
 20
124.407221106051
 30
0.0
  0
VERTEX
  5
2EF
330
2DB
100
AcDbEntity
  8
FORMAT
 62
     7
370
     9
100
AcDbVertex
100
AcDb2dVertex
 10
130.8350802624301
 20
124.1412597345897
 30
0.0
  0
SEQEND
  5
2F0
330
2DB
100
AcDbEntity
  8
FORMAT
370
     9
  0
ENDBLK
  5
2DA
330
2D7
100
AcDbEntity
  8
0
100
AcDbBlockEnd
  0
BLOCK
  5
2F3
330
2F1
100
AcDbEntity
  8
0
100
AcDbBlockBegin
  2
block 72
 70
     0
 71
     0
 10
0.0
 20
0.0
 30
0.0
  3
block 72
  1

  0
POLYLINE
  5
2F5
330
2F1
100
AcDbEntity
  8
FORMAT
 62
     7
370
     9
100
AcDb2dPolyline
 66
     1
 10
0.0
 20
0.0
 30
0.0
  0
VERTEX
  5
2F6
330
2F5
100
AcDbEntity
  8
FORMAT
 62
     7
370
     9
100
AcDbVertex
100
AcDb2dVertex
 10
130.8350802624301
 20
124.1412597345897
 30
0.0
  0
VERTEX
  5
2F7
330
2F5
100
AcDbEntity
  8
FORMAT
 62
     7
370
     9
100
AcDbVertex
100
AcDb2dVertex
 10
130.8350802624301
 20
124.0131021825384
 30
0.0
  0
SEQEND
  5
2F8
330
2F5
100
AcDbEntity
  8
FORMAT
370
     9
  0
ENDBLK
  5
2F4
330
2F1
100
AcDbEntity
  8
0
100
AcDbBlockEnd
  0
BLOCK
  5
2FB
330
2F9
100
AcDbEntity
  8
0
100
AcDbBlockBegin
  2
block 73
 70
     0
 71
     0
 10
0.0
 20
0.0
 30
0.0
  3
block 73
  1

  0
POLYLINE
  5
2FD
330
2F9
100
AcDbEntity
  8
FORMAT
 62
     7
370
     9
100
AcDb2dPolyline
 66
     1
 10
0.0
 20
0.0
 30
0.0
  0
VERTEX
  5
2FE
330
2FD
100
AcDbEntity
  8
FORMAT
 62
     7
370
     9
100
AcDbVertex
100
AcDb2dVertex
 10
127.9108832145501
 20
122.4531629468173
 30
0.0
  0
VERTEX
  5
2FF
330
2FD
100
AcDbEntity
  8
FORMAT
 62
     7
370
     9
100
AcDbVertex
100
AcDb2dVertex
 10
125.5068955849427
 20
123.8408474082759
 30
0.0
  0
SEQEND
  5
300
330
2FD
100
AcDbEntity
  8
FORMAT
370
     9
  0
ENDBLK
  5
2FC
330
2F9
100
AcDbEntity
  8
0
100
AcDbBlockEnd
  0
BLOCK
  5
303
330
301
100
AcDbEntity
  8
0
100
AcDbBlockBegin
  2
block 74
 70
     0
 71
     0
 10
0.0
 20
0.0
 30
0.0
  3
block 74
  1

  0
POLYLINE
  5
305
330
301
100
AcDbEntity
  8
FORMAT
 62
     7
370
     9
100
AcDb2dPolyline
 66
     1
 10
0.0
 20
0.0
 30
0.0
  0
VERTEX
  5
306
330
305
100
AcDbEntity
  8
FORMAT
 62
     7
370
     9
100
AcDbVertex
100
AcDb2dVertex
 10
125.5068955849427
 20
123.8408474082759
 30
0.0
  0
VERTEX
  5
307
330
305
100
AcDbEntity
  8
FORMAT
 62
     7
370
     9
100
AcDbVertex
100
AcDb2dVertex
 10
125.5272216483057
 20
124.1302354290369
 30
0.0
  0
VERTEX
  5
308
330
305
100
AcDbEntity
  8
FORMAT
 62
     7
370
     9
100
AcDbVertex
100
AcDb2dVertex
 10
125.5857882715549
 20
124.434781869933
 30
0.0
  0
VERTEX
  5
309
330
305
100
AcDbEntity
  8
FORMAT
 62
     7
370
     9
100
AcDbVertex
100
AcDb2dVertex
 10
125.683628983336
 20
124.7469075208966
 30
0.0
  0
VERTEX
  5
30A
330
305
100
AcDbEntity
  8
FORMAT
 62
     7
370
     9
100
AcDbVertex
100
AcDb2dVertex
 10
125.8159206499696
 20
125.0569661145691
 30
0.0
  0
VERTEX
  5
30B
330
305
100
AcDbEntity
  8
FORMAT
 62
     7
370
     9
100
AcDbVertex
100
AcDb2dVertex
 10
125.9792181759705
 20
125.3560004026888
 30
0.0
  0
VERTEX
  5
30C
330
305
100
AcDbEntity
  8
FORMAT
 62
     7
370
     9
100
AcDbVertex
100
AcDb2dVertex
 10
126.1683539181107
 20
125.6364311751881
 30
0.0
  0
VERTEX
  5
30D
330
305
100
AcDbEntity
  8
FORMAT
 62
     7
370
     9
100
AcDbVertex
100
AcDb2dVertex
 10
126.3819498381962
 20
125.8927462792907
 30
0.0
  0
VERTEX
  5
30E
330
305
100
AcDbEntity
  8
FORMAT
 62
     7
370
     9
100
AcDbVertex
100
AcDb2dVertex
 10
126.6096706497712
 20
126.1139214094437
 30
0.0
  0
VERTEX
  5
30F
330
305
100
AcDbEntity
  8
FORMAT
 62
     7
370
     9
100
AcDbVertex
100
AcDb2dVertex
 10
126.8480712573505
 20
126.2978895083561
 30
0.0
  0
VERTEX
  5
310
330
305
100
AcDbEntity
  8
FORMAT
 62
     7
370
     9
100
AcDbVertex
100
AcDb2dVertex
 10
127.0885389222209
 20
126.4377603850572
 30
0.0
  0
VERTEX
  5
311
330
305
100
AcDbEntity
  8
FORMAT
 62
     7
370
     9
100
AcDbVertex
100
AcDb2dVertex
 10
127.3269395298002
 20
126.5287109058678
 30
0.0
  0
VERTEX
  5
312
330
305
100
AcDbEntity
  8
FORMAT
 62
     7
370
     9
100
AcDbVertex
100
AcDb2dVertex
 10
127.5546603413752
 20
126.5700520516908
 30
0.0
  0
VERTEX
  5
313
330
305
100
AcDbEntity
  8
FORMAT
 62
     7
370
     9
100
AcDbVertex
100
AcDb2dVertex
 10
127.7665337137181
 20
126.5597167652351
 30
0.0
  0
VERTEX
  5
314
330
305
100
AcDbEntity
  8
FORMAT
 62
     7
370
     9
100
AcDbVertex
100
AcDb2dVertex
 10
127.9573920036009
 20
126.4990830846947
 30
0.0
  0
VERTEX
  5
315
330
305
100
AcDbEntity
  8
FORMAT
 62
     7
370
     9
100
AcDbVertex
100
AcDb2dVertex
 10
128.0018337353607
 20
126.475656435395
 30
0.0
  0
SEQEND
  5
316
330
305
100
AcDbEntity
  8
FORMAT
370
     9
  0
ENDBLK
  5
304
330
301
100
AcDbEntity
  8
0
100
AcDbBlockEnd
  0
BLOCK
  5
319
330
317
100
AcDbEntity
  8
0
100
AcDbBlockBegin
  2
block 75
 70
     0
 71
     0
 10
0.0
 20
0.0
 30
0.0
  3
block 75
  1

  0
POLYLINE
  5
31B
330
317
100
AcDbEntity
  8
FORMAT
 62
     7
370
     9
100
AcDb2dPolyline
 66
     1
 10
0.0
 20
0.0
 30
0.0
  0
VERTEX
  5
31C
330
31B
100
AcDbEntity
  8
FORMAT
 62
     7
370
     9
100
AcDbVertex
100
AcDb2dVertex
 10
128.9619818470998
 20
122.932031219267
 30
0.0
  0
VERTEX
  5
31D
330
31B
100
AcDbEntity
  8
FORMAT
 62
     7
370
     9
100
AcDbVertex
100
AcDb2dVertex
 10
130.0458088867594
 20
123.5583495784854
 30
0.0
  0
SEQEND
  5
31E
330
31B
100
AcDbEntity
  8
FORMAT
370
     9
  0
ENDBLK
  5
31A
330
317
100
AcDbEntity
  8
0
100
AcDbBlockEnd
  0
BLOCK
  5
321
330
31F
100
AcDbEntity
  8
0
100
AcDbBlockBegin
  2
block 76
 70
     0
 71
     0
 10
0.0
 20
0.0
 30
0.0
  3
block 76
  1

  0
SPLINE
  5
323
330
31F
100
AcDbEntity
  8
FORMAT
 62
     7
370
     9
100
AcDbSpline
210
0.0
220
0.0
230
1.0
 70
     8
 71
     3
 72
    26
 73
    22
 74
     0
 42
0.0000000001
 43
0.0000000001
 40
0.0
 40
0.0
 40
0.0
 40
0.0
 40
1.0
 40
1.0
 40
1.0
 40
2.0
 40
2.0
 40
2.0
 40
3.0
 40
3.0
 40
3.0
 40
4.0
 40
4.0
 40
4.0
 40
5.0
 40
5.0
 40
5.0
 40
6.0
 40
6.0
 40
6.0
 40
7.0
 40
7.0
 40
7.0
 40
7.0
 10
128.9106499243696
 20
122.9616590404402
 30
0.0
 10
128.9092718861755
 20
122.9630370786342
 30
0.0
 10
128.881366612745
 20
122.9981770525838
 30
0.0
 10
128.881366612745
 20
122.9981770525838
 30
0.0
 10
128.881366612745
 20
122.9981770525838
 30
0.0
 10
128.8355468427911
 20
123.0071343008455
 30
0.0
 10
128.8355468427911
 20
123.0071343008455
 30
0.0
 10
128.8355468427911
 20
123.0071343008455
 30
0.0
 10
128.7828368818668
 20
122.9885307852251
 30
0.0
 10
128.7828368818668
 20
122.9885307852251
 30
0.0
 10
128.7828368818668
 20
122.9885307852251
 30
0.0
 10
128.7294379018454
 20
122.945811601208
 30
0.0
 10
128.7294379018454
 20
122.945811601208
 30
0.0
 10
128.7294379018454
 20
122.945811601208
 30
0.0
 10
128.6860296987313
 20
122.8858669397647
 30
0.0
 10
128.6860296987313
 20
122.8858669397647
 30
0.0
 10
128.6860296987313
 20
122.8858669397647
 30
0.0
 10
128.654334820267
 20
122.8162760109626
 30
0.0
 10
128.654334820267
 20
122.8162760109626
 30
0.0
 10
128.654334820267
 20
122.8162760109626
 30
0.0
 10
128.6460665911024
 20
122.7501301776458
 30
0.0
 10
128.6460665911024
 20
122.7501301776458
 30
0.0
  0
ENDBLK
  5
322
330
31F
100
AcDbEntity
  8
0
100
AcDbBlockEnd
  0
BLOCK
  5
326
330
324
100
AcDbEntity
  8
0
100
AcDbBlockBegin
  2
block 77
 70
     0
 71
     0
 10
0.0
 20
0.0
 30
0.0
  3
block 77
  1

  0
POLYLINE
  5
328
330
324
100
AcDbEntity
  8
FORMAT
 62
     7
370
     9
100
AcDb2dPolyline
 66
     1
 10
0.0
 20
0.0
 30
0.0
  0
VERTEX
  5
329
330
328
100
AcDbEntity
  8
FORMAT
 62
     7
370
     9
100
AcDbVertex
100
AcDb2dVertex
 10
128.1310248160575
 20
122.4531629468173
 30
0.0
  0
VERTEX
  5
32A
330
328
100
AcDbEntity
  8
FORMAT
 62
     7
370
     9
100
AcDbVertex
100
AcDb2dVertex
 10
128.6460665911024
 20
122.7501301776458
 30
0.0
  0
SEQEND
  5
32B
330
328
100
AcDbEntity
  8
FORMAT
370
     9
  0
ENDBLK
  5
327
330
324
100
AcDbEntity
  8
0
100
AcDbBlockEnd
  0
BLOCK
  5
32E
330
32C
100
AcDbEntity
  8
0
100
AcDbBlockBegin
  2
block 78
 70
     0
 71
     0
 10
0.0
 20
0.0
 30
0.0
  3
block 78
  1

  0
POLYLINE
  5
330
330
32C
100
AcDbEntity
  8
FORMAT
 62
     7
370
     9
100
AcDb2dPolyline
 66
     1
 10
0.0
 20
0.0
 30
0.0
  0
VERTEX
  5
331
330
330
100
AcDbEntity
  8
FORMAT
 62
     7
370
     9
100
AcDbVertex
100
AcDb2dVertex
 10
130.3631021809509
 20
123.7409396392037
 30
0.0
  0
VERTEX
  5
332
330
330
100
AcDbEntity
  8
FORMAT
 62
     7
370
     9
100
AcDbVertex
100
AcDb2dVertex
 10
130.8350802624301
 20
124.0131021825384
 30
0.0
  0
SEQEND
  5
333
330
330
100
AcDbEntity
  8
FORMAT
370
     9
  0
ENDBLK
  5
32F
330
32C
100
AcDbEntity
  8
0
100
AcDbBlockEnd
  0
BLOCK
  5
336
330
334
100
AcDbEntity
  8
0
100
AcDbBlockBegin
  2
block 79
 70
     0
 71
     0
 10
0.0
 20
0.0
 30
0.0
  3
block 79
  1

  0
POLYLINE
  5
338
330
334
100
AcDbEntity
  8
FORMAT
 62
     7
370
     9
100
AcDb2dPolyline
 66
     1
 10
0.0
 20
0.0
 30
0.0
  0
VERTEX
  5
339
330
338
100
AcDbEntity
  8
FORMAT
 62
     7
370
     9
100
AcDbVertex
100
AcDb2dVertex
 10
130.3117702582207
 20
123.7719454985709
 30
0.0
  0
VERTEX
  5
33A
330
338
100
AcDbEntity
  8
FORMAT
 62
     7
370
     9
100
AcDbVertex
100
AcDb2dVertex
 10
130.281108908402
 20
123.8070854725205
 30
0.0
  0
VERTEX
  5
33B
330
338
100
AcDbEntity
  8
FORMAT
 62
     7
370
     9
100
AcDbVertex
100
AcDb2dVertex
 10
130.2366671766422
 20
123.8160427207821
 30
0.0
  0
VERTEX
  5
33C
330
338
100
AcDbEntity
  8
FORMAT
 62
     7
370
     9
100
AcDbVertex
100
AcDb2dVertex
 10
130.1839572157179
 20
123.7967501860647
 30
0.0
  0
VERTEX
  5
33D
330
338
100
AcDbEntity
  8
FORMAT
 62
     7
370
     9
100
AcDbVertex
100
AcDb2dVertex
 10
130.1305582356965
 20
123.7547200211447
 30
0.0
  0
VERTEX
  5
33E
330
338
100
AcDbEntity
  8
FORMAT
 62
     7
370
     9
100
AcDbVertex
100
AcDb2dVertex
 10
130.0871500325824
 20
123.6933973215072
 30
0.0
  0
VERTEX
  5
33F
330
338
100
AcDbEntity
  8
FORMAT
 62
     7
370
     9
100
AcDbVertex
100
AcDb2dVertex
 10
130.0554551541181
 20
123.6251844308993
 30
0.0
  0
VERTEX
  5
340
330
338
100
AcDbEntity
  8
FORMAT
 62
     7
370
     9
100
AcDbVertex
100
AcDb2dVertex
 10
130.0458088867594
 20
123.5583495784854
 30
0.0
  0
SEQEND
  5
341
330
338
100
AcDbEntity
  8
FORMAT
370
     9
  0
ENDBLK
  5
337
330
334
100
AcDbEntity
  8
0
100
AcDbBlockEnd
  0
BLOCK
  5
344
330
342
100
AcDbEntity
  8
0
100
AcDbBlockBegin
  2
block 80
 70
     0
 71
     0
 10
0.0
 20
0.0
 30
0.0
  3
block 80
  1

  0
SPLINE
  5
346
330
342
100
AcDbEntity
  8
FORMAT
 62
     7
370
     9
100
AcDbSpline
210
0.0
220
0.0
230
1.0
 70
     8
 71
     3
 72
     8
 73
     4
 74
     0
 42
0.0000000001
 43
0.0000000001
 40
0.0
 40
0.0
 40
0.0
 40
0.0
 40
1.0
 40
1.0
 40
1.0
 40
1.0
 10
126.9562472555873
 20
126.3667914180611
 30
0.0
 10
126.0904947601441
 20
125.8245333886828
 30
0.0
 10
125.5482367307657
 20
124.8881564357919
 30
0.0
 10
125.5068955849427
 20
123.8670301339638
 30
0.0
  0
ENDBLK
  5
345
330
342
100
AcDbEntity
  8
0
100
AcDbBlockEnd
  0
BLOCK
  5
349
330
347
100
AcDbEntity
  8
0
100
AcDbBlockBegin
  2
block 81
 70
     0
 71
     0
 10
0.0
 20
0.0
 30
0.0
  3
block 81
  1

  0
POLYLINE
  5
34B
330
347
100
AcDbEntity
  8
FORMAT
 62
     7
370
     9
100
AcDb2dPolyline
 66
     1
 10
0.0
 20
0.0
 30
0.0
  0
VERTEX
  5
34C
330
34B
100
AcDbEntity
  8
FORMAT
 62
     7
370
     9
100
AcDbVertex
100
AcDb2dVertex
 10
125.5068955849427
 20
123.8670301339638
 30
0.0
  0
VERTEX
  5
34D
330
34B
100
AcDbEntity
  8
FORMAT
 62
     7
370
     9
100
AcDbVertex
100
AcDb2dVertex
 10
125.5068955849427
 20
123.8670301339638
 30
0.0
  0
SEQEND
  5
34E
330
34B
100
AcDbEntity
  8
FORMAT
370
     9
  0
ENDBLK
  5
34A
330
347
100
AcDbEntity
  8
0
100
AcDbBlockEnd
  0
BLOCK
  5
351
330
34F
100
AcDbEntity
  8
0
100
AcDbBlockBegin
  2
block 82
 70
     0
 71
     0
 10
0.0
 20
0.0
 30
0.0
  3
block 82
  1

  0
POLYLINE
  5
353
330
34F
100
AcDbEntity
  8
FORMAT
 62
     7
370
     9
100
AcDb2dPolyline
 66
     1
 10
0.0
 20
0.0
 30
0.0
  0
VERTEX
  5
354
330
353
100
AcDbEntity
  8
FORMAT
 62
     7
370
     9
100
AcDbVertex
100
AcDb2dVertex
 10
64.15319008812837
 20
159.2600463469037
 30
0.0
  0
VERTEX
  5
355
330
353
100
AcDbEntity
  8
FORMAT
 62
     7
370
     9
100
AcDbVertex
100
AcDb2dVertex
 10
66.5585557559298
 20
157.8720173758966
 30
0.0
  0
SEQEND
  5
356
330
353
100
AcDbEntity
  8
FORMAT
370
     9
  0
ENDBLK
  5
352
330
34F
100
AcDbEntity
  8
0
100
AcDbBlockEnd
  0
BLOCK
  5
359
330
357
100
AcDbEntity
  8
0
100
AcDbBlockBegin
  2
block 83
 70
     0
 71
     0
 10
0.0
 20
0.0
 30
0.0
  3
block 83
  1

  0
POLYLINE
  5
35B
330
357
100
AcDbEntity
  8
FORMAT
 62
     7
370
     9
100
AcDb2dPolyline
 66
     1
 10
0.0
 20
0.0
 30
0.0
  0
VERTEX
  5
35C
330
35B
100
AcDbEntity
  8
FORMAT
 62
     7
370
     9
100
AcDbVertex
100
AcDb2dVertex
 10
66.6481282385463
 20
161.8939941001515
 30
0.0
  0
VERTEX
  5
35D
330
35B
100
AcDbEntity
  8
FORMAT
 62
     7
370
     9
100
AcDbVertex
100
AcDb2dVertex
 10
66.605925818852
 20
161.9165594755799
 30
0.0
  0
VERTEX
  5
35E
330
35B
100
AcDbEntity
  8
FORMAT
 62
     7
370
     9
100
AcDbVertex
100
AcDb2dVertex
 10
66.41437850987211
 20
161.9785711943144
 30
0.0
  0
VERTEX
  5
35F
330
35B
100
AcDbEntity
  8
FORMAT
 62
     7
370
     9
100
AcDbVertex
100
AcDb2dVertex
 10
66.20302190185203
 20
161.9887342259959
 30
0.0
  0
VERTEX
  5
360
330
35B
100
AcDbEntity
  8
FORMAT
 62
     7
370
     9
100
AcDbVertex
100
AcDb2dVertex
 10
65.97375079730865
 20
161.9470485706244
 30
0.0
  0
VERTEX
  5
361
330
35B
100
AcDbEntity
  8
FORMAT
 62
     7
370
     9
100
AcDbVertex
100
AcDb2dVertex
 10
65.73552244450362
 20
161.855581285491
 30
0.0
  0
VERTEX
  5
362
330
35B
100
AcDbEntity
  8
FORMAT
 62
     7
370
     9
100
AcDbVertex
100
AcDb2dVertex
 10
65.49419350576187
 20
161.7158826635641
 30
0.0
  0
VERTEX
  5
363
330
35B
100
AcDbEntity
  8
FORMAT
 62
     7
370
     9
100
AcDbVertex
100
AcDb2dVertex
 10
65.25596515295685
 20
161.5327758385231
 30
0.0
  0
VERTEX
  5
364
330
35B
100
AcDbEntity
  8
FORMAT
 62
     7
370
     9
100
AcDbVertex
100
AcDb2dVertex
 10
65.02824434138184
 20
161.3110839440472
 30
0.0
  0
VERTEX
  5
365
330
35B
100
AcDbEntity
  8
FORMAT
 62
     7
370
     9
100
AcDbVertex
100
AcDb2dVertex
 10
64.8161987142647
 20
161.0558023685902
 30
0.0
  0
VERTEX
  5
366
330
35B
100
AcDbEntity
  8
FORMAT
 62
     7
370
     9
100
AcDbVertex
100
AcDb2dVertex
 10
64.62534042438186
 20
160.7743380674453
 30
0.0
  0
VERTEX
  5
367
330
35B
100
AcDbEntity
  8
FORMAT
 62
     7
370
     9
100
AcDbVertex
100
AcDb2dVertex
 10
64.46221515315528
 20
160.4744425054543
 30
0.0
  0
VERTEX
  5
368
330
35B
100
AcDbEntity
  8
FORMAT
 62
     7
370
     9
100
AcDbVertex
100
AcDb2dVertex
 10
64.3299234865217
 20
160.1647284213304
 30
0.0
  0
VERTEX
  5
369
330
35B
100
AcDbEntity
  8
FORMAT
 62
     7
370
     9
100
AcDbVertex
100
AcDb2dVertex
 10
64.23294404861191
 20
159.8539808085608
 30
0.0
  0
VERTEX
  5
36A
330
35B
100
AcDbEntity
  8
FORMAT
 62
     7
370
     9
100
AcDbVertex
100
AcDb2dVertex
 10
64.17282713239429
 20
159.5494343676647
 30
0.0
  0
VERTEX
  5
36B
330
35B
100
AcDbEntity
  8
FORMAT
 62
     7
370
     9
100
AcDbVertex
100
AcDb2dVertex
 10
64.15319008812837
 20
159.2600463469037
 30
0.0
  0
SEQEND
  5
36C
330
35B
100
AcDbEntity
  8
FORMAT
370
     9
  0
ENDBLK
  5
35A
330
357
100
AcDbEntity
  8
0
100
AcDbBlockEnd
  0
BLOCK
  5
36F
330
36D
100
AcDbEntity
  8
0
100
AcDbBlockBegin
  2
block 84
 70
     0
 71
     0
 10
0.0
 20
0.0
 30
0.0
  3
block 84
  1

  0
POLYLINE
  5
371
330
36D
100
AcDbEntity
  8
FORMAT
 62
     7
370
     9
100
AcDb2dPolyline
 66
     1
 10
0.0
 20
0.0
 30
0.0
  0
VERTEX
  5
372
330
371
100
AcDbEntity
  8
FORMAT
 62
     7
370
     9
100
AcDbVertex
100
AcDb2dVertex
 10
69.09190672100827
 20
160.4815049511991
 30
0.0
  0
VERTEX
  5
373
330
371
100
AcDbEntity
  8
FORMAT
 62
     7
370
     9
100
AcDbVertex
100
AcDb2dVertex
 10
69.00991344845933
 20
160.5285305045727
 30
0.0
  0
VERTEX
  5
374
330
371
100
AcDbEntity
  8
FORMAT
 62
     7
370
     9
100
AcDbVertex
100
AcDb2dVertex
 10
68.81974417767354
 20
160.5898532042102
 30
0.0
  0
VERTEX
  5
375
330
371
100
AcDbEntity
  8
FORMAT
 62
     7
370
     9
100
AcDbVertex
100
AcDb2dVertex
 10
68.60700953145937
 20
160.6000162358917
 30
0.0
  0
VERTEX
  5
376
330
371
100
AcDbEntity
  8
FORMAT
 62
     7
370
     9
100
AcDbVertex
100
AcDb2dVertex
 10
68.37842744601303
 20
160.5590195996172
 30
0.0
  0
VERTEX
  5
377
330
371
100
AcDbEntity
  8
FORMAT
 62
     7
370
     9
100
AcDbVertex
100
AcDb2dVertex
 10
68.14088811230506
 20
160.4677245692581
 30
0.0
  0
VERTEX
  5
378
330
371
100
AcDbEntity
  8
FORMAT
 62
     7
370
     9
100
AcDbVertex
100
AcDb2dVertex
 10
67.89973142833757
 20
160.3281982021055
 30
0.0
  0
VERTEX
  5
379
330
371
100
AcDbEntity
  8
FORMAT
 62
     7
370
     9
100
AcDbVertex
100
AcDb2dVertex
 10
67.66133082075828
 20
160.1444023579674
 30
0.0
  0
VERTEX
  5
37A
330
371
100
AcDbEntity
  8
FORMAT
 62
     7
370
     9
100
AcDbVertex
100
AcDb2dVertex
 10
67.43361000918327
 20
159.922365953943
 30
0.0
  0
VERTEX
  5
37B
330
371
100
AcDbEntity
  8
FORMAT
 62
     7
370
     9
100
AcDbVertex
100
AcDb2dVertex
 10
67.22018634387204
 20
159.667084378486
 30
0.0
  0
VERTEX
  5
37C
330
371
100
AcDbEntity
  8
FORMAT
 62
     7
370
     9
100
AcDbVertex
100
AcDb2dVertex
 10
67.0307060921833
 20
159.3863090964381
 30
0.0
  0
VERTEX
  5
37D
330
371
100
AcDbEntity
  8
FORMAT
 62
     7
370
     9
100
AcDbVertex
100
AcDb2dVertex
 10
66.86603052798836
 20
159.0864135344472
 30
0.0
  0
VERTEX
  5
37E
330
371
100
AcDbEntity
  8
FORMAT
 62
     7
370
     9
100
AcDbVertex
100
AcDb2dVertex
 10
66.73528915432313
 20
158.7770439598717
 30
0.0
  0
VERTEX
  5
37F
330
371
100
AcDbEntity
  8
FORMAT
 62
     7
370
     9
100
AcDbVertex
100
AcDb2dVertex
 10
66.63830971641335
 20
158.4659518375537
 30
0.0
  0
VERTEX
  5
380
330
371
100
AcDbEntity
  8
FORMAT
 62
     7
370
     9
100
AcDbVertex
100
AcDb2dVertex
 10
66.57888181929279
 20
158.1614053966576
 30
0.0
  0
VERTEX
  5
381
330
371
100
AcDbEntity
  8
FORMAT
 62
     7
370
     9
100
AcDbVertex
100
AcDb2dVertex
 10
66.5585557559298
 20
157.8720173758966
 30
0.0
  0
SEQEND
  5
382
330
371
100
AcDbEntity
  8
FORMAT
370
     9
  0
ENDBLK
  5
370
330
36D
100
AcDbEntity
  8
0
100
AcDbBlockEnd
  0
BLOCK
  5
385
330
383
100
AcDbEntity
  8
0
100
AcDbBlockBegin
  2
block 85
 70
     0
 71
     0
 10
0.0
 20
0.0
 30
0.0
  3
block 85
  1

  0
POLYLINE
  5
387
330
383
100
AcDbEntity
  8
FORMAT
 62
     7
370
     9
100
AcDb2dPolyline
 66
     1
 10
0.0
 20
0.0
 30
0.0
  0
VERTEX
  5
388
330
387
100
AcDbEntity
  8
FORMAT
 62
     7
370
     9
100
AcDbVertex
100
AcDb2dVertex
 10
66.58043211226115
 20
157.8844197196435
 30
0.0
  0
VERTEX
  5
389
330
387
100
AcDbEntity
  8
FORMAT
 62
     7
370
     9
100
AcDbVertex
100
AcDb2dVertex
 10
66.5998969017528
 20
158.1696736258222
 30
0.0
  0
VERTEX
  5
38A
330
387
100
AcDbEntity
  8
FORMAT
 62
     7
370
     9
100
AcDbVertex
100
AcDb2dVertex
 10
66.65863577977632
 20
158.4695691878132
 30
0.0
  0
VERTEX
  5
38B
330
387
100
AcDbEntity
  8
FORMAT
 62
     7
370
     9
100
AcDbVertex
100
AcDb2dVertex
 10
66.75406492471774
 20
158.7763549407747
 30
0.0
  0
VERTEX
  5
38C
330
387
100
AcDbEntity
  8
FORMAT
 62
     7
370
     9
100
AcDbVertex
100
AcDb2dVertex
 10
66.88342826018886
 20
159.081073636445
 30
0.0
  0
VERTEX
  5
38D
330
387
100
AcDbEntity
  8
FORMAT
 62
     7
370
     9
100
AcDbVertex
100
AcDb2dVertex
 10
67.04500323844708
 20
159.3761460647567
 30
0.0
  0
VERTEX
  5
38E
330
387
100
AcDbEntity
  8
FORMAT
 62
     7
370
     9
100
AcDbVertex
100
AcDb2dVertex
 10
67.23224417807042
 20
159.6524427226737
 30
0.0
  0
VERTEX
  5
38F
330
387
100
AcDbEntity
  8
FORMAT
 62
     7
370
     9
100
AcDbVertex
100
AcDb2dVertex
 10
67.44256725744492
 20
159.904623712194
 30
0.0
  0
VERTEX
  5
390
330
387
100
AcDbEntity
  8
FORMAT
 62
     7
370
     9
100
AcDbVertex
100
AcDb2dVertex
 10
67.6658094448891
 20
160.1230427659588
 30
0.0
  0
VERTEX
  5
391
330
387
100
AcDbEntity
  8
FORMAT
 62
     7
370
     9
100
AcDbVertex
100
AcDb2dVertex
 10
67.90110946653166
 20
160.3037380241602
 30
0.0
  0
VERTEX
  5
392
330
387
100
AcDbEntity
  8
FORMAT
 62
     7
370
     9
100
AcDbVertex
100
AcDb2dVertex
 10
68.1379597811426
 20
160.4406805696989
 30
0.0
  0
VERTEX
  5
393
330
387
100
AcDbEntity
  8
FORMAT
 62
     7
370
     9
100
AcDbVertex
100
AcDb2dVertex
 10
68.37325980278516
 20
160.5307698166382
 30
0.0
  0
VERTEX
  5
394
330
387
100
AcDbEntity
  8
FORMAT
 62
     7
370
     9
100
AcDbVertex
100
AcDb2dVertex
 10
68.59805228319772
 20
160.5721109624612
 30
0.0
  0
VERTEX
  5
395
330
387
100
AcDbEntity
  8
FORMAT
 62
     7
370
     9
100
AcDbVertex
100
AcDb2dVertex
 10
68.80699732437812
 20
160.5616034212311
 30
0.0
  0
VERTEX
  5
396
330
387
100
AcDbEntity
  8
FORMAT
 62
     7
370
     9
100
AcDbVertex
100
AcDb2dVertex
 10
68.85505640639735
 20
160.552301663421
 30
0.0
  0
SEQEND
  5
397
330
387
100
AcDbEntity
  8
FORMAT
370
     9
  0
ENDBLK
  5
386
330
383
100
AcDbEntity
  8
0
100
AcDbBlockEnd
  0
BLOCK
  5
39A
330
398
100
AcDbEntity
  8
0
100
AcDbBlockBegin
  2
block 86
 70
     0
 71
     0
 10
0.0
 20
0.0
 30
0.0
  3
block 86
  1

  0
POLYLINE
  5
39C
330
398
100
AcDbEntity
  8
FORMAT
 62
     7
370
     9
100
AcDb2dPolyline
 66
     1
 10
0.0
 20
0.0
 30
0.0
  0
VERTEX
  5
39D
330
39C
100
AcDbEntity
  8
FORMAT
 62
     7
370
     9
100
AcDbVertex
100
AcDb2dVertex
 10
66.5585557559298
 20
157.8720173758966
 30
0.0
  0
VERTEX
  5
39E
330
39C
100
AcDbEntity
  8
FORMAT
 62
     7
370
     9
100
AcDbVertex
100
AcDb2dVertex
 10
66.58043211226115
 20
157.8844197196435
 30
0.0
  0
SEQEND
  5
39F
330
39C
100
AcDbEntity
  8
FORMAT
370
     9
  0
ENDBLK
  5
39B
330
398
100
AcDbEntity
  8
0
100
AcDbBlockEnd
  0
BLOCK
  5
3A2
330
3A0
100
AcDbEntity
  8
0
100
AcDbBlockBegin
  2
block 87
 70
     0
 71
     0
 10
0.0
 20
0.0
 30
0.0
  3
block 87
  1

  0
POLYLINE
  5
3A4
330
3A0
100
AcDbEntity
  8
FORMAT
 62
     7
370
     9
100
AcDb2dPolyline
 66
     1
 10
0.0
 20
0.0
 30
0.0
  0
VERTEX
  5
3A5
330
3A4
100
AcDbEntity
  8
FORMAT
 62
     7
370
     9
100
AcDbVertex
100
AcDb2dVertex
 10
66.60902640478872
 20
158.0351426471232
 30
0.0
  0
VERTEX
  5
3A6
330
3A4
100
AcDbEntity
  8
FORMAT
 62
     7
370
     9
100
AcDbVertex
100
AcDb2dVertex
 10
66.62177325808415
 20
158.1572712820753
 30
0.0
  0
VERTEX
  5
3A7
330
3A4
100
AcDbEntity
  8
FORMAT
 62
     7
370
     9
100
AcDbVertex
100
AcDb2dVertex
 10
66.6803398813334
 20
158.4564778249692
 30
0.0
  0
VERTEX
  5
3A8
330
3A4
100
AcDbEntity
  8
FORMAT
 62
     7
370
     9
100
AcDbVertex
100
AcDb2dVertex
 10
66.77594128104907
 20
158.7636080874792
 30
0.0
  0
VERTEX
  5
3A9
330
3A4
100
AcDbEntity
  8
FORMAT
 62
     7
370
     9
100
AcDbVertex
100
AcDb2dVertex
 10
66.90737167381135
 20
159.0679822736011
 30
0.0
  0
VERTEX
  5
3AA
330
3A4
100
AcDbEntity
  8
FORMAT
 62
     7
370
     9
100
AcDbVertex
100
AcDb2dVertex
 10
67.0660183209071
 20
159.3627101923642
 30
0.0
  0
VERTEX
  5
3AB
330
3A4
100
AcDbEntity
  8
FORMAT
 62
     7
370
     9
100
AcDbVertex
100
AcDb2dVertex
 10
67.2539482796275
 20
159.6400403789268
 30
0.0
  0
VERTEX
  5
3AC
330
3A4
100
AcDbEntity
  8
FORMAT
 62
     7
370
     9
100
AcDbVertex
100
AcDb2dVertex
 10
67.4628933208079
 20
159.89153234935
 30
0.0
  0
VERTEX
  5
3AD
330
3A4
100
AcDbEntity
  8
FORMAT
 62
     7
370
     9
100
AcDbVertex
100
AcDb2dVertex
 10
67.6892360941888
 20
160.1106404222119
 30
0.0
  0
VERTEX
  5
3AE
330
3A4
100
AcDbEntity
  8
FORMAT
 62
     7
370
     9
100
AcDbVertex
100
AcDb2dVertex
 10
67.92298582286301
 20
160.2906466613162
 30
0.0
  0
VERTEX
  5
3AF
330
3A4
100
AcDbEntity
  8
FORMAT
 62
     7
370
     9
100
AcDbVertex
100
AcDb2dVertex
 10
68.16121417566804
 20
160.428278225952
 30
0.0
  0
VERTEX
  5
3B0
330
3A4
100
AcDbEntity
  8
FORMAT
 62
     7
370
     9
100
AcDbVertex
100
AcDb2dVertex
 10
68.39496390434223
 20
160.5183674728912
 30
0.0
  0
VERTEX
  5
3B1
330
3A4
100
AcDbEntity
  8
FORMAT
 62
     7
370
     9
100
AcDbVertex
100
AcDb2dVertex
 10
68.61975638475478
 20
160.5590195996172
 30
0.0
  0
VERTEX
  5
3B2
330
3A4
100
AcDbEntity
  8
FORMAT
 62
     7
370
     9
100
AcDbVertex
100
AcDb2dVertex
 10
68.7625555926184
 20
160.5581583257459
 30
0.0
  0
SEQEND
  5
3B3
330
3A4
100
AcDbEntity
  8
FORMAT
370
     9
  0
ENDBLK
  5
3A3
330
3A0
100
AcDbEntity
  8
0
100
AcDbBlockEnd
  0
BLOCK
  5
3B6
330
3B4
100
AcDbEntity
  8
0
100
AcDbBlockBegin
  2
block 88
 70
     0
 71
     0
 10
0.0
 20
0.0
 30
0.0
  3
block 88
  1

  0
POLYLINE
  5
3B8
330
3B4
100
AcDbEntity
  8
FORMAT
 62
     7
370
     9
100
AcDb2dPolyline
 66
     1
 10
0.0
 20
0.0
 30
0.0
  0
VERTEX
  5
3B9
330
3B8
100
AcDbEntity
  8
FORMAT
 62
     7
370
     9
100
AcDbVertex
100
AcDb2dVertex
 10
66.58043211226115
 20
157.8844197196435
 30
0.0
  0
VERTEX
  5
3BA
330
3B8
100
AcDbEntity
  8
FORMAT
 62
     7
370
     9
100
AcDbVertex
100
AcDb2dVertex
 10
66.58043211226115
 20
157.8844197196435
 30
0.0
  0
SEQEND
  5
3BB
330
3B8
100
AcDbEntity
  8
FORMAT
370
     9
  0
ENDBLK
  5
3B7
330
3B4
100
AcDbEntity
  8
0
100
AcDbBlockEnd
  0
BLOCK
  5
3BE
330
3BC
100
AcDbEntity
  8
0
100
AcDbBlockBegin
  2
block 89
 70
     0
 71
     0
 10
0.0
 20
0.0
 30
0.0
  3
block 89
  1

  0
SPLINE
  5
3C0
330
3BC
100
AcDbEntity
  8
FORMAT
 62
     7
370
     9
100
AcDbSpline
210
0.0
220
0.0
230
1.0
 70
     8
 71
     3
 72
     8
 73
     4
 74
     0
 42
0.0000000001
 43
0.0000000001
 40
0.0
 40
0.0
 40
0.0
 40
0.0
 40
1.0
 40
1.0
 40
1.0
 40
1.0
 10
65.50470104699188
 20
161.7279404977625
 30
0.0
 10
64.70044350596031
 20
161.215138034783
 30
0.0
 10
64.19453123395137
 20
160.3414618197237
 30
0.0
 10
64.15319008812837
 20
159.3871703703095
 30
0.0
  0
ENDBLK
  5
3BF
330
3BC
100
AcDbEntity
  8
0
100
AcDbBlockEnd
  0
BLOCK
  5
3C3
330
3C1
100
AcDbEntity
  8
0
100
AcDbBlockBegin
  2
block 90
 70
     0
 71
     0
 10
0.0
 20
0.0
 30
0.0
  3
block 90
  1

  0
POLYLINE
  5
3C5
330
3C1
100
AcDbEntity
  8
FORMAT
 62
     7
370
     9
100
AcDb2dPolyline
 66
     1
 10
0.0
 20
0.0
 30
0.0
  0
VERTEX
  5
3C6
330
3C5
100
AcDbEntity
  8
FORMAT
 62
     7
370
     9
100
AcDbVertex
100
AcDb2dVertex
 10
64.15319008812837
 20
159.2600463469037
 30
0.0
  0
VERTEX
  5
3C7
330
3C5
100
AcDbEntity
  8
FORMAT
 62
     7
370
     9
100
AcDbVertex
100
AcDb2dVertex
 10
64.15319008812837
 20
159.3871703703095
 30
0.0
  0
SEQEND
  5
3C8
330
3C5
100
AcDbEntity
  8
FORMAT
370
     9
  0
ENDBLK
  5
3C4
330
3C1
100
AcDbEntity
  8
0
100
AcDbBlockEnd
  0
BLOCK
  5
3CB
330
3C9
100
AcDbEntity
  8
0
100
AcDbBlockBegin
  2
block 91
 70
     0
 71
     0
 10
0.0
 20
0.0
 30
0.0
  3
block 91
  1

  0
POLYLINE
  5
3CD
330
3C9
100
AcDbEntity
  8
FORMAT
 62
     7
370
     9
100
AcDb2dPolyline
 66
     1
 10
0.0
 20
0.0
 30
0.0
  0
VERTEX
  5
3CE
330
3CD
100
AcDbEntity
  8
FORMAT
 62
     7
370
     9
100
AcDbVertex
100
AcDb2dVertex
 10
66.60747611182036
 20
158.0344536280261
 30
0.0
  0
VERTEX
  5
3CF
330
3CD
100
AcDbEntity
  8
FORMAT
 62
     7
370
     9
100
AcDbVertex
100
AcDb2dVertex
 10
66.64502765260958
 20
158.0122327621463
 30
0.0
  0
SEQEND
  5
3D0
330
3CD
100
AcDbEntity
  8
FORMAT
370
     9
  0
ENDBLK
  5
3CC
330
3C9
100
AcDbEntity
  8
0
100
AcDbBlockEnd
  0
BLOCK
  5
3D3
330
3D1
100
AcDbEntity
  8
0
100
AcDbBlockBegin
  2
block 92
 70
     0
 71
     0
 10
0.0
 20
0.0
 30
0.0
  3
block 92
  1

  0
POLYLINE
  5
3D5
330
3D1
100
AcDbEntity
  8
FORMAT
 62
     7
370
     9
100
AcDb2dPolyline
 66
     1
 10
0.0
 20
0.0
 30
0.0
  0
VERTEX
  5
3D6
330
3D5
100
AcDbEntity
  8
FORMAT
 62
     7
370
     9
100
AcDbVertex
100
AcDb2dVertex
 10
125.4565971908581
 20
124.0613335193319
 30
0.0
  0
VERTEX
  5
3D7
330
3D5
100
AcDbEntity
  8
FORMAT
 62
     7
370
     9
100
AcDbVertex
100
AcDb2dVertex
 10
125.5113742090736
 20
124.0289496217706
 30
0.0
  0
SEQEND
  5
3D8
330
3D5
100
AcDbEntity
  8
FORMAT
370
     9
  0
ENDBLK
  5
3D4
330
3D1
100
AcDbEntity
  8
0
100
AcDbBlockEnd
  0
BLOCK
  5
3DB
330
3D9
100
AcDbEntity
  8
0
100
AcDbBlockBegin
  2
block 93
 70
     0
 71
     0
 10
0.0
 20
0.0
 30
0.0
  3
block 93
  1

  0
POLYLINE
  5
3DD
330
3D9
100
AcDbEntity
  8
FORMAT
 62
     7
370
     9
100
AcDb2dPolyline
 66
     1
 10
0.0
 20
0.0
 30
0.0
  0
VERTEX
  5
3DE
330
3DD
100
AcDbEntity
  8
FORMAT
 62
     7
370
     9
100
AcDbVertex
100
AcDb2dVertex
 10
125.51688636185
 20
124.0716688057876
 30
0.0
  0
VERTEX
  5
3DF
330
3DD
100
AcDbEntity
  8
FORMAT
 62
     7
370
     9
100
AcDbVertex
100
AcDb2dVertex
 10
125.496560298487
 20
124.0840711495345
 30
0.0
  0
SEQEND
  5
3E0
330
3DD
100
AcDbEntity
  8
FORMAT
370
     9
  0
ENDBLK
  5
3DC
330
3D9
100
AcDbEntity
  8
0
100
AcDbBlockEnd
  0
BLOCK
  5
3E3
330
3E1
100
AcDbEntity
  8
0
100
AcDbBlockBegin
  2
block 94
 70
     0
 71
     0
 10
0.0
 20
0.0
 30
0.0
  3
block 94
  1

  0
POLYLINE
  5
3E5
330
3E1
100
AcDbEntity
  8
FORMAT
 62
     7
370
     9
100
AcDb2dPolyline
 66
     1
 10
0.0
 20
0.0
 30
0.0
  0
VERTEX
  5
3E6
330
3E5
100
AcDbEntity
  8
FORMAT
 62
     7
370
     9
100
AcDbVertex
100
AcDb2dVertex
 10
66.6481282385463
 20
158.0558132200347
 30
0.0
  0
VERTEX
  5
3E7
330
3E5
100
AcDbEntity
  8
FORMAT
 62
     7
370
     9
100
AcDbVertex
100
AcDb2dVertex
 10
66.64657794557795
 20
158.0565022391317
 30
0.0
  0
SEQEND
  5
3E8
330
3E5
100
AcDbEntity
  8
FORMAT
370
     9
  0
ENDBLK
  5
3E4
330
3E1
100
AcDbEntity
  8
0
100
AcDbBlockEnd
  0
ENDSEC
  0
SECTION
  2
ENTITIES
  0
INSERT
  5
3E
330
1F
100
AcDbEntity
  8
FORMAT
100
AcDbBlockReference
  2
block 2
 10
0.0
 20
0.0
 30
0.0
  0
ENDSEC
  0
SECTION
  2
OBJECTS
  0
DICTIONARY
  5
C
330
0
100
AcDbDictionary
281
     1
  3
ACAD_GROUP
350
D
  3
ACAD_LAYOUT
350
1A
  3
ACAD_MLINESTYLE
350
17
  3
ACAD_PLOTSETTINGS
350
19
  3
ACAD_PLOTSTYLENAME
350
E
  3
ACAD_TABLESTYLE
350
3E9
  3
ACAD_VISUALSTYLE
350
2A
  0
DICTIONARY
  5
D
102
{ACAD_REACTORS
330
C
102
}
330
C
100
AcDbDictionary
281
     1
  0
DICTIONARY
  5
1A
102
{ACAD_REACTORS
330
C
102
}
330
C
100
AcDbDictionary
281
     1
  3
Layout1
350
1E
  3
Layout2
350
26
  3
Model
350
22
  0
DICTIONARY
  5
17
102
{ACAD_REACTORS
330
C
102
}
330
C
100
AcDbDictionary
281
     1
  3
Standard
350
18
  0
DICTIONARY
  5
19
102
{ACAD_REACTORS
330
C
102
}
330
C
100
AcDbDictionary
281
     1
  0
ACDBDICTIONARYWDFLT
  5
E
102
{ACAD_REACTORS
330
C
102
}
330
C
100
AcDbDictionary
281
     1
  3
Normal
350
F
100
AcDbDictionaryWithDefault
340
F
  0
DICTIONARY
  5
3E9
102
{ACAD_REACTORS
330
C
102
}
330
C
100
AcDbDictionary
281
     1
  0
DICTIONARY
  5
2A
102
{ACAD_REACTORS
330
C
102
}
330
C
100
AcDbDictionary
281
     1
  3
2dWireframe
350
2F
  3
3D Hidden
350
31
  3
3dWireframe
350
30
  3
Basic
350
32
  3
Brighten
350
36
  3
ColorChange
350
3A
  3
Conceptual
350
34
  3
Dim
350
35
  3
Facepattern
350
39
  3
Flat
350
2B
  3
FlatWithEdges
350
2C
  3
Gouraud
350
2D
  3
GouraudWithEdges
350
2E
  3
Linepattern
350
38
  3
Realistic
350
33
  3
Thicken
350
37
  0
LAYOUT
  5
1E
102
{ACAD_REACTORS
330
1A
102
}
330
1A
100
AcDbPlotSettings
  1

  2
none_device
  4

  6

 40
0.0
 41
0.0
 42
0.0
 43
0.0
 44
0.0
 45
0.0
 46
0.0
 47
0.0
 48
0.0
 49
0.0
140
0.0
141
0.0
142
1.0
143
1.0
 70
   688
 72
     0
 73
     0
 74
     5
  7

 75
    16
147
1.0
148
0.0
149
0.0
100
AcDbLayout
  1
Layout1
 70
     1
 71
     1
 10
0.0
 20
0.0
 11
12.0
 21
9.0
 12
0.0
 22
0.0
 32
0.0
 14
1.000000000000000E+20
 24
1.000000000000000E+20
 34
1.000000000000000E+20
 15
-1.000000000000000E+20
 25
-1.000000000000000E+20
 35
-1.000000000000000E+20
146
0.0
 13
0.0
 23
0.0
 33
0.0
 16
1.0
 26
0.0
 36
0.0
 17
0.0
 27
1.0
 37
0.0
 76
     0
330
1B
  0
LAYOUT
  5
26
102
{ACAD_REACTORS
330
1A
102
}
330
1A
100
AcDbPlotSettings
  1

  2
none_device
  4

  6

 40
0.0
 41
0.0
 42
0.0
 43
0.0
 44
0.0
 45
0.0
 46
0.0
 47
0.0
 48
0.0
 49
0.0
140
0.0
141
0.0
142
1.0
143
1.0
 70
   688
 72
     0
 73
     0
 74
     5
  7

 75
    16
147
1.0
148
0.0
149
0.0
100
AcDbLayout
  1
Layout2
 70
     1
 71
     2
 10
0.0
 20
0.0
 11
0.0
 21
0.0
 12
0.0
 22
0.0
 32
0.0
 14
0.0
 24
0.0
 34
0.0
 15
0.0
 25
0.0
 35
0.0
146
0.0
 13
0.0
 23
0.0
 33
0.0
 16
1.0
 26
0.0
 36
0.0
 17
0.0
 27
1.0
 37
0.0
 76
     0
330
23
  0
LAYOUT
  5
22
102
{ACAD_REACTORS
330
1A
102
}
330
1A
100
AcDbPlotSettings
  1

  2
none_device
  4

  6

 40
0.0
 41
0.0
 42
0.0
 43
0.0
 44
0.0
 45
0.0
 46
0.0
 47
0.0
 48
0.0
 49
0.0
140
0.0
141
0.0
142
1.0
143
1.0
 70
  1712
 72
     0
 73
     0
 74
     0
  7

 75
     0
147
1.0
148
0.0
149
0.0
100
AcDbLayout
  1
Model
 70
     1
 71
     0
 10
0.0
 20
0.0
 11
12.0
 21
9.0
 12
0.0
 22
0.0
 32
0.0
 14
1.000000000000000E+20
 24
1.000000000000000E+20
 34
1.000000000000000E+20
 15
-1.000000000000000E+20
 25
-1.000000000000000E+20
 35
-1.000000000000000E+20
146
0.0
 13
0.0
 23
0.0
 33
0.0
 16
1.0
 26
0.0
 36
0.0
 17
0.0
 27
1.0
 37
0.0
 76
     0
330
1F
331
29
  0
MLINESTYLE
  5
18
102
{ACAD_REACTORS
330
17
102
}
330
17
100
AcDbMlineStyle
  2
Standard
 70
     0
  3

 62
   256
 51
90.0
 52
90.0
 71
     2
 49
0.5
 62
   256
  6
BYLAYER
 49
-0.5
 62
   256
  6
BYLAYER
  0
ACDBPLACEHOLDER
  5
F
102
{ACAD_REACTORS
330
E
102
}
330
E
  0
VISUALSTYLE
  5
2F
102
{ACAD_REACTORS
330
2A
102
}
330
2A
100
AcDbVisualStyle
  2
2dWireframe
 70
     4
 71
     0
 72
     2
 73
     0
 90
        0
 40
-0.6
 41
-30.0
 62
     5
 63
     7
 74
     1
 91
        4
 64
     7
 65
   257
 75
     1
175
     1
 42
1.0
 92
        0
 66
   257
 43
1.0
 76
     1
 77
     6
 78
     2
 67
     7
 79
     5
170
     0
171
     0
290
     0
174
     0
 93
        1
 44
0.0
173
     0
291
     0
 45
0.0
1001
ACAD
1000
AcDbSavedByObjectVersion
1070
     0
  0
VISUALSTYLE
  5
31
102
{ACAD_REACTORS
330
2A
102
}
330
2A
100
AcDbVisualStyle
  2
3D Hidden
 70
     6
 71
     1
 72
     2
 73
     2
 90
        0
 40
-0.6
 41
-30.0
 62
     5
 63
     7
 74
     2
 91
        2
 64
     7
 65
   257
 75
     2
175
     1
 42
40.0
 92
        0
 66
   257
 43
1.0
 76
     1
 77
     6
 78
     2
 67
     7
 79
     3
170
     0
171
     0
290
     0
174
     0
 93
        1
 44
0.0
173
     0
291
     0
 45
0.0
1001
ACAD
1000
AcDbSavedByObjectVersion
1070
     0
  0
VISUALSTYLE
  5
30
102
{ACAD_REACTORS
330
2A
102
}
330
2A
100
AcDbVisualStyle
  2
3dWireframe
 70
     5
 71
     0
 72
     2
 73
     0
 90
        0
 40
-0.6
 41
-30.0
 62
     5
 63
     7
 74
     1
 91
        4
 64
     7
 65
   257
 75
     1
175
     1
 42
1.0
 92
        0
 66
   257
 43
1.0
 76
     1
 77
     6
 78
     2
 67
     7
 79
     5
170
     0
171
     0
290
     0
174
     0
 93
        1
 44
0.0
173
     0
291
     0
 45
0.0
1001
ACAD
1000
AcDbSavedByObjectVersion
1070
     0
  0
VISUALSTYLE
  5
32
102
{ACAD_REACTORS
330
2A
102
}
330
2A
100
AcDbVisualStyle
  2
Basic
 70
     7
 71
     1
 72
     0
 73
     1
 90
        0
 40
-0.6
 41
-30.0
 62
     5
 63
     7
 74
     0
 91
        4
 64
     7
 65
   257
 75
     1
175
     1
 42
1.0
 92
        8
 66
     7
 43
1.0
 76
     1
 77
     6
 78
     2
 67
     7
 79
     5
170
     0
171
     0
290
     0
174
     0
 93
        1
 44
0.0
173
     0
291
     1
 45
0.0
1001
ACAD
1000
AcDbSavedByObjectVersion
1070
     0
  0
VISUALSTYLE
  5
36
102
{ACAD_REACTORS
330
2A
102
}
330
2A
100
AcDbVisualStyle
  2
Brighten
 70
    12
 71
     2
 72
     2
 73
     0
 90
        0
 40
-0.6
 41
-30.0
 62
     5
 63
     7
 74
     1
 91
        4
 64
     7
 65
   257
 75
     1
175
     1
 42
1.0
 92
        8
 66
     7
 43
1.0
 76
     1
 77
     6
 78
     2
 67
     7
 79
     5
170
     0
171
     0
290
     0
174
     0
 93
        1
 44
50.0
173
     0
291
     1
 45
0.0
1001
ACAD
1000
AcDbSavedByObjectVersion
1070
     0
  0
VISUALSTYLE
  5
3A
102
{ACAD_REACTORS
330
2A
102
}
330
2A
100
AcDbVisualStyle
  2
ColorChange
 70
    16
 71
     2
 72
     2
 73
     3
 90
        0
 40
-0.6
 41
-30.0
 62
     5
 63
     8
 74
     1
 91
        4
 64
     7
 65
   257
 75
     1
175
     1
 42
1.0
 92
        8
 66
     8
 43
1.0
 76
     1
 77
     6
 78
     2
 67
     7
 79
     5
170
     0
171
     0
290
     0
174
     0
 93
        1
 44
0.0
173
     0
291
     1
 45
0.0
1001
ACAD
1000
AcDbSavedByObjectVersion
1070
     0
  0
VISUALSTYLE
  5
34
102
{ACAD_REACTORS
330
2A
102
}
330
2A
100
AcDbVisualStyle
  2
Conceptual
 70
     9
 71
     3
 72
     2
 73
     0
 90
        0
 40
-0.6
 41
-30.0
 62
     5
 63
     7
 74
     2
 91
        2
 64
     7
 65
   257
 75
     1
175
     1
 42
40.0
 92
        8
 66
     7
 43
1.0
 76
     1
 77
     6
 78
     2
 67
     7
 79
     3
170
     0
171
     0
290
     0
174
     0
 93
        1
 44
0.0
173
     0
291
     0
 45
0.0
1001
ACAD
1000
AcDbSavedByObjectVersion
1070
     0
  0
VISUALSTYLE
  5
35
102
{ACAD_REACTORS
330
2A
102
}
330
2A
100
AcDbVisualStyle
  2
Dim
 70
    11
 71
     2
 72
     2
 73
     0
 90
        0
 40
-0.6
 41
-30.0
 62
     5
 63
     7
 74
     1
 91
        4
 64
     7
 65
   257
 75
     1
175
     1
 42
1.0
 92
        8
 66
     7
 43
1.0
 76
     1
 77
     6
 78
     2
 67
     7
 79
     5
170
     0
171
     0
290
     0
174
     0
 93
        1
 44
-50.0
173
     0
291
     1
 45
0.0
1001
ACAD
1000
AcDbSavedByObjectVersion
1070
     0
  0
VISUALSTYLE
  5
39
102
{ACAD_REACTORS
330
2A
102
}
330
2A
100
AcDbVisualStyle
  2
Facepattern
 70
    15
 71
     2
 72
     2
 73
     0
 90
        0
 40
-0.6
 41
-30.0
 62
     5
 63
     7
 74
     1
 91
        4
 64
     7
 65
   257
 75
     1
175
     1
 42
1.0
 92
        8
 66
     7
 43
1.0
 76
     1
 77
     6
 78
     2
 67
     7
 79
     5
170
     0
171
     0
290
     0
174
     0
 93
        1
 44
0.0
173
     0
291
     1
 45
0.0
1001
ACAD
1000
AcDbSavedByObjectVersion
1070
     0
  0
VISUALSTYLE
  5
2B
102
{ACAD_REACTORS
330
2A
102
}
330
2A
100
AcDbVisualStyle
  2
Flat
 70
     0
 71
     2
 72
     1
 73
     1
 90
        2
 40
-0.6
 41
30.0
 62
     5
 63
     7
 74
     0
 91
        4
 64
     7
 65
   257
 75
     1
175
     1
 42
1.0
 92
        8
 66
     7
 43
1.0
 76
     1
 77
     6
 78
     2
 67
     7
 79
     5
170
     0
171
     0
290
     0
174
     0
 93
       13
 44
0.0
173
     0
291
     1
 45
0.0
1001
ACAD
1000
AcDbSavedByObjectVersion
1070
     0
  0
VISUALSTYLE
  5
2C
102
{ACAD_REACTORS
330
2A
102
}
330
2A
100
AcDbVisualStyle
  2
FlatWithEdges
 70
     1
 71
     2
 72
     1
 73
     1
 90
        2
 40
-0.6
 41
30.0
 62
     5
 63
     7
 74
     1
 91
        4
 64
     7
 65
   257
 75
     1
175
     1
 42
1.0
 92
        0
 66
   257
 43
1.0
 76
     1
 77
     6
 78
     2
 67
     7
 79
     5
170
     0
171
     0
290
     0
174
     0
 93
       13
 44
0.0
173
     0
291
     1
 45
0.0
1001
ACAD
1000
AcDbSavedByObjectVersion
1070
     0
  0
VISUALSTYLE
  5
2D
102
{ACAD_REACTORS
330
2A
102
}
330
2A
100
AcDbVisualStyle
  2
Gouraud
 70
     2
 71
     2
 72
     2
 73
     1
 90
        2
 40
-0.6
 41
30.0
 62
     5
 63
     7
 74
     0
 91
        4
 64
     7
 65
   257
 75
     1
175
     1
 42
1.0
 92
        0
 66
     7
 43
1.0
 76
     1
 77
     6
 78
     2
 67
     7
 79
     5
170
     0
171
     0
290
     0
174
     0
 93
       13
 44
0.0
173
     0
291
     1
 45
0.0
1001
ACAD
1000
AcDbSavedByObjectVersion
1070
     0
  0
VISUALSTYLE
  5
2E
102
{ACAD_REACTORS
330
2A
102
}
330
2A
100
AcDbVisualStyle
  2
GouraudWithEdges
 70
     3
 71
     2
 72
     2
 73
     1
 90
        2
 40
-0.6
 41
30.0
 62
     5
 63
     7
 74
     1
 91
        4
 64
     7
 65
   257
 75
     1
175
     1
 42
1.0
 92
        0
 66
   257
 43
1.0
 76
     1
 77
     6
 78
     2
 67
     7
 79
     5
170
     0
171
     0
290
     0
174
     0
 93
       13
 44
0.0
173
     0
291
     1
 45
0.0
1001
ACAD
1000
AcDbSavedByObjectVersion
1070
     0
  0
VISUALSTYLE
  5
38
102
{ACAD_REACTORS
330
2A
102
}
330
2A
100
AcDbVisualStyle
  2
Linepattern
 70
    14
 71
     2
 72
     2
 73
     0
 90
        0
 40
-0.6
 41
-30.0
 62
     5
 63
     7
 74
     1
 91
        4
 64
     7
 65
   257
 75
     7
175
     7
 42
1.0
 92
        8
 66
     7
 43
1.0
 76
     1
 77
     6
 78
     2
 67
     7
 79
     5
170
     0
171
     0
290
     0
174
     0
 93
        1
 44
0.0
173
     0
291
     1
 45
0.0
1001
ACAD
1000
AcDbSavedByObjectVersion
1070
     0
  0
VISUALSTYLE
  5
33
102
{ACAD_REACTORS
330
2A
102
}
330
2A
100
AcDbVisualStyle
  2
Realistic
 70
     8
 71
     2
 72
     2
 73
     0
 90
        0
 40
-0.6
 41
-30.0
 62
     5
 63
     7
 74
     1
 91
        0
 64
     7
 65
   257
 75
     1
175
     1
 42
1.0
 92
        8
 66
     8
 43
1.0
 76
     1
 77
     6
 78
     2
 67
     7
 79
     5
170
     0
171
     0
290
     0
174
     0
 93
       13
 44
0.0
173
     0
291
     0
 45
0.0
1001
ACAD
1000
AcDbSavedByObjectVersion
1070
     0
  0
VISUALSTYLE
  5
37
102
{ACAD_REACTORS
330
2A
102
}
330
2A
100
AcDbVisualStyle
  2
Thicken
 70
    13
 71
     2
 72
     2
 73
     0
 90
        0
 40
-0.6
 41
-30.0
 62
     5
 63
     7
 74
     1
 91
        4
 64
     7
 65
   257
 75
     1
175
     1
 42
1.0
 92
       12
 66
     7
 43
1.0
 76
     1
 77
     6
 78
     2
 67
     7
 79
     5
170
     0
171
     0
290
     0
174
     0
 93
        1
 44
0.0
173
     0
291
     1
 45
0.0
1001
ACAD
1000
AcDbSavedByObjectVersion
1070
     0
  0
ENDSEC
  0
EOF
