  0
SECTION
  2
HEADER
  9
$ACADVER
  1
AC1015
  9
$ACADMAINTVER
 70
    20
  9
$DWGCODEPAGE
  3
ANSI_932
  9
$INSBASE
 10
0.0
 20
0.0
 30
0.0
  9
$EXTMIN
 10
25.4744140561314
 20
74.1990885231169
 30
0.0
  9
$EXTMAX
 10
185.3178873234621
 20
253.1922972999832
 30
0.0
  9
$LIMMIN
 10
0.0
 20
0.0
  9
$LIMMAX
 10
12.0
 20
9.0
  9
$ORTHOMODE
 70
     0
  9
$REGENMODE
 70
     1
  9
$FILLMODE
 70
     1
  9
$QTEXTMODE
 70
     0
  9
$MIRRTEXT
 70
     1
  9
$LTSCALE
 40
1.0
  9
$ATTMODE
 70
     1
  9
$TEXTSIZE
 40
0.2
  9
$TRACEWID
 40
0.05
  9
$TEXTSTYLE
  7
Standard
  9
$CLAYER
  8
0
  9
$CELTYPE
  6
ByLayer
  9
$CECOLOR
 62
   256
  9
$CELTSCALE
 40
1.0
  9
$DISPSILH
 70
     0
  9
$DIMSCALE
 40
1.0
  9
$DIMASZ
 40
0.18
  9
$DIMEXO
 40
0.0625
  9
$DIMDLI
 40
0.38
  9
$DIMRND
 40
0.0
  9
$DIMDLE
 40
0.0
  9
$DIMEXE
 40
0.18
  9
$DIMTP
 40
0.0
  9
$DIMTM
 40
0.0
  9
$DIMTXT
 40
0.18
  9
$DIMCEN
 40
0.09
  9
$DIMTSZ
 40
0.0
  9
$DIMTOL
 70
     0
  9
$DIMLIM
 70
     0
  9
$DIMTIH
 70
     1
  9
$DIMTOH
 70
     1
  9
$DIMSE1
 70
     0
  9
$DIMSE2
 70
     0
  9
$DIMTAD
 70
     0
  9
$DIMZIN
 70
     0
  9
$DIMBLK
  1

  9
$DIMASO
 70
     1
  9
$DIMSHO
 70
     1
  9
$DIMPOST
  1

  9
$DIMAPOST
  1

  9
$DIMALT
 70
     0
  9
$DIMALTD
 70
     2
  9
$DIMALTF
 40
25.4
  9
$DIMLFAC
 40
1.0
  9
$DIMTOFL
 70
     0
  9
$DIMTVP
 40
0.0
  9
$DIMTIX
 70
     0
  9
$DIMSOXD
 70
     0
  9
$DIMSAH
 70
     0
  9
$DIMBLK1
  1

  9
$DIMBLK2
  1

  9
$DIMSTYLE
  2
Standard
  9
$DIMCLRD
 70
     0
  9
$DIMCLRE
 70
     0
  9
$DIMCLRT
 70
     0
  9
$DIMTFAC
 40
1.0
  9
$DIMGAP
 40
0.09
  9
$DIMJUST
 70
     0
  9
$DIMSD1
 70
     0
  9
$DIMSD2
 70
     0
  9
$DIMTOLJ
 70
     1
  9
$DIMTZIN
 70
     0
  9
$DIMALTZ
 70
     0
  9
$DIMALTTZ
 70
     0
  9
$DIMUPT
 70
     0
  9
$DIMDEC
 70
     4
  9
$DIMTDEC
 70
     4
  9
$DIMALTU
 70
     2
  9
$DIMALTTD
 70
     2
  9
$DIMTXSTY
  7
Standard
  9
$DIMAUNIT
 70
     0
  9
$DIMADEC
 70
     0
  9
$DIMALTRND
 40
0.0
  9
$DIMAZIN
 70
     0
  9
$DIMDSEP
 70
    46
  9
$DIMATFIT
 70
     3
  9
$DIMFRAC
 70
     0
  9
$DIMLDRBLK
  1

  9
$DIMLUNIT
 70
     2
  9
$DIMLWD
 70
    -2
  9
$DIMLWE
 70
    -2
  9
$DIMTMOVE
 70
     0
  9
$LUNITS
 70
     2
  9
$LUPREC
 70
     4
  9
$SKETCHINC
 40
0.1
  9
$FILLETRAD
 40
0.5
  9
$AUNITS
 70
     0
  9
$AUPREC
 70
     0
  9
$MENU
  1
.
  9
$ELEVATION
 40
0.0
  9
$PELEVATION
 40
0.0
  9
$THICKNESS
 40
0.0
  9
$LIMCHECK
 70
     0
  9
$CHAMFERA
 40
0.5
  9
$CHAMFERB
 40
0.5
  9
$CHAMFERC
 40
1.0
  9
$CHAMFERD
 40
0.0
  9
$SKPOLY
 70
     0
  9
$TDCREATE
 40
2457192.724986563
  9
$TDUCREATE
 40
2457192.349986563
  9
$TDUPDATE
 40
2458548.720269653
  9
$TDUUPDATE
 40
2458548.345269653
  9
$TDINDWG
 40
0.0002412616
  9
$TDUSRTIMER
 40
0.0002410764
  9
$USRTIMER
 70
     1
  9
$ANGBASE
 50
0.0
  9
$ANGDIR
 70
     0
  9
$PDMODE
 70
     0
  9
$PDSIZE
 40
0.0
  9
$PLINEWID
 40
0.0
  9
$SPLFRAME
 70
     0
  9
$SPLINETYPE
 70
     6
  9
$SPLINESEGS
 70
     8
  9
$HANDSEED
  5
323
  9
$SURFTAB1
 70
     6
  9
$SURFTAB2
 70
     6
  9
$SURFTYPE
 70
     6
  9
$SURFU
 70
     6
  9
$SURFV
 70
     6
  9
$UCSBASE
  2

  9
$UCSNAME
  2

  9
$UCSORG
 10
0.0
 20
0.0
 30
0.0
  9
$UCSXDIR
 10
1.0
 20
0.0
 30
0.0
  9
$UCSYDIR
 10
0.0
 20
1.0
 30
0.0
  9
$UCSORTHOREF
  2

  9
$UCSORTHOVIEW
 70
     0
  9
$UCSORGTOP
 10
0.0
 20
0.0
 30
0.0
  9
$UCSORGBOTTOM
 10
0.0
 20
0.0
 30
0.0
  9
$UCSORGLEFT
 10
0.0
 20
0.0
 30
0.0
  9
$UCSORGRIGHT
 10
0.0
 20
0.0
 30
0.0
  9
$UCSORGFRONT
 10
0.0
 20
0.0
 30
0.0
  9
$UCSORGBACK
 10
0.0
 20
0.0
 30
0.0
  9
$PUCSBASE
  2

  9
$PUCSNAME
  2

  9
$PUCSORG
 10
0.0
 20
0.0
 30
0.0
  9
$PUCSXDIR
 10
1.0
 20
0.0
 30
0.0
  9
$PUCSYDIR
 10
0.0
 20
1.0
 30
0.0
  9
$PUCSORTHOREF
  2

  9
$PUCSORTHOVIEW
 70
     0
  9
$PUCSORGTOP
 10
0.0
 20
0.0
 30
0.0
  9
$PUCSORGBOTTOM
 10
0.0
 20
0.0
 30
0.0
  9
$PUCSORGLEFT
 10
0.0
 20
0.0
 30
0.0
  9
$PUCSORGRIGHT
 10
0.0
 20
0.0
 30
0.0
  9
$PUCSORGFRONT
 10
0.0
 20
0.0
 30
0.0
  9
$PUCSORGBACK
 10
0.0
 20
0.0
 30
0.0
  9
$USERI1
 70
     0
  9
$USERI2
 70
     0
  9
$USERI3
 70
     0
  9
$USERI4
 70
     0
  9
$USERI5
 70
     0
  9
$USERR1
 40
0.0
  9
$USERR2
 40
0.0
  9
$USERR3
 40
0.0
  9
$USERR4
 40
0.0
  9
$USERR5
 40
0.0
  9
$WORLDVIEW
 70
     1
  9
$SHADEDGE
 70
     3
  9
$SHADEDIF
 70
    70
  9
$TILEMODE
 70
     1
  9
$MAXACTVP
 70
    64
  9
$PINSBASE
 10
0.0
 20
0.0
 30
0.0
  9
$PLIMCHECK
 70
     0
  9
$PEXTMIN
 10
1.000000000000000E+20
 20
1.000000000000000E+20
 30
1.000000000000000E+20
  9
$PEXTMAX
 10
-1.000000000000000E+20
 20
-1.000000000000000E+20
 30
-1.000000000000000E+20
  9
$PLIMMIN
 10
0.0
 20
0.0
  9
$PLIMMAX
 10
12.0
 20
9.0
  9
$UNITMODE
 70
     0
  9
$VISRETAIN
 70
     1
  9
$PLINEGEN
 70
     0
  9
$PSLTSCALE
 70
     1
  9
$TREEDEPTH
 70
  3020
  9
$CMLSTYLE
  2
Standard
  9
$CMLJUST
 70
     0
  9
$CMLSCALE
 40
1.0
  9
$PROXYGRAPHICS
 70
     1
  9
$MEASUREMENT
 70
     0
  9
$CELWEIGHT
370
    -1
  9
$ENDCAPS
280
     0
  9
$JOINSTYLE
280
     0
  9
$LWDISPLAY
290
     1
  9
$INSUNITS
 70
     1
  9
$HYPERLINKBASE
  1

  9
$STYLESHEET
  1

  9
$XEDIT
290
     1
  9
$CEPSNTYPE
380
     0
  9
$PSTYLEMODE
290
     1
  9
$FINGERPRINTGUID
  2
{78719D09-4EBD-41FF-8299-56C798144B36}
  9
$VERSIONGUID
  2
{703B0C41-9682-436F-A530-30E00EC53872}
  9
$EXTNAMES
290
     1
  9
$PSVPSCALE
 40
0.0
  9
$OLESTARTUP
290
     0
  0
ENDSEC
  0
SECTION
  2
CLASSES
  0
CLASS
  1
ACDBDICTIONARYWDFLT
  2
AcDbDictionaryWithDefault
  3
ObjectDBX Classes
 90
        0
280
     0
281
     0
  0
CLASS
  1
VISUALSTYLE
  2
AcDbVisualStyle
  3
ObjectDBX Classes
 90
     4095
280
     0
281
     0
  0
CLASS
  1
MATERIAL
  2
AcDbMaterial
  3
ObjectDBX Classes
 90
     1153
280
     0
281
     0
  0
CLASS
  1
TABLESTYLE
  2
AcDbTableStyle
  3
ObjectDBX Classes
 90
     4095
280
     0
281
     0
  0
CLASS
  1
SCALE
  2
AcDbScale
  3
ObjectDBX Classes
 90
     1153
280
     0
281
     0
  0
CLASS
  1
MLEADERSTYLE
  2
AcDbMLeaderStyle
  3
ACDB_MLEADERSTYLE_CLASS
 90
     4095
280
     0
281
     0
  0
CLASS
  1
ACDBSECTIONVIEWSTYLE
  2
AcDbSectionViewStyle
  3
ObjectDBX Classes
 90
     1025
280
     0
281
     0
  0
CLASS
  1
ACDBDETAILVIEWSTYLE
  2
AcDbDetailViewStyle
  3
ObjectDBX Classes
 90
     1025
280
     0
281
     0
  0
CLASS
  1
DICTIONARYVAR
  2
AcDbDictionaryVar
  3
ObjectDBX Classes
 90
        0
280
     0
281
     0
  0
CLASS
  1
CELLSTYLEMAP
  2
AcDbCellStyleMap
  3
ObjectDBX Classes
 90
     1152
280
     0
281
     0
  0
CLASS
  1
ACDBPLACEHOLDER
  2
AcDbPlaceHolder
  3
ObjectDBX Classes
 90
        0
280
     0
281
     0
  0
CLASS
  1
LAYOUT
  2
AcDbLayout
  3
ObjectDBX Classes
 90
        0
280
     0
281
     0
  0
ENDSEC
  0
SECTION
  2
TABLES
  0
TABLE
  2
VPORT
  5
8
330
0
100
AcDbSymbolTable
 70
     1
  0
VPORT
  5
29
330
8
100
AcDbSymbolTableRecord
100
AcDbViewportTableRecord
  2
*Active
 70
     0
 10
0.0
 20
0.0
 11
1.0
 21
1.0
 12
186.9686781307679
 22
0.0
 13
0.0
 23
0.0
 14
0.5
 24
0.5
 15
0.5
 25
0.5
 16
0.0
 26
0.0
 36
1.0
 17
105.0001369637673
 27
148.5000657452101
 37
0.0
 40
259.2278070752283
 41
2.252941176470588
 42
50.0
 43
0.0
 44
0.0
 50
0.0
 51
0.0
 71
     0
 72
   100
 73
     1
 74
     3
 75
     0
 76
     0
 77
     0
 78
     0
281
     0
 65
     1
110
0.0
120
0.0
130
0.0
111
1.0
121
0.0
131
0.0
112
0.0
122
1.0
132
0.0
 79
     0
146
0.0
1001
ACAD_NAV_VCDISPLAY
1070
     3
  0
ENDTAB
  0
TABLE
  2
LTYPE
  5
5
330
0
100
AcDbSymbolTable
 70
     2
  0
LTYPE
  5
14
330
5
100
AcDbSymbolTableRecord
100
AcDbLinetypeTableRecord
  2
ByBlock
 70
     0
  3

 72
    65
 73
     0
 40
0.0
  0
LTYPE
  5
15
330
5
100
AcDbSymbolTableRecord
100
AcDbLinetypeTableRecord
  2
ByLayer
 70
     0
  3

 72
    65
 73
     0
 40
0.0
  0
LTYPE
  5
16
330
5
100
AcDbSymbolTableRecord
100
AcDbLinetypeTableRecord
  2
Continuous
 70
     0
  3
Solid line
 72
    65
 73
     0
 40
0.0
  0
LTYPE
  5
2C7
330
5
100
AcDbSymbolTableRecord
100
AcDbLinetypeTableRecord
  2
PHANTOM2
 70
     0
  3
___ _ _ ___ _ _ ___ _ _ ___ _ _
 72
    65
 73
     6
 40
1.25
 49
0.625
 74
     0
 49
-0.125
 74
     0
 49
0.125
 74
     0
 49
-0.125
 74
     0
 49
0.125
 74
     0
 49
-0.125
 74
     0
  0
ENDTAB
  0
TABLE
  2
LAYER
  5
2
330
0
100
AcDbSymbolTable
 70
     3
  0
LAYER
  5
10
102
{ACAD_XDICTIONARY
360
2CE
102
}
330
2
100
AcDbSymbolTableRecord
100
AcDbLayerTableRecord
  2
0
 70
     0
 62
     7
  6
Continuous
370
    -3
390
F
  0
LAYER
  5
3B
102
{ACAD_XDICTIONARY
360
2D0
102
}
330
2
100
AcDbSymbolTableRecord
100
AcDbLayerTableRecord
  2
レイヤー 1
 70
     0
 62
     7
  6
Continuous
370
    -3
390
F
  0
LAYER
  5
3C
102
{ACAD_XDICTIONARY
360
2D2
102
}
330
2
100
AcDbSymbolTableRecord
100
AcDbLayerTableRecord
  2
レイヤー 2
 70
     0
 62
     7
  6
Continuous
370
    -3
390
F
  0
ENDTAB
  0
TABLE
  2
STYLE
  5
3
330
0
100
AcDbSymbolTable
 70
     1
  0
STYLE
  5
11
330
3
100
AcDbSymbolTableRecord
100
AcDbTextStyleTableRecord
  2
Standard
 70
     0
 40
0.0
 41
1.0
 50
0.0
 71
     0
 42
0.2
  3
txt
  4

  0
ENDTAB
  0
TABLE
  2
VIEW
  5
6
330
0
100
AcDbSymbolTable
 70
     0
  0
ENDTAB
  0
TABLE
  2
UCS
  5
7
330
0
100
AcDbSymbolTable
 70
     0
  0
ENDTAB
  0
TABLE
  2
APPID
  5
9
330
0
100
AcDbSymbolTable
 70
     3
  0
APPID
  5
12
330
9
100
AcDbSymbolTableRecord
100
AcDbRegAppTableRecord
  2
ACAD
 70
     0
  0
APPID
  5
2DF
330
9
100
AcDbSymbolTableRecord
100
AcDbRegAppTableRecord
  2
ACAD_NAV_VCDISPLAY
 70
     0
  0
APPID
  5
322
330
9
100
AcDbSymbolTableRecord
100
AcDbRegAppTableRecord
  2
ACAD_MLEADERVER
 70
     0
  0
ENDTAB
  0
TABLE
  2
DIMSTYLE
  5
A
330
0
100
AcDbSymbolTable
 70
     1
100
AcDbDimStyleTable
 71
     0
  0
DIMSTYLE
105
27
330
A
100
AcDbSymbolTableRecord
100
AcDbDimStyleTableRecord
  2
Standard
 70
     0
340
11
  0
ENDTAB
  0
TABLE
  2
BLOCK_RECORD
  5
1
330
0
100
AcDbSymbolTable
 70
     1
  0
BLOCK_RECORD
  5
1F
330
1
100
AcDbSymbolTableRecord
100
AcDbBlockTableRecord
  2
*Model_Space
340
22
  0
BLOCK_RECORD
  5
1B
330
1
100
AcDbSymbolTableRecord
100
AcDbBlockTableRecord
  2
*Paper_Space
340
1E
  0
BLOCK_RECORD
  5
23
330
1
100
AcDbSymbolTableRecord
100
AcDbBlockTableRecord
  2
*Paper_Space0
340
26
  0
ENDTAB
  0
ENDSEC
  0
SECTION
  2
BLOCKS
  0
BLOCK
  5
20
330
1F
100
AcDbEntity
  8
0
100
AcDbBlockBegin
  2
*Model_Space
 70
     0
 10
0.0
 20
0.0
 30
0.0
  3
*Model_Space
  1

  0
ENDBLK
  5
21
330
1F
100
AcDbEntity
  8
0
100
AcDbBlockEnd
  0
BLOCK
  5
1C
330
1B
100
AcDbEntity
 67
     1
  8
0
100
AcDbBlockBegin
  2
*Paper_Space
 70
     0
 10
0.0
 20
0.0
 30
0.0
  3
*Paper_Space
  1

  0
ENDBLK
  5
1D
330
1B
100
AcDbEntity
 67
     1
  8
0
100
AcDbBlockEnd
  0
BLOCK
  5
24
330
23
100
AcDbEntity
 67
     1
  8
0
100
AcDbBlockBegin
  2
*Paper_Space0
 70
     0
 10
0.0
 20
0.0
 30
0.0
  3
*Paper_Space0
  1

  0
ENDBLK
  5
25
330
23
100
AcDbEntity
 67
     1
  8
0
100
AcDbBlockEnd
  0
ENDSEC
  0
SECTION
  2
ENTITIES
  0
POLYLINE
  5
3D
330
1F
100
AcDbEntity
  8
レイヤー 2
370
    25
100
AcDb2dPolyline
 66
     1
 10
0.0
 20
0.0
 30
0.0
  0
VERTEX
  5
3E
330
3D
100
AcDbEntity
  8
レイヤー 2
370
    25
100
AcDbVertex
100
AcDb2dVertex
 10
154.0009358338956
 20
234.7727497785464
 30
0.0
  0
VERTEX
  5
3F
330
3D
100
AcDbEntity
  8
レイヤー 2
370
    25
100
AcDbVertex
100
AcDb2dVertex
 10
155.0640923006437
 20
233.7766004189864
 30
0.0
  0
VERTEX
  5
40
330
3D
100
AcDbEntity
  8
レイヤー 2
370
    25
100
AcDbVertex
100
AcDb2dVertex
 10
157.7237060152566
 20
230.6498317565737
 30
0.0
  0
VERTEX
  5
41
330
3D
100
AcDbEntity
  8
レイヤー 2
370
    25
100
AcDbVertex
100
AcDb2dVertex
 10
160.2503390441388
 20
227.3261758871789
 30
0.0
  0
VERTEX
  5
42
330
3D
100
AcDbEntity
  8
レイヤー 2
370
    25
100
AcDbVertex
100
AcDb2dVertex
 10
162.5785345730706
 20
223.7369031558713
 30
0.0
  0
VERTEX
  5
43
330
3D
100
AcDbEntity
  8
レイヤー 2
370
    25
100
AcDbVertex
100
AcDb2dVertex
 10
164.7062255447609
 20
219.8794297410371
 30
0.0
  0
VERTEX
  5
44
330
3D
100
AcDbEntity
  8
レイヤー 2
370
    25
100
AcDbVertex
100
AcDb2dVertex
 10
166.6337564687581
 20
215.8248968644466
 30
0.0
  0
VERTEX
  5
45
330
3D
100
AcDbEntity
  8
レイヤー 2
370
    25
100
AcDbVertex
100
AcDb2dVertex
 10
168.2963595499398
 20
211.5679646280976
 30
0.0
  0
VERTEX
  5
46
330
3D
100
AcDbEntity
  8
レイヤー 2
370
    25
100
AcDbVertex
100
AcDb2dVertex
 10
169.8246039071966
 20
207.1139729299923
 30
0.0
  0
VERTEX
  5
47
330
3D
100
AcDbEntity
  8
レイヤー 2
370
    25
100
AcDbVertex
100
AcDb2dVertex
 10
171.0882649311863
 20
202.4574096173544
 30
0.0
  0
VERTEX
  5
48
330
3D
100
AcDbEntity
  8
レイヤー 2
370
    25
100
AcDbVertex
100
AcDb2dVertex
 10
172.15245492658
 20
197.6709662049225
 30
0.0
  0
VERTEX
  5
49
330
3D
100
AcDbEntity
  8
レイヤー 2
370
    25
100
AcDbVertex
100
AcDb2dVertex
 10
173.0171738933776
 20
192.7503363233402
 30
0.0
  0
VERTEX
  5
4A
330
3D
100
AcDbEntity
  8
レイヤー 2
370
    25
100
AcDbVertex
100
AcDb2dVertex
 10
173.5487521267517
 20
187.6982760489956
 30
0.0
  0
VERTEX
  5
4B
330
3D
100
AcDbEntity
  8
レイヤー 2
370
    25
100
AcDbVertex
100
AcDb2dVertex
 10
173.9476941839436
 20
182.5122015602747
 30
0.0
  0
VERTEX
  5
4C
330
3D
100
AcDbEntity
  8
レイヤー 2
370
    25
100
AcDbVertex
100
AcDb2dVertex
 10
174.0810193792228
 20
177.3259548167796
 30
0.0
  0
VERTEX
  5
4D
330
3D
100
AcDbEntity
  8
レイヤー 2
370
    25
100
AcDbVertex
100
AcDb2dVertex
 10
173.9476941839436
 20
172.0070718971024
 30
0.0
  0
VERTEX
  5
4E
330
3D
100
AcDbEntity
  8
レイヤー 2
370
    25
100
AcDbVertex
100
AcDb2dVertex
 10
173.5487521267517
 20
166.6883612321994
 30
0.0
  0
VERTEX
  5
4F
330
3D
100
AcDbEntity
  8
レイヤー 2
370
    25
100
AcDbVertex
100
AcDb2dVertex
 10
173.0171738933776
 20
161.30109316714
 30
0.0
  0
VERTEX
  5
50
330
3D
100
AcDbEntity
  8
レイヤー 2
370
    25
100
AcDbVertex
100
AcDb2dVertex
 10
172.15245492658
 20
155.9808322092687
 30
0.0
  0
VERTEX
  5
51
330
3D
100
AcDbEntity
  8
レイヤー 2
370
    25
100
AcDbVertex
100
AcDb2dVertex
 10
171.0882649311863
 20
150.6621215443657
 30
0.0
  0
VERTEX
  5
52
330
3D
100
AcDbEntity
  8
レイヤー 2
370
    25
100
AcDbVertex
100
AcDb2dVertex
 10
169.8246039071966
 20
145.3430663699143
 30
0.0
  0
VERTEX
  5
53
330
3D
100
AcDbEntity
  8
レイヤー 2
370
    25
100
AcDbVertex
100
AcDb2dVertex
 10
168.2963595499398
 20
140.0899847740053
 30
0.0
  0
VERTEX
  5
54
330
3D
100
AcDbEntity
  8
レイヤー 2
370
    25
100
AcDbVertex
100
AcDb2dVertex
 10
166.6337564687581
 20
134.9709173924726
 30
0.0
  0
VERTEX
  5
55
330
3D
100
AcDbEntity
  8
レイヤー 2
370
    25
100
AcDbVertex
100
AcDb2dVertex
 10
164.7062255447609
 20
129.9176513347081
 30
0.0
  0
VERTEX
  5
56
330
3D
100
AcDbEntity
  8
レイヤー 2
370
    25
100
AcDbVertex
100
AcDb2dVertex
 10
162.5785345730706
 20
124.9312201293575
 30
0.0
  0
VERTEX
  5
57
330
3D
100
AcDbEntity
  8
レイヤー 2
370
    25
100
AcDbVertex
100
AcDb2dVertex
 10
160.2503390441388
 20
120.1432264239573
 30
0.0
  0
VERTEX
  5
58
330
3D
100
AcDbEntity
  8
レイヤー 2
370
    25
100
AcDbVertex
100
AcDb2dVertex
 10
157.7237060152566
 20
115.4882134042877
 30
0.0
  0
VERTEX
  5
59
330
3D
100
AcDbEntity
  8
レイヤー 2
370
    25
100
AcDbVertex
100
AcDb2dVertex
 10
155.0640923006437
 20
111.0340494514082
 30
0.0
  0
VERTEX
  5
5A
330
3D
100
AcDbEntity
  8
レイヤー 2
370
    25
100
AcDbVertex
100
AcDb2dVertex
 10
152.2050075574349
 20
106.7786675080276
 30
0.0
  0
VERTEX
  5
5B
330
3D
100
AcDbEntity
  8
レイヤー 2
370
    25
100
AcDbVertex
100
AcDb2dVertex
 10
149.2129421284954
 20
102.6569552694747
 30
0.0
  0
VERTEX
  5
5C
330
3D
100
AcDbEntity
  8
レイヤー 2
370
    25
100
AcDbVertex
100
AcDb2dVertex
 10
146.0214056709599
 20
98.8008598928345
 30
0.0
  0
VERTEX
  5
5D
330
3D
100
AcDbEntity
  8
レイヤー 2
370
    25
100
AcDbVertex
100
AcDb2dVertex
 10
142.7640678896562
 20
95.20900333991303
 30
0.0
  0
VERTEX
  5
5E
330
3D
100
AcDbEntity
  8
レイヤー 2
370
    25
100
AcDbVertex
100
AcDb2dVertex
 10
139.3716823653307
 20
91.81834036333013
 30
0.0
  0
VERTEX
  5
5F
330
3D
100
AcDbEntity
  8
レイヤー 2
370
    25
100
AcDbVertex
100
AcDb2dVertex
 10
135.8480387030172
 20
88.76116262971942
 30
0.0
  0
VERTEX
  5
60
330
3D
100
AcDbEntity
  8
レイヤー 2
370
    25
100
AcDbVertex
100
AcDb2dVertex
 10
132.2575601882898
 20
85.90138886741355
 30
0.0
  0
VERTEX
  5
61
330
3D
100
AcDbEntity
  8
レイヤー 2
370
    25
100
AcDbVertex
100
AcDb2dVertex
 10
128.600591330697
 20
83.37544485762839
 30
0.0
  0
VERTEX
  5
62
330
3D
100
AcDbEntity
  8
レイヤー 2
370
    25
100
AcDbVertex
100
AcDb2dVertex
 10
124.8774766397876
 20
81.11477320020743
 30
0.0
  0
VERTEX
  5
63
330
3D
100
AcDbEntity
  8
レイヤー 2
370
    25
100
AcDbVertex
100
AcDb2dVertex
 10
121.0875270964642
 20
79.18551972846751
 30
0.0
  0
VERTEX
  5
64
330
3D
100
AcDbEntity
  8
レイヤー 2
370
    25
100
AcDbVertex
100
AcDb2dVertex
 10
117.2972330435924
 20
77.52429468548005
 30
0.0
  0
VERTEX
  5
65
330
3D
100
AcDbEntity
  8
レイヤー 2
370
    25
100
AcDbVertex
100
AcDb2dVertex
 10
113.4411376669522
 20
76.19414331862508
 30
0.0
  0
VERTEX
  5
66
330
3D
100
AcDbEntity
  8
レイヤー 2
370
    25
100
AcDbVertex
100
AcDb2dVertex
 10
112.9095594335782
 20
76.06150714244295
 30
0.0
  0
SEQEND
  5
67
330
3D
100
AcDbEntity
  8
レイヤー 2
370
    25
  0
POLYLINE
  5
68
330
1F
100
AcDbEntity
  8
レイヤー 2
370
     9
100
AcDb2dPolyline
 66
     1
 10
0.0
 20
0.0
 30
0.0
  0
VERTEX
  5
69
330
68
100
AcDbEntity
  8
レイヤー 2
370
     9
100
AcDbVertex
100
AcDb2dVertex
 10
108.7203233235144
 20
252.2617770094172
 30
0.0
  0
VERTEX
  5
6A
330
68
100
AcDbEntity
  8
レイヤー 2
370
     9
100
AcDbVertex
100
AcDb2dVertex
 10
109.2525905759855
 20
252.127762795041
 30
0.0
  0
VERTEX
  5
6B
330
68
100
AcDbEntity
  8
レイヤー 2
370
     9
100
AcDbVertex
100
AcDb2dVertex
 10
112.8430690907128
 20
251.197242504475
 30
0.0
  0
VERTEX
  5
6C
330
68
100
AcDbEntity
  8
レイヤー 2
370
     9
100
AcDbVertex
100
AcDb2dVertex
 10
116.2998779006125
 20
249.8658853542002
 30
0.0
  0
VERTEX
  5
6D
330
68
100
AcDbEntity
  8
レイヤー 2
370
     9
100
AcDbVertex
100
AcDb2dVertex
 10
119.6912298962925
 20
248.2716674184009
 30
0.0
  0
VERTEX
  5
6E
330
68
100
AcDbEntity
  8
レイヤー 2
370
     9
100
AcDbVertex
100
AcDb2dVertex
 10
122.8827663538279
 20
246.4094210538491
 30
0.0
  0
VERTEX
  5
6F
330
68
100
AcDbEntity
  8
レイヤー 2
370
     9
100
AcDbVertex
100
AcDb2dVertex
 10
126.0081569780466
 20
244.2145507201964
 30
0.0
  0
VERTEX
  5
70
330
68
100
AcDbEntity
  8
レイヤー 2
370
     9
100
AcDbVertex
100
AcDb2dVertex
 10
129.0002224069861
 20
241.6884344556369
 30
0.0
  0
VERTEX
  5
71
330
68
100
AcDbEntity
  8
レイヤー 2
370
     9
100
AcDbVertex
100
AcDb2dVertex
 10
131.7931613168781
 20
238.8942897623251
 30
0.0
  0
VERTEX
  5
72
330
68
100
AcDbEntity
  8
レイヤー 2
370
     9
100
AcDbVertex
100
AcDb2dVertex
 10
134.4524305219425
 20
235.8372842834886
 30
0.0
  0
VERTEX
  5
73
330
68
100
AcDbEntity
  8
レイヤー 2
370
     9
100
AcDbVertex
100
AcDb2dVertex
 10
136.9783745317276
 20
232.5122503758997
 30
0.0
  0
VERTEX
  5
74
330
68
100
AcDbEntity
  8
レイヤー 2
370
     9
100
AcDbVertex
100
AcDb2dVertex
 10
139.2390461891486
 20
228.9886067135862
 30
0.0
  0
VERTEX
  5
75
330
68
100
AcDbEntity
  8
レイヤー 2
370
     9
100
AcDbVertex
100
AcDb2dVertex
 10
141.3667371608389
 20
225.1996906989084
 30
0.0
  0
VERTEX
  5
76
330
68
100
AcDbEntity
  8
レイヤー 2
370
     9
100
AcDbVertex
100
AcDb2dVertex
 10
143.2284667610679
 20
221.1424017459297
 30
0.0
  0
VERTEX
  5
77
330
68
100
AcDbEntity
  8
レイヤー 2
370
     9
100
AcDbVertex
100
AcDb2dVertex
 10
144.9575601851148
 20
216.9538546549629
 30
0.0
  0
VERTEX
  5
78
330
68
100
AcDbEntity
  8
レイヤー 2
370
     9
100
AcDbVertex
100
AcDb2dVertex
 10
146.4203477281519
 20
212.4998629568576
 30
0.0
  0
VERTEX
  5
79
330
68
100
AcDbEntity
  8
レイヤー 2
370
     9
100
AcDbVertex
100
AcDb2dVertex
 10
147.6833197330444
 20
207.911684789602
 30
0.0
  0
VERTEX
  5
7A
330
68
100
AcDbEntity
  8
レイヤー 2
370
     9
100
AcDbVertex
100
AcDb2dVertex
 10
148.7478542379866
 20
203.1908704461641
 30
0.0
  0
VERTEX
  5
7B
330
68
100
AcDbEntity
  8
レイヤー 2
370
     9
100
AcDbVertex
100
AcDb2dVertex
 10
149.545393842822
 20
198.3358696335758
 30
0.0
  0
VERTEX
  5
7C
330
68
100
AcDbEntity
  8
レイヤー 2
370
     9
100
AcDbVertex
100
AcDb2dVertex
 10
150.1434624190614
 20
193.3496106829994
 30
0.0
  0
VERTEX
  5
7D
330
68
100
AcDbEntity
  8
レイヤー 2
370
     9
100
AcDbVertex
100
AcDb2dVertex
 10
150.5430934953503
 20
188.2305433014666
 30
0.0
  0
VERTEX
  5
7E
330
68
100
AcDbEntity
  8
レイヤー 2
370
     9
100
AcDbVertex
100
AcDb2dVertex
 10
150.6095838382156
 20
183.0430907745517
 30
0.0
  0
VERTEX
  5
7F
330
68
100
AcDbEntity
  8
レイヤー 2
370
     9
100
AcDbVertex
100
AcDb2dVertex
 10
150.5430934953503
 20
177.7898369238684
 30
0.0
  0
VERTEX
  5
80
330
68
100
AcDbEntity
  8
レイヤー 2
370
     9
100
AcDbVertex
100
AcDb2dVertex
 10
150.1434624190614
 20
172.5381333661537
 30
0.0
  0
VERTEX
  5
81
330
68
100
AcDbEntity
  8
レイヤー 2
370
     9
100
AcDbVertex
100
AcDb2dVertex
 10
149.545393842822
 20
167.2192504464765
 30
0.0
  0
VERTEX
  5
82
330
68
100
AcDbEntity
  8
レイヤー 2
370
     9
100
AcDbVertex
100
AcDb2dVertex
 10
148.7478542379866
 20
161.8989894886051
 30
0.0
  0
VERTEX
  5
83
330
68
100
AcDbEntity
  8
レイヤー 2
370
     9
100
AcDbVertex
100
AcDb2dVertex
 10
147.6833197330444
 20
156.6459078926962
 30
0.0
  0
VERTEX
  5
84
330
68
100
AcDbEntity
  8
レイヤー 2
370
     9
100
AcDbVertex
100
AcDb2dVertex
 10
146.4203477281519
 20
151.3928262967872
 30
0.0
  0
VERTEX
  5
85
330
68
100
AcDbEntity
  8
レイヤー 2
370
     9
100
AcDbVertex
100
AcDb2dVertex
 10
144.9575601851148
 20
146.2081298462605
 30
0.0
  0
VERTEX
  5
86
330
68
100
AcDbEntity
  8
レイヤー 2
370
     9
100
AcDbVertex
100
AcDb2dVertex
 10
143.2284667610679
 20
141.0876844265335
 30
0.0
  0
VERTEX
  5
87
330
68
100
AcDbEntity
  8
レイヤー 2
370
     9
100
AcDbVertex
100
AcDb2dVertex
 10
141.3667371608389
 20
136.101253221183
 30
0.0
  0
VERTEX
  5
88
330
68
100
AcDbEntity
  8
レイヤー 2
370
     9
100
AcDbVertex
100
AcDb2dVertex
 10
139.2390461891486
 20
131.247802701563
 30
0.0
  0
VERTEX
  5
89
330
68
100
AcDbEntity
  8
レイヤー 2
370
     9
100
AcDbVertex
100
AcDb2dVertex
 10
136.9783745317276
 20
126.4598089961628
 30
0.0
  0
VERTEX
  5
8A
330
68
100
AcDbEntity
  8
レイヤー 2
370
     9
100
AcDbVertex
100
AcDb2dVertex
 10
134.4524305219425
 20
121.8730088671012
 30
0.0
  0
VERTEX
  5
8B
330
68
100
AcDbEntity
  8
レイヤー 2
370
     9
100
AcDbVertex
100
AcDb2dVertex
 10
131.7931613168781
 20
117.4174668760276
 30
0.0
  0
VERTEX
  5
8C
330
68
100
AcDbEntity
  8
レイヤー 2
370
     9
100
AcDbVertex
100
AcDb2dVertex
 10
129.0002224069861
 20
113.2289197850608
 30
0.0
  0
VERTEX
  5
8D
330
68
100
AcDbEntity
  8
レイヤー 2
370
     9
100
AcDbVertex
100
AcDb2dVertex
 10
126.0081569780466
 20
109.1719753416306
 30
0.0
  0
VERTEX
  5
8E
330
68
100
AcDbEntity
  8
レイヤー 2
370
     9
100
AcDbVertex
100
AcDb2dVertex
 10
122.8827663538279
 20
105.3827148174043
 30
0.0
  0
VERTEX
  5
8F
330
68
100
AcDbEntity
  8
レイヤー 2
370
     9
100
AcDbVertex
100
AcDb2dVertex
 10
119.6912298962925
 20
101.7922363026769
 30
0.0
  0
VERTEX
  5
90
330
68
100
AcDbEntity
  8
レイヤー 2
370
     9
100
AcDbVertex
100
AcDb2dVertex
 10
116.2998779006125
 20
98.40122881654552
 30
0.0
  0
VERTEX
  5
91
330
68
100
AcDbEntity
  8
レイヤー 2
370
     9
100
AcDbVertex
100
AcDb2dVertex
 10
112.8430690907128
 20
95.34301755428923
 30
0.0
  0
VERTEX
  5
92
330
68
100
AcDbEntity
  8
レイヤー 2
370
     9
100
AcDbVertex
100
AcDb2dVertex
 10
109.2525905759855
 20
92.55042315394572
 30
0.0
  0
VERTEX
  5
93
330
68
100
AcDbEntity
  8
レイヤー 2
370
     9
100
AcDbVertex
100
AcDb2dVertex
 10
105.661423042161
 20
90.02413463461202
 30
0.0
  0
VERTEX
  5
94
330
68
100
AcDbEntity
  8
レイヤー 2
370
     9
100
AcDbVertex
100
AcDb2dVertex
 10
101.9386528608001
 20
87.82926430095933
 30
0.0
  0
VERTEX
  5
95
330
68
100
AcDbEntity
  8
レイヤー 2
370
     9
100
AcDbVertex
100
AcDb2dVertex
 10
98.2153659151163
 20
85.90138886741355
 30
0.0
  0
VERTEX
  5
96
330
68
100
AcDbEntity
  8
レイヤー 2
370
     9
100
AcDbVertex
100
AcDb2dVertex
 10
94.42507186224444
 20
84.23878578623197
 30
0.0
  0
VERTEX
  5
97
330
68
100
AcDbEntity
  8
レイヤー 2
370
     9
100
AcDbVertex
100
AcDb2dVertex
 10
90.63529457369536
 20
82.97719181953349
 30
0.0
  0
VERTEX
  5
98
330
68
100
AcDbEntity
  8
レイヤー 2
370
     9
100
AcDbVertex
100
AcDb2dVertex
 10
86.77919919705521
 20
81.97949216700513
 30
0.0
  0
VERTEX
  5
99
330
68
100
AcDbEntity
  8
レイヤー 2
370
     9
100
AcDbVertex
100
AcDb2dVertex
 10
82.98890514418333
 20
81.31458873835191
 30
0.0
  0
VERTEX
  5
9A
330
68
100
AcDbEntity
  8
レイヤー 2
370
     9
100
AcDbVertex
100
AcDb2dVertex
 10
79.19843883653719
 20
80.9807589858312
 30
0.0
  0
VERTEX
  5
9B
330
68
100
AcDbEntity
  8
レイヤー 2
370
     9
100
AcDbVertex
100
AcDb2dVertex
 10
75.47584090995049
 20
80.9807589858312
 30
0.0
  0
VERTEX
  5
9C
330
68
100
AcDbEntity
  8
レイヤー 2
370
     9
100
AcDbVertex
100
AcDb2dVertex
 10
71.75186494516967
 20
81.24603133819544
 30
0.0
  0
VERTEX
  5
9D
330
68
100
AcDbEntity
  8
レイヤー 2
370
     9
100
AcDbVertex
100
AcDb2dVertex
 10
68.09489608757697
 20
81.91127927639719
 30
0.0
  0
VERTEX
  5
9E
330
68
100
AcDbEntity
  8
レイヤー 2
370
     9
100
AcDbVertex
100
AcDb2dVertex
 10
64.90387639436431
 20
82.77599824319489
 30
0.0
  0
SEQEND
  5
9F
330
68
100
AcDbEntity
  8
レイヤー 2
370
     9
  0
POLYLINE
  5
A0
330
1F
100
AcDbEntity
  8
レイヤー 2
370
     9
100
AcDb2dPolyline
 66
     1
 10
0.0
 20
0.0
 30
0.0
  0
VERTEX
  5
A1
330
A0
100
AcDbEntity
  8
レイヤー 2
370
     9
100
AcDbVertex
100
AcDb2dVertex
 10
26.53757052287951
 20
152.5913750161056
 30
0.0
  0
VERTEX
  5
A2
330
A0
100
AcDbEntity
  8
レイヤー 2
370
     9
100
AcDbVertex
100
AcDb2dVertex
 10
26.67106797293293
 20
157.7118204358325
 30
0.0
  0
VERTEX
  5
A3
330
A0
100
AcDbEntity
  8
レイヤー 2
370
     9
100
AcDbVertex
100
AcDb2dVertex
 10
27.00351968725954
 20
162.8965168863592
 30
0.0
  0
VERTEX
  5
A4
330
A0
100
AcDbEntity
  8
レイヤー 2
370
     9
100
AcDbVertex
100
AcDb2dVertex
 10
27.60227728259596
 20
168.0827636298543
 30
0.0
  0
VERTEX
  5
A5
330
A0
100
AcDbEntity
  8
レイヤー 2
370
     9
100
AcDbVertex
100
AcDb2dVertex
 10
28.46630723029662
 20
173.2714219401891
 30
0.0
  0
VERTEX
  5
A6
330
A0
100
AcDbEntity
  8
レイヤー 2
370
     9
100
AcDbVertex
100
AcDb2dVertex
 10
29.53032497091604
 20
178.454912607296
 30
0.0
  0
VERTEX
  5
A7
330
A0
100
AcDbEntity
  8
レイヤー 2
370
     9
100
AcDbVertex
100
AcDb2dVertex
 10
30.79329697580862
 20
183.5767360652169
 30
0.0
  0
VERTEX
  5
A8
330
A0
100
AcDbEntity
  8
レイヤー 2
370
     9
100
AcDbVertex
100
AcDb2dVertex
 10
32.25677353794277
 20
188.6958034467497
 30
0.0
  0
VERTEX
  5
A9
330
A0
100
AcDbEntity
  8
レイヤー 2
370
     9
100
AcDbVertex
100
AcDb2dVertex
 10
33.98500568811833
 20
193.682062397326
 30
0.0
  0
VERTEX
  5
AA
330
A0
100
AcDbEntity
  8
レイヤー 2
370
     9
100
AcDbVertex
100
AcDb2dVertex
 10
35.91374239553546
 20
198.5370632099144
 30
0.0
  0
VERTEX
  5
AB
330
A0
100
AcDbEntity
  8
レイヤー 2
370
     9
100
AcDbVertex
100
AcDb2dVertex
 10
38.04143336722576
 20
203.3236788771205
 30
0.0
  0
VERTEX
  5
AC
330
A0
100
AcDbEntity
  8
レイヤー 2
370
     9
100
AcDbVertex
100
AcDb2dVertex
 10
40.36842311273775
 20
207.911684789602
 30
0.0
  0
VERTEX
  5
AD
330
A0
100
AcDbEntity
  8
レイヤー 2
370
     9
100
AcDbVertex
100
AcDb2dVertex
 10
42.82804903443188
 20
212.3656764877071
 30
0.0
  0
VERTEX
  5
AE
330
A0
100
AcDbEntity
  8
レイヤー 2
370
     9
100
AcDbVertex
100
AcDb2dVertex
 10
45.48749049427049
 20
216.6214029406363
 30
0.0
  0
VERTEX
  5
AF
330
A0
100
AcDbEntity
  8
レイヤー 2
370
     9
100
AcDbVertex
100
AcDb2dVertex
 10
48.34726425657638
 20
220.7443209626091
 30
0.0
  0
VERTEX
  5
B0
330
A0
100
AcDbEntity
  8
レイヤー 2
370
     9
100
AcDbVertex
100
AcDb2dVertex
 10
51.33932968551587
 20
224.600244084475
 30
0.0
  0
VERTEX
  5
B1
330
A0
100
AcDbEntity
  8
レイヤー 2
370
     9
100
AcDbVertex
100
AcDb2dVertex
 10
54.39754094777214
 20
228.1908948539766
 30
0.0
  0
VERTEX
  5
B2
330
A0
100
AcDbEntity
  8
レイヤー 2
370
     9
100
AcDbVertex
100
AcDb2dVertex
 10
57.65556774817291
 20
231.5817300853337
 30
0.0
  0
VERTEX
  5
B3
330
A0
100
AcDbEntity
  8
レイヤー 2
370
     9
100
AcDbVertex
100
AcDb2dVertex
 10
61.04640297953006
 20
234.7727497785464
 30
0.0
  0
VERTEX
  5
B4
330
A0
100
AcDbEntity
  8
レイヤー 2
370
     9
100
AcDbVertex
100
AcDb2dVertex
 10
64.43792722998427
 20
237.6313177574325
 30
0.0
  0
VERTEX
  5
B5
330
A0
100
AcDbEntity
  8
レイヤー 2
370
     9
100
AcDbVertex
100
AcDb2dVertex
 10
68.02788898038887
 20
240.2242688744057
 30
0.0
  0
VERTEX
  5
B6
330
A0
100
AcDbEntity
  8
レイヤー 2
370
     9
100
AcDbVertex
100
AcDb2dVertex
 10
71.61836749511625
 20
242.4861463152465
 30
0.0
  0
VERTEX
  5
B7
330
A0
100
AcDbEntity
  8
レイヤー 2
370
     9
100
AcDbVertex
100
AcDb2dVertex
 10
75.27533635270895
 20
244.4799953273349
 30
0.0
  0
VERTEX
  5
B8
330
A0
100
AcDbEntity
  8
レイヤー 2
370
     9
100
AcDbVertex
100
AcDb2dVertex
 10
78.999484572264
 20
246.1424261537422
 30
0.0
  0
VERTEX
  5
B9
330
A0
100
AcDbEntity
  8
レイヤー 2
370
     9
100
AcDbVertex
100
AcDb2dVertex
 10
82.72277151794778
 20
247.5395846277852
 30
0.0
  0
VERTEX
  5
BA
330
A0
100
AcDbEntity
  8
レイヤー 2
370
     9
100
AcDbVertex
100
AcDb2dVertex
 10
86.4467474827286
 20
248.6041191327274
 30
0.0
  0
VERTEX
  5
BB
330
A0
100
AcDbEntity
  8
レイヤー 2
370
     9
100
AcDbVertex
100
AcDb2dVertex
 10
90.16934540931531
 20
249.3348238851489
 30
0.0
  0
VERTEX
  5
BC
330
A0
100
AcDbEntity
  8
レイヤー 2
370
     9
100
AcDbVertex
100
AcDb2dVertex
 10
93.89332137409613
 20
249.7330769232438
 30
0.0
  0
VERTEX
  5
BD
330
A0
100
AcDbEntity
  8
レイヤー 2
370
     9
100
AcDbVertex
100
AcDb2dVertex
 10
97.5502902316888
 20
249.8000840304319
 30
0.0
  0
VERTEX
  5
BE
330
A0
100
AcDbEntity
  8
レイヤー 2
370
     9
100
AcDbVertex
100
AcDb2dVertex
 10
101.2072590892815
 20
249.5332613850993
 30
0.0
  0
VERTEX
  5
BF
330
A0
100
AcDbEntity
  8
レイヤー 2
370
     9
100
AcDbVertex
100
AcDb2dVertex
 10
104.7973930944604
 20
248.9367431018283
 30
0.0
  0
VERTEX
  5
C0
330
A0
100
AcDbEntity
  8
レイヤー 2
370
     9
100
AcDbVertex
100
AcDb2dVertex
 10
108.2552354330056
 20
248.0062228112623
 30
0.0
  0
VERTEX
  5
C1
330
A0
100
AcDbEntity
  8
レイヤー 2
370
     9
100
AcDbVertex
100
AcDb2dVertex
 10
111.6458984095885
 20
246.7418727681757
 30
0.0
  0
VERTEX
  5
C2
330
A0
100
AcDbEntity
  8
レイヤー 2
370
     9
100
AcDbVertex
100
AcDb2dVertex
 10
114.9704155528546
 20
245.2120781179505
 30
0.0
  0
VERTEX
  5
C3
330
A0
100
AcDbEntity
  8
レイヤー 2
370
     9
100
AcDbVertex
100
AcDb2dVertex
 10
118.1619520103901
 20
243.3510375368185
 30
0.0
  0
VERTEX
  5
C4
330
A0
100
AcDbEntity
  8
レイヤー 2
370
     9
100
AcDbVertex
100
AcDb2dVertex
 10
121.2205077821949
 20
241.1561672031658
 30
0.0
  0
VERTEX
  5
C5
330
A0
100
AcDbEntity
  8
レイヤー 2
370
     9
100
AcDbVertex
100
AcDb2dVertex
 10
124.0795925254037
 20
238.6958522623747
 30
0.0
  0
VERTEX
  5
C6
330
A0
100
AcDbEntity
  8
レイヤー 2
370
     9
100
AcDbVertex
100
AcDb2dVertex
 10
126.8725314352958
 20
235.9030856072569
 30
0.0
  0
VERTEX
  5
C7
330
A0
100
AcDbEntity
  8
レイヤー 2
370
     9
100
AcDbVertex
100
AcDb2dVertex
 10
129.3984754450809
 20
232.9117091974144
 30
0.0
  0
VERTEX
  5
C8
330
A0
100
AcDbEntity
  8
レイヤー 2
370
     9
100
AcDbVertex
100
AcDb2dVertex
 10
131.8586181310978
 20
229.5866752898256
 30
0.0
  0
VERTEX
  5
C9
330
A0
100
AcDbEntity
  8
レイヤー 2
370
     9
100
AcDbVertex
100
AcDb2dVertex
 10
134.0527994456535
 20
226.063031627512
 30
0.0
  0
VERTEX
  5
CA
330
A0
100
AcDbEntity
  8
レイヤー 2
370
     9
100
AcDbVertex
100
AcDb2dVertex
 10
136.0471652220646
 20
222.2727375746402
 30
0.0
  0
VERTEX
  5
CB
330
A0
100
AcDbEntity
  8
レイヤー 2
370
     9
100
AcDbVertex
100
AcDb2dVertex
 10
137.9088948222936
 20
218.2840060218179
 30
0.0
  0
VERTEX
  5
CC
330
A0
100
AcDbEntity
  8
レイヤー 2
370
     9
100
AcDbVertex
100
AcDb2dVertex
 10
139.5050075606099
 20
214.0952866760769
 30
0.0
  0
VERTEX
  5
CD
330
A0
100
AcDbEntity
  8
レイヤー 2
370
     9
100
AcDbVertex
100
AcDb2dVertex
 10
140.9009602512331
 20
209.7057182635458
 30
0.0
  0
VERTEX
  5
CE
330
A0
100
AcDbEntity
  8
レイヤー 2
370
     9
100
AcDbVertex
100
AcDb2dVertex
 10
142.0319850990406
 20
205.1859252416723
 30
0.0
  0
VERTEX
  5
CF
330
A0
100
AcDbEntity
  8
レイヤー 2
370
     9
100
AcDbVertex
100
AcDb2dVertex
 10
142.9628498991551
 20
200.4637328600403
 30
0.0
  0
VERTEX
  5
D0
330
A0
100
AcDbEntity
  8
レイヤー 2
370
     9
100
AcDbVertex
100
AcDb2dVertex
 10
143.6935546515766
 20
195.6114881238402
 30
0.0
  0
VERTEX
  5
D1
330
A0
100
AcDbEntity
  8
レイヤー 2
370
     9
100
AcDbVertex
100
AcDb2dVertex
 10
144.1596760707309
 20
190.6908582422579
 30
0.0
  0
VERTEX
  5
D2
330
A0
100
AcDbEntity
  8
レイヤー 2
370
     9
100
AcDbVertex
100
AcDb2dVertex
 10
144.4256374421922
 20
185.637419929719
 30
0.0
  0
VERTEX
  5
D3
330
A0
100
AcDbEntity
  8
レイヤー 2
370
     9
100
AcDbVertex
100
AcDb2dVertex
 10
144.4256374421922
 20
180.5169745099923
 30
0.0
  0
VERTEX
  5
D4
330
A0
100
AcDbEntity
  8
レイヤー 2
370
     9
100
AcDbVertex
100
AcDb2dVertex
 10
144.1596760707309
 20
175.3979071284596
 30
0.0
  0
VERTEX
  5
D5
330
A0
100
AcDbEntity
  8
レイヤー 2
370
     9
100
AcDbVertex
100
AcDb2dVertex
 10
143.6935546515766
 20
170.2104546015446
 30
0.0
  0
VERTEX
  5
D6
330
A0
100
AcDbEntity
  8
レイヤー 2
370
     9
100
AcDbVertex
100
AcDb2dVertex
 10
142.9628498991551
 20
164.9587510438298
 30
0.0
  0
VERTEX
  5
D7
330
A0
100
AcDbEntity
  8
レイヤー 2
370
     9
100
AcDbVertex
100
AcDb2dVertex
 10
142.0319850990406
 20
159.7725043003346
 30
0.0
  0
VERTEX
  5
D8
330
A0
100
AcDbEntity
  8
レイヤー 2
370
     9
100
AcDbVertex
100
AcDb2dVertex
 10
140.9009602512331
 20
154.6522311353821
 30
0.0
  0
VERTEX
  5
D9
330
A0
100
AcDbEntity
  8
レイヤー 2
370
     9
100
AcDbVertex
100
AcDb2dVertex
 10
139.5050075606099
 20
149.5331637538494
 30
0.0
  0
VERTEX
  5
DA
330
A0
100
AcDbEntity
  8
レイヤー 2
370
     9
100
AcDbVertex
100
AcDb2dVertex
 10
137.9088948222936
 20
144.4797254413106
 30
0.0
  0
VERTEX
  5
DB
330
A0
100
AcDbEntity
  8
レイヤー 2
370
     9
100
AcDbVertex
100
AcDb2dVertex
 10
136.0471652220646
 20
139.5590955597283
 30
0.0
  0
VERTEX
  5
DC
330
A0
100
AcDbEntity
  8
レイヤー 2
370
     9
100
AcDbVertex
100
AcDb2dVertex
 10
134.0527994456535
 20
134.7711018543281
 30
0.0
  0
VERTEX
  5
DD
330
A0
100
AcDbEntity
  8
レイヤー 2
370
     9
100
AcDbVertex
100
AcDb2dVertex
 10
131.8586181310978
 20
130.0502875108902
 30
0.0
  0
VERTEX
  5
DE
330
A0
100
AcDbEntity
  8
レイヤー 2
370
     9
100
AcDbVertex
100
AcDb2dVertex
 10
129.3984754450809
 20
125.5306667437909
 30
0.0
  0
VERTEX
  5
DF
330
A0
100
AcDbEntity
  8
レイヤー 2
370
     9
100
AcDbVertex
100
AcDb2dVertex
 10
126.8725314352958
 20
121.1409260764856
 30
0.0
  0
VERTEX
  5
E0
330
A0
100
AcDbEntity
  8
レイヤー 2
370
     9
100
AcDbVertex
100
AcDb2dVertex
 10
124.0795925254037
 20
116.9523789855188
 30
0.0
  0
VERTEX
  5
E1
330
A0
100
AcDbEntity
  8
レイヤー 2
370
     9
100
AcDbVertex
100
AcDb2dVertex
 10
121.2205077821949
 20
113.0291042469163
 30
0.0
  0
VERTEX
  5
E2
330
A0
100
AcDbEntity
  8
レイヤー 2
370
     9
100
AcDbVertex
100
AcDb2dVertex
 10
118.1619520103901
 20
109.2401882322386
 30
0.0
  0
VERTEX
  5
E3
330
A0
100
AcDbEntity
  8
レイヤー 2
370
     9
100
AcDbVertex
100
AcDb2dVertex
 10
114.9704155528546
 20
105.7151665317309
 30
0.0
  0
VERTEX
  5
E4
330
A0
100
AcDbEntity
  8
レイヤー 2
370
     9
100
AcDbVertex
100
AcDb2dVertex
 10
111.6458984095885
 20
102.4571397313302
 30
0.0
  0
VERTEX
  5
E5
330
A0
100
AcDbEntity
  8
レイヤー 2
370
     9
100
AcDbVertex
100
AcDb2dVertex
 10
108.2552354330056
 20
99.46472979284216
 30
0.0
  0
VERTEX
  5
E6
330
A0
100
AcDbEntity
  8
レイヤー 2
370
     9
100
AcDbVertex
100
AcDb2dVertex
 10
104.7973930944604
 20
96.7389702449125
 30
0.0
  0
VERTEX
  5
E7
330
A0
100
AcDbEntity
  8
レイヤー 2
370
     9
100
AcDbVertex
100
AcDb2dVertex
 10
101.2072590892815
 20
94.27986108754117
 30
0.0
  0
VERTEX
  5
E8
330
A0
100
AcDbEntity
  8
レイヤー 2
370
     9
100
AcDbVertex
100
AcDb2dVertex
 10
97.5502902316888
 20
92.15079207765676
 30
0.0
  0
VERTEX
  5
E9
330
A0
100
AcDbEntity
  8
レイヤー 2
370
     9
100
AcDbVertex
100
AcDb2dVertex
 10
93.89332137409613
 20
90.29112953471887
 30
0.0
  0
VERTEX
  5
EA
330
A0
100
AcDbEntity
  8
レイヤー 2
370
     9
100
AcDbVertex
100
AcDb2dVertex
 10
90.16934540931531
 20
88.76116262971942
 30
0.0
  0
VERTEX
  5
EB
330
A0
100
AcDbEntity
  8
レイヤー 2
370
     9
100
AcDbVertex
100
AcDb2dVertex
 10
86.4467474827286
 20
87.56261391040103
 30
0.0
  0
VERTEX
  5
EC
330
A0
100
AcDbEntity
  8
レイヤー 2
370
     9
100
AcDbVertex
100
AcDb2dVertex
 10
82.72277151794778
 20
86.70030651044298
 30
0.0
  0
VERTEX
  5
ED
330
A0
100
AcDbEntity
  8
レイヤー 2
370
     9
100
AcDbVertex
100
AcDb2dVertex
 10
78.999484572264
 20
86.16666121977777
 30
0.0
  0
VERTEX
  5
EE
330
A0
100
AcDbEntity
  8
レイヤー 2
370
     9
100
AcDbVertex
100
AcDb2dVertex
 10
75.27533635270895
 20
85.90138886741355
 30
0.0
  0
VERTEX
  5
EF
330
A0
100
AcDbEntity
  8
レイヤー 2
370
     9
100
AcDbVertex
100
AcDb2dVertex
 10
71.61836749511625
 20
86.03540308178976
 30
0.0
  0
VERTEX
  5
F0
330
A0
100
AcDbEntity
  8
レイヤー 2
370
     9
100
AcDbVertex
100
AcDb2dVertex
 10
68.02788898038887
 20
86.43365611988466
 30
0.0
  0
VERTEX
  5
F1
330
A0
100
AcDbEntity
  8
レイヤー 2
370
     9
100
AcDbVertex
100
AcDb2dVertex
 10
64.43792722998427
 20
87.16436087230611
 30
0.0
  0
VERTEX
  5
F2
330
A0
100
AcDbEntity
  8
レイヤー 2
370
     9
100
AcDbVertex
100
AcDb2dVertex
 10
61.04640297953006
 20
88.2960747392107
 30
0.0
  0
VERTEX
  5
F3
330
A0
100
AcDbEntity
  8
レイヤー 2
370
     9
100
AcDbVertex
100
AcDb2dVertex
 10
57.65556774817291
 20
89.69168292028541
 30
0.0
  0
VERTEX
  5
F4
330
A0
100
AcDbEntity
  8
レイヤー 2
370
     9
100
AcDbVertex
100
AcDb2dVertex
 10
54.39754094777214
 20
91.35428600146701
 30
0.0
  0
VERTEX
  5
F5
330
A0
100
AcDbEntity
  8
レイヤー 2
370
     9
100
AcDbVertex
100
AcDb2dVertex
 10
51.33932968551587
 20
93.41514212074343
 30
0.0
  0
VERTEX
  5
F6
330
A0
100
AcDbEntity
  8
レイヤー 2
370
     9
100
AcDbVertex
100
AcDb2dVertex
 10
48.34726425657638
 20
95.74264863057823
 30
0.0
  0
VERTEX
  5
F7
330
A0
100
AcDbEntity
  8
レイヤー 2
370
     9
100
AcDbVertex
100
AcDb2dVertex
 10
45.48749049427049
 20
98.33577200232578
 30
0.0
  0
VERTEX
  5
F8
330
A0
100
AcDbEntity
  8
レイヤー 2
370
     9
100
AcDbVertex
100
AcDb2dVertex
 10
42.82804903443188
 20
101.2613470883999
 30
0.0
  0
VERTEX
  5
F9
330
A0
100
AcDbEntity
  8
レイヤー 2
370
     9
100
AcDbVertex
100
AcDb2dVertex
 10
40.36842311273775
 20
104.3853596744245
 30
0.0
  0
VERTEX
  5
FA
330
A0
100
AcDbEntity
  8
レイヤー 2
370
     9
100
AcDbVertex
100
AcDb2dVertex
 10
38.04143336722576
 20
107.8432020129698
 30
0.0
  0
VERTEX
  5
FB
330
A0
100
AcDbEntity
  8
レイヤー 2
370
     9
100
AcDbVertex
100
AcDb2dVertex
 10
35.91374239553546
 20
111.4994818514654
 30
0.0
  0
VERTEX
  5
FC
330
A0
100
AcDbEntity
  8
レイヤー 2
370
     9
100
AcDbVertex
100
AcDb2dVertex
 10
33.98500568811833
 20
115.3569552662997
 30
0.0
  0
VERTEX
  5
FD
330
A0
100
AcDbEntity
  8
レイヤー 2
370
     9
100
AcDbVertex
100
AcDb2dVertex
 10
32.25677353794277
 20
119.478322995304
 30
0.0
  0
VERTEX
  5
FE
330
A0
100
AcDbEntity
  8
レイヤー 2
370
     9
100
AcDbVertex
100
AcDb2dVertex
 10
30.79329697580862
 20
123.7340494482332
 30
0.0
  0
VERTEX
  5
FF
330
A0
100
AcDbEntity
  8
レイヤー 2
370
     9
100
AcDbVertex
100
AcDb2dVertex
 10
29.53032497091604
 20
128.2564262917206
 30
0.0
  0
VERTEX
  5
100
330
A0
100
AcDbEntity
  8
レイヤー 2
370
     9
100
AcDbVertex
100
AcDb2dVertex
 10
28.46630723029662
 20
132.8446044589764
 30
0.0
  0
VERTEX
  5
101
330
A0
100
AcDbEntity
  8
レイヤー 2
370
     9
100
AcDbVertex
100
AcDb2dVertex
 10
27.60227728259596
 20
137.6312201261825
 30
0.0
  0
VERTEX
  5
102
330
A0
100
AcDbEntity
  8
レイヤー 2
370
     9
100
AcDbVertex
100
AcDb2dVertex
 10
27.00351968725954
 20
142.5518500077648
 30
0.0
  0
VERTEX
  5
103
330
A0
100
AcDbEntity
  8
レイヤー 2
370
     9
100
AcDbVertex
100
AcDb2dVertex
 10
26.67106797293293
 20
147.5379367035669
 30
0.0
  0
VERTEX
  5
104
330
A0
100
AcDbEntity
  8
レイヤー 2
370
     9
100
AcDbVertex
100
AcDb2dVertex
 10
26.53757052287951
 20
152.5913750161056
 30
0.0
  0
SEQEND
  5
105
330
A0
100
AcDbEntity
  8
レイヤー 2
370
     9
  0
POLYLINE
  5
106
330
1F
100
AcDbEntity
  8
レイヤー 2
370
    25
100
AcDb2dPolyline
 66
     1
 10
0.0
 20
0.0
 30
0.0
  0
VERTEX
  5
107
330
106
100
AcDbEntity
  8
レイヤー 2
370
    25
100
AcDbVertex
100
AcDb2dVertex
 10
165.3036051019033
 20
213.6958278545622
 30
0.0
  0
VERTEX
  5
108
330
106
100
AcDbEntity
  8
レイヤー 2
370
    25
100
AcDbVertex
100
AcDb2dVertex
 10
165.9030517163366
 20
212.1002318805687
 30
0.0
  0
VERTEX
  5
109
330
106
100
AcDbEntity
  8
レイヤー 2
370
    25
100
AcDbVertex
100
AcDb2dVertex
 10
167.4312960735936
 20
207.6448621442694
 30
0.0
  0
VERTEX
  5
10A
330
106
100
AcDbEntity
  8
レイヤー 2
370
    25
100
AcDbVertex
100
AcDb2dVertex
 10
168.6949570975832
 20
203.0566839770136
 30
0.0
  0
VERTEX
  5
10B
330
106
100
AcDbEntity
  8
レイヤー 2
370
    25
100
AcDbVertex
100
AcDb2dVertex
 10
169.7591470929769
 20
198.2702405645817
 30
0.0
  0
VERTEX
  5
10C
330
106
100
AcDbEntity
  8
レイヤー 2
370
    25
100
AcDbVertex
100
AcDb2dVertex
 10
170.5566866978122
 20
193.3496106829994
 30
0.0
  0
VERTEX
  5
10D
330
106
100
AcDbEntity
  8
レイヤー 2
370
    25
100
AcDbVertex
100
AcDb2dVertex
 10
171.1547552740516
 20
188.2961723704607
 30
0.0
  0
VERTEX
  5
10E
330
106
100
AcDbEntity
  8
レイヤー 2
370
    25
100
AcDbVertex
100
AcDb2dVertex
 10
171.4872069883782
 20
183.1100978817398
 30
0.0
  0
VERTEX
  5
10F
330
106
100
AcDbEntity
  8
レイヤー 2
370
    25
100
AcDbVertex
100
AcDb2dVertex
 10
171.6205321836573
 20
177.924023393019
 30
0.0
  0
VERTEX
  5
110
330
106
100
AcDbEntity
  8
レイヤー 2
370
    25
100
AcDbVertex
100
AcDb2dVertex
 10
171.4872069883782
 20
172.6065185115359
 30
0.0
  0
VERTEX
  5
111
330
106
100
AcDbEntity
  8
レイヤー 2
370
    25
100
AcDbVertex
100
AcDb2dVertex
 10
171.1547552740516
 20
167.2862575536645
 30
0.0
  0
VERTEX
  5
112
330
106
100
AcDbEntity
  8
レイヤー 2
370
    25
100
AcDbVertex
100
AcDb2dVertex
 10
170.5566866978122
 20
161.9661688505675
 30
0.0
  0
VERTEX
  5
113
330
106
100
AcDbEntity
  8
レイヤー 2
370
    25
100
AcDbVertex
100
AcDb2dVertex
 10
169.7591470929769
 20
156.5802788237022
 30
0.0
  0
VERTEX
  5
114
330
106
100
AcDbEntity
  8
レイヤー 2
370
    25
100
AcDbVertex
100
AcDb2dVertex
 10
168.6949570975832
 20
151.2613959040249
 30
0.0
  0
VERTEX
  5
115
330
106
100
AcDbEntity
  8
レイヤー 2
370
    25
100
AcDbVertex
100
AcDb2dVertex
 10
167.4312960735936
 20
145.9425129843477
 30
0.0
  0
VERTEX
  5
116
330
106
100
AcDbEntity
  8
レイヤー 2
370
    25
100
AcDbVertex
100
AcDb2dVertex
 10
165.9030517163366
 20
140.755232712207
 30
0.0
  0
VERTEX
  5
117
330
106
100
AcDbEntity
  8
レイヤー 2
370
    25
100
AcDbVertex
100
AcDb2dVertex
 10
164.1732692731928
 20
135.570364006906
 30
0.0
  0
VERTEX
  5
118
330
106
100
AcDbEntity
  8
レイヤー 2
370
    25
100
AcDbVertex
100
AcDb2dVertex
 10
162.246082858744
 20
130.516753439593
 30
0.0
  0
VERTEX
  5
119
330
106
100
AcDbEntity
  8
レイヤー 2
370
    25
100
AcDbVertex
100
AcDb2dVertex
 10
160.1180473775052
 20
125.5961235580107
 30
0.0
  0
VERTEX
  5
11A
330
106
100
AcDbEntity
  8
レイヤー 2
370
    25
100
AcDbVertex
100
AcDb2dVertex
 10
157.7905408676704
 20
120.808474362159
 30
0.0
  0
VERTEX
  5
11B
330
106
100
AcDbEntity
  8
レイヤー 2
370
    25
100
AcDbVertex
100
AcDb2dVertex
 10
155.3303981816535
 20
116.1531168329409
 30
0.0
  0
VERTEX
  5
11C
330
106
100
AcDbEntity
  8
レイヤー 2
370
    25
100
AcDbVertex
100
AcDb2dVertex
 10
152.6707844670406
 20
111.6992973896099
 30
0.0
  0
VERTEX
  5
11D
330
106
100
AcDbEntity
  8
レイヤー 2
370
    25
100
AcDbVertex
100
AcDb2dVertex
 10
149.8110107047347
 20
107.4435709366808
 30
0.0
  0
VERTEX
  5
11E
330
106
100
AcDbEntity
  8
レイヤー 2
370
    25
100
AcDbVertex
100
AcDb2dVertex
 10
146.8189452757953
 20
103.3218586981279
 30
0.0
  0
VERTEX
  5
11F
330
106
100
AcDbEntity
  8
レイヤー 2
370
    25
100
AcDbVertex
100
AcDb2dVertex
 10
143.6280978373569
 20
99.46472979284216
 30
0.0
  0
VERTEX
  5
120
330
106
100
AcDbEntity
  8
レイヤー 2
370
    25
100
AcDbVertex
100
AcDb2dVertex
 10
140.369382017859
 20
95.87390676856623
 30
0.0
  0
VERTEX
  5
121
330
106
100
AcDbEntity
  8
レイヤー 2
370
    25
100
AcDbVertex
100
AcDb2dVertex
 10
136.9783745317276
 20
92.48324379198335
 30
0.0
  0
VERTEX
  5
122
330
106
100
AcDbEntity
  8
レイヤー 2
370
    25
100
AcDbVertex
100
AcDb2dVertex
 10
135.2496256172293
 20
90.88782007276414
 30
0.0
  0
SEQEND
  5
123
330
106
100
AcDbEntity
  8
レイヤー 2
370
    25
  0
POLYLINE
  5
124
330
1F
100
AcDbEntity
  8
レイヤー 2
370
    25
100
AcDb2dPolyline
 66
     1
 10
0.0
 20
0.0
 30
0.0
  0
VERTEX
  5
125
330
124
100
AcDbEntity
  8
レイヤー 2
370
    25
100
AcDbVertex
100
AcDb2dVertex
 10
112.9095594335782
 20
76.06150714244295
 30
0.0
  0
VERTEX
  5
126
330
124
100
AcDbEntity
  8
レイヤー 2
370
    25
100
AcDbVertex
100
AcDb2dVertex
 10
109.5850422903121
 20
75.19678817564525
 30
0.0
  0
VERTEX
  5
127
330
124
100
AcDbEntity
  8
レイヤー 2
370
    25
100
AcDbVertex
100
AcDb2dVertex
 10
105.7282578945749
 20
74.5315402374435
 30
0.0
  0
VERTEX
  5
128
330
124
100
AcDbEntity
  8
レイヤー 2
370
    25
100
AcDbVertex
100
AcDb2dVertex
 10
101.872334772709
 20
74.1990885231169
 30
0.0
  0
VERTEX
  5
129
330
124
100
AcDbEntity
  8
レイヤー 2
370
    25
100
AcDbVertex
100
AcDb2dVertex
 10
98.08204071983714
 20
74.1990885231169
 30
0.0
  0
VERTEX
  5
12A
330
124
100
AcDbEntity
  8
レイヤー 2
370
    25
100
AcDbVertex
100
AcDb2dVertex
 10
94.35858151937912
 20
74.46573891367524
 30
0.0
  0
VERTEX
  5
12B
330
124
100
AcDbEntity
  8
レイヤー 2
370
    25
100
AcDbVertex
100
AcDb2dVertex
 10
91.23405216903178
 20
74.99697263750076
 30
0.0
  0
SEQEND
  5
12C
330
124
100
AcDbEntity
  8
レイヤー 2
370
    25
  0
POLYLINE
  5
12D
330
1F
100
AcDbEntity
  8
レイヤー 2
370
    25
100
AcDb2dPolyline
 66
     1
 10
0.0
 20
0.0
 30
0.0
  0
VERTEX
  5
12E
330
12D
100
AcDbEntity
  8
レイヤー 2
370
    25
100
AcDbVertex
100
AcDb2dVertex
 10
135.5820773315559
 20
246.2096055157046
 30
0.0
  0
VERTEX
  5
12F
330
12D
100
AcDbEntity
  8
レイヤー 2
370
    25
100
AcDbVertex
100
AcDb2dVertex
 10
135.8480387030172
 20
246.1424261537422
 30
0.0
  0
VERTEX
  5
130
330
12D
100
AcDbEntity
  8
レイヤー 2
370
    25
100
AcDbVertex
100
AcDb2dVertex
 10
139.3716823653307
 20
244.8124470416615
 30
0.0
  0
VERTEX
  5
131
330
12D
100
AcDbEntity
  8
レイヤー 2
370
    25
100
AcDbVertex
100
AcDb2dVertex
 10
142.7640678896562
 20
243.2170233224423
 30
0.0
  0
VERTEX
  5
132
330
12D
100
AcDbEntity
  8
レイヤー 2
370
    25
100
AcDbVertex
100
AcDb2dVertex
 10
146.0214056709599
 20
241.2889756341222
 30
0.0
  0
VERTEX
  5
133
330
12D
100
AcDbEntity
  8
レイヤー 2
370
    25
100
AcDbVertex
100
AcDb2dVertex
 10
149.2129421284954
 20
239.0954833386636
 30
0.0
  0
VERTEX
  5
134
330
12D
100
AcDbEntity
  8
レイヤー 2
370
    25
100
AcDbVertex
100
AcDb2dVertex
 10
152.2050075574349
 20
236.5679890359101
 30
0.0
  0
VERTEX
  5
135
330
12D
100
AcDbEntity
  8
レイヤー 2
370
    25
100
AcDbVertex
100
AcDb2dVertex
 10
154.0009358338956
 20
234.7727497785464
 30
0.0
  0
SEQEND
  5
136
330
12D
100
AcDbEntity
  8
レイヤー 2
370
    25
  0
POLYLINE
  5
137
330
1F
100
AcDbEntity
  8
レイヤー 2
370
    25
100
AcDb2dPolyline
 66
     1
 10
0.0
 20
0.0
 30
0.0
  0
VERTEX
  5
138
330
137
100
AcDbEntity
  8
レイヤー 2
370
    25
100
AcDbVertex
100
AcDb2dVertex
 10
131.3270398977238
 20
247.4725775205972
 30
0.0
  0
VERTEX
  5
139
330
137
100
AcDbEntity
  8
レイヤー 2
370
    25
100
AcDbVertex
100
AcDb2dVertex
 10
133.7203477313269
 20
246.8075018371697
 30
0.0
  0
VERTEX
  5
13A
330
137
100
AcDbEntity
  8
レイヤー 2
370
    25
100
AcDbVertex
100
AcDb2dVertex
 10
137.2439913936404
 20
245.477522725089
 30
0.0
  0
VERTEX
  5
13B
330
137
100
AcDbEntity
  8
レイヤー 2
370
    25
100
AcDbVertex
100
AcDb2dVertex
 10
140.6353433893203
 20
243.8819267510955
 30
0.0
  0
VERTEX
  5
13C
330
137
100
AcDbEntity
  8
レイヤー 2
370
    25
100
AcDbVertex
100
AcDb2dVertex
 10
143.8933701897211
 20
241.9552571009695
 30
0.0
  0
VERTEX
  5
13D
330
137
100
AcDbEntity
  8
レイヤー 2
370
    25
100
AcDbVertex
100
AcDb2dVertex
 10
147.0180717948426
 20
239.7603867673168
 30
0.0
  0
VERTEX
  5
13E
330
137
100
AcDbEntity
  8
レイヤー 2
370
    25
100
AcDbVertex
100
AcDb2dVertex
 10
150.0773165857446
 20
237.2330647193376
 30
0.0
  0
VERTEX
  5
13F
330
137
100
AcDbEntity
  8
レイヤー 2
370
    25
100
AcDbVertex
100
AcDb2dVertex
 10
152.8699109860881
 20
234.3758747786456
 30
0.0
  0
VERTEX
  5
140
330
137
100
AcDbEntity
  8
レイヤー 2
370
    25
100
AcDbVertex
100
AcDb2dVertex
 10
155.5956705340178
 20
231.3149074400012
 30
0.0
  0
VERTEX
  5
141
330
137
100
AcDbEntity
  8
レイヤー 2
370
    25
100
AcDbVertex
100
AcDb2dVertex
 10
158.122992581997
 20
227.9910793158321
 30
0.0
  0
VERTEX
  5
142
330
137
100
AcDbEntity
  8
レイヤー 2
370
    25
100
AcDbVertex
100
AcDb2dVertex
 10
160.4501545822833
 20
224.3335936939166
 30
0.0
  0
VERTEX
  5
143
330
137
100
AcDbEntity
  8
レイヤー 2
370
    25
100
AcDbVertex
100
AcDb2dVertex
 10
162.5785345730706
 20
220.5445054244646
 30
0.0
  0
VERTEX
  5
144
330
137
100
AcDbEntity
  8
レイヤー 2
370
    25
100
AcDbVertex
100
AcDb2dVertex
 10
164.5057209875194
 20
216.4229654406859
 30
0.0
  0
VERTEX
  5
145
330
137
100
AcDbEntity
  8
レイヤー 2
370
    25
100
AcDbVertex
100
AcDb2dVertex
 10
166.168324068701
 20
212.1672389877568
 30
0.0
  0
VERTEX
  5
146
330
137
100
AcDbEntity
  8
レイヤー 2
370
    25
100
AcDbVertex
100
AcDb2dVertex
 10
167.6982909737004
 20
207.7106634680376
 30
0.0
  0
VERTEX
  5
147
330
137
100
AcDbEntity
  8
レイヤー 2
370
    25
100
AcDbVertex
100
AcDb2dVertex
 10
168.960573959496
 20
203.0566839770136
 30
0.0
  0
VERTEX
  5
148
330
137
100
AcDbEntity
  8
レイヤー 2
370
    25
100
AcDbVertex
100
AcDb2dVertex
 10
170.0251084644382
 20
198.2702405645817
 30
0.0
  0
VERTEX
  5
149
330
137
100
AcDbEntity
  8
レイヤー 2
370
    25
100
AcDbVertex
100
AcDb2dVertex
 10
170.8891384121388
 20
193.3496106829994
 30
0.0
  0
VERTEX
  5
14A
330
137
100
AcDbEntity
  8
レイヤー 2
370
    25
100
AcDbVertex
100
AcDb2dVertex
 10
171.4872069883782
 20
188.2961723704607
 30
0.0
  0
VERTEX
  5
14B
330
137
100
AcDbEntity
  8
レイヤー 2
370
    25
100
AcDbVertex
100
AcDb2dVertex
 10
171.8196587027048
 20
183.1100978817398
 30
0.0
  0
VERTEX
  5
14C
330
137
100
AcDbEntity
  8
レイヤー 2
370
    25
100
AcDbVertex
100
AcDb2dVertex
 10
171.9533284075325
 20
177.924023393019
 30
0.0
  0
VERTEX
  5
14D
330
137
100
AcDbEntity
  8
レイヤー 2
370
    25
100
AcDbVertex
100
AcDb2dVertex
 10
171.8196587027048
 20
172.6065185115359
 30
0.0
  0
VERTEX
  5
14E
330
137
100
AcDbEntity
  8
レイヤー 2
370
    25
100
AcDbVertex
100
AcDb2dVertex
 10
171.4872069883782
 20
167.2862575536645
 30
0.0
  0
VERTEX
  5
14F
330
137
100
AcDbEntity
  8
レイヤー 2
370
    25
100
AcDbVertex
100
AcDb2dVertex
 10
170.8891384121388
 20
161.8989894886051
 30
0.0
  0
VERTEX
  5
150
330
137
100
AcDbEntity
  8
レイヤー 2
370
    25
100
AcDbVertex
100
AcDb2dVertex
 10
170.0251084644382
 20
156.5144774999339
 30
0.0
  0
VERTEX
  5
151
330
137
100
AcDbEntity
  8
レイヤー 2
370
    25
100
AcDbVertex
100
AcDb2dVertex
 10
168.960573959496
 20
151.1943887968368
 30
0.0
  0
VERTEX
  5
152
330
137
100
AcDbEntity
  8
レイヤー 2
370
    25
100
AcDbVertex
100
AcDb2dVertex
 10
167.6982909737004
 20
145.8753336223853
 30
0.0
  0
VERTEX
  5
153
330
137
100
AcDbEntity
  8
レイヤー 2
370
    25
100
AcDbVertex
100
AcDb2dVertex
 10
166.168324068701
 20
140.6222520264764
 30
0.0
  0
VERTEX
  5
154
330
137
100
AcDbEntity
  8
レイヤー 2
370
    25
100
AcDbVertex
100
AcDb2dVertex
 10
164.5057209875194
 20
135.5031846449436
 30
0.0
  0
VERTEX
  5
155
330
137
100
AcDbEntity
  8
レイヤー 2
370
    25
100
AcDbVertex
100
AcDb2dVertex
 10
162.5785345730706
 20
130.4485405489851
 30
0.0
  0
VERTEX
  5
156
330
137
100
AcDbEntity
  8
レイヤー 2
370
    25
100
AcDbVertex
100
AcDb2dVertex
 10
160.4501545822833
 20
125.4621093436345
 30
0.0
  0
VERTEX
  5
157
330
137
100
AcDbEntity
  8
レイヤー 2
370
    25
100
AcDbVertex
100
AcDb2dVertex
 10
158.122992581997
 20
120.6754936764284
 30
0.0
  0
VERTEX
  5
158
330
137
100
AcDbEntity
  8
レイヤー 2
370
    25
100
AcDbVertex
100
AcDb2dVertex
 10
155.5956705340178
 20
116.0218586949529
 30
0.0
  0
VERTEX
  5
159
330
137
100
AcDbEntity
  8
レイヤー 2
370
    25
100
AcDbVertex
100
AcDb2dVertex
 10
152.8699109860881
 20
111.5676947420734
 30
0.0
  0
VERTEX
  5
15A
330
137
100
AcDbEntity
  8
レイヤー 2
370
    25
100
AcDbVertex
100
AcDb2dVertex
 10
150.0773165857446
 20
107.2451334367304
 30
0.0
  0
VERTEX
  5
15B
330
137
100
AcDbEntity
  8
レイヤー 2
370
    25
100
AcDbVertex
100
AcDb2dVertex
 10
147.0180717948426
 20
103.1878444837517
 30
0.0
  0
VERTEX
  5
15C
330
137
100
AcDbEntity
  8
レイヤー 2
370
    25
100
AcDbVertex
100
AcDb2dVertex
 10
143.8933701897211
 20
99.33312714530559
 30
0.0
  0
VERTEX
  5
15D
330
137
100
AcDbEntity
  8
レイヤー 2
370
    25
100
AcDbVertex
100
AcDb2dVertex
 10
140.6353433893203
 20
95.67546926861586
 30
0.0
  0
VERTEX
  5
15E
330
137
100
AcDbEntity
  8
レイヤー 2
370
    25
100
AcDbVertex
100
AcDb2dVertex
 10
137.2439913936404
 20
92.35198565399533
 30
0.0
  0
VERTEX
  5
15F
330
137
100
AcDbEntity
  8
レイヤー 2
370
    25
100
AcDbVertex
100
AcDb2dVertex
 10
133.7203477313269
 20
89.22521699158258
 30
0.0
  0
VERTEX
  5
160
330
137
100
AcDbEntity
  8
レイヤー 2
370
    25
100
AcDbVertex
100
AcDb2dVertex
 10
130.1305582356965
 20
86.36785479611637
 30
0.0
  0
VERTEX
  5
161
330
137
100
AcDbEntity
  8
レイヤー 2
370
    25
100
AcDbVertex
100
AcDb2dVertex
 10
126.4064100161415
 20
83.84053274813709
 30
0.0
  0
VERTEX
  5
162
330
137
100
AcDbEntity
  8
レイヤー 2
370
    25
100
AcDbVertex
100
AcDb2dVertex
 10
122.683295325232
 20
81.57882756207056
 30
0.0
  0
VERTEX
  5
163
330
137
100
AcDbEntity
  8
レイヤー 2
370
    25
100
AcDbVertex
100
AcDb2dVertex
 10
118.8933457819086
 20
79.65060761897622
 30
0.0
  0
VERTEX
  5
164
330
137
100
AcDbEntity
  8
レイヤー 2
370
    25
100
AcDbVertex
100
AcDb2dVertex
 10
115.1030517290367
 20
77.98938257598877
 30
0.0
  0
VERTEX
  5
165
330
137
100
AcDbEntity
  8
レイヤー 2
370
    25
100
AcDbVertex
100
AcDb2dVertex
 10
111.2469563523966
 20
76.66060924732791
 30
0.0
  0
VERTEX
  5
166
330
137
100
AcDbEntity
  8
レイヤー 2
370
    25
100
AcDbVertex
100
AcDb2dVertex
 10
107.3908609757565
 20
75.66049802795987
 30
0.0
  0
VERTEX
  5
167
330
137
100
AcDbEntity
  8
レイヤー 2
370
    25
100
AcDbVertex
100
AcDb2dVertex
 10
103.5349378538906
 20
74.99697263750076
 30
0.0
  0
VERTEX
  5
168
330
137
100
AcDbEntity
  8
レイヤー 2
370
    25
100
AcDbVertex
100
AcDb2dVertex
 10
99.67746443905634
 20
74.66417641362562
 30
0.0
  0
VERTEX
  5
169
330
137
100
AcDbEntity
  8
レイヤー 2
370
    25
100
AcDbVertex
100
AcDb2dVertex
 10
95.88837616960431
 20
74.66417641362562
 30
0.0
  0
VERTEX
  5
16A
330
137
100
AcDbEntity
  8
レイヤー 2
370
    25
100
AcDbVertex
100
AcDb2dVertex
 10
92.1644002048235
 20
74.92979327553839
 30
0.0
  0
VERTEX
  5
16B
330
137
100
AcDbEntity
  8
レイヤー 2
370
    25
100
AcDbVertex
100
AcDb2dVertex
 10
88.5074313472308
 20
75.59469670419159
 30
0.0
  0
VERTEX
  5
16C
330
137
100
AcDbEntity
  8
レイヤー 2
370
    25
100
AcDbVertex
100
AcDb2dVertex
 10
86.91200762801157
 20
75.99294974228648
 30
0.0
  0
SEQEND
  5
16D
330
137
100
AcDbEntity
  8
レイヤー 2
370
    25
  0
POLYLINE
  5
16E
330
1F
100
AcDbEntity
  8
レイヤー 2
370
    25
100
AcDb2dPolyline
 66
     1
 10
0.0
 20
0.0
 30
0.0
  0
VERTEX
  5
16F
330
16E
100
AcDbEntity
  8
レイヤー 2
370
    25
100
AcDbVertex
100
AcDb2dVertex
 10
151.7395751573775
 20
235.3720241382056
 30
0.0
  0
VERTEX
  5
170
330
16E
100
AcDbEntity
  8
レイヤー 2
370
    25
100
AcDbVertex
100
AcDb2dVertex
 10
152.8030761336742
 20
234.2418605642694
 30
0.0
  0
VERTEX
  5
171
330
16E
100
AcDbEntity
  8
レイヤー 2
370
    25
100
AcDbVertex
100
AcDb2dVertex
 10
155.4637233769327
 20
231.1820990090448
 30
0.0
  0
VERTEX
  5
172
330
16E
100
AcDbEntity
  8
レイヤー 2
370
    25
100
AcDbVertex
100
AcDb2dVertex
 10
157.9896673867179
 20
227.7926418158817
 30
0.0
  0
VERTEX
  5
173
330
16E
100
AcDbEntity
  8
レイヤー 2
370
    25
100
AcDbVertex
100
AcDb2dVertex
 10
160.3171738965526
 20
224.2021633011543
 30
0.0
  0
VERTEX
  5
174
330
16E
100
AcDbEntity
  8
レイヤー 2
370
    25
100
AcDbVertex
100
AcDb2dVertex
 10
162.4452093777915
 20
220.4130750317023
 30
0.0
  0
VERTEX
  5
175
330
16E
100
AcDbEntity
  8
レイヤー 2
370
    25
100
AcDbVertex
100
AcDb2dVertex
 10
164.3737738304343
 20
216.3545802953037
 30
0.0
  0
VERTEX
  5
176
330
16E
100
AcDbEntity
  8
レイヤー 2
370
    25
100
AcDbVertex
100
AcDb2dVertex
 10
166.1021782353842
 20
212.1002318805687
 30
0.0
  0
VERTEX
  5
177
330
16E
100
AcDbEntity
  8
レイヤー 2
370
    25
100
AcDbVertex
100
AcDb2dVertex
 10
167.5649657784213
 20
207.6448621442694
 30
0.0
  0
VERTEX
  5
178
330
16E
100
AcDbEntity
  8
レイヤー 2
370
    25
100
AcDbVertex
100
AcDb2dVertex
 10
168.8279377833138
 20
202.9910549080196
 30
0.0
  0
VERTEX
  5
179
330
16E
100
AcDbEntity
  8
レイヤー 2
370
    25
100
AcDbVertex
100
AcDb2dVertex
 10
169.891783269159
 20
198.2046114955878
 30
0.0
  0
VERTEX
  5
17A
330
16E
100
AcDbEntity
  8
レイヤー 2
370
    25
100
AcDbVertex
100
AcDb2dVertex
 10
170.7565022359567
 20
193.2838093592311
 30
0.0
  0
VERTEX
  5
17B
330
16E
100
AcDbEntity
  8
レイヤー 2
370
    25
100
AcDbVertex
100
AcDb2dVertex
 10
171.3552598312931
 20
188.2305433014666
 30
0.0
  0
VERTEX
  5
17C
330
16E
100
AcDbEntity
  8
レイヤー 2
370
    25
100
AcDbVertex
100
AcDb2dVertex
 10
171.6877115456197
 20
183.1100978817398
 30
0.0
  0
VERTEX
  5
17D
330
16E
100
AcDbEntity
  8
レイヤー 2
370
    25
100
AcDbVertex
100
AcDb2dVertex
 10
171.8196587027048
 20
177.8570162858309
 30
0.0
  0
VERTEX
  5
17E
330
16E
100
AcDbEntity
  8
レイヤー 2
370
    25
100
AcDbVertex
100
AcDb2dVertex
 10
171.6877115456197
 20
172.6065185115359
 30
0.0
  0
VERTEX
  5
17F
330
16E
100
AcDbEntity
  8
レイヤー 2
370
    25
100
AcDbVertex
100
AcDb2dVertex
 10
171.3552598312931
 20
167.2192504464765
 30
0.0
  0
VERTEX
  5
180
330
16E
100
AcDbEntity
  8
レイヤー 2
370
    25
100
AcDbVertex
100
AcDb2dVertex
 10
170.7565022359567
 20
161.8989894886051
 30
0.0
  0
VERTEX
  5
181
330
16E
100
AcDbEntity
  8
レイヤー 2
370
    25
100
AcDbVertex
100
AcDb2dVertex
 10
169.891783269159
 20
156.5802788237022
 30
0.0
  0
VERTEX
  5
182
330
16E
100
AcDbEntity
  8
レイヤー 2
370
    25
100
AcDbVertex
100
AcDb2dVertex
 10
168.8279377833138
 20
151.1943887968368
 30
0.0
  0
VERTEX
  5
183
330
16E
100
AcDbEntity
  8
レイヤー 2
370
    25
100
AcDbVertex
100
AcDb2dVertex
 10
167.5649657784213
 20
145.9425129843477
 30
0.0
  0
VERTEX
  5
184
330
16E
100
AcDbEntity
  8
レイヤー 2
370
    25
100
AcDbVertex
100
AcDb2dVertex
 10
166.1021782353842
 20
140.6894313884387
 30
0.0
  0
VERTEX
  5
185
330
16E
100
AcDbEntity
  8
レイヤー 2
370
    25
100
AcDbVertex
100
AcDb2dVertex
 10
164.3737738304343
 20
135.570364006906
 30
0.0
  0
VERTEX
  5
186
330
16E
100
AcDbEntity
  8
レイヤー 2
370
    25
100
AcDbVertex
100
AcDb2dVertex
 10
162.4452093777915
 20
130.516753439593
 30
0.0
  0
VERTEX
  5
187
330
16E
100
AcDbEntity
  8
レイヤー 2
370
    25
100
AcDbVertex
100
AcDb2dVertex
 10
160.3171738965526
 20
125.5306667437909
 30
0.0
  0
VERTEX
  5
188
330
16E
100
AcDbEntity
  8
レイヤー 2
370
    25
100
AcDbVertex
100
AcDb2dVertex
 10
157.9896673867179
 20
120.7412950001966
 30
0.0
  0
VERTEX
  5
189
330
16E
100
AcDbEntity
  8
レイヤー 2
370
    25
100
AcDbVertex
100
AcDb2dVertex
 10
155.4637233769327
 20
116.0876600187212
 30
0.0
  0
VERTEX
  5
18A
330
16E
100
AcDbEntity
  8
レイヤー 2
370
    25
100
AcDbVertex
100
AcDb2dVertex
 10
152.8030761336742
 20
111.6334960658416
 30
0.0
  0
VERTEX
  5
18B
330
16E
100
AcDbEntity
  8
レイヤー 2
370
    25
100
AcDbVertex
100
AcDb2dVertex
 10
149.9443359000139
 20
107.3777696129125
 30
0.0
  0
VERTEX
  5
18C
330
16E
100
AcDbEntity
  8
レイヤー 2
370
    25
100
AcDbVertex
100
AcDb2dVertex
 10
146.952614980623
 20
103.3218586981279
 30
0.0
  0
VERTEX
  5
18D
330
16E
100
AcDbEntity
  8
レイヤー 2
370
    25
100
AcDbVertex
100
AcDb2dVertex
 10
143.8272243564043
 20
99.46472979284216
 30
0.0
  0
VERTEX
  5
18E
330
16E
100
AcDbEntity
  8
レイヤー 2
370
    25
100
AcDbVertex
100
AcDb2dVertex
 10
140.5685085369065
 20
95.80844995434651
 30
0.0
  0
VERTEX
  5
18F
330
16E
100
AcDbEntity
  8
レイヤー 2
370
    25
100
AcDbVertex
100
AcDb2dVertex
 10
137.1781900698721
 20
92.48324379198335
 30
0.0
  0
VERTEX
  5
190
330
16E
100
AcDbEntity
  8
レイヤー 2
370
    25
100
AcDbVertex
100
AcDb2dVertex
 10
133.6538573884615
 20
89.3592312059588
 30
0.0
  0
VERTEX
  5
191
330
16E
100
AcDbEntity
  8
レイヤー 2
370
    25
100
AcDbVertex
100
AcDb2dVertex
 10
130.0633788737342
 20
86.56629229606677
 30
0.0
  0
VERTEX
  5
192
330
16E
100
AcDbEntity
  8
レイヤー 2
370
    25
100
AcDbVertex
100
AcDb2dVertex
 10
126.4064100161415
 20
83.97454696251331
 30
0.0
  0
VERTEX
  5
193
330
16E
100
AcDbEntity
  8
レイヤー 2
370
    25
100
AcDbVertex
100
AcDb2dVertex
 10
122.683295325232
 20
81.71284177644679
 30
0.0
  0
VERTEX
  5
194
330
16E
100
AcDbEntity
  8
レイヤー 2
370
    25
100
AcDbVertex
100
AcDb2dVertex
 10
118.8933457819086
 20
79.78462183335245
 30
0.0
  0
VERTEX
  5
195
330
16E
100
AcDbEntity
  8
レイヤー 2
370
    25
100
AcDbVertex
100
AcDb2dVertex
 10
115.0372504052685
 20
78.18782007593916
 30
0.0
  0
VERTEX
  5
196
330
16E
100
AcDbEntity
  8
レイヤー 2
370
    25
100
AcDbVertex
100
AcDb2dVertex
 10
111.2469563523966
 20
76.85904674727829
 30
0.0
  0
VERTEX
  5
197
330
16E
100
AcDbEntity
  8
レイヤー 2
370
    25
100
AcDbVertex
100
AcDb2dVertex
 10
110.5162515999751
 20
76.66060924732791
 30
0.0
  0
SEQEND
  5
198
330
16E
100
AcDbEntity
  8
レイヤー 2
370
    25
  0
POLYLINE
  5
199
330
1F
100
AcDbEntity
  8
レイヤー 2
370
    25
100
AcDb2dPolyline
 66
     1
 10
0.0
 20
0.0
 30
0.0
  0
VERTEX
  5
19A
330
199
100
AcDbEntity
  8
レイヤー 2
370
    25
100
AcDbVertex
100
AcDb2dVertex
 10
129.2654947593503
 20
248.0062228112623
 30
0.0
  0
VERTEX
  5
19B
330
199
100
AcDbEntity
  8
レイヤー 2
370
    25
100
AcDbVertex
100
AcDb2dVertex
 10
129.7981065213699
 20
247.8722085968861
 30
0.0
  0
VERTEX
  5
19C
330
199
100
AcDbEntity
  8
レイヤー 2
370
    25
100
AcDbVertex
100
AcDb2dVertex
 10
133.3878960170003
 20
246.8745089443578
 30
0.0
  0
VERTEX
  5
19D
330
199
100
AcDbEntity
  8
レイヤー 2
370
    25
100
AcDbVertex
100
AcDb2dVertex
 10
136.9115396793138
 20
245.6101589012711
 30
0.0
  0
VERTEX
  5
19E
330
199
100
AcDbEntity
  8
レイヤー 2
370
    25
100
AcDbVertex
100
AcDb2dVertex
 10
140.3035806940908
 20
243.9489338582836
 30
0.0
  0
VERTEX
  5
19F
330
199
100
AcDbEntity
  8
レイヤー 2
370
    25
100
AcDbVertex
100
AcDb2dVertex
 10
143.5609184753945
 20
242.0880655319259
 30
0.0
  0
VERTEX
  5
1A0
330
199
100
AcDbEntity
  8
レイヤー 2
370
    25
100
AcDbVertex
100
AcDb2dVertex
 10
146.6856200805161
 20
239.8261880910851
 30
0.0
  0
VERTEX
  5
1A1
330
199
100
AcDbEntity
  8
レイヤー 2
370
    25
100
AcDbVertex
100
AcDb2dVertex
 10
149.7452093809665
 20
237.2988660431058
 30
0.0
  0
VERTEX
  5
1A2
330
199
100
AcDbEntity
  8
レイヤー 2
370
    25
100
AcDbVertex
100
AcDb2dVertex
 10
152.5374592717615
 20
234.5073051714079
 30
0.0
  0
VERTEX
  5
1A3
330
199
100
AcDbEntity
  8
レイヤー 2
370
    25
100
AcDbVertex
100
AcDb2dVertex
 10
155.263218819691
 20
231.3832925853833
 30
0.0
  0
VERTEX
  5
1A4
330
199
100
AcDbEntity
  8
レイヤー 2
370
    25
100
AcDbVertex
100
AcDb2dVertex
 10
157.7905408676704
 20
228.0580864230202
 30
0.0
  0
VERTEX
  5
1A5
330
199
100
AcDbEntity
  8
レイヤー 2
370
    25
100
AcDbVertex
100
AcDb2dVertex
 10
160.1180473775052
 20
224.4676079082928
 30
0.0
  0
VERTEX
  5
1A6
330
199
100
AcDbEntity
  8
レイヤー 2
370
    25
100
AcDbVertex
100
AcDb2dVertex
 10
162.246082858744
 20
220.6115125316527
 30
0.0
  0
VERTEX
  5
1A7
330
199
100
AcDbEntity
  8
レイヤー 2
370
    25
100
AcDbVertex
100
AcDb2dVertex
 10
164.1732692731928
 20
216.5543958334482
 30
0.0
  0
VERTEX
  5
1A8
330
199
100
AcDbEntity
  8
レイヤー 2
370
    25
100
AcDbVertex
100
AcDb2dVertex
 10
165.8358723543744
 20
212.2330403115251
 30
0.0
  0
VERTEX
  5
1A9
330
199
100
AcDbEntity
  8
レイヤー 2
370
    25
100
AcDbVertex
100
AcDb2dVertex
 10
167.3658392593738
 20
207.7790486134198
 30
0.0
  0
VERTEX
  5
1AA
330
199
100
AcDbEntity
  8
レイヤー 2
370
    25
100
AcDbVertex
100
AcDb2dVertex
 10
168.6288112642664
 20
203.1908704461641
 30
0.0
  0
VERTEX
  5
1AB
330
199
100
AcDbEntity
  8
レイヤー 2
370
    25
100
AcDbVertex
100
AcDb2dVertex
 10
169.6926567501116
 20
198.3358696335758
 30
0.0
  0
VERTEX
  5
1AC
330
199
100
AcDbEntity
  8
レイヤー 2
370
    25
100
AcDbVertex
100
AcDb2dVertex
 10
170.5566866978122
 20
193.4152397519934
 30
0.0
  0
VERTEX
  5
1AD
330
199
100
AcDbEntity
  8
レイヤー 2
370
    25
100
AcDbVertex
100
AcDb2dVertex
 10
171.1547552740516
 20
188.3631794776488
 30
0.0
  0
VERTEX
  5
1AE
330
199
100
AcDbEntity
  8
レイヤー 2
370
    25
100
AcDbVertex
100
AcDb2dVertex
 10
171.4872069883782
 20
183.2441120961161
 30
0.0
  0
VERTEX
  5
1AF
330
199
100
AcDbEntity
  8
レイヤー 2
370
    25
100
AcDbVertex
100
AcDb2dVertex
 10
171.6205321836573
 20
177.9910305002071
 30
0.0
  0
VERTEX
  5
1B0
330
199
100
AcDbEntity
  8
レイヤー 2
370
    25
100
AcDbVertex
100
AcDb2dVertex
 10
171.4872069883782
 20
172.6707695423358
 30
0.0
  0
VERTEX
  5
1B1
330
199
100
AcDbEntity
  8
レイヤー 2
370
    25
100
AcDbVertex
100
AcDb2dVertex
 10
171.1547552740516
 20
167.3532646608527
 30
0.0
  0
VERTEX
  5
1B2
330
199
100
AcDbEntity
  8
レイヤー 2
370
    25
100
AcDbVertex
100
AcDb2dVertex
 10
170.5566866978122
 20
161.9661688505675
 30
0.0
  0
VERTEX
  5
1B3
330
199
100
AcDbEntity
  8
レイヤー 2
370
    25
100
AcDbVertex
100
AcDb2dVertex
 10
169.6926567501116
 20
156.6459078926962
 30
0.0
  0
VERTEX
  5
1B4
330
199
100
AcDbEntity
  8
レイヤー 2
370
    25
100
AcDbVertex
100
AcDb2dVertex
 10
168.6288112642664
 20
151.2613959040249
 30
0.0
  0
VERTEX
  5
1B5
330
199
100
AcDbEntity
  8
レイヤー 2
370
    25
100
AcDbVertex
100
AcDb2dVertex
 10
167.3658392593738
 20
146.008314308116
 30
0.0
  0
VERTEX
  5
1B6
330
199
100
AcDbEntity
  8
レイヤー 2
370
    25
100
AcDbVertex
100
AcDb2dVertex
 10
165.8358723543744
 20
140.755232712207
 30
0.0
  0
VERTEX
  5
1B7
330
199
100
AcDbEntity
  8
レイヤー 2
370
    25
100
AcDbVertex
100
AcDb2dVertex
 10
164.1732692731928
 20
135.570364006906
 30
0.0
  0
VERTEX
  5
1B8
330
199
100
AcDbEntity
  8
レイヤー 2
370
    25
100
AcDbVertex
100
AcDb2dVertex
 10
162.246082858744
 20
130.516753439593
 30
0.0
  0
VERTEX
  5
1B9
330
199
100
AcDbEntity
  8
レイヤー 2
370
    25
100
AcDbVertex
100
AcDb2dVertex
 10
160.1180473775052
 20
125.5961235580107
 30
0.0
  0
VERTEX
  5
1BA
330
199
100
AcDbEntity
  8
レイヤー 2
370
    25
100
AcDbVertex
100
AcDb2dVertex
 10
157.7905408676704
 20
120.7412950001966
 30
0.0
  0
VERTEX
  5
1BB
330
199
100
AcDbEntity
  8
レイヤー 2
370
    25
100
AcDbVertex
100
AcDb2dVertex
 10
155.263218819691
 20
116.0876600187212
 30
0.0
  0
VERTEX
  5
1BC
330
199
100
AcDbEntity
  8
レイヤー 2
370
    25
100
AcDbVertex
100
AcDb2dVertex
 10
152.5374592717615
 20
111.6334960658416
 30
0.0
  0
VERTEX
  5
1BD
330
199
100
AcDbEntity
  8
レイヤー 2
370
    25
100
AcDbVertex
100
AcDb2dVertex
 10
149.7452093809665
 20
107.3123127986928
 30
0.0
  0
VERTEX
  5
1BE
330
199
100
AcDbEntity
  8
レイヤー 2
370
    25
100
AcDbVertex
100
AcDb2dVertex
 10
146.6856200805161
 20
103.2564018839081
 30
0.0
  0
VERTEX
  5
1BF
330
199
100
AcDbEntity
  8
レイヤー 2
370
    25
100
AcDbVertex
100
AcDb2dVertex
 10
143.5609184753945
 20
99.39892846907387
 30
0.0
  0
VERTEX
  5
1C0
330
199
100
AcDbEntity
  8
レイヤー 2
370
    25
100
AcDbVertex
100
AcDb2dVertex
 10
140.3035806940908
 20
95.80844995434651
 30
0.0
  0
VERTEX
  5
1C1
330
199
100
AcDbEntity
  8
レイヤー 2
370
    25
100
AcDbVertex
100
AcDb2dVertex
 10
136.9115396793138
 20
92.41744246821509
 30
0.0
  0
VERTEX
  5
1C2
330
199
100
AcDbEntity
  8
レイヤー 2
370
    25
100
AcDbVertex
100
AcDb2dVertex
 10
133.3878960170003
 20
89.29342988219055
 30
0.0
  0
VERTEX
  5
1C3
330
199
100
AcDbEntity
  8
レイヤー 2
370
    25
100
AcDbVertex
100
AcDb2dVertex
 10
129.7981065213699
 20
86.43365611988466
 30
0.0
  0
VERTEX
  5
1C4
330
199
100
AcDbEntity
  8
レイヤー 2
370
    25
100
AcDbVertex
100
AcDb2dVertex
 10
126.0739583018149
 20
83.90633407190534
 30
0.0
  0
VERTEX
  5
1C5
330
199
100
AcDbEntity
  8
レイヤー 2
370
    25
100
AcDbVertex
100
AcDb2dVertex
 10
122.3511881204539
 20
81.64704045267852
 30
0.0
  0
VERTEX
  5
1C6
330
199
100
AcDbEntity
  8
レイヤー 2
370
    25
100
AcDbVertex
100
AcDb2dVertex
 10
118.560894067582
 20
79.71916501913272
 30
0.0
  0
VERTEX
  5
1C7
330
199
100
AcDbEntity
  8
レイヤー 2
370
    25
100
AcDbVertex
100
AcDb2dVertex
 10
114.7706000147101
 20
78.05656193795114
 30
0.0
  0
VERTEX
  5
1C8
330
199
100
AcDbEntity
  8
レイヤー 2
370
    25
100
AcDbVertex
100
AcDb2dVertex
 10
110.9145046380699
 20
76.72641057109619
 30
0.0
  0
VERTEX
  5
1C9
330
199
100
AcDbEntity
  8
レイヤー 2
370
    25
100
AcDbVertex
100
AcDb2dVertex
 10
107.0584092614298
 20
75.72905542811634
 30
0.0
  0
VERTEX
  5
1CA
330
199
100
AcDbEntity
  8
レイヤー 2
370
    25
100
AcDbVertex
100
AcDb2dVertex
 10
103.2023138847897
 20
75.0638074899146
 30
0.0
  0
VERTEX
  5
1CB
330
199
100
AcDbEntity
  8
レイヤー 2
370
    25
100
AcDbVertex
100
AcDb2dVertex
 10
99.34501272472971
 20
74.73135577558799
 30
0.0
  0
VERTEX
  5
1CC
330
199
100
AcDbEntity
  8
レイヤー 2
370
    25
100
AcDbVertex
100
AcDb2dVertex
 10
95.5559244552777
 20
74.73135577558799
 30
0.0
  0
VERTEX
  5
1CD
330
199
100
AcDbEntity
  8
レイヤー 2
370
    25
100
AcDbVertex
100
AcDb2dVertex
 10
91.83194849049689
 20
75.0638074899146
 30
0.0
  0
VERTEX
  5
1CE
330
199
100
AcDbEntity
  8
レイヤー 2
370
    25
100
AcDbVertex
100
AcDb2dVertex
 10
88.17497963290419
 20
75.66049802795987
 30
0.0
  0
VERTEX
  5
1CF
330
199
100
AcDbEntity
  8
レイヤー 2
370
    25
100
AcDbVertex
100
AcDb2dVertex
 10
84.85046248963808
 20
76.52659503295168
 30
0.0
  0
SEQEND
  5
1D0
330
199
100
AcDbEntity
  8
レイヤー 2
370
    25
  0
POLYLINE
  5
1D1
330
1F
100
AcDbEntity
  8
レイヤー 2
370
    25
100
AcDb2dPolyline
 66
     1
 10
0.0
 20
0.0
 30
0.0
  0
VERTEX
  5
1D2
330
1D1
100
AcDbEntity
  8
レイヤー 2
370
    25
100
AcDbVertex
100
AcDb2dVertex
 10
64.90387639436431
 20
82.77599824319489
 30
0.0
  0
VERTEX
  5
1D3
330
1D1
100
AcDbEntity
  8
レイヤー 2
370
    25
100
AcDbVertex
100
AcDb2dVertex
 10
64.57142468003771
 20
82.84317760515726
 30
0.0
  0
VERTEX
  5
1D4
330
1D1
100
AcDbEntity
  8
レイヤー 2
370
    25
100
AcDbVertex
100
AcDb2dVertex
 10
64.43792722998427
 20
82.908634419377
 30
0.0
  0
SEQEND
  5
1D5
330
1D1
100
AcDbEntity
  8
レイヤー 2
370
    25
  0
POLYLINE
  5
1DA
330
1F
100
AcDbEntity
  8
レイヤー 2
370
    25
100
AcDb2dPolyline
 66
     1
 10
0.0
 20
0.0
 30
0.0
  0
VERTEX
  5
1DB
330
1DA
100
AcDbEntity
  8
レイヤー 2
370
    25
100
AcDbVertex
100
AcDb2dVertex
 10
150.0773165857446
 20
238.3647785862422
 30
0.0
  0
VERTEX
  5
1DC
330
1DA
100
AcDbEntity
  8
レイヤー 2
370
    25
100
AcDbVertex
100
AcDb2dVertex
 10
150.9420355525423
 20
238.0321546171413
 30
0.0
  0
VERTEX
  5
1DD
330
1DA
100
AcDbEntity
  8
レイヤー 2
370
    25
100
AcDbVertex
100
AcDb2dVertex
 10
154.2665526958084
 20
236.5679890359101
 30
0.0
  0
VERTEX
  5
1DE
330
1DA
100
AcDbEntity
  8
レイヤー 2
370
    25
100
AcDbVertex
100
AcDb2dVertex
 10
157.5245794962091
 20
234.8397568857345
 30
0.0
  0
VERTEX
  5
1DF
330
1DA
100
AcDbEntity
  8
レイヤー 2
370
    25
100
AcDbVertex
100
AcDb2dVertex
 10
160.6499701204278
 20
232.7132716974641
 30
0.0
  0
VERTEX
  5
1E0
330
1DA
100
AcDbEntity
  8
レイヤー 2
370
    25
100
AcDbVertex
100
AcDb2dVertex
 10
163.5752006969534
 20
230.3857651876293
 30
0.0
  0
VERTEX
  5
1E1
330
1DA
100
AcDbEntity
  8
レイヤー 2
370
    25
100
AcDbVertex
100
AcDb2dVertex
 10
166.4346299497108
 20
227.7256347086936
 30
0.0
  0
VERTEX
  5
1E2
330
1DA
100
AcDbEntity
  8
レイヤー 2
370
    25
100
AcDbVertex
100
AcDb2dVertex
 10
169.0938991547751
 20
224.7330525154313
 30
0.0
  0
VERTEX
  5
1E3
330
1DA
100
AcDbEntity
  8
レイヤー 2
370
    25
100
AcDbVertex
100
AcDb2dVertex
 10
171.5543863503406
 20
221.5420328222187
 30
0.0
  0
VERTEX
  5
1E4
330
1DA
100
AcDbEntity
  8
レイヤー 2
370
    25
100
AcDbVertex
100
AcDb2dVertex
 10
173.8812038410783
 20
218.0855685218675
 30
0.0
  0
VERTEX
  5
1E5
330
1DA
100
AcDbEntity
  8
レイヤー 2
370
    25
100
AcDbVertex
100
AcDb2dVertex
 10
176.0088948127686
 20
214.3609035379897
 30
0.0
  0
VERTEX
  5
1E6
330
1DA
100
AcDbEntity
  8
レイヤー 2
370
    25
100
AcDbVertex
100
AcDb2dVertex
 10
177.8706244129976
 20
210.4378010541614
 30
0.0
  0
VERTEX
  5
1E7
330
1DA
100
AcDbEntity
  8
レイヤー 2
370
    25
100
AcDbVertex
100
AcDb2dVertex
 10
179.5990288179475
 20
206.3162610703828
 30
0.0
  0
VERTEX
  5
1E8
330
1DA
100
AcDbEntity
  8
レイヤー 2
370
    25
100
AcDbVertex
100
AcDb2dVertex
 10
181.0625053800816
 20
201.9935275102655
 30
0.0
  0
VERTEX
  5
1E9
330
1DA
100
AcDbEntity
  8
レイヤー 2
370
    25
100
AcDbVertex
100
AcDb2dVertex
 10
182.391623218291
 20
197.471150666778
 30
0.0
  0
VERTEX
  5
1EA
330
1DA
100
AcDbEntity
  8
レイヤー 2
370
    25
100
AcDbVertex
100
AcDb2dVertex
 10
183.3893228708193
 20
192.8173434305283
 30
0.0
  0
VERTEX
  5
1EB
330
1DA
100
AcDbEntity
  8
レイヤー 2
370
    25
100
AcDbVertex
100
AcDb2dVertex
 10
184.25335281852
 20
188.0307277633221
 30
0.0
  0
VERTEX
  5
1EC
330
1DA
100
AcDbEntity
  8
レイヤー 2
370
    25
100
AcDbVertex
100
AcDb2dVertex
 10
184.8521104138564
 20
183.1100978817398
 30
0.0
  0
VERTEX
  5
1ED
330
1DA
100
AcDbEntity
  8
レイヤー 2
370
    25
100
AcDbVertex
100
AcDb2dVertex
 10
185.184562128183
 20
178.1224608929694
 30
0.0
  0
VERTEX
  5
1EE
330
1DA
100
AcDbEntity
  8
レイヤー 2
370
    25
100
AcDbVertex
100
AcDb2dVertex
 10
185.3178873234621
 20
173.0033935114367
 30
0.0
  0
VERTEX
  5
1EF
330
1DA
100
AcDbEntity
  8
レイヤー 2
370
    25
100
AcDbVertex
100
AcDb2dVertex
 10
185.184562128183
 20
167.8171467679416
 30
0.0
  0
VERTEX
  5
1F0
330
1DA
100
AcDbEntity
  8
レイヤー 2
370
    25
100
AcDbVertex
100
AcDb2dVertex
 10
184.8521104138564
 20
162.6298664958009
 30
0.0
  0
VERTEX
  5
1F1
330
1DA
100
AcDbEntity
  8
レイヤー 2
370
    25
100
AcDbVertex
100
AcDb2dVertex
 10
184.25335281852
 20
157.3793687215059
 30
0.0
  0
VERTEX
  5
1F2
330
1DA
100
AcDbEntity
  8
レイヤー 2
370
    25
100
AcDbVertex
100
AcDb2dVertex
 10
183.3893228708193
 20
152.1919161945909
 30
0.0
  0
VERTEX
  5
1F3
330
1DA
100
AcDbEntity
  8
レイヤー 2
370
    25
100
AcDbVertex
100
AcDb2dVertex
 10
182.391623218291
 20
147.0056694510958
 30
0.0
  0
VERTEX
  5
1F4
330
1DA
100
AcDbEntity
  8
レイヤー 2
370
    25
100
AcDbVertex
100
AcDb2dVertex
 10
181.0625053800816
 20
141.8197672171491
 30
0.0
  0
VERTEX
  5
1F5
330
1DA
100
AcDbEntity
  8
レイヤー 2
370
    25
100
AcDbVertex
100
AcDb2dVertex
 10
179.5990288179475
 20
136.6993217974224
 30
0.0
  0
VERTEX
  5
1F6
330
1DA
100
AcDbEntity
  8
レイヤー 2
370
    25
100
AcDbVertex
100
AcDb2dVertex
 10
177.8706244129976
 20
131.7128905920718
 30
0.0
  0
VERTEX
  5
1F7
330
1DA
100
AcDbEntity
  8
レイヤー 2
370
    25
100
AcDbVertex
100
AcDb2dVertex
 10
176.0088948127686
 20
126.7922607104894
 30
0.0
  0
VERTEX
  5
1F8
330
1DA
100
AcDbEntity
  8
レイヤー 2
370
    25
100
AcDbVertex
100
AcDb2dVertex
 10
173.8812038410783
 20
122.0056450432833
 30
0.0
  0
VERTEX
  5
1F9
330
1DA
100
AcDbEntity
  8
レイヤー 2
370
    25
100
AcDbVertex
100
AcDb2dVertex
 10
171.5543863503406
 20
117.3520100618078
 30
0.0
  0
VERTEX
  5
1FA
330
1DA
100
AcDbEntity
  8
レイヤー 2
370
    25
100
AcDbVertex
100
AcDb2dVertex
 10
169.0938991547751
 20
112.8292887087719
 30
0.0
  0
VERTEX
  5
1FB
330
1DA
100
AcDbEntity
  8
レイヤー 2
370
    25
100
AcDbVertex
100
AcDb2dVertex
 10
166.4346299497108
 20
108.508105441623
 30
0.0
  0
VERTEX
  5
1FC
330
1DA
100
AcDbEntity
  8
レイヤー 2
370
    25
100
AcDbVertex
100
AcDb2dVertex
 10
163.5752006969534
 20
104.3853596744245
 30
0.0
  0
VERTEX
  5
1FD
330
1DA
100
AcDbEntity
  8
レイヤー 2
370
    25
100
AcDbVertex
100
AcDb2dVertex
 10
160.6499701204278
 20
100.462084935822
 30
0.0
  0
VERTEX
  5
1FE
330
1DA
100
AcDbEntity
  8
レイヤー 2
370
    25
100
AcDbVertex
100
AcDb2dVertex
 10
157.5245794962091
 20
96.80580509732632
 30
0.0
  0
VERTEX
  5
1FF
330
1DA
100
AcDbEntity
  8
レイヤー 2
370
    25
100
AcDbVertex
100
AcDb2dVertex
 10
154.2665526958084
 20
93.34934079697516
 30
0.0
  0
VERTEX
  5
200
330
1DA
100
AcDbEntity
  8
レイヤー 2
370
    25
100
AcDbVertex
100
AcDb2dVertex
 10
150.9420355525423
 20
90.1571153203427
 30
0.0
  0
VERTEX
  5
201
330
1DA
100
AcDbEntity
  8
レイヤー 2
370
    25
100
AcDbVertex
100
AcDb2dVertex
 10
147.484193213997
 20
87.23016219607441
 30
0.0
  0
VERTEX
  5
202
330
1DA
100
AcDbEntity
  8
レイヤー 2
370
    25
100
AcDbVertex
100
AcDb2dVertex
 10
143.9598605325864
 20
84.57123750055858
 30
0.0
  0
VERTEX
  5
203
330
1DA
100
AcDbEntity
  8
レイヤー 2
370
    25
100
AcDbVertex
100
AcDb2dVertex
 10
140.3035806940908
 20
82.17792966695553
 30
0.0
  0
VERTEX
  5
204
330
1DA
100
AcDbEntity
  8
レイヤー 2
370
    25
100
AcDbVertex
100
AcDb2dVertex
 10
136.6466118364981
 20
80.1174180572276
 30
0.0
  0
VERTEX
  5
205
330
1DA
100
AcDbEntity
  8
レイヤー 2
370
    25
100
AcDbVertex
100
AcDb2dVertex
 10
132.922463616943
 20
78.3208007616698
 30
0.0
  0
VERTEX
  5
206
330
1DA
100
AcDbEntity
  8
レイヤー 2
370
    25
100
AcDbVertex
100
AcDb2dVertex
 10
129.1993489260335
 20
76.92484807104657
 30
0.0
  0
VERTEX
  5
207
330
1DA
100
AcDbEntity
  8
レイヤー 2
370
    25
100
AcDbVertex
100
AcDb2dVertex
 10
125.4758897255755
 20
75.7945122423361
 30
0.0
  0
SEQEND
  5
208
330
1DA
100
AcDbEntity
  8
レイヤー 2
370
    25
  0
POLYLINE
  5
209
330
1F
100
AcDbEntity
  8
レイヤー 2
370
    25
100
AcDb2dPolyline
 66
     1
 10
0.0
 20
0.0
 30
0.0
  0
VERTEX
  5
20A
330
209
100
AcDbEntity
  8
レイヤー 2
370
    25
100
AcDbVertex
100
AcDb2dVertex
 10
125.4758897255755
 20
75.7945122423361
 30
0.0
  0
VERTEX
  5
20B
330
209
100
AcDbEntity
  8
レイヤー 2
370
    25
100
AcDbVertex
100
AcDb2dVertex
 10
121.6862846918007
 20
74.92979327553839
 30
0.0
  0
VERTEX
  5
20C
330
209
100
AcDbEntity
  8
レイヤー 2
370
    25
100
AcDbVertex
100
AcDb2dVertex
 10
117.9621364722456
 20
74.46573891367524
 30
0.0
  0
VERTEX
  5
20D
330
209
100
AcDbEntity
  8
レイヤー 2
370
    25
100
AcDbVertex
100
AcDb2dVertex
 10
114.2390217813361
 20
74.33172469929901
 30
0.0
  0
VERTEX
  5
20E
330
209
100
AcDbEntity
  8
レイヤー 2
370
    25
100
AcDbVertex
100
AcDb2dVertex
 10
110.5820529237434
 20
74.46573891367524
 30
0.0
  0
VERTEX
  5
20F
330
209
100
AcDbEntity
  8
レイヤー 2
370
    25
100
AcDbVertex
100
AcDb2dVertex
 10
107.7233126900831
 20
74.86399195177011
 30
0.0
  0
SEQEND
  5
210
330
209
100
AcDbEntity
  8
レイヤー 2
370
    25
  0
POLYLINE
  5
211
330
1F
100
AcDbEntity
  8
レイヤー 2
370
    25
100
AcDb2dPolyline
 66
     1
 10
0.0
 20
0.0
 30
0.0
  0
VERTEX
  5
212
330
211
100
AcDbEntity
  8
レイヤー 2
370
    25
100
AcDbVertex
100
AcDb2dVertex
 10
113.175865314588
 20
76.06150714244295
 30
0.0
  0
VERTEX
  5
213
330
211
100
AcDbEntity
  8
レイヤー 2
370
    25
100
AcDbVertex
100
AcDb2dVertex
 10
113.2413221288077
 20
76.06150714244295
 30
0.0
  0
VERTEX
  5
214
330
211
100
AcDbEntity
  8
レイヤー 2
370
    25
100
AcDbVertex
100
AcDb2dVertex
 10
116.8982909864004
 20
77.32585718552965
 30
0.0
  0
VERTEX
  5
215
330
211
100
AcDbEntity
  8
レイヤー 2
370
    25
100
AcDbVertex
100
AcDb2dVertex
 10
120.5552598439931
 20
78.78726669037263
 30
0.0
  0
VERTEX
  5
216
330
211
100
AcDbEntity
  8
レイヤー 2
370
    25
100
AcDbVertex
100
AcDb2dVertex
 10
124.1464273778176
 20
80.58112790954222
 30
0.0
  0
VERTEX
  5
217
330
211
100
AcDbEntity
  8
レイヤー 2
370
    25
100
AcDbVertex
100
AcDb2dVertex
 10
127.6700710401311
 20
82.64474010520686
 30
0.0
  0
VERTEX
  5
218
330
211
100
AcDbEntity
  8
レイヤー 2
370
    25
100
AcDbVertex
100
AcDb2dVertex
 10
131.1937147024446
 20
84.90368921488519
 30
0.0
  0
VERTEX
  5
219
330
211
100
AcDbEntity
  8
レイヤー 2
370
    25
100
AcDbVertex
100
AcDb2dVertex
 10
134.5843776790275
 20
87.49681258663272
 30
0.0
  0
VERTEX
  5
21A
330
211
100
AcDbEntity
  8
レイヤー 2
370
    25
100
AcDbVertex
100
AcDb2dVertex
 10
137.976074184256
 20
90.29112953471887
 30
0.0
  0
VERTEX
  5
21B
330
211
100
AcDbEntity
  8
レイヤー 2
370
    25
100
AcDbVertex
100
AcDb2dVertex
 10
141.2334119655597
 20
93.34934079697516
 30
0.0
  0
VERTEX
  5
21C
330
211
100
AcDbEntity
  8
レイヤー 2
370
    25
100
AcDbVertex
100
AcDb2dVertex
 10
144.3588025897783
 20
96.60736759737595
 30
0.0
  0
VERTEX
  5
21D
330
211
100
AcDbEntity
  8
レイヤー 2
370
    25
100
AcDbVertex
100
AcDb2dVertex
 10
147.4177028711317
 20
100.1296332214954
 30
0.0
  0
VERTEX
  5
21E
330
211
100
AcDbEntity
  8
レイヤー 2
370
    25
100
AcDbVertex
100
AcDb2dVertex
 10
150.3425889381088
 20
103.8530924219534
 30
0.0
  0
VERTEX
  5
21F
330
211
100
AcDbEntity
  8
レイヤー 2
370
    25
100
AcDbVertex
100
AcDb2dVertex
 10
153.1355278480008
 20
107.7102213272391
 30
0.0
  0
VERTEX
  5
220
330
211
100
AcDbEntity
  8
レイヤー 2
370
    25
100
AcDbVertex
100
AcDb2dVertex
 10
155.7961750912593
 20
111.831933565792
 30
0.0
  0
VERTEX
  5
221
330
211
100
AcDbEntity
  8
レイヤー 2
370
    25
100
AcDbVertex
100
AcDb2dVertex
 10
158.3221191010445
 20
116.0218586949529
 30
0.0
  0
VERTEX
  5
222
330
211
100
AcDbEntity
  8
レイヤー 2
370
    25
100
AcDbVertex
100
AcDb2dVertex
 10
160.6499701204278
 20
120.40884328587
 30
0.0
  0
VERTEX
  5
223
330
211
100
AcDbEntity
  8
レイヤー 2
370
    25
100
AcDbVertex
100
AcDb2dVertex
 10
162.8434624158864
 20
124.9970214531258
 30
0.0
  0
VERTEX
  5
224
330
211
100
AcDbEntity
  8
レイヤー 2
370
    25
100
AcDbVertex
100
AcDb2dVertex
 10
164.8385172113945
 20
129.5851996203815
 30
0.0
  0
VERTEX
  5
225
330
211
100
AcDbEntity
  8
レイヤー 2
370
    25
100
AcDbVertex
100
AcDb2dVertex
 10
166.7005913211721
 20
134.3718152875876
 30
0.0
  0
VERTEX
  5
226
330
211
100
AcDbEntity
  8
レイヤー 2
370
    25
100
AcDbVertex
100
AcDb2dVertex
 10
168.3631944023536
 20
139.2266438454017
 30
0.0
  0
VERTEX
  5
227
330
211
100
AcDbEntity
  8
レイヤー 2
370
    25
100
AcDbVertex
100
AcDb2dVertex
 10
169.7591470929769
 20
144.147273726984
 30
0.0
  0
VERTEX
  5
228
330
211
100
AcDbEntity
  8
レイヤー 2
370
    25
100
AcDbVertex
100
AcDb2dVertex
 10
171.0228081169665
 20
149.1335326775604
 30
0.0
  0
VERTEX
  5
229
330
211
100
AcDbEntity
  8
レイヤー 2
370
    25
100
AcDbVertex
100
AcDb2dVertex
 10
172.0859645837146
 20
154.1211696663308
 30
0.0
  0
VERTEX
  5
22A
330
211
100
AcDbEntity
  8
レイヤー 2
370
    25
100
AcDbVertex
100
AcDb2dVertex
 10
172.9499945314153
 20
159.1732299406754
 30
0.0
  0
VERTEX
  5
22B
330
211
100
AcDbEntity
  8
レイヤー 2
370
    25
100
AcDbVertex
100
AcDb2dVertex
 10
173.615242469617
 20
164.2266682532142
 30
0.0
  0
VERTEX
  5
22C
330
211
100
AcDbEntity
  8
レイヤー 2
370
    25
100
AcDbVertex
100
AcDb2dVertex
 10
174.0145290363575
 20
169.2813123491727
 30
0.0
  0
VERTEX
  5
22D
330
211
100
AcDbEntity
  8
レイヤー 2
370
    25
100
AcDbVertex
100
AcDb2dVertex
 10
174.2801458982703
 20
174.2677435545233
 30
0.0
  0
VERTEX
  5
22E
330
211
100
AcDbEntity
  8
レイヤー 2
370
    25
100
AcDbVertex
100
AcDb2dVertex
 10
174.2801458982703
 20
179.2540025050997
 30
0.0
  0
VERTEX
  5
22F
330
211
100
AcDbEntity
  8
レイヤー 2
370
    25
100
AcDbVertex
100
AcDb2dVertex
 10
174.0810193792228
 20
184.1076252794939
 30
0.0
  0
VERTEX
  5
230
330
211
100
AcDbEntity
  8
レイヤー 2
370
    25
100
AcDbVertex
100
AcDb2dVertex
 10
173.6820773220309
 20
188.9612480538882
 30
0.0
  0
VERTEX
  5
231
330
211
100
AcDbEntity
  8
レイヤー 2
370
    25
100
AcDbVertex
100
AcDb2dVertex
 10
173.0833197266945
 20
193.682062397326
 30
0.0
  0
VERTEX
  5
232
330
211
100
AcDbEntity
  8
レイヤー 2
370
    25
100
AcDbVertex
100
AcDb2dVertex
 10
172.2192897789938
 20
198.3358696335758
 30
0.0
  0
VERTEX
  5
233
330
211
100
AcDbEntity
  8
レイヤー 2
370
    25
100
AcDbVertex
100
AcDb2dVertex
 10
171.221934636014
 20
202.8582464770632
 30
0.0
  0
VERTEX
  5
234
330
211
100
AcDbEntity
  8
レイヤー 2
370
    25
100
AcDbVertex
100
AcDb2dVertex
 10
170.0251084644382
 20
207.1796019989864
 30
0.0
  0
VERTEX
  5
235
330
211
100
AcDbEntity
  8
レイヤー 2
370
    25
100
AcDbVertex
100
AcDb2dVertex
 10
168.5623209214011
 20
211.3683213447274
 30
0.0
  0
VERTEX
  5
236
330
211
100
AcDbEntity
  8
レイヤー 2
370
    25
100
AcDbVertex
100
AcDb2dVertex
 10
166.9662081830848
 20
215.4254380429319
 30
0.0
  0
VERTEX
  5
237
330
211
100
AcDbEntity
  8
レイヤー 2
370
    25
100
AcDbVertex
100
AcDb2dVertex
 10
165.1044785828558
 20
219.281533419572
 30
0.0
  0
VERTEX
  5
238
330
211
100
AcDbEntity
  8
レイヤー 2
370
    25
100
AcDbVertex
100
AcDb2dVertex
 10
163.1101128064447
 20
222.9378132580676
 30
0.0
  0
VERTEX
  5
239
330
211
100
AcDbEntity
  8
レイヤー 2
370
    25
100
AcDbVertex
100
AcDb2dVertex
 10
160.9824218347544
 20
226.3956555966129
 30
0.0
  0
VERTEX
  5
23A
330
211
100
AcDbEntity
  8
レイヤー 2
370
    25
100
AcDbVertex
100
AcDb2dVertex
 10
158.6549153249196
 20
229.6536823970137
 30
0.0
  0
VERTEX
  5
23B
330
211
100
AcDbEntity
  8
レイヤー 2
370
    25
100
AcDbVertex
100
AcDb2dVertex
 10
156.1286268055859
 20
232.6448865520819
 30
0.0
  0
VERTEX
  5
23C
330
211
100
AcDbEntity
  8
レイヤー 2
370
    25
100
AcDbVertex
100
AcDb2dVertex
 10
154.200062352943
 20
234.6387355641702
 30
0.0
  0
SEQEND
  5
23D
330
211
100
AcDbEntity
  8
レイヤー 2
370
    25
  0
POLYLINE
  5
23E
330
1F
100
AcDbEntity
  8
レイヤー 2
370
    25
100
AcDb2dPolyline
 66
     1
 10
0.0
 20
0.0
 30
0.0
  0
VERTEX
  5
23F
330
23E
100
AcDbEntity
  8
レイヤー 2
370
    25
100
AcDbVertex
100
AcDb2dVertex
 10
135.5820773315559
 20
246.2096055157046
 30
0.0
  0
VERTEX
  5
240
330
23E
100
AcDbEntity
  8
レイヤー 2
370
    25
100
AcDbVertex
100
AcDb2dVertex
 10
133.3878960170003
 20
246.8745089443578
 30
0.0
  0
SEQEND
  5
241
330
23E
100
AcDbEntity
  8
レイヤー 2
370
    25
  0
POLYLINE
  5
242
330
1F
100
AcDbEntity
  8
レイヤー 2
370
    25
100
AcDb2dPolyline
 66
     1
 10
0.0
 20
0.0
 30
0.0
  0
VERTEX
  5
243
330
242
100
AcDbEntity
  8
レイヤー 2
370
    25
100
AcDbVertex
100
AcDb2dVertex
 10
89.03918183537909
 20
75.46206052800949
 30
0.0
  0
VERTEX
  5
244
330
242
100
AcDbEntity
  8
レイヤー 2
370
    25
100
AcDbVertex
100
AcDb2dVertex
 10
91.23405216903178
 20
74.99697263750076
 30
0.0
  0
SEQEND
  5
245
330
242
100
AcDbEntity
  8
レイヤー 2
370
    25
  0
POLYLINE
  5
246
330
1F
100
AcDbEntity
  8
レイヤー 2
370
    25
100
AcDb2dPolyline
 66
     1
 10
0.0
 20
0.0
 30
0.0
  0
VERTEX
  5
247
330
246
100
AcDbEntity
  8
レイヤー 2
370
    25
100
AcDbVertex
100
AcDb2dVertex
 10
64.90387639436431
 20
82.77599824319489
 30
0.0
  0
VERTEX
  5
248
330
246
100
AcDbEntity
  8
レイヤー 2
370
    25
100
AcDbVertex
100
AcDb2dVertex
 10
84.85046248963808
 20
76.52659503295168
 30
0.0
  0
SEQEND
  5
249
330
246
100
AcDbEntity
  8
レイヤー 2
370
    25
  0
POLYLINE
  5
24A
330
1F
100
AcDbEntity
  8
レイヤー 2
370
    25
100
AcDb2dPolyline
 66
     1
 10
0.0
 20
0.0
 30
0.0
  0
VERTEX
  5
24B
330
24A
100
AcDbEntity
  8
レイヤー 2
370
    25
100
AcDbVertex
100
AcDb2dVertex
 10
129.2654947593503
 20
248.0062228112623
 30
0.0
  0
VERTEX
  5
24C
330
24A
100
AcDbEntity
  8
レイヤー 2
370
    25
100
AcDbVertex
100
AcDb2dVertex
 10
108.7203233235144
 20
252.2617770094172
 30
0.0
  0
SEQEND
  5
24D
330
24A
100
AcDbEntity
  8
レイヤー 2
370
    25
  0
POLYLINE
  5
24E
330
1F
100
AcDbEntity
  8
レイヤー 2
370
    25
100
AcDb2dPolyline
 66
     1
 10
0.0
 20
0.0
 30
0.0
  0
VERTEX
  5
24F
330
24E
100
AcDbEntity
  8
レイヤー 2
370
    25
100
AcDbVertex
100
AcDb2dVertex
 10
25.4744140561314
 20
151.793663156496
 30
0.0
  0
VERTEX
  5
250
330
24E
100
AcDbEntity
  8
レイヤー 2
370
    25
100
AcDbVertex
100
AcDb2dVertex
 10
25.54073214422246
 20
149.2005397847485
 30
0.0
  0
VERTEX
  5
251
330
24E
100
AcDbEntity
  8
レイヤー 2
370
    25
100
AcDbVertex
100
AcDb2dVertex
 10
25.74054768236695
 20
144.2799099031661
 30
0.0
  0
VERTEX
  5
252
330
24E
100
AcDbEntity
  8
レイヤー 2
370
    25
100
AcDbVertex
100
AcDb2dVertex
 10
26.20511880855289
 20
139.49329423596
 30
0.0
  0
VERTEX
  5
253
330
24E
100
AcDbEntity
  8
レイヤー 2
370
    25
100
AcDbVertex
100
AcDb2dVertex
 10
26.87019449198037
 20
134.7711018543281
 30
0.0
  0
VERTEX
  5
254
330
24E
100
AcDbEntity
  8
レイヤー 2
370
    25
100
AcDbVertex
100
AcDb2dVertex
 10
27.73560247787513
 20
130.1160888346585
 30
0.0
  0
VERTEX
  5
255
330
24E
100
AcDbEntity
  8
レイヤー 2
370
    25
100
AcDbVertex
100
AcDb2dVertex
 10
28.79893119939749
 20
125.5961235580107
 30
0.0
  0
VERTEX
  5
256
330
24E
100
AcDbEntity
  8
レイヤー 2
370
    25
100
AcDbVertex
100
AcDb2dVertex
 10
30.06259222338713
 20
121.2749402908618
 30
0.0
  0
VERTEX
  5
257
330
24E
100
AcDbEntity
  8
レイヤー 2
370
    25
100
AcDbVertex
100
AcDb2dVertex
 10
31.59169785451527
 20
117.0192138379327
 30
0.0
  0
VERTEX
  5
258
330
24E
100
AcDbEntity
  8
レイヤー 2
370
    25
100
AcDbVertex
100
AcDb2dVertex
 10
33.25361191659979
 20
112.9636474326966
 30
0.0
  0
VERTEX
  5
259
330
24E
100
AcDbEntity
  8
レイヤー 2
370
    25
100
AcDbVertex
100
AcDb2dVertex
 10
35.11516926205454
 20
109.1061740178623
 30
0.0
  0
VERTEX
  5
25A
330
24E
100
AcDbEntity
  8
レイヤー 2
370
    25
100
AcDbVertex
100
AcDb2dVertex
 10
37.24303248851911
 20
105.4498941793667
 30
0.0
  0
VERTEX
  5
25B
330
24E
100
AcDbEntity
  8
レイヤー 2
370
    25
100
AcDbVertex
100
AcDb2dVertex
 10
39.50353189116579
 20
102.0588866932353
 30
0.0
  0
VERTEX
  5
25C
330
24E
100
AcDbEntity
  8
レイヤー 2
370
    25
100
AcDbVertex
100
AcDb2dVertex
 10
41.8975287438659
 20
98.8008598928345
 30
0.0
  0
VERTEX
  5
25D
330
24E
100
AcDbEntity
  8
レイヤー 2
370
    25
100
AcDbVertex
100
AcDb2dVertex
 10
44.48996309651639
 20
95.80844995434651
 30
0.0
  0
VERTEX
  5
25E
330
24E
100
AcDbEntity
  8
レイヤー 2
370
    25
100
AcDbVertex
100
AcDb2dVertex
 10
47.28272975163418
 20
93.08269040641683
 30
0.0
  0
VERTEX
  5
25F
330
24E
100
AcDbEntity
  8
レイヤー 2
370
    25
100
AcDbVertex
100
AcDb2dVertex
 10
50.14198674961728
 20
90.6235812490455
 30
0.0
  0
VERTEX
  5
260
330
24E
100
AcDbEntity
  8
レイヤー 2
370
    25
100
AcDbVertex
100
AcDb2dVertex
 10
53.20088703097061
 20
88.36153155343046
 30
0.0
  0
VERTEX
  5
261
330
24E
100
AcDbEntity
  8
レイヤー 2
370
    25
100
AcDbVertex
100
AcDb2dVertex
 10
56.32627765518927
 20
86.43365611988466
 30
0.0
  0
VERTEX
  5
262
330
24E
100
AcDbEntity
  8
レイヤー 2
370
    25
100
AcDbVertex
100
AcDb2dVertex
 10
59.58361543649299
 20
84.77105303870306
 30
0.0
  0
VERTEX
  5
263
330
24E
100
AcDbEntity
  8
レイヤー 2
370
    25
100
AcDbVertex
100
AcDb2dVertex
 10
62.90882159885613
 20
83.44090167184811
 30
0.0
  0
VERTEX
  5
264
330
24E
100
AcDbEntity
  8
レイヤー 2
370
    25
100
AcDbVertex
100
AcDb2dVertex
 10
64.43792722998427
 20
82.908634419377
 30
0.0
  0
SEQEND
  5
265
330
24E
100
AcDbEntity
  8
レイヤー 2
370
    25
  0
POLYLINE
  5
266
330
1F
100
AcDbEntity
  8
レイヤー 2
370
    25
100
AcDb2dPolyline
 66
     1
 10
0.0
 20
0.0
 30
0.0
  0
VERTEX
  5
267
330
266
100
AcDbEntity
  8
レイヤー 2
370
    25
100
AcDbVertex
100
AcDb2dVertex
 10
108.3885606282848
 20
252.2617770094172
 30
0.0
  0
VERTEX
  5
268
330
266
100
AcDbEntity
  8
レイヤー 2
370
    25
100
AcDbVertex
100
AcDb2dVertex
 10
106.5268310280558
 20
252.6600300475121
 30
0.0
  0
VERTEX
  5
269
330
266
100
AcDbEntity
  8
レイヤー 2
370
    25
100
AcDbVertex
100
AcDb2dVertex
 10
102.9354912394571
 20
253.058283085607
 30
0.0
  0
VERTEX
  5
26A
330
266
100
AcDbEntity
  8
レイヤー 2
370
    25
100
AcDbVertex
100
AcDb2dVertex
 10
99.27869463663867
 20
253.1922972999832
 30
0.0
  0
VERTEX
  5
26B
330
266
100
AcDbEntity
  8
レイヤー 2
370
    25
100
AcDbVertex
100
AcDb2dVertex
 10
95.62172577904595
 20
252.9912759784189
 30
0.0
  0
VERTEX
  5
26C
330
266
100
AcDbEntity
  8
レイヤー 2
370
    25
100
AcDbVertex
100
AcDb2dVertex
 10
91.96544594055032
 20
252.5272216165557
 30
0.0
  0
VERTEX
  5
26D
330
266
100
AcDbEntity
  8
レイヤー 2
370
    25
100
AcDbVertex
100
AcDb2dVertex
 10
88.24198674009229
 20
251.728131718752
 30
0.0
  0
VERTEX
  5
26E
330
266
100
AcDbEntity
  8
レイヤー 2
370
    25
100
AcDbVertex
100
AcDb2dVertex
 10
84.58501788249959
 20
250.7306043209979
 30
0.0
  0
VERTEX
  5
26F
330
266
100
AcDbEntity
  8
レイヤー 2
370
    25
100
AcDbVertex
100
AcDb2dVertex
 10
80.86104191771877
 20
249.3348238851489
 30
0.0
  0
VERTEX
  5
270
330
266
100
AcDbEntity
  8
レイヤー 2
370
    25
100
AcDbVertex
100
AcDb2dVertex
 10
77.20407306012607
 20
247.7394001659297
 30
0.0
  0
VERTEX
  5
271
330
266
100
AcDbEntity
  8
レイヤー 2
370
    25
100
AcDbVertex
100
AcDb2dVertex
 10
73.61359454539869
 20
245.8099744394156
 30
0.0
  0
VERTEX
  5
272
330
266
100
AcDbEntity
  8
レイヤー 2
370
    25
100
AcDbVertex
100
AcDb2dVertex
 10
70.0236327949941
 20
243.6834892511451
 30
0.0
  0
VERTEX
  5
273
330
266
100
AcDbEntity
  8
レイヤー 2
370
    25
100
AcDbVertex
100
AcDb2dVertex
 10
66.49878334926071
 20
241.2217962721598
 30
0.0
  0
VERTEX
  5
274
330
266
100
AcDbEntity
  8
レイヤー 2
370
    25
100
AcDbVertex
100
AcDb2dVertex
 10
63.10794811790357
 20
238.4974147624243
 30
0.0
  0
VERTEX
  5
275
330
266
100
AcDbEntity
  8
レイヤー 2
370
    25
100
AcDbVertex
100
AcDb2dVertex
 10
59.71642386744937
 20
235.570461638156
 30
0.0
  0
VERTEX
  5
276
330
266
100
AcDbEntity
  8
レイヤー 2
370
    25
100
AcDbVertex
100
AcDb2dVertex
 10
56.5254041742367
 20
232.3808199831375
 30
0.0
  0
VERTEX
  5
277
330
266
100
AcDbEntity
  8
レイヤー 2
370
    25
100
AcDbVertex
100
AcDb2dVertex
 10
53.40001355001804
 20
228.9886067135862
 30
0.0
  0
VERTEX
  5
278
330
266
100
AcDbEntity
  8
レイヤー 2
370
    25
100
AcDbVertex
100
AcDb2dVertex
 10
50.40812037585283
 20
225.3981281988588
 30
0.0
  0
VERTEX
  5
279
330
266
100
AcDbEntity
  8
レイヤー 2
370
    25
100
AcDbVertex
100
AcDb2dVertex
 10
47.48185627068162
 20
221.5420328222187
 30
0.0
  0
VERTEX
  5
27A
330
266
100
AcDbEntity
  8
レイヤー 2
370
    25
100
AcDbVertex
100
AcDb2dVertex
 10
44.75678574184899
 20
217.5519232312023
 30
0.0
  0
VERTEX
  5
27B
330
266
100
AcDbEntity
  8
レイヤー 2
370
    25
100
AcDbVertex
100
AcDb2dVertex
 10
42.22998045819251
 20
213.4303832474237
 30
0.0
  0
VERTEX
  5
27C
330
266
100
AcDbEntity
  8
レイヤー 2
370
    25
100
AcDbVertex
100
AcDb2dVertex
 10
39.76966551740135
 20
209.1090277255005
 30
0.0
  0
VERTEX
  5
27D
330
266
100
AcDbEntity
  8
レイヤー 2
370
    25
100
AcDbVertex
100
AcDb2dVertex
 10
37.50847709565761
 20
204.6536579892012
 30
0.0
  0
VERTEX
  5
27E
330
266
100
AcDbEntity
  8
レイヤー 2
370
    25
100
AcDbVertex
100
AcDb2dVertex
 10
35.44779323115542
 20
199.9984727147573
 30
0.0
  0
VERTEX
  5
27F
330
266
100
AcDbEntity
  8
レイヤー 2
370
    25
100
AcDbVertex
100
AcDb2dVertex
 10
33.5860636309264
 20
195.3446654785075
 30
0.0
  0
VERTEX
  5
280
330
266
100
AcDbEntity
  8
レイヤー 2
370
    25
100
AcDbVertex
100
AcDb2dVertex
 10
31.85714246165377
 20
190.5580498113015
 30
0.0
  0
VERTEX
  5
281
330
266
100
AcDbEntity
  8
レイヤー 2
370
    25
100
AcDbVertex
100
AcDb2dVertex
 10
30.32803683052563
 20
185.637419929719
 30
0.0
  0
VERTEX
  5
282
330
266
100
AcDbEntity
  8
レイヤー 2
370
    25
100
AcDbVertex
100
AcDb2dVertex
 10
29.06506482563304
 20
180.7167900481368
 30
0.0
  0
VERTEX
  5
283
330
266
100
AcDbEntity
  8
レイヤー 2
370
    25
100
AcDbVertex
100
AcDb2dVertex
 10
27.93472899692257
 20
175.7305310975604
 30
0.0
  0
VERTEX
  5
284
330
266
100
AcDbEntity
  8
レイヤー 2
370
    25
100
AcDbVertex
100
AcDb2dVertex
 10
27.00351968725954
 20
170.6770927850217
 30
0.0
  0
VERTEX
  5
285
330
266
100
AcDbEntity
  8
レイヤー 2
370
    25
100
AcDbVertex
100
AcDb2dVertex
 10
26.33861625860632
 20
165.6908338344454
 30
0.0
  0
VERTEX
  5
286
330
266
100
AcDbEntity
  8
レイヤー 2
370
    25
100
AcDbVertex
100
AcDb2dVertex
 10
25.80686577045801
 20
160.6360174837125
 30
0.0
  0
VERTEX
  5
287
330
266
100
AcDbEntity
  8
レイヤー 2
370
    25
100
AcDbVertex
100
AcDb2dVertex
 10
25.54073214422246
 20
155.6497585331362
 30
0.0
  0
VERTEX
  5
288
330
266
100
AcDbEntity
  8
レイヤー 2
370
    25
100
AcDbVertex
100
AcDb2dVertex
 10
25.4744140561314
 20
151.793663156496
 30
0.0
  0
SEQEND
  5
289
330
266
100
AcDbEntity
  8
レイヤー 2
370
    25
  0
ENDSEC
  0
SECTION
  2
OBJECTS
  0
DICTIONARY
  5
C
330
0
100
AcDbDictionary
281
     1
  3
ACAD_CIP_PREVIOUS_PRODUCT_INFO
350
2CD
  3
ACAD_COLOR
350
2B0
  3
ACAD_DETAILVIEWSTYLE
350
2C9
  3
ACAD_GROUP
350
D
  3
ACAD_LAYOUT
350
1A
  3
ACAD_MATERIAL
350
28D
  3
ACAD_MLEADERSTYLE
350
2C4
  3
ACAD_MLINESTYLE
350
17
  3
ACAD_PLOTSETTINGS
350
19
  3
ACAD_PLOTSTYLENAME
350
E
  3
ACAD_SCALELIST
350
2B2
  3
ACAD_SECTIONVIEWSTYLE
350
2C6
  3
ACAD_TABLESTYLE
350
28A
  3
ACAD_VISUALSTYLE
350
2A
  3
ACDB_RECOMPOSE_DATA
350
2E2
  3
AcDbVariableDictionary
350
2D4
  3
DWGPROPS
350
2E3
  0
DICTIONARY
  5
2CE
330
10
100
AcDbDictionary
280
     1
281
     1
  3
ADSK_XREC_LAYER_RECONCILED
360
2CF
  0
DICTIONARY
  5
2D0
330
3B
100
AcDbDictionary
280
     1
281
     1
  3
ADSK_XREC_LAYER_RECONCILED
360
2D1
  0
DICTIONARY
  5
2D2
330
3C
100
AcDbDictionary
280
     1
281
     1
  3
ADSK_XREC_LAYER_RECONCILED
360
2D3
  0
XRECORD
  5
2CD
102
{ACAD_REACTORS
330
C
102
}
330
C
100
AcDbXrecord
280
     1
300
ACDLT
300
2013
300
ACDLT_F_S
  0
DICTIONARY
  5
2B0
102
{ACAD_REACTORS
330
C
102
}
330
C
100
AcDbDictionary
281
     1
  0
DICTIONARY
  5
2C9
102
{ACAD_REACTORS
330
C
102
}
330
C
100
AcDbDictionary
281
     1
  3
Imperial24
350
2CA
  0
DICTIONARY
  5
D
102
{ACAD_REACTORS
330
C
102
}
330
C
100
AcDbDictionary
281
     1
  0
DICTIONARY
  5
1A
102
{ACAD_REACTORS
330
C
102
}
330
C
100
AcDbDictionary
281
     1
  3
Layout1
350
1E
  3
Layout2
350
26
  3
Model
350
22
  0
DICTIONARY
  5
28D
102
{ACAD_REACTORS
330
C
102
}
330
C
100
AcDbDictionary
281
     1
  3
ByBlock
350
296
  3
ByLayer
350
28E
  3
Global
350
29E
  0
DICTIONARY
  5
2C4
102
{ACAD_REACTORS
330
C
102
}
330
C
100
AcDbDictionary
281
     1
  3
Standard
350
2C5
  0
DICTIONARY
  5
17
102
{ACAD_REACTORS
330
C
102
}
330
C
100
AcDbDictionary
281
     1
  3
Standard
350
18
  0
DICTIONARY
  5
19
102
{ACAD_REACTORS
330
C
102
}
330
C
100
AcDbDictionary
281
     1
  0
ACDBDICTIONARYWDFLT
  5
E
102
{ACAD_REACTORS
330
C
102
}
330
C
100
AcDbDictionary
281
     1
  3
Normal
350
F
100
AcDbDictionaryWithDefault
340
F
  0
DICTIONARY
  5
2B2
102
{ACAD_REACTORS
330
C
102
}
330
C
100
AcDbDictionary
281
     1
  3
A0
350
2B3
  3
A1
350
2B4
  3
A2
350
2B5
  3
A3
350
2B6
  3
A4
350
2B7
  3
A5
350
2B8
  3
A6
350
2B9
  3
A7
350
2BA
  3
A8
350
2BB
  3
A9
350
2BC
  3
B0
350
2BD
  3
B1
350
2BE
  3
B2
350
2BF
  3
B3
350
2C0
  3
B4
350
2C1
  3
B5
350
2C2
  3
B6
350
2C3
  0
DICTIONARY
  5
2C6
102
{ACAD_REACTORS
330
C
102
}
330
C
100
AcDbDictionary
281
     1
  3
Imperial24
350
2C8
  0
DICTIONARY
  5
28A
102
{ACAD_REACTORS
330
C
102
}
330
C
100
AcDbDictionary
281
     1
  3
Standard
350
2B1
  0
DICTIONARY
  5
2A
102
{ACAD_REACTORS
330
C
102
}
330
C
100
AcDbDictionary
281
     1
  3
2dWireframe
350
2F
  3
3D Hidden
350
31
  3
3dWireframe
350
30
  3
Basic
350
32
  3
Brighten
350
36
  3
ColorChange
350
3A
  3
Conceptual
350
34
  3
Dim
350
35
  3
EdgeColorOff
350
2AF
  3
Facepattern
350
39
  3
Flat
350
2B
  3
FlatWithEdges
350
2C
  3
Gouraud
350
2D
  3
GouraudWithEdges
350
2E
  3
Hidden
350
2A7
  3
JitterOff
350
2AD
  3
Linepattern
350
38
  3
OverhangOff
350
2AE
  3
Realistic
350
33
  3
Shaded
350
2AC
  3
Shaded with edges
350
2AB
  3
Shades of Gray
350
2A8
  3
Sketchy
350
2A9
  3
Thicken
350
37
  3
Wireframe
350
2A6
  3
X-Ray
350
2AA
  0
XRECORD
  5
2E2
102
{ACAD_REACTORS
330
C
102
}
330
C
100
AcDbXrecord
280
     1
 90
        1
330
2B1
  0
DICTIONARY
  5
2D4
102
{ACAD_REACTORS
330
C
102
}
330
C
100
AcDbDictionary
281
     1
  3
CANNOSCALE
350
2D9
  3
CMLEADERSTYLE
350
2D6
  3
CTABLESTYLE
350
2D5
  3
CVIEWDETAILSTYLE
350
2D7
  3
CVIEWSECTIONSTYLE
350
2D8
  3
DIMASSOC
350
2DE
  3
HIDETEXT
350
2DC
  3
INDEXCTL
350
2DB
  3
SORTENTS
350
2DA
  3
XCLIPFRAME
350
2DD
  0
XRECORD
  5
2E3
102
{ACAD_REACTORS
330
C
102
}
330
C
100
AcDbXrecord
280
     1
  1
DWGPROPS COOKIE
  2

  3

  4

  6

  7

  8
j00675
  9

300
=
301
=
302
=
303
=
304
=
305
=
306
=
307
=
308
=
309
=
 40
0.0002405324074074
 41
2457192.724986563
 42
2458548.720269653
  1

 90
        0
  0
XRECORD
  5
2CF
102
{ACAD_REACTORS
330
2CE
102
}
330
2CE
100
AcDbXrecord
280
     1
290
     1
  0
XRECORD
  5
2D1
102
{ACAD_REACTORS
330
2D0
102
}
330
2D0
100
AcDbXrecord
280
     1
290
     1
  0
XRECORD
  5
2D3
102
{ACAD_REACTORS
330
2D2
102
}
330
2D2
100
AcDbXrecord
280
     1
290
     1
  0
ACDBDETAILVIEWSTYLE
  5
2CA
102
{ACAD_REACTORS
330
2C9
102
}
330
2C9
100
AcDbModelDocViewStyle
 70
     0
  3
Imperial24
290
     0
100
AcDbDetailViewStyle
 70
     0
 71
     0
 90
        3
 71
     1
340
11
 40
0.24
340
0
 40
0.24
300

 40
0.36
280
     3
 71
     2
340
16
 90
       25
 71
     3
340
11
 40
0.24
 90
        1
 40
0.75
 90
        1
300
%<\AcVar ViewType \f "%tc1">% %<\AcVar ViewDetailId>%\PSCALE %<\AcVar ViewScale \f "%sn">%
 71
     4
340
16
 90
       25
340
16
 90
       25
280
     0
  0
LAYOUT
  5
1E
102
{ACAD_XDICTIONARY
360
2E4
102
}
102
{ACAD_REACTORS
330
1A
102
}
330
1A
100
AcDbPlotSettings
  1

  2
none_device
  4

  6

 40
0.0
 41
0.0
 42
0.0
 43
0.0
 44
0.0
 45
0.0
 46
0.0
 47
0.0
 48
0.0
 49
0.0
140
0.0
141
0.0
142
1.0
143
1.0
 70
   688
 72
     0
 73
     0
 74
     5
  7

 75
    16
147
1.0
148
0.0
149
0.0
100
AcDbLayout
  1
Layout1
 70
     1
 71
     1
 10
0.0
 20
0.0
 11
12.0
 21
9.0
 12
0.0
 22
0.0
 32
0.0
 14
1.000000000000000E+20
 24
1.000000000000000E+20
 34
1.000000000000000E+20
 15
-1.000000000000000E+20
 25
-1.000000000000000E+20
 35
-1.000000000000000E+20
146
0.0
 13
0.0
 23
0.0
 33
0.0
 16
1.0
 26
0.0
 36
0.0
 17
0.0
 27
1.0
 37
0.0
 76
     0
330
1B
  0
LAYOUT
  5
26
102
{ACAD_XDICTIONARY
360
2E8
102
}
102
{ACAD_REACTORS
330
1A
102
}
330
1A
100
AcDbPlotSettings
  1

  2
none_device
  4

  6

 40
0.0
 41
0.0
 42
0.0
 43
0.0
 44
0.0
 45
0.0
 46
0.0
 47
0.0
 48
0.0
 49
0.0
140
0.0
141
0.0
142
1.0
143
1.0
 70
   688
 72
     0
 73
     0
 74
     5
  7

 75
    16
147
1.0
148
0.0
149
0.0
100
AcDbLayout
  1
Layout2
 70
     1
 71
     2
 10
0.0
 20
0.0
 11
0.0
 21
0.0
 12
0.0
 22
0.0
 32
0.0
 14
0.0
 24
0.0
 34
0.0
 15
0.0
 25
0.0
 35
0.0
146
0.0
 13
0.0
 23
0.0
 33
0.0
 16
1.0
 26
0.0
 36
0.0
 17
0.0
 27
1.0
 37
0.0
 76
     0
330
23
  0
LAYOUT
  5
22
102
{ACAD_XDICTIONARY
360
2E6
102
}
102
{ACAD_REACTORS
330
1A
102
}
330
1A
100
AcDbPlotSettings
  1

  2
none_device
  4

  6

 40
0.0
 41
0.0
 42
0.0
 43
0.0
 44
0.0
 45
0.0
 46
0.0
 47
0.0
 48
0.0
 49
0.0
140
0.0
141
0.0
142
1.0
143
1.0
 70
  1712
 72
     0
 73
     0
 74
     0
  7

 75
     0
147
1.0
148
0.0
149
0.0
100
AcDbLayout
  1
Model
 70
     1
 71
     0
 10
0.0
 20
0.0
 11
12.0
 21
9.0
 12
0.0
 22
0.0
 32
0.0
 14
1.000000000000000E+20
 24
1.000000000000000E+20
 34
1.000000000000000E+20
 15
-1.000000000000000E+20
 25
-1.000000000000000E+20
 35
-1.000000000000000E+20
146
0.0
 13
0.0
 23
0.0
 33
0.0
 16
1.0
 26
0.0
 36
0.0
 17
0.0
 27
1.0
 37
0.0
 76
     0
330
1F
331
29
  0
MATERIAL
  5
296
102
{ACAD_XDICTIONARY
360
297
102
}
102
{ACAD_REACTORS
330
28D
102
}
330
28D
100
AcDbMaterial
  1
ByBlock
 72
     0
 43
0.0208333333333333
 43
0.0
 43
0.0
 43
0.0
 43
0.0
 43
0.0208333333333333
 43
0.0
 43
0.0
 43
0.0
 43
0.0
 43
1.0
 43
0.0
 43
0.0
 43
0.0
 43
0.0
 43
1.0
 77
     0
 47
0.0208333333333333
 47
0.0
 47
0.0
 47
0.0
 47
0.0
 47
0.0208333333333333
 47
0.0
 47
0.0
 47
0.0
 47
0.0
 47
1.0
 47
0.0
 47
0.0
 47
0.0
 47
0.0
 47
1.0
171
     0
 49
0.0208333333333333
 49
0.0
 49
0.0
 49
0.0
 49
0.0
 49
0.0208333333333333
 49
0.0
 49
0.0
 49
0.0
 49
0.0
 49
1.0
 49
0.0
 49
0.0
 49
0.0
 49
0.0
 49
1.0
175
     0
142
0.0208333333333333
142
0.0
142
0.0
142
0.0
142
0.0
142
0.0208333333333333
142
0.0
142
0.0
142
0.0
142
0.0
142
1.0
142
0.0
142
0.0
142
0.0
142
0.0
142
1.0
179
     0
144
0.0208333333333333
144
0.0
144
0.0
144
0.0
144
0.0
144
0.0208333333333333
144
0.0
144
0.0
144
0.0
144
0.0
144
1.0
144
0.0
144
0.0
144
0.0
144
0.0
144
1.0
147
0.0208333333333333
147
0.0
147
0.0
147
0.0
147
0.0
147
0.0208333333333333
147
0.0
147
0.0
147
0.0
147
0.0
147
1.0
147
0.0
147
0.0
147
0.0
147
0.0
147
1.0
  0
MATERIAL
  5
28E
102
{ACAD_XDICTIONARY
360
28F
102
}
102
{ACAD_REACTORS
330
28D
102
}
330
28D
100
AcDbMaterial
  1
ByLayer
 72
     0
 43
0.0208333333333333
 43
0.0
 43
0.0
 43
0.0
 43
0.0
 43
0.0208333333333333
 43
0.0
 43
0.0
 43
0.0
 43
0.0
 43
1.0
 43
0.0
 43
0.0
 43
0.0
 43
0.0
 43
1.0
 77
     0
 47
0.0208333333333333
 47
0.0
 47
0.0
 47
0.0
 47
0.0
 47
0.0208333333333333
 47
0.0
 47
0.0
 47
0.0
 47
0.0
 47
1.0
 47
0.0
 47
0.0
 47
0.0
 47
0.0
 47
1.0
171
     0
 49
0.0208333333333333
 49
0.0
 49
0.0
 49
0.0
 49
0.0
 49
0.0208333333333333
 49
0.0
 49
0.0
 49
0.0
 49
0.0
 49
1.0
 49
0.0
 49
0.0
 49
0.0
 49
0.0
 49
1.0
175
     0
142
0.0208333333333333
142
0.0
142
0.0
142
0.0
142
0.0
142
0.0208333333333333
142
0.0
142
0.0
142
0.0
142
0.0
142
1.0
142
0.0
142
0.0
142
0.0
142
0.0
142
1.0
179
     0
144
0.0208333333333333
144
0.0
144
0.0
144
0.0
144
0.0
144
0.0208333333333333
144
0.0
144
0.0
144
0.0
144
0.0
144
1.0
144
0.0
144
0.0
144
0.0
144
0.0
144
1.0
147
0.0208333333333333
147
0.0
147
0.0
147
0.0
147
0.0
147
0.0208333333333333
147
0.0
147
0.0
147
0.0
147
0.0
147
1.0
147
0.0
147
0.0
147
0.0
147
0.0
147
1.0
  0
MATERIAL
  5
29E
102
{ACAD_XDICTIONARY
360
29F
102
}
102
{ACAD_REACTORS
330
28D
102
}
330
28D
100
AcDbMaterial
  1
Global
 72
     0
 43
0.0208333333333333
 43
0.0
 43
0.0
 43
0.0
 43
0.0
 43
0.0208333333333333
 43
0.0
 43
0.0
 43
0.0
 43
0.0
 43
1.0
 43
0.0
 43
0.0
 43
0.0
 43
0.0
 43
1.0
 77
     0
 47
0.0208333333333333
 47
0.0
 47
0.0
 47
0.0
 47
0.0
 47
0.0208333333333333
 47
0.0
 47
0.0
 47
0.0
 47
0.0
 47
1.0
 47
0.0
 47
0.0
 47
0.0
 47
0.0
 47
1.0
171
     0
 49
0.0208333333333333
 49
0.0
 49
0.0
 49
0.0
 49
0.0
 49
0.0208333333333333
 49
0.0
 49
0.0
 49
0.0
 49
0.0
 49
1.0
 49
0.0
 49
0.0
 49
0.0
 49
0.0
 49
1.0
175
     0
142
0.0208333333333333
142
0.0
142
0.0
142
0.0
142
0.0
142
0.0208333333333333
142
0.0
142
0.0
142
0.0
142
0.0
142
1.0
142
0.0
142
0.0
142
0.0
142
0.0
142
1.0
179
     0
144
0.0208333333333333
144
0.0
144
0.0
144
0.0
144
0.0
144
0.0208333333333333
144
0.0
144
0.0
144
0.0
144
0.0
144
1.0
144
0.0
144
0.0
144
0.0
144
0.0
144
1.0
147
0.0208333333333333
147
0.0
147
0.0
147
0.0
147
0.0
147
0.0208333333333333
147
0.0
147
0.0
147
0.0
147
0.0
147
1.0
147
0.0
147
0.0
147
0.0
147
0.0
147
1.0
  0
MLEADERSTYLE
  5
2C5
102
{ACAD_REACTORS
330
2C4
102
}
330
2C4
100
AcDbMLeaderStyle
170
     2
171
     1
172
     0
 90
        2
 40
0.0
 41
0.0
173
     1
 91
-1056964608
340
14
 92
       -2
290
     1
 42
0.09
291
     1
 43
0.36
  3
Standard
 44
0.18
300

342
11
174
     1
178
     6
175
     1
176
     0
 93
-1056964608
 45
0.18
292
     0
297
     0
 46
0.18
 94
-1056964608
 47
1.0
 49
1.0
140
1.0
293
     1
141
0.0
294
     1
177
     0
142
1.0
295
     0
296
     0
143
0.125
1001
ACAD_MLEADERVER
1070
     2
  0
MLINESTYLE
  5
18
102
{ACAD_REACTORS
330
17
102
}
330
17
100
AcDbMlineStyle
  2
STANDARD
 70
     0
  3

 62
   256
 51
90.0
 52
90.0
 71
     2
 49
0.5
 62
   256
  6
BYLAYER
 49
-0.5
 62
   256
  6
BYLAYER
  0
ACDBPLACEHOLDER
  5
F
102
{ACAD_REACTORS
330
E
102
}
330
E
  0
SCALE
  5
2B3
102
{ACAD_REACTORS
330
2B2
102
}
330
2B2
100
AcDbScale
 70
     0
300
1:1
140
1.0
141
1.0
290
     1
  0
SCALE
  5
2B4
102
{ACAD_REACTORS
330
2B2
102
}
330
2B2
100
AcDbScale
 70
     0
300
1/128" = 1'-0"
140
0.0078125
141
12.0
290
     0
  0
SCALE
  5
2B5
102
{ACAD_REACTORS
330
2B2
102
}
330
2B2
100
AcDbScale
 70
     0
300
1/64" = 1'-0"
140
0.015625
141
12.0
290
     0
  0
SCALE
  5
2B6
102
{ACAD_REACTORS
330
2B2
102
}
330
2B2
100
AcDbScale
 70
     0
300
1/32" = 1'-0"
140
0.03125
141
12.0
290
     0
  0
SCALE
  5
2B7
102
{ACAD_REACTORS
330
2B2
102
}
330
2B2
100
AcDbScale
 70
     0
300
1/16" = 1'-0"
140
0.0625
141
12.0
290
     0
  0
SCALE
  5
2B8
102
{ACAD_REACTORS
330
2B2
102
}
330
2B2
100
AcDbScale
 70
     0
300
3/32" = 1'-0"
140
0.09375
141
12.0
290
     0
  0
SCALE
  5
2B9
102
{ACAD_REACTORS
330
2B2
102
}
330
2B2
100
AcDbScale
 70
     0
300
1/8" = 1'-0"
140
0.125
141
12.0
290
     0
  0
SCALE
  5
2BA
102
{ACAD_REACTORS
330
2B2
102
}
330
2B2
100
AcDbScale
 70
     0
300
3/16" = 1'-0"
140
0.1875
141
12.0
290
     0
  0
SCALE
  5
2BB
102
{ACAD_REACTORS
330
2B2
102
}
330
2B2
100
AcDbScale
 70
     0
300
1/4" = 1'-0"
140
0.25
141
12.0
290
     0
  0
SCALE
  5
2BC
102
{ACAD_REACTORS
330
2B2
102
}
330
2B2
100
AcDbScale
 70
     0
300
3/8" = 1'-0"
140
0.375
141
12.0
290
     0
  0
SCALE
  5
2BD
102
{ACAD_REACTORS
330
2B2
102
}
330
2B2
100
AcDbScale
 70
     0
300
1/2" = 1'-0"
140
0.5
141
12.0
290
     0
  0
SCALE
  5
2BE
102
{ACAD_REACTORS
330
2B2
102
}
330
2B2
100
AcDbScale
 70
     0
300
3/4" = 1'-0"
140
0.75
141
12.0
290
     0
  0
SCALE
  5
2BF
102
{ACAD_REACTORS
330
2B2
102
}
330
2B2
100
AcDbScale
 70
     0
300
1" = 1'-0"
140
1.0
141
12.0
290
     0
  0
SCALE
  5
2C0
102
{ACAD_REACTORS
330
2B2
102
}
330
2B2
100
AcDbScale
 70
     0
300
1-1/2" = 1'-0"
140
1.5
141
12.0
290
     0
  0
SCALE
  5
2C1
102
{ACAD_REACTORS
330
2B2
102
}
330
2B2
100
AcDbScale
 70
     0
300
3" = 1'-0"
140
3.0
141
12.0
290
     0
  0
SCALE
  5
2C2
102
{ACAD_REACTORS
330
2B2
102
}
330
2B2
100
AcDbScale
 70
     0
300
6" = 1'-0"
140
6.0
141
12.0
290
     0
  0
SCALE
  5
2C3
102
{ACAD_REACTORS
330
2B2
102
}
330
2B2
100
AcDbScale
 70
     0
300
1'-0" = 1'-0"
140
12.0
141
12.0
290
     0
  0
ACDBSECTIONVIEWSTYLE
  5
2C8
102
{ACAD_REACTORS
330
2C6
102
}
330
2C6
100
AcDbModelDocViewStyle
 70
     0
  3
Imperial24
290
     0
100
AcDbSectionViewStyle
 70
     0
 71
     0
 90
       78
 71
     1
340
11
 40
0.24
340
0
340
0
 40
0.24
300
I, O, Q, S, X, Z
 40
0.48
 90
        3
 40
0.18
 90
        1
 71
     2
340
2C7
 90
       25
340
16
 90
       50
 40
0.24
 40
0.0
 40
0.24
 71
     3
340
11
 40
0.24
 90
        1
 40
0.75
 90
        1
300
%<\AcVar ViewType \f "%tc1">% %<\AcVar ViewSectionStartId>%-%<\AcVar ViewSectionEndId>%\PSCALE %<\AcVar ViewScale \f "%sn">%
 71
     4
300
ANSI31
 40
1.0
 90
        0
290
     0
290
     0
 90
        6
 40
0.0
 40
1.570796326794896
 40
0.2617993877991494
 40
1.308996938995747
 40
-0.2617993877991494
 40
1.832595714594046
  0
TABLESTYLE
  5
2B1
102
{ACAD_XDICTIONARY
360
2E0
102
}
102
{ACAD_REACTORS
330
28A
102
}
330
28A
100
AcDbTableStyle
  3
Standard
 70
     0
 71
     0
 40
0.06
 41
0.06
280
     0
281
     0
  7
Standard
140
0.18
170
     2
 62
     0
 63
     7
283
     0
274
    -2
284
     1
 64
     0
275
    -2
285
     1
 65
     0
276
    -2
286
     1
 66
     0
277
    -2
287
     1
 67
     0
278
    -2
288
     1
 68
     0
279
    -2
289
     1
 69
     0
  7
Standard
140
0.25
170
     5
 62
     0
 63
     7
283
     0
274
    -2
284
     1
 64
     0
275
    -2
285
     1
 65
     0
276
    -2
286
     1
 66
     0
277
    -2
287
     1
 67
     0
278
    -2
288
     1
 68
     0
279
    -2
289
     1
 69
     0
  7
Standard
140
0.18
170
     5
 62
     0
 63
     7
283
     0
274
    -2
284
     1
 64
     0
275
    -2
285
     1
 65
     0
276
    -2
286
     1
 66
     0
277
    -2
287
     1
 67
     0
278
    -2
288
     1
 68
     0
279
    -2
289
     1
 69
     0
  0
VISUALSTYLE
  5
2F
102
{ACAD_XDICTIONARY
360
2F2
102
}
102
{ACAD_REACTORS
330
2A
102
}
330
2A
100
AcDbVisualStyle
  2

 70
     4
 71
     0
 72
     2
 73
     0
 90
        0
 40
-0.6
 41
-30.0
 62
     5
 63
     7
 74
     1
 91
        4
 64
     7
 65
   257
 75
     1
175
     1
 42
1.0
 92
        0
 66
   257
 43
1.0
 76
     1
 77
     6
 78
     2
 67
     7
 79
     5
170
     0
171
     0
290
     0
174
     0
 93
        1
 44
0.0
173
     0
291
     0
 45
0.0
1001
ACAD
1000
AcDbSavedByObjectVersion
1070
     0
  0
VISUALSTYLE
  5
31
102
{ACAD_XDICTIONARY
360
2F6
102
}
102
{ACAD_REACTORS
330
2A
102
}
330
2A
100
AcDbVisualStyle
  2

 70
     6
 71
     1
 72
     2
 73
     2
 90
        0
 40
-0.6
 41
-30.0
 62
     5
 63
     7
 74
     2
 91
        2
 64
     7
 65
   257
 75
     2
175
     1
 42
40.0
 92
        0
 66
   257
 43
1.0
 76
     1
 77
     6
 78
     2
 67
     7
 79
     3
170
     0
171
     0
290
     0
174
     0
 93
        1
 44
0.0
173
     0
291
     0
 45
0.0
1001
ACAD
1000
AcDbSavedByObjectVersion
1070
     0
  0
VISUALSTYLE
  5
30
102
{ACAD_XDICTIONARY
360
2F4
102
}
102
{ACAD_REACTORS
330
2A
102
}
330
2A
100
AcDbVisualStyle
  2

 70
     5
 71
     0
 72
     2
 73
     0
 90
        0
 40
-0.6
 41
-30.0
 62
     5
 63
     7
 74
     1
 91
        4
 64
     7
 65
   257
 75
     1
175
     1
 42
1.0
 92
        0
 66
   257
 43
1.0
 76
     1
 77
     6
 78
     2
 67
     7
 79
     5
170
     0
171
     0
290
     0
174
     0
 93
        1
 44
0.0
173
     0
291
     0
 45
0.0
1001
ACAD
1000
AcDbSavedByObjectVersion
1070
     0
  0
VISUALSTYLE
  5
32
102
{ACAD_XDICTIONARY
360
2F8
102
}
102
{ACAD_REACTORS
330
2A
102
}
330
2A
100
AcDbVisualStyle
  2

 70
     7
 71
     1
 72
     0
 73
     1
 90
        0
 40
-0.6
 41
-30.0
 62
     5
 63
     7
 74
     0
 91
        4
 64
     7
 65
   257
 75
     1
175
     1
 42
1.0
 92
        8
 66
     7
 43
1.0
 76
     1
 77
     6
 78
     2
 67
     7
 79
     5
170
     0
171
     0
290
     0
174
     0
 93
        1
 44
0.0
173
     0
291
     1
 45
0.0
1001
ACAD
1000
AcDbSavedByObjectVersion
1070
     0
  0
VISUALSTYLE
  5
36
102
{ACAD_XDICTIONARY
360
300
102
}
102
{ACAD_REACTORS
330
2A
102
}
330
2A
100
AcDbVisualStyle
  2

 70
    12
 71
     2
 72
     2
 73
     0
 90
        0
 40
-0.6
 41
-30.0
 62
     5
 63
     7
 74
     1
 91
        4
 64
     7
 65
   257
 75
     1
175
     1
 42
1.0
 92
        8
 66
     7
 43
1.0
 76
     1
 77
     6
 78
     2
 67
     7
 79
     5
170
     0
171
     0
290
     0
174
     0
 93
        1
 44
50.0
173
     0
291
     1
 45
0.0
1001
ACAD
1000
AcDbSavedByObjectVersion
1070
     0
  0
VISUALSTYLE
  5
3A
102
{ACAD_XDICTIONARY
360
308
102
}
102
{ACAD_REACTORS
330
2A
102
}
330
2A
100
AcDbVisualStyle
  2

 70
    16
 71
     2
 72
     2
 73
     3
 90
        0
 40
-0.6
 41
-30.0
 62
     5
 63
     8
 74
     1
 91
        4
 64
     7
 65
   257
 75
     1
175
     1
 42
1.0
 92
        8
 66
     8
 43
1.0
 76
     1
 77
     6
 78
     2
 67
     7
 79
     5
170
     0
171
     0
290
     0
174
     0
 93
        1
 44
0.0
173
     0
291
     1
 45
0.0
1001
ACAD
1000
AcDbSavedByObjectVersion
1070
     0
  0
VISUALSTYLE
  5
34
102
{ACAD_XDICTIONARY
360
2FC
102
}
102
{ACAD_REACTORS
330
2A
102
}
330
2A
100
AcDbVisualStyle
  2

 70
     9
 71
     3
 72
     2
 73
     0
 90
        0
 40
-0.6
 41
-30.0
 62
     5
 63
     7
 74
     2
 91
        2
 64
     7
 65
   257
 75
     1
175
     1
 42
40.0
 92
        8
 66
     7
 43
1.0
 76
     1
 77
     6
 78
     2
 67
     7
 79
     3
170
     0
171
     0
290
     0
174
     0
 93
        1
 44
0.0
173
     0
291
     0
 45
0.0
1001
ACAD
1000
AcDbSavedByObjectVersion
1070
     0
  0
VISUALSTYLE
  5
35
102
{ACAD_XDICTIONARY
360
2FE
102
}
102
{ACAD_REACTORS
330
2A
102
}
330
2A
100
AcDbVisualStyle
  2

 70
    11
 71
     2
 72
     2
 73
     0
 90
        0
 40
-0.6
 41
-30.0
 62
     5
 63
     7
 74
     1
 91
        4
 64
     7
 65
   257
 75
     1
175
     1
 42
1.0
 92
        8
 66
     7
 43
1.0
 76
     1
 77
     6
 78
     2
 67
     7
 79
     5
170
     0
171
     0
290
     0
174
     0
 93
        1
 44
-50.0
173
     0
291
     1
 45
0.0
1001
ACAD
1000
AcDbSavedByObjectVersion
1070
     0
  0
VISUALSTYLE
  5
2AF
102
{ACAD_XDICTIONARY
360
31F
102
}
102
{ACAD_REACTORS
330
2A
102
}
330
2A
100
AcDbVisualStyle
  2
EdgeColorOff
 70
    22
 71
     2
 72
     2
 73
     0
 90
        0
 40
-0.6
 41
-30.0
 62
     5
 63
     7
 74
     1
 91
        4
 64
     7
 65
   257
 75
     1
175
     1
 42
1.0
 92
        8
 66
     7
 43
1.0
 76
     1
 77
     6
 78
     2
 67
     7
 79
     5
170
     0
171
     0
290
     0
174
     0
 93
        1
 44
0.0
173
     0
291
     1
 45
0.0
1001
ACAD
1000
AcDbSavedByObjectVersion
1070
     0
  0
VISUALSTYLE
  5
39
102
{ACAD_XDICTIONARY
360
306
102
}
102
{ACAD_REACTORS
330
2A
102
}
330
2A
100
AcDbVisualStyle
  2

 70
    15
 71
     2
 72
     2
 73
     0
 90
        0
 40
-0.6
 41
-30.0
 62
     5
 63
     7
 74
     1
 91
        4
 64
     7
 65
   257
 75
     1
175
     1
 42
1.0
 92
        8
 66
     7
 43
1.0
 76
     1
 77
     6
 78
     2
 67
     7
 79
     5
170
     0
171
     0
290
     0
174
     0
 93
        1
 44
0.0
173
     0
291
     1
 45
0.0
1001
ACAD
1000
AcDbSavedByObjectVersion
1070
     0
  0
VISUALSTYLE
  5
2B
102
{ACAD_XDICTIONARY
360
2EA
102
}
102
{ACAD_REACTORS
330
2A
102
}
330
2A
100
AcDbVisualStyle
  2

 70
     0
 71
     2
 72
     1
 73
     1
 90
        2
 40
-0.6
 41
30.0
 62
     5
 63
     7
 74
     0
 91
        4
 64
     7
 65
   257
 75
     1
175
     1
 42
1.0
 92
        8
 66
     7
 43
1.0
 76
     1
 77
     6
 78
     2
 67
     7
 79
     5
170
     0
171
     0
290
     0
174
     0
 93
       13
 44
0.0
173
     0
291
     1
 45
0.0
1001
ACAD
1000
AcDbSavedByObjectVersion
1070
     0
  0
VISUALSTYLE
  5
2C
102
{ACAD_XDICTIONARY
360
2EC
102
}
102
{ACAD_REACTORS
330
2A
102
}
330
2A
100
AcDbVisualStyle
  2

 70
     1
 71
     2
 72
     1
 73
     1
 90
        2
 40
-0.6
 41
30.0
 62
     5
 63
     7
 74
     1
 91
        4
 64
     7
 65
   257
 75
     1
175
     1
 42
1.0
 92
        0
 66
   257
 43
1.0
 76
     1
 77
     6
 78
     2
 67
     7
 79
     5
170
     0
171
     0
290
     0
174
     0
 93
       13
 44
0.0
173
     0
291
     1
 45
0.0
1001
ACAD
1000
AcDbSavedByObjectVersion
1070
     0
  0
VISUALSTYLE
  5
2D
102
{ACAD_XDICTIONARY
360
2EE
102
}
102
{ACAD_REACTORS
330
2A
102
}
330
2A
100
AcDbVisualStyle
  2

 70
     2
 71
     2
 72
     2
 73
     1
 90
        2
 40
-0.6
 41
30.0
 62
     5
 63
     7
 74
     0
 91
        4
 64
     7
 65
   257
 75
     1
175
     1
 42
1.0
 92
        0
 66
     7
 43
1.0
 76
     1
 77
     6
 78
     2
 67
     7
 79
     5
170
     0
171
     0
290
     0
174
     0
 93
       13
 44
0.0
173
     0
291
     1
 45
0.0
1001
ACAD
1000
AcDbSavedByObjectVersion
1070
     0
  0
VISUALSTYLE
  5
2E
102
{ACAD_XDICTIONARY
360
2F0
102
}
102
{ACAD_REACTORS
330
2A
102
}
330
2A
100
AcDbVisualStyle
  2

 70
     3
 71
     2
 72
     2
 73
     1
 90
        2
 40
-0.6
 41
30.0
 62
     5
 63
     7
 74
     1
 91
        4
 64
     7
 65
   257
 75
     1
175
     1
 42
1.0
 92
        0
 66
   257
 43
1.0
 76
     1
 77
     6
 78
     2
 67
     7
 79
     5
170
     0
171
     0
290
     0
174
     0
 93
       13
 44
0.0
173
     0
291
     1
 45
0.0
1001
ACAD
1000
AcDbSavedByObjectVersion
1070
     0
  0
VISUALSTYLE
  5
2A7
102
{ACAD_XDICTIONARY
360
30F
102
}
102
{ACAD_REACTORS
330
2A
102
}
330
2A
100
AcDbVisualStyle
  2
Hidden
 70
     6
 71
     1
 72
     2
 73
     2
 90
        0
 40
-0.6
 41
-30.0
 62
     5
 63
     7
 74
     2
 91
        2
 64
     7
 65
   257
 75
     2
175
     1
 42
40.0
 92
        0
 66
   257
 43
1.0
 76
     1
 77
     6
 78
     2
 67
     7
 79
     3
170
     0
171
     0
290
     0
174
     0
 93
        1
 44
0.0
173
     0
291
     0
 45
0.0
1001
ACAD
1000
AcDbSavedByObjectVersion
1070
     0
  0
VISUALSTYLE
  5
2AD
102
{ACAD_XDICTIONARY
360
31B
102
}
102
{ACAD_REACTORS
330
2A
102
}
330
2A
100
AcDbVisualStyle
  2
JitterOff
 70
    20
 71
     2
 72
     2
 73
     0
 90
        0
 40
-0.6
 41
-30.0
 62
     5
 63
     7
 74
     1
 91
        4
 64
     7
 65
   257
 75
     1
175
     1
 42
1.0
 92
       10
 66
     7
 43
1.0
 76
     1
 77
     6
 78
     2
 67
     7
 79
     5
170
     0
171
     0
290
     0
174
     0
 93
        1
 44
0.0
173
     0
291
     1
 45
0.0
1001
ACAD
1000
AcDbSavedByObjectVersion
1070
     0
  0
VISUALSTYLE
  5
38
102
{ACAD_XDICTIONARY
360
304
102
}
102
{ACAD_REACTORS
330
2A
102
}
330
2A
100
AcDbVisualStyle
  2

 70
    14
 71
     2
 72
     2
 73
     0
 90
        0
 40
-0.6
 41
-30.0
 62
     5
 63
     7
 74
     1
 91
        4
 64
     7
 65
   257
 75
     7
175
     7
 42
1.0
 92
        8
 66
     7
 43
1.0
 76
     1
 77
     6
 78
     2
 67
     7
 79
     5
170
     0
171
     0
290
     0
174
     0
 93
        1
 44
0.0
173
     0
291
     1
 45
0.0
1001
ACAD
1000
AcDbSavedByObjectVersion
1070
     0
  0
VISUALSTYLE
  5
2AE
102
{ACAD_XDICTIONARY
360
31D
102
}
102
{ACAD_REACTORS
330
2A
102
}
330
2A
100
AcDbVisualStyle
  2
OverhangOff
 70
    21
 71
     2
 72
     2
 73
     0
 90
        0
 40
-0.6
 41
-30.0
 62
     5
 63
     7
 74
     1
 91
        4
 64
     7
 65
   257
 75
     1
175
     1
 42
1.0
 92
        9
 66
     7
 43
1.0
 76
     1
 77
     6
 78
     2
 67
     7
 79
     5
170
     0
171
     0
290
     0
174
     0
 93
        1
 44
0.0
173
     0
291
     1
 45
0.0
1001
ACAD
1000
AcDbSavedByObjectVersion
1070
     0
  0
VISUALSTYLE
  5
33
102
{ACAD_XDICTIONARY
360
2FA
102
}
102
{ACAD_REACTORS
330
2A
102
}
330
2A
100
AcDbVisualStyle
  2

 70
     8
 71
     2
 72
     2
 73
     0
 90
        0
 40
-0.6
 41
-30.0
 62
     5
 63
     7
 74
     1
 91
        0
 64
     7
 65
   257
 75
     1
175
     1
 42
1.0
 92
        8
 66
     8
 43
1.0
 76
     1
 77
     6
 78
     2
 67
     7
 79
     5
170
     0
171
     0
290
     0
174
     0
 93
       13
 44
0.0
173
     0
291
     0
 45
0.0
1001
ACAD
1000
AcDbSavedByObjectVersion
1070
     0
  0
VISUALSTYLE
  5
2AC
102
{ACAD_XDICTIONARY
360
319
102
}
102
{ACAD_REACTORS
330
2A
102
}
330
2A
100
AcDbVisualStyle
  2
Shaded
 70
    27
 71
     2
 72
     2
 73
     1
 90
        2
 40
-0.6
 41
30.0
 62
     5
 63
     7
 74
     0
 91
        4
 64
     7
 65
   257
 75
     1
175
     1
 42
1.0
 92
        8
 66
   257
 43
1.0
 76
     1
 77
     6
 78
     2
 67
     8
 79
     3
170
     0
171
     0
290
     0
174
     0
 93
        5
 44
0.0
173
     0
291
     0
 45
0.0
1001
ACAD
1000
AcDbSavedByObjectVersion
1070
     0
  0
VISUALSTYLE
  5
2AB
102
{ACAD_XDICTIONARY
360
317
102
}
102
{ACAD_REACTORS
330
2A
102
}
330
2A
100
AcDbVisualStyle
  2
Shaded with edges
 70
    26
 71
     2
 72
     2
 73
     1
 90
        2
 40
-0.6
 41
30.0
 62
     5
 63
     7
 74
     1
 91
       10
 64
     7
 65
   257
 75
     2
175
     1
 42
1.0
 92
        8
 66
   257
 43
1.0
 76
     1
 77
     6
 78
     2
 67
     7
 79
     3
170
     0
171
     0
290
     0
174
     0
 93
        5
 44
0.0
173
     0
291
     0
 45
0.0
1001
ACAD
1000
AcDbSavedByObjectVersion
1070
     0
  0
VISUALSTYLE
  5
2A8
102
{ACAD_XDICTIONARY
360
311
102
}
102
{ACAD_REACTORS
330
2A
102
}
330
2A
100
AcDbVisualStyle
  2
Shades of Gray
 70
    23
 71
     2
 72
     2
 73
     3
 90
        0
 40
-0.6
 41
-30.0
 62
     5
 63
     7
 74
     2
 91
        2
 64
     7
 65
     7
 75
     1
175
     1
 42
40.0
 92
        8
 66
     7
 43
1.0
 76
     1
 77
     6
 78
     2
 67
     7
 79
     3
170
     0
171
     0
290
     0
174
     0
 93
        1
 44
0.0
173
     0
291
     0
 45
0.0
1001
ACAD
1000
AcDbSavedByObjectVersion
1070
     0
  0
VISUALSTYLE
  5
2A9
102
{ACAD_XDICTIONARY
360
313
102
}
102
{ACAD_REACTORS
330
2A
102
}
330
2A
100
AcDbVisualStyle
  2
Sketchy
 70
    24
 71
     1
 72
     2
 73
     2
 90
        0
 40
-0.6
 41
-30.0
 62
     5
 63
     7
 74
     2
 91
        2
 64
     7
 65
     7
 75
     1
175
     1
 42
40.0
 92
       11
 66
     7
 43
1.0
 76
     1
 77
     6
 78
     2
 67
     7
 79
     6
170
     0
171
     0
290
     0
174
     0
 93
        1
 44
0.0
173
     0
291
     0
 45
0.0
1001
ACAD
1000
AcDbSavedByObjectVersion
1070
     0
  0
VISUALSTYLE
  5
37
102
{ACAD_XDICTIONARY
360
302
102
}
102
{ACAD_REACTORS
330
2A
102
}
330
2A
100
AcDbVisualStyle
  2

 70
    13
 71
     2
 72
     2
 73
     0
 90
        0
 40
-0.6
 41
-30.0
 62
     5
 63
     7
 74
     1
 91
        4
 64
     7
 65
   257
 75
     1
175
     1
 42
1.0
 92
       12
 66
     7
 43
1.0
 76
     1
 77
     6
 78
     2
 67
     7
 79
     5
170
     0
171
     0
290
     0
174
     0
 93
        1
 44
0.0
173
     0
291
     1
 45
0.0
1001
ACAD
1000
AcDbSavedByObjectVersion
1070
     0
  0
VISUALSTYLE
  5
2A6
102
{ACAD_XDICTIONARY
360
30D
102
}
102
{ACAD_REACTORS
330
2A
102
}
330
2A
100
AcDbVisualStyle
  2
Wireframe
 70
     5
 71
     0
 72
     2
 73
     0
 90
        0
 40
-0.6
 41
-30.0
 62
     5
 63
     7
 74
     1
 91
        4
 64
     7
 65
   257
 75
     1
175
     1
 42
1.0
 92
        0
 66
   257
 43
1.0
 76
     1
 77
     6
 78
     2
 67
     7
 79
     3
170
     0
171
     0
290
     0
174
     0
 93
        1
 44
0.0
173
     0
291
     0
 45
0.0
1001
ACAD
1000
AcDbSavedByObjectVersion
1070
     0
  0
VISUALSTYLE
  5
2AA
102
{ACAD_XDICTIONARY
360
315
102
}
102
{ACAD_REACTORS
330
2A
102
}
330
2A
100
AcDbVisualStyle
  2
X-Ray
 70
    25
 71
     2
 72
     2
 73
     1
 90
        1
 40
0.5
 41
-30.0
 62
     5
 63
     7
 74
     1
 91
        0
 64
     7
 65
   257
 75
     1
175
     1
 42
1.0
 92
        8
 66
     7
 43
1.0
 76
     1
 77
     6
 78
     2
 67
     7
 79
     3
170
     0
171
     0
290
     0
174
     0
 93
       13
 44
0.0
173
     0
291
     0
 45
0.0
1001
ACAD
1000
AcDbSavedByObjectVersion
1070
     0
  0
DICTIONARYVAR
  5
2D9
102
{ACAD_REACTORS
330
2D4
102
}
330
2D4
100
DictionaryVariables
280
     0
  1
1:1
  0
DICTIONARYVAR
  5
2D6
102
{ACAD_REACTORS
330
2D4
102
}
330
2D4
100
DictionaryVariables
280
     0
  1
STANDARD
  0
DICTIONARYVAR
  5
2D5
102
{ACAD_REACTORS
330
2D4
102
}
330
2D4
100
DictionaryVariables
280
     0
  1
STANDARD
  0
DICTIONARYVAR
  5
2D7
102
{ACAD_REACTORS
330
2D4
102
}
330
2D4
100
DictionaryVariables
280
     0
  1
Imperial24
  0
DICTIONARYVAR
  5
2D8
102
{ACAD_REACTORS
330
2D4
102
}
330
2D4
100
DictionaryVariables
280
     0
  1
Imperial24
  0
DICTIONARYVAR
  5
2DE
102
{ACAD_REACTORS
330
2D4
102
}
330
2D4
100
DictionaryVariables
280
     0
  1
2
  0
DICTIONARYVAR
  5
2DC
102
{ACAD_REACTORS
330
2D4
102
}
330
2D4
100
DictionaryVariables
280
     0
  1
1
  0
DICTIONARYVAR
  5
2DB
102
{ACAD_REACTORS
330
2D4
102
}
330
2D4
100
DictionaryVariables
280
     0
  1
0
  0
DICTIONARYVAR
  5
2DA
102
{ACAD_REACTORS
330
2D4
102
}
330
2D4
100
DictionaryVariables
280
     0
  1
127
  0
DICTIONARYVAR
  5
2DD
102
{ACAD_REACTORS
330
2D4
102
}
330
2D4
100
DictionaryVariables
280
     0
  1
0
  0
DICTIONARY
  5
2E4
330
1E
100
AcDbDictionary
280
     1
281
     1
  3
ACAD_XREC_ROUNDTRIP
360
2E5
  0
DICTIONARY
  5
2E8
330
26
100
AcDbDictionary
280
     1
281
     1
  3
ACAD_XREC_ROUNDTRIP
360
2E9
  0
DICTIONARY
  5
2E6
330
22
100
AcDbDictionary
280
     1
281
     1
  3
ACAD_XREC_ROUNDTRIP
360
2E7
  0
DICTIONARY
  5
297
330
296
100
AcDbDictionary
280
     1
281
     1
  3
ACAD_XREC_ROUNDTRIP
360
30B
  3
BUMPTILE
360
299
  3
DIFFUSETILE
360
298
  3
OPACITYTILE
360
29C
  3
REFLECTIONTILE
360
29B
  3
REFRACTIONTILE
360
29D
  3
SPECULARTILE
360
29A
  0
DICTIONARY
  5
28F
330
28E
100
AcDbDictionary
280
     1
281
     1
  3
ACAD_XREC_ROUNDTRIP
360
30A
  3
BUMPTILE
360
291
  3
DIFFUSETILE
360
290
  3
OPACITYTILE
360
294
  3
REFLECTIONTILE
360
293
  3
REFRACTIONTILE
360
295
  3
SPECULARTILE
360
292
  0
DICTIONARY
  5
29F
330
29E
100
AcDbDictionary
280
     1
281
     1
  3
ACAD_XREC_ROUNDTRIP
360
30C
  3
BUMPTILE
360
2A1
  3
DIFFUSETILE
360
2A0
  3
OPACITYTILE
360
2A4
  3
REFLECTIONTILE
360
2A3
  3
REFRACTIONTILE
360
2A5
  3
SPECULARTILE
360
2A2
  0
DICTIONARY
  5
2E0
330
2B1
100
AcDbDictionary
280
     1
281
     1
  3
ACAD_ROUNDTRIP_2008_TABLESTYLE_CELLSTYLEMAP
360
2E1
  3
ACAD_XREC_ROUNDTRIP
360
321
  0
DICTIONARY
  5
2F2
330
2F
100
AcDbDictionary
280
     1
281
     1
  3
ACAD_XREC_ROUNDTRIP
360
2F3
  0
DICTIONARY
  5
2F6
330
31
100
AcDbDictionary
280
     1
281
     1
  3
ACAD_XREC_ROUNDTRIP
360
2F7
  0
DICTIONARY
  5
2F4
330
30
100
AcDbDictionary
280
     1
281
     1
  3
ACAD_XREC_ROUNDTRIP
360
2F5
  0
DICTIONARY
  5
2F8
330
32
100
AcDbDictionary
280
     1
281
     1
  3
ACAD_XREC_ROUNDTRIP
360
2F9
  0
DICTIONARY
  5
300
330
36
100
AcDbDictionary
280
     1
281
     1
  3
ACAD_XREC_ROUNDTRIP
360
301
  0
DICTIONARY
  5
308
330
3A
100
AcDbDictionary
280
     1
281
     1
  3
ACAD_XREC_ROUNDTRIP
360
309
  0
DICTIONARY
  5
2FC
330
34
100
AcDbDictionary
280
     1
281
     1
  3
ACAD_XREC_ROUNDTRIP
360
2FD
  0
DICTIONARY
  5
2FE
330
35
100
AcDbDictionary
280
     1
281
     1
  3
ACAD_XREC_ROUNDTRIP
360
2FF
  0
DICTIONARY
  5
31F
330
2AF
100
AcDbDictionary
280
     1
281
     1
  3
ACAD_XREC_ROUNDTRIP
360
320
  0
DICTIONARY
  5
306
330
39
100
AcDbDictionary
280
     1
281
     1
  3
ACAD_XREC_ROUNDTRIP
360
307
  0
DICTIONARY
  5
2EA
330
2B
100
AcDbDictionary
280
     1
281
     1
  3
ACAD_XREC_ROUNDTRIP
360
2EB
  0
DICTIONARY
  5
2EC
330
2C
100
AcDbDictionary
280
     1
281
     1
  3
ACAD_XREC_ROUNDTRIP
360
2ED
  0
DICTIONARY
  5
2EE
330
2D
100
AcDbDictionary
280
     1
281
     1
  3
ACAD_XREC_ROUNDTRIP
360
2EF
  0
DICTIONARY
  5
2F0
330
2E
100
AcDbDictionary
280
     1
281
     1
  3
ACAD_XREC_ROUNDTRIP
360
2F1
  0
DICTIONARY
  5
30F
330
2A7
100
AcDbDictionary
280
     1
281
     1
  3
ACAD_XREC_ROUNDTRIP
360
310
  0
DICTIONARY
  5
31B
330
2AD
100
AcDbDictionary
280
     1
281
     1
  3
ACAD_XREC_ROUNDTRIP
360
31C
  0
DICTIONARY
  5
304
330
38
100
AcDbDictionary
280
     1
281
     1
  3
ACAD_XREC_ROUNDTRIP
360
305
  0
DICTIONARY
  5
31D
330
2AE
100
AcDbDictionary
280
     1
281
     1
  3
ACAD_XREC_ROUNDTRIP
360
31E
  0
DICTIONARY
  5
2FA
330
33
100
AcDbDictionary
280
     1
281
     1
  3
ACAD_XREC_ROUNDTRIP
360
2FB
  0
DICTIONARY
  5
319
330
2AC
100
AcDbDictionary
280
     1
281
     1
  3
ACAD_XREC_ROUNDTRIP
360
31A
  0
DICTIONARY
  5
317
330
2AB
100
AcDbDictionary
280
     1
281
     1
  3
ACAD_XREC_ROUNDTRIP
360
318
  0
DICTIONARY
  5
311
330
2A8
100
AcDbDictionary
280
     1
281
     1
  3
ACAD_XREC_ROUNDTRIP
360
312
  0
DICTIONARY
  5
313
330
2A9
100
AcDbDictionary
280
     1
281
     1
  3
ACAD_XREC_ROUNDTRIP
360
314
  0
DICTIONARY
  5
302
330
37
100
AcDbDictionary
280
     1
281
     1
  3
ACAD_XREC_ROUNDTRIP
360
303
  0
DICTIONARY
  5
30D
330
2A6
100
AcDbDictionary
280
     1
281
     1
  3
ACAD_XREC_ROUNDTRIP
360
30E
  0
DICTIONARY
  5
315
330
2AA
100
AcDbDictionary
280
     1
281
     1
  3
ACAD_XREC_ROUNDTRIP
360
316
  0
XRECORD
  5
2E5
102
{ACAD_REACTORS
330
2E4
102
}
330
2E4
100
AcDbXrecord
280
     1
102
SHADEPLOT
 70
     0
102
SHADEPLOTRESLEVEL
 70
     2
102
SHADEPLOTCUSTOMDPI
 70
   300
  0
XRECORD
  5
2E9
102
{ACAD_REACTORS
330
2E8
102
}
330
2E8
100
AcDbXrecord
280
     1
102
SHADEPLOT
 70
     0
102
SHADEPLOTRESLEVEL
 70
     2
102
SHADEPLOTCUSTOMDPI
 70
   300
  0
XRECORD
  5
2E7
102
{ACAD_REACTORS
330
2E6
102
}
330
2E6
100
AcDbXrecord
280
     1
102
SHADEPLOT
 70
     0
102
SHADEPLOTRESLEVEL
 70
     2
102
SHADEPLOTCUSTOMDPI
 70
   300
  0
XRECORD
  5
30B
102
{ACAD_REACTORS
330
297
102
}
330
297
100
AcDbXrecord
280
     1
102
MATERIAL
148
0.0
149
0.0
149
0.0
 93
        0
 94
      127
282
     0
 72
     0
 77
     0
171
     0
175
     0
179
     0
273
     0
  0
XRECORD
  5
299
102
{ACAD_REACTORS
330
297
102
}
330
297
100
AcDbXrecord
280
     1
270
     1
271
     1
  0
XRECORD
  5
298
102
{ACAD_REACTORS
330
297
102
}
330
297
100
AcDbXrecord
280
     1
270
     1
271
     1
  0
XRECORD
  5
29C
102
{ACAD_REACTORS
330
297
102
}
330
297
100
AcDbXrecord
280
     1
270
     1
271
     1
  0
XRECORD
  5
29B
102
{ACAD_REACTORS
330
297
102
}
330
297
100
AcDbXrecord
280
     1
270
     1
271
     1
  0
XRECORD
  5
29D
102
{ACAD_REACTORS
330
297
102
}
330
297
100
AcDbXrecord
280
     1
270
     1
271
     1
  0
XRECORD
  5
29A
102
{ACAD_REACTORS
330
297
102
}
330
297
100
AcDbXrecord
280
     1
270
     1
271
     1
  0
XRECORD
  5
30A
102
{ACAD_REACTORS
330
28F
102
}
330
28F
100
AcDbXrecord
280
     1
102
MATERIAL
148
0.0
149
0.0
149
0.0
 93
        0
 94
      127
282
     0
 72
     0
 77
     0
171
     0
175
     0
179
     0
273
     0
  0
XRECORD
  5
291
102
{ACAD_REACTORS
330
28F
102
}
330
28F
100
AcDbXrecord
280
     1
270
     1
271
     1
  0
XRECORD
  5
290
102
{ACAD_REACTORS
330
28F
102
}
330
28F
100
AcDbXrecord
280
     1
270
     1
271
     1
  0
XRECORD
  5
294
102
{ACAD_REACTORS
330
28F
102
}
330
28F
100
AcDbXrecord
280
     1
270
     1
271
     1
  0
XRECORD
  5
293
102
{ACAD_REACTORS
330
28F
102
}
330
28F
100
AcDbXrecord
280
     1
270
     1
271
     1
  0
XRECORD
  5
295
102
{ACAD_REACTORS
330
28F
102
}
330
28F
100
AcDbXrecord
280
     1
270
     1
271
     1
  0
XRECORD
  5
292
102
{ACAD_REACTORS
330
28F
102
}
330
28F
100
AcDbXrecord
280
     1
270
     1
271
     1
  0
XRECORD
  5
30C
102
{ACAD_REACTORS
330
29F
102
}
330
29F
100
AcDbXrecord
280
     1
102
MATERIAL
148
0.0
149
0.0
149
0.0
 93
        0
 94
      127
282
     0
 72
     0
 77
     0
171
     0
175
     0
179
     0
273
     0
  0
XRECORD
  5
2A1
102
{ACAD_REACTORS
330
29F
102
}
330
29F
100
AcDbXrecord
280
     1
270
     1
271
     1
  0
XRECORD
  5
2A0
102
{ACAD_REACTORS
330
29F
102
}
330
29F
100
AcDbXrecord
280
     1
270
     1
271
     1
  0
XRECORD
  5
2A4
102
{ACAD_REACTORS
330
29F
102
}
330
29F
100
AcDbXrecord
280
     1
270
     1
271
     1
  0
XRECORD
  5
2A3
102
{ACAD_REACTORS
330
29F
102
}
330
29F
100
AcDbXrecord
280
     1
270
     1
271
     1
  0
XRECORD
  5
2A5
102
{ACAD_REACTORS
330
29F
102
}
330
29F
100
AcDbXrecord
280
     1
270
     1
271
     1
  0
XRECORD
  5
2A2
102
{ACAD_REACTORS
330
29F
102
}
330
29F
100
AcDbXrecord
280
     1
270
     1
271
     1
  0
CELLSTYLEMAP
  5
2E1
102
{ACAD_REACTORS
330
2E0
102
}
330
2E0
100
AcDbCellStyleMap
 90
        3
300
CELLSTYLE
  1
TABLEFORMAT_BEGIN
 90
        5
170
     1
 91
        0
 92
    32768
 62
   257
 93
        1
300
CONTENTFORMAT
  1
CONTENTFORMAT_BEGIN
 90
        0
 91
        0
 92
      512
 93
        0
300

 40
0.0
140
1.0
 94
        5
 62
     0
340
11
144
0.25
309
CONTENTFORMAT_END
171
     0
 94
        0
309
TABLEFORMAT_END
  1
CELLSTYLE_BEGIN
 90
        1
 91
        1
300
_TITLE
309
CELLSTYLE_END
300
CELLSTYLE
  1
TABLEFORMAT_BEGIN
 90
        5
170
     1
 91
        0
 92
        0
 62
   257
 93
        1
300
CONTENTFORMAT
  1
CONTENTFORMAT_BEGIN
 90
        0
 91
        0
 92
      512
 93
        0
300

 40
0.0
140
1.0
 94
        5
 62
     0
340
11
144
0.18
309
CONTENTFORMAT_END
171
     0
 94
        0
309
TABLEFORMAT_END
  1
CELLSTYLE_BEGIN
 90
        2
 91
        1
300
_HEADER
309
CELLSTYLE_END
300
CELLSTYLE
  1
TABLEFORMAT_BEGIN
 90
        5
170
     1
 91
        0
 92
        0
 62
   257
 93
        1
300
CONTENTFORMAT
  1
CONTENTFORMAT_BEGIN
 90
        0
 91
        0
 92
      512
 93
        0
300

 40
0.0
140
1.0
 94
        2
 62
     0
340
11
144
0.18
309
CONTENTFORMAT_END
171
     0
 94
        0
309
TABLEFORMAT_END
  1
CELLSTYLE_BEGIN
 90
        3
 91
        2
300
_DATA
309
CELLSTYLE_END
  0
XRECORD
  5
321
102
{ACAD_REACTORS
330
2E0
102
}
330
2E0
100
AcDbXrecord
280
     1
102
ACAD_ROUNDTRIP_PRE2007_TABLESTYLE
 90
      512
 91
        0
  1

 92
      512
 93
        0
  2

 94
      512
 95
        0
  3

  0
XRECORD
  5
2F3
102
{ACAD_REACTORS
330
2F2
102
}
330
2F2
100
AcDbXrecord
280
     1
102
RTVSPost2010Prop28
280
     1
102
RTVSPost2010PropOp28
 70
     1
102
RTVSPost2010Prop29
280
     1
102
RTVSPost2010PropOp29
 70
     1
102
RTVSPost2010Prop30
280
     0
102
RTVSPost2010PropOp30
 70
     1
102
RTVSPost2010Prop31
280
     0
102
RTVSPost2010PropOp31
 70
     1
102
RTVSPost2010Prop32
280
     0
102
RTVSPost2010PropOp32
 70
     1
102
RTVSPost2010Prop33
280
     0
102
RTVSPost2010PropOp33
 70
     1
102
RTVSPost2010Prop34
280
     0
102
RTVSPost2010PropOp34
 70
     1
102
RTVSPost2010Prop35
280
     0
102
RTVSPost2010PropOp35
 70
     1
102
RTVSPost2010Prop36
280
     0
102
RTVSPost2010PropOp36
 70
     1
102
RTVSPost2010Prop37
 90
       50
102
RTVSPost2010PropOp37
 70
     1
102
RTVSPost2010Prop38
140
0.0
102
RTVSPost2010PropOp38
 70
     1
102
RTVSPost2010Prop39
140
1.0
102
RTVSPost2010PropOp39
 70
     1
102
RTVSPost2010Prop40
 90
        0
102
RTVSPost2010PropOp40
 70
     1
102
RTVSPost2010Prop41ColorIndex
 90
       18
102
RTVSPost2010Prop41ColorRGB
 90
        0
102
RTVSPost2010PropOp41
 70
     1
102
RTVSPost2010Prop42
 90
       50
102
RTVSPost2010PropOp42
 70
     1
102
RTVSPost2010Prop43
 90
        3
102
RTVSPost2010PropOp43
 70
     1
102
RTVSPost2010Prop44ColorIndex
 90
        5
102
RTVSPost2010Prop44ColorRGB
 90
      255
102
RTVSPost2010PropOp44
 70
     1
102
RTVSPost2010Prop45
280
     0
102
RTVSPost2010PropOp45
 70
     1
102
RTVSPost2010Prop46
 90
       50
102
RTVSPost2010PropOp46
 70
     1
102
RTVSPost2010Prop47
 90
       50
102
RTVSPost2010PropOp47
 70
     1
102
RTVSPost2010Prop48
 90
       50
102
RTVSPost2010PropOp48
 70
     1
102
RTVSPost2010Prop49
280
     0
102
RTVSPost2010PropOp49
 70
     1
102
RTVSPost2010Prop50
 90
       50
102
RTVSPost2010PropOp50
 70
     1
102
RTVSPost2010Prop51ColorIndex
 90
      256
102
RTVSPost2010Prop51ColorRGB
 90
-16777216
102
RTVSPost2010PropOp51
 70
     0
102
RTVSPost2010Prop52
140
1.0
102
RTVSPost2010PropOp52
 70
     0
102
RTVSPost2010Prop53
 90
        2
102
RTVSPost2010PropOp53
 70
     1
102
RTVSPost2010Prop54
  1
strokes_ogs.tif
102
RTVSPost2010PropOp54
 70
     1
102
RTVSPost2010Prop55
280
     0
102
RTVSPost2010PropOp55
 70
     1
102
RTVSPost2010Prop56
140
1.0
102
RTVSPost2010PropOp56
 70
     1
102
RTVSPost2010Prop57
140
1.0
102
RTVSPost2010PropOp57
 70
     1
102
RTVSPropertyOp0
 70
     1
102
RTVSPropertyOp1
 70
     1
102
RTVSPropertyOp2
 70
     1
102
RTVSPropertyOp3
 70
     1
102
RTVSPropertyOp4
 70
     1
102
RTVSPropertyOp5
 70
     1
102
RTVSPropertyOp6
 70
     1
102
RTVSPropertyOp7
 70
     1
102
RTVSPropertyOp8
 70
     1
102
RTVSPropertyOp9
 70
     1
102
RTVSPropertyOp10
 70
     1
102
RTVSPropertyOp11
 70
     1
102
RTVSPropertyOp12
 70
     1
102
RTVSPropertyOp13
 70
     1
102
RTVSPropertyOp14
 70
     1
102
RTVSPropertyOp15
 70
     1
102
RTVSPropertyOp16
 70
     1
102
RTVSPropertyOp17
 70
     1
102
RTVSPropertyOp18
 70
     1
102
RTVSPropertyOp19
 70
     1
102
RTVSPropertyOp20
 70
     1
102
RTVSPropertyOp21
 70
     1
102
RTVSPropertyOp22
 70
     1
102
RTVSPropertyOp23
 70
     1
102
RTVSPropertyOp24
 70
     1
102
RTVSPropertyOp25
 70
     1
102
RTVSPropertyOp26
 70
     1
102
RTVSPropertyOp27
 70
     1
102
RTVSPropertyOp28
 70
     1
102
RTVSPropertyOp29
 70
     1
102
RTVSPropertyOp30
 70
     1
102
RTVSPropertyOp31
 70
     1
102
RTVSPropertyOp32
 70
     1
102
RTVSPropertyOp33
 70
     1
102
RTVSPropertyOp34
 70
     1
102
RTVSPropertyOp35
 70
     1
102
RTVSPropertyOp36
 70
     1
102
RTVSPropertyOp37
 70
     1
102
RTVSPropertyOp38
 70
     1
102
RTVSPropertyOp39
 70
     1
102
RTVSPropertyOp40
 70
     1
102
RTVSPropertyOp41
 70
     1
102
RTVSPropertyOp42
 70
     1
102
RTVSPropertyOp43
 70
     1
102
RTVSPropertyOp44
 70
     1
102
RTVSPropertyOp45
 70
     1
102
RTVSPropertyOp46
 70
     1
102
RTVSPropertyOp47
 70
     1
102
RTVSPropertyOp48
 70
     1
102
RTVSPropertyOp49
 70
     1
102
RTVSPropertyOp50
 70
     1
102
RTVSPropertyOp51
 70
     0
102
RTVSPropertyOp52
 70
     0
102
RTVSPropertyOp53
 70
     1
102
RTVSPropertyOp54
 70
     1
102
RTVSPropertyOp55
 70
     1
102
RTVSPropertyOp56
 70
     1
102
RTVSPropertyOp57
 70
     1
102
RTVSPropertyOp58
 70
     1
102
RTVSPropertyOp59
 70
     1
102
RTVSPropertyOp60
 70
     1
102
RTVSPropertyOp61
 70
     1
102
RTVSPropertyOp62
 70
     1
  0
XRECORD
  5
2F7
102
{ACAD_REACTORS
330
2F6
102
}
330
2F6
100
AcDbXrecord
280
     1
102
RTVSPost2010Prop28
280
     0
102
RTVSPost2010PropOp28
 70
     1
102
RTVSPost2010Prop29
280
     1
102
RTVSPost2010PropOp29
 70
     1
102
RTVSPost2010Prop30
280
     1
102
RTVSPost2010PropOp30
 70
     1
102
RTVSPost2010Prop31
280
     0
102
RTVSPost2010PropOp31
 70
     1
102
RTVSPost2010Prop32
280
     0
102
RTVSPost2010PropOp32
 70
     1
102
RTVSPost2010Prop33
280
     0
102
RTVSPost2010PropOp33
 70
     1
102
RTVSPost2010Prop34
280
     0
102
RTVSPost2010PropOp34
 70
     1
102
RTVSPost2010Prop35
280
     0
102
RTVSPost2010PropOp35
 70
     1
102
RTVSPost2010Prop36
280
     0
102
RTVSPost2010PropOp36
 70
     1
102
RTVSPost2010Prop37
 90
       50
102
RTVSPost2010PropOp37
 70
     1
102
RTVSPost2010Prop38
140
0.0
102
RTVSPost2010PropOp38
 70
     1
102
RTVSPost2010Prop39
140
1.0
102
RTVSPost2010PropOp39
 70
     1
102
RTVSPost2010Prop40
 90
        0
102
RTVSPost2010PropOp40
 70
     1
102
RTVSPost2010Prop41ColorIndex
 90
       18
102
RTVSPost2010Prop41ColorRGB
 90
        0
102
RTVSPost2010PropOp41
 70
     1
102
RTVSPost2010Prop42
 90
       50
102
RTVSPost2010PropOp42
 70
     1
102
RTVSPost2010Prop43
 90
        3
102
RTVSPost2010PropOp43
 70
     1
102
RTVSPost2010Prop44ColorIndex
 90
        5
102
RTVSPost2010Prop44ColorRGB
 90
      255
102
RTVSPost2010PropOp44
 70
     1
102
RTVSPost2010Prop45
280
     0
102
RTVSPost2010PropOp45
 70
     1
102
RTVSPost2010Prop46
 90
       50
102
RTVSPost2010PropOp46
 70
     1
102
RTVSPost2010Prop47
 90
       50
102
RTVSPost2010PropOp47
 70
     1
102
RTVSPost2010Prop48
 90
       50
102
RTVSPost2010PropOp48
 70
     1
102
RTVSPost2010Prop49
280
     0
102
RTVSPost2010PropOp49
 70
     1
102
RTVSPost2010Prop50
 90
       50
102
RTVSPost2010PropOp50
 70
     1
102
RTVSPost2010Prop51ColorIndex
 90
      256
102
RTVSPost2010Prop51ColorRGB
 90
-16777216
102
RTVSPost2010PropOp51
 70
     0
102
RTVSPost2010Prop52
140
1.0
102
RTVSPost2010PropOp52
 70
     0
102
RTVSPost2010Prop53
 90
        2
102
RTVSPost2010PropOp53
 70
     1
102
RTVSPost2010Prop54
  1
strokes_ogs.tif
102
RTVSPost2010PropOp54
 70
     1
102
RTVSPost2010Prop55
280
     0
102
RTVSPost2010PropOp55
 70
     1
102
RTVSPost2010Prop56
140
1.0
102
RTVSPost2010PropOp56
 70
     1
102
RTVSPost2010Prop57
140
1.0
102
RTVSPost2010PropOp57
 70
     1
102
RTVSPropertyOp0
 70
     1
102
RTVSPropertyOp1
 70
     1
102
RTVSPropertyOp2
 70
     1
102
RTVSPropertyOp3
 70
     1
102
RTVSPropertyOp4
 70
     1
102
RTVSPropertyOp5
 70
     1
102
RTVSPropertyOp6
 70
     1
102
RTVSPropertyOp7
 70
     1
102
RTVSPropertyOp8
 70
     1
102
RTVSPropertyOp9
 70
     1
102
RTVSPropertyOp10
 70
     1
102
RTVSPropertyOp11
 70
     1
102
RTVSPropertyOp12
 70
     1
102
RTVSPropertyOp13
 70
     1
102
RTVSPropertyOp14
 70
     1
102
RTVSPropertyOp15
 70
     1
102
RTVSPropertyOp16
 70
     1
102
RTVSPropertyOp17
 70
     1
102
RTVSPropertyOp18
 70
     1
102
RTVSPropertyOp19
 70
     1
102
RTVSPropertyOp20
 70
     1
102
RTVSPropertyOp21
 70
     1
102
RTVSPropertyOp22
 70
     1
102
RTVSPropertyOp23
 70
     1
102
RTVSPropertyOp24
 70
     1
102
RTVSPropertyOp25
 70
     1
102
RTVSPropertyOp26
 70
     1
102
RTVSPropertyOp27
 70
     1
102
RTVSPropertyOp28
 70
     1
102
RTVSPropertyOp29
 70
     1
102
RTVSPropertyOp30
 70
     1
102
RTVSPropertyOp31
 70
     1
102
RTVSPropertyOp32
 70
     1
102
RTVSPropertyOp33
 70
     1
102
RTVSPropertyOp34
 70
     1
102
RTVSPropertyOp35
 70
     1
102
RTVSPropertyOp36
 70
     1
102
RTVSPropertyOp37
 70
     1
102
RTVSPropertyOp38
 70
     1
102
RTVSPropertyOp39
 70
     1
102
RTVSPropertyOp40
 70
     1
102
RTVSPropertyOp41
 70
     1
102
RTVSPropertyOp42
 70
     1
102
RTVSPropertyOp43
 70
     1
102
RTVSPropertyOp44
 70
     1
102
RTVSPropertyOp45
 70
     1
102
RTVSPropertyOp46
 70
     1
102
RTVSPropertyOp47
 70
     1
102
RTVSPropertyOp48
 70
     1
102
RTVSPropertyOp49
 70
     1
102
RTVSPropertyOp50
 70
     1
102
RTVSPropertyOp51
 70
     0
102
RTVSPropertyOp52
 70
     0
102
RTVSPropertyOp53
 70
     1
102
RTVSPropertyOp54
 70
     1
102
RTVSPropertyOp55
 70
     1
102
RTVSPropertyOp56
 70
     1
102
RTVSPropertyOp57
 70
     1
102
RTVSPropertyOp58
 70
     1
102
RTVSPropertyOp59
 70
     1
102
RTVSPropertyOp60
 70
     1
102
RTVSPropertyOp61
 70
     1
102
RTVSPropertyOp62
 70
     1
  0
XRECORD
  5
2F5
102
{ACAD_REACTORS
330
2F4
102
}
330
2F4
100
AcDbXrecord
280
     1
102
RTVSPost2010Prop28
280
     0
102
RTVSPost2010PropOp28
 70
     1
102
RTVSPost2010Prop29
280
     1
102
RTVSPost2010PropOp29
 70
     1
102
RTVSPost2010Prop30
280
     1
102
RTVSPost2010PropOp30
 70
     1
102
RTVSPost2010Prop31
280
     0
102
RTVSPost2010PropOp31
 70
     1
102
RTVSPost2010Prop32
280
     0
102
RTVSPost2010PropOp32
 70
     1
102
RTVSPost2010Prop33
280
     0
102
RTVSPost2010PropOp33
 70
     1
102
RTVSPost2010Prop34
280
     0
102
RTVSPost2010PropOp34
 70
     1
102
RTVSPost2010Prop35
280
     0
102
RTVSPost2010PropOp35
 70
     1
102
RTVSPost2010Prop36
280
     0
102
RTVSPost2010PropOp36
 70
     1
102
RTVSPost2010Prop37
 90
       50
102
RTVSPost2010PropOp37
 70
     1
102
RTVSPost2010Prop38
140
0.0
102
RTVSPost2010PropOp38
 70
     1
102
RTVSPost2010Prop39
140
1.0
102
RTVSPost2010PropOp39
 70
     1
102
RTVSPost2010Prop40
 90
        0
102
RTVSPost2010PropOp40
 70
     1
102
RTVSPost2010Prop41ColorIndex
 90
       18
102
RTVSPost2010Prop41ColorRGB
 90
        0
102
RTVSPost2010PropOp41
 70
     1
102
RTVSPost2010Prop42
 90
       50
102
RTVSPost2010PropOp42
 70
     1
102
RTVSPost2010Prop43
 90
        3
102
RTVSPost2010PropOp43
 70
     1
102
RTVSPost2010Prop44ColorIndex
 90
        5
102
RTVSPost2010Prop44ColorRGB
 90
      255
102
RTVSPost2010PropOp44
 70
     1
102
RTVSPost2010Prop45
280
     0
102
RTVSPost2010PropOp45
 70
     1
102
RTVSPost2010Prop46
 90
       50
102
RTVSPost2010PropOp46
 70
     1
102
RTVSPost2010Prop47
 90
       50
102
RTVSPost2010PropOp47
 70
     1
102
RTVSPost2010Prop48
 90
       50
102
RTVSPost2010PropOp48
 70
     1
102
RTVSPost2010Prop49
280
     0
102
RTVSPost2010PropOp49
 70
     1
102
RTVSPost2010Prop50
 90
       50
102
RTVSPost2010PropOp50
 70
     1
102
RTVSPost2010Prop51ColorIndex
 90
      256
102
RTVSPost2010Prop51ColorRGB
 90
-16777216
102
RTVSPost2010PropOp51
 70
     0
102
RTVSPost2010Prop52
140
1.0
102
RTVSPost2010PropOp52
 70
     0
102
RTVSPost2010Prop53
 90
        2
102
RTVSPost2010PropOp53
 70
     1
102
RTVSPost2010Prop54
  1
strokes_ogs.tif
102
RTVSPost2010PropOp54
 70
     1
102
RTVSPost2010Prop55
280
     0
102
RTVSPost2010PropOp55
 70
     1
102
RTVSPost2010Prop56
140
1.0
102
RTVSPost2010PropOp56
 70
     1
102
RTVSPost2010Prop57
140
1.0
102
RTVSPost2010PropOp57
 70
     1
102
RTVSPropertyOp0
 70
     1
102
RTVSPropertyOp1
 70
     1
102
RTVSPropertyOp2
 70
     1
102
RTVSPropertyOp3
 70
     1
102
RTVSPropertyOp4
 70
     1
102
RTVSPropertyOp5
 70
     1
102
RTVSPropertyOp6
 70
     1
102
RTVSPropertyOp7
 70
     1
102
RTVSPropertyOp8
 70
     1
102
RTVSPropertyOp9
 70
     1
102
RTVSPropertyOp10
 70
     1
102
RTVSPropertyOp11
 70
     1
102
RTVSPropertyOp12
 70
     1
102
RTVSPropertyOp13
 70
     1
102
RTVSPropertyOp14
 70
     1
102
RTVSPropertyOp15
 70
     1
102
RTVSPropertyOp16
 70
     1
102
RTVSPropertyOp17
 70
     1
102
RTVSPropertyOp18
 70
     1
102
RTVSPropertyOp19
 70
     1
102
RTVSPropertyOp20
 70
     1
102
RTVSPropertyOp21
 70
     1
102
RTVSPropertyOp22
 70
     1
102
RTVSPropertyOp23
 70
     1
102
RTVSPropertyOp24
 70
     1
102
RTVSPropertyOp25
 70
     1
102
RTVSPropertyOp26
 70
     1
102
RTVSPropertyOp27
 70
     1
102
RTVSPropertyOp28
 70
     1
102
RTVSPropertyOp29
 70
     1
102
RTVSPropertyOp30
 70
     1
102
RTVSPropertyOp31
 70
     1
102
RTVSPropertyOp32
 70
     1
102
RTVSPropertyOp33
 70
     1
102
RTVSPropertyOp34
 70
     1
102
RTVSPropertyOp35
 70
     1
102
RTVSPropertyOp36
 70
     1
102
RTVSPropertyOp37
 70
     1
102
RTVSPropertyOp38
 70
     1
102
RTVSPropertyOp39
 70
     1
102
RTVSPropertyOp40
 70
     1
102
RTVSPropertyOp41
 70
     1
102
RTVSPropertyOp42
 70
     1
102
RTVSPropertyOp43
 70
     1
102
RTVSPropertyOp44
 70
     1
102
RTVSPropertyOp45
 70
     1
102
RTVSPropertyOp46
 70
     1
102
RTVSPropertyOp47
 70
     1
102
RTVSPropertyOp48
 70
     1
102
RTVSPropertyOp49
 70
     1
102
RTVSPropertyOp50
 70
     1
102
RTVSPropertyOp51
 70
     0
102
RTVSPropertyOp52
 70
     0
102
RTVSPropertyOp53
 70
     1
102
RTVSPropertyOp54
 70
     1
102
RTVSPropertyOp55
 70
     1
102
RTVSPropertyOp56
 70
     1
102
RTVSPropertyOp57
 70
     1
102
RTVSPropertyOp58
 70
     1
102
RTVSPropertyOp59
 70
     1
102
RTVSPropertyOp60
 70
     1
102
RTVSPropertyOp61
 70
     1
102
RTVSPropertyOp62
 70
     1
  0
XRECORD
  5
2F9
102
{ACAD_REACTORS
330
2F8
102
}
330
2F8
100
AcDbXrecord
280
     1
102
RTVSPost2010Prop28
280
     0
102
RTVSPost2010PropOp28
 70
     1
102
RTVSPost2010Prop29
280
     1
102
RTVSPost2010PropOp29
 70
     1
102
RTVSPost2010Prop30
280
     1
102
RTVSPost2010PropOp30
 70
     1
102
RTVSPost2010Prop31
280
     0
102
RTVSPost2010PropOp31
 70
     1
102
RTVSPost2010Prop32
280
     0
102
RTVSPost2010PropOp32
 70
     1
102
RTVSPost2010Prop33
280
     0
102
RTVSPost2010PropOp33
 70
     1
102
RTVSPost2010Prop34
280
     0
102
RTVSPost2010PropOp34
 70
     1
102
RTVSPost2010Prop35
280
     0
102
RTVSPost2010PropOp35
 70
     1
102
RTVSPost2010Prop36
280
     0
102
RTVSPost2010PropOp36
 70
     1
102
RTVSPost2010Prop37
 90
       50
102
RTVSPost2010PropOp37
 70
     1
102
RTVSPost2010Prop38
140
0.0
102
RTVSPost2010PropOp38
 70
     1
102
RTVSPost2010Prop39
140
1.0
102
RTVSPost2010PropOp39
 70
     1
102
RTVSPost2010Prop40
 90
        0
102
RTVSPost2010PropOp40
 70
     1
102
RTVSPost2010Prop41ColorIndex
 90
       18
102
RTVSPost2010Prop41ColorRGB
 90
        0
102
RTVSPost2010PropOp41
 70
     1
102
RTVSPost2010Prop42
 90
       50
102
RTVSPost2010PropOp42
 70
     1
102
RTVSPost2010Prop43
 90
        3
102
RTVSPost2010PropOp43
 70
     1
102
RTVSPost2010Prop44ColorIndex
 90
        5
102
RTVSPost2010Prop44ColorRGB
 90
      255
102
RTVSPost2010PropOp44
 70
     1
102
RTVSPost2010Prop45
280
     0
102
RTVSPost2010PropOp45
 70
     1
102
RTVSPost2010Prop46
 90
       50
102
RTVSPost2010PropOp46
 70
     1
102
RTVSPost2010Prop47
 90
       50
102
RTVSPost2010PropOp47
 70
     1
102
RTVSPost2010Prop48
 90
       50
102
RTVSPost2010PropOp48
 70
     1
102
RTVSPost2010Prop49
280
     0
102
RTVSPost2010PropOp49
 70
     1
102
RTVSPost2010Prop50
 90
       50
102
RTVSPost2010PropOp50
 70
     1
102
RTVSPost2010Prop51ColorIndex
 90
      256
102
RTVSPost2010Prop51ColorRGB
 90
-16777216
102
RTVSPost2010PropOp51
 70
     0
102
RTVSPost2010Prop52
140
1.0
102
RTVSPost2010PropOp52
 70
     0
102
RTVSPost2010Prop53
 90
        2
102
RTVSPost2010PropOp53
 70
     1
102
RTVSPost2010Prop54
  1
strokes_ogs.tif
102
RTVSPost2010PropOp54
 70
     1
102
RTVSPost2010Prop55
280
     0
102
RTVSPost2010PropOp55
 70
     1
102
RTVSPost2010Prop56
140
1.0
102
RTVSPost2010PropOp56
 70
     1
102
RTVSPost2010Prop57
140
1.0
102
RTVSPost2010PropOp57
 70
     1
102
RTVSPropertyOp0
 70
     1
102
RTVSPropertyOp1
 70
     1
102
RTVSPropertyOp2
 70
     1
102
RTVSPropertyOp3
 70
     1
102
RTVSPropertyOp4
 70
     1
102
RTVSPropertyOp5
 70
     1
102
RTVSPropertyOp6
 70
     1
102
RTVSPropertyOp7
 70
     1
102
RTVSPropertyOp8
 70
     1
102
RTVSPropertyOp9
 70
     1
102
RTVSPropertyOp10
 70
     1
102
RTVSPropertyOp11
 70
     1
102
RTVSPropertyOp12
 70
     1
102
RTVSPropertyOp13
 70
     1
102
RTVSPropertyOp14
 70
     1
102
RTVSPropertyOp15
 70
     1
102
RTVSPropertyOp16
 70
     1
102
RTVSPropertyOp17
 70
     1
102
RTVSPropertyOp18
 70
     1
102
RTVSPropertyOp19
 70
     1
102
RTVSPropertyOp20
 70
     1
102
RTVSPropertyOp21
 70
     1
102
RTVSPropertyOp22
 70
     1
102
RTVSPropertyOp23
 70
     1
102
RTVSPropertyOp24
 70
     1
102
RTVSPropertyOp25
 70
     1
102
RTVSPropertyOp26
 70
     1
102
RTVSPropertyOp27
 70
     1
102
RTVSPropertyOp28
 70
     1
102
RTVSPropertyOp29
 70
     1
102
RTVSPropertyOp30
 70
     1
102
RTVSPropertyOp31
 70
     1
102
RTVSPropertyOp32
 70
     1
102
RTVSPropertyOp33
 70
     1
102
RTVSPropertyOp34
 70
     1
102
RTVSPropertyOp35
 70
     1
102
RTVSPropertyOp36
 70
     1
102
RTVSPropertyOp37
 70
     1
102
RTVSPropertyOp38
 70
     1
102
RTVSPropertyOp39
 70
     1
102
RTVSPropertyOp40
 70
     1
102
RTVSPropertyOp41
 70
     1
102
RTVSPropertyOp42
 70
     1
102
RTVSPropertyOp43
 70
     1
102
RTVSPropertyOp44
 70
     1
102
RTVSPropertyOp45
 70
     1
102
RTVSPropertyOp46
 70
     1
102
RTVSPropertyOp47
 70
     1
102
RTVSPropertyOp48
 70
     1
102
RTVSPropertyOp49
 70
     1
102
RTVSPropertyOp50
 70
     1
102
RTVSPropertyOp51
 70
     0
102
RTVSPropertyOp52
 70
     0
102
RTVSPropertyOp53
 70
     1
102
RTVSPropertyOp54
 70
     1
102
RTVSPropertyOp55
 70
     1
102
RTVSPropertyOp56
 70
     1
102
RTVSPropertyOp57
 70
     1
102
RTVSPropertyOp58
 70
     1
102
RTVSPropertyOp59
 70
     1
102
RTVSPropertyOp60
 70
     1
102
RTVSPropertyOp61
 70
     1
102
RTVSPropertyOp62
 70
     1
  0
XRECORD
  5
301
102
{ACAD_REACTORS
330
300
102
}
330
300
100
AcDbXrecord
280
     1
102
RTVSPost2010Prop28
280
     0
102
RTVSPost2010PropOp28
 70
     1
102
RTVSPost2010Prop29
280
     1
102
RTVSPost2010PropOp29
 70
     1
102
RTVSPost2010Prop30
280
     1
102
RTVSPost2010PropOp30
 70
     1
102
RTVSPost2010Prop31
280
     0
102
RTVSPost2010PropOp31
 70
     1
102
RTVSPost2010Prop32
280
     0
102
RTVSPost2010PropOp32
 70
     1
102
RTVSPost2010Prop33
280
     0
102
RTVSPost2010PropOp33
 70
     1
102
RTVSPost2010Prop34
280
     0
102
RTVSPost2010PropOp34
 70
     1
102
RTVSPost2010Prop35
280
     0
102
RTVSPost2010PropOp35
 70
     1
102
RTVSPost2010Prop36
280
     0
102
RTVSPost2010PropOp36
 70
     1
102
RTVSPost2010Prop37
 90
       50
102
RTVSPost2010PropOp37
 70
     1
102
RTVSPost2010Prop38
140
0.0
102
RTVSPost2010PropOp38
 70
     1
102
RTVSPost2010Prop39
140
1.0
102
RTVSPost2010PropOp39
 70
     1
102
RTVSPost2010Prop40
 90
        0
102
RTVSPost2010PropOp40
 70
     1
102
RTVSPost2010Prop41ColorIndex
 90
       18
102
RTVSPost2010Prop41ColorRGB
 90
        0
102
RTVSPost2010PropOp41
 70
     1
102
RTVSPost2010Prop42
 90
       50
102
RTVSPost2010PropOp42
 70
     1
102
RTVSPost2010Prop43
 90
        3
102
RTVSPost2010PropOp43
 70
     1
102
RTVSPost2010Prop44ColorIndex
 90
        5
102
RTVSPost2010Prop44ColorRGB
 90
      255
102
RTVSPost2010PropOp44
 70
     1
102
RTVSPost2010Prop45
280
     0
102
RTVSPost2010PropOp45
 70
     1
102
RTVSPost2010Prop46
 90
       50
102
RTVSPost2010PropOp46
 70
     1
102
RTVSPost2010Prop47
 90
       50
102
RTVSPost2010PropOp47
 70
     1
102
RTVSPost2010Prop48
 90
       50
102
RTVSPost2010PropOp48
 70
     1
102
RTVSPost2010Prop49
280
     0
102
RTVSPost2010PropOp49
 70
     1
102
RTVSPost2010Prop50
 90
       50
102
RTVSPost2010PropOp50
 70
     1
102
RTVSPost2010Prop51ColorIndex
 90
      256
102
RTVSPost2010Prop51ColorRGB
 90
-16777216
102
RTVSPost2010PropOp51
 70
     0
102
RTVSPost2010Prop52
140
1.0
102
RTVSPost2010PropOp52
 70
     0
102
RTVSPost2010Prop53
 90
        2
102
RTVSPost2010PropOp53
 70
     1
102
RTVSPost2010Prop54
  1
strokes_ogs.tif
102
RTVSPost2010PropOp54
 70
     1
102
RTVSPost2010Prop55
280
     0
102
RTVSPost2010PropOp55
 70
     1
102
RTVSPost2010Prop56
140
1.0
102
RTVSPost2010PropOp56
 70
     1
102
RTVSPost2010Prop57
140
1.0
102
RTVSPost2010PropOp57
 70
     1
102
RTVSPropertyOp0
 70
     1
102
RTVSPropertyOp1
 70
     1
102
RTVSPropertyOp2
 70
     1
102
RTVSPropertyOp3
 70
     1
102
RTVSPropertyOp4
 70
     1
102
RTVSPropertyOp5
 70
     1
102
RTVSPropertyOp6
 70
     1
102
RTVSPropertyOp7
 70
     1
102
RTVSPropertyOp8
 70
     1
102
RTVSPropertyOp9
 70
     1
102
RTVSPropertyOp10
 70
     1
102
RTVSPropertyOp11
 70
     1
102
RTVSPropertyOp12
 70
     1
102
RTVSPropertyOp13
 70
     1
102
RTVSPropertyOp14
 70
     1
102
RTVSPropertyOp15
 70
     1
102
RTVSPropertyOp16
 70
     1
102
RTVSPropertyOp17
 70
     1
102
RTVSPropertyOp18
 70
     1
102
RTVSPropertyOp19
 70
     1
102
RTVSPropertyOp20
 70
     1
102
RTVSPropertyOp21
 70
     1
102
RTVSPropertyOp22
 70
     1
102
RTVSPropertyOp23
 70
     1
102
RTVSPropertyOp24
 70
     1
102
RTVSPropertyOp25
 70
     1
102
RTVSPropertyOp26
 70
     1
102
RTVSPropertyOp27
 70
     1
102
RTVSPropertyOp28
 70
     1
102
RTVSPropertyOp29
 70
     1
102
RTVSPropertyOp30
 70
     1
102
RTVSPropertyOp31
 70
     1
102
RTVSPropertyOp32
 70
     1
102
RTVSPropertyOp33
 70
     1
102
RTVSPropertyOp34
 70
     1
102
RTVSPropertyOp35
 70
     1
102
RTVSPropertyOp36
 70
     1
102
RTVSPropertyOp37
 70
     1
102
RTVSPropertyOp38
 70
     1
102
RTVSPropertyOp39
 70
     1
102
RTVSPropertyOp40
 70
     1
102
RTVSPropertyOp41
 70
     1
102
RTVSPropertyOp42
 70
     1
102
RTVSPropertyOp43
 70
     1
102
RTVSPropertyOp44
 70
     1
102
RTVSPropertyOp45
 70
     1
102
RTVSPropertyOp46
 70
     1
102
RTVSPropertyOp47
 70
     1
102
RTVSPropertyOp48
 70
     1
102
RTVSPropertyOp49
 70
     1
102
RTVSPropertyOp50
 70
     1
102
RTVSPropertyOp51
 70
     0
102
RTVSPropertyOp52
 70
     0
102
RTVSPropertyOp53
 70
     1
102
RTVSPropertyOp54
 70
     1
102
RTVSPropertyOp55
 70
     1
102
RTVSPropertyOp56
 70
     1
102
RTVSPropertyOp57
 70
     1
102
RTVSPropertyOp58
 70
     1
102
RTVSPropertyOp59
 70
     1
102
RTVSPropertyOp60
 70
     1
102
RTVSPropertyOp61
 70
     1
102
RTVSPropertyOp62
 70
     1
  0
XRECORD
  5
309
102
{ACAD_REACTORS
330
308
102
}
330
308
100
AcDbXrecord
280
     1
102
RTVSPost2010Prop28
280
     0
102
RTVSPost2010PropOp28
 70
     1
102
RTVSPost2010Prop29
280
     1
102
RTVSPost2010PropOp29
 70
     1
102
RTVSPost2010Prop30
280
     1
102
RTVSPost2010PropOp30
 70
     1
102
RTVSPost2010Prop31
280
     0
102
RTVSPost2010PropOp31
 70
     1
102
RTVSPost2010Prop32
280
     0
102
RTVSPost2010PropOp32
 70
     1
102
RTVSPost2010Prop33
280
     0
102
RTVSPost2010PropOp33
 70
     1
102
RTVSPost2010Prop34
280
     0
102
RTVSPost2010PropOp34
 70
     1
102
RTVSPost2010Prop35
280
     0
102
RTVSPost2010PropOp35
 70
     1
102
RTVSPost2010Prop36
280
     0
102
RTVSPost2010PropOp36
 70
     1
102
RTVSPost2010Prop37
 90
       50
102
RTVSPost2010PropOp37
 70
     1
102
RTVSPost2010Prop38
140
0.0
102
RTVSPost2010PropOp38
 70
     1
102
RTVSPost2010Prop39
140
1.0
102
RTVSPost2010PropOp39
 70
     1
102
RTVSPost2010Prop40
 90
        0
102
RTVSPost2010PropOp40
 70
     1
102
RTVSPost2010Prop41ColorIndex
 90
       18
102
RTVSPost2010Prop41ColorRGB
 90
        0
102
RTVSPost2010PropOp41
 70
     1
102
RTVSPost2010Prop42
 90
       50
102
RTVSPost2010PropOp42
 70
     1
102
RTVSPost2010Prop43
 90
        3
102
RTVSPost2010PropOp43
 70
     1
102
RTVSPost2010Prop44ColorIndex
 90
        5
102
RTVSPost2010Prop44ColorRGB
 90
      255
102
RTVSPost2010PropOp44
 70
     1
102
RTVSPost2010Prop45
280
     0
102
RTVSPost2010PropOp45
 70
     1
102
RTVSPost2010Prop46
 90
       50
102
RTVSPost2010PropOp46
 70
     1
102
RTVSPost2010Prop47
 90
       50
102
RTVSPost2010PropOp47
 70
     1
102
RTVSPost2010Prop48
 90
       50
102
RTVSPost2010PropOp48
 70
     1
102
RTVSPost2010Prop49
280
     0
102
RTVSPost2010PropOp49
 70
     1
102
RTVSPost2010Prop50
 90
       50
102
RTVSPost2010PropOp50
 70
     1
102
RTVSPost2010Prop51ColorIndex
 90
      256
102
RTVSPost2010Prop51ColorRGB
 90
-16777216
102
RTVSPost2010PropOp51
 70
     0
102
RTVSPost2010Prop52
140
1.0
102
RTVSPost2010PropOp52
 70
     0
102
RTVSPost2010Prop53
 90
        2
102
RTVSPost2010PropOp53
 70
     1
102
RTVSPost2010Prop54
  1
strokes_ogs.tif
102
RTVSPost2010PropOp54
 70
     1
102
RTVSPost2010Prop55
280
     0
102
RTVSPost2010PropOp55
 70
     1
102
RTVSPost2010Prop56
140
1.0
102
RTVSPost2010PropOp56
 70
     1
102
RTVSPost2010Prop57
140
1.0
102
RTVSPost2010PropOp57
 70
     1
102
RTVSPropertyOp0
 70
     1
102
RTVSPropertyOp1
 70
     1
102
RTVSPropertyOp2
 70
     1
102
RTVSPropertyOp3
 70
     1
102
RTVSPropertyOp4
 70
     1
102
RTVSPropertyOp5
 70
     1
102
RTVSPropertyOp6
 70
     1
102
RTVSPropertyOp7
 70
     1
102
RTVSPropertyOp8
 70
     1
102
RTVSPropertyOp9
 70
     1
102
RTVSPropertyOp10
 70
     1
102
RTVSPropertyOp11
 70
     1
102
RTVSPropertyOp12
 70
     1
102
RTVSPropertyOp13
 70
     1
102
RTVSPropertyOp14
 70
     1
102
RTVSPropertyOp15
 70
     1
102
RTVSPropertyOp16
 70
     1
102
RTVSPropertyOp17
 70
     1
102
RTVSPropertyOp18
 70
     1
102
RTVSPropertyOp19
 70
     1
102
RTVSPropertyOp20
 70
     1
102
RTVSPropertyOp21
 70
     1
102
RTVSPropertyOp22
 70
     1
102
RTVSPropertyOp23
 70
     1
102
RTVSPropertyOp24
 70
     1
102
RTVSPropertyOp25
 70
     1
102
RTVSPropertyOp26
 70
     1
102
RTVSPropertyOp27
 70
     1
102
RTVSPropertyOp28
 70
     1
102
RTVSPropertyOp29
 70
     1
102
RTVSPropertyOp30
 70
     1
102
RTVSPropertyOp31
 70
     1
102
RTVSPropertyOp32
 70
     1
102
RTVSPropertyOp33
 70
     1
102
RTVSPropertyOp34
 70
     1
102
RTVSPropertyOp35
 70
     1
102
RTVSPropertyOp36
 70
     1
102
RTVSPropertyOp37
 70
     1
102
RTVSPropertyOp38
 70
     1
102
RTVSPropertyOp39
 70
     1
102
RTVSPropertyOp40
 70
     1
102
RTVSPropertyOp41
 70
     1
102
RTVSPropertyOp42
 70
     1
102
RTVSPropertyOp43
 70
     1
102
RTVSPropertyOp44
 70
     1
102
RTVSPropertyOp45
 70
     1
102
RTVSPropertyOp46
 70
     1
102
RTVSPropertyOp47
 70
     1
102
RTVSPropertyOp48
 70
     1
102
RTVSPropertyOp49
 70
     1
102
RTVSPropertyOp50
 70
     1
102
RTVSPropertyOp51
 70
     0
102
RTVSPropertyOp52
 70
     0
102
RTVSPropertyOp53
 70
     1
102
RTVSPropertyOp54
 70
     1
102
RTVSPropertyOp55
 70
     1
102
RTVSPropertyOp56
 70
     1
102
RTVSPropertyOp57
 70
     1
102
RTVSPropertyOp58
 70
     1
102
RTVSPropertyOp59
 70
     1
102
RTVSPropertyOp60
 70
     1
102
RTVSPropertyOp61
 70
     1
102
RTVSPropertyOp62
 70
     1
  0
XRECORD
  5
2FD
102
{ACAD_REACTORS
330
2FC
102
}
330
2FC
100
AcDbXrecord
280
     1
102
RTVSPost2010Prop28
280
     0
102
RTVSPost2010PropOp28
 70
     1
102
RTVSPost2010Prop29
280
     1
102
RTVSPost2010PropOp29
 70
     1
102
RTVSPost2010Prop30
280
     1
102
RTVSPost2010PropOp30
 70
     1
102
RTVSPost2010Prop31
280
     0
102
RTVSPost2010PropOp31
 70
     1
102
RTVSPost2010Prop32
280
     0
102
RTVSPost2010PropOp32
 70
     1
102
RTVSPost2010Prop33
280
     0
102
RTVSPost2010PropOp33
 70
     1
102
RTVSPost2010Prop34
280
     0
102
RTVSPost2010PropOp34
 70
     1
102
RTVSPost2010Prop35
280
     0
102
RTVSPost2010PropOp35
 70
     1
102
RTVSPost2010Prop36
280
     0
102
RTVSPost2010PropOp36
 70
     1
102
RTVSPost2010Prop37
 90
       50
102
RTVSPost2010PropOp37
 70
     1
102
RTVSPost2010Prop38
140
0.0
102
RTVSPost2010PropOp38
 70
     1
102
RTVSPost2010Prop39
140
1.0
102
RTVSPost2010PropOp39
 70
     1
102
RTVSPost2010Prop40
 90
        0
102
RTVSPost2010PropOp40
 70
     1
102
RTVSPost2010Prop41ColorIndex
 90
       18
102
RTVSPost2010Prop41ColorRGB
 90
        0
102
RTVSPost2010PropOp41
 70
     1
102
RTVSPost2010Prop42
 90
       50
102
RTVSPost2010PropOp42
 70
     1
102
RTVSPost2010Prop43
 90
        3
102
RTVSPost2010PropOp43
 70
     1
102
RTVSPost2010Prop44ColorIndex
 90
        5
102
RTVSPost2010Prop44ColorRGB
 90
      255
102
RTVSPost2010PropOp44
 70
     1
102
RTVSPost2010Prop45
280
     0
102
RTVSPost2010PropOp45
 70
     1
102
RTVSPost2010Prop46
 90
       50
102
RTVSPost2010PropOp46
 70
     1
102
RTVSPost2010Prop47
 90
       50
102
RTVSPost2010PropOp47
 70
     1
102
RTVSPost2010Prop48
 90
       50
102
RTVSPost2010PropOp48
 70
     1
102
RTVSPost2010Prop49
280
     0
102
RTVSPost2010PropOp49
 70
     1
102
RTVSPost2010Prop50
 90
       50
102
RTVSPost2010PropOp50
 70
     1
102
RTVSPost2010Prop51ColorIndex
 90
      256
102
RTVSPost2010Prop51ColorRGB
 90
-16777216
102
RTVSPost2010PropOp51
 70
     0
102
RTVSPost2010Prop52
140
1.0
102
RTVSPost2010PropOp52
 70
     0
102
RTVSPost2010Prop53
 90
        2
102
RTVSPost2010PropOp53
 70
     1
102
RTVSPost2010Prop54
  1
strokes_ogs.tif
102
RTVSPost2010PropOp54
 70
     1
102
RTVSPost2010Prop55
280
     0
102
RTVSPost2010PropOp55
 70
     1
102
RTVSPost2010Prop56
140
1.0
102
RTVSPost2010PropOp56
 70
     1
102
RTVSPost2010Prop57
140
1.0
102
RTVSPost2010PropOp57
 70
     1
102
RTVSPropertyOp0
 70
     1
102
RTVSPropertyOp1
 70
     1
102
RTVSPropertyOp2
 70
     1
102
RTVSPropertyOp3
 70
     1
102
RTVSPropertyOp4
 70
     1
102
RTVSPropertyOp5
 70
     1
102
RTVSPropertyOp6
 70
     1
102
RTVSPropertyOp7
 70
     1
102
RTVSPropertyOp8
 70
     1
102
RTVSPropertyOp9
 70
     1
102
RTVSPropertyOp10
 70
     1
102
RTVSPropertyOp11
 70
     1
102
RTVSPropertyOp12
 70
     1
102
RTVSPropertyOp13
 70
     1
102
RTVSPropertyOp14
 70
     1
102
RTVSPropertyOp15
 70
     1
102
RTVSPropertyOp16
 70
     1
102
RTVSPropertyOp17
 70
     1
102
RTVSPropertyOp18
 70
     1
102
RTVSPropertyOp19
 70
     1
102
RTVSPropertyOp20
 70
     1
102
RTVSPropertyOp21
 70
     1
102
RTVSPropertyOp22
 70
     1
102
RTVSPropertyOp23
 70
     1
102
RTVSPropertyOp24
 70
     1
102
RTVSPropertyOp25
 70
     1
102
RTVSPropertyOp26
 70
     1
102
RTVSPropertyOp27
 70
     1
102
RTVSPropertyOp28
 70
     1
102
RTVSPropertyOp29
 70
     1
102
RTVSPropertyOp30
 70
     1
102
RTVSPropertyOp31
 70
     1
102
RTVSPropertyOp32
 70
     1
102
RTVSPropertyOp33
 70
     1
102
RTVSPropertyOp34
 70
     1
102
RTVSPropertyOp35
 70
     1
102
RTVSPropertyOp36
 70
     1
102
RTVSPropertyOp37
 70
     1
102
RTVSPropertyOp38
 70
     1
102
RTVSPropertyOp39
 70
     1
102
RTVSPropertyOp40
 70
     1
102
RTVSPropertyOp41
 70
     1
102
RTVSPropertyOp42
 70
     1
102
RTVSPropertyOp43
 70
     1
102
RTVSPropertyOp44
 70
     1
102
RTVSPropertyOp45
 70
     1
102
RTVSPropertyOp46
 70
     1
102
RTVSPropertyOp47
 70
     1
102
RTVSPropertyOp48
 70
     1
102
RTVSPropertyOp49
 70
     1
102
RTVSPropertyOp50
 70
     1
102
RTVSPropertyOp51
 70
     0
102
RTVSPropertyOp52
 70
     0
102
RTVSPropertyOp53
 70
     1
102
RTVSPropertyOp54
 70
     1
102
RTVSPropertyOp55
 70
     1
102
RTVSPropertyOp56
 70
     1
102
RTVSPropertyOp57
 70
     1
102
RTVSPropertyOp58
 70
     1
102
RTVSPropertyOp59
 70
     1
102
RTVSPropertyOp60
 70
     1
102
RTVSPropertyOp61
 70
     1
102
RTVSPropertyOp62
 70
     1
  0
XRECORD
  5
2FF
102
{ACAD_REACTORS
330
2FE
102
}
330
2FE
100
AcDbXrecord
280
     1
102
RTVSPost2010Prop28
280
     0
102
RTVSPost2010PropOp28
 70
     1
102
RTVSPost2010Prop29
280
     1
102
RTVSPost2010PropOp29
 70
     1
102
RTVSPost2010Prop30
280
     1
102
RTVSPost2010PropOp30
 70
     1
102
RTVSPost2010Prop31
280
     0
102
RTVSPost2010PropOp31
 70
     1
102
RTVSPost2010Prop32
280
     0
102
RTVSPost2010PropOp32
 70
     1
102
RTVSPost2010Prop33
280
     0
102
RTVSPost2010PropOp33
 70
     1
102
RTVSPost2010Prop34
280
     0
102
RTVSPost2010PropOp34
 70
     1
102
RTVSPost2010Prop35
280
     0
102
RTVSPost2010PropOp35
 70
     1
102
RTVSPost2010Prop36
280
     0
102
RTVSPost2010PropOp36
 70
     1
102
RTVSPost2010Prop37
 90
       50
102
RTVSPost2010PropOp37
 70
     1
102
RTVSPost2010Prop38
140
0.0
102
RTVSPost2010PropOp38
 70
     1
102
RTVSPost2010Prop39
140
1.0
102
RTVSPost2010PropOp39
 70
     1
102
RTVSPost2010Prop40
 90
        0
102
RTVSPost2010PropOp40
 70
     1
102
RTVSPost2010Prop41ColorIndex
 90
       18
102
RTVSPost2010Prop41ColorRGB
 90
        0
102
RTVSPost2010PropOp41
 70
     1
102
RTVSPost2010Prop42
 90
       50
102
RTVSPost2010PropOp42
 70
     1
102
RTVSPost2010Prop43
 90
        3
102
RTVSPost2010PropOp43
 70
     1
102
RTVSPost2010Prop44ColorIndex
 90
        5
102
RTVSPost2010Prop44ColorRGB
 90
      255
102
RTVSPost2010PropOp44
 70
     1
102
RTVSPost2010Prop45
280
     0
102
RTVSPost2010PropOp45
 70
     1
102
RTVSPost2010Prop46
 90
       50
102
RTVSPost2010PropOp46
 70
     1
102
RTVSPost2010Prop47
 90
       50
102
RTVSPost2010PropOp47
 70
     1
102
RTVSPost2010Prop48
 90
       50
102
RTVSPost2010PropOp48
 70
     1
102
RTVSPost2010Prop49
280
     0
102
RTVSPost2010PropOp49
 70
     1
102
RTVSPost2010Prop50
 90
       50
102
RTVSPost2010PropOp50
 70
     1
102
RTVSPost2010Prop51ColorIndex
 90
      256
102
RTVSPost2010Prop51ColorRGB
 90
-16777216
102
RTVSPost2010PropOp51
 70
     0
102
RTVSPost2010Prop52
140
1.0
102
RTVSPost2010PropOp52
 70
     0
102
RTVSPost2010Prop53
 90
        2
102
RTVSPost2010PropOp53
 70
     1
102
RTVSPost2010Prop54
  1
strokes_ogs.tif
102
RTVSPost2010PropOp54
 70
     1
102
RTVSPost2010Prop55
280
     0
102
RTVSPost2010PropOp55
 70
     1
102
RTVSPost2010Prop56
140
1.0
102
RTVSPost2010PropOp56
 70
     1
102
RTVSPost2010Prop57
140
1.0
102
RTVSPost2010PropOp57
 70
     1
102
RTVSPropertyOp0
 70
     1
102
RTVSPropertyOp1
 70
     1
102
RTVSPropertyOp2
 70
     1
102
RTVSPropertyOp3
 70
     1
102
RTVSPropertyOp4
 70
     1
102
RTVSPropertyOp5
 70
     1
102
RTVSPropertyOp6
 70
     1
102
RTVSPropertyOp7
 70
     1
102
RTVSPropertyOp8
 70
     1
102
RTVSPropertyOp9
 70
     1
102
RTVSPropertyOp10
 70
     1
102
RTVSPropertyOp11
 70
     1
102
RTVSPropertyOp12
 70
     1
102
RTVSPropertyOp13
 70
     1
102
RTVSPropertyOp14
 70
     1
102
RTVSPropertyOp15
 70
     1
102
RTVSPropertyOp16
 70
     1
102
RTVSPropertyOp17
 70
     1
102
RTVSPropertyOp18
 70
     1
102
RTVSPropertyOp19
 70
     1
102
RTVSPropertyOp20
 70
     1
102
RTVSPropertyOp21
 70
     1
102
RTVSPropertyOp22
 70
     1
102
RTVSPropertyOp23
 70
     1
102
RTVSPropertyOp24
 70
     1
102
RTVSPropertyOp25
 70
     1
102
RTVSPropertyOp26
 70
     1
102
RTVSPropertyOp27
 70
     1
102
RTVSPropertyOp28
 70
     1
102
RTVSPropertyOp29
 70
     1
102
RTVSPropertyOp30
 70
     1
102
RTVSPropertyOp31
 70
     1
102
RTVSPropertyOp32
 70
     1
102
RTVSPropertyOp33
 70
     1
102
RTVSPropertyOp34
 70
     1
102
RTVSPropertyOp35
 70
     1
102
RTVSPropertyOp36
 70
     1
102
RTVSPropertyOp37
 70
     1
102
RTVSPropertyOp38
 70
     1
102
RTVSPropertyOp39
 70
     1
102
RTVSPropertyOp40
 70
     1
102
RTVSPropertyOp41
 70
     1
102
RTVSPropertyOp42
 70
     1
102
RTVSPropertyOp43
 70
     1
102
RTVSPropertyOp44
 70
     1
102
RTVSPropertyOp45
 70
     1
102
RTVSPropertyOp46
 70
     1
102
RTVSPropertyOp47
 70
     1
102
RTVSPropertyOp48
 70
     1
102
RTVSPropertyOp49
 70
     1
102
RTVSPropertyOp50
 70
     1
102
RTVSPropertyOp51
 70
     0
102
RTVSPropertyOp52
 70
     0
102
RTVSPropertyOp53
 70
     1
102
RTVSPropertyOp54
 70
     1
102
RTVSPropertyOp55
 70
     1
102
RTVSPropertyOp56
 70
     1
102
RTVSPropertyOp57
 70
     1
102
RTVSPropertyOp58
 70
     1
102
RTVSPropertyOp59
 70
     1
102
RTVSPropertyOp60
 70
     1
102
RTVSPropertyOp61
 70
     1
102
RTVSPropertyOp62
 70
     1
  0
XRECORD
  5
320
102
{ACAD_REACTORS
330
31F
102
}
330
31F
100
AcDbXrecord
280
     1
102
RTVSPost2010Prop28
280
     0
102
RTVSPost2010PropOp28
 70
     1
102
RTVSPost2010Prop29
280
     1
102
RTVSPost2010PropOp29
 70
     1
102
RTVSPost2010Prop30
280
     1
102
RTVSPost2010PropOp30
 70
     1
102
RTVSPost2010Prop31
280
     0
102
RTVSPost2010PropOp31
 70
     1
102
RTVSPost2010Prop32
280
     0
102
RTVSPost2010PropOp32
 70
     1
102
RTVSPost2010Prop33
280
     0
102
RTVSPost2010PropOp33
 70
     1
102
RTVSPost2010Prop34
280
     0
102
RTVSPost2010PropOp34
 70
     1
102
RTVSPost2010Prop35
280
     0
102
RTVSPost2010PropOp35
 70
     1
102
RTVSPost2010Prop36
280
     0
102
RTVSPost2010PropOp36
 70
     1
102
RTVSPost2010Prop37
 90
       50
102
RTVSPost2010PropOp37
 70
     0
102
RTVSPost2010Prop38
140
0.0
102
RTVSPost2010PropOp38
 70
     0
102
RTVSPost2010Prop39
140
1.0
102
RTVSPost2010PropOp39
 70
     0
102
RTVSPost2010Prop40
 90
        0
102
RTVSPost2010PropOp40
 70
     0
102
RTVSPost2010Prop41ColorIndex
 90
       18
102
RTVSPost2010Prop41ColorRGB
 90
        0
102
RTVSPost2010PropOp41
 70
     0
102
RTVSPost2010Prop42
 90
       50
102
RTVSPost2010PropOp42
 70
     0
102
RTVSPost2010Prop43
 90
        3
102
RTVSPost2010PropOp43
 70
     0
102
RTVSPost2010Prop44ColorIndex
 90
        5
102
RTVSPost2010Prop44ColorRGB
 90
      255
102
RTVSPost2010PropOp44
 70
     0
102
RTVSPost2010Prop45
280
     0
102
RTVSPost2010PropOp45
 70
     1
102
RTVSPost2010Prop46
 90
       50
102
RTVSPost2010PropOp46
 70
     0
102
RTVSPost2010Prop47
 90
       50
102
RTVSPost2010PropOp47
 70
     0
102
RTVSPost2010Prop48
 90
       50
102
RTVSPost2010PropOp48
 70
     0
102
RTVSPost2010Prop49
280
     0
102
RTVSPost2010PropOp49
 70
     1
102
RTVSPost2010Prop50
 90
       50
102
RTVSPost2010PropOp50
 70
     0
102
RTVSPost2010Prop51ColorIndex
 90
      256
102
RTVSPost2010Prop51ColorRGB
 90
-16777216
102
RTVSPost2010PropOp51
 70
     0
102
RTVSPost2010Prop52
140
1.0
102
RTVSPost2010PropOp52
 70
     0
102
RTVSPost2010Prop53
 90
        2
102
RTVSPost2010PropOp53
 70
     0
102
RTVSPost2010Prop54
  1
strokes_ogs.tif
102
RTVSPost2010PropOp54
 70
     0
102
RTVSPost2010Prop55
280
     0
102
RTVSPost2010PropOp55
 70
     1
102
RTVSPost2010Prop56
140
1.0
102
RTVSPost2010PropOp56
 70
     0
102
RTVSPost2010Prop57
140
1.0
102
RTVSPost2010PropOp57
 70
     0
102
RTVSPropertyOp0
 70
     0
102
RTVSPropertyOp1
 70
     0
102
RTVSPropertyOp2
 70
     0
102
RTVSPropertyOp3
 70
     0
102
RTVSPropertyOp4
 70
     0
102
RTVSPropertyOp5
 70
     0
102
RTVSPropertyOp6
 70
     0
102
RTVSPropertyOp7
 70
     0
102
RTVSPropertyOp8
 70
     0
102
RTVSPropertyOp9
 70
     0
102
RTVSPropertyOp10
 70
     0
102
RTVSPropertyOp11
 70
     0
102
RTVSPropertyOp12
 70
     0
102
RTVSPropertyOp13
 70
     0
102
RTVSPropertyOp14
 70
     2
102
RTVSPropertyOp15
 70
     0
102
RTVSPropertyOp16
 70
     0
102
RTVSPropertyOp17
 70
     0
102
RTVSPropertyOp18
 70
     0
102
RTVSPropertyOp19
 70
     0
102
RTVSPropertyOp20
 70
     0
102
RTVSPropertyOp21
 70
     0
102
RTVSPropertyOp22
 70
     0
102
RTVSPropertyOp23
 70
     0
102
RTVSPropertyOp24
 70
     0
102
RTVSPropertyOp25
 70
     0
102
RTVSPropertyOp26
 70
     0
102
RTVSPropertyOp27
 70
     0
102
RTVSPropertyOp28
 70
     1
102
RTVSPropertyOp29
 70
     1
102
RTVSPropertyOp30
 70
     1
102
RTVSPropertyOp31
 70
     1
102
RTVSPropertyOp32
 70
     1
102
RTVSPropertyOp33
 70
     1
102
RTVSPropertyOp34
 70
     1
102
RTVSPropertyOp35
 70
     1
102
RTVSPropertyOp36
 70
     1
102
RTVSPropertyOp37
 70
     0
102
RTVSPropertyOp38
 70
     0
102
RTVSPropertyOp39
 70
     0
102
RTVSPropertyOp40
 70
     0
102
RTVSPropertyOp41
 70
     0
102
RTVSPropertyOp42
 70
     0
102
RTVSPropertyOp43
 70
     0
102
RTVSPropertyOp44
 70
     0
102
RTVSPropertyOp45
 70
     1
102
RTVSPropertyOp46
 70
     0
102
RTVSPropertyOp47
 70
     0
102
RTVSPropertyOp48
 70
     0
102
RTVSPropertyOp49
 70
     1
102
RTVSPropertyOp50
 70
     0
102
RTVSPropertyOp51
 70
     0
102
RTVSPropertyOp52
 70
     0
102
RTVSPropertyOp53
 70
     0
102
RTVSPropertyOp54
 70
     0
102
RTVSPropertyOp55
 70
     1
102
RTVSPropertyOp56
 70
     0
102
RTVSPropertyOp57
 70
     0
102
RTVSPropertyOp58
 70
     0
102
RTVSPropertyOp59
 70
     0
102
RTVSPropertyOp60
 70
     0
102
RTVSPropertyOp61
 70
     0
102
RTVSPropertyOp62
 70
     0
  0
XRECORD
  5
307
102
{ACAD_REACTORS
330
306
102
}
330
306
100
AcDbXrecord
280
     1
102
RTVSPost2010Prop28
280
     0
102
RTVSPost2010PropOp28
 70
     1
102
RTVSPost2010Prop29
280
     1
102
RTVSPost2010PropOp29
 70
     1
102
RTVSPost2010Prop30
280
     1
102
RTVSPost2010PropOp30
 70
     1
102
RTVSPost2010Prop31
280
     0
102
RTVSPost2010PropOp31
 70
     1
102
RTVSPost2010Prop32
280
     0
102
RTVSPost2010PropOp32
 70
     1
102
RTVSPost2010Prop33
280
     0
102
RTVSPost2010PropOp33
 70
     1
102
RTVSPost2010Prop34
280
     0
102
RTVSPost2010PropOp34
 70
     1
102
RTVSPost2010Prop35
280
     0
102
RTVSPost2010PropOp35
 70
     1
102
RTVSPost2010Prop36
280
     0
102
RTVSPost2010PropOp36
 70
     1
102
RTVSPost2010Prop37
 90
       50
102
RTVSPost2010PropOp37
 70
     1
102
RTVSPost2010Prop38
140
0.0
102
RTVSPost2010PropOp38
 70
     1
102
RTVSPost2010Prop39
140
1.0
102
RTVSPost2010PropOp39
 70
     1
102
RTVSPost2010Prop40
 90
        0
102
RTVSPost2010PropOp40
 70
     1
102
RTVSPost2010Prop41ColorIndex
 90
       18
102
RTVSPost2010Prop41ColorRGB
 90
        0
102
RTVSPost2010PropOp41
 70
     1
102
RTVSPost2010Prop42
 90
       50
102
RTVSPost2010PropOp42
 70
     1
102
RTVSPost2010Prop43
 90
        3
102
RTVSPost2010PropOp43
 70
     1
102
RTVSPost2010Prop44ColorIndex
 90
        5
102
RTVSPost2010Prop44ColorRGB
 90
      255
102
RTVSPost2010PropOp44
 70
     1
102
RTVSPost2010Prop45
280
     0
102
RTVSPost2010PropOp45
 70
     1
102
RTVSPost2010Prop46
 90
       50
102
RTVSPost2010PropOp46
 70
     1
102
RTVSPost2010Prop47
 90
       50
102
RTVSPost2010PropOp47
 70
     1
102
RTVSPost2010Prop48
 90
       50
102
RTVSPost2010PropOp48
 70
     1
102
RTVSPost2010Prop49
280
     0
102
RTVSPost2010PropOp49
 70
     1
102
RTVSPost2010Prop50
 90
       50
102
RTVSPost2010PropOp50
 70
     1
102
RTVSPost2010Prop51ColorIndex
 90
      256
102
RTVSPost2010Prop51ColorRGB
 90
-16777216
102
RTVSPost2010PropOp51
 70
     0
102
RTVSPost2010Prop52
140
1.0
102
RTVSPost2010PropOp52
 70
     0
102
RTVSPost2010Prop53
 90
        2
102
RTVSPost2010PropOp53
 70
     1
102
RTVSPost2010Prop54
  1
strokes_ogs.tif
102
RTVSPost2010PropOp54
 70
     1
102
RTVSPost2010Prop55
280
     0
102
RTVSPost2010PropOp55
 70
     1
102
RTVSPost2010Prop56
140
1.0
102
RTVSPost2010PropOp56
 70
     1
102
RTVSPost2010Prop57
140
1.0
102
RTVSPost2010PropOp57
 70
     1
102
RTVSPropertyOp0
 70
     1
102
RTVSPropertyOp1
 70
     1
102
RTVSPropertyOp2
 70
     1
102
RTVSPropertyOp3
 70
     1
102
RTVSPropertyOp4
 70
     1
102
RTVSPropertyOp5
 70
     1
102
RTVSPropertyOp6
 70
     1
102
RTVSPropertyOp7
 70
     1
102
RTVSPropertyOp8
 70
     1
102
RTVSPropertyOp9
 70
     1
102
RTVSPropertyOp10
 70
     1
102
RTVSPropertyOp11
 70
     1
102
RTVSPropertyOp12
 70
     1
102
RTVSPropertyOp13
 70
     1
102
RTVSPropertyOp14
 70
     1
102
RTVSPropertyOp15
 70
     1
102
RTVSPropertyOp16
 70
     1
102
RTVSPropertyOp17
 70
     1
102
RTVSPropertyOp18
 70
     1
102
RTVSPropertyOp19
 70
     1
102
RTVSPropertyOp20
 70
     1
102
RTVSPropertyOp21
 70
     1
102
RTVSPropertyOp22
 70
     1
102
RTVSPropertyOp23
 70
     1
102
RTVSPropertyOp24
 70
     1
102
RTVSPropertyOp25
 70
     1
102
RTVSPropertyOp26
 70
     1
102
RTVSPropertyOp27
 70
     1
102
RTVSPropertyOp28
 70
     1
102
RTVSPropertyOp29
 70
     1
102
RTVSPropertyOp30
 70
     1
102
RTVSPropertyOp31
 70
     1
102
RTVSPropertyOp32
 70
     1
102
RTVSPropertyOp33
 70
     1
102
RTVSPropertyOp34
 70
     1
102
RTVSPropertyOp35
 70
     1
102
RTVSPropertyOp36
 70
     1
102
RTVSPropertyOp37
 70
     1
102
RTVSPropertyOp38
 70
     1
102
RTVSPropertyOp39
 70
     1
102
RTVSPropertyOp40
 70
     1
102
RTVSPropertyOp41
 70
     1
102
RTVSPropertyOp42
 70
     1
102
RTVSPropertyOp43
 70
     1
102
RTVSPropertyOp44
 70
     1
102
RTVSPropertyOp45
 70
     1
102
RTVSPropertyOp46
 70
     1
102
RTVSPropertyOp47
 70
     1
102
RTVSPropertyOp48
 70
     1
102
RTVSPropertyOp49
 70
     1
102
RTVSPropertyOp50
 70
     1
102
RTVSPropertyOp51
 70
     0
102
RTVSPropertyOp52
 70
     0
102
RTVSPropertyOp53
 70
     1
102
RTVSPropertyOp54
 70
     1
102
RTVSPropertyOp55
 70
     1
102
RTVSPropertyOp56
 70
     1
102
RTVSPropertyOp57
 70
     1
102
RTVSPropertyOp58
 70
     1
102
RTVSPropertyOp59
 70
     1
102
RTVSPropertyOp60
 70
     1
102
RTVSPropertyOp61
 70
     1
102
RTVSPropertyOp62
 70
     1
  0
XRECORD
  5
2EB
102
{ACAD_REACTORS
330
2EA
102
}
330
2EA
100
AcDbXrecord
280
     1
102
RTVSPost2010Prop28
280
     0
102
RTVSPost2010PropOp28
 70
     1
102
RTVSPost2010Prop29
280
     1
102
RTVSPost2010PropOp29
 70
     1
102
RTVSPost2010Prop30
280
     1
102
RTVSPost2010PropOp30
 70
     1
102
RTVSPost2010Prop31
280
     0
102
RTVSPost2010PropOp31
 70
     1
102
RTVSPost2010Prop32
280
     0
102
RTVSPost2010PropOp32
 70
     1
102
RTVSPost2010Prop33
280
     0
102
RTVSPost2010PropOp33
 70
     1
102
RTVSPost2010Prop34
280
     0
102
RTVSPost2010PropOp34
 70
     1
102
RTVSPost2010Prop35
280
     0
102
RTVSPost2010PropOp35
 70
     1
102
RTVSPost2010Prop36
280
     0
102
RTVSPost2010PropOp36
 70
     1
102
RTVSPost2010Prop37
 90
       50
102
RTVSPost2010PropOp37
 70
     1
102
RTVSPost2010Prop38
140
0.0
102
RTVSPost2010PropOp38
 70
     1
102
RTVSPost2010Prop39
140
1.0
102
RTVSPost2010PropOp39
 70
     1
102
RTVSPost2010Prop40
 90
        0
102
RTVSPost2010PropOp40
 70
     1
102
RTVSPost2010Prop41ColorIndex
 90
       18
102
RTVSPost2010Prop41ColorRGB
 90
        0
102
RTVSPost2010PropOp41
 70
     1
102
RTVSPost2010Prop42
 90
       50
102
RTVSPost2010PropOp42
 70
     1
102
RTVSPost2010Prop43
 90
        3
102
RTVSPost2010PropOp43
 70
     1
102
RTVSPost2010Prop44ColorIndex
 90
        5
102
RTVSPost2010Prop44ColorRGB
 90
      255
102
RTVSPost2010PropOp44
 70
     1
102
RTVSPost2010Prop45
280
     0
102
RTVSPost2010PropOp45
 70
     1
102
RTVSPost2010Prop46
 90
       50
102
RTVSPost2010PropOp46
 70
     1
102
RTVSPost2010Prop47
 90
       50
102
RTVSPost2010PropOp47
 70
     1
102
RTVSPost2010Prop48
 90
       50
102
RTVSPost2010PropOp48
 70
     1
102
RTVSPost2010Prop49
280
     0
102
RTVSPost2010PropOp49
 70
     1
102
RTVSPost2010Prop50
 90
       50
102
RTVSPost2010PropOp50
 70
     1
102
RTVSPost2010Prop51ColorIndex
 90
      256
102
RTVSPost2010Prop51ColorRGB
 90
-16777216
102
RTVSPost2010PropOp51
 70
     0
102
RTVSPost2010Prop52
140
1.0
102
RTVSPost2010PropOp52
 70
     0
102
RTVSPost2010Prop53
 90
        2
102
RTVSPost2010PropOp53
 70
     1
102
RTVSPost2010Prop54
  1
strokes_ogs.tif
102
RTVSPost2010PropOp54
 70
     1
102
RTVSPost2010Prop55
280
     0
102
RTVSPost2010PropOp55
 70
     1
102
RTVSPost2010Prop56
140
1.0
102
RTVSPost2010PropOp56
 70
     1
102
RTVSPost2010Prop57
140
1.0
102
RTVSPost2010PropOp57
 70
     1
102
RTVSPropertyOp0
 70
     1
102
RTVSPropertyOp1
 70
     1
102
RTVSPropertyOp2
 70
     1
102
RTVSPropertyOp3
 70
     1
102
RTVSPropertyOp4
 70
     1
102
RTVSPropertyOp5
 70
     1
102
RTVSPropertyOp6
 70
     1
102
RTVSPropertyOp7
 70
     1
102
RTVSPropertyOp8
 70
     1
102
RTVSPropertyOp9
 70
     1
102
RTVSPropertyOp10
 70
     1
102
RTVSPropertyOp11
 70
     1
102
RTVSPropertyOp12
 70
     1
102
RTVSPropertyOp13
 70
     1
102
RTVSPropertyOp14
 70
     1
102
RTVSPropertyOp15
 70
     1
102
RTVSPropertyOp16
 70
     1
102
RTVSPropertyOp17
 70
     1
102
RTVSPropertyOp18
 70
     1
102
RTVSPropertyOp19
 70
     1
102
RTVSPropertyOp20
 70
     1
102
RTVSPropertyOp21
 70
     1
102
RTVSPropertyOp22
 70
     1
102
RTVSPropertyOp23
 70
     1
102
RTVSPropertyOp24
 70
     1
102
RTVSPropertyOp25
 70
     1
102
RTVSPropertyOp26
 70
     1
102
RTVSPropertyOp27
 70
     1
102
RTVSPropertyOp28
 70
     1
102
RTVSPropertyOp29
 70
     1
102
RTVSPropertyOp30
 70
     1
102
RTVSPropertyOp31
 70
     1
102
RTVSPropertyOp32
 70
     1
102
RTVSPropertyOp33
 70
     1
102
RTVSPropertyOp34
 70
     1
102
RTVSPropertyOp35
 70
     1
102
RTVSPropertyOp36
 70
     1
102
RTVSPropertyOp37
 70
     1
102
RTVSPropertyOp38
 70
     1
102
RTVSPropertyOp39
 70
     1
102
RTVSPropertyOp40
 70
     1
102
RTVSPropertyOp41
 70
     1
102
RTVSPropertyOp42
 70
     1
102
RTVSPropertyOp43
 70
     1
102
RTVSPropertyOp44
 70
     1
102
RTVSPropertyOp45
 70
     1
102
RTVSPropertyOp46
 70
     1
102
RTVSPropertyOp47
 70
     1
102
RTVSPropertyOp48
 70
     1
102
RTVSPropertyOp49
 70
     1
102
RTVSPropertyOp50
 70
     1
102
RTVSPropertyOp51
 70
     0
102
RTVSPropertyOp52
 70
     0
102
RTVSPropertyOp53
 70
     1
102
RTVSPropertyOp54
 70
     1
102
RTVSPropertyOp55
 70
     1
102
RTVSPropertyOp56
 70
     1
102
RTVSPropertyOp57
 70
     1
102
RTVSPropertyOp58
 70
     1
102
RTVSPropertyOp59
 70
     1
102
RTVSPropertyOp60
 70
     1
102
RTVSPropertyOp61
 70
     1
102
RTVSPropertyOp62
 70
     1
  0
XRECORD
  5
2ED
102
{ACAD_REACTORS
330
2EC
102
}
330
2EC
100
AcDbXrecord
280
     1
102
RTVSPost2010Prop28
280
     0
102
RTVSPost2010PropOp28
 70
     1
102
RTVSPost2010Prop29
280
     1
102
RTVSPost2010PropOp29
 70
     1
102
RTVSPost2010Prop30
280
     1
102
RTVSPost2010PropOp30
 70
     1
102
RTVSPost2010Prop31
280
     0
102
RTVSPost2010PropOp31
 70
     1
102
RTVSPost2010Prop32
280
     0
102
RTVSPost2010PropOp32
 70
     1
102
RTVSPost2010Prop33
280
     0
102
RTVSPost2010PropOp33
 70
     1
102
RTVSPost2010Prop34
280
     0
102
RTVSPost2010PropOp34
 70
     1
102
RTVSPost2010Prop35
280
     0
102
RTVSPost2010PropOp35
 70
     1
102
RTVSPost2010Prop36
280
     0
102
RTVSPost2010PropOp36
 70
     1
102
RTVSPost2010Prop37
 90
       50
102
RTVSPost2010PropOp37
 70
     1
102
RTVSPost2010Prop38
140
0.0
102
RTVSPost2010PropOp38
 70
     1
102
RTVSPost2010Prop39
140
1.0
102
RTVSPost2010PropOp39
 70
     1
102
RTVSPost2010Prop40
 90
        0
102
RTVSPost2010PropOp40
 70
     1
102
RTVSPost2010Prop41ColorIndex
 90
       18
102
RTVSPost2010Prop41ColorRGB
 90
        0
102
RTVSPost2010PropOp41
 70
     1
102
RTVSPost2010Prop42
 90
       50
102
RTVSPost2010PropOp42
 70
     1
102
RTVSPost2010Prop43
 90
        3
102
RTVSPost2010PropOp43
 70
     1
102
RTVSPost2010Prop44ColorIndex
 90
        5
102
RTVSPost2010Prop44ColorRGB
 90
      255
102
RTVSPost2010PropOp44
 70
     1
102
RTVSPost2010Prop45
280
     0
102
RTVSPost2010PropOp45
 70
     1
102
RTVSPost2010Prop46
 90
       50
102
RTVSPost2010PropOp46
 70
     1
102
RTVSPost2010Prop47
 90
       50
102
RTVSPost2010PropOp47
 70
     1
102
RTVSPost2010Prop48
 90
       50
102
RTVSPost2010PropOp48
 70
     1
102
RTVSPost2010Prop49
280
     0
102
RTVSPost2010PropOp49
 70
     1
102
RTVSPost2010Prop50
 90
       50
102
RTVSPost2010PropOp50
 70
     1
102
RTVSPost2010Prop51ColorIndex
 90
      256
102
RTVSPost2010Prop51ColorRGB
 90
-16777216
102
RTVSPost2010PropOp51
 70
     0
102
RTVSPost2010Prop52
140
1.0
102
RTVSPost2010PropOp52
 70
     0
102
RTVSPost2010Prop53
 90
        2
102
RTVSPost2010PropOp53
 70
     1
102
RTVSPost2010Prop54
  1
strokes_ogs.tif
102
RTVSPost2010PropOp54
 70
     1
102
RTVSPost2010Prop55
280
     0
102
RTVSPost2010PropOp55
 70
     1
102
RTVSPost2010Prop56
140
1.0
102
RTVSPost2010PropOp56
 70
     1
102
RTVSPost2010Prop57
140
1.0
102
RTVSPost2010PropOp57
 70
     1
102
RTVSPropertyOp0
 70
     1
102
RTVSPropertyOp1
 70
     1
102
RTVSPropertyOp2
 70
     1
102
RTVSPropertyOp3
 70
     1
102
RTVSPropertyOp4
 70
     1
102
RTVSPropertyOp5
 70
     1
102
RTVSPropertyOp6
 70
     1
102
RTVSPropertyOp7
 70
     1
102
RTVSPropertyOp8
 70
     1
102
RTVSPropertyOp9
 70
     1
102
RTVSPropertyOp10
 70
     1
102
RTVSPropertyOp11
 70
     1
102
RTVSPropertyOp12
 70
     1
102
RTVSPropertyOp13
 70
     1
102
RTVSPropertyOp14
 70
     1
102
RTVSPropertyOp15
 70
     1
102
RTVSPropertyOp16
 70
     1
102
RTVSPropertyOp17
 70
     1
102
RTVSPropertyOp18
 70
     1
102
RTVSPropertyOp19
 70
     1
102
RTVSPropertyOp20
 70
     1
102
RTVSPropertyOp21
 70
     1
102
RTVSPropertyOp22
 70
     1
102
RTVSPropertyOp23
 70
     1
102
RTVSPropertyOp24
 70
     1
102
RTVSPropertyOp25
 70
     1
102
RTVSPropertyOp26
 70
     1
102
RTVSPropertyOp27
 70
     1
102
RTVSPropertyOp28
 70
     1
102
RTVSPropertyOp29
 70
     1
102
RTVSPropertyOp30
 70
     1
102
RTVSPropertyOp31
 70
     1
102
RTVSPropertyOp32
 70
     1
102
RTVSPropertyOp33
 70
     1
102
RTVSPropertyOp34
 70
     1
102
RTVSPropertyOp35
 70
     1
102
RTVSPropertyOp36
 70
     1
102
RTVSPropertyOp37
 70
     1
102
RTVSPropertyOp38
 70
     1
102
RTVSPropertyOp39
 70
     1
102
RTVSPropertyOp40
 70
     1
102
RTVSPropertyOp41
 70
     1
102
RTVSPropertyOp42
 70
     1
102
RTVSPropertyOp43
 70
     1
102
RTVSPropertyOp44
 70
     1
102
RTVSPropertyOp45
 70
     1
102
RTVSPropertyOp46
 70
     1
102
RTVSPropertyOp47
 70
     1
102
RTVSPropertyOp48
 70
     1
102
RTVSPropertyOp49
 70
     1
102
RTVSPropertyOp50
 70
     1
102
RTVSPropertyOp51
 70
     0
102
RTVSPropertyOp52
 70
     0
102
RTVSPropertyOp53
 70
     1
102
RTVSPropertyOp54
 70
     1
102
RTVSPropertyOp55
 70
     1
102
RTVSPropertyOp56
 70
     1
102
RTVSPropertyOp57
 70
     1
102
RTVSPropertyOp58
 70
     1
102
RTVSPropertyOp59
 70
     1
102
RTVSPropertyOp60
 70
     1
102
RTVSPropertyOp61
 70
     1
102
RTVSPropertyOp62
 70
     1
  0
XRECORD
  5
2EF
102
{ACAD_REACTORS
330
2EE
102
}
330
2EE
100
AcDbXrecord
280
     1
102
RTVSPost2010Prop28
280
     0
102
RTVSPost2010PropOp28
 70
     1
102
RTVSPost2010Prop29
280
     1
102
RTVSPost2010PropOp29
 70
     1
102
RTVSPost2010Prop30
280
     1
102
RTVSPost2010PropOp30
 70
     1
102
RTVSPost2010Prop31
280
     0
102
RTVSPost2010PropOp31
 70
     1
102
RTVSPost2010Prop32
280
     0
102
RTVSPost2010PropOp32
 70
     1
102
RTVSPost2010Prop33
280
     0
102
RTVSPost2010PropOp33
 70
     1
102
RTVSPost2010Prop34
280
     0
102
RTVSPost2010PropOp34
 70
     1
102
RTVSPost2010Prop35
280
     0
102
RTVSPost2010PropOp35
 70
     1
102
RTVSPost2010Prop36
280
     0
102
RTVSPost2010PropOp36
 70
     1
102
RTVSPost2010Prop37
 90
       50
102
RTVSPost2010PropOp37
 70
     1
102
RTVSPost2010Prop38
140
0.0
102
RTVSPost2010PropOp38
 70
     1
102
RTVSPost2010Prop39
140
1.0
102
RTVSPost2010PropOp39
 70
     1
102
RTVSPost2010Prop40
 90
        0
102
RTVSPost2010PropOp40
 70
     1
102
RTVSPost2010Prop41ColorIndex
 90
       18
102
RTVSPost2010Prop41ColorRGB
 90
        0
102
RTVSPost2010PropOp41
 70
     1
102
RTVSPost2010Prop42
 90
       50
102
RTVSPost2010PropOp42
 70
     1
102
RTVSPost2010Prop43
 90
        3
102
RTVSPost2010PropOp43
 70
     1
102
RTVSPost2010Prop44ColorIndex
 90
        5
102
RTVSPost2010Prop44ColorRGB
 90
      255
102
RTVSPost2010PropOp44
 70
     1
102
RTVSPost2010Prop45
280
     0
102
RTVSPost2010PropOp45
 70
     1
102
RTVSPost2010Prop46
 90
       50
102
RTVSPost2010PropOp46
 70
     1
102
RTVSPost2010Prop47
 90
       50
102
RTVSPost2010PropOp47
 70
     1
102
RTVSPost2010Prop48
 90
       50
102
RTVSPost2010PropOp48
 70
     1
102
RTVSPost2010Prop49
280
     0
102
RTVSPost2010PropOp49
 70
     1
102
RTVSPost2010Prop50
 90
       50
102
RTVSPost2010PropOp50
 70
     1
102
RTVSPost2010Prop51ColorIndex
 90
      256
102
RTVSPost2010Prop51ColorRGB
 90
-16777216
102
RTVSPost2010PropOp51
 70
     0
102
RTVSPost2010Prop52
140
1.0
102
RTVSPost2010PropOp52
 70
     0
102
RTVSPost2010Prop53
 90
        2
102
RTVSPost2010PropOp53
 70
     1
102
RTVSPost2010Prop54
  1
strokes_ogs.tif
102
RTVSPost2010PropOp54
 70
     1
102
RTVSPost2010Prop55
280
     0
102
RTVSPost2010PropOp55
 70
     1
102
RTVSPost2010Prop56
140
1.0
102
RTVSPost2010PropOp56
 70
     1
102
RTVSPost2010Prop57
140
1.0
102
RTVSPost2010PropOp57
 70
     1
102
RTVSPropertyOp0
 70
     1
102
RTVSPropertyOp1
 70
     1
102
RTVSPropertyOp2
 70
     1
102
RTVSPropertyOp3
 70
     1
102
RTVSPropertyOp4
 70
     1
102
RTVSPropertyOp5
 70
     1
102
RTVSPropertyOp6
 70
     1
102
RTVSPropertyOp7
 70
     1
102
RTVSPropertyOp8
 70
     1
102
RTVSPropertyOp9
 70
     1
102
RTVSPropertyOp10
 70
     1
102
RTVSPropertyOp11
 70
     1
102
RTVSPropertyOp12
 70
     1
102
RTVSPropertyOp13
 70
     1
102
RTVSPropertyOp14
 70
     1
102
RTVSPropertyOp15
 70
     1
102
RTVSPropertyOp16
 70
     1
102
RTVSPropertyOp17
 70
     1
102
RTVSPropertyOp18
 70
     1
102
RTVSPropertyOp19
 70
     1
102
RTVSPropertyOp20
 70
     1
102
RTVSPropertyOp21
 70
     1
102
RTVSPropertyOp22
 70
     1
102
RTVSPropertyOp23
 70
     1
102
RTVSPropertyOp24
 70
     1
102
RTVSPropertyOp25
 70
     1
102
RTVSPropertyOp26
 70
     1
102
RTVSPropertyOp27
 70
     1
102
RTVSPropertyOp28
 70
     1
102
RTVSPropertyOp29
 70
     1
102
RTVSPropertyOp30
 70
     1
102
RTVSPropertyOp31
 70
     1
102
RTVSPropertyOp32
 70
     1
102
RTVSPropertyOp33
 70
     1
102
RTVSPropertyOp34
 70
     1
102
RTVSPropertyOp35
 70
     1
102
RTVSPropertyOp36
 70
     1
102
RTVSPropertyOp37
 70
     1
102
RTVSPropertyOp38
 70
     1
102
RTVSPropertyOp39
 70
     1
102
RTVSPropertyOp40
 70
     1
102
RTVSPropertyOp41
 70
     1
102
RTVSPropertyOp42
 70
     1
102
RTVSPropertyOp43
 70
     1
102
RTVSPropertyOp44
 70
     1
102
RTVSPropertyOp45
 70
     1
102
RTVSPropertyOp46
 70
     1
102
RTVSPropertyOp47
 70
     1
102
RTVSPropertyOp48
 70
     1
102
RTVSPropertyOp49
 70
     1
102
RTVSPropertyOp50
 70
     1
102
RTVSPropertyOp51
 70
     0
102
RTVSPropertyOp52
 70
     0
102
RTVSPropertyOp53
 70
     1
102
RTVSPropertyOp54
 70
     1
102
RTVSPropertyOp55
 70
     1
102
RTVSPropertyOp56
 70
     1
102
RTVSPropertyOp57
 70
     1
102
RTVSPropertyOp58
 70
     1
102
RTVSPropertyOp59
 70
     1
102
RTVSPropertyOp60
 70
     1
102
RTVSPropertyOp61
 70
     1
102
RTVSPropertyOp62
 70
     1
  0
XRECORD
  5
2F1
102
{ACAD_REACTORS
330
2F0
102
}
330
2F0
100
AcDbXrecord
280
     1
102
RTVSPost2010Prop28
280
     0
102
RTVSPost2010PropOp28
 70
     1
102
RTVSPost2010Prop29
280
     1
102
RTVSPost2010PropOp29
 70
     1
102
RTVSPost2010Prop30
280
     1
102
RTVSPost2010PropOp30
 70
     1
102
RTVSPost2010Prop31
280
     0
102
RTVSPost2010PropOp31
 70
     1
102
RTVSPost2010Prop32
280
     0
102
RTVSPost2010PropOp32
 70
     1
102
RTVSPost2010Prop33
280
     0
102
RTVSPost2010PropOp33
 70
     1
102
RTVSPost2010Prop34
280
     0
102
RTVSPost2010PropOp34
 70
     1
102
RTVSPost2010Prop35
280
     0
102
RTVSPost2010PropOp35
 70
     1
102
RTVSPost2010Prop36
280
     0
102
RTVSPost2010PropOp36
 70
     1
102
RTVSPost2010Prop37
 90
       50
102
RTVSPost2010PropOp37
 70
     1
102
RTVSPost2010Prop38
140
0.0
102
RTVSPost2010PropOp38
 70
     1
102
RTVSPost2010Prop39
140
1.0
102
RTVSPost2010PropOp39
 70
     1
102
RTVSPost2010Prop40
 90
        0
102
RTVSPost2010PropOp40
 70
     1
102
RTVSPost2010Prop41ColorIndex
 90
       18
102
RTVSPost2010Prop41ColorRGB
 90
        0
102
RTVSPost2010PropOp41
 70
     1
102
RTVSPost2010Prop42
 90
       50
102
RTVSPost2010PropOp42
 70
     1
102
RTVSPost2010Prop43
 90
        3
102
RTVSPost2010PropOp43
 70
     1
102
RTVSPost2010Prop44ColorIndex
 90
        5
102
RTVSPost2010Prop44ColorRGB
 90
      255
102
RTVSPost2010PropOp44
 70
     1
102
RTVSPost2010Prop45
280
     0
102
RTVSPost2010PropOp45
 70
     1
102
RTVSPost2010Prop46
 90
       50
102
RTVSPost2010PropOp46
 70
     1
102
RTVSPost2010Prop47
 90
       50
102
RTVSPost2010PropOp47
 70
     1
102
RTVSPost2010Prop48
 90
       50
102
RTVSPost2010PropOp48
 70
     1
102
RTVSPost2010Prop49
280
     0
102
RTVSPost2010PropOp49
 70
     1
102
RTVSPost2010Prop50
 90
       50
102
RTVSPost2010PropOp50
 70
     1
102
RTVSPost2010Prop51ColorIndex
 90
      256
102
RTVSPost2010Prop51ColorRGB
 90
-16777216
102
RTVSPost2010PropOp51
 70
     0
102
RTVSPost2010Prop52
140
1.0
102
RTVSPost2010PropOp52
 70
     0
102
RTVSPost2010Prop53
 90
        2
102
RTVSPost2010PropOp53
 70
     1
102
RTVSPost2010Prop54
  1
strokes_ogs.tif
102
RTVSPost2010PropOp54
 70
     1
102
RTVSPost2010Prop55
280
     0
102
RTVSPost2010PropOp55
 70
     1
102
RTVSPost2010Prop56
140
1.0
102
RTVSPost2010PropOp56
 70
     1
102
RTVSPost2010Prop57
140
1.0
102
RTVSPost2010PropOp57
 70
     1
102
RTVSPropertyOp0
 70
     1
102
RTVSPropertyOp1
 70
     1
102
RTVSPropertyOp2
 70
     1
102
RTVSPropertyOp3
 70
     1
102
RTVSPropertyOp4
 70
     1
102
RTVSPropertyOp5
 70
     1
102
RTVSPropertyOp6
 70
     1
102
RTVSPropertyOp7
 70
     1
102
RTVSPropertyOp8
 70
     1
102
RTVSPropertyOp9
 70
     1
102
RTVSPropertyOp10
 70
     1
102
RTVSPropertyOp11
 70
     1
102
RTVSPropertyOp12
 70
     1
102
RTVSPropertyOp13
 70
     1
102
RTVSPropertyOp14
 70
     1
102
RTVSPropertyOp15
 70
     1
102
RTVSPropertyOp16
 70
     1
102
RTVSPropertyOp17
 70
     1
102
RTVSPropertyOp18
 70
     1
102
RTVSPropertyOp19
 70
     1
102
RTVSPropertyOp20
 70
     1
102
RTVSPropertyOp21
 70
     1
102
RTVSPropertyOp22
 70
     1
102
RTVSPropertyOp23
 70
     1
102
RTVSPropertyOp24
 70
     1
102
RTVSPropertyOp25
 70
     1
102
RTVSPropertyOp26
 70
     1
102
RTVSPropertyOp27
 70
     1
102
RTVSPropertyOp28
 70
     1
102
RTVSPropertyOp29
 70
     1
102
RTVSPropertyOp30
 70
     1
102
RTVSPropertyOp31
 70
     1
102
RTVSPropertyOp32
 70
     1
102
RTVSPropertyOp33
 70
     1
102
RTVSPropertyOp34
 70
     1
102
RTVSPropertyOp35
 70
     1
102
RTVSPropertyOp36
 70
     1
102
RTVSPropertyOp37
 70
     1
102
RTVSPropertyOp38
 70
     1
102
RTVSPropertyOp39
 70
     1
102
RTVSPropertyOp40
 70
     1
102
RTVSPropertyOp41
 70
     1
102
RTVSPropertyOp42
 70
     1
102
RTVSPropertyOp43
 70
     1
102
RTVSPropertyOp44
 70
     1
102
RTVSPropertyOp45
 70
     1
102
RTVSPropertyOp46
 70
     1
102
RTVSPropertyOp47
 70
     1
102
RTVSPropertyOp48
 70
     1
102
RTVSPropertyOp49
 70
     1
102
RTVSPropertyOp50
 70
     1
102
RTVSPropertyOp51
 70
     0
102
RTVSPropertyOp52
 70
     0
102
RTVSPropertyOp53
 70
     1
102
RTVSPropertyOp54
 70
     1
102
RTVSPropertyOp55
 70
     1
102
RTVSPropertyOp56
 70
     1
102
RTVSPropertyOp57
 70
     1
102
RTVSPropertyOp58
 70
     1
102
RTVSPropertyOp59
 70
     1
102
RTVSPropertyOp60
 70
     1
102
RTVSPropertyOp61
 70
     1
102
RTVSPropertyOp62
 70
     1
  0
XRECORD
  5
310
102
{ACAD_REACTORS
330
30F
102
}
330
30F
100
AcDbXrecord
280
     1
102
RTVSPost2010Prop28
280
     0
102
RTVSPost2010PropOp28
 70
     1
102
RTVSPost2010Prop29
280
     1
102
RTVSPost2010PropOp29
 70
     1
102
RTVSPost2010Prop30
280
     1
102
RTVSPost2010PropOp30
 70
     1
102
RTVSPost2010Prop31
280
     0
102
RTVSPost2010PropOp31
 70
     1
102
RTVSPost2010Prop32
280
     0
102
RTVSPost2010PropOp32
 70
     1
102
RTVSPost2010Prop33
280
     0
102
RTVSPost2010PropOp33
 70
     1
102
RTVSPost2010Prop34
280
     0
102
RTVSPost2010PropOp34
 70
     1
102
RTVSPost2010Prop35
280
     0
102
RTVSPost2010PropOp35
 70
     1
102
RTVSPost2010Prop36
280
     0
102
RTVSPost2010PropOp36
 70
     1
102
RTVSPost2010Prop37
 90
       50
102
RTVSPost2010PropOp37
 70
     1
102
RTVSPost2010Prop38
140
0.0
102
RTVSPost2010PropOp38
 70
     1
102
RTVSPost2010Prop39
140
1.0
102
RTVSPost2010PropOp39
 70
     1
102
RTVSPost2010Prop40
 90
        0
102
RTVSPost2010PropOp40
 70
     1
102
RTVSPost2010Prop41ColorIndex
 90
       18
102
RTVSPost2010Prop41ColorRGB
 90
        0
102
RTVSPost2010PropOp41
 70
     1
102
RTVSPost2010Prop42
 90
       50
102
RTVSPost2010PropOp42
 70
     1
102
RTVSPost2010Prop43
 90
        3
102
RTVSPost2010PropOp43
 70
     1
102
RTVSPost2010Prop44ColorIndex
 90
        5
102
RTVSPost2010Prop44ColorRGB
 90
      255
102
RTVSPost2010PropOp44
 70
     1
102
RTVSPost2010Prop45
280
     0
102
RTVSPost2010PropOp45
 70
     1
102
RTVSPost2010Prop46
 90
       50
102
RTVSPost2010PropOp46
 70
     1
102
RTVSPost2010Prop47
 90
       50
102
RTVSPost2010PropOp47
 70
     1
102
RTVSPost2010Prop48
 90
       50
102
RTVSPost2010PropOp48
 70
     1
102
RTVSPost2010Prop49
280
     0
102
RTVSPost2010PropOp49
 70
     1
102
RTVSPost2010Prop50
 90
       50
102
RTVSPost2010PropOp50
 70
     1
102
RTVSPost2010Prop51ColorIndex
 90
      256
102
RTVSPost2010Prop51ColorRGB
 90
-16777216
102
RTVSPost2010PropOp51
 70
     0
102
RTVSPost2010Prop52
140
1.0
102
RTVSPost2010PropOp52
 70
     0
102
RTVSPost2010Prop53
 90
        2
102
RTVSPost2010PropOp53
 70
     1
102
RTVSPost2010Prop54
  1
strokes_ogs.tif
102
RTVSPost2010PropOp54
 70
     1
102
RTVSPost2010Prop55
280
     0
102
RTVSPost2010PropOp55
 70
     1
102
RTVSPost2010Prop56
140
1.0
102
RTVSPost2010PropOp56
 70
     1
102
RTVSPost2010Prop57
140
1.0
102
RTVSPost2010PropOp57
 70
     1
102
RTVSPropertyOp0
 70
     1
102
RTVSPropertyOp1
 70
     1
102
RTVSPropertyOp2
 70
     1
102
RTVSPropertyOp3
 70
     1
102
RTVSPropertyOp4
 70
     1
102
RTVSPropertyOp5
 70
     1
102
RTVSPropertyOp6
 70
     1
102
RTVSPropertyOp7
 70
     1
102
RTVSPropertyOp8
 70
     1
102
RTVSPropertyOp9
 70
     1
102
RTVSPropertyOp10
 70
     1
102
RTVSPropertyOp11
 70
     1
102
RTVSPropertyOp12
 70
     1
102
RTVSPropertyOp13
 70
     1
102
RTVSPropertyOp14
 70
     1
102
RTVSPropertyOp15
 70
     1
102
RTVSPropertyOp16
 70
     1
102
RTVSPropertyOp17
 70
     1
102
RTVSPropertyOp18
 70
     1
102
RTVSPropertyOp19
 70
     1
102
RTVSPropertyOp20
 70
     1
102
RTVSPropertyOp21
 70
     1
102
RTVSPropertyOp22
 70
     1
102
RTVSPropertyOp23
 70
     1
102
RTVSPropertyOp24
 70
     1
102
RTVSPropertyOp25
 70
     1
102
RTVSPropertyOp26
 70
     1
102
RTVSPropertyOp27
 70
     1
102
RTVSPropertyOp28
 70
     1
102
RTVSPropertyOp29
 70
     1
102
RTVSPropertyOp30
 70
     1
102
RTVSPropertyOp31
 70
     1
102
RTVSPropertyOp32
 70
     1
102
RTVSPropertyOp33
 70
     1
102
RTVSPropertyOp34
 70
     1
102
RTVSPropertyOp35
 70
     1
102
RTVSPropertyOp36
 70
     1
102
RTVSPropertyOp37
 70
     1
102
RTVSPropertyOp38
 70
     1
102
RTVSPropertyOp39
 70
     1
102
RTVSPropertyOp40
 70
     1
102
RTVSPropertyOp41
 70
     1
102
RTVSPropertyOp42
 70
     1
102
RTVSPropertyOp43
 70
     1
102
RTVSPropertyOp44
 70
     1
102
RTVSPropertyOp45
 70
     1
102
RTVSPropertyOp46
 70
     1
102
RTVSPropertyOp47
 70
     1
102
RTVSPropertyOp48
 70
     1
102
RTVSPropertyOp49
 70
     1
102
RTVSPropertyOp50
 70
     1
102
RTVSPropertyOp51
 70
     0
102
RTVSPropertyOp52
 70
     0
102
RTVSPropertyOp53
 70
     1
102
RTVSPropertyOp54
 70
     1
102
RTVSPropertyOp55
 70
     1
102
RTVSPropertyOp56
 70
     1
102
RTVSPropertyOp57
 70
     1
102
RTVSPropertyOp58
 70
     1
102
RTVSPropertyOp59
 70
     1
102
RTVSPropertyOp60
 70
     1
102
RTVSPropertyOp61
 70
     1
102
RTVSPropertyOp62
 70
     1
  0
XRECORD
  5
31C
102
{ACAD_REACTORS
330
31B
102
}
330
31B
100
AcDbXrecord
280
     1
102
RTVSPost2010Prop28
280
     0
102
RTVSPost2010PropOp28
 70
     1
102
RTVSPost2010Prop29
280
     1
102
RTVSPost2010PropOp29
 70
     1
102
RTVSPost2010Prop30
280
     1
102
RTVSPost2010PropOp30
 70
     1
102
RTVSPost2010Prop31
280
     0
102
RTVSPost2010PropOp31
 70
     1
102
RTVSPost2010Prop32
280
     0
102
RTVSPost2010PropOp32
 70
     1
102
RTVSPost2010Prop33
280
     0
102
RTVSPost2010PropOp33
 70
     1
102
RTVSPost2010Prop34
280
     0
102
RTVSPost2010PropOp34
 70
     1
102
RTVSPost2010Prop35
280
     0
102
RTVSPost2010PropOp35
 70
     1
102
RTVSPost2010Prop36
280
     0
102
RTVSPost2010PropOp36
 70
     1
102
RTVSPost2010Prop37
 90
       50
102
RTVSPost2010PropOp37
 70
     0
102
RTVSPost2010Prop38
140
0.0
102
RTVSPost2010PropOp38
 70
     0
102
RTVSPost2010Prop39
140
1.0
102
RTVSPost2010PropOp39
 70
     0
102
RTVSPost2010Prop40
 90
        0
102
RTVSPost2010PropOp40
 70
     0
102
RTVSPost2010Prop41ColorIndex
 90
       18
102
RTVSPost2010Prop41ColorRGB
 90
        0
102
RTVSPost2010PropOp41
 70
     0
102
RTVSPost2010Prop42
 90
       50
102
RTVSPost2010PropOp42
 70
     0
102
RTVSPost2010Prop43
 90
        3
102
RTVSPost2010PropOp43
 70
     0
102
RTVSPost2010Prop44ColorIndex
 90
        5
102
RTVSPost2010Prop44ColorRGB
 90
      255
102
RTVSPost2010PropOp44
 70
     0
102
RTVSPost2010Prop45
280
     0
102
RTVSPost2010PropOp45
 70
     1
102
RTVSPost2010Prop46
 90
       50
102
RTVSPost2010PropOp46
 70
     0
102
RTVSPost2010Prop47
 90
       50
102
RTVSPost2010PropOp47
 70
     0
102
RTVSPost2010Prop48
 90
       50
102
RTVSPost2010PropOp48
 70
     0
102
RTVSPost2010Prop49
280
     0
102
RTVSPost2010PropOp49
 70
     1
102
RTVSPost2010Prop50
 90
       50
102
RTVSPost2010PropOp50
 70
     0
102
RTVSPost2010Prop51ColorIndex
 90
      256
102
RTVSPost2010Prop51ColorRGB
 90
-16777216
102
RTVSPost2010PropOp51
 70
     0
102
RTVSPost2010Prop52
140
1.0
102
RTVSPost2010PropOp52
 70
     0
102
RTVSPost2010Prop53
 90
        2
102
RTVSPost2010PropOp53
 70
     0
102
RTVSPost2010Prop54
  1
strokes_ogs.tif
102
RTVSPost2010PropOp54
 70
     0
102
RTVSPost2010Prop55
280
     0
102
RTVSPost2010PropOp55
 70
     1
102
RTVSPost2010Prop56
140
1.0
102
RTVSPost2010PropOp56
 70
     0
102
RTVSPost2010Prop57
140
1.0
102
RTVSPost2010PropOp57
 70
     0
102
RTVSPropertyOp0
 70
     0
102
RTVSPropertyOp1
 70
     0
102
RTVSPropertyOp2
 70
     0
102
RTVSPropertyOp3
 70
     0
102
RTVSPropertyOp4
 70
     0
102
RTVSPropertyOp5
 70
     0
102
RTVSPropertyOp6
 70
     0
102
RTVSPropertyOp7
 70
     0
102
RTVSPropertyOp8
 70
     0
102
RTVSPropertyOp9
 70
     0
102
RTVSPropertyOp10
 70
     0
102
RTVSPropertyOp11
 70
     0
102
RTVSPropertyOp12
 70
     0
102
RTVSPropertyOp13
 70
     0
102
RTVSPropertyOp14
 70
     2
102
RTVSPropertyOp15
 70
     0
102
RTVSPropertyOp16
 70
     0
102
RTVSPropertyOp17
 70
     0
102
RTVSPropertyOp18
 70
     0
102
RTVSPropertyOp19
 70
     0
102
RTVSPropertyOp20
 70
     0
102
RTVSPropertyOp21
 70
     0
102
RTVSPropertyOp22
 70
     0
102
RTVSPropertyOp23
 70
     0
102
RTVSPropertyOp24
 70
     0
102
RTVSPropertyOp25
 70
     0
102
RTVSPropertyOp26
 70
     0
102
RTVSPropertyOp27
 70
     0
102
RTVSPropertyOp28
 70
     1
102
RTVSPropertyOp29
 70
     1
102
RTVSPropertyOp30
 70
     1
102
RTVSPropertyOp31
 70
     1
102
RTVSPropertyOp32
 70
     1
102
RTVSPropertyOp33
 70
     1
102
RTVSPropertyOp34
 70
     1
102
RTVSPropertyOp35
 70
     1
102
RTVSPropertyOp36
 70
     1
102
RTVSPropertyOp37
 70
     0
102
RTVSPropertyOp38
 70
     0
102
RTVSPropertyOp39
 70
     0
102
RTVSPropertyOp40
 70
     0
102
RTVSPropertyOp41
 70
     0
102
RTVSPropertyOp42
 70
     0
102
RTVSPropertyOp43
 70
     0
102
RTVSPropertyOp44
 70
     0
102
RTVSPropertyOp45
 70
     1
102
RTVSPropertyOp46
 70
     0
102
RTVSPropertyOp47
 70
     0
102
RTVSPropertyOp48
 70
     0
102
RTVSPropertyOp49
 70
     1
102
RTVSPropertyOp50
 70
     0
102
RTVSPropertyOp51
 70
     0
102
RTVSPropertyOp52
 70
     0
102
RTVSPropertyOp53
 70
     0
102
RTVSPropertyOp54
 70
     0
102
RTVSPropertyOp55
 70
     1
102
RTVSPropertyOp56
 70
     0
102
RTVSPropertyOp57
 70
     0
102
RTVSPropertyOp58
 70
     0
102
RTVSPropertyOp59
 70
     0
102
RTVSPropertyOp60
 70
     0
102
RTVSPropertyOp61
 70
     0
102
RTVSPropertyOp62
 70
     0
  0
XRECORD
  5
305
102
{ACAD_REACTORS
330
304
102
}
330
304
100
AcDbXrecord
280
     1
102
RTVSPost2010Prop28
280
     0
102
RTVSPost2010PropOp28
 70
     1
102
RTVSPost2010Prop29
280
     1
102
RTVSPost2010PropOp29
 70
     1
102
RTVSPost2010Prop30
280
     1
102
RTVSPost2010PropOp30
 70
     1
102
RTVSPost2010Prop31
280
     0
102
RTVSPost2010PropOp31
 70
     1
102
RTVSPost2010Prop32
280
     0
102
RTVSPost2010PropOp32
 70
     1
102
RTVSPost2010Prop33
280
     0
102
RTVSPost2010PropOp33
 70
     1
102
RTVSPost2010Prop34
280
     0
102
RTVSPost2010PropOp34
 70
     1
102
RTVSPost2010Prop35
280
     0
102
RTVSPost2010PropOp35
 70
     1
102
RTVSPost2010Prop36
280
     0
102
RTVSPost2010PropOp36
 70
     1
102
RTVSPost2010Prop37
 90
       50
102
RTVSPost2010PropOp37
 70
     1
102
RTVSPost2010Prop38
140
0.0
102
RTVSPost2010PropOp38
 70
     1
102
RTVSPost2010Prop39
140
1.0
102
RTVSPost2010PropOp39
 70
     1
102
RTVSPost2010Prop40
 90
        0
102
RTVSPost2010PropOp40
 70
     1
102
RTVSPost2010Prop41ColorIndex
 90
       18
102
RTVSPost2010Prop41ColorRGB
 90
        0
102
RTVSPost2010PropOp41
 70
     1
102
RTVSPost2010Prop42
 90
       50
102
RTVSPost2010PropOp42
 70
     1
102
RTVSPost2010Prop43
 90
        3
102
RTVSPost2010PropOp43
 70
     1
102
RTVSPost2010Prop44ColorIndex
 90
        5
102
RTVSPost2010Prop44ColorRGB
 90
      255
102
RTVSPost2010PropOp44
 70
     1
102
RTVSPost2010Prop45
280
     0
102
RTVSPost2010PropOp45
 70
     1
102
RTVSPost2010Prop46
 90
       50
102
RTVSPost2010PropOp46
 70
     1
102
RTVSPost2010Prop47
 90
       50
102
RTVSPost2010PropOp47
 70
     1
102
RTVSPost2010Prop48
 90
       50
102
RTVSPost2010PropOp48
 70
     1
102
RTVSPost2010Prop49
280
     0
102
RTVSPost2010PropOp49
 70
     1
102
RTVSPost2010Prop50
 90
       50
102
RTVSPost2010PropOp50
 70
     1
102
RTVSPost2010Prop51ColorIndex
 90
      256
102
RTVSPost2010Prop51ColorRGB
 90
-16777216
102
RTVSPost2010PropOp51
 70
     0
102
RTVSPost2010Prop52
140
1.0
102
RTVSPost2010PropOp52
 70
     0
102
RTVSPost2010Prop53
 90
        2
102
RTVSPost2010PropOp53
 70
     1
102
RTVSPost2010Prop54
  1
strokes_ogs.tif
102
RTVSPost2010PropOp54
 70
     1
102
RTVSPost2010Prop55
280
     0
102
RTVSPost2010PropOp55
 70
     1
102
RTVSPost2010Prop56
140
1.0
102
RTVSPost2010PropOp56
 70
     1
102
RTVSPost2010Prop57
140
1.0
102
RTVSPost2010PropOp57
 70
     1
102
RTVSPropertyOp0
 70
     1
102
RTVSPropertyOp1
 70
     1
102
RTVSPropertyOp2
 70
     1
102
RTVSPropertyOp3
 70
     1
102
RTVSPropertyOp4
 70
     1
102
RTVSPropertyOp5
 70
     1
102
RTVSPropertyOp6
 70
     1
102
RTVSPropertyOp7
 70
     1
102
RTVSPropertyOp8
 70
     1
102
RTVSPropertyOp9
 70
     1
102
RTVSPropertyOp10
 70
     1
102
RTVSPropertyOp11
 70
     1
102
RTVSPropertyOp12
 70
     1
102
RTVSPropertyOp13
 70
     1
102
RTVSPropertyOp14
 70
     1
102
RTVSPropertyOp15
 70
     1
102
RTVSPropertyOp16
 70
     1
102
RTVSPropertyOp17
 70
     1
102
RTVSPropertyOp18
 70
     1
102
RTVSPropertyOp19
 70
     1
102
RTVSPropertyOp20
 70
     1
102
RTVSPropertyOp21
 70
     1
102
RTVSPropertyOp22
 70
     1
102
RTVSPropertyOp23
 70
     1
102
RTVSPropertyOp24
 70
     1
102
RTVSPropertyOp25
 70
     1
102
RTVSPropertyOp26
 70
     1
102
RTVSPropertyOp27
 70
     1
102
RTVSPropertyOp28
 70
     1
102
RTVSPropertyOp29
 70
     1
102
RTVSPropertyOp30
 70
     1
102
RTVSPropertyOp31
 70
     1
102
RTVSPropertyOp32
 70
     1
102
RTVSPropertyOp33
 70
     1
102
RTVSPropertyOp34
 70
     1
102
RTVSPropertyOp35
 70
     1
102
RTVSPropertyOp36
 70
     1
102
RTVSPropertyOp37
 70
     1
102
RTVSPropertyOp38
 70
     1
102
RTVSPropertyOp39
 70
     1
102
RTVSPropertyOp40
 70
     1
102
RTVSPropertyOp41
 70
     1
102
RTVSPropertyOp42
 70
     1
102
RTVSPropertyOp43
 70
     1
102
RTVSPropertyOp44
 70
     1
102
RTVSPropertyOp45
 70
     1
102
RTVSPropertyOp46
 70
     1
102
RTVSPropertyOp47
 70
     1
102
RTVSPropertyOp48
 70
     1
102
RTVSPropertyOp49
 70
     1
102
RTVSPropertyOp50
 70
     1
102
RTVSPropertyOp51
 70
     0
102
RTVSPropertyOp52
 70
     0
102
RTVSPropertyOp53
 70
     1
102
RTVSPropertyOp54
 70
     1
102
RTVSPropertyOp55
 70
     1
102
RTVSPropertyOp56
 70
     1
102
RTVSPropertyOp57
 70
     1
102
RTVSPropertyOp58
 70
     1
102
RTVSPropertyOp59
 70
     1
102
RTVSPropertyOp60
 70
     1
102
RTVSPropertyOp61
 70
     1
102
RTVSPropertyOp62
 70
     1
  0
XRECORD
  5
31E
102
{ACAD_REACTORS
330
31D
102
}
330
31D
100
AcDbXrecord
280
     1
102
RTVSPost2010Prop28
280
     0
102
RTVSPost2010PropOp28
 70
     1
102
RTVSPost2010Prop29
280
     1
102
RTVSPost2010PropOp29
 70
     1
102
RTVSPost2010Prop30
280
     1
102
RTVSPost2010PropOp30
 70
     1
102
RTVSPost2010Prop31
280
     0
102
RTVSPost2010PropOp31
 70
     1
102
RTVSPost2010Prop32
280
     0
102
RTVSPost2010PropOp32
 70
     1
102
RTVSPost2010Prop33
280
     0
102
RTVSPost2010PropOp33
 70
     1
102
RTVSPost2010Prop34
280
     0
102
RTVSPost2010PropOp34
 70
     1
102
RTVSPost2010Prop35
280
     0
102
RTVSPost2010PropOp35
 70
     1
102
RTVSPost2010Prop36
280
     0
102
RTVSPost2010PropOp36
 70
     1
102
RTVSPost2010Prop37
 90
       50
102
RTVSPost2010PropOp37
 70
     0
102
RTVSPost2010Prop38
140
0.0
102
RTVSPost2010PropOp38
 70
     0
102
RTVSPost2010Prop39
140
1.0
102
RTVSPost2010PropOp39
 70
     0
102
RTVSPost2010Prop40
 90
        0
102
RTVSPost2010PropOp40
 70
     0
102
RTVSPost2010Prop41ColorIndex
 90
       18
102
RTVSPost2010Prop41ColorRGB
 90
        0
102
RTVSPost2010PropOp41
 70
     0
102
RTVSPost2010Prop42
 90
       50
102
RTVSPost2010PropOp42
 70
     0
102
RTVSPost2010Prop43
 90
        3
102
RTVSPost2010PropOp43
 70
     0
102
RTVSPost2010Prop44ColorIndex
 90
        5
102
RTVSPost2010Prop44ColorRGB
 90
      255
102
RTVSPost2010PropOp44
 70
     0
102
RTVSPost2010Prop45
280
     0
102
RTVSPost2010PropOp45
 70
     1
102
RTVSPost2010Prop46
 90
       50
102
RTVSPost2010PropOp46
 70
     0
102
RTVSPost2010Prop47
 90
       50
102
RTVSPost2010PropOp47
 70
     0
102
RTVSPost2010Prop48
 90
       50
102
RTVSPost2010PropOp48
 70
     0
102
RTVSPost2010Prop49
280
     0
102
RTVSPost2010PropOp49
 70
     1
102
RTVSPost2010Prop50
 90
       50
102
RTVSPost2010PropOp50
 70
     0
102
RTVSPost2010Prop51ColorIndex
 90
      256
102
RTVSPost2010Prop51ColorRGB
 90
-16777216
102
RTVSPost2010PropOp51
 70
     0
102
RTVSPost2010Prop52
140
1.0
102
RTVSPost2010PropOp52
 70
     0
102
RTVSPost2010Prop53
 90
        2
102
RTVSPost2010PropOp53
 70
     0
102
RTVSPost2010Prop54
  1
strokes_ogs.tif
102
RTVSPost2010PropOp54
 70
     0
102
RTVSPost2010Prop55
280
     0
102
RTVSPost2010PropOp55
 70
     1
102
RTVSPost2010Prop56
140
1.0
102
RTVSPost2010PropOp56
 70
     0
102
RTVSPost2010Prop57
140
1.0
102
RTVSPost2010PropOp57
 70
     0
102
RTVSPropertyOp0
 70
     0
102
RTVSPropertyOp1
 70
     0
102
RTVSPropertyOp2
 70
     0
102
RTVSPropertyOp3
 70
     0
102
RTVSPropertyOp4
 70
     0
102
RTVSPropertyOp5
 70
     0
102
RTVSPropertyOp6
 70
     0
102
RTVSPropertyOp7
 70
     0
102
RTVSPropertyOp8
 70
     0
102
RTVSPropertyOp9
 70
     0
102
RTVSPropertyOp10
 70
     0
102
RTVSPropertyOp11
 70
     0
102
RTVSPropertyOp12
 70
     0
102
RTVSPropertyOp13
 70
     0
102
RTVSPropertyOp14
 70
     2
102
RTVSPropertyOp15
 70
     0
102
RTVSPropertyOp16
 70
     0
102
RTVSPropertyOp17
 70
     0
102
RTVSPropertyOp18
 70
     0
102
RTVSPropertyOp19
 70
     0
102
RTVSPropertyOp20
 70
     0
102
RTVSPropertyOp21
 70
     0
102
RTVSPropertyOp22
 70
     0
102
RTVSPropertyOp23
 70
     0
102
RTVSPropertyOp24
 70
     0
102
RTVSPropertyOp25
 70
     0
102
RTVSPropertyOp26
 70
     0
102
RTVSPropertyOp27
 70
     0
102
RTVSPropertyOp28
 70
     1
102
RTVSPropertyOp29
 70
     1
102
RTVSPropertyOp30
 70
     1
102
RTVSPropertyOp31
 70
     1
102
RTVSPropertyOp32
 70
     1
102
RTVSPropertyOp33
 70
     1
102
RTVSPropertyOp34
 70
     1
102
RTVSPropertyOp35
 70
     1
102
RTVSPropertyOp36
 70
     1
102
RTVSPropertyOp37
 70
     0
102
RTVSPropertyOp38
 70
     0
102
RTVSPropertyOp39
 70
     0
102
RTVSPropertyOp40
 70
     0
102
RTVSPropertyOp41
 70
     0
102
RTVSPropertyOp42
 70
     0
102
RTVSPropertyOp43
 70
     0
102
RTVSPropertyOp44
 70
     0
102
RTVSPropertyOp45
 70
     1
102
RTVSPropertyOp46
 70
     0
102
RTVSPropertyOp47
 70
     0
102
RTVSPropertyOp48
 70
     0
102
RTVSPropertyOp49
 70
     1
102
RTVSPropertyOp50
 70
     0
102
RTVSPropertyOp51
 70
     0
102
RTVSPropertyOp52
 70
     0
102
RTVSPropertyOp53
 70
     0
102
RTVSPropertyOp54
 70
     0
102
RTVSPropertyOp55
 70
     1
102
RTVSPropertyOp56
 70
     0
102
RTVSPropertyOp57
 70
     0
102
RTVSPropertyOp58
 70
     0
102
RTVSPropertyOp59
 70
     0
102
RTVSPropertyOp60
 70
     0
102
RTVSPropertyOp61
 70
     0
102
RTVSPropertyOp62
 70
     0
  0
XRECORD
  5
2FB
102
{ACAD_REACTORS
330
2FA
102
}
330
2FA
100
AcDbXrecord
280
     1
102
RTVSPost2010Prop28
280
     0
102
RTVSPost2010PropOp28
 70
     1
102
RTVSPost2010Prop29
280
     1
102
RTVSPost2010PropOp29
 70
     1
102
RTVSPost2010Prop30
280
     1
102
RTVSPost2010PropOp30
 70
     1
102
RTVSPost2010Prop31
280
     0
102
RTVSPost2010PropOp31
 70
     1
102
RTVSPost2010Prop32
280
     0
102
RTVSPost2010PropOp32
 70
     1
102
RTVSPost2010Prop33
280
     0
102
RTVSPost2010PropOp33
 70
     1
102
RTVSPost2010Prop34
280
     0
102
RTVSPost2010PropOp34
 70
     1
102
RTVSPost2010Prop35
280
     0
102
RTVSPost2010PropOp35
 70
     1
102
RTVSPost2010Prop36
280
     0
102
RTVSPost2010PropOp36
 70
     1
102
RTVSPost2010Prop37
 90
       50
102
RTVSPost2010PropOp37
 70
     1
102
RTVSPost2010Prop38
140
0.0
102
RTVSPost2010PropOp38
 70
     1
102
RTVSPost2010Prop39
140
1.0
102
RTVSPost2010PropOp39
 70
     1
102
RTVSPost2010Prop40
 90
        0
102
RTVSPost2010PropOp40
 70
     1
102
RTVSPost2010Prop41ColorIndex
 90
       18
102
RTVSPost2010Prop41ColorRGB
 90
        0
102
RTVSPost2010PropOp41
 70
     1
102
RTVSPost2010Prop42
 90
       50
102
RTVSPost2010PropOp42
 70
     1
102
RTVSPost2010Prop43
 90
        3
102
RTVSPost2010PropOp43
 70
     1
102
RTVSPost2010Prop44ColorIndex
 90
        5
102
RTVSPost2010Prop44ColorRGB
 90
      255
102
RTVSPost2010PropOp44
 70
     1
102
RTVSPost2010Prop45
280
     0
102
RTVSPost2010PropOp45
 70
     1
102
RTVSPost2010Prop46
 90
       50
102
RTVSPost2010PropOp46
 70
     1
102
RTVSPost2010Prop47
 90
       50
102
RTVSPost2010PropOp47
 70
     1
102
RTVSPost2010Prop48
 90
       50
102
RTVSPost2010PropOp48
 70
     1
102
RTVSPost2010Prop49
280
     0
102
RTVSPost2010PropOp49
 70
     1
102
RTVSPost2010Prop50
 90
       50
102
RTVSPost2010PropOp50
 70
     1
102
RTVSPost2010Prop51ColorIndex
 90
      256
102
RTVSPost2010Prop51ColorRGB
 90
-16777216
102
RTVSPost2010PropOp51
 70
     0
102
RTVSPost2010Prop52
140
1.0
102
RTVSPost2010PropOp52
 70
     0
102
RTVSPost2010Prop53
 90
        2
102
RTVSPost2010PropOp53
 70
     1
102
RTVSPost2010Prop54
  1
strokes_ogs.tif
102
RTVSPost2010PropOp54
 70
     1
102
RTVSPost2010Prop55
280
     0
102
RTVSPost2010PropOp55
 70
     1
102
RTVSPost2010Prop56
140
1.0
102
RTVSPost2010PropOp56
 70
     1
102
RTVSPost2010Prop57
140
1.0
102
RTVSPost2010PropOp57
 70
     1
102
RTVSPropertyOp0
 70
     1
102
RTVSPropertyOp1
 70
     1
102
RTVSPropertyOp2
 70
     1
102
RTVSPropertyOp3
 70
     1
102
RTVSPropertyOp4
 70
     1
102
RTVSPropertyOp5
 70
     1
102
RTVSPropertyOp6
 70
     1
102
RTVSPropertyOp7
 70
     1
102
RTVSPropertyOp8
 70
     1
102
RTVSPropertyOp9
 70
     1
102
RTVSPropertyOp10
 70
     1
102
RTVSPropertyOp11
 70
     1
102
RTVSPropertyOp12
 70
     1
102
RTVSPropertyOp13
 70
     1
102
RTVSPropertyOp14
 70
     1
102
RTVSPropertyOp15
 70
     1
102
RTVSPropertyOp16
 70
     1
102
RTVSPropertyOp17
 70
     1
102
RTVSPropertyOp18
 70
     1
102
RTVSPropertyOp19
 70
     1
102
RTVSPropertyOp20
 70
     1
102
RTVSPropertyOp21
 70
     1
102
RTVSPropertyOp22
 70
     1
102
RTVSPropertyOp23
 70
     1
102
RTVSPropertyOp24
 70
     1
102
RTVSPropertyOp25
 70
     1
102
RTVSPropertyOp26
 70
     1
102
RTVSPropertyOp27
 70
     1
102
RTVSPropertyOp28
 70
     1
102
RTVSPropertyOp29
 70
     1
102
RTVSPropertyOp30
 70
     1
102
RTVSPropertyOp31
 70
     1
102
RTVSPropertyOp32
 70
     1
102
RTVSPropertyOp33
 70
     1
102
RTVSPropertyOp34
 70
     1
102
RTVSPropertyOp35
 70
     1
102
RTVSPropertyOp36
 70
     1
102
RTVSPropertyOp37
 70
     1
102
RTVSPropertyOp38
 70
     1
102
RTVSPropertyOp39
 70
     1
102
RTVSPropertyOp40
 70
     1
102
RTVSPropertyOp41
 70
     1
102
RTVSPropertyOp42
 70
     1
102
RTVSPropertyOp43
 70
     1
102
RTVSPropertyOp44
 70
     1
102
RTVSPropertyOp45
 70
     1
102
RTVSPropertyOp46
 70
     1
102
RTVSPropertyOp47
 70
     1
102
RTVSPropertyOp48
 70
     1
102
RTVSPropertyOp49
 70
     1
102
RTVSPropertyOp50
 70
     1
102
RTVSPropertyOp51
 70
     0
102
RTVSPropertyOp52
 70
     0
102
RTVSPropertyOp53
 70
     1
102
RTVSPropertyOp54
 70
     1
102
RTVSPropertyOp55
 70
     1
102
RTVSPropertyOp56
 70
     1
102
RTVSPropertyOp57
 70
     1
102
RTVSPropertyOp58
 70
     1
102
RTVSPropertyOp59
 70
     1
102
RTVSPropertyOp60
 70
     1
102
RTVSPropertyOp61
 70
     1
102
RTVSPropertyOp62
 70
     1
  0
XRECORD
  5
31A
102
{ACAD_REACTORS
330
319
102
}
330
319
100
AcDbXrecord
280
     1
102
RTVSPost2010Prop28
280
     0
102
RTVSPost2010PropOp28
 70
     1
102
RTVSPost2010Prop29
280
     1
102
RTVSPost2010PropOp29
 70
     1
102
RTVSPost2010Prop30
280
     1
102
RTVSPost2010PropOp30
 70
     1
102
RTVSPost2010Prop31
280
     0
102
RTVSPost2010PropOp31
 70
     1
102
RTVSPost2010Prop32
280
     0
102
RTVSPost2010PropOp32
 70
     1
102
RTVSPost2010Prop33
280
     0
102
RTVSPost2010PropOp33
 70
     1
102
RTVSPost2010Prop34
280
     0
102
RTVSPost2010PropOp34
 70
     1
102
RTVSPost2010Prop35
280
     0
102
RTVSPost2010PropOp35
 70
     1
102
RTVSPost2010Prop36
280
     0
102
RTVSPost2010PropOp36
 70
     1
102
RTVSPost2010Prop37
 90
       50
102
RTVSPost2010PropOp37
 70
     1
102
RTVSPost2010Prop38
140
0.0
102
RTVSPost2010PropOp38
 70
     1
102
RTVSPost2010Prop39
140
1.0
102
RTVSPost2010PropOp39
 70
     1
102
RTVSPost2010Prop40
 90
        0
102
RTVSPost2010PropOp40
 70
     1
102
RTVSPost2010Prop41ColorIndex
 90
       18
102
RTVSPost2010Prop41ColorRGB
 90
        0
102
RTVSPost2010PropOp41
 70
     1
102
RTVSPost2010Prop42
 90
       50
102
RTVSPost2010PropOp42
 70
     1
102
RTVSPost2010Prop43
 90
        3
102
RTVSPost2010PropOp43
 70
     1
102
RTVSPost2010Prop44ColorIndex
 90
        5
102
RTVSPost2010Prop44ColorRGB
 90
      255
102
RTVSPost2010PropOp44
 70
     1
102
RTVSPost2010Prop45
280
     0
102
RTVSPost2010PropOp45
 70
     1
102
RTVSPost2010Prop46
 90
       50
102
RTVSPost2010PropOp46
 70
     1
102
RTVSPost2010Prop47
 90
       50
102
RTVSPost2010PropOp47
 70
     1
102
RTVSPost2010Prop48
 90
       50
102
RTVSPost2010PropOp48
 70
     1
102
RTVSPost2010Prop49
280
     0
102
RTVSPost2010PropOp49
 70
     1
102
RTVSPost2010Prop50
 90
       50
102
RTVSPost2010PropOp50
 70
     1
102
RTVSPost2010Prop51ColorIndex
 90
      256
102
RTVSPost2010Prop51ColorRGB
 90
-16777216
102
RTVSPost2010PropOp51
 70
     0
102
RTVSPost2010Prop52
140
1.0
102
RTVSPost2010PropOp52
 70
     0
102
RTVSPost2010Prop53
 90
        2
102
RTVSPost2010PropOp53
 70
     1
102
RTVSPost2010Prop54
  1
strokes_ogs.tif
102
RTVSPost2010PropOp54
 70
     1
102
RTVSPost2010Prop55
280
     0
102
RTVSPost2010PropOp55
 70
     1
102
RTVSPost2010Prop56
140
1.0
102
RTVSPost2010PropOp56
 70
     1
102
RTVSPost2010Prop57
140
1.0
102
RTVSPost2010PropOp57
 70
     1
102
RTVSPropertyOp0
 70
     1
102
RTVSPropertyOp1
 70
     1
102
RTVSPropertyOp2
 70
     1
102
RTVSPropertyOp3
 70
     1
102
RTVSPropertyOp4
 70
     1
102
RTVSPropertyOp5
 70
     1
102
RTVSPropertyOp6
 70
     1
102
RTVSPropertyOp7
 70
     1
102
RTVSPropertyOp8
 70
     1
102
RTVSPropertyOp9
 70
     1
102
RTVSPropertyOp10
 70
     1
102
RTVSPropertyOp11
 70
     1
102
RTVSPropertyOp12
 70
     1
102
RTVSPropertyOp13
 70
     1
102
RTVSPropertyOp14
 70
     1
102
RTVSPropertyOp15
 70
     1
102
RTVSPropertyOp16
 70
     1
102
RTVSPropertyOp17
 70
     1
102
RTVSPropertyOp18
 70
     1
102
RTVSPropertyOp19
 70
     1
102
RTVSPropertyOp20
 70
     1
102
RTVSPropertyOp21
 70
     1
102
RTVSPropertyOp22
 70
     1
102
RTVSPropertyOp23
 70
     1
102
RTVSPropertyOp24
 70
     1
102
RTVSPropertyOp25
 70
     1
102
RTVSPropertyOp26
 70
     1
102
RTVSPropertyOp27
 70
     1
102
RTVSPropertyOp28
 70
     1
102
RTVSPropertyOp29
 70
     1
102
RTVSPropertyOp30
 70
     1
102
RTVSPropertyOp31
 70
     1
102
RTVSPropertyOp32
 70
     1
102
RTVSPropertyOp33
 70
     1
102
RTVSPropertyOp34
 70
     1
102
RTVSPropertyOp35
 70
     1
102
RTVSPropertyOp36
 70
     1
102
RTVSPropertyOp37
 70
     1
102
RTVSPropertyOp38
 70
     1
102
RTVSPropertyOp39
 70
     1
102
RTVSPropertyOp40
 70
     1
102
RTVSPropertyOp41
 70
     1
102
RTVSPropertyOp42
 70
     1
102
RTVSPropertyOp43
 70
     1
102
RTVSPropertyOp44
 70
     1
102
RTVSPropertyOp45
 70
     1
102
RTVSPropertyOp46
 70
     1
102
RTVSPropertyOp47
 70
     1
102
RTVSPropertyOp48
 70
     1
102
RTVSPropertyOp49
 70
     1
102
RTVSPropertyOp50
 70
     1
102
RTVSPropertyOp51
 70
     0
102
RTVSPropertyOp52
 70
     0
102
RTVSPropertyOp53
 70
     1
102
RTVSPropertyOp54
 70
     1
102
RTVSPropertyOp55
 70
     1
102
RTVSPropertyOp56
 70
     1
102
RTVSPropertyOp57
 70
     1
102
RTVSPropertyOp58
 70
     1
102
RTVSPropertyOp59
 70
     1
102
RTVSPropertyOp60
 70
     1
102
RTVSPropertyOp61
 70
     1
102
RTVSPropertyOp62
 70
     1
  0
XRECORD
  5
318
102
{ACAD_REACTORS
330
317
102
}
330
317
100
AcDbXrecord
280
     1
102
RTVSPost2010Prop28
280
     0
102
RTVSPost2010PropOp28
 70
     1
102
RTVSPost2010Prop29
280
     1
102
RTVSPost2010PropOp29
 70
     1
102
RTVSPost2010Prop30
280
     1
102
RTVSPost2010PropOp30
 70
     1
102
RTVSPost2010Prop31
280
     0
102
RTVSPost2010PropOp31
 70
     1
102
RTVSPost2010Prop32
280
     0
102
RTVSPost2010PropOp32
 70
     1
102
RTVSPost2010Prop33
280
     0
102
RTVSPost2010PropOp33
 70
     1
102
RTVSPost2010Prop34
280
     0
102
RTVSPost2010PropOp34
 70
     1
102
RTVSPost2010Prop35
280
     0
102
RTVSPost2010PropOp35
 70
     1
102
RTVSPost2010Prop36
280
     0
102
RTVSPost2010PropOp36
 70
     1
102
RTVSPost2010Prop37
 90
       50
102
RTVSPost2010PropOp37
 70
     1
102
RTVSPost2010Prop38
140
0.0
102
RTVSPost2010PropOp38
 70
     1
102
RTVSPost2010Prop39
140
1.0
102
RTVSPost2010PropOp39
 70
     1
102
RTVSPost2010Prop40
 90
        0
102
RTVSPost2010PropOp40
 70
     1
102
RTVSPost2010Prop41ColorIndex
 90
       18
102
RTVSPost2010Prop41ColorRGB
 90
        0
102
RTVSPost2010PropOp41
 70
     1
102
RTVSPost2010Prop42
 90
       50
102
RTVSPost2010PropOp42
 70
     1
102
RTVSPost2010Prop43
 90
        3
102
RTVSPost2010PropOp43
 70
     1
102
RTVSPost2010Prop44ColorIndex
 90
        5
102
RTVSPost2010Prop44ColorRGB
 90
      255
102
RTVSPost2010PropOp44
 70
     1
102
RTVSPost2010Prop45
280
     0
102
RTVSPost2010PropOp45
 70
     1
102
RTVSPost2010Prop46
 90
       50
102
RTVSPost2010PropOp46
 70
     1
102
RTVSPost2010Prop47
 90
       50
102
RTVSPost2010PropOp47
 70
     1
102
RTVSPost2010Prop48
 90
       50
102
RTVSPost2010PropOp48
 70
     1
102
RTVSPost2010Prop49
280
     0
102
RTVSPost2010PropOp49
 70
     1
102
RTVSPost2010Prop50
 90
       50
102
RTVSPost2010PropOp50
 70
     1
102
RTVSPost2010Prop51ColorIndex
 90
      256
102
RTVSPost2010Prop51ColorRGB
 90
-16777216
102
RTVSPost2010PropOp51
 70
     0
102
RTVSPost2010Prop52
140
1.0
102
RTVSPost2010PropOp52
 70
     0
102
RTVSPost2010Prop53
 90
        2
102
RTVSPost2010PropOp53
 70
     1
102
RTVSPost2010Prop54
  1
strokes_ogs.tif
102
RTVSPost2010PropOp54
 70
     1
102
RTVSPost2010Prop55
280
     0
102
RTVSPost2010PropOp55
 70
     1
102
RTVSPost2010Prop56
140
1.0
102
RTVSPost2010PropOp56
 70
     1
102
RTVSPost2010Prop57
140
1.0
102
RTVSPost2010PropOp57
 70
     1
102
RTVSPropertyOp0
 70
     1
102
RTVSPropertyOp1
 70
     1
102
RTVSPropertyOp2
 70
     1
102
RTVSPropertyOp3
 70
     1
102
RTVSPropertyOp4
 70
     1
102
RTVSPropertyOp5
 70
     1
102
RTVSPropertyOp6
 70
     1
102
RTVSPropertyOp7
 70
     1
102
RTVSPropertyOp8
 70
     1
102
RTVSPropertyOp9
 70
     1
102
RTVSPropertyOp10
 70
     1
102
RTVSPropertyOp11
 70
     1
102
RTVSPropertyOp12
 70
     1
102
RTVSPropertyOp13
 70
     1
102
RTVSPropertyOp14
 70
     1
102
RTVSPropertyOp15
 70
     1
102
RTVSPropertyOp16
 70
     1
102
RTVSPropertyOp17
 70
     1
102
RTVSPropertyOp18
 70
     1
102
RTVSPropertyOp19
 70
     1
102
RTVSPropertyOp20
 70
     1
102
RTVSPropertyOp21
 70
     1
102
RTVSPropertyOp22
 70
     1
102
RTVSPropertyOp23
 70
     1
102
RTVSPropertyOp24
 70
     1
102
RTVSPropertyOp25
 70
     1
102
RTVSPropertyOp26
 70
     1
102
RTVSPropertyOp27
 70
     1
102
RTVSPropertyOp28
 70
     1
102
RTVSPropertyOp29
 70
     1
102
RTVSPropertyOp30
 70
     1
102
RTVSPropertyOp31
 70
     1
102
RTVSPropertyOp32
 70
     1
102
RTVSPropertyOp33
 70
     1
102
RTVSPropertyOp34
 70
     1
102
RTVSPropertyOp35
 70
     1
102
RTVSPropertyOp36
 70
     1
102
RTVSPropertyOp37
 70
     1
102
RTVSPropertyOp38
 70
     1
102
RTVSPropertyOp39
 70
     1
102
RTVSPropertyOp40
 70
     1
102
RTVSPropertyOp41
 70
     1
102
RTVSPropertyOp42
 70
     1
102
RTVSPropertyOp43
 70
     1
102
RTVSPropertyOp44
 70
     1
102
RTVSPropertyOp45
 70
     1
102
RTVSPropertyOp46
 70
     1
102
RTVSPropertyOp47
 70
     1
102
RTVSPropertyOp48
 70
     1
102
RTVSPropertyOp49
 70
     1
102
RTVSPropertyOp50
 70
     1
102
RTVSPropertyOp51
 70
     0
102
RTVSPropertyOp52
 70
     0
102
RTVSPropertyOp53
 70
     1
102
RTVSPropertyOp54
 70
     1
102
RTVSPropertyOp55
 70
     1
102
RTVSPropertyOp56
 70
     1
102
RTVSPropertyOp57
 70
     1
102
RTVSPropertyOp58
 70
     1
102
RTVSPropertyOp59
 70
     1
102
RTVSPropertyOp60
 70
     1
102
RTVSPropertyOp61
 70
     1
102
RTVSPropertyOp62
 70
     1
  0
XRECORD
  5
312
102
{ACAD_REACTORS
330
311
102
}
330
311
100
AcDbXrecord
280
     1
102
RTVSPost2010Prop28
280
     0
102
RTVSPost2010PropOp28
 70
     1
102
RTVSPost2010Prop29
280
     1
102
RTVSPost2010PropOp29
 70
     1
102
RTVSPost2010Prop30
280
     1
102
RTVSPost2010PropOp30
 70
     1
102
RTVSPost2010Prop31
280
     0
102
RTVSPost2010PropOp31
 70
     1
102
RTVSPost2010Prop32
280
     0
102
RTVSPost2010PropOp32
 70
     1
102
RTVSPost2010Prop33
280
     0
102
RTVSPost2010PropOp33
 70
     1
102
RTVSPost2010Prop34
280
     0
102
RTVSPost2010PropOp34
 70
     1
102
RTVSPost2010Prop35
280
     0
102
RTVSPost2010PropOp35
 70
     1
102
RTVSPost2010Prop36
280
     0
102
RTVSPost2010PropOp36
 70
     1
102
RTVSPost2010Prop37
 90
       50
102
RTVSPost2010PropOp37
 70
     1
102
RTVSPost2010Prop38
140
0.0
102
RTVSPost2010PropOp38
 70
     1
102
RTVSPost2010Prop39
140
1.0
102
RTVSPost2010PropOp39
 70
     1
102
RTVSPost2010Prop40
 90
        0
102
RTVSPost2010PropOp40
 70
     1
102
RTVSPost2010Prop41ColorIndex
 90
       18
102
RTVSPost2010Prop41ColorRGB
 90
        0
102
RTVSPost2010PropOp41
 70
     1
102
RTVSPost2010Prop42
 90
       50
102
RTVSPost2010PropOp42
 70
     1
102
RTVSPost2010Prop43
 90
        3
102
RTVSPost2010PropOp43
 70
     1
102
RTVSPost2010Prop44ColorIndex
 90
        5
102
RTVSPost2010Prop44ColorRGB
 90
      255
102
RTVSPost2010PropOp44
 70
     1
102
RTVSPost2010Prop45
280
     0
102
RTVSPost2010PropOp45
 70
     1
102
RTVSPost2010Prop46
 90
       50
102
RTVSPost2010PropOp46
 70
     1
102
RTVSPost2010Prop47
 90
       50
102
RTVSPost2010PropOp47
 70
     1
102
RTVSPost2010Prop48
 90
       50
102
RTVSPost2010PropOp48
 70
     1
102
RTVSPost2010Prop49
280
     0
102
RTVSPost2010PropOp49
 70
     1
102
RTVSPost2010Prop50
 90
       50
102
RTVSPost2010PropOp50
 70
     1
102
RTVSPost2010Prop51ColorIndex
 90
      256
102
RTVSPost2010Prop51ColorRGB
 90
-16777216
102
RTVSPost2010PropOp51
 70
     0
102
RTVSPost2010Prop52
140
1.0
102
RTVSPost2010PropOp52
 70
     0
102
RTVSPost2010Prop53
 90
        2
102
RTVSPost2010PropOp53
 70
     1
102
RTVSPost2010Prop54
  1
strokes_ogs.tif
102
RTVSPost2010PropOp54
 70
     1
102
RTVSPost2010Prop55
280
     0
102
RTVSPost2010PropOp55
 70
     1
102
RTVSPost2010Prop56
140
1.0
102
RTVSPost2010PropOp56
 70
     1
102
RTVSPost2010Prop57
140
1.0
102
RTVSPost2010PropOp57
 70
     1
102
RTVSPropertyOp0
 70
     1
102
RTVSPropertyOp1
 70
     1
102
RTVSPropertyOp2
 70
     1
102
RTVSPropertyOp3
 70
     1
102
RTVSPropertyOp4
 70
     1
102
RTVSPropertyOp5
 70
     1
102
RTVSPropertyOp6
 70
     1
102
RTVSPropertyOp7
 70
     1
102
RTVSPropertyOp8
 70
     1
102
RTVSPropertyOp9
 70
     1
102
RTVSPropertyOp10
 70
     1
102
RTVSPropertyOp11
 70
     1
102
RTVSPropertyOp12
 70
     1
102
RTVSPropertyOp13
 70
     1
102
RTVSPropertyOp14
 70
     1
102
RTVSPropertyOp15
 70
     1
102
RTVSPropertyOp16
 70
     1
102
RTVSPropertyOp17
 70
     1
102
RTVSPropertyOp18
 70
     1
102
RTVSPropertyOp19
 70
     1
102
RTVSPropertyOp20
 70
     1
102
RTVSPropertyOp21
 70
     1
102
RTVSPropertyOp22
 70
     1
102
RTVSPropertyOp23
 70
     1
102
RTVSPropertyOp24
 70
     1
102
RTVSPropertyOp25
 70
     1
102
RTVSPropertyOp26
 70
     1
102
RTVSPropertyOp27
 70
     1
102
RTVSPropertyOp28
 70
     1
102
RTVSPropertyOp29
 70
     1
102
RTVSPropertyOp30
 70
     1
102
RTVSPropertyOp31
 70
     1
102
RTVSPropertyOp32
 70
     1
102
RTVSPropertyOp33
 70
     1
102
RTVSPropertyOp34
 70
     1
102
RTVSPropertyOp35
 70
     1
102
RTVSPropertyOp36
 70
     1
102
RTVSPropertyOp37
 70
     1
102
RTVSPropertyOp38
 70
     1
102
RTVSPropertyOp39
 70
     1
102
RTVSPropertyOp40
 70
     1
102
RTVSPropertyOp41
 70
     1
102
RTVSPropertyOp42
 70
     1
102
RTVSPropertyOp43
 70
     1
102
RTVSPropertyOp44
 70
     1
102
RTVSPropertyOp45
 70
     1
102
RTVSPropertyOp46
 70
     1
102
RTVSPropertyOp47
 70
     1
102
RTVSPropertyOp48
 70
     1
102
RTVSPropertyOp49
 70
     1
102
RTVSPropertyOp50
 70
     1
102
RTVSPropertyOp51
 70
     0
102
RTVSPropertyOp52
 70
     0
102
RTVSPropertyOp53
 70
     1
102
RTVSPropertyOp54
 70
     1
102
RTVSPropertyOp55
 70
     1
102
RTVSPropertyOp56
 70
     1
102
RTVSPropertyOp57
 70
     1
102
RTVSPropertyOp58
 70
     1
102
RTVSPropertyOp59
 70
     1
102
RTVSPropertyOp60
 70
     1
102
RTVSPropertyOp61
 70
     1
102
RTVSPropertyOp62
 70
     1
  0
XRECORD
  5
314
102
{ACAD_REACTORS
330
313
102
}
330
313
100
AcDbXrecord
280
     1
102
RTVSPost2010Prop28
280
     0
102
RTVSPost2010PropOp28
 70
     1
102
RTVSPost2010Prop29
280
     1
102
RTVSPost2010PropOp29
 70
     1
102
RTVSPost2010Prop30
280
     1
102
RTVSPost2010PropOp30
 70
     1
102
RTVSPost2010Prop31
280
     0
102
RTVSPost2010PropOp31
 70
     1
102
RTVSPost2010Prop32
280
     0
102
RTVSPost2010PropOp32
 70
     1
102
RTVSPost2010Prop33
280
     0
102
RTVSPost2010PropOp33
 70
     1
102
RTVSPost2010Prop34
280
     0
102
RTVSPost2010PropOp34
 70
     1
102
RTVSPost2010Prop35
280
     0
102
RTVSPost2010PropOp35
 70
     1
102
RTVSPost2010Prop36
280
     0
102
RTVSPost2010PropOp36
 70
     1
102
RTVSPost2010Prop37
 90
       50
102
RTVSPost2010PropOp37
 70
     1
102
RTVSPost2010Prop38
140
0.0
102
RTVSPost2010PropOp38
 70
     1
102
RTVSPost2010Prop39
140
1.0
102
RTVSPost2010PropOp39
 70
     1
102
RTVSPost2010Prop40
 90
        0
102
RTVSPost2010PropOp40
 70
     1
102
RTVSPost2010Prop41ColorIndex
 90
       18
102
RTVSPost2010Prop41ColorRGB
 90
        0
102
RTVSPost2010PropOp41
 70
     1
102
RTVSPost2010Prop42
 90
       50
102
RTVSPost2010PropOp42
 70
     1
102
RTVSPost2010Prop43
 90
        3
102
RTVSPost2010PropOp43
 70
     1
102
RTVSPost2010Prop44ColorIndex
 90
        5
102
RTVSPost2010Prop44ColorRGB
 90
      255
102
RTVSPost2010PropOp44
 70
     1
102
RTVSPost2010Prop45
280
     0
102
RTVSPost2010PropOp45
 70
     1
102
RTVSPost2010Prop46
 90
       50
102
RTVSPost2010PropOp46
 70
     1
102
RTVSPost2010Prop47
 90
       50
102
RTVSPost2010PropOp47
 70
     1
102
RTVSPost2010Prop48
 90
       50
102
RTVSPost2010PropOp48
 70
     1
102
RTVSPost2010Prop49
280
     0
102
RTVSPost2010PropOp49
 70
     1
102
RTVSPost2010Prop50
 90
       50
102
RTVSPost2010PropOp50
 70
     1
102
RTVSPost2010Prop51ColorIndex
 90
      256
102
RTVSPost2010Prop51ColorRGB
 90
-16777216
102
RTVSPost2010PropOp51
 70
     0
102
RTVSPost2010Prop52
140
1.0
102
RTVSPost2010PropOp52
 70
     0
102
RTVSPost2010Prop53
 90
        2
102
RTVSPost2010PropOp53
 70
     1
102
RTVSPost2010Prop54
  1
strokes_ogs.tif
102
RTVSPost2010PropOp54
 70
     1
102
RTVSPost2010Prop55
280
     0
102
RTVSPost2010PropOp55
 70
     1
102
RTVSPost2010Prop56
140
1.0
102
RTVSPost2010PropOp56
 70
     1
102
RTVSPost2010Prop57
140
1.0
102
RTVSPost2010PropOp57
 70
     1
102
RTVSPropertyOp0
 70
     1
102
RTVSPropertyOp1
 70
     1
102
RTVSPropertyOp2
 70
     1
102
RTVSPropertyOp3
 70
     1
102
RTVSPropertyOp4
 70
     1
102
RTVSPropertyOp5
 70
     1
102
RTVSPropertyOp6
 70
     1
102
RTVSPropertyOp7
 70
     1
102
RTVSPropertyOp8
 70
     1
102
RTVSPropertyOp9
 70
     1
102
RTVSPropertyOp10
 70
     1
102
RTVSPropertyOp11
 70
     1
102
RTVSPropertyOp12
 70
     1
102
RTVSPropertyOp13
 70
     1
102
RTVSPropertyOp14
 70
     1
102
RTVSPropertyOp15
 70
     1
102
RTVSPropertyOp16
 70
     1
102
RTVSPropertyOp17
 70
     1
102
RTVSPropertyOp18
 70
     1
102
RTVSPropertyOp19
 70
     1
102
RTVSPropertyOp20
 70
     1
102
RTVSPropertyOp21
 70
     1
102
RTVSPropertyOp22
 70
     1
102
RTVSPropertyOp23
 70
     1
102
RTVSPropertyOp24
 70
     1
102
RTVSPropertyOp25
 70
     1
102
RTVSPropertyOp26
 70
     1
102
RTVSPropertyOp27
 70
     1
102
RTVSPropertyOp28
 70
     1
102
RTVSPropertyOp29
 70
     1
102
RTVSPropertyOp30
 70
     1
102
RTVSPropertyOp31
 70
     1
102
RTVSPropertyOp32
 70
     1
102
RTVSPropertyOp33
 70
     1
102
RTVSPropertyOp34
 70
     1
102
RTVSPropertyOp35
 70
     1
102
RTVSPropertyOp36
 70
     1
102
RTVSPropertyOp37
 70
     1
102
RTVSPropertyOp38
 70
     1
102
RTVSPropertyOp39
 70
     1
102
RTVSPropertyOp40
 70
     1
102
RTVSPropertyOp41
 70
     1
102
RTVSPropertyOp42
 70
     1
102
RTVSPropertyOp43
 70
     1
102
RTVSPropertyOp44
 70
     1
102
RTVSPropertyOp45
 70
     1
102
RTVSPropertyOp46
 70
     1
102
RTVSPropertyOp47
 70
     1
102
RTVSPropertyOp48
 70
     1
102
RTVSPropertyOp49
 70
     1
102
RTVSPropertyOp50
 70
     1
102
RTVSPropertyOp51
 70
     0
102
RTVSPropertyOp52
 70
     0
102
RTVSPropertyOp53
 70
     1
102
RTVSPropertyOp54
 70
     1
102
RTVSPropertyOp55
 70
     1
102
RTVSPropertyOp56
 70
     1
102
RTVSPropertyOp57
 70
     1
102
RTVSPropertyOp58
 70
     1
102
RTVSPropertyOp59
 70
     1
102
RTVSPropertyOp60
 70
     1
102
RTVSPropertyOp61
 70
     1
102
RTVSPropertyOp62
 70
     1
  0
XRECORD
  5
303
102
{ACAD_REACTORS
330
302
102
}
330
302
100
AcDbXrecord
280
     1
102
RTVSPost2010Prop28
280
     0
102
RTVSPost2010PropOp28
 70
     1
102
RTVSPost2010Prop29
280
     1
102
RTVSPost2010PropOp29
 70
     1
102
RTVSPost2010Prop30
280
     1
102
RTVSPost2010PropOp30
 70
     1
102
RTVSPost2010Prop31
280
     0
102
RTVSPost2010PropOp31
 70
     1
102
RTVSPost2010Prop32
280
     0
102
RTVSPost2010PropOp32
 70
     1
102
RTVSPost2010Prop33
280
     0
102
RTVSPost2010PropOp33
 70
     1
102
RTVSPost2010Prop34
280
     0
102
RTVSPost2010PropOp34
 70
     1
102
RTVSPost2010Prop35
280
     0
102
RTVSPost2010PropOp35
 70
     1
102
RTVSPost2010Prop36
280
     0
102
RTVSPost2010PropOp36
 70
     1
102
RTVSPost2010Prop37
 90
       50
102
RTVSPost2010PropOp37
 70
     1
102
RTVSPost2010Prop38
140
0.0
102
RTVSPost2010PropOp38
 70
     1
102
RTVSPost2010Prop39
140
1.0
102
RTVSPost2010PropOp39
 70
     1
102
RTVSPost2010Prop40
 90
        0
102
RTVSPost2010PropOp40
 70
     1
102
RTVSPost2010Prop41ColorIndex
 90
       18
102
RTVSPost2010Prop41ColorRGB
 90
        0
102
RTVSPost2010PropOp41
 70
     1
102
RTVSPost2010Prop42
 90
       50
102
RTVSPost2010PropOp42
 70
     1
102
RTVSPost2010Prop43
 90
        3
102
RTVSPost2010PropOp43
 70
     1
102
RTVSPost2010Prop44ColorIndex
 90
        5
102
RTVSPost2010Prop44ColorRGB
 90
      255
102
RTVSPost2010PropOp44
 70
     1
102
RTVSPost2010Prop45
280
     0
102
RTVSPost2010PropOp45
 70
     1
102
RTVSPost2010Prop46
 90
       50
102
RTVSPost2010PropOp46
 70
     1
102
RTVSPost2010Prop47
 90
       50
102
RTVSPost2010PropOp47
 70
     1
102
RTVSPost2010Prop48
 90
       50
102
RTVSPost2010PropOp48
 70
     1
102
RTVSPost2010Prop49
280
     0
102
RTVSPost2010PropOp49
 70
     1
102
RTVSPost2010Prop50
 90
       50
102
RTVSPost2010PropOp50
 70
     1
102
RTVSPost2010Prop51ColorIndex
 90
      256
102
RTVSPost2010Prop51ColorRGB
 90
-16777216
102
RTVSPost2010PropOp51
 70
     0
102
RTVSPost2010Prop52
140
1.0
102
RTVSPost2010PropOp52
 70
     0
102
RTVSPost2010Prop53
 90
        2
102
RTVSPost2010PropOp53
 70
     1
102
RTVSPost2010Prop54
  1
strokes_ogs.tif
102
RTVSPost2010PropOp54
 70
     1
102
RTVSPost2010Prop55
280
     0
102
RTVSPost2010PropOp55
 70
     1
102
RTVSPost2010Prop56
140
1.0
102
RTVSPost2010PropOp56
 70
     1
102
RTVSPost2010Prop57
140
1.0
102
RTVSPost2010PropOp57
 70
     1
102
RTVSPropertyOp0
 70
     1
102
RTVSPropertyOp1
 70
     1
102
RTVSPropertyOp2
 70
     1
102
RTVSPropertyOp3
 70
     1
102
RTVSPropertyOp4
 70
     1
102
RTVSPropertyOp5
 70
     1
102
RTVSPropertyOp6
 70
     1
102
RTVSPropertyOp7
 70
     1
102
RTVSPropertyOp8
 70
     1
102
RTVSPropertyOp9
 70
     1
102
RTVSPropertyOp10
 70
     1
102
RTVSPropertyOp11
 70
     1
102
RTVSPropertyOp12
 70
     1
102
RTVSPropertyOp13
 70
     1
102
RTVSPropertyOp14
 70
     1
102
RTVSPropertyOp15
 70
     1
102
RTVSPropertyOp16
 70
     1
102
RTVSPropertyOp17
 70
     1
102
RTVSPropertyOp18
 70
     1
102
RTVSPropertyOp19
 70
     1
102
RTVSPropertyOp20
 70
     1
102
RTVSPropertyOp21
 70
     1
102
RTVSPropertyOp22
 70
     1
102
RTVSPropertyOp23
 70
     1
102
RTVSPropertyOp24
 70
     1
102
RTVSPropertyOp25
 70
     1
102
RTVSPropertyOp26
 70
     1
102
RTVSPropertyOp27
 70
     1
102
RTVSPropertyOp28
 70
     1
102
RTVSPropertyOp29
 70
     1
102
RTVSPropertyOp30
 70
     1
102
RTVSPropertyOp31
 70
     1
102
RTVSPropertyOp32
 70
     1
102
RTVSPropertyOp33
 70
     1
102
RTVSPropertyOp34
 70
     1
102
RTVSPropertyOp35
 70
     1
102
RTVSPropertyOp36
 70
     1
102
RTVSPropertyOp37
 70
     1
102
RTVSPropertyOp38
 70
     1
102
RTVSPropertyOp39
 70
     1
102
RTVSPropertyOp40
 70
     1
102
RTVSPropertyOp41
 70
     1
102
RTVSPropertyOp42
 70
     1
102
RTVSPropertyOp43
 70
     1
102
RTVSPropertyOp44
 70
     1
102
RTVSPropertyOp45
 70
     1
102
RTVSPropertyOp46
 70
     1
102
RTVSPropertyOp47
 70
     1
102
RTVSPropertyOp48
 70
     1
102
RTVSPropertyOp49
 70
     1
102
RTVSPropertyOp50
 70
     1
102
RTVSPropertyOp51
 70
     0
102
RTVSPropertyOp52
 70
     0
102
RTVSPropertyOp53
 70
     1
102
RTVSPropertyOp54
 70
     1
102
RTVSPropertyOp55
 70
     1
102
RTVSPropertyOp56
 70
     1
102
RTVSPropertyOp57
 70
     1
102
RTVSPropertyOp58
 70
     1
102
RTVSPropertyOp59
 70
     1
102
RTVSPropertyOp60
 70
     1
102
RTVSPropertyOp61
 70
     1
102
RTVSPropertyOp62
 70
     1
  0
XRECORD
  5
30E
102
{ACAD_REACTORS
330
30D
102
}
330
30D
100
AcDbXrecord
280
     1
102
RTVSPost2010Prop28
280
     0
102
RTVSPost2010PropOp28
 70
     1
102
RTVSPost2010Prop29
280
     1
102
RTVSPost2010PropOp29
 70
     1
102
RTVSPost2010Prop30
280
     1
102
RTVSPost2010PropOp30
 70
     1
102
RTVSPost2010Prop31
280
     0
102
RTVSPost2010PropOp31
 70
     1
102
RTVSPost2010Prop32
280
     0
102
RTVSPost2010PropOp32
 70
     1
102
RTVSPost2010Prop33
280
     0
102
RTVSPost2010PropOp33
 70
     1
102
RTVSPost2010Prop34
280
     0
102
RTVSPost2010PropOp34
 70
     1
102
RTVSPost2010Prop35
280
     0
102
RTVSPost2010PropOp35
 70
     1
102
RTVSPost2010Prop36
280
     0
102
RTVSPost2010PropOp36
 70
     1
102
RTVSPost2010Prop37
 90
       50
102
RTVSPost2010PropOp37
 70
     1
102
RTVSPost2010Prop38
140
0.0
102
RTVSPost2010PropOp38
 70
     1
102
RTVSPost2010Prop39
140
1.0
102
RTVSPost2010PropOp39
 70
     1
102
RTVSPost2010Prop40
 90
        0
102
RTVSPost2010PropOp40
 70
     1
102
RTVSPost2010Prop41ColorIndex
 90
       18
102
RTVSPost2010Prop41ColorRGB
 90
        0
102
RTVSPost2010PropOp41
 70
     1
102
RTVSPost2010Prop42
 90
       50
102
RTVSPost2010PropOp42
 70
     1
102
RTVSPost2010Prop43
 90
        3
102
RTVSPost2010PropOp43
 70
     1
102
RTVSPost2010Prop44ColorIndex
 90
        5
102
RTVSPost2010Prop44ColorRGB
 90
      255
102
RTVSPost2010PropOp44
 70
     1
102
RTVSPost2010Prop45
280
     0
102
RTVSPost2010PropOp45
 70
     1
102
RTVSPost2010Prop46
 90
       50
102
RTVSPost2010PropOp46
 70
     1
102
RTVSPost2010Prop47
 90
       50
102
RTVSPost2010PropOp47
 70
     1
102
RTVSPost2010Prop48
 90
       50
102
RTVSPost2010PropOp48
 70
     1
102
RTVSPost2010Prop49
280
     0
102
RTVSPost2010PropOp49
 70
     1
102
RTVSPost2010Prop50
 90
       50
102
RTVSPost2010PropOp50
 70
     1
102
RTVSPost2010Prop51ColorIndex
 90
      256
102
RTVSPost2010Prop51ColorRGB
 90
-16777216
102
RTVSPost2010PropOp51
 70
     0
102
RTVSPost2010Prop52
140
1.0
102
RTVSPost2010PropOp52
 70
     0
102
RTVSPost2010Prop53
 90
        2
102
RTVSPost2010PropOp53
 70
     1
102
RTVSPost2010Prop54
  1
strokes_ogs.tif
102
RTVSPost2010PropOp54
 70
     1
102
RTVSPost2010Prop55
280
     0
102
RTVSPost2010PropOp55
 70
     1
102
RTVSPost2010Prop56
140
1.0
102
RTVSPost2010PropOp56
 70
     1
102
RTVSPost2010Prop57
140
1.0
102
RTVSPost2010PropOp57
 70
     1
102
RTVSPropertyOp0
 70
     1
102
RTVSPropertyOp1
 70
     1
102
RTVSPropertyOp2
 70
     1
102
RTVSPropertyOp3
 70
     1
102
RTVSPropertyOp4
 70
     1
102
RTVSPropertyOp5
 70
     1
102
RTVSPropertyOp6
 70
     1
102
RTVSPropertyOp7
 70
     1
102
RTVSPropertyOp8
 70
     1
102
RTVSPropertyOp9
 70
     1
102
RTVSPropertyOp10
 70
     1
102
RTVSPropertyOp11
 70
     1
102
RTVSPropertyOp12
 70
     1
102
RTVSPropertyOp13
 70
     1
102
RTVSPropertyOp14
 70
     1
102
RTVSPropertyOp15
 70
     1
102
RTVSPropertyOp16
 70
     1
102
RTVSPropertyOp17
 70
     1
102
RTVSPropertyOp18
 70
     1
102
RTVSPropertyOp19
 70
     1
102
RTVSPropertyOp20
 70
     1
102
RTVSPropertyOp21
 70
     1
102
RTVSPropertyOp22
 70
     1
102
RTVSPropertyOp23
 70
     1
102
RTVSPropertyOp24
 70
     1
102
RTVSPropertyOp25
 70
     1
102
RTVSPropertyOp26
 70
     1
102
RTVSPropertyOp27
 70
     1
102
RTVSPropertyOp28
 70
     1
102
RTVSPropertyOp29
 70
     1
102
RTVSPropertyOp30
 70
     1
102
RTVSPropertyOp31
 70
     1
102
RTVSPropertyOp32
 70
     1
102
RTVSPropertyOp33
 70
     1
102
RTVSPropertyOp34
 70
     1
102
RTVSPropertyOp35
 70
     1
102
RTVSPropertyOp36
 70
     1
102
RTVSPropertyOp37
 70
     1
102
RTVSPropertyOp38
 70
     1
102
RTVSPropertyOp39
 70
     1
102
RTVSPropertyOp40
 70
     1
102
RTVSPropertyOp41
 70
     1
102
RTVSPropertyOp42
 70
     1
102
RTVSPropertyOp43
 70
     1
102
RTVSPropertyOp44
 70
     1
102
RTVSPropertyOp45
 70
     1
102
RTVSPropertyOp46
 70
     1
102
RTVSPropertyOp47
 70
     1
102
RTVSPropertyOp48
 70
     1
102
RTVSPropertyOp49
 70
     1
102
RTVSPropertyOp50
 70
     1
102
RTVSPropertyOp51
 70
     0
102
RTVSPropertyOp52
 70
     0
102
RTVSPropertyOp53
 70
     1
102
RTVSPropertyOp54
 70
     1
102
RTVSPropertyOp55
 70
     1
102
RTVSPropertyOp56
 70
     1
102
RTVSPropertyOp57
 70
     1
102
RTVSPropertyOp58
 70
     1
102
RTVSPropertyOp59
 70
     1
102
RTVSPropertyOp60
 70
     1
102
RTVSPropertyOp61
 70
     1
102
RTVSPropertyOp62
 70
     1
  0
XRECORD
  5
316
102
{ACAD_REACTORS
330
315
102
}
330
315
100
AcDbXrecord
280
     1
102
RTVSPost2010Prop28
280
     0
102
RTVSPost2010PropOp28
 70
     1
102
RTVSPost2010Prop29
280
     1
102
RTVSPost2010PropOp29
 70
     1
102
RTVSPost2010Prop30
280
     1
102
RTVSPost2010PropOp30
 70
     1
102
RTVSPost2010Prop31
280
     0
102
RTVSPost2010PropOp31
 70
     1
102
RTVSPost2010Prop32
280
     0
102
RTVSPost2010PropOp32
 70
     1
102
RTVSPost2010Prop33
280
     0
102
RTVSPost2010PropOp33
 70
     1
102
RTVSPost2010Prop34
280
     0
102
RTVSPost2010PropOp34
 70
     1
102
RTVSPost2010Prop35
280
     0
102
RTVSPost2010PropOp35
 70
     1
102
RTVSPost2010Prop36
280
     0
102
RTVSPost2010PropOp36
 70
     1
102
RTVSPost2010Prop37
 90
       50
102
RTVSPost2010PropOp37
 70
     1
102
RTVSPost2010Prop38
140
0.0
102
RTVSPost2010PropOp38
 70
     1
102
RTVSPost2010Prop39
140
1.0
102
RTVSPost2010PropOp39
 70
     1
102
RTVSPost2010Prop40
 90
        0
102
RTVSPost2010PropOp40
 70
     1
102
RTVSPost2010Prop41ColorIndex
 90
       18
102
RTVSPost2010Prop41ColorRGB
 90
        0
102
RTVSPost2010PropOp41
 70
     1
102
RTVSPost2010Prop42
 90
       50
102
RTVSPost2010PropOp42
 70
     1
102
RTVSPost2010Prop43
 90
        3
102
RTVSPost2010PropOp43
 70
     1
102
RTVSPost2010Prop44ColorIndex
 90
        5
102
RTVSPost2010Prop44ColorRGB
 90
      255
102
RTVSPost2010PropOp44
 70
     1
102
RTVSPost2010Prop45
280
     0
102
RTVSPost2010PropOp45
 70
     1
102
RTVSPost2010Prop46
 90
       50
102
RTVSPost2010PropOp46
 70
     1
102
RTVSPost2010Prop47
 90
       50
102
RTVSPost2010PropOp47
 70
     1
102
RTVSPost2010Prop48
 90
       50
102
RTVSPost2010PropOp48
 70
     1
102
RTVSPost2010Prop49
280
     0
102
RTVSPost2010PropOp49
 70
     1
102
RTVSPost2010Prop50
 90
       50
102
RTVSPost2010PropOp50
 70
     1
102
RTVSPost2010Prop51ColorIndex
 90
      256
102
RTVSPost2010Prop51ColorRGB
 90
-16777216
102
RTVSPost2010PropOp51
 70
     0
102
RTVSPost2010Prop52
140
1.0
102
RTVSPost2010PropOp52
 70
     0
102
RTVSPost2010Prop53
 90
        2
102
RTVSPost2010PropOp53
 70
     1
102
RTVSPost2010Prop54
  1
strokes_ogs.tif
102
RTVSPost2010PropOp54
 70
     1
102
RTVSPost2010Prop55
280
     0
102
RTVSPost2010PropOp55
 70
     1
102
RTVSPost2010Prop56
140
1.0
102
RTVSPost2010PropOp56
 70
     1
102
RTVSPost2010Prop57
140
1.0
102
RTVSPost2010PropOp57
 70
     1
102
RTVSPropertyOp0
 70
     1
102
RTVSPropertyOp1
 70
     1
102
RTVSPropertyOp2
 70
     1
102
RTVSPropertyOp3
 70
     1
102
RTVSPropertyOp4
 70
     1
102
RTVSPropertyOp5
 70
     1
102
RTVSPropertyOp6
 70
     1
102
RTVSPropertyOp7
 70
     1
102
RTVSPropertyOp8
 70
     1
102
RTVSPropertyOp9
 70
     1
102
RTVSPropertyOp10
 70
     1
102
RTVSPropertyOp11
 70
     1
102
RTVSPropertyOp12
 70
     1
102
RTVSPropertyOp13
 70
     1
102
RTVSPropertyOp14
 70
     1
102
RTVSPropertyOp15
 70
     1
102
RTVSPropertyOp16
 70
     1
102
RTVSPropertyOp17
 70
     1
102
RTVSPropertyOp18
 70
     1
102
RTVSPropertyOp19
 70
     1
102
RTVSPropertyOp20
 70
     1
102
RTVSPropertyOp21
 70
     1
102
RTVSPropertyOp22
 70
     1
102
RTVSPropertyOp23
 70
     1
102
RTVSPropertyOp24
 70
     1
102
RTVSPropertyOp25
 70
     1
102
RTVSPropertyOp26
 70
     1
102
RTVSPropertyOp27
 70
     1
102
RTVSPropertyOp28
 70
     1
102
RTVSPropertyOp29
 70
     1
102
RTVSPropertyOp30
 70
     1
102
RTVSPropertyOp31
 70
     1
102
RTVSPropertyOp32
 70
     1
102
RTVSPropertyOp33
 70
     1
102
RTVSPropertyOp34
 70
     1
102
RTVSPropertyOp35
 70
     1
102
RTVSPropertyOp36
 70
     1
102
RTVSPropertyOp37
 70
     1
102
RTVSPropertyOp38
 70
     1
102
RTVSPropertyOp39
 70
     1
102
RTVSPropertyOp40
 70
     1
102
RTVSPropertyOp41
 70
     1
102
RTVSPropertyOp42
 70
     1
102
RTVSPropertyOp43
 70
     1
102
RTVSPropertyOp44
 70
     1
102
RTVSPropertyOp45
 70
     1
102
RTVSPropertyOp46
 70
     1
102
RTVSPropertyOp47
 70
     1
102
RTVSPropertyOp48
 70
     1
102
RTVSPropertyOp49
 70
     1
102
RTVSPropertyOp50
 70
     1
102
RTVSPropertyOp51
 70
     0
102
RTVSPropertyOp52
 70
     0
102
RTVSPropertyOp53
 70
     1
102
RTVSPropertyOp54
 70
     1
102
RTVSPropertyOp55
 70
     1
102
RTVSPropertyOp56
 70
     1
102
RTVSPropertyOp57
 70
     1
102
RTVSPropertyOp58
 70
     1
102
RTVSPropertyOp59
 70
     1
102
RTVSPropertyOp60
 70
     1
102
RTVSPropertyOp61
 70
     1
102
RTVSPropertyOp62
 70
     1
  0
ENDSEC
  0
EOF
