  0
SECTION
  2
HEADER
  9
$ACADVER
  1
AC1015
  9
$ACADMAINTVER
 70
    20
  9
$DWGCODEPAGE
  3
ANSI_932
  9
$INSBASE
 10
0.0
 20
0.0
 30
0.0
  9
$EXTMIN
 10
756.7934963097483
 20
-214.4942815432063
 30
0.0
  9
$EXTMAX
 10
1694.0672723674
 20
381.9550353414428
 30
0.0
  9
$LIMMIN
 10
0.0
 20
0.0
  9
$LIMMAX
 10
420.0
 20
297.0
  9
$ORTHOMODE
 70
     0
  9
$REGENMODE
 70
     1
  9
$FILLMODE
 70
     1
  9
$QTEXTMODE
 70
     0
  9
$MIRRTEXT
 70
     1
  9
$LTSCALE
 40
1.0
  9
$ATTMODE
 70
     1
  9
$TEXTSIZE
 40
3.5
  9
$TRACEWID
 40
1.0
  9
$TEXTSTYLE
  7
Standard
  9
$CLAYER
  8
0
  9
$CELTYPE
  6
ByLayer
  9
$CECOLOR
 62
   256
  9
$CELTSCALE
 40
1.0
  9
$DISPSILH
 70
     0
  9
$DIMSCALE
 40
1.0
  9
$DIMASZ
 40
2.0
  9
$DIMEXO
 40
1.0
  9
$DIMDLI
 40
3.75
  9
$DIMRND
 40
0.0
  9
$DIMDLE
 40
0.0
  9
$DIMEXE
 40
1.0
  9
$DIMTP
 40
0.0
  9
$DIMTM
 40
0.0
  9
$DIMTXT
 40
3.5
  9
$DIMCEN
 40
2.5
  9
$DIMTSZ
 40
0.0
  9
$DIMTOL
 70
     0
  9
$DIMLIM
 70
     0
  9
$DIMTIH
 70
     1
  9
$DIMTOH
 70
     1
  9
$DIMSE1
 70
     0
  9
$DIMSE2
 70
     0
  9
$DIMTAD
 70
     1
  9
$DIMZIN
 70
     0
  9
$DIMBLK
  1

  9
$DIMASO
 70
     1
  9
$DIMSHO
 70
     1
  9
$DIMPOST
  1

  9
$DIMAPOST
  1

  9
$DIMALT
 70
     0
  9
$DIMALTD
 70
     3
  9
$DIMALTF
 40
0.0393700787
  9
$DIMLFAC
 40
10.0
  9
$DIMTOFL
 70
     1
  9
$DIMTVP
 40
0.0
  9
$DIMTIX
 70
     0
  9
$DIMSOXD
 70
     0
  9
$DIMSAH
 70
     0
  9
$DIMBLK1
  1

  9
$DIMBLK2
  1

  9
$DIMSTYLE
  2
ISO-25
  9
$DIMCLRD
 70
     0
  9
$DIMCLRE
 70
     0
  9
$DIMCLRT
 70
     0
  9
$DIMTFAC
 40
1.0
  9
$DIMGAP
 40
1.524
  9
$DIMJUST
 70
     0
  9
$DIMSD1
 70
     0
  9
$DIMSD2
 70
     0
  9
$DIMTOLJ
 70
     0
  9
$DIMTZIN
 70
     0
  9
$DIMALTZ
 70
     0
  9
$DIMALTTZ
 70
     0
  9
$DIMUPT
 70
     0
  9
$DIMDEC
 70
     1
  9
$DIMTDEC
 70
     1
  9
$DIMALTU
 70
     2
  9
$DIMALTTD
 70
     3
  9
$DIMTXSTY
  7
Standard
  9
$DIMAUNIT
 70
     0
  9
$DIMADEC
 70
     1
  9
$DIMALTRND
 40
0.0
  9
$DIMAZIN
 70
     0
  9
$DIMDSEP
 70
    44
  9
$DIMATFIT
 70
     3
  9
$DIMFRAC
 70
     0
  9
$DIMLDRBLK
  1

  9
$DIMLUNIT
 70
     2
  9
$DIMLWD
 70
    -2
  9
$DIMLWE
 70
    -2
  9
$DIMTMOVE
 70
     0
  9
$LUNITS
 70
     2
  9
$LUPREC
 70
     1
  9
$SKETCHINC
 40
1.0
  9
$FILLETRAD
 40
10.0
  9
$AUNITS
 70
     0
  9
$AUPREC
 70
     1
  9
$MENU
  1
.
  9
$ELEVATION
 40
0.0
  9
$PELEVATION
 40
0.0
  9
$THICKNESS
 40
0.0
  9
$LIMCHECK
 70
     0
  9
$CHAMFERA
 40
0.0
  9
$CHAMFERB
 40
0.0
  9
$CHAMFERC
 40
0.0
  9
$CHAMFERD
 40
0.0
  9
$SKPOLY
 70
     0
  9
$TDCREATE
 40
2457511.585269699
  9
$TDUCREATE
 40
2457511.210269699
  9
$TDUPDATE
 40
2457511.588483692
  9
$TDUUPDATE
 40
2457511.213483692
  9
$TDINDWG
 40
0.0012768287
  9
$TDUSRTIMER
 40
0.0012767014
  9
$USRTIMER
 70
     1
  9
$ANGBASE
 50
0.0
  9
$ANGDIR
 70
     0
  9
$PDMODE
 70
     0
  9
$PDSIZE
 40
-1.0
  9
$PLINEWID
 40
0.0
  9
$SPLFRAME
 70
     0
  9
$SPLINETYPE
 70
     6
  9
$SPLINESEGS
 70
     8
  9
$HANDSEED
  5
83B
  9
$SURFTAB1
 70
     6
  9
$SURFTAB2
 70
     6
  9
$SURFTYPE
 70
     6
  9
$SURFU
 70
     6
  9
$SURFV
 70
     6
  9
$UCSBASE
  2

  9
$UCSNAME
  2

  9
$UCSORG
 10
0.0
 20
0.0
 30
0.0
  9
$UCSXDIR
 10
1.0
 20
0.0
 30
0.0
  9
$UCSYDIR
 10
0.0
 20
1.0
 30
0.0
  9
$UCSORTHOREF
  2

  9
$UCSORTHOVIEW
 70
     0
  9
$UCSORGTOP
 10
0.0
 20
0.0
 30
0.0
  9
$UCSORGBOTTOM
 10
0.0
 20
0.0
 30
0.0
  9
$UCSORGLEFT
 10
0.0
 20
0.0
 30
0.0
  9
$UCSORGRIGHT
 10
0.0
 20
0.0
 30
0.0
  9
$UCSORGFRONT
 10
0.0
 20
0.0
 30
0.0
  9
$UCSORGBACK
 10
0.0
 20
0.0
 30
0.0
  9
$PUCSBASE
  2

  9
$PUCSNAME
  2

  9
$PUCSORG
 10
0.0
 20
0.0
 30
0.0
  9
$PUCSXDIR
 10
1.0
 20
0.0
 30
0.0
  9
$PUCSYDIR
 10
0.0
 20
1.0
 30
0.0
  9
$PUCSORTHOREF
  2

  9
$PUCSORTHOVIEW
 70
     0
  9
$PUCSORGTOP
 10
0.0
 20
0.0
 30
0.0
  9
$PUCSORGBOTTOM
 10
0.0
 20
0.0
 30
0.0
  9
$PUCSORGLEFT
 10
0.0
 20
0.0
 30
0.0
  9
$PUCSORGRIGHT
 10
0.0
 20
0.0
 30
0.0
  9
$PUCSORGFRONT
 10
0.0
 20
0.0
 30
0.0
  9
$PUCSORGBACK
 10
0.0
 20
0.0
 30
0.0
  9
$USERI1
 70
     0
  9
$USERI2
 70
     0
  9
$USERI3
 70
     0
  9
$USERI4
 70
     0
  9
$USERI5
 70
     0
  9
$USERR1
 40
0.0
  9
$USERR2
 40
0.0
  9
$USERR3
 40
0.0
  9
$USERR4
 40
0.0
  9
$USERR5
 40
0.0
  9
$WORLDVIEW
 70
     1
  9
$SHADEDGE
 70
     3
  9
$SHADEDIF
 70
    70
  9
$TILEMODE
 70
     1
  9
$MAXACTVP
 70
    64
  9
$PINSBASE
 10
0.0
 20
0.0
 30
0.0
  9
$PLIMCHECK
 70
     0
  9
$PEXTMIN
 10
1.000000000000000E+20
 20
1.000000000000000E+20
 30
1.000000000000000E+20
  9
$PEXTMAX
 10
-1.000000000000000E+20
 20
-1.000000000000000E+20
 30
-1.000000000000000E+20
  9
$PLIMMIN
 10
0.0
 20
0.0
  9
$PLIMMAX
 10
420.0
 20
297.0
  9
$UNITMODE
 70
     0
  9
$VISRETAIN
 70
     1
  9
$PLINEGEN
 70
     0
  9
$PSLTSCALE
 70
     1
  9
$TREEDEPTH
 70
  3020
  9
$CMLSTYLE
  2
Standard
  9
$CMLJUST
 70
     0
  9
$CMLSCALE
 40
20.0
  9
$PROXYGRAPHICS
 70
     1
  9
$MEASUREMENT
 70
     1
  9
$CELWEIGHT
370
    -1
  9
$ENDCAPS
280
     0
  9
$JOINSTYLE
280
     0
  9
$LWDISPLAY
290
     1
  9
$INSUNITS
 70
     4
  9
$HYPERLINKBASE
  1

  9
$STYLESHEET
  1

  9
$XEDIT
290
     1
  9
$CEPSNTYPE
380
     0
  9
$PSTYLEMODE
290
     1
  9
$FINGERPRINTGUID
  2
{7C153326-428E-49F9-810F-5CCC5E2BA233}
  9
$VERSIONGUID
  2
{DF621016-EBCF-47F1-899A-E589661557B7}
  9
$EXTNAMES
290
     1
  9
$PSVPSCALE
 40
0.0
  9
$OLESTARTUP
290
     0
  0
ENDSEC
  0
SECTION
  2
CLASSES
  0
CLASS
  1
ACDBDICTIONARYWDFLT
  2
AcDbDictionaryWithDefault
  3
ObjectDBX Classes
 90
        0
280
     0
281
     0
  0
CLASS
  1
VISUALSTYLE
  2
AcDbVisualStyle
  3
ObjectDBX Classes
 90
     4095
280
     0
281
     0
  0
CLASS
  1
MATERIAL
  2
AcDbMaterial
  3
ObjectDBX Classes
 90
     1153
280
     0
281
     0
  0
CLASS
  1
SCALE
  2
AcDbScale
  3
ObjectDBX Classes
 90
     1153
280
     0
281
     0
  0
CLASS
  1
SUN
  2
AcDbSun
  3
SCENEOE
 90
    33921
280
     0
281
     0
  0
CLASS
  1
ACDBPLACEHOLDER
  2
AcDbPlaceHolder
  3
ObjectDBX Classes
 90
        0
280
     0
281
     0
  0
CLASS
  1
LAYOUT
  2
AcDbLayout
  3
ObjectDBX Classes
 90
        0
280
     0
281
     0
  0
CLASS
  1
TABLESTYLE
  2
AcDbTableStyle
  3
ObjectDBX Classes
 90
     4095
280
     0
281
     0
  0
CLASS
  1
MLEADERSTYLE
  2
AcDbMLeaderStyle
  3
ACDB_MLEADERSTYLE_CLASS
 90
     4095
280
     0
281
     0
  0
CLASS
  1
ACDBSECTIONVIEWSTYLE
  2
AcDbSectionViewStyle
  3
ObjectDBX Classes
 90
     1025
280
     0
281
     0
  0
CLASS
  1
ACDBDETAILVIEWSTYLE
  2
AcDbDetailViewStyle
  3
ObjectDBX Classes
 90
     1025
280
     0
281
     0
  0
CLASS
  1
DICTIONARYVAR
  2
AcDbDictionaryVar
  3
ObjectDBX Classes
 90
        0
280
     0
281
     0
  0
CLASS
  1
CELLSTYLEMAP
  2
AcDbCellStyleMap
  3
ObjectDBX Classes
 90
     1152
280
     0
281
     0
  0
ENDSEC
  0
SECTION
  2
TABLES
  0
TABLE
  2
VPORT
  5
8
330
0
100
AcDbSymbolTable
 70
     1
  0
VPORT
  5
29
330
8
100
AcDbSymbolTableRecord
100
AcDbViewportTableRecord
  2
*Active
 70
     0
 10
0.0
 20
0.0
 11
1.0
 21
1.0
 12
1389.725976549083
 22
90.2552805275023
 13
0.0
 23
0.0
 14
10.0
 24
10.0
 15
10.0
 25
10.0
 16
0.0
 26
0.0
 36
1.0
 17
0.0
 27
0.0
 37
0.0
 40
785.984383950739
 41
1.968017057569296
 42
50.0
 43
0.0
 44
0.0
 50
0.0
 51
0.0
 71
     0
 72
  2000
 73
     1
 74
     3
 75
     0
 76
     0
 77
     0
 78
     0
281
     0
 65
     1
110
0.0
120
0.0
130
0.0
111
1.0
121
0.0
131
0.0
112
0.0
122
1.0
132
0.0
 79
     0
146
0.0
1001
ACAD_NAV_VCDISPLAY
1070
     3
  0
ENDTAB
  0
TABLE
  2
LTYPE
  5
5
330
0
100
AcDbSymbolTable
 70
     6
  0
LTYPE
  5
14
330
5
100
AcDbSymbolTableRecord
100
AcDbLinetypeTableRecord
  2
ByBlock
 70
     0
  3

 72
    65
 73
     0
 40
0.0
  0
LTYPE
  5
15
330
5
100
AcDbSymbolTableRecord
100
AcDbLinetypeTableRecord
  2
ByLayer
 70
     0
  3

 72
    65
 73
     0
 40
0.0
  0
LTYPE
  5
16
330
5
100
AcDbSymbolTableRecord
100
AcDbLinetypeTableRecord
  2
Continuous
 70
     0
  3
Solid line
 72
    65
 73
     0
 40
0.0
  0
LTYPE
  5
6A
330
5
100
AcDbSymbolTableRecord
100
AcDbLinetypeTableRecord
  2
HIDDEN
 70
     0
  3
Hidden __ __ __ __ __ __ __ __ __ __ __ __ __ __
 72
    65
 73
     2
 40
1.905
 49
1.27
 74
     0
 49
-0.635
 74
     0
  0
LTYPE
  5
6B
330
5
100
AcDbSymbolTableRecord
100
AcDbLinetypeTableRecord
  2
PHANTOM
 70
     0
  3
Phantom ______  __  __  ______  __  __  ______
 72
    65
 73
     6
 40
12.7
 49
6.349999999999998
 74
     0
 49
-1.27
 74
     0
 49
1.27
 74
     0
 49
-1.27
 74
     0
 49
1.27
 74
     0
 49
-1.27
 74
     0
  0
LTYPE
  5
6C
330
5
100
AcDbSymbolTableRecord
100
AcDbLinetypeTableRecord
  2
CENTER
 70
     0
  3
Center ____ _ ____ _ ____ _ ____ _ ____ _ ____
 72
    65
 73
     4
 40
10.16
 49
6.349999999999998
 74
     0
 49
-1.27
 74
     0
 49
1.27
 74
     0
 49
-1.27
 74
     0
  0
LTYPE
  5
6D
330
5
100
AcDbSymbolTableRecord
100
AcDbLinetypeTableRecord
  2
CENTERX2
 70
     0
  3
Center (2x) ________  __  ________  __  _____
 72
    65
 73
     4
 40
20.32
 49
12.7
 74
     0
 49
-2.54
 74
     0
 49
2.54
 74
     0
 49
-2.54
 74
     0
  0
LTYPE
  5
6E
330
5
100
AcDbSymbolTableRecord
100
AcDbLinetypeTableRecord
  2
DOT2
 70
     0
  3
Dot (.5x) ........................................
 72
    65
 73
     2
 40
0.635
 49
0.0
 74
     0
 49
-0.635
 74
     0
  0
ENDTAB
  0
TABLE
  2
LAYER
  5
2
330
0
100
AcDbSymbolTable
 70
     4
  0
LAYER
  5
10
102
{ACAD_XDICTIONARY
360
7A9
102
}
330
2
100
AcDbSymbolTableRecord
100
AcDbLayerTableRecord
  2
0
 70
     0
 62
     7
  6
Continuous
370
    -3
390
F
  0
LAYER
  5
6F
102
{ACAD_XDICTIONARY
360
7AB
102
}
330
2
100
AcDbSymbolTableRecord
100
AcDbLayerTableRecord
  2
FORMAT
 70
     0
 62
     7
  6
Continuous
370
    -3
390
F
  0
LAYER
  5
70
102
{ACAD_XDICTIONARY
360
7AD
102
}
330
2
100
AcDbSymbolTableRecord
100
AcDbLayerTableRecord
  2
図枠
 70
     0
 62
     7
  6
Continuous
370
    15
390
F
  0
LAYER
  5
71
102
{ACAD_XDICTIONARY
360
7AF
102
}
330
2
100
AcDbSymbolTableRecord
100
AcDbLayerTableRecord
  2
ﾚｲﾔｰ2
 70
     0
 62
     7
  6
Continuous
370
    -3
390
F
  0
ENDTAB
  0
TABLE
  2
STYLE
  5
3
330
0
100
AcDbSymbolTable
 70
     2
  0
STYLE
  5
11
330
3
100
AcDbSymbolTableRecord
100
AcDbTextStyleTableRecord
  2
Standard
 70
     0
 40
0.0
 41
1.0
 50
0.0
 71
     0
 42
3.5
  3
txt
  4
bigfont
  0
STYLE
  5
78
330
3
100
AcDbSymbolTableRecord
100
AcDbTextStyleTableRecord
  2
SLDTEXTSTYLE0
 70
     0
 40
0.0
 41
0.7
 50
0.0
 71
     0
 42
3.5
  3
TXT
  4
bigfont
  0
ENDTAB
  0
TABLE
  2
VIEW
  5
6
330
0
100
AcDbSymbolTable
 70
     0
  0
ENDTAB
  0
TABLE
  2
UCS
  5
7
330
0
100
AcDbSymbolTable
 70
     0
  0
ENDTAB
  0
TABLE
  2
APPID
  5
9
330
0
100
AcDbSymbolTable
 70
     3
  0
APPID
  5
12
330
9
100
AcDbSymbolTableRecord
100
AcDbRegAppTableRecord
  2
ACAD
 70
     0
  0
APPID
  5
7BB
330
9
100
AcDbSymbolTableRecord
100
AcDbRegAppTableRecord
  2
ACAD_NAV_VCDISPLAY
 70
     0
  0
APPID
  5
7FA
330
9
100
AcDbSymbolTableRecord
100
AcDbRegAppTableRecord
  2
ACAD_MLEADERVER
 70
     0
  0
ENDTAB
  0
TABLE
  2
DIMSTYLE
  5
A
330
0
100
AcDbSymbolTable
 70
     4
100
AcDbDimStyleTable
 71
     0
  0
DIMSTYLE
105
27
330
A
100
AcDbSymbolTableRecord
100
AcDbDimStyleTableRecord
  2
ISO-25
 70
     0
 41
2.5
 42
0.625
 43
3.75
 44
1.25
 73
     0
 74
     0
 77
     1
 78
     8
140
2.5
141
2.5
143
0.0393700787
147
0.625
171
     3
172
     1
271
     2
272
     2
274
     3
278
    44
283
     0
284
     8
340
11
  0
DIMSTYLE
105
2D2
330
A
100
AcDbSymbolTableRecord
100
AcDbDimStyleTableRecord
  2
SLDDIMSTYLE0
 70
     0
 41
2.0
 44
0.0
 45
0.000000001
 73
     0
 74
     0
 77
     3
 78
    12
 79
     3
140
3.5
144
10.0
147
0.875
173
     1
271
     1
272
     1
276
     2
284
    12
340
78
341
2D3
343
2D3
344
2D3
  0
DIMSTYLE
105
2FC
330
A
100
AcDbSymbolTableRecord
100
AcDbDimStyleTableRecord
  2
SLDDIMSTYLE1
 70
     0
 41
2.0
 44
0.0
 45
0.000000001
146
2.0
147
0.0
173
     1
271
     0
272
     0
276
     2
340
11
341
2D3
343
2D3
344
2D3
  0
DIMSTYLE
105
66F
330
A
100
AcDbSymbolTableRecord
100
AcDbDimStyleTableRecord
  2
SLDDIMSTYLE2
 70
     0
 41
2.0
 44
0.0
 45
0.000000001
 73
     0
 74
     0
 77
     3
 78
    12
 79
     3
140
3.5
144
10.0
147
0.875
172
     1
173
     1
271
     1
272
     1
276
     2
284
    12
289
     0
340
78
341
2D3
343
2D3
344
2D3
  0
ENDTAB
  0
TABLE
  2
BLOCK_RECORD
  5
1
330
0
100
AcDbSymbolTable
 70
    16
  0
BLOCK_RECORD
  5
1F
330
1
100
AcDbSymbolTableRecord
100
AcDbBlockTableRecord
  2
*Model_Space
340
22
  0
BLOCK_RECORD
  5
1B
330
1
100
AcDbSymbolTableRecord
100
AcDbBlockTableRecord
  2
*Paper_Space
340
1E
  0
BLOCK_RECORD
  5
23
330
1
100
AcDbSymbolTableRecord
100
AcDbBlockTableRecord
  2
*Paper_Space0
340
26
  0
BLOCK_RECORD
  5
72
330
1
100
AcDbSymbolTableRecord
100
AcDbBlockTableRecord
  2
三角１
340
0
  0
BLOCK_RECORD
  5
7A
330
1
100
AcDbSymbolTableRecord
100
AcDbBlockTableRecord
  2
三角２
340
0
  0
BLOCK_RECORD
  5
81
330
1
100
AcDbSymbolTableRecord
100
AcDbBlockTableRecord
  2
三角３
340
0
  0
BLOCK_RECORD
  5
88
330
1
100
AcDbSymbolTableRecord
100
AcDbBlockTableRecord
  2
三角４
340
0
  0
BLOCK_RECORD
  5
8F
330
1
100
AcDbSymbolTableRecord
100
AcDbBlockTableRecord
  2
三角５
340
0
  0
BLOCK_RECORD
  5
96
330
1
100
AcDbSymbolTableRecord
100
AcDbBlockTableRecord
  2
三角６
340
0
  0
BLOCK_RECORD
  5
2D3
330
1
100
AcDbSymbolTableRecord
100
AcDbBlockTableRecord
  2
_OPEN30
340
0
102
{BLKREFS
331
2DC
331
2DD
331
2F0
331
2F1
331
673
331
674
331
68B
331
68C
331
2E6
331
2E7
331
67F
331
680
102
}
  0
BLOCK_RECORD
  5
2D9
330
1
100
AcDbSymbolTableRecord
100
AcDbBlockTableRecord
  2
_D
340
0
  0
BLOCK_RECORD
  5
2E3
330
1
100
AcDbSymbolTableRecord
100
AcDbBlockTableRecord
  2
_D_1
340
0
  0
BLOCK_RECORD
  5
2ED
330
1
100
AcDbSymbolTableRecord
100
AcDbBlockTableRecord
  2
_D_2
340
0
  0
BLOCK_RECORD
  5
2F6
330
1
100
AcDbSymbolTableRecord
100
AcDbBlockTableRecord
  2
SW_NOTE_0
340
0
  0
BLOCK_RECORD
  5
2FE
330
1
100
AcDbSymbolTableRecord
100
AcDbBlockTableRecord
  2
SW_NOTE_1
340
0
  0
BLOCK_RECORD
  5
670
330
1
100
AcDbSymbolTableRecord
100
AcDbBlockTableRecord
  2
_D_3
340
0
  0
BLOCK_RECORD
  5
67C
330
1
100
AcDbSymbolTableRecord
100
AcDbBlockTableRecord
  2
_D_4
340
0
  0
BLOCK_RECORD
  5
688
330
1
100
AcDbSymbolTableRecord
100
AcDbBlockTableRecord
  2
_D_5
340
0
  0
ENDTAB
  0
ENDSEC
  0
SECTION
  2
BLOCKS
  0
BLOCK
  5
20
330
1F
100
AcDbEntity
  8
0
100
AcDbBlockBegin
  2
*Model_Space
 70
     0
 10
0.0
 20
0.0
 30
0.0
  3
*Model_Space
  1
*Model_Space
  0
ENDBLK
  5
21
330
1F
100
AcDbEntity
  8
0
100
AcDbBlockEnd
  0
BLOCK
  5
1C
330
1B
100
AcDbEntity
 67
     1
  8
0
100
AcDbBlockBegin
  2
*Paper_Space
 70
     0
 10
0.0
 20
0.0
 30
0.0
  3
*Paper_Space
  1
*Paper_Space
  0
ENDBLK
  5
1D
330
1B
100
AcDbEntity
 67
     1
  8
0
100
AcDbBlockEnd
  0
BLOCK
  5
24
330
23
100
AcDbEntity
 67
     1
  8
0
100
AcDbBlockBegin
  2
*Paper_Space0
 70
     0
 10
0.0
 20
0.0
 30
0.0
  3
*Paper_Space0
  1
*Paper_Space0
  0
ENDBLK
  5
25
330
23
100
AcDbEntity
 67
     1
  8
0
100
AcDbBlockEnd
  0
BLOCK
  5
73
330
72
100
AcDbEntity
  8
0
100
AcDbBlockBegin
  2
三角１
 70
     0
 10
0.0
 20
0.0
 30
0.0
  3
三角１
  1
三角１
  0
LINE
  5
75
330
72
100
AcDbEntity
  8
FORMAT
370
     0
100
AcDbLine
 10
0.0
 20
0.0
 30
0.0
 11
-1.75
 21
-3.5
 31
0.0
  0
LINE
  5
76
330
72
100
AcDbEntity
  8
FORMAT
370
     0
100
AcDbLine
 10
-1.75
 20
-3.5
 30
0.0
 11
1.75
 21
-3.5
 31
0.0
  0
LINE
  5
77
330
72
100
AcDbEntity
  8
FORMAT
370
     0
100
AcDbLine
 10
1.75
 20
-3.5
 30
0.0
 11
0.0
 21
0.0
 31
0.0
  0
MTEXT
  5
79
330
72
100
AcDbEntity
  8
FORMAT
 62
     7
100
AcDbMText
 10
-0.6943926639
 20
-0.9380245362
 30
0.0
 40
2.1166666667
 41
0.0
 71
     1
 72
     1
  1
1
  7
SLDTEXTSTYLE0
 73
     1
 44
1.0
1001
ACAD
1000
MTEXTBEGIN
1070
    73
1070
     1
1070
    44
1040
1.0
1070
    74
1070
     0
1000
MTEXTEND
  0
ENDBLK
  5
74
330
72
100
AcDbEntity
  8
0
100
AcDbBlockEnd
  0
BLOCK
  5
7B
330
7A
100
AcDbEntity
  8
0
100
AcDbBlockBegin
  2
三角２
 70
     0
 10
0.0
 20
0.0
 30
0.0
  3
三角２
  1
三角２
  0
LINE
  5
7D
330
7A
100
AcDbEntity
  8
FORMAT
370
     0
100
AcDbLine
 10
0.0
 20
0.0
 30
0.0
 11
-1.75
 21
-3.5
 31
0.0
  0
LINE
  5
7E
330
7A
100
AcDbEntity
  8
FORMAT
370
     0
100
AcDbLine
 10
-1.75
 20
-3.5
 30
0.0
 11
1.75
 21
-3.5
 31
0.0
  0
LINE
  5
7F
330
7A
100
AcDbEntity
  8
FORMAT
370
     0
100
AcDbLine
 10
1.75
 20
-3.5
 30
0.0
 11
0.0
 21
0.0
 31
0.0
  0
MTEXT
  5
80
330
7A
100
AcDbEntity
  8
FORMAT
 62
     7
100
AcDbMText
 10
-0.6943926639
 20
-0.9380245362
 30
0.0
 40
2.1166666667
 41
0.0
 71
     1
 72
     1
  1
2
  7
SLDTEXTSTYLE0
 73
     1
 44
1.0
1001
ACAD
1000
MTEXTBEGIN
1070
    73
1070
     1
1070
    44
1040
1.0
1070
    74
1070
     0
1000
MTEXTEND
  0
ENDBLK
  5
7C
330
7A
100
AcDbEntity
  8
0
100
AcDbBlockEnd
  0
BLOCK
  5
82
330
81
100
AcDbEntity
  8
0
100
AcDbBlockBegin
  2
三角３
 70
     0
 10
0.0
 20
0.0
 30
0.0
  3
三角３
  1
三角３
  0
LINE
  5
84
330
81
100
AcDbEntity
  8
FORMAT
370
     0
100
AcDbLine
 10
0.0
 20
0.0
 30
0.0
 11
-1.75
 21
-3.5
 31
0.0
  0
LINE
  5
85
330
81
100
AcDbEntity
  8
FORMAT
370
     0
100
AcDbLine
 10
-1.75
 20
-3.5
 30
0.0
 11
1.75
 21
-3.5
 31
0.0
  0
LINE
  5
86
330
81
100
AcDbEntity
  8
FORMAT
370
     0
100
AcDbLine
 10
1.75
 20
-3.5
 30
0.0
 11
0.0
 21
0.0
 31
0.0
  0
MTEXT
  5
87
330
81
100
AcDbEntity
  8
FORMAT
 62
     7
100
AcDbMText
 10
-0.6943926639
 20
-0.9380245362
 30
0.0
 40
2.1166666667
 41
0.0
 71
     1
 72
     1
  1
3
  7
SLDTEXTSTYLE0
 73
     1
 44
1.0
1001
ACAD
1000
MTEXTBEGIN
1070
    73
1070
     1
1070
    44
1040
1.0
1070
    74
1070
     0
1000
MTEXTEND
  0
ENDBLK
  5
83
330
81
100
AcDbEntity
  8
0
100
AcDbBlockEnd
  0
BLOCK
  5
89
330
88
100
AcDbEntity
  8
0
100
AcDbBlockBegin
  2
三角４
 70
     0
 10
0.0
 20
0.0
 30
0.0
  3
三角４
  1
三角４
  0
LINE
  5
8B
330
88
100
AcDbEntity
  8
FORMAT
370
     0
100
AcDbLine
 10
0.0
 20
0.0
 30
0.0
 11
-1.75
 21
-3.5
 31
0.0
  0
LINE
  5
8C
330
88
100
AcDbEntity
  8
FORMAT
370
     0
100
AcDbLine
 10
-1.75
 20
-3.5
 30
0.0
 11
1.75
 21
-3.5
 31
0.0
  0
LINE
  5
8D
330
88
100
AcDbEntity
  8
FORMAT
370
     0
100
AcDbLine
 10
1.75
 20
-3.5
 30
0.0
 11
0.0
 21
0.0
 31
0.0
  0
MTEXT
  5
8E
330
88
100
AcDbEntity
  8
FORMAT
 62
     7
100
AcDbMText
 10
-0.6943926639
 20
-0.9380245362
 30
0.0
 40
2.1166666667
 41
0.0
 71
     1
 72
     1
  1
4
  7
SLDTEXTSTYLE0
 73
     1
 44
1.0
1001
ACAD
1000
MTEXTBEGIN
1070
    73
1070
     1
1070
    44
1040
1.0
1070
    74
1070
     0
1000
MTEXTEND
  0
ENDBLK
  5
8A
330
88
100
AcDbEntity
  8
0
100
AcDbBlockEnd
  0
BLOCK
  5
90
330
8F
100
AcDbEntity
  8
0
100
AcDbBlockBegin
  2
三角５
 70
     0
 10
0.0
 20
0.0
 30
0.0
  3
三角５
  1
三角５
  0
LINE
  5
92
330
8F
100
AcDbEntity
  8
FORMAT
370
     0
100
AcDbLine
 10
0.0
 20
0.0
 30
0.0
 11
-1.75
 21
-3.5
 31
0.0
  0
LINE
  5
93
330
8F
100
AcDbEntity
  8
FORMAT
370
     0
100
AcDbLine
 10
-1.75
 20
-3.5
 30
0.0
 11
1.75
 21
-3.5
 31
0.0
  0
LINE
  5
94
330
8F
100
AcDbEntity
  8
FORMAT
370
     0
100
AcDbLine
 10
1.75
 20
-3.5
 30
0.0
 11
0.0
 21
0.0
 31
0.0
  0
MTEXT
  5
95
330
8F
100
AcDbEntity
  8
FORMAT
 62
     7
100
AcDbMText
 10
-0.6943926639
 20
-0.9380245362
 30
0.0
 40
2.1166666667
 41
0.0
 71
     1
 72
     1
  1
5
  7
SLDTEXTSTYLE0
 73
     1
 44
1.0
1001
ACAD
1000
MTEXTBEGIN
1070
    73
1070
     1
1070
    44
1040
1.0
1070
    74
1070
     0
1000
MTEXTEND
  0
ENDBLK
  5
91
330
8F
100
AcDbEntity
  8
0
100
AcDbBlockEnd
  0
BLOCK
  5
97
330
96
100
AcDbEntity
  8
0
100
AcDbBlockBegin
  2
三角６
 70
     0
 10
0.0
 20
0.0
 30
0.0
  3
三角６
  1
三角６
  0
LINE
  5
99
330
96
100
AcDbEntity
  8
FORMAT
370
     0
100
AcDbLine
 10
0.0
 20
0.0
 30
0.0
 11
-1.75
 21
-3.5
 31
0.0
  0
LINE
  5
9A
330
96
100
AcDbEntity
  8
FORMAT
370
     0
100
AcDbLine
 10
-1.75
 20
-3.5
 30
0.0
 11
1.75
 21
-3.5
 31
0.0
  0
LINE
  5
9B
330
96
100
AcDbEntity
  8
FORMAT
370
     0
100
AcDbLine
 10
1.75
 20
-3.5
 30
0.0
 11
0.0
 21
0.0
 31
0.0
  0
MTEXT
  5
9C
330
96
100
AcDbEntity
  8
FORMAT
 62
     7
100
AcDbMText
 10
-0.6943926639
 20
-0.9380245362
 30
0.0
 40
2.1166666667
 41
0.0
 71
     1
 72
     1
  1
6
  7
SLDTEXTSTYLE0
 73
     1
 44
1.0
1001
ACAD
1000
MTEXTBEGIN
1070
    73
1070
     1
1070
    44
1040
1.0
1070
    74
1070
     0
1000
MTEXTEND
  0
ENDBLK
  5
98
330
96
100
AcDbEntity
  8
0
100
AcDbBlockEnd
  0
BLOCK
  5
2D4
330
2D3
100
AcDbEntity
  8
0
100
AcDbBlockBegin
  2
_OPEN30
 70
     0
 10
0.0
 20
0.0
 30
0.0
  3
_OPEN30
  1
_OPEN30
  0
LINE
  5
2D6
330
2D3
100
AcDbEntity
  8
0
  6
ByBlock
 62
     0
370
    -2
100
AcDbLine
 10
-1.0
 20
0.267949
 30
0.0
 11
0.0
 21
0.0
 31
0.0
  0
LINE
  5
2D7
330
2D3
100
AcDbEntity
  8
0
  6
ByBlock
 62
     0
370
    -2
100
AcDbLine
 10
0.0
 20
0.0
 30
0.0
 11
-1.0
 21
-0.267949
 31
0.0
  0
LINE
  5
2D8
330
2D3
100
AcDbEntity
  8
0
  6
ByBlock
 62
     0
370
    -2
100
AcDbLine
 10
0.0
 20
0.0
 30
0.0
 11
-1.0
 21
0.0
 31
0.0
  0
ENDBLK
  5
2D5
330
2D3
100
AcDbEntity
  8
0
100
AcDbBlockEnd
  0
BLOCK
  5
2DA
330
2D9
100
AcDbEntity
  8
0
100
AcDbBlockBegin
  2
_D
 70
     0
 10
0.0
 20
0.0
 30
0.0
  3
_D
  1
_D
  0
INSERT
  5
2DC
330
2D9
100
AcDbEntity
  8
FORMAT
100
AcDbBlockReference
  2
_OPEN30
 10
69.57105047749999
 20
218.4551057007
 30
0.01
 41
2.0
 42
2.0
 50
180.0
  0
INSERT
  5
2DD
330
2D9
100
AcDbEntity
  8
FORMAT
100
AcDbBlockReference
  2
_OPEN30
 10
149.5710504775
 20
218.4551057007
 30
0.01
 41
2.0
 42
2.0
  0
LINE
  5
2DE
330
2D9
100
AcDbEntity
  8
FORMAT
100
AcDbLine
 10
69.57105047749999
 20
206.0749387561
 30
0.0
 11
69.57105047749999
 21
219.4551057007
 31
0.0
  0
LINE
  5
2DF
330
2D9
100
AcDbEntity
  8
FORMAT
100
AcDbLine
 10
149.5710504775
 20
206.2901248621
 30
0.0
 11
149.5710504775
 21
219.4551057007
 31
0.0
  0
LINE
  5
2E0
330
2D9
100
AcDbEntity
  8
FORMAT
100
AcDbLine
 10
69.57105047749999
 20
218.4551057007
 30
0.0
 11
149.5710504775
 21
218.4551057007
 31
0.0
  0
MTEXT
  5
2E1
330
2D9
100
AcDbEntity
  8
FORMAT
100
AcDbMText
 10
106.5158421149
 20
222.966842557
 30
0.0
 40
3.5
 41
0.0
 71
     1
 72
     1
  1
800
  7
SLDTEXTSTYLE0
 73
     1
 44
1.0
1001
ACAD
1000
MTEXTBEGIN
1070
    73
1070
     1
1070
    44
1040
1.0
1070
    74
1070
     0
1000
MTEXTEND
  0
ENDBLK
  5
2DB
330
2D9
100
AcDbEntity
  8
0
100
AcDbBlockEnd
  0
BLOCK
  5
2E4
330
2E3
100
AcDbEntity
  8
0
100
AcDbBlockBegin
  2
_D_1
 70
     0
 10
0.0
 20
0.0
 30
0.0
  3
_D_1
  1
_D_1
  0
INSERT
  5
2E6
330
2E3
100
AcDbEntity
  8
FORMAT
100
AcDbBlockReference
  2
_OPEN30
 10
139.5710504775
 20
213.8588560913
 30
0.01
 41
2.0
 42
2.0
  0
INSERT
  5
2E7
330
2E3
100
AcDbEntity
  8
FORMAT
100
AcDbBlockReference
  2
_OPEN30
 10
79.57105047749998
 20
213.8588560913
 30
0.01
 41
2.0
 42
2.0
 50
180.0
  0
LINE
  5
2E8
330
2E3
100
AcDbEntity
  8
FORMAT
100
AcDbLine
 10
139.5710504775
 20
206.2901248621
 30
0.0
 11
139.5710504775
 21
214.8588560913
 31
0.0
  0
LINE
  5
2E9
330
2E3
100
AcDbEntity
  8
FORMAT
100
AcDbLine
 10
79.57105047749998
 20
206.0749387561
 30
0.0
 11
79.57105047749998
 21
214.8588560913
 31
0.0
  0
LINE
  5
2EA
330
2E3
100
AcDbEntity
  8
FORMAT
100
AcDbLine
 10
139.5710504775
 20
213.8588560913
 30
0.0
 11
79.57105047749998
 21
213.8588560913
 31
0.0
  0
MTEXT
  5
2EB
330
2E3
100
AcDbEntity
  8
FORMAT
100
AcDbMText
 10
106.5158421149
 20
218.3705929477
 30
0.0
 40
3.5
 41
0.0
 71
     1
 72
     1
  1
600
  7
SLDTEXTSTYLE0
 73
     1
 44
1.0
1001
ACAD
1000
MTEXTBEGIN
1070
    73
1070
     1
1070
    44
1040
1.0
1070
    74
1070
     0
1000
MTEXTEND
  0
ENDBLK
  5
2E5
330
2E3
100
AcDbEntity
  8
0
100
AcDbBlockEnd
  0
BLOCK
  5
2EE
330
2ED
100
AcDbEntity
  8
0
100
AcDbBlockBegin
  2
_D_2
 70
     0
 10
0.0
 20
0.0
 30
0.0
  3
_D_2
  1
_D_2
  0
INSERT
  5
2F0
330
2ED
100
AcDbEntity
  8
FORMAT
100
AcDbBlockReference
  2
_OPEN30
 10
47.5710504775
 20
223.2021646745
 30
2.447195048999998
 41
2.0
 42
2.0
 50
180.0
  0
INSERT
  5
2F1
330
2ED
100
AcDbEntity
  8
FORMAT
100
AcDbBlockReference
  2
_OPEN30
 10
171.5710504775
 20
223.2021646745
 30
2.447195048999998
 41
2.0
 42
2.0
  0
LINE
  5
2F2
330
2ED
100
AcDbEntity
  8
FORMAT
100
AcDbLine
 10
47.5710504775
 20
209.2669733405
 30
0.0
 11
47.5710504775
 21
224.2021646745
 31
0.0
  0
LINE
  5
2F3
330
2ED
100
AcDbEntity
  8
FORMAT
100
AcDbLine
 10
171.5710504775
 20
209.2669733405
 30
0.0
 11
171.5710504775
 21
224.2021646745
 31
0.0
  0
LINE
  5
2F4
330
2ED
100
AcDbEntity
  8
FORMAT
100
AcDbLine
 10
47.5710504775
 20
223.2021646745
 30
0.0
 11
171.5710504775
 21
223.2021646745
 31
0.0
  0
MTEXT
  5
2F5
330
2ED
100
AcDbEntity
  8
FORMAT
100
AcDbMText
 10
105.4974394825
 20
227.7139015309
 30
0.0
 40
3.5
 41
0.0
 71
     1
 72
     1
  1
1240
  7
SLDTEXTSTYLE0
 73
     1
 44
1.0
1001
ACAD
1000
MTEXTBEGIN
1070
    73
1070
     1
1070
    44
1040
1.0
1070
    74
1070
     0
1000
MTEXTEND
  0
ENDBLK
  5
2EF
330
2ED
100
AcDbEntity
  8
0
100
AcDbBlockEnd
  0
BLOCK
  5
2F7
330
2F6
100
AcDbEntity
  8
0
100
AcDbBlockBegin
  2
SW_NOTE_0
 70
     0
 10
0.0
 20
0.0
 30
0.0
  3
SW_NOTE_0
  1
SW_NOTE_0
  0
LINE
  5
2F9
330
2F6
100
AcDbEntity
  8
FORMAT
 62
     0
100
AcDbLine
 10
36.5260747036
 20
0.0
 30
0.0
 11
0.0
 21
0.0
 31
0.0
  0
MTEXT
  5
2FA
330
2F6
100
AcDbEntity
  8
FORMAT
 62
     0
100
AcDbMText
 10
0.4183962874000002
 20
4.589431113699999
 30
0.0
 40
3.5
 41
0.0
 71
     1
 72
     1
  1
　4-12\U+00D720ボルト穴
  7
SLDTEXTSTYLE0
 73
     1
 44
1.0
1001
ACAD
1000
MTEXTBEGIN
1070
    73
1070
     1
1070
    44
1040
1.0
1070
    74
1070
     0
1000
MTEXTEND
  0
ENDBLK
  5
2F8
330
2F6
100
AcDbEntity
  8
0
100
AcDbBlockEnd
  0
BLOCK
  5
2FF
330
2FE
100
AcDbEntity
  8
0
100
AcDbBlockBegin
  2
SW_NOTE_1
 70
     0
 10
0.0
 20
0.0
 30
0.0
  3
SW_NOTE_1
  1
SW_NOTE_1
  0
LINE
  5
301
330
2FE
100
AcDbEntity
  8
FORMAT
 62
     0
100
AcDbLine
 10
24.3052393904
 20
0.0
 30
0.0
 11
0.0
 21
0.0
 31
0.0
  0
MTEXT
  5
302
330
2FE
100
AcDbEntity
  8
FORMAT
 62
     0
100
AcDbMText
 10
0.4944525138000002
 20
4.5460023297
 30
0.0
 40
3.5
 41
0.0
 71
     1
 72
     1
  1
\U+03C620電源用穴
  7
SLDTEXTSTYLE0
 73
     1
 44
1.0
1001
ACAD
1000
MTEXTBEGIN
1070
    73
1070
     1
1070
    44
1040
1.0
1070
    74
1070
     0
1000
MTEXTEND
  0
ENDBLK
  5
300
330
2FE
100
AcDbEntity
  8
0
100
AcDbBlockEnd
  0
BLOCK
  5
671
330
670
100
AcDbEntity
  8
0
100
AcDbBlockBegin
  2
_D_3
 70
     0
 10
0.0
 20
0.0
 30
0.0
  3
_D_3
  1
_D_3
  0
INSERT
  5
673
330
670
100
AcDbEntity
  8
FORMAT
100
AcDbBlockReference
  2
_OPEN30
 10
212.1226316751
 20
217.0689745144
 30
0.01
 41
2.0
 42
2.0
 50
180.0
  0
INSERT
  5
674
330
670
100
AcDbEntity
  8
FORMAT
100
AcDbBlockReference
  2
_OPEN30
 10
203.9774265664
 20
217.0689745144
 30
0.01
 41
2.0
 42
2.0
  0
LINE
  5
675
330
670
100
AcDbEntity
  8
FORMAT
100
AcDbLine
 10
212.1226316751
 20
205.1161362627
 30
0.0
 11
212.1226316751
 21
218.0689745144
 31
0.0
  0
LINE
  5
676
330
670
100
AcDbEntity
  8
FORMAT
100
AcDbLine
 10
203.9774265664
 20
207.7037154013
 30
0.0
 11
203.9774265664
 21
218.0689745144
 31
0.0
  0
LINE
  5
677
330
670
100
AcDbEntity
  8
FORMAT
100
AcDbLine
 10
212.1226316751
 20
217.0689745144
 30
0.0
 11
215.1226316751
 21
217.0689745144
 31
0.0
  0
LINE
  5
678
330
670
100
AcDbEntity
  8
FORMAT
100
AcDbLine
 10
212.1226316751
 20
217.0689745144
 30
0.0
 11
203.9774265664
 21
217.0689745144
 31
0.0
  0
LINE
  5
679
330
670
100
AcDbEntity
  8
FORMAT
100
AcDbLine
 10
203.9774265664
 20
217.0689745144
 30
0.0
 11
200.9774265664
 21
217.0689745144
 31
0.0
  0
MTEXT
  5
67A
330
670
100
AcDbEntity
  8
FORMAT
100
AcDbMText
 10
206.0132236232
 20
221.5807113708
 30
0.0
 40
3.5
 41
0.0
 71
     1
 72
     1
  1
82
  7
SLDTEXTSTYLE0
 73
     1
 44
1.0
1001
ACAD
1000
MTEXTBEGIN
1070
    73
1070
     1
1070
    44
1040
1.0
1070
    74
1070
     0
1000
MTEXTEND
  0
ENDBLK
  5
672
330
670
100
AcDbEntity
  8
0
100
AcDbBlockEnd
  0
BLOCK
  5
67D
330
67C
100
AcDbEntity
  8
0
100
AcDbBlockBegin
  2
_D_4
 70
     0
 10
0.0
 20
0.0
 30
0.0
  3
_D_4
  1
_D_4
  0
INSERT
  5
67F
330
67C
100
AcDbEntity
  8
FORMAT
100
AcDbBlockReference
  2
_OPEN30
 10
198.7347818087
 20
208.4169733405
 30
0.01
 41
2.0
 42
2.0
 50
270.0
  0
INSERT
  5
680
330
67C
100
AcDbEntity
  8
FORMAT
100
AcDbBlockReference
  2
_OPEN30
 10
198.7347818087
 20
199.8169733405
 30
0.01
 41
2.0
 42
2.0
 50
90.0
  0
LINE
  5
681
330
67C
100
AcDbEntity
  8
FORMAT
100
AcDbLine
 10
203.3374265664
 20
208.4169733405
 30
0.0
 11
197.7347818087
 21
208.4169733405
 31
0.0
  0
LINE
  5
682
330
67C
100
AcDbEntity
  8
FORMAT
100
AcDbLine
 10
203.3374265664
 20
199.8169733405
 30
0.0
 11
197.7347818087
 21
199.8169733405
 31
0.0
  0
LINE
  5
683
330
67C
100
AcDbEntity
  8
FORMAT
100
AcDbLine
 10
198.7347818087
 20
208.4169733405
 30
0.0
 11
198.7347818087
 21
211.4169733405
 31
0.0
  0
LINE
  5
684
330
67C
100
AcDbEntity
  8
FORMAT
100
AcDbLine
 10
198.7347818087
 20
208.4169733405
 30
0.0
 11
198.7347818087
 21
199.8169733405
 31
0.0
  0
LINE
  5
685
330
67C
100
AcDbEntity
  8
FORMAT
100
AcDbLine
 10
198.7347818087
 20
199.8169733405
 30
0.0
 11
198.7347818087
 21
196.8169733405
 31
0.0
  0
MTEXT
  5
686
330
67C
100
AcDbEntity
  8
FORMAT
100
AcDbMText
 10
194.2230449523
 20
202.080167843
 30
0.0
 40
3.5
 41
0.0
 71
     1
 72
     1
  1
86
  7
SLDTEXTSTYLE0
 11
-0.0000000000000035
 21
1.0
 31
0.0
 73
     1
 44
1.0
1001
ACAD
1000
MTEXTBEGIN
1070
    73
1070
     1
1070
    44
1040
1.0
1070
    74
1070
     0
1000
MTEXTEND
  0
ENDBLK
  5
67E
330
67C
100
AcDbEntity
  8
0
100
AcDbBlockEnd
  0
BLOCK
  5
689
330
688
100
AcDbEntity
  8
0
100
AcDbBlockBegin
  2
_D_5
 70
     0
 10
0.0
 20
0.0
 30
0.0
  3
_D_5
  1
_D_5
  0
INSERT
  5
68B
330
688
100
AcDbEntity
  8
FORMAT
100
AcDbBlockReference
  2
_OPEN30
 10
209.4574265664
 20
211.19671651
 30
0.01
 41
2.0
 42
2.0
 50
180.0
  0
INSERT
  5
68C
330
688
100
AcDbEntity
  8
FORMAT
100
AcDbBlockReference
  2
_OPEN30
 10
203.9774265664
 20
211.19671651
 30
0.01
 41
2.0
 42
2.0
  0
LINE
  5
68D
330
688
100
AcDbEntity
  8
FORMAT
100
AcDbLine
 10
209.4574265664
 20
209.2669733405
 30
0.0
 11
209.4574265664
 21
212.19671651
 31
0.0
  0
LINE
  5
68E
330
688
100
AcDbEntity
  8
FORMAT
100
AcDbLine
 10
203.9774265664
 20
207.6169733405
 30
0.0
 11
203.9774265664
 21
212.19671651
 31
0.0
  0
LINE
  5
68F
330
688
100
AcDbEntity
  8
FORMAT
100
AcDbLine
 10
209.4574265664
 20
211.19671651
 30
0.0
 11
212.4574265664
 21
211.19671651
 31
0.0
  0
LINE
  5
690
330
688
100
AcDbEntity
  8
FORMAT
100
AcDbLine
 10
209.4574265664
 20
211.19671651
 30
0.0
 11
203.9774265664
 21
211.19671651
 31
0.0
  0
LINE
  5
691
330
688
100
AcDbEntity
  8
FORMAT
100
AcDbLine
 10
203.9774265664
 20
211.19671651
 30
0.0
 11
200.9774265664
 21
211.19671651
 31
0.0
  0
MTEXT
  5
692
330
688
100
AcDbEntity
  8
FORMAT
100
AcDbMText
 10
204.6806210689
 20
215.7084533664
 30
0.0
 40
3.5
 41
0.0
 71
     1
 72
     1
  1
55
  7
SLDTEXTSTYLE0
 73
     1
 44
1.0
1001
ACAD
1000
MTEXTBEGIN
1070
    73
1070
     1
1070
    44
1040
1.0
1070
    74
1070
     0
1000
MTEXTEND
  0
ENDBLK
  5
68A
330
688
100
AcDbEntity
  8
0
100
AcDbBlockEnd
  0
ENDSEC
  0
SECTION
  2
ENTITIES
  0
LINE
  5
438
330
1F
100
AcDbEntity
  8
0
370
    15
100
AcDbLine
 10
1605.7046795805
 20
319.3008626971
 30
0.0
 11
1605.7047485205
 21
319.2917005658
 31
0.0
  0
LINE
  5
439
330
1F
100
AcDbEntity
  8
0
370
    15
100
AcDbLine
 10
1605.6972748696
 20
320.2849490103
 30
0.0
 11
1605.7003716161
 21
319.8733912954
 31
0.0
  0
LINE
  5
43A
330
1F
100
AcDbEntity
  8
0
370
    15
100
AcDbLine
 10
1605.6898701587
 20
321.2690353236
 30
0.0
 11
1605.6929657773
 21
320.8576275126
 31
0.0
  0
LINE
  5
43B
330
1F
100
AcDbEntity
  8
0
370
    15
100
AcDbLine
 10
1605.6824654477
 20
322.2531216368
 30
0.0
 11
1605.6855599384
 21
321.8418637298
 31
0.0
  0
LINE
  5
43C
330
1F
100
AcDbEntity
  8
0
370
    15
100
AcDbLine
 10
1605.6750607368
 20
323.23720795
 30
0.0
 11
1605.6781540996
 21
322.826099947
 31
0.0
  0
LINE
  5
43D
330
1F
100
AcDbEntity
  8
0
370
    15
100
AcDbLine
 10
1605.6670498964
 20
324.3018488949
 30
0.0
 11
1605.6707482607
 21
323.8103361641
 31
0.0
  0
SPLINE
  5
43E
330
1F
100
AcDbEntity
  8
0
370
    15
100
AcDbSpline
210
0.0
220
0.0
230
1.0
 70
     8
 71
     3
 72
     9
 73
     5
 74
     0
 42
0.000000001
 43
0.0000000001
 40
0.0
 40
0.0
 40
0.0
 40
0.0
 40
0.1564782146723782
 40
1.0
 40
1.0
 40
1.0
 40
1.0
 10
1694.017899253836
 20
299.552258729324
 30
0.0
 10
1694.019978595903
 20
299.5735663544785
 30
0.0
 10
1694.033266976475
 20
299.7097362692437
 30
0.0
 10
1694.031851643072
 20
299.854704384699
 30
0.0
 10
1694.030657778512
 20
299.9769881482633
 30
0.0
  0
LINE
  5
43F
330
1F
100
AcDbEntity
  8
0
370
    15
100
AcDbLine
 10
1663.4928948814
 20
276.1973798738
 30
0.0
 11
1690.408790098
 21
292.1215500137
 31
0.0
  0
LINE
  5
440
330
1F
100
AcDbEntity
  8
0
370
    15
100
AcDbLine
 10
1694.06461337
 20
304.4504830284
 30
0.0
 11
1694.0672723674
 21
304.8007938556001
 31
0.0
  0
LINE
  5
441
330
1F
100
AcDbEntity
  8
0
370
    15
100
AcDbLine
 10
1694.0572075311
 20
303.4747974107
 30
0.0
 11
1694.0603455622
 21
303.888218747
 31
0.0
  0
LINE
  5
442
330
1F
100
AcDbEntity
  8
0
370
    15
100
AcDbLine
 10
1694.0498016922
 20
302.4991117931
 30
0.0
 11
1694.0529408513
 21
302.9126817311
 31
0.0
  0
LINE
  5
443
330
1F
100
AcDbEntity
  8
0
370
    15
100
AcDbLine
 10
1694.0423958534
 20
301.5234261754
 30
0.0
 11
1694.0455361404
 21
301.9371447151
 31
0.0
  0
LINE
  5
444
330
1F
100
AcDbEntity
  8
0
370
    15
100
AcDbLine
 10
1694.0349900145
 20
300.5477405578
 30
0.0
 11
1694.0381314294
 21
300.9616076991
 31
0.0
  0
LINE
  5
445
330
1F
100
AcDbEntity
  8
0
370
    15
100
AcDbLine
 10
1694.0306577785
 20
299.9769881483
 30
0.0
 11
1694.0307267185
 21
299.9860706831
 31
0.0
  0
SPLINE
  5
446
330
1F
100
AcDbEntity
  8
0
370
    15
100
AcDbSpline
210
0.0
220
0.0
230
1.0
 70
     8
 71
     3
 72
     9
 73
     5
 74
     0
 42
0.000000001
 43
0.0000000001
 40
0.0
 40
0.0
 40
0.0
 40
0.0
 40
0.6387190912036298
 40
1.0
 40
1.0
 40
1.0
 40
1.0
 10
756.8301105663858
 20
-171.0955409932181
 30
0.0
 10
756.8335155969451
 20
-171.4349491190686
 30
0.0
 10
756.8388466268242
 20
-171.9663378477364
 30
0.0
 10
756.9154372875964
 20
-172.5285595293093
 30
0.0
 10
756.9431080311256
 20
-172.7316794893731
 30
0.0
  0
SPLINE
  5
447
330
1F
100
AcDbEntity
  8
0
370
    15
100
AcDbSpline
210
0.0
220
0.0
230
1.0
 70
     8
 71
     3
 72
    14
 73
    10
 74
     0
 42
0.000000001
 43
0.0000000001
 40
0.0
 40
0.0
 40
0.0
 40
0.0
 40
0.1302904525813864
 40
0.2899140868134405
 40
0.4495447292770379
 40
0.6091794837940827
 40
0.7688125153717458
 40
0.9284370396149148
 40
1.0
 40
1.0
 40
1.0
 40
1.0
 10
781.5878325086487
 20
-201.5790255916467
 30
0.0
 10
782.7672911106438
 20
-202.3410047657031
 30
0.0
 10
785.3917479051123
 20
-204.0365127023222
 30
0.0
 10
789.4718671713413
 20
-206.3615548834463
 30
0.0
 10
793.8116663590175
 20
-208.6034420281464
 30
0.0
 10
798.1358011882559
 20
-210.5711185440147
 30
0.0
 10
802.4313214614515
 20
-212.2640259990823
 30
0.0
 10
805.9073338760892
 20
-213.4290300374516
 30
0.0
 10
807.9424463400528
 20
-214.0027833124986
 30
0.0
 10
808.5724054958093
 20
-214.1803858456072
 30
0.0
  0
LINE
  5
448
330
1F
100
AcDbEntity
  8
0
370
    15
100
AcDbLine
 10
756.8300416263999
 20
-171.086378862
 30
0.0
 11
756.8301105664
 21
-171.0955409932
 31
0.0
  0
LINE
  5
449
330
1F
100
AcDbEntity
  8
0
370
    15
100
AcDbLine
 10
756.8226369153999
 20
-170.1022925487
 30
0.0
 11
756.8257786625999
 21
-170.5198308479
 31
0.0
  0
LINE
  5
44A
330
1F
100
AcDbEntity
  8
0
370
    15
100
AcDbLine
 10
756.8152322044998
 20
-169.1182062355
 30
0.0
 11
756.8183728238
 21
-169.5355946307
 31
0.0
  0
LINE
  5
44B
330
1F
100
AcDbEntity
  8
0
370
    15
100
AcDbLine
 10
756.8078274936
 20
-168.1341199222
 30
0.0
 11
756.8109669849
 21
-168.5513584135
 31
0.0
  0
LINE
  5
44C
330
1F
100
AcDbEntity
  8
0
370
    15
100
AcDbLine
 10
756.8004227827
 20
-167.150033609
 30
0.0
 11
756.8035611461
 21
-167.5671221963
 31
0.0
  0
LINE
  5
44D
330
1F
100
AcDbEntity
  8
0
370
    15
100
AcDbLine
 10
756.7934963097997
 20
-166.229505138
 30
0.0
 11
756.7961553072
 21
-166.5828859792
 31
0.0
  0
LINE
  5
44E
330
1F
100
AcDbEntity
  8
0
370
    15
100
AcDbLine
 10
814.1921017613999
 20
-213.7075772873
 30
0.0
 11
841.4422253314999
 21
-198.362370369
 31
0.0
  0
LINE
  5
44F
330
1F
100
AcDbEntity
  8
0
370
    15
100
AcDbLine
 10
845.1560199739001
 20
-190.4147578812
 30
0.0
 11
845.1560889138997
 21
-190.4056753464
 31
0.0
  0
LINE
  5
450
330
1F
100
AcDbEntity
  8
0
370
    15
100
AcDbLine
 10
845.1603970112
 20
-189.8381031083
 30
0.0
 11
845.1634936247998
 21
-189.4301383304
 31
0.0
  0
LINE
  5
451
330
1F
100
AcDbEntity
  8
0
370
    15
100
AcDbLine
 10
832.3671488802999
 20
-196.3588657084
 30
0.0
 11
1652.8384142757
 21
277.2891139237
 31
0.0
  0
LINE
  5
452
330
1F
100
AcDbEntity
  8
0
370
    15
100
AcDbLine
 10
1693.01580212
 20
348.0350654306
 30
0.0
 11
1634.3259392815
 21
381.9160020712
 31
0.0
  0
LINE
  5
453
330
1F
100
AcDbEntity
  8
0
370
    15
100
AcDbLine
 10
1693.415834627
 20
305.8619530969
 30
0.0
 11
1693.415834627
 21
347.3422263405999
 31
0.0
  0
LINE
  5
454
330
1F
100
AcDbEntity
  8
0
370
    15
100
AcDbLine
 10
785.0306172575999
 20
-156.0178064023
 30
0.0
 11
1605.8302471329
 21
317.8197340091
 31
0.0
  0
LINE
  5
455
330
1F
100
AcDbEntity
  8
0
370
    15
100
AcDbLine
 10
1633.0310295486
 20
381.8751285855999
 30
0.0
 11
757.3499917272
 21
-123.644774255
 31
0.0
  0
ARC
  5
456
330
1F
100
AcDbEntity
  8
0
370
    15
100
AcDbCircle
 10
1722.3251114431
 20
404.4603858279
 30
0.0
 40
118.4834444574719
100
AcDbArc
 50
227.6515089175
 51
247.2901490479
  0
ARC
  5
457
330
1F
100
AcDbEntity
  8
0
370
    15
100
AcDbCircle
 10
1659.8254022405
 20
336.4178247809
 30
0.0
 40
26.0960458822979
100
AcDbArc
 50
184.0285505151
 51
228.4310520742
  0
LINE
  5
458
330
1F
100
AcDbEntity
  8
0
370
    15
100
AcDbLine
 10
1633.7523641974
 20
339.7396278
 30
0.0
 11
1633.7889516934
 21
334.8771484288
 31
0.0
  0
LINE
  5
459
330
1F
100
AcDbEntity
  8
0
370
    15
100
AcDbLine
 10
1693.920813068
 20
305.0051216117
 30
0.0
 11
1633.7523641974
 21
339.7396278
 31
0.0
  0
LINE
  5
45A
330
1F
100
AcDbEntity
  8
0
370
    15
100
AcDbLine
 10
1693.884225572
 20
300.1848852642
 30
0.0
 11
1693.920813068
 21
305.0051216117
 31
0.0
  0
LWPOLYLINE
  5
45B
330
1F
100
AcDbEntity
  8
0
370
    15
100
AcDbPolyline
 90
        9
 70
   128
 43
0.0
 10
1685.1630452524
 20
292.2708617359
 10
1686.9606103052
 20
291.9650913295
 10
1688.6314189388
 20
292.0597929909
 10
1690.1311365319
 20
292.552453828
 10
1691.4199683351
 20
293.4300011697
 10
1692.4637154171
 20
294.6691494474
 10
1693.2346821277
 20
296.2370180739
 10
1693.7124109973
 20
298.0920039235
 10
1693.884225572
 20
300.1848852642
  0
ARC
  5
45C
330
1F
100
AcDbEntity
  8
0
370
    15
100
AcDbCircle
 10
1659.6895722997
 20
336.3356084712
 30
0.0
 40
26.64465986072477
100
AcDbArc
 50
183.1416618169
 51
228.6014334507
  0
LINE
  5
45D
330
1F
100
AcDbEntity
  8
0
370
    15
100
AcDbLine
 10
1642.0696426216
 20
316.3487133338
 30
0.0
 11
1614.9254180563
 21
300.484230483
 31
0.0
  0
ARC
  5
45E
330
1F
100
AcDbEntity
  8
0
370
    15
100
AcDbCircle
 10
1632.997512612
 20
320.9147539319
 30
0.0
 40
27.27648969405695
100
AcDbArc
 50
183.2378946522
 51
228.5052006155
  0
LINE
  5
45F
330
1F
100
AcDbEntity
  8
0
370
    15
100
AcDbLine
 10
1633.0849571323
 20
334.875351339
 30
0.0
 11
1605.764566390799
 21
319.374127389
 31
0.0
  0
ARC
  5
460
330
1F
100
AcDbEntity
  8
0
370
    15
100
AcDbCircle
 10
1641.5357329903
 20
317.2306556823
 30
0.0
 40
1.030961590201703
100
AcDbArc
 50
301.1898441805
 51
340.9328046961
  0
ARC
  5
461
330
1F
100
AcDbEntity
  8
0
370
    15
100
AcDbCircle
 10
1633.4387180557
 20
334.1853578771
 30
0.0
 40
0.7753952336193166
100
AcDbArc
 50
63.14821951850001
 51
117.1442981886
  0
ARC
  5
462
330
1F
100
AcDbEntity
  8
0
370
    15
100
AcDbCircle
 10
1684.5374485551
 20
292.1450868747
 30
0.0
 40
0.6381148355940152
100
AcDbArc
 50
304.9060357785
 51
11.3676482172
  0
LWPOLYLINE
  5
463
330
1F
100
AcDbEntity
  8
0
370
    15
100
AcDbPolyline
 90
       10
 70
   128
 43
0.0
 10
1684.902598455
 20
291.6217742588001
 10
1680.2165026431
 20
293.0664988953
 10
1675.4756556708
 20
294.8543286829
 10
1670.6955722389
 20
296.9794128434
 10
1665.8918954518
 20
299.4347969137
 10
1661.0803456248
 20
302.212445505
 10
1656.2766688377
 20
305.3032685986
 10
1651.4965854058
 20
308.6971512941
 10
1646.7557384335
 20
312.3829869105
 10
1642.0696426216
 20
316.3487133338
  0
LINE
  5
464
330
1F
100
AcDbEntity
  8
0
370
    15
100
AcDbLine
 10
1684.902598455
 20
291.6217742588001
 30
0.0
 11
1657.878741226
 21
275.6878048239
 31
0.0
  0
LWPOLYLINE
  5
465
330
1F
100
AcDbEntity
  8
0
370
    15
100
AcDbPolyline
 90
       10
 70
   128
 43
0.0
 10
1614.9254180563
 20
300.484230483
 10
1619.6246825338
 20
296.5073597453
 10
1624.378852031
 20
292.8111663517
 10
1629.1723682484
 20
289.4077463125
 10
1633.9895441221
 20
286.3082375203
 10
1638.8146151602
 20
283.5227833001
 10
1643.6317910338
 20
281.0604992147
 10
1648.4253072513
 20
278.9294432338
 10
1653.1794767485
 20
277.1365893636
 10
1657.878741226
 20
275.6878048239
  0
LINE
  5
466
330
1F
100
AcDbEntity
  8
0
370
    15
100
AcDbLine
 10
1633.0806098561
 20
335.4531044906
 30
0.0
 11
1633.0774834814
 21
335.8685997835
 31
0.0
  0
ARC
  5
467
330
1F
100
AcDbEntity
  8
0
370
    15
100
AcDbCircle
 10
1633.4337629041
 20
335.1652293879
 30
0.0
 40
0.7884573167818508
100
AcDbArc
 50
76.74082734699999
 51
116.8636607021
  0
LINE
  5
468
330
1F
100
AcDbEntity
  8
0
370
    15
100
AcDbLine
 10
1633.610353771
 20
336.4970579672
 30
0.0
 11
1633.6146004933
 21
335.9326684452
 31
0.0
  0
ELLIPSE
  5
469
330
1F
100
AcDbEntity
  8
0
370
    15
100
AcDbEllipse
 10
1633.4236990396
 20
336.2278788378
 30
0.0
 11
0.5000235037978201
 21
-0.0038624791218354
 31
0.0
210
0.0
220
0.0
230
0.9999999999999998
 40
0.5823034770000001
 41
1.192743510862551
 42
2.352022991589985
  0
LINE
  5
46A
330
1F
100
AcDbEntity
  8
0
370
    15
100
AcDbLine
 10
1633.0732040172
 20
336.4373407078
 30
0.0
 11
1633.0700787705
 21
336.8526860967
 31
0.0
  0
ARC
  5
46B
330
1F
100
AcDbEntity
  8
0
370
    15
100
AcDbCircle
 10
1633.4263581932
 20
336.1493157011
 30
0.0
 40
0.7884573167837782
100
AcDbArc
 50
76.74082734709998
 51
116.8636607021
  0
LINE
  5
46C
330
1F
100
AcDbEntity
  8
0
370
    15
100
AcDbLine
 10
1633.6029479321
 20
337.4812941843
 30
0.0
 11
1633.6071957823
 21
336.9167547585
 31
0.0
  0
ELLIPSE
  5
46D
330
1F
100
AcDbEntity
  8
0
370
    15
100
AcDbEllipse
 10
1633.4162932008
 20
337.212115055
 30
0.0
 11
0.5000235037978201
 21
-0.0038624791218354
 31
0.0
210
0.0
220
0.0
230
0.9999999999999998
 40
0.5823034770000001
 41
1.192743510862551
 42
2.352022991589985
  0
LINE
  5
46E
330
1F
100
AcDbEntity
  8
0
370
    15
100
AcDbLine
 10
1633.0657981784
 20
337.421576925
 30
0.0
 11
1633.0626740596
 21
337.8367724099
 31
0.0
  0
ARC
  5
46F
330
1F
100
AcDbEntity
  8
0
370
    15
100
AcDbCircle
 10
1633.4189534823
 20
337.1334020144
 30
0.0
 40
0.7884573167838425
100
AcDbArc
 50
76.74082734709998
 51
116.863660702
  0
LINE
  5
470
330
1F
100
AcDbEntity
  8
0
370
    15
100
AcDbLine
 10
1633.595542093299
 20
338.4655304015
 30
0.0
 11
1633.5997910714
 21
337.9008410717
 31
0.0
  0
ELLIPSE
  5
471
330
1F
100
AcDbEntity
  8
0
370
    15
100
AcDbEllipse
 10
1633.4088873619
 20
338.1963512722
 30
0.0
 11
0.5000235037978201
 21
-0.0038624791218354
 31
0.0
210
0.0
220
0.0
230
0.9999999999999998
 40
0.5823034770000001
 41
1.192743510861984
 42
2.35202299159012
  0
LINE
  5
472
330
1F
100
AcDbEntity
  8
0
370
    15
100
AcDbLine
 10
1633.0583923395
 20
338.4058131422
 30
0.0
 11
1633.0552693487
 21
338.8208587232
 31
0.0
  0
ARC
  5
473
330
1F
100
AcDbEntity
  8
0
370
    15
100
AcDbCircle
 10
1633.4115487714
 20
338.1174883276
 30
0.0
 40
0.7884573167839825
100
AcDbArc
 50
76.74082734709998
 51
116.8636607021
  0
LINE
  5
474
330
1F
100
AcDbEntity
  8
0
370
    15
100
AcDbLine
 10
1633.5923863605
 20
338.8849273849
 30
0.0
 11
1633.5881362544
 21
339.4497666187
 31
0.0
  0
ELLIPSE
  5
475
330
1F
100
AcDbEntity
  8
0
370
    15
100
AcDbEllipse
 10
1633.4014815231
 20
339.1805874894
 30
0.0
 11
0.5000235037978201
 21
-0.0038624791218922
 31
0.0
210
0.0
220
0.0
230
0.9999999999999998
 40
0.5823034770000001
 41
1.192743510862629
 42
2.352022991590017
  0
LINE
  5
476
330
1F
100
AcDbEntity
  8
0
370
    15
100
AcDbLine
 10
1633.0509865006
 20
339.3900493594
 30
0.0
 11
1633.0483160214
 21
339.7449561419
 31
0.0
  0
ELLIPSE
  5
477
330
1F
100
AcDbEntity
  8
0
370
    15
100
AcDbEllipse
 10
1633.3987838808
 20
339.539104238
 30
0.0
 11
0.5000239256798979
 21
-0.0037621274066737
 31
0.0
210
0.0
220
0.0
230
1.0
 40
0.5721836153000001
 41
0.7896841472907311
 42
2.351753827825525
  0
LINE
  5
478
330
1F
100
AcDbEntity
  8
0
370
    15
100
AcDbLine
 10
1633.0849571323
 20
334.875351339
 30
0.0
 11
1633.0848881923
 21
334.8845134702
 31
0.0
  0
LINE
  5
479
330
1F
100
AcDbEntity
  8
0
370
    15
100
AcDbLine
 10
1633.6220052042
 20
334.948582132
 30
0.0
 11
1633.6177596099
 21
335.51282175
 31
0.0
  0
ELLIPSE
  5
47A
330
1F
100
AcDbEntity
  8
0
370
    15
100
AcDbEllipse
 10
1633.4311048785
 20
335.2436426206002
 30
0.0
 11
0.5000235037978201
 21
-0.0038624791218354
 31
0.0
210
0.0
220
0.0
230
0.9999999999999998
 40
0.5823034770000001
 41
1.192743510862055
 42
2.352022991589849
  0
ARC
  5
47B
330
1F
100
AcDbEntity
  8
0
370
    15
100
AcDbCircle
 10
1633.441167615
 20
334.1811430747
 30
0.0
 40
0.7884573167821034
100
AcDbArc
 50
76.74082734699999
 51
116.8636607021
  0
LINE
  5
47C
330
1F
100
AcDbEntity
  8
0
370
    15
100
AcDbLine
 10
1605.8309258033
 20
319.4209800782
 30
0.0
 11
1605.8284469075
 21
319.7504254148
 31
0.0
  0
LINE
  5
47D
330
1F
100
AcDbEntity
  8
0
370
    15
100
AcDbLine
 10
1633.6177596099
 20
335.51282175
 30
0.0
 11
1605.8284469075
 21
319.7504254148
 31
0.0
  0
LINE
  5
47E
330
1F
100
AcDbEntity
  8
0
370
    15
100
AcDbLine
 10
1605.7644974508
 20
319.3832895203
 30
0.0
 11
1605.764566390799
 21
319.374127389
 31
0.0
  0
LINE
  5
47F
330
1F
100
AcDbEntity
  8
0
370
    15
100
AcDbLine
 10
1605.7644974508
 20
319.3832895203
 30
0.0
 11
1633.0848881923
 21
334.8845134702
 31
0.0
  0
LINE
  5
480
330
1F
100
AcDbEntity
  8
0
370
    15
100
AcDbLine
 10
1633.0806098561
 20
335.4531044906
 30
0.0
 11
1605.7601831119
 21
319.9566653019
 31
0.0
  0
LINE
  5
481
330
1F
100
AcDbEntity
  8
0
370
    15
100
AcDbLine
 10
1605.8284469075
 20
319.7504254148
 30
0.0
 11
1605.7589597646
 21
319.7912397428
 31
0.0
  0
ELLIPSE
  5
482
330
1F
100
AcDbEntity
  8
0
370
    15
100
AcDbEllipse
 10
1605.9003811208
 20
319.8728805539
 30
0.0
 11
0.2000094015190826
 21
-0.0015449916487569
 31
0.0
210
0.0
220
0.0
230
1.0
 40
0.5823034770000001
 41
2.352022991590918
 42
3.931545964644271
  0
LINE
  5
483
330
1F
100
AcDbEntity
  8
0
370
    15
100
AcDbLine
 10
1605.7570927399
 20
320.3673758335
 30
0.0
 11
1605.7601831119
 21
319.9566653019
 31
0.0
  0
LINE
  5
484
330
1F
100
AcDbEntity
  8
0
370
    15
100
AcDbLine
 10
1605.7570927399
 20
320.3673758335
 30
0.0
 11
1633.0774834814
 21
335.8685997835
 31
0.0
  0
LINE
  5
485
330
1F
100
AcDbEntity
  8
0
370
    15
100
AcDbLine
 10
1633.610353771
 20
336.4970579672
 30
0.0
 11
1605.821041068599
 21
320.734661632
 31
0.0
  0
LINE
  5
486
330
1F
100
AcDbEntity
  8
0
370
    15
100
AcDbLine
 10
1605.821041068599
 20
320.734661632
 30
0.0
 11
1605.8235210924
 21
320.4050663914
 31
0.0
  0
LINE
  5
487
330
1F
100
AcDbEntity
  8
0
370
    15
100
AcDbLine
 10
1633.0732040172
 20
336.4373407078
 30
0.0
 11
1605.752777273
 21
320.9409015191
 31
0.0
  0
LINE
  5
488
330
1F
100
AcDbEntity
  8
0
370
    15
100
AcDbLine
 10
1605.821041068599
 20
320.734661632
 30
0.0
 11
1605.7515539257
 21
320.7754759599
 31
0.0
  0
ELLIPSE
  5
489
330
1F
100
AcDbEntity
  8
0
370
    15
100
AcDbEllipse
 10
1605.892975282
 20
320.8571167711
 30
0.0
 11
0.2000094015190826
 21
-0.0015449916487569
 31
0.0
210
0.0
220
0.0
230
1.0
 40
0.5823034770000001
 41
2.352022991590576
 42
3.931545964643925
  0
LINE
  5
48A
330
1F
100
AcDbEntity
  8
0
370
    15
100
AcDbLine
 10
1605.749688029
 20
321.3514621468001
 30
0.0
 11
1605.752777273
 21
320.9409015191
 31
0.0
  0
LINE
  5
48B
330
1F
100
AcDbEntity
  8
0
370
    15
100
AcDbLine
 10
1605.749688029
 20
321.3514621468001
 30
0.0
 11
1633.0700787705
 21
336.8526860967
 31
0.0
  0
LINE
  5
48C
330
1F
100
AcDbEntity
  8
0
370
    15
100
AcDbLine
 10
1633.6029479321
 20
337.4812941843
 30
0.0
 11
1605.8136352297
 21
321.7188978492
 31
0.0
  0
LINE
  5
48D
330
1F
100
AcDbEntity
  8
0
370
    15
100
AcDbLine
 10
1605.8136352297
 20
321.7188978492
 30
0.0
 11
1605.8161163815
 21
321.3891527047
 31
0.0
  0
LINE
  5
48E
330
1F
100
AcDbEntity
  8
0
370
    15
100
AcDbLine
 10
1633.0657981784
 20
337.421576925
 30
0.0
 11
1605.7453714342
 21
321.9251377363
 31
0.0
  0
LINE
  5
48F
330
1F
100
AcDbEntity
  8
0
370
    15
100
AcDbLine
 10
1605.8136352297
 20
321.7188978492
 30
0.0
 11
1605.7441480869
 21
321.7597121771
 31
0.0
  0
ELLIPSE
  5
490
330
1F
100
AcDbEntity
  8
0
370
    15
100
AcDbEllipse
 10
1605.8855694431
 20
321.8413529883
 30
0.0
 11
0.2000094015190825
 21
-0.0015449916487
 31
0.0
210
0.0
220
0.0
230
1.0
 40
0.5823034770000001
 41
2.35202299158991
 42
3.931545964643253
  0
LINE
  5
491
330
1F
100
AcDbEntity
  8
0
370
    15
100
AcDbLine
 10
1605.7422833181
 20
322.33554846
 30
0.0
 11
1605.7453714342
 21
321.9251377363
 31
0.0
  0
LINE
  5
492
330
1F
100
AcDbEntity
  8
0
370
    15
100
AcDbLine
 10
1605.7422833181
 20
322.33554846
 30
0.0
 11
1633.0626740596
 21
337.8367724099
 31
0.0
  0
LINE
  5
493
330
1F
100
AcDbEntity
  8
0
370
    15
100
AcDbLine
 10
1633.595542093299
 20
338.4655304015
 30
0.0
 11
1605.8062293909
 21
322.7031340663
 31
0.0
  0
LINE
  5
494
330
1F
100
AcDbEntity
  8
0
370
    15
100
AcDbLine
 10
1605.8062293909
 20
322.7031340663
 30
0.0
 11
1605.8087116706
 21
322.3732390179
 31
0.0
  0
LINE
  5
495
330
1F
100
AcDbEntity
  8
0
370
    15
100
AcDbLine
 10
1605.8062293909
 20
322.7031340663
 30
0.0
 11
1605.736742248
 21
322.7439483943
 31
0.0
  0
ELLIPSE
  5
496
330
1F
100
AcDbEntity
  8
0
370
    15
100
AcDbEllipse
 10
1605.8781636043
 20
322.8255892054999
 30
0.0
 11
0.2000094015190825
 21
-0.0015449916487
 31
0.0
210
0.0
220
0.0
230
1.0
 40
0.5823034770000001
 41
2.352022991590251
 42
3.931545964643945
  0
LINE
  5
497
330
1F
100
AcDbEntity
  8
0
370
    15
100
AcDbLine
 10
1633.0583923395
 20
338.4058131422
 30
0.0
 11
1605.7379655953
 21
322.9093739535
 31
0.0
  0
LINE
  5
498
330
1F
100
AcDbEntity
  8
0
370
    15
100
AcDbLine
 10
1605.7348786072
 20
323.3196347732
 30
0.0
 11
1605.7379655953
 21
322.9093739535
 31
0.0
  0
LINE
  5
499
330
1F
100
AcDbEntity
  8
0
370
    15
100
AcDbLine
 10
1605.7348786072
 20
323.3196347732
 30
0.0
 11
1633.0552693487
 21
338.8208587232
 31
0.0
  0
LINE
  5
49A
330
1F
100
AcDbEntity
  8
0
370
    15
100
AcDbLine
 10
1605.8013069597
 20
323.3573253311
 30
0.0
 11
1605.798823552
 21
323.6873702835
 31
0.0
  0
LINE
  5
49B
330
1F
100
AcDbEntity
  8
0
370
    15
100
AcDbLine
 10
1633.5881362544
 20
339.4497666187
 30
0.0
 11
1605.798823552
 21
323.6873702835
 31
0.0
  0
LINE
  5
49C
330
1F
100
AcDbEntity
  8
0
370
    15
100
AcDbLine
 10
1605.798823552
 20
323.6873702835
 30
0.0
 11
1605.7293364092
 21
323.7281846115
 31
0.0
  0
ELLIPSE
  5
49D
330
1F
100
AcDbEntity
  8
0
370
    15
100
AcDbEllipse
 10
1605.8707577654
 20
323.8098254227
 30
0.0
 11
0.2000094015190825
 21
-0.0015449916487
 31
0.0
210
0.0
220
0.0
230
1.0
 40
0.5823034770000001
 41
2.352022991590251
 42
3.931545964643945
  0
LINE
  5
49E
330
1F
100
AcDbEntity
  8
0
370
    15
100
AcDbLine
 10
1633.0509865006
 20
339.3900493594
 30
0.0
 11
1605.7305597564
 21
323.8936101707
 31
0.0
  0
LINE
  5
49F
330
1F
100
AcDbEntity
  8
0
370
    15
100
AcDbLine
 10
1605.726856837
 20
324.3857282793
 30
0.0
 11
1605.7305597564
 21
323.8936101707
 31
0.0
  0
LINE
  5
4A0
330
1F
100
AcDbEntity
  8
0
370
    15
100
AcDbLine
 10
1612.4299175628
 20
328.2559155513
 30
0.0
 11
1605.726856837
 21
324.3857282793
 31
0.0
  0
LINE
  5
4A1
330
1F
100
AcDbEntity
  8
0
370
    15
100
AcDbLine
 10
1633.0483160214
 20
339.7449561419
 30
0.0
 11
1612.4299175628
 21
328.2559155513
 31
0.0
  0
LWPOLYLINE
  5
4A2
330
1F
100
AcDbEntity
  8
0
370
    15
100
AcDbPolyline
 90
        9
 70
   128
 43
0.0
 10
1614.9254180563
 20
300.484230483
 10
1614.8982918479
 20
300.4706320497
 10
1614.873570863599
 20
300.4628627523
 10
1614.8522156676
 20
300.4612244765
 10
1614.8350560423
 20
300.4657808793
 10
1614.8227587459
 20
300.4763549163
 10
1614.815801605
 20
300.4925357200999
 10
1614.8144549478
 20
300.5136945658
 10
1614.8187711004
 20
300.5390093006
  0
ARC
  5
4A3
330
1F
100
AcDbEntity
  8
0
370
    15
100
AcDbCircle
 10
1605.8033814007
 20
319.3023192504
 30
0.0
 40
0.0992028301837792
100
AcDbArc
 50
186.14472036
 51
246.1829159098
  0
ARC
  5
4A4
330
1F
100
AcDbEntity
  8
0
370
    15
100
AcDbCircle
 10
1632.5774767673
 20
320.6833228379
 30
0.0
 40
26.85451535317631
100
AcDbArc
 50
183.1416618169
 51
228.6014334507
  0
LWPOLYLINE
  5
4A5
330
1F
100
AcDbEntity
  8
0
370
    15
100
AcDbPolyline
 90
       10
 70
   128
 43
0.0
 10
1657.7000772324
 20
275.7841581924
 10
1653.008691705499
 20
277.2305136494
 10
1648.2624932144
 20
279.0203615584
 10
1643.4770139732
 20
281.1478445366
 10
1638.6679147444
 20
283.6060002708
 10
1633.8509335884
 20
286.3867843015
 10
1629.0418343596
 20
289.4810963493
 10
1624.2563551184
 20
292.8788100959
 10
1619.5101566274
 20
296.5688063229
 10
1614.8187711004
 20
300.5390093006
  0
ARC
  5
4A6
330
1F
100
AcDbEntity
  8
0
370
    15
100
AcDbCircle
 10
1605.8031864779
 20
319.2922939644
 30
0.0
 40
0.0988788754723853
100
AcDbArc
 50
113.0339797359
 51
175.0285761857
  0
ARC
  5
4A7
330
1F
100
AcDbEntity
  8
0
370
    15
100
AcDbCircle
 10
1605.7957817669
 20
320.2763802776
 30
0.0
 40
0.0988788754534606
100
AcDbArc
 50
113.0339797296
 51
175.0285761926
  0
ARC
  5
4A8
330
1F
100
AcDbEntity
  8
0
370
    15
100
AcDbCircle
 10
1605.788377056
 20
321.2604665909
 30
0.0
 40
0.0988788754530174
100
AcDbArc
 50
113.0339797291
 51
175.0285761925
  0
ARC
  5
4A9
330
1F
100
AcDbEntity
  8
0
370
    15
100
AcDbCircle
 10
1605.7809723451
 20
322.2445529041
 30
0.0
 40
0.0988788754628957
100
AcDbArc
 50
113.0339797328
 51
175.028576189
  0
ARC
  5
4AA
330
1F
100
AcDbEntity
  8
0
370
    15
100
AcDbCircle
 10
1605.7735676342
 20
323.2286392173
 30
0.0
 40
0.0988788754634806
100
AcDbArc
 50
113.0339797329
 51
175.0285761889
  0
ELLIPSE
  5
4AB
330
1F
100
AcDbEntity
  8
0
370
    15
100
AcDbEllipse
 10
1605.8670441687
 20
324.3033625356
 30
0.0
 11
0.1999942382394693
 21
0.0015181528107746
 31
0.0
210
0.0
220
0.0
230
1.0
 40
0.5823486168000001
 41
2.343104393819489
 42
3.141553912122216
  0
LWPOLYLINE
  5
4AC
330
1F
100
AcDbEntity
  8
0
370
    15
100
AcDbPolyline
 90
       10
 70
   128
 43
0.0
 10
1693.8778614188
 20
299.3383127443
 10
1693.7456677174
 20
297.8472598399
 10
1693.3541800979
 20
296.108548614
 10
1692.7210327533
 20
294.5952519478
 10
1691.8595062963
 20
293.3391120686
 10
1690.787671716799
 20
292.3664771992
 10
1689.5280113327
 20
291.6977488894
 10
1688.1069472115
 20
291.3469540821
 10
1686.554286952099
 20
291.3214508908
 10
1684.902598455
 20
291.6217742588001
  0
ARC
  5
4AD
330
1F
100
AcDbEntity
  8
0
370
    15
100
AcDbCircle
 10
1660.0964415822
 20
282.4359441566
 30
0.0
 40
7.1032090863063
100
AcDbArc
 50
251.8074708295
 51
298.5651399432
  0
ARC
  5
4AE
330
1F
100
AcDbEntity
  8
0
370
    15
100
AcDbCircle
 10
1693.8410065299
 20
299.9848366336
 30
0.0
 40
0.1897242020594998
100
AcDbArc
 50
0.3726795283
 51
35.9556488102
  0
ELLIPSE
  5
4AF
330
1F
100
AcDbEntity
  8
0
370
    15
100
AcDbEllipse
 10
1693.5645895251
 20
304.4492391453
 30
0.0
 11
0.5000240854583354
 21
0.0036976058236178
 31
0.0
210
0.0
220
0.0
230
1.0
 40
0.5722279310000002
 41
5.887601242228763
 42
6.661618872594092
  0
LINE
  5
4B0
330
1F
100
AcDbEntity
  8
0
370
    15
100
AcDbLine
 10
1694.0284524239
 20
304.5583894059
 30
0.0
 11
1694.0242017538
 21
303.9983829394
 31
0.0
  0
ARC
  5
4B1
330
1F
100
AcDbEntity
  8
0
370
    15
100
AcDbCircle
 10
1693.8706253736
 20
303.8869846976
 30
0.0
 40
0.1897242020592461
100
AcDbArc
 50
0.3726795283
 51
35.9556488102
  0
ELLIPSE
  5
4B2
330
1F
100
AcDbEntity
  8
0
370
    15
100
AcDbEllipse
 10
1693.5571836862
 20
303.4735535277
 30
0.0
 11
0.5000240854583354
 21
0.0036976058236178
 31
0.0
210
0.0
220
0.0
230
1.0
 40
0.5722279310000002
 41
5.887601242228763
 42
6.661618872594276
  0
LINE
  5
4B3
330
1F
100
AcDbEntity
  8
0
370
    15
100
AcDbLine
 10
1694.0167970429
 20
303.0228459234
 30
0.0
 11
1694.021046585
 21
303.5827037883
 31
0.0
  0
ARC
  5
4B4
330
1F
100
AcDbEntity
  8
0
370
    15
100
AcDbCircle
 10
1693.8632206627
 20
302.9114476816
 30
0.0
 40
0.1897242020594731
100
AcDbArc
 50
0.3726795283
 51
35.9556488102
  0
ELLIPSE
  5
4B5
330
1F
100
AcDbEntity
  8
0
370
    15
100
AcDbEllipse
 10
1693.549777847399
 20
302.49786791
 30
0.0
 11
0.5000240854583354
 21
0.0036976058236746
 31
0.0
210
0.0
220
0.0
230
1.0
 40
0.5722279310000002
 41
5.887601242228767
 42
6.66161887259391
  0
LINE
  5
4B6
330
1F
100
AcDbEntity
  8
0
370
    15
100
AcDbLine
 10
1694.009392332
 20
302.0473089074
 30
0.0
 11
1694.013640746099
 21
302.6070181706
 31
0.0
  0
ARC
  5
4B7
330
1F
100
AcDbEntity
  8
0
370
    15
100
AcDbCircle
 10
1693.8558159517
 20
301.9359106656001
 30
0.0
 40
0.1897242020626637
100
AcDbArc
 50
0.3726795286
 51
35.9556488099
  0
ELLIPSE
  5
4B8
330
1F
100
AcDbEntity
  8
0
370
    15
100
AcDbEllipse
 10
1693.5423720085
 20
301.5221822924
 30
0.0
 11
0.5000240854583354
 21
0.0036976058236178
 31
0.0
210
0.0
220
0.0
230
1.0
 40
0.5722279310000002
 41
5.887601242228837
 42
6.661618872594022
  0
LINE
  5
4B9
330
1F
100
AcDbEntity
  8
0
370
    15
100
AcDbLine
 10
1694.0019876211
 20
301.0717718914
 30
0.0
 11
1694.0062349073
 21
301.631332553
 31
0.0
  0
ARC
  5
4BA
330
1F
100
AcDbEntity
  8
0
370
    15
100
AcDbCircle
 10
1693.8484112408
 20
300.9603736496
 30
0.0
 40
0.189724202059249
100
AcDbArc
 50
0.3726795283
 51
35.9556488102
  0
ELLIPSE
  5
4BB
330
1F
100
AcDbEntity
  8
0
370
    15
100
AcDbEllipse
 10
1693.5349661697
 20
300.5464966748
 30
0.0
 11
0.5000240854583354
 21
0.0036976058236178
 31
0.0
210
0.0
220
0.0
230
1.0
 40
0.5722279310000002
 41
5.887601242228837
 42
6.66161887259439
  0
LINE
  5
4BC
330
1F
100
AcDbEntity
  8
0
370
    15
100
AcDbLine
 10
1693.9988290684
 20
300.6556469354
 30
0.0
 11
1693.9945829101
 21
300.0962348754
 31
0.0
  0
ELLIPSE
  5
4BD
330
1F
100
AcDbEntity
  8
0
370
    15
100
AcDbEllipse
 10
1693.5672866034
 20
304.8045669616
 30
0.0
 11
0.4999858448543364
 21
-0.0037624013372692
 31
0.0
210
0.0
220
0.0
230
0.9999999999999998
 40
0.5722707683000002
 41
6.283147894880351
 42
7.072946909870705
  0
LINE
  5
4BE
330
1F
100
AcDbEntity
  8
0
370
    15
100
AcDbLine
 10
784.0977681131
 20
-154.1282999219
 30
0.0
 11
784.1008794619
 21
-154.5417982743
 31
0.0
  0
LINE
  5
4BF
330
1F
100
AcDbEntity
  8
0
370
    15
100
AcDbLine
 10
784.0977681131
 20
-154.1282999219
 30
0.0
 11
784.1672446727
 21
-154.1677077385
 31
0.0
  0
LINE
  5
4C0
330
1F
100
AcDbEntity
  8
0
370
    15
100
AcDbLine
 10
784.1672446727
 20
-154.1677077385
 30
0.0
 11
784.1629607658997
 21
-153.598376385
 31
0.0
  0
LINE
  5
4C1
330
1F
100
AcDbEntity
  8
0
370
    15
100
AcDbLine
 10
784.1629607658997
 20
-153.598376385
 30
0.0
 11
784.093473623
 21
-153.5575620571
 31
0.0
  0
LINE
  5
4C2
330
1F
100
AcDbEntity
  8
0
370
    15
100
AcDbLine
 10
784.0903634022001
 20
-153.1442136087
 30
0.0
 11
784.093473623
 21
-153.5575620571
 31
0.0
  0
LINE
  5
4C3
330
1F
100
AcDbEntity
  8
0
370
    15
100
AcDbLine
 10
784.0903634022001
 20
-153.1442136087
 30
0.0
 11
784.1598399617999
 21
-153.1836214252
 31
0.0
  0
LINE
  5
4C4
330
1F
100
AcDbEntity
  8
0
370
    15
100
AcDbLine
 10
784.1598399617999
 20
-153.1836214252
 30
0.0
 11
784.155554927
 21
-152.6141401679
 31
0.0
  0
LINE
  5
4C5
330
1F
100
AcDbEntity
  8
0
370
    15
100
AcDbLine
 10
784.155554927
 20
-152.6141401679
 30
0.0
 11
784.0860677841
 21
-152.5733258399
 31
0.0
  0
LINE
  5
4C6
330
1F
100
AcDbEntity
  8
0
370
    15
100
AcDbLine
 10
784.0829586911999
 20
-152.1601272954
 30
0.0
 11
784.0860677841
 21
-152.5733258399
 31
0.0
  0
LINE
  5
4C7
330
1F
100
AcDbEntity
  8
0
370
    15
100
AcDbLine
 10
784.0829586911999
 20
-152.1601272954
 30
0.0
 11
784.1524352509
 21
-152.199535112
 31
0.0
  0
LINE
  5
4C8
330
1F
100
AcDbEntity
  8
0
370
    15
100
AcDbLine
 10
784.1524352509
 20
-152.199535112
 30
0.0
 11
784.1481490881
 21
-151.6299039507
 31
0.0
  0
LINE
  5
4C9
330
1F
100
AcDbEntity
  8
0
370
    15
100
AcDbLine
 10
784.1481490881
 20
-151.6299039507
 30
0.0
 11
784.0786619453
 21
-151.5890896227
 31
0.0
  0
LINE
  5
4CA
330
1F
100
AcDbEntity
  8
0
370
    15
100
AcDbLine
 10
784.0755539803
 20
-151.1760409822
 30
0.0
 11
784.0786619453
 21
-151.5890896227
 31
0.0
  0
LINE
  5
4CB
330
1F
100
AcDbEntity
  8
0
370
    15
100
AcDbLine
 10
784.0755539803
 20
-151.1760409822
 30
0.0
 11
784.14503054
 21
-151.2154487988
 31
0.0
  0
LINE
  5
4CC
330
1F
100
AcDbEntity
  8
0
370
    15
100
AcDbLine
 10
784.1407432492999
 20
-150.6456677335
 30
0.0
 11
784.14503054
 21
-151.2154487988
 31
0.0
  0
LINE
  5
4CD
330
1F
100
AcDbEntity
  8
0
370
    15
100
AcDbLine
 10
784.1407432492999
 20
-150.6456677335
 30
0.0
 11
784.0712561064
 21
-150.6048534055
 31
0.0
  0
LINE
  5
4CE
330
1F
100
AcDbEntity
  8
0
370
    15
100
AcDbLine
 10
784.0675538441002
 20
-150.1128226309
 30
0.0
 11
784.0712561064
 21
-150.6048534055
 31
0.0
  0
LINE
  5
4CF
330
1F
100
AcDbEntity
  8
0
370
    15
100
AcDbLine
 10
784.0675538441002
 20
-150.1128226309
 30
0.0
 11
784.5720082076
 21
-150.4040379363
 31
0.0
  0
LINE
  5
4D0
330
1F
100
AcDbEntity
  8
0
370
    15
100
AcDbLine
 10
784.9858730833
 20
-150.6806714424
 30
0.0
 11
785.0232060744
 21
-155.6422271299
 31
0.0
  0
ARC
  5
4D1
330
1F
100
AcDbEntity
  8
0
370
    15
100
AcDbCircle
 10
809.9319009627
 20
-154.2231983685
 30
0.0
 40
24.94908262170133
100
AcDbArc
 50
183.2605711681
 51
228.4825240996
  0
LWPOLYLINE
  5
4D2
330
1F
100
AcDbEntity
  8
0
370
    15
100
AcDbPolyline
 90
       10
 70
   128
 43
0.0
 10
793.3944400214999
 20
-172.9039132714
 10
798.0346794813998
 20
-176.8308326036
 10
802.7291343277001
 20
-180.480600034
 10
807.4624416804999
 20
-183.8412714837
 10
812.2191115128
 20
-186.9018489577
 10
816.9835773424999
 20
-189.6523165359
 10
821.7402471747998
 20
-192.0836731512
 10
826.4735545276
 20
-194.187962046
 10
831.1680093738997
 20
-195.958296811
 10
835.8082488337
 20
-197.3888839215
  0
LWPOLYLINE
  5
4D3
330
1F
100
AcDbEntity
  8
0
370
    15
100
AcDbPolyline
 90
        9
 70
   128
 43
0.0
 10
835.8082488337
 20
-197.3888839215
 10
837.5336847313
 20
-197.6823849744
 10
839.1374504418999
 20
-197.591483315
 10
840.5769903169
 20
-197.1185910031
 10
841.8141064121
 20
-196.2762561553
 10
842.8159720638998
 20
-195.0868299827
 10
843.5560029385001
 20
-193.581873705
 10
844.0145624435
 20
-191.8013210795
 10
844.1794827808998
 20
-189.7924187653
  0
LINE
  5
4D4
330
1F
100
AcDbEntity
  8
0
370
    15
100
AcDbLine
 10
844.1794827808998
 20
-189.7924187653
 30
0.0
 11
844.1814090735
 21
-189.5386384715
 31
0.0
  0
LINE
  5
4D5
330
1F
100
AcDbEntity
  8
0
370
    15
100
AcDbLine
 10
845.0374306163
 20
-189.0444677535
 30
0.0
 11
845.0354441825998
 21
-189.3061713723
 31
0.0
  0
LINE
  5
4D6
330
1F
100
AcDbEntity
  8
0
370
    15
100
AcDbLine
 10
845.1049207421997
 20
-189.346979484
 30
0.0
 11
845.0354441825998
 21
-189.3061713723
 31
0.0
  0
LINE
  5
4D7
330
1F
100
AcDbEntity
  8
0
370
    15
100
AcDbLine
 10
845.1018088294999
 20
-189.7569598504
 30
0.0
 11
845.1049207421997
 21
-189.346979484
 31
0.0
  0
LINE
  5
4D8
330
1F
100
AcDbEntity
  8
0
370
    15
100
AcDbLine
 10
845.0323216866001
 20
-189.7175460309
 30
0.0
 11
845.1018088294999
 21
-189.7569598504
 31
0.0
  0
LINE
  5
4D9
330
1F
100
AcDbEntity
  8
0
370
    15
100
AcDbLine
 10
845.0280394716997
 20
-190.2817083883
 30
0.0
 11
845.0323216866001
 21
-189.7175460309
 31
0.0
  0
LINE
  5
4DA
330
1F
100
AcDbEntity
  8
0
370
    15
100
AcDbLine
 10
845.0975160313001
 20
-190.3225165
 30
0.0
 11
845.0280394716997
 21
-190.2817083883
 31
0.0
  0
LINE
  5
4DB
330
1F
100
AcDbEntity
  8
0
370
    15
100
AcDbLine
 10
845.0974470913001
 20
-190.3315990348
 30
0.0
 11
845.0975160313001
 21
-190.3225165
 31
0.0
  0
LWPOLYLINE
  5
4DC
330
1F
100
AcDbEntity
  8
0
370
    15
100
AcDbPolyline
 90
       10
 70
   128
 43
0.0
 10
836.0419974936998
 20
-198.5489547766
 10
837.7066948227
 20
-198.8516435158
 10
839.2715839596
 20
-198.8259394593
 10
840.7038404967
 20
-198.4723817637
 10
841.9734220676
 20
-197.7983864957
 10
843.0536985028
 20
-196.8180910756
 10
843.9220104117
 20
-195.5520577373
 10
844.5601444759999
 20
-194.0268422244
 10
844.9547154836
 20
-192.2744367684
 10
845.0974470913001
 20
-190.3315990348
  0
LWPOLYLINE
  5
4DD
330
1F
100
AcDbEntity
  8
0
370
    15
100
AcDbPolyline
 90
       10
 70
   128
 43
0.0
 10
793.1606913616
 20
-173.7941036684
 10
797.8520768885998
 20
-177.7643066461
 10
802.5982753797
 20
-181.4543028731
 10
807.3837546208999
 20
-184.8520166197
 10
812.1928538496
 20
-187.9463286675
 10
817.0098350055997
 20
-190.7271126982
 10
821.8189342344
 20
-193.1852684324
 10
826.6044134755997
 20
-195.3127514106
 10
831.3506119667
 20
-197.1025993196
 10
836.0419974936998
 20
-198.5489547766
  0
ARC
  5
4DE
330
1F
100
AcDbEntity
  8
0
370
    15
100
AcDbCircle
 10
811.0248537067999
 20
-153.5986478199
 30
0.0
 40
26.96265441732126
100
AcDbArc
 50
183.2378946522
 51
228.5052006155
  0
LINE
  5
4DF
330
1F
100
AcDbEntity
  8
0
370
    15
100
AcDbLine
 10
784.105172824
 20
-155.1123862351
 30
0.0
 11
784.105241764
 21
-155.1215483664
 31
0.0
  0
LINE
  5
4E0
330
1F
100
AcDbEntity
  8
0
370
    15
100
AcDbLine
 10
784.105172824
 20
-155.1123862351
 30
0.0
 11
784.1746493836
 21
-155.1517940517
 31
0.0
  0
LINE
  5
4E1
330
1F
100
AcDbEntity
  8
0
370
    15
100
AcDbLine
 10
784.1703666047
 20
-154.5826126022
 30
0.0
 11
784.1746493836
 21
-155.1517940517
 31
0.0
  0
LINE
  5
4E2
330
1F
100
AcDbEntity
  8
0
370
    15
100
AcDbLine
 10
784.1703666047
 20
-154.5826126022
 30
0.0
 11
784.1008794619
 21
-154.5417982743
 31
0.0
  0
ARC
  5
4E3
330
1F
100
AcDbEntity
  8
0
370
    15
100
AcDbCircle
 10
810.947437769
 20
-153.634803131
 30
0.0
 40
27.16709193139596
100
AcDbArc
 50
183.1416618169
 51
228.6014334507
  0
ARC
  5
4E4
330
1F
100
AcDbEntity
  8
0
370
    15
100
AcDbCircle
 10
783.9652826116998
 20
-155.3974316766
 30
0.0
 40
0.3093544328889369
100
AcDbArc
 50
63.10073324979999
 51
117.7640212881
  0
ARC
  5
4E5
330
1F
100
AcDbEntity
  8
0
370
    15
100
AcDbCircle
 10
792.771379602
 20
-173.6596587837
 30
0.0
 40
0.4118726419994723
100
AcDbArc
 50
300.7597339255
 51
340.9481639904
  0
ARC
  5
4E6
330
1F
100
AcDbEntity
  8
0
370
    15
100
AcDbCircle
 10
783.6827324007
 20
-169.3820363522
 30
0.0
 40
26.7519538686007
100
AcDbArc
 50
183.2378946522
 51
228.5052006155
  0
LINE
  5
4E7
330
1F
100
AcDbEntity
  8
0
370
    15
100
AcDbLine
 10
756.9734846498
 20
-170.8930361424
 30
0.0
 11
783.8211757025999
 21
-155.1236920852
 31
0.0
  0
LINE
  5
4E8
330
1F
100
AcDbEntity
  8
0
370
    15
100
AcDbLine
 10
765.9581701389997
 20
-189.4196741475999
 30
0.0
 11
792.9820273680998
 21
-174.0135889913
 31
0.0
  0
LWPOLYLINE
  5
4E9
330
1F
100
AcDbEntity
  8
0
370
    15
100
AcDbPolyline
 90
       10
 70
   128
 43
0.0
 10
835.9353505377999
 20
-198.8100146504
 10
831.2360860603
 20
-197.3612301107
 10
826.4819165630997
 20
-195.5683762404
 10
821.6884003456
 20
-193.4373202595
 10
816.871224472
 20
-190.9750361741999
 10
812.0461534339
 20
-188.1895819539
 10
807.2289775602
 20
-185.0900731617
 10
802.4354613427997
 20
-181.6866531225999
 10
797.6812918455
 20
-177.9904597289
 10
792.9820273680998
 20
-174.0135889913
  0
ARC
  5
4EA
330
1F
100
AcDbEntity
  8
0
370
    15
100
AcDbCircle
 10
835.7927957355999
 20
-198.5994654366999
 30
0.0
 40
0.2542692333355304
100
AcDbArc
 50
304.1004231179
 51
11.4580434651
  0
LWPOLYLINE
  5
4EB
330
1F
100
AcDbEntity
  8
0
370
    15
100
AcDbPolyline
 90
       10
 70
   128
 43
0.0
 10
765.9581701389997
 20
-189.4196741475999
 10
770.6442659508998
 20
-193.3854005708
 10
775.3851129232
 20
-197.0712361872
 10
780.1651963552
 20
-200.4651188827
 10
784.9688731421998
 20
-203.5559419764
 10
789.7804229692999
 20
-206.3335905677
 10
794.5840997563
 20
-208.788974638
 10
799.3641831883
 20
-210.9140587985
 10
804.1050301606
 20
-212.7018885861
 10
808.7911259725
 20
-214.1466132225
  0
LINE
  5
4EC
330
1F
100
AcDbEntity
  8
0
370
    15
100
AcDbLine
 10
808.7911259725
 20
-214.1466132225
 30
0.0
 11
835.9353505377999
 21
-198.8100146504
 31
0.0
  0
LINE
  5
4ED
330
1F
100
AcDbEntity
  8
0
370
    15
100
AcDbLine
 10
783.8211757025999
 20
-155.1236920852
 30
0.0
 11
783.8211067625999
 21
-155.1145299538999
 31
0.0
  0
ARC
  5
4EE
330
1F
100
AcDbEntity
  8
0
370
    15
100
AcDbCircle
 10
783.9652136717
 20
-155.3882695453
 30
0.0
 40
0.3093544328895057
100
AcDbArc
 50
63.1007332497
 51
117.764021288
  0
LINE
  5
4EF
330
1F
100
AcDbEntity
  8
0
370
    15
100
AcDbLine
 10
756.9734157097998
 20
-170.8838740111
 30
0.0
 11
756.9734846498
 21
-170.8930361424
 31
0.0
  0
LINE
  5
4F0
330
1F
100
AcDbEntity
  8
0
370
    15
100
AcDbLine
 10
783.8211067625999
 20
-155.1145299538999
 30
0.0
 11
756.9734157097998
 21
-170.8838740111
 31
0.0
  0
LINE
  5
4F1
330
1F
100
AcDbEntity
  8
0
370
    15
100
AcDbLine
 10
756.8619395255998
 20
-170.6274644066
 30
0.0
 11
756.8645955247998
 21
-170.9804467839
 31
0.0
  0
LINE
  5
4F2
330
1F
100
AcDbEntity
  8
0
370
    15
100
AcDbLine
 10
756.8619395255998
 20
-170.6274644066
 30
0.0
 11
784.1703666047
 21
-154.5826126022
 31
0.0
  0
ARC
  5
4F3
330
1F
100
AcDbEntity
  8
0
370
    15
100
AcDbCircle
 10
783.9578089607998
 20
-154.4041832321
 30
0.0
 40
0.3093544328894678
100
AcDbArc
 50
63.10073324979999
 51
117.764021288
  0
ELLIPSE
  5
4F4
330
1F
100
AcDbEntity
  8
0
370
    15
100
AcDbEllipse
 10
783.9594581055998
 20
-154.6234390854
 30
0.0
 11
0.2000094015190825
 21
-0.0015449916487285
 31
0.0
210
0.0
220
0.0
230
1.0
 40
0.5823034770000001
 41
0.7899533110549723
 42
2.369476284109828
  0
LINE
  5
4F5
330
1F
100
AcDbEntity
  8
0
370
    15
100
AcDbLine
 10
783.8167918597
 20
-154.5410792203
 30
0.0
 11
783.8137020517
 21
-154.1304436407
 31
0.0
  0
ELLIPSE
  5
4F6
330
1F
100
AcDbEntity
  8
0
370
    15
100
AcDbEllipse
 10
757.3258024244
 20
-170.5211077016
 30
0.0
 11
0.5000235037978201
 21
-0.0038624791218069
 31
0.0
210
0.0
220
0.0
230
0.9999999999999998
 40
0.5823034770000001
 41
2.369476284109576
 42
3.528755764837433
  0
LINE
  5
4F7
330
1F
100
AcDbEntity
  8
0
370
    15
100
AcDbLine
 10
756.9691368095
 20
-170.3152080387
 30
0.0
 11
783.8167918597
 21
-154.5410792203
 31
0.0
  0
LINE
  5
4F8
330
1F
100
AcDbEntity
  8
0
370
    15
100
AcDbLine
 10
783.8137020517
 20
-154.1304436407
 30
0.0
 11
756.9660109987998
 21
-169.8997876979
 31
0.0
  0
LINE
  5
4F9
330
1F
100
AcDbEntity
  8
0
370
    15
100
AcDbLine
 10
756.9660109987998
 20
-169.8997876979
 30
0.0
 11
756.9691368095
 21
-170.3152080387
 31
0.0
  0
LINE
  5
4FA
330
1F
100
AcDbEntity
  8
0
370
    15
100
AcDbLine
 10
756.8571908139
 20
-169.9963604707
 30
0.0
 11
756.8545336867999
 21
-169.6432281894
 31
0.0
  0
LINE
  5
4FB
330
1F
100
AcDbEntity
  8
0
370
    15
100
AcDbLine
 10
756.8545336867999
 20
-169.6432281894
 30
0.0
 11
784.1629607658997
 21
-153.598376385
 31
0.0
  0
ARC
  5
4FC
330
1F
100
AcDbEntity
  8
0
370
    15
100
AcDbCircle
 10
783.9504042499001
 20
-153.4200969189
 30
0.0
 40
0.3093544328897331
100
AcDbArc
 50
63.10073324979999
 51
117.764021288
  0
ELLIPSE
  5
4FD
330
1F
100
AcDbEntity
  8
0
370
    15
100
AcDbEllipse
 10
783.9520522667998
 20
-153.6392028683
 30
0.0
 11
0.2000094015190825
 21
-0.0015449916487285
 31
0.0
210
0.0
220
0.0
230
1.0
 40
0.5823034770000001
 41
0.7899533110548501
 42
2.36947628411047
  0
LINE
  5
4FE
330
1F
100
AcDbEntity
  8
0
370
    15
100
AcDbLine
 10
783.8093860208
 20
-153.5568430031
 30
0.0
 11
783.8062973408
 21
-153.1463573275
 31
0.0
  0
ELLIPSE
  5
4FF
330
1F
100
AcDbEntity
  8
0
370
    15
100
AcDbEllipse
 10
757.3183965855
 20
-169.5368714844
 30
0.0
 11
0.5000235037978201
 21
-0.0038624791218354
 31
0.0
210
0.0
220
0.0
230
0.9999999999999998
 40
0.5823034770000001
 41
2.36947628410962
 42
3.528755764837033
  0
LINE
  5
500
330
1F
100
AcDbEntity
  8
0
370
    15
100
AcDbLine
 10
756.9617309707
 20
-169.3309718216
 30
0.0
 11
783.8093860208
 21
-153.5568430031
 31
0.0
  0
LINE
  5
501
330
1F
100
AcDbEntity
  8
0
370
    15
100
AcDbLine
 10
783.8062973408
 20
-153.1463573275
 30
0.0
 11
756.9586062878999
 21
-168.9157013846999
 31
0.0
  0
LINE
  5
502
330
1F
100
AcDbEntity
  8
0
370
    15
100
AcDbLine
 10
756.9586062878999
 20
-168.9157013846999
 30
0.0
 11
756.9617309707
 21
-169.3309718216
 31
0.0
  0
LINE
  5
503
330
1F
100
AcDbEntity
  8
0
370
    15
100
AcDbLine
 10
756.849786103
 20
-169.0122741575
 30
0.0
 11
756.8471278478999
 21
-168.6589919722
 31
0.0
  0
LINE
  5
504
330
1F
100
AcDbEntity
  8
0
370
    15
100
AcDbLine
 10
756.8471278478999
 20
-168.6589919722
 30
0.0
 11
784.155554927
 21
-152.6141401679
 31
0.0
  0
ARC
  5
505
330
1F
100
AcDbEntity
  8
0
370
    15
100
AcDbCircle
 10
783.9429995389999
 20
-152.4360106056
 30
0.0
 40
0.3093544328896056
100
AcDbArc
 50
63.10073324979999
 51
117.764021288
  0
ELLIPSE
  5
506
330
1F
100
AcDbEntity
  8
0
370
    15
100
AcDbEllipse
 10
783.9446464278998
 20
-152.6549666511
 30
0.0
 11
0.2000094015190825
 21
-0.0015449916487285
 31
0.0
210
0.0
220
0.0
230
1.0
 40
0.5823034770000001
 41
0.7899533110551448
 42
2.369476284110174
  0
LINE
  5
507
330
1F
100
AcDbEntity
  8
0
370
    15
100
AcDbLine
 10
783.8019801819998
 20
-152.572606786
 30
0.0
 11
783.7988926299
 21
-152.1622710142
 31
0.0
  0
ELLIPSE
  5
508
330
1F
100
AcDbEntity
  8
0
370
    15
100
AcDbEllipse
 10
757.3109907466998
 20
-168.5526352672
 30
0.0
 11
0.5000235037978201
 21
-0.0038624791218069
 31
0.0
210
0.0
220
0.0
230
0.9999999999999998
 40
0.5823034770000001
 41
2.369476284109275
 42
3.528755764837153
  0
LINE
  5
509
330
1F
100
AcDbEntity
  8
0
370
    15
100
AcDbLine
 10
756.9543251317999
 20
-168.3467356044
 30
0.0
 11
783.8019801819998
 21
-152.572606786
 31
0.0
  0
LINE
  5
50A
330
1F
100
AcDbEntity
  8
0
370
    15
100
AcDbLine
 10
783.7988926299
 20
-152.1622710142
 30
0.0
 11
756.9512015769998
 21
-167.9316150714
 31
0.0
  0
LINE
  5
50B
330
1F
100
AcDbEntity
  8
0
370
    15
100
AcDbLine
 10
756.9512015769998
 20
-167.9316150714
 30
0.0
 11
756.9543251317999
 21
-168.3467356044
 31
0.0
  0
LINE
  5
50C
330
1F
100
AcDbEntity
  8
0
370
    15
100
AcDbLine
 10
756.8423813921
 20
-168.0281878442
 30
0.0
 11
756.8397220089999
 21
-167.6747557551
 31
0.0
  0
LINE
  5
50D
330
1F
100
AcDbEntity
  8
0
370
    15
100
AcDbLine
 10
756.8397220089999
 20
-167.6747557551
 30
0.0
 11
784.1481490881
 21
-151.6299039507
 31
0.0
  0
ARC
  5
50E
330
1F
100
AcDbEntity
  8
0
370
    15
100
AcDbCircle
 10
783.9355948280998
 20
-151.4519242924
 30
0.0
 40
0.3093544328899959
100
AcDbArc
 50
63.10073324979999
 51
117.764021288
  0
ELLIPSE
  5
50F
330
1F
100
AcDbEntity
  8
0
370
    15
100
AcDbEllipse
 10
783.9372405891
 20
-151.6707304339
 30
0.0
 11
0.2000094015190825
 21
-0.0015449916487285
 31
0.0
210
0.0
220
0.0
230
1.0
 40
0.5823034770000001
 41
0.7899533110545775
 42
2.369476284110171
  0
LINE
  5
510
330
1F
100
AcDbEntity
  8
0
370
    15
100
AcDbLine
 10
783.7945743430998
 20
-151.5883705688
 30
0.0
 11
783.7914879189999
 21
-151.178184701
 31
0.0
  0
ELLIPSE
  5
511
330
1F
100
AcDbEntity
  8
0
370
    15
100
AcDbEllipse
 10
757.3035849077998
 20
-167.56839905
 30
0.0
 11
0.5000235037978201
 21
-0.0038624791218069
 31
0.0
210
0.0
220
0.0
230
0.9999999999999998
 40
0.5823034770000001
 41
2.369476284109275
 42
3.528755764837334
  0
LINE
  5
512
330
1F
100
AcDbEntity
  8
0
370
    15
100
AcDbLine
 10
756.946919293
 20
-167.3624993872
 30
0.0
 11
783.7945743430998
 21
-151.5883705688
 31
0.0
  0
LINE
  5
513
330
1F
100
AcDbEntity
  8
0
370
    15
100
AcDbLine
 10
783.7914879189999
 20
-151.178184701
 30
0.0
 11
756.9437968661
 21
-166.9475287582
 31
0.0
  0
LINE
  5
514
330
1F
100
AcDbEntity
  8
0
370
    15
100
AcDbLine
 10
756.9437968661
 20
-166.9475287582
 30
0.0
 11
756.946919293
 21
-167.3624993872
 31
0.0
  0
LINE
  5
515
330
1F
100
AcDbEntity
  8
0
370
    15
100
AcDbLine
 10
756.8323161701998
 20
-166.6905195379
 30
0.0
 11
756.8349766811999
 21
-167.044101531
 31
0.0
  0
LINE
  5
516
330
1F
100
AcDbEntity
  8
0
370
    15
100
AcDbLine
 10
756.8323161701998
 20
-166.6905195379
 30
0.0
 11
784.1407432492999
 21
-150.6456677335
 31
0.0
  0
ELLIPSE
  5
517
330
1F
100
AcDbEntity
  8
0
370
    15
100
AcDbEllipse
 10
783.9261217175
 20
-150.1930320558
 30
0.0
 11
0.2000095702718454
 21
-0.0015048509627036
 31
0.0
210
0.0
220
0.0
230
1.0
 40
0.5721836153000001
 41
0.7896841472913341
 42
2.369207120345679
  0
ELLIPSE
  5
518
330
1F
100
AcDbEntity
  8
0
370
    15
100
AcDbEllipse
 10
783.9298347502
 20
-150.6864942167
 30
0.0
 11
0.2000094015190825
 21
-0.0015449916487285
 31
0.0
210
0.0
220
0.0
230
1.0
 40
0.5823034770000001
 41
0.7899533110544556
 42
2.36947628411012
  0
LINE
  5
519
330
1F
100
AcDbEntity
  8
0
370
    15
100
AcDbLine
 10
783.7871685042999
 20
-150.6041343516
 30
0.0
 11
783.7834661488
 21
-150.112091195
 31
0.0
  0
ELLIPSE
  5
51A
330
1F
100
AcDbEntity
  8
0
370
    15
100
AcDbEllipse
 10
757.2961790689999
 20
-166.5841628328
 30
0.0
 11
0.5000235037978201
 21
-0.0038624791218354
 31
0.0
210
0.0
220
0.0
230
0.9999999999999998
 40
0.5823034770000001
 41
2.369476284109459
 42
3.52875576483748
  0
LINE
  5
51B
330
1F
100
AcDbEntity
  8
0
370
    15
100
AcDbLine
 10
756.9395134541
 20
-166.37826317
 30
0.0
 11
783.7871685042999
 21
-150.6041343516
 31
0.0
  0
LINE
  5
51C
330
1F
100
AcDbEntity
  8
0
370
    15
100
AcDbLine
 10
756.9368435388001
 20
-166.0234313395
 30
0.0
 11
777.1953876252
 21
-153.9147152912
 31
0.0
  0
LINE
  5
51D
330
1F
100
AcDbEntity
  8
0
370
    15
100
AcDbLine
 10
777.1953876252
 20
-153.9147152912
 30
0.0
 11
783.7834661488
 21
-150.112091195
 31
0.0
  0
LINE
  5
51E
330
1F
100
AcDbEntity
  8
0
370
    15
100
AcDbLine
 10
756.9368435388001
 20
-166.0234313395
 30
0.0
 11
756.9395134541
 21
-166.37826317
 31
0.0
  0
LWPOLYLINE
  5
51F
330
1F
100
AcDbEntity
  8
0
370
    15
100
AcDbPolyline
 90
        9
 70
   128
 43
0.0
 10
765.6977233416998
 20
-189.2791648964
 10
765.68697511
 20
-189.3418050076
 10
765.6900721561997
 20
-189.3943075877
 10
765.7068967769998
 20
-189.4346772768999
 10
765.7368095528997
 20
-189.4613798259
 10
765.7786736492997
 20
-189.4734004046
 10
765.8308980217999
 20
-189.4702821711
 10
765.8914978839999
 20
-189.4521436338
 10
765.9581701389997
 20
-189.4196741475999
  0
ARC
  5
520
330
1F
100
AcDbEntity
  8
0
370
    15
100
AcDbCircle
 10
783.3536620002002
 20
-169.5108962292
 30
0.0
 40
26.50503001343017
100
AcDbArc
 50
187.3194029247
 51
228.2305110783
  0
ARC
  5
521
330
1F
100
AcDbEntity
  8
0
370
    15
100
AcDbCircle
 10
808.6419606091999
 20
-213.905693462
 30
0.0
 40
0.2833595536146057
100
AcDbArc
 50
255.7682319555
 51
301.7637024248
  0
ARC
  5
522
330
1F
100
AcDbEntity
  8
0
370
    15
100
AcDbCircle
 10
857.3959235092999
 20
-85.89764382130002
 30
0.0
 40
138.1893585403091
100
AcDbArc
 50
228.4273493403
 51
236.5736055921
  0
ELLIPSE
  5
523
330
1F
100
AcDbEntity
  8
0
370
    15
100
AcDbEllipse
 10
757.2934819906
 20
-166.2257210362
 30
0.0
 11
0.499985595599128
 21
0.0037953820268228
 31
0.0
210
0.0
220
0.0
230
1.0
 40
0.5823486168000001
 41
2.360557686338468
 42
3.141553912123004
  0
ARC
  5
524
330
1F
100
AcDbEntity
  8
0
370
    15
100
AcDbCircle
 10
757.0448563441998
 20
-167.1710862733
 30
0.0
 40
0.2453385022198438
100
AcDbArc
 50
114.3254117168
 51
175.0773561226
  0
ARC
  5
525
330
1F
100
AcDbEntity
  8
0
370
    15
100
AcDbCircle
 10
757.0522610550999
 20
-168.1551725865
 30
0.0
 40
0.2453385022202009
100
AcDbArc
 50
114.3254117168
 51
175.0773561226
  0
ARC
  5
526
330
1F
100
AcDbEntity
  8
0
370
    15
100
AcDbCircle
 10
757.0596657661
 20
-169.1392588998
 30
0.0
 40
0.2453385022206119
100
AcDbArc
 50
114.3254117169
 51
175.0773561225
  0
ARC
  5
527
330
1F
100
AcDbEntity
  8
0
370
    15
100
AcDbCircle
 10
757.067070477
 20
-170.123345213
 30
0.0
 40
0.245338502219797
100
AcDbArc
 50
114.3254117168
 51
175.0773561226
  0
ARC
  5
528
330
1F
100
AcDbEntity
  8
0
370
    15
100
AcDbCircle
 10
757.0744751878999
 20
-171.1074315262
 30
0.0
 40
0.2453385022204665
100
AcDbArc
 50
114.3254117169
 51
175.0773561226
  0
LWPOLYLINE
  5
529
330
1F
100
AcDbEntity
  8
0
370
    15
100
AcDbPolyline
 90
       10
 70
   128
 43
0.0
 10
845.0962022031999
 20
-190.4970119417
 10
844.9518092525998
 20
-192.4624635844
 10
844.5526455851
 20
-194.2352663886
 10
843.9070838775998
 20
-195.7782348433
 10
843.0286651407001
 20
-197.0590043391
 10
841.9358146892999
 20
-198.0507100336
 10
840.6514556607001
 20
-198.732550356
 10
839.2025281899
 20
-199.0902233317
 10
837.6194243249997
 20
-199.1162265739
 10
835.9353505377999
 20
-198.8100146504
  0
ARC
  5
52A
330
1F
100
AcDbEntity
  8
0
370
    15
100
AcDbCircle
 10
845.0548070102
 20
-190.4040308455
 30
0.0
 40
0.1017793999994182
100
AcDbArc
 50
293.9986329791
 51
353.9525517586
  0
ARC
  5
52B
330
1F
100
AcDbEntity
  8
0
370
    15
100
AcDbCircle
 10
810.9690616291997
 20
-207.4987103381
 30
0.0
 40
6.995571205106243
100
AcDbArc
 50
251.860560692
 51
297.4339519001
  0
ARC
  5
52C
330
1F
100
AcDbEntity
  8
0
370
    15
100
AcDbCircle
 10
824.8924850546
 20
-194.4325118509
 30
0.0
 40
10.35294412701797
100
AcDbArc
 50
346.0614799435
 51
358.5236194086
  0
ARC
  5
52D
330
1F
100
AcDbEntity
  8
0
370
    15
100
AcDbCircle
 10
823.9442270978999
 20
-194.8112271581
 30
0.0
 40
12.15516772832245
100
AcDbArc
 50
347.2165185162
 51
2.821967375199998
  0
ARC
  5
52E
330
1F
100
AcDbEntity
  8
0
370
    15
100
AcDbCircle
 10
845.0547152213001
 20
-190.4148710583
 30
0.0
 40
0.1017903422487431
100
AcDbArc
 50
5.1856218842
 51
65.1351000914
  0
LINE
  5
52F
330
1F
100
AcDbEntity
  8
0
370
    15
100
AcDbLine
 10
845.0304866185
 20
-189.9593079069
 30
0.0
 11
845.1005854822
 21
-189.919534855
 31
0.0
  0
ELLIPSE
  5
530
330
1F
100
AcDbEntity
  8
0
370
    15
100
AcDbEllipse
 10
844.9603874732
 20
-189.8386006616
 30
0.0
 11
0.2000096341832886
 21
0.0014790423294357
 31
0.0
210
0.0
220
0.0
230
1.0
 40
0.5722279310000002
 41
5.484886099346623
 42
7.064409072401628
  0
ARC
  5
531
330
1F
100
AcDbEntity
  8
0
370
    15
100
AcDbCircle
 10
845.0621199322
 20
-189.4393340423
 30
0.0
 40
0.101790342249756
100
AcDbArc
 50
5.185621884599998
 51
65.1351000912
  0
LWPOLYLINE
  5
532
330
1F
100
AcDbEntity
  8
0
370
    15
100
AcDbPolyline
 90
        3
 70
   128
 43
0.0
 10
834.8728957386999
 20
-194.9123288374
 10
834.7640795146
 20
-196.0485948318
 10
834.5595817457001
 20
-197.0358058098
  0
LWPOLYLINE
  5
533
330
1F
100
AcDbEntity
  8
0
370
    15
100
AcDbPolyline
 90
        3
 70
   128
 43
0.0
 10
833.6121600308
 20
-196.7521315226
 10
833.8689063439998
 20
-195.7798090429
 10
833.9255137785
 20
-195.4592408016999
  0
LINE
  5
534
330
1F
100
AcDbEntity
  8
0
370
    15
100
AcDbLine
 10
833.1915970600999
 20
-196.6218792593
 30
0.0
 11
833.5007197474
 21
-195.7044691759999
 31
0.0
  0
LWPOLYLINE
  5
535
330
1F
100
AcDbEntity
  8
0
370
    15
100
AcDbPolyline
 90
        3
 70
   128
 43
0.0
 10
832.7297942594
 20
-196.1495149872
 10
832.6943416128999
 20
-196.2308312792
 10
832.5986757072
 20
-196.4337503327
  0
ARC
  5
536
330
1F
100
AcDbEntity
  8
0
370
    15
100
AcDbCircle
 10
1633.9259717885
 20
338.9776841143
 30
0.0
 40
1.229617526328733
100
AcDbArc
 50
62.60967223659998
 51
117.3903277634
  0
LINE
  5
537
330
1F
100
AcDbEntity
  8
0
370
    15
100
AcDbLine
 10
1634.208814501
 20
339.9061713599
 30
0.0
 11
1634.4916572134
 21
340.0694529822
 31
0.0
  0
ARC
  5
538
330
1F
100
AcDbEntity
  8
0
370
    15
100
AcDbCircle
 10
1633.9259717885
 20
339.3602869259
 30
0.0
 40
0.6148087631648226
100
AcDbArc
 50
62.60967223659998
 51
117.3903277634
  0
LINE
  5
539
330
1F
100
AcDbEntity
  8
0
370
    15
100
AcDbLine
 10
1633.643129076
 20
339.9061713599
 30
0.0
 11
1633.3602863635
 21
340.0694529822
 31
0.0
  0
LINE
  5
53A
330
1F
100
AcDbEntity
  8
0
370
    15
100
AcDbLine
 10
1633.3602863635
 20
340.0694529822
 30
0.0
 11
1633.3602863635
 21
381.549726226
 31
0.0
  0
ARC
  5
53B
330
1F
100
AcDbEntity
  8
0
370
    15
100
AcDbCircle
 10
1633.9259717885
 20
380.4579573581
 30
0.0
 40
1.229617526329997
100
AcDbArc
 50
62.60967223659998
 51
117.3903277634
  0
LINE
  5
53C
330
1F
100
AcDbEntity
  8
0
370
    15
100
AcDbLine
 10
1634.4916572134
 20
381.549726226
 30
0.0
 11
1634.4916572134
 21
340.0694529822
 31
0.0
  0
ARC
  5
53D
330
1F
100
AcDbEntity
  8
0
370
    15
100
AcDbCircle
 10
1633.303544724
 20
340.1161651931
 30
0.0
 40
1.189030410933317
100
AcDbArc
 50
325.0956773145
 51
357.7485004201
  0
ARC
  5
53E
330
1F
100
AcDbEntity
  8
0
370
    15
100
AcDbCircle
 10
1633.5962025434
 20
339.9345833946
 30
0.0
 40
0.6132704577133456
100
AcDbArc
 50
321.491404903
 51
357.3446094484
  0
ARC
  5
53F
330
1F
100
AcDbEntity
  8
0
370
    15
100
AcDbCircle
 10
1691.9771571796
 20
306.240690437
 30
0.0
 40
1.205492457201692
100
AcDbArc
 50
325.3247320549002
 51
357.5194456796
  0
LINE
  5
540
330
1F
100
AcDbEntity
  8
0
370
    15
100
AcDbLine
 10
1634.4916572134
 20
340.0694529822
 30
0.0
 11
1693.1815200519
 21
306.1885163416
 31
0.0
  0
LINE
  5
541
330
1F
100
AcDbEntity
  8
0
370
    15
100
AcDbLine
 10
1633.4931703444
 20
339.8196020268
 30
0.0
 11
1633.643129076
 21
339.9061713599
 31
0.0
  0
LINE
  5
542
330
1F
100
AcDbEntity
  8
0
370
    15
100
AcDbLine
 10
1633.1987807397
 20
339.9762177702
 30
0.0
 11
1633.3602863635
 21
340.0694529822
 31
0.0
  0
LINE
  5
543
330
1F
100
AcDbEntity
  8
0
370
    15
100
AcDbLine
 10
1693.1815200519
 20
347.6687895854
 30
0.0
 11
1634.4916572134
 21
381.549726226
 31
0.0
  0
LINE
  5
544
330
1F
100
AcDbEntity
  8
0
370
    15
100
AcDbLine
 10
1693.1815200519
 20
306.1885163416
 30
0.0
 11
1693.1815200519
 21
347.6687895854
 31
0.0
  0
LINE
  5
545
330
1F
100
AcDbEntity
  8
0
370
    15
100
AcDbLine
 10
1670.9076564446
 20
352.2801551465
 30
0.0
 11
1670.9076564446
 21
360.4455632654
 31
0.0
  0
LINE
  5
546
330
1F
100
AcDbEntity
  8
0
370
    15
100
AcDbLine
 10
1670.9076564446
 20
360.4455632654
 30
0.0
 11
1656.7655208208
 21
368.6096443836
 31
0.0
  0
LINE
  5
547
330
1F
100
AcDbEntity
  8
0
370
    15
100
AcDbLine
 10
1656.7655208208
 20
368.6096443836
 30
0.0
 11
1656.7655208208
 21
360.4442362648001
 31
0.0
  0
LWPOLYLINE
  5
548
330
1F
100
AcDbEntity
  8
0
370
    15
100
AcDbPolyline
 90
       17
 70
   128
 43
0.0
 10
1656.7655208208
 20
360.4442362648001
 10
1656.9013894061
 20
358.7728089007
 10
1657.3037738083
 20
357.0087430235
 10
1657.957210620599
 20
355.2198306954
 10
1658.8365886327
 20
353.4748188141001
 10
1659.9081138407
 20
351.8407672074
 10
1661.130608132
 20
350.3804715623
 10
1662.4570917363
 20
349.1500502214
 10
1663.836588632699
 20
348.1967875868
 10
1665.2160855291
 20
347.557317007
 10
1666.5425691334
 20
347.2562129778
 10
1667.7650634246
 20
347.3050467581
 10
1668.8365886327
 20
347.7019416932
 10
1669.7159666448
 20
348.4316453333
 10
1670.3694034571
 20
349.4661155766
 10
1670.771787859299
 20
350.7655983119999
 10
1670.9076564446
 20
352.2801551465
  0
ARC
  5
549
330
1F
100
AcDbEntity
  8
0
370
    15
100
AcDbCircle
 10
1634.1467977195
 20
381.6056679835
 30
0.0
 40
0.3493673579428628
100
AcDbArc
 50
350.7859630096
 51
129.2032852357
  0
ARC
  5
54A
330
1F
100
AcDbEntity
  8
0
370
    15
100
AcDbCircle
 10
1692.7895185309
 20
347.7120589757
 30
0.0
 40
0.3943823431542965
100
AcDbArc
 50
353.7011524087
 51
54.9866671981
  0
LINE
  5
54B
330
1F
100
AcDbEntity
  8
0
370
    15
100
AcDbLine
 10
1633.9259717885
 20
381.8763956308
 30
0.0
 11
1633.6430831024
 21
381.7130874684
 31
0.0
  0
ARC
  5
54C
330
1F
100
AcDbEntity
  8
0
370
    15
100
AcDbCircle
 10
1665.9369267427
 20
351.6984673675
 30
0.0
 40
4.929779300234512
100
AcDbArc
 50
305.0133328764
 51
6.298847517
  0
LINE
  5
54D
330
1F
100
AcDbEntity
  8
0
370
    15
100
AcDbLine
 10
1670.8369457664
 20
352.2393347408999
 30
0.0
 11
1670.9076564446
 21
352.2801551465
 31
0.0
  0
LINE
  5
54E
330
1F
100
AcDbEntity
  8
0
370
    15
100
AcDbLine
 10
1670.8369457664
 20
360.4047428598
 30
0.0
 11
1656.7655208208
 21
368.5280035724
 31
0.0
  0
LINE
  5
54F
330
1F
100
AcDbEntity
  8
0
370
    15
100
AcDbLine
 10
1670.8369457664
 20
352.2393347408999
 30
0.0
 11
1670.8369457664
 21
360.4047428598
 31
0.0
  0
LINE
  5
550
330
1F
100
AcDbEntity
  8
0
370
    15
100
AcDbLine
 10
1670.8369457664
 20
360.4047428598
 30
0.0
 11
1670.9076564446
 21
360.4455632654
 31
0.0
  0
ARC
  5
551
330
1F
100
AcDbEntity
  8
0
370
    15
100
AcDbCircle
 10
1693.0575784305
 20
305.8619530969
 30
0.0
 40
0.3492922534676276
100
AcDbArc
 50
290.7834207996
 51
69.21657920040001
  0
ARC
  5
552
330
1F
100
AcDbEntity
  8
0
370
    15
100
AcDbCircle
 10
1693.015468977
 20
347.3023012391
 30
0.0
 40
0.4023514227952156
100
AcDbArc
 50
5.6947992512
 51
65.62534170640001
  0
LINE
  5
553
330
1F
100
AcDbEntity
  8
0
370
    15
100
AcDbLine
 10
1693.0918910295
 20
305.4836481188
 30
0.0
 11
1693.1815200519
 21
305.5353898521
 31
0.0
  0
LINE
  5
554
330
1F
100
AcDbEntity
  8
0
370
    15
100
AcDbLine
 10
1632.8653116167
 20
340.3551958214
 30
0.0
 11
757.1842737953
 21
-165.1647070193
 31
0.0
  0
ARC
  5
555
330
1F
100
AcDbEntity
  8
0
370
    15
100
AcDbCircle
 10
1634.0455210125
 20
340.4006565872
 30
0.0
 40
1.181084628261082
100
AcDbArc
 50
182.2058991738
 51
213.3783261755
  0
ARC
  5
556
330
1F
100
AcDbEntity
  8
0
370
    15
100
AcDbCircle
 10
758.3625606983
 20
-165.1195534102
 30
0.0
 40
1.179151760445067
100
AcDbArc
 50
182.1945808975
 51
213.0245476539
  0
ARC
  5
557
330
1F
100
AcDbEntity
  8
0
370
    15
100
AcDbCircle
 10
1633.7636085166
 20
340.2207489802
 30
0.0
 40
0.6161292895641887
100
AcDbArc
 50
182.6824158065
 51
220.6197997495
  0
LINE
  5
558
330
1F
100
AcDbEntity
  8
0
370
    15
100
AcDbLine
 10
1632.8653116167
 20
340.3551958214
 30
0.0
 11
1633.1481543292
 21
340.191914199
 31
0.0
  0
LINE
  5
559
330
1F
100
AcDbEntity
  8
0
370
    15
100
AcDbLine
 10
1632.8653116167
 20
381.5088527404
 30
0.0
 11
757.1842737953
 21
-124.0110501002
 31
0.0
  0
LINE
  5
55A
330
1F
100
AcDbEntity
  8
0
370
    15
100
AcDbLine
 10
1632.8653116167
 20
340.3551958214
 30
0.0
 11
1632.8653116167
 21
381.5088527404
 31
0.0
  0
LINE
  5
55B
330
1F
100
AcDbEntity
  8
0
370
    15
100
AcDbLine
 10
757.1842737953
 20
-165.1647070193
 30
0.0
 11
757.1842737953
 21
-124.0110501002
 31
0.0
  0
LINE
  5
55C
330
1F
100
AcDbEntity
  8
0
370
    15
100
AcDbLine
 10
1633.1481543292
 20
381.345571118
 30
0.0
 11
1632.8653116167
 21
381.5088527404
 31
0.0
  0
LINE
  5
55D
330
1F
100
AcDbEntity
  8
0
370
    15
100
AcDbLine
 10
1633.1481543292
 20
340.191914199
 30
0.0
 11
1633.1481543292
 21
381.345571118
 31
0.0
  0
LWPOLYLINE
  5
55E
330
1F
100
AcDbEntity
  8
0
370
    15
100
AcDbPolyline
 90
        8
 70
   128
 43
0.0
 10
1633.1481543292
 20
381.345571118
 10
1633.1535890726
 20
381.4061533914
 10
1633.1696844487
 20
381.4581327008
 10
1633.1958219212
 20
381.4995115106
 10
1633.2309970417
 20
381.5286996562
 10
1633.27385805
 20
381.5445754536
 10
1633.3227578216
 20
381.5465288048001
 10
1633.3602863635
 20
381.5393547979
  0
ARC
  5
55F
330
1F
100
AcDbEntity
  8
0
370
    15
100
AcDbCircle
 10
1633.2101711107
 20
381.5647944979
 30
0.0
 40
0.349367357942752
100
AcDbArc
 50
50.7967147643
 51
189.2140369905
  0
ARC
  5
560
330
1F
100
AcDbEntity
  8
0
370
    15
100
AcDbCircle
 10
757.5648222399
 20
-123.9625988773
 30
0.0
 40
0.3836204370603353
100
AcDbArc
 50
124.056350825
 51
187.2558295684
  0
LINE
  5
561
330
1F
100
AcDbEntity
  8
0
370
    15
100
AcDbLine
 10
1633.4309970417
 20
381.8355221451999
 30
0.0
 11
1633.7189890718
 21
381.669267885
 31
0.0
  0
LINE
  5
562
330
1F
100
AcDbEntity
  8
0
370
    15
100
AcDbLine
 10
1693.6764947988
 20
305.249647013
 30
0.0
 11
1693.6693514485
 21
305.1502873147
 31
0.0
  0
LWPOLYLINE
  5
563
330
1F
100
AcDbEntity
  8
0
370
    15
100
AcDbPolyline
 90
        3
 70
   128
 43
0.0
 10
1693.3936520863
 20
305.4129286353
 10
1693.3882173429
 20
305.352346362
 10
1693.3790802243
 20
305.3178573257
  0
LINE
  5
564
330
1F
100
AcDbEntity
  8
0
370
    15
100
AcDbLine
 10
1693.3936520863
 20
305.4129286353
 30
0.0
 11
1693.6764947988
 21
305.249647013
 31
0.0
  0
LINE
  5
565
330
1F
100
AcDbEntity
  8
0
370
    15
100
AcDbLine
 10
1693.3936520863
 20
305.7539524552
 30
0.0
 11
1693.3936520863
 21
305.4129286353
 31
0.0
  0
LINE
  5
566
330
1F
100
AcDbEntity
  8
0
370
    15
100
AcDbLine
 10
1693.6764947988
 20
346.403303932
 30
0.0
 11
1693.6764947988
 21
305.249647013
 31
0.0
  0
ARC
  5
567
330
1F
100
AcDbEntity
  8
0
370
    15
100
AcDbCircle
 10
1692.4523327982
 20
346.3466496471
 30
0.0
 40
1.225472281043304
100
AcDbArc
 50
2.649761124399999
 51
38.1655122713
  0
LWPOLYLINE
  5
568
330
1F
100
AcDbEntity
  8
0
370
    15
100
AcDbPolyline
 90
        3
 70
   128
 43
0.0
 10
1676.5828419252
 20
295.1627582697
 10
1680.4966468167
 20
293.7095136659
 10
1685.1630452524
 20
292.2708617359
  0
LINE
  5
569
330
1F
100
AcDbEntity
  8
0
370
    15
100
AcDbLine
 10
1633.7889516934
 20
334.8771484288
 30
0.0
 11
1633.7938353366
 21
334.5844848719
 31
0.0
  0
ARC
  5
56A
330
1F
100
AcDbEntity
  8
0
370
    15
100
AcDbCircle
 10
1605.800605193399
 20
319.2850551244
 30
0.0
 40
0.0960867505153937
100
AcDbArc
 50
112.028346661
 51
176.0342092605
  0
ARC
  5
56B
330
1F
100
AcDbEntity
  8
0
370
    15
100
AcDbCircle
 10
1693.7879781792
 20
299.9615786244
 30
0.0
 40
0.2431654087468098
100
AcDbArc
 50
3.6235509637
 51
66.6834750385
  0
ARC
  5
56C
330
1F
100
AcDbEntity
  8
0
370
    15
100
AcDbCircle
 10
757.0775045447
 20
-171.1186977317
 30
0.0
 40
0.2484819740673471
100
AcDbArc
 50
114.7475871102
 51
174.6375098072
  0
ARC
  5
56D
330
1F
100
AcDbEntity
  8
0
370
    15
100
AcDbCircle
 10
845.0546462811999
 20
-190.4239535931
 30
0.0
 40
0.1017903422490566
100
AcDbArc
 50
5.185621884399998
 51
65.1351000914
  0
LINE
  5
56E
330
1F
100
AcDbEntity
  8
0
370
    15
100
AcDbLine
 10
836.0904643374999
 20
-194.3806091264
 30
0.0
 11
844.1794827808998
 21
-189.7924187653
 31
0.0
  0
LINE
  5
56F
330
1F
100
AcDbEntity
  8
0
370
    15
100
AcDbLine
 10
834.7354727336
 20
-197.0441002983
 30
0.0
 11
834.9405842204998
 21
-196.9263352707
 31
0.0
  0
LWPOLYLINE
  5
570
330
1F
100
AcDbEntity
  8
0
370
    15
100
AcDbPolyline
 90
        3
 70
   128
 43
0.0
 10
834.3861851352
 20
-195.1933008882
 10
834.2851708922998
 20
-195.8283355806
 10
834.0059352872
 20
-196.8716787322
  0
LWPOLYLINE
  5
571
330
1F
100
AcDbEntity
  8
0
370
    15
100
AcDbPolyline
 90
        3
 70
   128
 43
0.0
 10
834.4883146592
 20
-197.0149388052
 10
834.7704950403999
 20
-195.7642820284
 10
834.8620751487001
 20
-194.9185754311
  0
LINE
  5
572
330
1F
100
AcDbEntity
  8
0
370
    15
100
AcDbLine
 10
792.9745524883998
 20
-172.5237181239
 30
0.0
 11
1613.904927106
 21
301.3892996206
 31
0.0
  0
LINE
  5
573
330
1F
100
AcDbEntity
  8
0
370
    15
100
AcDbLine
 10
785.9349381081
 20
-161.1752719865
 30
0.0
 11
1606.8982622606
 21
312.7567671197
 31
0.0
  0
LINE
  5
574
330
1F
100
AcDbEntity
  8
0
370
    15
100
AcDbLine
 10
830.5624800688001
 20
-195.7479606434
 30
0.0
 11
1651.0716969269
 21
277.9219279017
 31
0.0
  0
LINE
  5
575
330
1F
100
AcDbEntity
  8
0
370
    15
100
AcDbLine
 10
1633.9259717885
 20
381.684993151
 30
0.0
 11
1633.9259717885
 21
381.8763956308
 31
0.0
  0
LINE
  5
576
330
1F
100
AcDbEntity
  8
0
370
    15
100
AcDbLine
 10
1693.0158671313
 20
305.6310192477
 30
0.0
 11
1693.1815200519
 21
305.5353898521
 31
0.0
  0
LINE
  5
577
330
1F
100
AcDbEntity
  8
0
370
    15
100
AcDbLine
 10
1605.800799053
 20
323.4248261458
 30
0.0
 11
784.7614382616
 21
-150.5511079777
 31
0.0
  0
LINE
  5
578
330
1F
100
AcDbEntity
  8
0
370
    15
100
AcDbLine
 10
785.0265704219
 20
-155.8679847887
 30
0.0
 11
1605.8181855373
 21
317.9649288003
 31
0.0
  0
LINE
  5
579
330
1F
100
AcDbEntity
  8
0
370
    15
100
AcDbLine
 10
1633.4309970417
 20
381.8355221451999
 30
0.0
 11
1633.4309970417
 21
381.5859826824
 31
0.0
  0
LINE
  5
57A
330
1F
100
AcDbEntity
  8
0
370
    15
100
AcDbLine
 10
1693.3936520863
 20
305.4129286353
 30
0.0
 11
1693.3040230639
 21
305.3611869021
 31
0.0
  0
LINE
  5
57B
330
1F
100
AcDbEntity
  8
0
370
    15
100
AcDbLine
 10
1693.6764947988
 20
346.403303932
 30
0.0
 11
1693.415834627
 21
346.5537798462
 31
0.0
  0
ENDSEC
  0
SECTION
  2
OBJECTS
  0
DICTIONARY
  5
C
330
0
100
AcDbDictionary
281
     1
  3
ACAD_CIP_PREVIOUS_PRODUCT_INFO
350
7A2
  3
ACAD_COLOR
350
796
  3
ACAD_DETAILVIEWSTYLE
350
79D
  3
ACAD_GROUP
350
D
  3
ACAD_LAYOUT
350
1A
  3
ACAD_MATERIAL
350
764
  3
ACAD_MLEADERSTYLE
350
799
  3
ACAD_MLINESTYLE
350
17
  3
ACAD_PLOTSETTINGS
350
19
  3
ACAD_PLOTSTYLENAME
350
E
  3
ACAD_SCALELIST
350
47
  3
ACAD_SECTIONVIEWSTYLE
350
79B
  3
ACAD_TABLESTYLE
350
797
  3
ACAD_VISUALSTYLE
350
77D
  3
ACDB_RECOMPOSE_DATA
350
802
  3
AcDbVariableDictionary
350
7B1
  3
DWGPROPS
350
803
  0
DICTIONARY
  5
7A9
330
10
100
AcDbDictionary
280
     1
281
     1
  3
ADSK_XREC_LAYER_RECONCILED
360
7AA
  0
DICTIONARY
  5
7AB
330
6F
100
AcDbDictionary
280
     1
281
     1
  3
ADSK_XREC_LAYER_RECONCILED
360
7AC
  0
DICTIONARY
  5
7AD
330
70
100
AcDbDictionary
280
     1
281
     1
  3
ADSK_XREC_LAYER_RECONCILED
360
7AE
  0
DICTIONARY
  5
7AF
330
71
100
AcDbDictionary
280
     1
281
     1
  3
ADSK_XREC_LAYER_RECONCILED
360
7B0
  0
XRECORD
  5
7A2
102
{ACAD_REACTORS
330
C
102
}
330
C
100
AcDbXrecord
280
     1
300
ACDLT
300
2013
300
ACDLT_F_S
  0
DICTIONARY
  5
796
102
{ACAD_REACTORS
330
C
102
}
330
C
100
AcDbDictionary
281
     1
  0
DICTIONARY
  5
79D
102
{ACAD_REACTORS
330
C
102
}
330
C
100
AcDbDictionary
281
     1
  3
Metric50
350
79E
  0
DICTIONARY
  5
D
102
{ACAD_REACTORS
330
C
102
}
330
C
100
AcDbDictionary
281
     1
  0
DICTIONARY
  5
1A
102
{ACAD_REACTORS
330
C
102
}
330
C
100
AcDbDictionary
281
     1
  3
Layout1
350
1E
  3
Layout2
350
26
  3
Model
350
22
  0
DICTIONARY
  5
764
102
{ACAD_REACTORS
330
C
102
}
330
C
100
AcDbDictionary
281
     1
  3
ByBlock
350
76D
  3
ByLayer
350
765
  3
Global
350
775
  0
DICTIONARY
  5
799
102
{ACAD_REACTORS
330
C
102
}
330
C
100
AcDbDictionary
281
     1
  3
Standard
350
79A
  0
DICTIONARY
  5
17
102
{ACAD_REACTORS
330
C
102
}
330
C
100
AcDbDictionary
281
     1
  3
Standard
350
18
  0
DICTIONARY
  5
19
102
{ACAD_REACTORS
330
C
102
}
330
C
100
AcDbDictionary
281
     1
  0
ACDBDICTIONARYWDFLT
  5
E
102
{ACAD_REACTORS
330
C
102
}
330
C
100
AcDbDictionary
281
     1
  3
Normal
350
F
100
AcDbDictionaryWithDefault
340
F
  0
DICTIONARY
  5
47
102
{ACAD_REACTORS
330
C
102
}
330
C
100
AcDbDictionary
281
     1
  3
A0
350
48
  3
A1
350
49
  3
A2
350
4A
  3
A3
350
4B
  3
A4
350
4C
  3
A5
350
4D
  3
A6
350
4E
  3
A7
350
4F
  3
A8
350
50
  3
A9
350
51
  3
B0
350
52
  3
B1
350
53
  3
B2
350
54
  3
B3
350
55
  3
B4
350
56
  3
B5
350
57
  3
B6
350
58
  3
B7
350
59
  3
B8
350
5A
  3
B9
350
5B
  3
C0
350
5C
  3
C1
350
5D
  3
C2
350
5E
  3
C3
350
5F
  3
C4
350
60
  3
C5
350
61
  3
C6
350
62
  3
C7
350
63
  3
C8
350
64
  3
C9
350
65
  3
D0
350
66
  3
D1
350
67
  3
D2
350
68
  0
DICTIONARY
  5
79B
102
{ACAD_REACTORS
330
C
102
}
330
C
100
AcDbDictionary
281
     1
  3
Metric50
350
79C
  0
DICTIONARY
  5
797
102
{ACAD_REACTORS
330
C
102
}
330
C
100
AcDbDictionary
281
     1
  3
Standard
350
798
  0
DICTIONARY
  5
77D
102
{ACAD_REACTORS
330
C
102
}
330
C
100
AcDbDictionary
281
     1
  3
2dWireframe
350
783
  3
Basic
350
782
  3
Brighten
350
789
  3
ColorChange
350
78D
  3
Conceptual
350
786
  3
Dim
350
788
  3
EdgeColorOff
350
795
  3
Facepattern
350
78C
  3
Flat
350
77E
  3
FlatWithEdges
350
77F
  3
Gouraud
350
780
  3
GouraudWithEdges
350
781
  3
Hidden
350
785
  3
JitterOff
350
793
  3
Linepattern
350
78B
  3
OverhangOff
350
794
  3
Realistic
350
787
  3
Shaded
350
792
  3
Shaded with edges
350
791
  3
Shades of Gray
350
78E
  3
Sketchy
350
78F
  3
Thicken
350
78A
  3
Wireframe
350
784
  3
X-Ray
350
790
  0
XRECORD
  5
802
102
{ACAD_REACTORS
330
C
102
}
330
C
100
AcDbXrecord
280
     1
 90
        1
330
798
  0
DICTIONARY
  5
7B1
102
{ACAD_REACTORS
330
C
102
}
330
C
100
AcDbDictionary
281
     1
  3
CANNOSCALE
350
7B6
  3
CMLEADERSTYLE
350
7B3
  3
CTABLESTYLE
350
7B2
  3
CVIEWDETAILSTYLE
350
7B4
  3
CVIEWSECTIONSTYLE
350
7B5
  3
DIMASSOC
350
7B9
  3
INDEXCTL
350
7B8
  3
SORTENTS
350
7B7
  3
XCLIPFRAME
350
800
  0
XRECORD
  5
803
102
{ACAD_REACTORS
330
C
102
}
330
C
100
AcDbXrecord
280
     1
  1
DWGPROPS COOKIE
  2

  3

  4

  6

  7

  8
j00675
  9

300
=
301
=
302
=
303
=
304
=
305
=
306
=
307
=
308
=
309
=
 40
0.0012760185185185
 41
2457511.585269699
 42
2457511.588483692
  1

 90
        0
  0
XRECORD
  5
7AA
102
{ACAD_REACTORS
330
7A9
102
}
330
7A9
100
AcDbXrecord
280
     1
290
     1
  0
XRECORD
  5
7AC
102
{ACAD_REACTORS
330
7AB
102
}
330
7AB
100
AcDbXrecord
280
     1
290
     1
  0
XRECORD
  5
7AE
102
{ACAD_REACTORS
330
7AD
102
}
330
7AD
100
AcDbXrecord
280
     1
290
     1
  0
XRECORD
  5
7B0
102
{ACAD_REACTORS
330
7AF
102
}
330
7AF
100
AcDbXrecord
280
     1
290
     1
  0
ACDBDETAILVIEWSTYLE
  5
79E
102
{ACAD_REACTORS
330
79D
102
}
330
79D
100
AcDbModelDocViewStyle
 70
     0
  3
Metric50
290
     0
100
AcDbDetailViewStyle
 70
     0
 71
     0
 90
        3
 71
     1
340
11
 40
5.0
340
0
 40
5.0
300

 40
0.0
280
     1
 71
     2
340
16
 90
       25
 71
     3
340
11
 40
5.0
 90
        0
 40
15.0
 90
        1
300
%<\AcVar ViewDetailId>% (%<\AcVar ViewScale \f "%sn">%)
 71
     4
340
16
 90
       25
340
16
 90
       25
280
     0
  0
LAYOUT
  5
1E
102
{ACAD_XDICTIONARY
360
804
102
}
102
{ACAD_REACTORS
330
1A
102
}
330
1A
100
AcDbPlotSettings
  1

  2
none_device
  4

  6

 40
0.0
 41
0.0
 42
0.0
 43
0.0
 44
0.0
 45
0.0
 46
0.0
 47
0.0
 48
0.0
 49
0.0
140
0.0
141
0.0
142
1.0
143
1.0
 70
   688
 72
     1
 73
     0
 74
     5
  7

 75
    16
147
1.0
148
0.0
149
0.0
100
AcDbLayout
  1
Layout1
 70
     1
 71
     1
 10
0.0
 20
0.0
 11
420.0
 21
297.0
 12
0.0
 22
0.0
 32
0.0
 14
1.000000000000000E+20
 24
1.000000000000000E+20
 34
1.000000000000000E+20
 15
-1.000000000000000E+20
 25
-1.000000000000000E+20
 35
-1.000000000000000E+20
146
0.0
 13
0.0
 23
0.0
 33
0.0
 16
1.0
 26
0.0
 36
0.0
 17
0.0
 27
1.0
 37
0.0
 76
     0
330
1B
  0
LAYOUT
  5
26
102
{ACAD_XDICTIONARY
360
808
102
}
102
{ACAD_REACTORS
330
1A
102
}
330
1A
100
AcDbPlotSettings
  1

  2
none_device
  4

  6

 40
0.0
 41
0.0
 42
0.0
 43
0.0
 44
0.0
 45
0.0
 46
0.0
 47
0.0
 48
0.0
 49
0.0
140
0.0
141
0.0
142
1.0
143
1.0
 70
   688
 72
     1
 73
     0
 74
     5
  7

 75
    16
147
1.0
148
0.0
149
0.0
100
AcDbLayout
  1
Layout2
 70
     1
 71
     2
 10
0.0
 20
0.0
 11
0.0
 21
0.0
 12
0.0
 22
0.0
 32
0.0
 14
0.0
 24
0.0
 34
0.0
 15
0.0
 25
0.0
 35
0.0
146
0.0
 13
0.0
 23
0.0
 33
0.0
 16
1.0
 26
0.0
 36
0.0
 17
0.0
 27
1.0
 37
0.0
 76
     0
330
23
  0
LAYOUT
  5
22
102
{ACAD_XDICTIONARY
360
806
102
}
102
{ACAD_REACTORS
330
1A
102
}
330
1A
100
AcDbPlotSettings
  1

  2
none_device
  4
Letter_(8.50_x_11.00_Inches)
  6

 40
6.349999999999998
 41
6.349999999999998
 42
6.350005079999998
 43
6.350005079999998
 44
215.9
 45
279.4
 46
0.0
 47
0.0
 48
0.0
 49
0.0
140
0.0
141
0.0
142
1.0
143
1.0
 70
  1712
 72
     1
 73
     0
 74
     0
  7

 75
     0
147
1.0
148
0.0
149
0.0
100
AcDbLayout
  1
Model
 70
     1
 71
     0
 10
0.0
 20
0.0
 11
420.0
 21
297.0
 12
0.0
 22
0.0
 32
0.0
 14
0.0
 24
0.0
 34
0.0
 15
420.0
 25
297.0
 35
0.0
146
0.0
 13
0.0
 23
0.0
 33
0.0
 16
1.0
 26
0.0
 36
0.0
 17
0.0
 27
1.0
 37
0.0
 76
     0
330
1F
331
29
  0
MATERIAL
  5
76D
102
{ACAD_XDICTIONARY
360
76E
102
}
102
{ACAD_REACTORS
330
764
102
}
330
764
100
AcDbMaterial
  1
ByBlock
 72
     0
 43
0.0008202099737533
 43
0.0
 43
0.0
 43
0.0
 43
0.0
 43
0.0008202099737533
 43
0.0
 43
0.0
 43
0.0
 43
0.0
 43
1.0
 43
0.0
 43
0.0
 43
0.0
 43
0.0
 43
1.0
 77
     0
 47
0.0008202099737533
 47
0.0
 47
0.0
 47
0.0
 47
0.0
 47
0.0008202099737533
 47
0.0
 47
0.0
 47
0.0
 47
0.0
 47
1.0
 47
0.0
 47
0.0
 47
0.0
 47
0.0
 47
1.0
171
     0
 49
0.0008202099737533
 49
0.0
 49
0.0
 49
0.0
 49
0.0
 49
0.0008202099737533
 49
0.0
 49
0.0
 49
0.0
 49
0.0
 49
1.0
 49
0.0
 49
0.0
 49
0.0
 49
0.0
 49
1.0
175
     0
142
0.0008202099737533
142
0.0
142
0.0
142
0.0
142
0.0
142
0.0008202099737533
142
0.0
142
0.0
142
0.0
142
0.0
142
1.0
142
0.0
142
0.0
142
0.0
142
0.0
142
1.0
179
     0
144
0.0008202099737533
144
0.0
144
0.0
144
0.0
144
0.0
144
0.0008202099737533
144
0.0
144
0.0
144
0.0
144
0.0
144
1.0
144
0.0
144
0.0
144
0.0
144
0.0
144
1.0
147
0.0008202099737533
147
0.0
147
0.0
147
0.0
147
0.0
147
0.0008202099737533
147
0.0
147
0.0
147
0.0
147
0.0
147
1.0
147
0.0
147
0.0
147
0.0
147
0.0
147
1.0
  0
MATERIAL
  5
765
102
{ACAD_XDICTIONARY
360
766
102
}
102
{ACAD_REACTORS
330
764
102
}
330
764
100
AcDbMaterial
  1
ByLayer
 72
     0
 43
0.0008202099737533
 43
0.0
 43
0.0
 43
0.0
 43
0.0
 43
0.0008202099737533
 43
0.0
 43
0.0
 43
0.0
 43
0.0
 43
1.0
 43
0.0
 43
0.0
 43
0.0
 43
0.0
 43
1.0
 77
     0
 47
0.0008202099737533
 47
0.0
 47
0.0
 47
0.0
 47
0.0
 47
0.0008202099737533
 47
0.0
 47
0.0
 47
0.0
 47
0.0
 47
1.0
 47
0.0
 47
0.0
 47
0.0
 47
0.0
 47
1.0
171
     0
 49
0.0008202099737533
 49
0.0
 49
0.0
 49
0.0
 49
0.0
 49
0.0008202099737533
 49
0.0
 49
0.0
 49
0.0
 49
0.0
 49
1.0
 49
0.0
 49
0.0
 49
0.0
 49
0.0
 49
1.0
175
     0
142
0.0008202099737533
142
0.0
142
0.0
142
0.0
142
0.0
142
0.0008202099737533
142
0.0
142
0.0
142
0.0
142
0.0
142
1.0
142
0.0
142
0.0
142
0.0
142
0.0
142
1.0
179
     0
144
0.0008202099737533
144
0.0
144
0.0
144
0.0
144
0.0
144
0.0008202099737533
144
0.0
144
0.0
144
0.0
144
0.0
144
1.0
144
0.0
144
0.0
144
0.0
144
0.0
144
1.0
147
0.0008202099737533
147
0.0
147
0.0
147
0.0
147
0.0
147
0.0008202099737533
147
0.0
147
0.0
147
0.0
147
0.0
147
1.0
147
0.0
147
0.0
147
0.0
147
0.0
147
1.0
  0
MATERIAL
  5
775
102
{ACAD_XDICTIONARY
360
776
102
}
102
{ACAD_REACTORS
330
764
102
}
330
764
100
AcDbMaterial
  1
Global
 72
     0
 43
0.0008202099737533
 43
0.0
 43
0.0
 43
0.0
 43
0.0
 43
0.0008202099737533
 43
0.0
 43
0.0
 43
0.0
 43
0.0
 43
1.0
 43
0.0
 43
0.0
 43
0.0
 43
0.0
 43
1.0
 77
     0
 47
0.0008202099737533
 47
0.0
 47
0.0
 47
0.0
 47
0.0
 47
0.0008202099737533
 47
0.0
 47
0.0
 47
0.0
 47
0.0
 47
1.0
 47
0.0
 47
0.0
 47
0.0
 47
0.0
 47
1.0
171
     0
 49
0.0008202099737533
 49
0.0
 49
0.0
 49
0.0
 49
0.0
 49
0.0008202099737533
 49
0.0
 49
0.0
 49
0.0
 49
0.0
 49
1.0
 49
0.0
 49
0.0
 49
0.0
 49
0.0
 49
1.0
175
     0
142
0.0008202099737533
142
0.0
142
0.0
142
0.0
142
0.0
142
0.0008202099737533
142
0.0
142
0.0
142
0.0
142
0.0
142
1.0
142
0.0
142
0.0
142
0.0
142
0.0
142
1.0
179
     0
144
0.0008202099737533
144
0.0
144
0.0
144
0.0
144
0.0
144
0.0008202099737533
144
0.0
144
0.0
144
0.0
144
0.0
144
1.0
144
0.0
144
0.0
144
0.0
144
0.0
144
1.0
147
0.0008202099737533
147
0.0
147
0.0
147
0.0
147
0.0
147
0.0008202099737533
147
0.0
147
0.0
147
0.0
147
0.0
147
1.0
147
0.0
147
0.0
147
0.0
147
0.0
147
1.0
  0
MLEADERSTYLE
  5
79A
102
{ACAD_REACTORS
330
799
102
}
330
799
100
AcDbMLeaderStyle
170
     2
171
     1
172
     0
 90
        2
 40
0.0
 41
0.0
173
     1
 91
-1056964608
340
14
 92
       -2
290
     1
 42
2.0
291
     1
 43
0.36
  3
Standard
 44
4.0
300

342
11
174
     1
178
     6
175
     1
176
     0
 93
-1056964608
 45
4.0
292
     0
297
     0
 46
4.0
 94
-1056964608
 47
1.0
 49
1.0
140
1.0
293
     1
141
0.0
294
     1
177
     0
142
1.0
295
     0
296
     0
143
0.125
1001
ACAD_MLEADERVER
1070
     2
  0
MLINESTYLE
  5
18
102
{ACAD_REACTORS
330
17
102
}
330
17
100
AcDbMlineStyle
  2
STANDARD
 70
     0
  3

 62
   256
 51
90.0
 52
90.0
 71
     2
 49
0.5
 62
   256
  6
BYLAYER
 49
-0.5
 62
   256
  6
BYLAYER
  0
ACDBPLACEHOLDER
  5
F
102
{ACAD_REACTORS
330
E
102
}
330
E
  0
SCALE
  5
48
102
{ACAD_REACTORS
330
47
102
}
330
47
100
AcDbScale
 70
     0
300
1:1
140
1.0
141
1.0
290
     1
  0
SCALE
  5
49
102
{ACAD_REACTORS
330
47
102
}
330
47
100
AcDbScale
 70
     0
300
1:2
140
1.0
141
2.0
290
     0
  0
SCALE
  5
4A
102
{ACAD_REACTORS
330
47
102
}
330
47
100
AcDbScale
 70
     0
300
1:4
140
1.0
141
4.0
290
     0
  0
SCALE
  5
4B
102
{ACAD_REACTORS
330
47
102
}
330
47
100
AcDbScale
 70
     0
300
1:5
140
1.0
141
5.0
290
     0
  0
SCALE
  5
4C
102
{ACAD_REACTORS
330
47
102
}
330
47
100
AcDbScale
 70
     0
300
1:8
140
1.0
141
8.0
290
     0
  0
SCALE
  5
4D
102
{ACAD_REACTORS
330
47
102
}
330
47
100
AcDbScale
 70
     0
300
1:10
140
1.0
141
10.0
290
     0
  0
SCALE
  5
4E
102
{ACAD_REACTORS
330
47
102
}
330
47
100
AcDbScale
 70
     0
300
1:16
140
1.0
141
16.0
290
     0
  0
SCALE
  5
4F
102
{ACAD_REACTORS
330
47
102
}
330
47
100
AcDbScale
 70
     0
300
1:20
140
1.0
141
20.0
290
     0
  0
SCALE
  5
50
102
{ACAD_REACTORS
330
47
102
}
330
47
100
AcDbScale
 70
     0
300
1:30
140
1.0
141
30.0
290
     0
  0
SCALE
  5
51
102
{ACAD_REACTORS
330
47
102
}
330
47
100
AcDbScale
 70
     0
300
1:40
140
1.0
141
40.0
290
     0
  0
SCALE
  5
52
102
{ACAD_REACTORS
330
47
102
}
330
47
100
AcDbScale
 70
     0
300
1:50
140
1.0
141
50.0
290
     0
  0
SCALE
  5
53
102
{ACAD_REACTORS
330
47
102
}
330
47
100
AcDbScale
 70
     0
300
1:100
140
1.0
141
100.0
290
     0
  0
SCALE
  5
54
102
{ACAD_REACTORS
330
47
102
}
330
47
100
AcDbScale
 70
     0
300
2:1
140
2.0
141
1.0
290
     0
  0
SCALE
  5
55
102
{ACAD_REACTORS
330
47
102
}
330
47
100
AcDbScale
 70
     0
300
4:1
140
4.0
141
1.0
290
     0
  0
SCALE
  5
56
102
{ACAD_REACTORS
330
47
102
}
330
47
100
AcDbScale
 70
     0
300
8:1
140
8.0
141
1.0
290
     0
  0
SCALE
  5
57
102
{ACAD_REACTORS
330
47
102
}
330
47
100
AcDbScale
 70
     0
300
10:1
140
10.0
141
1.0
290
     0
  0
SCALE
  5
58
102
{ACAD_REACTORS
330
47
102
}
330
47
100
AcDbScale
 70
     0
300
100:1
140
100.0
141
1.0
290
     0
  0
SCALE
  5
59
102
{ACAD_REACTORS
330
47
102
}
330
47
100
AcDbScale
 70
     0
300
1/128" = 1'-0"
140
0.0078125
141
12.0
290
     0
  0
SCALE
  5
5A
102
{ACAD_REACTORS
330
47
102
}
330
47
100
AcDbScale
 70
     0
300
1/64" = 1'-0"
140
0.015625
141
12.0
290
     0
  0
SCALE
  5
5B
102
{ACAD_REACTORS
330
47
102
}
330
47
100
AcDbScale
 70
     0
300
1/32" = 1'-0"
140
0.03125
141
12.0
290
     0
  0
SCALE
  5
5C
102
{ACAD_REACTORS
330
47
102
}
330
47
100
AcDbScale
 70
     0
300
1/16" = 1'-0"
140
0.0625
141
12.0
290
     0
  0
SCALE
  5
5D
102
{ACAD_REACTORS
330
47
102
}
330
47
100
AcDbScale
 70
     0
300
3/32" = 1'-0"
140
0.09375
141
12.0
290
     0
  0
SCALE
  5
5E
102
{ACAD_REACTORS
330
47
102
}
330
47
100
AcDbScale
 70
     0
300
1/8" = 1'-0"
140
0.125
141
12.0
290
     0
  0
SCALE
  5
5F
102
{ACAD_REACTORS
330
47
102
}
330
47
100
AcDbScale
 70
     0
300
3/16" = 1'-0"
140
0.1875
141
12.0
290
     0
  0
SCALE
  5
60
102
{ACAD_REACTORS
330
47
102
}
330
47
100
AcDbScale
 70
     0
300
1/4" = 1'-0"
140
0.25
141
12.0
290
     0
  0
SCALE
  5
61
102
{ACAD_REACTORS
330
47
102
}
330
47
100
AcDbScale
 70
     0
300
3/8" = 1'-0"
140
0.375
141
12.0
290
     0
  0
SCALE
  5
62
102
{ACAD_REACTORS
330
47
102
}
330
47
100
AcDbScale
 70
     0
300
1/2" = 1'-0"
140
0.5
141
12.0
290
     0
  0
SCALE
  5
63
102
{ACAD_REACTORS
330
47
102
}
330
47
100
AcDbScale
 70
     0
300
3/4" = 1'-0"
140
0.75
141
12.0
290
     0
  0
SCALE
  5
64
102
{ACAD_REACTORS
330
47
102
}
330
47
100
AcDbScale
 70
     0
300
1" = 1'-0"
140
1.0
141
12.0
290
     0
  0
SCALE
  5
65
102
{ACAD_REACTORS
330
47
102
}
330
47
100
AcDbScale
 70
     0
300
1-1/2" = 1'-0"
140
1.5
141
12.0
290
     0
  0
SCALE
  5
66
102
{ACAD_REACTORS
330
47
102
}
330
47
100
AcDbScale
 70
     0
300
3" = 1'-0"
140
3.0
141
12.0
290
     0
  0
SCALE
  5
67
102
{ACAD_REACTORS
330
47
102
}
330
47
100
AcDbScale
 70
     0
300
6" = 1'-0"
140
6.0
141
12.0
290
     0
  0
SCALE
  5
68
102
{ACAD_REACTORS
330
47
102
}
330
47
100
AcDbScale
 70
     0
300
1'-0" = 1'-0"
140
12.0
141
12.0
290
     0
  0
ACDBSECTIONVIEWSTYLE
  5
79C
102
{ACAD_REACTORS
330
79B
102
}
330
79B
100
AcDbModelDocViewStyle
 70
     0
  3
Metric50
290
     0
100
AcDbSectionViewStyle
 70
     0
 71
     0
 90
      102
 71
     1
340
11
 40
5.0
340
0
340
0
 40
5.0
300
I, O, Q, S, X, Z
 40
10.0
 90
        0
 40
2.5
 90
        0
 71
     2
340
16
 90
       25
340
16
 90
       50
 40
5.0
 40
2.5
 40
5.0
 71
     3
340
11
 40
5.0
 90
        0
 40
15.0
 90
        1
300
%<\AcVar ViewSectionStartId>%-%<\AcVar ViewSectionEndId>% (%<\AcVar ViewScale \f "%sn">%)
 71
     4
300
ANSI31
 40
1.0
 90
        0
290
     0
290
     0
 90
        6
 40
0.0
 40
1.570796326794896
 40
0.2617993877991494
 40
1.308996938995747
 40
-0.2617993877991494
 40
1.832595714594045
  0
TABLESTYLE
  5
798
102
{ACAD_XDICTIONARY
360
7BC
102
}
102
{ACAD_REACTORS
330
797
102
}
330
797
100
AcDbTableStyle
  3
Standard
 70
     0
 71
     0
 40
1.5
 41
1.5
280
     0
281
     0
  7
Standard
140
4.5
170
     2
 62
     0
 63
     7
283
     0
274
    -2
284
     1
 64
     0
275
    -2
285
     1
 65
     0
276
    -2
286
     1
 66
     0
277
    -2
287
     1
 67
     0
278
    -2
288
     1
 68
     0
279
    -2
289
     1
 69
     0
  7
Standard
140
6.0
170
     5
 62
     0
 63
     7
283
     0
274
    -2
284
     1
 64
     0
275
    -2
285
     1
 65
     0
276
    -2
286
     1
 66
     0
277
    -2
287
     1
 67
     0
278
    -2
288
     1
 68
     0
279
    -2
289
     1
 69
     0
  7
Standard
140
4.5
170
     5
 62
     0
 63
     7
283
     0
274
    -2
284
     1
 64
     0
275
    -2
285
     1
 65
     0
276
    -2
286
     1
 66
     0
277
    -2
287
     1
 67
     0
278
    -2
288
     1
 68
     0
279
    -2
289
     1
 69
     0
  0
VISUALSTYLE
  5
783
102
{ACAD_XDICTIONARY
360
814
102
}
102
{ACAD_REACTORS
330
77D
102
}
330
77D
100
AcDbVisualStyle
  2

 70
     4
 71
     0
 72
     2
 73
     0
 90
        0
 40
-0.6
 41
-30.0
 62
     5
 63
     7
 74
     1
 91
        4
 64
     7
 65
   257
 75
     1
175
     1
 42
1.0
 92
        0
 66
   257
 43
1.0
 76
     1
 77
     6
 78
     2
 67
     7
 79
     5
170
     0
171
     0
290
     0
174
     0
 93
        1
 44
0.0
173
     0
291
     0
 45
0.0
1001
ACAD
1000
AcDbSavedByObjectVersion
1070
     0
  0
VISUALSTYLE
  5
782
102
{ACAD_XDICTIONARY
360
812
102
}
102
{ACAD_REACTORS
330
77D
102
}
330
77D
100
AcDbVisualStyle
  2

 70
     7
 71
     1
 72
     0
 73
     1
 90
        0
 40
-0.6
 41
-30.0
 62
     5
 63
     7
 74
     0
 91
        4
 64
     7
 65
   257
 75
     1
175
     1
 42
1.0
 92
        8
 66
     7
 43
1.0
 76
     1
 77
     6
 78
     2
 67
     7
 79
     5
170
     0
171
     0
290
     0
174
     0
 93
        1
 44
0.0
173
     0
291
     1
 45
0.0
1001
ACAD
1000
AcDbSavedByObjectVersion
1070
     0
  0
VISUALSTYLE
  5
789
102
{ACAD_XDICTIONARY
360
820
102
}
102
{ACAD_REACTORS
330
77D
102
}
330
77D
100
AcDbVisualStyle
  2

 70
    12
 71
     2
 72
     2
 73
     0
 90
        0
 40
-0.6
 41
-30.0
 62
     5
 63
     7
 74
     1
 91
        4
 64
     7
 65
   257
 75
     1
175
     1
 42
1.0
 92
        8
 66
     7
 43
1.0
 76
     1
 77
     6
 78
     2
 67
     7
 79
     5
170
     0
171
     0
290
     0
174
     0
 93
        1
 44
50.0
173
     0
291
     1
 45
0.0
1001
ACAD
1000
AcDbSavedByObjectVersion
1070
     0
  0
VISUALSTYLE
  5
78D
102
{ACAD_XDICTIONARY
360
828
102
}
102
{ACAD_REACTORS
330
77D
102
}
330
77D
100
AcDbVisualStyle
  2

 70
    16
 71
     2
 72
     2
 73
     3
 90
        0
 40
-0.6
 41
-30.0
 62
     5
 63
     8
 74
     1
 91
        4
 64
     7
 65
   257
 75
     1
175
     1
 42
1.0
 92
        8
 66
     8
 43
1.0
 76
     1
 77
     6
 78
     2
 67
     7
 79
     5
170
     0
171
     0
290
     0
174
     0
 93
        1
 44
0.0
173
     0
291
     1
 45
0.0
1001
ACAD
1000
AcDbSavedByObjectVersion
1070
     0
  0
VISUALSTYLE
  5
786
102
{ACAD_XDICTIONARY
360
81A
102
}
102
{ACAD_REACTORS
330
77D
102
}
330
77D
100
AcDbVisualStyle
  2

 70
     9
 71
     3
 72
     2
 73
     0
 90
        0
 40
-0.6
 41
-30.0
 62
     5
 63
     7
 74
     2
 91
        2
 64
     7
 65
   257
 75
     1
175
     1
 42
179.0
 92
        8
 66
     7
 43
1.0
 76
     1
 77
     6
 78
     2
 67
     7
 79
     3
170
     0
171
     0
290
     0
174
     0
 93
        1
 44
0.0
173
     0
291
     0
 45
0.0
1001
ACAD
1000
AcDbSavedByObjectVersion
1070
     0
  0
VISUALSTYLE
  5
788
102
{ACAD_XDICTIONARY
360
81E
102
}
102
{ACAD_REACTORS
330
77D
102
}
330
77D
100
AcDbVisualStyle
  2

 70
    11
 71
     2
 72
     2
 73
     0
 90
        0
 40
-0.6
 41
-30.0
 62
     5
 63
     7
 74
     1
 91
        4
 64
     7
 65
   257
 75
     1
175
     1
 42
1.0
 92
        8
 66
     7
 43
1.0
 76
     1
 77
     6
 78
     2
 67
     7
 79
     5
170
     0
171
     0
290
     0
174
     0
 93
        1
 44
-50.0
173
     0
291
     1
 45
0.0
1001
ACAD
1000
AcDbSavedByObjectVersion
1070
     0
  0
VISUALSTYLE
  5
795
102
{ACAD_XDICTIONARY
360
838
102
}
102
{ACAD_REACTORS
330
77D
102
}
330
77D
100
AcDbVisualStyle
  2

 70
    22
 71
     2
 72
     2
 73
     0
 90
        0
 40
-0.6
 41
-30.0
 62
     5
 63
     7
 74
     1
 91
        4
 64
     7
 65
   257
 75
     1
175
     1
 42
1.0
 92
        8
 66
     7
 43
1.0
 76
     1
 77
     6
 78
     2
 67
     7
 79
     5
170
     0
171
     0
290
     0
174
     0
 93
        1
 44
0.0
173
     0
291
     1
 45
0.0
1001
ACAD
1000
AcDbSavedByObjectVersion
1070
     0
  0
VISUALSTYLE
  5
78C
102
{ACAD_XDICTIONARY
360
826
102
}
102
{ACAD_REACTORS
330
77D
102
}
330
77D
100
AcDbVisualStyle
  2

 70
    15
 71
     2
 72
     2
 73
     0
 90
        0
 40
-0.6
 41
-30.0
 62
     5
 63
     7
 74
     1
 91
        4
 64
     7
 65
   257
 75
     1
175
     1
 42
1.0
 92
        8
 66
     7
 43
1.0
 76
     1
 77
     6
 78
     2
 67
     7
 79
     5
170
     0
171
     0
290
     0
174
     0
 93
        1
 44
0.0
173
     0
291
     1
 45
0.0
1001
ACAD
1000
AcDbSavedByObjectVersion
1070
     0
  0
VISUALSTYLE
  5
77E
102
{ACAD_XDICTIONARY
360
80A
102
}
102
{ACAD_REACTORS
330
77D
102
}
330
77D
100
AcDbVisualStyle
  2

 70
     0
 71
     2
 72
     1
 73
     1
 90
        2
 40
-0.6
 41
30.0
 62
     5
 63
     7
 74
     0
 91
        0
 64
     7
 65
   257
 75
     1
175
     1
 42
1.0
 92
        8
 66
     7
 43
1.0
 76
     1
 77
     6
 78
     2
 67
     7
 79
     5
170
     0
171
     0
290
     0
174
     0
 93
       13
 44
0.0
173
     0
291
     1
 45
0.0
1001
ACAD
1000
AcDbSavedByObjectVersion
1070
     0
  0
VISUALSTYLE
  5
77F
102
{ACAD_XDICTIONARY
360
80C
102
}
102
{ACAD_REACTORS
330
77D
102
}
330
77D
100
AcDbVisualStyle
  2

 70
     1
 71
     2
 72
     1
 73
     1
 90
        2
 40
-0.6
 41
30.0
 62
     5
 63
     7
 74
     1
 91
        0
 64
     7
 65
   257
 75
     1
175
     1
 42
1.0
 92
        0
 66
   257
 43
1.0
 76
     1
 77
     6
 78
     2
 67
     7
 79
     5
170
     0
171
     0
290
     0
174
     0
 93
       13
 44
0.0
173
     0
291
     1
 45
0.0
1001
ACAD
1000
AcDbSavedByObjectVersion
1070
     0
  0
VISUALSTYLE
  5
780
102
{ACAD_XDICTIONARY
360
80E
102
}
102
{ACAD_REACTORS
330
77D
102
}
330
77D
100
AcDbVisualStyle
  2

 70
     2
 71
     2
 72
     2
 73
     1
 90
        2
 40
-0.6
 41
30.0
 62
     5
 63
     7
 74
     0
 91
        0
 64
     7
 65
   257
 75
     1
175
     1
 42
1.0
 92
        0
 66
     7
 43
1.0
 76
     1
 77
     6
 78
     2
 67
     7
 79
     5
170
     0
171
     0
290
     0
174
     0
 93
       13
 44
0.0
173
     0
291
     1
 45
0.0
1001
ACAD
1000
AcDbSavedByObjectVersion
1070
     0
  0
VISUALSTYLE
  5
781
102
{ACAD_XDICTIONARY
360
810
102
}
102
{ACAD_REACTORS
330
77D
102
}
330
77D
100
AcDbVisualStyle
  2

 70
     3
 71
     2
 72
     2
 73
     1
 90
        2
 40
-0.6
 41
30.0
 62
     5
 63
     7
 74
     1
 91
        0
 64
     7
 65
   257
 75
     1
175
     1
 42
1.0
 92
        0
 66
   257
 43
1.0
 76
     1
 77
     6
 78
     2
 67
     7
 79
     5
170
     0
171
     0
290
     0
174
     0
 93
       13
 44
0.0
173
     0
291
     1
 45
0.0
1001
ACAD
1000
AcDbSavedByObjectVersion
1070
     0
  0
VISUALSTYLE
  5
785
102
{ACAD_XDICTIONARY
360
818
102
}
102
{ACAD_REACTORS
330
77D
102
}
330
77D
100
AcDbVisualStyle
  2

 70
     6
 71
     1
 72
     2
 73
     2
 90
        0
 40
-0.6
 41
-30.0
 62
     5
 63
     7
 74
     2
 91
        2
 64
     7
 65
   257
 75
     2
175
     1
 42
40.0
 92
        0
 66
   257
 43
1.0
 76
     1
 77
     6
 78
     2
 67
     7
 79
     3
170
     0
171
     0
290
     0
174
     0
 93
        1
 44
0.0
173
     0
291
     0
 45
0.0
1001
ACAD
1000
AcDbSavedByObjectVersion
1070
     0
  0
VISUALSTYLE
  5
793
102
{ACAD_XDICTIONARY
360
834
102
}
102
{ACAD_REACTORS
330
77D
102
}
330
77D
100
AcDbVisualStyle
  2

 70
    20
 71
     2
 72
     2
 73
     0
 90
        0
 40
-0.6
 41
-30.0
 62
     5
 63
     7
 74
     1
 91
        4
 64
     7
 65
   257
 75
     1
175
     1
 42
1.0
 92
       10
 66
     7
 43
1.0
 76
     1
 77
     6
 78
     2
 67
     7
 79
     5
170
     0
171
     0
290
     0
174
     0
 93
        1
 44
0.0
173
     0
291
     1
 45
0.0
1001
ACAD
1000
AcDbSavedByObjectVersion
1070
     0
  0
VISUALSTYLE
  5
78B
102
{ACAD_XDICTIONARY
360
824
102
}
102
{ACAD_REACTORS
330
77D
102
}
330
77D
100
AcDbVisualStyle
  2

 70
    14
 71
     2
 72
     2
 73
     0
 90
        0
 40
-0.6
 41
-30.0
 62
     5
 63
     7
 74
     1
 91
        4
 64
     7
 65
   257
 75
     7
175
     7
 42
1.0
 92
        8
 66
     7
 43
1.0
 76
     1
 77
     6
 78
     2
 67
     7
 79
     5
170
     0
171
     0
290
     0
174
     0
 93
        1
 44
0.0
173
     0
291
     1
 45
0.0
1001
ACAD
1000
AcDbSavedByObjectVersion
1070
     0
  0
VISUALSTYLE
  5
794
102
{ACAD_XDICTIONARY
360
836
102
}
102
{ACAD_REACTORS
330
77D
102
}
330
77D
100
AcDbVisualStyle
  2

 70
    21
 71
     2
 72
     2
 73
     0
 90
        0
 40
-0.6
 41
-30.0
 62
     5
 63
     7
 74
     1
 91
        4
 64
     7
 65
   257
 75
     1
175
     1
 42
1.0
 92
        9
 66
     7
 43
1.0
 76
     1
 77
     6
 78
     2
 67
     7
 79
     5
170
     0
171
     0
290
     0
174
     0
 93
        1
 44
0.0
173
     0
291
     1
 45
0.0
1001
ACAD
1000
AcDbSavedByObjectVersion
1070
     0
  0
VISUALSTYLE
  5
787
102
{ACAD_XDICTIONARY
360
81C
102
}
102
{ACAD_REACTORS
330
77D
102
}
330
77D
100
AcDbVisualStyle
  2

 70
     8
 71
     2
 72
     3
 73
     0
 90
        2
 40
-0.6
 41
30.0
 62
     5
 63
     7
 74
     0
 91
        0
 64
     7
 65
   257
 75
     1
175
     1
 42
1.0
 92
        8
 66
   257
 43
1.0
 76
     1
 77
     6
 78
     2
 67
     7
 79
     3
170
     0
171
     0
290
     0
174
     0
 93
       13
 44
0.0
173
     0
291
     0
 45
0.0
1001
ACAD
1000
AcDbSavedByObjectVersion
1070
     0
  0
VISUALSTYLE
  5
792
102
{ACAD_XDICTIONARY
360
832
102
}
102
{ACAD_REACTORS
330
77D
102
}
330
77D
100
AcDbVisualStyle
  2

 70
    27
 71
     2
 72
     2
 73
     1
 90
        2
 40
-0.6
 41
30.0
 62
     5
 63
     7
 74
     0
 91
        4
 64
     7
 65
   257
 75
     1
175
     1
 42
1.0
 92
        8
 66
   257
 43
1.0
 76
     1
 77
     6
 78
     2
 67
     8
 79
     3
170
     0
171
     0
290
     0
174
     0
 93
        5
 44
0.0
173
     0
291
     0
 45
0.0
1001
ACAD
1000
AcDbSavedByObjectVersion
1070
     0
  0
VISUALSTYLE
  5
791
102
{ACAD_XDICTIONARY
360
830
102
}
102
{ACAD_REACTORS
330
77D
102
}
330
77D
100
AcDbVisualStyle
  2

 70
    26
 71
     2
 72
     2
 73
     1
 90
        2
 40
-0.6
 41
30.0
 62
     5
 63
     7
 74
     1
 91
       10
 64
     7
 65
   257
 75
     2
175
     1
 42
1.0
 92
        8
 66
   257
 43
1.0
 76
     1
 77
     6
 78
     2
 67
     7
 79
     3
170
     0
171
     0
290
     0
174
     0
 93
        5
 44
0.0
173
     0
291
     0
 45
0.0
1001
ACAD
1000
AcDbSavedByObjectVersion
1070
     0
  0
VISUALSTYLE
  5
78E
102
{ACAD_XDICTIONARY
360
82A
102
}
102
{ACAD_REACTORS
330
77D
102
}
330
77D
100
AcDbVisualStyle
  2

 70
    23
 71
     2
 72
     2
 73
     3
 90
        0
 40
-0.6
 41
-30.0
 62
     5
 63
     7
 74
     2
 91
        2
 64
     7
 65
     7
 75
     1
175
     1
 42
40.0
 92
        8
 66
     7
 43
1.0
 76
     1
 77
     6
 78
     2
 67
     7
 79
     3
170
     0
171
     0
290
     0
174
     0
 93
        1
 44
0.0
173
     0
291
     0
 45
0.0
1001
ACAD
1000
AcDbSavedByObjectVersion
1070
     0
  0
VISUALSTYLE
  5
78F
102
{ACAD_XDICTIONARY
360
82C
102
}
102
{ACAD_REACTORS
330
77D
102
}
330
77D
100
AcDbVisualStyle
  2

 70
    24
 71
     1
 72
     2
 73
     2
 90
        0
 40
-0.6
 41
-30.0
 62
     5
 63
     7
 74
     2
 91
        2
 64
     7
 65
     7
 75
     1
175
     1
 42
40.0
 92
       11
 66
     7
 43
1.0
 76
     1
 77
     6
 78
     2
 67
     7
 79
     6
170
     0
171
     0
290
     0
174
     0
 93
        1
 44
0.0
173
     0
291
     0
 45
0.0
1001
ACAD
1000
AcDbSavedByObjectVersion
1070
     0
  0
VISUALSTYLE
  5
78A
102
{ACAD_XDICTIONARY
360
822
102
}
102
{ACAD_REACTORS
330
77D
102
}
330
77D
100
AcDbVisualStyle
  2

 70
    13
 71
     2
 72
     2
 73
     0
 90
        0
 40
-0.6
 41
-30.0
 62
     5
 63
     7
 74
     1
 91
        4
 64
     7
 65
   257
 75
     1
175
     1
 42
1.0
 92
       12
 66
     7
 43
1.0
 76
     1
 77
     6
 78
     2
 67
     7
 79
     5
170
     0
171
     0
290
     0
174
     0
 93
        1
 44
0.0
173
     0
291
     1
 45
0.0
1001
ACAD
1000
AcDbSavedByObjectVersion
1070
     0
  0
VISUALSTYLE
  5
784
102
{ACAD_XDICTIONARY
360
816
102
}
102
{ACAD_REACTORS
330
77D
102
}
330
77D
100
AcDbVisualStyle
  2

 70
     5
 71
     0
 72
     2
 73
     0
 90
        0
 40
-0.6
 41
-30.0
 62
     5
 63
     7
 74
     1
 91
        4
 64
     7
 65
   257
 75
     1
175
     1
 42
1.0
 92
        0
 66
   257
 43
1.0
 76
     1
 77
     6
 78
     2
 67
     7
 79
     3
170
     0
171
     0
290
     0
174
     0
 93
        1
 44
0.0
173
     0
291
     0
 45
0.0
1001
ACAD
1000
AcDbSavedByObjectVersion
1070
     0
  0
VISUALSTYLE
  5
790
102
{ACAD_XDICTIONARY
360
82E
102
}
102
{ACAD_REACTORS
330
77D
102
}
330
77D
100
AcDbVisualStyle
  2

 70
    25
 71
     2
 72
     2
 73
     1
 90
        1
 40
0.5
 41
-30.0
 62
     5
 63
     7
 74
     1
 91
        0
 64
     7
 65
   257
 75
     1
175
     1
 42
1.0
 92
        8
 66
     7
 43
1.0
 76
     1
 77
     6
 78
     2
 67
     7
 79
     3
170
     0
171
     0
290
     0
174
     0
 93
       13
 44
0.0
173
     0
291
     0
 45
0.0
1001
ACAD
1000
AcDbSavedByObjectVersion
1070
     0
  0
DICTIONARYVAR
  5
7B6
102
{ACAD_REACTORS
330
7B1
102
}
330
7B1
100
DictionaryVariables
280
     0
  1
1:1
  0
DICTIONARYVAR
  5
7B3
102
{ACAD_REACTORS
330
7B1
102
}
330
7B1
100
DictionaryVariables
280
     0
  1
STANDARD
  0
DICTIONARYVAR
  5
7B2
102
{ACAD_REACTORS
330
7B1
102
}
330
7B1
100
DictionaryVariables
280
     0
  1
STANDARD
  0
DICTIONARYVAR
  5
7B4
102
{ACAD_REACTORS
330
7B1
102
}
330
7B1
100
DictionaryVariables
280
     0
  1
Metric50
  0
DICTIONARYVAR
  5
7B5
102
{ACAD_REACTORS
330
7B1
102
}
330
7B1
100
DictionaryVariables
280
     0
  1
Metric50
  0
DICTIONARYVAR
  5
7B9
102
{ACAD_REACTORS
330
7B1
102
}
330
7B1
100
DictionaryVariables
280
     0
  1
1
  0
DICTIONARYVAR
  5
7B8
102
{ACAD_REACTORS
330
7B1
102
}
330
7B1
100
DictionaryVariables
280
     0
  1
0
  0
DICTIONARYVAR
  5
7B7
102
{ACAD_REACTORS
330
7B1
102
}
330
7B1
100
DictionaryVariables
280
     0
  1
127
  0
DICTIONARYVAR
  5
800
102
{ACAD_REACTORS
330
7B1
102
}
330
7B1
100
DictionaryVariables
280
     0
  1
2
  0
DICTIONARY
  5
804
330
1E
100
AcDbDictionary
280
     1
281
     1
  3
ACAD_XREC_ROUNDTRIP
360
805
  0
DICTIONARY
  5
808
330
26
100
AcDbDictionary
280
     1
281
     1
  3
ACAD_XREC_ROUNDTRIP
360
809
  0
DICTIONARY
  5
806
330
22
100
AcDbDictionary
280
     1
281
     1
  3
ACAD_XREC_ROUNDTRIP
360
807
  0
DICTIONARY
  5
76E
330
76D
100
AcDbDictionary
280
     1
281
     1
  3
ACAD_XREC_ROUNDTRIP
360
7C7
  3
BUMPTILE
360
770
  3
DIFFUSETILE
360
76F
  3
OPACITYTILE
360
773
  3
REFLECTIONTILE
360
772
  3
REFRACTIONTILE
360
774
  3
SPECULARTILE
360
771
  0
DICTIONARY
  5
766
330
765
100
AcDbDictionary
280
     1
281
     1
  3
ACAD_XREC_ROUNDTRIP
360
7C6
  3
BUMPTILE
360
768
  3
DIFFUSETILE
360
767
  3
OPACITYTILE
360
76B
  3
REFLECTIONTILE
360
76A
  3
REFRACTIONTILE
360
76C
  3
SPECULARTILE
360
769
  0
DICTIONARY
  5
776
330
775
100
AcDbDictionary
280
     1
281
     1
  3
ACAD_XREC_ROUNDTRIP
360
7C8
  3
BUMPTILE
360
778
  3
DIFFUSETILE
360
777
  3
OPACITYTILE
360
77B
  3
REFLECTIONTILE
360
77A
  3
REFRACTIONTILE
360
77C
  3
SPECULARTILE
360
779
  0
DICTIONARY
  5
7BC
330
798
100
AcDbDictionary
280
     1
281
     1
  3
ACAD_ROUNDTRIP_2008_TABLESTYLE_CELLSTYLEMAP
360
801
  3
ACAD_XREC_ROUNDTRIP
360
83A
  0
DICTIONARY
  5
814
330
783
100
AcDbDictionary
280
     1
281
     1
  3
ACAD_XREC_ROUNDTRIP
360
815
  0
DICTIONARY
  5
812
330
782
100
AcDbDictionary
280
     1
281
     1
  3
ACAD_XREC_ROUNDTRIP
360
813
  0
DICTIONARY
  5
820
330
789
100
AcDbDictionary
280
     1
281
     1
  3
ACAD_XREC_ROUNDTRIP
360
821
  0
DICTIONARY
  5
828
330
78D
100
AcDbDictionary
280
     1
281
     1
  3
ACAD_XREC_ROUNDTRIP
360
829
  0
DICTIONARY
  5
81A
330
786
100
AcDbDictionary
280
     1
281
     1
  3
ACAD_XREC_ROUNDTRIP
360
81B
  0
DICTIONARY
  5
81E
330
788
100
AcDbDictionary
280
     1
281
     1
  3
ACAD_XREC_ROUNDTRIP
360
81F
  0
DICTIONARY
  5
838
330
795
100
AcDbDictionary
280
     1
281
     1
  3
ACAD_XREC_ROUNDTRIP
360
839
  0
DICTIONARY
  5
826
330
78C
100
AcDbDictionary
280
     1
281
     1
  3
ACAD_XREC_ROUNDTRIP
360
827
  0
DICTIONARY
  5
80A
330
77E
100
AcDbDictionary
280
     1
281
     1
  3
ACAD_XREC_ROUNDTRIP
360
80B
  0
DICTIONARY
  5
80C
330
77F
100
AcDbDictionary
280
     1
281
     1
  3
ACAD_XREC_ROUNDTRIP
360
80D
  0
DICTIONARY
  5
80E
330
780
100
AcDbDictionary
280
     1
281
     1
  3
ACAD_XREC_ROUNDTRIP
360
80F
  0
DICTIONARY
  5
810
330
781
100
AcDbDictionary
280
     1
281
     1
  3
ACAD_XREC_ROUNDTRIP
360
811
  0
DICTIONARY
  5
818
330
785
100
AcDbDictionary
280
     1
281
     1
  3
ACAD_XREC_ROUNDTRIP
360
819
  0
DICTIONARY
  5
834
330
793
100
AcDbDictionary
280
     1
281
     1
  3
ACAD_XREC_ROUNDTRIP
360
835
  0
DICTIONARY
  5
824
330
78B
100
AcDbDictionary
280
     1
281
     1
  3
ACAD_XREC_ROUNDTRIP
360
825
  0
DICTIONARY
  5
836
330
794
100
AcDbDictionary
280
     1
281
     1
  3
ACAD_XREC_ROUNDTRIP
360
837
  0
DICTIONARY
  5
81C
330
787
100
AcDbDictionary
280
     1
281
     1
  3
ACAD_XREC_ROUNDTRIP
360
81D
  0
DICTIONARY
  5
832
330
792
100
AcDbDictionary
280
     1
281
     1
  3
ACAD_XREC_ROUNDTRIP
360
833
  0
DICTIONARY
  5
830
330
791
100
AcDbDictionary
280
     1
281
     1
  3
ACAD_XREC_ROUNDTRIP
360
831
  0
DICTIONARY
  5
82A
330
78E
100
AcDbDictionary
280
     1
281
     1
  3
ACAD_XREC_ROUNDTRIP
360
82B
  0
DICTIONARY
  5
82C
330
78F
100
AcDbDictionary
280
     1
281
     1
  3
ACAD_XREC_ROUNDTRIP
360
82D
  0
DICTIONARY
  5
822
330
78A
100
AcDbDictionary
280
     1
281
     1
  3
ACAD_XREC_ROUNDTRIP
360
823
  0
DICTIONARY
  5
816
330
784
100
AcDbDictionary
280
     1
281
     1
  3
ACAD_XREC_ROUNDTRIP
360
817
  0
DICTIONARY
  5
82E
330
790
100
AcDbDictionary
280
     1
281
     1
  3
ACAD_XREC_ROUNDTRIP
360
82F
  0
XRECORD
  5
805
102
{ACAD_REACTORS
330
804
102
}
330
804
100
AcDbXrecord
280
     1
102
SHADEPLOT
 70
     0
102
SHADEPLOTRESLEVEL
 70
     2
102
SHADEPLOTCUSTOMDPI
 70
   300
  0
XRECORD
  5
809
102
{ACAD_REACTORS
330
808
102
}
330
808
100
AcDbXrecord
280
     1
102
SHADEPLOT
 70
     0
102
SHADEPLOTRESLEVEL
 70
     2
102
SHADEPLOTCUSTOMDPI
 70
   300
  0
XRECORD
  5
807
102
{ACAD_REACTORS
330
806
102
}
330
806
100
AcDbXrecord
280
     1
102
SHADEPLOT
 70
     0
102
SHADEPLOTRESLEVEL
 70
     2
102
SHADEPLOTCUSTOMDPI
 70
   300
  0
XRECORD
  5
7C7
102
{ACAD_REACTORS
330
76E
102
}
330
76E
100
AcDbXrecord
280
     1
102
MATERIAL
148
0.0
149
0.0
149
0.0
 93
        0
 94
      127
282
     0
 72
     0
 77
     0
171
     0
175
     0
179
     0
273
     0
  0
XRECORD
  5
770
102
{ACAD_REACTORS
330
76E
102
}
330
76E
100
AcDbXrecord
280
     1
270
     1
271
     1
  0
XRECORD
  5
76F
102
{ACAD_REACTORS
330
76E
102
}
330
76E
100
AcDbXrecord
280
     1
270
     1
271
     1
  0
XRECORD
  5
773
102
{ACAD_REACTORS
330
76E
102
}
330
76E
100
AcDbXrecord
280
     1
270
     1
271
     1
  0
XRECORD
  5
772
102
{ACAD_REACTORS
330
76E
102
}
330
76E
100
AcDbXrecord
280
     1
270
     1
271
     1
  0
XRECORD
  5
774
102
{ACAD_REACTORS
330
76E
102
}
330
76E
100
AcDbXrecord
280
     1
270
     1
271
     1
  0
XRECORD
  5
771
102
{ACAD_REACTORS
330
76E
102
}
330
76E
100
AcDbXrecord
280
     1
270
     1
271
     1
  0
XRECORD
  5
7C6
102
{ACAD_REACTORS
330
766
102
}
330
766
100
AcDbXrecord
280
     1
102
MATERIAL
148
0.0
149
0.0
149
0.0
 93
        0
 94
      127
282
     0
 72
     0
 77
     0
171
     0
175
     0
179
     0
273
     0
  0
XRECORD
  5
768
102
{ACAD_REACTORS
330
766
102
}
330
766
100
AcDbXrecord
280
     1
270
     1
271
     1
  0
XRECORD
  5
767
102
{ACAD_REACTORS
330
766
102
}
330
766
100
AcDbXrecord
280
     1
270
     1
271
     1
  0
XRECORD
  5
76B
102
{ACAD_REACTORS
330
766
102
}
330
766
100
AcDbXrecord
280
     1
270
     1
271
     1
  0
XRECORD
  5
76A
102
{ACAD_REACTORS
330
766
102
}
330
766
100
AcDbXrecord
280
     1
270
     1
271
     1
  0
XRECORD
  5
76C
102
{ACAD_REACTORS
330
766
102
}
330
766
100
AcDbXrecord
280
     1
270
     1
271
     1
  0
XRECORD
  5
769
102
{ACAD_REACTORS
330
766
102
}
330
766
100
AcDbXrecord
280
     1
270
     1
271
     1
  0
XRECORD
  5
7C8
102
{ACAD_REACTORS
330
776
102
}
330
776
100
AcDbXrecord
280
     1
102
MATERIAL
148
0.0
149
0.0
149
0.0
 93
        0
 94
      127
282
     0
 72
     0
 77
     0
171
     0
175
     0
179
     0
273
     0
  0
XRECORD
  5
778
102
{ACAD_REACTORS
330
776
102
}
330
776
100
AcDbXrecord
280
     1
270
     1
271
     1
  0
XRECORD
  5
777
102
{ACAD_REACTORS
330
776
102
}
330
776
100
AcDbXrecord
280
     1
270
     1
271
     1
  0
XRECORD
  5
77B
102
{ACAD_REACTORS
330
776
102
}
330
776
100
AcDbXrecord
280
     1
270
     1
271
     1
  0
XRECORD
  5
77A
102
{ACAD_REACTORS
330
776
102
}
330
776
100
AcDbXrecord
280
     1
270
     1
271
     1
  0
XRECORD
  5
77C
102
{ACAD_REACTORS
330
776
102
}
330
776
100
AcDbXrecord
280
     1
270
     1
271
     1
  0
XRECORD
  5
779
102
{ACAD_REACTORS
330
776
102
}
330
776
100
AcDbXrecord
280
     1
270
     1
271
     1
  0
CELLSTYLEMAP
  5
801
102
{ACAD_REACTORS
330
7BC
102
}
330
7BC
100
AcDbCellStyleMap
 90
        3
300
CELLSTYLE
  1
TABLEFORMAT_BEGIN
 90
        5
170
     1
 91
        0
 92
    32768
 62
   257
 93
        1
300
CONTENTFORMAT
  1
CONTENTFORMAT_BEGIN
 90
        0
 91
        0
 92
      512
 93
        0
300

 40
0.0
140
1.0
 94
        5
 62
     0
340
11
144
6.0
309
CONTENTFORMAT_END
171
     1
301
MARGIN
  1
CELLMARGIN_BEGIN
 40
1.5
 40
1.5
 40
1.5
 40
1.5
 40
0.18
 40
0.18
309
CELLMARGIN_END
 94
        6
 95
        1
302
GRIDFORMAT
  1
GRIDFORMAT_BEGIN
 90
        0
 91
        1
 62
     0
 92
       -2
340
0
 93
        0
 40
1.125
309
GRIDFORMAT_END
 95
        2
302
GRIDFORMAT
  1
GRIDFORMAT_BEGIN
 90
        0
 91
        1
 62
     0
 92
       -2
340
0
 93
        0
 40
1.125
309
GRIDFORMAT_END
 95
        4
302
GRIDFORMAT
  1
GRIDFORMAT_BEGIN
 90
        0
 91
        1
 62
     0
 92
       -2
340
0
 93
        0
 40
1.125
309
GRIDFORMAT_END
 95
        8
302
GRIDFORMAT
  1
GRIDFORMAT_BEGIN
 90
        0
 91
        1
 62
     0
 92
       -2
340
0
 93
        0
 40
1.125
309
GRIDFORMAT_END
 95
       16
302
GRIDFORMAT
  1
GRIDFORMAT_BEGIN
 90
        0
 91
        1
 62
     0
 92
       -2
340
0
 93
        0
 40
1.125
309
GRIDFORMAT_END
 95
       32
302
GRIDFORMAT
  1
GRIDFORMAT_BEGIN
 90
        0
 91
        1
 62
     0
 92
       -2
340
0
 93
        0
 40
1.125
309
GRIDFORMAT_END
309
TABLEFORMAT_END
  1
CELLSTYLE_BEGIN
 90
        1
 91
        1
300
_TITLE
309
CELLSTYLE_END
300
CELLSTYLE
  1
TABLEFORMAT_BEGIN
 90
        5
170
     1
 91
        0
 92
        0
 62
   257
 93
        1
300
CONTENTFORMAT
  1
CONTENTFORMAT_BEGIN
 90
        0
 91
        0
 92
      512
 93
        0
300

 40
0.0
140
1.0
 94
        5
 62
     0
340
11
144
4.5
309
CONTENTFORMAT_END
171
     1
301
MARGIN
  1
CELLMARGIN_BEGIN
 40
1.5
 40
1.5
 40
1.5
 40
1.5
 40
0.18
 40
0.18
309
CELLMARGIN_END
 94
        6
 95
        1
302
GRIDFORMAT
  1
GRIDFORMAT_BEGIN
 90
        0
 91
        1
 62
     0
 92
       -2
340
0
 93
        0
 40
1.125
309
GRIDFORMAT_END
 95
        2
302
GRIDFORMAT
  1
GRIDFORMAT_BEGIN
 90
        0
 91
        1
 62
     0
 92
       -2
340
0
 93
        0
 40
1.125
309
GRIDFORMAT_END
 95
        4
302
GRIDFORMAT
  1
GRIDFORMAT_BEGIN
 90
        0
 91
        1
 62
     0
 92
       -2
340
0
 93
        0
 40
1.125
309
GRIDFORMAT_END
 95
        8
302
GRIDFORMAT
  1
GRIDFORMAT_BEGIN
 90
        0
 91
        1
 62
     0
 92
       -2
340
0
 93
        0
 40
1.125
309
GRIDFORMAT_END
 95
       16
302
GRIDFORMAT
  1
GRIDFORMAT_BEGIN
 90
        0
 91
        1
 62
     0
 92
       -2
340
0
 93
        0
 40
1.125
309
GRIDFORMAT_END
 95
       32
302
GRIDFORMAT
  1
GRIDFORMAT_BEGIN
 90
        0
 91
        1
 62
     0
 92
       -2
340
0
 93
        0
 40
1.125
309
GRIDFORMAT_END
309
TABLEFORMAT_END
  1
CELLSTYLE_BEGIN
 90
        2
 91
        1
300
_HEADER
309
CELLSTYLE_END
300
CELLSTYLE
  1
TABLEFORMAT_BEGIN
 90
        5
170
     1
 91
        0
 92
        0
 62
   257
 93
        1
300
CONTENTFORMAT
  1
CONTENTFORMAT_BEGIN
 90
        0
 91
        0
 92
      512
 93
        0
300

 40
0.0
140
1.0
 94
        2
 62
     0
340
11
144
4.5
309
CONTENTFORMAT_END
171
     1
301
MARGIN
  1
CELLMARGIN_BEGIN
 40
1.5
 40
1.5
 40
1.5
 40
1.5
 40
0.18
 40
0.18
309
CELLMARGIN_END
 94
        6
 95
        1
302
GRIDFORMAT
  1
GRIDFORMAT_BEGIN
 90
        0
 91
        1
 62
     0
 92
       -2
340
0
 93
        0
 40
1.125
309
GRIDFORMAT_END
 95
        2
302
GRIDFORMAT
  1
GRIDFORMAT_BEGIN
 90
        0
 91
        1
 62
     0
 92
       -2
340
0
 93
        0
 40
1.125
309
GRIDFORMAT_END
 95
        4
302
GRIDFORMAT
  1
GRIDFORMAT_BEGIN
 90
        0
 91
        1
 62
     0
 92
       -2
340
0
 93
        0
 40
1.125
309
GRIDFORMAT_END
 95
        8
302
GRIDFORMAT
  1
GRIDFORMAT_BEGIN
 90
        0
 91
        1
 62
     0
 92
       -2
340
0
 93
        0
 40
1.125
309
GRIDFORMAT_END
 95
       16
302
GRIDFORMAT
  1
GRIDFORMAT_BEGIN
 90
        0
 91
        1
 62
     0
 92
       -2
340
0
 93
        0
 40
1.125
309
GRIDFORMAT_END
 95
       32
302
GRIDFORMAT
  1
GRIDFORMAT_BEGIN
 90
        0
 91
        1
 62
     0
 92
       -2
340
0
 93
        0
 40
1.125
309
GRIDFORMAT_END
309
TABLEFORMAT_END
  1
CELLSTYLE_BEGIN
 90
        3
 91
        2
300
_DATA
309
CELLSTYLE_END
  0
XRECORD
  5
83A
102
{ACAD_REACTORS
330
7BC
102
}
330
7BC
100
AcDbXrecord
280
     1
102
ACAD_ROUNDTRIP_PRE2007_TABLESTYLE
 90
      512
 91
        0
  1

 92
      512
 93
        0
  2

 94
      512
 95
        0
  3

  0
XRECORD
  5
815
102
{ACAD_REACTORS
330
814
102
}
330
814
100
AcDbXrecord
280
     1
102
RTVSPost2010Prop28
280
     1
102
RTVSPost2010PropOp28
 70
     1
102
RTVSPost2010Prop29
280
     1
102
RTVSPost2010PropOp29
 70
     1
102
RTVSPost2010Prop30
280
     0
102
RTVSPost2010PropOp30
 70
     1
102
RTVSPost2010Prop31
280
     0
102
RTVSPost2010PropOp31
 70
     1
102
RTVSPost2010Prop32
280
     0
102
RTVSPost2010PropOp32
 70
     1
102
RTVSPost2010Prop33
280
     0
102
RTVSPost2010PropOp33
 70
     1
102
RTVSPost2010Prop34
280
     0
102
RTVSPost2010PropOp34
 70
     1
102
RTVSPost2010Prop35
280
     0
102
RTVSPost2010PropOp35
 70
     1
102
RTVSPost2010Prop36
280
     0
102
RTVSPost2010PropOp36
 70
     1
102
RTVSPost2010Prop37
 90
       50
102
RTVSPost2010PropOp37
 70
     1
102
RTVSPost2010Prop38
140
0.0
102
RTVSPost2010PropOp38
 70
     1
102
RTVSPost2010Prop39
140
1.0
102
RTVSPost2010PropOp39
 70
     1
102
RTVSPost2010Prop40
 90
        0
102
RTVSPost2010PropOp40
 70
     1
102
RTVSPost2010Prop41ColorIndex
 90
       18
102
RTVSPost2010Prop41ColorRGB
 90
        0
102
RTVSPost2010PropOp41
 70
     1
102
RTVSPost2010Prop42
 90
       50
102
RTVSPost2010PropOp42
 70
     1
102
RTVSPost2010Prop43
 90
        3
102
RTVSPost2010PropOp43
 70
     1
102
RTVSPost2010Prop44ColorIndex
 90
        5
102
RTVSPost2010Prop44ColorRGB
 90
      255
102
RTVSPost2010PropOp44
 70
     1
102
RTVSPost2010Prop45
280
     0
102
RTVSPost2010PropOp45
 70
     1
102
RTVSPost2010Prop46
 90
       50
102
RTVSPost2010PropOp46
 70
     1
102
RTVSPost2010Prop47
 90
       50
102
RTVSPost2010PropOp47
 70
     1
102
RTVSPost2010Prop48
 90
       50
102
RTVSPost2010PropOp48
 70
     1
102
RTVSPost2010Prop49
280
     0
102
RTVSPost2010PropOp49
 70
     1
102
RTVSPost2010Prop50
 90
       50
102
RTVSPost2010PropOp50
 70
     1
102
RTVSPost2010Prop51ColorIndex
 90
      256
102
RTVSPost2010Prop51ColorRGB
 90
-16777216
102
RTVSPost2010PropOp51
 70
     0
102
RTVSPost2010Prop52
140
1.0
102
RTVSPost2010PropOp52
 70
     0
102
RTVSPost2010Prop53
 90
        2
102
RTVSPost2010PropOp53
 70
     1
102
RTVSPost2010Prop54
  1
strokes_ogs.tif
102
RTVSPost2010PropOp54
 70
     1
102
RTVSPost2010Prop55
280
     0
102
RTVSPost2010PropOp55
 70
     1
102
RTVSPost2010Prop56
140
1.0
102
RTVSPost2010PropOp56
 70
     1
102
RTVSPost2010Prop57
140
1.0
102
RTVSPost2010PropOp57
 70
     1
102
RTVSPropertyOp0
 70
     1
102
RTVSPropertyOp1
 70
     1
102
RTVSPropertyOp2
 70
     1
102
RTVSPropertyOp3
 70
     1
102
RTVSPropertyOp4
 70
     1
102
RTVSPropertyOp5
 70
     1
102
RTVSPropertyOp6
 70
     1
102
RTVSPropertyOp7
 70
     1
102
RTVSPropertyOp8
 70
     1
102
RTVSPropertyOp9
 70
     1
102
RTVSPropertyOp10
 70
     1
102
RTVSPropertyOp11
 70
     1
102
RTVSPropertyOp12
 70
     1
102
RTVSPropertyOp13
 70
     1
102
RTVSPropertyOp14
 70
     1
102
RTVSPropertyOp15
 70
     1
102
RTVSPropertyOp16
 70
     1
102
RTVSPropertyOp17
 70
     1
102
RTVSPropertyOp18
 70
     1
102
RTVSPropertyOp19
 70
     1
102
RTVSPropertyOp20
 70
     1
102
RTVSPropertyOp21
 70
     1
102
RTVSPropertyOp22
 70
     1
102
RTVSPropertyOp23
 70
     1
102
RTVSPropertyOp24
 70
     1
102
RTVSPropertyOp25
 70
     1
102
RTVSPropertyOp26
 70
     1
102
RTVSPropertyOp27
 70
     1
102
RTVSPropertyOp28
 70
     1
102
RTVSPropertyOp29
 70
     1
102
RTVSPropertyOp30
 70
     1
102
RTVSPropertyOp31
 70
     1
102
RTVSPropertyOp32
 70
     1
102
RTVSPropertyOp33
 70
     1
102
RTVSPropertyOp34
 70
     1
102
RTVSPropertyOp35
 70
     1
102
RTVSPropertyOp36
 70
     1
102
RTVSPropertyOp37
 70
     1
102
RTVSPropertyOp38
 70
     1
102
RTVSPropertyOp39
 70
     1
102
RTVSPropertyOp40
 70
     1
102
RTVSPropertyOp41
 70
     1
102
RTVSPropertyOp42
 70
     1
102
RTVSPropertyOp43
 70
     1
102
RTVSPropertyOp44
 70
     1
102
RTVSPropertyOp45
 70
     1
102
RTVSPropertyOp46
 70
     1
102
RTVSPropertyOp47
 70
     1
102
RTVSPropertyOp48
 70
     1
102
RTVSPropertyOp49
 70
     1
102
RTVSPropertyOp50
 70
     1
102
RTVSPropertyOp51
 70
     0
102
RTVSPropertyOp52
 70
     0
102
RTVSPropertyOp53
 70
     1
102
RTVSPropertyOp54
 70
     1
102
RTVSPropertyOp55
 70
     1
102
RTVSPropertyOp56
 70
     1
102
RTVSPropertyOp57
 70
     1
102
RTVSPropertyOp58
 70
     1
102
RTVSPropertyOp59
 70
     1
102
RTVSPropertyOp60
 70
     1
102
RTVSPropertyOp61
 70
     1
102
RTVSPropertyOp62
 70
     1
  0
XRECORD
  5
813
102
{ACAD_REACTORS
330
812
102
}
330
812
100
AcDbXrecord
280
     1
102
RTVSPost2010Prop28
280
     0
102
RTVSPost2010PropOp28
 70
     1
102
RTVSPost2010Prop29
280
     1
102
RTVSPost2010PropOp29
 70
     1
102
RTVSPost2010Prop30
280
     1
102
RTVSPost2010PropOp30
 70
     1
102
RTVSPost2010Prop31
280
     0
102
RTVSPost2010PropOp31
 70
     1
102
RTVSPost2010Prop32
280
     0
102
RTVSPost2010PropOp32
 70
     1
102
RTVSPost2010Prop33
280
     0
102
RTVSPost2010PropOp33
 70
     1
102
RTVSPost2010Prop34
280
     0
102
RTVSPost2010PropOp34
 70
     1
102
RTVSPost2010Prop35
280
     0
102
RTVSPost2010PropOp35
 70
     1
102
RTVSPost2010Prop36
280
     0
102
RTVSPost2010PropOp36
 70
     1
102
RTVSPost2010Prop37
 90
       50
102
RTVSPost2010PropOp37
 70
     1
102
RTVSPost2010Prop38
140
0.0
102
RTVSPost2010PropOp38
 70
     1
102
RTVSPost2010Prop39
140
1.0
102
RTVSPost2010PropOp39
 70
     1
102
RTVSPost2010Prop40
 90
        0
102
RTVSPost2010PropOp40
 70
     1
102
RTVSPost2010Prop41ColorIndex
 90
       18
102
RTVSPost2010Prop41ColorRGB
 90
        0
102
RTVSPost2010PropOp41
 70
     1
102
RTVSPost2010Prop42
 90
       50
102
RTVSPost2010PropOp42
 70
     1
102
RTVSPost2010Prop43
 90
        3
102
RTVSPost2010PropOp43
 70
     1
102
RTVSPost2010Prop44ColorIndex
 90
        5
102
RTVSPost2010Prop44ColorRGB
 90
      255
102
RTVSPost2010PropOp44
 70
     1
102
RTVSPost2010Prop45
280
     0
102
RTVSPost2010PropOp45
 70
     1
102
RTVSPost2010Prop46
 90
       50
102
RTVSPost2010PropOp46
 70
     1
102
RTVSPost2010Prop47
 90
       50
102
RTVSPost2010PropOp47
 70
     1
102
RTVSPost2010Prop48
 90
       50
102
RTVSPost2010PropOp48
 70
     1
102
RTVSPost2010Prop49
280
     0
102
RTVSPost2010PropOp49
 70
     1
102
RTVSPost2010Prop50
 90
       50
102
RTVSPost2010PropOp50
 70
     1
102
RTVSPost2010Prop51ColorIndex
 90
      256
102
RTVSPost2010Prop51ColorRGB
 90
-16777216
102
RTVSPost2010PropOp51
 70
     0
102
RTVSPost2010Prop52
140
1.0
102
RTVSPost2010PropOp52
 70
     0
102
RTVSPost2010Prop53
 90
        2
102
RTVSPost2010PropOp53
 70
     1
102
RTVSPost2010Prop54
  1
strokes_ogs.tif
102
RTVSPost2010PropOp54
 70
     1
102
RTVSPost2010Prop55
280
     0
102
RTVSPost2010PropOp55
 70
     1
102
RTVSPost2010Prop56
140
1.0
102
RTVSPost2010PropOp56
 70
     1
102
RTVSPost2010Prop57
140
1.0
102
RTVSPost2010PropOp57
 70
     1
102
RTVSPropertyOp0
 70
     1
102
RTVSPropertyOp1
 70
     1
102
RTVSPropertyOp2
 70
     1
102
RTVSPropertyOp3
 70
     1
102
RTVSPropertyOp4
 70
     1
102
RTVSPropertyOp5
 70
     1
102
RTVSPropertyOp6
 70
     1
102
RTVSPropertyOp7
 70
     1
102
RTVSPropertyOp8
 70
     1
102
RTVSPropertyOp9
 70
     1
102
RTVSPropertyOp10
 70
     1
102
RTVSPropertyOp11
 70
     1
102
RTVSPropertyOp12
 70
     1
102
RTVSPropertyOp13
 70
     1
102
RTVSPropertyOp14
 70
     1
102
RTVSPropertyOp15
 70
     1
102
RTVSPropertyOp16
 70
     1
102
RTVSPropertyOp17
 70
     1
102
RTVSPropertyOp18
 70
     1
102
RTVSPropertyOp19
 70
     1
102
RTVSPropertyOp20
 70
     1
102
RTVSPropertyOp21
 70
     1
102
RTVSPropertyOp22
 70
     1
102
RTVSPropertyOp23
 70
     1
102
RTVSPropertyOp24
 70
     1
102
RTVSPropertyOp25
 70
     1
102
RTVSPropertyOp26
 70
     1
102
RTVSPropertyOp27
 70
     1
102
RTVSPropertyOp28
 70
     1
102
RTVSPropertyOp29
 70
     1
102
RTVSPropertyOp30
 70
     1
102
RTVSPropertyOp31
 70
     1
102
RTVSPropertyOp32
 70
     1
102
RTVSPropertyOp33
 70
     1
102
RTVSPropertyOp34
 70
     1
102
RTVSPropertyOp35
 70
     1
102
RTVSPropertyOp36
 70
     1
102
RTVSPropertyOp37
 70
     1
102
RTVSPropertyOp38
 70
     1
102
RTVSPropertyOp39
 70
     1
102
RTVSPropertyOp40
 70
     1
102
RTVSPropertyOp41
 70
     1
102
RTVSPropertyOp42
 70
     1
102
RTVSPropertyOp43
 70
     1
102
RTVSPropertyOp44
 70
     1
102
RTVSPropertyOp45
 70
     1
102
RTVSPropertyOp46
 70
     1
102
RTVSPropertyOp47
 70
     1
102
RTVSPropertyOp48
 70
     1
102
RTVSPropertyOp49
 70
     1
102
RTVSPropertyOp50
 70
     1
102
RTVSPropertyOp51
 70
     0
102
RTVSPropertyOp52
 70
     0
102
RTVSPropertyOp53
 70
     1
102
RTVSPropertyOp54
 70
     1
102
RTVSPropertyOp55
 70
     1
102
RTVSPropertyOp56
 70
     1
102
RTVSPropertyOp57
 70
     1
102
RTVSPropertyOp58
 70
     1
102
RTVSPropertyOp59
 70
     1
102
RTVSPropertyOp60
 70
     1
102
RTVSPropertyOp61
 70
     1
102
RTVSPropertyOp62
 70
     1
  0
XRECORD
  5
821
102
{ACAD_REACTORS
330
820
102
}
330
820
100
AcDbXrecord
280
     1
102
RTVSPost2010Prop28
280
     0
102
RTVSPost2010PropOp28
 70
     1
102
RTVSPost2010Prop29
280
     1
102
RTVSPost2010PropOp29
 70
     1
102
RTVSPost2010Prop30
280
     1
102
RTVSPost2010PropOp30
 70
     1
102
RTVSPost2010Prop31
280
     0
102
RTVSPost2010PropOp31
 70
     1
102
RTVSPost2010Prop32
280
     0
102
RTVSPost2010PropOp32
 70
     1
102
RTVSPost2010Prop33
280
     0
102
RTVSPost2010PropOp33
 70
     1
102
RTVSPost2010Prop34
280
     0
102
RTVSPost2010PropOp34
 70
     1
102
RTVSPost2010Prop35
280
     0
102
RTVSPost2010PropOp35
 70
     1
102
RTVSPost2010Prop36
280
     0
102
RTVSPost2010PropOp36
 70
     1
102
RTVSPost2010Prop37
 90
       50
102
RTVSPost2010PropOp37
 70
     1
102
RTVSPost2010Prop38
140
0.0
102
RTVSPost2010PropOp38
 70
     1
102
RTVSPost2010Prop39
140
1.0
102
RTVSPost2010PropOp39
 70
     1
102
RTVSPost2010Prop40
 90
        0
102
RTVSPost2010PropOp40
 70
     1
102
RTVSPost2010Prop41ColorIndex
 90
       18
102
RTVSPost2010Prop41ColorRGB
 90
        0
102
RTVSPost2010PropOp41
 70
     1
102
RTVSPost2010Prop42
 90
       50
102
RTVSPost2010PropOp42
 70
     1
102
RTVSPost2010Prop43
 90
        3
102
RTVSPost2010PropOp43
 70
     1
102
RTVSPost2010Prop44ColorIndex
 90
        5
102
RTVSPost2010Prop44ColorRGB
 90
      255
102
RTVSPost2010PropOp44
 70
     1
102
RTVSPost2010Prop45
280
     0
102
RTVSPost2010PropOp45
 70
     1
102
RTVSPost2010Prop46
 90
       50
102
RTVSPost2010PropOp46
 70
     1
102
RTVSPost2010Prop47
 90
       50
102
RTVSPost2010PropOp47
 70
     1
102
RTVSPost2010Prop48
 90
       50
102
RTVSPost2010PropOp48
 70
     1
102
RTVSPost2010Prop49
280
     0
102
RTVSPost2010PropOp49
 70
     1
102
RTVSPost2010Prop50
 90
       50
102
RTVSPost2010PropOp50
 70
     1
102
RTVSPost2010Prop51ColorIndex
 90
      256
102
RTVSPost2010Prop51ColorRGB
 90
-16777216
102
RTVSPost2010PropOp51
 70
     0
102
RTVSPost2010Prop52
140
1.0
102
RTVSPost2010PropOp52
 70
     0
102
RTVSPost2010Prop53
 90
        2
102
RTVSPost2010PropOp53
 70
     1
102
RTVSPost2010Prop54
  1
strokes_ogs.tif
102
RTVSPost2010PropOp54
 70
     1
102
RTVSPost2010Prop55
280
     0
102
RTVSPost2010PropOp55
 70
     1
102
RTVSPost2010Prop56
140
1.0
102
RTVSPost2010PropOp56
 70
     1
102
RTVSPost2010Prop57
140
1.0
102
RTVSPost2010PropOp57
 70
     1
102
RTVSPropertyOp0
 70
     1
102
RTVSPropertyOp1
 70
     1
102
RTVSPropertyOp2
 70
     1
102
RTVSPropertyOp3
 70
     1
102
RTVSPropertyOp4
 70
     1
102
RTVSPropertyOp5
 70
     1
102
RTVSPropertyOp6
 70
     1
102
RTVSPropertyOp7
 70
     1
102
RTVSPropertyOp8
 70
     1
102
RTVSPropertyOp9
 70
     1
102
RTVSPropertyOp10
 70
     1
102
RTVSPropertyOp11
 70
     1
102
RTVSPropertyOp12
 70
     1
102
RTVSPropertyOp13
 70
     1
102
RTVSPropertyOp14
 70
     1
102
RTVSPropertyOp15
 70
     1
102
RTVSPropertyOp16
 70
     1
102
RTVSPropertyOp17
 70
     1
102
RTVSPropertyOp18
 70
     1
102
RTVSPropertyOp19
 70
     1
102
RTVSPropertyOp20
 70
     1
102
RTVSPropertyOp21
 70
     1
102
RTVSPropertyOp22
 70
     1
102
RTVSPropertyOp23
 70
     1
102
RTVSPropertyOp24
 70
     1
102
RTVSPropertyOp25
 70
     1
102
RTVSPropertyOp26
 70
     1
102
RTVSPropertyOp27
 70
     1
102
RTVSPropertyOp28
 70
     1
102
RTVSPropertyOp29
 70
     1
102
RTVSPropertyOp30
 70
     1
102
RTVSPropertyOp31
 70
     1
102
RTVSPropertyOp32
 70
     1
102
RTVSPropertyOp33
 70
     1
102
RTVSPropertyOp34
 70
     1
102
RTVSPropertyOp35
 70
     1
102
RTVSPropertyOp36
 70
     1
102
RTVSPropertyOp37
 70
     1
102
RTVSPropertyOp38
 70
     1
102
RTVSPropertyOp39
 70
     1
102
RTVSPropertyOp40
 70
     1
102
RTVSPropertyOp41
 70
     1
102
RTVSPropertyOp42
 70
     1
102
RTVSPropertyOp43
 70
     1
102
RTVSPropertyOp44
 70
     1
102
RTVSPropertyOp45
 70
     1
102
RTVSPropertyOp46
 70
     1
102
RTVSPropertyOp47
 70
     1
102
RTVSPropertyOp48
 70
     1
102
RTVSPropertyOp49
 70
     1
102
RTVSPropertyOp50
 70
     1
102
RTVSPropertyOp51
 70
     0
102
RTVSPropertyOp52
 70
     0
102
RTVSPropertyOp53
 70
     1
102
RTVSPropertyOp54
 70
     1
102
RTVSPropertyOp55
 70
     1
102
RTVSPropertyOp56
 70
     1
102
RTVSPropertyOp57
 70
     1
102
RTVSPropertyOp58
 70
     1
102
RTVSPropertyOp59
 70
     1
102
RTVSPropertyOp60
 70
     1
102
RTVSPropertyOp61
 70
     1
102
RTVSPropertyOp62
 70
     1
  0
XRECORD
  5
829
102
{ACAD_REACTORS
330
828
102
}
330
828
100
AcDbXrecord
280
     1
102
RTVSPost2010Prop28
280
     0
102
RTVSPost2010PropOp28
 70
     1
102
RTVSPost2010Prop29
280
     1
102
RTVSPost2010PropOp29
 70
     1
102
RTVSPost2010Prop30
280
     1
102
RTVSPost2010PropOp30
 70
     1
102
RTVSPost2010Prop31
280
     0
102
RTVSPost2010PropOp31
 70
     1
102
RTVSPost2010Prop32
280
     0
102
RTVSPost2010PropOp32
 70
     1
102
RTVSPost2010Prop33
280
     0
102
RTVSPost2010PropOp33
 70
     1
102
RTVSPost2010Prop34
280
     0
102
RTVSPost2010PropOp34
 70
     1
102
RTVSPost2010Prop35
280
     0
102
RTVSPost2010PropOp35
 70
     1
102
RTVSPost2010Prop36
280
     0
102
RTVSPost2010PropOp36
 70
     1
102
RTVSPost2010Prop37
 90
       50
102
RTVSPost2010PropOp37
 70
     1
102
RTVSPost2010Prop38
140
0.0
102
RTVSPost2010PropOp38
 70
     1
102
RTVSPost2010Prop39
140
1.0
102
RTVSPost2010PropOp39
 70
     1
102
RTVSPost2010Prop40
 90
        0
102
RTVSPost2010PropOp40
 70
     1
102
RTVSPost2010Prop41ColorIndex
 90
       18
102
RTVSPost2010Prop41ColorRGB
 90
        0
102
RTVSPost2010PropOp41
 70
     1
102
RTVSPost2010Prop42
 90
       50
102
RTVSPost2010PropOp42
 70
     1
102
RTVSPost2010Prop43
 90
        3
102
RTVSPost2010PropOp43
 70
     1
102
RTVSPost2010Prop44ColorIndex
 90
        5
102
RTVSPost2010Prop44ColorRGB
 90
      255
102
RTVSPost2010PropOp44
 70
     1
102
RTVSPost2010Prop45
280
     0
102
RTVSPost2010PropOp45
 70
     1
102
RTVSPost2010Prop46
 90
       50
102
RTVSPost2010PropOp46
 70
     1
102
RTVSPost2010Prop47
 90
       50
102
RTVSPost2010PropOp47
 70
     1
102
RTVSPost2010Prop48
 90
       50
102
RTVSPost2010PropOp48
 70
     1
102
RTVSPost2010Prop49
280
     0
102
RTVSPost2010PropOp49
 70
     1
102
RTVSPost2010Prop50
 90
       50
102
RTVSPost2010PropOp50
 70
     1
102
RTVSPost2010Prop51ColorIndex
 90
      256
102
RTVSPost2010Prop51ColorRGB
 90
-16777216
102
RTVSPost2010PropOp51
 70
     0
102
RTVSPost2010Prop52
140
1.0
102
RTVSPost2010PropOp52
 70
     0
102
RTVSPost2010Prop53
 90
        2
102
RTVSPost2010PropOp53
 70
     1
102
RTVSPost2010Prop54
  1
strokes_ogs.tif
102
RTVSPost2010PropOp54
 70
     1
102
RTVSPost2010Prop55
280
     0
102
RTVSPost2010PropOp55
 70
     1
102
RTVSPost2010Prop56
140
1.0
102
RTVSPost2010PropOp56
 70
     1
102
RTVSPost2010Prop57
140
1.0
102
RTVSPost2010PropOp57
 70
     1
102
RTVSPropertyOp0
 70
     1
102
RTVSPropertyOp1
 70
     1
102
RTVSPropertyOp2
 70
     1
102
RTVSPropertyOp3
 70
     1
102
RTVSPropertyOp4
 70
     1
102
RTVSPropertyOp5
 70
     1
102
RTVSPropertyOp6
 70
     1
102
RTVSPropertyOp7
 70
     1
102
RTVSPropertyOp8
 70
     1
102
RTVSPropertyOp9
 70
     1
102
RTVSPropertyOp10
 70
     1
102
RTVSPropertyOp11
 70
     1
102
RTVSPropertyOp12
 70
     1
102
RTVSPropertyOp13
 70
     1
102
RTVSPropertyOp14
 70
     1
102
RTVSPropertyOp15
 70
     1
102
RTVSPropertyOp16
 70
     1
102
RTVSPropertyOp17
 70
     1
102
RTVSPropertyOp18
 70
     1
102
RTVSPropertyOp19
 70
     1
102
RTVSPropertyOp20
 70
     1
102
RTVSPropertyOp21
 70
     1
102
RTVSPropertyOp22
 70
     1
102
RTVSPropertyOp23
 70
     1
102
RTVSPropertyOp24
 70
     1
102
RTVSPropertyOp25
 70
     1
102
RTVSPropertyOp26
 70
     1
102
RTVSPropertyOp27
 70
     1
102
RTVSPropertyOp28
 70
     1
102
RTVSPropertyOp29
 70
     1
102
RTVSPropertyOp30
 70
     1
102
RTVSPropertyOp31
 70
     1
102
RTVSPropertyOp32
 70
     1
102
RTVSPropertyOp33
 70
     1
102
RTVSPropertyOp34
 70
     1
102
RTVSPropertyOp35
 70
     1
102
RTVSPropertyOp36
 70
     1
102
RTVSPropertyOp37
 70
     1
102
RTVSPropertyOp38
 70
     1
102
RTVSPropertyOp39
 70
     1
102
RTVSPropertyOp40
 70
     1
102
RTVSPropertyOp41
 70
     1
102
RTVSPropertyOp42
 70
     1
102
RTVSPropertyOp43
 70
     1
102
RTVSPropertyOp44
 70
     1
102
RTVSPropertyOp45
 70
     1
102
RTVSPropertyOp46
 70
     1
102
RTVSPropertyOp47
 70
     1
102
RTVSPropertyOp48
 70
     1
102
RTVSPropertyOp49
 70
     1
102
RTVSPropertyOp50
 70
     1
102
RTVSPropertyOp51
 70
     0
102
RTVSPropertyOp52
 70
     0
102
RTVSPropertyOp53
 70
     1
102
RTVSPropertyOp54
 70
     1
102
RTVSPropertyOp55
 70
     1
102
RTVSPropertyOp56
 70
     1
102
RTVSPropertyOp57
 70
     1
102
RTVSPropertyOp58
 70
     1
102
RTVSPropertyOp59
 70
     1
102
RTVSPropertyOp60
 70
     1
102
RTVSPropertyOp61
 70
     1
102
RTVSPropertyOp62
 70
     1
  0
XRECORD
  5
81B
102
{ACAD_REACTORS
330
81A
102
}
330
81A
100
AcDbXrecord
280
     1
102
RTVSPost2010Prop28
280
     0
102
RTVSPost2010PropOp28
 70
     1
102
RTVSPost2010Prop29
280
     1
102
RTVSPost2010PropOp29
 70
     1
102
RTVSPost2010Prop30
280
     1
102
RTVSPost2010PropOp30
 70
     1
102
RTVSPost2010Prop31
280
     0
102
RTVSPost2010PropOp31
 70
     1
102
RTVSPost2010Prop32
280
     0
102
RTVSPost2010PropOp32
 70
     1
102
RTVSPost2010Prop33
280
     0
102
RTVSPost2010PropOp33
 70
     1
102
RTVSPost2010Prop34
280
     0
102
RTVSPost2010PropOp34
 70
     1
102
RTVSPost2010Prop35
280
     0
102
RTVSPost2010PropOp35
 70
     1
102
RTVSPost2010Prop36
280
     0
102
RTVSPost2010PropOp36
 70
     1
102
RTVSPost2010Prop37
 90
       50
102
RTVSPost2010PropOp37
 70
     1
102
RTVSPost2010Prop38
140
0.0
102
RTVSPost2010PropOp38
 70
     1
102
RTVSPost2010Prop39
140
1.0
102
RTVSPost2010PropOp39
 70
     1
102
RTVSPost2010Prop40
 90
        0
102
RTVSPost2010PropOp40
 70
     1
102
RTVSPost2010Prop41ColorIndex
 90
       18
102
RTVSPost2010Prop41ColorRGB
 90
        0
102
RTVSPost2010PropOp41
 70
     1
102
RTVSPost2010Prop42
 90
       50
102
RTVSPost2010PropOp42
 70
     1
102
RTVSPost2010Prop43
 90
        3
102
RTVSPost2010PropOp43
 70
     1
102
RTVSPost2010Prop44ColorIndex
 90
        5
102
RTVSPost2010Prop44ColorRGB
 90
      255
102
RTVSPost2010PropOp44
 70
     1
102
RTVSPost2010Prop45
280
     0
102
RTVSPost2010PropOp45
 70
     1
102
RTVSPost2010Prop46
 90
       50
102
RTVSPost2010PropOp46
 70
     1
102
RTVSPost2010Prop47
 90
       50
102
RTVSPost2010PropOp47
 70
     1
102
RTVSPost2010Prop48
 90
       50
102
RTVSPost2010PropOp48
 70
     1
102
RTVSPost2010Prop49
280
     0
102
RTVSPost2010PropOp49
 70
     1
102
RTVSPost2010Prop50
 90
       50
102
RTVSPost2010PropOp50
 70
     1
102
RTVSPost2010Prop51ColorIndex
 90
      256
102
RTVSPost2010Prop51ColorRGB
 90
-16777216
102
RTVSPost2010PropOp51
 70
     0
102
RTVSPost2010Prop52
140
1.0
102
RTVSPost2010PropOp52
 70
     0
102
RTVSPost2010Prop53
 90
        2
102
RTVSPost2010PropOp53
 70
     1
102
RTVSPost2010Prop54
  1
strokes_ogs.tif
102
RTVSPost2010PropOp54
 70
     1
102
RTVSPost2010Prop55
280
     0
102
RTVSPost2010PropOp55
 70
     1
102
RTVSPost2010Prop56
140
1.0
102
RTVSPost2010PropOp56
 70
     1
102
RTVSPost2010Prop57
140
1.0
102
RTVSPost2010PropOp57
 70
     1
102
RTVSPropertyOp0
 70
     1
102
RTVSPropertyOp1
 70
     1
102
RTVSPropertyOp2
 70
     1
102
RTVSPropertyOp3
 70
     1
102
RTVSPropertyOp4
 70
     1
102
RTVSPropertyOp5
 70
     1
102
RTVSPropertyOp6
 70
     1
102
RTVSPropertyOp7
 70
     1
102
RTVSPropertyOp8
 70
     1
102
RTVSPropertyOp9
 70
     1
102
RTVSPropertyOp10
 70
     1
102
RTVSPropertyOp11
 70
     1
102
RTVSPropertyOp12
 70
     1
102
RTVSPropertyOp13
 70
     1
102
RTVSPropertyOp14
 70
     1
102
RTVSPropertyOp15
 70
     1
102
RTVSPropertyOp16
 70
     1
102
RTVSPropertyOp17
 70
     1
102
RTVSPropertyOp18
 70
     1
102
RTVSPropertyOp19
 70
     1
102
RTVSPropertyOp20
 70
     1
102
RTVSPropertyOp21
 70
     1
102
RTVSPropertyOp22
 70
     1
102
RTVSPropertyOp23
 70
     1
102
RTVSPropertyOp24
 70
     1
102
RTVSPropertyOp25
 70
     1
102
RTVSPropertyOp26
 70
     1
102
RTVSPropertyOp27
 70
     1
102
RTVSPropertyOp28
 70
     1
102
RTVSPropertyOp29
 70
     1
102
RTVSPropertyOp30
 70
     1
102
RTVSPropertyOp31
 70
     1
102
RTVSPropertyOp32
 70
     1
102
RTVSPropertyOp33
 70
     1
102
RTVSPropertyOp34
 70
     1
102
RTVSPropertyOp35
 70
     1
102
RTVSPropertyOp36
 70
     1
102
RTVSPropertyOp37
 70
     1
102
RTVSPropertyOp38
 70
     1
102
RTVSPropertyOp39
 70
     1
102
RTVSPropertyOp40
 70
     1
102
RTVSPropertyOp41
 70
     1
102
RTVSPropertyOp42
 70
     1
102
RTVSPropertyOp43
 70
     1
102
RTVSPropertyOp44
 70
     1
102
RTVSPropertyOp45
 70
     1
102
RTVSPropertyOp46
 70
     1
102
RTVSPropertyOp47
 70
     1
102
RTVSPropertyOp48
 70
     1
102
RTVSPropertyOp49
 70
     1
102
RTVSPropertyOp50
 70
     1
102
RTVSPropertyOp51
 70
     0
102
RTVSPropertyOp52
 70
     0
102
RTVSPropertyOp53
 70
     1
102
RTVSPropertyOp54
 70
     1
102
RTVSPropertyOp55
 70
     1
102
RTVSPropertyOp56
 70
     1
102
RTVSPropertyOp57
 70
     1
102
RTVSPropertyOp58
 70
     1
102
RTVSPropertyOp59
 70
     1
102
RTVSPropertyOp60
 70
     1
102
RTVSPropertyOp61
 70
     1
102
RTVSPropertyOp62
 70
     1
  0
XRECORD
  5
81F
102
{ACAD_REACTORS
330
81E
102
}
330
81E
100
AcDbXrecord
280
     1
102
RTVSPost2010Prop28
280
     0
102
RTVSPost2010PropOp28
 70
     1
102
RTVSPost2010Prop29
280
     1
102
RTVSPost2010PropOp29
 70
     1
102
RTVSPost2010Prop30
280
     1
102
RTVSPost2010PropOp30
 70
     1
102
RTVSPost2010Prop31
280
     0
102
RTVSPost2010PropOp31
 70
     1
102
RTVSPost2010Prop32
280
     0
102
RTVSPost2010PropOp32
 70
     1
102
RTVSPost2010Prop33
280
     0
102
RTVSPost2010PropOp33
 70
     1
102
RTVSPost2010Prop34
280
     0
102
RTVSPost2010PropOp34
 70
     1
102
RTVSPost2010Prop35
280
     0
102
RTVSPost2010PropOp35
 70
     1
102
RTVSPost2010Prop36
280
     0
102
RTVSPost2010PropOp36
 70
     1
102
RTVSPost2010Prop37
 90
       50
102
RTVSPost2010PropOp37
 70
     1
102
RTVSPost2010Prop38
140
0.0
102
RTVSPost2010PropOp38
 70
     1
102
RTVSPost2010Prop39
140
1.0
102
RTVSPost2010PropOp39
 70
     1
102
RTVSPost2010Prop40
 90
        0
102
RTVSPost2010PropOp40
 70
     1
102
RTVSPost2010Prop41ColorIndex
 90
       18
102
RTVSPost2010Prop41ColorRGB
 90
        0
102
RTVSPost2010PropOp41
 70
     1
102
RTVSPost2010Prop42
 90
       50
102
RTVSPost2010PropOp42
 70
     1
102
RTVSPost2010Prop43
 90
        3
102
RTVSPost2010PropOp43
 70
     1
102
RTVSPost2010Prop44ColorIndex
 90
        5
102
RTVSPost2010Prop44ColorRGB
 90
      255
102
RTVSPost2010PropOp44
 70
     1
102
RTVSPost2010Prop45
280
     0
102
RTVSPost2010PropOp45
 70
     1
102
RTVSPost2010Prop46
 90
       50
102
RTVSPost2010PropOp46
 70
     1
102
RTVSPost2010Prop47
 90
       50
102
RTVSPost2010PropOp47
 70
     1
102
RTVSPost2010Prop48
 90
       50
102
RTVSPost2010PropOp48
 70
     1
102
RTVSPost2010Prop49
280
     0
102
RTVSPost2010PropOp49
 70
     1
102
RTVSPost2010Prop50
 90
       50
102
RTVSPost2010PropOp50
 70
     1
102
RTVSPost2010Prop51ColorIndex
 90
      256
102
RTVSPost2010Prop51ColorRGB
 90
-16777216
102
RTVSPost2010PropOp51
 70
     0
102
RTVSPost2010Prop52
140
1.0
102
RTVSPost2010PropOp52
 70
     0
102
RTVSPost2010Prop53
 90
        2
102
RTVSPost2010PropOp53
 70
     1
102
RTVSPost2010Prop54
  1
strokes_ogs.tif
102
RTVSPost2010PropOp54
 70
     1
102
RTVSPost2010Prop55
280
     0
102
RTVSPost2010PropOp55
 70
     1
102
RTVSPost2010Prop56
140
1.0
102
RTVSPost2010PropOp56
 70
     1
102
RTVSPost2010Prop57
140
1.0
102
RTVSPost2010PropOp57
 70
     1
102
RTVSPropertyOp0
 70
     1
102
RTVSPropertyOp1
 70
     1
102
RTVSPropertyOp2
 70
     1
102
RTVSPropertyOp3
 70
     1
102
RTVSPropertyOp4
 70
     1
102
RTVSPropertyOp5
 70
     1
102
RTVSPropertyOp6
 70
     1
102
RTVSPropertyOp7
 70
     1
102
RTVSPropertyOp8
 70
     1
102
RTVSPropertyOp9
 70
     1
102
RTVSPropertyOp10
 70
     1
102
RTVSPropertyOp11
 70
     1
102
RTVSPropertyOp12
 70
     1
102
RTVSPropertyOp13
 70
     1
102
RTVSPropertyOp14
 70
     1
102
RTVSPropertyOp15
 70
     1
102
RTVSPropertyOp16
 70
     1
102
RTVSPropertyOp17
 70
     1
102
RTVSPropertyOp18
 70
     1
102
RTVSPropertyOp19
 70
     1
102
RTVSPropertyOp20
 70
     1
102
RTVSPropertyOp21
 70
     1
102
RTVSPropertyOp22
 70
     1
102
RTVSPropertyOp23
 70
     1
102
RTVSPropertyOp24
 70
     1
102
RTVSPropertyOp25
 70
     1
102
RTVSPropertyOp26
 70
     1
102
RTVSPropertyOp27
 70
     1
102
RTVSPropertyOp28
 70
     1
102
RTVSPropertyOp29
 70
     1
102
RTVSPropertyOp30
 70
     1
102
RTVSPropertyOp31
 70
     1
102
RTVSPropertyOp32
 70
     1
102
RTVSPropertyOp33
 70
     1
102
RTVSPropertyOp34
 70
     1
102
RTVSPropertyOp35
 70
     1
102
RTVSPropertyOp36
 70
     1
102
RTVSPropertyOp37
 70
     1
102
RTVSPropertyOp38
 70
     1
102
RTVSPropertyOp39
 70
     1
102
RTVSPropertyOp40
 70
     1
102
RTVSPropertyOp41
 70
     1
102
RTVSPropertyOp42
 70
     1
102
RTVSPropertyOp43
 70
     1
102
RTVSPropertyOp44
 70
     1
102
RTVSPropertyOp45
 70
     1
102
RTVSPropertyOp46
 70
     1
102
RTVSPropertyOp47
 70
     1
102
RTVSPropertyOp48
 70
     1
102
RTVSPropertyOp49
 70
     1
102
RTVSPropertyOp50
 70
     1
102
RTVSPropertyOp51
 70
     0
102
RTVSPropertyOp52
 70
     0
102
RTVSPropertyOp53
 70
     1
102
RTVSPropertyOp54
 70
     1
102
RTVSPropertyOp55
 70
     1
102
RTVSPropertyOp56
 70
     1
102
RTVSPropertyOp57
 70
     1
102
RTVSPropertyOp58
 70
     1
102
RTVSPropertyOp59
 70
     1
102
RTVSPropertyOp60
 70
     1
102
RTVSPropertyOp61
 70
     1
102
RTVSPropertyOp62
 70
     1
  0
XRECORD
  5
839
102
{ACAD_REACTORS
330
838
102
}
330
838
100
AcDbXrecord
280
     1
102
RTVSPost2010Prop28
280
     0
102
RTVSPost2010PropOp28
 70
     1
102
RTVSPost2010Prop29
280
     1
102
RTVSPost2010PropOp29
 70
     1
102
RTVSPost2010Prop30
280
     1
102
RTVSPost2010PropOp30
 70
     1
102
RTVSPost2010Prop31
280
     0
102
RTVSPost2010PropOp31
 70
     1
102
RTVSPost2010Prop32
280
     0
102
RTVSPost2010PropOp32
 70
     1
102
RTVSPost2010Prop33
280
     0
102
RTVSPost2010PropOp33
 70
     1
102
RTVSPost2010Prop34
280
     0
102
RTVSPost2010PropOp34
 70
     1
102
RTVSPost2010Prop35
280
     0
102
RTVSPost2010PropOp35
 70
     1
102
RTVSPost2010Prop36
280
     0
102
RTVSPost2010PropOp36
 70
     1
102
RTVSPost2010Prop37
 90
       50
102
RTVSPost2010PropOp37
 70
     0
102
RTVSPost2010Prop38
140
0.0
102
RTVSPost2010PropOp38
 70
     0
102
RTVSPost2010Prop39
140
1.0
102
RTVSPost2010PropOp39
 70
     0
102
RTVSPost2010Prop40
 90
        0
102
RTVSPost2010PropOp40
 70
     0
102
RTVSPost2010Prop41ColorIndex
 90
       18
102
RTVSPost2010Prop41ColorRGB
 90
        0
102
RTVSPost2010PropOp41
 70
     0
102
RTVSPost2010Prop42
 90
       50
102
RTVSPost2010PropOp42
 70
     0
102
RTVSPost2010Prop43
 90
        3
102
RTVSPost2010PropOp43
 70
     0
102
RTVSPost2010Prop44ColorIndex
 90
        5
102
RTVSPost2010Prop44ColorRGB
 90
      255
102
RTVSPost2010PropOp44
 70
     0
102
RTVSPost2010Prop45
280
     0
102
RTVSPost2010PropOp45
 70
     1
102
RTVSPost2010Prop46
 90
       50
102
RTVSPost2010PropOp46
 70
     0
102
RTVSPost2010Prop47
 90
       50
102
RTVSPost2010PropOp47
 70
     0
102
RTVSPost2010Prop48
 90
       50
102
RTVSPost2010PropOp48
 70
     0
102
RTVSPost2010Prop49
280
     0
102
RTVSPost2010PropOp49
 70
     1
102
RTVSPost2010Prop50
 90
       50
102
RTVSPost2010PropOp50
 70
     0
102
RTVSPost2010Prop51ColorIndex
 90
      256
102
RTVSPost2010Prop51ColorRGB
 90
-16777216
102
RTVSPost2010PropOp51
 70
     0
102
RTVSPost2010Prop52
140
1.0
102
RTVSPost2010PropOp52
 70
     0
102
RTVSPost2010Prop53
 90
        2
102
RTVSPost2010PropOp53
 70
     0
102
RTVSPost2010Prop54
  1
strokes_ogs.tif
102
RTVSPost2010PropOp54
 70
     0
102
RTVSPost2010Prop55
280
     0
102
RTVSPost2010PropOp55
 70
     1
102
RTVSPost2010Prop56
140
1.0
102
RTVSPost2010PropOp56
 70
     0
102
RTVSPost2010Prop57
140
1.0
102
RTVSPost2010PropOp57
 70
     0
102
RTVSPropertyOp0
 70
     0
102
RTVSPropertyOp1
 70
     0
102
RTVSPropertyOp2
 70
     0
102
RTVSPropertyOp3
 70
     0
102
RTVSPropertyOp4
 70
     0
102
RTVSPropertyOp5
 70
     0
102
RTVSPropertyOp6
 70
     0
102
RTVSPropertyOp7
 70
     0
102
RTVSPropertyOp8
 70
     0
102
RTVSPropertyOp9
 70
     0
102
RTVSPropertyOp10
 70
     0
102
RTVSPropertyOp11
 70
     0
102
RTVSPropertyOp12
 70
     0
102
RTVSPropertyOp13
 70
     0
102
RTVSPropertyOp14
 70
     2
102
RTVSPropertyOp15
 70
     0
102
RTVSPropertyOp16
 70
     0
102
RTVSPropertyOp17
 70
     0
102
RTVSPropertyOp18
 70
     0
102
RTVSPropertyOp19
 70
     0
102
RTVSPropertyOp20
 70
     0
102
RTVSPropertyOp21
 70
     0
102
RTVSPropertyOp22
 70
     0
102
RTVSPropertyOp23
 70
     0
102
RTVSPropertyOp24
 70
     0
102
RTVSPropertyOp25
 70
     0
102
RTVSPropertyOp26
 70
     0
102
RTVSPropertyOp27
 70
     0
102
RTVSPropertyOp28
 70
     1
102
RTVSPropertyOp29
 70
     1
102
RTVSPropertyOp30
 70
     1
102
RTVSPropertyOp31
 70
     1
102
RTVSPropertyOp32
 70
     1
102
RTVSPropertyOp33
 70
     1
102
RTVSPropertyOp34
 70
     1
102
RTVSPropertyOp35
 70
     1
102
RTVSPropertyOp36
 70
     1
102
RTVSPropertyOp37
 70
     0
102
RTVSPropertyOp38
 70
     0
102
RTVSPropertyOp39
 70
     0
102
RTVSPropertyOp40
 70
     0
102
RTVSPropertyOp41
 70
     0
102
RTVSPropertyOp42
 70
     0
102
RTVSPropertyOp43
 70
     0
102
RTVSPropertyOp44
 70
     0
102
RTVSPropertyOp45
 70
     1
102
RTVSPropertyOp46
 70
     0
102
RTVSPropertyOp47
 70
     0
102
RTVSPropertyOp48
 70
     0
102
RTVSPropertyOp49
 70
     1
102
RTVSPropertyOp50
 70
     0
102
RTVSPropertyOp51
 70
     0
102
RTVSPropertyOp52
 70
     0
102
RTVSPropertyOp53
 70
     0
102
RTVSPropertyOp54
 70
     0
102
RTVSPropertyOp55
 70
     1
102
RTVSPropertyOp56
 70
     0
102
RTVSPropertyOp57
 70
     0
102
RTVSPropertyOp58
 70
     0
102
RTVSPropertyOp59
 70
     0
102
RTVSPropertyOp60
 70
     0
102
RTVSPropertyOp61
 70
     0
102
RTVSPropertyOp62
 70
     0
  0
XRECORD
  5
827
102
{ACAD_REACTORS
330
826
102
}
330
826
100
AcDbXrecord
280
     1
102
RTVSPost2010Prop28
280
     0
102
RTVSPost2010PropOp28
 70
     1
102
RTVSPost2010Prop29
280
     1
102
RTVSPost2010PropOp29
 70
     1
102
RTVSPost2010Prop30
280
     1
102
RTVSPost2010PropOp30
 70
     1
102
RTVSPost2010Prop31
280
     0
102
RTVSPost2010PropOp31
 70
     1
102
RTVSPost2010Prop32
280
     0
102
RTVSPost2010PropOp32
 70
     1
102
RTVSPost2010Prop33
280
     0
102
RTVSPost2010PropOp33
 70
     1
102
RTVSPost2010Prop34
280
     0
102
RTVSPost2010PropOp34
 70
     1
102
RTVSPost2010Prop35
280
     0
102
RTVSPost2010PropOp35
 70
     1
102
RTVSPost2010Prop36
280
     0
102
RTVSPost2010PropOp36
 70
     1
102
RTVSPost2010Prop37
 90
       50
102
RTVSPost2010PropOp37
 70
     1
102
RTVSPost2010Prop38
140
0.0
102
RTVSPost2010PropOp38
 70
     1
102
RTVSPost2010Prop39
140
1.0
102
RTVSPost2010PropOp39
 70
     1
102
RTVSPost2010Prop40
 90
        0
102
RTVSPost2010PropOp40
 70
     1
102
RTVSPost2010Prop41ColorIndex
 90
       18
102
RTVSPost2010Prop41ColorRGB
 90
        0
102
RTVSPost2010PropOp41
 70
     1
102
RTVSPost2010Prop42
 90
       50
102
RTVSPost2010PropOp42
 70
     1
102
RTVSPost2010Prop43
 90
        3
102
RTVSPost2010PropOp43
 70
     1
102
RTVSPost2010Prop44ColorIndex
 90
        5
102
RTVSPost2010Prop44ColorRGB
 90
      255
102
RTVSPost2010PropOp44
 70
     1
102
RTVSPost2010Prop45
280
     0
102
RTVSPost2010PropOp45
 70
     1
102
RTVSPost2010Prop46
 90
       50
102
RTVSPost2010PropOp46
 70
     1
102
RTVSPost2010Prop47
 90
       50
102
RTVSPost2010PropOp47
 70
     1
102
RTVSPost2010Prop48
 90
       50
102
RTVSPost2010PropOp48
 70
     1
102
RTVSPost2010Prop49
280
     0
102
RTVSPost2010PropOp49
 70
     1
102
RTVSPost2010Prop50
 90
       50
102
RTVSPost2010PropOp50
 70
     1
102
RTVSPost2010Prop51ColorIndex
 90
      256
102
RTVSPost2010Prop51ColorRGB
 90
-16777216
102
RTVSPost2010PropOp51
 70
     0
102
RTVSPost2010Prop52
140
1.0
102
RTVSPost2010PropOp52
 70
     0
102
RTVSPost2010Prop53
 90
        2
102
RTVSPost2010PropOp53
 70
     1
102
RTVSPost2010Prop54
  1
strokes_ogs.tif
102
RTVSPost2010PropOp54
 70
     1
102
RTVSPost2010Prop55
280
     0
102
RTVSPost2010PropOp55
 70
     1
102
RTVSPost2010Prop56
140
1.0
102
RTVSPost2010PropOp56
 70
     1
102
RTVSPost2010Prop57
140
1.0
102
RTVSPost2010PropOp57
 70
     1
102
RTVSPropertyOp0
 70
     1
102
RTVSPropertyOp1
 70
     1
102
RTVSPropertyOp2
 70
     1
102
RTVSPropertyOp3
 70
     1
102
RTVSPropertyOp4
 70
     1
102
RTVSPropertyOp5
 70
     1
102
RTVSPropertyOp6
 70
     1
102
RTVSPropertyOp7
 70
     1
102
RTVSPropertyOp8
 70
     1
102
RTVSPropertyOp9
 70
     1
102
RTVSPropertyOp10
 70
     1
102
RTVSPropertyOp11
 70
     1
102
RTVSPropertyOp12
 70
     1
102
RTVSPropertyOp13
 70
     1
102
RTVSPropertyOp14
 70
     1
102
RTVSPropertyOp15
 70
     1
102
RTVSPropertyOp16
 70
     1
102
RTVSPropertyOp17
 70
     1
102
RTVSPropertyOp18
 70
     1
102
RTVSPropertyOp19
 70
     1
102
RTVSPropertyOp20
 70
     1
102
RTVSPropertyOp21
 70
     1
102
RTVSPropertyOp22
 70
     1
102
RTVSPropertyOp23
 70
     1
102
RTVSPropertyOp24
 70
     1
102
RTVSPropertyOp25
 70
     1
102
RTVSPropertyOp26
 70
     1
102
RTVSPropertyOp27
 70
     1
102
RTVSPropertyOp28
 70
     1
102
RTVSPropertyOp29
 70
     1
102
RTVSPropertyOp30
 70
     1
102
RTVSPropertyOp31
 70
     1
102
RTVSPropertyOp32
 70
     1
102
RTVSPropertyOp33
 70
     1
102
RTVSPropertyOp34
 70
     1
102
RTVSPropertyOp35
 70
     1
102
RTVSPropertyOp36
 70
     1
102
RTVSPropertyOp37
 70
     1
102
RTVSPropertyOp38
 70
     1
102
RTVSPropertyOp39
 70
     1
102
RTVSPropertyOp40
 70
     1
102
RTVSPropertyOp41
 70
     1
102
RTVSPropertyOp42
 70
     1
102
RTVSPropertyOp43
 70
     1
102
RTVSPropertyOp44
 70
     1
102
RTVSPropertyOp45
 70
     1
102
RTVSPropertyOp46
 70
     1
102
RTVSPropertyOp47
 70
     1
102
RTVSPropertyOp48
 70
     1
102
RTVSPropertyOp49
 70
     1
102
RTVSPropertyOp50
 70
     1
102
RTVSPropertyOp51
 70
     0
102
RTVSPropertyOp52
 70
     0
102
RTVSPropertyOp53
 70
     1
102
RTVSPropertyOp54
 70
     1
102
RTVSPropertyOp55
 70
     1
102
RTVSPropertyOp56
 70
     1
102
RTVSPropertyOp57
 70
     1
102
RTVSPropertyOp58
 70
     1
102
RTVSPropertyOp59
 70
     1
102
RTVSPropertyOp60
 70
     1
102
RTVSPropertyOp61
 70
     1
102
RTVSPropertyOp62
 70
     1
  0
XRECORD
  5
80B
102
{ACAD_REACTORS
330
80A
102
}
330
80A
100
AcDbXrecord
280
     1
102
RTVSPost2010Prop28
280
     0
102
RTVSPost2010PropOp28
 70
     1
102
RTVSPost2010Prop29
280
     1
102
RTVSPost2010PropOp29
 70
     1
102
RTVSPost2010Prop30
280
     1
102
RTVSPost2010PropOp30
 70
     1
102
RTVSPost2010Prop31
280
     0
102
RTVSPost2010PropOp31
 70
     1
102
RTVSPost2010Prop32
280
     0
102
RTVSPost2010PropOp32
 70
     1
102
RTVSPost2010Prop33
280
     0
102
RTVSPost2010PropOp33
 70
     1
102
RTVSPost2010Prop34
280
     0
102
RTVSPost2010PropOp34
 70
     1
102
RTVSPost2010Prop35
280
     0
102
RTVSPost2010PropOp35
 70
     1
102
RTVSPost2010Prop36
280
     0
102
RTVSPost2010PropOp36
 70
     1
102
RTVSPost2010Prop37
 90
       50
102
RTVSPost2010PropOp37
 70
     1
102
RTVSPost2010Prop38
140
0.0
102
RTVSPost2010PropOp38
 70
     1
102
RTVSPost2010Prop39
140
1.0
102
RTVSPost2010PropOp39
 70
     1
102
RTVSPost2010Prop40
 90
        0
102
RTVSPost2010PropOp40
 70
     1
102
RTVSPost2010Prop41ColorIndex
 90
       18
102
RTVSPost2010Prop41ColorRGB
 90
        0
102
RTVSPost2010PropOp41
 70
     1
102
RTVSPost2010Prop42
 90
       50
102
RTVSPost2010PropOp42
 70
     1
102
RTVSPost2010Prop43
 90
        3
102
RTVSPost2010PropOp43
 70
     1
102
RTVSPost2010Prop44ColorIndex
 90
        5
102
RTVSPost2010Prop44ColorRGB
 90
      255
102
RTVSPost2010PropOp44
 70
     1
102
RTVSPost2010Prop45
280
     0
102
RTVSPost2010PropOp45
 70
     1
102
RTVSPost2010Prop46
 90
       50
102
RTVSPost2010PropOp46
 70
     1
102
RTVSPost2010Prop47
 90
       50
102
RTVSPost2010PropOp47
 70
     1
102
RTVSPost2010Prop48
 90
       50
102
RTVSPost2010PropOp48
 70
     1
102
RTVSPost2010Prop49
280
     0
102
RTVSPost2010PropOp49
 70
     1
102
RTVSPost2010Prop50
 90
       50
102
RTVSPost2010PropOp50
 70
     1
102
RTVSPost2010Prop51ColorIndex
 90
      256
102
RTVSPost2010Prop51ColorRGB
 90
-16777216
102
RTVSPost2010PropOp51
 70
     0
102
RTVSPost2010Prop52
140
1.0
102
RTVSPost2010PropOp52
 70
     0
102
RTVSPost2010Prop53
 90
        2
102
RTVSPost2010PropOp53
 70
     1
102
RTVSPost2010Prop54
  1
strokes_ogs.tif
102
RTVSPost2010PropOp54
 70
     1
102
RTVSPost2010Prop55
280
     0
102
RTVSPost2010PropOp55
 70
     1
102
RTVSPost2010Prop56
140
1.0
102
RTVSPost2010PropOp56
 70
     1
102
RTVSPost2010Prop57
140
1.0
102
RTVSPost2010PropOp57
 70
     1
102
RTVSPropertyOp0
 70
     1
102
RTVSPropertyOp1
 70
     1
102
RTVSPropertyOp2
 70
     1
102
RTVSPropertyOp3
 70
     1
102
RTVSPropertyOp4
 70
     1
102
RTVSPropertyOp5
 70
     1
102
RTVSPropertyOp6
 70
     1
102
RTVSPropertyOp7
 70
     1
102
RTVSPropertyOp8
 70
     1
102
RTVSPropertyOp9
 70
     1
102
RTVSPropertyOp10
 70
     1
102
RTVSPropertyOp11
 70
     1
102
RTVSPropertyOp12
 70
     1
102
RTVSPropertyOp13
 70
     1
102
RTVSPropertyOp14
 70
     1
102
RTVSPropertyOp15
 70
     1
102
RTVSPropertyOp16
 70
     1
102
RTVSPropertyOp17
 70
     1
102
RTVSPropertyOp18
 70
     1
102
RTVSPropertyOp19
 70
     1
102
RTVSPropertyOp20
 70
     1
102
RTVSPropertyOp21
 70
     1
102
RTVSPropertyOp22
 70
     1
102
RTVSPropertyOp23
 70
     1
102
RTVSPropertyOp24
 70
     1
102
RTVSPropertyOp25
 70
     1
102
RTVSPropertyOp26
 70
     1
102
RTVSPropertyOp27
 70
     1
102
RTVSPropertyOp28
 70
     1
102
RTVSPropertyOp29
 70
     1
102
RTVSPropertyOp30
 70
     1
102
RTVSPropertyOp31
 70
     1
102
RTVSPropertyOp32
 70
     1
102
RTVSPropertyOp33
 70
     1
102
RTVSPropertyOp34
 70
     1
102
RTVSPropertyOp35
 70
     1
102
RTVSPropertyOp36
 70
     1
102
RTVSPropertyOp37
 70
     1
102
RTVSPropertyOp38
 70
     1
102
RTVSPropertyOp39
 70
     1
102
RTVSPropertyOp40
 70
     1
102
RTVSPropertyOp41
 70
     1
102
RTVSPropertyOp42
 70
     1
102
RTVSPropertyOp43
 70
     1
102
RTVSPropertyOp44
 70
     1
102
RTVSPropertyOp45
 70
     1
102
RTVSPropertyOp46
 70
     1
102
RTVSPropertyOp47
 70
     1
102
RTVSPropertyOp48
 70
     1
102
RTVSPropertyOp49
 70
     1
102
RTVSPropertyOp50
 70
     1
102
RTVSPropertyOp51
 70
     0
102
RTVSPropertyOp52
 70
     0
102
RTVSPropertyOp53
 70
     1
102
RTVSPropertyOp54
 70
     1
102
RTVSPropertyOp55
 70
     1
102
RTVSPropertyOp56
 70
     1
102
RTVSPropertyOp57
 70
     1
102
RTVSPropertyOp58
 70
     1
102
RTVSPropertyOp59
 70
     1
102
RTVSPropertyOp60
 70
     1
102
RTVSPropertyOp61
 70
     1
102
RTVSPropertyOp62
 70
     1
  0
XRECORD
  5
80D
102
{ACAD_REACTORS
330
80C
102
}
330
80C
100
AcDbXrecord
280
     1
102
RTVSPost2010Prop28
280
     0
102
RTVSPost2010PropOp28
 70
     1
102
RTVSPost2010Prop29
280
     1
102
RTVSPost2010PropOp29
 70
     1
102
RTVSPost2010Prop30
280
     1
102
RTVSPost2010PropOp30
 70
     1
102
RTVSPost2010Prop31
280
     0
102
RTVSPost2010PropOp31
 70
     1
102
RTVSPost2010Prop32
280
     0
102
RTVSPost2010PropOp32
 70
     1
102
RTVSPost2010Prop33
280
     0
102
RTVSPost2010PropOp33
 70
     1
102
RTVSPost2010Prop34
280
     0
102
RTVSPost2010PropOp34
 70
     1
102
RTVSPost2010Prop35
280
     0
102
RTVSPost2010PropOp35
 70
     1
102
RTVSPost2010Prop36
280
     0
102
RTVSPost2010PropOp36
 70
     1
102
RTVSPost2010Prop37
 90
       50
102
RTVSPost2010PropOp37
 70
     1
102
RTVSPost2010Prop38
140
0.0
102
RTVSPost2010PropOp38
 70
     1
102
RTVSPost2010Prop39
140
1.0
102
RTVSPost2010PropOp39
 70
     1
102
RTVSPost2010Prop40
 90
        0
102
RTVSPost2010PropOp40
 70
     1
102
RTVSPost2010Prop41ColorIndex
 90
       18
102
RTVSPost2010Prop41ColorRGB
 90
        0
102
RTVSPost2010PropOp41
 70
     1
102
RTVSPost2010Prop42
 90
       50
102
RTVSPost2010PropOp42
 70
     1
102
RTVSPost2010Prop43
 90
        3
102
RTVSPost2010PropOp43
 70
     1
102
RTVSPost2010Prop44ColorIndex
 90
        5
102
RTVSPost2010Prop44ColorRGB
 90
      255
102
RTVSPost2010PropOp44
 70
     1
102
RTVSPost2010Prop45
280
     0
102
RTVSPost2010PropOp45
 70
     1
102
RTVSPost2010Prop46
 90
       50
102
RTVSPost2010PropOp46
 70
     1
102
RTVSPost2010Prop47
 90
       50
102
RTVSPost2010PropOp47
 70
     1
102
RTVSPost2010Prop48
 90
       50
102
RTVSPost2010PropOp48
 70
     1
102
RTVSPost2010Prop49
280
     0
102
RTVSPost2010PropOp49
 70
     1
102
RTVSPost2010Prop50
 90
       50
102
RTVSPost2010PropOp50
 70
     1
102
RTVSPost2010Prop51ColorIndex
 90
      256
102
RTVSPost2010Prop51ColorRGB
 90
-16777216
102
RTVSPost2010PropOp51
 70
     0
102
RTVSPost2010Prop52
140
1.0
102
RTVSPost2010PropOp52
 70
     0
102
RTVSPost2010Prop53
 90
        2
102
RTVSPost2010PropOp53
 70
     1
102
RTVSPost2010Prop54
  1
strokes_ogs.tif
102
RTVSPost2010PropOp54
 70
     1
102
RTVSPost2010Prop55
280
     0
102
RTVSPost2010PropOp55
 70
     1
102
RTVSPost2010Prop56
140
1.0
102
RTVSPost2010PropOp56
 70
     1
102
RTVSPost2010Prop57
140
1.0
102
RTVSPost2010PropOp57
 70
     1
102
RTVSPropertyOp0
 70
     1
102
RTVSPropertyOp1
 70
     1
102
RTVSPropertyOp2
 70
     1
102
RTVSPropertyOp3
 70
     1
102
RTVSPropertyOp4
 70
     1
102
RTVSPropertyOp5
 70
     1
102
RTVSPropertyOp6
 70
     1
102
RTVSPropertyOp7
 70
     1
102
RTVSPropertyOp8
 70
     1
102
RTVSPropertyOp9
 70
     1
102
RTVSPropertyOp10
 70
     1
102
RTVSPropertyOp11
 70
     1
102
RTVSPropertyOp12
 70
     1
102
RTVSPropertyOp13
 70
     1
102
RTVSPropertyOp14
 70
     1
102
RTVSPropertyOp15
 70
     1
102
RTVSPropertyOp16
 70
     1
102
RTVSPropertyOp17
 70
     1
102
RTVSPropertyOp18
 70
     1
102
RTVSPropertyOp19
 70
     1
102
RTVSPropertyOp20
 70
     1
102
RTVSPropertyOp21
 70
     1
102
RTVSPropertyOp22
 70
     1
102
RTVSPropertyOp23
 70
     1
102
RTVSPropertyOp24
 70
     1
102
RTVSPropertyOp25
 70
     1
102
RTVSPropertyOp26
 70
     1
102
RTVSPropertyOp27
 70
     1
102
RTVSPropertyOp28
 70
     1
102
RTVSPropertyOp29
 70
     1
102
RTVSPropertyOp30
 70
     1
102
RTVSPropertyOp31
 70
     1
102
RTVSPropertyOp32
 70
     1
102
RTVSPropertyOp33
 70
     1
102
RTVSPropertyOp34
 70
     1
102
RTVSPropertyOp35
 70
     1
102
RTVSPropertyOp36
 70
     1
102
RTVSPropertyOp37
 70
     1
102
RTVSPropertyOp38
 70
     1
102
RTVSPropertyOp39
 70
     1
102
RTVSPropertyOp40
 70
     1
102
RTVSPropertyOp41
 70
     1
102
RTVSPropertyOp42
 70
     1
102
RTVSPropertyOp43
 70
     1
102
RTVSPropertyOp44
 70
     1
102
RTVSPropertyOp45
 70
     1
102
RTVSPropertyOp46
 70
     1
102
RTVSPropertyOp47
 70
     1
102
RTVSPropertyOp48
 70
     1
102
RTVSPropertyOp49
 70
     1
102
RTVSPropertyOp50
 70
     1
102
RTVSPropertyOp51
 70
     0
102
RTVSPropertyOp52
 70
     0
102
RTVSPropertyOp53
 70
     1
102
RTVSPropertyOp54
 70
     1
102
RTVSPropertyOp55
 70
     1
102
RTVSPropertyOp56
 70
     1
102
RTVSPropertyOp57
 70
     1
102
RTVSPropertyOp58
 70
     1
102
RTVSPropertyOp59
 70
     1
102
RTVSPropertyOp60
 70
     1
102
RTVSPropertyOp61
 70
     1
102
RTVSPropertyOp62
 70
     1
  0
XRECORD
  5
80F
102
{ACAD_REACTORS
330
80E
102
}
330
80E
100
AcDbXrecord
280
     1
102
RTVSPost2010Prop28
280
     0
102
RTVSPost2010PropOp28
 70
     1
102
RTVSPost2010Prop29
280
     1
102
RTVSPost2010PropOp29
 70
     1
102
RTVSPost2010Prop30
280
     1
102
RTVSPost2010PropOp30
 70
     1
102
RTVSPost2010Prop31
280
     0
102
RTVSPost2010PropOp31
 70
     1
102
RTVSPost2010Prop32
280
     0
102
RTVSPost2010PropOp32
 70
     1
102
RTVSPost2010Prop33
280
     0
102
RTVSPost2010PropOp33
 70
     1
102
RTVSPost2010Prop34
280
     0
102
RTVSPost2010PropOp34
 70
     1
102
RTVSPost2010Prop35
280
     0
102
RTVSPost2010PropOp35
 70
     1
102
RTVSPost2010Prop36
280
     0
102
RTVSPost2010PropOp36
 70
     1
102
RTVSPost2010Prop37
 90
       50
102
RTVSPost2010PropOp37
 70
     1
102
RTVSPost2010Prop38
140
0.0
102
RTVSPost2010PropOp38
 70
     1
102
RTVSPost2010Prop39
140
1.0
102
RTVSPost2010PropOp39
 70
     1
102
RTVSPost2010Prop40
 90
        0
102
RTVSPost2010PropOp40
 70
     1
102
RTVSPost2010Prop41ColorIndex
 90
       18
102
RTVSPost2010Prop41ColorRGB
 90
        0
102
RTVSPost2010PropOp41
 70
     1
102
RTVSPost2010Prop42
 90
       50
102
RTVSPost2010PropOp42
 70
     1
102
RTVSPost2010Prop43
 90
        3
102
RTVSPost2010PropOp43
 70
     1
102
RTVSPost2010Prop44ColorIndex
 90
        5
102
RTVSPost2010Prop44ColorRGB
 90
      255
102
RTVSPost2010PropOp44
 70
     1
102
RTVSPost2010Prop45
280
     0
102
RTVSPost2010PropOp45
 70
     1
102
RTVSPost2010Prop46
 90
       50
102
RTVSPost2010PropOp46
 70
     1
102
RTVSPost2010Prop47
 90
       50
102
RTVSPost2010PropOp47
 70
     1
102
RTVSPost2010Prop48
 90
       50
102
RTVSPost2010PropOp48
 70
     1
102
RTVSPost2010Prop49
280
     0
102
RTVSPost2010PropOp49
 70
     1
102
RTVSPost2010Prop50
 90
       50
102
RTVSPost2010PropOp50
 70
     1
102
RTVSPost2010Prop51ColorIndex
 90
      256
102
RTVSPost2010Prop51ColorRGB
 90
-16777216
102
RTVSPost2010PropOp51
 70
     0
102
RTVSPost2010Prop52
140
1.0
102
RTVSPost2010PropOp52
 70
     0
102
RTVSPost2010Prop53
 90
        2
102
RTVSPost2010PropOp53
 70
     1
102
RTVSPost2010Prop54
  1
strokes_ogs.tif
102
RTVSPost2010PropOp54
 70
     1
102
RTVSPost2010Prop55
280
     0
102
RTVSPost2010PropOp55
 70
     1
102
RTVSPost2010Prop56
140
1.0
102
RTVSPost2010PropOp56
 70
     1
102
RTVSPost2010Prop57
140
1.0
102
RTVSPost2010PropOp57
 70
     1
102
RTVSPropertyOp0
 70
     1
102
RTVSPropertyOp1
 70
     1
102
RTVSPropertyOp2
 70
     1
102
RTVSPropertyOp3
 70
     1
102
RTVSPropertyOp4
 70
     1
102
RTVSPropertyOp5
 70
     1
102
RTVSPropertyOp6
 70
     1
102
RTVSPropertyOp7
 70
     1
102
RTVSPropertyOp8
 70
     1
102
RTVSPropertyOp9
 70
     1
102
RTVSPropertyOp10
 70
     1
102
RTVSPropertyOp11
 70
     1
102
RTVSPropertyOp12
 70
     1
102
RTVSPropertyOp13
 70
     1
102
RTVSPropertyOp14
 70
     1
102
RTVSPropertyOp15
 70
     1
102
RTVSPropertyOp16
 70
     1
102
RTVSPropertyOp17
 70
     1
102
RTVSPropertyOp18
 70
     1
102
RTVSPropertyOp19
 70
     1
102
RTVSPropertyOp20
 70
     1
102
RTVSPropertyOp21
 70
     1
102
RTVSPropertyOp22
 70
     1
102
RTVSPropertyOp23
 70
     1
102
RTVSPropertyOp24
 70
     1
102
RTVSPropertyOp25
 70
     1
102
RTVSPropertyOp26
 70
     1
102
RTVSPropertyOp27
 70
     1
102
RTVSPropertyOp28
 70
     1
102
RTVSPropertyOp29
 70
     1
102
RTVSPropertyOp30
 70
     1
102
RTVSPropertyOp31
 70
     1
102
RTVSPropertyOp32
 70
     1
102
RTVSPropertyOp33
 70
     1
102
RTVSPropertyOp34
 70
     1
102
RTVSPropertyOp35
 70
     1
102
RTVSPropertyOp36
 70
     1
102
RTVSPropertyOp37
 70
     1
102
RTVSPropertyOp38
 70
     1
102
RTVSPropertyOp39
 70
     1
102
RTVSPropertyOp40
 70
     1
102
RTVSPropertyOp41
 70
     1
102
RTVSPropertyOp42
 70
     1
102
RTVSPropertyOp43
 70
     1
102
RTVSPropertyOp44
 70
     1
102
RTVSPropertyOp45
 70
     1
102
RTVSPropertyOp46
 70
     1
102
RTVSPropertyOp47
 70
     1
102
RTVSPropertyOp48
 70
     1
102
RTVSPropertyOp49
 70
     1
102
RTVSPropertyOp50
 70
     1
102
RTVSPropertyOp51
 70
     0
102
RTVSPropertyOp52
 70
     0
102
RTVSPropertyOp53
 70
     1
102
RTVSPropertyOp54
 70
     1
102
RTVSPropertyOp55
 70
     1
102
RTVSPropertyOp56
 70
     1
102
RTVSPropertyOp57
 70
     1
102
RTVSPropertyOp58
 70
     1
102
RTVSPropertyOp59
 70
     1
102
RTVSPropertyOp60
 70
     1
102
RTVSPropertyOp61
 70
     1
102
RTVSPropertyOp62
 70
     1
  0
XRECORD
  5
811
102
{ACAD_REACTORS
330
810
102
}
330
810
100
AcDbXrecord
280
     1
102
RTVSPost2010Prop28
280
     0
102
RTVSPost2010PropOp28
 70
     1
102
RTVSPost2010Prop29
280
     1
102
RTVSPost2010PropOp29
 70
     1
102
RTVSPost2010Prop30
280
     1
102
RTVSPost2010PropOp30
 70
     1
102
RTVSPost2010Prop31
280
     0
102
RTVSPost2010PropOp31
 70
     1
102
RTVSPost2010Prop32
280
     0
102
RTVSPost2010PropOp32
 70
     1
102
RTVSPost2010Prop33
280
     0
102
RTVSPost2010PropOp33
 70
     1
102
RTVSPost2010Prop34
280
     0
102
RTVSPost2010PropOp34
 70
     1
102
RTVSPost2010Prop35
280
     0
102
RTVSPost2010PropOp35
 70
     1
102
RTVSPost2010Prop36
280
     0
102
RTVSPost2010PropOp36
 70
     1
102
RTVSPost2010Prop37
 90
       50
102
RTVSPost2010PropOp37
 70
     1
102
RTVSPost2010Prop38
140
0.0
102
RTVSPost2010PropOp38
 70
     1
102
RTVSPost2010Prop39
140
1.0
102
RTVSPost2010PropOp39
 70
     1
102
RTVSPost2010Prop40
 90
        0
102
RTVSPost2010PropOp40
 70
     1
102
RTVSPost2010Prop41ColorIndex
 90
       18
102
RTVSPost2010Prop41ColorRGB
 90
        0
102
RTVSPost2010PropOp41
 70
     1
102
RTVSPost2010Prop42
 90
       50
102
RTVSPost2010PropOp42
 70
     1
102
RTVSPost2010Prop43
 90
        3
102
RTVSPost2010PropOp43
 70
     1
102
RTVSPost2010Prop44ColorIndex
 90
        5
102
RTVSPost2010Prop44ColorRGB
 90
      255
102
RTVSPost2010PropOp44
 70
     1
102
RTVSPost2010Prop45
280
     0
102
RTVSPost2010PropOp45
 70
     1
102
RTVSPost2010Prop46
 90
       50
102
RTVSPost2010PropOp46
 70
     1
102
RTVSPost2010Prop47
 90
       50
102
RTVSPost2010PropOp47
 70
     1
102
RTVSPost2010Prop48
 90
       50
102
RTVSPost2010PropOp48
 70
     1
102
RTVSPost2010Prop49
280
     0
102
RTVSPost2010PropOp49
 70
     1
102
RTVSPost2010Prop50
 90
       50
102
RTVSPost2010PropOp50
 70
     1
102
RTVSPost2010Prop51ColorIndex
 90
      256
102
RTVSPost2010Prop51ColorRGB
 90
-16777216
102
RTVSPost2010PropOp51
 70
     0
102
RTVSPost2010Prop52
140
1.0
102
RTVSPost2010PropOp52
 70
     0
102
RTVSPost2010Prop53
 90
        2
102
RTVSPost2010PropOp53
 70
     1
102
RTVSPost2010Prop54
  1
strokes_ogs.tif
102
RTVSPost2010PropOp54
 70
     1
102
RTVSPost2010Prop55
280
     0
102
RTVSPost2010PropOp55
 70
     1
102
RTVSPost2010Prop56
140
1.0
102
RTVSPost2010PropOp56
 70
     1
102
RTVSPost2010Prop57
140
1.0
102
RTVSPost2010PropOp57
 70
     1
102
RTVSPropertyOp0
 70
     1
102
RTVSPropertyOp1
 70
     1
102
RTVSPropertyOp2
 70
     1
102
RTVSPropertyOp3
 70
     1
102
RTVSPropertyOp4
 70
     1
102
RTVSPropertyOp5
 70
     1
102
RTVSPropertyOp6
 70
     1
102
RTVSPropertyOp7
 70
     1
102
RTVSPropertyOp8
 70
     1
102
RTVSPropertyOp9
 70
     1
102
RTVSPropertyOp10
 70
     1
102
RTVSPropertyOp11
 70
     1
102
RTVSPropertyOp12
 70
     1
102
RTVSPropertyOp13
 70
     1
102
RTVSPropertyOp14
 70
     1
102
RTVSPropertyOp15
 70
     1
102
RTVSPropertyOp16
 70
     1
102
RTVSPropertyOp17
 70
     1
102
RTVSPropertyOp18
 70
     1
102
RTVSPropertyOp19
 70
     1
102
RTVSPropertyOp20
 70
     1
102
RTVSPropertyOp21
 70
     1
102
RTVSPropertyOp22
 70
     1
102
RTVSPropertyOp23
 70
     1
102
RTVSPropertyOp24
 70
     1
102
RTVSPropertyOp25
 70
     1
102
RTVSPropertyOp26
 70
     1
102
RTVSPropertyOp27
 70
     1
102
RTVSPropertyOp28
 70
     1
102
RTVSPropertyOp29
 70
     1
102
RTVSPropertyOp30
 70
     1
102
RTVSPropertyOp31
 70
     1
102
RTVSPropertyOp32
 70
     1
102
RTVSPropertyOp33
 70
     1
102
RTVSPropertyOp34
 70
     1
102
RTVSPropertyOp35
 70
     1
102
RTVSPropertyOp36
 70
     1
102
RTVSPropertyOp37
 70
     1
102
RTVSPropertyOp38
 70
     1
102
RTVSPropertyOp39
 70
     1
102
RTVSPropertyOp40
 70
     1
102
RTVSPropertyOp41
 70
     1
102
RTVSPropertyOp42
 70
     1
102
RTVSPropertyOp43
 70
     1
102
RTVSPropertyOp44
 70
     1
102
RTVSPropertyOp45
 70
     1
102
RTVSPropertyOp46
 70
     1
102
RTVSPropertyOp47
 70
     1
102
RTVSPropertyOp48
 70
     1
102
RTVSPropertyOp49
 70
     1
102
RTVSPropertyOp50
 70
     1
102
RTVSPropertyOp51
 70
     0
102
RTVSPropertyOp52
 70
     0
102
RTVSPropertyOp53
 70
     1
102
RTVSPropertyOp54
 70
     1
102
RTVSPropertyOp55
 70
     1
102
RTVSPropertyOp56
 70
     1
102
RTVSPropertyOp57
 70
     1
102
RTVSPropertyOp58
 70
     1
102
RTVSPropertyOp59
 70
     1
102
RTVSPropertyOp60
 70
     1
102
RTVSPropertyOp61
 70
     1
102
RTVSPropertyOp62
 70
     1
  0
XRECORD
  5
819
102
{ACAD_REACTORS
330
818
102
}
330
818
100
AcDbXrecord
280
     1
102
RTVSPost2010Prop28
280
     0
102
RTVSPost2010PropOp28
 70
     1
102
RTVSPost2010Prop29
280
     1
102
RTVSPost2010PropOp29
 70
     1
102
RTVSPost2010Prop30
280
     1
102
RTVSPost2010PropOp30
 70
     1
102
RTVSPost2010Prop31
280
     0
102
RTVSPost2010PropOp31
 70
     1
102
RTVSPost2010Prop32
280
     0
102
RTVSPost2010PropOp32
 70
     1
102
RTVSPost2010Prop33
280
     0
102
RTVSPost2010PropOp33
 70
     1
102
RTVSPost2010Prop34
280
     0
102
RTVSPost2010PropOp34
 70
     1
102
RTVSPost2010Prop35
280
     0
102
RTVSPost2010PropOp35
 70
     1
102
RTVSPost2010Prop36
280
     0
102
RTVSPost2010PropOp36
 70
     1
102
RTVSPost2010Prop37
 90
       50
102
RTVSPost2010PropOp37
 70
     1
102
RTVSPost2010Prop38
140
0.0
102
RTVSPost2010PropOp38
 70
     1
102
RTVSPost2010Prop39
140
1.0
102
RTVSPost2010PropOp39
 70
     1
102
RTVSPost2010Prop40
 90
        0
102
RTVSPost2010PropOp40
 70
     1
102
RTVSPost2010Prop41ColorIndex
 90
       18
102
RTVSPost2010Prop41ColorRGB
 90
        0
102
RTVSPost2010PropOp41
 70
     1
102
RTVSPost2010Prop42
 90
       50
102
RTVSPost2010PropOp42
 70
     1
102
RTVSPost2010Prop43
 90
        3
102
RTVSPost2010PropOp43
 70
     1
102
RTVSPost2010Prop44ColorIndex
 90
        5
102
RTVSPost2010Prop44ColorRGB
 90
      255
102
RTVSPost2010PropOp44
 70
     1
102
RTVSPost2010Prop45
280
     0
102
RTVSPost2010PropOp45
 70
     1
102
RTVSPost2010Prop46
 90
       50
102
RTVSPost2010PropOp46
 70
     1
102
RTVSPost2010Prop47
 90
       50
102
RTVSPost2010PropOp47
 70
     1
102
RTVSPost2010Prop48
 90
       50
102
RTVSPost2010PropOp48
 70
     1
102
RTVSPost2010Prop49
280
     0
102
RTVSPost2010PropOp49
 70
     1
102
RTVSPost2010Prop50
 90
       50
102
RTVSPost2010PropOp50
 70
     1
102
RTVSPost2010Prop51ColorIndex
 90
      256
102
RTVSPost2010Prop51ColorRGB
 90
-16777216
102
RTVSPost2010PropOp51
 70
     0
102
RTVSPost2010Prop52
140
1.0
102
RTVSPost2010PropOp52
 70
     0
102
RTVSPost2010Prop53
 90
        2
102
RTVSPost2010PropOp53
 70
     1
102
RTVSPost2010Prop54
  1
strokes_ogs.tif
102
RTVSPost2010PropOp54
 70
     1
102
RTVSPost2010Prop55
280
     0
102
RTVSPost2010PropOp55
 70
     1
102
RTVSPost2010Prop56
140
1.0
102
RTVSPost2010PropOp56
 70
     1
102
RTVSPost2010Prop57
140
1.0
102
RTVSPost2010PropOp57
 70
     1
102
RTVSPropertyOp0
 70
     1
102
RTVSPropertyOp1
 70
     1
102
RTVSPropertyOp2
 70
     1
102
RTVSPropertyOp3
 70
     1
102
RTVSPropertyOp4
 70
     1
102
RTVSPropertyOp5
 70
     1
102
RTVSPropertyOp6
 70
     1
102
RTVSPropertyOp7
 70
     1
102
RTVSPropertyOp8
 70
     1
102
RTVSPropertyOp9
 70
     1
102
RTVSPropertyOp10
 70
     1
102
RTVSPropertyOp11
 70
     1
102
RTVSPropertyOp12
 70
     1
102
RTVSPropertyOp13
 70
     1
102
RTVSPropertyOp14
 70
     1
102
RTVSPropertyOp15
 70
     1
102
RTVSPropertyOp16
 70
     1
102
RTVSPropertyOp17
 70
     1
102
RTVSPropertyOp18
 70
     1
102
RTVSPropertyOp19
 70
     1
102
RTVSPropertyOp20
 70
     1
102
RTVSPropertyOp21
 70
     1
102
RTVSPropertyOp22
 70
     1
102
RTVSPropertyOp23
 70
     1
102
RTVSPropertyOp24
 70
     1
102
RTVSPropertyOp25
 70
     1
102
RTVSPropertyOp26
 70
     1
102
RTVSPropertyOp27
 70
     1
102
RTVSPropertyOp28
 70
     1
102
RTVSPropertyOp29
 70
     1
102
RTVSPropertyOp30
 70
     1
102
RTVSPropertyOp31
 70
     1
102
RTVSPropertyOp32
 70
     1
102
RTVSPropertyOp33
 70
     1
102
RTVSPropertyOp34
 70
     1
102
RTVSPropertyOp35
 70
     1
102
RTVSPropertyOp36
 70
     1
102
RTVSPropertyOp37
 70
     1
102
RTVSPropertyOp38
 70
     1
102
RTVSPropertyOp39
 70
     1
102
RTVSPropertyOp40
 70
     1
102
RTVSPropertyOp41
 70
     1
102
RTVSPropertyOp42
 70
     1
102
RTVSPropertyOp43
 70
     1
102
RTVSPropertyOp44
 70
     1
102
RTVSPropertyOp45
 70
     1
102
RTVSPropertyOp46
 70
     1
102
RTVSPropertyOp47
 70
     1
102
RTVSPropertyOp48
 70
     1
102
RTVSPropertyOp49
 70
     1
102
RTVSPropertyOp50
 70
     1
102
RTVSPropertyOp51
 70
     0
102
RTVSPropertyOp52
 70
     0
102
RTVSPropertyOp53
 70
     1
102
RTVSPropertyOp54
 70
     1
102
RTVSPropertyOp55
 70
     1
102
RTVSPropertyOp56
 70
     1
102
RTVSPropertyOp57
 70
     1
102
RTVSPropertyOp58
 70
     1
102
RTVSPropertyOp59
 70
     1
102
RTVSPropertyOp60
 70
     1
102
RTVSPropertyOp61
 70
     1
102
RTVSPropertyOp62
 70
     1
  0
XRECORD
  5
835
102
{ACAD_REACTORS
330
834
102
}
330
834
100
AcDbXrecord
280
     1
102
RTVSPost2010Prop28
280
     0
102
RTVSPost2010PropOp28
 70
     1
102
RTVSPost2010Prop29
280
     1
102
RTVSPost2010PropOp29
 70
     1
102
RTVSPost2010Prop30
280
     1
102
RTVSPost2010PropOp30
 70
     1
102
RTVSPost2010Prop31
280
     0
102
RTVSPost2010PropOp31
 70
     1
102
RTVSPost2010Prop32
280
     0
102
RTVSPost2010PropOp32
 70
     1
102
RTVSPost2010Prop33
280
     0
102
RTVSPost2010PropOp33
 70
     1
102
RTVSPost2010Prop34
280
     0
102
RTVSPost2010PropOp34
 70
     1
102
RTVSPost2010Prop35
280
     0
102
RTVSPost2010PropOp35
 70
     1
102
RTVSPost2010Prop36
280
     0
102
RTVSPost2010PropOp36
 70
     1
102
RTVSPost2010Prop37
 90
       50
102
RTVSPost2010PropOp37
 70
     0
102
RTVSPost2010Prop38
140
0.0
102
RTVSPost2010PropOp38
 70
     0
102
RTVSPost2010Prop39
140
1.0
102
RTVSPost2010PropOp39
 70
     0
102
RTVSPost2010Prop40
 90
        0
102
RTVSPost2010PropOp40
 70
     0
102
RTVSPost2010Prop41ColorIndex
 90
       18
102
RTVSPost2010Prop41ColorRGB
 90
        0
102
RTVSPost2010PropOp41
 70
     0
102
RTVSPost2010Prop42
 90
       50
102
RTVSPost2010PropOp42
 70
     0
102
RTVSPost2010Prop43
 90
        3
102
RTVSPost2010PropOp43
 70
     0
102
RTVSPost2010Prop44ColorIndex
 90
        5
102
RTVSPost2010Prop44ColorRGB
 90
      255
102
RTVSPost2010PropOp44
 70
     0
102
RTVSPost2010Prop45
280
     0
102
RTVSPost2010PropOp45
 70
     1
102
RTVSPost2010Prop46
 90
       50
102
RTVSPost2010PropOp46
 70
     0
102
RTVSPost2010Prop47
 90
       50
102
RTVSPost2010PropOp47
 70
     0
102
RTVSPost2010Prop48
 90
       50
102
RTVSPost2010PropOp48
 70
     0
102
RTVSPost2010Prop49
280
     0
102
RTVSPost2010PropOp49
 70
     1
102
RTVSPost2010Prop50
 90
       50
102
RTVSPost2010PropOp50
 70
     0
102
RTVSPost2010Prop51ColorIndex
 90
      256
102
RTVSPost2010Prop51ColorRGB
 90
-16777216
102
RTVSPost2010PropOp51
 70
     0
102
RTVSPost2010Prop52
140
1.0
102
RTVSPost2010PropOp52
 70
     0
102
RTVSPost2010Prop53
 90
        2
102
RTVSPost2010PropOp53
 70
     0
102
RTVSPost2010Prop54
  1
strokes_ogs.tif
102
RTVSPost2010PropOp54
 70
     0
102
RTVSPost2010Prop55
280
     0
102
RTVSPost2010PropOp55
 70
     1
102
RTVSPost2010Prop56
140
1.0
102
RTVSPost2010PropOp56
 70
     0
102
RTVSPost2010Prop57
140
1.0
102
RTVSPost2010PropOp57
 70
     0
102
RTVSPropertyOp0
 70
     0
102
RTVSPropertyOp1
 70
     0
102
RTVSPropertyOp2
 70
     0
102
RTVSPropertyOp3
 70
     0
102
RTVSPropertyOp4
 70
     0
102
RTVSPropertyOp5
 70
     0
102
RTVSPropertyOp6
 70
     0
102
RTVSPropertyOp7
 70
     0
102
RTVSPropertyOp8
 70
     0
102
RTVSPropertyOp9
 70
     0
102
RTVSPropertyOp10
 70
     0
102
RTVSPropertyOp11
 70
     0
102
RTVSPropertyOp12
 70
     0
102
RTVSPropertyOp13
 70
     0
102
RTVSPropertyOp14
 70
     2
102
RTVSPropertyOp15
 70
     0
102
RTVSPropertyOp16
 70
     0
102
RTVSPropertyOp17
 70
     0
102
RTVSPropertyOp18
 70
     0
102
RTVSPropertyOp19
 70
     0
102
RTVSPropertyOp20
 70
     0
102
RTVSPropertyOp21
 70
     0
102
RTVSPropertyOp22
 70
     0
102
RTVSPropertyOp23
 70
     0
102
RTVSPropertyOp24
 70
     0
102
RTVSPropertyOp25
 70
     0
102
RTVSPropertyOp26
 70
     0
102
RTVSPropertyOp27
 70
     0
102
RTVSPropertyOp28
 70
     1
102
RTVSPropertyOp29
 70
     1
102
RTVSPropertyOp30
 70
     1
102
RTVSPropertyOp31
 70
     1
102
RTVSPropertyOp32
 70
     1
102
RTVSPropertyOp33
 70
     1
102
RTVSPropertyOp34
 70
     1
102
RTVSPropertyOp35
 70
     1
102
RTVSPropertyOp36
 70
     1
102
RTVSPropertyOp37
 70
     0
102
RTVSPropertyOp38
 70
     0
102
RTVSPropertyOp39
 70
     0
102
RTVSPropertyOp40
 70
     0
102
RTVSPropertyOp41
 70
     0
102
RTVSPropertyOp42
 70
     0
102
RTVSPropertyOp43
 70
     0
102
RTVSPropertyOp44
 70
     0
102
RTVSPropertyOp45
 70
     1
102
RTVSPropertyOp46
 70
     0
102
RTVSPropertyOp47
 70
     0
102
RTVSPropertyOp48
 70
     0
102
RTVSPropertyOp49
 70
     1
102
RTVSPropertyOp50
 70
     0
102
RTVSPropertyOp51
 70
     0
102
RTVSPropertyOp52
 70
     0
102
RTVSPropertyOp53
 70
     0
102
RTVSPropertyOp54
 70
     0
102
RTVSPropertyOp55
 70
     1
102
RTVSPropertyOp56
 70
     0
102
RTVSPropertyOp57
 70
     0
102
RTVSPropertyOp58
 70
     0
102
RTVSPropertyOp59
 70
     0
102
RTVSPropertyOp60
 70
     0
102
RTVSPropertyOp61
 70
     0
102
RTVSPropertyOp62
 70
     0
  0
XRECORD
  5
825
102
{ACAD_REACTORS
330
824
102
}
330
824
100
AcDbXrecord
280
     1
102
RTVSPost2010Prop28
280
     0
102
RTVSPost2010PropOp28
 70
     1
102
RTVSPost2010Prop29
280
     1
102
RTVSPost2010PropOp29
 70
     1
102
RTVSPost2010Prop30
280
     1
102
RTVSPost2010PropOp30
 70
     1
102
RTVSPost2010Prop31
280
     0
102
RTVSPost2010PropOp31
 70
     1
102
RTVSPost2010Prop32
280
     0
102
RTVSPost2010PropOp32
 70
     1
102
RTVSPost2010Prop33
280
     0
102
RTVSPost2010PropOp33
 70
     1
102
RTVSPost2010Prop34
280
     0
102
RTVSPost2010PropOp34
 70
     1
102
RTVSPost2010Prop35
280
     0
102
RTVSPost2010PropOp35
 70
     1
102
RTVSPost2010Prop36
280
     0
102
RTVSPost2010PropOp36
 70
     1
102
RTVSPost2010Prop37
 90
       50
102
RTVSPost2010PropOp37
 70
     1
102
RTVSPost2010Prop38
140
0.0
102
RTVSPost2010PropOp38
 70
     1
102
RTVSPost2010Prop39
140
1.0
102
RTVSPost2010PropOp39
 70
     1
102
RTVSPost2010Prop40
 90
        0
102
RTVSPost2010PropOp40
 70
     1
102
RTVSPost2010Prop41ColorIndex
 90
       18
102
RTVSPost2010Prop41ColorRGB
 90
        0
102
RTVSPost2010PropOp41
 70
     1
102
RTVSPost2010Prop42
 90
       50
102
RTVSPost2010PropOp42
 70
     1
102
RTVSPost2010Prop43
 90
        3
102
RTVSPost2010PropOp43
 70
     1
102
RTVSPost2010Prop44ColorIndex
 90
        5
102
RTVSPost2010Prop44ColorRGB
 90
      255
102
RTVSPost2010PropOp44
 70
     1
102
RTVSPost2010Prop45
280
     0
102
RTVSPost2010PropOp45
 70
     1
102
RTVSPost2010Prop46
 90
       50
102
RTVSPost2010PropOp46
 70
     1
102
RTVSPost2010Prop47
 90
       50
102
RTVSPost2010PropOp47
 70
     1
102
RTVSPost2010Prop48
 90
       50
102
RTVSPost2010PropOp48
 70
     1
102
RTVSPost2010Prop49
280
     0
102
RTVSPost2010PropOp49
 70
     1
102
RTVSPost2010Prop50
 90
       50
102
RTVSPost2010PropOp50
 70
     1
102
RTVSPost2010Prop51ColorIndex
 90
      256
102
RTVSPost2010Prop51ColorRGB
 90
-16777216
102
RTVSPost2010PropOp51
 70
     0
102
RTVSPost2010Prop52
140
1.0
102
RTVSPost2010PropOp52
 70
     0
102
RTVSPost2010Prop53
 90
        2
102
RTVSPost2010PropOp53
 70
     1
102
RTVSPost2010Prop54
  1
strokes_ogs.tif
102
RTVSPost2010PropOp54
 70
     1
102
RTVSPost2010Prop55
280
     0
102
RTVSPost2010PropOp55
 70
     1
102
RTVSPost2010Prop56
140
1.0
102
RTVSPost2010PropOp56
 70
     1
102
RTVSPost2010Prop57
140
1.0
102
RTVSPost2010PropOp57
 70
     1
102
RTVSPropertyOp0
 70
     1
102
RTVSPropertyOp1
 70
     1
102
RTVSPropertyOp2
 70
     1
102
RTVSPropertyOp3
 70
     1
102
RTVSPropertyOp4
 70
     1
102
RTVSPropertyOp5
 70
     1
102
RTVSPropertyOp6
 70
     1
102
RTVSPropertyOp7
 70
     1
102
RTVSPropertyOp8
 70
     1
102
RTVSPropertyOp9
 70
     1
102
RTVSPropertyOp10
 70
     1
102
RTVSPropertyOp11
 70
     1
102
RTVSPropertyOp12
 70
     1
102
RTVSPropertyOp13
 70
     1
102
RTVSPropertyOp14
 70
     1
102
RTVSPropertyOp15
 70
     1
102
RTVSPropertyOp16
 70
     1
102
RTVSPropertyOp17
 70
     1
102
RTVSPropertyOp18
 70
     1
102
RTVSPropertyOp19
 70
     1
102
RTVSPropertyOp20
 70
     1
102
RTVSPropertyOp21
 70
     1
102
RTVSPropertyOp22
 70
     1
102
RTVSPropertyOp23
 70
     1
102
RTVSPropertyOp24
 70
     1
102
RTVSPropertyOp25
 70
     1
102
RTVSPropertyOp26
 70
     1
102
RTVSPropertyOp27
 70
     1
102
RTVSPropertyOp28
 70
     1
102
RTVSPropertyOp29
 70
     1
102
RTVSPropertyOp30
 70
     1
102
RTVSPropertyOp31
 70
     1
102
RTVSPropertyOp32
 70
     1
102
RTVSPropertyOp33
 70
     1
102
RTVSPropertyOp34
 70
     1
102
RTVSPropertyOp35
 70
     1
102
RTVSPropertyOp36
 70
     1
102
RTVSPropertyOp37
 70
     1
102
RTVSPropertyOp38
 70
     1
102
RTVSPropertyOp39
 70
     1
102
RTVSPropertyOp40
 70
     1
102
RTVSPropertyOp41
 70
     1
102
RTVSPropertyOp42
 70
     1
102
RTVSPropertyOp43
 70
     1
102
RTVSPropertyOp44
 70
     1
102
RTVSPropertyOp45
 70
     1
102
RTVSPropertyOp46
 70
     1
102
RTVSPropertyOp47
 70
     1
102
RTVSPropertyOp48
 70
     1
102
RTVSPropertyOp49
 70
     1
102
RTVSPropertyOp50
 70
     1
102
RTVSPropertyOp51
 70
     0
102
RTVSPropertyOp52
 70
     0
102
RTVSPropertyOp53
 70
     1
102
RTVSPropertyOp54
 70
     1
102
RTVSPropertyOp55
 70
     1
102
RTVSPropertyOp56
 70
     1
102
RTVSPropertyOp57
 70
     1
102
RTVSPropertyOp58
 70
     1
102
RTVSPropertyOp59
 70
     1
102
RTVSPropertyOp60
 70
     1
102
RTVSPropertyOp61
 70
     1
102
RTVSPropertyOp62
 70
     1
  0
XRECORD
  5
837
102
{ACAD_REACTORS
330
836
102
}
330
836
100
AcDbXrecord
280
     1
102
RTVSPost2010Prop28
280
     0
102
RTVSPost2010PropOp28
 70
     1
102
RTVSPost2010Prop29
280
     1
102
RTVSPost2010PropOp29
 70
     1
102
RTVSPost2010Prop30
280
     1
102
RTVSPost2010PropOp30
 70
     1
102
RTVSPost2010Prop31
280
     0
102
RTVSPost2010PropOp31
 70
     1
102
RTVSPost2010Prop32
280
     0
102
RTVSPost2010PropOp32
 70
     1
102
RTVSPost2010Prop33
280
     0
102
RTVSPost2010PropOp33
 70
     1
102
RTVSPost2010Prop34
280
     0
102
RTVSPost2010PropOp34
 70
     1
102
RTVSPost2010Prop35
280
     0
102
RTVSPost2010PropOp35
 70
     1
102
RTVSPost2010Prop36
280
     0
102
RTVSPost2010PropOp36
 70
     1
102
RTVSPost2010Prop37
 90
       50
102
RTVSPost2010PropOp37
 70
     0
102
RTVSPost2010Prop38
140
0.0
102
RTVSPost2010PropOp38
 70
     0
102
RTVSPost2010Prop39
140
1.0
102
RTVSPost2010PropOp39
 70
     0
102
RTVSPost2010Prop40
 90
        0
102
RTVSPost2010PropOp40
 70
     0
102
RTVSPost2010Prop41ColorIndex
 90
       18
102
RTVSPost2010Prop41ColorRGB
 90
        0
102
RTVSPost2010PropOp41
 70
     0
102
RTVSPost2010Prop42
 90
       50
102
RTVSPost2010PropOp42
 70
     0
102
RTVSPost2010Prop43
 90
        3
102
RTVSPost2010PropOp43
 70
     0
102
RTVSPost2010Prop44ColorIndex
 90
        5
102
RTVSPost2010Prop44ColorRGB
 90
      255
102
RTVSPost2010PropOp44
 70
     0
102
RTVSPost2010Prop45
280
     0
102
RTVSPost2010PropOp45
 70
     1
102
RTVSPost2010Prop46
 90
       50
102
RTVSPost2010PropOp46
 70
     0
102
RTVSPost2010Prop47
 90
       50
102
RTVSPost2010PropOp47
 70
     0
102
RTVSPost2010Prop48
 90
       50
102
RTVSPost2010PropOp48
 70
     0
102
RTVSPost2010Prop49
280
     0
102
RTVSPost2010PropOp49
 70
     1
102
RTVSPost2010Prop50
 90
       50
102
RTVSPost2010PropOp50
 70
     0
102
RTVSPost2010Prop51ColorIndex
 90
      256
102
RTVSPost2010Prop51ColorRGB
 90
-16777216
102
RTVSPost2010PropOp51
 70
     0
102
RTVSPost2010Prop52
140
1.0
102
RTVSPost2010PropOp52
 70
     0
102
RTVSPost2010Prop53
 90
        2
102
RTVSPost2010PropOp53
 70
     0
102
RTVSPost2010Prop54
  1
strokes_ogs.tif
102
RTVSPost2010PropOp54
 70
     0
102
RTVSPost2010Prop55
280
     0
102
RTVSPost2010PropOp55
 70
     1
102
RTVSPost2010Prop56
140
1.0
102
RTVSPost2010PropOp56
 70
     0
102
RTVSPost2010Prop57
140
1.0
102
RTVSPost2010PropOp57
 70
     0
102
RTVSPropertyOp0
 70
     0
102
RTVSPropertyOp1
 70
     0
102
RTVSPropertyOp2
 70
     0
102
RTVSPropertyOp3
 70
     0
102
RTVSPropertyOp4
 70
     0
102
RTVSPropertyOp5
 70
     0
102
RTVSPropertyOp6
 70
     0
102
RTVSPropertyOp7
 70
     0
102
RTVSPropertyOp8
 70
     0
102
RTVSPropertyOp9
 70
     0
102
RTVSPropertyOp10
 70
     0
102
RTVSPropertyOp11
 70
     0
102
RTVSPropertyOp12
 70
     0
102
RTVSPropertyOp13
 70
     0
102
RTVSPropertyOp14
 70
     2
102
RTVSPropertyOp15
 70
     0
102
RTVSPropertyOp16
 70
     0
102
RTVSPropertyOp17
 70
     0
102
RTVSPropertyOp18
 70
     0
102
RTVSPropertyOp19
 70
     0
102
RTVSPropertyOp20
 70
     0
102
RTVSPropertyOp21
 70
     0
102
RTVSPropertyOp22
 70
     0
102
RTVSPropertyOp23
 70
     0
102
RTVSPropertyOp24
 70
     0
102
RTVSPropertyOp25
 70
     0
102
RTVSPropertyOp26
 70
     0
102
RTVSPropertyOp27
 70
     0
102
RTVSPropertyOp28
 70
     1
102
RTVSPropertyOp29
 70
     1
102
RTVSPropertyOp30
 70
     1
102
RTVSPropertyOp31
 70
     1
102
RTVSPropertyOp32
 70
     1
102
RTVSPropertyOp33
 70
     1
102
RTVSPropertyOp34
 70
     1
102
RTVSPropertyOp35
 70
     1
102
RTVSPropertyOp36
 70
     1
102
RTVSPropertyOp37
 70
     0
102
RTVSPropertyOp38
 70
     0
102
RTVSPropertyOp39
 70
     0
102
RTVSPropertyOp40
 70
     0
102
RTVSPropertyOp41
 70
     0
102
RTVSPropertyOp42
 70
     0
102
RTVSPropertyOp43
 70
     0
102
RTVSPropertyOp44
 70
     0
102
RTVSPropertyOp45
 70
     1
102
RTVSPropertyOp46
 70
     0
102
RTVSPropertyOp47
 70
     0
102
RTVSPropertyOp48
 70
     0
102
RTVSPropertyOp49
 70
     1
102
RTVSPropertyOp50
 70
     0
102
RTVSPropertyOp51
 70
     0
102
RTVSPropertyOp52
 70
     0
102
RTVSPropertyOp53
 70
     0
102
RTVSPropertyOp54
 70
     0
102
RTVSPropertyOp55
 70
     1
102
RTVSPropertyOp56
 70
     0
102
RTVSPropertyOp57
 70
     0
102
RTVSPropertyOp58
 70
     0
102
RTVSPropertyOp59
 70
     0
102
RTVSPropertyOp60
 70
     0
102
RTVSPropertyOp61
 70
     0
102
RTVSPropertyOp62
 70
     0
  0
XRECORD
  5
81D
102
{ACAD_REACTORS
330
81C
102
}
330
81C
100
AcDbXrecord
280
     1
102
RTVSPost2010Prop28
280
     0
102
RTVSPost2010PropOp28
 70
     1
102
RTVSPost2010Prop29
280
     1
102
RTVSPost2010PropOp29
 70
     1
102
RTVSPost2010Prop30
280
     1
102
RTVSPost2010PropOp30
 70
     1
102
RTVSPost2010Prop31
280
     0
102
RTVSPost2010PropOp31
 70
     1
102
RTVSPost2010Prop32
280
     0
102
RTVSPost2010PropOp32
 70
     1
102
RTVSPost2010Prop33
280
     0
102
RTVSPost2010PropOp33
 70
     1
102
RTVSPost2010Prop34
280
     0
102
RTVSPost2010PropOp34
 70
     1
102
RTVSPost2010Prop35
280
     0
102
RTVSPost2010PropOp35
 70
     1
102
RTVSPost2010Prop36
280
     0
102
RTVSPost2010PropOp36
 70
     1
102
RTVSPost2010Prop37
 90
       50
102
RTVSPost2010PropOp37
 70
     1
102
RTVSPost2010Prop38
140
0.0
102
RTVSPost2010PropOp38
 70
     1
102
RTVSPost2010Prop39
140
1.0
102
RTVSPost2010PropOp39
 70
     1
102
RTVSPost2010Prop40
 90
        0
102
RTVSPost2010PropOp40
 70
     1
102
RTVSPost2010Prop41ColorIndex
 90
       18
102
RTVSPost2010Prop41ColorRGB
 90
        0
102
RTVSPost2010PropOp41
 70
     1
102
RTVSPost2010Prop42
 90
       50
102
RTVSPost2010PropOp42
 70
     1
102
RTVSPost2010Prop43
 90
        3
102
RTVSPost2010PropOp43
 70
     1
102
RTVSPost2010Prop44ColorIndex
 90
        5
102
RTVSPost2010Prop44ColorRGB
 90
      255
102
RTVSPost2010PropOp44
 70
     1
102
RTVSPost2010Prop45
280
     0
102
RTVSPost2010PropOp45
 70
     1
102
RTVSPost2010Prop46
 90
       50
102
RTVSPost2010PropOp46
 70
     1
102
RTVSPost2010Prop47
 90
       50
102
RTVSPost2010PropOp47
 70
     1
102
RTVSPost2010Prop48
 90
       50
102
RTVSPost2010PropOp48
 70
     1
102
RTVSPost2010Prop49
280
     0
102
RTVSPost2010PropOp49
 70
     1
102
RTVSPost2010Prop50
 90
       50
102
RTVSPost2010PropOp50
 70
     1
102
RTVSPost2010Prop51ColorIndex
 90
      256
102
RTVSPost2010Prop51ColorRGB
 90
-16777216
102
RTVSPost2010PropOp51
 70
     0
102
RTVSPost2010Prop52
140
1.0
102
RTVSPost2010PropOp52
 70
     0
102
RTVSPost2010Prop53
 90
        2
102
RTVSPost2010PropOp53
 70
     1
102
RTVSPost2010Prop54
  1
strokes_ogs.tif
102
RTVSPost2010PropOp54
 70
     1
102
RTVSPost2010Prop55
280
     0
102
RTVSPost2010PropOp55
 70
     1
102
RTVSPost2010Prop56
140
1.0
102
RTVSPost2010PropOp56
 70
     1
102
RTVSPost2010Prop57
140
1.0
102
RTVSPost2010PropOp57
 70
     1
102
RTVSPropertyOp0
 70
     1
102
RTVSPropertyOp1
 70
     1
102
RTVSPropertyOp2
 70
     1
102
RTVSPropertyOp3
 70
     1
102
RTVSPropertyOp4
 70
     1
102
RTVSPropertyOp5
 70
     1
102
RTVSPropertyOp6
 70
     1
102
RTVSPropertyOp7
 70
     1
102
RTVSPropertyOp8
 70
     1
102
RTVSPropertyOp9
 70
     1
102
RTVSPropertyOp10
 70
     1
102
RTVSPropertyOp11
 70
     1
102
RTVSPropertyOp12
 70
     1
102
RTVSPropertyOp13
 70
     1
102
RTVSPropertyOp14
 70
     1
102
RTVSPropertyOp15
 70
     1
102
RTVSPropertyOp16
 70
     1
102
RTVSPropertyOp17
 70
     1
102
RTVSPropertyOp18
 70
     1
102
RTVSPropertyOp19
 70
     1
102
RTVSPropertyOp20
 70
     1
102
RTVSPropertyOp21
 70
     1
102
RTVSPropertyOp22
 70
     1
102
RTVSPropertyOp23
 70
     1
102
RTVSPropertyOp24
 70
     1
102
RTVSPropertyOp25
 70
     1
102
RTVSPropertyOp26
 70
     1
102
RTVSPropertyOp27
 70
     1
102
RTVSPropertyOp28
 70
     1
102
RTVSPropertyOp29
 70
     1
102
RTVSPropertyOp30
 70
     1
102
RTVSPropertyOp31
 70
     1
102
RTVSPropertyOp32
 70
     1
102
RTVSPropertyOp33
 70
     1
102
RTVSPropertyOp34
 70
     1
102
RTVSPropertyOp35
 70
     1
102
RTVSPropertyOp36
 70
     1
102
RTVSPropertyOp37
 70
     1
102
RTVSPropertyOp38
 70
     1
102
RTVSPropertyOp39
 70
     1
102
RTVSPropertyOp40
 70
     1
102
RTVSPropertyOp41
 70
     1
102
RTVSPropertyOp42
 70
     1
102
RTVSPropertyOp43
 70
     1
102
RTVSPropertyOp44
 70
     1
102
RTVSPropertyOp45
 70
     1
102
RTVSPropertyOp46
 70
     1
102
RTVSPropertyOp47
 70
     1
102
RTVSPropertyOp48
 70
     1
102
RTVSPropertyOp49
 70
     1
102
RTVSPropertyOp50
 70
     1
102
RTVSPropertyOp51
 70
     0
102
RTVSPropertyOp52
 70
     0
102
RTVSPropertyOp53
 70
     1
102
RTVSPropertyOp54
 70
     1
102
RTVSPropertyOp55
 70
     1
102
RTVSPropertyOp56
 70
     1
102
RTVSPropertyOp57
 70
     1
102
RTVSPropertyOp58
 70
     1
102
RTVSPropertyOp59
 70
     1
102
RTVSPropertyOp60
 70
     1
102
RTVSPropertyOp61
 70
     1
102
RTVSPropertyOp62
 70
     1
  0
XRECORD
  5
833
102
{ACAD_REACTORS
330
832
102
}
330
832
100
AcDbXrecord
280
     1
102
RTVSPost2010Prop28
280
     0
102
RTVSPost2010PropOp28
 70
     1
102
RTVSPost2010Prop29
280
     1
102
RTVSPost2010PropOp29
 70
     1
102
RTVSPost2010Prop30
280
     1
102
RTVSPost2010PropOp30
 70
     1
102
RTVSPost2010Prop31
280
     0
102
RTVSPost2010PropOp31
 70
     1
102
RTVSPost2010Prop32
280
     0
102
RTVSPost2010PropOp32
 70
     1
102
RTVSPost2010Prop33
280
     0
102
RTVSPost2010PropOp33
 70
     1
102
RTVSPost2010Prop34
280
     0
102
RTVSPost2010PropOp34
 70
     1
102
RTVSPost2010Prop35
280
     0
102
RTVSPost2010PropOp35
 70
     1
102
RTVSPost2010Prop36
280
     0
102
RTVSPost2010PropOp36
 70
     1
102
RTVSPost2010Prop37
 90
       50
102
RTVSPost2010PropOp37
 70
     1
102
RTVSPost2010Prop38
140
0.0
102
RTVSPost2010PropOp38
 70
     1
102
RTVSPost2010Prop39
140
1.0
102
RTVSPost2010PropOp39
 70
     1
102
RTVSPost2010Prop40
 90
        0
102
RTVSPost2010PropOp40
 70
     1
102
RTVSPost2010Prop41ColorIndex
 90
       18
102
RTVSPost2010Prop41ColorRGB
 90
        0
102
RTVSPost2010PropOp41
 70
     1
102
RTVSPost2010Prop42
 90
       50
102
RTVSPost2010PropOp42
 70
     1
102
RTVSPost2010Prop43
 90
        3
102
RTVSPost2010PropOp43
 70
     1
102
RTVSPost2010Prop44ColorIndex
 90
        5
102
RTVSPost2010Prop44ColorRGB
 90
      255
102
RTVSPost2010PropOp44
 70
     1
102
RTVSPost2010Prop45
280
     0
102
RTVSPost2010PropOp45
 70
     1
102
RTVSPost2010Prop46
 90
       50
102
RTVSPost2010PropOp46
 70
     1
102
RTVSPost2010Prop47
 90
       50
102
RTVSPost2010PropOp47
 70
     1
102
RTVSPost2010Prop48
 90
       50
102
RTVSPost2010PropOp48
 70
     1
102
RTVSPost2010Prop49
280
     0
102
RTVSPost2010PropOp49
 70
     1
102
RTVSPost2010Prop50
 90
       50
102
RTVSPost2010PropOp50
 70
     1
102
RTVSPost2010Prop51ColorIndex
 90
      256
102
RTVSPost2010Prop51ColorRGB
 90
-16777216
102
RTVSPost2010PropOp51
 70
     0
102
RTVSPost2010Prop52
140
1.0
102
RTVSPost2010PropOp52
 70
     0
102
RTVSPost2010Prop53
 90
        2
102
RTVSPost2010PropOp53
 70
     1
102
RTVSPost2010Prop54
  1
strokes_ogs.tif
102
RTVSPost2010PropOp54
 70
     1
102
RTVSPost2010Prop55
280
     0
102
RTVSPost2010PropOp55
 70
     1
102
RTVSPost2010Prop56
140
1.0
102
RTVSPost2010PropOp56
 70
     1
102
RTVSPost2010Prop57
140
1.0
102
RTVSPost2010PropOp57
 70
     1
102
RTVSPropertyOp0
 70
     1
102
RTVSPropertyOp1
 70
     1
102
RTVSPropertyOp2
 70
     1
102
RTVSPropertyOp3
 70
     1
102
RTVSPropertyOp4
 70
     1
102
RTVSPropertyOp5
 70
     1
102
RTVSPropertyOp6
 70
     1
102
RTVSPropertyOp7
 70
     1
102
RTVSPropertyOp8
 70
     1
102
RTVSPropertyOp9
 70
     1
102
RTVSPropertyOp10
 70
     1
102
RTVSPropertyOp11
 70
     1
102
RTVSPropertyOp12
 70
     1
102
RTVSPropertyOp13
 70
     1
102
RTVSPropertyOp14
 70
     1
102
RTVSPropertyOp15
 70
     1
102
RTVSPropertyOp16
 70
     1
102
RTVSPropertyOp17
 70
     1
102
RTVSPropertyOp18
 70
     1
102
RTVSPropertyOp19
 70
     1
102
RTVSPropertyOp20
 70
     1
102
RTVSPropertyOp21
 70
     1
102
RTVSPropertyOp22
 70
     1
102
RTVSPropertyOp23
 70
     1
102
RTVSPropertyOp24
 70
     1
102
RTVSPropertyOp25
 70
     1
102
RTVSPropertyOp26
 70
     1
102
RTVSPropertyOp27
 70
     1
102
RTVSPropertyOp28
 70
     1
102
RTVSPropertyOp29
 70
     1
102
RTVSPropertyOp30
 70
     1
102
RTVSPropertyOp31
 70
     1
102
RTVSPropertyOp32
 70
     1
102
RTVSPropertyOp33
 70
     1
102
RTVSPropertyOp34
 70
     1
102
RTVSPropertyOp35
 70
     1
102
RTVSPropertyOp36
 70
     1
102
RTVSPropertyOp37
 70
     1
102
RTVSPropertyOp38
 70
     1
102
RTVSPropertyOp39
 70
     1
102
RTVSPropertyOp40
 70
     1
102
RTVSPropertyOp41
 70
     1
102
RTVSPropertyOp42
 70
     1
102
RTVSPropertyOp43
 70
     1
102
RTVSPropertyOp44
 70
     1
102
RTVSPropertyOp45
 70
     1
102
RTVSPropertyOp46
 70
     1
102
RTVSPropertyOp47
 70
     1
102
RTVSPropertyOp48
 70
     1
102
RTVSPropertyOp49
 70
     1
102
RTVSPropertyOp50
 70
     1
102
RTVSPropertyOp51
 70
     0
102
RTVSPropertyOp52
 70
     0
102
RTVSPropertyOp53
 70
     1
102
RTVSPropertyOp54
 70
     1
102
RTVSPropertyOp55
 70
     1
102
RTVSPropertyOp56
 70
     1
102
RTVSPropertyOp57
 70
     1
102
RTVSPropertyOp58
 70
     1
102
RTVSPropertyOp59
 70
     1
102
RTVSPropertyOp60
 70
     1
102
RTVSPropertyOp61
 70
     1
102
RTVSPropertyOp62
 70
     1
  0
XRECORD
  5
831
102
{ACAD_REACTORS
330
830
102
}
330
830
100
AcDbXrecord
280
     1
102
RTVSPost2010Prop28
280
     0
102
RTVSPost2010PropOp28
 70
     1
102
RTVSPost2010Prop29
280
     1
102
RTVSPost2010PropOp29
 70
     1
102
RTVSPost2010Prop30
280
     1
102
RTVSPost2010PropOp30
 70
     1
102
RTVSPost2010Prop31
280
     0
102
RTVSPost2010PropOp31
 70
     1
102
RTVSPost2010Prop32
280
     0
102
RTVSPost2010PropOp32
 70
     1
102
RTVSPost2010Prop33
280
     0
102
RTVSPost2010PropOp33
 70
     1
102
RTVSPost2010Prop34
280
     0
102
RTVSPost2010PropOp34
 70
     1
102
RTVSPost2010Prop35
280
     0
102
RTVSPost2010PropOp35
 70
     1
102
RTVSPost2010Prop36
280
     0
102
RTVSPost2010PropOp36
 70
     1
102
RTVSPost2010Prop37
 90
       50
102
RTVSPost2010PropOp37
 70
     1
102
RTVSPost2010Prop38
140
0.0
102
RTVSPost2010PropOp38
 70
     1
102
RTVSPost2010Prop39
140
1.0
102
RTVSPost2010PropOp39
 70
     1
102
RTVSPost2010Prop40
 90
        0
102
RTVSPost2010PropOp40
 70
     1
102
RTVSPost2010Prop41ColorIndex
 90
       18
102
RTVSPost2010Prop41ColorRGB
 90
        0
102
RTVSPost2010PropOp41
 70
     1
102
RTVSPost2010Prop42
 90
       50
102
RTVSPost2010PropOp42
 70
     1
102
RTVSPost2010Prop43
 90
        3
102
RTVSPost2010PropOp43
 70
     1
102
RTVSPost2010Prop44ColorIndex
 90
        5
102
RTVSPost2010Prop44ColorRGB
 90
      255
102
RTVSPost2010PropOp44
 70
     1
102
RTVSPost2010Prop45
280
     0
102
RTVSPost2010PropOp45
 70
     1
102
RTVSPost2010Prop46
 90
       50
102
RTVSPost2010PropOp46
 70
     1
102
RTVSPost2010Prop47
 90
       50
102
RTVSPost2010PropOp47
 70
     1
102
RTVSPost2010Prop48
 90
       50
102
RTVSPost2010PropOp48
 70
     1
102
RTVSPost2010Prop49
280
     0
102
RTVSPost2010PropOp49
 70
     1
102
RTVSPost2010Prop50
 90
       50
102
RTVSPost2010PropOp50
 70
     1
102
RTVSPost2010Prop51ColorIndex
 90
      256
102
RTVSPost2010Prop51ColorRGB
 90
-16777216
102
RTVSPost2010PropOp51
 70
     0
102
RTVSPost2010Prop52
140
1.0
102
RTVSPost2010PropOp52
 70
     0
102
RTVSPost2010Prop53
 90
        2
102
RTVSPost2010PropOp53
 70
     1
102
RTVSPost2010Prop54
  1
strokes_ogs.tif
102
RTVSPost2010PropOp54
 70
     1
102
RTVSPost2010Prop55
280
     0
102
RTVSPost2010PropOp55
 70
     1
102
RTVSPost2010Prop56
140
1.0
102
RTVSPost2010PropOp56
 70
     1
102
RTVSPost2010Prop57
140
1.0
102
RTVSPost2010PropOp57
 70
     1
102
RTVSPropertyOp0
 70
     1
102
RTVSPropertyOp1
 70
     1
102
RTVSPropertyOp2
 70
     1
102
RTVSPropertyOp3
 70
     1
102
RTVSPropertyOp4
 70
     1
102
RTVSPropertyOp5
 70
     1
102
RTVSPropertyOp6
 70
     1
102
RTVSPropertyOp7
 70
     1
102
RTVSPropertyOp8
 70
     1
102
RTVSPropertyOp9
 70
     1
102
RTVSPropertyOp10
 70
     1
102
RTVSPropertyOp11
 70
     1
102
RTVSPropertyOp12
 70
     1
102
RTVSPropertyOp13
 70
     1
102
RTVSPropertyOp14
 70
     1
102
RTVSPropertyOp15
 70
     1
102
RTVSPropertyOp16
 70
     1
102
RTVSPropertyOp17
 70
     1
102
RTVSPropertyOp18
 70
     1
102
RTVSPropertyOp19
 70
     1
102
RTVSPropertyOp20
 70
     1
102
RTVSPropertyOp21
 70
     1
102
RTVSPropertyOp22
 70
     1
102
RTVSPropertyOp23
 70
     1
102
RTVSPropertyOp24
 70
     1
102
RTVSPropertyOp25
 70
     1
102
RTVSPropertyOp26
 70
     1
102
RTVSPropertyOp27
 70
     1
102
RTVSPropertyOp28
 70
     1
102
RTVSPropertyOp29
 70
     1
102
RTVSPropertyOp30
 70
     1
102
RTVSPropertyOp31
 70
     1
102
RTVSPropertyOp32
 70
     1
102
RTVSPropertyOp33
 70
     1
102
RTVSPropertyOp34
 70
     1
102
RTVSPropertyOp35
 70
     1
102
RTVSPropertyOp36
 70
     1
102
RTVSPropertyOp37
 70
     1
102
RTVSPropertyOp38
 70
     1
102
RTVSPropertyOp39
 70
     1
102
RTVSPropertyOp40
 70
     1
102
RTVSPropertyOp41
 70
     1
102
RTVSPropertyOp42
 70
     1
102
RTVSPropertyOp43
 70
     1
102
RTVSPropertyOp44
 70
     1
102
RTVSPropertyOp45
 70
     1
102
RTVSPropertyOp46
 70
     1
102
RTVSPropertyOp47
 70
     1
102
RTVSPropertyOp48
 70
     1
102
RTVSPropertyOp49
 70
     1
102
RTVSPropertyOp50
 70
     1
102
RTVSPropertyOp51
 70
     0
102
RTVSPropertyOp52
 70
     0
102
RTVSPropertyOp53
 70
     1
102
RTVSPropertyOp54
 70
     1
102
RTVSPropertyOp55
 70
     1
102
RTVSPropertyOp56
 70
     1
102
RTVSPropertyOp57
 70
     1
102
RTVSPropertyOp58
 70
     1
102
RTVSPropertyOp59
 70
     1
102
RTVSPropertyOp60
 70
     1
102
RTVSPropertyOp61
 70
     1
102
RTVSPropertyOp62
 70
     1
  0
XRECORD
  5
82B
102
{ACAD_REACTORS
330
82A
102
}
330
82A
100
AcDbXrecord
280
     1
102
RTVSPost2010Prop28
280
     0
102
RTVSPost2010PropOp28
 70
     1
102
RTVSPost2010Prop29
280
     1
102
RTVSPost2010PropOp29
 70
     1
102
RTVSPost2010Prop30
280
     1
102
RTVSPost2010PropOp30
 70
     1
102
RTVSPost2010Prop31
280
     0
102
RTVSPost2010PropOp31
 70
     1
102
RTVSPost2010Prop32
280
     0
102
RTVSPost2010PropOp32
 70
     1
102
RTVSPost2010Prop33
280
     0
102
RTVSPost2010PropOp33
 70
     1
102
RTVSPost2010Prop34
280
     0
102
RTVSPost2010PropOp34
 70
     1
102
RTVSPost2010Prop35
280
     0
102
RTVSPost2010PropOp35
 70
     1
102
RTVSPost2010Prop36
280
     0
102
RTVSPost2010PropOp36
 70
     1
102
RTVSPost2010Prop37
 90
       50
102
RTVSPost2010PropOp37
 70
     1
102
RTVSPost2010Prop38
140
0.0
102
RTVSPost2010PropOp38
 70
     1
102
RTVSPost2010Prop39
140
1.0
102
RTVSPost2010PropOp39
 70
     1
102
RTVSPost2010Prop40
 90
        0
102
RTVSPost2010PropOp40
 70
     1
102
RTVSPost2010Prop41ColorIndex
 90
       18
102
RTVSPost2010Prop41ColorRGB
 90
        0
102
RTVSPost2010PropOp41
 70
     1
102
RTVSPost2010Prop42
 90
       50
102
RTVSPost2010PropOp42
 70
     1
102
RTVSPost2010Prop43
 90
        3
102
RTVSPost2010PropOp43
 70
     1
102
RTVSPost2010Prop44ColorIndex
 90
        5
102
RTVSPost2010Prop44ColorRGB
 90
      255
102
RTVSPost2010PropOp44
 70
     1
102
RTVSPost2010Prop45
280
     0
102
RTVSPost2010PropOp45
 70
     1
102
RTVSPost2010Prop46
 90
       50
102
RTVSPost2010PropOp46
 70
     1
102
RTVSPost2010Prop47
 90
       50
102
RTVSPost2010PropOp47
 70
     1
102
RTVSPost2010Prop48
 90
       50
102
RTVSPost2010PropOp48
 70
     1
102
RTVSPost2010Prop49
280
     0
102
RTVSPost2010PropOp49
 70
     1
102
RTVSPost2010Prop50
 90
       50
102
RTVSPost2010PropOp50
 70
     1
102
RTVSPost2010Prop51ColorIndex
 90
      256
102
RTVSPost2010Prop51ColorRGB
 90
-16777216
102
RTVSPost2010PropOp51
 70
     0
102
RTVSPost2010Prop52
140
1.0
102
RTVSPost2010PropOp52
 70
     0
102
RTVSPost2010Prop53
 90
        2
102
RTVSPost2010PropOp53
 70
     1
102
RTVSPost2010Prop54
  1
strokes_ogs.tif
102
RTVSPost2010PropOp54
 70
     1
102
RTVSPost2010Prop55
280
     0
102
RTVSPost2010PropOp55
 70
     1
102
RTVSPost2010Prop56
140
1.0
102
RTVSPost2010PropOp56
 70
     1
102
RTVSPost2010Prop57
140
1.0
102
RTVSPost2010PropOp57
 70
     1
102
RTVSPropertyOp0
 70
     1
102
RTVSPropertyOp1
 70
     1
102
RTVSPropertyOp2
 70
     1
102
RTVSPropertyOp3
 70
     1
102
RTVSPropertyOp4
 70
     1
102
RTVSPropertyOp5
 70
     1
102
RTVSPropertyOp6
 70
     1
102
RTVSPropertyOp7
 70
     1
102
RTVSPropertyOp8
 70
     1
102
RTVSPropertyOp9
 70
     1
102
RTVSPropertyOp10
 70
     1
102
RTVSPropertyOp11
 70
     1
102
RTVSPropertyOp12
 70
     1
102
RTVSPropertyOp13
 70
     1
102
RTVSPropertyOp14
 70
     1
102
RTVSPropertyOp15
 70
     1
102
RTVSPropertyOp16
 70
     1
102
RTVSPropertyOp17
 70
     1
102
RTVSPropertyOp18
 70
     1
102
RTVSPropertyOp19
 70
     1
102
RTVSPropertyOp20
 70
     1
102
RTVSPropertyOp21
 70
     1
102
RTVSPropertyOp22
 70
     1
102
RTVSPropertyOp23
 70
     1
102
RTVSPropertyOp24
 70
     1
102
RTVSPropertyOp25
 70
     1
102
RTVSPropertyOp26
 70
     1
102
RTVSPropertyOp27
 70
     1
102
RTVSPropertyOp28
 70
     1
102
RTVSPropertyOp29
 70
     1
102
RTVSPropertyOp30
 70
     1
102
RTVSPropertyOp31
 70
     1
102
RTVSPropertyOp32
 70
     1
102
RTVSPropertyOp33
 70
     1
102
RTVSPropertyOp34
 70
     1
102
RTVSPropertyOp35
 70
     1
102
RTVSPropertyOp36
 70
     1
102
RTVSPropertyOp37
 70
     1
102
RTVSPropertyOp38
 70
     1
102
RTVSPropertyOp39
 70
     1
102
RTVSPropertyOp40
 70
     1
102
RTVSPropertyOp41
 70
     1
102
RTVSPropertyOp42
 70
     1
102
RTVSPropertyOp43
 70
     1
102
RTVSPropertyOp44
 70
     1
102
RTVSPropertyOp45
 70
     1
102
RTVSPropertyOp46
 70
     1
102
RTVSPropertyOp47
 70
     1
102
RTVSPropertyOp48
 70
     1
102
RTVSPropertyOp49
 70
     1
102
RTVSPropertyOp50
 70
     1
102
RTVSPropertyOp51
 70
     0
102
RTVSPropertyOp52
 70
     0
102
RTVSPropertyOp53
 70
     1
102
RTVSPropertyOp54
 70
     1
102
RTVSPropertyOp55
 70
     1
102
RTVSPropertyOp56
 70
     1
102
RTVSPropertyOp57
 70
     1
102
RTVSPropertyOp58
 70
     1
102
RTVSPropertyOp59
 70
     1
102
RTVSPropertyOp60
 70
     1
102
RTVSPropertyOp61
 70
     1
102
RTVSPropertyOp62
 70
     1
  0
XRECORD
  5
82D
102
{ACAD_REACTORS
330
82C
102
}
330
82C
100
AcDbXrecord
280
     1
102
RTVSPost2010Prop28
280
     0
102
RTVSPost2010PropOp28
 70
     1
102
RTVSPost2010Prop29
280
     1
102
RTVSPost2010PropOp29
 70
     1
102
RTVSPost2010Prop30
280
     1
102
RTVSPost2010PropOp30
 70
     1
102
RTVSPost2010Prop31
280
     0
102
RTVSPost2010PropOp31
 70
     1
102
RTVSPost2010Prop32
280
     0
102
RTVSPost2010PropOp32
 70
     1
102
RTVSPost2010Prop33
280
     0
102
RTVSPost2010PropOp33
 70
     1
102
RTVSPost2010Prop34
280
     0
102
RTVSPost2010PropOp34
 70
     1
102
RTVSPost2010Prop35
280
     0
102
RTVSPost2010PropOp35
 70
     1
102
RTVSPost2010Prop36
280
     0
102
RTVSPost2010PropOp36
 70
     1
102
RTVSPost2010Prop37
 90
       50
102
RTVSPost2010PropOp37
 70
     1
102
RTVSPost2010Prop38
140
0.0
102
RTVSPost2010PropOp38
 70
     1
102
RTVSPost2010Prop39
140
1.0
102
RTVSPost2010PropOp39
 70
     1
102
RTVSPost2010Prop40
 90
        0
102
RTVSPost2010PropOp40
 70
     1
102
RTVSPost2010Prop41ColorIndex
 90
       18
102
RTVSPost2010Prop41ColorRGB
 90
        0
102
RTVSPost2010PropOp41
 70
     1
102
RTVSPost2010Prop42
 90
       50
102
RTVSPost2010PropOp42
 70
     1
102
RTVSPost2010Prop43
 90
        3
102
RTVSPost2010PropOp43
 70
     1
102
RTVSPost2010Prop44ColorIndex
 90
        5
102
RTVSPost2010Prop44ColorRGB
 90
      255
102
RTVSPost2010PropOp44
 70
     1
102
RTVSPost2010Prop45
280
     0
102
RTVSPost2010PropOp45
 70
     1
102
RTVSPost2010Prop46
 90
       50
102
RTVSPost2010PropOp46
 70
     1
102
RTVSPost2010Prop47
 90
       50
102
RTVSPost2010PropOp47
 70
     1
102
RTVSPost2010Prop48
 90
       50
102
RTVSPost2010PropOp48
 70
     1
102
RTVSPost2010Prop49
280
     0
102
RTVSPost2010PropOp49
 70
     1
102
RTVSPost2010Prop50
 90
       50
102
RTVSPost2010PropOp50
 70
     1
102
RTVSPost2010Prop51ColorIndex
 90
      256
102
RTVSPost2010Prop51ColorRGB
 90
-16777216
102
RTVSPost2010PropOp51
 70
     0
102
RTVSPost2010Prop52
140
1.0
102
RTVSPost2010PropOp52
 70
     0
102
RTVSPost2010Prop53
 90
        2
102
RTVSPost2010PropOp53
 70
     1
102
RTVSPost2010Prop54
  1
strokes_ogs.tif
102
RTVSPost2010PropOp54
 70
     1
102
RTVSPost2010Prop55
280
     0
102
RTVSPost2010PropOp55
 70
     1
102
RTVSPost2010Prop56
140
1.0
102
RTVSPost2010PropOp56
 70
     1
102
RTVSPost2010Prop57
140
1.0
102
RTVSPost2010PropOp57
 70
     1
102
RTVSPropertyOp0
 70
     1
102
RTVSPropertyOp1
 70
     1
102
RTVSPropertyOp2
 70
     1
102
RTVSPropertyOp3
 70
     1
102
RTVSPropertyOp4
 70
     1
102
RTVSPropertyOp5
 70
     1
102
RTVSPropertyOp6
 70
     1
102
RTVSPropertyOp7
 70
     1
102
RTVSPropertyOp8
 70
     1
102
RTVSPropertyOp9
 70
     1
102
RTVSPropertyOp10
 70
     1
102
RTVSPropertyOp11
 70
     1
102
RTVSPropertyOp12
 70
     1
102
RTVSPropertyOp13
 70
     1
102
RTVSPropertyOp14
 70
     1
102
RTVSPropertyOp15
 70
     1
102
RTVSPropertyOp16
 70
     1
102
RTVSPropertyOp17
 70
     1
102
RTVSPropertyOp18
 70
     1
102
RTVSPropertyOp19
 70
     1
102
RTVSPropertyOp20
 70
     1
102
RTVSPropertyOp21
 70
     1
102
RTVSPropertyOp22
 70
     1
102
RTVSPropertyOp23
 70
     1
102
RTVSPropertyOp24
 70
     1
102
RTVSPropertyOp25
 70
     1
102
RTVSPropertyOp26
 70
     1
102
RTVSPropertyOp27
 70
     1
102
RTVSPropertyOp28
 70
     1
102
RTVSPropertyOp29
 70
     1
102
RTVSPropertyOp30
 70
     1
102
RTVSPropertyOp31
 70
     1
102
RTVSPropertyOp32
 70
     1
102
RTVSPropertyOp33
 70
     1
102
RTVSPropertyOp34
 70
     1
102
RTVSPropertyOp35
 70
     1
102
RTVSPropertyOp36
 70
     1
102
RTVSPropertyOp37
 70
     1
102
RTVSPropertyOp38
 70
     1
102
RTVSPropertyOp39
 70
     1
102
RTVSPropertyOp40
 70
     1
102
RTVSPropertyOp41
 70
     1
102
RTVSPropertyOp42
 70
     1
102
RTVSPropertyOp43
 70
     1
102
RTVSPropertyOp44
 70
     1
102
RTVSPropertyOp45
 70
     1
102
RTVSPropertyOp46
 70
     1
102
RTVSPropertyOp47
 70
     1
102
RTVSPropertyOp48
 70
     1
102
RTVSPropertyOp49
 70
     1
102
RTVSPropertyOp50
 70
     1
102
RTVSPropertyOp51
 70
     0
102
RTVSPropertyOp52
 70
     0
102
RTVSPropertyOp53
 70
     1
102
RTVSPropertyOp54
 70
     1
102
RTVSPropertyOp55
 70
     1
102
RTVSPropertyOp56
 70
     1
102
RTVSPropertyOp57
 70
     1
102
RTVSPropertyOp58
 70
     1
102
RTVSPropertyOp59
 70
     1
102
RTVSPropertyOp60
 70
     1
102
RTVSPropertyOp61
 70
     1
102
RTVSPropertyOp62
 70
     1
  0
XRECORD
  5
823
102
{ACAD_REACTORS
330
822
102
}
330
822
100
AcDbXrecord
280
     1
102
RTVSPost2010Prop28
280
     0
102
RTVSPost2010PropOp28
 70
     1
102
RTVSPost2010Prop29
280
     1
102
RTVSPost2010PropOp29
 70
     1
102
RTVSPost2010Prop30
280
     1
102
RTVSPost2010PropOp30
 70
     1
102
RTVSPost2010Prop31
280
     0
102
RTVSPost2010PropOp31
 70
     1
102
RTVSPost2010Prop32
280
     0
102
RTVSPost2010PropOp32
 70
     1
102
RTVSPost2010Prop33
280
     0
102
RTVSPost2010PropOp33
 70
     1
102
RTVSPost2010Prop34
280
     0
102
RTVSPost2010PropOp34
 70
     1
102
RTVSPost2010Prop35
280
     0
102
RTVSPost2010PropOp35
 70
     1
102
RTVSPost2010Prop36
280
     0
102
RTVSPost2010PropOp36
 70
     1
102
RTVSPost2010Prop37
 90
       50
102
RTVSPost2010PropOp37
 70
     1
102
RTVSPost2010Prop38
140
0.0
102
RTVSPost2010PropOp38
 70
     1
102
RTVSPost2010Prop39
140
1.0
102
RTVSPost2010PropOp39
 70
     1
102
RTVSPost2010Prop40
 90
        0
102
RTVSPost2010PropOp40
 70
     1
102
RTVSPost2010Prop41ColorIndex
 90
       18
102
RTVSPost2010Prop41ColorRGB
 90
        0
102
RTVSPost2010PropOp41
 70
     1
102
RTVSPost2010Prop42
 90
       50
102
RTVSPost2010PropOp42
 70
     1
102
RTVSPost2010Prop43
 90
        3
102
RTVSPost2010PropOp43
 70
     1
102
RTVSPost2010Prop44ColorIndex
 90
        5
102
RTVSPost2010Prop44ColorRGB
 90
      255
102
RTVSPost2010PropOp44
 70
     1
102
RTVSPost2010Prop45
280
     0
102
RTVSPost2010PropOp45
 70
     1
102
RTVSPost2010Prop46
 90
       50
102
RTVSPost2010PropOp46
 70
     1
102
RTVSPost2010Prop47
 90
       50
102
RTVSPost2010PropOp47
 70
     1
102
RTVSPost2010Prop48
 90
       50
102
RTVSPost2010PropOp48
 70
     1
102
RTVSPost2010Prop49
280
     0
102
RTVSPost2010PropOp49
 70
     1
102
RTVSPost2010Prop50
 90
       50
102
RTVSPost2010PropOp50
 70
     1
102
RTVSPost2010Prop51ColorIndex
 90
      256
102
RTVSPost2010Prop51ColorRGB
 90
-16777216
102
RTVSPost2010PropOp51
 70
     0
102
RTVSPost2010Prop52
140
1.0
102
RTVSPost2010PropOp52
 70
     0
102
RTVSPost2010Prop53
 90
        2
102
RTVSPost2010PropOp53
 70
     1
102
RTVSPost2010Prop54
  1
strokes_ogs.tif
102
RTVSPost2010PropOp54
 70
     1
102
RTVSPost2010Prop55
280
     0
102
RTVSPost2010PropOp55
 70
     1
102
RTVSPost2010Prop56
140
1.0
102
RTVSPost2010PropOp56
 70
     1
102
RTVSPost2010Prop57
140
1.0
102
RTVSPost2010PropOp57
 70
     1
102
RTVSPropertyOp0
 70
     1
102
RTVSPropertyOp1
 70
     1
102
RTVSPropertyOp2
 70
     1
102
RTVSPropertyOp3
 70
     1
102
RTVSPropertyOp4
 70
     1
102
RTVSPropertyOp5
 70
     1
102
RTVSPropertyOp6
 70
     1
102
RTVSPropertyOp7
 70
     1
102
RTVSPropertyOp8
 70
     1
102
RTVSPropertyOp9
 70
     1
102
RTVSPropertyOp10
 70
     1
102
RTVSPropertyOp11
 70
     1
102
RTVSPropertyOp12
 70
     1
102
RTVSPropertyOp13
 70
     1
102
RTVSPropertyOp14
 70
     1
102
RTVSPropertyOp15
 70
     1
102
RTVSPropertyOp16
 70
     1
102
RTVSPropertyOp17
 70
     1
102
RTVSPropertyOp18
 70
     1
102
RTVSPropertyOp19
 70
     1
102
RTVSPropertyOp20
 70
     1
102
RTVSPropertyOp21
 70
     1
102
RTVSPropertyOp22
 70
     1
102
RTVSPropertyOp23
 70
     1
102
RTVSPropertyOp24
 70
     1
102
RTVSPropertyOp25
 70
     1
102
RTVSPropertyOp26
 70
     1
102
RTVSPropertyOp27
 70
     1
102
RTVSPropertyOp28
 70
     1
102
RTVSPropertyOp29
 70
     1
102
RTVSPropertyOp30
 70
     1
102
RTVSPropertyOp31
 70
     1
102
RTVSPropertyOp32
 70
     1
102
RTVSPropertyOp33
 70
     1
102
RTVSPropertyOp34
 70
     1
102
RTVSPropertyOp35
 70
     1
102
RTVSPropertyOp36
 70
     1
102
RTVSPropertyOp37
 70
     1
102
RTVSPropertyOp38
 70
     1
102
RTVSPropertyOp39
 70
     1
102
RTVSPropertyOp40
 70
     1
102
RTVSPropertyOp41
 70
     1
102
RTVSPropertyOp42
 70
     1
102
RTVSPropertyOp43
 70
     1
102
RTVSPropertyOp44
 70
     1
102
RTVSPropertyOp45
 70
     1
102
RTVSPropertyOp46
 70
     1
102
RTVSPropertyOp47
 70
     1
102
RTVSPropertyOp48
 70
     1
102
RTVSPropertyOp49
 70
     1
102
RTVSPropertyOp50
 70
     1
102
RTVSPropertyOp51
 70
     0
102
RTVSPropertyOp52
 70
     0
102
RTVSPropertyOp53
 70
     1
102
RTVSPropertyOp54
 70
     1
102
RTVSPropertyOp55
 70
     1
102
RTVSPropertyOp56
 70
     1
102
RTVSPropertyOp57
 70
     1
102
RTVSPropertyOp58
 70
     1
102
RTVSPropertyOp59
 70
     1
102
RTVSPropertyOp60
 70
     1
102
RTVSPropertyOp61
 70
     1
102
RTVSPropertyOp62
 70
     1
  0
XRECORD
  5
817
102
{ACAD_REACTORS
330
816
102
}
330
816
100
AcDbXrecord
280
     1
102
RTVSPost2010Prop28
280
     0
102
RTVSPost2010PropOp28
 70
     1
102
RTVSPost2010Prop29
280
     1
102
RTVSPost2010PropOp29
 70
     1
102
RTVSPost2010Prop30
280
     1
102
RTVSPost2010PropOp30
 70
     1
102
RTVSPost2010Prop31
280
     0
102
RTVSPost2010PropOp31
 70
     1
102
RTVSPost2010Prop32
280
     0
102
RTVSPost2010PropOp32
 70
     1
102
RTVSPost2010Prop33
280
     0
102
RTVSPost2010PropOp33
 70
     1
102
RTVSPost2010Prop34
280
     0
102
RTVSPost2010PropOp34
 70
     1
102
RTVSPost2010Prop35
280
     0
102
RTVSPost2010PropOp35
 70
     1
102
RTVSPost2010Prop36
280
     0
102
RTVSPost2010PropOp36
 70
     1
102
RTVSPost2010Prop37
 90
       50
102
RTVSPost2010PropOp37
 70
     1
102
RTVSPost2010Prop38
140
0.0
102
RTVSPost2010PropOp38
 70
     1
102
RTVSPost2010Prop39
140
1.0
102
RTVSPost2010PropOp39
 70
     1
102
RTVSPost2010Prop40
 90
        0
102
RTVSPost2010PropOp40
 70
     1
102
RTVSPost2010Prop41ColorIndex
 90
       18
102
RTVSPost2010Prop41ColorRGB
 90
        0
102
RTVSPost2010PropOp41
 70
     1
102
RTVSPost2010Prop42
 90
       50
102
RTVSPost2010PropOp42
 70
     1
102
RTVSPost2010Prop43
 90
        3
102
RTVSPost2010PropOp43
 70
     1
102
RTVSPost2010Prop44ColorIndex
 90
        5
102
RTVSPost2010Prop44ColorRGB
 90
      255
102
RTVSPost2010PropOp44
 70
     1
102
RTVSPost2010Prop45
280
     0
102
RTVSPost2010PropOp45
 70
     1
102
RTVSPost2010Prop46
 90
       50
102
RTVSPost2010PropOp46
 70
     1
102
RTVSPost2010Prop47
 90
       50
102
RTVSPost2010PropOp47
 70
     1
102
RTVSPost2010Prop48
 90
       50
102
RTVSPost2010PropOp48
 70
     1
102
RTVSPost2010Prop49
280
     0
102
RTVSPost2010PropOp49
 70
     1
102
RTVSPost2010Prop50
 90
       50
102
RTVSPost2010PropOp50
 70
     1
102
RTVSPost2010Prop51ColorIndex
 90
      256
102
RTVSPost2010Prop51ColorRGB
 90
-16777216
102
RTVSPost2010PropOp51
 70
     0
102
RTVSPost2010Prop52
140
1.0
102
RTVSPost2010PropOp52
 70
     0
102
RTVSPost2010Prop53
 90
        2
102
RTVSPost2010PropOp53
 70
     1
102
RTVSPost2010Prop54
  1
strokes_ogs.tif
102
RTVSPost2010PropOp54
 70
     1
102
RTVSPost2010Prop55
280
     0
102
RTVSPost2010PropOp55
 70
     1
102
RTVSPost2010Prop56
140
1.0
102
RTVSPost2010PropOp56
 70
     1
102
RTVSPost2010Prop57
140
1.0
102
RTVSPost2010PropOp57
 70
     1
102
RTVSPropertyOp0
 70
     1
102
RTVSPropertyOp1
 70
     1
102
RTVSPropertyOp2
 70
     1
102
RTVSPropertyOp3
 70
     1
102
RTVSPropertyOp4
 70
     1
102
RTVSPropertyOp5
 70
     1
102
RTVSPropertyOp6
 70
     1
102
RTVSPropertyOp7
 70
     1
102
RTVSPropertyOp8
 70
     1
102
RTVSPropertyOp9
 70
     1
102
RTVSPropertyOp10
 70
     1
102
RTVSPropertyOp11
 70
     1
102
RTVSPropertyOp12
 70
     1
102
RTVSPropertyOp13
 70
     1
102
RTVSPropertyOp14
 70
     1
102
RTVSPropertyOp15
 70
     1
102
RTVSPropertyOp16
 70
     1
102
RTVSPropertyOp17
 70
     1
102
RTVSPropertyOp18
 70
     1
102
RTVSPropertyOp19
 70
     1
102
RTVSPropertyOp20
 70
     1
102
RTVSPropertyOp21
 70
     1
102
RTVSPropertyOp22
 70
     1
102
RTVSPropertyOp23
 70
     1
102
RTVSPropertyOp24
 70
     1
102
RTVSPropertyOp25
 70
     1
102
RTVSPropertyOp26
 70
     1
102
RTVSPropertyOp27
 70
     1
102
RTVSPropertyOp28
 70
     1
102
RTVSPropertyOp29
 70
     1
102
RTVSPropertyOp30
 70
     1
102
RTVSPropertyOp31
 70
     1
102
RTVSPropertyOp32
 70
     1
102
RTVSPropertyOp33
 70
     1
102
RTVSPropertyOp34
 70
     1
102
RTVSPropertyOp35
 70
     1
102
RTVSPropertyOp36
 70
     1
102
RTVSPropertyOp37
 70
     1
102
RTVSPropertyOp38
 70
     1
102
RTVSPropertyOp39
 70
     1
102
RTVSPropertyOp40
 70
     1
102
RTVSPropertyOp41
 70
     1
102
RTVSPropertyOp42
 70
     1
102
RTVSPropertyOp43
 70
     1
102
RTVSPropertyOp44
 70
     1
102
RTVSPropertyOp45
 70
     1
102
RTVSPropertyOp46
 70
     1
102
RTVSPropertyOp47
 70
     1
102
RTVSPropertyOp48
 70
     1
102
RTVSPropertyOp49
 70
     1
102
RTVSPropertyOp50
 70
     1
102
RTVSPropertyOp51
 70
     0
102
RTVSPropertyOp52
 70
     0
102
RTVSPropertyOp53
 70
     1
102
RTVSPropertyOp54
 70
     1
102
RTVSPropertyOp55
 70
     1
102
RTVSPropertyOp56
 70
     1
102
RTVSPropertyOp57
 70
     1
102
RTVSPropertyOp58
 70
     1
102
RTVSPropertyOp59
 70
     1
102
RTVSPropertyOp60
 70
     1
102
RTVSPropertyOp61
 70
     1
102
RTVSPropertyOp62
 70
     1
  0
XRECORD
  5
82F
102
{ACAD_REACTORS
330
82E
102
}
330
82E
100
AcDbXrecord
280
     1
102
RTVSPost2010Prop28
280
     0
102
RTVSPost2010PropOp28
 70
     1
102
RTVSPost2010Prop29
280
     1
102
RTVSPost2010PropOp29
 70
     1
102
RTVSPost2010Prop30
280
     1
102
RTVSPost2010PropOp30
 70
     1
102
RTVSPost2010Prop31
280
     0
102
RTVSPost2010PropOp31
 70
     1
102
RTVSPost2010Prop32
280
     0
102
RTVSPost2010PropOp32
 70
     1
102
RTVSPost2010Prop33
280
     0
102
RTVSPost2010PropOp33
 70
     1
102
RTVSPost2010Prop34
280
     0
102
RTVSPost2010PropOp34
 70
     1
102
RTVSPost2010Prop35
280
     0
102
RTVSPost2010PropOp35
 70
     1
102
RTVSPost2010Prop36
280
     0
102
RTVSPost2010PropOp36
 70
     1
102
RTVSPost2010Prop37
 90
       50
102
RTVSPost2010PropOp37
 70
     1
102
RTVSPost2010Prop38
140
0.0
102
RTVSPost2010PropOp38
 70
     1
102
RTVSPost2010Prop39
140
1.0
102
RTVSPost2010PropOp39
 70
     1
102
RTVSPost2010Prop40
 90
        0
102
RTVSPost2010PropOp40
 70
     1
102
RTVSPost2010Prop41ColorIndex
 90
       18
102
RTVSPost2010Prop41ColorRGB
 90
        0
102
RTVSPost2010PropOp41
 70
     1
102
RTVSPost2010Prop42
 90
       50
102
RTVSPost2010PropOp42
 70
     1
102
RTVSPost2010Prop43
 90
        3
102
RTVSPost2010PropOp43
 70
     1
102
RTVSPost2010Prop44ColorIndex
 90
        5
102
RTVSPost2010Prop44ColorRGB
 90
      255
102
RTVSPost2010PropOp44
 70
     1
102
RTVSPost2010Prop45
280
     0
102
RTVSPost2010PropOp45
 70
     1
102
RTVSPost2010Prop46
 90
       50
102
RTVSPost2010PropOp46
 70
     1
102
RTVSPost2010Prop47
 90
       50
102
RTVSPost2010PropOp47
 70
     1
102
RTVSPost2010Prop48
 90
       50
102
RTVSPost2010PropOp48
 70
     1
102
RTVSPost2010Prop49
280
     0
102
RTVSPost2010PropOp49
 70
     1
102
RTVSPost2010Prop50
 90
       50
102
RTVSPost2010PropOp50
 70
     1
102
RTVSPost2010Prop51ColorIndex
 90
      256
102
RTVSPost2010Prop51ColorRGB
 90
-16777216
102
RTVSPost2010PropOp51
 70
     0
102
RTVSPost2010Prop52
140
1.0
102
RTVSPost2010PropOp52
 70
     0
102
RTVSPost2010Prop53
 90
        2
102
RTVSPost2010PropOp53
 70
     1
102
RTVSPost2010Prop54
  1
strokes_ogs.tif
102
RTVSPost2010PropOp54
 70
     1
102
RTVSPost2010Prop55
280
     0
102
RTVSPost2010PropOp55
 70
     1
102
RTVSPost2010Prop56
140
1.0
102
RTVSPost2010PropOp56
 70
     1
102
RTVSPost2010Prop57
140
1.0
102
RTVSPost2010PropOp57
 70
     1
102
RTVSPropertyOp0
 70
     1
102
RTVSPropertyOp1
 70
     1
102
RTVSPropertyOp2
 70
     1
102
RTVSPropertyOp3
 70
     1
102
RTVSPropertyOp4
 70
     1
102
RTVSPropertyOp5
 70
     1
102
RTVSPropertyOp6
 70
     1
102
RTVSPropertyOp7
 70
     1
102
RTVSPropertyOp8
 70
     1
102
RTVSPropertyOp9
 70
     1
102
RTVSPropertyOp10
 70
     1
102
RTVSPropertyOp11
 70
     1
102
RTVSPropertyOp12
 70
     1
102
RTVSPropertyOp13
 70
     1
102
RTVSPropertyOp14
 70
     1
102
RTVSPropertyOp15
 70
     1
102
RTVSPropertyOp16
 70
     1
102
RTVSPropertyOp17
 70
     1
102
RTVSPropertyOp18
 70
     1
102
RTVSPropertyOp19
 70
     1
102
RTVSPropertyOp20
 70
     1
102
RTVSPropertyOp21
 70
     1
102
RTVSPropertyOp22
 70
     1
102
RTVSPropertyOp23
 70
     1
102
RTVSPropertyOp24
 70
     1
102
RTVSPropertyOp25
 70
     1
102
RTVSPropertyOp26
 70
     1
102
RTVSPropertyOp27
 70
     1
102
RTVSPropertyOp28
 70
     1
102
RTVSPropertyOp29
 70
     1
102
RTVSPropertyOp30
 70
     1
102
RTVSPropertyOp31
 70
     1
102
RTVSPropertyOp32
 70
     1
102
RTVSPropertyOp33
 70
     1
102
RTVSPropertyOp34
 70
     1
102
RTVSPropertyOp35
 70
     1
102
RTVSPropertyOp36
 70
     1
102
RTVSPropertyOp37
 70
     1
102
RTVSPropertyOp38
 70
     1
102
RTVSPropertyOp39
 70
     1
102
RTVSPropertyOp40
 70
     1
102
RTVSPropertyOp41
 70
     1
102
RTVSPropertyOp42
 70
     1
102
RTVSPropertyOp43
 70
     1
102
RTVSPropertyOp44
 70
     1
102
RTVSPropertyOp45
 70
     1
102
RTVSPropertyOp46
 70
     1
102
RTVSPropertyOp47
 70
     1
102
RTVSPropertyOp48
 70
     1
102
RTVSPropertyOp49
 70
     1
102
RTVSPropertyOp50
 70
     1
102
RTVSPropertyOp51
 70
     0
102
RTVSPropertyOp52
 70
     0
102
RTVSPropertyOp53
 70
     1
102
RTVSPropertyOp54
 70
     1
102
RTVSPropertyOp55
 70
     1
102
RTVSPropertyOp56
 70
     1
102
RTVSPropertyOp57
 70
     1
102
RTVSPropertyOp58
 70
     1
102
RTVSPropertyOp59
 70
     1
102
RTVSPropertyOp60
 70
     1
102
RTVSPropertyOp61
 70
     1
102
RTVSPropertyOp62
 70
     1
  0
ENDSEC
  0
EOF
